  0
SECTION
  2
HEADER
  9
$ACADVER
  1
AC1015
  9
$ACADMAINTVER
 70
    20
  9
$DWGCODEPAGE
  3
ANSI_932
  9
$INSBASE
 10
0.0
 20
0.0
 30
0.0
  9
$EXTMIN
 10
9.9999975266385
 20
10.0
 30
0.0
  9
$EXTMAX
 10
283.0204668620536
 20
199.621322846575
 30
0.0
  9
$LIMMIN
 10
0.0000015376081137
 20
-0.0000001931532552
  9
$LIMMAX
 10
346.0000015376081
 20
238.5303028371496
  9
$ORTHOMODE
 70
     0
  9
$REGENMODE
 70
     1
  9
$FILLMODE
 70
     1
  9
$QTEXTMODE
 70
     0
  9
$MIRRTEXT
 70
     1
  9
$LTSCALE
 40
1.0
  9
$ATTMODE
 70
     1
  9
$TEXTSIZE
 40
2.5
  9
$TRACEWID
 40
1.0
  9
$TEXTSTYLE
  7
STANDARD
  9
$CLAYER
  8
0
  9
$CELTYPE
  6
ByLayer
  9
$CECOLOR
 62
   256
  9
$CELTSCALE
 40
1.0
  9
$DISPSILH
 70
     0
  9
$DIMSCALE
 40
1.0
  9
$DIMASZ
 40
3.0
  9
$DIMEXO
 40
1.0
  9
$DIMDLI
 40
10.0
  9
$DIMRND
 40
0.0
  9
$DIMDLE
 40
0.0
  9
$DIMEXE
 40
1.0
  9
$DIMTP
 40
0.0
  9
$DIMTM
 40
0.0
  9
$DIMTXT
 40
2.5
  9
$DIMCEN
 40
0.0
  9
$DIMTSZ
 40
0.0
  9
$DIMTOL
 70
     0
  9
$DIMLIM
 70
     0
  9
$DIMTIH
 70
     0
  9
$DIMTOH
 70
     0
  9
$DIMSE1
 70
     0
  9
$DIMSE2
 70
     0
  9
$DIMTAD
 70
     3
  9
$DIMZIN
 70
     8
  9
$DIMBLK
  1

  9
$DIMASO
 70
     1
  9
$DIMSHO
 70
     1
  9
$DIMPOST
  1

  9
$DIMAPOST
  1

  9
$DIMALT
 70
     0
  9
$DIMALTD
 70
     2
  9
$DIMALTF
 40
25.4
  9
$DIMLFAC
 40
1.0
  9
$DIMTOFL
 70
     1
  9
$DIMTVP
 40
0.0
  9
$DIMTIX
 70
     0
  9
$DIMSOXD
 70
     0
  9
$DIMSAH
 70
     1
  9
$DIMBLK1
  1
OPEN
  9
$DIMBLK2
  1
OPEN
  9
$DIMSTYLE
  2
STANDARD
  9
$DIMCLRD
 70
     0
  9
$DIMCLRE
 70
     0
  9
$DIMCLRT
 70
     0
  9
$DIMTFAC
 40
1.0
  9
$DIMGAP
 40
1.0
  9
$DIMJUST
 70
     0
  9
$DIMSD1
 70
     0
  9
$DIMSD2
 70
     0
  9
$DIMTOLJ
 70
     1
  9
$DIMTZIN
 70
     0
  9
$DIMALTZ
 70
     0
  9
$DIMALTTZ
 70
     0
  9
$DIMUPT
 70
     0
  9
$DIMDEC
 70
     4
  9
$DIMTDEC
 70
     4
  9
$DIMALTU
 70
     2
  9
$DIMALTTD
 70
     2
  9
$DIMTXSTY
  7
STANDARD
  9
$DIMAUNIT
 70
     0
  9
$DIMADEC
 70
     0
  9
$DIMALTRND
 40
0.0
  9
$DIMAZIN
 70
     0
  9
$DIMDSEP
 70
    46
  9
$DIMATFIT
 70
     3
  9
$DIMFRAC
 70
     0
  9
$DIMLDRBLK
  1
OPEN
  9
$DIMLUNIT
 70
     2
  9
$DIMLWD
 70
    -2
  9
$DIMLWE
 70
    -2
  9
$DIMTMOVE
 70
     0
  9
$LUNITS
 70
     2
  9
$LUPREC
 70
     4
  9
$SKETCHINC
 40
1.0
  9
$FILLETRAD
 40
1.5
  9
$AUNITS
 70
     0
  9
$AUPREC
 70
     0
  9
$MENU
  1
.
  9
$ELEVATION
 40
0.0
  9
$PELEVATION
 40
0.0
  9
$THICKNESS
 40
0.0
  9
$LIMCHECK
 70
     0
  9
$CHAMFERA
 40
10.0
  9
$CHAMFERB
 40
10.0
  9
$CHAMFERC
 40
0.0
  9
$CHAMFERD
 40
0.0
  9
$SKPOLY
 70
     0
  9
$TDCREATE
 40
2456304.467866632
  9
$TDUCREATE
 40
2456304.092866632
  9
$TDUPDATE
 40
2457192.616985671
  9
$TDUUPDATE
 40
2457192.241985671
  9
$TDINDWG
 40
0.0293125347
  9
$TDUSRTIMER
 40
0.0293125347
  9
$USRTIMER
 70
     1
  9
$ANGBASE
 50
0.0
  9
$ANGDIR
 70
     0
  9
$PDMODE
 70
     0
  9
$PDSIZE
 40
0.0
  9
$PLINEWID
 40
0.0
  9
$SPLFRAME
 70
     0
  9
$SPLINETYPE
 70
     6
  9
$SPLINESEGS
 70
     8
  9
$HANDSEED
  5
DFA
  9
$SURFTAB1
 70
     6
  9
$SURFTAB2
 70
     6
  9
$SURFTYPE
 70
     6
  9
$SURFU
 70
     6
  9
$SURFV
 70
     6
  9
$UCSBASE
  2

  9
$UCSNAME
  2

  9
$UCSORG
 10
0.0
 20
0.0
 30
0.0
  9
$UCSXDIR
 10
1.0
 20
0.0
 30
0.0
  9
$UCSYDIR
 10
0.0
 20
1.0
 30
0.0
  9
$UCSORTHOREF
  2

  9
$UCSORTHOVIEW
 70
     0
  9
$UCSORGTOP
 10
0.0
 20
0.0
 30
0.0
  9
$UCSORGBOTTOM
 10
0.0
 20
0.0
 30
0.0
  9
$UCSORGLEFT
 10
0.0
 20
0.0
 30
0.0
  9
$UCSORGRIGHT
 10
0.0
 20
0.0
 30
0.0
  9
$UCSORGFRONT
 10
0.0
 20
0.0
 30
0.0
  9
$UCSORGBACK
 10
0.0
 20
0.0
 30
0.0
  9
$PUCSBASE
  2

  9
$PUCSNAME
  2

  9
$PUCSORG
 10
0.0
 20
0.0
 30
0.0
  9
$PUCSXDIR
 10
1.0
 20
0.0
 30
0.0
  9
$PUCSYDIR
 10
0.0
 20
1.0
 30
0.0
  9
$PUCSORTHOREF
  2

  9
$PUCSORTHOVIEW
 70
     0
  9
$PUCSORGTOP
 10
0.0
 20
0.0
 30
0.0
  9
$PUCSORGBOTTOM
 10
0.0
 20
0.0
 30
0.0
  9
$PUCSORGLEFT
 10
0.0
 20
0.0
 30
0.0
  9
$PUCSORGRIGHT
 10
0.0
 20
0.0
 30
0.0
  9
$PUCSORGFRONT
 10
0.0
 20
0.0
 30
0.0
  9
$PUCSORGBACK
 10
0.0
 20
0.0
 30
0.0
  9
$USERI1
 70
     0
  9
$USERI2
 70
     0
  9
$USERI3
 70
     0
  9
$USERI4
 70
     0
  9
$USERI5
 70
     0
  9
$USERR1
 40
0.0
  9
$USERR2
 40
0.0
  9
$USERR3
 40
0.0
  9
$USERR4
 40
0.0
  9
$USERR5
 40
0.0
  9
$WORLDVIEW
 70
     1
  9
$SHADEDGE
 70
     3
  9
$SHADEDIF
 70
    70
  9
$TILEMODE
 70
     1
  9
$MAXACTVP
 70
    48
  9
$PINSBASE
 10
0.0
 20
0.0
 30
0.0
  9
$PLIMCHECK
 70
     0
  9
$PEXTMIN
 10
1.000000000000000E+20
 20
1.000000000000000E+20
 30
1.000000000000000E+20
  9
$PEXTMAX
 10
-1.000000000000000E+20
 20
-1.000000000000000E+20
 30
-1.000000000000000E+20
  9
$PLIMMIN
 10
0.0
 20
0.0
  9
$PLIMMAX
 10
420.0
 20
297.0
  9
$UNITMODE
 70
     0
  9
$VISRETAIN
 70
     1
  9
$PLINEGEN
 70
     0
  9
$PSLTSCALE
 70
     1
  9
$TREEDEPTH
 70
  3020
  9
$CMLSTYLE
  2
Standard
  9
$CMLJUST
 70
     0
  9
$CMLSCALE
 40
1.0
  9
$PROXYGRAPHICS
 70
     1
  9
$MEASUREMENT
 70
     0
  9
$CELWEIGHT
370
    -1
  9
$ENDCAPS
280
     0
  9
$JOINSTYLE
280
     0
  9
$LWDISPLAY
290
     0
  9
$INSUNITS
 70
     0
  9
$HYPERLINKBASE
  1

  9
$STYLESHEET
  1

  9
$XEDIT
290
     1
  9
$CEPSNTYPE
380
     0
  9
$PSTYLEMODE
290
     1
  9
$FINGERPRINTGUID
  2
{10FF35A7-6CA2-47A1-80AB-11E0FDEA324A}
  9
$VERSIONGUID
  2
{B65F02A8-D051-44C1-949D-E251E201D059}
  9
$EXTNAMES
290
     1
  9
$PSVPSCALE
 40
0.0
  9
$OLESTARTUP
290
     0
  0
ENDSEC
  0
SECTION
  2
CLASSES
  0
CLASS
  1
ACDBDICTIONARYWDFLT
  2
AcDbDictionaryWithDefault
  3
ObjectDBX Classes
 90
        0
280
     0
281
     0
  0
CLASS
  1
MATERIAL
  2
AcDbMaterial
  3
ObjectDBX Classes
 90
     1153
280
     0
281
     0
  0
CLASS
  1
VISUALSTYLE
  2
AcDbVisualStyle
  3
ObjectDBX Classes
 90
     4095
280
     0
281
     0
  0
CLASS
  1
SCALE
  2
AcDbScale
  3
ObjectDBX Classes
 90
     1153
280
     0
281
     0
  0
CLASS
  1
TABLESTYLE
  2
AcDbTableStyle
  3
ObjectDBX Classes
 90
     4095
280
     0
281
     0
  0
CLASS
  1
MLEADERSTYLE
  2
AcDbMLeaderStyle
  3
ACDB_MLEADERSTYLE_CLASS
 90
     4095
280
     0
281
     0
  0
CLASS
  1
ACDBSECTIONVIEWSTYLE
  2
AcDbSectionViewStyle
  3
ObjectDBX Classes
 90
     1025
280
     0
281
     0
  0
CLASS
  1
ACDBDETAILVIEWSTYLE
  2
AcDbDetailViewStyle
  3
ObjectDBX Classes
 90
     1025
280
     0
281
     0
  0
CLASS
  1
DICTIONARYVAR
  2
AcDbDictionaryVar
  3
ObjectDBX Classes
 90
        0
280
     0
281
     0
  0
CLASS
  1
CELLSTYLEMAP
  2
AcDbCellStyleMap
  3
ObjectDBX Classes
 90
     1152
280
     0
281
     0
  0
CLASS
  1
ACDBPLACEHOLDER
  2
AcDbPlaceHolder
  3
ObjectDBX Classes
 90
        0
280
     0
281
     0
  0
CLASS
  1
LAYOUT
  2
AcDbLayout
  3
ObjectDBX Classes
 90
        0
280
     0
281
     0
  0
ENDSEC
  0
SECTION
  2
TABLES
  0
TABLE
  2
VPORT
  5
D1D
330
0
100
AcDbSymbolTable
 70
     1
  0
VPORT
  5
D88
330
D1D
100
AcDbSymbolTableRecord
100
AcDbViewportTableRecord
  2
*ACTIVE
 70
     0
 10
0.0
 20
0.0
 11
1.0
 21
1.0
 12
225.061096836179
 22
104.8065088431446
 13
0.0
 23
0.0
 14
10.0
 24
10.0
 15
10.0
 25
10.0
 16
0.0
 26
0.0
 36
1.0
 17
0.0
 27
0.0
 37
0.0
 40
191.1133426289732
 41
1.899603698811096
 42
50.0
 43
0.0
 44
0.0
 50
0.0
 51
0.0
 71
     0
 72
   100
 73
     1
 74
     0
 75
     0
 76
     0
 77
     0
 78
     0
281
     0
 65
     1
110
0.0
120
0.0
130
0.0
111
1.0
121
0.0
131
0.0
112
0.0
122
1.0
132
0.0
 79
     0
146
0.0
1001
ACAD_NAV_VCDISPLAY
1070
     3
  0
ENDTAB
  0
TABLE
  2
LTYPE
  5
D1A
330
0
100
AcDbSymbolTable
 70
     4
  0
LTYPE
  5
D6F
330
D1A
100
AcDbSymbolTableRecord
100
AcDbLinetypeTableRecord
  2
ByBlock
 70
     0
  3

 72
    65
 73
     0
 40
0.0
  0
LTYPE
  5
D70
330
D1A
100
AcDbSymbolTableRecord
100
AcDbLinetypeTableRecord
  2
ByLayer
 70
     0
  3

 72
    65
 73
     0
 40
0.0
  0
LTYPE
  5
D71
330
D1A
100
AcDbSymbolTableRecord
100
AcDbLinetypeTableRecord
  2
CONTINUOUS
 70
     0
  3
Solid line
 72
    65
 73
     0
 40
0.0
  0
LTYPE
  5
D89
330
D1A
100
AcDbSymbolTableRecord
100
AcDbLinetypeTableRecord
  2
DASHED
 70
     0
  3
Dashed __ __ __ __ __ __ __ __ __ __ __ __ __ _
 72
    65
 73
     2
 40
19.04999999999999
 49
12.7
 74
     0
 49
-6.349999999999998
 74
     0
  0
LTYPE
  5
D8A
330
D1A
100
AcDbSymbolTableRecord
100
AcDbLinetypeTableRecord
  2
CENTER
 70
     0
  3
Center ____ _ ____ _ ____ _ ____ _ ____ _ ____
 72
    65
 73
     4
 40
50.8
 49
31.75
 74
     0
 49
-6.349999999999998
 74
     0
 49
6.349999999999998
 74
     0
 49
-6.349999999999998
 74
     0
  0
LTYPE
  5
D8B
330
D1A
100
AcDbSymbolTableRecord
100
AcDbLinetypeTableRecord
  2
PHANTOM
 70
     0
  3
Phantom ______  __  __  ______  __  __  ______
 72
    65
 73
     6
 40
63.5
 49
31.75
 74
     0
 49
-6.349999999999998
 74
     0
 49
6.349999999999998
 74
     0
 49
-6.349999999999998
 74
     0
 49
6.349999999999998
 74
     0
 49
-6.349999999999998
 74
     0
  0
ENDTAB
  0
TABLE
  2
LAYER
  5
D17
330
0
100
AcDbSymbolTable
 70
     8
  0
LAYER
  5
D69
102
{ACAD_XDICTIONARY
360
D9E
102
}
330
D17
100
AcDbSymbolTableRecord
100
AcDbLayerTableRecord
  2
0
 70
     0
 62
     7
  6
CONTINUOUS
370
    -3
390
D24
  0
LAYER
  5
D8C
102
{ACAD_XDICTIONARY
360
DA0
102
}
330
D17
100
AcDbSymbolTableRecord
100
AcDbLayerTableRecord
  2
4
 70
     0
 62
     1
  6
CENTER
370
    -3
390
D24
  0
LAYER
  5
D8D
102
{ACAD_XDICTIONARY
360
DA2
102
}
330
D17
100
AcDbSymbolTableRecord
100
AcDbLayerTableRecord
  2
5
 70
     0
 62
     6
  6
PHANTOM
370
    -3
390
D24
  0
LAYER
  5
D8E
102
{ACAD_XDICTIONARY
360
DA4
102
}
330
D17
100
AcDbSymbolTableRecord
100
AcDbLayerTableRecord
  2
1
 70
     0
 62
     7
  6
CONTINUOUS
370
    -3
390
D24
  0
LAYER
  5
D8F
102
{ACAD_XDICTIONARY
360
DA6
102
}
330
D17
100
AcDbSymbolTableRecord
100
AcDbLayerTableRecord
  2
2
 70
     0
 62
     4
  6
CONTINUOUS
370
    -3
390
D24
  0
LAYER
  5
D90
102
{ACAD_XDICTIONARY
360
DA8
102
}
330
D17
100
AcDbSymbolTableRecord
100
AcDbLayerTableRecord
  2
3
 70
     0
 62
     2
  6
DASHED
370
    -3
390
D24
  0
LAYER
  5
D91
102
{ACAD_XDICTIONARY
360
DAA
102
}
330
D17
100
AcDbSymbolTableRecord
100
AcDbLayerTableRecord
  2
6
 70
     0
 62
     5
  6
CONTINUOUS
370
    -3
390
D24
  0
LAYER
  5
D92
102
{ACAD_XDICTIONARY
360
DAC
102
}
330
D17
100
AcDbSymbolTableRecord
100
AcDbLayerTableRecord
  2
7
 70
     0
 62
     3
  6
CONTINUOUS
370
    -3
390
D24
  0
ENDTAB
  0
TABLE
  2
STYLE
  5
D18
330
0
100
AcDbSymbolTable
 70
     2
  0
STYLE
  5
D6A
330
D18
100
AcDbSymbolTableRecord
100
AcDbTextStyleTableRecord
  2
STANDARD
 70
     0
 40
0.0
 41
1.0
 50
0.0
 71
     0
 42
2.5
  3
simplex.shx
  4

  0
STYLE
  5
D6E
330
D18
100
AcDbSymbolTableRecord
100
AcDbTextStyleTableRecord
  2
Annotative
 70
     0
 40
0.0
 41
1.0
 50
0.0
 71
     0
 42
0.2
  3
txt
  4

1001
AcadAnnotative
1000
AnnotativeData
1002
{
1070
     1
1070
     1
1002
}
  0
ENDTAB
  0
TABLE
  2
VIEW
  5
D1B
330
0
100
AcDbSymbolTable
 70
     0
  0
ENDTAB
  0
TABLE
  2
UCS
  5
D1C
330
0
100
AcDbSymbolTable
 70
     0
  0
ENDTAB
  0
TABLE
  2
APPID
  5
D1E
330
0
100
AcDbSymbolTable
 70
     6
  0
APPID
  5
D6B
330
D1E
100
AcDbSymbolTableRecord
100
AcDbRegAppTableRecord
  2
ACAD
 70
     0
  0
APPID
  5
D72
330
D1E
100
AcDbSymbolTableRecord
100
AcDbRegAppTableRecord
  2
AcadAnnotative
 70
     0
  0
APPID
  5
D93
330
D1E
100
AcDbSymbolTableRecord
100
AcDbRegAppTableRecord
  2
CONTENTTABDATA
 70
     0
  0
APPID
  5
D94
330
D1E
100
AcDbSymbolTableRecord
100
AcDbRegAppTableRecord
  2
CONTENTCURRENTTAB
 70
     0
  0
APPID
  5
DB8
330
D1E
100
AcDbSymbolTableRecord
100
AcDbRegAppTableRecord
  2
ACAD_NAV_VCDISPLAY
 70
     0
  0
APPID
  5
DF1
330
D1E
100
AcDbSymbolTableRecord
100
AcDbRegAppTableRecord
  2
ACAD_MLEADERVER
 70
     0
  0
ENDTAB
  0
TABLE
  2
DIMSTYLE
  5
D1F
330
0
100
AcDbSymbolTable
 70
     2
100
AcDbDimStyleTable
 71
     0
  0
DIMSTYLE
105
D6C
330
D1F
100
AcDbSymbolTableRecord
100
AcDbDimStyleTableRecord
  2
STANDARD
 70
     0
 41
3.0
 42
1.0
 43
10.0
 44
1.0
 73
     0
 74
     0
 77
     3
 78
     8
140
2.5
141
0.0
147
1.0
172
     1
173
     1
279
     2
284
     8
285
     8
286
     8
340
D6A
  0
DIMSTYLE
105
D6D
330
D1F
100
AcDbSymbolTableRecord
100
AcDbDimStyleTableRecord
  2
Annotative
 70
     0
340
D6A
1001
AcadAnnotative
1000
AnnotativeData
1002
{
1070
     1
1070
     1
1002
}
  0
ENDTAB
  0
TABLE
  2
BLOCK_RECORD
  5
D16
330
0
100
AcDbSymbolTable
 70
     3
  0
BLOCK_RECORD
  5
D84
330
D16
100
AcDbSymbolTableRecord
100
AcDbBlockTableRecord
  2
*Model_Space
340
D87
  0
BLOCK_RECORD
  5
D80
330
D16
100
AcDbSymbolTableRecord
100
AcDbBlockTableRecord
  2
*Paper_Space
340
D83
  0
BLOCK_RECORD
  5
D97
330
D16
100
AcDbSymbolTableRecord
100
AcDbBlockTableRecord
  2
$MODEL_SPACE
340
0
  0
BLOCK_RECORD
  5
D99
330
D16
100
AcDbSymbolTableRecord
100
AcDbBlockTableRecord
  2
$PAPER_SPACE
340
0
  0
BLOCK_RECORD
  5
D9B
330
D16
100
AcDbSymbolTableRecord
100
AcDbBlockTableRecord
  2
_OPEN
340
0
  0
ENDTAB
  0
ENDSEC
  0
SECTION
  2
BLOCKS
  0
BLOCK
  5
D85
330
D84
100
AcDbEntity
  8
0
100
AcDbBlockBegin
  2
*Model_Space
 70
     0
 10
0.0
 20
0.0
 30
0.0
  3
*Model_Space
  1

  0
ENDBLK
  5
D86
330
D84
100
AcDbEntity
  8
0
100
AcDbBlockEnd
  0
BLOCK
  5
D81
330
D80
100
AcDbEntity
 67
     1
  8
0
100
AcDbBlockBegin
  2
*Paper_Space
 70
     0
 10
0.0
 20
0.0
 30
0.0
  3
*Paper_Space
  1

  0
ENDBLK
  5
D82
330
D80
100
AcDbEntity
 67
     1
  8
0
100
AcDbBlockEnd
  0
BLOCK
  5
D98
330
D97
100
AcDbEntity
  8
0
100
AcDbBlockBegin
  2
$MODEL_SPACE
 70
     0
 10
0.0
 20
0.0
 30
0.0
  3
$MODEL_SPACE
  1

  0
ENDBLK
  5
1A
330
D97
100
AcDbEntity
  8
0
100
AcDbBlockEnd
  0
BLOCK
  5
D9A
330
D99
100
AcDbEntity
  8
0
100
AcDbBlockBegin
  2
$PAPER_SPACE
 70
     0
 10
0.0
 20
0.0
 30
0.0
  3
$PAPER_SPACE
  1

  0
ENDBLK
  5
17
330
D99
100
AcDbEntity
  8
0
100
AcDbBlockEnd
  0
BLOCK
  5
D9C
330
D9B
100
AcDbEntity
  8
0
100
AcDbBlockBegin
  2
_OPEN
 70
     0
 10
0.0
 20
0.0
 30
0.0
  3
_OPEN
  1

  0
LINE
  5
30
330
D9B
100
AcDbEntity
  8
0
  6
ByBlock
 62
     0
100
AcDbLine
 10
-1.0
 20
0.1666666666666666
 30
0.0
 11
0.0
 21
0.0
 31
0.0
  0
LINE
  5
31
330
D9B
100
AcDbEntity
  8
0
  6
ByBlock
 62
     0
100
AcDbLine
 10
0.0
 20
0.0
 30
0.0
 11
-1.0
 21
-0.1666666666666666
 31
0.0
  0
LINE
  5
32
330
D9B
100
AcDbEntity
  8
0
  6
ByBlock
 62
     0
100
AcDbLine
 10
0.0
 20
0.0
 30
0.0
 11
-1.0
 21
0.0
 31
0.0
  0
ENDBLK
  5
33
330
D9B
100
AcDbEntity
  8
0
100
AcDbBlockEnd
  0
ENDSEC
  0
SECTION
  2
ENTITIES
  0
TEXT
  5
63
330
D84
100
AcDbEntity
  8
4
  6
CENTER
100
AcDbText
 10
23.97950852663849
 20
10.0
 30
0.0
 40
1.399999999999999
  1
4
100
AcDbText
  0
TEXT
  5
64
330
D84
100
AcDbEntity
  8
7
  6
Continuous
100
AcDbText
 10
9.999997526638502
 20
26.0000007607689
 30
0.0
 40
3.0
  1
CODE No.2798
100
AcDbText
  0
TEXT
  5
65
330
D84
100
AcDbEntity
  8
7
  6
Continuous
100
AcDbText
 10
9.999997526638502
 20
18.00000076076889
 30
0.0
 40
3.0
  1
TYPE No.TH-166
100
AcDbText
  0
TEXT
  5
66
330
D84
100
AcDbEntity
  8
1
  6
Continuous
100
AcDbText
 10
9.999997526638502
 20
10.00000076076889
 30
0.0
 40
1.399999999999999
  1
LAYER
100
AcDbText
  0
TEXT
  5
67
330
D84
100
AcDbEntity
  8
2
  6
Continuous
100
AcDbText
 10
19.9795085266385
 20
10.0
 30
0.0
 40
1.399999999999999
  1
2
100
AcDbText
  0
TEXT
  5
68
330
D84
100
AcDbEntity
  8
3
  6
DASHED
100
AcDbText
 10
21.9795085266385
 20
10.0
 30
0.0
 40
1.399999999999999
  1
3
100
AcDbText
  0
TEXT
  5
69
330
D84
100
AcDbEntity
  8
1
  6
Continuous
100
AcDbText
 10
17.9795085266385
 20
10.0
 30
0.0
 40
1.399999999999999
  1
1
100
AcDbText
  0
TEXT
  5
6A
330
D84
100
AcDbEntity
  8
5
  6
PHANTOM
100
AcDbText
 10
25.9795085266385
 20
10.0
 30
0.0
 40
1.399999999999999
  1
5
100
AcDbText
  0
TEXT
  5
6B
330
D84
100
AcDbEntity
  8
6
  6
Continuous
100
AcDbText
 10
27.9795085266385
 20
10.0
 30
0.0
 40
1.399999999999999
  1
6
100
AcDbText
  0
TEXT
  5
6C
330
D84
100
AcDbEntity
  8
7
  6
Continuous
100
AcDbText
 10
29.9795085266385
 20
10.0
 30
0.0
 40
1.399999999999999
  1
7
100
AcDbText
  0
LINE
  5
168
330
D84
100
AcDbEntity
  8
1
  6
Continuous
100
AcDbLine
 10
38.05195084403703
 20
142.509715850717
 30
0.0
 11
40.95195069073702
 21
142.509715850717
 31
0.0
  0
LINE
  5
169
330
D84
100
AcDbEntity
  8
1
  6
Continuous
100
AcDbLine
 10
35.80195082443703
 20
142.1097165302169
 30
0.0
 11
43.201950826737
 21
142.1097165302169
 31
0.0
  0
LINE
  5
16A
330
D84
100
AcDbEntity
  8
1
  6
Continuous
100
AcDbLine
 10
34.52701375913702
 20
132.7097166658171
 30
0.0
 11
44.00195063183701
 21
132.7097166658171
 31
0.0
  0
LINE
  5
16B
330
D84
100
AcDbEntity
  8
1
  6
Continuous
100
AcDbLine
 10
35.00195101933702
 20
132.7097166658171
 30
0.0
 11
35.00195101933702
 21
129.909716765617
 31
0.0
  0
LINE
  5
16C
330
D84
100
AcDbEntity
  8
1
  6
Continuous
100
AcDbLine
 10
44.00195063183701
 20
109.509716029517
 30
0.0
 11
44.00195063183701
 21
103.509715977317
 31
0.0
  0
LINE
  5
16D
330
D84
100
AcDbEntity
  8
1
  6
Continuous
100
AcDbLine
 10
44.00195063183701
 20
132.7097166658171
 30
0.0
 11
44.00195063183701
 21
126.709716613617
 31
0.0
  0
LINE
  5
16E
330
D84
100
AcDbEntity
  8
1
  6
Continuous
100
AcDbLine
 10
34.201950981337
 20
105.5097163052171
 30
0.0
 11
44.00195063183701
 21
105.5097163052171
 31
0.0
  0
LINE
  5
16F
330
D84
100
AcDbEntity
  8
1
  6
Continuous
100
AcDbLine
 10
35.00195101933702
 20
106.309715877517
 30
0.0
 11
35.00195101933702
 21
103.509715977317
 31
0.0
  0
LINE
  5
170
330
D84
100
AcDbEntity
  8
1
  6
Continuous
100
AcDbLine
 10
34.201950981337
 20
103.509715977317
 30
0.0
 11
44.00195063183701
 21
103.509715977317
 31
0.0
  0
LINE
  5
171
330
D84
100
AcDbEntity
  8
1
  6
Continuous
100
AcDbLine
 10
35.00195101933702
 20
103.009715895417
 30
0.0
 11
44.00195063183701
 21
103.009715895417
 31
0.0
  0
LINE
  5
172
330
D84
100
AcDbEntity
  8
1
  6
Continuous
100
AcDbLine
 10
35.80195082443703
 20
94.10971611291708
 30
0.0
 11
43.201950826737
 21
94.10971611291708
 31
0.0
  0
LINE
  5
173
330
D84
100
AcDbEntity
  8
1
  6
Continuous
100
AcDbLine
 10
34.201950981337
 20
103.509715977317
 30
0.0
 11
34.201950981337
 21
94.10971611291708
 31
0.0
  0
LINE
  5
174
330
D84
100
AcDbEntity
  8
1
  6
Continuous
100
AcDbLine
 10
31.701951037137
 20
94.10971611291708
 30
0.0
 11
34.201950981337
 21
94.10971611291708
 31
0.0
  0
LINE
  5
175
330
D84
100
AcDbEntity
  8
1
  6
Continuous
100
AcDbLine
 10
33.70195089933702
 20
142.1097165302169
 30
0.0
 11
33.70195089933702
 21
94.10971611291708
 31
0.0
  0
LINE
  5
176
330
D84
100
AcDbEntity
  8
1
  6
Continuous
100
AcDbLine
 10
34.201950981337
 20
142.1097165302169
 30
0.0
 11
34.201950981337
 21
132.7097166658171
 31
0.0
  0
LINE
  5
177
330
D84
100
AcDbEntity
  8
1
  6
Continuous
100
AcDbLine
 10
31.701951037137
 20
142.1097165302169
 30
0.0
 11
34.201950981337
 21
142.1097165302169
 31
0.0
  0
LINE
  5
178
330
D84
100
AcDbEntity
  8
1
  6
Continuous
100
AcDbLine
 10
31.701951037137
 20
142.1097165302169
 30
0.0
 11
31.701951037137
 21
94.10971611291708
 31
0.0
  0
LINE
  5
179
330
D84
100
AcDbEntity
  8
1
  6
Continuous
100
AcDbLine
 10
34.201950981337
 20
130.709716337917
 30
0.0
 11
44.00195063183701
 21
130.709716337917
 31
0.0
  0
LINE
  5
17A
330
D84
100
AcDbEntity
  8
1
  6
Continuous
100
AcDbLine
 10
33.70195089933702
 20
129.909716765617
 30
0.0
 11
44.00195063183701
 21
129.909716765617
 31
0.0
  0
LINE
  5
17B
330
D84
100
AcDbEntity
  8
1
  6
Continuous
100
AcDbLine
 10
33.70195089933702
 20
127.909716437817
 30
0.0
 11
44.00195063183701
 21
127.909716437817
 31
0.0
  0
LINE
  5
17C
330
D84
100
AcDbEntity
  8
1
  6
Continuous
100
AcDbLine
 10
33.70195089933702
 20
108.309716205317
 30
0.0
 11
44.00195063183701
 21
108.309716205317
 31
0.0
  0
LINE
  5
17D
330
D84
100
AcDbEntity
  8
1
  6
Continuous
100
AcDbLine
 10
33.70195089933702
 20
106.309715877517
 30
0.0
 11
44.00195063183701
 21
106.309715877517
 31
0.0
  0
LINE
  5
17E
330
D84
100
AcDbEntity
  8
4
  6
CENTER
100
AcDbLine
 10
30.201951037137
 20
101.109716321617
 30
0.0
 11
35.20195089933703
 21
101.109716321617
 31
0.0
  0
LINE
  5
17F
330
D84
100
AcDbEntity
  8
4
  6
CENTER
100
AcDbLine
 10
30.201951037137
 20
135.109716321617
 30
0.0
 11
35.20195089933703
 21
135.109716321617
 31
0.0
  0
LINE
  5
180
330
D84
100
AcDbEntity
  8
4
  6
CENTER
100
AcDbLine
 10
39.50195082553699
 20
145.009715850717
 30
0.0
 11
39.50195082553699
 21
91.20971679241709
 31
0.0
  0
LINE
  5
181
330
D84
100
AcDbEntity
  8
4
  6
CENTER
100
AcDbLine
 10
46.50195063183701
 20
118.109716321617
 30
0.0
 11
29.201951037137
 21
118.109716321617
 31
0.0
  0
LINE
  5
182
330
D84
100
AcDbEntity
  8
1
  6
Continuous
100
AcDbLine
 10
33.81177012903715
 20
105.4712871418171
 30
0.0
 11
33.70212924763701
 21
105.446254122317
 31
0.0
  0
LINE
  5
183
330
D84
100
AcDbEntity
  8
1
  6
Continuous
100
AcDbLine
 10
34.201950981337
 20
105.5097163052169
 30
0.0
 11
33.81177012903703
 21
105.4712871418169
 31
0.0
  0
LINE
  5
184
330
D84
100
AcDbEntity
  8
1
  6
Continuous
100
AcDbLine
 10
34.52701375913702
 20
132.7097166658171
 30
0.0
 11
34.201950981337
 21
132.7097166658171
 31
0.0
  0
LINE
  5
185
330
D84
100
AcDbEntity
  8
1
  6
Continuous
100
AcDbLine
 10
33.81177012903703
 20
130.7481455013171
 30
0.0
 11
34.201950981337
 21
130.7097163379171
 31
0.0
  0
LINE
  5
186
330
D84
100
AcDbEntity
  8
1
  6
Continuous
100
AcDbLine
 10
33.70212924763701
 20
130.7731785208171
 30
0.0
 11
33.81177012903703
 21
130.7481455013171
 31
0.0
  0
LINE
  5
187
330
D84
100
AcDbEntity
  8
1
  6
Continuous
100
AcDbLine
 10
43.70195067583701
 20
126.409716191917
 30
0.0
 11
35.30195097533701
 21
126.409716191917
 31
0.0
  0
LINE
  5
188
330
D84
100
AcDbEntity
  8
1
  6
Continuous
100
AcDbLine
 10
35.00195101933702
 20
126.709716613617
 30
0.0
 11
44.00195063183701
 21
126.709716613617
 31
0.0
  0
LINE
  5
189
330
D84
100
AcDbEntity
  8
1
  6
Continuous
100
AcDbLine
 10
40.95195069073702
 20
93.70971679241709
 30
0.0
 11
38.05195084403703
 21
93.70971679241709
 31
0.0
  0
LINE
  5
18A
330
D84
100
AcDbEntity
  8
1
  6
Continuous
100
AcDbLine
 10
35.30195097533701
 20
109.8097164512171
 30
0.0
 11
43.70195067583701
 21
109.8097164512171
 31
0.0
  0
LINE
  5
18B
330
D84
100
AcDbEntity
  8
1
  6
Continuous
100
AcDbLine
 10
44.00195063183701
 20
109.509716029517
 30
0.0
 11
35.00195101933702
 21
109.509716029517
 31
0.0
  0
LINE
  5
18C
330
D84
100
AcDbEntity
  8
1
  6
Continuous
100
AcDbLine
 10
44.00195063183701
 20
133.209716747717
 30
0.0
 11
35.00195101933702
 21
133.209716747717
 31
0.0
  0
LINE
  5
18D
330
D84
100
AcDbEntity
  8
1
  6
Continuous
100
AcDbLine
 10
37.75195077153702
 20
142.209716360317
 30
0.0
 11
37.75195077153702
 21
142.1097165302169
 31
0.0
  0
LINE
  5
18E
330
D84
100
AcDbEntity
  8
1
  6
Continuous
100
AcDbLine
 10
41.251950879637
 20
142.1097165302169
 30
0.0
 11
41.251950879637
 21
142.209716360317
 31
0.0
  0
ARC
  5
18F
330
D84
100
AcDbEntity
  8
1
  6
Continuous
100
AcDbCircle
 10
40.95195082553703
 20
142.2097163216171
 30
0.0
 40
0.3000000000000114
100
AcDbArc
 50
0.0
 51
89.99999999999998
  0
ARC
  5
190
330
D84
100
AcDbEntity
  8
1
  6
Continuous
100
AcDbCircle
 10
38.051950825537
 20
142.2097163216171
 30
0.0
 40
0.3000000000000114
100
AcDbArc
 50
89.99999999999998
 51
180.0
  0
LINE
  5
191
330
D84
100
AcDbEntity
  8
1
  6
Continuous
100
AcDbLine
 10
43.7019506758371
 20
126.409716191917
 30
0.0
 11
44.00195063183713
 21
126.709716613617
 31
0.0
  0
LINE
  5
192
330
D84
100
AcDbEntity
  8
1
  6
Continuous
100
AcDbLine
 10
35.00195101933702
 20
126.709716613617
 30
0.0
 11
35.30195097533701
 21
126.409716191917
 31
0.0
  0
LINE
  5
193
330
D84
100
AcDbEntity
  8
1
  6
Continuous
100
AcDbLine
 10
35.00195101933702
 20
127.909716437817
 30
0.0
 11
35.00195101933702
 21
126.709716613617
 31
0.0
  0
LINE
  5
194
330
D84
100
AcDbEntity
  8
1
  6
Continuous
100
AcDbLine
 10
41.251950879637
 20
94.00971628281707
 30
0.0
 11
41.251950879637
 21
94.10971611291708
 31
0.0
  0
LINE
  5
195
330
D84
100
AcDbEntity
  8
1
  6
Continuous
100
AcDbLine
 10
37.75195077153702
 20
94.10971611291708
 30
0.0
 11
37.75195077153702
 21
94.00971628281707
 31
0.0
  0
ARC
  5
196
330
D84
100
AcDbEntity
  8
1
  6
Continuous
100
AcDbCircle
 10
38.05195082553698
 20
94.00971632161706
 30
0.0
 40
0.3000000000000114
100
AcDbArc
 50
180.0
 51
270.0
  0
ARC
  5
197
330
D84
100
AcDbEntity
  8
1
  6
Continuous
100
AcDbCircle
 10
40.95195082553701
 20
94.00971632161706
 30
0.0
 40
0.3000000000000114
100
AcDbArc
 50
270.0
 51
0.0
  0
LINE
  5
198
330
D84
100
AcDbEntity
  8
1
  6
Continuous
100
AcDbLine
 10
35.30195097533701
 20
109.8097164512171
 30
0.0
 11
35.00195101933702
 21
109.509716029517
 31
0.0
  0
LINE
  5
199
330
D84
100
AcDbEntity
  8
1
  6
Continuous
100
AcDbLine
 10
44.00195063183701
 20
109.509716029517
 30
0.0
 11
43.70195067583701
 21
109.8097164512171
 31
0.0
  0
LINE
  5
19A
330
D84
100
AcDbEntity
  8
1
  6
Continuous
100
AcDbLine
 10
35.00195101933702
 20
109.509716029517
 30
0.0
 11
35.00195101933702
 21
108.309716205317
 31
0.0
  0
LINE
  5
19B
330
D84
100
AcDbEntity
  8
1
  6
Continuous
100
AcDbLine
 10
43.251950741737
 20
103.009715895417
 30
0.0
 11
43.251950741737
 21
103.509715977317
 31
0.0
  0
LINE
  5
19C
330
D84
100
AcDbEntity
  8
1
  6
Continuous
100
AcDbLine
 10
35.75195090943704
 20
103.509715977317
 30
0.0
 11
35.75195090943704
 21
103.009715895417
 31
0.0
  0
LINE
  5
19D
330
D84
100
AcDbEntity
  8
1
  6
Continuous
100
AcDbLine
 10
43.251950741737
 20
132.7097166658171
 30
0.0
 11
43.251950741737
 21
133.209716747717
 31
0.0
  0
LINE
  5
19E
330
D84
100
AcDbEntity
  8
1
  6
Continuous
100
AcDbLine
 10
35.75195090943704
 20
133.209716747717
 30
0.0
 11
35.75195090943704
 21
132.7097166658171
 31
0.0
  0
LINE
  5
19F
330
D84
100
AcDbEntity
  8
1
  6
Continuous
100
AcDbLine
 10
44.00195063183701
 20
94.90971661661708
 30
0.0
 11
44.00195063183701
 21
103.009715895417
 31
0.0
  0
LINE
  5
1A0
330
D84
100
AcDbEntity
  8
1
  6
Continuous
100
AcDbLine
 10
35.00195101933702
 20
103.009715895417
 30
0.0
 11
35.00195101933702
 21
94.90971661661708
 31
0.0
  0
ARC
  5
1A1
330
D84
100
AcDbEntity
  8
1
  6
Continuous
100
AcDbCircle
 10
43.201950825537
 20
94.90971632161707
 30
0.0
 40
0.8000000000000111
100
AcDbArc
 50
270.0
 51
0.0
  0
ARC
  5
1A2
330
D84
100
AcDbEntity
  8
1
  6
Continuous
100
AcDbCircle
 10
35.80195082553697
 20
94.90971632161707
 30
0.0
 40
0.8000000000000111
100
AcDbArc
 50
180.0
 51
270.0
  0
ARC
  5
1A3
330
D84
100
AcDbEntity
  8
1
  6
Continuous
100
AcDbCircle
 10
35.801950825537
 20
141.309716321617
 30
0.0
 40
0.8000000000000396
100
AcDbArc
 50
89.99999999999998
 51
180.0
  0
ARC
  5
1A4
330
D84
100
AcDbEntity
  8
1
  6
Continuous
100
AcDbCircle
 10
43.20195082553704
 20
141.309716321617
 30
0.0
 40
0.8000000000000111
100
AcDbArc
 50
0.0
 51
89.99999999999998
  0
LINE
  5
1A5
330
D84
100
AcDbEntity
  8
1
  6
Continuous
100
AcDbLine
 10
35.00195101933702
 20
141.309716026517
 30
0.0
 11
35.00195101933702
 21
133.209716747717
 31
0.0
  0
LINE
  5
1A6
330
D84
100
AcDbEntity
  8
1
  6
Continuous
100
AcDbLine
 10
44.00195063183701
 20
133.209716747717
 30
0.0
 11
44.00195063183701
 21
141.309716026517
 31
0.0
  0
ARC
  5
1A7
330
D84
100
AcDbEntity
  8
5
  6
PHANTOM
100
AcDbCircle
 10
106.5081230413758
 20
48.17616862295913
 30
0.0
 40
2.000000000000003
100
AcDbArc
 50
180.0
 51
232.1199962425005
  0
LINE
  5
1A8
330
D84
100
AcDbEntity
  8
5
  6
PHANTOM
100
AcDbLine
 10
105.2801032301758
 20
46.59757177945905
 30
0.0
 11
109.0081232350758
 21
43.69747648870943
 31
0.0
  0
LINE
  5
1A9
330
D84
100
AcDbEntity
  8
5
  6
PHANTOM
100
AcDbLine
 10
112.5081229938759
 20
50.87304665145913
 30
0.0
 11
112.5081229938759
 21
51.19810942925903
 31
0.0
  0
ARC
  5
1AA
330
D84
100
AcDbEntity
  8
5
  6
PHANTOM
100
AcDbCircle
 10
113.0081230413758
 20
50.87304677055906
 30
0.0
 40
0.5000000000000174
100
AcDbArc
 50
180.0
 51
275.7391704772992
  0
ARC
  5
1AB
330
D84
100
AcDbEntity
  8
5
  6
PHANTOM
100
AcDbCircle
 10
104.5081230413758
 20
53.19810958505915
 30
0.0
 40
2.0
100
AcDbArc
 50
259.9607747343995
 51
270.0
  0
LINE
  5
1AC
330
D84
100
AcDbEntity
  8
5
  6
PHANTOM
100
AcDbLine
 10
104.5081234287756
 20
51.19810942925914
 30
0.0
 11
104.5081234287756
 21
48.17616860755915
 31
0.0
  0
ARC
  5
1AD
330
D84
100
AcDbEntity
  8
5
  6
PHANTOM
100
AcDbCircle
 10
101.5081230413758
 20
51.69810958505913
 30
0.0
 40
2.0
100
AcDbArc
 50
79.96077473439952
 51
90.0
  0
LINE
  5
1AE
330
D84
100
AcDbEntity
  8
5
  6
PHANTOM
100
AcDbLine
 10
104.5081234287758
 20
53.19810975715913
 30
0.0
 11
101.8567672681758
 21
53.66748702145915
 31
0.0
  0
LINE
  5
1AF
330
D84
100
AcDbEntity
  8
5
  6
PHANTOM
100
AcDbLine
 10
112.5081229938759
 20
53.19810975715903
 30
0.0
 11
112.5081229938759
 21
51.19810942925903
 31
0.0
  0
LINE
  5
1B0
330
D84
100
AcDbEntity
  8
5
  6
PHANTOM
100
AcDbLine
 10
112.5081229938758
 20
53.19810975715913
 30
0.0
 11
104.5081234287756
 21
53.19810975715913
 31
0.0
  0
LINE
  5
1B1
330
D84
100
AcDbEntity
  8
5
  6
PHANTOM
100
AcDbLine
 10
112.5081229938758
 20
51.19810942925914
 30
0.0
 11
104.5081234287756
 21
51.19810942925914
 31
0.0
  0
LINE
  5
1B2
330
D84
100
AcDbEntity
  8
5
  6
PHANTOM
100
AcDbLine
 10
101.5081229370758
 20
51.69810951125905
 30
0.0
 11
104.1594781663758
 21
51.22873224685903
 31
0.0
  0
LINE
  5
1B3
330
D84
100
AcDbEntity
  8
4
  6
CENTER
100
AcDbLine
 10
97.5081230413757
 20
50.19810951125915
 30
0.0
 11
97.5081230413757
 21
55.19810937345916
 31
0.0
  0
LINE
  5
1B4
330
D84
100
AcDbEntity
  8
5
  6
PHANTOM
100
AcDbLine
 10
101.5081229370756
 20
51.69810951125915
 30
0.0
 11
92.50812332447564
 21
51.69810951125918
 31
0.0
  0
LINE
  5
1B5
330
D84
100
AcDbEntity
  8
5
  6
PHANTOM
100
AcDbLine
 10
92.50812332447564
 20
51.69810951125918
 30
0.0
 11
92.50812332447564
 21
53.69810937345921
 31
0.0
  0
LINE
  5
1B6
330
D84
100
AcDbEntity
  8
5
  6
PHANTOM
100
AcDbLine
 10
101.5081229370756
 20
53.69810937345917
 30
0.0
 11
92.50812332447564
 21
53.69810937345921
 31
0.0
  0
LINE
  5
1B7
330
D84
100
AcDbEntity
  8
1
  6
Continuous
100
AcDbLine
 10
109.0081232351759
 20
103.509715977317
 30
0.0
 11
123.5081228178758
 21
103.509715977317
 31
0.0
  0
LINE
  5
1B8
330
D84
100
AcDbEntity
  8
1
  6
Continuous
100
AcDbLine
 10
122.6837896647113
 20
134.2763833324837
 30
0.0
 11
122.6837896647021
 21
140.5430498635504
 31
0.0
  0
LINE
  5
1B9
330
D84
100
AcDbEntity
  8
1
  6
Continuous
100
AcDbLine
 10
122.6837896647682
 20
95.67638277958367
 30
0.0
 11
122.6837896647589
 21
101.9430493106503
 31
0.0
  0
LINE
  5
1BA
330
D84
100
AcDbEntity
  8
4
  6
CENTER
100
AcDbLine
 10
92.00812365237592
 20
118.109716321617
 30
0.0
 11
137.0081227582759
 21
118.109716321617
 31
0.0
  0
LINE
  5
1BB
330
D84
100
AcDbEntity
  8
4
  6
CENTER
100
AcDbLine
 10
103.1581230413758
 20
101.109716321617
 30
0.0
 11
95.85812304137579
 21
101.109716321617
 31
0.0
  0
LINE
  5
1BC
330
D84
100
AcDbEntity
  8
4
  6
CENTER
100
AcDbLine
 10
99.50812304137587
 20
138.759716321617
 30
0.0
 11
99.50812304137587
 21
131.459716321617
 31
0.0
  0
LINE
  5
1BD
330
D84
100
AcDbEntity
  8
4
  6
CENTER
100
AcDbLine
 10
109.5081230413758
 20
121.7597163216171
 30
0.0
 11
109.5081230413758
 21
114.459716321617
 31
0.0
  0
LINE
  5
1BE
330
D84
100
AcDbEntity
  8
4
  6
CENTER
100
AcDbLine
 10
103.1581230413758
 20
135.109716321617
 30
0.0
 11
95.85812304137579
 21
135.109716321617
 31
0.0
  0
LINE
  5
1BF
330
D84
100
AcDbEntity
  8
4
  6
CENTER
100
AcDbLine
 10
99.50812304137587
 20
104.759716321617
 30
0.0
 11
99.50812304137587
 21
97.45971632161706
 31
0.0
  0
LINE
  5
1C0
330
D84
100
AcDbEntity
  8
4
  6
CENTER
100
AcDbLine
 10
133.1581230413758
 20
135.109716321617
 30
0.0
 11
125.8581230413758
 21
135.109716321617
 31
0.0
  0
LINE
  5
1C1
330
D84
100
AcDbEntity
  8
4
  6
CENTER
100
AcDbLine
 10
129.5081230413758
 20
104.759716321617
 30
0.0
 11
129.5081230413758
 21
97.45971632161706
 31
0.0
  0
LINE
  5
1C2
330
D84
100
AcDbEntity
  8
4
  6
CENTER
100
AcDbLine
 10
133.1581230413758
 20
101.109716321617
 30
0.0
 11
125.8581230413758
 21
101.109716321617
 31
0.0
  0
LINE
  5
1C3
330
D84
100
AcDbEntity
  8
4
  6
CENTER
100
AcDbLine
 10
129.5081230413758
 20
138.759716321617
 30
0.0
 11
129.5081230413758
 21
131.459716321617
 31
0.0
  0
LINE
  5
1C4
330
D84
100
AcDbEntity
  8
1
  6
Continuous
100
AcDbLine
 10
109.8081230402758
 20
142.1097165302169
 30
0.0
 11
133.0081234437759
 21
142.1097165302169
 31
0.0
  0
LINE
  5
1C5
330
D84
100
AcDbEntity
  8
1
  6
Continuous
100
AcDbLine
 10
109.0081232351759
 20
132.7097166658171
 30
0.0
 11
123.5081228178758
 21
132.7097166658171
 31
0.0
  0
LINE
  5
1C6
330
D84
100
AcDbEntity
  8
1
  6
Continuous
100
AcDbLine
 10
122.5081226539759
 20
132.7097166658171
 30
0.0
 11
122.5081226539759
 21
130.709716337917
 31
0.0
  0
LINE
  5
1C7
330
D84
100
AcDbEntity
  8
1
  6
Continuous
100
AcDbLine
 10
109.0081232351759
 20
132.7097166658171
 30
0.0
 11
109.0081232351759
 21
126.709716613617
 31
0.0
  0
LINE
  5
1C8
330
D84
100
AcDbEntity
  8
1
  6
Continuous
100
AcDbLine
 10
108.0081230712758
 20
127.909716437817
 30
0.0
 11
118.0081228476758
 21
127.909716437817
 31
0.0
  0
LINE
  5
1C9
330
D84
100
AcDbEntity
  8
1
  6
Continuous
100
AcDbLine
 10
109.0081232351759
 20
109.509716029517
 30
0.0
 11
109.0081232351759
 21
103.509715977317
 31
0.0
  0
LINE
  5
1CA
330
D84
100
AcDbEntity
  8
1
  6
Continuous
100
AcDbLine
 10
122.5081226539759
 20
105.5097163052171
 30
0.0
 11
122.5081226539759
 21
103.509715977317
 31
0.0
  0
LINE
  5
1CB
330
D84
100
AcDbEntity
  8
1
  6
Continuous
100
AcDbLine
 10
125.5081231457759
 20
142.1097165302169
 30
0.0
 11
125.5081231457759
 21
94.10971611291708
 31
0.0
  0
LINE
  5
1CC
330
D84
100
AcDbEntity
  8
1
  6
Continuous
100
AcDbLine
 10
109.8081230402758
 20
94.10971611291708
 30
0.0
 11
133.0081234437759
 21
94.10971611291708
 31
0.0
  0
LINE
  5
1CD
330
D84
100
AcDbEntity
  8
1
  6
Continuous
100
AcDbLine
 10
109.0081232351759
 20
130.709716337917
 30
0.0
 11
122.5081226539759
 21
130.709716337917
 31
0.0
  0
LINE
  5
1CE
330
D84
100
AcDbEntity
  8
1
  6
Continuous
100
AcDbLine
 10
109.0081232351759
 20
129.909716765617
 30
0.0
 11
118.0081228476758
 21
129.909716765617
 31
0.0
  0
LINE
  5
1CF
330
D84
100
AcDbEntity
  8
1
  6
Continuous
100
AcDbLine
 10
118.0081228476758
 20
130.709716337917
 30
0.0
 11
118.0081228476758
 21
105.5097163052171
 31
0.0
  0
LINE
  5
1D0
330
D84
100
AcDbEntity
  8
1
  6
Continuous
100
AcDbLine
 10
108.0081230712758
 20
108.309716205317
 30
0.0
 11
118.0081228476758
 21
108.309716205317
 31
0.0
  0
LINE
  5
1D1
330
D84
100
AcDbEntity
  8
1
  6
Continuous
100
AcDbLine
 10
109.0081232351759
 20
106.309715877517
 30
0.0
 11
118.0081228476758
 21
106.309715877517
 31
0.0
  0
LINE
  5
1D2
330
D84
100
AcDbEntity
  8
1
  6
Continuous
100
AcDbLine
 10
109.0081232351759
 20
105.5097163052171
 30
0.0
 11
122.5081226539759
 21
105.5097163052171
 31
0.0
  0
LINE
  5
1D3
330
D84
100
AcDbEntity
  8
1
  6
Continuous
100
AcDbLine
 10
94.50812365237592
 20
38.09810979665907
 30
0.0
 11
118.0081228476758
 21
38.09810979665907
 31
0.0
  0
LINE
  5
1D4
330
D84
100
AcDbEntity
  8
1
  6
Continuous
100
AcDbLine
 10
94.50812365237592
 20
40.09810965885907
 30
0.0
 11
109.008123235076
 21
40.09810965885903
 31
0.0
  0
LINE
  5
1D5
330
D84
100
AcDbEntity
  8
1
  6
Continuous
100
AcDbLine
 10
109.0081232350758
 20
38.09810979665907
 30
0.0
 11
109.0081232350758
 21
45.89810958505903
 31
0.0
  0
LINE
  5
1D6
330
D84
100
AcDbEntity
  8
1
  6
Continuous
100
AcDbLine
 10
114.5081230888759
 20
40.59810974085903
 30
0.0
 11
122.5081226539759
 21
40.59810974085903
 31
0.0
  0
LINE
  5
1D7
330
D84
100
AcDbEntity
  8
1
  6
Continuous
100
AcDbLine
 10
114.5081230888759
 20
38.59810941295904
 30
0.0
 11
122.5081226539759
 21
38.59810941295904
 31
0.0
  0
LINE
  5
1D8
330
D84
100
AcDbEntity
  8
1
  6
Continuous
100
AcDbLine
 10
125.5081231456758
 20
40.09810965885903
 30
0.0
 11
134.5081227582758
 21
40.09810965885903
 31
0.0
  0
LINE
  5
1D9
330
D84
100
AcDbEntity
  8
1
  6
Continuous
100
AcDbLine
 10
125.5081231456758
 20
38.09810979665907
 30
0.0
 11
134.5081227582758
 21
38.09810979665903
 31
0.0
  0
LINE
  5
1DA
330
D84
100
AcDbEntity
  8
4
  6
CENTER
100
AcDbLine
 10
109.5081230413758
 20
41.59810965885903
 30
0.0
 11
109.5081230413758
 21
36.59810979665905
 31
0.0
  0
LINE
  5
1DB
330
D84
100
AcDbEntity
  8
4
  6
CENTER
100
AcDbLine
 10
99.50812304137587
 20
41.59810965885903
 30
0.0
 11
99.50812304137587
 21
36.59810979665905
 31
0.0
  0
LINE
  5
1DC
330
D84
100
AcDbEntity
  8
4
  6
CENTER
100
AcDbLine
 10
129.5081230413758
 20
41.59810965885903
 30
0.0
 11
129.5081230413758
 21
36.59810979665905
 31
0.0
  0
LINE
  5
1DD
330
D84
100
AcDbEntity
  8
4
  6
CENTER
100
AcDbLine
 10
107.5081230413758
 20
45.89810958505903
 30
0.0
 11
119.5081230413758
 21
45.89810958505903
 31
0.0
  0
LINE
  5
1DE
330
D84
100
AcDbEntity
  8
4
  6
CENTER
100
AcDbLine
 10
113.5081230413758
 20
51.898109585059
 30
0.0
 11
113.5081230413758
 21
39.89810958505901
 31
0.0
  0
LINE
  5
1DF
330
D84
100
AcDbEntity
  8
1
  6
Continuous
100
AcDbLine
 10
114.5081230888759
 20
40.92317251865903
 30
0.0
 11
114.5081230888759
 21
40.59810974085903
 31
0.0
  0
LINE
  5
1E0
330
D84
100
AcDbEntity
  8
1
  6
Continuous
100
AcDbLine
 10
122.5081226539759
 20
40.59810974085903
 30
0.0
 11
122.5081226539759
 21
43.62005056255904
 31
0.0
  0
ARC
  5
1E1
330
D84
100
AcDbEntity
  8
1
  6
Continuous
100
AcDbCircle
 10
120.5081230413758
 20
43.62005054715901
 30
0.0
 40
2.000000000000003
100
AcDbArc
 50
0.0
 51
52.11999624250061
  0
LINE
  5
1E2
330
D84
100
AcDbEntity
  8
1
  6
Continuous
100
AcDbLine
 10
121.7361428525757
 20
45.19864739065892
 30
0.0
 11
116.2711671304758
 21
49.44995246275894
 31
0.0
  0
ARC
  5
1E3
330
D84
100
AcDbEntity
  8
1
  6
Continuous
100
AcDbCircle
 10
114.0081230413758
 20
40.92317239955902
 30
0.0
 40
0.5000000000000174
100
AcDbArc
 50
0.0
 51
95.73917047730081
  0
LINE
  5
1E4
330
D84
100
AcDbEntity
  8
1
  6
Continuous
100
AcDbLine
 10
114.5081230888759
 20
38.59810941295904
 30
0.0
 11
114.5081230888759
 21
40.59810974085903
 31
0.0
  0
LINE
  5
1E5
330
D84
100
AcDbEntity
  8
1
  6
Continuous
100
AcDbLine
 10
125.5081231456758
 20
40.09810965885916
 30
0.0
 11
122.8567679163758
 21
40.56748692325917
 31
0.0
  0
ARC
  5
1E6
330
D84
100
AcDbEntity
  8
1
  6
Continuous
100
AcDbCircle
 10
122.5081230413758
 20
38.59810958505906
 30
0.0
 40
2.0
100
AcDbArc
 50
79.96077473439952
 51
90.0
  0
LINE
  5
1E7
330
D84
100
AcDbEntity
  8
1
  6
Continuous
100
AcDbLine
 10
122.5081226539759
 20
38.59810941295904
 30
0.0
 11
125.1594788145759
 21
38.12873214865905
 31
0.0
  0
ARC
  5
1E8
330
D84
100
AcDbEntity
  8
1
  6
Continuous
100
AcDbCircle
 10
125.5081230413758
 20
40.09810958505905
 30
0.0
 40
2.0
100
AcDbArc
 50
259.9607747343995
 51
270.0
  0
LINE
  5
1E9
330
D84
100
AcDbEntity
  8
1
  6
Continuous
100
AcDbLine
 10
134.5081227582758
 20
40.09810965885903
 30
0.0
 11
134.5081227582758
 21
38.09810979665903
 31
0.0
  0
LINE
  5
1EA
330
D84
100
AcDbEntity
  8
1
  6
Continuous
100
AcDbLine
 10
118.0081228476758
 20
38.59810941295904
 30
0.0
 11
118.0081228476758
 21
38.09810979665907
 31
0.0
  0
LINE
  5
1EB
330
D84
100
AcDbEntity
  8
1
  6
Continuous
100
AcDbLine
 10
94.50812365237592
 20
38.09810979665907
 30
0.0
 11
94.50812365237592
 21
40.09810965885907
 31
0.0
  0
LINE
  5
1EC
330
D84
100
AcDbEntity
  8
1
  6
Continuous
100
AcDbLine
 10
106.0081232089759
 20
40.09810965885903
 30
0.0
 11
106.0081232089759
 21
38.09810979665907
 31
0.0
  0
CIRCLE
  5
1ED
330
D84
100
AcDbEntity
  8
1
  6
Continuous
100
AcDbCircle
 10
113.5081230413758
 20
45.89810958505903
 30
0.0
 40
1.750000000000025
  0
CIRCLE
  5
1EE
330
D84
100
AcDbEntity
  8
1
  6
Continuous
100
AcDbCircle
 10
113.5081230413758
 20
45.89810958505903
 30
0.0
 40
4.5
  0
LINE
  5
1EF
330
D84
100
AcDbEntity
  8
4
  6
CENTER
100
AcDbLine
 10
113.5081230413758
 20
145.009715850717
 30
0.0
 11
113.5081230413758
 21
91.20971679241709
 31
0.0
  0
LINE
  5
1F0
330
D84
100
AcDbEntity
  8
1
  6
Continuous
100
AcDbLine
 10
111.7581229873759
 20
94.00971628281707
 30
0.0
 11
115.2581230954758
 21
94.00971628281707
 31
0.0
  0
LINE
  5
1F1
330
D84
100
AcDbEntity
  8
1
  6
Continuous
100
AcDbLine
 10
115.2581230954758
 20
142.209716360317
 30
0.0
 11
111.7581229873759
 21
142.209716360317
 31
0.0
  0
ARC
  5
1F2
330
D84
100
AcDbEntity
  8
1
  6
Continuous
100
AcDbCircle
 10
133.0081230413758
 20
95.60971632161706
 30
0.0
 40
1.5
100
AcDbArc
 50
270.0
 51
0.0
  0
CIRCLE
  5
1F3
330
D84
100
AcDbEntity
  8
1
  6
Continuous
100
AcDbCircle
 10
129.5081230413758
 20
101.109716321617
 30
0.0
 40
2.150000000000006
  0
LINE
  5
1F4
330
D84
100
AcDbEntity
  8
1
  6
Continuous
100
AcDbLine
 10
134.5081227582759
 20
95.60971542751708
 30
0.0
 11
134.5081227582759
 21
140.6097172156171
 31
0.0
  0
ARC
  5
1F5
330
D84
100
AcDbEntity
  8
1
  6
Continuous
100
AcDbCircle
 10
133.0081230413758
 20
140.609716321617
 30
0.0
 40
1.500000000000006
100
AcDbArc
 50
0.0
 51
89.99999999999998
  0
CIRCLE
  5
1F6
330
D84
100
AcDbEntity
  8
1
  6
Continuous
100
AcDbCircle
 10
129.5081230413758
 20
135.109716321617
 30
0.0
 40
2.150000000000006
  0
ARC
  5
1F7
330
D84
100
AcDbEntity
  8
1
  6
Continuous
100
AcDbCircle
 10
123.5081230413758
 20
105.509716321617
 30
0.0
 40
2.000000000000026
100
AcDbArc
 50
270.0
 51
0.0
  0
ARC
  5
1F8
330
D84
100
AcDbEntity
  8
1
  6
Continuous
100
AcDbCircle
 10
123.5081230413758
 20
130.709716321617
 30
0.0
 40
2.000000000000026
100
AcDbArc
 50
0.0
 51
89.99999999999998
  0
CIRCLE
  5
1F9
330
D84
100
AcDbEntity
  8
1
  6
Continuous
100
AcDbCircle
 10
99.50812304137585
 20
101.109716321617
 30
0.0
 40
2.150000000000006
  0
CIRCLE
  5
1FA
330
D84
100
AcDbEntity
  8
1
  6
Continuous
100
AcDbCircle
 10
99.50812304137587
 20
135.109716321617
 30
0.0
 40
2.150000000000006
  0
LINE
  5
1FB
330
D84
100
AcDbEntity
  8
1
  6
Continuous
100
AcDbLine
 10
96.00812296687593
 20
94.10971611291708
 30
0.0
 11
104.5081234288758
 21
94.10971611291708
 31
0.0
  0
ARC
  5
1FC
330
D84
100
AcDbEntity
  8
1
  6
Continuous
100
AcDbCircle
 10
104.5081230413757
 20
95.60971632161706
 30
0.0
 40
1.5
100
AcDbArc
 50
270.0
 51
0.0
  0
LINE
  5
1FD
330
D84
100
AcDbEntity
  8
1
  6
Continuous
100
AcDbLine
 10
106.0081232090758
 20
95.60971542751708
 30
0.0
 11
106.0081232090758
 21
106.309715877517
 31
0.0
  0
ARC
  5
1FE
330
D84
100
AcDbEntity
  8
1
  6
Continuous
100
AcDbCircle
 10
108.0081230413758
 20
106.309716321617
 30
0.0
 40
2.0
100
AcDbArc
 50
89.99999999999998
 51
180.0
  0
ARC
  5
1FF
330
D84
100
AcDbEntity
  8
1
  6
Continuous
100
AcDbCircle
 10
108.0081230413758
 20
129.909716321617
 30
0.0
 40
2.0
100
AcDbArc
 50
180.0
 51
270.0
  0
LINE
  5
200
330
D84
100
AcDbEntity
  8
1
  6
Continuous
100
AcDbLine
 10
106.0081232090758
 20
129.909716765617
 30
0.0
 11
106.0081232090758
 21
140.6097172156171
 31
0.0
  0
ARC
  5
201
330
D84
100
AcDbEntity
  8
1
  6
Continuous
100
AcDbCircle
 10
104.5081230413758
 20
140.609716321617
 30
0.0
 40
1.500000000000006
100
AcDbArc
 50
0.0
 51
89.99999999999998
  0
LINE
  5
202
330
D84
100
AcDbEntity
  8
1
  6
Continuous
100
AcDbLine
 10
104.5081234288758
 20
142.1097165302169
 30
0.0
 11
96.00812296687593
 21
142.1097165302169
 31
0.0
  0
ARC
  5
203
330
D84
100
AcDbEntity
  8
1
  6
Continuous
100
AcDbCircle
 10
96.00812304137587
 20
140.609716321617
 30
0.0
 40
1.500000000000006
100
AcDbArc
 50
89.99999999999998
 51
180.0
  0
LINE
  5
204
330
D84
100
AcDbEntity
  8
1
  6
Continuous
100
AcDbLine
 10
94.50812365237592
 20
140.6097172156171
 30
0.0
 11
94.50812365237592
 21
95.60971542751708
 31
0.0
  0
ARC
  5
205
330
D84
100
AcDbEntity
  8
1
  6
Continuous
100
AcDbCircle
 10
96.00812304137585
 20
95.60971632161708
 30
0.0
 40
1.5
100
AcDbArc
 50
180.0
 51
270.0
  0
CIRCLE
  5
206
330
D84
100
AcDbEntity
  8
1
  6
Continuous
100
AcDbCircle
 10
109.5081230413758
 20
118.109716321617
 30
0.0
 40
2.150000000000006
  0
LINE
  5
207
330
D84
100
AcDbEntity
  8
1
  6
Continuous
100
AcDbLine
 10
114.9581230229758
 20
93.70971679241709
 30
0.0
 11
112.0581230598759
 21
93.70971679241709
 31
0.0
  0
LINE
  5
208
330
D84
100
AcDbEntity
  8
1
  6
Continuous
100
AcDbLine
 10
109.3081231911758
 20
109.8097164512171
 30
0.0
 11
117.7081228916759
 21
109.8097164512171
 31
0.0
  0
LINE
  5
209
330
D84
100
AcDbEntity
  8
1
  6
Continuous
100
AcDbLine
 10
118.0081228476758
 20
109.509716029517
 30
0.0
 11
109.0081232351759
 21
109.509716029517
 31
0.0
  0
LINE
  5
20A
330
D84
100
AcDbEntity
  8
1
  6
Continuous
100
AcDbLine
 10
112.0581230598759
 20
142.509715850717
 30
0.0
 11
114.9581230229758
 21
142.509715850717
 31
0.0
  0
LINE
  5
20B
330
D84
100
AcDbEntity
  8
1
  6
Continuous
100
AcDbLine
 10
117.7081228916759
 20
126.409716191917
 30
0.0
 11
109.3081231911758
 21
126.409716191917
 31
0.0
  0
LINE
  5
20C
330
D84
100
AcDbEntity
  8
1
  6
Continuous
100
AcDbLine
 10
109.0081232351759
 20
126.709716613617
 30
0.0
 11
118.0081228476758
 21
126.709716613617
 31
0.0
  0
LINE
  5
20D
330
D84
100
AcDbEntity
  8
1
  6
Continuous
100
AcDbLine
 10
118.0081228476758
 20
133.209716747717
 30
0.0
 11
109.0081232351759
 21
133.209716747717
 31
0.0
  0
LINE
  5
20E
330
D84
100
AcDbEntity
  8
1
  6
Continuous
100
AcDbLine
 10
109.0081232351759
 20
103.009715895417
 30
0.0
 11
118.0081228476758
 21
103.009715895417
 31
0.0
  0
LINE
  5
20F
330
D84
100
AcDbEntity
  8
1
  6
Continuous
100
AcDbLine
 10
115.2581230954758
 20
94.00971628281707
 30
0.0
 11
115.2581230954758
 21
94.10971611291708
 31
0.0
  0
LINE
  5
210
330
D84
100
AcDbEntity
  8
1
  6
Continuous
100
AcDbLine
 10
111.7581229873759
 20
94.10971611291708
 30
0.0
 11
111.7581229873759
 21
94.00971628281707
 31
0.0
  0
ARC
  5
211
330
D84
100
AcDbEntity
  8
1
  6
Continuous
100
AcDbCircle
 10
112.0581230413758
 20
94.00971632161704
 30
0.0
 40
0.3000000000000114
100
AcDbArc
 50
180.0
 51
270.0
  0
ARC
  5
212
330
D84
100
AcDbEntity
  8
1
  6
Continuous
100
AcDbCircle
 10
114.9581230413758
 20
94.00971632161704
 30
0.0
 40
0.3000000000000114
100
AcDbArc
 50
270.0
 51
0.0
  0
LINE
  5
213
330
D84
100
AcDbEntity
  8
1
  6
Continuous
100
AcDbLine
 10
109.3081231911758
 20
109.8097164512171
 30
0.0
 11
109.0081232351759
 21
109.509716029517
 31
0.0
  0
LINE
  5
214
330
D84
100
AcDbEntity
  8
1
  6
Continuous
100
AcDbLine
 10
118.0081228476758
 20
109.509716029517
 30
0.0
 11
117.7081228916759
 21
109.8097164512171
 31
0.0
  0
LINE
  5
215
330
D84
100
AcDbEntity
  8
1
  6
Continuous
100
AcDbLine
 10
111.7581229873759
 20
142.209716360317
 30
0.0
 11
111.7581229873759
 21
142.1097165302169
 31
0.0
  0
LINE
  5
216
330
D84
100
AcDbEntity
  8
1
  6
Continuous
100
AcDbLine
 10
115.2581230954758
 20
142.1097165302169
 30
0.0
 11
115.2581230954758
 21
142.209716360317
 31
0.0
  0
ARC
  5
217
330
D84
100
AcDbEntity
  8
1
  6
Continuous
100
AcDbCircle
 10
114.9581230413758
 20
142.209716321617
 30
0.0
 40
0.2999999999999972
100
AcDbArc
 50
0.0
 51
89.99999999999998
  0
ARC
  5
218
330
D84
100
AcDbEntity
  8
1
  6
Continuous
100
AcDbCircle
 10
112.0581230413758
 20
142.209716321617
 30
0.0
 40
0.2999999999999972
100
AcDbArc
 50
89.99999999999998
 51
180.0
  0
LINE
  5
219
330
D84
100
AcDbEntity
  8
1
  6
Continuous
100
AcDbLine
 10
117.708122891676
 20
126.409716191917
 30
0.0
 11
118.0081228476759
 21
126.709716613617
 31
0.0
  0
LINE
  5
21A
330
D84
100
AcDbEntity
  8
1
  6
Continuous
100
AcDbLine
 10
109.0081232351758
 20
126.7097166136171
 30
0.0
 11
109.3081231911758
 21
126.4097161919171
 31
0.0
  0
LINE
  5
21B
330
D84
100
AcDbEntity
  8
1
  6
Continuous
100
AcDbLine
 10
117.2581229575759
 20
103.009715895417
 30
0.0
 11
117.2581229575759
 21
103.509715977317
 31
0.0
  0
LINE
  5
21C
330
D84
100
AcDbEntity
  8
1
  6
Continuous
100
AcDbLine
 10
109.7581231252758
 20
103.509715977317
 30
0.0
 11
109.7581231252758
 21
103.009715895417
 31
0.0
  0
LINE
  5
21D
330
D84
100
AcDbEntity
  8
1
  6
Continuous
100
AcDbLine
 10
117.2581229575759
 20
132.7097166658171
 30
0.0
 11
117.2581229575759
 21
133.209716747717
 31
0.0
  0
LINE
  5
21E
330
D84
100
AcDbEntity
  8
1
  6
Continuous
100
AcDbLine
 10
109.7581231252758
 20
133.209716747717
 30
0.0
 11
109.7581231252758
 21
132.7097166658171
 31
0.0
  0
ARC
  5
21F
330
D84
100
AcDbEntity
  8
1
  6
Continuous
100
AcDbCircle
 10
109.8081230413758
 20
141.309716321617
 30
0.0
 40
0.7999999999999901
100
AcDbArc
 50
89.99999999999998
 51
180.0
  0
ARC
  5
220
330
D84
100
AcDbEntity
  8
1
  6
Continuous
100
AcDbCircle
 10
117.2081230413758
 20
141.309716321617
 30
0.0
 40
0.8000000000000111
100
AcDbArc
 50
0.0
 51
89.99999999999998
  0
LINE
  5
221
330
D84
100
AcDbEntity
  8
1
  6
Continuous
100
AcDbLine
 10
109.0081232351759
 20
141.309716026517
 30
0.0
 11
109.0081232351759
 21
133.209716747717
 31
0.0
  0
LINE
  5
222
330
D84
100
AcDbEntity
  8
1
  6
Continuous
100
AcDbLine
 10
118.0081228476758
 20
133.209716747717
 30
0.0
 11
118.0081228476758
 21
141.309716026517
 31
0.0
  0
LINE
  5
223
330
D84
100
AcDbEntity
  8
1
  6
Continuous
100
AcDbLine
 10
118.0081228476758
 20
94.90971661661708
 30
0.0
 11
118.0081228476758
 21
103.009715895417
 31
0.0
  0
LINE
  5
224
330
D84
100
AcDbEntity
  8
1
  6
Continuous
100
AcDbLine
 10
109.0081232351759
 20
103.009715895417
 30
0.0
 11
109.0081232351759
 21
94.90971661661708
 31
0.0
  0
ARC
  5
225
330
D84
100
AcDbEntity
  8
1
  6
Continuous
100
AcDbCircle
 10
117.2081230413758
 20
94.90971632161706
 30
0.0
 40
0.8000000000000111
100
AcDbArc
 50
270.0
 51
0.0
  0
ARC
  5
226
330
D84
100
AcDbEntity
  8
1
  6
Continuous
100
AcDbCircle
 10
109.8081230413758
 20
94.90971632161706
 30
0.0
 40
0.7999999999999972
100
AcDbArc
 50
180.0
 51
270.0
  0
LINE
  5
22F
330
D84
100
AcDbEntity
  8
4
  6
CENTER
100
AcDbLine
 10
187.5142952572147
 20
145.009715850717
 30
0.0
 11
187.5142952572147
 21
91.20971679241709
 31
0.0
  0
LINE
  5
230
330
D84
100
AcDbEntity
  8
1
  6
Continuous
100
AcDbLine
 10
183.3142954069146
 20
126.409716191917
 30
0.0
 11
183.0142954509146
 21
126.709716613617
 31
0.0
  0
LINE
  5
231
330
D84
100
AcDbEntity
  8
1
  6
Continuous
100
AcDbLine
 10
192.0142950634147
 20
126.709716613617
 30
0.0
 11
191.7142951074147
 21
126.409716191917
 31
0.0
  0
LINE
  5
232
330
D84
100
AcDbEntity
  8
1
  6
Continuous
100
AcDbLine
 10
195.3142950456147
 20
142.1097165302169
 30
0.0
 11
195.3142950456147
 21
94.10971611291708
 31
0.0
  0
LINE
  5
233
330
D84
100
AcDbEntity
  8
1
  6
Continuous
100
AcDbLine
 10
193.3142951834147
 20
142.1097165302169
 30
0.0
 11
193.3142951834147
 21
94.10971611291708
 31
0.0
  0
LINE
  5
234
330
D84
100
AcDbEntity
  8
4
  6
CENTER
100
AcDbLine
 10
180.5142954509147
 20
118.109716321617
 30
0.0
 11
197.8142950456147
 21
118.109716321617
 31
0.0
  0
LINE
  5
235
330
D84
100
AcDbEntity
  8
1
  6
Continuous
100
AcDbLine
 10
193.3142951834147
 20
106.309715877517
 30
0.0
 11
183.0142954509147
 21
106.309715877517
 31
0.0
  0
LINE
  5
236
330
D84
100
AcDbEntity
  8
1
  6
Continuous
100
AcDbLine
 10
192.8142951014146
 20
103.509715977317
 30
0.0
 11
183.0142954509147
 21
103.509715977317
 31
0.0
  0
LINE
  5
237
330
D84
100
AcDbEntity
  8
1
  6
Continuous
100
AcDbLine
 10
192.8142951014146
 20
105.5097163052171
 30
0.0
 11
183.0142954509147
 21
105.5097163052171
 31
0.0
  0
LINE
  5
238
330
D84
100
AcDbEntity
  8
1
  6
Continuous
100
AcDbLine
 10
191.2142952583147
 20
94.10971611291708
 30
0.0
 11
183.8142952560146
 21
94.10971611291708
 31
0.0
  0
LINE
  5
239
330
D84
100
AcDbEntity
  8
1
  6
Continuous
100
AcDbLine
 10
186.0642953920147
 20
93.70971679241709
 30
0.0
 11
188.9642952387147
 21
93.70971679241709
 31
0.0
  0
LINE
  5
23A
330
D84
100
AcDbEntity
  8
1
  6
Continuous
100
AcDbLine
 10
192.0142950634147
 20
103.009715895417
 30
0.0
 11
183.0142954509147
 21
103.009715895417
 31
0.0
  0
LINE
  5
23B
330
D84
100
AcDbEntity
  8
1
  6
Continuous
100
AcDbLine
 10
193.3142951834147
 20
108.309716205317
 30
0.0
 11
183.0142954509147
 21
108.309716205317
 31
0.0
  0
LINE
  5
23C
330
D84
100
AcDbEntity
  8
1
  6
Continuous
100
AcDbLine
 10
183.0142954509147
 20
109.509716029517
 30
0.0
 11
192.0142950634147
 21
109.509716029517
 31
0.0
  0
LINE
  5
23D
330
D84
100
AcDbEntity
  8
1
  6
Continuous
100
AcDbLine
 10
191.7142951074147
 20
109.8097164512171
 30
0.0
 11
183.3142954069147
 21
109.8097164512171
 31
0.0
  0
LINE
  5
23E
330
D84
100
AcDbEntity
  8
1
  6
Continuous
100
AcDbLine
 10
183.3142954069147
 20
126.409716191917
 30
0.0
 11
191.7142951074147
 21
126.409716191917
 31
0.0
  0
LINE
  5
23F
330
D84
100
AcDbEntity
  8
1
  6
Continuous
100
AcDbLine
 10
192.0142950634147
 20
106.309715877517
 30
0.0
 11
192.0142950634147
 21
105.5097163052171
 31
0.0
  0
ARC
  5
240
330
D84
100
AcDbEntity
  8
1
  6
Continuous
100
AcDbCircle
 10
191.2142952572147
 20
94.90971632161707
 30
0.0
 40
0.8000000000000111
100
AcDbArc
 50
270.0
 51
0.000000000000007
  0
LINE
  5
241
330
D84
100
AcDbEntity
  8
1
  6
Continuous
100
AcDbLine
 10
192.8142951014146
 20
103.509715977317
 30
0.0
 11
192.8142951014146
 21
94.10971611291708
 31
0.0
  0
LINE
  5
242
330
D84
100
AcDbEntity
  8
1
  6
Continuous
100
AcDbLine
 10
195.3142950456147
 20
94.10971611291708
 30
0.0
 11
192.8142951014146
 21
94.10971611291708
 31
0.0
  0
LINE
  5
243
330
D84
100
AcDbEntity
  8
1
  6
Continuous
100
AcDbLine
 10
189.2642953112147
 20
94.10971611291708
 30
0.0
 11
189.2642953112147
 21
94.00971628281707
 31
0.0
  0
ARC
  5
244
330
D84
100
AcDbEntity
  8
1
  6
Continuous
100
AcDbCircle
 10
188.9642952572147
 20
94.00971632161706
 30
0.0
 40
0.3000000000000114
100
AcDbArc
 50
270.0
 51
0.000000000000007
  0
LINE
  5
245
330
D84
100
AcDbEntity
  8
4
  6
CENTER
100
AcDbLine
 10
196.8142950456147
 20
101.109716321617
 30
0.0
 11
191.8142951834147
 21
101.109716321617
 31
0.0
  0
LINE
  5
246
330
D84
100
AcDbEntity
  8
1
  6
Continuous
100
AcDbLine
 10
191.2642951733147
 20
103.509715977317
 30
0.0
 11
191.2642951733147
 21
103.009715895417
 31
0.0
  0
LINE
  5
247
330
D84
100
AcDbEntity
  8
1
  6
Continuous
100
AcDbLine
 10
192.0142950634147
 20
103.009715895417
 30
0.0
 11
192.0142950634147
 21
94.90971661661708
 31
0.0
  0
LINE
  5
248
330
D84
100
AcDbEntity
  8
1
  6
Continuous
100
AcDbLine
 10
191.7142951074147
 20
109.8097164512171
 30
0.0
 11
192.0142950634147
 21
109.509716029517
 31
0.0
  0
LINE
  5
249
330
D84
100
AcDbEntity
  8
1
  6
Continuous
100
AcDbLine
 10
192.0142950634147
 20
109.509716029517
 30
0.0
 11
192.0142950634147
 21
108.309716205317
 31
0.0
  0
LINE
  5
24A
330
D84
100
AcDbEntity
  8
1
  6
Continuous
100
AcDbLine
 10
192.8142951014146
 20
105.5097163052169
 30
0.0
 11
193.2044759537147
 21
105.4712871418169
 31
0.0
  0
LINE
  5
24B
330
D84
100
AcDbEntity
  8
1
  6
Continuous
100
AcDbLine
 10
193.2044759537145
 20
105.4712871418171
 30
0.0
 11
193.3141168351147
 21
105.446254122317
 31
0.0
  0
LINE
  5
24C
330
D84
100
AcDbEntity
  8
1
  6
Continuous
100
AcDbLine
 10
183.0142954509147
 20
109.509716029517
 30
0.0
 11
183.0142954509147
 21
103.509715977317
 31
0.0
  0
ARC
  5
24D
330
D84
100
AcDbEntity
  8
1
  6
Continuous
100
AcDbCircle
 10
183.8142952572147
 20
94.90971632161707
 30
0.0
 40
0.8000000000000111
100
AcDbArc
 50
180.0
 51
270.0
  0
LINE
  5
24E
330
D84
100
AcDbEntity
  8
1
  6
Continuous
100
AcDbLine
 10
185.7642952031147
 20
94.00971628281707
 30
0.0
 11
185.7642952031147
 21
94.10971611291708
 31
0.0
  0
ARC
  5
24F
330
D84
100
AcDbEntity
  8
1
  6
Continuous
100
AcDbCircle
 10
186.0642952572147
 20
94.00971632161706
 30
0.0
 40
0.3000000000000114
100
AcDbArc
 50
180.0
 51
270.0
  0
LINE
  5
250
330
D84
100
AcDbEntity
  8
1
  6
Continuous
100
AcDbLine
 10
183.7642953410147
 20
103.009715895417
 30
0.0
 11
183.7642953410147
 21
103.509715977317
 31
0.0
  0
LINE
  5
251
330
D84
100
AcDbEntity
  8
1
  6
Continuous
100
AcDbLine
 10
183.0142954509147
 20
94.90971661661708
 30
0.0
 11
183.0142954509147
 21
103.009715895417
 31
0.0
  0
LINE
  5
252
330
D84
100
AcDbEntity
  8
1
  6
Continuous
100
AcDbLine
 10
183.0142954509147
 20
109.509716029517
 30
0.0
 11
183.3142954069147
 21
109.8097164512171
 31
0.0
  0
LINE
  5
253
330
D84
100
AcDbEntity
  8
1
  6
Continuous
100
AcDbLine
 10
193.3142951834147
 20
127.909716437817
 30
0.0
 11
183.0142954509147
 21
127.909716437817
 31
0.0
  0
LINE
  5
254
330
D84
100
AcDbEntity
  8
1
  6
Continuous
100
AcDbLine
 10
192.0142950634147
 20
126.709716613617
 30
0.0
 11
183.0142954509147
 21
126.709716613617
 31
0.0
  0
LINE
  5
255
330
D84
100
AcDbEntity
  8
1
  6
Continuous
100
AcDbLine
 10
193.3142951834147
 20
129.909716765617
 30
0.0
 11
183.0142954509147
 21
129.909716765617
 31
0.0
  0
LINE
  5
256
330
D84
100
AcDbEntity
  8
1
  6
Continuous
100
AcDbLine
 10
192.8142951014146
 20
130.709716337917
 30
0.0
 11
183.0142954509147
 21
130.709716337917
 31
0.0
  0
LINE
  5
257
330
D84
100
AcDbEntity
  8
1
  6
Continuous
100
AcDbLine
 10
192.4892323236147
 20
132.7097166658171
 30
0.0
 11
183.0142954509147
 21
132.7097166658171
 31
0.0
  0
LINE
  5
258
330
D84
100
AcDbEntity
  8
1
  6
Continuous
100
AcDbLine
 10
183.0142954509147
 20
133.209716747717
 30
0.0
 11
192.0142950634147
 21
133.209716747717
 31
0.0
  0
LINE
  5
259
330
D84
100
AcDbEntity
  8
1
  6
Continuous
100
AcDbLine
 10
191.2142952583147
 20
142.1097165302169
 30
0.0
 11
183.8142952560146
 21
142.1097165302169
 31
0.0
  0
LINE
  5
25A
330
D84
100
AcDbEntity
  8
1
  6
Continuous
100
AcDbLine
 10
188.9642952387147
 20
142.509715850717
 30
0.0
 11
186.0642953920147
 21
142.509715850717
 31
0.0
  0
LINE
  5
25B
330
D84
100
AcDbEntity
  8
1
  6
Continuous
100
AcDbLine
 10
192.8142951014146
 20
142.1097165302169
 30
0.0
 11
192.8142951014146
 21
132.7097166658171
 31
0.0
  0
LINE
  5
25C
330
D84
100
AcDbEntity
  8
1
  6
Continuous
100
AcDbLine
 10
192.0142950634147
 20
141.309716026517
 30
0.0
 11
192.0142950634147
 21
133.209716747717
 31
0.0
  0
LINE
  5
25D
330
D84
100
AcDbEntity
  8
4
  6
CENTER
100
AcDbLine
 10
196.8142950456147
 20
135.109716321617
 30
0.0
 11
191.8142951834147
 21
135.109716321617
 31
0.0
  0
LINE
  5
25E
330
D84
100
AcDbEntity
  8
1
  6
Continuous
100
AcDbLine
 10
193.3141168351147
 20
130.7731785208171
 30
0.0
 11
193.2044759537147
 21
130.7481455013171
 31
0.0
  0
LINE
  5
25F
330
D84
100
AcDbEntity
  8
1
  6
Continuous
100
AcDbLine
 10
193.2044759537147
 20
130.7481455013171
 30
0.0
 11
192.8142951014146
 21
130.7097163379171
 31
0.0
  0
LINE
  5
260
330
D84
100
AcDbEntity
  8
1
  6
Continuous
100
AcDbLine
 10
192.4892323236147
 20
132.7097166658171
 30
0.0
 11
192.8142951014146
 21
132.7097166658171
 31
0.0
  0
LINE
  5
261
330
D84
100
AcDbEntity
  8
1
  6
Continuous
100
AcDbLine
 10
191.2642951733147
 20
133.209716747717
 30
0.0
 11
191.2642951733147
 21
132.7097166658171
 31
0.0
  0
LINE
  5
262
330
D84
100
AcDbEntity
  8
1
  6
Continuous
100
AcDbLine
 10
192.0142950634147
 20
130.709716337917
 30
0.0
 11
192.0142950634147
 21
129.909716765617
 31
0.0
  0
LINE
  5
263
330
D84
100
AcDbEntity
  8
1
  6
Continuous
100
AcDbLine
 10
192.0142950634147
 20
127.909716437817
 30
0.0
 11
192.0142950634147
 21
126.709716613617
 31
0.0
  0
LINE
  5
264
330
D84
100
AcDbEntity
  8
1
  6
Continuous
100
AcDbLine
 10
195.3142950456147
 20
142.1097165302169
 30
0.0
 11
192.8142951014146
 21
142.1097165302169
 31
0.0
  0
ARC
  5
265
330
D84
100
AcDbEntity
  8
1
  6
Continuous
100
AcDbCircle
 10
191.2142952572147
 20
141.309716321617
 30
0.0
 40
0.8000000000000396
100
AcDbArc
 50
0.000000000000007
 51
90.00000000000005
  0
ARC
  5
266
330
D84
100
AcDbEntity
  8
1
  6
Continuous
100
AcDbCircle
 10
188.9642952572147
 20
142.2097163216171
 30
0.0
 40
0.3000000000000114
100
AcDbArc
 50
0.000000000000007
 51
90.00000000000005
  0
LINE
  5
267
330
D84
100
AcDbEntity
  8
1
  6
Continuous
100
AcDbLine
 10
189.2642953112147
 20
142.209716360317
 30
0.0
 11
189.2642953112147
 21
142.1097165302169
 31
0.0
  0
LINE
  5
268
330
D84
100
AcDbEntity
  8
1
  6
Continuous
100
AcDbLine
 10
183.0142954509147
 20
133.209716747717
 30
0.0
 11
183.0142954509147
 21
141.309716026517
 31
0.0
  0
LINE
  5
269
330
D84
100
AcDbEntity
  8
1
  6
Continuous
100
AcDbLine
 10
183.7642953410147
 20
132.7097166658171
 30
0.0
 11
183.7642953410147
 21
133.209716747717
 31
0.0
  0
LINE
  5
26A
330
D84
100
AcDbEntity
  8
1
  6
Continuous
100
AcDbLine
 10
183.0142954509147
 20
132.7097166658171
 30
0.0
 11
183.0142954509147
 21
126.709716613617
 31
0.0
  0
ARC
  5
26B
330
D84
100
AcDbEntity
  8
1
  6
Continuous
100
AcDbCircle
 10
186.0642952572147
 20
142.2097163216171
 30
0.0
 40
0.3000000000000114
100
AcDbArc
 50
90.00000000000005
 51
180.0
  0
LINE
  5
26C
330
D84
100
AcDbEntity
  8
1
  6
Continuous
100
AcDbLine
 10
185.7642952031147
 20
142.1097165302169
 30
0.0
 11
185.7642952031147
 21
142.209716360317
 31
0.0
  0
ARC
  5
26D
330
D84
100
AcDbEntity
  8
1
  6
Continuous
100
AcDbCircle
 10
183.8142952572147
 20
141.309716321617
 30
0.0
 40
0.8000000000000111
100
AcDbArc
 50
90.00000000000005
 51
180.0
  0
LINE
  5
29C
330
D84
100
AcDbEntity
  8
0
  6
Continuous
100
AcDbLine
 10
188.8142947297548
 20
103.7097159773171
 30
0.0
 11
188.8142947297548
 21
105.3097163052171
 31
0.0
  0
LINE
  5
29D
330
D84
100
AcDbEntity
  8
0
  6
Continuous
100
AcDbLine
 10
188.8142947297548
 20
132.5097166659169
 30
0.0
 11
188.8142947297548
 21
130.909716338017
 31
0.0
  0
LINE
  5
29F
330
D84
100
AcDbEntity
  8
4
  6
CENTER
100
AcDbLine
 10
283.0204668620536
 20
118.109716321617
 30
0.0
 11
238.0204677561536
 21
118.109716321617
 31
0.0
  0
LINE
  5
2A0
330
D84
100
AcDbEntity
  8
4
  6
CENTER
100
AcDbLine
 10
271.8704674730536
 20
101.109716321617
 30
0.0
 11
279.1704674730536
 21
101.109716321617
 31
0.0
  0
LINE
  5
2A1
330
D84
100
AcDbEntity
  8
1
  6
Continuous
100
AcDbLine
 10
279.0204675475536
 20
94.10971611291708
 30
0.0
 11
270.5204670855536
 21
94.10971611291708
 31
0.0
  0
CIRCLE
  5
2A2
330
D84
100
AcDbEntity
  8
1
  6
Continuous
100
AcDbCircle
 10
275.5204674730537
 20
101.109716321617
 30
0.0
 40
2.150000000000006
  0
LINE
  5
2A3
330
D84
100
AcDbEntity
  8
4
  6
CENTER
100
AcDbLine
 10
271.8704674730536
 20
135.109716321617
 30
0.0
 11
279.1704674730536
 21
135.109716321617
 31
0.0
  0
LINE
  5
2A4
330
D84
100
AcDbEntity
  8
1
  6
Continuous
100
AcDbLine
 10
270.5204670855536
 20
142.1097165302169
 30
0.0
 11
279.0204675475536
 21
142.1097165302169
 31
0.0
  0
CIRCLE
  5
2A5
330
D84
100
AcDbEntity
  8
1
  6
Continuous
100
AcDbCircle
 10
275.5204674730536
 20
135.109716321617
 30
0.0
 40
2.150000000000006
  0
LINE
  5
2A6
330
D84
100
AcDbEntity
  8
1
  6
Continuous
100
AcDbLine
 10
280.5204668620536
 20
140.6097172156171
 30
0.0
 11
280.5204668620536
 21
95.60971542751708
 31
0.0
  0
ARC
  5
2A7
330
D84
100
AcDbEntity
  8
1
  6
Continuous
100
AcDbCircle
 10
279.0204674730537
 20
95.60971632161708
 30
0.0
 40
1.5
100
AcDbArc
 50
270.0
 51
0.000000000000007
  0
LINE
  5
2A8
330
D84
100
AcDbEntity
  8
4
  6
CENTER
100
AcDbLine
 10
275.5204674730536
 20
104.759716321617
 30
0.0
 11
275.5204674730536
 21
97.45971632161706
 31
0.0
  0
LINE
  5
2A9
330
D84
100
AcDbEntity
  8
4
  6
CENTER
100
AcDbLine
 10
275.5204674730536
 20
138.759716321617
 30
0.0
 11
275.5204674730536
 21
131.459716321617
 31
0.0
  0
ARC
  5
2AA
330
D84
100
AcDbEntity
  8
1
  6
Continuous
100
AcDbCircle
 10
279.0204674730536
 20
140.609716321617
 30
0.0
 40
1.500000000000006
100
AcDbArc
 50
0.000000000000007
 51
90.00000000000005
  0
LINE
  5
2AB
330
D84
100
AcDbEntity
  8
4
  6
CENTER
100
AcDbLine
 10
261.5204674730536
 20
145.009715850717
 30
0.0
 11
261.5204674730536
 21
91.20971679241709
 31
0.0
  0
LINE
  5
2AE
330
D84
100
AcDbEntity
  8
1
  6
Continuous
100
AcDbLine
 10
249.5204674730536
 20
130.709716321617
 30
0.0
 11
249.5204674730536
 21
105.509716321617
 31
0.0
  0
LINE
  5
2AF
330
D84
100
AcDbEntity
  8
1
  6
Continuous
100
AcDbLine
 10
257.0204676667536
 20
130.709716337917
 30
0.0
 11
257.0204676667536
 21
105.5097163052171
 31
0.0
  0
LINE
  5
2B0
330
D84
100
AcDbEntity
  8
1
  6
Continuous
100
AcDbLine
 10
240.5204677561536
 20
95.60971542751708
 30
0.0
 11
240.5204677561536
 21
140.6097172156171
 31
0.0
  0
LINE
  5
2B1
330
D84
100
AcDbEntity
  8
1
  6
Continuous
100
AcDbLine
 10
265.2204674741536
 20
94.10971611291708
 30
0.0
 11
242.0204670706536
 21
94.10971611291708
 31
0.0
  0
LINE
  5
2B2
330
D84
100
AcDbEntity
  8
4
  6
CENTER
100
AcDbLine
 10
241.8704674730536
 20
101.109716321617
 30
0.0
 11
249.1704674730537
 21
101.109716321617
 31
0.0
  0
LINE
  5
2B3
330
D84
100
AcDbEntity
  8
1
  6
Continuous
100
AcDbLine
 10
252.5204678604536
 20
105.5097163052171
 30
0.0
 11
252.5204678604536
 21
94.10971611291708
 31
0.0
  0
ARC
  5
2B4
330
D84
100
AcDbEntity
  8
1
  6
Continuous
100
AcDbCircle
 10
251.5204674730536
 20
105.509716321617
 30
0.0
 40
2.000000000000026
100
AcDbArc
 50
180.0
 51
270.0
  0
LINE
  5
2B5
330
D84
100
AcDbEntity
  8
1
  6
Continuous
100
AcDbLine
 10
269.0204673053536
 20
95.60971542751708
 30
0.0
 11
269.0204673053536
 21
106.309715877517
 31
0.0
  0
LINE
  5
2B6
330
D84
100
AcDbEntity
  8
1
  6
Continuous
100
AcDbLine
 10
266.0204672792536
 20
108.3097162053171
 30
0.0
 11
266.0204672792536
 21
103.509715977317
 31
0.0
  0
LINE
  5
2B7
330
D84
100
AcDbEntity
  8
1
  6
Continuous
100
AcDbLine
 10
266.0204672792536
 20
103.509715977317
 30
0.0
 11
260.5204674255536
 21
103.509715977317
 31
0.0
  0
LINE
  5
2B8
330
D84
100
AcDbEntity
  8
1
  6
Continuous
100
AcDbLine
 10
266.0204672792536
 20
103.009715895417
 30
0.0
 11
260.5204674255536
 21
103.009715895417
 31
0.0
  0
ARC
  5
2B9
330
D84
100
AcDbEntity
  8
1
  6
Continuous
100
AcDbCircle
 10
265.2204674730536
 20
94.90971632161706
 30
0.0
 40
0.7999999999999972
100
AcDbArc
 50
270.0
 51
0.000000000000007
  0
ARC
  5
2BA
330
D84
100
AcDbEntity
  8
1
  6
Continuous
100
AcDbCircle
 10
270.5204674730537
 20
95.60971632161706
 30
0.0
 40
1.5
100
AcDbArc
 50
180.0
 51
270.0
  0
LINE
  5
2BB
330
D84
100
AcDbEntity
  8
1
  6
Continuous
100
AcDbLine
 10
263.2704675270534
 20
94.00971628281707
 30
0.0
 11
259.7704674189536
 21
94.00971628281707
 31
0.0
  0
LINE
  5
2BC
330
D84
100
AcDbEntity
  8
1
  6
Continuous
100
AcDbLine
 10
260.0704674914536
 20
93.70971679241709
 30
0.0
 11
262.9704674545536
 21
93.70971679241709
 31
0.0
  0
LINE
  5
2BD
330
D84
100
AcDbEntity
  8
1
  6
Continuous
100
AcDbLine
 10
263.2704675270534
 20
94.10971611291708
 30
0.0
 11
263.2704675270534
 21
94.00971628281707
 31
0.0
  0
ARC
  5
2BE
330
D84
100
AcDbEntity
  8
1
  6
Continuous
100
AcDbCircle
 10
262.9704674730536
 20
94.00971632161704
 30
0.0
 40
0.3000000000000114
100
AcDbArc
 50
270.0
 51
0.000000000000007
  0
LINE
  5
2BF
330
D84
100
AcDbEntity
  8
1
  6
Continuous
100
AcDbLine
 10
259.7704674189536
 20
94.00971628281707
 30
0.0
 11
259.7704674189536
 21
94.10971611291708
 31
0.0
  0
ARC
  5
2C0
330
D84
100
AcDbEntity
  8
1
  6
Continuous
100
AcDbCircle
 10
260.0704674730536
 20
94.00971632161704
 30
0.0
 40
0.3000000000000114
100
AcDbArc
 50
180.0
 51
270.0
  0
LINE
  5
2C1
330
D84
100
AcDbEntity
  8
1
  6
Continuous
100
AcDbLine
 10
265.2704673891536
 20
103.509715977317
 30
0.0
 11
265.2704673891536
 21
103.009715895417
 31
0.0
  0
LINE
  5
2C2
330
D84
100
AcDbEntity
  8
1
  6
Continuous
100
AcDbLine
 10
266.0204672792536
 20
103.009715895417
 30
0.0
 11
266.0204672792536
 21
94.90971661661708
 31
0.0
  0
CIRCLE
  5
2C7
330
D84
100
AcDbEntity
  8
1
  6
Continuous
100
AcDbCircle
 10
245.5204674730536
 20
101.109716321617
 30
0.0
 40
2.150000000000006
  0
LINE
  5
2C8
330
D84
100
AcDbEntity
  8
4
  6
CENTER
100
AcDbLine
 10
245.5204674730536
 20
104.759716321617
 30
0.0
 11
245.5204674730536
 21
97.45971632161706
 31
0.0
  0
LINE
  5
2C9
330
D84
100
AcDbEntity
  8
1
  6
Continuous
100
AcDbLine
 10
267.0204674431536
 20
108.309716205317
 30
0.0
 11
266.0204672792536
 21
108.309716205317
 31
0.0
  0
LINE
  5
2CD
330
D84
100
AcDbEntity
  8
1
  6
Continuous
100
AcDbLine
 10
266.0204672792536
 20
106.309715877517
 30
0.0
 11
257.0204676667536
 21
106.309715877517
 31
0.0
  0
LINE
  5
2CE
330
D84
100
AcDbEntity
  8
1
  6
Continuous
100
AcDbLine
 10
266.0204672792536
 20
105.5097163052171
 30
0.0
 11
252.5204678604536
 21
105.5097163052171
 31
0.0
  0
LINE
  5
2CF
330
D84
100
AcDbEntity
  8
4
  6
CENTER
100
AcDbLine
 10
265.5204674730536
 20
121.7597163216171
 30
0.0
 11
265.5204674730536
 21
114.459716321617
 31
0.0
  0
ARC
  5
2D0
330
D84
100
AcDbEntity
  8
1
  6
Continuous
100
AcDbCircle
 10
267.0204674730537
 20
106.309716321617
 30
0.0
 40
2.0
100
AcDbArc
 50
0.000000000000007
 51
90.00000000000005
  0
CIRCLE
  5
2D2
330
D84
100
AcDbEntity
  8
1
  6
Continuous
100
AcDbCircle
 10
265.5204674730537
 20
118.109716321617
 30
0.0
 40
2.150000000000006
  0
ARC
  5
2D4
330
D84
100
AcDbEntity
  8
1
  6
Continuous
100
AcDbCircle
 10
242.0204674730536
 20
95.60971632161706
 30
0.0
 40
1.5
100
AcDbArc
 50
180.0
 51
270.0
  0
LINE
  5
2D5
330
D84
100
AcDbEntity
  8
1
  6
Continuous
100
AcDbLine
 10
265.2204674730536
 20
142.109716321617
 30
0.0
 11
242.0204670706536
 21
142.1097165302169
 31
0.0
  0
LINE
  5
2D6
330
D84
100
AcDbEntity
  8
4
  6
CENTER
100
AcDbLine
 10
241.8704674730536
 20
135.109716321617
 30
0.0
 11
249.1704674730537
 21
135.109716321617
 31
0.0
  0
LINE
  5
2D7
330
D84
100
AcDbEntity
  8
1
  6
Continuous
100
AcDbLine
 10
266.0204672792536
 20
132.7097166658171
 30
0.0
 11
260.5204674255536
 21
132.7097166658171
 31
0.0
  0
LINE
  5
2D8
330
D84
100
AcDbEntity
  8
1
  6
Continuous
100
AcDbLine
 10
266.0204672792536
 20
130.709716337917
 30
0.0
 11
252.5204678604536
 21
130.709716337917
 31
0.0
  0
LINE
  5
2D9
330
D84
100
AcDbEntity
  8
1
  6
Continuous
100
AcDbLine
 10
266.0204672792536
 20
129.909716765617
 30
0.0
 11
257.0204676667536
 21
129.909716765617
 31
0.0
  0
LINE
  5
2DA
330
D84
100
AcDbEntity
  8
1
  6
Continuous
100
AcDbLine
 10
260.5204674255535
 20
133.209716747717
 30
0.0
 11
266.0204672792536
 21
133.209716747717
 31
0.0
  0
LINE
  5
2DB
330
D84
100
AcDbEntity
  8
1
  6
Continuous
100
AcDbLine
 10
267.0204674431536
 20
127.909716437817
 30
0.0
 11
266.0204672792535
 21
127.909716437817
 31
0.0
  0
LINE
  5
2DD
330
D84
100
AcDbEntity
  8
1
  6
Continuous
100
AcDbLine
 10
269.0204673053536
 20
129.909716765617
 30
0.0
 11
269.0204673053536
 21
140.6097172156171
 31
0.0
  0
LINE
  5
2DE
330
D84
100
AcDbEntity
  8
1
  6
Continuous
100
AcDbLine
 10
266.0204672792536
 20
141.309716026517
 30
0.0
 11
266.0204672792536
 21
133.209716747717
 31
0.0
  0
ARC
  5
2DF
330
D84
100
AcDbEntity
  8
1
  6
Continuous
100
AcDbCircle
 10
267.0204674730537
 20
129.909716321617
 30
0.0
 40
2.0
100
AcDbArc
 50
270.0
 51
0.000000000000007
  0
LINE
  5
2E0
330
D84
100
AcDbEntity
  8
1
  6
Continuous
100
AcDbLine
 10
265.2704673891536
 20
133.209716747717
 30
0.0
 11
265.2704673891536
 21
132.7097166658171
 31
0.0
  0
LINE
  5
2E1
330
D84
100
AcDbEntity
  8
1
  6
Continuous
100
AcDbLine
 10
266.0204672792536
 20
132.7097166658171
 30
0.0
 11
266.0204672792536
 21
127.909716437817
 31
0.0
  0
ARC
  5
2E2
330
D84
100
AcDbEntity
  8
1
  6
Continuous
100
AcDbCircle
 10
270.5204674730537
 20
140.609716321617
 30
0.0
 40
1.500000000000006
100
AcDbArc
 50
90.00000000000005
 51
180.0
  0
LINE
  5
2E3
330
D84
100
AcDbEntity
  8
1
  6
Continuous
100
AcDbLine
 10
259.7704674189536
 20
142.209716360317
 30
0.0
 11
263.2704675270534
 21
142.209716360317
 31
0.0
  0
LINE
  5
2E4
330
D84
100
AcDbEntity
  8
1
  6
Continuous
100
AcDbLine
 10
262.9704674545536
 20
142.509715850717
 30
0.0
 11
260.0704674914536
 21
142.509715850717
 31
0.0
  0
LINE
  5
2E5
330
D84
100
AcDbEntity
  8
1
  6
Continuous
100
AcDbLine
 10
263.2704675270534
 20
142.209716360317
 30
0.0
 11
263.2704675270534
 21
142.1097165302169
 31
0.0
  0
ARC
  5
2E6
330
D84
100
AcDbEntity
  8
1
  6
Continuous
100
AcDbCircle
 10
262.9704674730536
 20
142.209716321617
 30
0.0
 40
0.2999999999999972
100
AcDbArc
 50
0.000000000000007
 51
90.00000000000005
  0
ARC
  5
2E7
330
D84
100
AcDbEntity
  8
1
  6
Continuous
100
AcDbCircle
 10
265.2204674730536
 20
141.309716321617
 30
0.0
 40
0.7999999999999901
100
AcDbArc
 50
0.000000000000007
 51
90.00000000000005
  0
LINE
  5
2E8
330
D84
100
AcDbEntity
  8
1
  6
Continuous
100
AcDbLine
 10
259.7704674189536
 20
142.1097165302169
 30
0.0
 11
259.7704674189536
 21
142.209716360317
 31
0.0
  0
ARC
  5
2E9
330
D84
100
AcDbEntity
  8
1
  6
Continuous
100
AcDbCircle
 10
260.0704674730536
 20
142.209716321617
 30
0.0
 40
0.2999999999999972
100
AcDbArc
 50
90.00000000000005
 51
180.0
  0
CIRCLE
  5
2EA
330
D84
100
AcDbEntity
  8
1
  6
Continuous
100
AcDbCircle
 10
245.5204674730536
 20
135.109716321617
 30
0.0
 40
2.150000000000006
  0
LINE
  5
2EB
330
D84
100
AcDbEntity
  8
4
  6
CENTER
100
AcDbLine
 10
245.5204674730536
 20
138.759716321617
 30
0.0
 11
245.5204674730536
 21
131.459716321617
 31
0.0
  0
ARC
  5
2EE
330
D84
100
AcDbEntity
  8
1
  6
Continuous
100
AcDbCircle
 10
251.5204674730536
 20
130.709716321617
 30
0.0
 40
2.000000000000026
100
AcDbArc
 50
90.00000000000005
 51
180.0
  0
LINE
  5
2F0
330
D84
100
AcDbEntity
  8
1
  6
Continuous
100
AcDbLine
 10
252.5204678604536
 20
142.1097165302169
 30
0.0
 11
252.5204678604536
 21
130.709716337917
 31
0.0
  0
ARC
  5
2F2
330
D84
100
AcDbEntity
  8
1
  6
Continuous
100
AcDbCircle
 10
242.0204674730536
 20
140.609716321617
 30
0.0
 40
1.500000000000006
100
AcDbArc
 50
90.00000000000005
 51
180.0
  0
LINE
  5
320
330
D84
100
AcDbEntity
  8
1
  6
Continuous
100
AcDbLine
 10
249.5204673686536
 20
95.67638277958367
 30
0.0
 11
249.5204673686628
 21
101.9430493106503
 31
0.0
  0
LINE
  5
322
330
D84
100
AcDbEntity
  8
1
  6
Continuous
100
AcDbLine
 10
249.5204673686536
 20
140.5430498636504
 30
0.0
 11
249.5204673686628
 21
134.2763833325836
 31
0.0
  0
LINE
  5
323
330
D84
100
AcDbEntity
  8
1
  6
Continuous
100
AcDbLine
 10
260.5204674255536
 20
95.60971611301701
 30
0.0
 11
260.5204674255536
 21
105.5097163052171
 31
0.0
  0
LINE
  5
325
330
D84
100
AcDbEntity
  8
1
  6
Continuous
100
AcDbLine
 10
252.5204678604536
 20
103.509715977317
 30
0.0
 11
251.5204676965536
 21
103.509715977317
 31
0.0
  0
LINE
  5
326
330
D84
100
AcDbEntity
  8
1
  6
Continuous
100
AcDbLine
 10
260.5204674255536
 20
140.609716530217
 30
0.0
 11
260.5204674255536
 21
130.709716338017
 31
0.0
  0
LINE
  5
328
330
D84
100
AcDbEntity
  8
1
  6
Continuous
100
AcDbLine
 10
252.5204678604536
 20
132.7097166658171
 30
0.0
 11
251.5204676965536
 21
132.7097166658171
 31
0.0
  0
ARC
  5
329
330
D84
100
AcDbEntity
  8
1
  6
Continuous
100
AcDbCircle
 10
259.0204674255536
 20
140.609716530217
 30
0.0
 40
1.5
100
AcDbArc
 50
0.0
 51
90.0
  0
ARC
  5
32A
330
D84
100
AcDbEntity
  8
1
  6
Continuous
100
AcDbCircle
 10
259.0204674255536
 20
95.60971611301701
 30
0.0
 40
1.5
100
AcDbArc
 50
270.0
 51
0.0
  0
LINE
  5
765
330
D84
100
AcDbEntity
  8
1
  6
Continuous
100
AcDbLine
 10
94.50812365237592
 20
198.121322846575
 30
0.0
 11
118.0081228476758
 21
198.121322846575
 31
0.0
  0
LINE
  5
766
330
D84
100
AcDbEntity
  8
1
  6
Continuous
100
AcDbLine
 10
94.50812365237592
 20
196.121322984375
 30
0.0
 11
109.008123235076
 21
196.121322984375
 31
0.0
  0
LINE
  5
767
330
D84
100
AcDbEntity
  8
5
  6
PHANTOM
100
AcDbLine
 10
101.5081229370756
 20
182.5213232697748
 30
0.0
 11
92.50812332447564
 21
182.5213232697748
 31
0.0
  0
LINE
  5
768
330
D84
100
AcDbEntity
  8
5
  6
PHANTOM
100
AcDbLine
 10
101.5081229370756
 20
184.5213231319749
 30
0.0
 11
92.50812332447564
 21
184.5213231319749
 31
0.0
  0
LINE
  5
76A
330
D84
100
AcDbEntity
  8
4
  6
CENTER
100
AcDbLine
 10
99.50812304137587
 20
194.621322984375
 30
0.0
 11
99.50812304137587
 21
199.621322846575
 31
0.0
  0
LINE
  5
76B
330
D84
100
AcDbEntity
  8
1
  6
Continuous
100
AcDbLine
 10
94.50812365237592
 20
198.121322846575
 30
0.0
 11
94.50812365237592
 21
196.121322984375
 31
0.0
  0
LINE
  5
76C
330
D84
100
AcDbEntity
  8
4
  6
CENTER
100
AcDbLine
 10
97.5081230413757
 20
186.0213231319749
 30
0.0
 11
97.5081230413757
 21
181.0213232697748
 31
0.0
  0
LINE
  5
76D
330
D84
100
AcDbEntity
  8
5
  6
PHANTOM
100
AcDbLine
 10
92.50812332447564
 20
184.5213231319749
 30
0.0
 11
92.50812332447564
 21
182.5213232697748
 31
0.0
  0
LINE
  5
772
330
D84
100
AcDbEntity
  8
1
  6
Continuous
100
AcDbLine
 10
122.5081226539759
 20
195.6213229023751
 30
0.0
 11
122.5081226539759
 21
192.599382080675
 31
0.0
  0
ARC
  5
773
330
D84
100
AcDbEntity
  8
1
  6
Continuous
100
AcDbCircle
 10
114.0081230413758
 20
195.2962602436749
 30
0.0
 40
0.5000000000000174
100
AcDbArc
 50
264.2608295226991
 51
0.0
  0
LINE
  5
774
330
D84
100
AcDbEntity
  8
4
  6
CENTER
100
AcDbLine
 10
113.5081230413758
 20
184.3213230581751
 30
0.0
 11
113.5081230413758
 21
196.3213230581751
 31
0.0
  0
LINE
  5
775
330
D84
100
AcDbEntity
  8
4
  6
CENTER
100
AcDbLine
 10
109.5081230413758
 20
194.621322984375
 30
0.0
 11
109.5081230413758
 21
199.621322846575
 31
0.0
  0
LINE
  5
776
330
D84
100
AcDbEntity
  8
4
  6
CENTER
100
AcDbLine
 10
129.5081230413758
 20
194.621322984375
 30
0.0
 11
129.5081230413758
 21
199.621322846575
 31
0.0
  0
LINE
  5
777
330
D84
100
AcDbEntity
  8
1
  6
Continuous
100
AcDbLine
 10
109.0081232350758
 20
198.121322846575
 30
0.0
 11
109.0081232350758
 21
190.3213230581751
 31
0.0
  0
LINE
  5
778
330
D84
100
AcDbEntity
  8
1
  6
Continuous
100
AcDbLine
 10
125.5081231456758
 20
196.121322984375
 30
0.0
 11
134.5081227582758
 21
196.121322984375
 31
0.0
  0
LINE
  5
779
330
D84
100
AcDbEntity
  8
1
  6
Continuous
100
AcDbLine
 10
125.5081231456758
 20
198.121322846575
 30
0.0
 11
134.5081227582758
 21
198.1213228465751
 31
0.0
  0
LINE
  5
77B
330
D84
100
AcDbEntity
  8
1
  6
Continuous
100
AcDbLine
 10
114.5081230888759
 20
195.6213229023751
 30
0.0
 11
122.5081226539759
 21
195.6213229023751
 31
0.0
  0
LINE
  5
77C
330
D84
100
AcDbEntity
  8
1
  6
Continuous
100
AcDbLine
 10
114.5081230888759
 20
197.621323230275
 30
0.0
 11
122.5081226539759
 21
197.621323230275
 31
0.0
  0
LINE
  5
77D
330
D84
100
AcDbEntity
  8
1
  6
Continuous
100
AcDbLine
 10
106.0081232089759
 20
196.121322984375
 30
0.0
 11
106.0081232089759
 21
198.121322846575
 31
0.0
  0
LINE
  5
77E
330
D84
100
AcDbEntity
  8
1
  6
Continuous
100
AcDbLine
 10
114.5081230888759
 20
195.2962601245751
 30
0.0
 11
114.5081230888759
 21
195.6213229023751
 31
0.0
  0
LINE
  5
77F
330
D84
100
AcDbEntity
  8
1
  6
Continuous
100
AcDbLine
 10
114.5081230888759
 20
197.621323230275
 30
0.0
 11
114.5081230888759
 21
195.6213229023751
 31
0.0
  0
LINE
  5
780
330
D84
100
AcDbEntity
  8
1
  6
Continuous
100
AcDbLine
 10
125.5081231456758
 20
196.1213229843749
 30
0.0
 11
122.8567679163758
 21
195.6519457199748
 31
0.0
  0
LINE
  5
781
330
D84
100
AcDbEntity
  8
1
  6
Continuous
100
AcDbLine
 10
122.5081226539759
 20
197.621323230275
 30
0.0
 11
125.1594788145759
 21
198.0907004945751
 31
0.0
  0
ARC
  5
782
330
D84
100
AcDbEntity
  8
1
  6
Continuous
100
AcDbCircle
 10
122.5081230413758
 20
197.6213230581749
 30
0.0
 40
2.0
100
AcDbArc
 50
270.0
 51
280.0392252656004
  0
LINE
  5
783
330
D84
100
AcDbEntity
  8
1
  6
Continuous
100
AcDbLine
 10
118.0081228476758
 20
197.621323230275
 30
0.0
 11
118.0081228476758
 21
198.121322846575
 31
0.0
  0
ARC
  5
784
330
D84
100
AcDbEntity
  8
1
  6
Continuous
100
AcDbCircle
 10
125.5081230413758
 20
196.1213230581751
 30
0.0
 40
2.0
100
AcDbArc
 50
90.00000000000005
 51
100.0392252656003
  0
LINE
  5
785
330
D84
100
AcDbEntity
  8
1
  6
Continuous
100
AcDbLine
 10
134.5081227582758
 20
196.121322984375
 30
0.0
 11
134.5081227582758
 21
198.1213228465751
 31
0.0
  0
LINE
  5
786
330
D84
100
AcDbEntity
  8
4
  6
CENTER
100
AcDbLine
 10
107.5081230413758
 20
190.3213230581751
 30
0.0
 11
119.5081230413758
 21
190.3213230581751
 31
0.0
  0
LINE
  5
787
330
D84
100
AcDbEntity
  8
1
  6
Continuous
100
AcDbLine
 10
121.7361428525757
 20
191.0207852525752
 30
0.0
 11
116.2711671304758
 21
186.7694801804752
 31
0.0
  0
CIRCLE
  5
788
330
D84
100
AcDbEntity
  8
1
  6
Continuous
100
AcDbCircle
 10
113.5081230413758
 20
190.3213230581751
 30
0.0
 40
4.5
  0
LINE
  5
789
330
D84
100
AcDbEntity
  8
5
  6
PHANTOM
100
AcDbLine
 10
112.5081229938759
 20
183.0213228860751
 30
0.0
 11
112.5081229938759
 21
185.0213232139751
 31
0.0
  0
LINE
  5
78A
330
D84
100
AcDbEntity
  8
5
  6
PHANTOM
100
AcDbLine
 10
112.5081229938758
 20
185.021323213975
 30
0.0
 11
104.5081234287756
 21
185.021323213975
 31
0.0
  0
LINE
  5
78B
330
D84
100
AcDbEntity
  8
5
  6
PHANTOM
100
AcDbLine
 10
105.2801032301758
 20
189.621860863775
 30
0.0
 11
109.0081232350758
 21
192.5219561545246
 31
0.0
  0
LINE
  5
78C
330
D84
100
AcDbEntity
  8
5
  6
PHANTOM
100
AcDbLine
 10
101.5081229370758
 20
184.521323131975
 30
0.0
 11
104.1594781663758
 21
184.9907003963751
 31
0.0
  0
ARC
  5
78D
330
D84
100
AcDbEntity
  8
5
  6
PHANTOM
100
AcDbCircle
 10
104.5081230413758
 20
183.0213230581748
 30
0.0
 40
2.0
100
AcDbArc
 50
90.00000000000005
 51
100.0392252656003
  0
ARC
  5
78E
330
D84
100
AcDbEntity
  8
5
  6
PHANTOM
100
AcDbCircle
 10
106.5081230413758
 20
188.0432640202749
 30
0.0
 40
2.000000000000003
100
AcDbArc
 50
127.8800037574993
 51
180.0
  0
LINE
  5
78F
330
D84
100
AcDbEntity
  8
5
  6
PHANTOM
100
AcDbLine
 10
104.5081234287756
 20
185.021323213975
 30
0.0
 11
104.5081234287756
 21
188.0432640356748
 31
0.0
  0
ARC
  5
790
330
D84
100
AcDbEntity
  8
5
  6
PHANTOM
100
AcDbCircle
 10
113.0081230413758
 20
185.346385872675
 30
0.0
 40
0.5000000000000174
100
AcDbArc
 50
84.26082952270084
 51
180.0
  0
LINE
  5
791
330
D84
100
AcDbEntity
  8
5
  6
PHANTOM
100
AcDbLine
 10
112.5081229938759
 20
185.346385991775
 30
0.0
 11
112.5081229938759
 21
185.0213232139751
 31
0.0
  0
CIRCLE
  5
792
330
D84
100
AcDbEntity
  8
1
  6
Continuous
100
AcDbCircle
 10
113.5081230413758
 20
190.3213230581751
 30
0.0
 40
1.750000000000025
  0
LINE
  5
793
330
D84
100
AcDbEntity
  8
5
  6
PHANTOM
100
AcDbLine
 10
112.5081229938758
 20
183.0213228860749
 30
0.0
 11
104.5081234287756
 21
183.0213228860749
 31
0.0
  0
LINE
  5
794
330
D84
100
AcDbEntity
  8
5
  6
PHANTOM
100
AcDbLine
 10
104.5081234287758
 20
183.0213228860749
 30
0.0
 11
101.8567672681758
 21
182.5519456217748
 31
0.0
  0
ARC
  5
795
330
D84
100
AcDbEntity
  8
5
  6
PHANTOM
100
AcDbCircle
 10
101.5081230413758
 20
184.521323058175
 30
0.0
 40
2.0
100
AcDbArc
 50
270.0
 51
280.0392252656004
  0
ARC
  5
796
330
D84
100
AcDbEntity
  8
1
  6
Continuous
100
AcDbCircle
 10
120.5081230413758
 20
192.5993820960751
 30
0.0
 40
2.000000000000003
100
AcDbArc
 50
307.8800037574994
 51
0.0
  0
ENDSEC
  0
SECTION
  2
OBJECTS
  0
DICTIONARY
  5
D21
330
0
100
AcDbDictionary
281
     1
  3
ACAD_CIP_PREVIOUS_PRODUCT_INFO
350
D9D
  3
ACAD_COLOR
350
D77
  3
ACAD_DETAILVIEWSTYLE
350
D7E
  3
ACAD_GROUP
350
D22
  3
ACAD_LAYOUT
350
D76
  3
ACAD_MATERIAL
350
D25
  3
ACAD_MLEADERSTYLE
350
D7A
  3
ACAD_MLINESTYLE
350
D73
  3
ACAD_PLOTSETTINGS
350
D75
  3
ACAD_PLOTSTYLENAME
350
D23
  3
ACAD_SCALELIST
350
D57
  3
ACAD_SECTIONVIEWSTYLE
350
D7C
  3
ACAD_TABLESTYLE
350
D78
  3
ACAD_VISUALSTYLE
350
D3E
  3
ACDB_RECOMPOSE_DATA
350
DBB
  3
AcDbVariableDictionary
350
DAE
  3
DWGPROPS
350
DBC
  0
DICTIONARY
  5
D9E
330
D69
100
AcDbDictionary
280
     1
281
     1
  3
ADSK_XREC_LAYER_RECONCILED
360
D9F
  0
DICTIONARY
  5
DA0
330
D8C
100
AcDbDictionary
280
     1
281
     1
  3
ADSK_XREC_LAYER_RECONCILED
360
DA1
  0
DICTIONARY
  5
DA2
330
D8D
100
AcDbDictionary
280
     1
281
     1
  3
ADSK_XREC_LAYER_RECONCILED
360
DA3
  0
DICTIONARY
  5
DA4
330
D8E
100
AcDbDictionary
280
     1
281
     1
  3
ADSK_XREC_LAYER_RECONCILED
360
DA5
  0
DICTIONARY
  5
DA6
330
D8F
100
AcDbDictionary
280
     1
281
     1
  3
ADSK_XREC_LAYER_RECONCILED
360
DA7
  0
DICTIONARY
  5
DA8
330
D90
100
AcDbDictionary
280
     1
281
     1
  3
ADSK_XREC_LAYER_RECONCILED
360
DA9
  0
DICTIONARY
  5
DAA
330
D91
100
AcDbDictionary
280
     1
281
     1
  3
ADSK_XREC_LAYER_RECONCILED
360
DAB
  0
DICTIONARY
  5
DAC
330
D92
100
AcDbDictionary
280
     1
281
     1
  3
ADSK_XREC_LAYER_RECONCILED
360
DAD
  0
XRECORD
  5
D9D
102
{ACAD_REACTORS
330
D21
102
}
330
D21
100
AcDbXrecord
280
     1
300
ACDLT
300
2014
300
ACDLT_F_S
  0
DICTIONARY
  5
D77
102
{ACAD_REACTORS
330
D21
102
}
330
D21
100
AcDbDictionary
281
     1
  0
DICTIONARY
  5
D7E
102
{ACAD_REACTORS
330
D21
102
}
330
D21
100
AcDbDictionary
281
     1
  3
Imperial24
350
D7F
  0
DICTIONARY
  5
D22
102
{ACAD_REACTORS
330
D21
102
}
330
D21
100
AcDbDictionary
281
     1
  0
DICTIONARY
  5
D76
102
{ACAD_REACTORS
330
D21
102
}
330
D21
100
AcDbDictionary
281
     1
  3
Model
350
D87
  3
レイアウト1
350
D83
  0
DICTIONARY
  5
D25
102
{ACAD_REACTORS
330
D21
102
}
330
D21
100
AcDbDictionary
281
     1
  3
ByBlock
350
D2E
  3
ByLayer
350
D26
  3
Global
350
D36
  0
DICTIONARY
  5
D7A
102
{ACAD_REACTORS
330
D21
102
}
330
D21
100
AcDbDictionary
281
     1
  3
Standard
350
D7B
  0
DICTIONARY
  5
D73
102
{ACAD_REACTORS
330
D21
102
}
330
D21
100
AcDbDictionary
281
     1
  3
Standard
350
D74
  0
DICTIONARY
  5
D75
102
{ACAD_REACTORS
330
D21
102
}
330
D21
100
AcDbDictionary
281
     1
  0
ACDBDICTIONARYWDFLT
  5
D23
102
{ACAD_REACTORS
330
D21
102
}
330
D21
100
AcDbDictionary
281
     1
  3
Normal
350
D24
100
AcDbDictionaryWithDefault
340
D24
  0
DICTIONARY
  5
D57
102
{ACAD_REACTORS
330
D21
102
}
330
D21
100
AcDbDictionary
281
     1
  3
A0
350
D58
  3
A1
350
D59
  3
A2
350
D5A
  3
A3
350
D5B
  3
A4
350
D5C
  3
A5
350
D5D
  3
A6
350
D5E
  3
A7
350
D5F
  3
A8
350
D60
  3
A9
350
D61
  3
B0
350
D62
  3
B1
350
D63
  3
B2
350
D64
  3
B3
350
D65
  3
B4
350
D66
  3
B5
350
D67
  3
B6
350
D68
  0
DICTIONARY
  5
D7C
102
{ACAD_REACTORS
330
D21
102
}
330
D21
100
AcDbDictionary
281
     1
  3
Imperial24
350
D7D
  0
DICTIONARY
  5
D78
102
{ACAD_REACTORS
330
D21
102
}
330
D21
100
AcDbDictionary
281
     1
  3
Standard
350
D79
  0
DICTIONARY
  5
D3E
102
{ACAD_REACTORS
330
D21
102
}
330
D21
100
AcDbDictionary
281
     1
  3
2dWireframe
350
D44
  3
Basic
350
D43
  3
Brighten
350
D4A
  3
ColorChange
350
D4E
  3
Conceptual
350
D47
  3
Dim
350
D49
  3
EdgeColorOff
350
D56
  3
Facepattern
350
D4D
  3
Flat
350
D3F
  3
FlatWithEdges
350
D40
  3
Gouraud
350
D41
  3
GouraudWithEdges
350
D42
  3
Hidden
350
D46
  3
JitterOff
350
D54
  3
Linepattern
350
D4C
  3
OverhangOff
350
D55
  3
Realistic
350
D48
  3
Shaded
350
D53
  3
Shaded with edges
350
D52
  3
Shades of Gray
350
D4F
  3
Sketchy
350
D50
  3
Thicken
350
D4B
  3
Wireframe
350
D45
  3
X-Ray
350
D51
  0
XRECORD
  5
DBB
102
{ACAD_REACTORS
330
D21
102
}
330
D21
100
AcDbXrecord
280
     1
 90
        1
330
D79
  0
DICTIONARY
  5
DAE
102
{ACAD_REACTORS
330
D21
102
}
330
D21
100
AcDbDictionary
281
     1
  3
CANNOSCALE
350
DB3
  3
CMLEADERSTYLE
350
DB0
  3
CTABLESTYLE
350
DAF
  3
CVIEWDETAILSTYLE
350
DB1
  3
CVIEWSECTIONSTYLE
350
DB2
  3
DIMASSOC
350
DB6
  3
INDEXCTL
350
DB5
  3
SORTENTS
350
DB4
  3
XCLIPFRAME
350
DB7
  0
XRECORD
  5
DBC
102
{ACAD_REACTORS
330
D21
102
}
330
D21
100
AcDbXrecord
280
     1
  1
DWGPROPS COOKIE
  2

  3

  4

  6

  7

  8
Yoshitsune
  9

300
=
301
=
302
=
303
=
304
=
305
=
306
=
307
=
308
=
309
=
 40
0.029311875
 41
2456304.467866632
 42
2457192.616985671
  1

 90
        0
  0
XRECORD
  5
D9F
102
{ACAD_REACTORS
330
D9E
102
}
330
D9E
100
AcDbXrecord
280
     1
290
     1
  0
XRECORD
  5
DA1
102
{ACAD_REACTORS
330
DA0
102
}
330
DA0
100
AcDbXrecord
280
     1
290
     1
  0
XRECORD
  5
DA3
102
{ACAD_REACTORS
330
DA2
102
}
330
DA2
100
AcDbXrecord
280
     1
290
     1
  0
XRECORD
  5
DA5
102
{ACAD_REACTORS
330
DA4
102
}
330
DA4
100
AcDbXrecord
280
     1
290
     1
  0
XRECORD
  5
DA7
102
{ACAD_REACTORS
330
DA6
102
}
330
DA6
100
AcDbXrecord
280
     1
290
     1
  0
XRECORD
  5
DA9
102
{ACAD_REACTORS
330
DA8
102
}
330
DA8
100
AcDbXrecord
280
     1
290
     1
  0
XRECORD
  5
DAB
102
{ACAD_REACTORS
330
DAA
102
}
330
DAA
100
AcDbXrecord
280
     1
290
     1
  0
XRECORD
  5
DAD
102
{ACAD_REACTORS
330
DAC
102
}
330
DAC
100
AcDbXrecord
280
     1
290
     1
  0
ACDBDETAILVIEWSTYLE
  5
D7F
102
{ACAD_XDICTIONARY
360
DF4
102
}
102
{ACAD_REACTORS
330
D7E
102
}
330
D7E
100
AcDbModelDocViewStyle
 70
     0
  3
Imperial24
290
     0
100
AcDbDetailViewStyle
 70
     0
 71
     0
 90
        3
 71
     1
340
D6A
 40
0.24
340
0
 40
0.24
300

 40
0.36
280
     3
 71
     2
340
D71
 90
       25
 71
     3
340
D6A
 40
0.24
 90
        1
 40
0.75
 90
        1
300
%<\AcVar ViewType \f "%tc1">% %<\AcVar ViewDetailId>%\PSCALE %<\AcVar ViewScale \f "%sn">%
 71
     4
340
D71
 90
       25
340
D71
 90
       25
280
     0
  0
LAYOUT
  5
D87
102
{ACAD_XDICTIONARY
360
DF8
102
}
102
{ACAD_REACTORS
330
D76
102
}
330
D76
100
AcDbPlotSettings
  1

  2
Canon LBP9100C
  4

  6

 40
0.0
 41
0.0
 42
0.0
 43
0.0
 44
0.0
 45
0.0
 46
0.0
 47
0.0
 48
0.0
 49
0.0
140
0.0
141
0.0
142
1.0
143
1.0
 70
  1712
 72
     0
 73
     0
 74
     0
  7

 75
     0
147
1.0
148
0.0
149
0.0
100
AcDbLayout
  1
Model
 70
     1
 71
     0
 10
0.0
 20
0.0
 11
12.0
 21
9.0
 12
0.0
 22
0.0
 32
0.0
 14
0.0
 24
0.0
 34
0.0
 15
0.0
 25
0.0
 35
0.0
146
0.0
 13
0.0
 23
0.0
 33
0.0
 16
1.0
 26
0.0
 36
0.0
 17
0.0
 27
1.0
 37
0.0
 76
     0
330
D84
331
D88
  0
LAYOUT
  5
D83
102
{ACAD_XDICTIONARY
360
DF6
102
}
102
{ACAD_REACTORS
330
D76
102
}
330
D76
100
AcDbPlotSettings
  1

  2
Canon LBP9100C
  4

  6

 40
0.0
 41
0.0
 42
0.0
 43
0.0
 44
0.0
 45
0.0
 46
0.0
 47
0.0
 48
0.0
 49
0.0
140
0.0
141
0.0
142
1.0
143
1.0
 70
   688
 72
     0
 73
     0
 74
     5
  7

 75
    16
147
1.0
148
0.0
149
0.0
100
AcDbLayout
  1
レイアウト1
 70
     1
 71
     1
 10
0.0
 20
0.0
 11
420.0
 21
297.0
 12
0.0
 22
0.0
 32
0.0
 14
1.000000000000000E+20
 24
1.000000000000000E+20
 34
1.000000000000000E+20
 15
-1.000000000000000E+20
 25
-1.000000000000000E+20
 35
-1.000000000000000E+20
146
0.0
 13
0.0
 23
0.0
 33
0.0
 16
1.0
 26
0.0
 36
0.0
 17
0.0
 27
1.0
 37
0.0
 76
     0
330
D80
  0
MATERIAL
  5
D2E
102
{ACAD_XDICTIONARY
360
D2F
102
}
102
{ACAD_REACTORS
330
D25
102
}
330
D25
100
AcDbMaterial
  1
ByBlock
 72
     0
 43
0.0208333333333333
 43
0.0
 43
0.0
 43
0.0
 43
0.0
 43
0.0208333333333333
 43
0.0
 43
0.0
 43
0.0
 43
0.0
 43
1.0
 43
0.0
 43
0.0
 43
0.0
 43
0.0
 43
1.0
 77
     0
 47
0.0208333333333333
 47
0.0
 47
0.0
 47
0.0
 47
0.0
 47
0.0208333333333333
 47
0.0
 47
0.0
 47
0.0
 47
0.0
 47
1.0
 47
0.0
 47
0.0
 47
0.0
 47
0.0
 47
1.0
171
     0
 49
0.0208333333333333
 49
0.0
 49
0.0
 49
0.0
 49
0.0
 49
0.0208333333333333
 49
0.0
 49
0.0
 49
0.0
 49
0.0
 49
1.0
 49
0.0
 49
0.0
 49
0.0
 49
0.0
 49
1.0
175
     0
142
0.0208333333333333
142
0.0
142
0.0
142
0.0
142
0.0
142
0.0208333333333333
142
0.0
142
0.0
142
0.0
142
0.0
142
1.0
142
0.0
142
0.0
142
0.0
142
0.0
142
1.0
179
     0
144
0.0208333333333333
144
0.0
144
0.0
144
0.0
144
0.0
144
0.0208333333333333
144
0.0
144
0.0
144
0.0
144
0.0
144
1.0
144
0.0
144
0.0
144
0.0
144
0.0
144
1.0
147
0.0208333333333333
147
0.0
147
0.0
147
0.0
147
0.0
147
0.0208333333333333
147
0.0
147
0.0
147
0.0
147
0.0
147
1.0
147
0.0
147
0.0
147
0.0
147
0.0
147
1.0
  0
MATERIAL
  5
D26
102
{ACAD_XDICTIONARY
360
D27
102
}
102
{ACAD_REACTORS
330
D25
102
}
330
D25
100
AcDbMaterial
  1
ByLayer
 72
     0
 43
0.0208333333333333
 43
0.0
 43
0.0
 43
0.0
 43
0.0
 43
0.0208333333333333
 43
0.0
 43
0.0
 43
0.0
 43
0.0
 43
1.0
 43
0.0
 43
0.0
 43
0.0
 43
0.0
 43
1.0
 77
     0
 47
0.0208333333333333
 47
0.0
 47
0.0
 47
0.0
 47
0.0
 47
0.0208333333333333
 47
0.0
 47
0.0
 47
0.0
 47
0.0
 47
1.0
 47
0.0
 47
0.0
 47
0.0
 47
0.0
 47
1.0
171
     0
 49
0.0208333333333333
 49
0.0
 49
0.0
 49
0.0
 49
0.0
 49
0.0208333333333333
 49
0.0
 49
0.0
 49
0.0
 49
0.0
 49
1.0
 49
0.0
 49
0.0
 49
0.0
 49
0.0
 49
1.0
175
     0
142
0.0208333333333333
142
0.0
142
0.0
142
0.0
142
0.0
142
0.0208333333333333
142
0.0
142
0.0
142
0.0
142
0.0
142
1.0
142
0.0
142
0.0
142
0.0
142
0.0
142
1.0
179
     0
144
0.0208333333333333
144
0.0
144
0.0
144
0.0
144
0.0
144
0.0208333333333333
144
0.0
144
0.0
144
0.0
144
0.0
144
1.0
144
0.0
144
0.0
144
0.0
144
0.0
144
1.0
147
0.0208333333333333
147
0.0
147
0.0
147
0.0
147
0.0
147
0.0208333333333333
147
0.0
147
0.0
147
0.0
147
0.0
147
1.0
147
0.0
147
0.0
147
0.0
147
0.0
147
1.0
  0
MATERIAL
  5
D36
102
{ACAD_XDICTIONARY
360
D37
102
}
102
{ACAD_REACTORS
330
D25
102
}
330
D25
100
AcDbMaterial
  1
Global
 72
     0
 43
0.0208333333333333
 43
0.0
 43
0.0
 43
0.0
 43
0.0
 43
0.0208333333333333
 43
0.0
 43
0.0
 43
0.0
 43
0.0
 43
1.0
 43
0.0
 43
0.0
 43
0.0
 43
0.0
 43
1.0
 77
     0
 47
0.0208333333333333
 47
0.0
 47
0.0
 47
0.0
 47
0.0
 47
0.0208333333333333
 47
0.0
 47
0.0
 47
0.0
 47
0.0
 47
1.0
 47
0.0
 47
0.0
 47
0.0
 47
0.0
 47
1.0
171
     0
 49
0.0208333333333333
 49
0.0
 49
0.0
 49
0.0
 49
0.0
 49
0.0208333333333333
 49
0.0
 49
0.0
 49
0.0
 49
0.0
 49
1.0
 49
0.0
 49
0.0
 49
0.0
 49
0.0
 49
1.0
175
     0
142
0.0208333333333333
142
0.0
142
0.0
142
0.0
142
0.0
142
0.0208333333333333
142
0.0
142
0.0
142
0.0
142
0.0
142
1.0
142
0.0
142
0.0
142
0.0
142
0.0
142
1.0
179
     0
144
0.0208333333333333
144
0.0
144
0.0
144
0.0
144
0.0
144
0.0208333333333333
144
0.0
144
0.0
144
0.0
144
0.0
144
1.0
144
0.0
144
0.0
144
0.0
144
0.0
144
1.0
147
0.0208333333333333
147
0.0
147
0.0
147
0.0
147
0.0
147
0.0208333333333333
147
0.0
147
0.0
147
0.0
147
0.0
147
1.0
147
0.0
147
0.0
147
0.0
147
0.0
147
1.0
  0
MLEADERSTYLE
  5
D7B
102
{ACAD_REACTORS
330
D7A
102
}
330
D7A
100
AcDbMLeaderStyle
170
     2
171
     1
172
     0
 90
        2
 40
0.0
 41
0.0
173
     1
 91
-1056964608
340
D6F
 92
       -2
290
     1
 42
0.09
291
     1
 43
0.36
  3
Standard
 44
0.18
300

342
D6A
174
     1
178
     6
175
     1
176
     0
 93
-1056964608
 45
0.18
292
     0
297
     0
 46
0.18
 94
-1056964608
 47
1.0
 49
1.0
140
1.0
293
     1
141
0.0
294
     1
177
     0
142
1.0
295
     0
296
     0
143
0.125
1001
ACAD_MLEADERVER
1070
     2
  0
MLINESTYLE
  5
D74
102
{ACAD_REACTORS
330
D73
102
}
330
D73
100
AcDbMlineStyle
  2
STANDARD
 70
     0
  3

 62
   256
 51
90.0
 52
90.0
 71
     2
 49
0.5
 62
   256
  6
BYLAYER
 49
-0.5
 62
   256
  6
BYLAYER
  0
ACDBPLACEHOLDER
  5
D24
102
{ACAD_REACTORS
330
D23
102
}
330
D23
  0
SCALE
  5
D58
102
{ACAD_REACTORS
330
D57
102
}
330
D57
100
AcDbScale
 70
     0
300
1:1
140
1.0
141
1.0
290
     1
  0
SCALE
  5
D59
102
{ACAD_REACTORS
330
D57
102
}
330
D57
100
AcDbScale
 70
     0
300
1/128" = 1'-0"
140
0.0078125
141
12.0
290
     0
  0
SCALE
  5
D5A
102
{ACAD_REACTORS
330
D57
102
}
330
D57
100
AcDbScale
 70
     0
300
1/64" = 1'-0"
140
0.015625
141
12.0
290
     0
  0
SCALE
  5
D5B
102
{ACAD_REACTORS
330
D57
102
}
330
D57
100
AcDbScale
 70
     0
300
1/32" = 1'-0"
140
0.03125
141
12.0
290
     0
  0
SCALE
  5
D5C
102
{ACAD_REACTORS
330
D57
102
}
330
D57
100
AcDbScale
 70
     0
300
1/16" = 1'-0"
140
0.0625
141
12.0
290
     0
  0
SCALE
  5
D5D
102
{ACAD_REACTORS
330
D57
102
}
330
D57
100
AcDbScale
 70
     0
300
3/32" = 1'-0"
140
0.09375
141
12.0
290
     0
  0
SCALE
  5
D5E
102
{ACAD_REACTORS
330
D57
102
}
330
D57
100
AcDbScale
 70
     0
300
1/8" = 1'-0"
140
0.125
141
12.0
290
     0
  0
SCALE
  5
D5F
102
{ACAD_REACTORS
330
D57
102
}
330
D57
100
AcDbScale
 70
     0
300
3/16" = 1'-0"
140
0.1875
141
12.0
290
     0
  0
SCALE
  5
D60
102
{ACAD_REACTORS
330
D57
102
}
330
D57
100
AcDbScale
 70
     0
300
1/4" = 1'-0"
140
0.25
141
12.0
290
     0
  0
SCALE
  5
D61
102
{ACAD_REACTORS
330
D57
102
}
330
D57
100
AcDbScale
 70
     0
300
3/8" = 1'-0"
140
0.375
141
12.0
290
     0
  0
SCALE
  5
D62
102
{ACAD_REACTORS
330
D57
102
}
330
D57
100
AcDbScale
 70
     0
300
1/2" = 1'-0"
140
0.5
141
12.0
290
     0
  0
SCALE
  5
D63
102
{ACAD_REACTORS
330
D57
102
}
330
D57
100
AcDbScale
 70
     0
300
3/4" = 1'-0"
140
0.75
141
12.0
290
     0
  0
SCALE
  5
D64
102
{ACAD_REACTORS
330
D57
102
}
330
D57
100
AcDbScale
 70
     0
300
1" = 1'-0"
140
1.0
141
12.0
290
     0
  0
SCALE
  5
D65
102
{ACAD_REACTORS
330
D57
102
}
330
D57
100
AcDbScale
 70
     0
300
1-1/2" = 1'-0"
140
1.5
141
12.0
290
     0
  0
SCALE
  5
D66
102
{ACAD_REACTORS
330
D57
102
}
330
D57
100
AcDbScale
 70
     0
300
3" = 1'-0"
140
3.0
141
12.0
290
     0
  0
SCALE
  5
D67
102
{ACAD_REACTORS
330
D57
102
}
330
D57
100
AcDbScale
 70
     0
300
6" = 1'-0"
140
6.0
141
12.0
290
     0
  0
SCALE
  5
D68
102
{ACAD_REACTORS
330
D57
102
}
330
D57
100
AcDbScale
 70
     0
300
1'-0" = 1'-0"
140
12.0
141
12.0
290
     0
  0
ACDBSECTIONVIEWSTYLE
  5
D7D
102
{ACAD_XDICTIONARY
360
DF2
102
}
102
{ACAD_REACTORS
330
D7C
102
}
330
D7C
100
AcDbModelDocViewStyle
 70
     0
  3
Imperial24
290
     0
100
AcDbSectionViewStyle
 70
     0
 71
     0
 90
       78
 71
     1
340
D6A
 40
0.24
340
0
340
0
 40
0.24
300
I, O, Q, S, X, Z
 40
0.48
 90
        3
 40
0.18
 90
        1
 71
     2
340
D71
 90
       25
340
D71
 90
       50
 40
0.24
 40
0.0
 40
0.24
 71
     3
340
D6A
 40
0.24
 90
        1
 40
0.75
 90
        1
300
%<\AcVar ViewType \f "%tc1">% %<\AcVar ViewSectionStartId>%-%<\AcVar ViewSectionEndId>%\PSCALE %<\AcVar ViewScale \f "%sn">%
 71
     4
300
ANSI31
 40
1.0
 90
        0
290
     0
290
     0
 90
        6
 40
0.0
 40
1.570796326794896
 40
0.2617993877991494
 40
1.308996938995747
 40
-0.2617993877991494
 40
1.832595714594046
  0
TABLESTYLE
  5
D79
102
{ACAD_XDICTIONARY
360
DB9
102
}
102
{ACAD_REACTORS
330
D78
102
}
330
D78
100
AcDbTableStyle
  3
Standard
 70
     0
 71
     0
 40
0.06
 41
0.06
280
     0
281
     0
  7
STANDARD
140
0.18
170
     2
 62
     0
 63
     7
283
     0
274
    -2
284
     1
 64
     0
275
    -2
285
     1
 65
     0
276
    -2
286
     1
 66
     0
277
    -2
287
     1
 67
     0
278
    -2
288
     1
 68
     0
279
    -2
289
     1
 69
     0
  7
STANDARD
140
0.25
170
     5
 62
     0
 63
     7
283
     0
274
    -2
284
     1
 64
     0
275
    -2
285
     1
 65
     0
276
    -2
286
     1
 66
     0
277
    -2
287
     1
 67
     0
278
    -2
288
     1
 68
     0
279
    -2
289
     1
 69
     0
  7
STANDARD
140
0.18
170
     5
 62
     0
 63
     7
283
     0
274
    -2
284
     1
 64
     0
275
    -2
285
     1
 65
     0
276
    -2
286
     1
 66
     0
277
    -2
287
     1
 67
     0
278
    -2
288
     1
 68
     0
279
    -2
289
     1
 69
     0
  0
VISUALSTYLE
  5
D44
102
{ACAD_XDICTIONARY
360
DCA
102
}
102
{ACAD_REACTORS
330
D3E
102
}
330
D3E
100
AcDbVisualStyle
  2
2dWireframe
 70
     4
 71
     0
 72
     2
 73
     0
 90
        0
 40
-0.6
 41
-30.0
 62
     5
 63
     7
 74
     1
 91
        4
 64
     7
 65
   257
 75
     1
175
     1
 42
1.0
 92
        0
 66
   257
 43
1.0
 76
     1
 77
     6
 78
     2
 67
     7
 79
     5
170
     0
171
     0
290
     0
174
     0
 93
        1
 44
0.0
173
     0
291
     0
 45
0.0
1001
ACAD
1000
AcDbSavedByObjectVersion
1070
     0
  0
VISUALSTYLE
  5
D43
102
{ACAD_XDICTIONARY
360
DC8
102
}
102
{ACAD_REACTORS
330
D3E
102
}
330
D3E
100
AcDbVisualStyle
  2
Basic
 70
     7
 71
     1
 72
     0
 73
     1
 90
        0
 40
-0.6
 41
-30.0
 62
     5
 63
     7
 74
     0
 91
        4
 64
     7
 65
   257
 75
     1
175
     1
 42
1.0
 92
        8
 66
     7
 43
1.0
 76
     1
 77
     6
 78
     2
 67
     7
 79
     5
170
     0
171
     0
290
     0
174
     0
 93
        1
 44
0.0
173
     0
291
     1
 45
0.0
1001
ACAD
1000
AcDbSavedByObjectVersion
1070
     0
  0
VISUALSTYLE
  5
D4A
102
{ACAD_XDICTIONARY
360
DD6
102
}
102
{ACAD_REACTORS
330
D3E
102
}
330
D3E
100
AcDbVisualStyle
  2
Brighten
 70
    12
 71
     2
 72
     2
 73
     0
 90
        0
 40
-0.6
 41
-30.0
 62
     5
 63
     7
 74
     1
 91
        4
 64
     7
 65
   257
 75
     1
175
     1
 42
1.0
 92
        8
 66
     7
 43
1.0
 76
     1
 77
     6
 78
     2
 67
     7
 79
     5
170
     0
171
     0
290
     0
174
     0
 93
        1
 44
50.0
173
     0
291
     1
 45
0.0
1001
ACAD
1000
AcDbSavedByObjectVersion
1070
     0
  0
VISUALSTYLE
  5
D4E
102
{ACAD_XDICTIONARY
360
DDE
102
}
102
{ACAD_REACTORS
330
D3E
102
}
330
D3E
100
AcDbVisualStyle
  2
ColorChange
 70
    16
 71
     2
 72
     2
 73
     3
 90
        0
 40
-0.6
 41
-30.0
 62
     5
 63
     8
 74
     1
 91
        4
 64
     7
 65
   257
 75
     1
175
     1
 42
1.0
 92
        8
 66
     8
 43
1.0
 76
     1
 77
     6
 78
     2
 67
     7
 79
     5
170
     0
171
     0
290
     0
174
     0
 93
        1
 44
0.0
173
     0
291
     1
 45
0.0
1001
ACAD
1000
AcDbSavedByObjectVersion
1070
     0
  0
VISUALSTYLE
  5
D47
102
{ACAD_XDICTIONARY
360
DD0
102
}
102
{ACAD_REACTORS
330
D3E
102
}
330
D3E
100
AcDbVisualStyle
  2
Conceptual
 70
     9
 71
     3
 72
     2
 73
     0
 90
        0
 40
-0.6
 41
-30.0
 62
     5
 63
     7
 74
     2
 91
        2
 64
     7
 65
   257
 75
     1
175
     1
 42
179.0
 92
        8
 66
     7
 43
1.0
 76
     1
 77
     6
 78
     2
 67
     7
 79
     3
170
     0
171
     0
290
     0
174
     0
 93
        1
 44
0.0
173
     0
291
     0
 45
0.0
1001
ACAD
1000
AcDbSavedByObjectVersion
1070
     0
  0
VISUALSTYLE
  5
D49
102
{ACAD_XDICTIONARY
360
DD4
102
}
102
{ACAD_REACTORS
330
D3E
102
}
330
D3E
100
AcDbVisualStyle
  2
Dim
 70
    11
 71
     2
 72
     2
 73
     0
 90
        0
 40
-0.6
 41
-30.0
 62
     5
 63
     7
 74
     1
 91
        4
 64
     7
 65
   257
 75
     1
175
     1
 42
1.0
 92
        8
 66
     7
 43
1.0
 76
     1
 77
     6
 78
     2
 67
     7
 79
     5
170
     0
171
     0
290
     0
174
     0
 93
        1
 44
-50.0
173
     0
291
     1
 45
0.0
1001
ACAD
1000
AcDbSavedByObjectVersion
1070
     0
  0
VISUALSTYLE
  5
D56
102
{ACAD_XDICTIONARY
360
DEE
102
}
102
{ACAD_REACTORS
330
D3E
102
}
330
D3E
100
AcDbVisualStyle
  2
EdgeColorOff
 70
    22
 71
     2
 72
     2
 73
     0
 90
        0
 40
-0.6
 41
-30.0
 62
     5
 63
     7
 74
     1
 91
        4
 64
     7
 65
   257
 75
     1
175
     1
 42
1.0
 92
        8
 66
     7
 43
1.0
 76
     1
 77
     6
 78
     2
 67
     7
 79
     5
170
     0
171
     0
290
     0
174
     0
 93
        1
 44
0.0
173
     0
291
     1
 45
0.0
1001
ACAD
1000
AcDbSavedByObjectVersion
1070
     0
  0
VISUALSTYLE
  5
D4D
102
{ACAD_XDICTIONARY
360
DDC
102
}
102
{ACAD_REACTORS
330
D3E
102
}
330
D3E
100
AcDbVisualStyle
  2
Facepattern
 70
    15
 71
     2
 72
     2
 73
     0
 90
        0
 40
-0.6
 41
-30.0
 62
     5
 63
     7
 74
     1
 91
        4
 64
     7
 65
   257
 75
     1
175
     1
 42
1.0
 92
        8
 66
     7
 43
1.0
 76
     1
 77
     6
 78
     2
 67
     7
 79
     5
170
     0
171
     0
290
     0
174
     0
 93
        1
 44
0.0
173
     0
291
     1
 45
0.0
1001
ACAD
1000
AcDbSavedByObjectVersion
1070
     0
  0
VISUALSTYLE
  5
D3F
102
{ACAD_XDICTIONARY
360
DC0
102
}
102
{ACAD_REACTORS
330
D3E
102
}
330
D3E
100
AcDbVisualStyle
  2
Flat
 70
     0
 71
     2
 72
     1
 73
     1
 90
        2
 40
-0.6
 41
30.0
 62
     5
 63
     7
 74
     0
 91
        0
 64
     7
 65
   257
 75
     1
175
     1
 42
1.0
 92
        8
 66
     7
 43
1.0
 76
     1
 77
     6
 78
     2
 67
     7
 79
     5
170
     0
171
     0
290
     0
174
     0
 93
       13
 44
0.0
173
     0
291
     1
 45
0.0
1001
ACAD
1000
AcDbSavedByObjectVersion
1070
     0
  0
VISUALSTYLE
  5
D40
102
{ACAD_XDICTIONARY
360
DC2
102
}
102
{ACAD_REACTORS
330
D3E
102
}
330
D3E
100
AcDbVisualStyle
  2
FlatWithEdges
 70
     1
 71
     2
 72
     1
 73
     1
 90
        2
 40
-0.6
 41
30.0
 62
     5
 63
     7
 74
     1
 91
        0
 64
     7
 65
   257
 75
     1
175
     1
 42
1.0
 92
        0
 66
   257
 43
1.0
 76
     1
 77
     6
 78
     2
 67
     7
 79
     5
170
     0
171
     0
290
     0
174
     0
 93
       13
 44
0.0
173
     0
291
     1
 45
0.0
1001
ACAD
1000
AcDbSavedByObjectVersion
1070
     0
  0
VISUALSTYLE
  5
D41
102
{ACAD_XDICTIONARY
360
DC4
102
}
102
{ACAD_REACTORS
330
D3E
102
}
330
D3E
100
AcDbVisualStyle
  2
Gouraud
 70
     2
 71
     2
 72
     2
 73
     1
 90
        2
 40
-0.6
 41
30.0
 62
     5
 63
     7
 74
     0
 91
        0
 64
     7
 65
   257
 75
     1
175
     1
 42
1.0
 92
        0
 66
     7
 43
1.0
 76
     1
 77
     6
 78
     2
 67
     7
 79
     5
170
     0
171
     0
290
     0
174
     0
 93
       13
 44
0.0
173
     0
291
     1
 45
0.0
1001
ACAD
1000
AcDbSavedByObjectVersion
1070
     0
  0
VISUALSTYLE
  5
D42
102
{ACAD_XDICTIONARY
360
DC6
102
}
102
{ACAD_REACTORS
330
D3E
102
}
330
D3E
100
AcDbVisualStyle
  2
GouraudWithEdges
 70
     3
 71
     2
 72
     2
 73
     1
 90
        2
 40
-0.6
 41
30.0
 62
     5
 63
     7
 74
     1
 91
        0
 64
     7
 65
   257
 75
     1
175
     1
 42
1.0
 92
        0
 66
   257
 43
1.0
 76
     1
 77
     6
 78
     2
 67
     7
 79
     5
170
     0
171
     0
290
     0
174
     0
 93
       13
 44
0.0
173
     0
291
     1
 45
0.0
1001
ACAD
1000
AcDbSavedByObjectVersion
1070
     0
  0
VISUALSTYLE
  5
D46
102
{ACAD_XDICTIONARY
360
DCE
102
}
102
{ACAD_REACTORS
330
D3E
102
}
330
D3E
100
AcDbVisualStyle
  2
Hidden
 70
     6
 71
     1
 72
     2
 73
     2
 90
        0
 40
-0.6
 41
-30.0
 62
     5
 63
     7
 74
     2
 91
        2
 64
     7
 65
   257
 75
     2
175
     1
 42
40.0
 92
        0
 66
   257
 43
1.0
 76
     1
 77
     6
 78
     2
 67
     7
 79
     3
170
     0
171
     0
290
     0
174
     0
 93
        1
 44
0.0
173
     0
291
     0
 45
0.0
1001
ACAD
1000
AcDbSavedByObjectVersion
1070
     0
  0
VISUALSTYLE
  5
D54
102
{ACAD_XDICTIONARY
360
DEA
102
}
102
{ACAD_REACTORS
330
D3E
102
}
330
D3E
100
AcDbVisualStyle
  2
JitterOff
 70
    20
 71
     2
 72
     2
 73
     0
 90
        0
 40
-0.6
 41
-30.0
 62
     5
 63
     7
 74
     1
 91
        4
 64
     7
 65
   257
 75
     1
175
     1
 42
1.0
 92
       10
 66
     7
 43
1.0
 76
     1
 77
     6
 78
     2
 67
     7
 79
     5
170
     0
171
     0
290
     0
174
     0
 93
        1
 44
0.0
173
     0
291
     1
 45
0.0
1001
ACAD
1000
AcDbSavedByObjectVersion
1070
     0
  0
VISUALSTYLE
  5
D4C
102
{ACAD_XDICTIONARY
360
DDA
102
}
102
{ACAD_REACTORS
330
D3E
102
}
330
D3E
100
AcDbVisualStyle
  2
Linepattern
 70
    14
 71
     2
 72
     2
 73
     0
 90
        0
 40
-0.6
 41
-30.0
 62
     5
 63
     7
 74
     1
 91
        4
 64
     7
 65
   257
 75
     7
175
     7
 42
1.0
 92
        8
 66
     7
 43
1.0
 76
     1
 77
     6
 78
     2
 67
     7
 79
     5
170
     0
171
     0
290
     0
174
     0
 93
        1
 44
0.0
173
     0
291
     1
 45
0.0
1001
ACAD
1000
AcDbSavedByObjectVersion
1070
     0
  0
VISUALSTYLE
  5
D55
102
{ACAD_XDICTIONARY
360
DEC
102
}
102
{ACAD_REACTORS
330
D3E
102
}
330
D3E
100
AcDbVisualStyle
  2
OverhangOff
 70
    21
 71
     2
 72
     2
 73
     0
 90
        0
 40
-0.6
 41
-30.0
 62
     5
 63
     7
 74
     1
 91
        4
 64
     7
 65
   257
 75
     1
175
     1
 42
1.0
 92
        9
 66
     7
 43
1.0
 76
     1
 77
     6
 78
     2
 67
     7
 79
     5
170
     0
171
     0
290
     0
174
     0
 93
        1
 44
0.0
173
     0
291
     1
 45
0.0
1001
ACAD
1000
AcDbSavedByObjectVersion
1070
     0
  0
VISUALSTYLE
  5
D48
102
{ACAD_XDICTIONARY
360
DD2
102
}
102
{ACAD_REACTORS
330
D3E
102
}
330
D3E
100
AcDbVisualStyle
  2
Realistic
 70
     8
 71
     2
 72
     3
 73
     0
 90
        2
 40
-0.6
 41
30.0
 62
     5
 63
     7
 74
     0
 91
        0
 64
     7
 65
   257
 75
     1
175
     1
 42
1.0
 92
        8
 66
   257
 43
1.0
 76
     1
 77
     6
 78
     2
 67
     7
 79
     3
170
     0
171
     0
290
     0
174
     0
 93
       13
 44
0.0
173
     0
291
     0
 45
0.0
1001
ACAD
1000
AcDbSavedByObjectVersion
1070
     0
  0
VISUALSTYLE
  5
D53
102
{ACAD_XDICTIONARY
360
DE8
102
}
102
{ACAD_REACTORS
330
D3E
102
}
330
D3E
100
AcDbVisualStyle
  2
Shaded
 70
    27
 71
     2
 72
     2
 73
     1
 90
        2
 40
-0.6
 41
30.0
 62
     5
 63
     7
 74
     0
 91
        4
 64
     7
 65
   257
 75
     1
175
     1
 42
1.0
 92
        8
 66
   257
 43
1.0
 76
     1
 77
     6
 78
     2
 67
     8
 79
     3
170
     0
171
     0
290
     0
174
     0
 93
        5
 44
0.0
173
     0
291
     0
 45
0.0
1001
ACAD
1000
AcDbSavedByObjectVersion
1070
     0
  0
VISUALSTYLE
  5
D52
102
{ACAD_XDICTIONARY
360
DE6
102
}
102
{ACAD_REACTORS
330
D3E
102
}
330
D3E
100
AcDbVisualStyle
  2
Shaded with edges
 70
    26
 71
     2
 72
     2
 73
     1
 90
        2
 40
-0.6
 41
30.0
 62
     5
 63
     7
 74
     1
 91
       10
 64
     7
 65
   257
 75
     2
175
     1
 42
1.0
 92
        8
 66
   257
 43
1.0
 76
     1
 77
     6
 78
     2
 67
     7
 79
     3
170
     0
171
     0
290
     0
174
     0
 93
        5
 44
0.0
173
     0
291
     0
 45
0.0
1001
ACAD
1000
AcDbSavedByObjectVersion
1070
     0
  0
VISUALSTYLE
  5
D4F
102
{ACAD_XDICTIONARY
360
DE0
102
}
102
{ACAD_REACTORS
330
D3E
102
}
330
D3E
100
AcDbVisualStyle
  2
Shades of Gray
 70
    23
 71
     2
 72
     2
 73
     3
 90
        0
 40
-0.6
 41
-30.0
 62
     5
 63
     7
 74
     2
 91
        2
 64
     7
 65
     7
 75
     1
175
     1
 42
40.0
 92
        8
 66
     7
 43
1.0
 76
     1
 77
     6
 78
     2
 67
     7
 79
     3
170
     0
171
     0
290
     0
174
     0
 93
        1
 44
0.0
173
     0
291
     0
 45
0.0
1001
ACAD
1000
AcDbSavedByObjectVersion
1070
     0
  0
VISUALSTYLE
  5
D50
102
{ACAD_XDICTIONARY
360
DE2
102
}
102
{ACAD_REACTORS
330
D3E
102
}
330
D3E
100
AcDbVisualStyle
  2
Sketchy
 70
    24
 71
     1
 72
     2
 73
     2
 90
        0
 40
-0.6
 41
-30.0
 62
     5
 63
     7
 74
     2
 91
        2
 64
     7
 65
     7
 75
     1
175
     1
 42
40.0
 92
       11
 66
     7
 43
1.0
 76
     1
 77
     6
 78
     2
 67
     7
 79
     6
170
     0
171
     0
290
     0
174
     0
 93
        1
 44
0.0
173
     0
291
     0
 45
0.0
1001
ACAD
1000
AcDbSavedByObjectVersion
1070
     0
  0
VISUALSTYLE
  5
D4B
102
{ACAD_XDICTIONARY
360
DD8
102
}
102
{ACAD_REACTORS
330
D3E
102
}
330
D3E
100
AcDbVisualStyle
  2
Thicken
 70
    13
 71
     2
 72
     2
 73
     0
 90
        0
 40
-0.6
 41
-30.0
 62
     5
 63
     7
 74
     1
 91
        4
 64
     7
 65
   257
 75
     1
175
     1
 42
1.0
 92
       12
 66
     7
 43
1.0
 76
     1
 77
     6
 78
     2
 67
     7
 79
     5
170
     0
171
     0
290
     0
174
     0
 93
        1
 44
0.0
173
     0
291
     1
 45
0.0
1001
ACAD
1000
AcDbSavedByObjectVersion
1070
     0
  0
VISUALSTYLE
  5
D45
102
{ACAD_XDICTIONARY
360
DCC
102
}
102
{ACAD_REACTORS
330
D3E
102
}
330
D3E
100
AcDbVisualStyle
  2
Wireframe
 70
     5
 71
     0
 72
     2
 73
     0
 90
        0
 40
-0.6
 41
-30.0
 62
     5
 63
     7
 74
     1
 91
        4
 64
     7
 65
   257
 75
     1
175
     1
 42
1.0
 92
        0
 66
   257
 43
1.0
 76
     1
 77
     6
 78
     2
 67
     7
 79
     3
170
     0
171
     0
290
     0
174
     0
 93
        1
 44
0.0
173
     0
291
     0
 45
0.0
1001
ACAD
1000
AcDbSavedByObjectVersion
1070
     0
  0
VISUALSTYLE
  5
D51
102
{ACAD_XDICTIONARY
360
DE4
102
}
102
{ACAD_REACTORS
330
D3E
102
}
330
D3E
100
AcDbVisualStyle
  2
X-Ray
 70
    25
 71
     2
 72
     2
 73
     1
 90
        1
 40
0.5
 41
-30.0
 62
     5
 63
     7
 74
     1
 91
        0
 64
     7
 65
   257
 75
     1
175
     1
 42
1.0
 92
        8
 66
     7
 43
1.0
 76
     1
 77
     6
 78
     2
 67
     7
 79
     3
170
     0
171
     0
290
     0
174
     0
 93
       13
 44
0.0
173
     0
291
     0
 45
0.0
1001
ACAD
1000
AcDbSavedByObjectVersion
1070
     0
  0
DICTIONARYVAR
  5
DB3
102
{ACAD_REACTORS
330
DAE
102
}
330
DAE
100
DictionaryVariables
280
     0
  1
1:1
  0
DICTIONARYVAR
  5
DB0
102
{ACAD_REACTORS
330
DAE
102
}
330
DAE
100
DictionaryVariables
280
     0
  1
STANDARD
  0
DICTIONARYVAR
  5
DAF
102
{ACAD_REACTORS
330
DAE
102
}
330
DAE
100
DictionaryVariables
280
     0
  1
STANDARD
  0
DICTIONARYVAR
  5
DB1
102
{ACAD_REACTORS
330
DAE
102
}
330
DAE
100
DictionaryVariables
280
     0
  1
Imperial24
  0
DICTIONARYVAR
  5
DB2
102
{ACAD_REACTORS
330
DAE
102
}
330
DAE
100
DictionaryVariables
280
     0
  1
Imperial24
  0
DICTIONARYVAR
  5
DB6
102
{ACAD_REACTORS
330
DAE
102
}
330
DAE
100
DictionaryVariables
280
     0
  1
1
  0
DICTIONARYVAR
  5
DB5
102
{ACAD_REACTORS
330
DAE
102
}
330
DAE
100
DictionaryVariables
280
     0
  1
0
  0
DICTIONARYVAR
  5
DB4
102
{ACAD_REACTORS
330
DAE
102
}
330
DAE
100
DictionaryVariables
280
     0
  1
127
  0
DICTIONARYVAR
  5
DB7
102
{ACAD_REACTORS
330
DAE
102
}
330
DAE
100
DictionaryVariables
280
     0
  1
2
  0
DICTIONARY
  5
DF4
330
D7F
100
AcDbDictionary
280
     1
281
     1
  3
ACAD_XREC_ROUNDTRIP
360
DF5
  0
DICTIONARY
  5
DF8
330
D87
100
AcDbDictionary
280
     1
281
     1
  3
ACAD_XREC_ROUNDTRIP
360
DF9
  0
DICTIONARY
  5
DF6
330
D83
100
AcDbDictionary
280
     1
281
     1
  3
ACAD_XREC_ROUNDTRIP
360
DF7
  0
DICTIONARY
  5
D2F
330
D2E
100
AcDbDictionary
280
     1
281
     1
  3
ACAD_XREC_ROUNDTRIP
360
DBE
  3
BUMPTILE
360
D31
  3
DIFFUSETILE
360
D30
  3
OPACITYTILE
360
D34
  3
REFLECTIONTILE
360
D33
  3
REFRACTIONTILE
360
D35
  3
SPECULARTILE
360
D32
  0
DICTIONARY
  5
D27
330
D26
100
AcDbDictionary
280
     1
281
     1
  3
ACAD_XREC_ROUNDTRIP
360
DBD
  3
BUMPTILE
360
D29
  3
DIFFUSETILE
360
D28
  3
OPACITYTILE
360
D2C
  3
REFLECTIONTILE
360
D2B
  3
REFRACTIONTILE
360
D2D
  3
SPECULARTILE
360
D2A
  0
DICTIONARY
  5
D37
330
D36
100
AcDbDictionary
280
     1
281
     1
  3
ACAD_XREC_ROUNDTRIP
360
DBF
  3
BUMPTILE
360
D39
  3
DIFFUSETILE
360
D38
  3
OPACITYTILE
360
D3C
  3
REFLECTIONTILE
360
D3B
  3
REFRACTIONTILE
360
D3D
  3
SPECULARTILE
360
D3A
  0
DICTIONARY
  5
DF2
330
D7D
100
AcDbDictionary
280
     1
281
     1
  3
ACAD_XREC_ROUNDTRIP
360
DF3
  0
DICTIONARY
  5
DB9
330
D79
100
AcDbDictionary
280
     1
281
     1
  3
ACAD_ROUNDTRIP_2008_TABLESTYLE_CELLSTYLEMAP
360
DBA
  3
ACAD_XREC_ROUNDTRIP
360
DF0
  0
DICTIONARY
  5
DCA
330
D44
100
AcDbDictionary
280
     1
281
     1
  3
ACAD_XREC_ROUNDTRIP
360
DCB
  0
DICTIONARY
  5
DC8
330
D43
100
AcDbDictionary
280
     1
281
     1
  3
ACAD_XREC_ROUNDTRIP
360
DC9
  0
DICTIONARY
  5
DD6
330
D4A
100
AcDbDictionary
280
     1
281
     1
  3
ACAD_XREC_ROUNDTRIP
360
DD7
  0
DICTIONARY
  5
DDE
330
D4E
100
AcDbDictionary
280
     1
281
     1
  3
ACAD_XREC_ROUNDTRIP
360
DDF
  0
DICTIONARY
  5
DD0
330
D47
100
AcDbDictionary
280
     1
281
     1
  3
ACAD_XREC_ROUNDTRIP
360
DD1
  0
DICTIONARY
  5
DD4
330
D49
100
AcDbDictionary
280
     1
281
     1
  3
ACAD_XREC_ROUNDTRIP
360
DD5
  0
DICTIONARY
  5
DEE
330
D56
100
AcDbDictionary
280
     1
281
     1
  3
ACAD_XREC_ROUNDTRIP
360
DEF
  0
DICTIONARY
  5
DDC
330
D4D
100
AcDbDictionary
280
     1
281
     1
  3
ACAD_XREC_ROUNDTRIP
360
DDD
  0
DICTIONARY
  5
DC0
330
D3F
100
AcDbDictionary
280
     1
281
     1
  3
ACAD_XREC_ROUNDTRIP
360
DC1
  0
DICTIONARY
  5
DC2
330
D40
100
AcDbDictionary
280
     1
281
     1
  3
ACAD_XREC_ROUNDTRIP
360
DC3
  0
DICTIONARY
  5
DC4
330
D41
100
AcDbDictionary
280
     1
281
     1
  3
ACAD_XREC_ROUNDTRIP
360
DC5
  0
DICTIONARY
  5
DC6
330
D42
100
AcDbDictionary
280
     1
281
     1
  3
ACAD_XREC_ROUNDTRIP
360
DC7
  0
DICTIONARY
  5
DCE
330
D46
100
AcDbDictionary
280
     1
281
     1
  3
ACAD_XREC_ROUNDTRIP
360
DCF
  0
DICTIONARY
  5
DEA
330
D54
100
AcDbDictionary
280
     1
281
     1
  3
ACAD_XREC_ROUNDTRIP
360
DEB
  0
DICTIONARY
  5
DDA
330
D4C
100
AcDbDictionary
280
     1
281
     1
  3
ACAD_XREC_ROUNDTRIP
360
DDB
  0
DICTIONARY
  5
DEC
330
D55
100
AcDbDictionary
280
     1
281
     1
  3
ACAD_XREC_ROUNDTRIP
360
DED
  0
DICTIONARY
  5
DD2
330
D48
100
AcDbDictionary
280
     1
281
     1
  3
ACAD_XREC_ROUNDTRIP
360
DD3
  0
DICTIONARY
  5
DE8
330
D53
100
AcDbDictionary
280
     1
281
     1
  3
ACAD_XREC_ROUNDTRIP
360
DE9
  0
DICTIONARY
  5
DE6
330
D52
100
AcDbDictionary
280
     1
281
     1
  3
ACAD_XREC_ROUNDTRIP
360
DE7
  0
DICTIONARY
  5
DE0
330
D4F
100
AcDbDictionary
280
     1
281
     1
  3
ACAD_XREC_ROUNDTRIP
360
DE1
  0
DICTIONARY
  5
DE2
330
D50
100
AcDbDictionary
280
     1
281
     1
  3
ACAD_XREC_ROUNDTRIP
360
DE3
  0
DICTIONARY
  5
DD8
330
D4B
100
AcDbDictionary
280
     1
281
     1
  3
ACAD_XREC_ROUNDTRIP
360
DD9
  0
DICTIONARY
  5
DCC
330
D45
100
AcDbDictionary
280
     1
281
     1
  3
ACAD_XREC_ROUNDTRIP
360
DCD
  0
DICTIONARY
  5
DE4
330
D51
100
AcDbDictionary
280
     1
281
     1
  3
ACAD_XREC_ROUNDTRIP
360
DE5
  0
XRECORD
  5
DF5
102
{ACAD_REACTORS
330
DF4
102
}
330
DF4
100
AcDbXrecord
280
     1
102
DISPLAYNAME
  1
Imperial24
102
FLAGS
 90
        0
  0
XRECORD
  5
DF9
102
{ACAD_REACTORS
330
DF8
102
}
330
DF8
100
AcDbXrecord
280
     1
102
SHADEPLOT
 70
     0
102
SHADEPLOTRESLEVEL
 70
     2
102
SHADEPLOTCUSTOMDPI
 70
   300
  0
XRECORD
  5
DF7
102
{ACAD_REACTORS
330
DF6
102
}
330
DF6
100
AcDbXrecord
280
     1
102
SHADEPLOT
 70
     0
102
SHADEPLOTRESLEVEL
 70
     2
102
SHADEPLOTCUSTOMDPI
 70
   300
  0
XRECORD
  5
DBE
102
{ACAD_REACTORS
330
D2F
102
}
330
D2F
100
AcDbXrecord
280
     1
102
MATERIAL
148
0.0
149
0.0
149
0.0
 93
        0
 94
      127
282
     0
 72
     0
 77
     0
171
     0
175
     0
179
     0
273
     0
  0
XRECORD
  5
D31
102
{ACAD_REACTORS
330
D2F
102
}
330
D2F
100
AcDbXrecord
280
     1
270
     1
271
     1
  0
XRECORD
  5
D30
102
{ACAD_REACTORS
330
D2F
102
}
330
D2F
100
AcDbXrecord
280
     1
270
     1
271
     1
  0
XRECORD
  5
D34
102
{ACAD_REACTORS
330
D2F
102
}
330
D2F
100
AcDbXrecord
280
     1
270
     1
271
     1
  0
XRECORD
  5
D33
102
{ACAD_REACTORS
330
D2F
102
}
330
D2F
100
AcDbXrecord
280
     1
270
     1
271
     1
  0
XRECORD
  5
D35
102
{ACAD_REACTORS
330
D2F
102
}
330
D2F
100
AcDbXrecord
280
     1
270
     1
271
     1
  0
XRECORD
  5
D32
102
{ACAD_REACTORS
330
D2F
102
}
330
D2F
100
AcDbXrecord
280
     1
270
     1
271
     1
  0
XRECORD
  5
DBD
102
{ACAD_REACTORS
330
D27
102
}
330
D27
100
AcDbXrecord
280
     1
102
MATERIAL
148
0.0
149
0.0
149
0.0
 93
        0
 94
      127
282
     0
 72
     0
 77
     0
171
     0
175
     0
179
     0
273
     0
  0
XRECORD
  5
D29
102
{ACAD_REACTORS
330
D27
102
}
330
D27
100
AcDbXrecord
280
     1
270
     1
271
     1
  0
XRECORD
  5
D28
102
{ACAD_REACTORS
330
D27
102
}
330
D27
100
AcDbXrecord
280
     1
270
     1
271
     1
  0
XRECORD
  5
D2C
102
{ACAD_REACTORS
330
D27
102
}
330
D27
100
AcDbXrecord
280
     1
270
     1
271
     1
  0
XRECORD
  5
D2B
102
{ACAD_REACTORS
330
D27
102
}
330
D27
100
AcDbXrecord
280
     1
270
     1
271
     1
  0
XRECORD
  5
D2D
102
{ACAD_REACTORS
330
D27
102
}
330
D27
100
AcDbXrecord
280
     1
270
     1
271
     1
  0
XRECORD
  5
D2A
102
{ACAD_REACTORS
330
D27
102
}
330
D27
100
AcDbXrecord
280
     1
270
     1
271
     1
  0
XRECORD
  5
DBF
102
{ACAD_REACTORS
330
D37
102
}
330
D37
100
AcDbXrecord
280
     1
102
MATERIAL
148
0.0
149
0.0
149
0.0
 93
        0
 94
      127
282
     0
 72
     0
 77
     0
171
     0
175
     0
179
     0
273
     0
  0
XRECORD
  5
D39
102
{ACAD_REACTORS
330
D37
102
}
330
D37
100
AcDbXrecord
280
     1
270
     1
271
     1
  0
XRECORD
  5
D38
102
{ACAD_REACTORS
330
D37
102
}
330
D37
100
AcDbXrecord
280
     1
270
     1
271
     1
  0
XRECORD
  5
D3C
102
{ACAD_REACTORS
330
D37
102
}
330
D37
100
AcDbXrecord
280
     1
270
     1
271
     1
  0
XRECORD
  5
D3B
102
{ACAD_REACTORS
330
D37
102
}
330
D37
100
AcDbXrecord
280
     1
270
     1
271
     1
  0
XRECORD
  5
D3D
102
{ACAD_REACTORS
330
D37
102
}
330
D37
100
AcDbXrecord
280
     1
270
     1
271
     1
  0
XRECORD
  5
D3A
102
{ACAD_REACTORS
330
D37
102
}
330
D37
100
AcDbXrecord
280
     1
270
     1
271
     1
  0
XRECORD
  5
DF3
102
{ACAD_REACTORS
330
DF2
102
}
330
DF2
100
AcDbXrecord
280
     1
102
DISPLAYNAME
  1
Imperial24
102
FLAGS
 90
        0
  0
CELLSTYLEMAP
  5
DBA
102
{ACAD_REACTORS
330
DB9
102
}
330
DB9
100
AcDbCellStyleMap
 90
        3
300
CELLSTYLE
  1
TABLEFORMAT_BEGIN
 90
        5
170
     1
 91
        0
 92
    32768
 62
   257
 93
        1
300
CONTENTFORMAT
  1
CONTENTFORMAT_BEGIN
 90
        0
 91
        0
 92
      512
 93
        0
300

 40
0.0
140
1.0
 94
        5
 62
     0
340
D6A
144
0.25
309
CONTENTFORMAT_END
171
     0
 94
        0
309
TABLEFORMAT_END
  1
CELLSTYLE_BEGIN
 90
        1
 91
        1
300
_TITLE
309
CELLSTYLE_END
300
CELLSTYLE
  1
TABLEFORMAT_BEGIN
 90
        5
170
     1
 91
        0
 92
        0
 62
   257
 93
        1
300
CONTENTFORMAT
  1
CONTENTFORMAT_BEGIN
 90
        0
 91
        0
 92
      512
 93
        0
300

 40
0.0
140
1.0
 94
        5
 62
     0
340
D6A
144
0.18
309
CONTENTFORMAT_END
171
     0
 94
        0
309
TABLEFORMAT_END
  1
CELLSTYLE_BEGIN
 90
        2
 91
        1
300
_HEADER
309
CELLSTYLE_END
300
CELLSTYLE
  1
TABLEFORMAT_BEGIN
 90
        5
170
     1
 91
        0
 92
        0
 62
   257
 93
        1
300
CONTENTFORMAT
  1
CONTENTFORMAT_BEGIN
 90
        0
 91
        0
 92
      512
 93
        0
300

 40
0.0
140
1.0
 94
        2
 62
     0
340
D6A
144
0.18
309
CONTENTFORMAT_END
171
     0
 94
        0
309
TABLEFORMAT_END
  1
CELLSTYLE_BEGIN
 90
        3
 91
        2
300
_DATA
309
CELLSTYLE_END
  0
XRECORD
  5
DF0
102
{ACAD_REACTORS
330
DB9
102
}
330
DB9
100
AcDbXrecord
280
     1
102
ACAD_ROUNDTRIP_PRE2007_TABLESTYLE
 90
      512
 91
        0
  1

 92
      512
 93
        0
  2

 94
      512
 95
        0
  3

  0
XRECORD
  5
DCB
102
{ACAD_REACTORS
330
DCA
102
}
330
DCA
100
AcDbXrecord
280
     1
102
RTVSPost2010Prop28
280
     1
102
RTVSPost2010PropOp28
 70
     1
102
RTVSPost2010Prop29
280
     1
102
RTVSPost2010PropOp29
 70
     1
102
RTVSPost2010Prop30
280
     0
102
RTVSPost2010PropOp30
 70
     1
102
RTVSPost2010Prop31
280
     0
102
RTVSPost2010PropOp31
 70
     1
102
RTVSPost2010Prop32
280
     0
102
RTVSPost2010PropOp32
 70
     1
102
RTVSPost2010Prop33
280
     0
102
RTVSPost2010PropOp33
 70
     1
102
RTVSPost2010Prop34
280
     0
102
RTVSPost2010PropOp34
 70
     1
102
RTVSPost2010Prop35
280
     0
102
RTVSPost2010PropOp35
 70
     1
102
RTVSPost2010Prop36
280
     0
102
RTVSPost2010PropOp36
 70
     1
102
RTVSPost2010Prop37
 90
       50
102
RTVSPost2010PropOp37
 70
     1
102
RTVSPost2010Prop38
140
0.0
102
RTVSPost2010PropOp38
 70
     1
102
RTVSPost2010Prop39
140
1.0
102
RTVSPost2010PropOp39
 70
     1
102
RTVSPost2010Prop40
 90
        0
102
RTVSPost2010PropOp40
 70
     1
102
RTVSPost2010Prop41ColorIndex
 90
       18
102
RTVSPost2010Prop41ColorRGB
 90
        0
102
RTVSPost2010PropOp41
 70
     1
102
RTVSPost2010Prop42
 90
       50
102
RTVSPost2010PropOp42
 70
     1
102
RTVSPost2010Prop43
 90
        3
102
RTVSPost2010PropOp43
 70
     1
102
RTVSPost2010Prop44ColorIndex
 90
        5
102
RTVSPost2010Prop44ColorRGB
 90
      255
102
RTVSPost2010PropOp44
 70
     1
102
RTVSPost2010Prop45
280
     0
102
RTVSPost2010PropOp45
 70
     1
102
RTVSPost2010Prop46
 90
       50
102
RTVSPost2010PropOp46
 70
     1
102
RTVSPost2010Prop47
 90
       50
102
RTVSPost2010PropOp47
 70
     1
102
RTVSPost2010Prop48
 90
       50
102
RTVSPost2010PropOp48
 70
     1
102
RTVSPost2010Prop49
280
     0
102
RTVSPost2010PropOp49
 70
     1
102
RTVSPost2010Prop50
 90
       50
102
RTVSPost2010PropOp50
 70
     1
102
RTVSPost2010Prop51ColorIndex
 90
      256
102
RTVSPost2010Prop51ColorRGB
 90
-16777216
102
RTVSPost2010PropOp51
 70
     0
102
RTVSPost2010Prop52
140
1.0
102
RTVSPost2010PropOp52
 70
     0
102
RTVSPost2010Prop53
 90
        2
102
RTVSPost2010PropOp53
 70
     1
102
RTVSPost2010Prop54
  1
strokes_ogs.tif
102
RTVSPost2010PropOp54
 70
     1
102
RTVSPost2010Prop55
280
     0
102
RTVSPost2010PropOp55
 70
     1
102
RTVSPost2010Prop56
140
1.0
102
RTVSPost2010PropOp56
 70
     1
102
RTVSPost2010Prop57
140
1.0
102
RTVSPost2010PropOp57
 70
     1
102
RTVSPropertyOp0
 70
     1
102
RTVSPropertyOp1
 70
     1
102
RTVSPropertyOp2
 70
     1
102
RTVSPropertyOp3
 70
     1
102
RTVSPropertyOp4
 70
     1
102
RTVSPropertyOp5
 70
     1
102
RTVSPropertyOp6
 70
     1
102
RTVSPropertyOp7
 70
     1
102
RTVSPropertyOp8
 70
     1
102
RTVSPropertyOp9
 70
     1
102
RTVSPropertyOp10
 70
     1
102
RTVSPropertyOp11
 70
     1
102
RTVSPropertyOp12
 70
     1
102
RTVSPropertyOp13
 70
     1
102
RTVSPropertyOp14
 70
     1
102
RTVSPropertyOp15
 70
     1
102
RTVSPropertyOp16
 70
     1
102
RTVSPropertyOp17
 70
     1
102
RTVSPropertyOp18
 70
     1
102
RTVSPropertyOp19
 70
     1
102
RTVSPropertyOp20
 70
     1
102
RTVSPropertyOp21
 70
     1
102
RTVSPropertyOp22
 70
     1
102
RTVSPropertyOp23
 70
     1
102
RTVSPropertyOp24
 70
     1
102
RTVSPropertyOp25
 70
     1
102
RTVSPropertyOp26
 70
     1
102
RTVSPropertyOp27
 70
     1
102
RTVSPropertyOp28
 70
     1
102
RTVSPropertyOp29
 70
     1
102
RTVSPropertyOp30
 70
     1
102
RTVSPropertyOp31
 70
     1
102
RTVSPropertyOp32
 70
     1
102
RTVSPropertyOp33
 70
     1
102
RTVSPropertyOp34
 70
     1
102
RTVSPropertyOp35
 70
     1
102
RTVSPropertyOp36
 70
     1
102
RTVSPropertyOp37
 70
     1
102
RTVSPropertyOp38
 70
     1
102
RTVSPropertyOp39
 70
     1
102
RTVSPropertyOp40
 70
     1
102
RTVSPropertyOp41
 70
     1
102
RTVSPropertyOp42
 70
     1
102
RTVSPropertyOp43
 70
     1
102
RTVSPropertyOp44
 70
     1
102
RTVSPropertyOp45
 70
     1
102
RTVSPropertyOp46
 70
     1
102
RTVSPropertyOp47
 70
     1
102
RTVSPropertyOp48
 70
     1
102
RTVSPropertyOp49
 70
     1
102
RTVSPropertyOp50
 70
     1
102
RTVSPropertyOp51
 70
     0
102
RTVSPropertyOp52
 70
     0
102
RTVSPropertyOp53
 70
     1
102
RTVSPropertyOp54
 70
     1
102
RTVSPropertyOp55
 70
     1
102
RTVSPropertyOp56
 70
     1
102
RTVSPropertyOp57
 70
     1
102
RTVSPropertyOp58
 70
     1
102
RTVSPropertyOp59
 70
     1
102
RTVSPropertyOp60
 70
     1
102
RTVSPropertyOp61
 70
     1
102
RTVSPropertyOp62
 70
     1
  0
XRECORD
  5
DC9
102
{ACAD_REACTORS
330
DC8
102
}
330
DC8
100
AcDbXrecord
280
     1
102
RTVSPost2010Prop28
280
     0
102
RTVSPost2010PropOp28
 70
     1
102
RTVSPost2010Prop29
280
     1
102
RTVSPost2010PropOp29
 70
     1
102
RTVSPost2010Prop30
280
     1
102
RTVSPost2010PropOp30
 70
     1
102
RTVSPost2010Prop31
280
     0
102
RTVSPost2010PropOp31
 70
     1
102
RTVSPost2010Prop32
280
     0
102
RTVSPost2010PropOp32
 70
     1
102
RTVSPost2010Prop33
280
     0
102
RTVSPost2010PropOp33
 70
     1
102
RTVSPost2010Prop34
280
     0
102
RTVSPost2010PropOp34
 70
     1
102
RTVSPost2010Prop35
280
     0
102
RTVSPost2010PropOp35
 70
     1
102
RTVSPost2010Prop36
280
     0
102
RTVSPost2010PropOp36
 70
     1
102
RTVSPost2010Prop37
 90
       50
102
RTVSPost2010PropOp37
 70
     1
102
RTVSPost2010Prop38
140
0.0
102
RTVSPost2010PropOp38
 70
     1
102
RTVSPost2010Prop39
140
1.0
102
RTVSPost2010PropOp39
 70
     1
102
RTVSPost2010Prop40
 90
        0
102
RTVSPost2010PropOp40
 70
     1
102
RTVSPost2010Prop41ColorIndex
 90
       18
102
RTVSPost2010Prop41ColorRGB
 90
        0
102
RTVSPost2010PropOp41
 70
     1
102
RTVSPost2010Prop42
 90
       50
102
RTVSPost2010PropOp42
 70
     1
102
RTVSPost2010Prop43
 90
        3
102
RTVSPost2010PropOp43
 70
     1
102
RTVSPost2010Prop44ColorIndex
 90
        5
102
RTVSPost2010Prop44ColorRGB
 90
      255
102
RTVSPost2010PropOp44
 70
     1
102
RTVSPost2010Prop45
280
     0
102
RTVSPost2010PropOp45
 70
     1
102
RTVSPost2010Prop46
 90
       50
102
RTVSPost2010PropOp46
 70
     1
102
RTVSPost2010Prop47
 90
       50
102
RTVSPost2010PropOp47
 70
     1
102
RTVSPost2010Prop48
 90
       50
102
RTVSPost2010PropOp48
 70
     1
102
RTVSPost2010Prop49
280
     0
102
RTVSPost2010PropOp49
 70
     1
102
RTVSPost2010Prop50
 90
       50
102
RTVSPost2010PropOp50
 70
     1
102
RTVSPost2010Prop51ColorIndex
 90
      256
102
RTVSPost2010Prop51ColorRGB
 90
-16777216
102
RTVSPost2010PropOp51
 70
     0
102
RTVSPost2010Prop52
140
1.0
102
RTVSPost2010PropOp52
 70
     0
102
RTVSPost2010Prop53
 90
        2
102
RTVSPost2010PropOp53
 70
     1
102
RTVSPost2010Prop54
  1
strokes_ogs.tif
102
RTVSPost2010PropOp54
 70
     1
102
RTVSPost2010Prop55
280
     0
102
RTVSPost2010PropOp55
 70
     1
102
RTVSPost2010Prop56
140
1.0
102
RTVSPost2010PropOp56
 70
     1
102
RTVSPost2010Prop57
140
1.0
102
RTVSPost2010PropOp57
 70
     1
102
RTVSPropertyOp0
 70
     1
102
RTVSPropertyOp1
 70
     1
102
RTVSPropertyOp2
 70
     1
102
RTVSPropertyOp3
 70
     1
102
RTVSPropertyOp4
 70
     1
102
RTVSPropertyOp5
 70
     1
102
RTVSPropertyOp6
 70
     1
102
RTVSPropertyOp7
 70
     1
102
RTVSPropertyOp8
 70
     1
102
RTVSPropertyOp9
 70
     1
102
RTVSPropertyOp10
 70
     1
102
RTVSPropertyOp11
 70
     1
102
RTVSPropertyOp12
 70
     1
102
RTVSPropertyOp13
 70
     1
102
RTVSPropertyOp14
 70
     1
102
RTVSPropertyOp15
 70
     1
102
RTVSPropertyOp16
 70
     1
102
RTVSPropertyOp17
 70
     1
102
RTVSPropertyOp18
 70
     1
102
RTVSPropertyOp19
 70
     1
102
RTVSPropertyOp20
 70
     1
102
RTVSPropertyOp21
 70
     1
102
RTVSPropertyOp22
 70
     1
102
RTVSPropertyOp23
 70
     1
102
RTVSPropertyOp24
 70
     1
102
RTVSPropertyOp25
 70
     1
102
RTVSPropertyOp26
 70
     1
102
RTVSPropertyOp27
 70
     1
102
RTVSPropertyOp28
 70
     1
102
RTVSPropertyOp29
 70
     1
102
RTVSPropertyOp30
 70
     1
102
RTVSPropertyOp31
 70
     1
102
RTVSPropertyOp32
 70
     1
102
RTVSPropertyOp33
 70
     1
102
RTVSPropertyOp34
 70
     1
102
RTVSPropertyOp35
 70
     1
102
RTVSPropertyOp36
 70
     1
102
RTVSPropertyOp37
 70
     1
102
RTVSPropertyOp38
 70
     1
102
RTVSPropertyOp39
 70
     1
102
RTVSPropertyOp40
 70
     1
102
RTVSPropertyOp41
 70
     1
102
RTVSPropertyOp42
 70
     1
102
RTVSPropertyOp43
 70
     1
102
RTVSPropertyOp44
 70
     1
102
RTVSPropertyOp45
 70
     1
102
RTVSPropertyOp46
 70
     1
102
RTVSPropertyOp47
 70
     1
102
RTVSPropertyOp48
 70
     1
102
RTVSPropertyOp49
 70
     1
102
RTVSPropertyOp50
 70
     1
102
RTVSPropertyOp51
 70
     0
102
RTVSPropertyOp52
 70
     0
102
RTVSPropertyOp53
 70
     1
102
RTVSPropertyOp54
 70
     1
102
RTVSPropertyOp55
 70
     1
102
RTVSPropertyOp56
 70
     1
102
RTVSPropertyOp57
 70
     1
102
RTVSPropertyOp58
 70
     1
102
RTVSPropertyOp59
 70
     1
102
RTVSPropertyOp60
 70
     1
102
RTVSPropertyOp61
 70
     1
102
RTVSPropertyOp62
 70
     1
  0
XRECORD
  5
DD7
102
{ACAD_REACTORS
330
DD6
102
}
330
DD6
100
AcDbXrecord
280
     1
102
RTVSPost2010Prop28
280
     0
102
RTVSPost2010PropOp28
 70
     1
102
RTVSPost2010Prop29
280
     1
102
RTVSPost2010PropOp29
 70
     1
102
RTVSPost2010Prop30
280
     1
102
RTVSPost2010PropOp30
 70
     1
102
RTVSPost2010Prop31
280
     0
102
RTVSPost2010PropOp31
 70
     1
102
RTVSPost2010Prop32
280
     0
102
RTVSPost2010PropOp32
 70
     1
102
RTVSPost2010Prop33
280
     0
102
RTVSPost2010PropOp33
 70
     1
102
RTVSPost2010Prop34
280
     0
102
RTVSPost2010PropOp34
 70
     1
102
RTVSPost2010Prop35
280
     0
102
RTVSPost2010PropOp35
 70
     1
102
RTVSPost2010Prop36
280
     0
102
RTVSPost2010PropOp36
 70
     1
102
RTVSPost2010Prop37
 90
       50
102
RTVSPost2010PropOp37
 70
     1
102
RTVSPost2010Prop38
140
0.0
102
RTVSPost2010PropOp38
 70
     1
102
RTVSPost2010Prop39
140
1.0
102
RTVSPost2010PropOp39
 70
     1
102
RTVSPost2010Prop40
 90
        0
102
RTVSPost2010PropOp40
 70
     1
102
RTVSPost2010Prop41ColorIndex
 90
       18
102
RTVSPost2010Prop41ColorRGB
 90
        0
102
RTVSPost2010PropOp41
 70
     1
102
RTVSPost2010Prop42
 90
       50
102
RTVSPost2010PropOp42
 70
     1
102
RTVSPost2010Prop43
 90
        3
102
RTVSPost2010PropOp43
 70
     1
102
RTVSPost2010Prop44ColorIndex
 90
        5
102
RTVSPost2010Prop44ColorRGB
 90
      255
102
RTVSPost2010PropOp44
 70
     1
102
RTVSPost2010Prop45
280
     0
102
RTVSPost2010PropOp45
 70
     1
102
RTVSPost2010Prop46
 90
       50
102
RTVSPost2010PropOp46
 70
     1
102
RTVSPost2010Prop47
 90
       50
102
RTVSPost2010PropOp47
 70
     1
102
RTVSPost2010Prop48
 90
       50
102
RTVSPost2010PropOp48
 70
     1
102
RTVSPost2010Prop49
280
     0
102
RTVSPost2010PropOp49
 70
     1
102
RTVSPost2010Prop50
 90
       50
102
RTVSPost2010PropOp50
 70
     1
102
RTVSPost2010Prop51ColorIndex
 90
      256
102
RTVSPost2010Prop51ColorRGB
 90
-16777216
102
RTVSPost2010PropOp51
 70
     0
102
RTVSPost2010Prop52
140
1.0
102
RTVSPost2010PropOp52
 70
     0
102
RTVSPost2010Prop53
 90
        2
102
RTVSPost2010PropOp53
 70
     1
102
RTVSPost2010Prop54
  1
strokes_ogs.tif
102
RTVSPost2010PropOp54
 70
     1
102
RTVSPost2010Prop55
280
     0
102
RTVSPost2010PropOp55
 70
     1
102
RTVSPost2010Prop56
140
1.0
102
RTVSPost2010PropOp56
 70
     1
102
RTVSPost2010Prop57
140
1.0
102
RTVSPost2010PropOp57
 70
     1
102
RTVSPropertyOp0
 70
     1
102
RTVSPropertyOp1
 70
     1
102
RTVSPropertyOp2
 70
     1
102
RTVSPropertyOp3
 70
     1
102
RTVSPropertyOp4
 70
     1
102
RTVSPropertyOp5
 70
     1
102
RTVSPropertyOp6
 70
     1
102
RTVSPropertyOp7
 70
     1
102
RTVSPropertyOp8
 70
     1
102
RTVSPropertyOp9
 70
     1
102
RTVSPropertyOp10
 70
     1
102
RTVSPropertyOp11
 70
     1
102
RTVSPropertyOp12
 70
     1
102
RTVSPropertyOp13
 70
     1
102
RTVSPropertyOp14
 70
     1
102
RTVSPropertyOp15
 70
     1
102
RTVSPropertyOp16
 70
     1
102
RTVSPropertyOp17
 70
     1
102
RTVSPropertyOp18
 70
     1
102
RTVSPropertyOp19
 70
     1
102
RTVSPropertyOp20
 70
     1
102
RTVSPropertyOp21
 70
     1
102
RTVSPropertyOp22
 70
     1
102
RTVSPropertyOp23
 70
     1
102
RTVSPropertyOp24
 70
     1
102
RTVSPropertyOp25
 70
     1
102
RTVSPropertyOp26
 70
     1
102
RTVSPropertyOp27
 70
     1
102
RTVSPropertyOp28
 70
     1
102
RTVSPropertyOp29
 70
     1
102
RTVSPropertyOp30
 70
     1
102
RTVSPropertyOp31
 70
     1
102
RTVSPropertyOp32
 70
     1
102
RTVSPropertyOp33
 70
     1
102
RTVSPropertyOp34
 70
     1
102
RTVSPropertyOp35
 70
     1
102
RTVSPropertyOp36
 70
     1
102
RTVSPropertyOp37
 70
     1
102
RTVSPropertyOp38
 70
     1
102
RTVSPropertyOp39
 70
     1
102
RTVSPropertyOp40
 70
     1
102
RTVSPropertyOp41
 70
     1
102
RTVSPropertyOp42
 70
     1
102
RTVSPropertyOp43
 70
     1
102
RTVSPropertyOp44
 70
     1
102
RTVSPropertyOp45
 70
     1
102
RTVSPropertyOp46
 70
     1
102
RTVSPropertyOp47
 70
     1
102
RTVSPropertyOp48
 70
     1
102
RTVSPropertyOp49
 70
     1
102
RTVSPropertyOp50
 70
     1
102
RTVSPropertyOp51
 70
     0
102
RTVSPropertyOp52
 70
     0
102
RTVSPropertyOp53
 70
     1
102
RTVSPropertyOp54
 70
     1
102
RTVSPropertyOp55
 70
     1
102
RTVSPropertyOp56
 70
     1
102
RTVSPropertyOp57
 70
     1
102
RTVSPropertyOp58
 70
     1
102
RTVSPropertyOp59
 70
     1
102
RTVSPropertyOp60
 70
     1
102
RTVSPropertyOp61
 70
     1
102
RTVSPropertyOp62
 70
     1
  0
XRECORD
  5
DDF
102
{ACAD_REACTORS
330
DDE
102
}
330
DDE
100
AcDbXrecord
280
     1
102
RTVSPost2010Prop28
280
     0
102
RTVSPost2010PropOp28
 70
     1
102
RTVSPost2010Prop29
280
     1
102
RTVSPost2010PropOp29
 70
     1
102
RTVSPost2010Prop30
280
     1
102
RTVSPost2010PropOp30
 70
     1
102
RTVSPost2010Prop31
280
     0
102
RTVSPost2010PropOp31
 70
     1
102
RTVSPost2010Prop32
280
     0
102
RTVSPost2010PropOp32
 70
     1
102
RTVSPost2010Prop33
280
     0
102
RTVSPost2010PropOp33
 70
     1
102
RTVSPost2010Prop34
280
     0
102
RTVSPost2010PropOp34
 70
     1
102
RTVSPost2010Prop35
280
     0
102
RTVSPost2010PropOp35
 70
     1
102
RTVSPost2010Prop36
280
     0
102
RTVSPost2010PropOp36
 70
     1
102
RTVSPost2010Prop37
 90
       50
102
RTVSPost2010PropOp37
 70
     1
102
RTVSPost2010Prop38
140
0.0
102
RTVSPost2010PropOp38
 70
     1
102
RTVSPost2010Prop39
140
1.0
102
RTVSPost2010PropOp39
 70
     1
102
RTVSPost2010Prop40
 90
        0
102
RTVSPost2010PropOp40
 70
     1
102
RTVSPost2010Prop41ColorIndex
 90
       18
102
RTVSPost2010Prop41ColorRGB
 90
        0
102
RTVSPost2010PropOp41
 70
     1
102
RTVSPost2010Prop42
 90
       50
102
RTVSPost2010PropOp42
 70
     1
102
RTVSPost2010Prop43
 90
        3
102
RTVSPost2010PropOp43
 70
     1
102
RTVSPost2010Prop44ColorIndex
 90
        5
102
RTVSPost2010Prop44ColorRGB
 90
      255
102
RTVSPost2010PropOp44
 70
     1
102
RTVSPost2010Prop45
280
     0
102
RTVSPost2010PropOp45
 70
     1
102
RTVSPost2010Prop46
 90
       50
102
RTVSPost2010PropOp46
 70
     1
102
RTVSPost2010Prop47
 90
       50
102
RTVSPost2010PropOp47
 70
     1
102
RTVSPost2010Prop48
 90
       50
102
RTVSPost2010PropOp48
 70
     1
102
RTVSPost2010Prop49
280
     0
102
RTVSPost2010PropOp49
 70
     1
102
RTVSPost2010Prop50
 90
       50
102
RTVSPost2010PropOp50
 70
     1
102
RTVSPost2010Prop51ColorIndex
 90
      256
102
RTVSPost2010Prop51ColorRGB
 90
-16777216
102
RTVSPost2010PropOp51
 70
     0
102
RTVSPost2010Prop52
140
1.0
102
RTVSPost2010PropOp52
 70
     0
102
RTVSPost2010Prop53
 90
        2
102
RTVSPost2010PropOp53
 70
     1
102
RTVSPost2010Prop54
  1
strokes_ogs.tif
102
RTVSPost2010PropOp54
 70
     1
102
RTVSPost2010Prop55
280
     0
102
RTVSPost2010PropOp55
 70
     1
102
RTVSPost2010Prop56
140
1.0
102
RTVSPost2010PropOp56
 70
     1
102
RTVSPost2010Prop57
140
1.0
102
RTVSPost2010PropOp57
 70
     1
102
RTVSPropertyOp0
 70
     1
102
RTVSPropertyOp1
 70
     1
102
RTVSPropertyOp2
 70
     1
102
RTVSPropertyOp3
 70
     1
102
RTVSPropertyOp4
 70
     1
102
RTVSPropertyOp5
 70
     1
102
RTVSPropertyOp6
 70
     1
102
RTVSPropertyOp7
 70
     1
102
RTVSPropertyOp8
 70
     1
102
RTVSPropertyOp9
 70
     1
102
RTVSPropertyOp10
 70
     1
102
RTVSPropertyOp11
 70
     1
102
RTVSPropertyOp12
 70
     1
102
RTVSPropertyOp13
 70
     1
102
RTVSPropertyOp14
 70
     1
102
RTVSPropertyOp15
 70
     1
102
RTVSPropertyOp16
 70
     1
102
RTVSPropertyOp17
 70
     1
102
RTVSPropertyOp18
 70
     1
102
RTVSPropertyOp19
 70
     1
102
RTVSPropertyOp20
 70
     1
102
RTVSPropertyOp21
 70
     1
102
RTVSPropertyOp22
 70
     1
102
RTVSPropertyOp23
 70
     1
102
RTVSPropertyOp24
 70
     1
102
RTVSPropertyOp25
 70
     1
102
RTVSPropertyOp26
 70
     1
102
RTVSPropertyOp27
 70
     1
102
RTVSPropertyOp28
 70
     1
102
RTVSPropertyOp29
 70
     1
102
RTVSPropertyOp30
 70
     1
102
RTVSPropertyOp31
 70
     1
102
RTVSPropertyOp32
 70
     1
102
RTVSPropertyOp33
 70
     1
102
RTVSPropertyOp34
 70
     1
102
RTVSPropertyOp35
 70
     1
102
RTVSPropertyOp36
 70
     1
102
RTVSPropertyOp37
 70
     1
102
RTVSPropertyOp38
 70
     1
102
RTVSPropertyOp39
 70
     1
102
RTVSPropertyOp40
 70
     1
102
RTVSPropertyOp41
 70
     1
102
RTVSPropertyOp42
 70
     1
102
RTVSPropertyOp43
 70
     1
102
RTVSPropertyOp44
 70
     1
102
RTVSPropertyOp45
 70
     1
102
RTVSPropertyOp46
 70
     1
102
RTVSPropertyOp47
 70
     1
102
RTVSPropertyOp48
 70
     1
102
RTVSPropertyOp49
 70
     1
102
RTVSPropertyOp50
 70
     1
102
RTVSPropertyOp51
 70
     0
102
RTVSPropertyOp52
 70
     0
102
RTVSPropertyOp53
 70
     1
102
RTVSPropertyOp54
 70
     1
102
RTVSPropertyOp55
 70
     1
102
RTVSPropertyOp56
 70
     1
102
RTVSPropertyOp57
 70
     1
102
RTVSPropertyOp58
 70
     1
102
RTVSPropertyOp59
 70
     1
102
RTVSPropertyOp60
 70
     1
102
RTVSPropertyOp61
 70
     1
102
RTVSPropertyOp62
 70
     1
  0
XRECORD
  5
DD1
102
{ACAD_REACTORS
330
DD0
102
}
330
DD0
100
AcDbXrecord
280
     1
102
RTVSPost2010Prop28
280
     0
102
RTVSPost2010PropOp28
 70
     1
102
RTVSPost2010Prop29
280
     1
102
RTVSPost2010PropOp29
 70
     1
102
RTVSPost2010Prop30
280
     1
102
RTVSPost2010PropOp30
 70
     1
102
RTVSPost2010Prop31
280
     0
102
RTVSPost2010PropOp31
 70
     1
102
RTVSPost2010Prop32
280
     0
102
RTVSPost2010PropOp32
 70
     1
102
RTVSPost2010Prop33
280
     0
102
RTVSPost2010PropOp33
 70
     1
102
RTVSPost2010Prop34
280
     0
102
RTVSPost2010PropOp34
 70
     1
102
RTVSPost2010Prop35
280
     0
102
RTVSPost2010PropOp35
 70
     1
102
RTVSPost2010Prop36
280
     0
102
RTVSPost2010PropOp36
 70
     1
102
RTVSPost2010Prop37
 90
       50
102
RTVSPost2010PropOp37
 70
     1
102
RTVSPost2010Prop38
140
0.0
102
RTVSPost2010PropOp38
 70
     1
102
RTVSPost2010Prop39
140
1.0
102
RTVSPost2010PropOp39
 70
     1
102
RTVSPost2010Prop40
 90
        0
102
RTVSPost2010PropOp40
 70
     1
102
RTVSPost2010Prop41ColorIndex
 90
       18
102
RTVSPost2010Prop41ColorRGB
 90
        0
102
RTVSPost2010PropOp41
 70
     1
102
RTVSPost2010Prop42
 90
       50
102
RTVSPost2010PropOp42
 70
     1
102
RTVSPost2010Prop43
 90
        3
102
RTVSPost2010PropOp43
 70
     1
102
RTVSPost2010Prop44ColorIndex
 90
        5
102
RTVSPost2010Prop44ColorRGB
 90
      255
102
RTVSPost2010PropOp44
 70
     1
102
RTVSPost2010Prop45
280
     0
102
RTVSPost2010PropOp45
 70
     1
102
RTVSPost2010Prop46
 90
       50
102
RTVSPost2010PropOp46
 70
     1
102
RTVSPost2010Prop47
 90
       50
102
RTVSPost2010PropOp47
 70
     1
102
RTVSPost2010Prop48
 90
       50
102
RTVSPost2010PropOp48
 70
     1
102
RTVSPost2010Prop49
280
     0
102
RTVSPost2010PropOp49
 70
     1
102
RTVSPost2010Prop50
 90
       50
102
RTVSPost2010PropOp50
 70
     1
102
RTVSPost2010Prop51ColorIndex
 90
      256
102
RTVSPost2010Prop51ColorRGB
 90
-16777216
102
RTVSPost2010PropOp51
 70
     0
102
RTVSPost2010Prop52
140
1.0
102
RTVSPost2010PropOp52
 70
     0
102
RTVSPost2010Prop53
 90
        2
102
RTVSPost2010PropOp53
 70
     1
102
RTVSPost2010Prop54
  1
strokes_ogs.tif
102
RTVSPost2010PropOp54
 70
     1
102
RTVSPost2010Prop55
280
     0
102
RTVSPost2010PropOp55
 70
     1
102
RTVSPost2010Prop56
140
1.0
102
RTVSPost2010PropOp56
 70
     1
102
RTVSPost2010Prop57
140
1.0
102
RTVSPost2010PropOp57
 70
     1
102
RTVSPropertyOp0
 70
     1
102
RTVSPropertyOp1
 70
     1
102
RTVSPropertyOp2
 70
     1
102
RTVSPropertyOp3
 70
     1
102
RTVSPropertyOp4
 70
     1
102
RTVSPropertyOp5
 70
     1
102
RTVSPropertyOp6
 70
     1
102
RTVSPropertyOp7
 70
     1
102
RTVSPropertyOp8
 70
     1
102
RTVSPropertyOp9
 70
     1
102
RTVSPropertyOp10
 70
     1
102
RTVSPropertyOp11
 70
     1
102
RTVSPropertyOp12
 70
     1
102
RTVSPropertyOp13
 70
     1
102
RTVSPropertyOp14
 70
     1
102
RTVSPropertyOp15
 70
     1
102
RTVSPropertyOp16
 70
     1
102
RTVSPropertyOp17
 70
     1
102
RTVSPropertyOp18
 70
     1
102
RTVSPropertyOp19
 70
     1
102
RTVSPropertyOp20
 70
     1
102
RTVSPropertyOp21
 70
     1
102
RTVSPropertyOp22
 70
     1
102
RTVSPropertyOp23
 70
     1
102
RTVSPropertyOp24
 70
     1
102
RTVSPropertyOp25
 70
     1
102
RTVSPropertyOp26
 70
     1
102
RTVSPropertyOp27
 70
     1
102
RTVSPropertyOp28
 70
     1
102
RTVSPropertyOp29
 70
     1
102
RTVSPropertyOp30
 70
     1
102
RTVSPropertyOp31
 70
     1
102
RTVSPropertyOp32
 70
     1
102
RTVSPropertyOp33
 70
     1
102
RTVSPropertyOp34
 70
     1
102
RTVSPropertyOp35
 70
     1
102
RTVSPropertyOp36
 70
     1
102
RTVSPropertyOp37
 70
     1
102
RTVSPropertyOp38
 70
     1
102
RTVSPropertyOp39
 70
     1
102
RTVSPropertyOp40
 70
     1
102
RTVSPropertyOp41
 70
     1
102
RTVSPropertyOp42
 70
     1
102
RTVSPropertyOp43
 70
     1
102
RTVSPropertyOp44
 70
     1
102
RTVSPropertyOp45
 70
     1
102
RTVSPropertyOp46
 70
     1
102
RTVSPropertyOp47
 70
     1
102
RTVSPropertyOp48
 70
     1
102
RTVSPropertyOp49
 70
     1
102
RTVSPropertyOp50
 70
     1
102
RTVSPropertyOp51
 70
     0
102
RTVSPropertyOp52
 70
     0
102
RTVSPropertyOp53
 70
     1
102
RTVSPropertyOp54
 70
     1
102
RTVSPropertyOp55
 70
     1
102
RTVSPropertyOp56
 70
     1
102
RTVSPropertyOp57
 70
     1
102
RTVSPropertyOp58
 70
     1
102
RTVSPropertyOp59
 70
     1
102
RTVSPropertyOp60
 70
     1
102
RTVSPropertyOp61
 70
     1
102
RTVSPropertyOp62
 70
     1
  0
XRECORD
  5
DD5
102
{ACAD_REACTORS
330
DD4
102
}
330
DD4
100
AcDbXrecord
280
     1
102
RTVSPost2010Prop28
280
     0
102
RTVSPost2010PropOp28
 70
     1
102
RTVSPost2010Prop29
280
     1
102
RTVSPost2010PropOp29
 70
     1
102
RTVSPost2010Prop30
280
     1
102
RTVSPost2010PropOp30
 70
     1
102
RTVSPost2010Prop31
280
     0
102
RTVSPost2010PropOp31
 70
     1
102
RTVSPost2010Prop32
280
     0
102
RTVSPost2010PropOp32
 70
     1
102
RTVSPost2010Prop33
280
     0
102
RTVSPost2010PropOp33
 70
     1
102
RTVSPost2010Prop34
280
     0
102
RTVSPost2010PropOp34
 70
     1
102
RTVSPost2010Prop35
280
     0
102
RTVSPost2010PropOp35
 70
     1
102
RTVSPost2010Prop36
280
     0
102
RTVSPost2010PropOp36
 70
     1
102
RTVSPost2010Prop37
 90
       50
102
RTVSPost2010PropOp37
 70
     1
102
RTVSPost2010Prop38
140
0.0
102
RTVSPost2010PropOp38
 70
     1
102
RTVSPost2010Prop39
140
1.0
102
RTVSPost2010PropOp39
 70
     1
102
RTVSPost2010Prop40
 90
        0
102
RTVSPost2010PropOp40
 70
     1
102
RTVSPost2010Prop41ColorIndex
 90
       18
102
RTVSPost2010Prop41ColorRGB
 90
        0
102
RTVSPost2010PropOp41
 70
     1
102
RTVSPost2010Prop42
 90
       50
102
RTVSPost2010PropOp42
 70
     1
102
RTVSPost2010Prop43
 90
        3
102
RTVSPost2010PropOp43
 70
     1
102
RTVSPost2010Prop44ColorIndex
 90
        5
102
RTVSPost2010Prop44ColorRGB
 90
      255
102
RTVSPost2010PropOp44
 70
     1
102
RTVSPost2010Prop45
280
     0
102
RTVSPost2010PropOp45
 70
     1
102
RTVSPost2010Prop46
 90
       50
102
RTVSPost2010PropOp46
 70
     1
102
RTVSPost2010Prop47
 90
       50
102
RTVSPost2010PropOp47
 70
     1
102
RTVSPost2010Prop48
 90
       50
102
RTVSPost2010PropOp48
 70
     1
102
RTVSPost2010Prop49
280
     0
102
RTVSPost2010PropOp49
 70
     1
102
RTVSPost2010Prop50
 90
       50
102
RTVSPost2010PropOp50
 70
     1
102
RTVSPost2010Prop51ColorIndex
 90
      256
102
RTVSPost2010Prop51ColorRGB
 90
-16777216
102
RTVSPost2010PropOp51
 70
     0
102
RTVSPost2010Prop52
140
1.0
102
RTVSPost2010PropOp52
 70
     0
102
RTVSPost2010Prop53
 90
        2
102
RTVSPost2010PropOp53
 70
     1
102
RTVSPost2010Prop54
  1
strokes_ogs.tif
102
RTVSPost2010PropOp54
 70
     1
102
RTVSPost2010Prop55
280
     0
102
RTVSPost2010PropOp55
 70
     1
102
RTVSPost2010Prop56
140
1.0
102
RTVSPost2010PropOp56
 70
     1
102
RTVSPost2010Prop57
140
1.0
102
RTVSPost2010PropOp57
 70
     1
102
RTVSPropertyOp0
 70
     1
102
RTVSPropertyOp1
 70
     1
102
RTVSPropertyOp2
 70
     1
102
RTVSPropertyOp3
 70
     1
102
RTVSPropertyOp4
 70
     1
102
RTVSPropertyOp5
 70
     1
102
RTVSPropertyOp6
 70
     1
102
RTVSPropertyOp7
 70
     1
102
RTVSPropertyOp8
 70
     1
102
RTVSPropertyOp9
 70
     1
102
RTVSPropertyOp10
 70
     1
102
RTVSPropertyOp11
 70
     1
102
RTVSPropertyOp12
 70
     1
102
RTVSPropertyOp13
 70
     1
102
RTVSPropertyOp14
 70
     1
102
RTVSPropertyOp15
 70
     1
102
RTVSPropertyOp16
 70
     1
102
RTVSPropertyOp17
 70
     1
102
RTVSPropertyOp18
 70
     1
102
RTVSPropertyOp19
 70
     1
102
RTVSPropertyOp20
 70
     1
102
RTVSPropertyOp21
 70
     1
102
RTVSPropertyOp22
 70
     1
102
RTVSPropertyOp23
 70
     1
102
RTVSPropertyOp24
 70
     1
102
RTVSPropertyOp25
 70
     1
102
RTVSPropertyOp26
 70
     1
102
RTVSPropertyOp27
 70
     1
102
RTVSPropertyOp28
 70
     1
102
RTVSPropertyOp29
 70
     1
102
RTVSPropertyOp30
 70
     1
102
RTVSPropertyOp31
 70
     1
102
RTVSPropertyOp32
 70
     1
102
RTVSPropertyOp33
 70
     1
102
RTVSPropertyOp34
 70
     1
102
RTVSPropertyOp35
 70
     1
102
RTVSPropertyOp36
 70
     1
102
RTVSPropertyOp37
 70
     1
102
RTVSPropertyOp38
 70
     1
102
RTVSPropertyOp39
 70
     1
102
RTVSPropertyOp40
 70
     1
102
RTVSPropertyOp41
 70
     1
102
RTVSPropertyOp42
 70
     1
102
RTVSPropertyOp43
 70
     1
102
RTVSPropertyOp44
 70
     1
102
RTVSPropertyOp45
 70
     1
102
RTVSPropertyOp46
 70
     1
102
RTVSPropertyOp47
 70
     1
102
RTVSPropertyOp48
 70
     1
102
RTVSPropertyOp49
 70
     1
102
RTVSPropertyOp50
 70
     1
102
RTVSPropertyOp51
 70
     0
102
RTVSPropertyOp52
 70
     0
102
RTVSPropertyOp53
 70
     1
102
RTVSPropertyOp54
 70
     1
102
RTVSPropertyOp55
 70
     1
102
RTVSPropertyOp56
 70
     1
102
RTVSPropertyOp57
 70
     1
102
RTVSPropertyOp58
 70
     1
102
RTVSPropertyOp59
 70
     1
102
RTVSPropertyOp60
 70
     1
102
RTVSPropertyOp61
 70
     1
102
RTVSPropertyOp62
 70
     1
  0
XRECORD
  5
DEF
102
{ACAD_REACTORS
330
DEE
102
}
330
DEE
100
AcDbXrecord
280
     1
102
RTVSPost2010Prop28
280
     0
102
RTVSPost2010PropOp28
 70
     1
102
RTVSPost2010Prop29
280
     1
102
RTVSPost2010PropOp29
 70
     1
102
RTVSPost2010Prop30
280
     1
102
RTVSPost2010PropOp30
 70
     1
102
RTVSPost2010Prop31
280
     0
102
RTVSPost2010PropOp31
 70
     1
102
RTVSPost2010Prop32
280
     0
102
RTVSPost2010PropOp32
 70
     1
102
RTVSPost2010Prop33
280
     0
102
RTVSPost2010PropOp33
 70
     1
102
RTVSPost2010Prop34
280
     0
102
RTVSPost2010PropOp34
 70
     1
102
RTVSPost2010Prop35
280
     0
102
RTVSPost2010PropOp35
 70
     1
102
RTVSPost2010Prop36
280
     0
102
RTVSPost2010PropOp36
 70
     1
102
RTVSPost2010Prop37
 90
       50
102
RTVSPost2010PropOp37
 70
     0
102
RTVSPost2010Prop38
140
0.0
102
RTVSPost2010PropOp38
 70
     0
102
RTVSPost2010Prop39
140
1.0
102
RTVSPost2010PropOp39
 70
     0
102
RTVSPost2010Prop40
 90
        0
102
RTVSPost2010PropOp40
 70
     0
102
RTVSPost2010Prop41ColorIndex
 90
       18
102
RTVSPost2010Prop41ColorRGB
 90
        0
102
RTVSPost2010PropOp41
 70
     0
102
RTVSPost2010Prop42
 90
       50
102
RTVSPost2010PropOp42
 70
     0
102
RTVSPost2010Prop43
 90
        3
102
RTVSPost2010PropOp43
 70
     0
102
RTVSPost2010Prop44ColorIndex
 90
        5
102
RTVSPost2010Prop44ColorRGB
 90
      255
102
RTVSPost2010PropOp44
 70
     0
102
RTVSPost2010Prop45
280
     0
102
RTVSPost2010PropOp45
 70
     1
102
RTVSPost2010Prop46
 90
       50
102
RTVSPost2010PropOp46
 70
     0
102
RTVSPost2010Prop47
 90
       50
102
RTVSPost2010PropOp47
 70
     0
102
RTVSPost2010Prop48
 90
       50
102
RTVSPost2010PropOp48
 70
     0
102
RTVSPost2010Prop49
280
     0
102
RTVSPost2010PropOp49
 70
     1
102
RTVSPost2010Prop50
 90
       50
102
RTVSPost2010PropOp50
 70
     0
102
RTVSPost2010Prop51ColorIndex
 90
      256
102
RTVSPost2010Prop51ColorRGB
 90
-16777216
102
RTVSPost2010PropOp51
 70
     0
102
RTVSPost2010Prop52
140
1.0
102
RTVSPost2010PropOp52
 70
     0
102
RTVSPost2010Prop53
 90
        2
102
RTVSPost2010PropOp53
 70
     0
102
RTVSPost2010Prop54
  1
strokes_ogs.tif
102
RTVSPost2010PropOp54
 70
     0
102
RTVSPost2010Prop55
280
     0
102
RTVSPost2010PropOp55
 70
     1
102
RTVSPost2010Prop56
140
1.0
102
RTVSPost2010PropOp56
 70
     0
102
RTVSPost2010Prop57
140
1.0
102
RTVSPost2010PropOp57
 70
     0
102
RTVSPropertyOp0
 70
     0
102
RTVSPropertyOp1
 70
     0
102
RTVSPropertyOp2
 70
     0
102
RTVSPropertyOp3
 70
     0
102
RTVSPropertyOp4
 70
     0
102
RTVSPropertyOp5
 70
     0
102
RTVSPropertyOp6
 70
     0
102
RTVSPropertyOp7
 70
     0
102
RTVSPropertyOp8
 70
     0
102
RTVSPropertyOp9
 70
     0
102
RTVSPropertyOp10
 70
     0
102
RTVSPropertyOp11
 70
     0
102
RTVSPropertyOp12
 70
     0
102
RTVSPropertyOp13
 70
     0
102
RTVSPropertyOp14
 70
     2
102
RTVSPropertyOp15
 70
     0
102
RTVSPropertyOp16
 70
     0
102
RTVSPropertyOp17
 70
     0
102
RTVSPropertyOp18
 70
     0
102
RTVSPropertyOp19
 70
     0
102
RTVSPropertyOp20
 70
     0
102
RTVSPropertyOp21
 70
     0
102
RTVSPropertyOp22
 70
     0
102
RTVSPropertyOp23
 70
     0
102
RTVSPropertyOp24
 70
     0
102
RTVSPropertyOp25
 70
     0
102
RTVSPropertyOp26
 70
     0
102
RTVSPropertyOp27
 70
     0
102
RTVSPropertyOp28
 70
     1
102
RTVSPropertyOp29
 70
     1
102
RTVSPropertyOp30
 70
     1
102
RTVSPropertyOp31
 70
     1
102
RTVSPropertyOp32
 70
     1
102
RTVSPropertyOp33
 70
     1
102
RTVSPropertyOp34
 70
     1
102
RTVSPropertyOp35
 70
     1
102
RTVSPropertyOp36
 70
     1
102
RTVSPropertyOp37
 70
     0
102
RTVSPropertyOp38
 70
     0
102
RTVSPropertyOp39
 70
     0
102
RTVSPropertyOp40
 70
     0
102
RTVSPropertyOp41
 70
     0
102
RTVSPropertyOp42
 70
     0
102
RTVSPropertyOp43
 70
     0
102
RTVSPropertyOp44
 70
     0
102
RTVSPropertyOp45
 70
     1
102
RTVSPropertyOp46
 70
     0
102
RTVSPropertyOp47
 70
     0
102
RTVSPropertyOp48
 70
     0
102
RTVSPropertyOp49
 70
     1
102
RTVSPropertyOp50
 70
     0
102
RTVSPropertyOp51
 70
     0
102
RTVSPropertyOp52
 70
     0
102
RTVSPropertyOp53
 70
     0
102
RTVSPropertyOp54
 70
     0
102
RTVSPropertyOp55
 70
     1
102
RTVSPropertyOp56
 70
     0
102
RTVSPropertyOp57
 70
     0
102
RTVSPropertyOp58
 70
     0
102
RTVSPropertyOp59
 70
     0
102
RTVSPropertyOp60
 70
     0
102
RTVSPropertyOp61
 70
     0
102
RTVSPropertyOp62
 70
     0
  0
XRECORD
  5
DDD
102
{ACAD_REACTORS
330
DDC
102
}
330
DDC
100
AcDbXrecord
280
     1
102
RTVSPost2010Prop28
280
     0
102
RTVSPost2010PropOp28
 70
     1
102
RTVSPost2010Prop29
280
     1
102
RTVSPost2010PropOp29
 70
     1
102
RTVSPost2010Prop30
280
     1
102
RTVSPost2010PropOp30
 70
     1
102
RTVSPost2010Prop31
280
     0
102
RTVSPost2010PropOp31
 70
     1
102
RTVSPost2010Prop32
280
     0
102
RTVSPost2010PropOp32
 70
     1
102
RTVSPost2010Prop33
280
     0
102
RTVSPost2010PropOp33
 70
     1
102
RTVSPost2010Prop34
280
     0
102
RTVSPost2010PropOp34
 70
     1
102
RTVSPost2010Prop35
280
     0
102
RTVSPost2010PropOp35
 70
     1
102
RTVSPost2010Prop36
280
     0
102
RTVSPost2010PropOp36
 70
     1
102
RTVSPost2010Prop37
 90
       50
102
RTVSPost2010PropOp37
 70
     1
102
RTVSPost2010Prop38
140
0.0
102
RTVSPost2010PropOp38
 70
     1
102
RTVSPost2010Prop39
140
1.0
102
RTVSPost2010PropOp39
 70
     1
102
RTVSPost2010Prop40
 90
        0
102
RTVSPost2010PropOp40
 70
     1
102
RTVSPost2010Prop41ColorIndex
 90
       18
102
RTVSPost2010Prop41ColorRGB
 90
        0
102
RTVSPost2010PropOp41
 70
     1
102
RTVSPost2010Prop42
 90
       50
102
RTVSPost2010PropOp42
 70
     1
102
RTVSPost2010Prop43
 90
        3
102
RTVSPost2010PropOp43
 70
     1
102
RTVSPost2010Prop44ColorIndex
 90
        5
102
RTVSPost2010Prop44ColorRGB
 90
      255
102
RTVSPost2010PropOp44
 70
     1
102
RTVSPost2010Prop45
280
     0
102
RTVSPost2010PropOp45
 70
     1
102
RTVSPost2010Prop46
 90
       50
102
RTVSPost2010PropOp46
 70
     1
102
RTVSPost2010Prop47
 90
       50
102
RTVSPost2010PropOp47
 70
     1
102
RTVSPost2010Prop48
 90
       50
102
RTVSPost2010PropOp48
 70
     1
102
RTVSPost2010Prop49
280
     0
102
RTVSPost2010PropOp49
 70
     1
102
RTVSPost2010Prop50
 90
       50
102
RTVSPost2010PropOp50
 70
     1
102
RTVSPost2010Prop51ColorIndex
 90
      256
102
RTVSPost2010Prop51ColorRGB
 90
-16777216
102
RTVSPost2010PropOp51
 70
     0
102
RTVSPost2010Prop52
140
1.0
102
RTVSPost2010PropOp52
 70
     0
102
RTVSPost2010Prop53
 90
        2
102
RTVSPost2010PropOp53
 70
     1
102
RTVSPost2010Prop54
  1
strokes_ogs.tif
102
RTVSPost2010PropOp54
 70
     1
102
RTVSPost2010Prop55
280
     0
102
RTVSPost2010PropOp55
 70
     1
102
RTVSPost2010Prop56
140
1.0
102
RTVSPost2010PropOp56
 70
     1
102
RTVSPost2010Prop57
140
1.0
102
RTVSPost2010PropOp57
 70
     1
102
RTVSPropertyOp0
 70
     1
102
RTVSPropertyOp1
 70
     1
102
RTVSPropertyOp2
 70
     1
102
RTVSPropertyOp3
 70
     1
102
RTVSPropertyOp4
 70
     1
102
RTVSPropertyOp5
 70
     1
102
RTVSPropertyOp6
 70
     1
102
RTVSPropertyOp7
 70
     1
102
RTVSPropertyOp8
 70
     1
102
RTVSPropertyOp9
 70
     1
102
RTVSPropertyOp10
 70
     1
102
RTVSPropertyOp11
 70
     1
102
RTVSPropertyOp12
 70
     1
102
RTVSPropertyOp13
 70
     1
102
RTVSPropertyOp14
 70
     1
102
RTVSPropertyOp15
 70
     1
102
RTVSPropertyOp16
 70
     1
102
RTVSPropertyOp17
 70
     1
102
RTVSPropertyOp18
 70
     1
102
RTVSPropertyOp19
 70
     1
102
RTVSPropertyOp20
 70
     1
102
RTVSPropertyOp21
 70
     1
102
RTVSPropertyOp22
 70
     1
102
RTVSPropertyOp23
 70
     1
102
RTVSPropertyOp24
 70
     1
102
RTVSPropertyOp25
 70
     1
102
RTVSPropertyOp26
 70
     1
102
RTVSPropertyOp27
 70
     1
102
RTVSPropertyOp28
 70
     1
102
RTVSPropertyOp29
 70
     1
102
RTVSPropertyOp30
 70
     1
102
RTVSPropertyOp31
 70
     1
102
RTVSPropertyOp32
 70
     1
102
RTVSPropertyOp33
 70
     1
102
RTVSPropertyOp34
 70
     1
102
RTVSPropertyOp35
 70
     1
102
RTVSPropertyOp36
 70
     1
102
RTVSPropertyOp37
 70
     1
102
RTVSPropertyOp38
 70
     1
102
RTVSPropertyOp39
 70
     1
102
RTVSPropertyOp40
 70
     1
102
RTVSPropertyOp41
 70
     1
102
RTVSPropertyOp42
 70
     1
102
RTVSPropertyOp43
 70
     1
102
RTVSPropertyOp44
 70
     1
102
RTVSPropertyOp45
 70
     1
102
RTVSPropertyOp46
 70
     1
102
RTVSPropertyOp47
 70
     1
102
RTVSPropertyOp48
 70
     1
102
RTVSPropertyOp49
 70
     1
102
RTVSPropertyOp50
 70
     1
102
RTVSPropertyOp51
 70
     0
102
RTVSPropertyOp52
 70
     0
102
RTVSPropertyOp53
 70
     1
102
RTVSPropertyOp54
 70
     1
102
RTVSPropertyOp55
 70
     1
102
RTVSPropertyOp56
 70
     1
102
RTVSPropertyOp57
 70
     1
102
RTVSPropertyOp58
 70
     1
102
RTVSPropertyOp59
 70
     1
102
RTVSPropertyOp60
 70
     1
102
RTVSPropertyOp61
 70
     1
102
RTVSPropertyOp62
 70
     1
  0
XRECORD
  5
DC1
102
{ACAD_REACTORS
330
DC0
102
}
330
DC0
100
AcDbXrecord
280
     1
102
RTVSPost2010Prop28
280
     0
102
RTVSPost2010PropOp28
 70
     1
102
RTVSPost2010Prop29
280
     1
102
RTVSPost2010PropOp29
 70
     1
102
RTVSPost2010Prop30
280
     1
102
RTVSPost2010PropOp30
 70
     1
102
RTVSPost2010Prop31
280
     0
102
RTVSPost2010PropOp31
 70
     1
102
RTVSPost2010Prop32
280
     0
102
RTVSPost2010PropOp32
 70
     1
102
RTVSPost2010Prop33
280
     0
102
RTVSPost2010PropOp33
 70
     1
102
RTVSPost2010Prop34
280
     0
102
RTVSPost2010PropOp34
 70
     1
102
RTVSPost2010Prop35
280
     0
102
RTVSPost2010PropOp35
 70
     1
102
RTVSPost2010Prop36
280
     0
102
RTVSPost2010PropOp36
 70
     1
102
RTVSPost2010Prop37
 90
       50
102
RTVSPost2010PropOp37
 70
     1
102
RTVSPost2010Prop38
140
0.0
102
RTVSPost2010PropOp38
 70
     1
102
RTVSPost2010Prop39
140
1.0
102
RTVSPost2010PropOp39
 70
     1
102
RTVSPost2010Prop40
 90
        0
102
RTVSPost2010PropOp40
 70
     1
102
RTVSPost2010Prop41ColorIndex
 90
       18
102
RTVSPost2010Prop41ColorRGB
 90
        0
102
RTVSPost2010PropOp41
 70
     1
102
RTVSPost2010Prop42
 90
       50
102
RTVSPost2010PropOp42
 70
     1
102
RTVSPost2010Prop43
 90
        3
102
RTVSPost2010PropOp43
 70
     1
102
RTVSPost2010Prop44ColorIndex
 90
        5
102
RTVSPost2010Prop44ColorRGB
 90
      255
102
RTVSPost2010PropOp44
 70
     1
102
RTVSPost2010Prop45
280
     0
102
RTVSPost2010PropOp45
 70
     1
102
RTVSPost2010Prop46
 90
       50
102
RTVSPost2010PropOp46
 70
     1
102
RTVSPost2010Prop47
 90
       50
102
RTVSPost2010PropOp47
 70
     1
102
RTVSPost2010Prop48
 90
       50
102
RTVSPost2010PropOp48
 70
     1
102
RTVSPost2010Prop49
280
     0
102
RTVSPost2010PropOp49
 70
     1
102
RTVSPost2010Prop50
 90
       50
102
RTVSPost2010PropOp50
 70
     1
102
RTVSPost2010Prop51ColorIndex
 90
      256
102
RTVSPost2010Prop51ColorRGB
 90
-16777216
102
RTVSPost2010PropOp51
 70
     0
102
RTVSPost2010Prop52
140
1.0
102
RTVSPost2010PropOp52
 70
     0
102
RTVSPost2010Prop53
 90
        2
102
RTVSPost2010PropOp53
 70
     1
102
RTVSPost2010Prop54
  1
strokes_ogs.tif
102
RTVSPost2010PropOp54
 70
     1
102
RTVSPost2010Prop55
280
     0
102
RTVSPost2010PropOp55
 70
     1
102
RTVSPost2010Prop56
140
1.0
102
RTVSPost2010PropOp56
 70
     1
102
RTVSPost2010Prop57
140
1.0
102
RTVSPost2010PropOp57
 70
     1
102
RTVSPropertyOp0
 70
     1
102
RTVSPropertyOp1
 70
     1
102
RTVSPropertyOp2
 70
     1
102
RTVSPropertyOp3
 70
     1
102
RTVSPropertyOp4
 70
     1
102
RTVSPropertyOp5
 70
     1
102
RTVSPropertyOp6
 70
     1
102
RTVSPropertyOp7
 70
     1
102
RTVSPropertyOp8
 70
     1
102
RTVSPropertyOp9
 70
     1
102
RTVSPropertyOp10
 70
     1
102
RTVSPropertyOp11
 70
     1
102
RTVSPropertyOp12
 70
     1
102
RTVSPropertyOp13
 70
     1
102
RTVSPropertyOp14
 70
     1
102
RTVSPropertyOp15
 70
     1
102
RTVSPropertyOp16
 70
     1
102
RTVSPropertyOp17
 70
     1
102
RTVSPropertyOp18
 70
     1
102
RTVSPropertyOp19
 70
     1
102
RTVSPropertyOp20
 70
     1
102
RTVSPropertyOp21
 70
     1
102
RTVSPropertyOp22
 70
     1
102
RTVSPropertyOp23
 70
     1
102
RTVSPropertyOp24
 70
     1
102
RTVSPropertyOp25
 70
     1
102
RTVSPropertyOp26
 70
     1
102
RTVSPropertyOp27
 70
     1
102
RTVSPropertyOp28
 70
     1
102
RTVSPropertyOp29
 70
     1
102
RTVSPropertyOp30
 70
     1
102
RTVSPropertyOp31
 70
     1
102
RTVSPropertyOp32
 70
     1
102
RTVSPropertyOp33
 70
     1
102
RTVSPropertyOp34
 70
     1
102
RTVSPropertyOp35
 70
     1
102
RTVSPropertyOp36
 70
     1
102
RTVSPropertyOp37
 70
     1
102
RTVSPropertyOp38
 70
     1
102
RTVSPropertyOp39
 70
     1
102
RTVSPropertyOp40
 70
     1
102
RTVSPropertyOp41
 70
     1
102
RTVSPropertyOp42
 70
     1
102
RTVSPropertyOp43
 70
     1
102
RTVSPropertyOp44
 70
     1
102
RTVSPropertyOp45
 70
     1
102
RTVSPropertyOp46
 70
     1
102
RTVSPropertyOp47
 70
     1
102
RTVSPropertyOp48
 70
     1
102
RTVSPropertyOp49
 70
     1
102
RTVSPropertyOp50
 70
     1
102
RTVSPropertyOp51
 70
     0
102
RTVSPropertyOp52
 70
     0
102
RTVSPropertyOp53
 70
     1
102
RTVSPropertyOp54
 70
     1
102
RTVSPropertyOp55
 70
     1
102
RTVSPropertyOp56
 70
     1
102
RTVSPropertyOp57
 70
     1
102
RTVSPropertyOp58
 70
     1
102
RTVSPropertyOp59
 70
     1
102
RTVSPropertyOp60
 70
     1
102
RTVSPropertyOp61
 70
     1
102
RTVSPropertyOp62
 70
     1
  0
XRECORD
  5
DC3
102
{ACAD_REACTORS
330
DC2
102
}
330
DC2
100
AcDbXrecord
280
     1
102
RTVSPost2010Prop28
280
     0
102
RTVSPost2010PropOp28
 70
     1
102
RTVSPost2010Prop29
280
     1
102
RTVSPost2010PropOp29
 70
     1
102
RTVSPost2010Prop30
280
     1
102
RTVSPost2010PropOp30
 70
     1
102
RTVSPost2010Prop31
280
     0
102
RTVSPost2010PropOp31
 70
     1
102
RTVSPost2010Prop32
280
     0
102
RTVSPost2010PropOp32
 70
     1
102
RTVSPost2010Prop33
280
     0
102
RTVSPost2010PropOp33
 70
     1
102
RTVSPost2010Prop34
280
     0
102
RTVSPost2010PropOp34
 70
     1
102
RTVSPost2010Prop35
280
     0
102
RTVSPost2010PropOp35
 70
     1
102
RTVSPost2010Prop36
280
     0
102
RTVSPost2010PropOp36
 70
     1
102
RTVSPost2010Prop37
 90
       50
102
RTVSPost2010PropOp37
 70
     1
102
RTVSPost2010Prop38
140
0.0
102
RTVSPost2010PropOp38
 70
     1
102
RTVSPost2010Prop39
140
1.0
102
RTVSPost2010PropOp39
 70
     1
102
RTVSPost2010Prop40
 90
        0
102
RTVSPost2010PropOp40
 70
     1
102
RTVSPost2010Prop41ColorIndex
 90
       18
102
RTVSPost2010Prop41ColorRGB
 90
        0
102
RTVSPost2010PropOp41
 70
     1
102
RTVSPost2010Prop42
 90
       50
102
RTVSPost2010PropOp42
 70
     1
102
RTVSPost2010Prop43
 90
        3
102
RTVSPost2010PropOp43
 70
     1
102
RTVSPost2010Prop44ColorIndex
 90
        5
102
RTVSPost2010Prop44ColorRGB
 90
      255
102
RTVSPost2010PropOp44
 70
     1
102
RTVSPost2010Prop45
280
     0
102
RTVSPost2010PropOp45
 70
     1
102
RTVSPost2010Prop46
 90
       50
102
RTVSPost2010PropOp46
 70
     1
102
RTVSPost2010Prop47
 90
       50
102
RTVSPost2010PropOp47
 70
     1
102
RTVSPost2010Prop48
 90
       50
102
RTVSPost2010PropOp48
 70
     1
102
RTVSPost2010Prop49
280
     0
102
RTVSPost2010PropOp49
 70
     1
102
RTVSPost2010Prop50
 90
       50
102
RTVSPost2010PropOp50
 70
     1
102
RTVSPost2010Prop51ColorIndex
 90
      256
102
RTVSPost2010Prop51ColorRGB
 90
-16777216
102
RTVSPost2010PropOp51
 70
     0
102
RTVSPost2010Prop52
140
1.0
102
RTVSPost2010PropOp52
 70
     0
102
RTVSPost2010Prop53
 90
        2
102
RTVSPost2010PropOp53
 70
     1
102
RTVSPost2010Prop54
  1
strokes_ogs.tif
102
RTVSPost2010PropOp54
 70
     1
102
RTVSPost2010Prop55
280
     0
102
RTVSPost2010PropOp55
 70
     1
102
RTVSPost2010Prop56
140
1.0
102
RTVSPost2010PropOp56
 70
     1
102
RTVSPost2010Prop57
140
1.0
102
RTVSPost2010PropOp57
 70
     1
102
RTVSPropertyOp0
 70
     1
102
RTVSPropertyOp1
 70
     1
102
RTVSPropertyOp2
 70
     1
102
RTVSPropertyOp3
 70
     1
102
RTVSPropertyOp4
 70
     1
102
RTVSPropertyOp5
 70
     1
102
RTVSPropertyOp6
 70
     1
102
RTVSPropertyOp7
 70
     1
102
RTVSPropertyOp8
 70
     1
102
RTVSPropertyOp9
 70
     1
102
RTVSPropertyOp10
 70
     1
102
RTVSPropertyOp11
 70
     1
102
RTVSPropertyOp12
 70
     1
102
RTVSPropertyOp13
 70
     1
102
RTVSPropertyOp14
 70
     1
102
RTVSPropertyOp15
 70
     1
102
RTVSPropertyOp16
 70
     1
102
RTVSPropertyOp17
 70
     1
102
RTVSPropertyOp18
 70
     1
102
RTVSPropertyOp19
 70
     1
102
RTVSPropertyOp20
 70
     1
102
RTVSPropertyOp21
 70
     1
102
RTVSPropertyOp22
 70
     1
102
RTVSPropertyOp23
 70
     1
102
RTVSPropertyOp24
 70
     1
102
RTVSPropertyOp25
 70
     1
102
RTVSPropertyOp26
 70
     1
102
RTVSPropertyOp27
 70
     1
102
RTVSPropertyOp28
 70
     1
102
RTVSPropertyOp29
 70
     1
102
RTVSPropertyOp30
 70
     1
102
RTVSPropertyOp31
 70
     1
102
RTVSPropertyOp32
 70
     1
102
RTVSPropertyOp33
 70
     1
102
RTVSPropertyOp34
 70
     1
102
RTVSPropertyOp35
 70
     1
102
RTVSPropertyOp36
 70
     1
102
RTVSPropertyOp37
 70
     1
102
RTVSPropertyOp38
 70
     1
102
RTVSPropertyOp39
 70
     1
102
RTVSPropertyOp40
 70
     1
102
RTVSPropertyOp41
 70
     1
102
RTVSPropertyOp42
 70
     1
102
RTVSPropertyOp43
 70
     1
102
RTVSPropertyOp44
 70
     1
102
RTVSPropertyOp45
 70
     1
102
RTVSPropertyOp46
 70
     1
102
RTVSPropertyOp47
 70
     1
102
RTVSPropertyOp48
 70
     1
102
RTVSPropertyOp49
 70
     1
102
RTVSPropertyOp50
 70
     1
102
RTVSPropertyOp51
 70
     0
102
RTVSPropertyOp52
 70
     0
102
RTVSPropertyOp53
 70
     1
102
RTVSPropertyOp54
 70
     1
102
RTVSPropertyOp55
 70
     1
102
RTVSPropertyOp56
 70
     1
102
RTVSPropertyOp57
 70
     1
102
RTVSPropertyOp58
 70
     1
102
RTVSPropertyOp59
 70
     1
102
RTVSPropertyOp60
 70
     1
102
RTVSPropertyOp61
 70
     1
102
RTVSPropertyOp62
 70
     1
  0
XRECORD
  5
DC5
102
{ACAD_REACTORS
330
DC4
102
}
330
DC4
100
AcDbXrecord
280
     1
102
RTVSPost2010Prop28
280
     0
102
RTVSPost2010PropOp28
 70
     1
102
RTVSPost2010Prop29
280
     1
102
RTVSPost2010PropOp29
 70
     1
102
RTVSPost2010Prop30
280
     1
102
RTVSPost2010PropOp30
 70
     1
102
RTVSPost2010Prop31
280
     0
102
RTVSPost2010PropOp31
 70
     1
102
RTVSPost2010Prop32
280
     0
102
RTVSPost2010PropOp32
 70
     1
102
RTVSPost2010Prop33
280
     0
102
RTVSPost2010PropOp33
 70
     1
102
RTVSPost2010Prop34
280
     0
102
RTVSPost2010PropOp34
 70
     1
102
RTVSPost2010Prop35
280
     0
102
RTVSPost2010PropOp35
 70
     1
102
RTVSPost2010Prop36
280
     0
102
RTVSPost2010PropOp36
 70
     1
102
RTVSPost2010Prop37
 90
       50
102
RTVSPost2010PropOp37
 70
     1
102
RTVSPost2010Prop38
140
0.0
102
RTVSPost2010PropOp38
 70
     1
102
RTVSPost2010Prop39
140
1.0
102
RTVSPost2010PropOp39
 70
     1
102
RTVSPost2010Prop40
 90
        0
102
RTVSPost2010PropOp40
 70
     1
102
RTVSPost2010Prop41ColorIndex
 90
       18
102
RTVSPost2010Prop41ColorRGB
 90
        0
102
RTVSPost2010PropOp41
 70
     1
102
RTVSPost2010Prop42
 90
       50
102
RTVSPost2010PropOp42
 70
     1
102
RTVSPost2010Prop43
 90
        3
102
RTVSPost2010PropOp43
 70
     1
102
RTVSPost2010Prop44ColorIndex
 90
        5
102
RTVSPost2010Prop44ColorRGB
 90
      255
102
RTVSPost2010PropOp44
 70
     1
102
RTVSPost2010Prop45
280
     0
102
RTVSPost2010PropOp45
 70
     1
102
RTVSPost2010Prop46
 90
       50
102
RTVSPost2010PropOp46
 70
     1
102
RTVSPost2010Prop47
 90
       50
102
RTVSPost2010PropOp47
 70
     1
102
RTVSPost2010Prop48
 90
       50
102
RTVSPost2010PropOp48
 70
     1
102
RTVSPost2010Prop49
280
     0
102
RTVSPost2010PropOp49
 70
     1
102
RTVSPost2010Prop50
 90
       50
102
RTVSPost2010PropOp50
 70
     1
102
RTVSPost2010Prop51ColorIndex
 90
      256
102
RTVSPost2010Prop51ColorRGB
 90
-16777216
102
RTVSPost2010PropOp51
 70
     0
102
RTVSPost2010Prop52
140
1.0
102
RTVSPost2010PropOp52
 70
     0
102
RTVSPost2010Prop53
 90
        2
102
RTVSPost2010PropOp53
 70
     1
102
RTVSPost2010Prop54
  1
strokes_ogs.tif
102
RTVSPost2010PropOp54
 70
     1
102
RTVSPost2010Prop55
280
     0
102
RTVSPost2010PropOp55
 70
     1
102
RTVSPost2010Prop56
140
1.0
102
RTVSPost2010PropOp56
 70
     1
102
RTVSPost2010Prop57
140
1.0
102
RTVSPost2010PropOp57
 70
     1
102
RTVSPropertyOp0
 70
     1
102
RTVSPropertyOp1
 70
     1
102
RTVSPropertyOp2
 70
     1
102
RTVSPropertyOp3
 70
     1
102
RTVSPropertyOp4
 70
     1
102
RTVSPropertyOp5
 70
     1
102
RTVSPropertyOp6
 70
     1
102
RTVSPropertyOp7
 70
     1
102
RTVSPropertyOp8
 70
     1
102
RTVSPropertyOp9
 70
     1
102
RTVSPropertyOp10
 70
     1
102
RTVSPropertyOp11
 70
     1
102
RTVSPropertyOp12
 70
     1
102
RTVSPropertyOp13
 70
     1
102
RTVSPropertyOp14
 70
     1
102
RTVSPropertyOp15
 70
     1
102
RTVSPropertyOp16
 70
     1
102
RTVSPropertyOp17
 70
     1
102
RTVSPropertyOp18
 70
     1
102
RTVSPropertyOp19
 70
     1
102
RTVSPropertyOp20
 70
     1
102
RTVSPropertyOp21
 70
     1
102
RTVSPropertyOp22
 70
     1
102
RTVSPropertyOp23
 70
     1
102
RTVSPropertyOp24
 70
     1
102
RTVSPropertyOp25
 70
     1
102
RTVSPropertyOp26
 70
     1
102
RTVSPropertyOp27
 70
     1
102
RTVSPropertyOp28
 70
     1
102
RTVSPropertyOp29
 70
     1
102
RTVSPropertyOp30
 70
     1
102
RTVSPropertyOp31
 70
     1
102
RTVSPropertyOp32
 70
     1
102
RTVSPropertyOp33
 70
     1
102
RTVSPropertyOp34
 70
     1
102
RTVSPropertyOp35
 70
     1
102
RTVSPropertyOp36
 70
     1
102
RTVSPropertyOp37
 70
     1
102
RTVSPropertyOp38
 70
     1
102
RTVSPropertyOp39
 70
     1
102
RTVSPropertyOp40
 70
     1
102
RTVSPropertyOp41
 70
     1
102
RTVSPropertyOp42
 70
     1
102
RTVSPropertyOp43
 70
     1
102
RTVSPropertyOp44
 70
     1
102
RTVSPropertyOp45
 70
     1
102
RTVSPropertyOp46
 70
     1
102
RTVSPropertyOp47
 70
     1
102
RTVSPropertyOp48
 70
     1
102
RTVSPropertyOp49
 70
     1
102
RTVSPropertyOp50
 70
     1
102
RTVSPropertyOp51
 70
     0
102
RTVSPropertyOp52
 70
     0
102
RTVSPropertyOp53
 70
     1
102
RTVSPropertyOp54
 70
     1
102
RTVSPropertyOp55
 70
     1
102
RTVSPropertyOp56
 70
     1
102
RTVSPropertyOp57
 70
     1
102
RTVSPropertyOp58
 70
     1
102
RTVSPropertyOp59
 70
     1
102
RTVSPropertyOp60
 70
     1
102
RTVSPropertyOp61
 70
     1
102
RTVSPropertyOp62
 70
     1
  0
XRECORD
  5
DC7
102
{ACAD_REACTORS
330
DC6
102
}
330
DC6
100
AcDbXrecord
280
     1
102
RTVSPost2010Prop28
280
     0
102
RTVSPost2010PropOp28
 70
     1
102
RTVSPost2010Prop29
280
     1
102
RTVSPost2010PropOp29
 70
     1
102
RTVSPost2010Prop30
280
     1
102
RTVSPost2010PropOp30
 70
     1
102
RTVSPost2010Prop31
280
     0
102
RTVSPost2010PropOp31
 70
     1
102
RTVSPost2010Prop32
280
     0
102
RTVSPost2010PropOp32
 70
     1
102
RTVSPost2010Prop33
280
     0
102
RTVSPost2010PropOp33
 70
     1
102
RTVSPost2010Prop34
280
     0
102
RTVSPost2010PropOp34
 70
     1
102
RTVSPost2010Prop35
280
     0
102
RTVSPost2010PropOp35
 70
     1
102
RTVSPost2010Prop36
280
     0
102
RTVSPost2010PropOp36
 70
     1
102
RTVSPost2010Prop37
 90
       50
102
RTVSPost2010PropOp37
 70
     1
102
RTVSPost2010Prop38
140
0.0
102
RTVSPost2010PropOp38
 70
     1
102
RTVSPost2010Prop39
140
1.0
102
RTVSPost2010PropOp39
 70
     1
102
RTVSPost2010Prop40
 90
        0
102
RTVSPost2010PropOp40
 70
     1
102
RTVSPost2010Prop41ColorIndex
 90
       18
102
RTVSPost2010Prop41ColorRGB
 90
        0
102
RTVSPost2010PropOp41
 70
     1
102
RTVSPost2010Prop42
 90
       50
102
RTVSPost2010PropOp42
 70
     1
102
RTVSPost2010Prop43
 90
        3
102
RTVSPost2010PropOp43
 70
     1
102
RTVSPost2010Prop44ColorIndex
 90
        5
102
RTVSPost2010Prop44ColorRGB
 90
      255
102
RTVSPost2010PropOp44
 70
     1
102
RTVSPost2010Prop45
280
     0
102
RTVSPost2010PropOp45
 70
     1
102
RTVSPost2010Prop46
 90
       50
102
RTVSPost2010PropOp46
 70
     1
102
RTVSPost2010Prop47
 90
       50
102
RTVSPost2010PropOp47
 70
     1
102
RTVSPost2010Prop48
 90
       50
102
RTVSPost2010PropOp48
 70
     1
102
RTVSPost2010Prop49
280
     0
102
RTVSPost2010PropOp49
 70
     1
102
RTVSPost2010Prop50
 90
       50
102
RTVSPost2010PropOp50
 70
     1
102
RTVSPost2010Prop51ColorIndex
 90
      256
102
RTVSPost2010Prop51ColorRGB
 90
-16777216
102
RTVSPost2010PropOp51
 70
     0
102
RTVSPost2010Prop52
140
1.0
102
RTVSPost2010PropOp52
 70
     0
102
RTVSPost2010Prop53
 90
        2
102
RTVSPost2010PropOp53
 70
     1
102
RTVSPost2010Prop54
  1
strokes_ogs.tif
102
RTVSPost2010PropOp54
 70
     1
102
RTVSPost2010Prop55
280
     0
102
RTVSPost2010PropOp55
 70
     1
102
RTVSPost2010Prop56
140
1.0
102
RTVSPost2010PropOp56
 70
     1
102
RTVSPost2010Prop57
140
1.0
102
RTVSPost2010PropOp57
 70
     1
102
RTVSPropertyOp0
 70
     1
102
RTVSPropertyOp1
 70
     1
102
RTVSPropertyOp2
 70
     1
102
RTVSPropertyOp3
 70
     1
102
RTVSPropertyOp4
 70
     1
102
RTVSPropertyOp5
 70
     1
102
RTVSPropertyOp6
 70
     1
102
RTVSPropertyOp7
 70
     1
102
RTVSPropertyOp8
 70
     1
102
RTVSPropertyOp9
 70
     1
102
RTVSPropertyOp10
 70
     1
102
RTVSPropertyOp11
 70
     1
102
RTVSPropertyOp12
 70
     1
102
RTVSPropertyOp13
 70
     1
102
RTVSPropertyOp14
 70
     1
102
RTVSPropertyOp15
 70
     1
102
RTVSPropertyOp16
 70
     1
102
RTVSPropertyOp17
 70
     1
102
RTVSPropertyOp18
 70
     1
102
RTVSPropertyOp19
 70
     1
102
RTVSPropertyOp20
 70
     1
102
RTVSPropertyOp21
 70
     1
102
RTVSPropertyOp22
 70
     1
102
RTVSPropertyOp23
 70
     1
102
RTVSPropertyOp24
 70
     1
102
RTVSPropertyOp25
 70
     1
102
RTVSPropertyOp26
 70
     1
102
RTVSPropertyOp27
 70
     1
102
RTVSPropertyOp28
 70
     1
102
RTVSPropertyOp29
 70
     1
102
RTVSPropertyOp30
 70
     1
102
RTVSPropertyOp31
 70
     1
102
RTVSPropertyOp32
 70
     1
102
RTVSPropertyOp33
 70
     1
102
RTVSPropertyOp34
 70
     1
102
RTVSPropertyOp35
 70
     1
102
RTVSPropertyOp36
 70
     1
102
RTVSPropertyOp37
 70
     1
102
RTVSPropertyOp38
 70
     1
102
RTVSPropertyOp39
 70
     1
102
RTVSPropertyOp40
 70
     1
102
RTVSPropertyOp41
 70
     1
102
RTVSPropertyOp42
 70
     1
102
RTVSPropertyOp43
 70
     1
102
RTVSPropertyOp44
 70
     1
102
RTVSPropertyOp45
 70
     1
102
RTVSPropertyOp46
 70
     1
102
RTVSPropertyOp47
 70
     1
102
RTVSPropertyOp48
 70
     1
102
RTVSPropertyOp49
 70
     1
102
RTVSPropertyOp50
 70
     1
102
RTVSPropertyOp51
 70
     0
102
RTVSPropertyOp52
 70
     0
102
RTVSPropertyOp53
 70
     1
102
RTVSPropertyOp54
 70
     1
102
RTVSPropertyOp55
 70
     1
102
RTVSPropertyOp56
 70
     1
102
RTVSPropertyOp57
 70
     1
102
RTVSPropertyOp58
 70
     1
102
RTVSPropertyOp59
 70
     1
102
RTVSPropertyOp60
 70
     1
102
RTVSPropertyOp61
 70
     1
102
RTVSPropertyOp62
 70
     1
  0
XRECORD
  5
DCF
102
{ACAD_REACTORS
330
DCE
102
}
330
DCE
100
AcDbXrecord
280
     1
102
RTVSPost2010Prop28
280
     0
102
RTVSPost2010PropOp28
 70
     1
102
RTVSPost2010Prop29
280
     1
102
RTVSPost2010PropOp29
 70
     1
102
RTVSPost2010Prop30
280
     1
102
RTVSPost2010PropOp30
 70
     1
102
RTVSPost2010Prop31
280
     0
102
RTVSPost2010PropOp31
 70
     1
102
RTVSPost2010Prop32
280
     0
102
RTVSPost2010PropOp32
 70
     1
102
RTVSPost2010Prop33
280
     0
102
RTVSPost2010PropOp33
 70
     1
102
RTVSPost2010Prop34
280
     0
102
RTVSPost2010PropOp34
 70
     1
102
RTVSPost2010Prop35
280
     0
102
RTVSPost2010PropOp35
 70
     1
102
RTVSPost2010Prop36
280
     0
102
RTVSPost2010PropOp36
 70
     1
102
RTVSPost2010Prop37
 90
       50
102
RTVSPost2010PropOp37
 70
     1
102
RTVSPost2010Prop38
140
0.0
102
RTVSPost2010PropOp38
 70
     1
102
RTVSPost2010Prop39
140
1.0
102
RTVSPost2010PropOp39
 70
     1
102
RTVSPost2010Prop40
 90
        0
102
RTVSPost2010PropOp40
 70
     1
102
RTVSPost2010Prop41ColorIndex
 90
       18
102
RTVSPost2010Prop41ColorRGB
 90
        0
102
RTVSPost2010PropOp41
 70
     1
102
RTVSPost2010Prop42
 90
       50
102
RTVSPost2010PropOp42
 70
     1
102
RTVSPost2010Prop43
 90
        3
102
RTVSPost2010PropOp43
 70
     1
102
RTVSPost2010Prop44ColorIndex
 90
        5
102
RTVSPost2010Prop44ColorRGB
 90
      255
102
RTVSPost2010PropOp44
 70
     1
102
RTVSPost2010Prop45
280
     0
102
RTVSPost2010PropOp45
 70
     1
102
RTVSPost2010Prop46
 90
       50
102
RTVSPost2010PropOp46
 70
     1
102
RTVSPost2010Prop47
 90
       50
102
RTVSPost2010PropOp47
 70
     1
102
RTVSPost2010Prop48
 90
       50
102
RTVSPost2010PropOp48
 70
     1
102
RTVSPost2010Prop49
280
     0
102
RTVSPost2010PropOp49
 70
     1
102
RTVSPost2010Prop50
 90
       50
102
RTVSPost2010PropOp50
 70
     1
102
RTVSPost2010Prop51ColorIndex
 90
      256
102
RTVSPost2010Prop51ColorRGB
 90
-16777216
102
RTVSPost2010PropOp51
 70
     0
102
RTVSPost2010Prop52
140
1.0
102
RTVSPost2010PropOp52
 70
     0
102
RTVSPost2010Prop53
 90
        2
102
RTVSPost2010PropOp53
 70
     1
102
RTVSPost2010Prop54
  1
strokes_ogs.tif
102
RTVSPost2010PropOp54
 70
     1
102
RTVSPost2010Prop55
280
     0
102
RTVSPost2010PropOp55
 70
     1
102
RTVSPost2010Prop56
140
1.0
102
RTVSPost2010PropOp56
 70
     1
102
RTVSPost2010Prop57
140
1.0
102
RTVSPost2010PropOp57
 70
     1
102
RTVSPropertyOp0
 70
     1
102
RTVSPropertyOp1
 70
     1
102
RTVSPropertyOp2
 70
     1
102
RTVSPropertyOp3
 70
     1
102
RTVSPropertyOp4
 70
     1
102
RTVSPropertyOp5
 70
     1
102
RTVSPropertyOp6
 70
     1
102
RTVSPropertyOp7
 70
     1
102
RTVSPropertyOp8
 70
     1
102
RTVSPropertyOp9
 70
     1
102
RTVSPropertyOp10
 70
     1
102
RTVSPropertyOp11
 70
     1
102
RTVSPropertyOp12
 70
     1
102
RTVSPropertyOp13
 70
     1
102
RTVSPropertyOp14
 70
     1
102
RTVSPropertyOp15
 70
     1
102
RTVSPropertyOp16
 70
     1
102
RTVSPropertyOp17
 70
     1
102
RTVSPropertyOp18
 70
     1
102
RTVSPropertyOp19
 70
     1
102
RTVSPropertyOp20
 70
     1
102
RTVSPropertyOp21
 70
     1
102
RTVSPropertyOp22
 70
     1
102
RTVSPropertyOp23
 70
     1
102
RTVSPropertyOp24
 70
     1
102
RTVSPropertyOp25
 70
     1
102
RTVSPropertyOp26
 70
     1
102
RTVSPropertyOp27
 70
     1
102
RTVSPropertyOp28
 70
     1
102
RTVSPropertyOp29
 70
     1
102
RTVSPropertyOp30
 70
     1
102
RTVSPropertyOp31
 70
     1
102
RTVSPropertyOp32
 70
     1
102
RTVSPropertyOp33
 70
     1
102
RTVSPropertyOp34
 70
     1
102
RTVSPropertyOp35
 70
     1
102
RTVSPropertyOp36
 70
     1
102
RTVSPropertyOp37
 70
     1
102
RTVSPropertyOp38
 70
     1
102
RTVSPropertyOp39
 70
     1
102
RTVSPropertyOp40
 70
     1
102
RTVSPropertyOp41
 70
     1
102
RTVSPropertyOp42
 70
     1
102
RTVSPropertyOp43
 70
     1
102
RTVSPropertyOp44
 70
     1
102
RTVSPropertyOp45
 70
     1
102
RTVSPropertyOp46
 70
     1
102
RTVSPropertyOp47
 70
     1
102
RTVSPropertyOp48
 70
     1
102
RTVSPropertyOp49
 70
     1
102
RTVSPropertyOp50
 70
     1
102
RTVSPropertyOp51
 70
     0
102
RTVSPropertyOp52
 70
     0
102
RTVSPropertyOp53
 70
     1
102
RTVSPropertyOp54
 70
     1
102
RTVSPropertyOp55
 70
     1
102
RTVSPropertyOp56
 70
     1
102
RTVSPropertyOp57
 70
     1
102
RTVSPropertyOp58
 70
     1
102
RTVSPropertyOp59
 70
     1
102
RTVSPropertyOp60
 70
     1
102
RTVSPropertyOp61
 70
     1
102
RTVSPropertyOp62
 70
     1
  0
XRECORD
  5
DEB
102
{ACAD_REACTORS
330
DEA
102
}
330
DEA
100
AcDbXrecord
280
     1
102
RTVSPost2010Prop28
280
     0
102
RTVSPost2010PropOp28
 70
     1
102
RTVSPost2010Prop29
280
     1
102
RTVSPost2010PropOp29
 70
     1
102
RTVSPost2010Prop30
280
     1
102
RTVSPost2010PropOp30
 70
     1
102
RTVSPost2010Prop31
280
     0
102
RTVSPost2010PropOp31
 70
     1
102
RTVSPost2010Prop32
280
     0
102
RTVSPost2010PropOp32
 70
     1
102
RTVSPost2010Prop33
280
     0
102
RTVSPost2010PropOp33
 70
     1
102
RTVSPost2010Prop34
280
     0
102
RTVSPost2010PropOp34
 70
     1
102
RTVSPost2010Prop35
280
     0
102
RTVSPost2010PropOp35
 70
     1
102
RTVSPost2010Prop36
280
     0
102
RTVSPost2010PropOp36
 70
     1
102
RTVSPost2010Prop37
 90
       50
102
RTVSPost2010PropOp37
 70
     0
102
RTVSPost2010Prop38
140
0.0
102
RTVSPost2010PropOp38
 70
     0
102
RTVSPost2010Prop39
140
1.0
102
RTVSPost2010PropOp39
 70
     0
102
RTVSPost2010Prop40
 90
        0
102
RTVSPost2010PropOp40
 70
     0
102
RTVSPost2010Prop41ColorIndex
 90
       18
102
RTVSPost2010Prop41ColorRGB
 90
        0
102
RTVSPost2010PropOp41
 70
     0
102
RTVSPost2010Prop42
 90
       50
102
RTVSPost2010PropOp42
 70
     0
102
RTVSPost2010Prop43
 90
        3
102
RTVSPost2010PropOp43
 70
     0
102
RTVSPost2010Prop44ColorIndex
 90
        5
102
RTVSPost2010Prop44ColorRGB
 90
      255
102
RTVSPost2010PropOp44
 70
     0
102
RTVSPost2010Prop45
280
     0
102
RTVSPost2010PropOp45
 70
     1
102
RTVSPost2010Prop46
 90
       50
102
RTVSPost2010PropOp46
 70
     0
102
RTVSPost2010Prop47
 90
       50
102
RTVSPost2010PropOp47
 70
     0
102
RTVSPost2010Prop48
 90
       50
102
RTVSPost2010PropOp48
 70
     0
102
RTVSPost2010Prop49
280
     0
102
RTVSPost2010PropOp49
 70
     1
102
RTVSPost2010Prop50
 90
       50
102
RTVSPost2010PropOp50
 70
     0
102
RTVSPost2010Prop51ColorIndex
 90
      256
102
RTVSPost2010Prop51ColorRGB
 90
-16777216
102
RTVSPost2010PropOp51
 70
     0
102
RTVSPost2010Prop52
140
1.0
102
RTVSPost2010PropOp52
 70
     0
102
RTVSPost2010Prop53
 90
        2
102
RTVSPost2010PropOp53
 70
     0
102
RTVSPost2010Prop54
  1
strokes_ogs.tif
102
RTVSPost2010PropOp54
 70
     0
102
RTVSPost2010Prop55
280
     0
102
RTVSPost2010PropOp55
 70
     1
102
RTVSPost2010Prop56
140
1.0
102
RTVSPost2010PropOp56
 70
     0
102
RTVSPost2010Prop57
140
1.0
102
RTVSPost2010PropOp57
 70
     0
102
RTVSPropertyOp0
 70
     0
102
RTVSPropertyOp1
 70
     0
102
RTVSPropertyOp2
 70
     0
102
RTVSPropertyOp3
 70
     0
102
RTVSPropertyOp4
 70
     0
102
RTVSPropertyOp5
 70
     0
102
RTVSPropertyOp6
 70
     0
102
RTVSPropertyOp7
 70
     0
102
RTVSPropertyOp8
 70
     0
102
RTVSPropertyOp9
 70
     0
102
RTVSPropertyOp10
 70
     0
102
RTVSPropertyOp11
 70
     0
102
RTVSPropertyOp12
 70
     0
102
RTVSPropertyOp13
 70
     0
102
RTVSPropertyOp14
 70
     2
102
RTVSPropertyOp15
 70
     0
102
RTVSPropertyOp16
 70
     0
102
RTVSPropertyOp17
 70
     0
102
RTVSPropertyOp18
 70
     0
102
RTVSPropertyOp19
 70
     0
102
RTVSPropertyOp20
 70
     0
102
RTVSPropertyOp21
 70
     0
102
RTVSPropertyOp22
 70
     0
102
RTVSPropertyOp23
 70
     0
102
RTVSPropertyOp24
 70
     0
102
RTVSPropertyOp25
 70
     0
102
RTVSPropertyOp26
 70
     0
102
RTVSPropertyOp27
 70
     0
102
RTVSPropertyOp28
 70
     1
102
RTVSPropertyOp29
 70
     1
102
RTVSPropertyOp30
 70
     1
102
RTVSPropertyOp31
 70
     1
102
RTVSPropertyOp32
 70
     1
102
RTVSPropertyOp33
 70
     1
102
RTVSPropertyOp34
 70
     1
102
RTVSPropertyOp35
 70
     1
102
RTVSPropertyOp36
 70
     1
102
RTVSPropertyOp37
 70
     0
102
RTVSPropertyOp38
 70
     0
102
RTVSPropertyOp39
 70
     0
102
RTVSPropertyOp40
 70
     0
102
RTVSPropertyOp41
 70
     0
102
RTVSPropertyOp42
 70
     0
102
RTVSPropertyOp43
 70
     0
102
RTVSPropertyOp44
 70
     0
102
RTVSPropertyOp45
 70
     1
102
RTVSPropertyOp46
 70
     0
102
RTVSPropertyOp47
 70
     0
102
RTVSPropertyOp48
 70
     0
102
RTVSPropertyOp49
 70
     1
102
RTVSPropertyOp50
 70
     0
102
RTVSPropertyOp51
 70
     0
102
RTVSPropertyOp52
 70
     0
102
RTVSPropertyOp53
 70
     0
102
RTVSPropertyOp54
 70
     0
102
RTVSPropertyOp55
 70
     1
102
RTVSPropertyOp56
 70
     0
102
RTVSPropertyOp57
 70
     0
102
RTVSPropertyOp58
 70
     0
102
RTVSPropertyOp59
 70
     0
102
RTVSPropertyOp60
 70
     0
102
RTVSPropertyOp61
 70
     0
102
RTVSPropertyOp62
 70
     0
  0
XRECORD
  5
DDB
102
{ACAD_REACTORS
330
DDA
102
}
330
DDA
100
AcDbXrecord
280
     1
102
RTVSPost2010Prop28
280
     0
102
RTVSPost2010PropOp28
 70
     1
102
RTVSPost2010Prop29
280
     1
102
RTVSPost2010PropOp29
 70
     1
102
RTVSPost2010Prop30
280
     1
102
RTVSPost2010PropOp30
 70
     1
102
RTVSPost2010Prop31
280
     0
102
RTVSPost2010PropOp31
 70
     1
102
RTVSPost2010Prop32
280
     0
102
RTVSPost2010PropOp32
 70
     1
102
RTVSPost2010Prop33
280
     0
102
RTVSPost2010PropOp33
 70
     1
102
RTVSPost2010Prop34
280
     0
102
RTVSPost2010PropOp34
 70
     1
102
RTVSPost2010Prop35
280
     0
102
RTVSPost2010PropOp35
 70
     1
102
RTVSPost2010Prop36
280
     0
102
RTVSPost2010PropOp36
 70
     1
102
RTVSPost2010Prop37
 90
       50
102
RTVSPost2010PropOp37
 70
     1
102
RTVSPost2010Prop38
140
0.0
102
RTVSPost2010PropOp38
 70
     1
102
RTVSPost2010Prop39
140
1.0
102
RTVSPost2010PropOp39
 70
     1
102
RTVSPost2010Prop40
 90
        0
102
RTVSPost2010PropOp40
 70
     1
102
RTVSPost2010Prop41ColorIndex
 90
       18
102
RTVSPost2010Prop41ColorRGB
 90
        0
102
RTVSPost2010PropOp41
 70
     1
102
RTVSPost2010Prop42
 90
       50
102
RTVSPost2010PropOp42
 70
     1
102
RTVSPost2010Prop43
 90
        3
102
RTVSPost2010PropOp43
 70
     1
102
RTVSPost2010Prop44ColorIndex
 90
        5
102
RTVSPost2010Prop44ColorRGB
 90
      255
102
RTVSPost2010PropOp44
 70
     1
102
RTVSPost2010Prop45
280
     0
102
RTVSPost2010PropOp45
 70
     1
102
RTVSPost2010Prop46
 90
       50
102
RTVSPost2010PropOp46
 70
     1
102
RTVSPost2010Prop47
 90
       50
102
RTVSPost2010PropOp47
 70
     1
102
RTVSPost2010Prop48
 90
       50
102
RTVSPost2010PropOp48
 70
     1
102
RTVSPost2010Prop49
280
     0
102
RTVSPost2010PropOp49
 70
     1
102
RTVSPost2010Prop50
 90
       50
102
RTVSPost2010PropOp50
 70
     1
102
RTVSPost2010Prop51ColorIndex
 90
      256
102
RTVSPost2010Prop51ColorRGB
 90
-16777216
102
RTVSPost2010PropOp51
 70
     0
102
RTVSPost2010Prop52
140
1.0
102
RTVSPost2010PropOp52
 70
     0
102
RTVSPost2010Prop53
 90
        2
102
RTVSPost2010PropOp53
 70
     1
102
RTVSPost2010Prop54
  1
strokes_ogs.tif
102
RTVSPost2010PropOp54
 70
     1
102
RTVSPost2010Prop55
280
     0
102
RTVSPost2010PropOp55
 70
     1
102
RTVSPost2010Prop56
140
1.0
102
RTVSPost2010PropOp56
 70
     1
102
RTVSPost2010Prop57
140
1.0
102
RTVSPost2010PropOp57
 70
     1
102
RTVSPropertyOp0
 70
     1
102
RTVSPropertyOp1
 70
     1
102
RTVSPropertyOp2
 70
     1
102
RTVSPropertyOp3
 70
     1
102
RTVSPropertyOp4
 70
     1
102
RTVSPropertyOp5
 70
     1
102
RTVSPropertyOp6
 70
     1
102
RTVSPropertyOp7
 70
     1
102
RTVSPropertyOp8
 70
     1
102
RTVSPropertyOp9
 70
     1
102
RTVSPropertyOp10
 70
     1
102
RTVSPropertyOp11
 70
     1
102
RTVSPropertyOp12
 70
     1
102
RTVSPropertyOp13
 70
     1
102
RTVSPropertyOp14
 70
     1
102
RTVSPropertyOp15
 70
     1
102
RTVSPropertyOp16
 70
     1
102
RTVSPropertyOp17
 70
     1
102
RTVSPropertyOp18
 70
     1
102
RTVSPropertyOp19
 70
     1
102
RTVSPropertyOp20
 70
     1
102
RTVSPropertyOp21
 70
     1
102
RTVSPropertyOp22
 70
     1
102
RTVSPropertyOp23
 70
     1
102
RTVSPropertyOp24
 70
     1
102
RTVSPropertyOp25
 70
     1
102
RTVSPropertyOp26
 70
     1
102
RTVSPropertyOp27
 70
     1
102
RTVSPropertyOp28
 70
     1
102
RTVSPropertyOp29
 70
     1
102
RTVSPropertyOp30
 70
     1
102
RTVSPropertyOp31
 70
     1
102
RTVSPropertyOp32
 70
     1
102
RTVSPropertyOp33
 70
     1
102
RTVSPropertyOp34
 70
     1
102
RTVSPropertyOp35
 70
     1
102
RTVSPropertyOp36
 70
     1
102
RTVSPropertyOp37
 70
     1
102
RTVSPropertyOp38
 70
     1
102
RTVSPropertyOp39
 70
     1
102
RTVSPropertyOp40
 70
     1
102
RTVSPropertyOp41
 70
     1
102
RTVSPropertyOp42
 70
     1
102
RTVSPropertyOp43
 70
     1
102
RTVSPropertyOp44
 70
     1
102
RTVSPropertyOp45
 70
     1
102
RTVSPropertyOp46
 70
     1
102
RTVSPropertyOp47
 70
     1
102
RTVSPropertyOp48
 70
     1
102
RTVSPropertyOp49
 70
     1
102
RTVSPropertyOp50
 70
     1
102
RTVSPropertyOp51
 70
     0
102
RTVSPropertyOp52
 70
     0
102
RTVSPropertyOp53
 70
     1
102
RTVSPropertyOp54
 70
     1
102
RTVSPropertyOp55
 70
     1
102
RTVSPropertyOp56
 70
     1
102
RTVSPropertyOp57
 70
     1
102
RTVSPropertyOp58
 70
     1
102
RTVSPropertyOp59
 70
     1
102
RTVSPropertyOp60
 70
     1
102
RTVSPropertyOp61
 70
     1
102
RTVSPropertyOp62
 70
     1
  0
XRECORD
  5
DED
102
{ACAD_REACTORS
330
DEC
102
}
330
DEC
100
AcDbXrecord
280
     1
102
RTVSPost2010Prop28
280
     0
102
RTVSPost2010PropOp28
 70
     1
102
RTVSPost2010Prop29
280
     1
102
RTVSPost2010PropOp29
 70
     1
102
RTVSPost2010Prop30
280
     1
102
RTVSPost2010PropOp30
 70
     1
102
RTVSPost2010Prop31
280
     0
102
RTVSPost2010PropOp31
 70
     1
102
RTVSPost2010Prop32
280
     0
102
RTVSPost2010PropOp32
 70
     1
102
RTVSPost2010Prop33
280
     0
102
RTVSPost2010PropOp33
 70
     1
102
RTVSPost2010Prop34
280
     0
102
RTVSPost2010PropOp34
 70
     1
102
RTVSPost2010Prop35
280
     0
102
RTVSPost2010PropOp35
 70
     1
102
RTVSPost2010Prop36
280
     0
102
RTVSPost2010PropOp36
 70
     1
102
RTVSPost2010Prop37
 90
       50
102
RTVSPost2010PropOp37
 70
     0
102
RTVSPost2010Prop38
140
0.0
102
RTVSPost2010PropOp38
 70
     0
102
RTVSPost2010Prop39
140
1.0
102
RTVSPost2010PropOp39
 70
     0
102
RTVSPost2010Prop40
 90
        0
102
RTVSPost2010PropOp40
 70
     0
102
RTVSPost2010Prop41ColorIndex
 90
       18
102
RTVSPost2010Prop41ColorRGB
 90
        0
102
RTVSPost2010PropOp41
 70
     0
102
RTVSPost2010Prop42
 90
       50
102
RTVSPost2010PropOp42
 70
     0
102
RTVSPost2010Prop43
 90
        3
102
RTVSPost2010PropOp43
 70
     0
102
RTVSPost2010Prop44ColorIndex
 90
        5
102
RTVSPost2010Prop44ColorRGB
 90
      255
102
RTVSPost2010PropOp44
 70
     0
102
RTVSPost2010Prop45
280
     0
102
RTVSPost2010PropOp45
 70
     1
102
RTVSPost2010Prop46
 90
       50
102
RTVSPost2010PropOp46
 70
     0
102
RTVSPost2010Prop47
 90
       50
102
RTVSPost2010PropOp47
 70
     0
102
RTVSPost2010Prop48
 90
       50
102
RTVSPost2010PropOp48
 70
     0
102
RTVSPost2010Prop49
280
     0
102
RTVSPost2010PropOp49
 70
     1
102
RTVSPost2010Prop50
 90
       50
102
RTVSPost2010PropOp50
 70
     0
102
RTVSPost2010Prop51ColorIndex
 90
      256
102
RTVSPost2010Prop51ColorRGB
 90
-16777216
102
RTVSPost2010PropOp51
 70
     0
102
RTVSPost2010Prop52
140
1.0
102
RTVSPost2010PropOp52
 70
     0
102
RTVSPost2010Prop53
 90
        2
102
RTVSPost2010PropOp53
 70
     0
102
RTVSPost2010Prop54
  1
strokes_ogs.tif
102
RTVSPost2010PropOp54
 70
     0
102
RTVSPost2010Prop55
280
     0
102
RTVSPost2010PropOp55
 70
     1
102
RTVSPost2010Prop56
140
1.0
102
RTVSPost2010PropOp56
 70
     0
102
RTVSPost2010Prop57
140
1.0
102
RTVSPost2010PropOp57
 70
     0
102
RTVSPropertyOp0
 70
     0
102
RTVSPropertyOp1
 70
     0
102
RTVSPropertyOp2
 70
     0
102
RTVSPropertyOp3
 70
     0
102
RTVSPropertyOp4
 70
     0
102
RTVSPropertyOp5
 70
     0
102
RTVSPropertyOp6
 70
     0
102
RTVSPropertyOp7
 70
     0
102
RTVSPropertyOp8
 70
     0
102
RTVSPropertyOp9
 70
     0
102
RTVSPropertyOp10
 70
     0
102
RTVSPropertyOp11
 70
     0
102
RTVSPropertyOp12
 70
     0
102
RTVSPropertyOp13
 70
     0
102
RTVSPropertyOp14
 70
     2
102
RTVSPropertyOp15
 70
     0
102
RTVSPropertyOp16
 70
     0
102
RTVSPropertyOp17
 70
     0
102
RTVSPropertyOp18
 70
     0
102
RTVSPropertyOp19
 70
     0
102
RTVSPropertyOp20
 70
     0
102
RTVSPropertyOp21
 70
     0
102
RTVSPropertyOp22
 70
     0
102
RTVSPropertyOp23
 70
     0
102
RTVSPropertyOp24
 70
     0
102
RTVSPropertyOp25
 70
     0
102
RTVSPropertyOp26
 70
     0
102
RTVSPropertyOp27
 70
     0
102
RTVSPropertyOp28
 70
     1
102
RTVSPropertyOp29
 70
     1
102
RTVSPropertyOp30
 70
     1
102
RTVSPropertyOp31
 70
     1
102
RTVSPropertyOp32
 70
     1
102
RTVSPropertyOp33
 70
     1
102
RTVSPropertyOp34
 70
     1
102
RTVSPropertyOp35
 70
     1
102
RTVSPropertyOp36
 70
     1
102
RTVSPropertyOp37
 70
     0
102
RTVSPropertyOp38
 70
     0
102
RTVSPropertyOp39
 70
     0
102
RTVSPropertyOp40
 70
     0
102
RTVSPropertyOp41
 70
     0
102
RTVSPropertyOp42
 70
     0
102
RTVSPropertyOp43
 70
     0
102
RTVSPropertyOp44
 70
     0
102
RTVSPropertyOp45
 70
     1
102
RTVSPropertyOp46
 70
     0
102
RTVSPropertyOp47
 70
     0
102
RTVSPropertyOp48
 70
     0
102
RTVSPropertyOp49
 70
     1
102
RTVSPropertyOp50
 70
     0
102
RTVSPropertyOp51
 70
     0
102
RTVSPropertyOp52
 70
     0
102
RTVSPropertyOp53
 70
     0
102
RTVSPropertyOp54
 70
     0
102
RTVSPropertyOp55
 70
     1
102
RTVSPropertyOp56
 70
     0
102
RTVSPropertyOp57
 70
     0
102
RTVSPropertyOp58
 70
     0
102
RTVSPropertyOp59
 70
     0
102
RTVSPropertyOp60
 70
     0
102
RTVSPropertyOp61
 70
     0
102
RTVSPropertyOp62
 70
     0
  0
XRECORD
  5
DD3
102
{ACAD_REACTORS
330
DD2
102
}
330
DD2
100
AcDbXrecord
280
     1
102
RTVSPost2010Prop28
280
     0
102
RTVSPost2010PropOp28
 70
     1
102
RTVSPost2010Prop29
280
     1
102
RTVSPost2010PropOp29
 70
     1
102
RTVSPost2010Prop30
280
     1
102
RTVSPost2010PropOp30
 70
     1
102
RTVSPost2010Prop31
280
     0
102
RTVSPost2010PropOp31
 70
     1
102
RTVSPost2010Prop32
280
     0
102
RTVSPost2010PropOp32
 70
     1
102
RTVSPost2010Prop33
280
     0
102
RTVSPost2010PropOp33
 70
     1
102
RTVSPost2010Prop34
280
     0
102
RTVSPost2010PropOp34
 70
     1
102
RTVSPost2010Prop35
280
     0
102
RTVSPost2010PropOp35
 70
     1
102
RTVSPost2010Prop36
280
     0
102
RTVSPost2010PropOp36
 70
     1
102
RTVSPost2010Prop37
 90
       50
102
RTVSPost2010PropOp37
 70
     1
102
RTVSPost2010Prop38
140
0.0
102
RTVSPost2010PropOp38
 70
     1
102
RTVSPost2010Prop39
140
1.0
102
RTVSPost2010PropOp39
 70
     1
102
RTVSPost2010Prop40
 90
        0
102
RTVSPost2010PropOp40
 70
     1
102
RTVSPost2010Prop41ColorIndex
 90
       18
102
RTVSPost2010Prop41ColorRGB
 90
        0
102
RTVSPost2010PropOp41
 70
     1
102
RTVSPost2010Prop42
 90
       50
102
RTVSPost2010PropOp42
 70
     1
102
RTVSPost2010Prop43
 90
        3
102
RTVSPost2010PropOp43
 70
     1
102
RTVSPost2010Prop44ColorIndex
 90
        5
102
RTVSPost2010Prop44ColorRGB
 90
      255
102
RTVSPost2010PropOp44
 70
     1
102
RTVSPost2010Prop45
280
     0
102
RTVSPost2010PropOp45
 70
     1
102
RTVSPost2010Prop46
 90
       50
102
RTVSPost2010PropOp46
 70
     1
102
RTVSPost2010Prop47
 90
       50
102
RTVSPost2010PropOp47
 70
     1
102
RTVSPost2010Prop48
 90
       50
102
RTVSPost2010PropOp48
 70
     1
102
RTVSPost2010Prop49
280
     0
102
RTVSPost2010PropOp49
 70
     1
102
RTVSPost2010Prop50
 90
       50
102
RTVSPost2010PropOp50
 70
     1
102
RTVSPost2010Prop51ColorIndex
 90
      256
102
RTVSPost2010Prop51ColorRGB
 90
-16777216
102
RTVSPost2010PropOp51
 70
     0
102
RTVSPost2010Prop52
140
1.0
102
RTVSPost2010PropOp52
 70
     0
102
RTVSPost2010Prop53
 90
        2
102
RTVSPost2010PropOp53
 70
     1
102
RTVSPost2010Prop54
  1
strokes_ogs.tif
102
RTVSPost2010PropOp54
 70
     1
102
RTVSPost2010Prop55
280
     0
102
RTVSPost2010PropOp55
 70
     1
102
RTVSPost2010Prop56
140
1.0
102
RTVSPost2010PropOp56
 70
     1
102
RTVSPost2010Prop57
140
1.0
102
RTVSPost2010PropOp57
 70
     1
102
RTVSPropertyOp0
 70
     1
102
RTVSPropertyOp1
 70
     1
102
RTVSPropertyOp2
 70
     1
102
RTVSPropertyOp3
 70
     1
102
RTVSPropertyOp4
 70
     1
102
RTVSPropertyOp5
 70
     1
102
RTVSPropertyOp6
 70
     1
102
RTVSPropertyOp7
 70
     1
102
RTVSPropertyOp8
 70
     1
102
RTVSPropertyOp9
 70
     1
102
RTVSPropertyOp10
 70
     1
102
RTVSPropertyOp11
 70
     1
102
RTVSPropertyOp12
 70
     1
102
RTVSPropertyOp13
 70
     1
102
RTVSPropertyOp14
 70
     1
102
RTVSPropertyOp15
 70
     1
102
RTVSPropertyOp16
 70
     1
102
RTVSPropertyOp17
 70
     1
102
RTVSPropertyOp18
 70
     1
102
RTVSPropertyOp19
 70
     1
102
RTVSPropertyOp20
 70
     1
102
RTVSPropertyOp21
 70
     1
102
RTVSPropertyOp22
 70
     1
102
RTVSPropertyOp23
 70
     1
102
RTVSPropertyOp24
 70
     1
102
RTVSPropertyOp25
 70
     1
102
RTVSPropertyOp26
 70
     1
102
RTVSPropertyOp27
 70
     1
102
RTVSPropertyOp28
 70
     1
102
RTVSPropertyOp29
 70
     1
102
RTVSPropertyOp30
 70
     1
102
RTVSPropertyOp31
 70
     1
102
RTVSPropertyOp32
 70
     1
102
RTVSPropertyOp33
 70
     1
102
RTVSPropertyOp34
 70
     1
102
RTVSPropertyOp35
 70
     1
102
RTVSPropertyOp36
 70
     1
102
RTVSPropertyOp37
 70
     1
102
RTVSPropertyOp38
 70
     1
102
RTVSPropertyOp39
 70
     1
102
RTVSPropertyOp40
 70
     1
102
RTVSPropertyOp41
 70
     1
102
RTVSPropertyOp42
 70
     1
102
RTVSPropertyOp43
 70
     1
102
RTVSPropertyOp44
 70
     1
102
RTVSPropertyOp45
 70
     1
102
RTVSPropertyOp46
 70
     1
102
RTVSPropertyOp47
 70
     1
102
RTVSPropertyOp48
 70
     1
102
RTVSPropertyOp49
 70
     1
102
RTVSPropertyOp50
 70
     1
102
RTVSPropertyOp51
 70
     0
102
RTVSPropertyOp52
 70
     0
102
RTVSPropertyOp53
 70
     1
102
RTVSPropertyOp54
 70
     1
102
RTVSPropertyOp55
 70
     1
102
RTVSPropertyOp56
 70
     1
102
RTVSPropertyOp57
 70
     1
102
RTVSPropertyOp58
 70
     1
102
RTVSPropertyOp59
 70
     1
102
RTVSPropertyOp60
 70
     1
102
RTVSPropertyOp61
 70
     1
102
RTVSPropertyOp62
 70
     1
  0
XRECORD
  5
DE9
102
{ACAD_REACTORS
330
DE8
102
}
330
DE8
100
AcDbXrecord
280
     1
102
RTVSPost2010Prop28
280
     0
102
RTVSPost2010PropOp28
 70
     1
102
RTVSPost2010Prop29
280
     1
102
RTVSPost2010PropOp29
 70
     1
102
RTVSPost2010Prop30
280
     1
102
RTVSPost2010PropOp30
 70
     1
102
RTVSPost2010Prop31
280
     0
102
RTVSPost2010PropOp31
 70
     1
102
RTVSPost2010Prop32
280
     0
102
RTVSPost2010PropOp32
 70
     1
102
RTVSPost2010Prop33
280
     0
102
RTVSPost2010PropOp33
 70
     1
102
RTVSPost2010Prop34
280
     0
102
RTVSPost2010PropOp34
 70
     1
102
RTVSPost2010Prop35
280
     0
102
RTVSPost2010PropOp35
 70
     1
102
RTVSPost2010Prop36
280
     0
102
RTVSPost2010PropOp36
 70
     1
102
RTVSPost2010Prop37
 90
       50
102
RTVSPost2010PropOp37
 70
     1
102
RTVSPost2010Prop38
140
0.0
102
RTVSPost2010PropOp38
 70
     1
102
RTVSPost2010Prop39
140
1.0
102
RTVSPost2010PropOp39
 70
     1
102
RTVSPost2010Prop40
 90
        0
102
RTVSPost2010PropOp40
 70
     1
102
RTVSPost2010Prop41ColorIndex
 90
       18
102
RTVSPost2010Prop41ColorRGB
 90
        0
102
RTVSPost2010PropOp41
 70
     1
102
RTVSPost2010Prop42
 90
       50
102
RTVSPost2010PropOp42
 70
     1
102
RTVSPost2010Prop43
 90
        3
102
RTVSPost2010PropOp43
 70
     1
102
RTVSPost2010Prop44ColorIndex
 90
        5
102
RTVSPost2010Prop44ColorRGB
 90
      255
102
RTVSPost2010PropOp44
 70
     1
102
RTVSPost2010Prop45
280
     0
102
RTVSPost2010PropOp45
 70
     1
102
RTVSPost2010Prop46
 90
       50
102
RTVSPost2010PropOp46
 70
     1
102
RTVSPost2010Prop47
 90
       50
102
RTVSPost2010PropOp47
 70
     1
102
RTVSPost2010Prop48
 90
       50
102
RTVSPost2010PropOp48
 70
     1
102
RTVSPost2010Prop49
280
     0
102
RTVSPost2010PropOp49
 70
     1
102
RTVSPost2010Prop50
 90
       50
102
RTVSPost2010PropOp50
 70
     1
102
RTVSPost2010Prop51ColorIndex
 90
      256
102
RTVSPost2010Prop51ColorRGB
 90
-16777216
102
RTVSPost2010PropOp51
 70
     0
102
RTVSPost2010Prop52
140
1.0
102
RTVSPost2010PropOp52
 70
     0
102
RTVSPost2010Prop53
 90
        2
102
RTVSPost2010PropOp53
 70
     1
102
RTVSPost2010Prop54
  1
strokes_ogs.tif
102
RTVSPost2010PropOp54
 70
     1
102
RTVSPost2010Prop55
280
     0
102
RTVSPost2010PropOp55
 70
     1
102
RTVSPost2010Prop56
140
1.0
102
RTVSPost2010PropOp56
 70
     1
102
RTVSPost2010Prop57
140
1.0
102
RTVSPost2010PropOp57
 70
     1
102
RTVSPropertyOp0
 70
     1
102
RTVSPropertyOp1
 70
     1
102
RTVSPropertyOp2
 70
     1
102
RTVSPropertyOp3
 70
     1
102
RTVSPropertyOp4
 70
     1
102
RTVSPropertyOp5
 70
     1
102
RTVSPropertyOp6
 70
     1
102
RTVSPropertyOp7
 70
     1
102
RTVSPropertyOp8
 70
     1
102
RTVSPropertyOp9
 70
     1
102
RTVSPropertyOp10
 70
     1
102
RTVSPropertyOp11
 70
     1
102
RTVSPropertyOp12
 70
     1
102
RTVSPropertyOp13
 70
     1
102
RTVSPropertyOp14
 70
     1
102
RTVSPropertyOp15
 70
     1
102
RTVSPropertyOp16
 70
     1
102
RTVSPropertyOp17
 70
     1
102
RTVSPropertyOp18
 70
     1
102
RTVSPropertyOp19
 70
     1
102
RTVSPropertyOp20
 70
     1
102
RTVSPropertyOp21
 70
     1
102
RTVSPropertyOp22
 70
     1
102
RTVSPropertyOp23
 70
     1
102
RTVSPropertyOp24
 70
     1
102
RTVSPropertyOp25
 70
     1
102
RTVSPropertyOp26
 70
     1
102
RTVSPropertyOp27
 70
     1
102
RTVSPropertyOp28
 70
     1
102
RTVSPropertyOp29
 70
     1
102
RTVSPropertyOp30
 70
     1
102
RTVSPropertyOp31
 70
     1
102
RTVSPropertyOp32
 70
     1
102
RTVSPropertyOp33
 70
     1
102
RTVSPropertyOp34
 70
     1
102
RTVSPropertyOp35
 70
     1
102
RTVSPropertyOp36
 70
     1
102
RTVSPropertyOp37
 70
     1
102
RTVSPropertyOp38
 70
     1
102
RTVSPropertyOp39
 70
     1
102
RTVSPropertyOp40
 70
     1
102
RTVSPropertyOp41
 70
     1
102
RTVSPropertyOp42
 70
     1
102
RTVSPropertyOp43
 70
     1
102
RTVSPropertyOp44
 70
     1
102
RTVSPropertyOp45
 70
     1
102
RTVSPropertyOp46
 70
     1
102
RTVSPropertyOp47
 70
     1
102
RTVSPropertyOp48
 70
     1
102
RTVSPropertyOp49
 70
     1
102
RTVSPropertyOp50
 70
     1
102
RTVSPropertyOp51
 70
     0
102
RTVSPropertyOp52
 70
     0
102
RTVSPropertyOp53
 70
     1
102
RTVSPropertyOp54
 70
     1
102
RTVSPropertyOp55
 70
     1
102
RTVSPropertyOp56
 70
     1
102
RTVSPropertyOp57
 70
     1
102
RTVSPropertyOp58
 70
     1
102
RTVSPropertyOp59
 70
     1
102
RTVSPropertyOp60
 70
     1
102
RTVSPropertyOp61
 70
     1
102
RTVSPropertyOp62
 70
     1
  0
XRECORD
  5
DE7
102
{ACAD_REACTORS
330
DE6
102
}
330
DE6
100
AcDbXrecord
280
     1
102
RTVSPost2010Prop28
280
     0
102
RTVSPost2010PropOp28
 70
     1
102
RTVSPost2010Prop29
280
     1
102
RTVSPost2010PropOp29
 70
     1
102
RTVSPost2010Prop30
280
     1
102
RTVSPost2010PropOp30
 70
     1
102
RTVSPost2010Prop31
280
     0
102
RTVSPost2010PropOp31
 70
     1
102
RTVSPost2010Prop32
280
     0
102
RTVSPost2010PropOp32
 70
     1
102
RTVSPost2010Prop33
280
     0
102
RTVSPost2010PropOp33
 70
     1
102
RTVSPost2010Prop34
280
     0
102
RTVSPost2010PropOp34
 70
     1
102
RTVSPost2010Prop35
280
     0
102
RTVSPost2010PropOp35
 70
     1
102
RTVSPost2010Prop36
280
     0
102
RTVSPost2010PropOp36
 70
     1
102
RTVSPost2010Prop37
 90
       50
102
RTVSPost2010PropOp37
 70
     1
102
RTVSPost2010Prop38
140
0.0
102
RTVSPost2010PropOp38
 70
     1
102
RTVSPost2010Prop39
140
1.0
102
RTVSPost2010PropOp39
 70
     1
102
RTVSPost2010Prop40
 90
        0
102
RTVSPost2010PropOp40
 70
     1
102
RTVSPost2010Prop41ColorIndex
 90
       18
102
RTVSPost2010Prop41ColorRGB
 90
        0
102
RTVSPost2010PropOp41
 70
     1
102
RTVSPost2010Prop42
 90
       50
102
RTVSPost2010PropOp42
 70
     1
102
RTVSPost2010Prop43
 90
        3
102
RTVSPost2010PropOp43
 70
     1
102
RTVSPost2010Prop44ColorIndex
 90
        5
102
RTVSPost2010Prop44ColorRGB
 90
      255
102
RTVSPost2010PropOp44
 70
     1
102
RTVSPost2010Prop45
280
     0
102
RTVSPost2010PropOp45
 70
     1
102
RTVSPost2010Prop46
 90
       50
102
RTVSPost2010PropOp46
 70
     1
102
RTVSPost2010Prop47
 90
       50
102
RTVSPost2010PropOp47
 70
     1
102
RTVSPost2010Prop48
 90
       50
102
RTVSPost2010PropOp48
 70
     1
102
RTVSPost2010Prop49
280
     0
102
RTVSPost2010PropOp49
 70
     1
102
RTVSPost2010Prop50
 90
       50
102
RTVSPost2010PropOp50
 70
     1
102
RTVSPost2010Prop51ColorIndex
 90
      256
102
RTVSPost2010Prop51ColorRGB
 90
-16777216
102
RTVSPost2010PropOp51
 70
     0
102
RTVSPost2010Prop52
140
1.0
102
RTVSPost2010PropOp52
 70
     0
102
RTVSPost2010Prop53
 90
        2
102
RTVSPost2010PropOp53
 70
     1
102
RTVSPost2010Prop54
  1
strokes_ogs.tif
102
RTVSPost2010PropOp54
 70
     1
102
RTVSPost2010Prop55
280
     0
102
RTVSPost2010PropOp55
 70
     1
102
RTVSPost2010Prop56
140
1.0
102
RTVSPost2010PropOp56
 70
     1
102
RTVSPost2010Prop57
140
1.0
102
RTVSPost2010PropOp57
 70
     1
102
RTVSPropertyOp0
 70
     1
102
RTVSPropertyOp1
 70
     1
102
RTVSPropertyOp2
 70
     1
102
RTVSPropertyOp3
 70
     1
102
RTVSPropertyOp4
 70
     1
102
RTVSPropertyOp5
 70
     1
102
RTVSPropertyOp6
 70
     1
102
RTVSPropertyOp7
 70
     1
102
RTVSPropertyOp8
 70
     1
102
RTVSPropertyOp9
 70
     1
102
RTVSPropertyOp10
 70
     1
102
RTVSPropertyOp11
 70
     1
102
RTVSPropertyOp12
 70
     1
102
RTVSPropertyOp13
 70
     1
102
RTVSPropertyOp14
 70
     1
102
RTVSPropertyOp15
 70
     1
102
RTVSPropertyOp16
 70
     1
102
RTVSPropertyOp17
 70
     1
102
RTVSPropertyOp18
 70
     1
102
RTVSPropertyOp19
 70
     1
102
RTVSPropertyOp20
 70
     1
102
RTVSPropertyOp21
 70
     1
102
RTVSPropertyOp22
 70
     1
102
RTVSPropertyOp23
 70
     1
102
RTVSPropertyOp24
 70
     1
102
RTVSPropertyOp25
 70
     1
102
RTVSPropertyOp26
 70
     1
102
RTVSPropertyOp27
 70
     1
102
RTVSPropertyOp28
 70
     1
102
RTVSPropertyOp29
 70
     1
102
RTVSPropertyOp30
 70
     1
102
RTVSPropertyOp31
 70
     1
102
RTVSPropertyOp32
 70
     1
102
RTVSPropertyOp33
 70
     1
102
RTVSPropertyOp34
 70
     1
102
RTVSPropertyOp35
 70
     1
102
RTVSPropertyOp36
 70
     1
102
RTVSPropertyOp37
 70
     1
102
RTVSPropertyOp38
 70
     1
102
RTVSPropertyOp39
 70
     1
102
RTVSPropertyOp40
 70
     1
102
RTVSPropertyOp41
 70
     1
102
RTVSPropertyOp42
 70
     1
102
RTVSPropertyOp43
 70
     1
102
RTVSPropertyOp44
 70
     1
102
RTVSPropertyOp45
 70
     1
102
RTVSPropertyOp46
 70
     1
102
RTVSPropertyOp47
 70
     1
102
RTVSPropertyOp48
 70
     1
102
RTVSPropertyOp49
 70
     1
102
RTVSPropertyOp50
 70
     1
102
RTVSPropertyOp51
 70
     0
102
RTVSPropertyOp52
 70
     0
102
RTVSPropertyOp53
 70
     1
102
RTVSPropertyOp54
 70
     1
102
RTVSPropertyOp55
 70
     1
102
RTVSPropertyOp56
 70
     1
102
RTVSPropertyOp57
 70
     1
102
RTVSPropertyOp58
 70
     1
102
RTVSPropertyOp59
 70
     1
102
RTVSPropertyOp60
 70
     1
102
RTVSPropertyOp61
 70
     1
102
RTVSPropertyOp62
 70
     1
  0
XRECORD
  5
DE1
102
{ACAD_REACTORS
330
DE0
102
}
330
DE0
100
AcDbXrecord
280
     1
102
RTVSPost2010Prop28
280
     0
102
RTVSPost2010PropOp28
 70
     1
102
RTVSPost2010Prop29
280
     1
102
RTVSPost2010PropOp29
 70
     1
102
RTVSPost2010Prop30
280
     1
102
RTVSPost2010PropOp30
 70
     1
102
RTVSPost2010Prop31
280
     0
102
RTVSPost2010PropOp31
 70
     1
102
RTVSPost2010Prop32
280
     0
102
RTVSPost2010PropOp32
 70
     1
102
RTVSPost2010Prop33
280
     0
102
RTVSPost2010PropOp33
 70
     1
102
RTVSPost2010Prop34
280
     0
102
RTVSPost2010PropOp34
 70
     1
102
RTVSPost2010Prop35
280
     0
102
RTVSPost2010PropOp35
 70
     1
102
RTVSPost2010Prop36
280
     0
102
RTVSPost2010PropOp36
 70
     1
102
RTVSPost2010Prop37
 90
       50
102
RTVSPost2010PropOp37
 70
     1
102
RTVSPost2010Prop38
140
0.0
102
RTVSPost2010PropOp38
 70
     1
102
RTVSPost2010Prop39
140
1.0
102
RTVSPost2010PropOp39
 70
     1
102
RTVSPost2010Prop40
 90
        0
102
RTVSPost2010PropOp40
 70
     1
102
RTVSPost2010Prop41ColorIndex
 90
       18
102
RTVSPost2010Prop41ColorRGB
 90
        0
102
RTVSPost2010PropOp41
 70
     1
102
RTVSPost2010Prop42
 90
       50
102
RTVSPost2010PropOp42
 70
     1
102
RTVSPost2010Prop43
 90
        3
102
RTVSPost2010PropOp43
 70
     1
102
RTVSPost2010Prop44ColorIndex
 90
        5
102
RTVSPost2010Prop44ColorRGB
 90
      255
102
RTVSPost2010PropOp44
 70
     1
102
RTVSPost2010Prop45
280
     0
102
RTVSPost2010PropOp45
 70
     1
102
RTVSPost2010Prop46
 90
       50
102
RTVSPost2010PropOp46
 70
     1
102
RTVSPost2010Prop47
 90
       50
102
RTVSPost2010PropOp47
 70
     1
102
RTVSPost2010Prop48
 90
       50
102
RTVSPost2010PropOp48
 70
     1
102
RTVSPost2010Prop49
280
     0
102
RTVSPost2010PropOp49
 70
     1
102
RTVSPost2010Prop50
 90
       50
102
RTVSPost2010PropOp50
 70
     1
102
RTVSPost2010Prop51ColorIndex
 90
      256
102
RTVSPost2010Prop51ColorRGB
 90
-16777216
102
RTVSPost2010PropOp51
 70
     0
102
RTVSPost2010Prop52
140
1.0
102
RTVSPost2010PropOp52
 70
     0
102
RTVSPost2010Prop53
 90
        2
102
RTVSPost2010PropOp53
 70
     1
102
RTVSPost2010Prop54
  1
strokes_ogs.tif
102
RTVSPost2010PropOp54
 70
     1
102
RTVSPost2010Prop55
280
     0
102
RTVSPost2010PropOp55
 70
     1
102
RTVSPost2010Prop56
140
1.0
102
RTVSPost2010PropOp56
 70
     1
102
RTVSPost2010Prop57
140
1.0
102
RTVSPost2010PropOp57
 70
     1
102
RTVSPropertyOp0
 70
     1
102
RTVSPropertyOp1
 70
     1
102
RTVSPropertyOp2
 70
     1
102
RTVSPropertyOp3
 70
     1
102
RTVSPropertyOp4
 70
     1
102
RTVSPropertyOp5
 70
     1
102
RTVSPropertyOp6
 70
     1
102
RTVSPropertyOp7
 70
     1
102
RTVSPropertyOp8
 70
     1
102
RTVSPropertyOp9
 70
     1
102
RTVSPropertyOp10
 70
     1
102
RTVSPropertyOp11
 70
     1
102
RTVSPropertyOp12
 70
     1
102
RTVSPropertyOp13
 70
     1
102
RTVSPropertyOp14
 70
     1
102
RTVSPropertyOp15
 70
     1
102
RTVSPropertyOp16
 70
     1
102
RTVSPropertyOp17
 70
     1
102
RTVSPropertyOp18
 70
     1
102
RTVSPropertyOp19
 70
     1
102
RTVSPropertyOp20
 70
     1
102
RTVSPropertyOp21
 70
     1
102
RTVSPropertyOp22
 70
     1
102
RTVSPropertyOp23
 70
     1
102
RTVSPropertyOp24
 70
     1
102
RTVSPropertyOp25
 70
     1
102
RTVSPropertyOp26
 70
     1
102
RTVSPropertyOp27
 70
     1
102
RTVSPropertyOp28
 70
     1
102
RTVSPropertyOp29
 70
     1
102
RTVSPropertyOp30
 70
     1
102
RTVSPropertyOp31
 70
     1
102
RTVSPropertyOp32
 70
     1
102
RTVSPropertyOp33
 70
     1
102
RTVSPropertyOp34
 70
     1
102
RTVSPropertyOp35
 70
     1
102
RTVSPropertyOp36
 70
     1
102
RTVSPropertyOp37
 70
     1
102
RTVSPropertyOp38
 70
     1
102
RTVSPropertyOp39
 70
     1
102
RTVSPropertyOp40
 70
     1
102
RTVSPropertyOp41
 70
     1
102
RTVSPropertyOp42
 70
     1
102
RTVSPropertyOp43
 70
     1
102
RTVSPropertyOp44
 70
     1
102
RTVSPropertyOp45
 70
     1
102
RTVSPropertyOp46
 70
     1
102
RTVSPropertyOp47
 70
     1
102
RTVSPropertyOp48
 70
     1
102
RTVSPropertyOp49
 70
     1
102
RTVSPropertyOp50
 70
     1
102
RTVSPropertyOp51
 70
     0
102
RTVSPropertyOp52
 70
     0
102
RTVSPropertyOp53
 70
     1
102
RTVSPropertyOp54
 70
     1
102
RTVSPropertyOp55
 70
     1
102
RTVSPropertyOp56
 70
     1
102
RTVSPropertyOp57
 70
     1
102
RTVSPropertyOp58
 70
     1
102
RTVSPropertyOp59
 70
     1
102
RTVSPropertyOp60
 70
     1
102
RTVSPropertyOp61
 70
     1
102
RTVSPropertyOp62
 70
     1
  0
XRECORD
  5
DE3
102
{ACAD_REACTORS
330
DE2
102
}
330
DE2
100
AcDbXrecord
280
     1
102
RTVSPost2010Prop28
280
     0
102
RTVSPost2010PropOp28
 70
     1
102
RTVSPost2010Prop29
280
     1
102
RTVSPost2010PropOp29
 70
     1
102
RTVSPost2010Prop30
280
     1
102
RTVSPost2010PropOp30
 70
     1
102
RTVSPost2010Prop31
280
     0
102
RTVSPost2010PropOp31
 70
     1
102
RTVSPost2010Prop32
280
     0
102
RTVSPost2010PropOp32
 70
     1
102
RTVSPost2010Prop33
280
     0
102
RTVSPost2010PropOp33
 70
     1
102
RTVSPost2010Prop34
280
     0
102
RTVSPost2010PropOp34
 70
     1
102
RTVSPost2010Prop35
280
     0
102
RTVSPost2010PropOp35
 70
     1
102
RTVSPost2010Prop36
280
     0
102
RTVSPost2010PropOp36
 70
     1
102
RTVSPost2010Prop37
 90
       50
102
RTVSPost2010PropOp37
 70
     1
102
RTVSPost2010Prop38
140
0.0
102
RTVSPost2010PropOp38
 70
     1
102
RTVSPost2010Prop39
140
1.0
102
RTVSPost2010PropOp39
 70
     1
102
RTVSPost2010Prop40
 90
        0
102
RTVSPost2010PropOp40
 70
     1
102
RTVSPost2010Prop41ColorIndex
 90
       18
102
RTVSPost2010Prop41ColorRGB
 90
        0
102
RTVSPost2010PropOp41
 70
     1
102
RTVSPost2010Prop42
 90
       50
102
RTVSPost2010PropOp42
 70
     1
102
RTVSPost2010Prop43
 90
        3
102
RTVSPost2010PropOp43
 70
     1
102
RTVSPost2010Prop44ColorIndex
 90
        5
102
RTVSPost2010Prop44ColorRGB
 90
      255
102
RTVSPost2010PropOp44
 70
     1
102
RTVSPost2010Prop45
280
     0
102
RTVSPost2010PropOp45
 70
     1
102
RTVSPost2010Prop46
 90
       50
102
RTVSPost2010PropOp46
 70
     1
102
RTVSPost2010Prop47
 90
       50
102
RTVSPost2010PropOp47
 70
     1
102
RTVSPost2010Prop48
 90
       50
102
RTVSPost2010PropOp48
 70
     1
102
RTVSPost2010Prop49
280
     0
102
RTVSPost2010PropOp49
 70
     1
102
RTVSPost2010Prop50
 90
       50
102
RTVSPost2010PropOp50
 70
     1
102
RTVSPost2010Prop51ColorIndex
 90
      256
102
RTVSPost2010Prop51ColorRGB
 90
-16777216
102
RTVSPost2010PropOp51
 70
     0
102
RTVSPost2010Prop52
140
1.0
102
RTVSPost2010PropOp52
 70
     0
102
RTVSPost2010Prop53
 90
        2
102
RTVSPost2010PropOp53
 70
     1
102
RTVSPost2010Prop54
  1
strokes_ogs.tif
102
RTVSPost2010PropOp54
 70
     1
102
RTVSPost2010Prop55
280
     0
102
RTVSPost2010PropOp55
 70
     1
102
RTVSPost2010Prop56
140
1.0
102
RTVSPost2010PropOp56
 70
     1
102
RTVSPost2010Prop57
140
1.0
102
RTVSPost2010PropOp57
 70
     1
102
RTVSPropertyOp0
 70
     1
102
RTVSPropertyOp1
 70
     1
102
RTVSPropertyOp2
 70
     1
102
RTVSPropertyOp3
 70
     1
102
RTVSPropertyOp4
 70
     1
102
RTVSPropertyOp5
 70
     1
102
RTVSPropertyOp6
 70
     1
102
RTVSPropertyOp7
 70
     1
102
RTVSPropertyOp8
 70
     1
102
RTVSPropertyOp9
 70
     1
102
RTVSPropertyOp10
 70
     1
102
RTVSPropertyOp11
 70
     1
102
RTVSPropertyOp12
 70
     1
102
RTVSPropertyOp13
 70
     1
102
RTVSPropertyOp14
 70
     1
102
RTVSPropertyOp15
 70
     1
102
RTVSPropertyOp16
 70
     1
102
RTVSPropertyOp17
 70
     1
102
RTVSPropertyOp18
 70
     1
102
RTVSPropertyOp19
 70
     1
102
RTVSPropertyOp20
 70
     1
102
RTVSPropertyOp21
 70
     1
102
RTVSPropertyOp22
 70
     1
102
RTVSPropertyOp23
 70
     1
102
RTVSPropertyOp24
 70
     1
102
RTVSPropertyOp25
 70
     1
102
RTVSPropertyOp26
 70
     1
102
RTVSPropertyOp27
 70
     1
102
RTVSPropertyOp28
 70
     1
102
RTVSPropertyOp29
 70
     1
102
RTVSPropertyOp30
 70
     1
102
RTVSPropertyOp31
 70
     1
102
RTVSPropertyOp32
 70
     1
102
RTVSPropertyOp33
 70
     1
102
RTVSPropertyOp34
 70
     1
102
RTVSPropertyOp35
 70
     1
102
RTVSPropertyOp36
 70
     1
102
RTVSPropertyOp37
 70
     1
102
RTVSPropertyOp38
 70
     1
102
RTVSPropertyOp39
 70
     1
102
RTVSPropertyOp40
 70
     1
102
RTVSPropertyOp41
 70
     1
102
RTVSPropertyOp42
 70
     1
102
RTVSPropertyOp43
 70
     1
102
RTVSPropertyOp44
 70
     1
102
RTVSPropertyOp45
 70
     1
102
RTVSPropertyOp46
 70
     1
102
RTVSPropertyOp47
 70
     1
102
RTVSPropertyOp48
 70
     1
102
RTVSPropertyOp49
 70
     1
102
RTVSPropertyOp50
 70
     1
102
RTVSPropertyOp51
 70
     0
102
RTVSPropertyOp52
 70
     0
102
RTVSPropertyOp53
 70
     1
102
RTVSPropertyOp54
 70
     1
102
RTVSPropertyOp55
 70
     1
102
RTVSPropertyOp56
 70
     1
102
RTVSPropertyOp57
 70
     1
102
RTVSPropertyOp58
 70
     1
102
RTVSPropertyOp59
 70
     1
102
RTVSPropertyOp60
 70
     1
102
RTVSPropertyOp61
 70
     1
102
RTVSPropertyOp62
 70
     1
  0
XRECORD
  5
DD9
102
{ACAD_REACTORS
330
DD8
102
}
330
DD8
100
AcDbXrecord
280
     1
102
RTVSPost2010Prop28
280
     0
102
RTVSPost2010PropOp28
 70
     1
102
RTVSPost2010Prop29
280
     1
102
RTVSPost2010PropOp29
 70
     1
102
RTVSPost2010Prop30
280
     1
102
RTVSPost2010PropOp30
 70
     1
102
RTVSPost2010Prop31
280
     0
102
RTVSPost2010PropOp31
 70
     1
102
RTVSPost2010Prop32
280
     0
102
RTVSPost2010PropOp32
 70
     1
102
RTVSPost2010Prop33
280
     0
102
RTVSPost2010PropOp33
 70
     1
102
RTVSPost2010Prop34
280
     0
102
RTVSPost2010PropOp34
 70
     1
102
RTVSPost2010Prop35
280
     0
102
RTVSPost2010PropOp35
 70
     1
102
RTVSPost2010Prop36
280
     0
102
RTVSPost2010PropOp36
 70
     1
102
RTVSPost2010Prop37
 90
       50
102
RTVSPost2010PropOp37
 70
     1
102
RTVSPost2010Prop38
140
0.0
102
RTVSPost2010PropOp38
 70
     1
102
RTVSPost2010Prop39
140
1.0
102
RTVSPost2010PropOp39
 70
     1
102
RTVSPost2010Prop40
 90
        0
102
RTVSPost2010PropOp40
 70
     1
102
RTVSPost2010Prop41ColorIndex
 90
       18
102
RTVSPost2010Prop41ColorRGB
 90
        0
102
RTVSPost2010PropOp41
 70
     1
102
RTVSPost2010Prop42
 90
       50
102
RTVSPost2010PropOp42
 70
     1
102
RTVSPost2010Prop43
 90
        3
102
RTVSPost2010PropOp43
 70
     1
102
RTVSPost2010Prop44ColorIndex
 90
        5
102
RTVSPost2010Prop44ColorRGB
 90
      255
102
RTVSPost2010PropOp44
 70
     1
102
RTVSPost2010Prop45
280
     0
102
RTVSPost2010PropOp45
 70
     1
102
RTVSPost2010Prop46
 90
       50
102
RTVSPost2010PropOp46
 70
     1
102
RTVSPost2010Prop47
 90
       50
102
RTVSPost2010PropOp47
 70
     1
102
RTVSPost2010Prop48
 90
       50
102
RTVSPost2010PropOp48
 70
     1
102
RTVSPost2010Prop49
280
     0
102
RTVSPost2010PropOp49
 70
     1
102
RTVSPost2010Prop50
 90
       50
102
RTVSPost2010PropOp50
 70
     1
102
RTVSPost2010Prop51ColorIndex
 90
      256
102
RTVSPost2010Prop51ColorRGB
 90
-16777216
102
RTVSPost2010PropOp51
 70
     0
102
RTVSPost2010Prop52
140
1.0
102
RTVSPost2010PropOp52
 70
     0
102
RTVSPost2010Prop53
 90
        2
102
RTVSPost2010PropOp53
 70
     1
102
RTVSPost2010Prop54
  1
strokes_ogs.tif
102
RTVSPost2010PropOp54
 70
     1
102
RTVSPost2010Prop55
280
     0
102
RTVSPost2010PropOp55
 70
     1
102
RTVSPost2010Prop56
140
1.0
102
RTVSPost2010PropOp56
 70
     1
102
RTVSPost2010Prop57
140
1.0
102
RTVSPost2010PropOp57
 70
     1
102
RTVSPropertyOp0
 70
     1
102
RTVSPropertyOp1
 70
     1
102
RTVSPropertyOp2
 70
     1
102
RTVSPropertyOp3
 70
     1
102
RTVSPropertyOp4
 70
     1
102
RTVSPropertyOp5
 70
     1
102
RTVSPropertyOp6
 70
     1
102
RTVSPropertyOp7
 70
     1
102
RTVSPropertyOp8
 70
     1
102
RTVSPropertyOp9
 70
     1
102
RTVSPropertyOp10
 70
     1
102
RTVSPropertyOp11
 70
     1
102
RTVSPropertyOp12
 70
     1
102
RTVSPropertyOp13
 70
     1
102
RTVSPropertyOp14
 70
     1
102
RTVSPropertyOp15
 70
     1
102
RTVSPropertyOp16
 70
     1
102
RTVSPropertyOp17
 70
     1
102
RTVSPropertyOp18
 70
     1
102
RTVSPropertyOp19
 70
     1
102
RTVSPropertyOp20
 70
     1
102
RTVSPropertyOp21
 70
     1
102
RTVSPropertyOp22
 70
     1
102
RTVSPropertyOp23
 70
     1
102
RTVSPropertyOp24
 70
     1
102
RTVSPropertyOp25
 70
     1
102
RTVSPropertyOp26
 70
     1
102
RTVSPropertyOp27
 70
     1
102
RTVSPropertyOp28
 70
     1
102
RTVSPropertyOp29
 70
     1
102
RTVSPropertyOp30
 70
     1
102
RTVSPropertyOp31
 70
     1
102
RTVSPropertyOp32
 70
     1
102
RTVSPropertyOp33
 70
     1
102
RTVSPropertyOp34
 70
     1
102
RTVSPropertyOp35
 70
     1
102
RTVSPropertyOp36
 70
     1
102
RTVSPropertyOp37
 70
     1
102
RTVSPropertyOp38
 70
     1
102
RTVSPropertyOp39
 70
     1
102
RTVSPropertyOp40
 70
     1
102
RTVSPropertyOp41
 70
     1
102
RTVSPropertyOp42
 70
     1
102
RTVSPropertyOp43
 70
     1
102
RTVSPropertyOp44
 70
     1
102
RTVSPropertyOp45
 70
     1
102
RTVSPropertyOp46
 70
     1
102
RTVSPropertyOp47
 70
     1
102
RTVSPropertyOp48
 70
     1
102
RTVSPropertyOp49
 70
     1
102
RTVSPropertyOp50
 70
     1
102
RTVSPropertyOp51
 70
     0
102
RTVSPropertyOp52
 70
     0
102
RTVSPropertyOp53
 70
     1
102
RTVSPropertyOp54
 70
     1
102
RTVSPropertyOp55
 70
     1
102
RTVSPropertyOp56
 70
     1
102
RTVSPropertyOp57
 70
     1
102
RTVSPropertyOp58
 70
     1
102
RTVSPropertyOp59
 70
     1
102
RTVSPropertyOp60
 70
     1
102
RTVSPropertyOp61
 70
     1
102
RTVSPropertyOp62
 70
     1
  0
XRECORD
  5
DCD
102
{ACAD_REACTORS
330
DCC
102
}
330
DCC
100
AcDbXrecord
280
     1
102
RTVSPost2010Prop28
280
     0
102
RTVSPost2010PropOp28
 70
     1
102
RTVSPost2010Prop29
280
     1
102
RTVSPost2010PropOp29
 70
     1
102
RTVSPost2010Prop30
280
     1
102
RTVSPost2010PropOp30
 70
     1
102
RTVSPost2010Prop31
280
     0
102
RTVSPost2010PropOp31
 70
     1
102
RTVSPost2010Prop32
280
     0
102
RTVSPost2010PropOp32
 70
     1
102
RTVSPost2010Prop33
280
     0
102
RTVSPost2010PropOp33
 70
     1
102
RTVSPost2010Prop34
280
     0
102
RTVSPost2010PropOp34
 70
     1
102
RTVSPost2010Prop35
280
     0
102
RTVSPost2010PropOp35
 70
     1
102
RTVSPost2010Prop36
280
     0
102
RTVSPost2010PropOp36
 70
     1
102
RTVSPost2010Prop37
 90
       50
102
RTVSPost2010PropOp37
 70
     1
102
RTVSPost2010Prop38
140
0.0
102
RTVSPost2010PropOp38
 70
     1
102
RTVSPost2010Prop39
140
1.0
102
RTVSPost2010PropOp39
 70
     1
102
RTVSPost2010Prop40
 90
        0
102
RTVSPost2010PropOp40
 70
     1
102
RTVSPost2010Prop41ColorIndex
 90
       18
102
RTVSPost2010Prop41ColorRGB
 90
        0
102
RTVSPost2010PropOp41
 70
     1
102
RTVSPost2010Prop42
 90
       50
102
RTVSPost2010PropOp42
 70
     1
102
RTVSPost2010Prop43
 90
        3
102
RTVSPost2010PropOp43
 70
     1
102
RTVSPost2010Prop44ColorIndex
 90
        5
102
RTVSPost2010Prop44ColorRGB
 90
      255
102
RTVSPost2010PropOp44
 70
     1
102
RTVSPost2010Prop45
280
     0
102
RTVSPost2010PropOp45
 70
     1
102
RTVSPost2010Prop46
 90
       50
102
RTVSPost2010PropOp46
 70
     1
102
RTVSPost2010Prop47
 90
       50
102
RTVSPost2010PropOp47
 70
     1
102
RTVSPost2010Prop48
 90
       50
102
RTVSPost2010PropOp48
 70
     1
102
RTVSPost2010Prop49
280
     0
102
RTVSPost2010PropOp49
 70
     1
102
RTVSPost2010Prop50
 90
       50
102
RTVSPost2010PropOp50
 70
     1
102
RTVSPost2010Prop51ColorIndex
 90
      256
102
RTVSPost2010Prop51ColorRGB
 90
-16777216
102
RTVSPost2010PropOp51
 70
     0
102
RTVSPost2010Prop52
140
1.0
102
RTVSPost2010PropOp52
 70
     0
102
RTVSPost2010Prop53
 90
        2
102
RTVSPost2010PropOp53
 70
     1
102
RTVSPost2010Prop54
  1
strokes_ogs.tif
102
RTVSPost2010PropOp54
 70
     1
102
RTVSPost2010Prop55
280
     0
102
RTVSPost2010PropOp55
 70
     1
102
RTVSPost2010Prop56
140
1.0
102
RTVSPost2010PropOp56
 70
     1
102
RTVSPost2010Prop57
140
1.0
102
RTVSPost2010PropOp57
 70
     1
102
RTVSPropertyOp0
 70
     1
102
RTVSPropertyOp1
 70
     1
102
RTVSPropertyOp2
 70
     1
102
RTVSPropertyOp3
 70
     1
102
RTVSPropertyOp4
 70
     1
102
RTVSPropertyOp5
 70
     1
102
RTVSPropertyOp6
 70
     1
102
RTVSPropertyOp7
 70
     1
102
RTVSPropertyOp8
 70
     1
102
RTVSPropertyOp9
 70
     1
102
RTVSPropertyOp10
 70
     1
102
RTVSPropertyOp11
 70
     1
102
RTVSPropertyOp12
 70
     1
102
RTVSPropertyOp13
 70
     1
102
RTVSPropertyOp14
 70
     1
102
RTVSPropertyOp15
 70
     1
102
RTVSPropertyOp16
 70
     1
102
RTVSPropertyOp17
 70
     1
102
RTVSPropertyOp18
 70
     1
102
RTVSPropertyOp19
 70
     1
102
RTVSPropertyOp20
 70
     1
102
RTVSPropertyOp21
 70
     1
102
RTVSPropertyOp22
 70
     1
102
RTVSPropertyOp23
 70
     1
102
RTVSPropertyOp24
 70
     1
102
RTVSPropertyOp25
 70
     1
102
RTVSPropertyOp26
 70
     1
102
RTVSPropertyOp27
 70
     1
102
RTVSPropertyOp28
 70
     1
102
RTVSPropertyOp29
 70
     1
102
RTVSPropertyOp30
 70
     1
102
RTVSPropertyOp31
 70
     1
102
RTVSPropertyOp32
 70
     1
102
RTVSPropertyOp33
 70
     1
102
RTVSPropertyOp34
 70
     1
102
RTVSPropertyOp35
 70
     1
102
RTVSPropertyOp36
 70
     1
102
RTVSPropertyOp37
 70
     1
102
RTVSPropertyOp38
 70
     1
102
RTVSPropertyOp39
 70
     1
102
RTVSPropertyOp40
 70
     1
102
RTVSPropertyOp41
 70
     1
102
RTVSPropertyOp42
 70
     1
102
RTVSPropertyOp43
 70
     1
102
RTVSPropertyOp44
 70
     1
102
RTVSPropertyOp45
 70
     1
102
RTVSPropertyOp46
 70
     1
102
RTVSPropertyOp47
 70
     1
102
RTVSPropertyOp48
 70
     1
102
RTVSPropertyOp49
 70
     1
102
RTVSPropertyOp50
 70
     1
102
RTVSPropertyOp51
 70
     0
102
RTVSPropertyOp52
 70
     0
102
RTVSPropertyOp53
 70
     1
102
RTVSPropertyOp54
 70
     1
102
RTVSPropertyOp55
 70
     1
102
RTVSPropertyOp56
 70
     1
102
RTVSPropertyOp57
 70
     1
102
RTVSPropertyOp58
 70
     1
102
RTVSPropertyOp59
 70
     1
102
RTVSPropertyOp60
 70
     1
102
RTVSPropertyOp61
 70
     1
102
RTVSPropertyOp62
 70
     1
  0
XRECORD
  5
DE5
102
{ACAD_REACTORS
330
DE4
102
}
330
DE4
100
AcDbXrecord
280
     1
102
RTVSPost2010Prop28
280
     0
102
RTVSPost2010PropOp28
 70
     1
102
RTVSPost2010Prop29
280
     1
102
RTVSPost2010PropOp29
 70
     1
102
RTVSPost2010Prop30
280
     1
102
RTVSPost2010PropOp30
 70
     1
102
RTVSPost2010Prop31
280
     0
102
RTVSPost2010PropOp31
 70
     1
102
RTVSPost2010Prop32
280
     0
102
RTVSPost2010PropOp32
 70
     1
102
RTVSPost2010Prop33
280
     0
102
RTVSPost2010PropOp33
 70
     1
102
RTVSPost2010Prop34
280
     0
102
RTVSPost2010PropOp34
 70
     1
102
RTVSPost2010Prop35
280
     0
102
RTVSPost2010PropOp35
 70
     1
102
RTVSPost2010Prop36
280
     0
102
RTVSPost2010PropOp36
 70
     1
102
RTVSPost2010Prop37
 90
       50
102
RTVSPost2010PropOp37
 70
     1
102
RTVSPost2010Prop38
140
0.0
102
RTVSPost2010PropOp38
 70
     1
102
RTVSPost2010Prop39
140
1.0
102
RTVSPost2010PropOp39
 70
     1
102
RTVSPost2010Prop40
 90
        0
102
RTVSPost2010PropOp40
 70
     1
102
RTVSPost2010Prop41ColorIndex
 90
       18
102
RTVSPost2010Prop41ColorRGB
 90
        0
102
RTVSPost2010PropOp41
 70
     1
102
RTVSPost2010Prop42
 90
       50
102
RTVSPost2010PropOp42
 70
     1
102
RTVSPost2010Prop43
 90
        3
102
RTVSPost2010PropOp43
 70
     1
102
RTVSPost2010Prop44ColorIndex
 90
        5
102
RTVSPost2010Prop44ColorRGB
 90
      255
102
RTVSPost2010PropOp44
 70
     1
102
RTVSPost2010Prop45
280
     0
102
RTVSPost2010PropOp45
 70
     1
102
RTVSPost2010Prop46
 90
       50
102
RTVSPost2010PropOp46
 70
     1
102
RTVSPost2010Prop47
 90
       50
102
RTVSPost2010PropOp47
 70
     1
102
RTVSPost2010Prop48
 90
       50
102
RTVSPost2010PropOp48
 70
     1
102
RTVSPost2010Prop49
280
     0
102
RTVSPost2010PropOp49
 70
     1
102
RTVSPost2010Prop50
 90
       50
102
RTVSPost2010PropOp50
 70
     1
102
RTVSPost2010Prop51ColorIndex
 90
      256
102
RTVSPost2010Prop51ColorRGB
 90
-16777216
102
RTVSPost2010PropOp51
 70
     0
102
RTVSPost2010Prop52
140
1.0
102
RTVSPost2010PropOp52
 70
     0
102
RTVSPost2010Prop53
 90
        2
102
RTVSPost2010PropOp53
 70
     1
102
RTVSPost2010Prop54
  1
strokes_ogs.tif
102
RTVSPost2010PropOp54
 70
     1
102
RTVSPost2010Prop55
280
     0
102
RTVSPost2010PropOp55
 70
     1
102
RTVSPost2010Prop56
140
1.0
102
RTVSPost2010PropOp56
 70
     1
102
RTVSPost2010Prop57
140
1.0
102
RTVSPost2010PropOp57
 70
     1
102
RTVSPropertyOp0
 70
     1
102
RTVSPropertyOp1
 70
     1
102
RTVSPropertyOp2
 70
     1
102
RTVSPropertyOp3
 70
     1
102
RTVSPropertyOp4
 70
     1
102
RTVSPropertyOp5
 70
     1
102
RTVSPropertyOp6
 70
     1
102
RTVSPropertyOp7
 70
     1
102
RTVSPropertyOp8
 70
     1
102
RTVSPropertyOp9
 70
     1
102
RTVSPropertyOp10
 70
     1
102
RTVSPropertyOp11
 70
     1
102
RTVSPropertyOp12
 70
     1
102
RTVSPropertyOp13
 70
     1
102
RTVSPropertyOp14
 70
     1
102
RTVSPropertyOp15
 70
     1
102
RTVSPropertyOp16
 70
     1
102
RTVSPropertyOp17
 70
     1
102
RTVSPropertyOp18
 70
     1
102
RTVSPropertyOp19
 70
     1
102
RTVSPropertyOp20
 70
     1
102
RTVSPropertyOp21
 70
     1
102
RTVSPropertyOp22
 70
     1
102
RTVSPropertyOp23
 70
     1
102
RTVSPropertyOp24
 70
     1
102
RTVSPropertyOp25
 70
     1
102
RTVSPropertyOp26
 70
     1
102
RTVSPropertyOp27
 70
     1
102
RTVSPropertyOp28
 70
     1
102
RTVSPropertyOp29
 70
     1
102
RTVSPropertyOp30
 70
     1
102
RTVSPropertyOp31
 70
     1
102
RTVSPropertyOp32
 70
     1
102
RTVSPropertyOp33
 70
     1
102
RTVSPropertyOp34
 70
     1
102
RTVSPropertyOp35
 70
     1
102
RTVSPropertyOp36
 70
     1
102
RTVSPropertyOp37
 70
     1
102
RTVSPropertyOp38
 70
     1
102
RTVSPropertyOp39
 70
     1
102
RTVSPropertyOp40
 70
     1
102
RTVSPropertyOp41
 70
     1
102
RTVSPropertyOp42
 70
     1
102
RTVSPropertyOp43
 70
     1
102
RTVSPropertyOp44
 70
     1
102
RTVSPropertyOp45
 70
     1
102
RTVSPropertyOp46
 70
     1
102
RTVSPropertyOp47
 70
     1
102
RTVSPropertyOp48
 70
     1
102
RTVSPropertyOp49
 70
     1
102
RTVSPropertyOp50
 70
     1
102
RTVSPropertyOp51
 70
     0
102
RTVSPropertyOp52
 70
     0
102
RTVSPropertyOp53
 70
     1
102
RTVSPropertyOp54
 70
     1
102
RTVSPropertyOp55
 70
     1
102
RTVSPropertyOp56
 70
     1
102
RTVSPropertyOp57
 70
     1
102
RTVSPropertyOp58
 70
     1
102
RTVSPropertyOp59
 70
     1
102
RTVSPropertyOp60
 70
     1
102
RTVSPropertyOp61
 70
     1
102
RTVSPropertyOp62
 70
     1
  0
ENDSEC
  0
EOF
