  0
SECTION
  2
HEADER
  9
$ACADVER
  1
AC1015
  9
$ACADMAINTVER
 70
    20
  9
$DWGCODEPAGE
  3
ANSI_932
  9
$INSBASE
 10
0.0
 20
0.0
 30
0.0
  9
$EXTMIN
 10
9.9999975266385
 20
10.0
 30
0.0
  9
$EXTMAX
 10
238.9605560525311
 20
177.8714005609499
 30
0.0
  9
$LIMMIN
 10
0.0000015376081137
 20
-0.0000001931532552
  9
$LIMMAX
 10
396.0000015376081
 20
272.9999998068465
  9
$ORTHOMODE
 70
     1
  9
$REGENMODE
 70
     1
  9
$FILLMODE
 70
     1
  9
$QTEXTMODE
 70
     0
  9
$MIRRTEXT
 70
     1
  9
$LTSCALE
 40
1.0
  9
$ATTMODE
 70
     1
  9
$TEXTSIZE
 40
2.5
  9
$TRACEWID
 40
1.0
  9
$TEXTSTYLE
  7
STANDARD
  9
$CLAYER
  8
0
  9
$CELTYPE
  6
BYLAYER
  9
$CECOLOR
 62
   256
  9
$CELTSCALE
 40
1.0
  9
$DISPSILH
 70
     0
  9
$DIMSCALE
 40
1.0
  9
$DIMASZ
 40
3.0
  9
$DIMEXO
 40
1.0
  9
$DIMDLI
 40
10.0
  9
$DIMRND
 40
0.0
  9
$DIMDLE
 40
0.0
  9
$DIMEXE
 40
1.0
  9
$DIMTP
 40
0.0
  9
$DIMTM
 40
0.0
  9
$DIMTXT
 40
3.2
  9
$DIMCEN
 40
0.0
  9
$DIMTSZ
 40
0.0
  9
$DIMTOL
 70
     0
  9
$DIMLIM
 70
     0
  9
$DIMTIH
 70
     0
  9
$DIMTOH
 70
     0
  9
$DIMSE1
 70
     0
  9
$DIMSE2
 70
     0
  9
$DIMTAD
 70
     3
  9
$DIMZIN
 70
     8
  9
$DIMBLK
  1

  9
$DIMASO
 70
     1
  9
$DIMSHO
 70
     1
  9
$DIMPOST
  1

  9
$DIMAPOST
  1

  9
$DIMALT
 70
     0
  9
$DIMALTD
 70
     2
  9
$DIMALTF
 40
25.4
  9
$DIMLFAC
 40
1.0
  9
$DIMTOFL
 70
     1
  9
$DIMTVP
 40
0.0
  9
$DIMTIX
 70
     0
  9
$DIMSOXD
 70
     0
  9
$DIMSAH
 70
     1
  9
$DIMBLK1
  1
OPEN
  9
$DIMBLK2
  1
OPEN
  9
$DIMSTYLE
  2
STANDARD
  9
$DIMCLRD
 70
     0
  9
$DIMCLRE
 70
     0
  9
$DIMCLRT
 70
     0
  9
$DIMTFAC
 40
1.0
  9
$DIMGAP
 40
1.0
  9
$DIMJUST
 70
     0
  9
$DIMSD1
 70
     0
  9
$DIMSD2
 70
     0
  9
$DIMTOLJ
 70
     1
  9
$DIMTZIN
 70
     0
  9
$DIMALTZ
 70
     0
  9
$DIMALTTZ
 70
     0
  9
$DIMUPT
 70
     0
  9
$DIMDEC
 70
     4
  9
$DIMTDEC
 70
     4
  9
$DIMALTU
 70
     2
  9
$DIMALTTD
 70
     2
  9
$DIMTXSTY
  7
STANDARD
  9
$DIMAUNIT
 70
     0
  9
$DIMADEC
 70
     0
  9
$DIMALTRND
 40
0.0
  9
$DIMAZIN
 70
     0
  9
$DIMDSEP
 70
    46
  9
$DIMATFIT
 70
     3
  9
$DIMFRAC
 70
     0
  9
$DIMLDRBLK
  1
OPEN
  9
$DIMLUNIT
 70
     2
  9
$DIMLWD
 70
    -2
  9
$DIMLWE
 70
    -2
  9
$DIMTMOVE
 70
     0
  9
$LUNITS
 70
     2
  9
$LUPREC
 70
     4
  9
$SKETCHINC
 40
1.0
  9
$FILLETRAD
 40
0.0
  9
$AUNITS
 70
     0
  9
$AUPREC
 70
     0
  9
$MENU
  1
.
  9
$ELEVATION
 40
0.0
  9
$PELEVATION
 40
0.0
  9
$THICKNESS
 40
0.0
  9
$LIMCHECK
 70
     0
  9
$CHAMFERA
 40
10.0
  9
$CHAMFERB
 40
10.0
  9
$CHAMFERC
 40
20.0
  9
$CHAMFERD
 40
0.0
  9
$SKPOLY
 70
     0
  9
$TDCREATE
 40
2456469.454041632
  9
$TDUCREATE
 40
2456469.079041632
  9
$TDUPDATE
 40
2457192.617044514
  9
$TDUUPDATE
 40
2457192.242044514
  9
$TDINDWG
 40
0.1203800347
  9
$TDUSRTIMER
 40
0.1203800231
  9
$USRTIMER
 70
     1
  9
$ANGBASE
 50
0.0
  9
$ANGDIR
 70
     0
  9
$PDMODE
 70
     0
  9
$PDSIZE
 40
0.0
  9
$PLINEWID
 40
0.0
  9
$SPLFRAME
 70
     0
  9
$SPLINETYPE
 70
     6
  9
$SPLINESEGS
 70
     8
  9
$HANDSEED
  5
193F
  9
$SURFTAB1
 70
     6
  9
$SURFTAB2
 70
     6
  9
$SURFTYPE
 70
     6
  9
$SURFU
 70
     6
  9
$SURFV
 70
     6
  9
$UCSBASE
  2

  9
$UCSNAME
  2

  9
$UCSORG
 10
0.0
 20
0.0
 30
0.0
  9
$UCSXDIR
 10
1.0
 20
0.0
 30
0.0
  9
$UCSYDIR
 10
0.0
 20
1.0
 30
0.0
  9
$UCSORTHOREF
  2

  9
$UCSORTHOVIEW
 70
     0
  9
$UCSORGTOP
 10
0.0
 20
0.0
 30
0.0
  9
$UCSORGBOTTOM
 10
0.0
 20
0.0
 30
0.0
  9
$UCSORGLEFT
 10
0.0
 20
0.0
 30
0.0
  9
$UCSORGRIGHT
 10
0.0
 20
0.0
 30
0.0
  9
$UCSORGFRONT
 10
0.0
 20
0.0
 30
0.0
  9
$UCSORGBACK
 10
0.0
 20
0.0
 30
0.0
  9
$PUCSBASE
  2

  9
$PUCSNAME
  2

  9
$PUCSORG
 10
0.0
 20
0.0
 30
0.0
  9
$PUCSXDIR
 10
1.0
 20
0.0
 30
0.0
  9
$PUCSYDIR
 10
0.0
 20
1.0
 30
0.0
  9
$PUCSORTHOREF
  2

  9
$PUCSORTHOVIEW
 70
     0
  9
$PUCSORGTOP
 10
0.0
 20
0.0
 30
0.0
  9
$PUCSORGBOTTOM
 10
0.0
 20
0.0
 30
0.0
  9
$PUCSORGLEFT
 10
0.0
 20
0.0
 30
0.0
  9
$PUCSORGRIGHT
 10
0.0
 20
0.0
 30
0.0
  9
$PUCSORGFRONT
 10
0.0
 20
0.0
 30
0.0
  9
$PUCSORGBACK
 10
0.0
 20
0.0
 30
0.0
  9
$USERI1
 70
     0
  9
$USERI2
 70
     0
  9
$USERI3
 70
     0
  9
$USERI4
 70
     0
  9
$USERI5
 70
     0
  9
$USERR1
 40
0.0
  9
$USERR2
 40
0.0
  9
$USERR3
 40
0.0
  9
$USERR4
 40
0.0
  9
$USERR5
 40
0.0
  9
$WORLDVIEW
 70
     1
  9
$SHADEDGE
 70
     3
  9
$SHADEDIF
 70
    70
  9
$TILEMODE
 70
     1
  9
$MAXACTVP
 70
    48
  9
$PINSBASE
 10
0.0
 20
0.0
 30
0.0
  9
$PLIMCHECK
 70
     0
  9
$PEXTMIN
 10
1.000000000000000E+20
 20
1.000000000000000E+20
 30
1.000000000000000E+20
  9
$PEXTMAX
 10
-1.000000000000000E+20
 20
-1.000000000000000E+20
 30
-1.000000000000000E+20
  9
$PLIMMIN
 10
0.0
 20
0.0
  9
$PLIMMAX
 10
420.0
 20
297.0
  9
$UNITMODE
 70
     0
  9
$VISRETAIN
 70
     1
  9
$PLINEGEN
 70
     0
  9
$PSLTSCALE
 70
     1
  9
$TREEDEPTH
 70
  3020
  9
$CMLSTYLE
  2
STANDARD
  9
$CMLJUST
 70
     0
  9
$CMLSCALE
 40
20.0
  9
$PROXYGRAPHICS
 70
     1
  9
$MEASUREMENT
 70
     0
  9
$CELWEIGHT
370
    -1
  9
$ENDCAPS
280
     0
  9
$JOINSTYLE
280
     0
  9
$LWDISPLAY
290
     0
  9
$INSUNITS
 70
     0
  9
$HYPERLINKBASE
  1

  9
$STYLESHEET
  1

  9
$XEDIT
290
     1
  9
$CEPSNTYPE
380
     0
  9
$PSTYLEMODE
290
     1
  9
$FINGERPRINTGUID
  2
{40004124-4669-49A2-A2B8-EA063ED89E8B}
  9
$VERSIONGUID
  2
{CB2E2697-4CB9-4EF9-8257-2F015CDD04E1}
  9
$EXTNAMES
290
     1
  9
$PSVPSCALE
 40
0.0
  9
$OLESTARTUP
290
     0
  0
ENDSEC
  0
SECTION
  2
CLASSES
  0
CLASS
  1
ACDBDICTIONARYWDFLT
  2
AcDbDictionaryWithDefault
  3
ObjectDBX Classes
 90
        0
280
     0
281
     0
  0
CLASS
  1
ACDBPLACEHOLDER
  2
AcDbPlaceHolder
  3
ObjectDBX Classes
 90
        0
280
     0
281
     0
  0
CLASS
  1
LAYOUT
  2
AcDbLayout
  3
ObjectDBX Classes
 90
        0
280
     0
281
     0
  0
CLASS
  1
MATERIAL
  2
AcDbMaterial
  3
ObjectDBX Classes
 90
     1153
280
     0
281
     0
  0
CLASS
  1
VISUALSTYLE
  2
AcDbVisualStyle
  3
ObjectDBX Classes
 90
     4095
280
     0
281
     0
  0
CLASS
  1
TABLESTYLE
  2
AcDbTableStyle
  3
ObjectDBX Classes
 90
     4095
280
     0
281
     0
  0
CLASS
  1
SCALE
  2
AcDbScale
  3
ObjectDBX Classes
 90
     1153
280
     0
281
     0
  0
CLASS
  1
MLEADERSTYLE
  2
AcDbMLeaderStyle
  3
ACDB_MLEADERSTYLE_CLASS
 90
     4095
280
     0
281
     0
  0
CLASS
  1
ACDBSECTIONVIEWSTYLE
  2
AcDbSectionViewStyle
  3
ObjectDBX Classes
 90
     1025
280
     0
281
     0
  0
CLASS
  1
ACDBDETAILVIEWSTYLE
  2
AcDbDetailViewStyle
  3
ObjectDBX Classes
 90
     1025
280
     0
281
     0
  0
CLASS
  1
DICTIONARYVAR
  2
AcDbDictionaryVar
  3
ObjectDBX Classes
 90
        0
280
     0
281
     0
  0
CLASS
  1
CELLSTYLEMAP
  2
AcDbCellStyleMap
  3
ObjectDBX Classes
 90
     1152
280
     0
281
     0
  0
ENDSEC
  0
SECTION
  2
TABLES
  0
TABLE
  2
VPORT
  5
8
330
0
100
AcDbSymbolTable
 70
     1
  0
VPORT
  5
1889
330
8
100
AcDbSymbolTableRecord
100
AcDbViewportTableRecord
  2
*ACTIVE
 70
     0
 10
0.0
 20
0.0
 11
1.0
 21
1.0
 12
228.9524657136494
 22
102.0827034615526
 13
0.0
 23
0.0
 14
10.0
 24
10.0
 15
10.0
 25
10.0
 16
0.0
 26
0.0
 36
1.0
 17
0.0
 27
0.0
 37
0.0
 40
227.3007174120201
 41
1.899603698811096
 42
50.0
 43
0.0
 44
0.0
 50
0.0
 51
0.0
 71
     0
 72
   100
 73
     1
 74
     0
 75
     0
 76
     0
 77
     0
 78
     0
281
     0
 65
     1
110
0.0
120
0.0
130
0.0
111
1.0
121
0.0
131
0.0
112
0.0
122
1.0
132
0.0
 79
     0
146
0.0
1001
ACAD_NAV_VCDISPLAY
1070
     3
  0
ENDTAB
  0
TABLE
  2
LTYPE
  5
5
330
0
100
AcDbSymbolTable
 70
     4
  0
LTYPE
  5
12
330
5
100
AcDbSymbolTableRecord
100
AcDbLinetypeTableRecord
  2
BYBLOCK
 70
     0
  3

 72
    65
 73
     0
 40
0.0
  0
LTYPE
  5
13
330
5
100
AcDbSymbolTableRecord
100
AcDbLinetypeTableRecord
  2
BYLAYER
 70
     0
  3

 72
    65
 73
     0
 40
0.0
  0
LTYPE
  5
14
330
5
100
AcDbSymbolTableRecord
100
AcDbLinetypeTableRecord
  2
CONTINUOUS
 70
     0
  3
Solid line
 72
    65
 73
     0
 40
0.0
  0
LTYPE
  5
4B
330
5
100
AcDbSymbolTableRecord
100
AcDbLinetypeTableRecord
  2
DASHED
 70
     0
  3
Dashed __ __ __ __ __ __ __ __ __ __ __ __ __ _
 72
    65
 73
     2
 40
19.04999999999999
 49
12.7
 74
     0
 49
-6.349999999999998
 74
     0
  0
LTYPE
  5
4C
330
5
100
AcDbSymbolTableRecord
100
AcDbLinetypeTableRecord
  2
CENTER
 70
     0
  3
Center ____ _ ____ _ ____ _ ____ _ ____ _ ____
 72
    65
 73
     4
 40
50.8
 49
31.75
 74
     0
 49
-6.349999999999998
 74
     0
 49
6.349999999999998
 74
     0
 49
-6.349999999999998
 74
     0
  0
LTYPE
  5
4D
330
5
100
AcDbSymbolTableRecord
100
AcDbLinetypeTableRecord
  2
PHANTOM
 70
     0
  3
Phantom ______  __  __  ______  __  __  ______
 72
    65
 73
     6
 40
63.5
 49
31.75
 74
     0
 49
-6.349999999999998
 74
     0
 49
6.349999999999998
 74
     0
 49
-6.349999999999998
 74
     0
 49
6.349999999999998
 74
     0
 49
-6.349999999999998
 74
     0
  0
ENDTAB
  0
TABLE
  2
LAYER
  5
2
330
0
100
AcDbSymbolTable
 70
     8
  0
LAYER
  5
E
102
{ACAD_XDICTIONARY
360
18E3
102
}
330
2
100
AcDbSymbolTableRecord
100
AcDbLayerTableRecord
  2
0
 70
     0
 62
     7
  6
CONTINUOUS
370
    -3
390
1892
  0
LAYER
  5
4E
102
{ACAD_XDICTIONARY
360
18E5
102
}
330
2
100
AcDbSymbolTableRecord
100
AcDbLayerTableRecord
  2
4
 70
     0
 62
     1
  6
CENTER
370
    -3
390
1892
  0
LAYER
  5
4F
102
{ACAD_XDICTIONARY
360
18E7
102
}
330
2
100
AcDbSymbolTableRecord
100
AcDbLayerTableRecord
  2
5
 70
     0
 62
     6
  6
PHANTOM
370
    -3
390
1892
  0
LAYER
  5
50
102
{ACAD_XDICTIONARY
360
18E9
102
}
330
2
100
AcDbSymbolTableRecord
100
AcDbLayerTableRecord
  2
1
 70
     0
 62
     7
  6
CONTINUOUS
370
    -3
390
1892
  0
LAYER
  5
51
102
{ACAD_XDICTIONARY
360
18EB
102
}
330
2
100
AcDbSymbolTableRecord
100
AcDbLayerTableRecord
  2
2
 70
     0
 62
     4
  6
CONTINUOUS
370
    -3
390
1892
  0
LAYER
  5
52
102
{ACAD_XDICTIONARY
360
18ED
102
}
330
2
100
AcDbSymbolTableRecord
100
AcDbLayerTableRecord
  2
3
 70
     0
 62
     2
  6
DASHED
370
    -3
390
1892
  0
LAYER
  5
53
102
{ACAD_XDICTIONARY
360
18EF
102
}
330
2
100
AcDbSymbolTableRecord
100
AcDbLayerTableRecord
  2
6
 70
     0
 62
     5
  6
CONTINUOUS
370
    -3
390
1892
  0
LAYER
  5
54
102
{ACAD_XDICTIONARY
360
18F1
102
}
330
2
100
AcDbSymbolTableRecord
100
AcDbLayerTableRecord
  2
7
 70
     0
 62
     3
  6
CONTINUOUS
370
    -3
390
1892
  0
ENDTAB
  0
TABLE
  2
STYLE
  5
3
330
0
100
AcDbSymbolTable
 70
     1
  0
STYLE
  5
F
330
3
100
AcDbSymbolTableRecord
100
AcDbTextStyleTableRecord
  2
STANDARD
 70
     0
 40
0.0
 41
1.0
 50
0.0
 71
     0
 42
2.5
  3
simplex.shx
  4

  0
ENDTAB
  0
TABLE
  2
VIEW
  5
6
330
0
100
AcDbSymbolTable
 70
     0
  0
ENDTAB
  0
TABLE
  2
UCS
  5
7
330
0
100
AcDbSymbolTable
 70
     0
  0
ENDTAB
  0
TABLE
  2
APPID
  5
9
330
0
100
AcDbSymbolTable
 70
     5
  0
APPID
  5
10
330
9
100
AcDbSymbolTableRecord
100
AcDbRegAppTableRecord
  2
ACAD
 70
     0
  0
APPID
  5
3E
330
9
100
AcDbSymbolTableRecord
100
AcDbRegAppTableRecord
  2
CONTENTTABDATA
 70
     0
  0
APPID
  5
3F
330
9
100
AcDbSymbolTableRecord
100
AcDbRegAppTableRecord
  2
CONTENTCURRENTTAB
 70
     0
  0
APPID
  5
18FD
330
9
100
AcDbSymbolTableRecord
100
AcDbRegAppTableRecord
  2
ACAD_NAV_VCDISPLAY
 70
     0
  0
APPID
  5
1936
330
9
100
AcDbSymbolTableRecord
100
AcDbRegAppTableRecord
  2
ACAD_MLEADERVER
 70
     0
  0
ENDTAB
  0
TABLE
  2
DIMSTYLE
  5
A
330
0
100
AcDbSymbolTable
 70
     1
100
AcDbDimStyleTable
 71
     0
  0
DIMSTYLE
105
1D
330
A
100
AcDbSymbolTableRecord
100
AcDbDimStyleTableRecord
  2
STANDARD
 70
     0
 41
3.0
 42
1.0
 43
10.0
 44
1.0
 73
     0
 74
     0
 77
     3
 78
     8
140
3.2
141
0.0
147
1.0
172
     1
173
     1
340
F
341
2E
343
2E
344
2E
  0
ENDTAB
  0
TABLE
  2
BLOCK_RECORD
  5
1
330
0
100
AcDbSymbolTable
 70
     1
  0
BLOCK_RECORD
  5
18
102
{ACAD_XDICTIONARY
360
188C
102
}
330
1
100
AcDbSymbolTableRecord
100
AcDbBlockTableRecord
  2
*MODEL_SPACE
340
18E0
  0
BLOCK_RECORD
  5
15
102
{ACAD_XDICTIONARY
360
188A
102
}
330
1
100
AcDbSymbolTableRecord
100
AcDbBlockTableRecord
  2
*PAPER_SPACE
340
18E1
  0
BLOCK_RECORD
  5
2E
330
1
100
AcDbSymbolTableRecord
100
AcDbBlockTableRecord
  2
_OPEN
340
0
  0
ENDTAB
  0
ENDSEC
  0
SECTION
  2
BLOCKS
  0
BLOCK
  5
19
330
18
100
AcDbEntity
  8
0
100
AcDbBlockBegin
  2
*MODEL_SPACE
 70
     0
 10
0.0
 20
0.0
 30
0.0
  3
*MODEL_SPACE
  1

  0
ENDBLK
  5
1A
330
18
100
AcDbEntity
  8
0
100
AcDbBlockEnd
  0
BLOCK
  5
16
330
15
100
AcDbEntity
 67
     1
  8
0
100
AcDbBlockBegin
  2
*PAPER_SPACE
 70
     0
 10
0.0
 20
0.0
 30
0.0
  3
*PAPER_SPACE
  1

  0
ENDBLK
  5
17
330
15
100
AcDbEntity
 67
     1
  8
0
100
AcDbBlockEnd
  0
BLOCK
  5
2F
330
2E
100
AcDbEntity
  8
0
100
AcDbBlockBegin
  2
_OPEN
 70
     0
 10
0.0
 20
0.0
 30
0.0
  3
_OPEN
  1

  0
LINE
  5
30
330
2E
100
AcDbEntity
  8
0
  6
ByBlock
 62
     0
100
AcDbLine
 10
-1.0
 20
0.1666666666666666
 30
0.0
 11
0.0
 21
0.0
 31
0.0
  0
LINE
  5
31
330
2E
100
AcDbEntity
  8
0
  6
ByBlock
 62
     0
100
AcDbLine
 10
0.0
 20
0.0
 30
0.0
 11
-1.0
 21
-0.1666666666666666
 31
0.0
  0
LINE
  5
32
330
2E
100
AcDbEntity
  8
0
  6
ByBlock
 62
     0
100
AcDbLine
 10
0.0
 20
0.0
 30
0.0
 11
-1.0
 21
0.0
 31
0.0
  0
ENDBLK
  5
33
330
2E
100
AcDbEntity
  8
0
100
AcDbBlockEnd
  0
ENDSEC
  0
SECTION
  2
ENTITIES
  0
TEXT
  5
63
330
18
100
AcDbEntity
  8
4
  6
CENTER
 48
0.25
100
AcDbText
 10
23.97950852663849
 20
10.0
 30
0.0
 40
1.399999999999999
  1
4
100
AcDbText
  0
TEXT
  5
64
330
18
100
AcDbEntity
  8
7
  6
Continuous
 48
0.25
100
AcDbText
 10
9.999997526638502
 20
26.0000007607689
 30
0.0
 40
3.0
  1
CODE No.2867
100
AcDbText
  0
TEXT
  5
65
330
18
100
AcDbEntity
  8
7
  6
Continuous
 48
0.25
100
AcDbText
 10
9.999997526638502
 20
18.00000076076889
 30
0.0
 40
3.0
  1
TYPE No.TH-169-2L
100
AcDbText
  0
TEXT
  5
66
330
18
100
AcDbEntity
  8
1
  6
Continuous
 48
0.25
100
AcDbText
 10
9.999997526638502
 20
10.00000076076889
 30
0.0
 40
1.399999999999999
  1
LAYER
100
AcDbText
  0
TEXT
  5
67
330
18
100
AcDbEntity
  8
2
  6
Continuous
 48
0.25
100
AcDbText
 10
19.9795085266385
 20
10.0
 30
0.0
 40
1.399999999999999
  1
2
100
AcDbText
  0
TEXT
  5
68
330
18
100
AcDbEntity
  8
3
  6
DASHED
 48
0.25
100
AcDbText
 10
21.9795085266385
 20
10.0
 30
0.0
 40
1.399999999999999
  1
3
100
AcDbText
  0
TEXT
  5
69
330
18
100
AcDbEntity
  8
1
  6
Continuous
 48
0.25
100
AcDbText
 10
17.9795085266385
 20
10.0
 30
0.0
 40
1.399999999999999
  1
1
100
AcDbText
  0
TEXT
  5
6A
330
18
100
AcDbEntity
  8
5
  6
PHANTOM
 48
0.25
100
AcDbText
 10
25.9795085266385
 20
10.0
 30
0.0
 40
1.399999999999999
  1
5
100
AcDbText
  0
TEXT
  5
6B
330
18
100
AcDbEntity
  8
6
  6
Continuous
 48
0.25
100
AcDbText
 10
27.9795085266385
 20
10.0
 30
0.0
 40
1.399999999999999
  1
6
100
AcDbText
  0
TEXT
  5
6C
330
18
100
AcDbEntity
  8
7
  6
Continuous
 48
0.25
100
AcDbText
 10
29.9795085266385
 20
10.0
 30
0.0
 40
1.399999999999999
  1
7
100
AcDbText
  0
LINE
  5
2C8
330
18
100
AcDbEntity
  8
4
  6
CENTER
 48
0.25
100
AcDbLine
 10
89.76073003739577
 20
49.38293307821196
 30
0.0
 11
102.7607300373957
 21
49.3829330782119
 31
0.0
  0
LINE
  5
2CF
330
18
100
AcDbEntity
  8
4
  6
CENTER
 48
0.25
100
AcDbLine
 10
96.26073003739564
 20
42.88293307821192
 30
0.0
 11
96.26073003739577
 21
55.88293307821192
 31
0.0
  0
LINE
  5
2D5
330
18
100
AcDbEntity
  8
3
  6
DASHED
 48
0.25
100
AcDbLine
 10
93.76073005229677
 20
88.37708987126992
 30
0.0
 11
98.76073005229677
 21
88.37708987126992
 31
0.0
  0
ARC
  5
2D6
330
18
100
AcDbEntity
  8
3
  6
DASHED
 48
0.25
100
AcDbCircle
 10
96.26072989292408
 20
131.8770898712699
 30
0.0
 40
2.5
100
AcDbArc
 50
0.0
 51
180.0
  0
LINE
  5
2DA
330
18
100
AcDbEntity
  8
3
  6
DASHED
 48
0.25
100
AcDbLine
 10
94.76073005229686
 20
87.37708987126993
 30
0.0
 11
97.76073005229687
 21
87.37708987126993
 31
0.0
  0
LINE
  5
2E5
330
18
100
AcDbEntity
  8
3
  6
DASHED
 48
0.25
100
AcDbLine
 10
93.76073211655123
 20
88.37708987126992
 30
0.0
 11
93.76072989292408
 21
131.8770898712697
 31
0.0
  0
LINE
  5
2F4
330
18
100
AcDbEntity
  8
3
  6
DASHED
 48
0.25
100
AcDbLine
 10
93.76073005229686
 20
88.37708987126992
 30
0.0
 11
94.76073005229686
 21
87.37708987126993
 31
0.0
  0
LINE
  5
349
330
18
100
AcDbEntity
  8
3
  6
DASHED
 48
0.25
100
AcDbLine
 10
98.76072835232134
 20
88.37708987126992
 30
0.0
 11
98.76072989292419
 21
131.8770898712699
 31
0.0
  0
LINE
  5
355
330
18
100
AcDbEntity
  8
3
  6
DASHED
 48
0.25
100
AcDbLine
 10
97.76073005229678
 20
87.37708987126984
 30
0.0
 11
98.76073005229677
 21
88.37708987126983
 31
0.0
  0
LINE
  5
388
330
18
100
AcDbEntity
  8
1
  6
Continuous
100
AcDbLine
 10
107.5924401263717
 20
114.547798808667
 30
0.0
 11
105.7187069674353
 21
115.0498640954371
 31
0.0
  0
LINE
  5
389
330
18
100
AcDbEntity
  8
1
  6
Continuous
100
AcDbLine
 10
106.760754124947
 20
114.0992863295505
 30
0.0
 11
107.8267906287055
 21
114.0992863295505
 31
0.0
  0
LINE
  5
38A
330
18
100
AcDbEntity
  8
1
  6
Continuous
100
AcDbLine
 10
105.2998061847915
 20
113.4326276920664
 30
0.0
 11
108.0823621038221
 21
113.4326276920664
 31
0.0
  0
LINE
  5
38B
330
18
100
AcDbEntity
  8
1
  6
Continuous
100
AcDbLine
 10
108.0154902473493
 20
112.9881886004104
 30
0.0
 11
106.760754124947
 21
112.9881886004104
 31
0.0
  0
LINE
  5
38C
330
18
100
AcDbEntity
  8
1
  6
Continuous
100
AcDbLine
 10
105.298095209293
 20
112.5437495087543
 30
0.0
 11
108.2234130405937
 21
112.5437495087543
 31
0.0
  0
LINE
  5
38D
330
18
100
AcDbEntity
  8
1
  6
Continuous
100
AcDbLine
 10
105.2098878442682
 20
112.0993104170983
 30
0.0
 11
108.3116204056185
 21
112.0993104170983
 31
0.0
  0
LINE
  5
38E
330
18
100
AcDbEntity
  8
1
  6
Continuous
100
AcDbLine
 10
105.2098878442682
 20
111.6548713254422
 30
0.0
 11
108.3116204056185
 21
111.6548713254422
 31
0.0
  0
LINE
  5
38F
330
18
100
AcDbEntity
  8
1
  6
Continuous
100
AcDbLine
 10
105.2474018402139
 20
111.2104322337861
 30
0.0
 11
108.2741064096729
 21
111.2104322337861
 31
0.0
  0
LINE
  5
390
330
18
100
AcDbEntity
  8
1
  6
Continuous
100
AcDbLine
 10
105.6060206245072
 20
110.3215540504739
 30
0.0
 11
107.9154876253796
 21
110.3215540504739
 31
0.0
  0
LINE
  5
391
330
18
100
AcDbEntity
  8
1
  6
Continuous
100
AcDbLine
 10
105.6645619203869
 20
109.8771149588179
 30
0.0
 11
107.8569463295
 21
109.8771149588179
 31
0.0
  0
LINE
  5
392
330
18
100
AcDbEntity
  8
1
  6
Continuous
100
AcDbLine
 10
107.5807437067853
 20
109.4326758671619
 30
0.0
 11
105.9407645431015
 21
109.4326758671619
 31
0.0
  0
LINE
  5
393
330
18
100
AcDbEntity
  8
1
  6
Continuous
100
AcDbLine
 10
105.5417863075385
 20
108.9882367755058
 30
0.0
 11
107.4576117922691
 21
108.9882367755058
 31
0.0
  0
ARC
  5
394
330
18
100
AcDbEntity
  8
1
  6
Continuous
100
AcDbCircle
 10
106.760754124947
 20
109.2104563213339
 30
0.0
 40
1.145412728988863
100
AcDbArc
 50
270.0
 51
324.4623222080521
  0
ARC
  5
395
330
18
100
AcDbEntity
  8
1
  6
Continuous
100
AcDbCircle
 10
106.760754124947
 20
114.5437254212066
 30
0.0
 40
1.145412728988864
100
AcDbArc
 50
62.24965455462821
 51
144.462322207999
  0
LINE
  5
3AF
330
18
100
AcDbEntity
  8
1
  6
Continuous
100
AcDbLine
 10
106.760754124947
 20
115.6891381501955
 30
0.0
 11
106.760754124947
 21
114.7706484011058
 31
0.0
  0
LINE
  5
3B0
330
18
100
AcDbEntity
  8
1
  6
Continuous
100
AcDbLine
 10
106.538534579119
 20
114.3215058753786
 30
0.0
 11
105.5890776902717
 21
114.3215058753786
 31
0.0
  0
ARC
  5
3B1
330
18
100
AcDbEntity
  8
1
  6
Continuous
100
AcDbCircle
 10
106.538534579119
 20
114.0992863295505
 30
0.0
 40
0.2222195458280311
100
AcDbArc
 50
270.0
 51
90.0
  0
LINE
  5
3B2
330
18
100
AcDbEntity
  8
1
  6
Continuous
100
AcDbLine
 10
105.5091870146059
 20
113.8770667837225
 30
0.0
 11
106.538534579119
 21
113.8770667837225
 31
0.0
  0
LINE
  5
3B3
330
18
100
AcDbEntity
  8
1
  6
Continuous
100
AcDbLine
 10
106.760754124947
 20
112.9881886004104
 30
0.0
 11
106.760754124947
 21
112.7659690545824
 31
0.0
  0
ARC
  5
3B4
330
18
100
AcDbEntity
  8
1
  6
Continuous
100
AcDbCircle
 10
105.2980952092931
 20
112.58819341792
 30
0.0
 40
0.044443909165606
100
AcDbArc
 50
172.2070756645772
 51
270.0
  0
ARC
  5
3B5
330
18
100
AcDbEntity
  8
1
  6
Continuous
100
AcDbCircle
 10
110.4940424948542
 20
111.8770908712702
 30
0.0
 40
5.288825190707117
100
AcDbArc
 50
169.895817283875
 51
172.2070756645775
  0
ARC
  5
3B6
330
18
100
AcDbEntity
  8
1
  6
Continuous
100
AcDbCircle
 10
105.5060180025374
 20
112.7659690545824
 30
0.0
 40
0.2222195458280301
100
AcDbArc
 50
90.0
 51
169.8958172838747
  0
LINE
  5
3B7
330
18
100
AcDbEntity
  8
1
  6
Continuous
100
AcDbLine
 10
106.2274272149599
 20
112.9881886004104
 30
0.0
 11
105.5060180025374
 21
112.9881886004104
 31
0.0
  0
LINE
  5
3B8
330
18
100
AcDbEntity
  8
1
  6
Continuous
100
AcDbLine
 10
106.760754124947
 20
111.6548713254422
 30
0.0
 11
106.760754124947
 21
111.2104322337861
 31
0.0
  0
ARC
  5
3B9
330
18
100
AcDbEntity
  8
1
  6
Continuous
100
AcDbCircle
 10
105.6060206245072
 20
110.5437735963021
 30
0.0
 40
0.2222195458280301
100
AcDbArc
 50
195.2575232904562
 51
270.0
  0
ARC
  5
3BA
330
18
100
AcDbEntity
  8
1
  6
Continuous
100
AcDbCircle
 10
110.4940424948542
 20
111.8770908712702
 30
0.0
 40
5.288825190707117
100
AcDbArc
 50
193.2681189705563
 51
195.2575232904562
  0
ARC
  5
3BB
330
18
100
AcDbEntity
  8
1
  6
Continuous
100
AcDbCircle
 10
110.4940424948542
 20
111.8770908712702
 30
0.0
 40
5.288825190707117
100
AcDbArc
 50
192.7289438731224
 51
193.2681189705563
  0
ARC
  5
3BC
330
18
100
AcDbEntity
  8
1
  6
Continuous
100
AcDbCircle
 10
105.3785504805584
 20
110.7215492329645
 30
0.0
 40
0.044443909165606
100
AcDbArc
 50
90.0
 51
192.7289438731224
  0
LINE
  5
3BD
330
18
100
AcDbEntity
  8
1
  6
Continuous
100
AcDbLine
 10
106.2274272149599
 20
110.7659931421301
 30
0.0
 11
105.3785504805584
 21
110.7659931421301
 31
0.0
  0
ARC
  5
3BE
330
18
100
AcDbEntity
  8
1
  6
Continuous
100
AcDbCircle
 10
105.6645619203869
 20
109.8326710496523
 30
0.0
 40
0.044443909165606
100
AcDbArc
 50
90.0
 51
202.9439535565377
  0
ARC
  5
3BF
330
18
100
AcDbEntity
  8
1
  6
Continuous
100
AcDbCircle
 10
110.4940424948542
 20
111.8770908712702
 30
0.0
 40
5.288825190707117
100
AcDbArc
 50
202.9439535565377
 51
206.0143659996367
  0
ARC
  5
3C0
330
18
100
AcDbEntity
  8
1
  6
Continuous
100
AcDbCircle
 10
105.9407645431015
 20
109.6548954129899
 30
0.0
 40
0.2222195458280301
100
AcDbArc
 50
206.0143659996367
 51
270.0
  0
ARC
  5
3C1
330
18
100
AcDbEntity
  8
1
  6
Continuous
100
AcDbCircle
 10
110.4940424948542
 20
111.8770908712702
 30
0.0
 40
5.733264282363177
100
AcDbArc
 50
144.462322207999
 51
215.5376777920009
  0
ARC
  5
3C2
330
18
100
AcDbEntity
  8
1
  6
Continuous
100
AcDbCircle
 10
106.760754124947
 20
109.2104563213339
 30
0.0
 40
1.145412728988863
100
AcDbArc
 50
215.5376777920009
 51
256.5374393917324
  0
ARC
  5
3CF
330
18
100
AcDbEntity
  8
1
  6
Continuous
100
AcDbCircle
 10
108.0154902473493
 20
112.7659690545824
 30
0.0
 40
0.2222195458280301
100
AcDbArc
 50
10.1041827161249
 51
90.0
  0
ARC
  5
3D0
330
18
100
AcDbEntity
  8
1
  6
Continuous
100
AcDbCircle
 10
103.0274657550326
 20
111.8770908712702
 30
0.0
 40
5.288825190707117
100
AcDbArc
 50
7.792924335422343
 51
10.1041827161249
  0
ARC
  5
3D1
330
18
100
AcDbEntity
  8
1
  6
Continuous
100
AcDbCircle
 10
108.2234130405937
 20
112.58819341792
 30
0.0
 40
0.044443909165606
100
AcDbArc
 50
270.0
 51
7.792924335422747
  0
LINE
  5
3D2
330
18
100
AcDbEntity
  8
1
  6
Continuous
100
AcDbLine
 10
108.1429577693284
 20
110.7659931421301
 30
0.0
 11
107.2940810349343
 21
110.7659931421301
 31
0.0
  0
ARC
  5
3D3
330
18
100
AcDbEntity
  8
1
  6
Continuous
100
AcDbCircle
 10
108.1429577693284
 20
110.7215492329645
 30
0.0
 40
0.044443909165606
100
AcDbArc
 50
347.2710561268775
 51
90.0
  0
ARC
  5
3D4
330
18
100
AcDbEntity
  8
1
  6
Continuous
100
AcDbCircle
 10
103.0274657550326
 20
111.8770908712702
 30
0.0
 40
5.288825190707117
100
AcDbArc
 50
344.7937121239422
 51
347.2710561268771
  0
ARC
  5
3D5
330
18
100
AcDbEntity
  8
1
  6
Continuous
100
AcDbCircle
 10
103.0274657550326
 20
111.8770908712702
 30
0.0
 40
5.288825190707117
100
AcDbArc
 50
344.7424767095437
 51
344.7937121239422
  0
ARC
  5
3D6
330
18
100
AcDbEntity
  8
1
  6
Continuous
100
AcDbCircle
 10
107.9154876253796
 20
110.5437735963021
 30
0.0
 40
0.2222195458280301
100
AcDbArc
 50
270.0
 51
344.7424767095437
  0
ARC
  5
3D7
330
18
100
AcDbEntity
  8
1
  6
Continuous
100
AcDbCircle
 10
107.5807437067853
 20
109.6548954129899
 30
0.0
 40
0.2222195458280301
100
AcDbArc
 50
270.0
 51
333.9856340003631
  0
ARC
  5
3D8
330
18
100
AcDbEntity
  8
1
  6
Continuous
100
AcDbCircle
 10
103.0274657550326
 20
111.8770908712702
 30
0.0
 40
5.288825190707117
100
AcDbArc
 50
333.9856340003631
 51
337.0560464434622
  0
ARC
  5
3D9
330
18
100
AcDbEntity
  8
1
  6
Continuous
100
AcDbCircle
 10
107.8569463295002
 20
109.8326710496523
 30
0.0
 40
0.044443909165606
100
AcDbArc
 50
337.0560464434622
 51
90.0
  0
ARC
  5
3DA
330
18
100
AcDbEntity
  8
1
  6
Continuous
100
AcDbCircle
 10
106.760754124947
 20
114.5437254212066
 30
0.0
 40
1.145412728988864
100
AcDbArc
 50
35.53767779194789
 51
45.69883927961678
  0
ARC
  5
3DB
330
18
100
AcDbEntity
  8
1
  6
Continuous
100
AcDbCircle
 10
103.0274657550326
 20
111.8770908712702
 30
0.0
 40
5.733264282363177
100
AcDbArc
 50
324.4623222080521
 51
35.53767779194789
  0
LINE
  5
413
330
18
100
AcDbEntity
  8
5
  6
PHANTOM
 48
0.25
100
AcDbLine
 10
77.26073003739589
 20
54.38293307821204
 30
0.0
 11
96.26073003739573
 21
54.38293307821194
 31
0.0
  0
LINE
  5
414
330
18
100
AcDbEntity
  8
5
  6
PHANTOM
 48
0.25
100
AcDbLine
 10
77.26073003739606
 20
52.88293307821192
 30
0.0
 11
92.69001582312457
 21
52.88293307821182
 31
0.0
  0
LINE
  5
41B
330
18
100
AcDbEntity
  8
5
  6
PHANTOM
 48
0.25
100
AcDbLine
 10
77.26073003739589
 20
52.88293307821192
 30
0.0
 11
77.26073003739589
 21
54.38293307821194
 31
0.0
  0
LINE
  5
422
330
18
100
AcDbEntity
  8
4
  6
CENTER
 48
0.25
100
AcDbLine
 10
94.26073003739585
 20
36.88293307821187
 30
0.0
 11
89.76073003739584
 21
36.88293307821187
 31
0.0
  0
LINE
  5
424
330
18
100
AcDbEntity
  8
4
  6
CENTER
 48
0.25
100
AcDbLine
 10
83.76073003739554
 20
51.38293307821199
 30
0.0
 11
83.76073003739566
 21
55.88293307821199
 31
0.0
  0
LINE
  5
425
330
18
100
AcDbEntity
  8
5
  6
PHANTOM
 48
0.25
100
AcDbLine
 10
90.76073003739573
 20
52.88293307821192
 30
0.0
 11
90.76073003739573
 21
54.38293307824515
 31
0.0
  0
LINE
  5
426
330
18
100
AcDbEntity
  8
5
  6
PHANTOM
 48
0.25
100
AcDbLine
 10
91.26073003739573
 20
30.38293307821203
 30
0.0
 11
91.26073003739573
 21
49.38293307821194
 31
0.0
  0
LINE
  5
427
330
18
100
AcDbEntity
  8
5
  6
PHANTOM
 48
0.25
100
AcDbLine
 10
92.76073003739574
 20
30.38293307821203
 30
0.0
 11
92.76073003739574
 21
45.81221886394053
 31
0.0
  0
LINE
  5
42B
330
18
100
AcDbEntity
  8
5
  6
PHANTOM
 48
0.25
100
AcDbLine
 10
92.76073003739588
 20
30.38293307821203
 30
0.0
 11
91.26073003739588
 21
30.38293307821203
 31
0.0
  0
LINE
  5
42C
330
18
100
AcDbEntity
  8
5
  6
PHANTOM
 48
0.25
100
AcDbLine
 10
92.76073003739588
 20
43.88293307821192
 30
0.0
 11
91.26073003736264
 21
43.88293307821192
 31
0.0
  0
CIRCLE
  5
52B
330
18
100
AcDbEntity
  8
1
  6
Continuous
100
AcDbCircle
 10
110.2607300373956
 20
113.0344130194557
 30
0.0
 40
0.5
  0
LINE
  5
52C
330
18
100
AcDbEntity
  8
1
  6
Continuous
100
AcDbLine
 10
111.7607300373957
 20
113.0344130194557
 30
0.0
 11
110.4273967040624
 21
113.5058175402467
 31
0.0
  0
LINE
  5
52D
330
18
100
AcDbEntity
  8
1
  6
Continuous
100
AcDbLine
 10
109.7607300373957
 20
105.1215340017632
 30
0.0
 11
109.7607300373957
 21
103.9215340017632
 31
0.0
  0
LINE
  5
52E
330
18
100
AcDbEntity
  8
1
  6
Continuous
100
AcDbLine
 10
109.7607300373957
 20
104.5215340017632
 30
0.0
 11
111.7607300373957
 21
104.5215340017632
 31
0.0
  0
LINE
  5
52F
330
18
100
AcDbEntity
  8
1
  6
Continuous
100
AcDbLine
 10
109.7607300373957
 20
109.7358007083059
 30
0.0
 11
110.28398708221
 21
109.4918019411255
 31
0.0
  0
LINE
  5
530
330
18
100
AcDbEntity
  8
1
  6
Continuous
100
AcDbLine
 10
109.7607300373957
 20
109.7358007083059
 30
0.0
 11
111.7607300373957
 21
109.7358007083059
 31
0.0
  0
CIRCLE
  5
531
330
18
100
AcDbEntity
  8
1
  6
Continuous
100
AcDbCircle
 10
111.2607300373956
 20
111.3294543853921
 30
0.0
 40
0.5
  0
LINE
  5
532
330
18
100
AcDbEntity
  8
1
  6
Continuous
100
AcDbLine
 10
109.7607300373957
 20
111.3294543853921
 30
0.0
 11
111.094063370729
 21
110.8580498646011
 31
0.0
  0
LINE
  5
533
330
18
100
AcDbEntity
  8
1
  6
Continuous
100
AcDbLine
 10
110.7607300373957
 20
105.683325913362
 30
0.0
 11
110.7607300373957
 21
106.833325913362
 31
0.0
  0
LINE
  5
534
330
18
100
AcDbEntity
  8
1
  6
Continuous
100
AcDbLine
 10
109.7607300373957
 20
105.683325913362
 30
0.0
 11
111.7607300373957
 21
105.683325913362
 31
0.0
  0
LINE
  5
535
330
18
100
AcDbEntity
  8
1
  6
Continuous
100
AcDbLine
 10
109.7607300373957
 20
106.833325913362
 30
0.0
 11
111.7607300373957
 21
106.833325913362
 31
0.0
  0
LINE
  5
536
330
18
100
AcDbEntity
  8
1
  6
Continuous
100
AcDbLine
 10
110.7607300373957
 20
108.6052551006262
 30
0.0
 11
110.7607300373957
 21
107.6661365561608
 31
0.0
  0
LINE
  5
537
330
18
100
AcDbEntity
  8
1
  6
Continuous
100
AcDbLine
 10
109.7607300373957
 20
117.8763184119432
 30
0.0
 11
111.7607300373957
 21
117.8763184119432
 31
0.0
  0
LINE
  5
538
330
18
100
AcDbEntity
  8
1
  6
Continuous
100
AcDbLine
 10
111.7607300373957
 20
118.8763184119432
 30
0.0
 11
111.7607300373957
 21
117.8763184119432
 31
0.0
  0
LINE
  5
539
330
18
100
AcDbEntity
  8
1
  6
Continuous
100
AcDbLine
 10
110.7607300373957
 20
115.3739888014747
 30
0.0
 11
110.7607300373957
 21
114.4348702570093
 31
0.0
  0
ARC
  5
53A
330
18
100
AcDbEntity
  8
1
  6
Continuous
100
AcDbCircle
 10
110.2607300373956
 20
116.4939582918948
 30
0.0
 40
0.5000000000000006
100
AcDbArc
 50
53.1301023541566
 51
270.0
  0
LINE
  5
53B
330
18
100
AcDbEntity
  8
1
  6
Continuous
100
AcDbLine
 10
111.7607300373957
 20
116.9939582918948
 30
0.0
 11
111.7607300373957
 21
115.9939582918948
 31
0.0
  0
LINE
  5
53C
330
18
100
AcDbEntity
  8
1
  6
Continuous
100
AcDbLine
 10
110.5607300373957
 20
116.8939582918948
 30
0.0
 11
111.7607300373957
 21
115.9939582918948
 31
0.0
  0
LINE
  5
85A
330
18
100
AcDbEntity
  8
1
  6
Continuous
100
AcDbLine
 10
101.7607300373957
 20
115.3770918712699
 30
0.0
 11
101.7607300373957
 21
87.37708987126993
 31
0.0
  0
LINE
  5
85B
330
18
100
AcDbEntity
  8
1
  6
Continuous
100
AcDbLine
 10
115.2607310373957
 20
135.3770928712699
 30
0.0
 11
115.2607310373957
 21
88.37708987126992
 31
0.0
  0
LINE
  5
85C
330
18
100
AcDbEntity
  8
1
  6
Continuous
100
AcDbLine
 10
90.76073003739573
 20
108.3770908712699
 30
0.0
 11
90.76073003739573
 21
136.3770928712699
 31
0.0
  0
LINE
  5
85D
330
18
100
AcDbEntity
  8
1
  6
Continuous
100
AcDbLine
 10
77.26072903739572
 20
88.37708987126992
 30
0.0
 11
77.26072903739572
 21
135.3770928712699
 31
0.0
  0
LINE
  5
861
330
18
100
AcDbEntity
  8
1
  6
Continuous
100
AcDbLine
 10
32.88912603739572
 20
89.37708987126994
 30
0.0
 11
36.03198303739572
 21
89.37708987126994
 31
0.0
  0
LINE
  5
865
330
18
100
AcDbEntity
  8
1
  6
Continuous
100
AcDbLine
 10
35.46055403739569
 20
92.87708987126991
 30
0.0
 11
35.46055403739569
 21
89.87708987126993
 31
0.0
  0
LINE
  5
866
330
18
100
AcDbEntity
  8
1
  6
Continuous
100
AcDbLine
 10
33.46055403739569
 20
89.87708987126993
 30
0.0
 11
33.46055403739569
 21
92.87708987126991
 31
0.0
  0
LINE
  5
867
330
18
100
AcDbEntity
  8
1
  6
Continuous
100
AcDbLine
 10
32.88912603739572
 20
92.87708987126991
 30
0.0
 11
32.88912603739572
 21
89.37708987126994
 31
0.0
  0
LINE
  5
869
330
18
100
AcDbEntity
  8
1
  6
Continuous
100
AcDbLine
 10
33.36055403739573
 20
92.87708987126991
 30
0.0
 11
33.36055403739573
 21
89.37708987126994
 31
0.0
  0
LINE
  5
86A
330
18
100
AcDbEntity
  8
1
  6
Continuous
100
AcDbLine
 10
35.56055403739572
 20
89.37708987126994
 30
0.0
 11
35.56055403739572
 21
92.87708987126991
 31
0.0
  0
LINE
  5
86F
330
18
100
AcDbEntity
  8
1
  6
Continuous
100
AcDbLine
 10
33.46055403739569
 20
89.87708987126993
 30
0.0
 11
35.46055403739569
 21
89.87708987126993
 31
0.0
  0
LINE
  5
870
330
18
100
AcDbEntity
  8
1
  6
Continuous
100
AcDbLine
 10
33.46055403739569
 20
91.87708987126992
 30
0.0
 11
35.46055403739569
 21
91.87708987126992
 31
0.0
  0
LINE
  5
872
330
18
100
AcDbEntity
  8
1
  6
Continuous
100
AcDbLine
 10
32.88912603739572
 20
92.87708987126991
 30
0.0
 11
36.03198303739572
 21
92.87708987126995
 31
0.0
  0
LINE
  5
876
330
18
100
AcDbEntity
  8
1
  6
Continuous
100
AcDbLine
 10
33.46055403739569
 20
103.3770908712699
 30
0.0
 11
33.46055403739569
 21
107.3770908712699
 31
0.0
  0
LINE
  5
877
330
18
100
AcDbEntity
  8
1
  6
Continuous
100
AcDbLine
 10
35.46055403739563
 20
103.3770908712699
 30
0.0
 11
35.46055403739569
 21
107.3770908712699
 31
0.0
  0
LINE
  5
878
330
18
100
AcDbEntity
  8
1
  6
Continuous
100
AcDbLine
 10
33.03198303739572
 20
103.3770908712699
 30
0.0
 11
33.03198303739572
 21
107.3770908712699
 31
0.0
  0
LINE
  5
879
330
18
100
AcDbEntity
  8
1
  6
Continuous
100
AcDbLine
 10
35.88912603739572
 20
107.3770908712699
 30
0.0
 11
35.88912603739572
 21
103.3770908712699
 31
0.0
  0
ARC
  5
87C
330
18
100
AcDbEntity
  8
1
  6
Continuous
100
AcDbCircle
 10
33.7605540373957
 20
103.6770898712699
 30
0.0
 40
0.3
100
AcDbArc
 50
180.0
 51
270.0
  0
LINE
  5
87D
330
18
100
AcDbEntity
  8
1
  6
Continuous
100
AcDbLine
 10
33.03198303739572
 20
103.3770908712699
 30
0.0
 11
35.88912603739572
 21
103.3770908712699
 31
0.0
  0
ARC
  5
87F
330
18
100
AcDbEntity
  8
1
  6
Continuous
100
AcDbCircle
 10
35.16055403739574
 20
103.6770898712699
 30
0.0
 40
0.3
100
AcDbArc
 50
270.0
 51
0.0
  0
LINE
  5
883
330
18
100
AcDbEntity
  8
1
  6
Continuous
100
AcDbLine
 10
30.96055403739569
 20
107.3770908712699
 30
0.0
 11
33.46055403739569
 21
107.3770908712699
 31
0.0
  0
LINE
  5
88A
330
18
100
AcDbEntity
  8
1
  6
Continuous
100
AcDbLine
 10
36.03198303739572
 20
89.37708987126994
 30
0.0
 11
36.03198303739572
 21
92.87708987126991
 31
0.0
  0
LINE
  5
88D
330
18
100
AcDbEntity
  8
1
  6
Continuous
100
AcDbLine
 10
35.46055403739569
 20
107.3770908712699
 30
0.0
 11
39.46055503739568
 21
107.3770908712699
 31
0.0
  0
LINE
  5
8AC
330
18
100
AcDbEntity
  8
1
  6
Continuous
100
AcDbLine
 10
77.26072903739572
 20
44.38293307821192
 30
0.0
 11
115.2607310373956
 21
44.38293307821192
 31
0.0
  0
LINE
  5
8AD
330
18
100
AcDbEntity
  8
1
  6
Continuous
100
AcDbLine
 10
96.26073003739573
 20
45.8829330782119
 30
0.0
 11
77.26072903739572
 21
45.8829330782119
 31
0.0
  0
LINE
  5
8AE
330
18
100
AcDbEntity
  8
1
  6
Continuous
100
AcDbLine
 10
77.26072903739572
 20
44.38293307821192
 30
0.0
 11
77.26072903739572
 21
45.8829330782119
 31
0.0
  0
LINE
  5
8B1
330
18
100
AcDbEntity
  8
1
  6
Continuous
100
AcDbLine
 10
92.67778903739573
 20
45.89545007821191
 30
0.0
 11
93.7612300373957
 21
46.93293307821192
 31
0.0
  0
LINE
  5
8B9
330
18
100
AcDbEntity
  8
1
  6
Continuous
100
AcDbLine
 10
99.83144425166715
 20
45.8829330782119
 30
0.0
 11
115.2607310373956
 21
45.8829330782119
 31
0.0
  0
LINE
  5
8BB
330
18
100
AcDbEntity
  8
1
  6
Continuous
100
AcDbLine
 10
101.7607300373957
 20
44.38293307821192
 30
0.0
 11
101.7607300373957
 21
45.8829330782119
 31
0.0
  0
LINE
  5
8C0
330
18
100
AcDbEntity
  8
1
  6
Continuous
100
AcDbLine
 10
115.2607310373957
 20
45.8829330782119
 30
0.0
 11
115.2607310373957
 21
44.38293307821192
 31
0.0
  0
LINE
  5
8C1
330
18
100
AcDbEntity
  8
1
  6
Continuous
100
AcDbLine
 10
101.0073720373957
 20
92.87709087126996
 30
0.0
 11
101.0073720373957
 21
89.37709087126995
 31
0.0
  0
LINE
  5
8C2
330
18
100
AcDbEntity
  8
1
  6
Continuous
100
AcDbLine
 10
91.51408703739573
 20
89.37709087126995
 30
0.0
 11
91.51408703739573
 21
92.87709087126996
 31
0.0
  0
LINE
  5
8C3
330
18
100
AcDbEntity
  8
1
  6
Continuous
100
AcDbLine
 10
101.2607300373957
 20
86.37708987126993
 30
0.0
 11
79.26072903739572
 21
86.37708987126995
 31
0.0
  0
ARC
  5
8C4
330
18
100
AcDbEntity
  8
1
  6
Continuous
100
AcDbCircle
 10
79.26072903739572
 20
88.37708987126992
 30
0.0
 40
2.0
100
AcDbArc
 50
180.0
 51
270.0
  0
LINE
  5
8C6
330
18
100
AcDbEntity
  8
1
  6
Continuous
100
AcDbLine
 10
91.26073003739573
 20
89.37709087126995
 30
0.0
 11
91.26073003739573
 21
86.37708987126995
 31
0.0
  0
LINE
  5
8C7
330
18
100
AcDbEntity
  8
1
  6
Continuous
100
AcDbLine
 10
91.26073003739573
 20
89.37709087126995
 30
0.0
 11
91.51408703739573
 21
89.37709087126995
 31
0.0
  0
LINE
  5
8C8
330
18
100
AcDbEntity
  8
1
  6
Continuous
100
AcDbLine
 10
101.2607300373957
 20
86.37708987126995
 30
0.0
 11
101.2607300373957
 21
89.37709087126995
 31
0.0
  0
LINE
  5
8C9
330
18
100
AcDbEntity
  8
1
  6
Continuous
100
AcDbLine
 10
101.0073720373957
 20
89.37709087126995
 30
0.0
 11
101.2607300373957
 21
89.37709087126995
 31
0.0
  0
ARC
  5
8CA
330
18
100
AcDbEntity
  8
1
  6
Continuous
100
AcDbCircle
 10
83.76072903739572
 20
95.22709087126996
 30
0.0
 40
1.6
100
AcDbArc
 50
180.0
 51
0.0
  0
ARC
  5
8CB
330
18
100
AcDbEntity
  8
1
  6
Continuous
100
AcDbCircle
 10
83.76072903739572
 20
96.52709087126993
 30
0.0
 40
1.6
100
AcDbArc
 50
0.0
 51
180.0
  0
LINE
  5
8CC
330
18
100
AcDbEntity
  8
1
  6
Continuous
100
AcDbLine
 10
82.1607290373957
 20
95.22709087126996
 30
0.0
 11
82.1607290373957
 21
96.52709087126993
 31
0.0
  0
LINE
  5
8CF
330
18
100
AcDbEntity
  8
1
  6
Continuous
100
AcDbLine
 10
85.36072903739572
 20
96.52709087126993
 30
0.0
 11
85.36072903739572
 21
95.22709087126996
 31
0.0
  0
LINE
  5
8D0
330
18
100
AcDbEntity
  8
1
  6
Continuous
100
AcDbLine
 10
91.36175003739571
 20
91.87708987126994
 30
0.0
 11
91.51408703739573
 21
91.6782059014088
 31
0.0
  0
LINE
  5
8D1
330
18
100
AcDbEntity
  8
1
  6
Continuous
100
AcDbLine
 10
91.36175003739571
 20
92.87708987126995
 30
0.0
 11
91.36175003739571
 21
91.87708987126994
 31
0.0
  0
LINE
  5
8D2
330
18
100
AcDbEntity
  8
1
  6
Continuous
100
AcDbLine
 10
91.26065503739573
 20
91.87718987126995
 30
0.0
 11
91.26073003739573
 21
91.87708987126994
 31
0.0
  0
LINE
  5
8D3
330
18
100
AcDbEntity
  8
1
  6
Continuous
100
AcDbLine
 10
91.26073003739573
 20
91.87708987126994
 30
0.0
 11
91.51408703739573
 21
91.53927987126992
 31
0.0
  0
LINE
  5
8D4
330
18
100
AcDbEntity
  8
1
  6
Continuous
100
AcDbLine
 10
91.26073003739573
 20
91.87708987126994
 30
0.0
 11
91.36175003739571
 21
91.87708987126994
 31
0.0
  0
LINE
  5
8D6
330
18
100
AcDbEntity
  8
1
  6
Continuous
100
AcDbLine
 10
91.26073003739573
 20
91.87708987126994
 30
0.0
 11
91.26073003739573
 21
91.87698987126996
 31
0.0
  0
LINE
  5
8D9
330
18
100
AcDbEntity
  8
1
  6
Continuous
100
AcDbLine
 10
91.26073003739573
 20
92.87709087126996
 30
0.0
 11
91.51408703739573
 21
92.87709087126996
 31
0.0
  0
LINE
  5
8DA
330
18
100
AcDbEntity
  8
1
  6
Continuous
100
AcDbLine
 10
101.1597100373957
 20
91.87708987126994
 30
0.0
 11
101.1597100373957
 21
92.87708987126995
 31
0.0
  0
LINE
  5
8DB
330
18
100
AcDbEntity
  8
1
  6
Continuous
100
AcDbLine
 10
101.0073720373957
 20
91.67820590834438
 30
0.0
 11
101.1597100373957
 21
91.87708987126994
 31
0.0
  0
LINE
  5
8DD
330
18
100
AcDbEntity
  8
1
  6
Continuous
100
AcDbLine
 10
101.1597100373957
 20
91.87708987126994
 30
0.0
 11
101.2607300373957
 21
91.87708987126994
 31
0.0
  0
LINE
  5
8DE
330
18
100
AcDbEntity
  8
1
  6
Continuous
100
AcDbLine
 10
101.2607300373957
 20
91.87698987126996
 30
0.0
 11
101.2607300373957
 21
91.87708987126994
 31
0.0
  0
LINE
  5
8E0
330
18
100
AcDbEntity
  8
1
  6
Continuous
100
AcDbLine
 10
101.0073720373957
 20
91.53927987126992
 30
0.0
 11
101.2607300373957
 21
91.87708987126994
 31
0.0
  0
LINE
  5
8E1
330
18
100
AcDbEntity
  8
1
  6
Continuous
100
AcDbLine
 10
101.2607300373957
 20
91.87708987126994
 30
0.0
 11
101.2608050373956
 21
91.87718987126995
 31
0.0
  0
LINE
  5
8E3
330
18
100
AcDbEntity
  8
1
  6
Continuous
100
AcDbLine
 10
101.0073720373957
 20
92.87709087126996
 30
0.0
 11
101.2607300373957
 21
92.87709087126996
 31
0.0
  0
LINE
  5
8E8
330
18
100
AcDbEntity
  8
1
  6
Continuous
100
AcDbLine
 10
91.36175003739571
 20
103.6770908712699
 30
0.0
 11
91.36175003739571
 21
107.3770908712699
 31
0.0
  0
LINE
  5
8EA
330
18
100
AcDbEntity
  8
1
  6
Continuous
100
AcDbLine
 10
91.46915503739569
 20
107.3770908712699
 30
0.0
 11
91.46915503739569
 21
103.3770908712699
 31
0.0
  0
LINE
  5
8EE
330
18
100
AcDbEntity
  8
1
  6
Continuous
100
AcDbLine
 10
91.26073003739573
 20
103.3770908712699
 30
0.0
 11
91.46915503739569
 21
103.3770908712699
 31
0.0
  0
ARC
  5
8EF
330
18
100
AcDbEntity
  8
1
  6
Continuous
100
AcDbCircle
 10
91.76073003739572
 20
108.3770908712699
 30
0.0
 40
1.0
100
AcDbArc
 50
180.0
 51
239.858479999999
  0
LINE
  5
8F4
330
18
100
AcDbEntity
  8
1
  6
Continuous
100
AcDbLine
 10
101.1597100373957
 20
103.6770908712699
 30
0.0
 11
101.1597100373957
 21
107.3770908712699
 31
0.0
  0
LINE
  5
8F6
330
18
100
AcDbEntity
  8
1
  6
Continuous
100
AcDbLine
 10
101.0523040373957
 20
103.3770908712699
 30
0.0
 11
101.0523040373957
 21
107.3770908712699
 31
0.0
  0
LINE
  5
8F9
330
18
100
AcDbEntity
  8
1
  6
Continuous
100
AcDbLine
 10
101.0523040373957
 20
103.3770908712699
 30
0.0
 11
101.2607300373957
 21
103.3770908712699
 31
0.0
  0
LINE
  5
8FD
330
18
100
AcDbEntity
  8
1
  6
Continuous
100
AcDbLine
 10
91.36175003739571
 20
107.3770908712699
 30
0.0
 11
101.1597100373957
 21
107.3770908712699
 31
0.0
  0
LINE
  5
932
330
18
100
AcDbEntity
  8
1
  6
Continuous
100
AcDbLine
 10
102.7607300373957
 20
86.37708987126995
 30
0.0
 11
113.2607310373957
 21
86.37708987126995
 31
0.0
  0
ARC
  5
933
330
18
100
AcDbEntity
  8
1
  6
Continuous
100
AcDbCircle
 10
102.7607300373957
 20
87.37708987126993
 30
0.0
 40
1.0
100
AcDbArc
 50
180.0
 51
270.0
  0
ARC
  5
934
330
18
100
AcDbEntity
  8
1
  6
Continuous
100
AcDbCircle
 10
113.2607310373957
 20
88.37708987126992
 30
0.0
 40
2.0
100
AcDbArc
 50
270.0
 51
0.0
  0
ARC
  5
935
330
18
100
AcDbEntity
  8
1
  6
Continuous
100
AcDbCircle
 10
108.7607300373957
 20
96.52709087126993
 30
0.0
 40
1.6
100
AcDbArc
 50
0.0
 51
180.0
  0
ARC
  5
936
330
18
100
AcDbEntity
  8
1
  6
Continuous
100
AcDbCircle
 10
108.7607300373957
 20
95.22709087126996
 30
0.0
 40
1.6
100
AcDbArc
 50
180.0
 51
0.0
  0
LINE
  5
937
330
18
100
AcDbEntity
  8
1
  6
Continuous
100
AcDbLine
 10
107.1607300373957
 20
95.22709087126996
 30
0.0
 11
107.1607300373957
 21
96.52709087126993
 31
0.0
  0
LINE
  5
938
330
18
100
AcDbEntity
  8
1
  6
Continuous
100
AcDbLine
 10
110.3607310373957
 20
96.52709087126993
 30
0.0
 11
110.3607310373957
 21
95.22709087126996
 31
0.0
  0
LINE
  5
93A
330
18
100
AcDbEntity
  8
1
  6
Continuous
100
AcDbLine
 10
39.46055503739568
 20
137.3770918712699
 30
0.0
 11
29.46055403739563
 21
137.3770918712699
 31
0.0
  0
LINE
  5
93C
330
18
100
AcDbEntity
  8
1
  6
Continuous
100
AcDbLine
 10
36.03198303739572
 20
134.3770918712699
 30
0.0
 11
32.88912603739572
 21
134.3770918712699
 31
0.0
  0
LINE
  5
940
330
18
100
AcDbEntity
  8
1
  6
Continuous
100
AcDbLine
 10
33.03198303739572
 20
116.3770908712699
 30
0.0
 11
33.03198303739572
 21
120.3770908712699
 31
0.0
  0
LINE
  5
941
330
18
100
AcDbEntity
  8
1
  6
Continuous
100
AcDbLine
 10
35.88912603739572
 20
120.3770908712699
 30
0.0
 11
35.88912603739572
 21
116.3770908712699
 31
0.0
  0
ARC
  5
944
330
18
100
AcDbEntity
  8
1
  6
Continuous
100
AcDbCircle
 10
33.7605540373957
 20
120.0770908712699
 30
0.0
 40
0.3
100
AcDbArc
 50
90.0
 51
180.0
  0
ARC
  5
945
330
18
100
AcDbEntity
  8
1
  6
Continuous
100
AcDbCircle
 10
35.16055403739574
 20
120.0770908712699
 30
0.0
 40
0.3
100
AcDbArc
 50
0.0
 51
90.0
  0
LINE
  5
961
330
18
100
AcDbEntity
  8
1
  6
Continuous
100
AcDbLine
 10
33.46055403739575
 20
116.3770908712699
 30
0.0
 11
30.96055403739569
 21
116.3770908712699
 31
0.0
  0
LINE
  5
962
330
18
100
AcDbEntity
  8
1
  6
Continuous
100
AcDbLine
 10
35.46055403739569
 20
120.3770908712699
 30
0.0
 11
35.46055403739569
 21
116.3770908712699
 31
0.0
  0
LINE
  5
963
330
18
100
AcDbEntity
  8
1
  6
Continuous
100
AcDbLine
 10
33.46055403739575
 20
120.3770908712699
 30
0.0
 11
33.46055403739569
 21
116.3770908712699
 31
0.0
  0
LINE
  5
96A
330
18
100
AcDbEntity
  8
1
  6
Continuous
100
AcDbLine
 10
35.88912603739572
 20
120.3770908712699
 30
0.0
 11
33.03198303739572
 21
120.3770908712699
 31
0.0
  0
LINE
  5
96C
330
18
100
AcDbEntity
  8
1
  6
Continuous
100
AcDbLine
 10
32.88912603739572
 20
134.3770918712699
 30
0.0
 11
32.88912603739572
 21
130.8770918712699
 31
0.0
  0
LINE
  5
96D
330
18
100
AcDbEntity
  8
1
  6
Continuous
100
AcDbLine
 10
35.56055403739572
 20
130.8770918712699
 30
0.0
 11
35.56055403739572
 21
134.3770918712699
 31
0.0
  0
LINE
  5
96E
330
18
100
AcDbEntity
  8
1
  6
Continuous
100
AcDbLine
 10
33.36055403739573
 20
134.3770918712699
 30
0.0
 11
33.36055403739573
 21
130.8770918712699
 31
0.0
  0
LINE
  5
96F
330
18
100
AcDbEntity
  8
1
  6
Continuous
100
AcDbLine
 10
33.46055403739569
 20
130.8770918712699
 30
0.0
 11
33.46055403739569
 21
133.8770918712699
 31
0.0
  0
LINE
  5
970
330
18
100
AcDbEntity
  8
1
  6
Continuous
100
AcDbLine
 10
35.46055403739569
 20
133.8770918712699
 30
0.0
 11
35.46055403739569
 21
130.8770918712699
 31
0.0
  0
LINE
  5
972
330
18
100
AcDbEntity
  8
1
  6
Continuous
100
AcDbLine
 10
33.46055403739569
 20
131.8770918712699
 30
0.0
 11
35.46055403739569
 21
131.8770918712699
 31
0.0
  0
LINE
  5
973
330
18
100
AcDbEntity
  8
1
  6
Continuous
100
AcDbLine
 10
32.88912603739572
 20
130.8770918712699
 30
0.0
 11
36.03198303739578
 21
130.8770918712699
 31
0.0
  0
LINE
  5
978
330
18
100
AcDbEntity
  8
1
  6
Continuous
100
AcDbLine
 10
33.46055403739569
 20
133.8770918712699
 30
0.0
 11
35.46055403739569
 21
133.8770918712699
 31
0.0
  0
ARC
  5
979
330
18
100
AcDbEntity
  8
1
  6
Continuous
100
AcDbCircle
 10
34.46055503739569
 20
131.8770828712699
 30
0.0
 40
2.500008
100
AcDbArc
 50
63.89635199999972
 51
116.1038168232233
  0
LINE
  5
97A
330
18
100
AcDbEntity
  8
1
  6
Continuous
100
AcDbLine
 10
29.46055403739569
 20
86.37708987126993
 30
0.0
 11
29.46055403739569
 21
137.3770918712699
 31
0.0
  0
LINE
  5
97B
330
18
100
AcDbEntity
  8
1
  6
Continuous
100
AcDbLine
 10
30.96055403739569
 20
137.3770918712699
 30
0.0
 11
30.96055403739569
 21
86.37708987126993
 31
0.0
  0
LINE
  5
97D
330
18
100
AcDbEntity
  8
1
  6
Continuous
100
AcDbLine
 10
39.46055503739568
 20
86.37708987126995
 30
0.0
 11
39.46055503739568
 21
137.3770918712699
 31
0.0
  0
LINE
  5
981
330
18
100
AcDbEntity
  8
1
  6
Continuous
100
AcDbLine
 10
35.46055403739569
 20
116.3770908712699
 30
0.0
 11
39.44152803739569
 21
116.3770908712699
 31
0.0
  0
LINE
  5
983
330
18
100
AcDbEntity
  8
1
  6
Continuous
100
AcDbLine
 10
36.03198303739572
 20
130.8770918712699
 30
0.0
 11
36.03198303739572
 21
134.3770918712699
 31
0.0
  0
LINE
  5
984
330
18
100
AcDbEntity
  8
1
  6
Continuous
100
AcDbLine
 10
91.26073003739573
 20
137.3770928712699
 30
0.0
 11
113.2607310373957
 21
137.3770928712699
 31
0.0
  0
ARC
  5
985
330
18
100
AcDbEntity
  8
1
  6
Continuous
100
AcDbCircle
 10
100.7607300373957
 20
115.3770918712699
 30
0.0
 40
1.0
100
AcDbArc
 50
0.0
 51
60.0011318639435
  0
LINE
  5
986
330
18
100
AcDbEntity
  8
1
  6
Continuous
100
AcDbLine
 10
91.26073003739573
 20
131.87709287127
 30
0.0
 11
91.26073003739573
 21
91.87708987127001
 31
0.0
  0
ARC
  5
988
330
18
100
AcDbEntity
  8
1
  6
Continuous
100
AcDbCircle
 10
83.76072903739572
 20
128.5270918712699
 30
0.0
 40
1.6
100
AcDbArc
 50
0.0
 51
180.0
  0
ARC
  5
989
330
18
100
AcDbEntity
  8
1
  6
Continuous
100
AcDbCircle
 10
83.76072903739572
 20
127.2270918712699
 30
0.0
 40
1.6
100
AcDbArc
 50
180.0
 51
0.0
  0
LINE
  5
98A
330
18
100
AcDbEntity
  8
1
  6
Continuous
100
AcDbLine
 10
82.1607290373957
 20
127.2270918712699
 30
0.0
 11
82.1607290373957
 21
128.5270918712699
 31
0.0
  0
LINE
  5
98B
330
18
100
AcDbEntity
  8
1
  6
Continuous
100
AcDbLine
 10
101.0523040373957
 20
116.3770918712699
 30
0.0
 11
101.0523040373957
 21
120.3770918712699
 31
0.0
  0
LINE
  5
98C
330
18
100
AcDbEntity
  8
1
  6
Continuous
100
AcDbLine
 10
91.46915503739569
 20
120.3770918712699
 30
0.0
 11
91.46915503739569
 21
116.3770918712699
 31
0.0
  0
LINE
  5
99E
330
18
100
AcDbEntity
  8
1
  6
Continuous
100
AcDbLine
 10
91.36175003739571
 20
120.0770918712699
 30
0.0
 11
91.36175003739571
 21
116.3770918712699
 31
0.0
  0
LINE
  5
9B2
330
18
100
AcDbEntity
  8
1
  6
Continuous
100
AcDbLine
 10
101.1597100373957
 20
116.3770918712699
 30
0.0
 11
91.36175003739571
 21
116.3770918712699
 31
0.0
  0
LINE
  5
9B3
330
18
100
AcDbEntity
  8
1
  6
Continuous
100
AcDbLine
 10
101.1597100373957
 20
120.0770918712699
 30
0.0
 11
101.1597100373957
 21
116.3770918712699
 31
0.0
  0
LINE
  5
9B8
330
18
100
AcDbEntity
  8
1
  6
Continuous
100
AcDbLine
 10
91.46915503739569
 20
120.3770918712699
 30
0.0
 11
91.26073003739575
 21
120.3770918712699
 31
0.0
  0
LINE
  5
9BB
330
18
100
AcDbEntity
  8
1
  6
Continuous
100
AcDbLine
 10
85.36072903739572
 20
128.5270918712699
 30
0.0
 11
85.36072903739572
 21
127.2270918712699
 31
0.0
  0
LINE
  5
9BD
330
18
100
AcDbEntity
  8
1
  6
Continuous
100
AcDbLine
 10
101.2607300373957
 20
120.3770918712699
 30
0.0
 11
101.0523040373957
 21
120.3770918712699
 31
0.0
  0
LINE
  5
9BF
330
18
100
AcDbEntity
  8
1
  6
Continuous
100
AcDbLine
 10
89.76073003739569
 20
137.3770928712699
 30
0.0
 11
79.26072903739572
 21
137.3770928712699
 31
0.0
  0
ARC
  5
9C0
330
18
100
AcDbEntity
  8
1
  6
Continuous
100
AcDbCircle
 10
79.26072903739572
 20
135.3770928712699
 30
0.0
 40
2.0
100
AcDbArc
 50
90.0
 51
180.0
  0
LINE
  5
9C2
330
18
100
AcDbEntity
  8
1
  6
Continuous
100
AcDbLine
 10
91.26073003739573
 20
137.3770928712699
 30
0.0
 11
91.26073003739573
 21
134.3770928712699
 31
0.0
  0
LINE
  5
9C3
330
18
100
AcDbEntity
  8
1
  6
Continuous
100
AcDbLine
 10
91.51408703739573
 20
130.8770918712699
 30
0.0
 11
91.51408703739573
 21
134.3770928712699
 31
0.0
  0
LINE
  5
9C6
330
18
100
AcDbEntity
  8
1
  6
Continuous
100
AcDbLine
 10
91.36175003739571
 20
131.8770928712699
 30
0.0
 11
91.36175003739571
 21
130.8770918712699
 31
0.0
  0
LINE
  5
9C7
330
18
100
AcDbEntity
  8
1
  6
Continuous
100
AcDbLine
 10
91.51408703739573
 20
132.0759768411311
 30
0.0
 11
91.36175003739571
 21
131.8770928712699
 31
0.0
  0
LINE
  5
9C8
330
18
100
AcDbEntity
  8
1
  6
Continuous
100
AcDbLine
 10
91.26073003739573
 20
131.8770928712699
 30
0.0
 11
91.36175003739571
 21
131.8770928712699
 31
0.0
  0
LINE
  5
9C9
330
18
100
AcDbEntity
  8
1
  6
Continuous
100
AcDbLine
 10
91.51408703739573
 20
132.2149028712699
 30
0.0
 11
91.26073003739573
 21
131.8770928712699
 31
0.0
  0
LINE
  5
9CA
330
18
100
AcDbEntity
  8
1
  6
Continuous
100
AcDbLine
 10
91.26073003739573
 20
131.8770928712699
 30
0.0
 11
91.26065503739573
 21
131.8769928712699
 31
0.0
  0
LINE
  5
9CB
330
18
100
AcDbEntity
  8
1
  6
Continuous
100
AcDbLine
 10
91.26073003739573
 20
130.8770918712699
 30
0.0
 11
91.51408703739566
 21
130.8770918712699
 31
0.0
  0
LINE
  5
9CC
330
18
100
AcDbEntity
  8
1
  6
Continuous
100
AcDbLine
 10
91.26073003739573
 20
131.8771928712699
 30
0.0
 11
91.26073003739573
 21
131.8770928712699
 31
0.0
  0
LINE
  5
9CE
330
18
100
AcDbEntity
  8
1
  6
Continuous
100
AcDbLine
 10
91.51408703739573
 20
134.3770928712699
 30
0.0
 11
91.26073003739573
 21
134.3770928712699
 31
0.0
  0
ARC
  5
9CF
330
18
100
AcDbEntity
  8
1
  6
Continuous
100
AcDbCircle
 10
89.76073003739569
 20
136.3770928712699
 30
0.0
 40
1.0
100
AcDbArc
 50
0.0
 51
90.0
  0
LINE
  5
9D0
330
18
100
AcDbEntity
  8
1
  6
Continuous
100
AcDbLine
 10
101.2607300373957
 20
134.3770928712699
 30
0.0
 11
101.2607300373957
 21
137.3770928712699
 31
0.0
  0
LINE
  5
9D1
330
18
100
AcDbEntity
  8
1
  6
Continuous
100
AcDbLine
 10
101.0073720373957
 20
134.3770928712699
 30
0.0
 11
101.0073720373957
 21
130.8770918712699
 31
0.0
  0
LINE
  5
9D3
330
18
100
AcDbEntity
  8
1
  6
Continuous
100
AcDbLine
 10
101.2607300373956
 20
130.8770918712699
 30
0.0
 11
101.0073720373957
 21
130.8770918712699
 31
0.0
  0
LINE
  5
9D4
330
18
100
AcDbEntity
  8
1
  6
Continuous
100
AcDbLine
 10
101.1597100373957
 20
131.8770928712699
 30
0.0
 11
101.0073720373957
 21
132.0759768341955
 31
0.0
  0
LINE
  5
9D5
330
18
100
AcDbEntity
  8
1
  6
Continuous
100
AcDbLine
 10
101.1597100373957
 20
130.8770918712699
 30
0.0
 11
101.1597100373957
 21
131.8770928712699
 31
0.0
  0
LINE
  5
9D6
330
18
100
AcDbEntity
  8
1
  6
Continuous
100
AcDbLine
 10
101.2608050373956
 20
131.8769928712699
 30
0.0
 11
101.2607300373957
 21
131.8770928712699
 31
0.0
  0
LINE
  5
9D7
330
18
100
AcDbEntity
  8
1
  6
Continuous
100
AcDbLine
 10
101.2607300373957
 20
131.8770928712699
 30
0.0
 11
101.0073720373957
 21
132.2149028712699
 31
0.0
  0
LINE
  5
9D8
330
18
100
AcDbEntity
  8
1
  6
Continuous
100
AcDbLine
 10
101.1597100373957
 20
131.8770928712699
 30
0.0
 11
101.2607300373957
 21
131.8770928712699
 31
0.0
  0
LINE
  5
9DA
330
18
100
AcDbEntity
  8
1
  6
Continuous
100
AcDbLine
 10
101.2607300373957
 20
131.8770928712699
 30
0.0
 11
101.2607300373957
 21
131.8771928712699
 31
0.0
  0
LINE
  5
9DC
330
18
100
AcDbEntity
  8
1
  6
Continuous
100
AcDbLine
 10
101.2607300373957
 20
134.3770928712699
 30
0.0
 11
101.0073720373957
 21
134.3770928712699
 31
0.0
  0
ARC
  5
9DD
330
18
100
AcDbEntity
  8
1
  6
Continuous
100
AcDbCircle
 10
108.7607300373957
 20
128.5270918712699
 30
0.0
 40
1.6
100
AcDbArc
 50
0.0
 51
180.0
  0
ARC
  5
9DE
330
18
100
AcDbEntity
  8
1
  6
Continuous
100
AcDbCircle
 10
108.7607300373957
 20
127.2270918712699
 30
0.0
 40
1.6
100
AcDbArc
 50
180.0
 51
0.0
  0
LINE
  5
9DF
330
18
100
AcDbEntity
  8
1
  6
Continuous
100
AcDbLine
 10
107.1607300373957
 20
127.2270918712699
 30
0.0
 11
107.1607300373957
 21
128.5270918712699
 31
0.0
  0
LINE
  5
9E0
330
18
100
AcDbEntity
  8
1
  6
Continuous
100
AcDbLine
 10
110.3607310373957
 20
128.5270918712699
 30
0.0
 11
110.3607310373957
 21
127.2270918712699
 31
0.0
  0
ARC
  5
9E1
330
18
100
AcDbEntity
  8
1
  6
Continuous
100
AcDbCircle
 10
113.2607310373957
 20
135.3770928712699
 30
0.0
 40
2.0
100
AcDbArc
 50
0.0
 51
90.0
  0
LINE
  5
9E3
330
18
100
AcDbEntity
  8
1
  6
Continuous
100
AcDbLine
 10
96.26073003739573
 20
174.8714005609499
 30
0.0
 11
115.2607310373956
 21
174.87140056095
 31
0.0
  0
LINE
  5
9E9
330
18
100
AcDbEntity
  8
1
  6
Continuous
100
AcDbLine
 10
92.69001680332063
 20
174.8714005609499
 30
0.0
 11
77.26072903739572
 21
174.8714005609499
 31
0.0
  0
LINE
  5
9EB
330
18
100
AcDbEntity
  8
1
  6
Continuous
100
AcDbLine
 10
77.26072903739572
 20
174.8714005609499
 30
0.0
 11
77.26072903739572
 21
176.3714005609499
 31
0.0
  0
LINE
  5
9EF
330
18
100
AcDbEntity
  8
1
  6
Continuous
100
AcDbLine
 10
90.76073003739573
 20
176.3714005609499
 30
0.0
 11
90.76073003739573
 21
174.8714005609499
 31
0.0
  0
LINE
  5
9F6
330
18
100
AcDbEntity
  8
1
  6
Continuous
100
AcDbLine
 10
99.84367103739572
 20
174.8588825609499
 30
0.0
 11
98.76023003739573
 21
173.8213995609499
 31
0.0
  0
ARC
  5
9F7
330
18
100
AcDbEntity
  8
1
  6
Continuous
100
AcDbCircle
 10
96.26073003739573
 20
171.3713995609499
 30
0.0
 40
3.5
100
AcDbArc
 50
44.42700399999967
 51
44.6183100000002
  0
LINE
  5
9F8
330
18
100
AcDbEntity
  8
1
  6
Continuous
100
AcDbLine
 10
99.84364203739573
 20
174.8588915609499
 30
0.0
 11
99.82962503739573
 21
174.8732345609499
 31
0.0
  0
LINE
  5
9FB
330
18
100
AcDbEntity
  8
1
  6
Continuous
100
AcDbLine
 10
115.2607310373957
 20
176.3714005609499
 30
0.0
 11
115.2607310373957
 21
174.8714005609499
 31
0.0
  0
LINE
  5
9FE
330
18
100
AcDbEntity
  8
1
  6
Continuous
100
AcDbLine
 10
214.4605550525311
 20
87.37708987126993
 30
0.0
 11
214.4605550525311
 21
115.3770908712699
 31
0.0
  0
LINE
  5
9FF
330
18
100
AcDbEntity
  8
1
  6
Continuous
100
AcDbLine
 10
200.9605550525311
 20
135.3770918712699
 30
0.0
 11
200.9605550525311
 21
88.37708987126992
 31
0.0
  0
LINE
  5
A00
330
18
100
AcDbEntity
  8
1
  6
Continuous
100
AcDbLine
 10
225.4605560525311
 20
136.3770918712699
 30
0.0
 11
225.4605560525311
 21
108.3770908712699
 31
0.0
  0
LINE
  5
A01
330
18
100
AcDbEntity
  8
1
  6
Continuous
100
AcDbLine
 10
238.9605560525311
 20
88.37708987126992
 30
0.0
 11
238.9605560525311
 21
135.3770918712699
 31
0.0
  0
LINE
  5
A03
330
18
100
AcDbEntity
  8
1
  6
Continuous
100
AcDbLine
 10
159.4605550373955
 20
137.3770928712699
 30
0.0
 11
159.4605550373957
 21
86.37708987126995
 31
0.0
  0
LINE
  5
A04
330
18
100
AcDbEntity
  8
1
  6
Continuous
100
AcDbLine
 10
160.9605550373957
 20
137.3770928712699
 30
0.0
 11
160.9605550373956
 21
86.37708987126995
 31
0.0
  0
LINE
  5
A07
330
18
100
AcDbEntity
  8
1
  6
Continuous
100
AcDbLine
 10
154.9605540373956
 20
89.87708987126993
 30
0.0
 11
154.9605540373956
 21
92.87709087126996
 31
0.0
  0
LINE
  5
A08
330
18
100
AcDbEntity
  8
1
  6
Continuous
100
AcDbLine
 10
156.9605540373957
 20
92.87709087126996
 30
0.0
 11
156.9605540373957
 21
89.87708987126993
 31
0.0
  0
LINE
  5
A0A
330
18
100
AcDbEntity
  8
1
  6
Continuous
100
AcDbLine
 10
157.5319830373957
 20
89.37709087126995
 30
0.0
 11
157.5319830373957
 21
92.87709087126996
 31
0.0
  0
LINE
  5
A0B
330
18
100
AcDbEntity
  8
1
  6
Continuous
100
AcDbLine
 10
154.3891260373957
 20
92.87709087126996
 30
0.0
 11
154.3891260373957
 21
89.37709087126995
 31
0.0
  0
LINE
  5
A0C
330
18
100
AcDbEntity
  8
1
  6
Continuous
100
AcDbLine
 10
154.8605540373957
 20
92.87709087126996
 30
0.0
 11
154.8605540373957
 21
89.37709087126995
 31
0.0
  0
LINE
  5
A0D
330
18
100
AcDbEntity
  8
1
  6
Continuous
100
AcDbLine
 10
157.0605540373957
 20
89.37709087126995
 30
0.0
 11
157.0605540373957
 21
92.87709087126996
 31
0.0
  0
LINE
  5
A0E
330
18
100
AcDbEntity
  8
1
  6
Continuous
100
AcDbLine
 10
150.9605540373956
 20
86.37708987126995
 30
0.0
 11
160.9605550373956
 21
86.37708987126995
 31
0.0
  0
LINE
  5
A0F
330
18
100
AcDbEntity
  8
1
  6
Continuous
100
AcDbLine
 10
154.3891260373957
 20
89.37709087126995
 30
0.0
 11
157.5319830373957
 21
89.37709087126995
 31
0.0
  0
LINE
  5
A10
330
18
100
AcDbEntity
  8
1
  6
Continuous
100
AcDbLine
 10
156.9605540373957
 20
89.87708987126993
 30
0.0
 11
154.9605540373956
 21
89.87708987126993
 31
0.0
  0
LINE
  5
A1D
330
18
100
AcDbEntity
  8
1
  6
Continuous
100
AcDbLine
 10
154.9605540373957
 20
103.3770908712699
 30
0.0
 11
154.9605540373956
 21
107.3770908712699
 31
0.0
  0
LINE
  5
A1E
330
18
100
AcDbEntity
  8
1
  6
Continuous
100
AcDbLine
 10
156.9605540373956
 20
103.3770908712699
 30
0.0
 11
156.9605540373957
 21
107.3770908712699
 31
0.0
  0
LINE
  5
A1F
330
18
100
AcDbEntity
  8
1
  6
Continuous
100
AcDbLine
 10
157.3891260373957
 20
107.3770908712699
 30
0.0
 11
157.3891260373957
 21
103.3770908712699
 31
0.0
  0
LINE
  5
A20
330
18
100
AcDbEntity
  8
1
  6
Continuous
100
AcDbLine
 10
154.5319830373957
 20
103.3770908712699
 30
0.0
 11
154.5319830373957
 21
107.3770908712699
 31
0.0
  0
LINE
  5
A21
330
18
100
AcDbEntity
  8
1
  6
Continuous
100
AcDbLine
 10
154.5319830373957
 20
103.3770908712699
 30
0.0
 11
157.3891260373957
 21
103.3770908712699
 31
0.0
  0
ARC
  5
A22
330
18
100
AcDbEntity
  8
1
  6
Continuous
100
AcDbCircle
 10
156.6605540373957
 20
103.6770908712699
 30
0.0
 40
0.3
100
AcDbArc
 50
270.0
 51
0.0
  0
ARC
  5
A25
330
18
100
AcDbEntity
  8
1
  6
Continuous
100
AcDbCircle
 10
155.2605540373957
 20
103.6770908712699
 30
0.0
 40
0.3
100
AcDbArc
 50
180.0
 51
270.0
  0
LINE
  5
A29
330
18
100
AcDbEntity
  8
1
  6
Continuous
100
AcDbLine
 10
154.9605580373956
 20
107.3770908712699
 30
0.0
 11
150.9605540373957
 21
107.3770908712699
 31
0.0
  0
LINE
  5
A4D
330
18
100
AcDbEntity
  8
1
  6
Continuous
100
AcDbLine
 10
159.4605550373958
 20
107.3770908712699
 30
0.0
 11
156.9605540373957
 21
107.3770908712699
 31
0.0
  0
LINE
  5
A4E
330
18
100
AcDbEntity
  8
1
  6
Continuous
100
AcDbLine
 10
236.9605560525311
 20
86.37708987126993
 30
0.0
 11
214.9605550525311
 21
86.37708987126995
 31
0.0
  0
ARC
  5
A4F
330
18
100
AcDbEntity
  8
1
  6
Continuous
100
AcDbCircle
 10
232.4605560525311
 20
95.22708987126991
 30
0.0
 40
1.6
100
AcDbArc
 50
180.0
 51
0.0
  0
ARC
  5
A50
330
18
100
AcDbEntity
  8
1
  6
Continuous
100
AcDbCircle
 10
232.4605560525311
 20
96.52708987126992
 30
0.0
 40
1.6
100
AcDbArc
 50
0.0
 51
180.0
  0
LINE
  5
A51
330
18
100
AcDbEntity
  8
1
  6
Continuous
100
AcDbLine
 10
215.2139130525311
 20
89.37708987126994
 30
0.0
 11
215.2139130525311
 21
92.87708987126991
 31
0.0
  0
LINE
  5
A53
330
18
100
AcDbEntity
  8
1
  6
Continuous
100
AcDbLine
 10
202.9605550525311
 20
86.37708987126993
 30
0.0
 11
213.4605550525311
 21
86.37708987126993
 31
0.0
  0
ARC
  5
A54
330
18
100
AcDbEntity
  8
1
  6
Continuous
100
AcDbCircle
 10
202.9605550525311
 20
88.37708987126992
 30
0.0
 40
2.0
100
AcDbArc
 50
180.0
 51
270.0
  0
ARC
  5
A55
330
18
100
AcDbEntity
  8
1
  6
Continuous
100
AcDbCircle
 10
213.4605550525311
 20
87.37708987126993
 30
0.0
 40
1.0
100
AcDbArc
 50
270.0
 51
0.0
  0
LINE
  5
A56
330
18
100
AcDbEntity
  8
1
  6
Continuous
100
AcDbLine
 10
214.9605550525311
 20
89.37708987126994
 30
0.0
 11
214.9605550525311
 21
86.37708987126993
 31
0.0
  0
LINE
  5
A57
330
18
100
AcDbEntity
  8
1
  6
Continuous
100
AcDbLine
 10
214.9605550525311
 20
89.37708987126994
 30
0.0
 11
215.2139130525311
 21
89.37708987126994
 31
0.0
  0
LINE
  5
A5A
330
18
100
AcDbEntity
  8
1
  6
Continuous
100
AcDbLine
 10
214.9605550525311
 20
116.2431162750543
 30
0.0
 11
214.960555052531
 21
91.87708987126992
 31
0.0
  0
ARC
  5
A5B
330
18
100
AcDbEntity
  8
1
  6
Continuous
100
AcDbCircle
 10
207.4605550525311
 20
95.22708987126991
 30
0.0
 40
1.6
100
AcDbArc
 50
180.0
 51
0.0
  0
ARC
  5
A5C
330
18
100
AcDbEntity
  8
1
  6
Continuous
100
AcDbCircle
 10
207.4605550525311
 20
96.52708987126992
 30
0.0
 40
1.6
100
AcDbArc
 50
0.0
 51
180.0
  0
LINE
  5
A5D
330
18
100
AcDbEntity
  8
1
  6
Continuous
100
AcDbLine
 10
205.8605550525311
 20
95.22708987126991
 30
0.0
 11
205.8605550525311
 21
96.52708987126992
 31
0.0
  0
LINE
  5
A5E
330
18
100
AcDbEntity
  8
1
  6
Continuous
100
AcDbLine
 10
209.0605550525311
 20
96.52708987126992
 30
0.0
 11
209.0605550525311
 21
95.22708987126991
 31
0.0
  0
LINE
  5
A5F
330
18
100
AcDbEntity
  8
1
  6
Continuous
100
AcDbLine
 10
215.0615760525311
 20
91.87708987126992
 30
0.0
 11
215.2139130525311
 21
91.6782059014088
 31
0.0
  0
LINE
  5
A60
330
18
100
AcDbEntity
  8
1
  6
Continuous
100
AcDbLine
 10
215.0615760525311
 20
92.87708987126991
 30
0.0
 11
215.0615760525311
 21
91.87708987126992
 31
0.0
  0
LINE
  5
A61
330
18
100
AcDbEntity
  8
1
  6
Continuous
100
AcDbLine
 10
214.9604800525311
 20
91.87718987126991
 30
0.0
 11
214.9605550525311
 21
91.87708987126992
 31
0.0
  0
LINE
  5
A62
330
18
100
AcDbEntity
  8
1
  6
Continuous
100
AcDbLine
 10
214.9605550525311
 20
91.87708987126992
 30
0.0
 11
215.2139130525311
 21
91.53927887126991
 31
0.0
  0
LINE
  5
A63
330
18
100
AcDbEntity
  8
1
  6
Continuous
100
AcDbLine
 10
214.9605550525311
 20
91.87708987126992
 30
0.0
 11
215.0615760525311
 21
91.87708987126992
 31
0.0
  0
LINE
  5
A65
330
18
100
AcDbEntity
  8
1
  6
Continuous
100
AcDbLine
 10
214.9605550525311
 20
91.87708987126992
 30
0.0
 11
214.9605550525311
 21
91.8769898712699
 31
0.0
  0
LINE
  5
A68
330
18
100
AcDbEntity
  8
1
  6
Continuous
100
AcDbLine
 10
214.9605550525311
 20
92.87708987126991
 30
0.0
 11
215.2139130525311
 21
92.87708987126991
 31
0.0
  0
LINE
  5
A6A
330
18
100
AcDbEntity
  8
1
  6
Continuous
100
AcDbLine
 10
215.0615760525311
 20
103.6770898712699
 30
0.0
 11
215.0615760525311
 21
107.3770898712699
 31
0.0
  0
LINE
  5
A6B
330
18
100
AcDbEntity
  8
1
  6
Continuous
100
AcDbLine
 10
215.1689810525311
 20
107.3770908712699
 30
0.0
 11
215.1689810525311
 21
103.3770908712699
 31
0.0
  0
LINE
  5
A6F
330
18
100
AcDbEntity
  8
1
  6
Continuous
100
AcDbLine
 10
214.960555052531
 20
103.3770908712699
 30
0.0
 11
215.1689810525311
 21
103.3770908712699
 31
0.0
  0
LINE
  5
A72
330
18
100
AcDbEntity
  8
1
  6
Continuous
100
AcDbLine
 10
230.8605560525311
 20
95.22708987126991
 30
0.0
 11
230.8605560525311
 21
96.52708987126992
 31
0.0
  0
LINE
  5
A73
330
18
100
AcDbEntity
  8
1
  6
Continuous
100
AcDbLine
 10
224.4605560525311
 20
107.3770908712699
 30
0.0
 11
215.0615760525311
 21
107.3770898712699
 31
0.0
  0
ARC
  5
A7A
330
18
100
AcDbEntity
  8
1
  6
Continuous
100
AcDbCircle
 10
224.4605560525311
 20
108.3770908712699
 30
0.0
 40
1.0
100
AcDbArc
 50
270.0
 51
0.0
  0
ARC
  5
A7B
330
18
100
AcDbEntity
  8
1
  6
Continuous
100
AcDbCircle
 10
236.9605560525311
 20
88.37708987126992
 30
0.0
 40
2.0
100
AcDbArc
 50
270.0
 51
0.0
  0
LINE
  5
A7C
330
18
100
AcDbEntity
  8
1
  6
Continuous
100
AcDbLine
 10
234.0605560525311
 20
96.52708987126992
 30
0.0
 11
234.0605560525311
 21
95.22708987126991
 31
0.0
  0
LINE
  5
A7D
330
18
100
AcDbEntity
  8
1
  6
Continuous
100
AcDbLine
 10
150.9605540373956
 20
137.3770928712699
 30
0.0
 11
150.9605540373957
 21
86.37708987126995
 31
0.0
  0
LINE
  5
A7F
330
18
100
AcDbEntity
  8
1
  6
Continuous
100
AcDbLine
 10
157.3891260373957
 20
120.3770918712699
 30
0.0
 11
157.3891260373957
 21
116.3770918712699
 31
0.0
  0
LINE
  5
A80
330
18
100
AcDbEntity
  8
1
  6
Continuous
100
AcDbLine
 10
154.5319830373957
 20
116.3770918712699
 30
0.0
 11
154.5319830373957
 21
120.3770918712699
 31
0.0
  0
LINE
  5
A81
330
18
100
AcDbEntity
  8
1
  6
Continuous
100
AcDbLine
 10
154.9605540373956
 20
120.0870918712699
 30
0.0
 11
154.9605540373956
 21
120.3770918712699
 31
0.0
  0
LINE
  5
A82
330
18
100
AcDbEntity
  8
1
  6
Continuous
100
AcDbLine
 10
156.9605540373957
 20
120.3770918712699
 30
0.0
 11
156.9605540373957
 21
120.0870918712699
 31
0.0
  0
ARC
  5
A83
330
18
100
AcDbEntity
  8
1
  6
Continuous
100
AcDbCircle
 10
155.2605540373957
 20
120.0770918712699
 30
0.0
 40
0.3
100
AcDbArc
 50
90.0
 51
180.0
  0
ARC
  5
A84
330
18
100
AcDbEntity
  8
1
  6
Continuous
100
AcDbCircle
 10
156.6605540373957
 20
120.0770918712699
 30
0.0
 40
0.3
100
AcDbArc
 50
0.0
 51
90.0
  0
LINE
  5
A87
330
18
100
AcDbEntity
  8
1
  6
Continuous
100
AcDbLine
 10
159.4605550373957
 20
116.3770918712699
 30
0.0
 11
156.9605540373957
 21
116.3770918712699
 31
0.0
  0
LINE
  5
AA2
330
18
100
AcDbEntity
  8
1
  6
Continuous
100
AcDbLine
 10
154.9605540373956
 20
116.3770918712699
 30
0.0
 11
150.9605540373957
 21
116.3770918712699
 31
0.0
  0
LINE
  5
AAA
330
18
100
AcDbEntity
  8
1
  6
Continuous
100
AcDbLine
 10
156.9605540373957
 20
120.0770918712699
 30
0.0
 11
156.9605540373957
 21
116.3770918712699
 31
0.0
  0
LINE
  5
AAB
330
18
100
AcDbEntity
  8
1
  6
Continuous
100
AcDbLine
 10
154.9605540373956
 20
120.0770918712699
 30
0.0
 11
154.9605540373956
 21
116.3770918712699
 31
0.0
  0
LINE
  5
AB3
330
18
100
AcDbEntity
  8
1
  6
Continuous
100
AcDbLine
 10
157.3891260373957
 20
120.3770918712699
 30
0.0
 11
154.5319830373957
 21
120.3770918712699
 31
0.0
  0
LINE
  5
AB7
330
18
100
AcDbEntity
  8
1
  6
Continuous
100
AcDbLine
 10
160.9605550373957
 20
137.3770928712699
 30
0.0
 11
150.9605540373956
 21
137.3770928712699
 31
0.0
  0
LINE
  5
AB8
330
18
100
AcDbEntity
  8
1
  6
Continuous
100
AcDbLine
 10
157.5319830373957
 20
134.3770928712699
 30
0.0
 11
154.3891260373957
 21
134.3770928712699
 31
0.0
  0
LINE
  5
ABA
330
18
100
AcDbEntity
  8
1
  6
Continuous
100
AcDbLine
 10
154.3891260373957
 20
134.3770928712699
 30
0.0
 11
154.3891260373957
 21
130.8770918712699
 31
0.0
  0
LINE
  5
ABB
330
18
100
AcDbEntity
  8
1
  6
Continuous
100
AcDbLine
 10
157.5319830373957
 20
130.8770918712699
 30
0.0
 11
157.5319830373957
 21
134.3770928712699
 31
0.0
  0
LINE
  5
ABC
330
18
100
AcDbEntity
  8
1
  6
Continuous
100
AcDbLine
 10
157.0605540373957
 20
130.8770918712699
 30
0.0
 11
157.0605540373957
 21
134.3770928712699
 31
0.0
  0
LINE
  5
ABD
330
18
100
AcDbEntity
  8
1
  6
Continuous
100
AcDbLine
 10
154.8605540373957
 20
134.3770928712699
 30
0.0
 11
154.8605540373957
 21
130.8770918712699
 31
0.0
  0
LINE
  5
ABE
330
18
100
AcDbEntity
  8
1
  6
Continuous
100
AcDbLine
 10
156.9605540373957
 20
133.8770928712699
 30
0.0
 11
156.9605540373957
 21
130.8770918712699
 31
0.0
  0
LINE
  5
ABF
330
18
100
AcDbEntity
  8
1
  6
Continuous
100
AcDbLine
 10
154.9605540373956
 20
130.8770918712699
 30
0.0
 11
154.9605540373956
 21
133.8770928712699
 31
0.0
  0
LINE
  5
AC2
330
18
100
AcDbEntity
  8
1
  6
Continuous
100
AcDbLine
 10
156.9605540373957
 20
131.8770928712699
 30
0.0
 11
154.9605540373956
 21
131.8770928712699
 31
0.0
  0
ARC
  5
AC6
330
18
100
AcDbEntity
  8
1
  6
Continuous
100
AcDbCircle
 10
155.9603060373957
 20
131.8766488712699
 30
0.0
 40
2.500427
100
AcDbArc
 50
63.87046700000146
 51
116.0927592245676
  0
LINE
  5
AC7
330
18
100
AcDbEntity
  8
1
  6
Continuous
100
AcDbLine
 10
156.9605540373957
 20
133.8770928712699
 30
0.0
 11
154.9605540373956
 21
133.8770928712699
 31
0.0
  0
LINE
  5
ACD
330
18
100
AcDbEntity
  8
1
  6
Continuous
100
AcDbLine
 10
236.9605560525311
 20
137.3770918712699
 30
0.0
 11
226.4605560525311
 21
137.3770918712699
 31
0.0
  0
ARC
  5
ACE
330
18
100
AcDbEntity
  8
1
  6
Continuous
100
AcDbCircle
 10
232.4605560525311
 20
128.5270918712699
 30
0.0
 40
1.6
100
AcDbArc
 50
0.0
 51
180.0
  0
ARC
  5
ACF
330
18
100
AcDbEntity
  8
1
  6
Continuous
100
AcDbCircle
 10
232.4605560525311
 20
127.2270918712699
 30
0.0
 40
1.6
100
AcDbArc
 50
180.0
 51
0.0
  0
LINE
  5
AD0
330
18
100
AcDbEntity
  8
1
  6
Continuous
100
AcDbLine
 10
224.9605560525311
 20
107.5110654674855
 30
0.0
 11
224.960556052531
 21
131.8770918712699
 31
0.0
  0
ARC
  5
AD1
330
18
100
AcDbEntity
  8
1
  6
Continuous
100
AcDbCircle
 10
207.4605550525311
 20
128.5270918712699
 30
0.0
 40
1.6
100
AcDbArc
 50
0.0
 51
180.0
  0
ARC
  5
AE0
330
18
100
AcDbEntity
  8
1
  6
Continuous
100
AcDbCircle
 10
215.4605550525311
 20
115.3770908712699
 30
0.0
 40
1.0
100
AcDbArc
 50
90.0
 51
180.0
  0
ARC
  5
AE1
330
18
100
AcDbEntity
  8
1
  6
Continuous
100
AcDbCircle
 10
207.4605550525311
 20
127.2270918712699
 30
0.0
 40
1.6
100
AcDbArc
 50
180.0
 51
0.0
  0
LINE
  5
AE2
330
18
100
AcDbEntity
  8
1
  6
Continuous
100
AcDbLine
 10
205.8605550525311
 20
127.2270918712699
 30
0.0
 11
205.8605550525311
 21
128.5270918712699
 31
0.0
  0
LINE
  5
AE3
330
18
100
AcDbEntity
  8
1
  6
Continuous
100
AcDbLine
 10
209.0605550525311
 20
128.5270918712699
 30
0.0
 11
209.0605550525311
 21
127.2270918712699
 31
0.0
  0
LINE
  5
AE4
330
18
100
AcDbEntity
  8
1
  6
Continuous
100
AcDbLine
 10
224.7521300525311
 20
116.3770908712699
 30
0.0
 11
224.7521300525311
 21
120.3770908712699
 31
0.0
  0
LINE
  5
B1C
330
18
100
AcDbEntity
  8
1
  6
Continuous
100
AcDbLine
 10
224.8595350525311
 20
116.3770908712699
 30
0.0
 11
215.4605550525311
 21
116.3770908712699
 31
0.0
  0
LINE
  5
B29
330
18
100
AcDbEntity
  8
1
  6
Continuous
100
AcDbLine
 10
224.8595350525311
 20
120.0770908712699
 30
0.0
 11
224.8595350525311
 21
116.3770908712699
 31
0.0
  0
LINE
  5
B2D
330
18
100
AcDbEntity
  8
1
  6
Continuous
100
AcDbLine
 10
224.9605560525311
 20
120.3770908712699
 30
0.0
 11
224.7521300525311
 21
120.3770908712699
 31
0.0
  0
LINE
  5
B2F
330
18
100
AcDbEntity
  8
1
  6
Continuous
100
AcDbLine
 10
230.8605560525311
 20
127.2270918712699
 30
0.0
 11
230.8605560525311
 21
128.5270918712699
 31
0.0
  0
LINE
  5
B30
330
18
100
AcDbEntity
  8
1
  6
Continuous
100
AcDbLine
 10
202.9605550525311
 20
137.3770918712699
 30
0.0
 11
224.9605560525311
 21
137.3770918712699
 31
0.0
  0
ARC
  5
B31
330
18
100
AcDbEntity
  8
1
  6
Continuous
100
AcDbCircle
 10
202.9605550525311
 20
135.3770918712699
 30
0.0
 40
2.0
100
AcDbArc
 50
90.0
 51
180.0
  0
LINE
  5
B33
330
18
100
AcDbEntity
  8
1
  6
Continuous
100
AcDbLine
 10
224.9605560525311
 20
134.3770918712699
 30
0.0
 11
224.9605560525311
 21
137.3770918712699
 31
0.0
  0
LINE
  5
B34
330
18
100
AcDbEntity
  8
1
  6
Continuous
100
AcDbLine
 10
224.7071980525312
 20
134.3770918712699
 30
0.0
 11
224.7071980525312
 21
130.8770918712699
 31
0.0
  0
LINE
  5
B36
330
18
100
AcDbEntity
  8
1
  6
Continuous
100
AcDbLine
 10
224.960556052531
 20
130.8770918712699
 30
0.0
 11
224.7071980525312
 21
130.8770918712699
 31
0.0
  0
LINE
  5
B37
330
18
100
AcDbEntity
  8
1
  6
Continuous
100
AcDbLine
 10
224.8595350525311
 20
131.8770918712699
 30
0.0
 11
224.7071980525311
 21
132.075975841131
 31
0.0
  0
LINE
  5
B38
330
18
100
AcDbEntity
  8
1
  6
Continuous
100
AcDbLine
 10
224.8595350525311
 20
130.8770918712699
 30
0.0
 11
224.8595350525311
 21
131.8770918712699
 31
0.0
  0
LINE
  5
B39
330
18
100
AcDbEntity
  8
1
  6
Continuous
100
AcDbLine
 10
224.9606310525311
 20
131.8769918712699
 30
0.0
 11
224.9605560525311
 21
131.8770918712699
 31
0.0
  0
LINE
  5
B3A
330
18
100
AcDbEntity
  8
1
  6
Continuous
100
AcDbLine
 10
224.9605560525311
 20
131.8770918712699
 30
0.0
 11
224.7071980525312
 21
132.2149018712699
 31
0.0
  0
LINE
  5
B3B
330
18
100
AcDbEntity
  8
1
  6
Continuous
100
AcDbLine
 10
224.8595350525311
 20
131.8770918712699
 30
0.0
 11
224.9605560525311
 21
131.8770918712699
 31
0.0
  0
LINE
  5
B3D
330
18
100
AcDbEntity
  8
1
  6
Continuous
100
AcDbLine
 10
224.9605560525311
 20
131.8770918712699
 30
0.0
 11
224.9605560525311
 21
131.8771918712699
 31
0.0
  0
LINE
  5
B3F
330
18
100
AcDbEntity
  8
1
  6
Continuous
100
AcDbLine
 10
224.9605560525311
 20
134.3770918712699
 30
0.0
 11
224.7071980525312
 21
134.3770918712699
 31
0.0
  0
ARC
  5
B40
330
18
100
AcDbEntity
  8
1
  6
Continuous
100
AcDbCircle
 10
226.4605560525311
 20
136.3770918712699
 30
0.0
 40
1.0
100
AcDbArc
 50
90.0
 51
180.0
  0
LINE
  5
B41
330
18
100
AcDbEntity
  8
1
  6
Continuous
100
AcDbLine
 10
234.0605560525311
 20
128.5270918712699
 30
0.0
 11
234.0605560525311
 21
127.2270918712699
 31
0.0
  0
ARC
  5
B42
330
18
100
AcDbEntity
  8
1
  6
Continuous
100
AcDbCircle
 10
236.9605560525311
 20
135.3770918712699
 30
0.0
 40
2.0
100
AcDbArc
 50
0.0
 51
90.0
  0
ARC
  5
B45
330
18
100
AcDbEntity
  8
1
  6
Continuous
100
AcDbCircle
 10
96.26073003739573
 20
49.38293307821194
 30
0.0
 40
5.0
100
AcDbArc
 50
270.0
 51
224.4270040008055
  0
CIRCLE
  5
B46
330
18
100
AcDbEntity
  8
1
  6
Continuous
100
AcDbCircle
 10
96.26073003739573
 20
49.38293307821194
 30
0.0
 40
3.500000000000003
  0
LINE
  5
B48
330
18
100
AcDbEntity
  8
1
  6
Continuous
100
AcDbLine
 10
115.2607310373957
 20
176.3714005609499
 30
0.0
 11
77.26072903739572
 21
176.3714005609499
 31
0.0
  0
ARC
  5
B49
330
18
100
AcDbEntity
  8
1
  6
Continuous
100
AcDbCircle
 10
96.26073003739573
 20
171.3713995609499
 30
0.0
 40
5.000001000000017
100
AcDbArc
 50
90.0
 51
44.42700881461302
  0
CIRCLE
  5
B4A
330
18
100
AcDbEntity
  8
1
  6
Continuous
100
AcDbCircle
 10
96.26073003739573
 20
171.3713995609499
 30
0.0
 40
3.500001
  0
LINE
  5
B4C
330
18
100
AcDbEntity
  8
1
  6
Continuous
100
AcDbLine
 10
29.46055403739569
 20
86.37708987126993
 30
0.0
 11
39.46055503739568
 21
86.37708987126995
 31
0.0
  0
LINE
  5
B50
330
18
100
AcDbEntity
  8
1
  6
Continuous
100
AcDbLine
 10
101.2607300373957
 20
91.87708987126994
 30
0.0
 11
101.2607300373957
 21
131.8770928712699
 31
0.0
  0
LINE
  5
B54
330
18
100
AcDbEntity
  8
1
  6
Continuous
100
AcDbLine
 10
154.3891260373957
 20
130.8770918712699
 30
0.0
 11
157.5319830373957
 21
130.8770918712699
 31
0.0
  0
LINE
  5
B55
330
18
100
AcDbEntity
  8
1
  6
Continuous
100
AcDbLine
 10
154.3891260373957
 20
92.87709087126996
 30
0.0
 11
157.5319830373957
 21
92.87709087126996
 31
0.0
  0
ARC
  5
E72
330
18
100
AcDbEntity
  8
1
  6
Continuous
100
AcDbCircle
 10
54.79571459631973
 20
155.9423012808635
 30
0.0
 40
48.54299968834242
100
AcDbArc
 50
240.5988228788188
 51
246.4979666350393
  0
ARC
  5
E7E
330
18
100
AcDbEntity
  8
1
  6
Continuous
100
AcDbCircle
 10
31.07279002230211
 20
100.186919422963
 30
0.0
 40
12.05710444447745
100
AcDbArc
 50
48.98780732024961
 51
68.77580168818544
  0
ARC
  5
E80
330
18
100
AcDbEntity
  8
1
  6
Continuous
100
AcDbCircle
 10
37.97903980151966
 20
108.1939557954178
 30
0.0
 40
1.483845624798938
100
AcDbArc
 50
3.211768585731926
 51
47.32235545314305
  0
LINE
  5
E91
330
18
100
AcDbEntity
  8
4
  6
CENTER
 48
0.1
100
AcDbLine
 10
83.76072903739572
 20
91.62709087126991
 30
0.0
 11
83.76072903739572
 21
100.1270908712699
 31
0.0
  0
LINE
  5
E98
330
18
100
AcDbEntity
  8
4
  6
CENTER
 48
0.1
100
AcDbLine
 10
87.36072903739563
 20
95.87709087126992
 30
0.0
 11
80.16072903739575
 21
95.87709087126992
 31
0.0
  0
ARC
  5
EBA
330
18
100
AcDbEntity
  8
1
  6
Continuous
100
AcDbCircle
 10
95.59984762425164
 20
116.2733708031684
 30
0.0
 40
7.492059951879004
100
AcDbArc
 50
295.4356571493292
 51
313.4007472290635
  0
ARC
  5
EBB
330
18
100
AcDbEntity
  8
1
  6
Continuous
100
AcDbCircle
 10
96.92108158194594
 20
116.2733708031684
 30
0.0
 40
7.492059951879004
100
AcDbArc
 50
226.5992527709364
 51
244.5643428506708
  0
LINE
  5
EC1
330
18
100
AcDbEntity
  8
1
  6
Continuous
100
AcDbLine
 10
93.70323268651123
 20
109.5075440827219
 30
0.0
 11
95.82468560309882
 21
108.4770894902498
 31
0.0
  0
LINE
  5
EC9
330
18
100
AcDbEntity
  8
1
  6
Continuous
100
AcDbLine
 10
95.82468560309882
 20
108.4770894902498
 30
0.0
 11
96.69624360309878
 21
108.4770894902498
 31
0.0
  0
ARC
  5
ECA
330
18
100
AcDbEntity
  8
1
  6
Continuous
100
AcDbCircle
 10
96.26046460309886
 20
108.6181503774733
 30
0.0
 40
0.3410595699400146
100
AcDbArc
 50
240.7807340404572
 51
299.2192659595247
  0
LINE
  5
ECB
330
18
100
AcDbEntity
  8
1
  6
Continuous
100
AcDbLine
 10
95.82468560309882
 20
108.4770894902498
 30
0.0
 11
96.0939752978307
 21
108.3204879151456
 31
0.0
  0
LINE
  5
ECC
330
18
100
AcDbEntity
  8
1
  6
Continuous
100
AcDbLine
 10
96.69624360309878
 20
108.4770894902498
 30
0.0
 11
96.42695390836692
 21
108.3204879151456
 31
0.0
  0
ARC
  5
ECD
330
18
100
AcDbEntity
  8
1
  6
Continuous
100
AcDbCircle
 10
96.2712801183965
 20
108.4082380761213
 30
0.0
 40
0.131592477825096
100
AcDbArc
 50
219.6149350227613
 51
265.2855970393219
  0
ARC
  5
ECE
330
18
100
AcDbEntity
  8
1
  6
Continuous
100
AcDbCircle
 10
129.4425128518089
 20
135.7938570917733
 30
0.0
 40
43.14673865808261
100
AcDbArc
 50
219.2789062747198
 51
219.5427356026647
  0
ARC
  5
ECF
330
18
100
AcDbEntity
  8
1
  6
Continuous
100
AcDbCircle
 10
96.24964919959314
 20
108.4082380761213
 30
0.0
 40
0.131592477825096
100
AcDbArc
 50
274.714402960678
 51
320.3850649772387
  0
ARC
  5
ED0
330
18
100
AcDbEntity
  8
1
  6
Continuous
100
AcDbCircle
 10
63.07841646618067
 20
135.7938570917733
 30
0.0
 40
43.14673865808261
100
AcDbArc
 50
320.4572643973352
 51
320.7210937252801
  0
LINE
  5
ED1
330
18
100
AcDbEntity
  8
1
  6
Continuous
100
AcDbLine
 10
98.81769651968635
 20
109.5075440827219
 30
0.0
 11
96.69624360309878
 21
108.4770894902498
 31
0.0
  0
ARC
  5
EDF
330
18
100
AcDbEntity
  8
1
  6
Continuous
100
AcDbCircle
 10
92.76770825113986
 20
111.9662358015877
 30
0.0
 40
1.509998127886886
100
AcDbArc
 50
183.4612683088367
 51
228.8111625936906
  0
ARC
  5
EE7
330
18
100
AcDbEntity
  8
1
  6
Continuous
100
AcDbCircle
 10
99.75322095505772
 20
111.9662358015877
 30
0.0
 40
1.509998127886886
100
AcDbArc
 50
311.1888374063092
 51
356.5387316911631
  0
ARC
  5
F75
330
18
100
AcDbEntity
  8
1
  6
Continuous
100
AcDbCircle
 10
159.3483188405106
 20
100.1869209501051
 30
0.0
 40
12.05710444447745
100
AcDbArc
 50
111.2241983118145
 51
131.0121926797503
  0
ARC
  5
F7D
330
18
100
AcDbEntity
  8
1
  6
Continuous
100
AcDbCircle
 10
152.4420690612931
 20
108.19395732256
 30
0.0
 40
1.483845624798938
100
AcDbArc
 50
132.6776445468569
 51
176.788231414268
  0
ARC
  5
F96
330
18
100
AcDbEntity
  8
1
  6
Continuous
100
AcDbCircle
 10
135.625394266493
 20
155.9423028080056
 30
0.0
 40
48.54299968834242
100
AcDbArc
 50
293.5020333649605
 51
299.4011771211811
  0
LINE
  5
FCD
330
18
100
AcDbEntity
  8
1
  6
Continuous
100
AcDbLine
 10
217.4033237905201
 20
114.2466377367921
 30
0.0
 11
219.5247767071077
 21
115.2770923292642
 31
0.0
  0
ARC
  5
FD2
330
18
100
AcDbEntity
  8
1
  6
Continuous
100
AcDbCircle
 10
220.6211726859548
 20
107.4808110163456
 30
0.0
 40
7.492059951879004
100
AcDbArc
 50
115.4356571493291
 51
133.4007472290634
  0
ARC
  5
FD3
330
18
100
AcDbEntity
  8
1
  6
Continuous
100
AcDbCircle
 10
216.4677993551487
 20
111.7879460179263
 30
0.0
 40
1.509998127886886
100
AcDbArc
 50
131.1888374063092
 51
176.5387316911632
  0
ARC
  5
FD6
330
18
100
AcDbEntity
  8
1
  6
Continuous
100
AcDbCircle
 10
223.4533120590666
 20
111.7879460179263
 30
0.0
 40
1.509998127886886
100
AcDbArc
 50
3.461268308836717
 51
48.81116259369072
  0
ARC
  5
FD7
330
18
100
AcDbEntity
  8
1
  6
Continuous
100
AcDbCircle
 10
219.2999387282605
 20
107.4808110163456
 30
0.0
 40
7.492059951879004
100
AcDbArc
 50
46.5992527709365
 51
64.56434285067081
  0
LINE
  5
FD8
330
18
100
AcDbEntity
  8
1
  6
Continuous
100
AcDbLine
 10
222.5177876236952
 20
114.2466377367921
 30
0.0
 11
220.3963347071077
 21
115.2770923292642
 31
0.0
  0
ARC
  5
FD9
330
18
100
AcDbEntity
  8
1
  6
Continuous
100
AcDbCircle
 10
186.7785075701895
 20
87.96032472774072
 30
0.0
 40
43.14673865808261
100
AcDbArc
 50
39.2789062747199
 51
39.54273560266475
  0
ARC
  5
FDA
330
18
100
AcDbEntity
  8
1
  6
Continuous
100
AcDbCircle
 10
219.949740303602
 20
115.3459437433927
 30
0.0
 40
0.131592477825096
100
AcDbArc
 50
39.61493502276132
 51
85.28559703932193
  0
ARC
  5
FDB
330
18
100
AcDbEntity
  8
1
  6
Continuous
100
AcDbCircle
 10
253.1426039558178
 20
87.96032472774072
 30
0.0
 40
43.14673865808261
100
AcDbArc
 50
140.4572643973352
 51
140.72109372528
  0
ARC
  5
FDC
330
18
100
AcDbEntity
  8
1
  6
Continuous
100
AcDbCircle
 10
219.9713712224053
 20
115.3459437433927
 30
0.0
 40
0.131592477825096
100
AcDbArc
 50
94.71440296067806
 51
140.3850649772386
  0
LINE
  5
FDD
330
18
100
AcDbEntity
  8
1
  6
Continuous
100
AcDbLine
 10
220.3963347071077
 20
115.2770923292642
 30
0.0
 11
220.1270450123757
 21
115.4336939043684
 31
0.0
  0
LINE
  5
FDE
330
18
100
AcDbEntity
  8
1
  6
Continuous
100
AcDbLine
 10
219.5247767071077
 20
115.2770923292642
 30
0.0
 11
219.7940664018396
 21
115.4336939043684
 31
0.0
  0
ARC
  5
FDF
330
18
100
AcDbEntity
  8
1
  6
Continuous
100
AcDbCircle
 10
219.9605557071077
 20
115.1360314420407
 30
0.0
 40
0.3410595699400146
100
AcDbArc
 50
60.78073404047533
 51
119.2192659595427
  0
LINE
  5
FE5
330
18
100
AcDbEntity
  8
1
  6
Continuous
100
AcDbLine
 10
219.5247767071077
 20
115.2770923292642
 30
0.0
 11
220.3963347071077
 21
115.2770923292642
 31
0.0
  0
LINE
  5
11F7
330
18
100
AcDbEntity
  8
4
  6
CENTER
 48
0.1
100
AcDbLine
 10
108.7607300373957
 20
91.62709087126991
 30
0.0
 11
108.7607300373957
 21
100.1270908712699
 31
0.0
  0
LINE
  5
11F8
330
18
100
AcDbEntity
  8
4
  6
CENTER
 48
0.1
100
AcDbLine
 10
112.3607300373956
 20
95.87709087126992
 30
0.0
 11
105.1607300373957
 21
95.87709087126992
 31
0.0
  0
LINE
  5
11FB
330
18
100
AcDbEntity
  8
4
  6
CENTER
 48
0.1
100
AcDbLine
 10
83.76072903739572
 20
123.6270918712699
 30
0.0
 11
83.76072903739572
 21
132.1270918712699
 31
0.0
  0
LINE
  5
11FC
330
18
100
AcDbEntity
  8
4
  6
CENTER
 48
0.1
100
AcDbLine
 10
87.36072903739563
 20
127.8770918712699
 30
0.0
 11
80.16072903739575
 21
127.8770918712699
 31
0.0
  0
LINE
  5
11FD
330
18
100
AcDbEntity
  8
4
  6
CENTER
 48
0.1
100
AcDbLine
 10
112.3607300373956
 20
127.8770918712699
 30
0.0
 11
105.1607300373957
 21
127.8770918712699
 31
0.0
  0
LINE
  5
11FE
330
18
100
AcDbEntity
  8
4
  6
CENTER
 48
0.1
100
AcDbLine
 10
108.7607300373957
 20
123.6270918712699
 30
0.0
 11
108.7607300373957
 21
132.1270918712699
 31
0.0
  0
LINE
  5
1200
330
18
100
AcDbEntity
  8
4
  6
CENTER
 48
0.1
100
AcDbLine
 10
162.4605550373957
 20
127.8770928712699
 30
0.0
 11
157.9605550373957
 21
127.8770928712699
 31
0.0
  0
LINE
  5
1202
330
18
100
AcDbEntity
  8
4
  6
CENTER
 48
0.1
100
AcDbLine
 10
162.4605550373957
 20
95.87709187126998
 30
0.0
 11
157.9605550373957
 21
95.87709187126998
 31
0.0
  0
LINE
  5
1203
330
18
100
AcDbEntity
  8
4
  6
CENTER
 48
0.1
100
AcDbLine
 10
32.46055403739569
 20
127.8770918712699
 30
0.0
 11
27.96055403739569
 21
127.8770918712699
 31
0.0
  0
LINE
  5
1204
330
18
100
AcDbEntity
  8
4
  6
CENTER
 48
0.1
100
AcDbLine
 10
32.46055403739569
 20
95.87709087126992
 30
0.0
 11
27.96055403739569
 21
95.87709087126992
 31
0.0
  0
LINE
  5
1206
330
18
100
AcDbEntity
  8
4
  6
CENTER
 48
0.1
100
AcDbLine
 10
108.7607300373957
 20
177.8714005609499
 30
0.0
 11
108.7607300373957
 21
173.3714005609499
 31
0.0
  0
LINE
  5
1208
330
18
100
AcDbEntity
  8
4
  6
CENTER
 48
0.1
100
AcDbLine
 10
83.76073003739572
 20
177.8714005609499
 30
0.0
 11
83.76073003739572
 21
173.3714005609499
 31
0.0
  0
LINE
  5
1209
330
18
100
AcDbEntity
  8
4
  6
CENTER
 48
0.1
100
AcDbLine
 10
108.7607300373957
 20
47.38293307821192
 30
0.0
 11
108.7607300373957
 21
42.88293307821192
 31
0.0
  0
LINE
  5
120A
330
18
100
AcDbEntity
  8
4
  6
CENTER
 48
0.1
100
AcDbLine
 10
83.76073003739572
 20
47.38293307821192
 30
0.0
 11
83.76073003739572
 21
42.88293307821192
 31
0.0
  0
LINE
  5
120B
330
18
100
AcDbEntity
  8
4
  6
CENTER
 48
0.1
100
AcDbLine
 10
236.060556052531
 20
127.8770918712699
 30
0.0
 11
228.8605560525311
 21
127.8770918712699
 31
0.0
  0
LINE
  5
120C
330
18
100
AcDbEntity
  8
4
  6
CENTER
 48
0.1
100
AcDbLine
 10
232.4605560525311
 20
123.6270918712699
 30
0.0
 11
232.4605560525311
 21
132.1270918712698
 31
0.0
  0
LINE
  5
120D
330
18
100
AcDbEntity
  8
4
  6
CENTER
 48
0.1
100
AcDbLine
 10
236.060556052531
 20
95.87709087126992
 30
0.0
 11
228.8605560525311
 21
95.87709087126992
 31
0.0
  0
LINE
  5
120E
330
18
100
AcDbEntity
  8
4
  6
CENTER
 48
0.1
100
AcDbLine
 10
232.4605560525311
 20
91.62709087126991
 30
0.0
 11
232.4605560525311
 21
100.1270908712699
 31
0.0
  0
LINE
  5
120F
330
18
100
AcDbEntity
  8
4
  6
CENTER
 48
0.1
100
AcDbLine
 10
211.060555052531
 20
95.87709087126992
 30
0.0
 11
203.8605550525311
 21
95.87709087126992
 31
0.0
  0
LINE
  5
1210
330
18
100
AcDbEntity
  8
4
  6
CENTER
 48
0.1
100
AcDbLine
 10
207.4605550525311
 20
91.62709087126991
 30
0.0
 11
207.4605550525311
 21
100.1270908712699
 31
0.0
  0
LINE
  5
1211
330
18
100
AcDbEntity
  8
4
  6
CENTER
 48
0.1
100
AcDbLine
 10
211.060555052531
 20
127.8770918712699
 30
0.0
 11
203.8605550525311
 21
127.8770918712699
 31
0.0
  0
LINE
  5
1212
330
18
100
AcDbEntity
  8
4
  6
CENTER
 48
0.1
100
AcDbLine
 10
207.4605550525311
 20
123.6270918712699
 30
0.0
 11
207.4605550525311
 21
132.1270918712698
 31
0.0
  0
LINE
  5
12F5
330
18
100
AcDbEntity
  8
4
  6
CENTER
 48
0.25
100
AcDbLine
 10
96.26073004584299
 20
83.37708987126994
 30
0.0
 11
96.26073017687838
 21
140.3770928712699
 31
0.0
  0
LINE
  5
12F6
330
18
100
AcDbEntity
  8
4
  6
CENTER
 48
0.25
100
AcDbLine
 10
219.9605550609784
 20
83.37708987126994
 30
0.0
 11
219.9605551920138
 21
140.3770928712699
 31
0.0
  0
LINE
  5
13B5
330
18
100
AcDbEntity
  8
4
  6
CENTER
 48
0.25
100
AcDbLine
 10
89.76073003739577
 20
171.3713995609499
 30
0.0
 11
102.7607300373957
 21
171.3713995609499
 31
0.0
  0
LINE
  5
13B6
330
18
100
AcDbEntity
  8
4
  6
CENTER
 48
0.25
100
AcDbLine
 10
96.26073003739564
 20
164.8713995609499
 30
0.0
 11
96.26073003739577
 21
177.8713995609499
 31
0.0
  0
ARC
  5
186D
330
18
100
AcDbEntity
  8
1
  6
Continuous
100
AcDbCircle
 10
89.73704163866562
 20
103.6770908712699
 30
0.0
 40
1.624708398730091
100
AcDbArc
 50
350.207599843211
 51
0.0000000000008142
  0
ARC
  5
186E
330
18
100
AcDbEntity
  8
1
  6
Continuous
100
AcDbCircle
 10
91.30997207326764
 20
103.405613465688
 30
0.0
 40
0.0285222774276122
100
AcDbArc
 50
270.0
 51
350.2075998432177
  0
ARC
  5
1870
330
18
100
AcDbEntity
  8
1
  6
Continuous
100
AcDbCircle
 10
101.2114880015237
 20
103.405613465688
 30
0.0
 40
0.0285222774276122
100
AcDbArc
 50
189.7924001567822
 51
270.0
  0
ARC
  5
1871
330
18
100
AcDbEntity
  8
1
  6
Continuous
100
AcDbCircle
 10
102.7844184361258
 20
103.6770908712699
 30
0.0
 40
1.624708398730091
100
AcDbArc
 50
179.9999999999991
 51
189.7924001567889
  0
ARC
  5
1875
330
18
100
AcDbEntity
  8
1
  6
Continuous
100
AcDbCircle
 10
89.73704163866562
 20
120.0770918712699
 30
0.0
 40
1.624708398730091
100
AcDbArc
 50
359.9999999999992
 51
9.79240015678897
  0
ARC
  5
1876
330
18
100
AcDbEntity
  8
1
  6
Continuous
100
AcDbCircle
 10
91.30997207326764
 20
120.3485692768518
 30
0.0
 40
0.0285222774276122
100
AcDbArc
 50
9.79240015678225
 51
90.00000000000005
  0
ARC
  5
1878
330
18
100
AcDbEntity
  8
1
  6
Continuous
100
AcDbCircle
 10
101.2114880015237
 20
120.3485692768518
 30
0.0
 40
0.0285222774276122
100
AcDbArc
 50
90.00000000000005
 51
170.2075998432176
  0
ARC
  5
1879
330
18
100
AcDbEntity
  8
1
  6
Continuous
100
AcDbCircle
 10
102.7844184361258
 20
120.0770918712699
 30
0.0
 40
1.624708398730091
100
AcDbArc
 50
170.207599843211
 51
180.0000000000007
  0
ARC
  5
187C
330
18
100
AcDbEntity
  8
1
  6
Continuous
100
AcDbCircle
 10
226.4842434512612
 20
120.0770908712699
 30
0.0
 40
1.624708398730091
100
AcDbArc
 50
170.207599843211
 51
180.0000000000007
  0
ARC
  5
187D
330
18
100
AcDbEntity
  8
1
  6
Continuous
100
AcDbCircle
 10
224.9113130166592
 20
120.3485682768518
 30
0.0
 40
0.0285222774276122
100
AcDbArc
 50
90.00000000000005
 51
170.2075998432176
  0
ARC
  5
187E
330
18
100
AcDbEntity
  8
1
  6
Continuous
100
AcDbCircle
 10
213.4368676538011
 20
103.6770898712699
 30
0.0
 40
1.624708398730091
100
AcDbArc
 50
350.207599843211
 51
0.0000000000008142
  0
ARC
  5
187F
330
18
100
AcDbEntity
  8
1
  6
Continuous
100
AcDbCircle
 10
215.0097980884031
 20
103.405612465688
 30
0.0
 40
0.0285222774276122
100
AcDbArc
 50
270.0
 51
350.2075998432177
  0
ENDSEC
  0
SECTION
  2
OBJECTS
  0
DICTIONARY
  5
C
330
0
100
AcDbDictionary
281
     1
  3
ACAD_CIP_PREVIOUS_PRODUCT_INFO
350
18E2
  3
ACAD_COLOR
350
18C5
  3
ACAD_DETAILVIEWSTYLE
350
18DE
  3
ACAD_GROUP
350
D
  3
ACAD_LAYOUT
350
94
  3
ACAD_MATERIAL
350
1893
  3
ACAD_MLEADERSTYLE
350
18DA
  3
ACAD_MLINESTYLE
350
1B
  3
ACAD_PLOTSETTINGS
350
95
  3
ACAD_PLOTSTYLENAME
350
1891
  3
ACAD_SCALELIST
350
18C8
  3
ACAD_SECTIONVIEWSTYLE
350
18DC
  3
ACAD_TABLESTYLE
350
18C6
  3
ACAD_VISUALSTYLE
350
18AC
  3
ACDB_RECOMPOSE_DATA
350
1900
  3
AcDbVariableDictionary
350
18F3
  3
CONTENTDICTIONARY
350
3D
  3
DWGPROPS
350
1901
  0
DICTIONARY
  5
18E3
330
E
100
AcDbDictionary
280
     1
281
     1
  3
ADSK_XREC_LAYER_RECONCILED
360
18E4
  0
DICTIONARY
  5
18E5
330
4E
100
AcDbDictionary
280
     1
281
     1
  3
ADSK_XREC_LAYER_RECONCILED
360
18E6
  0
DICTIONARY
  5
18E7
330
4F
100
AcDbDictionary
280
     1
281
     1
  3
ADSK_XREC_LAYER_RECONCILED
360
18E8
  0
DICTIONARY
  5
18E9
330
50
100
AcDbDictionary
280
     1
281
     1
  3
ADSK_XREC_LAYER_RECONCILED
360
18EA
  0
DICTIONARY
  5
18EB
330
51
100
AcDbDictionary
280
     1
281
     1
  3
ADSK_XREC_LAYER_RECONCILED
360
18EC
  0
DICTIONARY
  5
18ED
330
52
100
AcDbDictionary
280
     1
281
     1
  3
ADSK_XREC_LAYER_RECONCILED
360
18EE
  0
DICTIONARY
  5
18EF
330
53
100
AcDbDictionary
280
     1
281
     1
  3
ADSK_XREC_LAYER_RECONCILED
360
18F0
  0
DICTIONARY
  5
18F1
330
54
100
AcDbDictionary
280
     1
281
     1
  3
ADSK_XREC_LAYER_RECONCILED
360
18F2
  0
DICTIONARY
  5
188C
330
18
100
AcDbDictionary
281
     1
  3
ACAD_LAYOUTSELFREF
350
188D
  0
DICTIONARY
  5
188A
330
15
100
AcDbDictionary
281
     1
  3
ACAD_LAYOUTSELFREF
350
188B
  0
XRECORD
  5
18E2
102
{ACAD_REACTORS
330
C
102
}
330
C
100
AcDbXrecord
280
     1
300
ACDLT
300
2014
300
ACDLT_F_S
  0
DICTIONARY
  5
18C5
102
{ACAD_REACTORS
330
C
102
}
330
C
100
AcDbDictionary
281
     1
  0
DICTIONARY
  5
18DE
102
{ACAD_REACTORS
330
C
102
}
330
C
100
AcDbDictionary
281
     1
  3
Imperial24
350
18DF
  0
DICTIONARY
  5
D
102
{ACAD_REACTORS
330
C
102
}
330
C
100
AcDbDictionary
281
     1
  0
DICTIONARY
  5
94
102
{ACAD_REACTORS
330
C
102
}
330
C
100
AcDbDictionary
281
     1
  3
Model
350
18E0
  3
レイアウト1
350
18E1
  0
DICTIONARY
  5
1893
102
{ACAD_REACTORS
330
C
102
}
330
C
100
AcDbDictionary
281
     1
  3
ByBlock
350
189C
  3
ByLayer
350
1894
  3
Global
350
18A4
  0
DICTIONARY
  5
18DA
102
{ACAD_REACTORS
330
C
102
}
330
C
100
AcDbDictionary
281
     1
  3
Standard
350
18DB
  0
DICTIONARY
  5
1B
102
{ACAD_REACTORS
330
C
102
}
330
C
100
AcDbDictionary
281
     1
  3
STANDARD
350
1C
  0
DICTIONARY
  5
95
102
{ACAD_REACTORS
330
C
102
}
330
C
100
AcDbDictionary
281
     1
  0
ACDBDICTIONARYWDFLT
  5
1891
102
{ACAD_REACTORS
330
C
102
}
330
C
100
AcDbDictionary
281
     1
  3
Normal
350
1892
100
AcDbDictionaryWithDefault
340
1892
  0
DICTIONARY
  5
18C8
102
{ACAD_REACTORS
330
C
102
}
330
C
100
AcDbDictionary
281
     1
  3
A0
350
18C9
  3
A1
350
18CA
  3
A2
350
18CB
  3
A3
350
18CC
  3
A4
350
18CD
  3
A5
350
18CE
  3
A6
350
18CF
  3
A7
350
18D0
  3
A8
350
18D1
  3
A9
350
18D2
  3
B0
350
18D3
  3
B1
350
18D4
  3
B2
350
18D5
  3
B3
350
18D6
  3
B4
350
18D7
  3
B5
350
18D8
  3
B6
350
18D9
  0
DICTIONARY
  5
18DC
102
{ACAD_REACTORS
330
C
102
}
330
C
100
AcDbDictionary
281
     1
  3
Imperial24
350
18DD
  0
DICTIONARY
  5
18C6
102
{ACAD_REACTORS
330
C
102
}
330
C
100
AcDbDictionary
281
     1
  3
Standard
350
18C7
  0
DICTIONARY
  5
18AC
102
{ACAD_REACTORS
330
C
102
}
330
C
100
AcDbDictionary
281
     1
  3
2dWireframe
350
18B2
  3
Basic
350
18B1
  3
Brighten
350
18B8
  3
ColorChange
350
18BC
  3
Conceptual
350
18B5
  3
Dim
350
18B7
  3
EdgeColorOff
350
18C4
  3
Facepattern
350
18BB
  3
Flat
350
18AD
  3
FlatWithEdges
350
18AE
  3
Gouraud
350
18AF
  3
GouraudWithEdges
350
18B0
  3
Hidden
350
18B4
  3
JitterOff
350
18C2
  3
Linepattern
350
18BA
  3
OverhangOff
350
18C3
  3
Realistic
350
18B6
  3
Shaded
350
18C1
  3
Shaded with edges
350
18C0
  3
Shades of Gray
350
18BD
  3
Sketchy
350
18BE
  3
Thicken
350
18B9
  3
Wireframe
350
18B3
  3
X-Ray
350
18BF
  0
XRECORD
  5
1900
102
{ACAD_REACTORS
330
C
102
}
330
C
100
AcDbXrecord
280
     1
 90
        1
330
18C7
  0
DICTIONARY
  5
18F3
102
{ACAD_REACTORS
330
C
102
}
330
C
100
AcDbDictionary
281
     1
  3
CANNOSCALE
350
18F8
  3
CMLEADERSTYLE
350
18F5
  3
CTABLESTYLE
350
18F4
  3
CVIEWDETAILSTYLE
350
18F6
  3
CVIEWSECTIONSTYLE
350
18F7
  3
DIMASSOC
350
18FB
  3
INDEXCTL
350
18FA
  3
SORTENTS
350
18F9
  3
XCLIPFRAME
350
18FC
  0
DICTIONARY
  5
3D
102
{ACAD_REACTORS
330
C
102
}
330
C
100
AcDbDictionary
281
     1
  0
XRECORD
  5
1901
102
{ACAD_REACTORS
330
C
102
}
330
C
100
AcDbXrecord
280
     1
  1
DWGPROPS COOKIE
  2

  3

  4

  6

  7

  8
Yoshitsune
  9

300
=
301
=
302
=
303
=
304
=
305
=
306
=
307
=
308
=
309
=
 40
0.120379375
 41
2456469.454041632
 42
2457192.617044514
  1

 90
        0
  0
XRECORD
  5
18E4
102
{ACAD_REACTORS
330
18E3
102
}
330
18E3
100
AcDbXrecord
280
     1
290
     1
  0
XRECORD
  5
18E6
102
{ACAD_REACTORS
330
18E5
102
}
330
18E5
100
AcDbXrecord
280
     1
290
     1
  0
XRECORD
  5
18E8
102
{ACAD_REACTORS
330
18E7
102
}
330
18E7
100
AcDbXrecord
280
     1
290
     1
  0
XRECORD
  5
18EA
102
{ACAD_REACTORS
330
18E9
102
}
330
18E9
100
AcDbXrecord
280
     1
290
     1
  0
XRECORD
  5
18EC
102
{ACAD_REACTORS
330
18EB
102
}
330
18EB
100
AcDbXrecord
280
     1
290
     1
  0
XRECORD
  5
18EE
102
{ACAD_REACTORS
330
18ED
102
}
330
18ED
100
AcDbXrecord
280
     1
290
     1
  0
XRECORD
  5
18F0
102
{ACAD_REACTORS
330
18EF
102
}
330
18EF
100
AcDbXrecord
280
     1
290
     1
  0
XRECORD
  5
18F2
102
{ACAD_REACTORS
330
18F1
102
}
330
18F1
100
AcDbXrecord
280
     1
290
     1
  0
XRECORD
  5
188D
102
{ACAD_REACTORS
330
188C
102
}
330
188C
100
AcDbXrecord
280
     1
340
18
  0
XRECORD
  5
188B
102
{ACAD_REACTORS
330
188A
102
}
330
188A
100
AcDbXrecord
280
     1
340
15
  0
ACDBDETAILVIEWSTYLE
  5
18DF
102
{ACAD_XDICTIONARY
360
1939
102
}
102
{ACAD_REACTORS
330
18DE
102
}
330
18DE
100
AcDbModelDocViewStyle
 70
     0
  3
Imperial24
290
     0
100
AcDbDetailViewStyle
 70
     0
 71
     0
 90
        3
 71
     1
340
F
 40
0.24
340
0
 40
0.24
300

 40
0.36
280
     3
 71
     2
340
14
 90
       25
 71
     3
340
F
 40
0.24
 90
        1
 40
0.75
 90
        1
300
%<\AcVar ViewType \f "%tc1">% %<\AcVar ViewDetailId>%\PSCALE %<\AcVar ViewScale \f "%sn">%
 71
     4
340
14
 90
       25
340
14
 90
       25
280
     0
  0
LAYOUT
  5
18E0
102
{ACAD_XDICTIONARY
360
193B
102
}
102
{ACAD_REACTORS
330
94
102
}
330
94
100
AcDbPlotSettings
  1

  2
Canon LBP9100C
  4

  6

 40
0.0
 41
0.0
 42
0.0
 43
0.0
 44
0.0
 45
0.0
 46
0.0
 47
0.0
 48
0.0
 49
0.0
140
0.0
141
0.0
142
1.0
143
1.0
 70
  1712
 72
     0
 73
     0
 74
     0
  7

 75
     0
147
1.0
148
0.0
149
0.0
100
AcDbLayout
  1
Model
 70
     1
 71
     0
 10
0.0
 20
0.0
 11
12.0
 21
9.0
 12
0.0
 22
0.0
 32
0.0
 14
0.0
 24
0.0
 34
0.0
 15
0.0
 25
0.0
 35
0.0
146
0.0
 13
0.0
 23
0.0
 33
0.0
 16
1.0
 26
0.0
 36
0.0
 17
0.0
 27
1.0
 37
0.0
 76
     0
330
18
331
1889
  0
LAYOUT
  5
18E1
102
{ACAD_XDICTIONARY
360
193D
102
}
102
{ACAD_REACTORS
330
94
102
}
330
94
100
AcDbPlotSettings
  1

  2
Canon LBP9100C
  4

  6

 40
0.0
 41
0.0
 42
0.0
 43
0.0
 44
0.0
 45
0.0
 46
0.0
 47
0.0
 48
0.0
 49
0.0
140
0.0
141
0.0
142
1.0
143
1.0
 70
   688
 72
     0
 73
     0
 74
     5
  7

 75
    16
147
1.0
148
0.0
149
0.0
100
AcDbLayout
  1
レイアウト1
 70
     1
 71
     1
 10
0.0
 20
0.0
 11
420.0
 21
297.0
 12
0.0
 22
0.0
 32
0.0
 14
1.000000000000000E+20
 24
1.000000000000000E+20
 34
1.000000000000000E+20
 15
-1.000000000000000E+20
 25
-1.000000000000000E+20
 35
-1.000000000000000E+20
146
0.0
 13
0.0
 23
0.0
 33
0.0
 16
1.0
 26
0.0
 36
0.0
 17
0.0
 27
1.0
 37
0.0
 76
     0
330
15
  0
MATERIAL
  5
189C
102
{ACAD_XDICTIONARY
360
189D
102
}
102
{ACAD_REACTORS
330
1893
102
}
330
1893
100
AcDbMaterial
  1
ByBlock
 72
     0
 43
0.0208333333333333
 43
0.0
 43
0.0
 43
0.0
 43
0.0
 43
0.0208333333333333
 43
0.0
 43
0.0
 43
0.0
 43
0.0
 43
1.0
 43
0.0
 43
0.0
 43
0.0
 43
0.0
 43
1.0
 77
     0
 47
0.0208333333333333
 47
0.0
 47
0.0
 47
0.0
 47
0.0
 47
0.0208333333333333
 47
0.0
 47
0.0
 47
0.0
 47
0.0
 47
1.0
 47
0.0
 47
0.0
 47
0.0
 47
0.0
 47
1.0
171
     0
 49
0.0208333333333333
 49
0.0
 49
0.0
 49
0.0
 49
0.0
 49
0.0208333333333333
 49
0.0
 49
0.0
 49
0.0
 49
0.0
 49
1.0
 49
0.0
 49
0.0
 49
0.0
 49
0.0
 49
1.0
175
     0
142
0.0208333333333333
142
0.0
142
0.0
142
0.0
142
0.0
142
0.0208333333333333
142
0.0
142
0.0
142
0.0
142
0.0
142
1.0
142
0.0
142
0.0
142
0.0
142
0.0
142
1.0
179
     0
144
0.0208333333333333
144
0.0
144
0.0
144
0.0
144
0.0
144
0.0208333333333333
144
0.0
144
0.0
144
0.0
144
0.0
144
1.0
144
0.0
144
0.0
144
0.0
144
0.0
144
1.0
147
0.0208333333333333
147
0.0
147
0.0
147
0.0
147
0.0
147
0.0208333333333333
147
0.0
147
0.0
147
0.0
147
0.0
147
1.0
147
0.0
147
0.0
147
0.0
147
0.0
147
1.0
  0
MATERIAL
  5
1894
102
{ACAD_XDICTIONARY
360
1895
102
}
102
{ACAD_REACTORS
330
1893
102
}
330
1893
100
AcDbMaterial
  1
ByLayer
 72
     0
 43
0.0208333333333333
 43
0.0
 43
0.0
 43
0.0
 43
0.0
 43
0.0208333333333333
 43
0.0
 43
0.0
 43
0.0
 43
0.0
 43
1.0
 43
0.0
 43
0.0
 43
0.0
 43
0.0
 43
1.0
 77
     0
 47
0.0208333333333333
 47
0.0
 47
0.0
 47
0.0
 47
0.0
 47
0.0208333333333333
 47
0.0
 47
0.0
 47
0.0
 47
0.0
 47
1.0
 47
0.0
 47
0.0
 47
0.0
 47
0.0
 47
1.0
171
     0
 49
0.0208333333333333
 49
0.0
 49
0.0
 49
0.0
 49
0.0
 49
0.0208333333333333
 49
0.0
 49
0.0
 49
0.0
 49
0.0
 49
1.0
 49
0.0
 49
0.0
 49
0.0
 49
0.0
 49
1.0
175
     0
142
0.0208333333333333
142
0.0
142
0.0
142
0.0
142
0.0
142
0.0208333333333333
142
0.0
142
0.0
142
0.0
142
0.0
142
1.0
142
0.0
142
0.0
142
0.0
142
0.0
142
1.0
179
     0
144
0.0208333333333333
144
0.0
144
0.0
144
0.0
144
0.0
144
0.0208333333333333
144
0.0
144
0.0
144
0.0
144
0.0
144
1.0
144
0.0
144
0.0
144
0.0
144
0.0
144
1.0
147
0.0208333333333333
147
0.0
147
0.0
147
0.0
147
0.0
147
0.0208333333333333
147
0.0
147
0.0
147
0.0
147
0.0
147
1.0
147
0.0
147
0.0
147
0.0
147
0.0
147
1.0
  0
MATERIAL
  5
18A4
102
{ACAD_XDICTIONARY
360
18A5
102
}
102
{ACAD_REACTORS
330
1893
102
}
330
1893
100
AcDbMaterial
  1
Global
 72
     0
 43
0.0208333333333333
 43
0.0
 43
0.0
 43
0.0
 43
0.0
 43
0.0208333333333333
 43
0.0
 43
0.0
 43
0.0
 43
0.0
 43
1.0
 43
0.0
 43
0.0
 43
0.0
 43
0.0
 43
1.0
 77
     0
 47
0.0208333333333333
 47
0.0
 47
0.0
 47
0.0
 47
0.0
 47
0.0208333333333333
 47
0.0
 47
0.0
 47
0.0
 47
0.0
 47
1.0
 47
0.0
 47
0.0
 47
0.0
 47
0.0
 47
1.0
171
     0
 49
0.0208333333333333
 49
0.0
 49
0.0
 49
0.0
 49
0.0
 49
0.0208333333333333
 49
0.0
 49
0.0
 49
0.0
 49
0.0
 49
1.0
 49
0.0
 49
0.0
 49
0.0
 49
0.0
 49
1.0
175
     0
142
0.0208333333333333
142
0.0
142
0.0
142
0.0
142
0.0
142
0.0208333333333333
142
0.0
142
0.0
142
0.0
142
0.0
142
1.0
142
0.0
142
0.0
142
0.0
142
0.0
142
1.0
179
     0
144
0.0208333333333333
144
0.0
144
0.0
144
0.0
144
0.0
144
0.0208333333333333
144
0.0
144
0.0
144
0.0
144
0.0
144
1.0
144
0.0
144
0.0
144
0.0
144
0.0
144
1.0
147
0.0208333333333333
147
0.0
147
0.0
147
0.0
147
0.0
147
0.0208333333333333
147
0.0
147
0.0
147
0.0
147
0.0
147
1.0
147
0.0
147
0.0
147
0.0
147
0.0
147
1.0
  0
MLEADERSTYLE
  5
18DB
102
{ACAD_REACTORS
330
18DA
102
}
330
18DA
100
AcDbMLeaderStyle
170
     2
171
     1
172
     0
 90
        2
 40
0.0
 41
0.0
173
     1
 91
-1056964608
340
12
 92
       -2
290
     1
 42
0.09
291
     1
 43
0.36
  3
Standard
 44
0.18
300

342
F
174
     1
178
     6
175
     1
176
     0
 93
-1056964608
 45
0.18
292
     0
297
     0
 46
0.18
 94
-1056964608
 47
1.0
 49
1.0
140
1.0
293
     1
141
0.0
294
     1
177
     0
142
1.0
295
     0
296
     0
143
0.125
1001
ACAD_MLEADERVER
1070
     2
  0
MLINESTYLE
  5
1C
102
{ACAD_REACTORS
330
1B
102
}
330
1B
100
AcDbMlineStyle
  2
STANDARD
 70
     0
  3

 62
   256
 51
90.0
 52
90.0
 71
     2
 49
0.5
 62
   256
  6
BYLAYER
 49
-0.5
 62
   256
  6
BYLAYER
  0
ACDBPLACEHOLDER
  5
1892
102
{ACAD_REACTORS
330
1891
102
}
330
1891
  0
SCALE
  5
18C9
102
{ACAD_REACTORS
330
18C8
102
}
330
18C8
100
AcDbScale
 70
     0
300
1:1
140
1.0
141
1.0
290
     1
  0
SCALE
  5
18CA
102
{ACAD_REACTORS
330
18C8
102
}
330
18C8
100
AcDbScale
 70
     0
300
1/128" = 1'-0"
140
0.0078125
141
12.0
290
     0
  0
SCALE
  5
18CB
102
{ACAD_REACTORS
330
18C8
102
}
330
18C8
100
AcDbScale
 70
     0
300
1/64" = 1'-0"
140
0.015625
141
12.0
290
     0
  0
SCALE
  5
18CC
102
{ACAD_REACTORS
330
18C8
102
}
330
18C8
100
AcDbScale
 70
     0
300
1/32" = 1'-0"
140
0.03125
141
12.0
290
     0
  0
SCALE
  5
18CD
102
{ACAD_REACTORS
330
18C8
102
}
330
18C8
100
AcDbScale
 70
     0
300
1/16" = 1'-0"
140
0.0625
141
12.0
290
     0
  0
SCALE
  5
18CE
102
{ACAD_REACTORS
330
18C8
102
}
330
18C8
100
AcDbScale
 70
     0
300
3/32" = 1'-0"
140
0.09375
141
12.0
290
     0
  0
SCALE
  5
18CF
102
{ACAD_REACTORS
330
18C8
102
}
330
18C8
100
AcDbScale
 70
     0
300
1/8" = 1'-0"
140
0.125
141
12.0
290
     0
  0
SCALE
  5
18D0
102
{ACAD_REACTORS
330
18C8
102
}
330
18C8
100
AcDbScale
 70
     0
300
3/16" = 1'-0"
140
0.1875
141
12.0
290
     0
  0
SCALE
  5
18D1
102
{ACAD_REACTORS
330
18C8
102
}
330
18C8
100
AcDbScale
 70
     0
300
1/4" = 1'-0"
140
0.25
141
12.0
290
     0
  0
SCALE
  5
18D2
102
{ACAD_REACTORS
330
18C8
102
}
330
18C8
100
AcDbScale
 70
     0
300
3/8" = 1'-0"
140
0.375
141
12.0
290
     0
  0
SCALE
  5
18D3
102
{ACAD_REACTORS
330
18C8
102
}
330
18C8
100
AcDbScale
 70
     0
300
1/2" = 1'-0"
140
0.5
141
12.0
290
     0
  0
SCALE
  5
18D4
102
{ACAD_REACTORS
330
18C8
102
}
330
18C8
100
AcDbScale
 70
     0
300
3/4" = 1'-0"
140
0.75
141
12.0
290
     0
  0
SCALE
  5
18D5
102
{ACAD_REACTORS
330
18C8
102
}
330
18C8
100
AcDbScale
 70
     0
300
1" = 1'-0"
140
1.0
141
12.0
290
     0
  0
SCALE
  5
18D6
102
{ACAD_REACTORS
330
18C8
102
}
330
18C8
100
AcDbScale
 70
     0
300
1-1/2" = 1'-0"
140
1.5
141
12.0
290
     0
  0
SCALE
  5
18D7
102
{ACAD_REACTORS
330
18C8
102
}
330
18C8
100
AcDbScale
 70
     0
300
3" = 1'-0"
140
3.0
141
12.0
290
     0
  0
SCALE
  5
18D8
102
{ACAD_REACTORS
330
18C8
102
}
330
18C8
100
AcDbScale
 70
     0
300
6" = 1'-0"
140
6.0
141
12.0
290
     0
  0
SCALE
  5
18D9
102
{ACAD_REACTORS
330
18C8
102
}
330
18C8
100
AcDbScale
 70
     0
300
1'-0" = 1'-0"
140
12.0
141
12.0
290
     0
  0
ACDBSECTIONVIEWSTYLE
  5
18DD
102
{ACAD_XDICTIONARY
360
1937
102
}
102
{ACAD_REACTORS
330
18DC
102
}
330
18DC
100
AcDbModelDocViewStyle
 70
     0
  3
Imperial24
290
     0
100
AcDbSectionViewStyle
 70
     0
 71
     0
 90
       78
 71
     1
340
F
 40
0.24
340
0
340
0
 40
0.24
300
I, O, Q, S, X, Z
 40
0.48
 90
        3
 40
0.18
 90
        1
 71
     2
340
14
 90
       25
340
14
 90
       50
 40
0.24
 40
0.0
 40
0.24
 71
     3
340
F
 40
0.24
 90
        1
 40
0.75
 90
        1
300
%<\AcVar ViewType \f "%tc1">% %<\AcVar ViewSectionStartId>%-%<\AcVar ViewSectionEndId>%\PSCALE %<\AcVar ViewScale \f "%sn">%
 71
     4
300
ANSI31
 40
1.0
 90
        0
290
     0
290
     0
 90
        6
 40
0.0
 40
1.570796326794896
 40
0.2617993877991494
 40
1.308996938995747
 40
-0.2617993877991494
 40
1.832595714594046
  0
TABLESTYLE
  5
18C7
102
{ACAD_XDICTIONARY
360
18FE
102
}
102
{ACAD_REACTORS
330
18C6
102
}
330
18C6
100
AcDbTableStyle
  3
Standard
 70
     0
 71
     0
 40
0.06
 41
0.06
280
     0
281
     0
  7
STANDARD
140
0.18
170
     2
 62
     0
 63
     7
283
     0
274
    -2
284
     1
 64
     0
275
    -2
285
     1
 65
     0
276
    -2
286
     1
 66
     0
277
    -2
287
     1
 67
     0
278
    -2
288
     1
 68
     0
279
    -2
289
     1
 69
     0
  7
STANDARD
140
0.25
170
     5
 62
     0
 63
     7
283
     0
274
    -2
284
     1
 64
     0
275
    -2
285
     1
 65
     0
276
    -2
286
     1
 66
     0
277
    -2
287
     1
 67
     0
278
    -2
288
     1
 68
     0
279
    -2
289
     1
 69
     0
  7
STANDARD
140
0.18
170
     5
 62
     0
 63
     7
283
     0
274
    -2
284
     1
 64
     0
275
    -2
285
     1
 65
     0
276
    -2
286
     1
 66
     0
277
    -2
287
     1
 67
     0
278
    -2
288
     1
 68
     0
279
    -2
289
     1
 69
     0
  0
VISUALSTYLE
  5
18B2
102
{ACAD_XDICTIONARY
360
190F
102
}
102
{ACAD_REACTORS
330
18AC
102
}
330
18AC
100
AcDbVisualStyle
  2
2dWireframe
 70
     4
 71
     0
 72
     2
 73
     0
 90
        0
 40
-0.6
 41
-30.0
 62
     5
 63
     7
 74
     1
 91
        4
 64
     7
 65
   257
 75
     1
175
     1
 42
1.0
 92
        0
 66
   257
 43
1.0
 76
     1
 77
     6
 78
     2
 67
     7
 79
     5
170
     0
171
     0
290
     0
174
     0
 93
        1
 44
0.0
173
     0
291
     0
 45
0.0
1001
ACAD
1000
AcDbSavedByObjectVersion
1070
     0
  0
VISUALSTYLE
  5
18B1
102
{ACAD_XDICTIONARY
360
190D
102
}
102
{ACAD_REACTORS
330
18AC
102
}
330
18AC
100
AcDbVisualStyle
  2
Basic
 70
     7
 71
     1
 72
     0
 73
     1
 90
        0
 40
-0.6
 41
-30.0
 62
     5
 63
     7
 74
     0
 91
        4
 64
     7
 65
   257
 75
     1
175
     1
 42
1.0
 92
        8
 66
     7
 43
1.0
 76
     1
 77
     6
 78
     2
 67
     7
 79
     5
170
     0
171
     0
290
     0
174
     0
 93
        1
 44
0.0
173
     0
291
     1
 45
0.0
1001
ACAD
1000
AcDbSavedByObjectVersion
1070
     0
  0
VISUALSTYLE
  5
18B8
102
{ACAD_XDICTIONARY
360
191B
102
}
102
{ACAD_REACTORS
330
18AC
102
}
330
18AC
100
AcDbVisualStyle
  2
Brighten
 70
    12
 71
     2
 72
     2
 73
     0
 90
        0
 40
-0.6
 41
-30.0
 62
     5
 63
     7
 74
     1
 91
        4
 64
     7
 65
   257
 75
     1
175
     1
 42
1.0
 92
        8
 66
     7
 43
1.0
 76
     1
 77
     6
 78
     2
 67
     7
 79
     5
170
     0
171
     0
290
     0
174
     0
 93
        1
 44
50.0
173
     0
291
     1
 45
0.0
1001
ACAD
1000
AcDbSavedByObjectVersion
1070
     0
  0
VISUALSTYLE
  5
18BC
102
{ACAD_XDICTIONARY
360
1923
102
}
102
{ACAD_REACTORS
330
18AC
102
}
330
18AC
100
AcDbVisualStyle
  2
ColorChange
 70
    16
 71
     2
 72
     2
 73
     3
 90
        0
 40
-0.6
 41
-30.0
 62
     5
 63
     8
 74
     1
 91
        4
 64
     7
 65
   257
 75
     1
175
     1
 42
1.0
 92
        8
 66
     8
 43
1.0
 76
     1
 77
     6
 78
     2
 67
     7
 79
     5
170
     0
171
     0
290
     0
174
     0
 93
        1
 44
0.0
173
     0
291
     1
 45
0.0
1001
ACAD
1000
AcDbSavedByObjectVersion
1070
     0
  0
VISUALSTYLE
  5
18B5
102
{ACAD_XDICTIONARY
360
1915
102
}
102
{ACAD_REACTORS
330
18AC
102
}
330
18AC
100
AcDbVisualStyle
  2
Conceptual
 70
     9
 71
     3
 72
     2
 73
     0
 90
        0
 40
-0.6
 41
-30.0
 62
     5
 63
     7
 74
     2
 91
        2
 64
     7
 65
   257
 75
     1
175
     1
 42
179.0
 92
        8
 66
     7
 43
1.0
 76
     1
 77
     6
 78
     2
 67
     7
 79
     3
170
     0
171
     0
290
     0
174
     0
 93
        1
 44
0.0
173
     0
291
     0
 45
0.0
1001
ACAD
1000
AcDbSavedByObjectVersion
1070
     0
  0
VISUALSTYLE
  5
18B7
102
{ACAD_XDICTIONARY
360
1919
102
}
102
{ACAD_REACTORS
330
18AC
102
}
330
18AC
100
AcDbVisualStyle
  2
Dim
 70
    11
 71
     2
 72
     2
 73
     0
 90
        0
 40
-0.6
 41
-30.0
 62
     5
 63
     7
 74
     1
 91
        4
 64
     7
 65
   257
 75
     1
175
     1
 42
1.0
 92
        8
 66
     7
 43
1.0
 76
     1
 77
     6
 78
     2
 67
     7
 79
     5
170
     0
171
     0
290
     0
174
     0
 93
        1
 44
-50.0
173
     0
291
     1
 45
0.0
1001
ACAD
1000
AcDbSavedByObjectVersion
1070
     0
  0
VISUALSTYLE
  5
18C4
102
{ACAD_XDICTIONARY
360
1933
102
}
102
{ACAD_REACTORS
330
18AC
102
}
330
18AC
100
AcDbVisualStyle
  2
EdgeColorOff
 70
    22
 71
     2
 72
     2
 73
     0
 90
        0
 40
-0.6
 41
-30.0
 62
     5
 63
     7
 74
     1
 91
        4
 64
     7
 65
   257
 75
     1
175
     1
 42
1.0
 92
        8
 66
     7
 43
1.0
 76
     1
 77
     6
 78
     2
 67
     7
 79
     5
170
     0
171
     0
290
     0
174
     0
 93
        1
 44
0.0
173
     0
291
     1
 45
0.0
1001
ACAD
1000
AcDbSavedByObjectVersion
1070
     0
  0
VISUALSTYLE
  5
18BB
102
{ACAD_XDICTIONARY
360
1921
102
}
102
{ACAD_REACTORS
330
18AC
102
}
330
18AC
100
AcDbVisualStyle
  2
Facepattern
 70
    15
 71
     2
 72
     2
 73
     0
 90
        0
 40
-0.6
 41
-30.0
 62
     5
 63
     7
 74
     1
 91
        4
 64
     7
 65
   257
 75
     1
175
     1
 42
1.0
 92
        8
 66
     7
 43
1.0
 76
     1
 77
     6
 78
     2
 67
     7
 79
     5
170
     0
171
     0
290
     0
174
     0
 93
        1
 44
0.0
173
     0
291
     1
 45
0.0
1001
ACAD
1000
AcDbSavedByObjectVersion
1070
     0
  0
VISUALSTYLE
  5
18AD
102
{ACAD_XDICTIONARY
360
1905
102
}
102
{ACAD_REACTORS
330
18AC
102
}
330
18AC
100
AcDbVisualStyle
  2
Flat
 70
     0
 71
     2
 72
     1
 73
     1
 90
        2
 40
-0.6
 41
30.0
 62
     5
 63
     7
 74
     0
 91
        0
 64
     7
 65
   257
 75
     1
175
     1
 42
1.0
 92
        8
 66
     7
 43
1.0
 76
     1
 77
     6
 78
     2
 67
     7
 79
     5
170
     0
171
     0
290
     0
174
     0
 93
       13
 44
0.0
173
     0
291
     1
 45
0.0
1001
ACAD
1000
AcDbSavedByObjectVersion
1070
     0
  0
VISUALSTYLE
  5
18AE
102
{ACAD_XDICTIONARY
360
1907
102
}
102
{ACAD_REACTORS
330
18AC
102
}
330
18AC
100
AcDbVisualStyle
  2
FlatWithEdges
 70
     1
 71
     2
 72
     1
 73
     1
 90
        2
 40
-0.6
 41
30.0
 62
     5
 63
     7
 74
     1
 91
        0
 64
     7
 65
   257
 75
     1
175
     1
 42
1.0
 92
        0
 66
   257
 43
1.0
 76
     1
 77
     6
 78
     2
 67
     7
 79
     5
170
     0
171
     0
290
     0
174
     0
 93
       13
 44
0.0
173
     0
291
     1
 45
0.0
1001
ACAD
1000
AcDbSavedByObjectVersion
1070
     0
  0
VISUALSTYLE
  5
18AF
102
{ACAD_XDICTIONARY
360
1909
102
}
102
{ACAD_REACTORS
330
18AC
102
}
330
18AC
100
AcDbVisualStyle
  2
Gouraud
 70
     2
 71
     2
 72
     2
 73
     1
 90
        2
 40
-0.6
 41
30.0
 62
     5
 63
     7
 74
     0
 91
        0
 64
     7
 65
   257
 75
     1
175
     1
 42
1.0
 92
        0
 66
     7
 43
1.0
 76
     1
 77
     6
 78
     2
 67
     7
 79
     5
170
     0
171
     0
290
     0
174
     0
 93
       13
 44
0.0
173
     0
291
     1
 45
0.0
1001
ACAD
1000
AcDbSavedByObjectVersion
1070
     0
  0
VISUALSTYLE
  5
18B0
102
{ACAD_XDICTIONARY
360
190B
102
}
102
{ACAD_REACTORS
330
18AC
102
}
330
18AC
100
AcDbVisualStyle
  2
GouraudWithEdges
 70
     3
 71
     2
 72
     2
 73
     1
 90
        2
 40
-0.6
 41
30.0
 62
     5
 63
     7
 74
     1
 91
        0
 64
     7
 65
   257
 75
     1
175
     1
 42
1.0
 92
        0
 66
   257
 43
1.0
 76
     1
 77
     6
 78
     2
 67
     7
 79
     5
170
     0
171
     0
290
     0
174
     0
 93
       13
 44
0.0
173
     0
291
     1
 45
0.0
1001
ACAD
1000
AcDbSavedByObjectVersion
1070
     0
  0
VISUALSTYLE
  5
18B4
102
{ACAD_XDICTIONARY
360
1913
102
}
102
{ACAD_REACTORS
330
18AC
102
}
330
18AC
100
AcDbVisualStyle
  2
Hidden
 70
     6
 71
     1
 72
     2
 73
     2
 90
        0
 40
-0.6
 41
-30.0
 62
     5
 63
     7
 74
     2
 91
        2
 64
     7
 65
   257
 75
     2
175
     1
 42
40.0
 92
        0
 66
   257
 43
1.0
 76
     1
 77
     6
 78
     2
 67
     7
 79
     3
170
     0
171
     0
290
     0
174
     0
 93
        1
 44
0.0
173
     0
291
     0
 45
0.0
1001
ACAD
1000
AcDbSavedByObjectVersion
1070
     0
  0
VISUALSTYLE
  5
18C2
102
{ACAD_XDICTIONARY
360
192F
102
}
102
{ACAD_REACTORS
330
18AC
102
}
330
18AC
100
AcDbVisualStyle
  2
JitterOff
 70
    20
 71
     2
 72
     2
 73
     0
 90
        0
 40
-0.6
 41
-30.0
 62
     5
 63
     7
 74
     1
 91
        4
 64
     7
 65
   257
 75
     1
175
     1
 42
1.0
 92
       10
 66
     7
 43
1.0
 76
     1
 77
     6
 78
     2
 67
     7
 79
     5
170
     0
171
     0
290
     0
174
     0
 93
        1
 44
0.0
173
     0
291
     1
 45
0.0
1001
ACAD
1000
AcDbSavedByObjectVersion
1070
     0
  0
VISUALSTYLE
  5
18BA
102
{ACAD_XDICTIONARY
360
191F
102
}
102
{ACAD_REACTORS
330
18AC
102
}
330
18AC
100
AcDbVisualStyle
  2
Linepattern
 70
    14
 71
     2
 72
     2
 73
     0
 90
        0
 40
-0.6
 41
-30.0
 62
     5
 63
     7
 74
     1
 91
        4
 64
     7
 65
   257
 75
     7
175
     7
 42
1.0
 92
        8
 66
     7
 43
1.0
 76
     1
 77
     6
 78
     2
 67
     7
 79
     5
170
     0
171
     0
290
     0
174
     0
 93
        1
 44
0.0
173
     0
291
     1
 45
0.0
1001
ACAD
1000
AcDbSavedByObjectVersion
1070
     0
  0
VISUALSTYLE
  5
18C3
102
{ACAD_XDICTIONARY
360
1931
102
}
102
{ACAD_REACTORS
330
18AC
102
}
330
18AC
100
AcDbVisualStyle
  2
OverhangOff
 70
    21
 71
     2
 72
     2
 73
     0
 90
        0
 40
-0.6
 41
-30.0
 62
     5
 63
     7
 74
     1
 91
        4
 64
     7
 65
   257
 75
     1
175
     1
 42
1.0
 92
        9
 66
     7
 43
1.0
 76
     1
 77
     6
 78
     2
 67
     7
 79
     5
170
     0
171
     0
290
     0
174
     0
 93
        1
 44
0.0
173
     0
291
     1
 45
0.0
1001
ACAD
1000
AcDbSavedByObjectVersion
1070
     0
  0
VISUALSTYLE
  5
18B6
102
{ACAD_XDICTIONARY
360
1917
102
}
102
{ACAD_REACTORS
330
18AC
102
}
330
18AC
100
AcDbVisualStyle
  2
Realistic
 70
     8
 71
     2
 72
     3
 73
     0
 90
        2
 40
-0.6
 41
30.0
 62
     5
 63
     7
 74
     0
 91
        0
 64
     7
 65
   257
 75
     1
175
     1
 42
1.0
 92
        8
 66
   257
 43
1.0
 76
     1
 77
     6
 78
     2
 67
     7
 79
     3
170
     0
171
     0
290
     0
174
     0
 93
       13
 44
0.0
173
     0
291
     0
 45
0.0
1001
ACAD
1000
AcDbSavedByObjectVersion
1070
     0
  0
VISUALSTYLE
  5
18C1
102
{ACAD_XDICTIONARY
360
192D
102
}
102
{ACAD_REACTORS
330
18AC
102
}
330
18AC
100
AcDbVisualStyle
  2
Shaded
 70
    27
 71
     2
 72
     2
 73
     1
 90
        2
 40
-0.6
 41
30.0
 62
     5
 63
     7
 74
     0
 91
        4
 64
     7
 65
   257
 75
     1
175
     1
 42
1.0
 92
        8
 66
   257
 43
1.0
 76
     1
 77
     6
 78
     2
 67
     8
 79
     3
170
     0
171
     0
290
     0
174
     0
 93
        5
 44
0.0
173
     0
291
     0
 45
0.0
1001
ACAD
1000
AcDbSavedByObjectVersion
1070
     0
  0
VISUALSTYLE
  5
18C0
102
{ACAD_XDICTIONARY
360
192B
102
}
102
{ACAD_REACTORS
330
18AC
102
}
330
18AC
100
AcDbVisualStyle
  2
Shaded with edges
 70
    26
 71
     2
 72
     2
 73
     1
 90
        2
 40
-0.6
 41
30.0
 62
     5
 63
     7
 74
     1
 91
       10
 64
     7
 65
   257
 75
     2
175
     1
 42
1.0
 92
        8
 66
   257
 43
1.0
 76
     1
 77
     6
 78
     2
 67
     7
 79
     3
170
     0
171
     0
290
     0
174
     0
 93
        5
 44
0.0
173
     0
291
     0
 45
0.0
1001
ACAD
1000
AcDbSavedByObjectVersion
1070
     0
  0
VISUALSTYLE
  5
18BD
102
{ACAD_XDICTIONARY
360
1925
102
}
102
{ACAD_REACTORS
330
18AC
102
}
330
18AC
100
AcDbVisualStyle
  2
Shades of Gray
 70
    23
 71
     2
 72
     2
 73
     3
 90
        0
 40
-0.6
 41
-30.0
 62
     5
 63
     7
 74
     2
 91
        2
 64
     7
 65
     7
 75
     1
175
     1
 42
40.0
 92
        8
 66
     7
 43
1.0
 76
     1
 77
     6
 78
     2
 67
     7
 79
     3
170
     0
171
     0
290
     0
174
     0
 93
        1
 44
0.0
173
     0
291
     0
 45
0.0
1001
ACAD
1000
AcDbSavedByObjectVersion
1070
     0
  0
VISUALSTYLE
  5
18BE
102
{ACAD_XDICTIONARY
360
1927
102
}
102
{ACAD_REACTORS
330
18AC
102
}
330
18AC
100
AcDbVisualStyle
  2
Sketchy
 70
    24
 71
     1
 72
     2
 73
     2
 90
        0
 40
-0.6
 41
-30.0
 62
     5
 63
     7
 74
     2
 91
        2
 64
     7
 65
     7
 75
     1
175
     1
 42
40.0
 92
       11
 66
     7
 43
1.0
 76
     1
 77
     6
 78
     2
 67
     7
 79
     6
170
     0
171
     0
290
     0
174
     0
 93
        1
 44
0.0
173
     0
291
     0
 45
0.0
1001
ACAD
1000
AcDbSavedByObjectVersion
1070
     0
  0
VISUALSTYLE
  5
18B9
102
{ACAD_XDICTIONARY
360
191D
102
}
102
{ACAD_REACTORS
330
18AC
102
}
330
18AC
100
AcDbVisualStyle
  2
Thicken
 70
    13
 71
     2
 72
     2
 73
     0
 90
        0
 40
-0.6
 41
-30.0
 62
     5
 63
     7
 74
     1
 91
        4
 64
     7
 65
   257
 75
     1
175
     1
 42
1.0
 92
       12
 66
     7
 43
1.0
 76
     1
 77
     6
 78
     2
 67
     7
 79
     5
170
     0
171
     0
290
     0
174
     0
 93
        1
 44
0.0
173
     0
291
     1
 45
0.0
1001
ACAD
1000
AcDbSavedByObjectVersion
1070
     0
  0
VISUALSTYLE
  5
18B3
102
{ACAD_XDICTIONARY
360
1911
102
}
102
{ACAD_REACTORS
330
18AC
102
}
330
18AC
100
AcDbVisualStyle
  2
Wireframe
 70
     5
 71
     0
 72
     2
 73
     0
 90
        0
 40
-0.6
 41
-30.0
 62
     5
 63
     7
 74
     1
 91
        4
 64
     7
 65
   257
 75
     1
175
     1
 42
1.0
 92
        0
 66
   257
 43
1.0
 76
     1
 77
     6
 78
     2
 67
     7
 79
     3
170
     0
171
     0
290
     0
174
     0
 93
        1
 44
0.0
173
     0
291
     0
 45
0.0
1001
ACAD
1000
AcDbSavedByObjectVersion
1070
     0
  0
VISUALSTYLE
  5
18BF
102
{ACAD_XDICTIONARY
360
1929
102
}
102
{ACAD_REACTORS
330
18AC
102
}
330
18AC
100
AcDbVisualStyle
  2
X-Ray
 70
    25
 71
     2
 72
     2
 73
     1
 90
        1
 40
0.5
 41
-30.0
 62
     5
 63
     7
 74
     1
 91
        0
 64
     7
 65
   257
 75
     1
175
     1
 42
1.0
 92
        8
 66
     7
 43
1.0
 76
     1
 77
     6
 78
     2
 67
     7
 79
     3
170
     0
171
     0
290
     0
174
     0
 93
       13
 44
0.0
173
     0
291
     0
 45
0.0
1001
ACAD
1000
AcDbSavedByObjectVersion
1070
     0
  0
DICTIONARYVAR
  5
18F8
102
{ACAD_REACTORS
330
18F3
102
}
330
18F3
100
DictionaryVariables
280
     0
  1
1:1
  0
DICTIONARYVAR
  5
18F5
102
{ACAD_REACTORS
330
18F3
102
}
330
18F3
100
DictionaryVariables
280
     0
  1
STANDARD
  0
DICTIONARYVAR
  5
18F4
102
{ACAD_REACTORS
330
18F3
102
}
330
18F3
100
DictionaryVariables
280
     0
  1
STANDARD
  0
DICTIONARYVAR
  5
18F6
102
{ACAD_REACTORS
330
18F3
102
}
330
18F3
100
DictionaryVariables
280
     0
  1
Imperial24
  0
DICTIONARYVAR
  5
18F7
102
{ACAD_REACTORS
330
18F3
102
}
330
18F3
100
DictionaryVariables
280
     0
  1
Imperial24
  0
DICTIONARYVAR
  5
18FB
102
{ACAD_REACTORS
330
18F3
102
}
330
18F3
100
DictionaryVariables
280
     0
  1
1
  0
DICTIONARYVAR
  5
18FA
102
{ACAD_REACTORS
330
18F3
102
}
330
18F3
100
DictionaryVariables
280
     0
  1
0
  0
DICTIONARYVAR
  5
18F9
102
{ACAD_REACTORS
330
18F3
102
}
330
18F3
100
DictionaryVariables
280
     0
  1
127
  0
DICTIONARYVAR
  5
18FC
102
{ACAD_REACTORS
330
18F3
102
}
330
18F3
100
DictionaryVariables
280
     0
  1
2
  0
DICTIONARY
  5
1939
330
18DF
100
AcDbDictionary
280
     1
281
     1
  3
ACAD_XREC_ROUNDTRIP
360
193A
  0
DICTIONARY
  5
193B
330
18E0
100
AcDbDictionary
280
     1
281
     1
  3
ACAD_XREC_ROUNDTRIP
360
193C
  0
DICTIONARY
  5
193D
330
18E1
100
AcDbDictionary
280
     1
281
     1
  3
ACAD_XREC_ROUNDTRIP
360
193E
  0
DICTIONARY
  5
189D
330
189C
100
AcDbDictionary
280
     1
281
     1
  3
ACAD_XREC_ROUNDTRIP
360
1903
  3
BUMPTILE
360
189F
  3
DIFFUSETILE
360
189E
  3
OPACITYTILE
360
18A2
  3
REFLECTIONTILE
360
18A1
  3
REFRACTIONTILE
360
18A3
  3
SPECULARTILE
360
18A0
  0
DICTIONARY
  5
1895
330
1894
100
AcDbDictionary
280
     1
281
     1
  3
ACAD_XREC_ROUNDTRIP
360
1902
  3
BUMPTILE
360
1897
  3
DIFFUSETILE
360
1896
  3
OPACITYTILE
360
189A
  3
REFLECTIONTILE
360
1899
  3
REFRACTIONTILE
360
189B
  3
SPECULARTILE
360
1898
  0
DICTIONARY
  5
18A5
330
18A4
100
AcDbDictionary
280
     1
281
     1
  3
ACAD_XREC_ROUNDTRIP
360
1904
  3
BUMPTILE
360
18A7
  3
DIFFUSETILE
360
18A6
  3
OPACITYTILE
360
18AA
  3
REFLECTIONTILE
360
18A9
  3
REFRACTIONTILE
360
18AB
  3
SPECULARTILE
360
18A8
  0
DICTIONARY
  5
1937
330
18DD
100
AcDbDictionary
280
     1
281
     1
  3
ACAD_XREC_ROUNDTRIP
360
1938
  0
DICTIONARY
  5
18FE
330
18C7
100
AcDbDictionary
280
     1
281
     1
  3
ACAD_ROUNDTRIP_2008_TABLESTYLE_CELLSTYLEMAP
360
18FF
  3
ACAD_XREC_ROUNDTRIP
360
1935
  0
DICTIONARY
  5
190F
330
18B2
100
AcDbDictionary
280
     1
281
     1
  3
ACAD_XREC_ROUNDTRIP
360
1910
  0
DICTIONARY
  5
190D
330
18B1
100
AcDbDictionary
280
     1
281
     1
  3
ACAD_XREC_ROUNDTRIP
360
190E
  0
DICTIONARY
  5
191B
330
18B8
100
AcDbDictionary
280
     1
281
     1
  3
ACAD_XREC_ROUNDTRIP
360
191C
  0
DICTIONARY
  5
1923
330
18BC
100
AcDbDictionary
280
     1
281
     1
  3
ACAD_XREC_ROUNDTRIP
360
1924
  0
DICTIONARY
  5
1915
330
18B5
100
AcDbDictionary
280
     1
281
     1
  3
ACAD_XREC_ROUNDTRIP
360
1916
  0
DICTIONARY
  5
1919
330
18B7
100
AcDbDictionary
280
     1
281
     1
  3
ACAD_XREC_ROUNDTRIP
360
191A
  0
DICTIONARY
  5
1933
330
18C4
100
AcDbDictionary
280
     1
281
     1
  3
ACAD_XREC_ROUNDTRIP
360
1934
  0
DICTIONARY
  5
1921
330
18BB
100
AcDbDictionary
280
     1
281
     1
  3
ACAD_XREC_ROUNDTRIP
360
1922
  0
DICTIONARY
  5
1905
330
18AD
100
AcDbDictionary
280
     1
281
     1
  3
ACAD_XREC_ROUNDTRIP
360
1906
  0
DICTIONARY
  5
1907
330
18AE
100
AcDbDictionary
280
     1
281
     1
  3
ACAD_XREC_ROUNDTRIP
360
1908
  0
DICTIONARY
  5
1909
330
18AF
100
AcDbDictionary
280
     1
281
     1
  3
ACAD_XREC_ROUNDTRIP
360
190A
  0
DICTIONARY
  5
190B
330
18B0
100
AcDbDictionary
280
     1
281
     1
  3
ACAD_XREC_ROUNDTRIP
360
190C
  0
DICTIONARY
  5
1913
330
18B4
100
AcDbDictionary
280
     1
281
     1
  3
ACAD_XREC_ROUNDTRIP
360
1914
  0
DICTIONARY
  5
192F
330
18C2
100
AcDbDictionary
280
     1
281
     1
  3
ACAD_XREC_ROUNDTRIP
360
1930
  0
DICTIONARY
  5
191F
330
18BA
100
AcDbDictionary
280
     1
281
     1
  3
ACAD_XREC_ROUNDTRIP
360
1920
  0
DICTIONARY
  5
1931
330
18C3
100
AcDbDictionary
280
     1
281
     1
  3
ACAD_XREC_ROUNDTRIP
360
1932
  0
DICTIONARY
  5
1917
330
18B6
100
AcDbDictionary
280
     1
281
     1
  3
ACAD_XREC_ROUNDTRIP
360
1918
  0
DICTIONARY
  5
192D
330
18C1
100
AcDbDictionary
280
     1
281
     1
  3
ACAD_XREC_ROUNDTRIP
360
192E
  0
DICTIONARY
  5
192B
330
18C0
100
AcDbDictionary
280
     1
281
     1
  3
ACAD_XREC_ROUNDTRIP
360
192C
  0
DICTIONARY
  5
1925
330
18BD
100
AcDbDictionary
280
     1
281
     1
  3
ACAD_XREC_ROUNDTRIP
360
1926
  0
DICTIONARY
  5
1927
330
18BE
100
AcDbDictionary
280
     1
281
     1
  3
ACAD_XREC_ROUNDTRIP
360
1928
  0
DICTIONARY
  5
191D
330
18B9
100
AcDbDictionary
280
     1
281
     1
  3
ACAD_XREC_ROUNDTRIP
360
191E
  0
DICTIONARY
  5
1911
330
18B3
100
AcDbDictionary
280
     1
281
     1
  3
ACAD_XREC_ROUNDTRIP
360
1912
  0
DICTIONARY
  5
1929
330
18BF
100
AcDbDictionary
280
     1
281
     1
  3
ACAD_XREC_ROUNDTRIP
360
192A
  0
XRECORD
  5
193A
102
{ACAD_REACTORS
330
1939
102
}
330
1939
100
AcDbXrecord
280
     1
102
DISPLAYNAME
  1
Imperial24
102
FLAGS
 90
        0
  0
XRECORD
  5
193C
102
{ACAD_REACTORS
330
193B
102
}
330
193B
100
AcDbXrecord
280
     1
102
SHADEPLOT
 70
     0
102
SHADEPLOTRESLEVEL
 70
     2
102
SHADEPLOTCUSTOMDPI
 70
   300
  0
XRECORD
  5
193E
102
{ACAD_REACTORS
330
193D
102
}
330
193D
100
AcDbXrecord
280
     1
102
SHADEPLOT
 70
     0
102
SHADEPLOTRESLEVEL
 70
     2
102
SHADEPLOTCUSTOMDPI
 70
   300
  0
XRECORD
  5
1903
102
{ACAD_REACTORS
330
189D
102
}
330
189D
100
AcDbXrecord
280
     1
102
MATERIAL
148
0.0
149
0.0
149
0.0
 93
        0
 94
      127
282
     0
 72
     0
 77
     0
171
     0
175
     0
179
     0
273
     0
  0
XRECORD
  5
189F
102
{ACAD_REACTORS
330
189D
102
}
330
189D
100
AcDbXrecord
280
     1
270
     1
271
     1
  0
XRECORD
  5
189E
102
{ACAD_REACTORS
330
189D
102
}
330
189D
100
AcDbXrecord
280
     1
270
     1
271
     1
  0
XRECORD
  5
18A2
102
{ACAD_REACTORS
330
189D
102
}
330
189D
100
AcDbXrecord
280
     1
270
     1
271
     1
  0
XRECORD
  5
18A1
102
{ACAD_REACTORS
330
189D
102
}
330
189D
100
AcDbXrecord
280
     1
270
     1
271
     1
  0
XRECORD
  5
18A3
102
{ACAD_REACTORS
330
189D
102
}
330
189D
100
AcDbXrecord
280
     1
270
     1
271
     1
  0
XRECORD
  5
18A0
102
{ACAD_REACTORS
330
189D
102
}
330
189D
100
AcDbXrecord
280
     1
270
     1
271
     1
  0
XRECORD
  5
1902
102
{ACAD_REACTORS
330
1895
102
}
330
1895
100
AcDbXrecord
280
     1
102
MATERIAL
148
0.0
149
0.0
149
0.0
 93
        0
 94
      127
282
     0
 72
     0
 77
     0
171
     0
175
     0
179
     0
273
     0
  0
XRECORD
  5
1897
102
{ACAD_REACTORS
330
1895
102
}
330
1895
100
AcDbXrecord
280
     1
270
     1
271
     1
  0
XRECORD
  5
1896
102
{ACAD_REACTORS
330
1895
102
}
330
1895
100
AcDbXrecord
280
     1
270
     1
271
     1
  0
XRECORD
  5
189A
102
{ACAD_REACTORS
330
1895
102
}
330
1895
100
AcDbXrecord
280
     1
270
     1
271
     1
  0
XRECORD
  5
1899
102
{ACAD_REACTORS
330
1895
102
}
330
1895
100
AcDbXrecord
280
     1
270
     1
271
     1
  0
XRECORD
  5
189B
102
{ACAD_REACTORS
330
1895
102
}
330
1895
100
AcDbXrecord
280
     1
270
     1
271
     1
  0
XRECORD
  5
1898
102
{ACAD_REACTORS
330
1895
102
}
330
1895
100
AcDbXrecord
280
     1
270
     1
271
     1
  0
XRECORD
  5
1904
102
{ACAD_REACTORS
330
18A5
102
}
330
18A5
100
AcDbXrecord
280
     1
102
MATERIAL
148
0.0
149
0.0
149
0.0
 93
        0
 94
      127
282
     0
 72
     0
 77
     0
171
     0
175
     0
179
     0
273
     0
  0
XRECORD
  5
18A7
102
{ACAD_REACTORS
330
18A5
102
}
330
18A5
100
AcDbXrecord
280
     1
270
     1
271
     1
  0
XRECORD
  5
18A6
102
{ACAD_REACTORS
330
18A5
102
}
330
18A5
100
AcDbXrecord
280
     1
270
     1
271
     1
  0
XRECORD
  5
18AA
102
{ACAD_REACTORS
330
18A5
102
}
330
18A5
100
AcDbXrecord
280
     1
270
     1
271
     1
  0
XRECORD
  5
18A9
102
{ACAD_REACTORS
330
18A5
102
}
330
18A5
100
AcDbXrecord
280
     1
270
     1
271
     1
  0
XRECORD
  5
18AB
102
{ACAD_REACTORS
330
18A5
102
}
330
18A5
100
AcDbXrecord
280
     1
270
     1
271
     1
  0
XRECORD
  5
18A8
102
{ACAD_REACTORS
330
18A5
102
}
330
18A5
100
AcDbXrecord
280
     1
270
     1
271
     1
  0
XRECORD
  5
1938
102
{ACAD_REACTORS
330
1937
102
}
330
1937
100
AcDbXrecord
280
     1
102
DISPLAYNAME
  1
Imperial24
102
FLAGS
 90
        0
  0
CELLSTYLEMAP
  5
18FF
102
{ACAD_REACTORS
330
18FE
102
}
330
18FE
100
AcDbCellStyleMap
 90
        3
300
CELLSTYLE
  1
TABLEFORMAT_BEGIN
 90
        5
170
     1
 91
        0
 92
    32768
 62
   257
 93
        1
300
CONTENTFORMAT
  1
CONTENTFORMAT_BEGIN
 90
        0
 91
        0
 92
      512
 93
        0
300

 40
0.0
140
1.0
 94
        5
 62
     0
340
F
144
0.25
309
CONTENTFORMAT_END
171
     0
 94
        0
309
TABLEFORMAT_END
  1
CELLSTYLE_BEGIN
 90
        1
 91
        1
300
_TITLE
309
CELLSTYLE_END
300
CELLSTYLE
  1
TABLEFORMAT_BEGIN
 90
        5
170
     1
 91
        0
 92
        0
 62
   257
 93
        1
300
CONTENTFORMAT
  1
CONTENTFORMAT_BEGIN
 90
        0
 91
        0
 92
      512
 93
        0
300

 40
0.0
140
1.0
 94
        5
 62
     0
340
F
144
0.18
309
CONTENTFORMAT_END
171
     0
 94
        0
309
TABLEFORMAT_END
  1
CELLSTYLE_BEGIN
 90
        2
 91
        1
300
_HEADER
309
CELLSTYLE_END
300
CELLSTYLE
  1
TABLEFORMAT_BEGIN
 90
        5
170
     1
 91
        0
 92
        0
 62
   257
 93
        1
300
CONTENTFORMAT
  1
CONTENTFORMAT_BEGIN
 90
        0
 91
        0
 92
      512
 93
        0
300

 40
0.0
140
1.0
 94
        2
 62
     0
340
F
144
0.18
309
CONTENTFORMAT_END
171
     0
 94
        0
309
TABLEFORMAT_END
  1
CELLSTYLE_BEGIN
 90
        3
 91
        2
300
_DATA
309
CELLSTYLE_END
  0
XRECORD
  5
1935
102
{ACAD_REACTORS
330
18FE
102
}
330
18FE
100
AcDbXrecord
280
     1
102
ACAD_ROUNDTRIP_PRE2007_TABLESTYLE
 90
      512
 91
        0
  1

 92
      512
 93
        0
  2

 94
      512
 95
        0
  3

  0
XRECORD
  5
1910
102
{ACAD_REACTORS
330
190F
102
}
330
190F
100
AcDbXrecord
280
     1
102
RTVSPost2010Prop28
280
     1
102
RTVSPost2010PropOp28
 70
     1
102
RTVSPost2010Prop29
280
     1
102
RTVSPost2010PropOp29
 70
     1
102
RTVSPost2010Prop30
280
     0
102
RTVSPost2010PropOp30
 70
     1
102
RTVSPost2010Prop31
280
     0
102
RTVSPost2010PropOp31
 70
     1
102
RTVSPost2010Prop32
280
     0
102
RTVSPost2010PropOp32
 70
     1
102
RTVSPost2010Prop33
280
     0
102
RTVSPost2010PropOp33
 70
     1
102
RTVSPost2010Prop34
280
     0
102
RTVSPost2010PropOp34
 70
     1
102
RTVSPost2010Prop35
280
     0
102
RTVSPost2010PropOp35
 70
     1
102
RTVSPost2010Prop36
280
     0
102
RTVSPost2010PropOp36
 70
     1
102
RTVSPost2010Prop37
 90
       50
102
RTVSPost2010PropOp37
 70
     1
102
RTVSPost2010Prop38
140
0.0
102
RTVSPost2010PropOp38
 70
     1
102
RTVSPost2010Prop39
140
1.0
102
RTVSPost2010PropOp39
 70
     1
102
RTVSPost2010Prop40
 90
        0
102
RTVSPost2010PropOp40
 70
     1
102
RTVSPost2010Prop41ColorIndex
 90
       18
102
RTVSPost2010Prop41ColorRGB
 90
        0
102
RTVSPost2010PropOp41
 70
     1
102
RTVSPost2010Prop42
 90
       50
102
RTVSPost2010PropOp42
 70
     1
102
RTVSPost2010Prop43
 90
        3
102
RTVSPost2010PropOp43
 70
     1
102
RTVSPost2010Prop44ColorIndex
 90
        5
102
RTVSPost2010Prop44ColorRGB
 90
      255
102
RTVSPost2010PropOp44
 70
     1
102
RTVSPost2010Prop45
280
     0
102
RTVSPost2010PropOp45
 70
     1
102
RTVSPost2010Prop46
 90
       50
102
RTVSPost2010PropOp46
 70
     1
102
RTVSPost2010Prop47
 90
       50
102
RTVSPost2010PropOp47
 70
     1
102
RTVSPost2010Prop48
 90
       50
102
RTVSPost2010PropOp48
 70
     1
102
RTVSPost2010Prop49
280
     0
102
RTVSPost2010PropOp49
 70
     1
102
RTVSPost2010Prop50
 90
       50
102
RTVSPost2010PropOp50
 70
     1
102
RTVSPost2010Prop51ColorIndex
 90
      256
102
RTVSPost2010Prop51ColorRGB
 90
-16777216
102
RTVSPost2010PropOp51
 70
     0
102
RTVSPost2010Prop52
140
1.0
102
RTVSPost2010PropOp52
 70
     0
102
RTVSPost2010Prop53
 90
        2
102
RTVSPost2010PropOp53
 70
     1
102
RTVSPost2010Prop54
  1
strokes_ogs.tif
102
RTVSPost2010PropOp54
 70
     1
102
RTVSPost2010Prop55
280
     0
102
RTVSPost2010PropOp55
 70
     1
102
RTVSPost2010Prop56
140
1.0
102
RTVSPost2010PropOp56
 70
     1
102
RTVSPost2010Prop57
140
1.0
102
RTVSPost2010PropOp57
 70
     1
102
RTVSPropertyOp0
 70
     1
102
RTVSPropertyOp1
 70
     1
102
RTVSPropertyOp2
 70
     1
102
RTVSPropertyOp3
 70
     1
102
RTVSPropertyOp4
 70
     1
102
RTVSPropertyOp5
 70
     1
102
RTVSPropertyOp6
 70
     1
102
RTVSPropertyOp7
 70
     1
102
RTVSPropertyOp8
 70
     1
102
RTVSPropertyOp9
 70
     1
102
RTVSPropertyOp10
 70
     1
102
RTVSPropertyOp11
 70
     1
102
RTVSPropertyOp12
 70
     1
102
RTVSPropertyOp13
 70
     1
102
RTVSPropertyOp14
 70
     1
102
RTVSPropertyOp15
 70
     1
102
RTVSPropertyOp16
 70
     1
102
RTVSPropertyOp17
 70
     1
102
RTVSPropertyOp18
 70
     1
102
RTVSPropertyOp19
 70
     1
102
RTVSPropertyOp20
 70
     1
102
RTVSPropertyOp21
 70
     1
102
RTVSPropertyOp22
 70
     1
102
RTVSPropertyOp23
 70
     1
102
RTVSPropertyOp24
 70
     1
102
RTVSPropertyOp25
 70
     1
102
RTVSPropertyOp26
 70
     1
102
RTVSPropertyOp27
 70
     1
102
RTVSPropertyOp28
 70
     1
102
RTVSPropertyOp29
 70
     1
102
RTVSPropertyOp30
 70
     1
102
RTVSPropertyOp31
 70
     1
102
RTVSPropertyOp32
 70
     1
102
RTVSPropertyOp33
 70
     1
102
RTVSPropertyOp34
 70
     1
102
RTVSPropertyOp35
 70
     1
102
RTVSPropertyOp36
 70
     1
102
RTVSPropertyOp37
 70
     1
102
RTVSPropertyOp38
 70
     1
102
RTVSPropertyOp39
 70
     1
102
RTVSPropertyOp40
 70
     1
102
RTVSPropertyOp41
 70
     1
102
RTVSPropertyOp42
 70
     1
102
RTVSPropertyOp43
 70
     1
102
RTVSPropertyOp44
 70
     1
102
RTVSPropertyOp45
 70
     1
102
RTVSPropertyOp46
 70
     1
102
RTVSPropertyOp47
 70
     1
102
RTVSPropertyOp48
 70
     1
102
RTVSPropertyOp49
 70
     1
102
RTVSPropertyOp50
 70
     1
102
RTVSPropertyOp51
 70
     0
102
RTVSPropertyOp52
 70
     0
102
RTVSPropertyOp53
 70
     1
102
RTVSPropertyOp54
 70
     1
102
RTVSPropertyOp55
 70
     1
102
RTVSPropertyOp56
 70
     1
102
RTVSPropertyOp57
 70
     1
102
RTVSPropertyOp58
 70
     1
102
RTVSPropertyOp59
 70
     1
102
RTVSPropertyOp60
 70
     1
102
RTVSPropertyOp61
 70
     1
102
RTVSPropertyOp62
 70
     1
  0
XRECORD
  5
190E
102
{ACAD_REACTORS
330
190D
102
}
330
190D
100
AcDbXrecord
280
     1
102
RTVSPost2010Prop28
280
     0
102
RTVSPost2010PropOp28
 70
     1
102
RTVSPost2010Prop29
280
     1
102
RTVSPost2010PropOp29
 70
     1
102
RTVSPost2010Prop30
280
     1
102
RTVSPost2010PropOp30
 70
     1
102
RTVSPost2010Prop31
280
     0
102
RTVSPost2010PropOp31
 70
     1
102
RTVSPost2010Prop32
280
     0
102
RTVSPost2010PropOp32
 70
     1
102
RTVSPost2010Prop33
280
     0
102
RTVSPost2010PropOp33
 70
     1
102
RTVSPost2010Prop34
280
     0
102
RTVSPost2010PropOp34
 70
     1
102
RTVSPost2010Prop35
280
     0
102
RTVSPost2010PropOp35
 70
     1
102
RTVSPost2010Prop36
280
     0
102
RTVSPost2010PropOp36
 70
     1
102
RTVSPost2010Prop37
 90
       50
102
RTVSPost2010PropOp37
 70
     1
102
RTVSPost2010Prop38
140
0.0
102
RTVSPost2010PropOp38
 70
     1
102
RTVSPost2010Prop39
140
1.0
102
RTVSPost2010PropOp39
 70
     1
102
RTVSPost2010Prop40
 90
        0
102
RTVSPost2010PropOp40
 70
     1
102
RTVSPost2010Prop41ColorIndex
 90
       18
102
RTVSPost2010Prop41ColorRGB
 90
        0
102
RTVSPost2010PropOp41
 70
     1
102
RTVSPost2010Prop42
 90
       50
102
RTVSPost2010PropOp42
 70
     1
102
RTVSPost2010Prop43
 90
        3
102
RTVSPost2010PropOp43
 70
     1
102
RTVSPost2010Prop44ColorIndex
 90
        5
102
RTVSPost2010Prop44ColorRGB
 90
      255
102
RTVSPost2010PropOp44
 70
     1
102
RTVSPost2010Prop45
280
     0
102
RTVSPost2010PropOp45
 70
     1
102
RTVSPost2010Prop46
 90
       50
102
RTVSPost2010PropOp46
 70
     1
102
RTVSPost2010Prop47
 90
       50
102
RTVSPost2010PropOp47
 70
     1
102
RTVSPost2010Prop48
 90
       50
102
RTVSPost2010PropOp48
 70
     1
102
RTVSPost2010Prop49
280
     0
102
RTVSPost2010PropOp49
 70
     1
102
RTVSPost2010Prop50
 90
       50
102
RTVSPost2010PropOp50
 70
     1
102
RTVSPost2010Prop51ColorIndex
 90
      256
102
RTVSPost2010Prop51ColorRGB
 90
-16777216
102
RTVSPost2010PropOp51
 70
     0
102
RTVSPost2010Prop52
140
1.0
102
RTVSPost2010PropOp52
 70
     0
102
RTVSPost2010Prop53
 90
        2
102
RTVSPost2010PropOp53
 70
     1
102
RTVSPost2010Prop54
  1
strokes_ogs.tif
102
RTVSPost2010PropOp54
 70
     1
102
RTVSPost2010Prop55
280
     0
102
RTVSPost2010PropOp55
 70
     1
102
RTVSPost2010Prop56
140
1.0
102
RTVSPost2010PropOp56
 70
     1
102
RTVSPost2010Prop57
140
1.0
102
RTVSPost2010PropOp57
 70
     1
102
RTVSPropertyOp0
 70
     1
102
RTVSPropertyOp1
 70
     1
102
RTVSPropertyOp2
 70
     1
102
RTVSPropertyOp3
 70
     1
102
RTVSPropertyOp4
 70
     1
102
RTVSPropertyOp5
 70
     1
102
RTVSPropertyOp6
 70
     1
102
RTVSPropertyOp7
 70
     1
102
RTVSPropertyOp8
 70
     1
102
RTVSPropertyOp9
 70
     1
102
RTVSPropertyOp10
 70
     1
102
RTVSPropertyOp11
 70
     1
102
RTVSPropertyOp12
 70
     1
102
RTVSPropertyOp13
 70
     1
102
RTVSPropertyOp14
 70
     1
102
RTVSPropertyOp15
 70
     1
102
RTVSPropertyOp16
 70
     1
102
RTVSPropertyOp17
 70
     1
102
RTVSPropertyOp18
 70
     1
102
RTVSPropertyOp19
 70
     1
102
RTVSPropertyOp20
 70
     1
102
RTVSPropertyOp21
 70
     1
102
RTVSPropertyOp22
 70
     1
102
RTVSPropertyOp23
 70
     1
102
RTVSPropertyOp24
 70
     1
102
RTVSPropertyOp25
 70
     1
102
RTVSPropertyOp26
 70
     1
102
RTVSPropertyOp27
 70
     1
102
RTVSPropertyOp28
 70
     1
102
RTVSPropertyOp29
 70
     1
102
RTVSPropertyOp30
 70
     1
102
RTVSPropertyOp31
 70
     1
102
RTVSPropertyOp32
 70
     1
102
RTVSPropertyOp33
 70
     1
102
RTVSPropertyOp34
 70
     1
102
RTVSPropertyOp35
 70
     1
102
RTVSPropertyOp36
 70
     1
102
RTVSPropertyOp37
 70
     1
102
RTVSPropertyOp38
 70
     1
102
RTVSPropertyOp39
 70
     1
102
RTVSPropertyOp40
 70
     1
102
RTVSPropertyOp41
 70
     1
102
RTVSPropertyOp42
 70
     1
102
RTVSPropertyOp43
 70
     1
102
RTVSPropertyOp44
 70
     1
102
RTVSPropertyOp45
 70
     1
102
RTVSPropertyOp46
 70
     1
102
RTVSPropertyOp47
 70
     1
102
RTVSPropertyOp48
 70
     1
102
RTVSPropertyOp49
 70
     1
102
RTVSPropertyOp50
 70
     1
102
RTVSPropertyOp51
 70
     0
102
RTVSPropertyOp52
 70
     0
102
RTVSPropertyOp53
 70
     1
102
RTVSPropertyOp54
 70
     1
102
RTVSPropertyOp55
 70
     1
102
RTVSPropertyOp56
 70
     1
102
RTVSPropertyOp57
 70
     1
102
RTVSPropertyOp58
 70
     1
102
RTVSPropertyOp59
 70
     1
102
RTVSPropertyOp60
 70
     1
102
RTVSPropertyOp61
 70
     1
102
RTVSPropertyOp62
 70
     1
  0
XRECORD
  5
191C
102
{ACAD_REACTORS
330
191B
102
}
330
191B
100
AcDbXrecord
280
     1
102
RTVSPost2010Prop28
280
     0
102
RTVSPost2010PropOp28
 70
     1
102
RTVSPost2010Prop29
280
     1
102
RTVSPost2010PropOp29
 70
     1
102
RTVSPost2010Prop30
280
     1
102
RTVSPost2010PropOp30
 70
     1
102
RTVSPost2010Prop31
280
     0
102
RTVSPost2010PropOp31
 70
     1
102
RTVSPost2010Prop32
280
     0
102
RTVSPost2010PropOp32
 70
     1
102
RTVSPost2010Prop33
280
     0
102
RTVSPost2010PropOp33
 70
     1
102
RTVSPost2010Prop34
280
     0
102
RTVSPost2010PropOp34
 70
     1
102
RTVSPost2010Prop35
280
     0
102
RTVSPost2010PropOp35
 70
     1
102
RTVSPost2010Prop36
280
     0
102
RTVSPost2010PropOp36
 70
     1
102
RTVSPost2010Prop37
 90
       50
102
RTVSPost2010PropOp37
 70
     1
102
RTVSPost2010Prop38
140
0.0
102
RTVSPost2010PropOp38
 70
     1
102
RTVSPost2010Prop39
140
1.0
102
RTVSPost2010PropOp39
 70
     1
102
RTVSPost2010Prop40
 90
        0
102
RTVSPost2010PropOp40
 70
     1
102
RTVSPost2010Prop41ColorIndex
 90
       18
102
RTVSPost2010Prop41ColorRGB
 90
        0
102
RTVSPost2010PropOp41
 70
     1
102
RTVSPost2010Prop42
 90
       50
102
RTVSPost2010PropOp42
 70
     1
102
RTVSPost2010Prop43
 90
        3
102
RTVSPost2010PropOp43
 70
     1
102
RTVSPost2010Prop44ColorIndex
 90
        5
102
RTVSPost2010Prop44ColorRGB
 90
      255
102
RTVSPost2010PropOp44
 70
     1
102
RTVSPost2010Prop45
280
     0
102
RTVSPost2010PropOp45
 70
     1
102
RTVSPost2010Prop46
 90
       50
102
RTVSPost2010PropOp46
 70
     1
102
RTVSPost2010Prop47
 90
       50
102
RTVSPost2010PropOp47
 70
     1
102
RTVSPost2010Prop48
 90
       50
102
RTVSPost2010PropOp48
 70
     1
102
RTVSPost2010Prop49
280
     0
102
RTVSPost2010PropOp49
 70
     1
102
RTVSPost2010Prop50
 90
       50
102
RTVSPost2010PropOp50
 70
     1
102
RTVSPost2010Prop51ColorIndex
 90
      256
102
RTVSPost2010Prop51ColorRGB
 90
-16777216
102
RTVSPost2010PropOp51
 70
     0
102
RTVSPost2010Prop52
140
1.0
102
RTVSPost2010PropOp52
 70
     0
102
RTVSPost2010Prop53
 90
        2
102
RTVSPost2010PropOp53
 70
     1
102
RTVSPost2010Prop54
  1
strokes_ogs.tif
102
RTVSPost2010PropOp54
 70
     1
102
RTVSPost2010Prop55
280
     0
102
RTVSPost2010PropOp55
 70
     1
102
RTVSPost2010Prop56
140
1.0
102
RTVSPost2010PropOp56
 70
     1
102
RTVSPost2010Prop57
140
1.0
102
RTVSPost2010PropOp57
 70
     1
102
RTVSPropertyOp0
 70
     1
102
RTVSPropertyOp1
 70
     1
102
RTVSPropertyOp2
 70
     1
102
RTVSPropertyOp3
 70
     1
102
RTVSPropertyOp4
 70
     1
102
RTVSPropertyOp5
 70
     1
102
RTVSPropertyOp6
 70
     1
102
RTVSPropertyOp7
 70
     1
102
RTVSPropertyOp8
 70
     1
102
RTVSPropertyOp9
 70
     1
102
RTVSPropertyOp10
 70
     1
102
RTVSPropertyOp11
 70
     1
102
RTVSPropertyOp12
 70
     1
102
RTVSPropertyOp13
 70
     1
102
RTVSPropertyOp14
 70
     1
102
RTVSPropertyOp15
 70
     1
102
RTVSPropertyOp16
 70
     1
102
RTVSPropertyOp17
 70
     1
102
RTVSPropertyOp18
 70
     1
102
RTVSPropertyOp19
 70
     1
102
RTVSPropertyOp20
 70
     1
102
RTVSPropertyOp21
 70
     1
102
RTVSPropertyOp22
 70
     1
102
RTVSPropertyOp23
 70
     1
102
RTVSPropertyOp24
 70
     1
102
RTVSPropertyOp25
 70
     1
102
RTVSPropertyOp26
 70
     1
102
RTVSPropertyOp27
 70
     1
102
RTVSPropertyOp28
 70
     1
102
RTVSPropertyOp29
 70
     1
102
RTVSPropertyOp30
 70
     1
102
RTVSPropertyOp31
 70
     1
102
RTVSPropertyOp32
 70
     1
102
RTVSPropertyOp33
 70
     1
102
RTVSPropertyOp34
 70
     1
102
RTVSPropertyOp35
 70
     1
102
RTVSPropertyOp36
 70
     1
102
RTVSPropertyOp37
 70
     1
102
RTVSPropertyOp38
 70
     1
102
RTVSPropertyOp39
 70
     1
102
RTVSPropertyOp40
 70
     1
102
RTVSPropertyOp41
 70
     1
102
RTVSPropertyOp42
 70
     1
102
RTVSPropertyOp43
 70
     1
102
RTVSPropertyOp44
 70
     1
102
RTVSPropertyOp45
 70
     1
102
RTVSPropertyOp46
 70
     1
102
RTVSPropertyOp47
 70
     1
102
RTVSPropertyOp48
 70
     1
102
RTVSPropertyOp49
 70
     1
102
RTVSPropertyOp50
 70
     1
102
RTVSPropertyOp51
 70
     0
102
RTVSPropertyOp52
 70
     0
102
RTVSPropertyOp53
 70
     1
102
RTVSPropertyOp54
 70
     1
102
RTVSPropertyOp55
 70
     1
102
RTVSPropertyOp56
 70
     1
102
RTVSPropertyOp57
 70
     1
102
RTVSPropertyOp58
 70
     1
102
RTVSPropertyOp59
 70
     1
102
RTVSPropertyOp60
 70
     1
102
RTVSPropertyOp61
 70
     1
102
RTVSPropertyOp62
 70
     1
  0
XRECORD
  5
1924
102
{ACAD_REACTORS
330
1923
102
}
330
1923
100
AcDbXrecord
280
     1
102
RTVSPost2010Prop28
280
     0
102
RTVSPost2010PropOp28
 70
     1
102
RTVSPost2010Prop29
280
     1
102
RTVSPost2010PropOp29
 70
     1
102
RTVSPost2010Prop30
280
     1
102
RTVSPost2010PropOp30
 70
     1
102
RTVSPost2010Prop31
280
     0
102
RTVSPost2010PropOp31
 70
     1
102
RTVSPost2010Prop32
280
     0
102
RTVSPost2010PropOp32
 70
     1
102
RTVSPost2010Prop33
280
     0
102
RTVSPost2010PropOp33
 70
     1
102
RTVSPost2010Prop34
280
     0
102
RTVSPost2010PropOp34
 70
     1
102
RTVSPost2010Prop35
280
     0
102
RTVSPost2010PropOp35
 70
     1
102
RTVSPost2010Prop36
280
     0
102
RTVSPost2010PropOp36
 70
     1
102
RTVSPost2010Prop37
 90
       50
102
RTVSPost2010PropOp37
 70
     1
102
RTVSPost2010Prop38
140
0.0
102
RTVSPost2010PropOp38
 70
     1
102
RTVSPost2010Prop39
140
1.0
102
RTVSPost2010PropOp39
 70
     1
102
RTVSPost2010Prop40
 90
        0
102
RTVSPost2010PropOp40
 70
     1
102
RTVSPost2010Prop41ColorIndex
 90
       18
102
RTVSPost2010Prop41ColorRGB
 90
        0
102
RTVSPost2010PropOp41
 70
     1
102
RTVSPost2010Prop42
 90
       50
102
RTVSPost2010PropOp42
 70
     1
102
RTVSPost2010Prop43
 90
        3
102
RTVSPost2010PropOp43
 70
     1
102
RTVSPost2010Prop44ColorIndex
 90
        5
102
RTVSPost2010Prop44ColorRGB
 90
      255
102
RTVSPost2010PropOp44
 70
     1
102
RTVSPost2010Prop45
280
     0
102
RTVSPost2010PropOp45
 70
     1
102
RTVSPost2010Prop46
 90
       50
102
RTVSPost2010PropOp46
 70
     1
102
RTVSPost2010Prop47
 90
       50
102
RTVSPost2010PropOp47
 70
     1
102
RTVSPost2010Prop48
 90
       50
102
RTVSPost2010PropOp48
 70
     1
102
RTVSPost2010Prop49
280
     0
102
RTVSPost2010PropOp49
 70
     1
102
RTVSPost2010Prop50
 90
       50
102
RTVSPost2010PropOp50
 70
     1
102
RTVSPost2010Prop51ColorIndex
 90
      256
102
RTVSPost2010Prop51ColorRGB
 90
-16777216
102
RTVSPost2010PropOp51
 70
     0
102
RTVSPost2010Prop52
140
1.0
102
RTVSPost2010PropOp52
 70
     0
102
RTVSPost2010Prop53
 90
        2
102
RTVSPost2010PropOp53
 70
     1
102
RTVSPost2010Prop54
  1
strokes_ogs.tif
102
RTVSPost2010PropOp54
 70
     1
102
RTVSPost2010Prop55
280
     0
102
RTVSPost2010PropOp55
 70
     1
102
RTVSPost2010Prop56
140
1.0
102
RTVSPost2010PropOp56
 70
     1
102
RTVSPost2010Prop57
140
1.0
102
RTVSPost2010PropOp57
 70
     1
102
RTVSPropertyOp0
 70
     1
102
RTVSPropertyOp1
 70
     1
102
RTVSPropertyOp2
 70
     1
102
RTVSPropertyOp3
 70
     1
102
RTVSPropertyOp4
 70
     1
102
RTVSPropertyOp5
 70
     1
102
RTVSPropertyOp6
 70
     1
102
RTVSPropertyOp7
 70
     1
102
RTVSPropertyOp8
 70
     1
102
RTVSPropertyOp9
 70
     1
102
RTVSPropertyOp10
 70
     1
102
RTVSPropertyOp11
 70
     1
102
RTVSPropertyOp12
 70
     1
102
RTVSPropertyOp13
 70
     1
102
RTVSPropertyOp14
 70
     1
102
RTVSPropertyOp15
 70
     1
102
RTVSPropertyOp16
 70
     1
102
RTVSPropertyOp17
 70
     1
102
RTVSPropertyOp18
 70
     1
102
RTVSPropertyOp19
 70
     1
102
RTVSPropertyOp20
 70
     1
102
RTVSPropertyOp21
 70
     1
102
RTVSPropertyOp22
 70
     1
102
RTVSPropertyOp23
 70
     1
102
RTVSPropertyOp24
 70
     1
102
RTVSPropertyOp25
 70
     1
102
RTVSPropertyOp26
 70
     1
102
RTVSPropertyOp27
 70
     1
102
RTVSPropertyOp28
 70
     1
102
RTVSPropertyOp29
 70
     1
102
RTVSPropertyOp30
 70
     1
102
RTVSPropertyOp31
 70
     1
102
RTVSPropertyOp32
 70
     1
102
RTVSPropertyOp33
 70
     1
102
RTVSPropertyOp34
 70
     1
102
RTVSPropertyOp35
 70
     1
102
RTVSPropertyOp36
 70
     1
102
RTVSPropertyOp37
 70
     1
102
RTVSPropertyOp38
 70
     1
102
RTVSPropertyOp39
 70
     1
102
RTVSPropertyOp40
 70
     1
102
RTVSPropertyOp41
 70
     1
102
RTVSPropertyOp42
 70
     1
102
RTVSPropertyOp43
 70
     1
102
RTVSPropertyOp44
 70
     1
102
RTVSPropertyOp45
 70
     1
102
RTVSPropertyOp46
 70
     1
102
RTVSPropertyOp47
 70
     1
102
RTVSPropertyOp48
 70
     1
102
RTVSPropertyOp49
 70
     1
102
RTVSPropertyOp50
 70
     1
102
RTVSPropertyOp51
 70
     0
102
RTVSPropertyOp52
 70
     0
102
RTVSPropertyOp53
 70
     1
102
RTVSPropertyOp54
 70
     1
102
RTVSPropertyOp55
 70
     1
102
RTVSPropertyOp56
 70
     1
102
RTVSPropertyOp57
 70
     1
102
RTVSPropertyOp58
 70
     1
102
RTVSPropertyOp59
 70
     1
102
RTVSPropertyOp60
 70
     1
102
RTVSPropertyOp61
 70
     1
102
RTVSPropertyOp62
 70
     1
  0
XRECORD
  5
1916
102
{ACAD_REACTORS
330
1915
102
}
330
1915
100
AcDbXrecord
280
     1
102
RTVSPost2010Prop28
280
     0
102
RTVSPost2010PropOp28
 70
     1
102
RTVSPost2010Prop29
280
     1
102
RTVSPost2010PropOp29
 70
     1
102
RTVSPost2010Prop30
280
     1
102
RTVSPost2010PropOp30
 70
     1
102
RTVSPost2010Prop31
280
     0
102
RTVSPost2010PropOp31
 70
     1
102
RTVSPost2010Prop32
280
     0
102
RTVSPost2010PropOp32
 70
     1
102
RTVSPost2010Prop33
280
     0
102
RTVSPost2010PropOp33
 70
     1
102
RTVSPost2010Prop34
280
     0
102
RTVSPost2010PropOp34
 70
     1
102
RTVSPost2010Prop35
280
     0
102
RTVSPost2010PropOp35
 70
     1
102
RTVSPost2010Prop36
280
     0
102
RTVSPost2010PropOp36
 70
     1
102
RTVSPost2010Prop37
 90
       50
102
RTVSPost2010PropOp37
 70
     1
102
RTVSPost2010Prop38
140
0.0
102
RTVSPost2010PropOp38
 70
     1
102
RTVSPost2010Prop39
140
1.0
102
RTVSPost2010PropOp39
 70
     1
102
RTVSPost2010Prop40
 90
        0
102
RTVSPost2010PropOp40
 70
     1
102
RTVSPost2010Prop41ColorIndex
 90
       18
102
RTVSPost2010Prop41ColorRGB
 90
        0
102
RTVSPost2010PropOp41
 70
     1
102
RTVSPost2010Prop42
 90
       50
102
RTVSPost2010PropOp42
 70
     1
102
RTVSPost2010Prop43
 90
        3
102
RTVSPost2010PropOp43
 70
     1
102
RTVSPost2010Prop44ColorIndex
 90
        5
102
RTVSPost2010Prop44ColorRGB
 90
      255
102
RTVSPost2010PropOp44
 70
     1
102
RTVSPost2010Prop45
280
     0
102
RTVSPost2010PropOp45
 70
     1
102
RTVSPost2010Prop46
 90
       50
102
RTVSPost2010PropOp46
 70
     1
102
RTVSPost2010Prop47
 90
       50
102
RTVSPost2010PropOp47
 70
     1
102
RTVSPost2010Prop48
 90
       50
102
RTVSPost2010PropOp48
 70
     1
102
RTVSPost2010Prop49
280
     0
102
RTVSPost2010PropOp49
 70
     1
102
RTVSPost2010Prop50
 90
       50
102
RTVSPost2010PropOp50
 70
     1
102
RTVSPost2010Prop51ColorIndex
 90
      256
102
RTVSPost2010Prop51ColorRGB
 90
-16777216
102
RTVSPost2010PropOp51
 70
     0
102
RTVSPost2010Prop52
140
1.0
102
RTVSPost2010PropOp52
 70
     0
102
RTVSPost2010Prop53
 90
        2
102
RTVSPost2010PropOp53
 70
     1
102
RTVSPost2010Prop54
  1
strokes_ogs.tif
102
RTVSPost2010PropOp54
 70
     1
102
RTVSPost2010Prop55
280
     0
102
RTVSPost2010PropOp55
 70
     1
102
RTVSPost2010Prop56
140
1.0
102
RTVSPost2010PropOp56
 70
     1
102
RTVSPost2010Prop57
140
1.0
102
RTVSPost2010PropOp57
 70
     1
102
RTVSPropertyOp0
 70
     1
102
RTVSPropertyOp1
 70
     1
102
RTVSPropertyOp2
 70
     1
102
RTVSPropertyOp3
 70
     1
102
RTVSPropertyOp4
 70
     1
102
RTVSPropertyOp5
 70
     1
102
RTVSPropertyOp6
 70
     1
102
RTVSPropertyOp7
 70
     1
102
RTVSPropertyOp8
 70
     1
102
RTVSPropertyOp9
 70
     1
102
RTVSPropertyOp10
 70
     1
102
RTVSPropertyOp11
 70
     1
102
RTVSPropertyOp12
 70
     1
102
RTVSPropertyOp13
 70
     1
102
RTVSPropertyOp14
 70
     1
102
RTVSPropertyOp15
 70
     1
102
RTVSPropertyOp16
 70
     1
102
RTVSPropertyOp17
 70
     1
102
RTVSPropertyOp18
 70
     1
102
RTVSPropertyOp19
 70
     1
102
RTVSPropertyOp20
 70
     1
102
RTVSPropertyOp21
 70
     1
102
RTVSPropertyOp22
 70
     1
102
RTVSPropertyOp23
 70
     1
102
RTVSPropertyOp24
 70
     1
102
RTVSPropertyOp25
 70
     1
102
RTVSPropertyOp26
 70
     1
102
RTVSPropertyOp27
 70
     1
102
RTVSPropertyOp28
 70
     1
102
RTVSPropertyOp29
 70
     1
102
RTVSPropertyOp30
 70
     1
102
RTVSPropertyOp31
 70
     1
102
RTVSPropertyOp32
 70
     1
102
RTVSPropertyOp33
 70
     1
102
RTVSPropertyOp34
 70
     1
102
RTVSPropertyOp35
 70
     1
102
RTVSPropertyOp36
 70
     1
102
RTVSPropertyOp37
 70
     1
102
RTVSPropertyOp38
 70
     1
102
RTVSPropertyOp39
 70
     1
102
RTVSPropertyOp40
 70
     1
102
RTVSPropertyOp41
 70
     1
102
RTVSPropertyOp42
 70
     1
102
RTVSPropertyOp43
 70
     1
102
RTVSPropertyOp44
 70
     1
102
RTVSPropertyOp45
 70
     1
102
RTVSPropertyOp46
 70
     1
102
RTVSPropertyOp47
 70
     1
102
RTVSPropertyOp48
 70
     1
102
RTVSPropertyOp49
 70
     1
102
RTVSPropertyOp50
 70
     1
102
RTVSPropertyOp51
 70
     0
102
RTVSPropertyOp52
 70
     0
102
RTVSPropertyOp53
 70
     1
102
RTVSPropertyOp54
 70
     1
102
RTVSPropertyOp55
 70
     1
102
RTVSPropertyOp56
 70
     1
102
RTVSPropertyOp57
 70
     1
102
RTVSPropertyOp58
 70
     1
102
RTVSPropertyOp59
 70
     1
102
RTVSPropertyOp60
 70
     1
102
RTVSPropertyOp61
 70
     1
102
RTVSPropertyOp62
 70
     1
  0
XRECORD
  5
191A
102
{ACAD_REACTORS
330
1919
102
}
330
1919
100
AcDbXrecord
280
     1
102
RTVSPost2010Prop28
280
     0
102
RTVSPost2010PropOp28
 70
     1
102
RTVSPost2010Prop29
280
     1
102
RTVSPost2010PropOp29
 70
     1
102
RTVSPost2010Prop30
280
     1
102
RTVSPost2010PropOp30
 70
     1
102
RTVSPost2010Prop31
280
     0
102
RTVSPost2010PropOp31
 70
     1
102
RTVSPost2010Prop32
280
     0
102
RTVSPost2010PropOp32
 70
     1
102
RTVSPost2010Prop33
280
     0
102
RTVSPost2010PropOp33
 70
     1
102
RTVSPost2010Prop34
280
     0
102
RTVSPost2010PropOp34
 70
     1
102
RTVSPost2010Prop35
280
     0
102
RTVSPost2010PropOp35
 70
     1
102
RTVSPost2010Prop36
280
     0
102
RTVSPost2010PropOp36
 70
     1
102
RTVSPost2010Prop37
 90
       50
102
RTVSPost2010PropOp37
 70
     1
102
RTVSPost2010Prop38
140
0.0
102
RTVSPost2010PropOp38
 70
     1
102
RTVSPost2010Prop39
140
1.0
102
RTVSPost2010PropOp39
 70
     1
102
RTVSPost2010Prop40
 90
        0
102
RTVSPost2010PropOp40
 70
     1
102
RTVSPost2010Prop41ColorIndex
 90
       18
102
RTVSPost2010Prop41ColorRGB
 90
        0
102
RTVSPost2010PropOp41
 70
     1
102
RTVSPost2010Prop42
 90
       50
102
RTVSPost2010PropOp42
 70
     1
102
RTVSPost2010Prop43
 90
        3
102
RTVSPost2010PropOp43
 70
     1
102
RTVSPost2010Prop44ColorIndex
 90
        5
102
RTVSPost2010Prop44ColorRGB
 90
      255
102
RTVSPost2010PropOp44
 70
     1
102
RTVSPost2010Prop45
280
     0
102
RTVSPost2010PropOp45
 70
     1
102
RTVSPost2010Prop46
 90
       50
102
RTVSPost2010PropOp46
 70
     1
102
RTVSPost2010Prop47
 90
       50
102
RTVSPost2010PropOp47
 70
     1
102
RTVSPost2010Prop48
 90
       50
102
RTVSPost2010PropOp48
 70
     1
102
RTVSPost2010Prop49
280
     0
102
RTVSPost2010PropOp49
 70
     1
102
RTVSPost2010Prop50
 90
       50
102
RTVSPost2010PropOp50
 70
     1
102
RTVSPost2010Prop51ColorIndex
 90
      256
102
RTVSPost2010Prop51ColorRGB
 90
-16777216
102
RTVSPost2010PropOp51
 70
     0
102
RTVSPost2010Prop52
140
1.0
102
RTVSPost2010PropOp52
 70
     0
102
RTVSPost2010Prop53
 90
        2
102
RTVSPost2010PropOp53
 70
     1
102
RTVSPost2010Prop54
  1
strokes_ogs.tif
102
RTVSPost2010PropOp54
 70
     1
102
RTVSPost2010Prop55
280
     0
102
RTVSPost2010PropOp55
 70
     1
102
RTVSPost2010Prop56
140
1.0
102
RTVSPost2010PropOp56
 70
     1
102
RTVSPost2010Prop57
140
1.0
102
RTVSPost2010PropOp57
 70
     1
102
RTVSPropertyOp0
 70
     1
102
RTVSPropertyOp1
 70
     1
102
RTVSPropertyOp2
 70
     1
102
RTVSPropertyOp3
 70
     1
102
RTVSPropertyOp4
 70
     1
102
RTVSPropertyOp5
 70
     1
102
RTVSPropertyOp6
 70
     1
102
RTVSPropertyOp7
 70
     1
102
RTVSPropertyOp8
 70
     1
102
RTVSPropertyOp9
 70
     1
102
RTVSPropertyOp10
 70
     1
102
RTVSPropertyOp11
 70
     1
102
RTVSPropertyOp12
 70
     1
102
RTVSPropertyOp13
 70
     1
102
RTVSPropertyOp14
 70
     1
102
RTVSPropertyOp15
 70
     1
102
RTVSPropertyOp16
 70
     1
102
RTVSPropertyOp17
 70
     1
102
RTVSPropertyOp18
 70
     1
102
RTVSPropertyOp19
 70
     1
102
RTVSPropertyOp20
 70
     1
102
RTVSPropertyOp21
 70
     1
102
RTVSPropertyOp22
 70
     1
102
RTVSPropertyOp23
 70
     1
102
RTVSPropertyOp24
 70
     1
102
RTVSPropertyOp25
 70
     1
102
RTVSPropertyOp26
 70
     1
102
RTVSPropertyOp27
 70
     1
102
RTVSPropertyOp28
 70
     1
102
RTVSPropertyOp29
 70
     1
102
RTVSPropertyOp30
 70
     1
102
RTVSPropertyOp31
 70
     1
102
RTVSPropertyOp32
 70
     1
102
RTVSPropertyOp33
 70
     1
102
RTVSPropertyOp34
 70
     1
102
RTVSPropertyOp35
 70
     1
102
RTVSPropertyOp36
 70
     1
102
RTVSPropertyOp37
 70
     1
102
RTVSPropertyOp38
 70
     1
102
RTVSPropertyOp39
 70
     1
102
RTVSPropertyOp40
 70
     1
102
RTVSPropertyOp41
 70
     1
102
RTVSPropertyOp42
 70
     1
102
RTVSPropertyOp43
 70
     1
102
RTVSPropertyOp44
 70
     1
102
RTVSPropertyOp45
 70
     1
102
RTVSPropertyOp46
 70
     1
102
RTVSPropertyOp47
 70
     1
102
RTVSPropertyOp48
 70
     1
102
RTVSPropertyOp49
 70
     1
102
RTVSPropertyOp50
 70
     1
102
RTVSPropertyOp51
 70
     0
102
RTVSPropertyOp52
 70
     0
102
RTVSPropertyOp53
 70
     1
102
RTVSPropertyOp54
 70
     1
102
RTVSPropertyOp55
 70
     1
102
RTVSPropertyOp56
 70
     1
102
RTVSPropertyOp57
 70
     1
102
RTVSPropertyOp58
 70
     1
102
RTVSPropertyOp59
 70
     1
102
RTVSPropertyOp60
 70
     1
102
RTVSPropertyOp61
 70
     1
102
RTVSPropertyOp62
 70
     1
  0
XRECORD
  5
1934
102
{ACAD_REACTORS
330
1933
102
}
330
1933
100
AcDbXrecord
280
     1
102
RTVSPost2010Prop28
280
     0
102
RTVSPost2010PropOp28
 70
     1
102
RTVSPost2010Prop29
280
     1
102
RTVSPost2010PropOp29
 70
     1
102
RTVSPost2010Prop30
280
     1
102
RTVSPost2010PropOp30
 70
     1
102
RTVSPost2010Prop31
280
     0
102
RTVSPost2010PropOp31
 70
     1
102
RTVSPost2010Prop32
280
     0
102
RTVSPost2010PropOp32
 70
     1
102
RTVSPost2010Prop33
280
     0
102
RTVSPost2010PropOp33
 70
     1
102
RTVSPost2010Prop34
280
     0
102
RTVSPost2010PropOp34
 70
     1
102
RTVSPost2010Prop35
280
     0
102
RTVSPost2010PropOp35
 70
     1
102
RTVSPost2010Prop36
280
     0
102
RTVSPost2010PropOp36
 70
     1
102
RTVSPost2010Prop37
 90
       50
102
RTVSPost2010PropOp37
 70
     0
102
RTVSPost2010Prop38
140
0.0
102
RTVSPost2010PropOp38
 70
     0
102
RTVSPost2010Prop39
140
1.0
102
RTVSPost2010PropOp39
 70
     0
102
RTVSPost2010Prop40
 90
        0
102
RTVSPost2010PropOp40
 70
     0
102
RTVSPost2010Prop41ColorIndex
 90
       18
102
RTVSPost2010Prop41ColorRGB
 90
        0
102
RTVSPost2010PropOp41
 70
     0
102
RTVSPost2010Prop42
 90
       50
102
RTVSPost2010PropOp42
 70
     0
102
RTVSPost2010Prop43
 90
        3
102
RTVSPost2010PropOp43
 70
     0
102
RTVSPost2010Prop44ColorIndex
 90
        5
102
RTVSPost2010Prop44ColorRGB
 90
      255
102
RTVSPost2010PropOp44
 70
     0
102
RTVSPost2010Prop45
280
     0
102
RTVSPost2010PropOp45
 70
     1
102
RTVSPost2010Prop46
 90
       50
102
RTVSPost2010PropOp46
 70
     0
102
RTVSPost2010Prop47
 90
       50
102
RTVSPost2010PropOp47
 70
     0
102
RTVSPost2010Prop48
 90
       50
102
RTVSPost2010PropOp48
 70
     0
102
RTVSPost2010Prop49
280
     0
102
RTVSPost2010PropOp49
 70
     1
102
RTVSPost2010Prop50
 90
       50
102
RTVSPost2010PropOp50
 70
     0
102
RTVSPost2010Prop51ColorIndex
 90
      256
102
RTVSPost2010Prop51ColorRGB
 90
-16777216
102
RTVSPost2010PropOp51
 70
     0
102
RTVSPost2010Prop52
140
1.0
102
RTVSPost2010PropOp52
 70
     0
102
RTVSPost2010Prop53
 90
        2
102
RTVSPost2010PropOp53
 70
     0
102
RTVSPost2010Prop54
  1
strokes_ogs.tif
102
RTVSPost2010PropOp54
 70
     0
102
RTVSPost2010Prop55
280
     0
102
RTVSPost2010PropOp55
 70
     1
102
RTVSPost2010Prop56
140
1.0
102
RTVSPost2010PropOp56
 70
     0
102
RTVSPost2010Prop57
140
1.0
102
RTVSPost2010PropOp57
 70
     0
102
RTVSPropertyOp0
 70
     0
102
RTVSPropertyOp1
 70
     0
102
RTVSPropertyOp2
 70
     0
102
RTVSPropertyOp3
 70
     0
102
RTVSPropertyOp4
 70
     0
102
RTVSPropertyOp5
 70
     0
102
RTVSPropertyOp6
 70
     0
102
RTVSPropertyOp7
 70
     0
102
RTVSPropertyOp8
 70
     0
102
RTVSPropertyOp9
 70
     0
102
RTVSPropertyOp10
 70
     0
102
RTVSPropertyOp11
 70
     0
102
RTVSPropertyOp12
 70
     0
102
RTVSPropertyOp13
 70
     0
102
RTVSPropertyOp14
 70
     2
102
RTVSPropertyOp15
 70
     0
102
RTVSPropertyOp16
 70
     0
102
RTVSPropertyOp17
 70
     0
102
RTVSPropertyOp18
 70
     0
102
RTVSPropertyOp19
 70
     0
102
RTVSPropertyOp20
 70
     0
102
RTVSPropertyOp21
 70
     0
102
RTVSPropertyOp22
 70
     0
102
RTVSPropertyOp23
 70
     0
102
RTVSPropertyOp24
 70
     0
102
RTVSPropertyOp25
 70
     0
102
RTVSPropertyOp26
 70
     0
102
RTVSPropertyOp27
 70
     0
102
RTVSPropertyOp28
 70
     1
102
RTVSPropertyOp29
 70
     1
102
RTVSPropertyOp30
 70
     1
102
RTVSPropertyOp31
 70
     1
102
RTVSPropertyOp32
 70
     1
102
RTVSPropertyOp33
 70
     1
102
RTVSPropertyOp34
 70
     1
102
RTVSPropertyOp35
 70
     1
102
RTVSPropertyOp36
 70
     1
102
RTVSPropertyOp37
 70
     0
102
RTVSPropertyOp38
 70
     0
102
RTVSPropertyOp39
 70
     0
102
RTVSPropertyOp40
 70
     0
102
RTVSPropertyOp41
 70
     0
102
RTVSPropertyOp42
 70
     0
102
RTVSPropertyOp43
 70
     0
102
RTVSPropertyOp44
 70
     0
102
RTVSPropertyOp45
 70
     1
102
RTVSPropertyOp46
 70
     0
102
RTVSPropertyOp47
 70
     0
102
RTVSPropertyOp48
 70
     0
102
RTVSPropertyOp49
 70
     1
102
RTVSPropertyOp50
 70
     0
102
RTVSPropertyOp51
 70
     0
102
RTVSPropertyOp52
 70
     0
102
RTVSPropertyOp53
 70
     0
102
RTVSPropertyOp54
 70
     0
102
RTVSPropertyOp55
 70
     1
102
RTVSPropertyOp56
 70
     0
102
RTVSPropertyOp57
 70
     0
102
RTVSPropertyOp58
 70
     0
102
RTVSPropertyOp59
 70
     0
102
RTVSPropertyOp60
 70
     0
102
RTVSPropertyOp61
 70
     0
102
RTVSPropertyOp62
 70
     0
  0
XRECORD
  5
1922
102
{ACAD_REACTORS
330
1921
102
}
330
1921
100
AcDbXrecord
280
     1
102
RTVSPost2010Prop28
280
     0
102
RTVSPost2010PropOp28
 70
     1
102
RTVSPost2010Prop29
280
     1
102
RTVSPost2010PropOp29
 70
     1
102
RTVSPost2010Prop30
280
     1
102
RTVSPost2010PropOp30
 70
     1
102
RTVSPost2010Prop31
280
     0
102
RTVSPost2010PropOp31
 70
     1
102
RTVSPost2010Prop32
280
     0
102
RTVSPost2010PropOp32
 70
     1
102
RTVSPost2010Prop33
280
     0
102
RTVSPost2010PropOp33
 70
     1
102
RTVSPost2010Prop34
280
     0
102
RTVSPost2010PropOp34
 70
     1
102
RTVSPost2010Prop35
280
     0
102
RTVSPost2010PropOp35
 70
     1
102
RTVSPost2010Prop36
280
     0
102
RTVSPost2010PropOp36
 70
     1
102
RTVSPost2010Prop37
 90
       50
102
RTVSPost2010PropOp37
 70
     1
102
RTVSPost2010Prop38
140
0.0
102
RTVSPost2010PropOp38
 70
     1
102
RTVSPost2010Prop39
140
1.0
102
RTVSPost2010PropOp39
 70
     1
102
RTVSPost2010Prop40
 90
        0
102
RTVSPost2010PropOp40
 70
     1
102
RTVSPost2010Prop41ColorIndex
 90
       18
102
RTVSPost2010Prop41ColorRGB
 90
        0
102
RTVSPost2010PropOp41
 70
     1
102
RTVSPost2010Prop42
 90
       50
102
RTVSPost2010PropOp42
 70
     1
102
RTVSPost2010Prop43
 90
        3
102
RTVSPost2010PropOp43
 70
     1
102
RTVSPost2010Prop44ColorIndex
 90
        5
102
RTVSPost2010Prop44ColorRGB
 90
      255
102
RTVSPost2010PropOp44
 70
     1
102
RTVSPost2010Prop45
280
     0
102
RTVSPost2010PropOp45
 70
     1
102
RTVSPost2010Prop46
 90
       50
102
RTVSPost2010PropOp46
 70
     1
102
RTVSPost2010Prop47
 90
       50
102
RTVSPost2010PropOp47
 70
     1
102
RTVSPost2010Prop48
 90
       50
102
RTVSPost2010PropOp48
 70
     1
102
RTVSPost2010Prop49
280
     0
102
RTVSPost2010PropOp49
 70
     1
102
RTVSPost2010Prop50
 90
       50
102
RTVSPost2010PropOp50
 70
     1
102
RTVSPost2010Prop51ColorIndex
 90
      256
102
RTVSPost2010Prop51ColorRGB
 90
-16777216
102
RTVSPost2010PropOp51
 70
     0
102
RTVSPost2010Prop52
140
1.0
102
RTVSPost2010PropOp52
 70
     0
102
RTVSPost2010Prop53
 90
        2
102
RTVSPost2010PropOp53
 70
     1
102
RTVSPost2010Prop54
  1
strokes_ogs.tif
102
RTVSPost2010PropOp54
 70
     1
102
RTVSPost2010Prop55
280
     0
102
RTVSPost2010PropOp55
 70
     1
102
RTVSPost2010Prop56
140
1.0
102
RTVSPost2010PropOp56
 70
     1
102
RTVSPost2010Prop57
140
1.0
102
RTVSPost2010PropOp57
 70
     1
102
RTVSPropertyOp0
 70
     1
102
RTVSPropertyOp1
 70
     1
102
RTVSPropertyOp2
 70
     1
102
RTVSPropertyOp3
 70
     1
102
RTVSPropertyOp4
 70
     1
102
RTVSPropertyOp5
 70
     1
102
RTVSPropertyOp6
 70
     1
102
RTVSPropertyOp7
 70
     1
102
RTVSPropertyOp8
 70
     1
102
RTVSPropertyOp9
 70
     1
102
RTVSPropertyOp10
 70
     1
102
RTVSPropertyOp11
 70
     1
102
RTVSPropertyOp12
 70
     1
102
RTVSPropertyOp13
 70
     1
102
RTVSPropertyOp14
 70
     1
102
RTVSPropertyOp15
 70
     1
102
RTVSPropertyOp16
 70
     1
102
RTVSPropertyOp17
 70
     1
102
RTVSPropertyOp18
 70
     1
102
RTVSPropertyOp19
 70
     1
102
RTVSPropertyOp20
 70
     1
102
RTVSPropertyOp21
 70
     1
102
RTVSPropertyOp22
 70
     1
102
RTVSPropertyOp23
 70
     1
102
RTVSPropertyOp24
 70
     1
102
RTVSPropertyOp25
 70
     1
102
RTVSPropertyOp26
 70
     1
102
RTVSPropertyOp27
 70
     1
102
RTVSPropertyOp28
 70
     1
102
RTVSPropertyOp29
 70
     1
102
RTVSPropertyOp30
 70
     1
102
RTVSPropertyOp31
 70
     1
102
RTVSPropertyOp32
 70
     1
102
RTVSPropertyOp33
 70
     1
102
RTVSPropertyOp34
 70
     1
102
RTVSPropertyOp35
 70
     1
102
RTVSPropertyOp36
 70
     1
102
RTVSPropertyOp37
 70
     1
102
RTVSPropertyOp38
 70
     1
102
RTVSPropertyOp39
 70
     1
102
RTVSPropertyOp40
 70
     1
102
RTVSPropertyOp41
 70
     1
102
RTVSPropertyOp42
 70
     1
102
RTVSPropertyOp43
 70
     1
102
RTVSPropertyOp44
 70
     1
102
RTVSPropertyOp45
 70
     1
102
RTVSPropertyOp46
 70
     1
102
RTVSPropertyOp47
 70
     1
102
RTVSPropertyOp48
 70
     1
102
RTVSPropertyOp49
 70
     1
102
RTVSPropertyOp50
 70
     1
102
RTVSPropertyOp51
 70
     0
102
RTVSPropertyOp52
 70
     0
102
RTVSPropertyOp53
 70
     1
102
RTVSPropertyOp54
 70
     1
102
RTVSPropertyOp55
 70
     1
102
RTVSPropertyOp56
 70
     1
102
RTVSPropertyOp57
 70
     1
102
RTVSPropertyOp58
 70
     1
102
RTVSPropertyOp59
 70
     1
102
RTVSPropertyOp60
 70
     1
102
RTVSPropertyOp61
 70
     1
102
RTVSPropertyOp62
 70
     1
  0
XRECORD
  5
1906
102
{ACAD_REACTORS
330
1905
102
}
330
1905
100
AcDbXrecord
280
     1
102
RTVSPost2010Prop28
280
     0
102
RTVSPost2010PropOp28
 70
     1
102
RTVSPost2010Prop29
280
     1
102
RTVSPost2010PropOp29
 70
     1
102
RTVSPost2010Prop30
280
     1
102
RTVSPost2010PropOp30
 70
     1
102
RTVSPost2010Prop31
280
     0
102
RTVSPost2010PropOp31
 70
     1
102
RTVSPost2010Prop32
280
     0
102
RTVSPost2010PropOp32
 70
     1
102
RTVSPost2010Prop33
280
     0
102
RTVSPost2010PropOp33
 70
     1
102
RTVSPost2010Prop34
280
     0
102
RTVSPost2010PropOp34
 70
     1
102
RTVSPost2010Prop35
280
     0
102
RTVSPost2010PropOp35
 70
     1
102
RTVSPost2010Prop36
280
     0
102
RTVSPost2010PropOp36
 70
     1
102
RTVSPost2010Prop37
 90
       50
102
RTVSPost2010PropOp37
 70
     1
102
RTVSPost2010Prop38
140
0.0
102
RTVSPost2010PropOp38
 70
     1
102
RTVSPost2010Prop39
140
1.0
102
RTVSPost2010PropOp39
 70
     1
102
RTVSPost2010Prop40
 90
        0
102
RTVSPost2010PropOp40
 70
     1
102
RTVSPost2010Prop41ColorIndex
 90
       18
102
RTVSPost2010Prop41ColorRGB
 90
        0
102
RTVSPost2010PropOp41
 70
     1
102
RTVSPost2010Prop42
 90
       50
102
RTVSPost2010PropOp42
 70
     1
102
RTVSPost2010Prop43
 90
        3
102
RTVSPost2010PropOp43
 70
     1
102
RTVSPost2010Prop44ColorIndex
 90
        5
102
RTVSPost2010Prop44ColorRGB
 90
      255
102
RTVSPost2010PropOp44
 70
     1
102
RTVSPost2010Prop45
280
     0
102
RTVSPost2010PropOp45
 70
     1
102
RTVSPost2010Prop46
 90
       50
102
RTVSPost2010PropOp46
 70
     1
102
RTVSPost2010Prop47
 90
       50
102
RTVSPost2010PropOp47
 70
     1
102
RTVSPost2010Prop48
 90
       50
102
RTVSPost2010PropOp48
 70
     1
102
RTVSPost2010Prop49
280
     0
102
RTVSPost2010PropOp49
 70
     1
102
RTVSPost2010Prop50
 90
       50
102
RTVSPost2010PropOp50
 70
     1
102
RTVSPost2010Prop51ColorIndex
 90
      256
102
RTVSPost2010Prop51ColorRGB
 90
-16777216
102
RTVSPost2010PropOp51
 70
     0
102
RTVSPost2010Prop52
140
1.0
102
RTVSPost2010PropOp52
 70
     0
102
RTVSPost2010Prop53
 90
        2
102
RTVSPost2010PropOp53
 70
     1
102
RTVSPost2010Prop54
  1
strokes_ogs.tif
102
RTVSPost2010PropOp54
 70
     1
102
RTVSPost2010Prop55
280
     0
102
RTVSPost2010PropOp55
 70
     1
102
RTVSPost2010Prop56
140
1.0
102
RTVSPost2010PropOp56
 70
     1
102
RTVSPost2010Prop57
140
1.0
102
RTVSPost2010PropOp57
 70
     1
102
RTVSPropertyOp0
 70
     1
102
RTVSPropertyOp1
 70
     1
102
RTVSPropertyOp2
 70
     1
102
RTVSPropertyOp3
 70
     1
102
RTVSPropertyOp4
 70
     1
102
RTVSPropertyOp5
 70
     1
102
RTVSPropertyOp6
 70
     1
102
RTVSPropertyOp7
 70
     1
102
RTVSPropertyOp8
 70
     1
102
RTVSPropertyOp9
 70
     1
102
RTVSPropertyOp10
 70
     1
102
RTVSPropertyOp11
 70
     1
102
RTVSPropertyOp12
 70
     1
102
RTVSPropertyOp13
 70
     1
102
RTVSPropertyOp14
 70
     1
102
RTVSPropertyOp15
 70
     1
102
RTVSPropertyOp16
 70
     1
102
RTVSPropertyOp17
 70
     1
102
RTVSPropertyOp18
 70
     1
102
RTVSPropertyOp19
 70
     1
102
RTVSPropertyOp20
 70
     1
102
RTVSPropertyOp21
 70
     1
102
RTVSPropertyOp22
 70
     1
102
RTVSPropertyOp23
 70
     1
102
RTVSPropertyOp24
 70
     1
102
RTVSPropertyOp25
 70
     1
102
RTVSPropertyOp26
 70
     1
102
RTVSPropertyOp27
 70
     1
102
RTVSPropertyOp28
 70
     1
102
RTVSPropertyOp29
 70
     1
102
RTVSPropertyOp30
 70
     1
102
RTVSPropertyOp31
 70
     1
102
RTVSPropertyOp32
 70
     1
102
RTVSPropertyOp33
 70
     1
102
RTVSPropertyOp34
 70
     1
102
RTVSPropertyOp35
 70
     1
102
RTVSPropertyOp36
 70
     1
102
RTVSPropertyOp37
 70
     1
102
RTVSPropertyOp38
 70
     1
102
RTVSPropertyOp39
 70
     1
102
RTVSPropertyOp40
 70
     1
102
RTVSPropertyOp41
 70
     1
102
RTVSPropertyOp42
 70
     1
102
RTVSPropertyOp43
 70
     1
102
RTVSPropertyOp44
 70
     1
102
RTVSPropertyOp45
 70
     1
102
RTVSPropertyOp46
 70
     1
102
RTVSPropertyOp47
 70
     1
102
RTVSPropertyOp48
 70
     1
102
RTVSPropertyOp49
 70
     1
102
RTVSPropertyOp50
 70
     1
102
RTVSPropertyOp51
 70
     0
102
RTVSPropertyOp52
 70
     0
102
RTVSPropertyOp53
 70
     1
102
RTVSPropertyOp54
 70
     1
102
RTVSPropertyOp55
 70
     1
102
RTVSPropertyOp56
 70
     1
102
RTVSPropertyOp57
 70
     1
102
RTVSPropertyOp58
 70
     1
102
RTVSPropertyOp59
 70
     1
102
RTVSPropertyOp60
 70
     1
102
RTVSPropertyOp61
 70
     1
102
RTVSPropertyOp62
 70
     1
  0
XRECORD
  5
1908
102
{ACAD_REACTORS
330
1907
102
}
330
1907
100
AcDbXrecord
280
     1
102
RTVSPost2010Prop28
280
     0
102
RTVSPost2010PropOp28
 70
     1
102
RTVSPost2010Prop29
280
     1
102
RTVSPost2010PropOp29
 70
     1
102
RTVSPost2010Prop30
280
     1
102
RTVSPost2010PropOp30
 70
     1
102
RTVSPost2010Prop31
280
     0
102
RTVSPost2010PropOp31
 70
     1
102
RTVSPost2010Prop32
280
     0
102
RTVSPost2010PropOp32
 70
     1
102
RTVSPost2010Prop33
280
     0
102
RTVSPost2010PropOp33
 70
     1
102
RTVSPost2010Prop34
280
     0
102
RTVSPost2010PropOp34
 70
     1
102
RTVSPost2010Prop35
280
     0
102
RTVSPost2010PropOp35
 70
     1
102
RTVSPost2010Prop36
280
     0
102
RTVSPost2010PropOp36
 70
     1
102
RTVSPost2010Prop37
 90
       50
102
RTVSPost2010PropOp37
 70
     1
102
RTVSPost2010Prop38
140
0.0
102
RTVSPost2010PropOp38
 70
     1
102
RTVSPost2010Prop39
140
1.0
102
RTVSPost2010PropOp39
 70
     1
102
RTVSPost2010Prop40
 90
        0
102
RTVSPost2010PropOp40
 70
     1
102
RTVSPost2010Prop41ColorIndex
 90
       18
102
RTVSPost2010Prop41ColorRGB
 90
        0
102
RTVSPost2010PropOp41
 70
     1
102
RTVSPost2010Prop42
 90
       50
102
RTVSPost2010PropOp42
 70
     1
102
RTVSPost2010Prop43
 90
        3
102
RTVSPost2010PropOp43
 70
     1
102
RTVSPost2010Prop44ColorIndex
 90
        5
102
RTVSPost2010Prop44ColorRGB
 90
      255
102
RTVSPost2010PropOp44
 70
     1
102
RTVSPost2010Prop45
280
     0
102
RTVSPost2010PropOp45
 70
     1
102
RTVSPost2010Prop46
 90
       50
102
RTVSPost2010PropOp46
 70
     1
102
RTVSPost2010Prop47
 90
       50
102
RTVSPost2010PropOp47
 70
     1
102
RTVSPost2010Prop48
 90
       50
102
RTVSPost2010PropOp48
 70
     1
102
RTVSPost2010Prop49
280
     0
102
RTVSPost2010PropOp49
 70
     1
102
RTVSPost2010Prop50
 90
       50
102
RTVSPost2010PropOp50
 70
     1
102
RTVSPost2010Prop51ColorIndex
 90
      256
102
RTVSPost2010Prop51ColorRGB
 90
-16777216
102
RTVSPost2010PropOp51
 70
     0
102
RTVSPost2010Prop52
140
1.0
102
RTVSPost2010PropOp52
 70
     0
102
RTVSPost2010Prop53
 90
        2
102
RTVSPost2010PropOp53
 70
     1
102
RTVSPost2010Prop54
  1
strokes_ogs.tif
102
RTVSPost2010PropOp54
 70
     1
102
RTVSPost2010Prop55
280
     0
102
RTVSPost2010PropOp55
 70
     1
102
RTVSPost2010Prop56
140
1.0
102
RTVSPost2010PropOp56
 70
     1
102
RTVSPost2010Prop57
140
1.0
102
RTVSPost2010PropOp57
 70
     1
102
RTVSPropertyOp0
 70
     1
102
RTVSPropertyOp1
 70
     1
102
RTVSPropertyOp2
 70
     1
102
RTVSPropertyOp3
 70
     1
102
RTVSPropertyOp4
 70
     1
102
RTVSPropertyOp5
 70
     1
102
RTVSPropertyOp6
 70
     1
102
RTVSPropertyOp7
 70
     1
102
RTVSPropertyOp8
 70
     1
102
RTVSPropertyOp9
 70
     1
102
RTVSPropertyOp10
 70
     1
102
RTVSPropertyOp11
 70
     1
102
RTVSPropertyOp12
 70
     1
102
RTVSPropertyOp13
 70
     1
102
RTVSPropertyOp14
 70
     1
102
RTVSPropertyOp15
 70
     1
102
RTVSPropertyOp16
 70
     1
102
RTVSPropertyOp17
 70
     1
102
RTVSPropertyOp18
 70
     1
102
RTVSPropertyOp19
 70
     1
102
RTVSPropertyOp20
 70
     1
102
RTVSPropertyOp21
 70
     1
102
RTVSPropertyOp22
 70
     1
102
RTVSPropertyOp23
 70
     1
102
RTVSPropertyOp24
 70
     1
102
RTVSPropertyOp25
 70
     1
102
RTVSPropertyOp26
 70
     1
102
RTVSPropertyOp27
 70
     1
102
RTVSPropertyOp28
 70
     1
102
RTVSPropertyOp29
 70
     1
102
RTVSPropertyOp30
 70
     1
102
RTVSPropertyOp31
 70
     1
102
RTVSPropertyOp32
 70
     1
102
RTVSPropertyOp33
 70
     1
102
RTVSPropertyOp34
 70
     1
102
RTVSPropertyOp35
 70
     1
102
RTVSPropertyOp36
 70
     1
102
RTVSPropertyOp37
 70
     1
102
RTVSPropertyOp38
 70
     1
102
RTVSPropertyOp39
 70
     1
102
RTVSPropertyOp40
 70
     1
102
RTVSPropertyOp41
 70
     1
102
RTVSPropertyOp42
 70
     1
102
RTVSPropertyOp43
 70
     1
102
RTVSPropertyOp44
 70
     1
102
RTVSPropertyOp45
 70
     1
102
RTVSPropertyOp46
 70
     1
102
RTVSPropertyOp47
 70
     1
102
RTVSPropertyOp48
 70
     1
102
RTVSPropertyOp49
 70
     1
102
RTVSPropertyOp50
 70
     1
102
RTVSPropertyOp51
 70
     0
102
RTVSPropertyOp52
 70
     0
102
RTVSPropertyOp53
 70
     1
102
RTVSPropertyOp54
 70
     1
102
RTVSPropertyOp55
 70
     1
102
RTVSPropertyOp56
 70
     1
102
RTVSPropertyOp57
 70
     1
102
RTVSPropertyOp58
 70
     1
102
RTVSPropertyOp59
 70
     1
102
RTVSPropertyOp60
 70
     1
102
RTVSPropertyOp61
 70
     1
102
RTVSPropertyOp62
 70
     1
  0
XRECORD
  5
190A
102
{ACAD_REACTORS
330
1909
102
}
330
1909
100
AcDbXrecord
280
     1
102
RTVSPost2010Prop28
280
     0
102
RTVSPost2010PropOp28
 70
     1
102
RTVSPost2010Prop29
280
     1
102
RTVSPost2010PropOp29
 70
     1
102
RTVSPost2010Prop30
280
     1
102
RTVSPost2010PropOp30
 70
     1
102
RTVSPost2010Prop31
280
     0
102
RTVSPost2010PropOp31
 70
     1
102
RTVSPost2010Prop32
280
     0
102
RTVSPost2010PropOp32
 70
     1
102
RTVSPost2010Prop33
280
     0
102
RTVSPost2010PropOp33
 70
     1
102
RTVSPost2010Prop34
280
     0
102
RTVSPost2010PropOp34
 70
     1
102
RTVSPost2010Prop35
280
     0
102
RTVSPost2010PropOp35
 70
     1
102
RTVSPost2010Prop36
280
     0
102
RTVSPost2010PropOp36
 70
     1
102
RTVSPost2010Prop37
 90
       50
102
RTVSPost2010PropOp37
 70
     1
102
RTVSPost2010Prop38
140
0.0
102
RTVSPost2010PropOp38
 70
     1
102
RTVSPost2010Prop39
140
1.0
102
RTVSPost2010PropOp39
 70
     1
102
RTVSPost2010Prop40
 90
        0
102
RTVSPost2010PropOp40
 70
     1
102
RTVSPost2010Prop41ColorIndex
 90
       18
102
RTVSPost2010Prop41ColorRGB
 90
        0
102
RTVSPost2010PropOp41
 70
     1
102
RTVSPost2010Prop42
 90
       50
102
RTVSPost2010PropOp42
 70
     1
102
RTVSPost2010Prop43
 90
        3
102
RTVSPost2010PropOp43
 70
     1
102
RTVSPost2010Prop44ColorIndex
 90
        5
102
RTVSPost2010Prop44ColorRGB
 90
      255
102
RTVSPost2010PropOp44
 70
     1
102
RTVSPost2010Prop45
280
     0
102
RTVSPost2010PropOp45
 70
     1
102
RTVSPost2010Prop46
 90
       50
102
RTVSPost2010PropOp46
 70
     1
102
RTVSPost2010Prop47
 90
       50
102
RTVSPost2010PropOp47
 70
     1
102
RTVSPost2010Prop48
 90
       50
102
RTVSPost2010PropOp48
 70
     1
102
RTVSPost2010Prop49
280
     0
102
RTVSPost2010PropOp49
 70
     1
102
RTVSPost2010Prop50
 90
       50
102
RTVSPost2010PropOp50
 70
     1
102
RTVSPost2010Prop51ColorIndex
 90
      256
102
RTVSPost2010Prop51ColorRGB
 90
-16777216
102
RTVSPost2010PropOp51
 70
     0
102
RTVSPost2010Prop52
140
1.0
102
RTVSPost2010PropOp52
 70
     0
102
RTVSPost2010Prop53
 90
        2
102
RTVSPost2010PropOp53
 70
     1
102
RTVSPost2010Prop54
  1
strokes_ogs.tif
102
RTVSPost2010PropOp54
 70
     1
102
RTVSPost2010Prop55
280
     0
102
RTVSPost2010PropOp55
 70
     1
102
RTVSPost2010Prop56
140
1.0
102
RTVSPost2010PropOp56
 70
     1
102
RTVSPost2010Prop57
140
1.0
102
RTVSPost2010PropOp57
 70
     1
102
RTVSPropertyOp0
 70
     1
102
RTVSPropertyOp1
 70
     1
102
RTVSPropertyOp2
 70
     1
102
RTVSPropertyOp3
 70
     1
102
RTVSPropertyOp4
 70
     1
102
RTVSPropertyOp5
 70
     1
102
RTVSPropertyOp6
 70
     1
102
RTVSPropertyOp7
 70
     1
102
RTVSPropertyOp8
 70
     1
102
RTVSPropertyOp9
 70
     1
102
RTVSPropertyOp10
 70
     1
102
RTVSPropertyOp11
 70
     1
102
RTVSPropertyOp12
 70
     1
102
RTVSPropertyOp13
 70
     1
102
RTVSPropertyOp14
 70
     1
102
RTVSPropertyOp15
 70
     1
102
RTVSPropertyOp16
 70
     1
102
RTVSPropertyOp17
 70
     1
102
RTVSPropertyOp18
 70
     1
102
RTVSPropertyOp19
 70
     1
102
RTVSPropertyOp20
 70
     1
102
RTVSPropertyOp21
 70
     1
102
RTVSPropertyOp22
 70
     1
102
RTVSPropertyOp23
 70
     1
102
RTVSPropertyOp24
 70
     1
102
RTVSPropertyOp25
 70
     1
102
RTVSPropertyOp26
 70
     1
102
RTVSPropertyOp27
 70
     1
102
RTVSPropertyOp28
 70
     1
102
RTVSPropertyOp29
 70
     1
102
RTVSPropertyOp30
 70
     1
102
RTVSPropertyOp31
 70
     1
102
RTVSPropertyOp32
 70
     1
102
RTVSPropertyOp33
 70
     1
102
RTVSPropertyOp34
 70
     1
102
RTVSPropertyOp35
 70
     1
102
RTVSPropertyOp36
 70
     1
102
RTVSPropertyOp37
 70
     1
102
RTVSPropertyOp38
 70
     1
102
RTVSPropertyOp39
 70
     1
102
RTVSPropertyOp40
 70
     1
102
RTVSPropertyOp41
 70
     1
102
RTVSPropertyOp42
 70
     1
102
RTVSPropertyOp43
 70
     1
102
RTVSPropertyOp44
 70
     1
102
RTVSPropertyOp45
 70
     1
102
RTVSPropertyOp46
 70
     1
102
RTVSPropertyOp47
 70
     1
102
RTVSPropertyOp48
 70
     1
102
RTVSPropertyOp49
 70
     1
102
RTVSPropertyOp50
 70
     1
102
RTVSPropertyOp51
 70
     0
102
RTVSPropertyOp52
 70
     0
102
RTVSPropertyOp53
 70
     1
102
RTVSPropertyOp54
 70
     1
102
RTVSPropertyOp55
 70
     1
102
RTVSPropertyOp56
 70
     1
102
RTVSPropertyOp57
 70
     1
102
RTVSPropertyOp58
 70
     1
102
RTVSPropertyOp59
 70
     1
102
RTVSPropertyOp60
 70
     1
102
RTVSPropertyOp61
 70
     1
102
RTVSPropertyOp62
 70
     1
  0
XRECORD
  5
190C
102
{ACAD_REACTORS
330
190B
102
}
330
190B
100
AcDbXrecord
280
     1
102
RTVSPost2010Prop28
280
     0
102
RTVSPost2010PropOp28
 70
     1
102
RTVSPost2010Prop29
280
     1
102
RTVSPost2010PropOp29
 70
     1
102
RTVSPost2010Prop30
280
     1
102
RTVSPost2010PropOp30
 70
     1
102
RTVSPost2010Prop31
280
     0
102
RTVSPost2010PropOp31
 70
     1
102
RTVSPost2010Prop32
280
     0
102
RTVSPost2010PropOp32
 70
     1
102
RTVSPost2010Prop33
280
     0
102
RTVSPost2010PropOp33
 70
     1
102
RTVSPost2010Prop34
280
     0
102
RTVSPost2010PropOp34
 70
     1
102
RTVSPost2010Prop35
280
     0
102
RTVSPost2010PropOp35
 70
     1
102
RTVSPost2010Prop36
280
     0
102
RTVSPost2010PropOp36
 70
     1
102
RTVSPost2010Prop37
 90
       50
102
RTVSPost2010PropOp37
 70
     1
102
RTVSPost2010Prop38
140
0.0
102
RTVSPost2010PropOp38
 70
     1
102
RTVSPost2010Prop39
140
1.0
102
RTVSPost2010PropOp39
 70
     1
102
RTVSPost2010Prop40
 90
        0
102
RTVSPost2010PropOp40
 70
     1
102
RTVSPost2010Prop41ColorIndex
 90
       18
102
RTVSPost2010Prop41ColorRGB
 90
        0
102
RTVSPost2010PropOp41
 70
     1
102
RTVSPost2010Prop42
 90
       50
102
RTVSPost2010PropOp42
 70
     1
102
RTVSPost2010Prop43
 90
        3
102
RTVSPost2010PropOp43
 70
     1
102
RTVSPost2010Prop44ColorIndex
 90
        5
102
RTVSPost2010Prop44ColorRGB
 90
      255
102
RTVSPost2010PropOp44
 70
     1
102
RTVSPost2010Prop45
280
     0
102
RTVSPost2010PropOp45
 70
     1
102
RTVSPost2010Prop46
 90
       50
102
RTVSPost2010PropOp46
 70
     1
102
RTVSPost2010Prop47
 90
       50
102
RTVSPost2010PropOp47
 70
     1
102
RTVSPost2010Prop48
 90
       50
102
RTVSPost2010PropOp48
 70
     1
102
RTVSPost2010Prop49
280
     0
102
RTVSPost2010PropOp49
 70
     1
102
RTVSPost2010Prop50
 90
       50
102
RTVSPost2010PropOp50
 70
     1
102
RTVSPost2010Prop51ColorIndex
 90
      256
102
RTVSPost2010Prop51ColorRGB
 90
-16777216
102
RTVSPost2010PropOp51
 70
     0
102
RTVSPost2010Prop52
140
1.0
102
RTVSPost2010PropOp52
 70
     0
102
RTVSPost2010Prop53
 90
        2
102
RTVSPost2010PropOp53
 70
     1
102
RTVSPost2010Prop54
  1
strokes_ogs.tif
102
RTVSPost2010PropOp54
 70
     1
102
RTVSPost2010Prop55
280
     0
102
RTVSPost2010PropOp55
 70
     1
102
RTVSPost2010Prop56
140
1.0
102
RTVSPost2010PropOp56
 70
     1
102
RTVSPost2010Prop57
140
1.0
102
RTVSPost2010PropOp57
 70
     1
102
RTVSPropertyOp0
 70
     1
102
RTVSPropertyOp1
 70
     1
102
RTVSPropertyOp2
 70
     1
102
RTVSPropertyOp3
 70
     1
102
RTVSPropertyOp4
 70
     1
102
RTVSPropertyOp5
 70
     1
102
RTVSPropertyOp6
 70
     1
102
RTVSPropertyOp7
 70
     1
102
RTVSPropertyOp8
 70
     1
102
RTVSPropertyOp9
 70
     1
102
RTVSPropertyOp10
 70
     1
102
RTVSPropertyOp11
 70
     1
102
RTVSPropertyOp12
 70
     1
102
RTVSPropertyOp13
 70
     1
102
RTVSPropertyOp14
 70
     1
102
RTVSPropertyOp15
 70
     1
102
RTVSPropertyOp16
 70
     1
102
RTVSPropertyOp17
 70
     1
102
RTVSPropertyOp18
 70
     1
102
RTVSPropertyOp19
 70
     1
102
RTVSPropertyOp20
 70
     1
102
RTVSPropertyOp21
 70
     1
102
RTVSPropertyOp22
 70
     1
102
RTVSPropertyOp23
 70
     1
102
RTVSPropertyOp24
 70
     1
102
RTVSPropertyOp25
 70
     1
102
RTVSPropertyOp26
 70
     1
102
RTVSPropertyOp27
 70
     1
102
RTVSPropertyOp28
 70
     1
102
RTVSPropertyOp29
 70
     1
102
RTVSPropertyOp30
 70
     1
102
RTVSPropertyOp31
 70
     1
102
RTVSPropertyOp32
 70
     1
102
RTVSPropertyOp33
 70
     1
102
RTVSPropertyOp34
 70
     1
102
RTVSPropertyOp35
 70
     1
102
RTVSPropertyOp36
 70
     1
102
RTVSPropertyOp37
 70
     1
102
RTVSPropertyOp38
 70
     1
102
RTVSPropertyOp39
 70
     1
102
RTVSPropertyOp40
 70
     1
102
RTVSPropertyOp41
 70
     1
102
RTVSPropertyOp42
 70
     1
102
RTVSPropertyOp43
 70
     1
102
RTVSPropertyOp44
 70
     1
102
RTVSPropertyOp45
 70
     1
102
RTVSPropertyOp46
 70
     1
102
RTVSPropertyOp47
 70
     1
102
RTVSPropertyOp48
 70
     1
102
RTVSPropertyOp49
 70
     1
102
RTVSPropertyOp50
 70
     1
102
RTVSPropertyOp51
 70
     0
102
RTVSPropertyOp52
 70
     0
102
RTVSPropertyOp53
 70
     1
102
RTVSPropertyOp54
 70
     1
102
RTVSPropertyOp55
 70
     1
102
RTVSPropertyOp56
 70
     1
102
RTVSPropertyOp57
 70
     1
102
RTVSPropertyOp58
 70
     1
102
RTVSPropertyOp59
 70
     1
102
RTVSPropertyOp60
 70
     1
102
RTVSPropertyOp61
 70
     1
102
RTVSPropertyOp62
 70
     1
  0
XRECORD
  5
1914
102
{ACAD_REACTORS
330
1913
102
}
330
1913
100
AcDbXrecord
280
     1
102
RTVSPost2010Prop28
280
     0
102
RTVSPost2010PropOp28
 70
     1
102
RTVSPost2010Prop29
280
     1
102
RTVSPost2010PropOp29
 70
     1
102
RTVSPost2010Prop30
280
     1
102
RTVSPost2010PropOp30
 70
     1
102
RTVSPost2010Prop31
280
     0
102
RTVSPost2010PropOp31
 70
     1
102
RTVSPost2010Prop32
280
     0
102
RTVSPost2010PropOp32
 70
     1
102
RTVSPost2010Prop33
280
     0
102
RTVSPost2010PropOp33
 70
     1
102
RTVSPost2010Prop34
280
     0
102
RTVSPost2010PropOp34
 70
     1
102
RTVSPost2010Prop35
280
     0
102
RTVSPost2010PropOp35
 70
     1
102
RTVSPost2010Prop36
280
     0
102
RTVSPost2010PropOp36
 70
     1
102
RTVSPost2010Prop37
 90
       50
102
RTVSPost2010PropOp37
 70
     1
102
RTVSPost2010Prop38
140
0.0
102
RTVSPost2010PropOp38
 70
     1
102
RTVSPost2010Prop39
140
1.0
102
RTVSPost2010PropOp39
 70
     1
102
RTVSPost2010Prop40
 90
        0
102
RTVSPost2010PropOp40
 70
     1
102
RTVSPost2010Prop41ColorIndex
 90
       18
102
RTVSPost2010Prop41ColorRGB
 90
        0
102
RTVSPost2010PropOp41
 70
     1
102
RTVSPost2010Prop42
 90
       50
102
RTVSPost2010PropOp42
 70
     1
102
RTVSPost2010Prop43
 90
        3
102
RTVSPost2010PropOp43
 70
     1
102
RTVSPost2010Prop44ColorIndex
 90
        5
102
RTVSPost2010Prop44ColorRGB
 90
      255
102
RTVSPost2010PropOp44
 70
     1
102
RTVSPost2010Prop45
280
     0
102
RTVSPost2010PropOp45
 70
     1
102
RTVSPost2010Prop46
 90
       50
102
RTVSPost2010PropOp46
 70
     1
102
RTVSPost2010Prop47
 90
       50
102
RTVSPost2010PropOp47
 70
     1
102
RTVSPost2010Prop48
 90
       50
102
RTVSPost2010PropOp48
 70
     1
102
RTVSPost2010Prop49
280
     0
102
RTVSPost2010PropOp49
 70
     1
102
RTVSPost2010Prop50
 90
       50
102
RTVSPost2010PropOp50
 70
     1
102
RTVSPost2010Prop51ColorIndex
 90
      256
102
RTVSPost2010Prop51ColorRGB
 90
-16777216
102
RTVSPost2010PropOp51
 70
     0
102
RTVSPost2010Prop52
140
1.0
102
RTVSPost2010PropOp52
 70
     0
102
RTVSPost2010Prop53
 90
        2
102
RTVSPost2010PropOp53
 70
     1
102
RTVSPost2010Prop54
  1
strokes_ogs.tif
102
RTVSPost2010PropOp54
 70
     1
102
RTVSPost2010Prop55
280
     0
102
RTVSPost2010PropOp55
 70
     1
102
RTVSPost2010Prop56
140
1.0
102
RTVSPost2010PropOp56
 70
     1
102
RTVSPost2010Prop57
140
1.0
102
RTVSPost2010PropOp57
 70
     1
102
RTVSPropertyOp0
 70
     1
102
RTVSPropertyOp1
 70
     1
102
RTVSPropertyOp2
 70
     1
102
RTVSPropertyOp3
 70
     1
102
RTVSPropertyOp4
 70
     1
102
RTVSPropertyOp5
 70
     1
102
RTVSPropertyOp6
 70
     1
102
RTVSPropertyOp7
 70
     1
102
RTVSPropertyOp8
 70
     1
102
RTVSPropertyOp9
 70
     1
102
RTVSPropertyOp10
 70
     1
102
RTVSPropertyOp11
 70
     1
102
RTVSPropertyOp12
 70
     1
102
RTVSPropertyOp13
 70
     1
102
RTVSPropertyOp14
 70
     1
102
RTVSPropertyOp15
 70
     1
102
RTVSPropertyOp16
 70
     1
102
RTVSPropertyOp17
 70
     1
102
RTVSPropertyOp18
 70
     1
102
RTVSPropertyOp19
 70
     1
102
RTVSPropertyOp20
 70
     1
102
RTVSPropertyOp21
 70
     1
102
RTVSPropertyOp22
 70
     1
102
RTVSPropertyOp23
 70
     1
102
RTVSPropertyOp24
 70
     1
102
RTVSPropertyOp25
 70
     1
102
RTVSPropertyOp26
 70
     1
102
RTVSPropertyOp27
 70
     1
102
RTVSPropertyOp28
 70
     1
102
RTVSPropertyOp29
 70
     1
102
RTVSPropertyOp30
 70
     1
102
RTVSPropertyOp31
 70
     1
102
RTVSPropertyOp32
 70
     1
102
RTVSPropertyOp33
 70
     1
102
RTVSPropertyOp34
 70
     1
102
RTVSPropertyOp35
 70
     1
102
RTVSPropertyOp36
 70
     1
102
RTVSPropertyOp37
 70
     1
102
RTVSPropertyOp38
 70
     1
102
RTVSPropertyOp39
 70
     1
102
RTVSPropertyOp40
 70
     1
102
RTVSPropertyOp41
 70
     1
102
RTVSPropertyOp42
 70
     1
102
RTVSPropertyOp43
 70
     1
102
RTVSPropertyOp44
 70
     1
102
RTVSPropertyOp45
 70
     1
102
RTVSPropertyOp46
 70
     1
102
RTVSPropertyOp47
 70
     1
102
RTVSPropertyOp48
 70
     1
102
RTVSPropertyOp49
 70
     1
102
RTVSPropertyOp50
 70
     1
102
RTVSPropertyOp51
 70
     0
102
RTVSPropertyOp52
 70
     0
102
RTVSPropertyOp53
 70
     1
102
RTVSPropertyOp54
 70
     1
102
RTVSPropertyOp55
 70
     1
102
RTVSPropertyOp56
 70
     1
102
RTVSPropertyOp57
 70
     1
102
RTVSPropertyOp58
 70
     1
102
RTVSPropertyOp59
 70
     1
102
RTVSPropertyOp60
 70
     1
102
RTVSPropertyOp61
 70
     1
102
RTVSPropertyOp62
 70
     1
  0
XRECORD
  5
1930
102
{ACAD_REACTORS
330
192F
102
}
330
192F
100
AcDbXrecord
280
     1
102
RTVSPost2010Prop28
280
     0
102
RTVSPost2010PropOp28
 70
     1
102
RTVSPost2010Prop29
280
     1
102
RTVSPost2010PropOp29
 70
     1
102
RTVSPost2010Prop30
280
     1
102
RTVSPost2010PropOp30
 70
     1
102
RTVSPost2010Prop31
280
     0
102
RTVSPost2010PropOp31
 70
     1
102
RTVSPost2010Prop32
280
     0
102
RTVSPost2010PropOp32
 70
     1
102
RTVSPost2010Prop33
280
     0
102
RTVSPost2010PropOp33
 70
     1
102
RTVSPost2010Prop34
280
     0
102
RTVSPost2010PropOp34
 70
     1
102
RTVSPost2010Prop35
280
     0
102
RTVSPost2010PropOp35
 70
     1
102
RTVSPost2010Prop36
280
     0
102
RTVSPost2010PropOp36
 70
     1
102
RTVSPost2010Prop37
 90
       50
102
RTVSPost2010PropOp37
 70
     0
102
RTVSPost2010Prop38
140
0.0
102
RTVSPost2010PropOp38
 70
     0
102
RTVSPost2010Prop39
140
1.0
102
RTVSPost2010PropOp39
 70
     0
102
RTVSPost2010Prop40
 90
        0
102
RTVSPost2010PropOp40
 70
     0
102
RTVSPost2010Prop41ColorIndex
 90
       18
102
RTVSPost2010Prop41ColorRGB
 90
        0
102
RTVSPost2010PropOp41
 70
     0
102
RTVSPost2010Prop42
 90
       50
102
RTVSPost2010PropOp42
 70
     0
102
RTVSPost2010Prop43
 90
        3
102
RTVSPost2010PropOp43
 70
     0
102
RTVSPost2010Prop44ColorIndex
 90
        5
102
RTVSPost2010Prop44ColorRGB
 90
      255
102
RTVSPost2010PropOp44
 70
     0
102
RTVSPost2010Prop45
280
     0
102
RTVSPost2010PropOp45
 70
     1
102
RTVSPost2010Prop46
 90
       50
102
RTVSPost2010PropOp46
 70
     0
102
RTVSPost2010Prop47
 90
       50
102
RTVSPost2010PropOp47
 70
     0
102
RTVSPost2010Prop48
 90
       50
102
RTVSPost2010PropOp48
 70
     0
102
RTVSPost2010Prop49
280
     0
102
RTVSPost2010PropOp49
 70
     1
102
RTVSPost2010Prop50
 90
       50
102
RTVSPost2010PropOp50
 70
     0
102
RTVSPost2010Prop51ColorIndex
 90
      256
102
RTVSPost2010Prop51ColorRGB
 90
-16777216
102
RTVSPost2010PropOp51
 70
     0
102
RTVSPost2010Prop52
140
1.0
102
RTVSPost2010PropOp52
 70
     0
102
RTVSPost2010Prop53
 90
        2
102
RTVSPost2010PropOp53
 70
     0
102
RTVSPost2010Prop54
  1
strokes_ogs.tif
102
RTVSPost2010PropOp54
 70
     0
102
RTVSPost2010Prop55
280
     0
102
RTVSPost2010PropOp55
 70
     1
102
RTVSPost2010Prop56
140
1.0
102
RTVSPost2010PropOp56
 70
     0
102
RTVSPost2010Prop57
140
1.0
102
RTVSPost2010PropOp57
 70
     0
102
RTVSPropertyOp0
 70
     0
102
RTVSPropertyOp1
 70
     0
102
RTVSPropertyOp2
 70
     0
102
RTVSPropertyOp3
 70
     0
102
RTVSPropertyOp4
 70
     0
102
RTVSPropertyOp5
 70
     0
102
RTVSPropertyOp6
 70
     0
102
RTVSPropertyOp7
 70
     0
102
RTVSPropertyOp8
 70
     0
102
RTVSPropertyOp9
 70
     0
102
RTVSPropertyOp10
 70
     0
102
RTVSPropertyOp11
 70
     0
102
RTVSPropertyOp12
 70
     0
102
RTVSPropertyOp13
 70
     0
102
RTVSPropertyOp14
 70
     2
102
RTVSPropertyOp15
 70
     0
102
RTVSPropertyOp16
 70
     0
102
RTVSPropertyOp17
 70
     0
102
RTVSPropertyOp18
 70
     0
102
RTVSPropertyOp19
 70
     0
102
RTVSPropertyOp20
 70
     0
102
RTVSPropertyOp21
 70
     0
102
RTVSPropertyOp22
 70
     0
102
RTVSPropertyOp23
 70
     0
102
RTVSPropertyOp24
 70
     0
102
RTVSPropertyOp25
 70
     0
102
RTVSPropertyOp26
 70
     0
102
RTVSPropertyOp27
 70
     0
102
RTVSPropertyOp28
 70
     1
102
RTVSPropertyOp29
 70
     1
102
RTVSPropertyOp30
 70
     1
102
RTVSPropertyOp31
 70
     1
102
RTVSPropertyOp32
 70
     1
102
RTVSPropertyOp33
 70
     1
102
RTVSPropertyOp34
 70
     1
102
RTVSPropertyOp35
 70
     1
102
RTVSPropertyOp36
 70
     1
102
RTVSPropertyOp37
 70
     0
102
RTVSPropertyOp38
 70
     0
102
RTVSPropertyOp39
 70
     0
102
RTVSPropertyOp40
 70
     0
102
RTVSPropertyOp41
 70
     0
102
RTVSPropertyOp42
 70
     0
102
RTVSPropertyOp43
 70
     0
102
RTVSPropertyOp44
 70
     0
102
RTVSPropertyOp45
 70
     1
102
RTVSPropertyOp46
 70
     0
102
RTVSPropertyOp47
 70
     0
102
RTVSPropertyOp48
 70
     0
102
RTVSPropertyOp49
 70
     1
102
RTVSPropertyOp50
 70
     0
102
RTVSPropertyOp51
 70
     0
102
RTVSPropertyOp52
 70
     0
102
RTVSPropertyOp53
 70
     0
102
RTVSPropertyOp54
 70
     0
102
RTVSPropertyOp55
 70
     1
102
RTVSPropertyOp56
 70
     0
102
RTVSPropertyOp57
 70
     0
102
RTVSPropertyOp58
 70
     0
102
RTVSPropertyOp59
 70
     0
102
RTVSPropertyOp60
 70
     0
102
RTVSPropertyOp61
 70
     0
102
RTVSPropertyOp62
 70
     0
  0
XRECORD
  5
1920
102
{ACAD_REACTORS
330
191F
102
}
330
191F
100
AcDbXrecord
280
     1
102
RTVSPost2010Prop28
280
     0
102
RTVSPost2010PropOp28
 70
     1
102
RTVSPost2010Prop29
280
     1
102
RTVSPost2010PropOp29
 70
     1
102
RTVSPost2010Prop30
280
     1
102
RTVSPost2010PropOp30
 70
     1
102
RTVSPost2010Prop31
280
     0
102
RTVSPost2010PropOp31
 70
     1
102
RTVSPost2010Prop32
280
     0
102
RTVSPost2010PropOp32
 70
     1
102
RTVSPost2010Prop33
280
     0
102
RTVSPost2010PropOp33
 70
     1
102
RTVSPost2010Prop34
280
     0
102
RTVSPost2010PropOp34
 70
     1
102
RTVSPost2010Prop35
280
     0
102
RTVSPost2010PropOp35
 70
     1
102
RTVSPost2010Prop36
280
     0
102
RTVSPost2010PropOp36
 70
     1
102
RTVSPost2010Prop37
 90
       50
102
RTVSPost2010PropOp37
 70
     1
102
RTVSPost2010Prop38
140
0.0
102
RTVSPost2010PropOp38
 70
     1
102
RTVSPost2010Prop39
140
1.0
102
RTVSPost2010PropOp39
 70
     1
102
RTVSPost2010Prop40
 90
        0
102
RTVSPost2010PropOp40
 70
     1
102
RTVSPost2010Prop41ColorIndex
 90
       18
102
RTVSPost2010Prop41ColorRGB
 90
        0
102
RTVSPost2010PropOp41
 70
     1
102
RTVSPost2010Prop42
 90
       50
102
RTVSPost2010PropOp42
 70
     1
102
RTVSPost2010Prop43
 90
        3
102
RTVSPost2010PropOp43
 70
     1
102
RTVSPost2010Prop44ColorIndex
 90
        5
102
RTVSPost2010Prop44ColorRGB
 90
      255
102
RTVSPost2010PropOp44
 70
     1
102
RTVSPost2010Prop45
280
     0
102
RTVSPost2010PropOp45
 70
     1
102
RTVSPost2010Prop46
 90
       50
102
RTVSPost2010PropOp46
 70
     1
102
RTVSPost2010Prop47
 90
       50
102
RTVSPost2010PropOp47
 70
     1
102
RTVSPost2010Prop48
 90
       50
102
RTVSPost2010PropOp48
 70
     1
102
RTVSPost2010Prop49
280
     0
102
RTVSPost2010PropOp49
 70
     1
102
RTVSPost2010Prop50
 90
       50
102
RTVSPost2010PropOp50
 70
     1
102
RTVSPost2010Prop51ColorIndex
 90
      256
102
RTVSPost2010Prop51ColorRGB
 90
-16777216
102
RTVSPost2010PropOp51
 70
     0
102
RTVSPost2010Prop52
140
1.0
102
RTVSPost2010PropOp52
 70
     0
102
RTVSPost2010Prop53
 90
        2
102
RTVSPost2010PropOp53
 70
     1
102
RTVSPost2010Prop54
  1
strokes_ogs.tif
102
RTVSPost2010PropOp54
 70
     1
102
RTVSPost2010Prop55
280
     0
102
RTVSPost2010PropOp55
 70
     1
102
RTVSPost2010Prop56
140
1.0
102
RTVSPost2010PropOp56
 70
     1
102
RTVSPost2010Prop57
140
1.0
102
RTVSPost2010PropOp57
 70
     1
102
RTVSPropertyOp0
 70
     1
102
RTVSPropertyOp1
 70
     1
102
RTVSPropertyOp2
 70
     1
102
RTVSPropertyOp3
 70
     1
102
RTVSPropertyOp4
 70
     1
102
RTVSPropertyOp5
 70
     1
102
RTVSPropertyOp6
 70
     1
102
RTVSPropertyOp7
 70
     1
102
RTVSPropertyOp8
 70
     1
102
RTVSPropertyOp9
 70
     1
102
RTVSPropertyOp10
 70
     1
102
RTVSPropertyOp11
 70
     1
102
RTVSPropertyOp12
 70
     1
102
RTVSPropertyOp13
 70
     1
102
RTVSPropertyOp14
 70
     1
102
RTVSPropertyOp15
 70
     1
102
RTVSPropertyOp16
 70
     1
102
RTVSPropertyOp17
 70
     1
102
RTVSPropertyOp18
 70
     1
102
RTVSPropertyOp19
 70
     1
102
RTVSPropertyOp20
 70
     1
102
RTVSPropertyOp21
 70
     1
102
RTVSPropertyOp22
 70
     1
102
RTVSPropertyOp23
 70
     1
102
RTVSPropertyOp24
 70
     1
102
RTVSPropertyOp25
 70
     1
102
RTVSPropertyOp26
 70
     1
102
RTVSPropertyOp27
 70
     1
102
RTVSPropertyOp28
 70
     1
102
RTVSPropertyOp29
 70
     1
102
RTVSPropertyOp30
 70
     1
102
RTVSPropertyOp31
 70
     1
102
RTVSPropertyOp32
 70
     1
102
RTVSPropertyOp33
 70
     1
102
RTVSPropertyOp34
 70
     1
102
RTVSPropertyOp35
 70
     1
102
RTVSPropertyOp36
 70
     1
102
RTVSPropertyOp37
 70
     1
102
RTVSPropertyOp38
 70
     1
102
RTVSPropertyOp39
 70
     1
102
RTVSPropertyOp40
 70
     1
102
RTVSPropertyOp41
 70
     1
102
RTVSPropertyOp42
 70
     1
102
RTVSPropertyOp43
 70
     1
102
RTVSPropertyOp44
 70
     1
102
RTVSPropertyOp45
 70
     1
102
RTVSPropertyOp46
 70
     1
102
RTVSPropertyOp47
 70
     1
102
RTVSPropertyOp48
 70
     1
102
RTVSPropertyOp49
 70
     1
102
RTVSPropertyOp50
 70
     1
102
RTVSPropertyOp51
 70
     0
102
RTVSPropertyOp52
 70
     0
102
RTVSPropertyOp53
 70
     1
102
RTVSPropertyOp54
 70
     1
102
RTVSPropertyOp55
 70
     1
102
RTVSPropertyOp56
 70
     1
102
RTVSPropertyOp57
 70
     1
102
RTVSPropertyOp58
 70
     1
102
RTVSPropertyOp59
 70
     1
102
RTVSPropertyOp60
 70
     1
102
RTVSPropertyOp61
 70
     1
102
RTVSPropertyOp62
 70
     1
  0
XRECORD
  5
1932
102
{ACAD_REACTORS
330
1931
102
}
330
1931
100
AcDbXrecord
280
     1
102
RTVSPost2010Prop28
280
     0
102
RTVSPost2010PropOp28
 70
     1
102
RTVSPost2010Prop29
280
     1
102
RTVSPost2010PropOp29
 70
     1
102
RTVSPost2010Prop30
280
     1
102
RTVSPost2010PropOp30
 70
     1
102
RTVSPost2010Prop31
280
     0
102
RTVSPost2010PropOp31
 70
     1
102
RTVSPost2010Prop32
280
     0
102
RTVSPost2010PropOp32
 70
     1
102
RTVSPost2010Prop33
280
     0
102
RTVSPost2010PropOp33
 70
     1
102
RTVSPost2010Prop34
280
     0
102
RTVSPost2010PropOp34
 70
     1
102
RTVSPost2010Prop35
280
     0
102
RTVSPost2010PropOp35
 70
     1
102
RTVSPost2010Prop36
280
     0
102
RTVSPost2010PropOp36
 70
     1
102
RTVSPost2010Prop37
 90
       50
102
RTVSPost2010PropOp37
 70
     0
102
RTVSPost2010Prop38
140
0.0
102
RTVSPost2010PropOp38
 70
     0
102
RTVSPost2010Prop39
140
1.0
102
RTVSPost2010PropOp39
 70
     0
102
RTVSPost2010Prop40
 90
        0
102
RTVSPost2010PropOp40
 70
     0
102
RTVSPost2010Prop41ColorIndex
 90
       18
102
RTVSPost2010Prop41ColorRGB
 90
        0
102
RTVSPost2010PropOp41
 70
     0
102
RTVSPost2010Prop42
 90
       50
102
RTVSPost2010PropOp42
 70
     0
102
RTVSPost2010Prop43
 90
        3
102
RTVSPost2010PropOp43
 70
     0
102
RTVSPost2010Prop44ColorIndex
 90
        5
102
RTVSPost2010Prop44ColorRGB
 90
      255
102
RTVSPost2010PropOp44
 70
     0
102
RTVSPost2010Prop45
280
     0
102
RTVSPost2010PropOp45
 70
     1
102
RTVSPost2010Prop46
 90
       50
102
RTVSPost2010PropOp46
 70
     0
102
RTVSPost2010Prop47
 90
       50
102
RTVSPost2010PropOp47
 70
     0
102
RTVSPost2010Prop48
 90
       50
102
RTVSPost2010PropOp48
 70
     0
102
RTVSPost2010Prop49
280
     0
102
RTVSPost2010PropOp49
 70
     1
102
RTVSPost2010Prop50
 90
       50
102
RTVSPost2010PropOp50
 70
     0
102
RTVSPost2010Prop51ColorIndex
 90
      256
102
RTVSPost2010Prop51ColorRGB
 90
-16777216
102
RTVSPost2010PropOp51
 70
     0
102
RTVSPost2010Prop52
140
1.0
102
RTVSPost2010PropOp52
 70
     0
102
RTVSPost2010Prop53
 90
        2
102
RTVSPost2010PropOp53
 70
     0
102
RTVSPost2010Prop54
  1
strokes_ogs.tif
102
RTVSPost2010PropOp54
 70
     0
102
RTVSPost2010Prop55
280
     0
102
RTVSPost2010PropOp55
 70
     1
102
RTVSPost2010Prop56
140
1.0
102
RTVSPost2010PropOp56
 70
     0
102
RTVSPost2010Prop57
140
1.0
102
RTVSPost2010PropOp57
 70
     0
102
RTVSPropertyOp0
 70
     0
102
RTVSPropertyOp1
 70
     0
102
RTVSPropertyOp2
 70
     0
102
RTVSPropertyOp3
 70
     0
102
RTVSPropertyOp4
 70
     0
102
RTVSPropertyOp5
 70
     0
102
RTVSPropertyOp6
 70
     0
102
RTVSPropertyOp7
 70
     0
102
RTVSPropertyOp8
 70
     0
102
RTVSPropertyOp9
 70
     0
102
RTVSPropertyOp10
 70
     0
102
RTVSPropertyOp11
 70
     0
102
RTVSPropertyOp12
 70
     0
102
RTVSPropertyOp13
 70
     0
102
RTVSPropertyOp14
 70
     2
102
RTVSPropertyOp15
 70
     0
102
RTVSPropertyOp16
 70
     0
102
RTVSPropertyOp17
 70
     0
102
RTVSPropertyOp18
 70
     0
102
RTVSPropertyOp19
 70
     0
102
RTVSPropertyOp20
 70
     0
102
RTVSPropertyOp21
 70
     0
102
RTVSPropertyOp22
 70
     0
102
RTVSPropertyOp23
 70
     0
102
RTVSPropertyOp24
 70
     0
102
RTVSPropertyOp25
 70
     0
102
RTVSPropertyOp26
 70
     0
102
RTVSPropertyOp27
 70
     0
102
RTVSPropertyOp28
 70
     1
102
RTVSPropertyOp29
 70
     1
102
RTVSPropertyOp30
 70
     1
102
RTVSPropertyOp31
 70
     1
102
RTVSPropertyOp32
 70
     1
102
RTVSPropertyOp33
 70
     1
102
RTVSPropertyOp34
 70
     1
102
RTVSPropertyOp35
 70
     1
102
RTVSPropertyOp36
 70
     1
102
RTVSPropertyOp37
 70
     0
102
RTVSPropertyOp38
 70
     0
102
RTVSPropertyOp39
 70
     0
102
RTVSPropertyOp40
 70
     0
102
RTVSPropertyOp41
 70
     0
102
RTVSPropertyOp42
 70
     0
102
RTVSPropertyOp43
 70
     0
102
RTVSPropertyOp44
 70
     0
102
RTVSPropertyOp45
 70
     1
102
RTVSPropertyOp46
 70
     0
102
RTVSPropertyOp47
 70
     0
102
RTVSPropertyOp48
 70
     0
102
RTVSPropertyOp49
 70
     1
102
RTVSPropertyOp50
 70
     0
102
RTVSPropertyOp51
 70
     0
102
RTVSPropertyOp52
 70
     0
102
RTVSPropertyOp53
 70
     0
102
RTVSPropertyOp54
 70
     0
102
RTVSPropertyOp55
 70
     1
102
RTVSPropertyOp56
 70
     0
102
RTVSPropertyOp57
 70
     0
102
RTVSPropertyOp58
 70
     0
102
RTVSPropertyOp59
 70
     0
102
RTVSPropertyOp60
 70
     0
102
RTVSPropertyOp61
 70
     0
102
RTVSPropertyOp62
 70
     0
  0
XRECORD
  5
1918
102
{ACAD_REACTORS
330
1917
102
}
330
1917
100
AcDbXrecord
280
     1
102
RTVSPost2010Prop28
280
     0
102
RTVSPost2010PropOp28
 70
     1
102
RTVSPost2010Prop29
280
     1
102
RTVSPost2010PropOp29
 70
     1
102
RTVSPost2010Prop30
280
     1
102
RTVSPost2010PropOp30
 70
     1
102
RTVSPost2010Prop31
280
     0
102
RTVSPost2010PropOp31
 70
     1
102
RTVSPost2010Prop32
280
     0
102
RTVSPost2010PropOp32
 70
     1
102
RTVSPost2010Prop33
280
     0
102
RTVSPost2010PropOp33
 70
     1
102
RTVSPost2010Prop34
280
     0
102
RTVSPost2010PropOp34
 70
     1
102
RTVSPost2010Prop35
280
     0
102
RTVSPost2010PropOp35
 70
     1
102
RTVSPost2010Prop36
280
     0
102
RTVSPost2010PropOp36
 70
     1
102
RTVSPost2010Prop37
 90
       50
102
RTVSPost2010PropOp37
 70
     1
102
RTVSPost2010Prop38
140
0.0
102
RTVSPost2010PropOp38
 70
     1
102
RTVSPost2010Prop39
140
1.0
102
RTVSPost2010PropOp39
 70
     1
102
RTVSPost2010Prop40
 90
        0
102
RTVSPost2010PropOp40
 70
     1
102
RTVSPost2010Prop41ColorIndex
 90
       18
102
RTVSPost2010Prop41ColorRGB
 90
        0
102
RTVSPost2010PropOp41
 70
     1
102
RTVSPost2010Prop42
 90
       50
102
RTVSPost2010PropOp42
 70
     1
102
RTVSPost2010Prop43
 90
        3
102
RTVSPost2010PropOp43
 70
     1
102
RTVSPost2010Prop44ColorIndex
 90
        5
102
RTVSPost2010Prop44ColorRGB
 90
      255
102
RTVSPost2010PropOp44
 70
     1
102
RTVSPost2010Prop45
280
     0
102
RTVSPost2010PropOp45
 70
     1
102
RTVSPost2010Prop46
 90
       50
102
RTVSPost2010PropOp46
 70
     1
102
RTVSPost2010Prop47
 90
       50
102
RTVSPost2010PropOp47
 70
     1
102
RTVSPost2010Prop48
 90
       50
102
RTVSPost2010PropOp48
 70
     1
102
RTVSPost2010Prop49
280
     0
102
RTVSPost2010PropOp49
 70
     1
102
RTVSPost2010Prop50
 90
       50
102
RTVSPost2010PropOp50
 70
     1
102
RTVSPost2010Prop51ColorIndex
 90
      256
102
RTVSPost2010Prop51ColorRGB
 90
-16777216
102
RTVSPost2010PropOp51
 70
     0
102
RTVSPost2010Prop52
140
1.0
102
RTVSPost2010PropOp52
 70
     0
102
RTVSPost2010Prop53
 90
        2
102
RTVSPost2010PropOp53
 70
     1
102
RTVSPost2010Prop54
  1
strokes_ogs.tif
102
RTVSPost2010PropOp54
 70
     1
102
RTVSPost2010Prop55
280
     0
102
RTVSPost2010PropOp55
 70
     1
102
RTVSPost2010Prop56
140
1.0
102
RTVSPost2010PropOp56
 70
     1
102
RTVSPost2010Prop57
140
1.0
102
RTVSPost2010PropOp57
 70
     1
102
RTVSPropertyOp0
 70
     1
102
RTVSPropertyOp1
 70
     1
102
RTVSPropertyOp2
 70
     1
102
RTVSPropertyOp3
 70
     1
102
RTVSPropertyOp4
 70
     1
102
RTVSPropertyOp5
 70
     1
102
RTVSPropertyOp6
 70
     1
102
RTVSPropertyOp7
 70
     1
102
RTVSPropertyOp8
 70
     1
102
RTVSPropertyOp9
 70
     1
102
RTVSPropertyOp10
 70
     1
102
RTVSPropertyOp11
 70
     1
102
RTVSPropertyOp12
 70
     1
102
RTVSPropertyOp13
 70
     1
102
RTVSPropertyOp14
 70
     1
102
RTVSPropertyOp15
 70
     1
102
RTVSPropertyOp16
 70
     1
102
RTVSPropertyOp17
 70
     1
102
RTVSPropertyOp18
 70
     1
102
RTVSPropertyOp19
 70
     1
102
RTVSPropertyOp20
 70
     1
102
RTVSPropertyOp21
 70
     1
102
RTVSPropertyOp22
 70
     1
102
RTVSPropertyOp23
 70
     1
102
RTVSPropertyOp24
 70
     1
102
RTVSPropertyOp25
 70
     1
102
RTVSPropertyOp26
 70
     1
102
RTVSPropertyOp27
 70
     1
102
RTVSPropertyOp28
 70
     1
102
RTVSPropertyOp29
 70
     1
102
RTVSPropertyOp30
 70
     1
102
RTVSPropertyOp31
 70
     1
102
RTVSPropertyOp32
 70
     1
102
RTVSPropertyOp33
 70
     1
102
RTVSPropertyOp34
 70
     1
102
RTVSPropertyOp35
 70
     1
102
RTVSPropertyOp36
 70
     1
102
RTVSPropertyOp37
 70
     1
102
RTVSPropertyOp38
 70
     1
102
RTVSPropertyOp39
 70
     1
102
RTVSPropertyOp40
 70
     1
102
RTVSPropertyOp41
 70
     1
102
RTVSPropertyOp42
 70
     1
102
RTVSPropertyOp43
 70
     1
102
RTVSPropertyOp44
 70
     1
102
RTVSPropertyOp45
 70
     1
102
RTVSPropertyOp46
 70
     1
102
RTVSPropertyOp47
 70
     1
102
RTVSPropertyOp48
 70
     1
102
RTVSPropertyOp49
 70
     1
102
RTVSPropertyOp50
 70
     1
102
RTVSPropertyOp51
 70
     0
102
RTVSPropertyOp52
 70
     0
102
RTVSPropertyOp53
 70
     1
102
RTVSPropertyOp54
 70
     1
102
RTVSPropertyOp55
 70
     1
102
RTVSPropertyOp56
 70
     1
102
RTVSPropertyOp57
 70
     1
102
RTVSPropertyOp58
 70
     1
102
RTVSPropertyOp59
 70
     1
102
RTVSPropertyOp60
 70
     1
102
RTVSPropertyOp61
 70
     1
102
RTVSPropertyOp62
 70
     1
  0
XRECORD
  5
192E
102
{ACAD_REACTORS
330
192D
102
}
330
192D
100
AcDbXrecord
280
     1
102
RTVSPost2010Prop28
280
     0
102
RTVSPost2010PropOp28
 70
     1
102
RTVSPost2010Prop29
280
     1
102
RTVSPost2010PropOp29
 70
     1
102
RTVSPost2010Prop30
280
     1
102
RTVSPost2010PropOp30
 70
     1
102
RTVSPost2010Prop31
280
     0
102
RTVSPost2010PropOp31
 70
     1
102
RTVSPost2010Prop32
280
     0
102
RTVSPost2010PropOp32
 70
     1
102
RTVSPost2010Prop33
280
     0
102
RTVSPost2010PropOp33
 70
     1
102
RTVSPost2010Prop34
280
     0
102
RTVSPost2010PropOp34
 70
     1
102
RTVSPost2010Prop35
280
     0
102
RTVSPost2010PropOp35
 70
     1
102
RTVSPost2010Prop36
280
     0
102
RTVSPost2010PropOp36
 70
     1
102
RTVSPost2010Prop37
 90
       50
102
RTVSPost2010PropOp37
 70
     1
102
RTVSPost2010Prop38
140
0.0
102
RTVSPost2010PropOp38
 70
     1
102
RTVSPost2010Prop39
140
1.0
102
RTVSPost2010PropOp39
 70
     1
102
RTVSPost2010Prop40
 90
        0
102
RTVSPost2010PropOp40
 70
     1
102
RTVSPost2010Prop41ColorIndex
 90
       18
102
RTVSPost2010Prop41ColorRGB
 90
        0
102
RTVSPost2010PropOp41
 70
     1
102
RTVSPost2010Prop42
 90
       50
102
RTVSPost2010PropOp42
 70
     1
102
RTVSPost2010Prop43
 90
        3
102
RTVSPost2010PropOp43
 70
     1
102
RTVSPost2010Prop44ColorIndex
 90
        5
102
RTVSPost2010Prop44ColorRGB
 90
      255
102
RTVSPost2010PropOp44
 70
     1
102
RTVSPost2010Prop45
280
     0
102
RTVSPost2010PropOp45
 70
     1
102
RTVSPost2010Prop46
 90
       50
102
RTVSPost2010PropOp46
 70
     1
102
RTVSPost2010Prop47
 90
       50
102
RTVSPost2010PropOp47
 70
     1
102
RTVSPost2010Prop48
 90
       50
102
RTVSPost2010PropOp48
 70
     1
102
RTVSPost2010Prop49
280
     0
102
RTVSPost2010PropOp49
 70
     1
102
RTVSPost2010Prop50
 90
       50
102
RTVSPost2010PropOp50
 70
     1
102
RTVSPost2010Prop51ColorIndex
 90
      256
102
RTVSPost2010Prop51ColorRGB
 90
-16777216
102
RTVSPost2010PropOp51
 70
     0
102
RTVSPost2010Prop52
140
1.0
102
RTVSPost2010PropOp52
 70
     0
102
RTVSPost2010Prop53
 90
        2
102
RTVSPost2010PropOp53
 70
     1
102
RTVSPost2010Prop54
  1
strokes_ogs.tif
102
RTVSPost2010PropOp54
 70
     1
102
RTVSPost2010Prop55
280
     0
102
RTVSPost2010PropOp55
 70
     1
102
RTVSPost2010Prop56
140
1.0
102
RTVSPost2010PropOp56
 70
     1
102
RTVSPost2010Prop57
140
1.0
102
RTVSPost2010PropOp57
 70
     1
102
RTVSPropertyOp0
 70
     1
102
RTVSPropertyOp1
 70
     1
102
RTVSPropertyOp2
 70
     1
102
RTVSPropertyOp3
 70
     1
102
RTVSPropertyOp4
 70
     1
102
RTVSPropertyOp5
 70
     1
102
RTVSPropertyOp6
 70
     1
102
RTVSPropertyOp7
 70
     1
102
RTVSPropertyOp8
 70
     1
102
RTVSPropertyOp9
 70
     1
102
RTVSPropertyOp10
 70
     1
102
RTVSPropertyOp11
 70
     1
102
RTVSPropertyOp12
 70
     1
102
RTVSPropertyOp13
 70
     1
102
RTVSPropertyOp14
 70
     1
102
RTVSPropertyOp15
 70
     1
102
RTVSPropertyOp16
 70
     1
102
RTVSPropertyOp17
 70
     1
102
RTVSPropertyOp18
 70
     1
102
RTVSPropertyOp19
 70
     1
102
RTVSPropertyOp20
 70
     1
102
RTVSPropertyOp21
 70
     1
102
RTVSPropertyOp22
 70
     1
102
RTVSPropertyOp23
 70
     1
102
RTVSPropertyOp24
 70
     1
102
RTVSPropertyOp25
 70
     1
102
RTVSPropertyOp26
 70
     1
102
RTVSPropertyOp27
 70
     1
102
RTVSPropertyOp28
 70
     1
102
RTVSPropertyOp29
 70
     1
102
RTVSPropertyOp30
 70
     1
102
RTVSPropertyOp31
 70
     1
102
RTVSPropertyOp32
 70
     1
102
RTVSPropertyOp33
 70
     1
102
RTVSPropertyOp34
 70
     1
102
RTVSPropertyOp35
 70
     1
102
RTVSPropertyOp36
 70
     1
102
RTVSPropertyOp37
 70
     1
102
RTVSPropertyOp38
 70
     1
102
RTVSPropertyOp39
 70
     1
102
RTVSPropertyOp40
 70
     1
102
RTVSPropertyOp41
 70
     1
102
RTVSPropertyOp42
 70
     1
102
RTVSPropertyOp43
 70
     1
102
RTVSPropertyOp44
 70
     1
102
RTVSPropertyOp45
 70
     1
102
RTVSPropertyOp46
 70
     1
102
RTVSPropertyOp47
 70
     1
102
RTVSPropertyOp48
 70
     1
102
RTVSPropertyOp49
 70
     1
102
RTVSPropertyOp50
 70
     1
102
RTVSPropertyOp51
 70
     0
102
RTVSPropertyOp52
 70
     0
102
RTVSPropertyOp53
 70
     1
102
RTVSPropertyOp54
 70
     1
102
RTVSPropertyOp55
 70
     1
102
RTVSPropertyOp56
 70
     1
102
RTVSPropertyOp57
 70
     1
102
RTVSPropertyOp58
 70
     1
102
RTVSPropertyOp59
 70
     1
102
RTVSPropertyOp60
 70
     1
102
RTVSPropertyOp61
 70
     1
102
RTVSPropertyOp62
 70
     1
  0
XRECORD
  5
192C
102
{ACAD_REACTORS
330
192B
102
}
330
192B
100
AcDbXrecord
280
     1
102
RTVSPost2010Prop28
280
     0
102
RTVSPost2010PropOp28
 70
     1
102
RTVSPost2010Prop29
280
     1
102
RTVSPost2010PropOp29
 70
     1
102
RTVSPost2010Prop30
280
     1
102
RTVSPost2010PropOp30
 70
     1
102
RTVSPost2010Prop31
280
     0
102
RTVSPost2010PropOp31
 70
     1
102
RTVSPost2010Prop32
280
     0
102
RTVSPost2010PropOp32
 70
     1
102
RTVSPost2010Prop33
280
     0
102
RTVSPost2010PropOp33
 70
     1
102
RTVSPost2010Prop34
280
     0
102
RTVSPost2010PropOp34
 70
     1
102
RTVSPost2010Prop35
280
     0
102
RTVSPost2010PropOp35
 70
     1
102
RTVSPost2010Prop36
280
     0
102
RTVSPost2010PropOp36
 70
     1
102
RTVSPost2010Prop37
 90
       50
102
RTVSPost2010PropOp37
 70
     1
102
RTVSPost2010Prop38
140
0.0
102
RTVSPost2010PropOp38
 70
     1
102
RTVSPost2010Prop39
140
1.0
102
RTVSPost2010PropOp39
 70
     1
102
RTVSPost2010Prop40
 90
        0
102
RTVSPost2010PropOp40
 70
     1
102
RTVSPost2010Prop41ColorIndex
 90
       18
102
RTVSPost2010Prop41ColorRGB
 90
        0
102
RTVSPost2010PropOp41
 70
     1
102
RTVSPost2010Prop42
 90
       50
102
RTVSPost2010PropOp42
 70
     1
102
RTVSPost2010Prop43
 90
        3
102
RTVSPost2010PropOp43
 70
     1
102
RTVSPost2010Prop44ColorIndex
 90
        5
102
RTVSPost2010Prop44ColorRGB
 90
      255
102
RTVSPost2010PropOp44
 70
     1
102
RTVSPost2010Prop45
280
     0
102
RTVSPost2010PropOp45
 70
     1
102
RTVSPost2010Prop46
 90
       50
102
RTVSPost2010PropOp46
 70
     1
102
RTVSPost2010Prop47
 90
       50
102
RTVSPost2010PropOp47
 70
     1
102
RTVSPost2010Prop48
 90
       50
102
RTVSPost2010PropOp48
 70
     1
102
RTVSPost2010Prop49
280
     0
102
RTVSPost2010PropOp49
 70
     1
102
RTVSPost2010Prop50
 90
       50
102
RTVSPost2010PropOp50
 70
     1
102
RTVSPost2010Prop51ColorIndex
 90
      256
102
RTVSPost2010Prop51ColorRGB
 90
-16777216
102
RTVSPost2010PropOp51
 70
     0
102
RTVSPost2010Prop52
140
1.0
102
RTVSPost2010PropOp52
 70
     0
102
RTVSPost2010Prop53
 90
        2
102
RTVSPost2010PropOp53
 70
     1
102
RTVSPost2010Prop54
  1
strokes_ogs.tif
102
RTVSPost2010PropOp54
 70
     1
102
RTVSPost2010Prop55
280
     0
102
RTVSPost2010PropOp55
 70
     1
102
RTVSPost2010Prop56
140
1.0
102
RTVSPost2010PropOp56
 70
     1
102
RTVSPost2010Prop57
140
1.0
102
RTVSPost2010PropOp57
 70
     1
102
RTVSPropertyOp0
 70
     1
102
RTVSPropertyOp1
 70
     1
102
RTVSPropertyOp2
 70
     1
102
RTVSPropertyOp3
 70
     1
102
RTVSPropertyOp4
 70
     1
102
RTVSPropertyOp5
 70
     1
102
RTVSPropertyOp6
 70
     1
102
RTVSPropertyOp7
 70
     1
102
RTVSPropertyOp8
 70
     1
102
RTVSPropertyOp9
 70
     1
102
RTVSPropertyOp10
 70
     1
102
RTVSPropertyOp11
 70
     1
102
RTVSPropertyOp12
 70
     1
102
RTVSPropertyOp13
 70
     1
102
RTVSPropertyOp14
 70
     1
102
RTVSPropertyOp15
 70
     1
102
RTVSPropertyOp16
 70
     1
102
RTVSPropertyOp17
 70
     1
102
RTVSPropertyOp18
 70
     1
102
RTVSPropertyOp19
 70
     1
102
RTVSPropertyOp20
 70
     1
102
RTVSPropertyOp21
 70
     1
102
RTVSPropertyOp22
 70
     1
102
RTVSPropertyOp23
 70
     1
102
RTVSPropertyOp24
 70
     1
102
RTVSPropertyOp25
 70
     1
102
RTVSPropertyOp26
 70
     1
102
RTVSPropertyOp27
 70
     1
102
RTVSPropertyOp28
 70
     1
102
RTVSPropertyOp29
 70
     1
102
RTVSPropertyOp30
 70
     1
102
RTVSPropertyOp31
 70
     1
102
RTVSPropertyOp32
 70
     1
102
RTVSPropertyOp33
 70
     1
102
RTVSPropertyOp34
 70
     1
102
RTVSPropertyOp35
 70
     1
102
RTVSPropertyOp36
 70
     1
102
RTVSPropertyOp37
 70
     1
102
RTVSPropertyOp38
 70
     1
102
RTVSPropertyOp39
 70
     1
102
RTVSPropertyOp40
 70
     1
102
RTVSPropertyOp41
 70
     1
102
RTVSPropertyOp42
 70
     1
102
RTVSPropertyOp43
 70
     1
102
RTVSPropertyOp44
 70
     1
102
RTVSPropertyOp45
 70
     1
102
RTVSPropertyOp46
 70
     1
102
RTVSPropertyOp47
 70
     1
102
RTVSPropertyOp48
 70
     1
102
RTVSPropertyOp49
 70
     1
102
RTVSPropertyOp50
 70
     1
102
RTVSPropertyOp51
 70
     0
102
RTVSPropertyOp52
 70
     0
102
RTVSPropertyOp53
 70
     1
102
RTVSPropertyOp54
 70
     1
102
RTVSPropertyOp55
 70
     1
102
RTVSPropertyOp56
 70
     1
102
RTVSPropertyOp57
 70
     1
102
RTVSPropertyOp58
 70
     1
102
RTVSPropertyOp59
 70
     1
102
RTVSPropertyOp60
 70
     1
102
RTVSPropertyOp61
 70
     1
102
RTVSPropertyOp62
 70
     1
  0
XRECORD
  5
1926
102
{ACAD_REACTORS
330
1925
102
}
330
1925
100
AcDbXrecord
280
     1
102
RTVSPost2010Prop28
280
     0
102
RTVSPost2010PropOp28
 70
     1
102
RTVSPost2010Prop29
280
     1
102
RTVSPost2010PropOp29
 70
     1
102
RTVSPost2010Prop30
280
     1
102
RTVSPost2010PropOp30
 70
     1
102
RTVSPost2010Prop31
280
     0
102
RTVSPost2010PropOp31
 70
     1
102
RTVSPost2010Prop32
280
     0
102
RTVSPost2010PropOp32
 70
     1
102
RTVSPost2010Prop33
280
     0
102
RTVSPost2010PropOp33
 70
     1
102
RTVSPost2010Prop34
280
     0
102
RTVSPost2010PropOp34
 70
     1
102
RTVSPost2010Prop35
280
     0
102
RTVSPost2010PropOp35
 70
     1
102
RTVSPost2010Prop36
280
     0
102
RTVSPost2010PropOp36
 70
     1
102
RTVSPost2010Prop37
 90
       50
102
RTVSPost2010PropOp37
 70
     1
102
RTVSPost2010Prop38
140
0.0
102
RTVSPost2010PropOp38
 70
     1
102
RTVSPost2010Prop39
140
1.0
102
RTVSPost2010PropOp39
 70
     1
102
RTVSPost2010Prop40
 90
        0
102
RTVSPost2010PropOp40
 70
     1
102
RTVSPost2010Prop41ColorIndex
 90
       18
102
RTVSPost2010Prop41ColorRGB
 90
        0
102
RTVSPost2010PropOp41
 70
     1
102
RTVSPost2010Prop42
 90
       50
102
RTVSPost2010PropOp42
 70
     1
102
RTVSPost2010Prop43
 90
        3
102
RTVSPost2010PropOp43
 70
     1
102
RTVSPost2010Prop44ColorIndex
 90
        5
102
RTVSPost2010Prop44ColorRGB
 90
      255
102
RTVSPost2010PropOp44
 70
     1
102
RTVSPost2010Prop45
280
     0
102
RTVSPost2010PropOp45
 70
     1
102
RTVSPost2010Prop46
 90
       50
102
RTVSPost2010PropOp46
 70
     1
102
RTVSPost2010Prop47
 90
       50
102
RTVSPost2010PropOp47
 70
     1
102
RTVSPost2010Prop48
 90
       50
102
RTVSPost2010PropOp48
 70
     1
102
RTVSPost2010Prop49
280
     0
102
RTVSPost2010PropOp49
 70
     1
102
RTVSPost2010Prop50
 90
       50
102
RTVSPost2010PropOp50
 70
     1
102
RTVSPost2010Prop51ColorIndex
 90
      256
102
RTVSPost2010Prop51ColorRGB
 90
-16777216
102
RTVSPost2010PropOp51
 70
     0
102
RTVSPost2010Prop52
140
1.0
102
RTVSPost2010PropOp52
 70
     0
102
RTVSPost2010Prop53
 90
        2
102
RTVSPost2010PropOp53
 70
     1
102
RTVSPost2010Prop54
  1
strokes_ogs.tif
102
RTVSPost2010PropOp54
 70
     1
102
RTVSPost2010Prop55
280
     0
102
RTVSPost2010PropOp55
 70
     1
102
RTVSPost2010Prop56
140
1.0
102
RTVSPost2010PropOp56
 70
     1
102
RTVSPost2010Prop57
140
1.0
102
RTVSPost2010PropOp57
 70
     1
102
RTVSPropertyOp0
 70
     1
102
RTVSPropertyOp1
 70
     1
102
RTVSPropertyOp2
 70
     1
102
RTVSPropertyOp3
 70
     1
102
RTVSPropertyOp4
 70
     1
102
RTVSPropertyOp5
 70
     1
102
RTVSPropertyOp6
 70
     1
102
RTVSPropertyOp7
 70
     1
102
RTVSPropertyOp8
 70
     1
102
RTVSPropertyOp9
 70
     1
102
RTVSPropertyOp10
 70
     1
102
RTVSPropertyOp11
 70
     1
102
RTVSPropertyOp12
 70
     1
102
RTVSPropertyOp13
 70
     1
102
RTVSPropertyOp14
 70
     1
102
RTVSPropertyOp15
 70
     1
102
RTVSPropertyOp16
 70
     1
102
RTVSPropertyOp17
 70
     1
102
RTVSPropertyOp18
 70
     1
102
RTVSPropertyOp19
 70
     1
102
RTVSPropertyOp20
 70
     1
102
RTVSPropertyOp21
 70
     1
102
RTVSPropertyOp22
 70
     1
102
RTVSPropertyOp23
 70
     1
102
RTVSPropertyOp24
 70
     1
102
RTVSPropertyOp25
 70
     1
102
RTVSPropertyOp26
 70
     1
102
RTVSPropertyOp27
 70
     1
102
RTVSPropertyOp28
 70
     1
102
RTVSPropertyOp29
 70
     1
102
RTVSPropertyOp30
 70
     1
102
RTVSPropertyOp31
 70
     1
102
RTVSPropertyOp32
 70
     1
102
RTVSPropertyOp33
 70
     1
102
RTVSPropertyOp34
 70
     1
102
RTVSPropertyOp35
 70
     1
102
RTVSPropertyOp36
 70
     1
102
RTVSPropertyOp37
 70
     1
102
RTVSPropertyOp38
 70
     1
102
RTVSPropertyOp39
 70
     1
102
RTVSPropertyOp40
 70
     1
102
RTVSPropertyOp41
 70
     1
102
RTVSPropertyOp42
 70
     1
102
RTVSPropertyOp43
 70
     1
102
RTVSPropertyOp44
 70
     1
102
RTVSPropertyOp45
 70
     1
102
RTVSPropertyOp46
 70
     1
102
RTVSPropertyOp47
 70
     1
102
RTVSPropertyOp48
 70
     1
102
RTVSPropertyOp49
 70
     1
102
RTVSPropertyOp50
 70
     1
102
RTVSPropertyOp51
 70
     0
102
RTVSPropertyOp52
 70
     0
102
RTVSPropertyOp53
 70
     1
102
RTVSPropertyOp54
 70
     1
102
RTVSPropertyOp55
 70
     1
102
RTVSPropertyOp56
 70
     1
102
RTVSPropertyOp57
 70
     1
102
RTVSPropertyOp58
 70
     1
102
RTVSPropertyOp59
 70
     1
102
RTVSPropertyOp60
 70
     1
102
RTVSPropertyOp61
 70
     1
102
RTVSPropertyOp62
 70
     1
  0
XRECORD
  5
1928
102
{ACAD_REACTORS
330
1927
102
}
330
1927
100
AcDbXrecord
280
     1
102
RTVSPost2010Prop28
280
     0
102
RTVSPost2010PropOp28
 70
     1
102
RTVSPost2010Prop29
280
     1
102
RTVSPost2010PropOp29
 70
     1
102
RTVSPost2010Prop30
280
     1
102
RTVSPost2010PropOp30
 70
     1
102
RTVSPost2010Prop31
280
     0
102
RTVSPost2010PropOp31
 70
     1
102
RTVSPost2010Prop32
280
     0
102
RTVSPost2010PropOp32
 70
     1
102
RTVSPost2010Prop33
280
     0
102
RTVSPost2010PropOp33
 70
     1
102
RTVSPost2010Prop34
280
     0
102
RTVSPost2010PropOp34
 70
     1
102
RTVSPost2010Prop35
280
     0
102
RTVSPost2010PropOp35
 70
     1
102
RTVSPost2010Prop36
280
     0
102
RTVSPost2010PropOp36
 70
     1
102
RTVSPost2010Prop37
 90
       50
102
RTVSPost2010PropOp37
 70
     1
102
RTVSPost2010Prop38
140
0.0
102
RTVSPost2010PropOp38
 70
     1
102
RTVSPost2010Prop39
140
1.0
102
RTVSPost2010PropOp39
 70
     1
102
RTVSPost2010Prop40
 90
        0
102
RTVSPost2010PropOp40
 70
     1
102
RTVSPost2010Prop41ColorIndex
 90
       18
102
RTVSPost2010Prop41ColorRGB
 90
        0
102
RTVSPost2010PropOp41
 70
     1
102
RTVSPost2010Prop42
 90
       50
102
RTVSPost2010PropOp42
 70
     1
102
RTVSPost2010Prop43
 90
        3
102
RTVSPost2010PropOp43
 70
     1
102
RTVSPost2010Prop44ColorIndex
 90
        5
102
RTVSPost2010Prop44ColorRGB
 90
      255
102
RTVSPost2010PropOp44
 70
     1
102
RTVSPost2010Prop45
280
     0
102
RTVSPost2010PropOp45
 70
     1
102
RTVSPost2010Prop46
 90
       50
102
RTVSPost2010PropOp46
 70
     1
102
RTVSPost2010Prop47
 90
       50
102
RTVSPost2010PropOp47
 70
     1
102
RTVSPost2010Prop48
 90
       50
102
RTVSPost2010PropOp48
 70
     1
102
RTVSPost2010Prop49
280
     0
102
RTVSPost2010PropOp49
 70
     1
102
RTVSPost2010Prop50
 90
       50
102
RTVSPost2010PropOp50
 70
     1
102
RTVSPost2010Prop51ColorIndex
 90
      256
102
RTVSPost2010Prop51ColorRGB
 90
-16777216
102
RTVSPost2010PropOp51
 70
     0
102
RTVSPost2010Prop52
140
1.0
102
RTVSPost2010PropOp52
 70
     0
102
RTVSPost2010Prop53
 90
        2
102
RTVSPost2010PropOp53
 70
     1
102
RTVSPost2010Prop54
  1
strokes_ogs.tif
102
RTVSPost2010PropOp54
 70
     1
102
RTVSPost2010Prop55
280
     0
102
RTVSPost2010PropOp55
 70
     1
102
RTVSPost2010Prop56
140
1.0
102
RTVSPost2010PropOp56
 70
     1
102
RTVSPost2010Prop57
140
1.0
102
RTVSPost2010PropOp57
 70
     1
102
RTVSPropertyOp0
 70
     1
102
RTVSPropertyOp1
 70
     1
102
RTVSPropertyOp2
 70
     1
102
RTVSPropertyOp3
 70
     1
102
RTVSPropertyOp4
 70
     1
102
RTVSPropertyOp5
 70
     1
102
RTVSPropertyOp6
 70
     1
102
RTVSPropertyOp7
 70
     1
102
RTVSPropertyOp8
 70
     1
102
RTVSPropertyOp9
 70
     1
102
RTVSPropertyOp10
 70
     1
102
RTVSPropertyOp11
 70
     1
102
RTVSPropertyOp12
 70
     1
102
RTVSPropertyOp13
 70
     1
102
RTVSPropertyOp14
 70
     1
102
RTVSPropertyOp15
 70
     1
102
RTVSPropertyOp16
 70
     1
102
RTVSPropertyOp17
 70
     1
102
RTVSPropertyOp18
 70
     1
102
RTVSPropertyOp19
 70
     1
102
RTVSPropertyOp20
 70
     1
102
RTVSPropertyOp21
 70
     1
102
RTVSPropertyOp22
 70
     1
102
RTVSPropertyOp23
 70
     1
102
RTVSPropertyOp24
 70
     1
102
RTVSPropertyOp25
 70
     1
102
RTVSPropertyOp26
 70
     1
102
RTVSPropertyOp27
 70
     1
102
RTVSPropertyOp28
 70
     1
102
RTVSPropertyOp29
 70
     1
102
RTVSPropertyOp30
 70
     1
102
RTVSPropertyOp31
 70
     1
102
RTVSPropertyOp32
 70
     1
102
RTVSPropertyOp33
 70
     1
102
RTVSPropertyOp34
 70
     1
102
RTVSPropertyOp35
 70
     1
102
RTVSPropertyOp36
 70
     1
102
RTVSPropertyOp37
 70
     1
102
RTVSPropertyOp38
 70
     1
102
RTVSPropertyOp39
 70
     1
102
RTVSPropertyOp40
 70
     1
102
RTVSPropertyOp41
 70
     1
102
RTVSPropertyOp42
 70
     1
102
RTVSPropertyOp43
 70
     1
102
RTVSPropertyOp44
 70
     1
102
RTVSPropertyOp45
 70
     1
102
RTVSPropertyOp46
 70
     1
102
RTVSPropertyOp47
 70
     1
102
RTVSPropertyOp48
 70
     1
102
RTVSPropertyOp49
 70
     1
102
RTVSPropertyOp50
 70
     1
102
RTVSPropertyOp51
 70
     0
102
RTVSPropertyOp52
 70
     0
102
RTVSPropertyOp53
 70
     1
102
RTVSPropertyOp54
 70
     1
102
RTVSPropertyOp55
 70
     1
102
RTVSPropertyOp56
 70
     1
102
RTVSPropertyOp57
 70
     1
102
RTVSPropertyOp58
 70
     1
102
RTVSPropertyOp59
 70
     1
102
RTVSPropertyOp60
 70
     1
102
RTVSPropertyOp61
 70
     1
102
RTVSPropertyOp62
 70
     1
  0
XRECORD
  5
191E
102
{ACAD_REACTORS
330
191D
102
}
330
191D
100
AcDbXrecord
280
     1
102
RTVSPost2010Prop28
280
     0
102
RTVSPost2010PropOp28
 70
     1
102
RTVSPost2010Prop29
280
     1
102
RTVSPost2010PropOp29
 70
     1
102
RTVSPost2010Prop30
280
     1
102
RTVSPost2010PropOp30
 70
     1
102
RTVSPost2010Prop31
280
     0
102
RTVSPost2010PropOp31
 70
     1
102
RTVSPost2010Prop32
280
     0
102
RTVSPost2010PropOp32
 70
     1
102
RTVSPost2010Prop33
280
     0
102
RTVSPost2010PropOp33
 70
     1
102
RTVSPost2010Prop34
280
     0
102
RTVSPost2010PropOp34
 70
     1
102
RTVSPost2010Prop35
280
     0
102
RTVSPost2010PropOp35
 70
     1
102
RTVSPost2010Prop36
280
     0
102
RTVSPost2010PropOp36
 70
     1
102
RTVSPost2010Prop37
 90
       50
102
RTVSPost2010PropOp37
 70
     1
102
RTVSPost2010Prop38
140
0.0
102
RTVSPost2010PropOp38
 70
     1
102
RTVSPost2010Prop39
140
1.0
102
RTVSPost2010PropOp39
 70
     1
102
RTVSPost2010Prop40
 90
        0
102
RTVSPost2010PropOp40
 70
     1
102
RTVSPost2010Prop41ColorIndex
 90
       18
102
RTVSPost2010Prop41ColorRGB
 90
        0
102
RTVSPost2010PropOp41
 70
     1
102
RTVSPost2010Prop42
 90
       50
102
RTVSPost2010PropOp42
 70
     1
102
RTVSPost2010Prop43
 90
        3
102
RTVSPost2010PropOp43
 70
     1
102
RTVSPost2010Prop44ColorIndex
 90
        5
102
RTVSPost2010Prop44ColorRGB
 90
      255
102
RTVSPost2010PropOp44
 70
     1
102
RTVSPost2010Prop45
280
     0
102
RTVSPost2010PropOp45
 70
     1
102
RTVSPost2010Prop46
 90
       50
102
RTVSPost2010PropOp46
 70
     1
102
RTVSPost2010Prop47
 90
       50
102
RTVSPost2010PropOp47
 70
     1
102
RTVSPost2010Prop48
 90
       50
102
RTVSPost2010PropOp48
 70
     1
102
RTVSPost2010Prop49
280
     0
102
RTVSPost2010PropOp49
 70
     1
102
RTVSPost2010Prop50
 90
       50
102
RTVSPost2010PropOp50
 70
     1
102
RTVSPost2010Prop51ColorIndex
 90
      256
102
RTVSPost2010Prop51ColorRGB
 90
-16777216
102
RTVSPost2010PropOp51
 70
     0
102
RTVSPost2010Prop52
140
1.0
102
RTVSPost2010PropOp52
 70
     0
102
RTVSPost2010Prop53
 90
        2
102
RTVSPost2010PropOp53
 70
     1
102
RTVSPost2010Prop54
  1
strokes_ogs.tif
102
RTVSPost2010PropOp54
 70
     1
102
RTVSPost2010Prop55
280
     0
102
RTVSPost2010PropOp55
 70
     1
102
RTVSPost2010Prop56
140
1.0
102
RTVSPost2010PropOp56
 70
     1
102
RTVSPost2010Prop57
140
1.0
102
RTVSPost2010PropOp57
 70
     1
102
RTVSPropertyOp0
 70
     1
102
RTVSPropertyOp1
 70
     1
102
RTVSPropertyOp2
 70
     1
102
RTVSPropertyOp3
 70
     1
102
RTVSPropertyOp4
 70
     1
102
RTVSPropertyOp5
 70
     1
102
RTVSPropertyOp6
 70
     1
102
RTVSPropertyOp7
 70
     1
102
RTVSPropertyOp8
 70
     1
102
RTVSPropertyOp9
 70
     1
102
RTVSPropertyOp10
 70
     1
102
RTVSPropertyOp11
 70
     1
102
RTVSPropertyOp12
 70
     1
102
RTVSPropertyOp13
 70
     1
102
RTVSPropertyOp14
 70
     1
102
RTVSPropertyOp15
 70
     1
102
RTVSPropertyOp16
 70
     1
102
RTVSPropertyOp17
 70
     1
102
RTVSPropertyOp18
 70
     1
102
RTVSPropertyOp19
 70
     1
102
RTVSPropertyOp20
 70
     1
102
RTVSPropertyOp21
 70
     1
102
RTVSPropertyOp22
 70
     1
102
RTVSPropertyOp23
 70
     1
102
RTVSPropertyOp24
 70
     1
102
RTVSPropertyOp25
 70
     1
102
RTVSPropertyOp26
 70
     1
102
RTVSPropertyOp27
 70
     1
102
RTVSPropertyOp28
 70
     1
102
RTVSPropertyOp29
 70
     1
102
RTVSPropertyOp30
 70
     1
102
RTVSPropertyOp31
 70
     1
102
RTVSPropertyOp32
 70
     1
102
RTVSPropertyOp33
 70
     1
102
RTVSPropertyOp34
 70
     1
102
RTVSPropertyOp35
 70
     1
102
RTVSPropertyOp36
 70
     1
102
RTVSPropertyOp37
 70
     1
102
RTVSPropertyOp38
 70
     1
102
RTVSPropertyOp39
 70
     1
102
RTVSPropertyOp40
 70
     1
102
RTVSPropertyOp41
 70
     1
102
RTVSPropertyOp42
 70
     1
102
RTVSPropertyOp43
 70
     1
102
RTVSPropertyOp44
 70
     1
102
RTVSPropertyOp45
 70
     1
102
RTVSPropertyOp46
 70
     1
102
RTVSPropertyOp47
 70
     1
102
RTVSPropertyOp48
 70
     1
102
RTVSPropertyOp49
 70
     1
102
RTVSPropertyOp50
 70
     1
102
RTVSPropertyOp51
 70
     0
102
RTVSPropertyOp52
 70
     0
102
RTVSPropertyOp53
 70
     1
102
RTVSPropertyOp54
 70
     1
102
RTVSPropertyOp55
 70
     1
102
RTVSPropertyOp56
 70
     1
102
RTVSPropertyOp57
 70
     1
102
RTVSPropertyOp58
 70
     1
102
RTVSPropertyOp59
 70
     1
102
RTVSPropertyOp60
 70
     1
102
RTVSPropertyOp61
 70
     1
102
RTVSPropertyOp62
 70
     1
  0
XRECORD
  5
1912
102
{ACAD_REACTORS
330
1911
102
}
330
1911
100
AcDbXrecord
280
     1
102
RTVSPost2010Prop28
280
     0
102
RTVSPost2010PropOp28
 70
     1
102
RTVSPost2010Prop29
280
     1
102
RTVSPost2010PropOp29
 70
     1
102
RTVSPost2010Prop30
280
     1
102
RTVSPost2010PropOp30
 70
     1
102
RTVSPost2010Prop31
280
     0
102
RTVSPost2010PropOp31
 70
     1
102
RTVSPost2010Prop32
280
     0
102
RTVSPost2010PropOp32
 70
     1
102
RTVSPost2010Prop33
280
     0
102
RTVSPost2010PropOp33
 70
     1
102
RTVSPost2010Prop34
280
     0
102
RTVSPost2010PropOp34
 70
     1
102
RTVSPost2010Prop35
280
     0
102
RTVSPost2010PropOp35
 70
     1
102
RTVSPost2010Prop36
280
     0
102
RTVSPost2010PropOp36
 70
     1
102
RTVSPost2010Prop37
 90
       50
102
RTVSPost2010PropOp37
 70
     1
102
RTVSPost2010Prop38
140
0.0
102
RTVSPost2010PropOp38
 70
     1
102
RTVSPost2010Prop39
140
1.0
102
RTVSPost2010PropOp39
 70
     1
102
RTVSPost2010Prop40
 90
        0
102
RTVSPost2010PropOp40
 70
     1
102
RTVSPost2010Prop41ColorIndex
 90
       18
102
RTVSPost2010Prop41ColorRGB
 90
        0
102
RTVSPost2010PropOp41
 70
     1
102
RTVSPost2010Prop42
 90
       50
102
RTVSPost2010PropOp42
 70
     1
102
RTVSPost2010Prop43
 90
        3
102
RTVSPost2010PropOp43
 70
     1
102
RTVSPost2010Prop44ColorIndex
 90
        5
102
RTVSPost2010Prop44ColorRGB
 90
      255
102
RTVSPost2010PropOp44
 70
     1
102
RTVSPost2010Prop45
280
     0
102
RTVSPost2010PropOp45
 70
     1
102
RTVSPost2010Prop46
 90
       50
102
RTVSPost2010PropOp46
 70
     1
102
RTVSPost2010Prop47
 90
       50
102
RTVSPost2010PropOp47
 70
     1
102
RTVSPost2010Prop48
 90
       50
102
RTVSPost2010PropOp48
 70
     1
102
RTVSPost2010Prop49
280
     0
102
RTVSPost2010PropOp49
 70
     1
102
RTVSPost2010Prop50
 90
       50
102
RTVSPost2010PropOp50
 70
     1
102
RTVSPost2010Prop51ColorIndex
 90
      256
102
RTVSPost2010Prop51ColorRGB
 90
-16777216
102
RTVSPost2010PropOp51
 70
     0
102
RTVSPost2010Prop52
140
1.0
102
RTVSPost2010PropOp52
 70
     0
102
RTVSPost2010Prop53
 90
        2
102
RTVSPost2010PropOp53
 70
     1
102
RTVSPost2010Prop54
  1
strokes_ogs.tif
102
RTVSPost2010PropOp54
 70
     1
102
RTVSPost2010Prop55
280
     0
102
RTVSPost2010PropOp55
 70
     1
102
RTVSPost2010Prop56
140
1.0
102
RTVSPost2010PropOp56
 70
     1
102
RTVSPost2010Prop57
140
1.0
102
RTVSPost2010PropOp57
 70
     1
102
RTVSPropertyOp0
 70
     1
102
RTVSPropertyOp1
 70
     1
102
RTVSPropertyOp2
 70
     1
102
RTVSPropertyOp3
 70
     1
102
RTVSPropertyOp4
 70
     1
102
RTVSPropertyOp5
 70
     1
102
RTVSPropertyOp6
 70
     1
102
RTVSPropertyOp7
 70
     1
102
RTVSPropertyOp8
 70
     1
102
RTVSPropertyOp9
 70
     1
102
RTVSPropertyOp10
 70
     1
102
RTVSPropertyOp11
 70
     1
102
RTVSPropertyOp12
 70
     1
102
RTVSPropertyOp13
 70
     1
102
RTVSPropertyOp14
 70
     1
102
RTVSPropertyOp15
 70
     1
102
RTVSPropertyOp16
 70
     1
102
RTVSPropertyOp17
 70
     1
102
RTVSPropertyOp18
 70
     1
102
RTVSPropertyOp19
 70
     1
102
RTVSPropertyOp20
 70
     1
102
RTVSPropertyOp21
 70
     1
102
RTVSPropertyOp22
 70
     1
102
RTVSPropertyOp23
 70
     1
102
RTVSPropertyOp24
 70
     1
102
RTVSPropertyOp25
 70
     1
102
RTVSPropertyOp26
 70
     1
102
RTVSPropertyOp27
 70
     1
102
RTVSPropertyOp28
 70
     1
102
RTVSPropertyOp29
 70
     1
102
RTVSPropertyOp30
 70
     1
102
RTVSPropertyOp31
 70
     1
102
RTVSPropertyOp32
 70
     1
102
RTVSPropertyOp33
 70
     1
102
RTVSPropertyOp34
 70
     1
102
RTVSPropertyOp35
 70
     1
102
RTVSPropertyOp36
 70
     1
102
RTVSPropertyOp37
 70
     1
102
RTVSPropertyOp38
 70
     1
102
RTVSPropertyOp39
 70
     1
102
RTVSPropertyOp40
 70
     1
102
RTVSPropertyOp41
 70
     1
102
RTVSPropertyOp42
 70
     1
102
RTVSPropertyOp43
 70
     1
102
RTVSPropertyOp44
 70
     1
102
RTVSPropertyOp45
 70
     1
102
RTVSPropertyOp46
 70
     1
102
RTVSPropertyOp47
 70
     1
102
RTVSPropertyOp48
 70
     1
102
RTVSPropertyOp49
 70
     1
102
RTVSPropertyOp50
 70
     1
102
RTVSPropertyOp51
 70
     0
102
RTVSPropertyOp52
 70
     0
102
RTVSPropertyOp53
 70
     1
102
RTVSPropertyOp54
 70
     1
102
RTVSPropertyOp55
 70
     1
102
RTVSPropertyOp56
 70
     1
102
RTVSPropertyOp57
 70
     1
102
RTVSPropertyOp58
 70
     1
102
RTVSPropertyOp59
 70
     1
102
RTVSPropertyOp60
 70
     1
102
RTVSPropertyOp61
 70
     1
102
RTVSPropertyOp62
 70
     1
  0
XRECORD
  5
192A
102
{ACAD_REACTORS
330
1929
102
}
330
1929
100
AcDbXrecord
280
     1
102
RTVSPost2010Prop28
280
     0
102
RTVSPost2010PropOp28
 70
     1
102
RTVSPost2010Prop29
280
     1
102
RTVSPost2010PropOp29
 70
     1
102
RTVSPost2010Prop30
280
     1
102
RTVSPost2010PropOp30
 70
     1
102
RTVSPost2010Prop31
280
     0
102
RTVSPost2010PropOp31
 70
     1
102
RTVSPost2010Prop32
280
     0
102
RTVSPost2010PropOp32
 70
     1
102
RTVSPost2010Prop33
280
     0
102
RTVSPost2010PropOp33
 70
     1
102
RTVSPost2010Prop34
280
     0
102
RTVSPost2010PropOp34
 70
     1
102
RTVSPost2010Prop35
280
     0
102
RTVSPost2010PropOp35
 70
     1
102
RTVSPost2010Prop36
280
     0
102
RTVSPost2010PropOp36
 70
     1
102
RTVSPost2010Prop37
 90
       50
102
RTVSPost2010PropOp37
 70
     1
102
RTVSPost2010Prop38
140
0.0
102
RTVSPost2010PropOp38
 70
     1
102
RTVSPost2010Prop39
140
1.0
102
RTVSPost2010PropOp39
 70
     1
102
RTVSPost2010Prop40
 90
        0
102
RTVSPost2010PropOp40
 70
     1
102
RTVSPost2010Prop41ColorIndex
 90
       18
102
RTVSPost2010Prop41ColorRGB
 90
        0
102
RTVSPost2010PropOp41
 70
     1
102
RTVSPost2010Prop42
 90
       50
102
RTVSPost2010PropOp42
 70
     1
102
RTVSPost2010Prop43
 90
        3
102
RTVSPost2010PropOp43
 70
     1
102
RTVSPost2010Prop44ColorIndex
 90
        5
102
RTVSPost2010Prop44ColorRGB
 90
      255
102
RTVSPost2010PropOp44
 70
     1
102
RTVSPost2010Prop45
280
     0
102
RTVSPost2010PropOp45
 70
     1
102
RTVSPost2010Prop46
 90
       50
102
RTVSPost2010PropOp46
 70
     1
102
RTVSPost2010Prop47
 90
       50
102
RTVSPost2010PropOp47
 70
     1
102
RTVSPost2010Prop48
 90
       50
102
RTVSPost2010PropOp48
 70
     1
102
RTVSPost2010Prop49
280
     0
102
RTVSPost2010PropOp49
 70
     1
102
RTVSPost2010Prop50
 90
       50
102
RTVSPost2010PropOp50
 70
     1
102
RTVSPost2010Prop51ColorIndex
 90
      256
102
RTVSPost2010Prop51ColorRGB
 90
-16777216
102
RTVSPost2010PropOp51
 70
     0
102
RTVSPost2010Prop52
140
1.0
102
RTVSPost2010PropOp52
 70
     0
102
RTVSPost2010Prop53
 90
        2
102
RTVSPost2010PropOp53
 70
     1
102
RTVSPost2010Prop54
  1
strokes_ogs.tif
102
RTVSPost2010PropOp54
 70
     1
102
RTVSPost2010Prop55
280
     0
102
RTVSPost2010PropOp55
 70
     1
102
RTVSPost2010Prop56
140
1.0
102
RTVSPost2010PropOp56
 70
     1
102
RTVSPost2010Prop57
140
1.0
102
RTVSPost2010PropOp57
 70
     1
102
RTVSPropertyOp0
 70
     1
102
RTVSPropertyOp1
 70
     1
102
RTVSPropertyOp2
 70
     1
102
RTVSPropertyOp3
 70
     1
102
RTVSPropertyOp4
 70
     1
102
RTVSPropertyOp5
 70
     1
102
RTVSPropertyOp6
 70
     1
102
RTVSPropertyOp7
 70
     1
102
RTVSPropertyOp8
 70
     1
102
RTVSPropertyOp9
 70
     1
102
RTVSPropertyOp10
 70
     1
102
RTVSPropertyOp11
 70
     1
102
RTVSPropertyOp12
 70
     1
102
RTVSPropertyOp13
 70
     1
102
RTVSPropertyOp14
 70
     1
102
RTVSPropertyOp15
 70
     1
102
RTVSPropertyOp16
 70
     1
102
RTVSPropertyOp17
 70
     1
102
RTVSPropertyOp18
 70
     1
102
RTVSPropertyOp19
 70
     1
102
RTVSPropertyOp20
 70
     1
102
RTVSPropertyOp21
 70
     1
102
RTVSPropertyOp22
 70
     1
102
RTVSPropertyOp23
 70
     1
102
RTVSPropertyOp24
 70
     1
102
RTVSPropertyOp25
 70
     1
102
RTVSPropertyOp26
 70
     1
102
RTVSPropertyOp27
 70
     1
102
RTVSPropertyOp28
 70
     1
102
RTVSPropertyOp29
 70
     1
102
RTVSPropertyOp30
 70
     1
102
RTVSPropertyOp31
 70
     1
102
RTVSPropertyOp32
 70
     1
102
RTVSPropertyOp33
 70
     1
102
RTVSPropertyOp34
 70
     1
102
RTVSPropertyOp35
 70
     1
102
RTVSPropertyOp36
 70
     1
102
RTVSPropertyOp37
 70
     1
102
RTVSPropertyOp38
 70
     1
102
RTVSPropertyOp39
 70
     1
102
RTVSPropertyOp40
 70
     1
102
RTVSPropertyOp41
 70
     1
102
RTVSPropertyOp42
 70
     1
102
RTVSPropertyOp43
 70
     1
102
RTVSPropertyOp44
 70
     1
102
RTVSPropertyOp45
 70
     1
102
RTVSPropertyOp46
 70
     1
102
RTVSPropertyOp47
 70
     1
102
RTVSPropertyOp48
 70
     1
102
RTVSPropertyOp49
 70
     1
102
RTVSPropertyOp50
 70
     1
102
RTVSPropertyOp51
 70
     0
102
RTVSPropertyOp52
 70
     0
102
RTVSPropertyOp53
 70
     1
102
RTVSPropertyOp54
 70
     1
102
RTVSPropertyOp55
 70
     1
102
RTVSPropertyOp56
 70
     1
102
RTVSPropertyOp57
 70
     1
102
RTVSPropertyOp58
 70
     1
102
RTVSPropertyOp59
 70
     1
102
RTVSPropertyOp60
 70
     1
102
RTVSPropertyOp61
 70
     1
102
RTVSPropertyOp62
 70
     1
  0
ENDSEC
  0
EOF
