  0
SECTION
  2
HEADER
  9
$ACADVER
  1
AC1027
  9
$DWGCODEPAGE
  3
ANSI_932
  9
$LTSCALE
 40
20.0
  9
$FILLMODE
 70
     1
  9
$CLAYER
  8
0
  9
$PDMODE
 70
     0
  9
$SPLFRAME
 70
     0
  9
$SPLINETYPE
 70
     6
  9
$SPLINESEGS
 70
     8
  9
$DIMASZ
 40
2.000000
  9
$DIMEXE
 40
1.500000
  9
$DIMEXO
 40
0.800000
  9
$DIMTAD
 70
     1
  9
$DIMTIH
 70
     0
  9
$DIMTOH
 70
     0
  9
$DIMTVP
 40
0.500000
  9
$DIMTXT
 40
3.100000
  9
$EXTMIN
 10
0.000000
 20
0.000000
 30
0.000000
  9
$EXTMAX
 10
297.000000
 20
420.000000
 30
0.000000
  9
$MEASUREMENT
 70
  1
  9
$LIMMIN
 10
0.000000
 20
0.000000
  9
$LIMMAX
 10
297.000000
 20
420.000000
  9
$HANDSEED
  5
192
  9
$LWDISPLAY
290
     0
  9
$DIMBLK
  1
_OPEN
  9
$DIMDEC
 70
     2
  9
$DIMADEC
 70
     2
  9
$DIMAUNIT
 70
     0
  9
$DIMZIN
 70
     8
  9
$DIMAZIN
 70
     2
  9
$DIMTOFL
 70
     1
  0
ENDSEC
  0
SECTION
  2
CLASSES
  0
ENDSEC
  0
SECTION
  2
TABLES
  0
TABLE
  2
VPORT
  5
15D
100
AcDbSymbolTable
 70
     1
  0
VPORT
  5
15E
100
AcDbSymbolTableRecord
100
AcDbViewportTableRecord
  2
*ACTIVE
 70
     0
 12
148.787764
 22
104.102476
 40
172.204950
 41
1.611891
  0
ENDTAB
  0
TABLE
  2
LTYPE
  5
15F
100
AcDbSymbolTable
 70
     2
  0
LTYPE
  5
160
100
AcDbSymbolTableRecord
100
AcDbLinetypeTableRecord
  2
BYBLOCK
 70
     0
  3

 72
    65
 73
     0
 40
0.0
  0
LTYPE
  5
161
100
AcDbSymbolTableRecord
100
AcDbLinetypeTableRecord
  2
BYLAYER
 70
     0
  3

 72
    65
 73
     0
 40
0.0
  0
LTYPE
  5
162
100
AcDbSymbolTableRecord
100
AcDbLinetypeTableRecord
  2
CONTINUOUS
 70
     0
  3
Solid line (NEC CAE2D for Win R17.0 : 2022.09.01)
 72
    65
 73
     0
 40
0.0
  0
LTYPE
  5
163
100
AcDbSymbolTableRecord
100
AcDbLinetypeTableRecord
  2
CENTER
 70
     0
  3
____ _ ____ _ ____ _ ____ _ ____ _ ____
 72
    65
 73
     4
 40
2.0
 49
1.25
 74
     0
 49
-0.25
 74
     0
 49
0.25
 74
     0
 49
-0.25
 74
     0
  0
ENDTAB
  0
TABLE
  2
LAYER
  5
164
100
AcDbSymbolTable
 70
    15
  0
LAYER
  5
165
100
AcDbSymbolTableRecord
100
AcDbLayerTableRecord
  2
0
 70
     0
 62
     7
  6
CONTINUOUS
370
    -3
390

  0
LAYER
  5
166
100
AcDbSymbolTableRecord
100
AcDbLayerTableRecord
  2
A0
 70
     0
 62
     9
  6
CONTINUOUS
370
    -3
390

  0
LAYER
  5
167
100
AcDbSymbolTableRecord
100
AcDbLayerTableRecord
  2
A1
 70
     0
 62
     7
  6
CONTINUOUS
370
    -3
390

  0
LAYER
  5
168
100
AcDbSymbolTableRecord
100
AcDbLayerTableRecord
  2
A4
 70
     0
 62
     9
  6
CONTINUOUS
370
    -3
390

  0
LAYER
  5
169
100
AcDbSymbolTableRecord
100
AcDbLayerTableRecord
  2
A5
 70
     0
 62
     8
  6
CONTINUOUS
370
    -3
390

  0
LAYER
  5
16A
100
AcDbSymbolTableRecord
100
AcDbLayerTableRecord
  2
A6
 70
     0
 62
    12
  6
CONTINUOUS
370
    -3
390

  0
LAYER
  5
16B
100
AcDbSymbolTableRecord
100
AcDbLayerTableRecord
  2
A8
 70
     0
 62
    10
  6
CONTINUOUS
370
    -3
390

  0
LAYER
  5
16C
100
AcDbSymbolTableRecord
100
AcDbLayerTableRecord
  2
A9
 70
     0
 62
     9
  6
CONTINUOUS
370
    -3
390

  0
LAYER
  5
16D
100
AcDbSymbolTableRecord
100
AcDbLayerTableRecord
  2
A10
 70
     0
 62
     6
  6
CONTINUOUS
370
    -3
390

  0
LAYER
  5
16E
100
AcDbSymbolTableRecord
100
AcDbLayerTableRecord
  2
A14
 70
     0
 62
     5
  6
CONTINUOUS
370
    -3
390

  0
LAYER
  5
16F
100
AcDbSymbolTableRecord
100
AcDbLayerTableRecord
  2
A20
 70
     0
 62
     1
  6
CONTINUOUS
370
    -3
390

  0
LAYER
  5
170
100
AcDbSymbolTableRecord
100
AcDbLayerTableRecord
  2
A30
 70
     0
 62
     1
  6
CONTINUOUS
370
    -3
390

  0
LAYER
  5
171
100
AcDbSymbolTableRecord
100
AcDbLayerTableRecord
  2
A40
 70
     0
 62
     9
  6
CONTINUOUS
370
    -3
390

  0
LAYER
  5
172
100
AcDbSymbolTableRecord
100
AcDbLayerTableRecord
  2
A50
 70
     0
 62
    12
  6
CONTINUOUS
370
    -3
390

  0
LAYER
  5
173
100
AcDbSymbolTableRecord
100
AcDbLayerTableRecord
  2
A1023
 70
     0
 62
    16
  6
CONTINUOUS
370
    -3
390

  0
ENDTAB
  0
TABLE
  2
STYLE
  5
174
100
AcDbSymbolTable
 70
     4
  0
STYLE
  5
175
100
AcDbSymbolTableRecord
100
AcDbTextStyleTableRecord
  2
STANDARD
 70
    64
 40
0.0
 41
1.0
 50
0.0
 71
     0
 42
3.000000000000000
  3
TXT
  4

  0
STYLE
  5
176
100
AcDbSymbolTableRecord
100
AcDbTextStyleTableRecord
  2
ANKTATE
 70
    68
 40
0.0
 41
1.0
 50
0.0
 71
     0
 42
3.000000000000000
  3
TXT
  4

  0
STYLE
  5
177
100
AcDbSymbolTableRecord
100
AcDbTextStyleTableRecord
  2
KNJYOKO
 70
    64
 40
0.0
 41
1.0
 50
0.0
 71
     0
 42
3.000000000000000
  3
TXT
  4
BIGFONT
  0
STYLE
  5
178
100
AcDbSymbolTableRecord
100
AcDbTextStyleTableRecord
  2
KNJTATE
 70
    68
 40
0.0
 41
1.0
 50
0.0
 71
     0
 42
3.000000000000000
  3
TXT
  4
BIGFONT
  0
ENDTAB
  0
TABLE
  2
VIEW
  5
179
100
AcDbSymbolTable
 70
     0
  0
ENDTAB
  0
TABLE
  2
UCS
  5
17A
100
AcDbSymbolTable
 70
     0
  0
ENDTAB
  0
TABLE
  2
APPID
  5
17B
100
AcDbSymbolTable
 70
     1
  0
APPID
  5
17C
100
AcDbSymbolTableRecord
100
AcDbRegAppTableRecord
  2
ACAD
 70
     0
  0
ENDTAB
  0
TABLE
  2
DIMSTYLE
  5
17D
100
AcDbSymbolTable
 70
     2
100
AcDbDimStyleTable
  0
DIMSTYLE
105
17E
100
AcDbSymbolTableRecord
100
AcDbDimStyleTableRecord
  2
STANDARD
 70
     0
 41
2.000000
 44
1.500000
 42
0.800000
145
0.661290
140
3.100000
144
1.000000
146
0.645161
340
175
  0
DIMSTYLE
105
17F
100
AcDbSymbolTableRecord
100
AcDbDimStyleTableRecord
  2
A001
 70
     0
 41
2.000000
 44
1.500000
 42
0.800000
145
0.661290
140
3.100000
144
1.000000
146
0.645161
 77
     1
 73
     0
 74
     0
271
     2
179
     2
275
     0
 78
     8
 79
     2
172
     1
340
175
  0
ENDTAB
  0
TABLE
  2
BLOCK_RECORD
  5
180
100
AcDbSymbolTable
 70
    12
  0
BLOCK_RECORD
  5
181
100
AcDbSymbolTableRecord
100
AcDbBlockTableRecord
  2
*MODEL_SPACE
  0
BLOCK_RECORD
  5
182
100
AcDbSymbolTableRecord
100
AcDbBlockTableRecord
  2
*PAPER_SPACE
  0
BLOCK_RECORD
  5
183
100
AcDbSymbolTableRecord
100
AcDbBlockTableRecord
  2
*PAPER_SPACE0
  0
BLOCK_RECORD
  5
1
100
AcDbSymbolTableRecord
100
AcDbBlockTableRecord
  2
_NONE
  0
BLOCK_RECORD
  5
4
100
AcDbSymbolTableRecord
100
AcDbBlockTableRecord
  2
_CLOSED
  0
BLOCK_RECORD
  5
B
100
AcDbSymbolTableRecord
100
AcDbBlockTableRecord
  2
_DOT
  0
BLOCK_RECORD
  5
13
100
AcDbSymbolTableRecord
100
AcDbBlockTableRecord
  2
_OPEN
  0
BLOCK_RECORD
  5
19
100
AcDbSymbolTableRecord
100
AcDbBlockTableRecord
  2
_ORIGIN
  0
BLOCK_RECORD
  5
1E
100
AcDbSymbolTableRecord
100
AcDbBlockTableRecord
  2
_OPEN30
  0
BLOCK_RECORD
  5
24
100
AcDbSymbolTableRecord
100
AcDbBlockTableRecord
  2
_BOXFILLED
  0
BLOCK_RECORD
  5
29
100
AcDbSymbolTableRecord
100
AcDbBlockTableRecord
  2
_BOXBLANK
  0
BLOCK_RECORD
  5
31
100
AcDbSymbolTableRecord
100
AcDbBlockTableRecord
  2
_OBLIQUE
  0
BLOCK_RECORD
  5
35
100
AcDbSymbolTableRecord
100
AcDbBlockTableRecord
  2
_OPEN90
  0
BLOCK_RECORD
  5
3B
100
AcDbSymbolTableRecord
100
AcDbBlockTableRecord
  2
_CLOSEDBLANK
  0
BLOCK_RECORD
  5
41
100
AcDbSymbolTableRecord
100
AcDbBlockTableRecord
  2
_DOTBLANK
  0
ENDTAB
  0
ENDSEC
  0
SECTION
  2
BLOCKS
  0
BLOCK
  5
184
100
AcDbEntity
  8
0
100
AcDbBlockBegin
  2
*MODEL_SPACE
 70
     0
 10
0.0
 20
0.0
 30
0.0
  3
*MODEL_SPACE
  1

  0
ENDBLK
  5
185
100
AcDbEntity
  8
0
100
AcDbBlockEnd
  0
BLOCK
  5
186
100
AcDbEntity
  8
0
100
AcDbBlockBegin
  2
*PAPER_SPACE
 70
     0
 10
0.0
 20
0.0
 30
0.0
  3
*PAPER_SPACE
  1

  0
ENDBLK
  5
187
100
AcDbEntity
  8
0
100
AcDbBlockEnd
  0
BLOCK
  5
188
100
AcDbEntity
  8
0
100
AcDbBlockBegin
  2
*PAPER_SPACE0
 70
     0
 10
0.0
 20
0.0
 30
0.0
  3
*PAPER_SPACE0
  1

  0
ENDBLK
  5
189
100
AcDbEntity
  8
0
100
AcDbBlockEnd
  0
BLOCK
  5
2
330
1
100
AcDbEntity
  8
0
100
AcDbBlockBegin
  2
_NONE
 70
     0
 10
0.0
 20
0.0
 30
0.0
  3
_NONE
  1

  0
ENDBLK
  5
3
330
1
100
AcDbEntity
  8
0
100
AcDbBlockEnd
  0
BLOCK
  5
5
330
4
100
AcDbEntity
  8
0
100
AcDbBlockBegin
  2
_CLOSED
 70
     0
 10
0.0
 20
0.0
 30
0.0
  3
_CLOSED
  1

  0
LINE
  5
6
330
4
100
AcDbEntity
  8
0
  6
BYBLOCK
 62
     0
370
    -2
100
AcDbLine
 10
-1.0
 20
0.166667
 30
0.0
 11
0.0
 21
0.0
 31
0.0
  0
LINE
  5
7
330
4
100
AcDbEntity
  8
0
  6
BYBLOCK
 62
     0
370
    -2
100
AcDbLine
 10
0.0
 20
0.0
 30
0.0
 11
-1.0
 21
-0.166667
 31
0.0
  0
LINE
  5
8
330
4
100
AcDbEntity
  8
0
  6
BYBLOCK
 62
     0
370
    -2
100
AcDbLine
 10
-1.0
 20
0.166667
 30
0.0
 11
-1.0
 21
-0.166667
 31
0.0
  0
LINE
  5
9
330
4
100
AcDbEntity
  8
0
  6
BYBLOCK
 62
     0
370
    -2
100
AcDbLine
 10
0.0
 20
0.0
 30
0.0
 11
-1.0
 21
0.0
 31
0.0
  0
ENDBLK
  5
A
330
4
100
AcDbEntity
  8
0
100
AcDbBlockEnd
  0
BLOCK
  5
C
330
B
100
AcDbEntity
  8
0
100
AcDbBlockBegin
  2
_DOT
 70
     0
 10
0.0
 20
0.0
 30
0.0
  3
_DOT
  1

  0
POLYLINE
  5
D
330
B
100
AcDbEntity
  8
0
  6
BYBLOCK
 62
     0
370
    -2
100
AcDb2dPolyline
 66
     1
 10
0.0
 20
0.0
 30
0.0
 70
     1
 40
0.5
 41
0.5
  0
VERTEX
  5
E
330
B
100
AcDbEntity
  8
0
  6
BYBLOCK
 62
     0
370
    -2
100
AcDbVertex
100
AcDb2dVertex
 10
-0.25
 20
0.0
 30
0.0
 42
1.0
  0
VERTEX
  5
F
330
B
100
AcDbEntity
  8
0
  6
BYBLOCK
 62
     0
370
    -2
100
AcDbVertex
100
AcDb2dVertex
 10
0.25
 20
0.0
 30
0.0
 42
1.0
  0
SEQEND
  5
10
330
B
100
AcDbEntity
  8
0
  6
BYBLOCK
 62
     0
370
    -2
  0
LINE
  5
11
330
B
100
AcDbEntity
  8
0
  6
BYBLOCK
 62
     0
370
    -2
100
AcDbLine
 10
-0.5
 20
0.0
 30
0.0
 11
-1.0
 21
0.0
 31
0.0
  0
ENDBLK
  5
12
330
B
100
AcDbEntity
  8
0
100
AcDbBlockEnd
  0
BLOCK
  5
14
330
13
100
AcDbEntity
  8
0
100
AcDbBlockBegin
  2
_OPEN
 70
     0
 10
0.0
 20
0.0
 30
0.0
  3
_OPEN
  1

  0
LINE
  5
15
330
13
100
AcDbEntity
  8
0
  6
BYBLOCK
 62
     0
370
    -2
100
AcDbLine
 10
-1.0
 20
0.166667
 30
0.0
 11
0.0
 21
0.0
 31
0.0
  0
LINE
  5
16
330
13
100
AcDbEntity
  8
0
  6
BYBLOCK
 62
     0
370
    -2
100
AcDbLine
 10
0.0
 20
0.0
 30
0.0
 11
-1.0
 21
-0.166667
 31
0.0
  0
LINE
  5
17
330
13
100
AcDbEntity
  8
0
  6
BYBLOCK
 62
     0
370
    -2
100
AcDbLine
 10
0.0
 20
0.0
 30
0.0
 11
-1.0
 21
0.0
 31
0.0
  0
ENDBLK
  5
18
330
13
100
AcDbEntity
  8
0
100
AcDbBlockEnd
  0
BLOCK
  5
1A
330
19
100
AcDbEntity
  8
0
100
AcDbBlockBegin
  2
_ORIGIN
 70
     0
 10
0.0
 20
0.0
 30
0.0
  3
_ORIGIN
  1

  0
CIRCLE
  5
1B
330
19
100
AcDbEntity
  8
0
  6
BYBLOCK
 62
     0
370
    -2
100
AcDbCircle
 10
0.0
 20
0.0
 30
0.0
 40
0.5
  0
LINE
  5
1C
330
19
100
AcDbEntity
  8
0
  6
BYBLOCK
 62
     0
370
    -2
100
AcDbLine
 10
0.0
 20
0.0
 30
0.0
 11
-1.0
 21
0.0
 31
0.0
  0
ENDBLK
  5
1D
330
19
100
AcDbEntity
  8
0
100
AcDbBlockEnd
  0
BLOCK
  5
1F
330
1E
100
AcDbEntity
  8
0
100
AcDbBlockBegin
  2
_OPEN30
 70
     0
 10
0.0
 20
0.0
 30
0.0
  3
_OPEN30
  1

  0
LINE
  5
20
330
1E
100
AcDbEntity
  8
0
  6
BYBLOCK
 62
     0
370
    -2
100
AcDbLine
 10
-1.0
 20
0.267949
 30
0.0
 11
0.0
 21
0.0
 31
0.0
  0
LINE
  5
21
330
1E
100
AcDbEntity
  8
0
  6
BYBLOCK
 62
     0
370
    -2
100
AcDbLine
 10
0.0
 20
0.0
 30
0.0
 11
-1.0
 21
-0.267949
 31
0.0
  0
LINE
  5
22
330
1E
100
AcDbEntity
  8
0
  6
BYBLOCK
 62
     0
370
    -2
100
AcDbLine
 10
0.0
 20
0.0
 30
0.0
 11
-1.0
 21
0.0
 31
0.0
  0
ENDBLK
  5
23
330
1E
100
AcDbEntity
  8
0
100
AcDbBlockEnd
  0
BLOCK
  5
25
330
24
100
AcDbEntity
  8
0
100
AcDbBlockBegin
  2
_BOXFILLED
 70
     0
 10
0.0
 20
0.0
 30
0.0
  3
_BOXFILLED
  1

  0
SOLID
  5
26
330
24
100
AcDbEntity
  8
0
  6
BYBLOCK
 62
     0
370
    -2
100
AcDbTrace
 10
-0.5
 20
0.5
 30
0.0
 11
0.5
 21
0.5
 31
0.0
 12
-0.5
 22
-0.5
 32
0.0
 13
0.5
 23
-0.5
 33
0.0
  0
LINE
  5
27
330
24
100
AcDbEntity
  8
0
  6
BYBLOCK
 62
     0
370
    -2
100
AcDbLine
 10
-0.5
 20
0.0
 30
0.0
 11
-1.0
 21
0.0
 31
0.0
  0
ENDBLK
  5
28
330
24
100
AcDbEntity
  8
0
100
AcDbBlockEnd
  0
BLOCK
  5
2A
330
29
100
AcDbEntity
  8
0
100
AcDbBlockBegin
  2
_BOXBLANK
 70
     0
 10
0.0
 20
0.0
 30
0.0
  3
_BOXBLANK
  1

  0
LINE
  5
2B
330
29
100
AcDbEntity
  8
0
  6
BYBLOCK
 62
     0
370
    -2
100
AcDbLine
 10
-0.5
 20
-0.5
 30
0.0
 11
0.5
 21
-0.5
 31
0.0
  0
LINE
  5
2C
330
29
100
AcDbEntity
  8
0
  6
BYBLOCK
 62
     0
370
    -2
100
AcDbLine
 10
0.5
 20
-0.5
 30
0.0
 11
0.5
 21
0.5
 31
0.0
  0
LINE
  5
2D
330
29
100
AcDbEntity
  8
0
  6
BYBLOCK
 62
     0
370
    -2
100
AcDbLine
 10
0.5
 20
0.5
 30
0.0
 11
-0.5
 21
0.5
 31
0.0
  0
LINE
  5
2E
330
29
100
AcDbEntity
  8
0
  6
BYBLOCK
 62
     0
370
    -2
100
AcDbLine
 10
-0.5
 20
0.5
 30
0.0
 11
-0.5
 21
-0.5
 31
0.0
  0
LINE
  5
2F
330
29
100
AcDbEntity
  8
0
  6
BYBLOCK
 62
     0
370
    -2
100
AcDbLine
 10
-0.5
 20
0.0
 30
0.0
 11
-1.0
 21
0.0
 31
0.0
  0
ENDBLK
  5
30
330
29
100
AcDbEntity
  8
0
100
AcDbBlockEnd
  0
BLOCK
  5
32
330
31
100
AcDbEntity
  8
0
100
AcDbBlockBegin
  2
_OBLIQUE
 70
     0
 10
0.0
 20
0.0
 30
0.0
  3
_OBLIQUE
  1

  0
LINE
  5
33
330
31
100
AcDbEntity
  8
0
  6
BYBLOCK
 62
     0
370
    -2
100
AcDbLine
 10
-0.5
 20
-0.5
 30
0.0
 11
0.5
 21
0.5
 31
0.0
  0
ENDBLK
  5
34
330
31
100
AcDbEntity
  8
0
100
AcDbBlockEnd
  0
BLOCK
  5
36
330
35
100
AcDbEntity
  8
0
100
AcDbBlockBegin
  2
_OPEN90
 70
     0
 10
0.0
 20
0.0
 30
0.0
  3
_OPEN90
  1

  0
LINE
  5
37
330
35
100
AcDbEntity
  8
0
  6
BYBLOCK
 62
     0
370
    -2
100
AcDbLine
 10
-0.5
 20
0.5
 30
0.0
 11
0.0
 21
0.0
 31
0.0
  0
LINE
  5
38
330
35
100
AcDbEntity
  8
0
  6
BYBLOCK
 62
     0
370
    -2
100
AcDbLine
 10
0.0
 20
0.0
 30
0.0
 11
-0.5
 21
-0.5
 31
0.0
  0
LINE
  5
39
330
35
100
AcDbEntity
  8
0
  6
BYBLOCK
 62
     0
370
    -2
100
AcDbLine
 10
0.0
 20
0.0
 30
0.0
 11
-1.0
 21
0.0
 31
0.0
  0
ENDBLK
  5
3A
330
35
100
AcDbEntity
  8
0
100
AcDbBlockEnd
  0
BLOCK
  5
3C
330
3B
100
AcDbEntity
  8
0
100
AcDbBlockBegin
  2
_CLOSEDBLANK
 70
     0
 10
0.0
 20
0.0
 30
0.0
  3
_CLOSEDBLANK
  1

  0
LINE
  5
3D
330
3B
100
AcDbEntity
  8
0
  6
BYBLOCK
 62
     0
370
    -2
100
AcDbLine
 10
-1.0
 20
0.1666666666666666
 30
0.0
 11
0.0
 21
0.0
 31
0.0
  0
LINE
  5
3E
330
3B
100
AcDbEntity
  8
0
  6
BYBLOCK
 62
     0
370
    -2
100
AcDbLine
 10
0.0
 20
0.0
 30
0.0
 11
-1.0
 21
-0.1666666666666666
 31
0.0
  0
LINE
  5
3F
330
3B
100
AcDbEntity
  8
0
  6
BYBLOCK
 62
     0
370
    -2
100
AcDbLine
 10
-1.0
 20
0.1666666666666666
 30
0.0
 11
-1.0
 21
-0.1666666666666666
 31
0.0
  0
ENDBLK
  5
40
330
3B
100
AcDbEntity
  8
0
100
AcDbBlockEnd
  0
BLOCK
  5
42
330
41
100
AcDbEntity
  8
0
100
AcDbBlockBegin
  2
_DOTBLANK
 70
     0
 10
0.0
 20
0.0
 30
0.0
  3
_DOTBLANK
  1

  0
CIRCLE
  5
43
330
41
100
AcDbEntity
  8
0
  6
BYBLOCK
 62
     0
370
    -2
100
AcDbCircle
 10
0.0
 20
0.0
 30
0.0
 40
0.5
  0
LINE
  5
44
330
41
100
AcDbEntity
  8
0
  6
BYBLOCK
 62
     0
370
    -2
100
AcDbLine
 10
-0.5
 20
0.0
 30
0.0
 11
-1.0
 21
0.0
 31
0.0
  0
ENDBLK
  5
45
330
41
100
AcDbEntity
  8
0
100
AcDbBlockEnd
  0
ENDSEC
  0
SECTION
  2
ENTITIES
  0
MTEXT
  5
46
100
AcDbEntity
  8
A8
  6
CONTINUOUS
 62
3
100
AcDbMText
 10
9.999997526638502
 20
18.00000076076889
 30
0.000000000000000
 40
3.000000000000000
 41
0.000000000000000
 44
0.6739999771118164
 71
     7
 72
     1
  1
{\H0.93x;{TYPE No.TH-174-4}}
 11
1.000000000000000
 21
0.000000000000000
 31
0.000000000000000
  7
STANDARD
  0
POINT
  5
47
100
AcDbEntity
  8
A0
  6
CONTINUOUS
 62
3
100
AcDbPoint
 10
9.999997526638502
 20
18.00000076076889
 30
0.000000000000000
  0
POINT
  5
48
100
AcDbEntity
  8
A10
  6
CONTINUOUS
 62
3
100
AcDbPoint
 10
50.00000000000000
 20
50.00000000000000
 30
0.000000000000000
  0
ARC
  5
49
100
AcDbEntity
  8
A1
  6
CONTINUOUS
 62
7
100
AcDbCircle
 10
115.5177906409694
 20
130.2925146680768
 30
0.000000000000000
 40
1.500000000000001
100
AcDbArc
 50
123.0557311508541
 51
180.0000000000000
  0
CIRCLE
  5
4A
100
AcDbEntity
  8
A1
  6
CONTINUOUS
 62
7
100
AcDbCircle
 10
112.5177906409694
 20
134.9022868967233
 30
0.000000000000000
 40
4.000000000000000
  0
ARC
  5
4B
100
AcDbEntity
  8
A1
  6
CONTINUOUS
 62
7
100
AcDbCircle
 10
109.5177906409694
 20
130.2925146680768
 30
0.000000000000000
 40
1.499999999999999
100
AcDbArc
 50
0.000000000000000
 51
56.94426884914591
  0
ARC
  5
4C
100
AcDbEntity
  8
A1
  6
CONTINUOUS
 62
7
100
AcDbCircle
 10
111.2177906409695
 20
124.1022868967233
 30
0.000000000000000
 40
0.1999999999999996
100
AcDbArc
 50
180.0000000000000
 51
270.0000000000000
  0
ARC
  5
4D
100
AcDbEntity
  8
A1
  6
CONTINUOUS
 62
7
100
AcDbCircle
 10
113.8177906409694
 20
124.1022868967233
 30
0.000000000000000
 40
0.1999999999999990
100
AcDbArc
 50
269.9999999999974
 51
360.0000000000000
  0
LINE
  5
4E
100
AcDbEntity
  8
A1
  6
CONTINUOUS
 62
7
100
AcDbLine
 10
111.2177906409695
 20
123.9022868967233
 30
0.000000000000000
 11
113.8177906409694
 21
123.9022868967233
 31
0.000000000000000
  0
ARC
  5
4F
100
AcDbEntity
  8
A1
  6
CONTINUOUS
 62
7
100
AcDbCircle
 10
172.0177906409689
 20
125.9022868967233
 30
0.000000000000000
 40
2.000000000000000
100
AcDbArc
 50
270.0000000000000
 51
360.0000000000000
  0
LINE
  5
50
100
AcDbEntity
  8
A1
  6
CONTINUOUS
 62
7
100
AcDbLine
 10
158.0177906409690
 20
123.9022868967233
 30
0.000000000000000
 11
172.0177906409690
 21
123.9022868967233
 31
0.000000000000000
  0
ARC
  5
51
100
AcDbEntity
  8
A1
  6
CONTINUOUS
 62
7
100
AcDbCircle
 10
158.0177906409689
 20
125.9022868967233
 30
0.000000000000000
 40
2.000000000000000
100
AcDbArc
 50
180.0000000000000
 51
270.0000000000000
  0
ARC
  5
52
100
AcDbEntity
  8
A1
  6
CONTINUOUS
 62
7
100
AcDbCircle
 10
156.2177906409685
 20
138.7022868967233
 30
0.000000000000000
 40
0.2000000000000000
100
AcDbArc
 50
90.00000000000000
 51
180.0000000000000
  0
ARC
  5
53
100
AcDbEntity
  8
A1
  6
CONTINUOUS
 62
7
100
AcDbCircle
 10
173.8177906409686
 20
138.7022868967233
 30
0.000000000000000
 40
0.2000000000000000
100
AcDbArc
 50
0.000000000000000
 51
90.00000000000000
  0
ARC
  5
54
100
AcDbEntity
  8
A1
  6
CONTINUOUS
 62
7
100
AcDbCircle
 10
163.6309894322183
 20
127.4022868967233
 30
0.000000000000000
 40
0.8527777777777780
100
AcDbArc
 50
121.9666599031146
 51
238.0333400968854
  0
ARC
  5
55
100
AcDbEntity
  8
A1
  6
CONTINUOUS
 62
7
100
AcDbCircle
 10
165.0177906409691
 20
125.1800646745010
 30
0.000000000000000
 40
3.472222222222226
100
AcDbArc
 50
58.03334009689209
 51
121.9666599031079
  0
ARC
  5
56
100
AcDbEntity
  8
A1
  6
CONTINUOUS
 62
7
100
AcDbCircle
 10
166.4045918497197
 20
127.4022868967233
 30
0.000000000000000
 40
0.8527777777777770
100
AcDbArc
 50
301.9666599031147
 51
418.0333400968855
  0
ARC
  5
57
100
AcDbEntity
  8
A1
  6
CONTINUOUS
 62
7
100
AcDbCircle
 10
165.0177906409691
 20
129.6245091189456
 30
0.000000000000000
 40
3.472222222222221
100
AcDbArc
 50
238.0333400968921
 51
301.9666599031078
  0
CIRCLE
  5
58
100
AcDbEntity
  8
A1
  6
CONTINUOUS
 62
7
100
AcDbCircle
 10
170.0177906409691
 20
127.4022868967233
 30
0.000000000000000
 40
1.600000000000000
  0
CIRCLE
  5
59
100
AcDbEntity
  8
A1
  6
CONTINUOUS
 62
7
100
AcDbCircle
 10
160.0177906409691
 20
127.4022868967233
 30
0.000000000000000
 40
1.600000000000000
  0
ARC
  5
5A
100
AcDbEntity
  8
A14
  6
CONTINUOUS
 62
4
100
AcDbCircle
 10
164.7122350854134
 20
127.1244949447723
 30
0.000000000000000
 40
0.5555555555555505
100
AcDbArc
 50
269.4211852427671
 51
319.2291408085473
  0
ARC
  5
5B
100
AcDbEntity
  8
A14
  6
CONTINUOUS
 62
4
100
AcDbCircle
 10
164.7094289600124
 20
126.8467313411678
 30
0.000000000000000
 40
0.2777777777777741
100
AcDbArc
 50
225.5846914028141
 51
269.4211852427740
  0
ARC
  5
5C
100
AcDbEntity
  8
A14
  6
CONTINUOUS
 62
4
100
AcDbCircle
 10
164.5733461965245
 20
126.7078424522788
 30
0.000000000000000
 40
0.08333333333333315
100
AcDbArc
 50
134.4153085971925
 51
225.5846914028118
  0
ARC
  5
5D
100
AcDbEntity
  8
A14
  6
CONTINUOUS
 62
4
100
AcDbCircle
 10
164.7094289600124
 20
126.5689535633899
 30
0.000000000000000
 40
0.2777777777777740
100
AcDbArc
 50
90.19958709343570
 51
134.4153085972006
  0
ARC
  5
5E
100
AcDbEntity
  8
A14
  6
CONTINUOUS
 62
4
100
AcDbCircle
 10
164.7122350854134
 20
125.7633980078344
 30
0.000000000000000
 40
1.083338220839763
100
AcDbArc
 50
67.14681034642719
 51
90.19958709344002
  0
ARC
  5
5F
100
AcDbEntity
  8
A14
  6
CONTINUOUS
 62
4
100
AcDbCircle
 10
166.3161378493510
 20
128.5043456539865
 30
0.000000000000000
 40
0.9999999999999900
100
AcDbArc
 50
236.9876504436205
 51
278.7500945848938
  0
ARC
  5
60
100
AcDbEntity
  8
A14
  6
CONTINUOUS
 62
4
100
AcDbCircle
 10
166.1011239743023
 20
127.1186114751341
 30
0.000000000000000
 40
0.6388888888888885
100
AcDbArc
 50
121.0788994897480
 51
180.0000000000000
  0
LINE
  5
61
100
AcDbEntity
  8
A14
  6
CONTINUOUS
 62
4
100
AcDbLine
 10
165.4622350854135
 20
127.0105112871224
 30
0.000000000000000
 11
165.4622350854135
 21
127.1186114751341
 31
0.000000000000000
  0
ARC
  5
62
100
AcDbEntity
  8
A14
  6
CONTINUOUS
 62
4
100
AcDbCircle
 10
164.8789017520800
 20
127.0105112871225
 30
0.000000000000000
 40
0.5833333333333405
100
AcDbArc
 50
334.8288455445267
 51
360.0000000000000
  0
ARC
  5
63
100
AcDbEntity
  8
A14
  6
CONTINUOUS
 62
4
100
AcDbCircle
 10
165.8197417254152
 20
127.4215359085453
 30
0.000000000000000
 40
0.7777777777777770
100
AcDbArc
 50
237.9357153758562
 51
293.4214510859944
  0
ARC
  5
64
100
AcDbEntity
  8
A14
  6
CONTINUOUS
 62
4
100
AcDbCircle
 10
165.6877182554754
 20
127.3483854983957
 30
0.000000000000000
 40
0.7777777777777790
100
AcDbArc
 50
243.4193158306955
 51
304.5577023830591
  0
ARC
  5
65
100
AcDbEntity
  8
A14
  6
CONTINUOUS
 62
4
100
AcDbCircle
 10
164.8789017520800
 20
127.0105112871225
 30
0.000000000000000
 40
0.5833333333333360
100
AcDbArc
 50
283.7741469980285
 51
322.1791961314179
  0
ARC
  5
66
100
AcDbEntity
  8
A14
  6
CONTINUOUS
 62
4
100
AcDbCircle
 10
164.8610490470523
 20
127.2624134079645
 30
0.000000000000000
 40
0.8333333333333355
100
AcDbArc
 50
235.1495996790865
 51
280.8413346285936
  0
ARC
  5
67
100
AcDbEntity
  8
A14
  6
CONTINUOUS
 62
4
100
AcDbCircle
 10
164.5039017520800
 20
126.7495091189456
 30
0.000000000000000
 40
0.2083333333333329
100
AcDbArc
 50
101.9293221772385
 51
235.1495996790907
  0
ARC
  5
68
100
AcDbEntity
  8
A14
  6
CONTINUOUS
 62
4
100
AcDbCircle
 10
164.7122350854134
 20
125.7633980078344
 30
0.000000000000000
 40
1.216211253140414
100
AcDbArc
 50
65.93966865240009
 51
101.9293221772401
  0
ARC
  5
69
100
AcDbEntity
  8
A14
  6
CONTINUOUS
 62
4
100
AcDbCircle
 10
164.7122350854134
 20
127.1244949447723
 30
0.000000000000000
 40
0.5555555555555575
100
AcDbArc
 50
333.1922987263548
 51
360.0000000000000
  0
LINE
  5
6A
100
AcDbEntity
  8
A14
  6
CONTINUOUS
 62
4
100
AcDbLine
 10
165.2677906409690
 20
127.1383980078345
 30
0.000000000000000
 11
165.2677906409690
 21
127.1244949447723
 31
0.000000000000000
  0
ARC
  5
6B
100
AcDbEntity
  8
A14
  6
CONTINUOUS
 62
4
100
AcDbCircle
 10
165.8233461965245
 20
127.1383980078345
 30
0.000000000000000
 40
0.5555555555555570
100
AcDbArc
 50
98.71008460541033
 51
180.0000000000000
  0
ARC
  5
6C
100
AcDbEntity
  8
A14
  6
CONTINUOUS
 62
4
100
AcDbCircle
 10
166.3161378493506
 20
128.5043456539860
 30
0.000000000000000
 40
0.9999999999992371
100
AcDbArc
 50
233.9021767540668
 51
234.7656506457574
  0
ARC
  5
6D
100
AcDbEntity
  8
A14
  6
CONTINUOUS
 62
4
100
AcDbCircle
 10
164.6011239743023
 20
126.1522868967233
 30
0.000000000000000
 40
1.910919612292362
100
AcDbArc
 50
53.90217675406260
 51
110.9657118405580
  0
ARC
  5
6E
100
AcDbEntity
  8
A14
  6
CONTINUOUS
 62
4
100
AcDbCircle
 10
164.0316795298579
 20
127.6383980078344
 30
0.000000000000000
 40
0.3194444444444443
100
AcDbArc
 50
110.9657118405564
 51
206.3543825868372
  0
ARC
  5
6F
100
AcDbEntity
  8
A14
  6
CONTINUOUS
 62
4
100
AcDbCircle
 10
164.1187970074012
 20
127.6815570810440
 30
0.000000000000000
 40
0.4166666666666675
100
AcDbArc
 50
206.3543825868346
 51
272.3455667237606
  0
ARC
  5
70
100
AcDbEntity
  8
A14
  6
CONTINUOUS
 62
4
100
AcDbCircle
 10
164.0733461965246
 20
128.7911757856122
 30
0.000000000000000
 40
1.527215830700855
100
AcDbArc
 50
272.3455667237491
 51
294.5739316359833
  0
ARC
  5
71
100
AcDbEntity
  8
A14
  6
CONTINUOUS
 62
4
100
AcDbCircle
 10
163.8233461965246
 20
128.5133980078345
 30
0.000000000000000
 40
1.420564371110461
100
AcDbArc
 50
275.3558250428524
 51
308.5410686702286
  0
ARC
  5
72
100
AcDbEntity
  8
A14
  6
CONTINUOUS
 62
4
100
AcDbCircle
 10
163.9066795298579
 20
127.6245091189456
 30
0.000000000000000
 40
0.5277777777777780
100
AcDbArc
 50
110.6744247608738
 51
275.3558250428557
  0
ARC
  5
73
100
AcDbEntity
  8
A14
  6
CONTINUOUS
 62
4
100
AcDbCircle
 10
164.4622350854134
 20
126.1522868967233
 30
0.000000000000000
 40
2.101334337585382
100
AcDbArc
 50
83.08713581824179
 51
110.6744247608749
  0
ARC
  5
74
100
AcDbEntity
  8
A14
  6
CONTINUOUS
 62
4
100
AcDbCircle
 10
164.3511239743023
 20
126.0411757856122
 30
0.000000000000000
 40
2.227121335815452
100
AcDbArc
 50
52.80777123629327
 51
80.59268770715195
  0
ARC
  5
75
100
AcDbEntity
  8
A14
  6
CONTINUOUS
 62
4
100
AcDbCircle
 10
166.2011415012254
 20
128.4791704394193
 30
0.000000000000000
 40
0.8333333333333305
100
AcDbArc
 50
232.8077712362960
 51
277.8149893744852
  0
ARC
  5
76
100
AcDbEntity
  8
A14
  6
CONTINUOUS
 62
4
100
AcDbCircle
 10
166.2955684187468
 20
127.7911757856122
 30
0.000000000000000
 40
0.1388888888888883
100
AcDbArc
 50
277.8149893744866
 51
413.8649254160509
  0
ARC
  5
77
100
AcDbEntity
  8
A14
  6
CONTINUOUS
 62
4
100
AcDbCircle
 10
166.2300472107863
 20
127.7014392249485
 30
0.000000000000000
 40
0.2499999999999961
100
AcDbArc
 50
53.86492541604364
 51
113.8649254160409
  0
ARC
  5
78
100
AcDbEntity
  8
A14
  6
CONTINUOUS
 62
4
100
AcDbCircle
 10
166.3361598148132
 20
127.5057559159389
 30
0.000000000000000
 40
0.4722222222222163
100
AcDbArc
 50
66.84686507366099
 51
116.0336813156313
  0
ARC
  5
79
100
AcDbEntity
  8
A14
  6
CONTINUOUS
 62
4
100
AcDbCircle
 10
166.4344573076357
 20
127.7356202300566
 30
0.000000000000000
 40
0.2222222222222219
100
AcDbArc
 50
278.7500945848919
 51
426.8468650736630
  0
LINE
  5
7A
100
AcDbEntity
  8
A1
  6
CONTINUOUS
 62
7
100
AcDbLine
 10
174.0177906409686
 20
138.7022868967233
 30
0.000000000000000
 11
174.0177906409690
 21
125.9022868967233
 31
0.000000000000000
  0
LINE
  5
7B
100
AcDbEntity
  8
A14
  6
CENTER
 62
1
100
AcDbLine
 10
160.0177906409691
 20
125.0522868967233
 30
0.000000000000000
 11
160.0177906409691
 21
129.7522868967233
 31
0.000000000000000
  0
LINE
  5
7C
100
AcDbEntity
  8
A14
  6
CENTER
 62
1
100
AcDbLine
 10
170.0177906409691
 20
125.0522868967233
 30
0.000000000000000
 11
170.0177906409691
 21
129.7522868967233
 31
0.000000000000000
  0
LINE
  5
7D
100
AcDbEntity
  8
A14
  6
CENTER
 62
1
100
AcDbLine
 10
107.7677906409694
 20
134.9022868967233
 30
0.000000000000000
 11
117.2677906409694
 21
134.9022868967232
 31
0.000000000000000
  0
LINE
  5
7E
100
AcDbEntity
  8
A14
  6
CENTER
 62
1
100
AcDbLine
 10
112.5177906409694
 20
123.1522868967233
 30
0.000000000000000
 11
112.5177906409694
 21
139.6522868967233
 31
0.000000000000000
  0
LINE
  5
7F
100
AcDbEntity
  8
A10
  6
CENTER
 62
1
100
AcDbLine
 10
145.7677906409695
 20
134.9022868967232
 30
0.000000000000000
 11
176.5677906409695
 21
134.9022868967232
 31
0.000000000000000
  0
LINE
  5
80
100
AcDbEntity
  8
A14
  6
CENTER
 62
1
100
AcDbLine
 10
172.3677906409691
 20
127.4022868967233
 30
0.000000000000000
 11
157.6677906409691
 21
127.4022868967233
 31
0.000000000000000
  0
LINE
  5
81
100
AcDbEntity
  8
A1
  6
CONTINUOUS
 62
7
100
AcDbLine
 10
165.5177906409687
 20
131.1941876531754
 30
0.000000000000000
 11
173.0177906409689
 21
131.1941876531754
 31
0.000000000000000
  0
LINE
  5
82
100
AcDbEntity
  8
A1
  6
CONTINUOUS
 62
7
100
AcDbLine
 10
157.0177906409689
 20
131.1941876531754
 30
0.000000000000000
 11
164.5177906409689
 21
131.1941876531754
 31
0.000000000000000
  0
LINE
  5
83
100
AcDbEntity
  8
A1
  6
CONTINUOUS
 62
7
100
AcDbLine
 10
114.0177906409694
 20
130.2925146680768
 30
0.000000000000000
 11
114.0177906409694
 21
124.1022868967232
 31
0.000000000000000
  0
LINE
  5
84
100
AcDbEntity
  8
A1
  6
CONTINUOUS
 62
7
100
AcDbLine
 10
111.0177906409694
 20
130.2925146680768
 30
0.000000000000000
 11
111.0177906409694
 21
124.1022868967232
 31
0.000000000000000
  0
LINE
  5
85
100
AcDbEntity
  8
A1
  6
CONTINUOUS
 62
7
100
AcDbLine
 10
149.5177906409693
 20
133.8824868967240
 30
0.000000000000000
 11
149.5177906409693
 21
135.9220868967240
 31
0.000000000000000
  0
LINE
  5
86
100
AcDbEntity
  8
A1
  6
CONTINUOUS
 62
7
100
AcDbLine
 10
146.5177906409694
 20
133.4022868967244
 30
0.000000000000000
 11
154.5177906409694
 21
133.4022868967244
 31
0.000000000000000
  0
LINE
  5
87
100
AcDbEntity
  8
A1
  6
CONTINUOUS
 62
7
100
AcDbLine
 10
154.5177906409694
 20
136.4022868967244
 30
0.000000000000000
 11
146.5177906409694
 21
136.4022868967244
 31
0.000000000000000
  0
LINE
  5
88
100
AcDbEntity
  8
A1
  6
CONTINUOUS
 62
7
100
AcDbLine
 10
154.5177906409695
 20
130.9022868967268
 30
0.000000000000000
 11
156.0177906409694
 21
130.9022868967268
 31
0.000000000000000
  0
LINE
  5
89
100
AcDbEntity
  8
A1
  6
CONTINUOUS
 62
7
100
AcDbLine
 10
156.0177906409694
 20
138.9022868967268
 30
0.000000000000000
 11
154.5177906409695
 21
138.9022868967268
 31
0.000000000000000
  0
LINE
  5
8A
100
AcDbEntity
  8
A1
  6
CONTINUOUS
 62
7
100
AcDbLine
 10
154.5177906409695
 20
138.9022868967268
 30
0.000000000000000
 11
154.5177906409695
 21
130.9022868967268
 31
0.000000000000000
  0
LINE
  5
8B
100
AcDbEntity
  8
A1
  6
CONTINUOUS
 62
7
100
AcDbLine
 10
146.5177906409694
 20
136.4022868967244
 30
0.000000000000000
 11
146.5177906409694
 21
133.4022868967244
 31
0.000000000000000
  0
LINE
  5
8C
100
AcDbEntity
  8
A1
  6
CONTINUOUS
 62
7
100
AcDbLine
 10
149.5177906409693
 20
135.9220868967240
 30
0.000000000000000
 11
146.5177906409695
 21
135.9220868967244
 31
0.000000000000000
  0
LINE
  5
8D
100
AcDbEntity
  8
A1
  6
CONTINUOUS
 62
7
100
AcDbLine
 10
149.5177906409693
 20
133.8824868967240
 30
0.000000000000000
 11
146.5177906409695
 21
133.8824868967244
 31
0.000000000000000
  0
LINE
  5
8E
100
AcDbEntity
  8
A10
  6
CONTINUOUS
 62
4
100
AcDbLine
 10
149.5177906409693
 20
133.8824868967240
 30
0.000000000000000
 11
146.5177906409694
 21
135.9220868967243
 31
0.000000000000000
  0
LINE
  5
8F
100
AcDbEntity
  8
A10
  6
CONTINUOUS
 62
4
100
AcDbLine
 10
146.5177906409694
 20
133.8824868967243
 30
0.000000000000000
 11
149.5177906409693
 21
135.9220868967240
 31
0.000000000000000
  0
LINE
  5
90
100
AcDbEntity
  8
A1
  6
CONTINUOUS
 62
7
100
AcDbLine
 10
156.0177906409694
 20
138.9022868967267
 30
0.000000000000000
 11
156.0177906409689
 21
125.9022868967232
 31
0.000000000000000
  0
LINE
  5
91
100
AcDbEntity
  8
A1
  6
CONTINUOUS
 62
7
100
AcDbLine
 10
174.8677906409689
 20
133.6022868967231
 30
0.000000000000000
 11
175.5177906409695
 21
133.6022868967231
 31
0.000000000000000
  0
LINE
  5
92
100
AcDbEntity
  8
A1
  6
CONTINUOUS
 62
7
100
AcDbLine
 10
175.8177906409695
 20
135.9022868967230
 30
0.000000000000000
 11
175.5177906409695
 21
136.2022868967231
 31
0.000000000000000
  0
LINE
  5
93
100
AcDbEntity
  8
A1
  6
CONTINUOUS
 62
7
100
AcDbLine
 10
175.5177906409695
 20
133.6022868967231
 30
0.000000000000000
 11
175.8177906409695
 21
133.9022868967231
 31
0.000000000000000
  0
LINE
  5
94
100
AcDbEntity
  8
A1
  6
CONTINUOUS
 62
7
100
AcDbLine
 10
175.5177906409695
 20
136.2022868967231
 30
0.000000000000000
 11
175.5177906409695
 21
133.6022868967231
 31
0.000000000000000
  0
LINE
  5
95
100
AcDbEntity
  8
A1
  6
CONTINUOUS
 62
7
100
AcDbLine
 10
175.8177906409695
 20
135.9022868967230
 30
0.000000000000000
 11
175.8177906409695
 21
133.9022868967231
 31
0.000000000000000
  0
ELLIPSE
  5
96
100
AcDbEntity
  8
A1
  6
CONTINUOUS
 62
7
100
AcDbEllipse
 10
235.1392890494043
 20
177.6470221644440
 30
0.000000000000000
 11
127.0567957266341
 21
0.000000000000000
 31
0.000000000000000
210
0.000000000000000
220
0.000000000000000
230
1.000000000000000
 40
0.3892439726138375
 41
4.217155054257061
 42
4.218144609277838
  0
ELLIPSE
  5
97
100
AcDbEntity
  8
A1
  6
CONTINUOUS
 62
7
100
AcDbEllipse
 10
235.1392890340726
 20
92.15755165318524
 30
0.000000000000000
 11
-127.0567956943428
 21
0.000000000000000
 31
0.000000000000000
210
0.000000000000000
220
0.000000000000000
230
1.000000000000000
 40
0.3892439725229591
 41
5.206633351468922
 42
5.207622906489950
  0
ARC
  5
98
100
AcDbEntity
  8
A1
  6
CONTINUOUS
 62
7
100
AcDbCircle
 10
13.09791919109685
 20
52.46957908480289
 30
0.000000000000000
 40
182.1792167975699
100
AcDbArc
 50
27.38061239105801
 51
27.76625437578305
  0
ARC
  5
99
100
AcDbEntity
  8
A1
  6
CONTINUOUS
 62
7
100
AcDbCircle
 10
17.03752665855038
 20
215.2777430789643
 30
0.000000000000000
 40
177.7348313553663
100
AcDbArc
 50
332.2289239797338
 51
332.6242092534250
  0
ARC
  5
9A
100
AcDbEntity
  8
A1
  6
CONTINUOUS
 62
7
100
AcDbCircle
 10
120.4752542747356
 20
205.9313755050832
 30
0.000000000000000
 40
90.09403010114441
100
AcDbArc
 50
306.6861132658534
 51
307.1375628206535
  0
ARC
  5
9B
100
AcDbEntity
  8
A1
  6
CONTINUOUS
 62
7
100
AcDbCircle
 10
95.12677325066144
 20
202.2849456447670
 30
0.000000000000000
 40
104.7599220117895
100
AcDbArc
 50
319.0918807152787
 51
319.5682166952841
  0
ARC
  5
9C
100
AcDbEntity
  8
A1
  6
CONTINUOUS
 62
7
100
AcDbCircle
 10
93.12670477137084
 20
65.80112200511519
 30
0.000000000000000
 40
107.3968558537936
100
AcDbArc
 50
40.43763111760673
 51
40.90227147183050
  0
ARC
  5
9D
100
AcDbEntity
  8
A1
  6
CONTINUOUS
 62
7
100
AcDbCircle
 10
121.8125276440269
 20
65.65351298301618
 30
0.000000000000000
 40
87.86743144455751
100
AcDbArc
 50
52.85671718528531
 51
53.31960672820811
  0
LINE
  5
9E
100
AcDbEntity
  8
A1
  6
CONTINUOUS
 62
7
100
AcDbLine
 10
174.6875491335460
 20
134.1327056328857
 30
0.000000000000000
 11
174.7571368765308
 21
134.1327056328857
 31
0.000000000000000
  0
LINE
  5
9F
100
AcDbEntity
  8
A1
  6
CONTINUOUS
 62
7
100
AcDbLine
 10
174.7571368765308
 20
135.6718681605607
 30
0.000000000000000
 11
174.6875064547835
 21
135.6718681605607
 31
0.000000000000000
  0
LINE
  5
A0
100
AcDbEntity
  8
A1
  6
CONTINUOUS
 62
7
100
AcDbLine
 10
174.8677906409689
 20
133.5508928511437
 30
0.000000000000000
 11
174.8677906409689
 21
134.1094690453273
 31
0.000000000000000
  0
LINE
  5
A1
100
AcDbEntity
  8
A1
  6
CONTINUOUS
 62
7
100
AcDbLine
 10
174.8677906409689
 20
134.3437107025396
 30
0.000000000000000
 11
174.8677906409689
 21
135.4608630909070
 31
0.000000000000000
  0
LINE
  5
A2
100
AcDbEntity
  8
A1
  6
CONTINUOUS
 62
7
100
AcDbLine
 10
174.8677906409689
 20
135.6951047481191
 30
0.000000000000000
 11
174.8677906409689
 21
136.2536809423028
 31
0.000000000000000
  0
LINE
  5
A3
100
AcDbEntity
  8
A1
  6
CONTINUOUS
 62
7
100
AcDbLine
 10
174.3002030844920
 20
137.3406030006790
 30
0.000000000000000
 11
174.2677906409687
 21
137.4022868967232
 31
0.000000000000000
  0
LINE
  5
A4
100
AcDbEntity
  8
A1
  6
CONTINUOUS
 62
7
100
AcDbLine
 10
174.2677906409686
 20
132.4022868967232
 30
0.000000000000000
 11
174.3002030844919
 21
132.4639707927674
 31
0.000000000000000
  0
LINE
  5
A5
100
AcDbEntity
  8
A1
  6
CONTINUOUS
 62
7
100
AcDbLine
 10
174.2677906409687
 20
138.4022868967232
 30
0.000000000000000
 11
174.0177906409687
 21
138.4022868967232
 31
0.000000000000000
  0
LINE
  5
A6
100
AcDbEntity
  8
A1
  6
CONTINUOUS
 62
7
100
AcDbLine
 10
174.0177906409687
 20
131.4022868967232
 30
0.000000000000000
 11
174.2677906409687
 21
131.4022868967232
 31
0.000000000000000
  0
LINE
  5
A7
100
AcDbEntity
  8
A1
  6
CONTINUOUS
 62
7
100
AcDbLine
 10
174.2677906409687
 20
131.4022868967232
 30
0.000000000000000
 11
174.2677906409687
 21
138.4022868967232
 31
0.000000000000000
  0
LINE
  5
A8
100
AcDbEntity
  8
A1
  6
CONTINUOUS
 62
7
100
AcDbLine
 10
175.5177906409695
 20
136.2022868967231
 30
0.000000000000000
 11
174.8677906409689
 21
136.2022868967231
 31
0.000000000000000
  0
CIRCLE
  5
A9
100
AcDbEntity
  8
A1
  6
CONTINUOUS
 62
7
100
AcDbCircle
 10
112.5177906409694
 20
134.9022868967209
 30
0.000000000000000
 40
1.500000000000000
  0
LINE
  5
AA
100
AcDbEntity
  8
A1
  6
CONTINUOUS
 62
7
100
AcDbLine
 10
111.4177906409694
 20
133.8824829940023
 30
0.000000000000000
 11
111.4177906409694
 21
135.9220907994394
 31
0.000000000000000
  0
LINE
  5
AB
100
AcDbEntity
  8
A1
  6
CONTINUOUS
 62
7
100
AcDbLine
 10
113.6177906409694
 20
133.8824829940023
 30
0.000000000000000
 11
113.6177906409694
 21
135.9220907994394
 31
0.000000000000000
  0
LINE
  5
AC
100
AcDbEntity
  8
A1
  6
CONTINUOUS
 62
7
100
AcDbLine
 10
208.3177906409695
 20
130.2925146681281
 30
0.000000000000000
 11
208.3177906409695
 21
124.1022868967232
 31
0.000000000000000
  0
LINE
  5
AD
100
AcDbEntity
  8
A1
  6
CONTINUOUS
 62
7
100
AcDbLine
 10
211.3177906409695
 20
130.2925146681281
 30
0.000000000000000
 11
211.3177906409695
 21
124.1022868967232
 31
0.000000000000000
  0
LINE
  5
AE
100
AcDbEntity
  8
A1
  6
CONTINUOUS
 62
7
100
AcDbLine
 10
208.5177906409695
 20
123.9022868967232
 30
0.000000000000000
 11
211.1177906409696
 21
123.9022868967232
 31
0.000000000000000
  0
ARC
  5
AF
100
AcDbEntity
  8
A1
  6
CONTINUOUS
 62
7
100
AcDbCircle
 10
206.8177906409695
 20
130.2925146681282
 30
0.000000000000000
 40
1.500000000000000
100
AcDbArc
 50
0.000000000000000
 51
56.94426884914652
  0
ARC
  5
B0
100
AcDbEntity
  8
A1
  6
CONTINUOUS
 62
7
100
AcDbCircle
 10
212.8177906409695
 20
130.2925146681282
 30
0.000000000000000
 40
1.500000000000000
100
AcDbArc
 50
123.0557311508535
 51
180.0000000000000
  0
LINE
  5
B1
100
AcDbEntity
  8
A10
  6
CENTER
 62
1
100
AcDbLine
 10
207.5677906409695
 20
127.4022868967232
 30
0.000000000000000
 11
212.0677906409695
 21
127.4022868967232
 31
0.000000000000000
  0
ARC
  5
B2
100
AcDbEntity
  8
A1
  6
CONTINUOUS
 62
7
100
AcDbCircle
 10
209.8177906409695
 20
134.9022868967746
 30
0.000000000000000
 40
4.000000000000000
100
AcDbArc
 50
303.0557311508539
 51
596.9442688491462
  0
LINE
  5
B3
100
AcDbEntity
  8
A10
  6
CENTER
 62
1
100
AcDbLine
 10
205.0677906409695
 20
134.9022868967746
 30
0.000000000000000
 11
214.5677906409695
 21
134.9022868967746
 31
0.000000000000000
  0
LINE
  5
B4
100
AcDbEntity
  8
A10
  6
CENTER
 62
1
100
AcDbLine
 10
209.8177906409695
 20
139.6522868967746
 30
0.000000000000000
 11
209.8177906409695
 21
123.1522868967232
 31
0.000000000000000
  0
CIRCLE
  5
B5
100
AcDbEntity
  8
A1
  6
CONTINUOUS
 62
7
100
AcDbCircle
 10
209.8177906409695
 20
134.9022868967746
 30
0.000000000000000
 40
3.500000000000000
  0
CIRCLE
  5
B6
100
AcDbEntity
  8
A1
  6
CONTINUOUS
 62
7
100
AcDbCircle
 10
209.8177906409695
 20
134.9022868967746
 30
0.000000000000000
 40
2.500000000000000
  0
LINE
  5
B7
100
AcDbEntity
  8
A1
  6
CONTINUOUS
 62
7
100
AcDbLine
 10
211.0677906409694
 20
137.0673504062356
 30
0.000000000000000
 11
210.3744074335227
 21
136.0770965606128
 31
0.000000000000000
  0
LINE
  5
B8
100
AcDbEntity
  8
A1
  6
CONTINUOUS
 62
7
100
AcDbLine
 10
211.0677906409695
 20
137.0673504062356
 30
0.000000000000000
 11
210.5568972581883
 21
135.9717360112178
 31
0.000000000000000
  0
ARC
  5
B9
100
AcDbEntity
  8
A1
  6
CONTINUOUS
 62
7
100
AcDbCircle
 10
209.8177906409695
 20
134.9022868967746
 30
0.000000000000000
 40
1.432876636891987
100
AcDbArc
 50
3.746573713588162
 51
56.25342628640928
  0
CIRCLE
  5
BA
100
AcDbEntity
  8
A1
  6
CONTINUOUS
 62
7
100
AcDbCircle
 10
209.8177906409695
 20
134.9022868967746
 30
0.000000000000000
 40
1.300000000000000
  0
LINE
  5
BB
100
AcDbEntity
  8
A1
  6
CONTINUOUS
 62
7
100
AcDbLine
 10
212.3177906409694
 20
134.9022868967746
 30
0.000000000000000
 11
211.1135140507414
 21
135.0076474461696
 31
0.000000000000000
  0
LINE
  5
BC
100
AcDbEntity
  8
A1
  6
CONTINUOUS
 62
7
100
AcDbLine
 10
212.3177906409693
 20
134.9022868967745
 30
0.000000000000000
 11
211.1135140507413
 21
134.7969263473795
 31
0.000000000000000
  0
ARC
  5
BD
100
AcDbEntity
  8
A1
  6
CONTINUOUS
 62
7
100
AcDbCircle
 10
209.8177906409695
 20
134.9022868967746
 30
0.000000000000000
 40
1.432876636891987
100
AcDbArc
 50
303.7465737135888
 51
356.2534262864103
  0
LINE
  5
BE
100
AcDbEntity
  8
A1
  6
CONTINUOUS
 62
7
100
AcDbLine
 10
211.0677906409695
 20
132.7372233873134
 30
0.000000000000000
 11
210.3744074335227
 21
133.7274772329363
 31
0.000000000000000
  0
LINE
  5
BF
100
AcDbEntity
  8
A1
  6
CONTINUOUS
 62
7
100
AcDbLine
 10
211.0677906409694
 20
132.7372233873134
 30
0.000000000000000
 11
210.5568972581882
 21
133.8328377823312
 31
0.000000000000000
  0
ARC
  5
C0
100
AcDbEntity
  8
A1
  6
CONTINUOUS
 62
7
100
AcDbCircle
 10
209.8177906409695
 20
134.9022868967746
 30
0.000000000000000
 40
1.432876636891990
100
AcDbArc
 50
243.7465737135883
 51
296.2534262864087
  0
LINE
  5
C1
100
AcDbEntity
  8
A1
  6
CONTINUOUS
 62
7
100
AcDbLine
 10
208.5677906409695
 20
132.7372233873135
 30
0.000000000000000
 11
209.2611738484163
 21
133.7274772329363
 31
0.000000000000000
  0
LINE
  5
C2
100
AcDbEntity
  8
A1
  6
CONTINUOUS
 62
7
100
AcDbLine
 10
208.5677906409695
 20
132.7372233873135
 30
0.000000000000000
 11
209.0786840237507
 21
133.8328377823313
 31
0.000000000000000
  0
ARC
  5
C3
100
AcDbEntity
  8
A1
  6
CONTINUOUS
 62
7
100
AcDbCircle
 10
209.8177906409695
 20
134.9022868967746
 30
0.000000000000000
 40
1.432876636891987
100
AcDbArc
 50
183.7465737135869
 51
236.2534262864079
  0
LINE
  5
C4
100
AcDbEntity
  8
A1
  6
CONTINUOUS
 62
7
100
AcDbLine
 10
207.3177906409695
 20
134.9022868967746
 30
0.000000000000000
 11
208.5220672311975
 21
134.7969263473796
 31
0.000000000000000
  0
LINE
  5
C5
100
AcDbEntity
  8
A1
  6
CONTINUOUS
 62
7
100
AcDbLine
 10
207.3177906409694
 20
134.9022868967747
 30
0.000000000000000
 11
208.5220672311974
 21
135.0076474461696
 31
0.000000000000000
  0
ARC
  5
C6
100
AcDbEntity
  8
A1
  6
CONTINUOUS
 62
7
100
AcDbCircle
 10
209.8177906409695
 20
134.9022868967746
 30
0.000000000000000
 40
1.432876636891987
100
AcDbArc
 50
123.7465737135890
 51
176.2534262864063
  0
LINE
  5
C7
100
AcDbEntity
  8
A1
  6
CONTINUOUS
 62
7
100
AcDbLine
 10
208.5677906409696
 20
137.0673504062357
 30
0.000000000000000
 11
209.2611738484164
 21
136.0770965606129
 31
0.000000000000000
  0
LINE
  5
C8
100
AcDbEntity
  8
A1
  6
CONTINUOUS
 62
7
100
AcDbLine
 10
208.5677906409695
 20
137.0673504062356
 30
0.000000000000000
 11
209.0786840237507
 21
135.9717360112178
 31
0.000000000000000
  0
ARC
  5
C9
100
AcDbEntity
  8
A1
  6
CONTINUOUS
 62
7
100
AcDbCircle
 10
209.8177906409695
 20
134.9022868967746
 30
0.000000000000000
 40
1.432876636891987
100
AcDbArc
 50
63.74657371358962
 51
116.2534262864071
  0
CIRCLE
  5
CA
100
AcDbEntity
  8
A1
  6
CONTINUOUS
 62
7
100
AcDbCircle
 10
209.8177906409695
 20
134.9022868967746
 30
0.000000000000000
 40
1.000000000000000
  0
LINE
  5
CB
100
AcDbEntity
  8
A10
  6
CENTER
 62
1
100
AcDbLine
 10
114.7677906409694
 20
127.4022868967233
 30
0.000000000000000
 11
110.2677906409694
 21
127.4022868967233
 31
0.000000000000000
  0
ARC
  5
CC
100
AcDbEntity
  8
A1
  6
CONTINUOUS
 62
7
100
AcDbCircle
 10
211.1177906409695
 20
124.1022868967233
 30
0.000000000000000
 40
0.2000000000000000
100
AcDbArc
 50
270.0000000000000
 51
360.0000000000000
  0
ARC
  5
CD
100
AcDbEntity
  8
A1
  6
CONTINUOUS
 62
7
100
AcDbCircle
 10
208.5177906409695
 20
124.1022868967233
 30
0.000000000000000
 40
0.2000000000000000
100
AcDbArc
 50
180.0000000000000
 51
270.0000000000000
  0
ELLIPSE
  5
CE
100
AcDbEntity
  8
A1
  6
CONTINUOUS
 62
7
100
AcDbEllipse
 10
235.1392890394017
 20
260.8841379414929
 30
0.000000000000000
 11
127.0567957055620
 21
0.000000000000000
 31
0.000000000000000
210
0.000000000000000
220
0.000000000000000
230
1.000000000000000
 40
0.7976625170004719
 41
4.217600433960643
 42
4.218144609257577
  0
ELLIPSE
  5
CF
100
AcDbEntity
  8
A1
  6
CONTINUOUS
 62
7
100
AcDbEllipse
 10
235.1392890528702
 20
84.92043584166723
 30
0.000000000000000
 11
-127.0567957339266
 21
0.000000000000000
 31
0.000000000000000
210
0.000000000000000
220
0.000000000000000
230
1.000000000000000
 40
0.7976625169338007
 41
5.206633351433025
 42
5.207177865766768
  0
ARC
  5
D0
100
AcDbEntity
  8
A1
  6
CONTINUOUS
 62
7
100
AcDbCircle
 10
138.0353301542186
 20
19.44330658852107
 30
0.000000000000000
 40
157.6857623435994
100
AcDbArc
 50
76.49198433171642
 51
76.70399323668197
  0
ARC
  5
D1
100
AcDbEntity
  8
A1
  6
CONTINUOUS
 62
7
100
AcDbCircle
 10
138.9470464568738
 20
322.5348785371777
 30
0.000000000000000
 40
153.7522623071802
100
AcDbArc
 50
283.2932948096490
 51
283.5107276219525
  0
ARC
  5
D2
100
AcDbEntity
  8
A1
  6
CONTINUOUS
 62
7
100
AcDbCircle
 10
30.65799763247819
 20
93.54125026767665
 30
0.000000000000000
 40
165.1389742769437
100
AcDbArc
 50
29.15990960532870
 51
29.56155161456601
  0
ARC
  5
D3
100
AcDbEntity
  8
A1
  6
CONTINUOUS
 62
7
100
AcDbCircle
 10
60.85776944822211
 20
100.6948713840627
 30
0.000000000000000
 40
135.6189821148303
100
AcDbArc
 50
32.78967739140131
 51
33.22984029425321
  0
ARC
  5
D4
100
AcDbEntity
  8
A1
  6
CONTINUOUS
 62
7
100
AcDbCircle
 10
58.00654859444452
 20
246.9619973945987
 30
0.000000000000000
 40
139.0190248607517
100
AcDbArc
 50
326.7755423495214
 51
327.2049399648241
  0
ARC
  5
D5
100
AcDbEntity
  8
A1
  6
CONTINUOUS
 62
7
100
AcDbCircle
 10
34.17202596477122
 20
250.2864422223841
 30
0.000000000000000
 40
161.1070702476869
100
AcDbArc
 50
330.4334225696357
 51
330.8451162104697
  0
ARC
  5
D6
100
AcDbEntity
  8
A1
  6
CONTINUOUS
 62
7
100
AcDbCircle
 10
156.2177906409696
 20
176.7022868967233
 30
0.000000000000000
 40
0.2000000000000000
100
AcDbArc
 50
90.00000000000000
 51
179.9999999999998
  0
ARC
  5
D7
100
AcDbEntity
  8
A1
  6
CONTINUOUS
 62
7
100
AcDbCircle
 10
156.2177906409696
 20
169.1022868967233
 30
0.000000000000000
 40
0.2000000000000000
100
AcDbArc
 50
180.0000000000001
 51
270.0000000000000
  0
ARC
  5
D8
100
AcDbEntity
  8
A1
  6
CONTINUOUS
 62
7
100
AcDbCircle
 10
173.8177906409695
 20
169.1022868967233
 30
0.000000000000000
 40
0.2000000000000000
100
AcDbArc
 50
270.0000000000000
 51
359.9999999999999
  0
ARC
  5
D9
100
AcDbEntity
  8
A1
  6
CONTINUOUS
 62
7
100
AcDbCircle
 10
173.8177906409695
 20
176.7022868967233
 30
0.000000000000000
 40
0.2000000000000000
100
AcDbArc
 50
1.017777498068325e-13
 51
90.00000000000000
  0
LINE
  5
DA
100
AcDbEntity
  8
A1
  6
CONTINUOUS
 62
7
100
AcDbLine
 10
175.8177906409694
 20
173.9022868967233
 30
0.000000000000000
 11
175.5177906409694
 21
174.2022868967233
 31
0.000000000000000
  0
LINE
  5
DB
100
AcDbEntity
  8
A1
  6
CONTINUOUS
 62
7
100
AcDbLine
 10
175.5177906409694
 20
171.6022868967232
 30
0.000000000000000
 11
175.8177906409695
 21
171.9022868967232
 31
0.000000000000000
  0
LINE
  5
DC
100
AcDbEntity
  8
A1
  6
CONTINUOUS
 62
7
100
AcDbLine
 10
175.8177906409695
 20
173.9022868967233
 30
0.000000000000000
 11
175.8177906409695
 21
171.9022868967232
 31
0.000000000000000
  0
LINE
  5
DD
100
AcDbEntity
  8
A1
  6
CONTINUOUS
 62
7
100
AcDbLine
 10
174.8677906409697
 20
171.6022868967232
 30
0.000000000000000
 11
175.5177906409695
 21
171.6022868967232
 31
0.000000000000000
  0
LINE
  5
DE
100
AcDbEntity
  8
A1
  6
CONTINUOUS
 62
7
100
AcDbLine
 10
175.5177906409695
 20
174.2022868967232
 30
0.000000000000000
 11
174.8677906409697
 21
174.2022868967232
 31
0.000000000000000
  0
LINE
  5
DF
100
AcDbEntity
  8
A1
  6
CONTINUOUS
 62
7
100
AcDbLine
 10
175.5177906409695
 20
174.2022868967232
 30
0.000000000000000
 11
175.5177906409695
 21
171.6022868967232
 31
0.000000000000000
  0
LINE
  5
E0
100
AcDbEntity
  8
A1
  6
CONTINUOUS
 62
7
100
AcDbLine
 10
149.5177906409695
 20
174.0022868967232
 30
0.000000000000000
 11
146.5177906409695
 21
174.0022868967232
 31
0.000000000000000
  0
LINE
  5
E1
100
AcDbEntity
  8
A1
  6
CONTINUOUS
 62
7
100
AcDbLine
 10
146.5177906409695
 20
174.0022868967232
 30
0.000000000000000
 11
146.5177906409695
 21
171.8022868967232
 31
0.000000000000000
  0
LINE
  5
E2
100
AcDbEntity
  8
A1
  6
CONTINUOUS
 62
7
100
AcDbLine
 10
146.5177906409695
 20
171.8022868967232
 30
0.000000000000000
 11
149.5177906409695
 21
171.8022868967232
 31
0.000000000000000
  0
LINE
  5
E3
100
AcDbEntity
  8
A1
  6
CONTINUOUS
 62
7
100
AcDbLine
 10
149.5177906409695
 20
171.8022868967232
 30
0.000000000000000
 11
149.5177906409695
 21
171.4022868967232
 31
0.000000000000000
  0
LINE
  5
E4
100
AcDbEntity
  8
A1
  6
CONTINUOUS
 62
7
100
AcDbLine
 10
149.5177906409695
 20
171.4022868967232
 30
0.000000000000000
 11
154.5177906409695
 21
171.4022868967232
 31
0.000000000000000
  0
LINE
  5
E5
100
AcDbEntity
  8
A1
  6
CONTINUOUS
 62
7
100
AcDbLine
 10
154.5177906409695
 20
174.4022868967233
 30
0.000000000000000
 11
149.5177906409695
 21
174.4022868967233
 31
0.000000000000000
  0
LINE
  5
E6
100
AcDbEntity
  8
A1
  6
CONTINUOUS
 62
7
100
AcDbLine
 10
149.5177906409695
 20
174.4022868967233
 30
0.000000000000000
 11
149.5177906409695
 21
174.0022868967232
 31
0.000000000000000
  0
LINE
  5
E7
100
AcDbEntity
  8
A1
  6
CONTINUOUS
 62
7
100
AcDbLine
 10
174.8677906409697
 20
173.0375263805703
 30
0.000000000000000
 11
174.8677906409697
 21
174.0050087287948
 31
0.000000000000000
  0
LINE
  5
E8
100
AcDbEntity
  8
A1
  6
CONTINUOUS
 62
7
100
AcDbLine
 10
174.8677906409697
 20
174.1402482126416
 30
0.000000000000000
 11
174.8677906409697
 21
174.2604310659553
 31
0.000000000000000
  0
LINE
  5
E9
100
AcDbEntity
  8
A1
  6
CONTINUOUS
 62
7
100
AcDbLine
 10
174.8677906409697
 20
171.7995650646517
 30
0.000000000000000
 11
174.8677906409697
 21
172.7670474128763
 31
0.000000000000000
  0
LINE
  5
EA
100
AcDbEntity
  8
A1
  6
CONTINUOUS
 62
7
100
AcDbLine
 10
174.8677906409698
 20
174.2604310659553
 30
0.000000000000000
 11
174.2677906409697
 21
175.4022868967233
 31
0.000000000000000
  0
LINE
  5
EB
100
AcDbEntity
  8
A1
  6
CONTINUOUS
 62
7
100
AcDbLine
 10
174.2677906409695
 20
170.4022868967232
 30
0.000000000000000
 11
174.8677906409696
 21
171.5441427274911
 31
0.000000000000000
  0
LINE
  5
EC
100
AcDbEntity
  8
A1
  6
CONTINUOUS
 62
7
100
AcDbLine
 10
174.8677906409697
 20
171.5441427274911
 30
0.000000000000000
 11
174.8677906409697
 21
171.6643255808048
 31
0.000000000000000
  0
LINE
  5
ED
100
AcDbEntity
  8
A1
  6
CONTINUOUS
 62
7
100
AcDbLine
 10
174.2677906409695
 20
176.4022868967233
 30
0.000000000000000
 11
174.0177906409695
 21
176.4022868967233
 31
0.000000000000000
  0
LINE
  5
EE
100
AcDbEntity
  8
A1
  6
CONTINUOUS
 62
7
100
AcDbLine
 10
174.0177906409695
 20
169.4022868967232
 30
0.000000000000000
 11
174.2677906409695
 21
169.4022868967232
 31
0.000000000000000
  0
LINE
  5
EF
100
AcDbEntity
  8
A1
  6
CONTINUOUS
 62
7
100
AcDbLine
 10
174.2677906409695
 20
169.4022868967232
 30
0.000000000000000
 11
174.2677906409695
 21
176.4022868967233
 31
0.000000000000000
  0
LINE
  5
F0
100
AcDbEntity
  8
A1
  6
CONTINUOUS
 62
7
100
AcDbLine
 10
154.5177906409695
 20
168.9022868967232
 30
0.000000000000000
 11
156.0177906409695
 21
168.9022868967232
 31
0.000000000000000
  0
LINE
  5
F1
100
AcDbEntity
  8
A1
  6
CONTINUOUS
 62
7
100
AcDbLine
 10
156.0177906409695
 20
176.9022868967233
 30
0.000000000000000
 11
154.5177906409695
 21
176.9022868967233
 31
0.000000000000000
  0
LINE
  5
F2
100
AcDbEntity
  8
A1
  6
CONTINUOUS
 62
7
100
AcDbLine
 10
156.0177906409695
 20
176.9022868967233
 30
0.000000000000000
 11
156.0177906409695
 21
168.9022868967232
 31
0.000000000000000
  0
LINE
  5
F3
100
AcDbEntity
  8
A1
  6
CONTINUOUS
 62
7
100
AcDbLine
 10
173.8177906409695
 20
176.9022868967233
 30
0.000000000000000
 11
156.2177906409696
 21
176.9022868967233
 31
0.000000000000000
  0
LINE
  5
F4
100
AcDbEntity
  8
A1
  6
CONTINUOUS
 62
7
100
AcDbLine
 10
156.2177906409696
 20
168.9022868967232
 30
0.000000000000000
 11
173.8177906409695
 21
168.9022868967232
 31
0.000000000000000
  0
LINE
  5
F5
100
AcDbEntity
  8
A1
  6
CONTINUOUS
 62
7
100
AcDbLine
 10
174.0177906409695
 20
169.1022868967232
 30
0.000000000000000
 11
174.0177906409695
 21
176.7022868967232
 31
0.000000000000000
  0
LINE
  5
F6
100
AcDbEntity
  8
A1
  6
CONTINUOUS
 62
7
100
AcDbLine
 10
154.5177906409695
 20
176.9022868967233
 30
0.000000000000000
 11
154.5177906409695
 21
168.9022868967232
 31
0.000000000000000
  0
LINE
  5
F7
100
AcDbEntity
  8
A1
  6
CENTER
 62
1
100
AcDbLine
 10
176.5677906409695
 20
172.9022868967233
 30
0.000000000000000
 11
145.7677906409695
 21
172.9022868967233
 31
0.000000000000000
  0
LINE
  5
F8
100
AcDbEntity
  8
A1
  6
CONTINUOUS
 62
7
100
AcDbLine
 10
173.8177906409686
 20
138.9022868967232
 30
0.000000000000000
 11
156.2177906409686
 21
138.9022868967232
 31
0.000000000000000
  0
ARC
  5
F9
100
AcDbEntity
  8
A1
  6
CONTINUOUS
 62
7
100
AcDbCircle
 10
247.6177906409701
 20
125.9022868967233
 30
0.000000000000000
 40
2.000000000000000
100
AcDbArc
 50
180.0000000000000
 51
270.0000000000000
  0
LINE
  5
FA
100
AcDbEntity
  8
A1
  6
CONTINUOUS
 62
7
100
AcDbLine
 10
261.6177906409700
 20
123.9022868967233
 30
0.000000000000000
 11
247.6177906409701
 21
123.9022868967233
 31
0.000000000000000
  0
ARC
  5
FB
100
AcDbEntity
  8
A1
  6
CONTINUOUS
 62
7
100
AcDbCircle
 10
261.6177906409700
 20
125.9022868967233
 30
0.000000000000000
 40
2.000000000000000
100
AcDbArc
 50
270.0000000000000
 51
360.0000000000000
  0
ARC
  5
FC
100
AcDbEntity
  8
A1
  6
CONTINUOUS
 62
7
100
AcDbCircle
 10
263.4177906409705
 20
138.7022868967233
 30
0.000000000000000
 40
0.2000000000000000
100
AcDbArc
 50
0.000000000000000
 51
90.00000000000000
  0
ARC
  5
FD
100
AcDbEntity
  8
A1
  6
CONTINUOUS
 62
7
100
AcDbCircle
 10
245.8177906409705
 20
138.7022868967233
 30
0.000000000000000
 40
0.2000000000000000
100
AcDbArc
 50
90.00000000000000
 51
180.0000000000000
  0
CIRCLE
  5
FE
100
AcDbEntity
  8
A1
  6
CONTINUOUS
 62
7
100
AcDbCircle
 10
249.6177906409700
 20
127.4022868967233
 30
0.000000000000000
 40
1.600000000000000
  0
CIRCLE
  5
FF
100
AcDbEntity
  8
A1
  6
CONTINUOUS
 62
7
100
AcDbCircle
 10
259.6177906409699
 20
127.4022868967233
 30
0.000000000000000
 40
1.600000000000000
  0
LINE
  5
100
100
AcDbEntity
  8
A1
  6
CONTINUOUS
 62
7
100
AcDbLine
 10
245.6177906409705
 20
138.7022868967233
 30
0.000000000000000
 11
245.6177906409701
 21
125.9022868967233
 31
0.000000000000000
  0
LINE
  5
101
100
AcDbEntity
  8
A10
  6
CENTER
 62
1
100
AcDbLine
 10
273.8677906409695
 20
134.9022868967232
 30
0.000000000000000
 11
243.0677906409695
 21
134.9022868967232
 31
0.000000000000000
  0
LINE
  5
102
100
AcDbEntity
  8
A1
  6
CONTINUOUS
 62
7
100
AcDbLine
 10
254.1177906409702
 20
131.1941876531754
 30
0.000000000000000
 11
246.6177906409702
 21
131.1941876531754
 31
0.000000000000000
  0
LINE
  5
103
100
AcDbEntity
  8
A1
  6
CONTINUOUS
 62
7
100
AcDbLine
 10
262.6177906409702
 20
131.1941876531754
 30
0.000000000000000
 11
255.1177906409701
 21
131.1941876531754
 31
0.000000000000000
  0
LINE
  5
104
100
AcDbEntity
  8
A1
  6
CONTINUOUS
 62
7
100
AcDbLine
 10
270.1177906409697
 20
133.8824868967240
 30
0.000000000000000
 11
270.1177906409697
 21
135.9220868967240
 31
0.000000000000000
  0
LINE
  5
105
100
AcDbEntity
  8
A1
  6
CONTINUOUS
 62
7
100
AcDbLine
 10
273.1177906409696
 20
133.4022868967244
 30
0.000000000000000
 11
265.1177906409696
 21
133.4022868967244
 31
0.000000000000000
  0
LINE
  5
106
100
AcDbEntity
  8
A1
  6
CONTINUOUS
 62
7
100
AcDbLine
 10
265.1177906409696
 20
136.4022868967244
 30
0.000000000000000
 11
273.1177906409696
 21
136.4022868967244
 31
0.000000000000000
  0
LINE
  5
107
100
AcDbEntity
  8
A1
  6
CONTINUOUS
 62
7
100
AcDbLine
 10
265.1177906409695
 20
130.9022868967268
 30
0.000000000000000
 11
263.6177906409696
 21
130.9022868967268
 31
0.000000000000000
  0
LINE
  5
108
100
AcDbEntity
  8
A1
  6
CONTINUOUS
 62
7
100
AcDbLine
 10
263.6177906409696
 20
138.9022868967268
 30
0.000000000000000
 11
265.1177906409695
 21
138.9022868967268
 31
0.000000000000000
  0
LINE
  5
109
100
AcDbEntity
  8
A1
  6
CONTINUOUS
 62
7
100
AcDbLine
 10
265.1177906409695
 20
138.9022868967268
 30
0.000000000000000
 11
265.1177906409695
 21
130.9022868967268
 31
0.000000000000000
  0
LINE
  5
10A
100
AcDbEntity
  8
A1
  6
CONTINUOUS
 62
7
100
AcDbLine
 10
273.1177906409696
 20
136.4022868967244
 30
0.000000000000000
 11
273.1177906409696
 21
133.4022868967244
 31
0.000000000000000
  0
LINE
  5
10B
100
AcDbEntity
  8
A1
  6
CONTINUOUS
 62
7
100
AcDbLine
 10
270.1177906409696
 20
135.9220868967240
 30
0.000000000000000
 11
273.1177906409695
 21
135.9220868967244
 31
0.000000000000000
  0
LINE
  5
10C
100
AcDbEntity
  8
A1
  6
CONTINUOUS
 62
7
100
AcDbLine
 10
270.1177906409696
 20
133.8824868967240
 30
0.000000000000000
 11
273.1177906409695
 21
133.8824868967243
 31
0.000000000000000
  0
LINE
  5
10D
100
AcDbEntity
  8
A10
  6
CONTINUOUS
 62
4
100
AcDbLine
 10
270.1177906409696
 20
133.8824868967239
 30
0.000000000000000
 11
273.1177906409696
 21
135.9220868967243
 31
0.000000000000000
  0
LINE
  5
10E
100
AcDbEntity
  8
A10
  6
CONTINUOUS
 62
4
100
AcDbLine
 10
273.1177906409697
 20
133.8824868967244
 30
0.000000000000000
 11
270.1177906409698
 21
135.9220868967240
 31
0.000000000000000
  0
LINE
  5
10F
100
AcDbEntity
  8
A1
  6
CONTINUOUS
 62
7
100
AcDbLine
 10
263.6177906409696
 20
138.9022868967267
 30
0.000000000000000
 11
263.6177906409701
 21
125.9022868967232
 31
0.000000000000000
  0
LINE
  5
110
100
AcDbEntity
  8
A1
  6
CONTINUOUS
 62
7
100
AcDbLine
 10
244.7677906409702
 20
133.6022868967231
 30
0.000000000000000
 11
244.1177906409695
 21
133.6022868967231
 31
0.000000000000000
  0
LINE
  5
111
100
AcDbEntity
  8
A1
  6
CONTINUOUS
 62
7
100
AcDbLine
 10
243.8177906409695
 20
135.9022868967231
 30
0.000000000000000
 11
244.1177906409695
 21
136.2022868967231
 31
0.000000000000000
  0
LINE
  5
112
100
AcDbEntity
  8
A1
  6
CONTINUOUS
 62
7
100
AcDbLine
 10
244.1177906409696
 20
133.6022868967230
 30
0.000000000000000
 11
243.8177906409696
 21
133.9022868967230
 31
0.000000000000000
  0
LINE
  5
113
100
AcDbEntity
  8
A1
  6
CONTINUOUS
 62
7
100
AcDbLine
 10
244.1177906409695
 20
136.2022868967231
 30
0.000000000000000
 11
244.1177906409695
 21
133.6022868967231
 31
0.000000000000000
  0
LINE
  5
114
100
AcDbEntity
  8
A1
  6
CONTINUOUS
 62
7
100
AcDbLine
 10
243.8177906409695
 20
135.9022868967230
 30
0.000000000000000
 11
243.8177906409695
 21
133.9022868967231
 31
0.000000000000000
  0
ELLIPSE
  5
115
100
AcDbEntity
  8
A1
  6
CONTINUOUS
 62
7
100
AcDbEllipse
 10
184.4962922325347
 20
177.6470221644440
 30
0.000000000000000
 11
-127.0567957266341
 21
0.000000000000000
 31
0.000000000000000
210
0.000000000000000
220
0.000000000000000
230
1.000000000000000
 40
0.3892439726138375
 41
2.065040697901749
 42
2.066030252922525
  0
ELLIPSE
  5
116
100
AcDbEntity
  8
A1
  6
CONTINUOUS
 62
7
100
AcDbEllipse
 10
184.4962922478664
 20
92.15755165318524
 30
0.000000000000000
 11
127.0567956943428
 21
0.000000000000000
 31
0.000000000000000
210
0.000000000000000
220
0.000000000000000
230
1.000000000000000
 40
0.3892439725229591
 41
1.075562400689636
 42
1.076551955710664
  0
ARC
  5
117
100
AcDbEntity
  8
A1
  6
CONTINUOUS
 62
7
100
AcDbCircle
 10
406.5376620908421
 20
52.46957908480289
 30
0.000000000000000
 40
182.1792167975699
100
AcDbArc
 50
152.2337456242170
 51
152.6193876089420
  0
ARC
  5
118
100
AcDbEntity
  8
A1
  6
CONTINUOUS
 62
7
100
AcDbCircle
 10
402.5980546233886
 20
215.2777430789643
 30
0.000000000000000
 40
177.7348313553663
100
AcDbArc
 50
207.3757907465750
 51
207.7710760202661
  0
ARC
  5
119
100
AcDbEntity
  8
A1
  6
CONTINUOUS
 62
7
100
AcDbCircle
 10
299.1603270072034
 20
205.9313755050832
 30
0.000000000000000
 40
90.09403010114441
100
AcDbArc
 50
232.8624371793465
 51
233.3138867341466
  0
ARC
  5
11A
100
AcDbEntity
  8
A1
  6
CONTINUOUS
 62
7
100
AcDbCircle
 10
324.5088080312776
 20
202.2849456447670
 30
0.000000000000000
 40
104.7599220117895
100
AcDbArc
 50
220.4317833047159
 51
220.9081192847213
  0
ARC
  5
11B
100
AcDbEntity
  8
A1
  6
CONTINUOUS
 62
7
100
AcDbCircle
 10
326.5088765105681
 20
65.80112200511519
 30
0.000000000000000
 40
107.3968558537936
100
AcDbArc
 50
139.0977285281695
 51
139.5623688823933
  0
ARC
  5
11C
100
AcDbEntity
  8
A1
  6
CONTINUOUS
 62
7
100
AcDbCircle
 10
297.8230536379120
 20
65.65351298301618
 30
0.000000000000000
 40
87.86743144455751
100
AcDbArc
 50
126.6803932717919
 51
127.1432828147147
  0
LINE
  5
11D
100
AcDbEntity
  8
A1
  6
CONTINUOUS
 62
7
100
AcDbLine
 10
244.9480321483931
 20
134.1327056328857
 30
0.000000000000000
 11
244.8784444054083
 21
134.1327056328857
 31
0.000000000000000
  0
LINE
  5
11E
100
AcDbEntity
  8
A1
  6
CONTINUOUS
 62
7
100
AcDbLine
 10
244.8784444054083
 20
135.6718681605607
 30
0.000000000000000
 11
244.9480748271556
 21
135.6718681605607
 31
0.000000000000000
  0
LINE
  5
11F
100
AcDbEntity
  8
A1
  6
CONTINUOUS
 62
7
100
AcDbLine
 10
244.7677906409702
 20
133.5508928511437
 30
0.000000000000000
 11
244.7677906409702
 21
134.1094690453273
 31
0.000000000000000
  0
LINE
  5
120
100
AcDbEntity
  8
A1
  6
CONTINUOUS
 62
7
100
AcDbLine
 10
244.7677906409702
 20
134.3437107025396
 30
0.000000000000000
 11
244.7677906409702
 21
135.4608630909070
 31
0.000000000000000
  0
LINE
  5
121
100
AcDbEntity
  8
A1
  6
CONTINUOUS
 62
7
100
AcDbLine
 10
244.7677906409702
 20
135.6951047481191
 30
0.000000000000000
 11
244.7677906409702
 21
136.2536809423028
 31
0.000000000000000
  0
LINE
  5
122
100
AcDbEntity
  8
A1
  6
CONTINUOUS
 62
7
100
AcDbLine
 10
245.3353781974471
 20
137.3406030006790
 30
0.000000000000000
 11
245.3677906409704
 21
137.4022868967232
 31
0.000000000000000
  0
LINE
  5
123
100
AcDbEntity
  8
A1
  6
CONTINUOUS
 62
7
100
AcDbLine
 10
245.3677906409704
 20
132.4022868967232
 30
0.000000000000000
 11
245.3353781974471
 21
132.4639707927674
 31
0.000000000000000
  0
LINE
  5
124
100
AcDbEntity
  8
A1
  6
CONTINUOUS
 62
7
100
AcDbLine
 10
245.3677906409703
 20
138.4022868967232
 30
0.000000000000000
 11
245.6177906409703
 21
138.4022868967232
 31
0.000000000000000
  0
LINE
  5
125
100
AcDbEntity
  8
A1
  6
CONTINUOUS
 62
7
100
AcDbLine
 10
245.6177906409703
 20
131.4022868967233
 30
0.000000000000000
 11
245.3677906409703
 21
131.4022868967233
 31
0.000000000000000
  0
LINE
  5
126
100
AcDbEntity
  8
A1
  6
CONTINUOUS
 62
7
100
AcDbLine
 10
245.3677906409703
 20
131.4022868967233
 30
0.000000000000000
 11
245.3677906409703
 21
138.4022868967232
 31
0.000000000000000
  0
LINE
  5
127
100
AcDbEntity
  8
A1
  6
CONTINUOUS
 62
7
100
AcDbLine
 10
244.1177906409695
 20
136.2022868967231
 30
0.000000000000000
 11
244.7677906409702
 21
136.2022868967231
 31
0.000000000000000
  0
LINE
  5
128
100
AcDbEntity
  8
A1
  6
CONTINUOUS
 62
7
100
AcDbLine
 10
245.8177906409705
 20
138.9022868967232
 30
0.000000000000000
 11
263.4177906409705
 21
138.9022868967232
 31
0.000000000000000
  0
LINE
  5
129
100
AcDbEntity
  8
A14
  6
CENTER
 62
1
100
AcDbLine
 10
262.7177906409700
 20
127.4022868967233
 30
0.000000000000000
 11
256.5177906409700
 21
127.4022868967233
 31
0.000000000000000
  0
LINE
  5
12A
100
AcDbEntity
  8
A14
  6
CENTER
 62
1
100
AcDbLine
 10
259.6177906409699
 20
130.5022868967233
 30
0.000000000000000
 11
259.6177906409699
 21
124.3022868967233
 31
0.000000000000000
  0
LINE
  5
12B
100
AcDbEntity
  8
A14
  6
CENTER
 62
1
100
AcDbLine
 10
252.7177906409700
 20
127.4022868967233
 30
0.000000000000000
 11
246.5177906409700
 21
127.4022868967233
 31
0.000000000000000
  0
LINE
  5
12C
100
AcDbEntity
  8
A14
  6
CENTER
 62
1
100
AcDbLine
 10
249.6177906409700
 20
130.5022868967233
 30
0.000000000000000
 11
249.6177906409700
 21
124.3022868967233
 31
0.000000000000000
  0
ELLIPSE
  5
12D
100
AcDbEntity
  8
A1
  6
CONTINUOUS
 62
7
100
AcDbEllipse
 10
235.1392890394017
 20
1.920435851953584
 30
0.000000000000000
 11
127.0567957055620
 21
0.000000000000000
 31
0.000000000000000
210
0.000000000000000
220
0.000000000000000
230
1.000000000000000
 40
0.7976625170004719
 41
2.065040697922008
 42
2.065584873218943
  0
ELLIPSE
  5
12E
100
AcDbEntity
  8
A1
  6
CONTINUOUS
 62
7
100
AcDbEllipse
 10
235.1392890528702
 20
177.8841379517793
 30
0.000000000000000
 11
-127.0567957339266
 21
0.000000000000000
 31
0.000000000000000
210
0.000000000000000
220
0.000000000000000
230
1.000000000000000
 40
0.7976625169338007
 41
1.076007441412818
 42
1.076551955746561
  0
ARC
  5
12F
100
AcDbEntity
  8
A1
  6
CONTINUOUS
 62
7
100
AcDbCircle
 10
138.0353301542186
 20
243.3612672049254
 30
0.000000000000000
 40
157.6857623435994
100
AcDbArc
 50
283.2960067633180
 51
283.5080156682836
  0
ARC
  5
130
100
AcDbEntity
  8
A1
  6
CONTINUOUS
 62
7
100
AcDbCircle
 10
138.9470464568738
 20
-59.73030474373118
 30
0.000000000000000
 40
153.7522623071802
100
AcDbArc
 50
76.48927237804750
 51
76.70670519035100
  0
ARC
  5
131
100
AcDbEntity
  8
A1
  6
CONTINUOUS
 62
7
100
AcDbCircle
 10
30.65799763247819
 20
169.2633235257699
 30
0.000000000000000
 40
165.1389742769437
100
AcDbArc
 50
330.4384483854340
 51
330.8400903946713
  0
ARC
  5
132
100
AcDbEntity
  8
A1
  6
CONTINUOUS
 62
7
100
AcDbCircle
 10
60.85776944822211
 20
162.1097024093838
 30
0.000000000000000
 40
135.6189821148303
100
AcDbArc
 50
326.7701597057468
 51
327.2103226085987
  0
ARC
  5
133
100
AcDbEntity
  8
A1
  6
CONTINUOUS
 62
7
100
AcDbCircle
 10
58.00654859444452
 20
15.84257639884785
 30
0.000000000000000
 40
139.0190248607517
100
AcDbArc
 50
32.79506003517592
 51
33.22445765047861
  0
ARC
  5
134
100
AcDbEntity
  8
A1
  6
CONTINUOUS
 62
7
100
AcDbCircle
 10
34.17202596477122
 20
12.51813157106241
 30
0.000000000000000
 40
161.1070702476869
100
AcDbArc
 50
29.15488378953037
 51
29.56657743036428
  0
ARC
  5
135
100
AcDbEntity
  8
A1
  6
CONTINUOUS
 62
7
100
AcDbCircle
 10
156.2177906409696
 20
86.10228689672326
 30
0.000000000000000
 40
0.2000000000000000
100
AcDbArc
 50
180.0000000000002
 51
270.0000000000000
  0
ARC
  5
136
100
AcDbEntity
  8
A1
  6
CONTINUOUS
 62
7
100
AcDbCircle
 10
156.2177906409696
 20
93.70228689672325
 30
0.000000000000000
 40
0.2000000000000000
100
AcDbArc
 50
90.00000000000000
 51
179.9999999999999
  0
ARC
  5
137
100
AcDbEntity
  8
A1
  6
CONTINUOUS
 62
7
100
AcDbCircle
 10
173.8177906409695
 20
93.70228689672325
 30
0.000000000000000
 40
0.2000000000000000
100
AcDbArc
 50
1.017777498068325e-13
 51
90.00000000000000
  0
ARC
  5
138
100
AcDbEntity
  8
A1
  6
CONTINUOUS
 62
7
100
AcDbCircle
 10
173.8177906409695
 20
86.10228689672326
 30
0.000000000000000
 40
0.2000000000000000
100
AcDbArc
 50
270.0000000000000
 51
359.9999999999999
  0
LINE
  5
139
100
AcDbEntity
  8
A1
  6
CONTINUOUS
 62
7
100
AcDbLine
 10
175.8177906409694
 20
88.90228689672325
 30
0.000000000000000
 11
175.5177906409694
 21
88.60228689672327
 31
0.000000000000000
  0
LINE
  5
13A
100
AcDbEntity
  8
A1
  6
CONTINUOUS
 62
7
100
AcDbLine
 10
175.5177906409694
 20
91.20228689672328
 30
0.000000000000000
 11
175.8177906409695
 21
90.90228689672324
 31
0.000000000000000
  0
LINE
  5
13B
100
AcDbEntity
  8
A1
  6
CONTINUOUS
 62
7
100
AcDbLine
 10
175.8177906409695
 20
88.90228689672324
 30
0.000000000000000
 11
175.8177906409695
 21
90.90228689672327
 31
0.000000000000000
  0
LINE
  5
13C
100
AcDbEntity
  8
A1
  6
CONTINUOUS
 62
7
100
AcDbLine
 10
174.8677906409697
 20
91.20228689672328
 30
0.000000000000000
 11
175.5177906409695
 21
91.20228689672328
 31
0.000000000000000
  0
LINE
  5
13D
100
AcDbEntity
  8
A1
  6
CONTINUOUS
 62
7
100
AcDbLine
 10
175.5177906409695
 20
88.60228689672329
 30
0.000000000000000
 11
174.8677906409697
 21
88.60228689672329
 31
0.000000000000000
  0
LINE
  5
13E
100
AcDbEntity
  8
A1
  6
CONTINUOUS
 62
7
100
AcDbLine
 10
175.5177906409695
 20
88.60228689672329
 30
0.000000000000000
 11
175.5177906409695
 21
91.20228689672328
 31
0.000000000000000
  0
LINE
  5
13F
100
AcDbEntity
  8
A1
  6
CONTINUOUS
 62
7
100
AcDbLine
 10
149.5177906409695
 20
88.80228689672326
 30
0.000000000000000
 11
146.5177906409695
 21
88.80228689672326
 31
0.000000000000000
  0
LINE
  5
140
100
AcDbEntity
  8
A1
  6
CONTINUOUS
 62
7
100
AcDbLine
 10
146.5177906409695
 20
88.80228689672326
 30
0.000000000000000
 11
146.5177906409695
 21
91.00228689672328
 31
0.000000000000000
  0
LINE
  5
141
100
AcDbEntity
  8
A1
  6
CONTINUOUS
 62
7
100
AcDbLine
 10
146.5177906409695
 20
91.00228689672328
 30
0.000000000000000
 11
149.5177906409695
 21
91.00228689672328
 31
0.000000000000000
  0
LINE
  5
142
100
AcDbEntity
  8
A1
  6
CONTINUOUS
 62
7
100
AcDbLine
 10
149.5177906409695
 20
91.00228689672328
 30
0.000000000000000
 11
149.5177906409695
 21
91.40228689672325
 31
0.000000000000000
  0
LINE
  5
143
100
AcDbEntity
  8
A1
  6
CONTINUOUS
 62
7
100
AcDbLine
 10
149.5177906409695
 20
91.40228689672325
 30
0.000000000000000
 11
154.5177906409695
 21
91.40228689672325
 31
0.000000000000000
  0
LINE
  5
144
100
AcDbEntity
  8
A1
  6
CONTINUOUS
 62
7
100
AcDbLine
 10
154.5177906409695
 20
88.40228689672323
 30
0.000000000000000
 11
149.5177906409695
 21
88.40228689672323
 31
0.000000000000000
  0
LINE
  5
145
100
AcDbEntity
  8
A1
  6
CONTINUOUS
 62
7
100
AcDbLine
 10
149.5177906409695
 20
88.40228689672323
 30
0.000000000000000
 11
149.5177906409695
 21
88.80228689672326
 31
0.000000000000000
  0
LINE
  5
146
100
AcDbEntity
  8
A1
  6
CONTINUOUS
 62
7
100
AcDbLine
 10
174.8677906409697
 20
89.76704741287625
 30
0.000000000000000
 11
174.8677906409697
 21
88.79956506465174
 31
0.000000000000000
  0
LINE
  5
147
100
AcDbEntity
  8
A1
  6
CONTINUOUS
 62
7
100
AcDbLine
 10
174.8677906409697
 20
88.66432558080487
 30
0.000000000000000
 11
174.8677906409697
 21
88.54414272749119
 31
0.000000000000000
  0
LINE
  5
148
100
AcDbEntity
  8
A1
  6
CONTINUOUS
 62
7
100
AcDbLine
 10
174.8677906409697
 20
91.00500872879479
 30
0.000000000000000
 11
174.8677906409697
 21
90.03752638057017
 31
0.000000000000000
  0
LINE
  5
149
100
AcDbEntity
  8
A1
  6
CONTINUOUS
 62
7
100
AcDbLine
 10
174.8677906409698
 20
88.54414272749111
 30
0.000000000000000
 11
174.2677906409697
 21
87.40228689672315
 31
0.000000000000000
  0
LINE
  5
14A
100
AcDbEntity
  8
A1
  6
CONTINUOUS
 62
7
100
AcDbLine
 10
174.2677906409695
 20
92.40228689672325
 30
0.000000000000000
 11
174.8677906409696
 21
91.26043106595532
 31
0.000000000000000
  0
LINE
  5
14B
100
AcDbEntity
  8
A1
  6
CONTINUOUS
 62
7
100
AcDbLine
 10
174.8677906409697
 20
91.26043106595537
 30
0.000000000000000
 11
174.8677906409697
 21
91.14024821264167
 31
0.000000000000000
  0
LINE
  5
14C
100
AcDbEntity
  8
A1
  6
CONTINUOUS
 62
7
100
AcDbLine
 10
174.2677906409695
 20
86.40228689672324
 30
0.000000000000000
 11
174.0177906409695
 21
86.40228689672323
 31
0.000000000000000
  0
LINE
  5
14D
100
AcDbEntity
  8
A1
  6
CONTINUOUS
 62
7
100
AcDbLine
 10
174.0177906409695
 20
93.40228689672325
 30
0.000000000000000
 11
174.2677906409695
 21
93.40228689672327
 31
0.000000000000000
  0
LINE
  5
14E
100
AcDbEntity
  8
A1
  6
CONTINUOUS
 62
7
100
AcDbLine
 10
174.2677906409695
 20
93.40228689672327
 30
0.000000000000000
 11
174.2677906409695
 21
86.40228689672324
 31
0.000000000000000
  0
LINE
  5
14F
100
AcDbEntity
  8
A1
  6
CONTINUOUS
 62
7
100
AcDbLine
 10
154.5177906409695
 20
93.90228689672325
 30
0.000000000000000
 11
156.0177906409695
 21
93.90228689672325
 31
0.000000000000000
  0
LINE
  5
150
100
AcDbEntity
  8
A1
  6
CONTINUOUS
 62
7
100
AcDbLine
 10
156.0177906409695
 20
85.90228689672323
 30
0.000000000000000
 11
154.5177906409695
 21
85.90228689672323
 31
0.000000000000000
  0
LINE
  5
151
100
AcDbEntity
  8
A1
  6
CONTINUOUS
 62
7
100
AcDbLine
 10
156.0177906409695
 20
85.90228689672323
 30
0.000000000000000
 11
156.0177906409695
 21
93.90228689672325
 31
0.000000000000000
  0
LINE
  5
152
100
AcDbEntity
  8
A1
  6
CONTINUOUS
 62
7
100
AcDbLine
 10
173.8177906409695
 20
85.90228689672323
 30
0.000000000000000
 11
156.2177906409696
 21
85.90228689672323
 31
0.000000000000000
  0
LINE
  5
153
100
AcDbEntity
  8
A1
  6
CONTINUOUS
 62
7
100
AcDbLine
 10
156.2177906409696
 20
93.90228689672325
 30
0.000000000000000
 11
173.8177906409695
 21
93.90228689672325
 31
0.000000000000000
  0
LINE
  5
154
100
AcDbEntity
  8
A1
  6
CONTINUOUS
 62
7
100
AcDbLine
 10
174.0177906409695
 20
93.70228689672327
 30
0.000000000000000
 11
174.0177906409695
 21
86.10228689672327
 31
0.000000000000000
  0
LINE
  5
155
100
AcDbEntity
  8
A1
  6
CONTINUOUS
 62
7
100
AcDbLine
 10
154.5177906409695
 20
85.90228689672323
 30
0.000000000000000
 11
154.5177906409695
 21
93.90228689672325
 31
0.000000000000000
  0
LINE
  5
156
100
AcDbEntity
  8
A1
  6
CENTER
 62
1
100
AcDbLine
 10
176.5677906409695
 20
89.90228689672324
 30
0.000000000000000
 11
145.7677906409695
 21
89.90228689672323
 31
0.000000000000000
  0
LINE
  5
157
100
AcDbEntity
  8
A1
  6
CONTINUOUS
 62
7
100
AcDbLine
 10
173.8177906409695
 20
88.40228689672323
 30
0.000000000000000
 11
156.2177906409695
 21
88.40228689672323
 31
0.000000000000000
  0
LINE
  5
158
100
AcDbEntity
  8
A1
  6
CONTINUOUS
 62
7
100
AcDbLine
 10
173.8177906409695
 20
91.40228689672323
 30
0.000000000000000
 11
156.2177906409695
 21
91.40228689672323
 31
0.000000000000000
  0
ARC
  5
159
100
AcDbEntity
  8
A1
  6
CONTINUOUS
 62
7
100
AcDbCircle
 10
156.2177906409695
 20
91.20228689672322
 30
0.000000000000000
 40
0.2000000000000000
100
AcDbArc
 50
90.00000000000000
 51
180.0000000000000
  0
ARC
  5
15A
100
AcDbEntity
  8
A1
  6
CONTINUOUS
 62
7
100
AcDbCircle
 10
156.2177906409695
 20
88.60228689672323
 30
0.000000000000000
 40
0.2000000000000000
100
AcDbArc
 50
180.0000000000000
 51
270.0000000000000
  0
ARC
  5
15B
100
AcDbEntity
  8
A1
  6
CONTINUOUS
 62
7
100
AcDbCircle
 10
173.8177906409695
 20
88.60228689672323
 30
0.000000000000000
 40
0.2000000000000000
100
AcDbArc
 50
270.0000000000000
 51
360.0000000000000
  0
ARC
  5
15C
100
AcDbEntity
  8
A1
  6
CONTINUOUS
 62
7
100
AcDbCircle
 10
173.8177906409695
 20
91.20228689672322
 30
0.000000000000000
 40
0.2000000000000000
100
AcDbArc
 50
0.000000000000000
 51
90.00000000000000
  0
ENDSEC
  0
SECTION
  2
OBJECTS
  0
DICTIONARY
  5
18A
100
AcDbDictionary
  3
ACAD_GROUP
350
18B
  3
ACAD_LAYOUT
350
18C
  3
ACAD_MLINESTYLE
350
18D
  0
DICTIONARY
  5
18B
102
{ACAD_REACTORS
330
18A
102
}
330
18A
100
AcDbDictionary
  0
DICTIONARY
  5
18C
102
{ACAD_REACTORS
330
18A
102
}
330
18A
100
AcDbDictionary
  3
Model
350
18E
  3
ﾚｲｱｳﾄ1
350
18F
  3
ﾚｲｱｳﾄ2
350
190
  0
DICTIONARY
  5
18D
102
{ACAD_REACTORS
330
18A
102
}
330
18A
100
AcDbDictionary
  3
STANDARD
350
191
  0
LAYOUT
  5
18E
102
{ACAD_REACTORS
330
18C
102
}
330
18C
100
AcDbPlotSettings
 70
11952
  4
A3
 44
297.000000
 45
420.000000
 73
  1
 72
  1
100
AcDbLayout
  1
Model
 71
0
330
181
  0
LAYOUT
  5
18F
102
{ACAD_REACTORS
330
18C
102
}
330
18C
100
AcDbPlotSettings
100
AcDbLayout
  1
ﾚｲｱｳﾄ1
 71
1
330
182
  0
LAYOUT
  5
190
102
{ACAD_REACTORS
330
18C
102
}
330
18C
100
AcDbPlotSettings
100
AcDbLayout
  1
ﾚｲｱｳﾄ2
 71
2
330
183
  0
MLINESTYLE
  5
191
102
{ACAD_REACTORS
330
18D
102
}
330
18D
100
AcDbMlineStyle
  2
STANDARD
 70
     0
  3

 62
   256
 51
90.00
 52
90.00
 71
     2
 49
0.50
 62
   256
  6
BYLAYER
 49
-0.50
 62
   256
  6
BYLAYER
  0
ENDSEC
  0
EOF
