  0
SECTION
  2
HEADER
  9
$ACADVER
  1
AC1015
  9
$DWGCODEPAGE
  3
ANSI_932
  9
$LTSCALE
 40
20.0
  9
$FILLMODE
 70
     1
  9
$CLAYER
  8
0
  9
$PDMODE
 70
     0
  9
$SPLFRAME
 70
     0
  9
$SPLINETYPE
 70
     6
  9
$SPLINESEGS
 70
     8
  9
$DIMASZ
 40
2.000000
  9
$DIMEXE
 40
1.500000
  9
$DIMEXO
 40
0.800000
  9
$DIMTAD
 70
     1
  9
$DIMTIH
 70
     0
  9
$DIMTOH
 70
     0
  9
$DIMTVP
 40
0.500000
  9
$DIMTXT
 40
3.100000
  9
$EXTMIN
 10
0.000000
 20
0.000000
 30
0.000000
  9
$EXTMAX
 10
297.000000
 20
420.000000
 30
0.000000
  9
$MEASUREMENT
 70
  1
  9
$LIMMIN
 10
0.000000
 20
0.000000
  9
$LIMMAX
 10
297.000000
 20
420.000000
  9
$HANDSEED
  5
120
  9
$LWDISPLAY
290
     0
  9
$DIMBLK
  1
_OPEN
  9
$DIMDEC
 70
     2
  9
$DIMADEC
 70
     2
  9
$DIMAUNIT
 70
     0
  9
$DIMZIN
 70
     8
  9
$DIMAZIN
 70
     2
  9
$DIMTOFL
 70
     1
  0
ENDSEC
  0
SECTION
  2
CLASSES
  0
ENDSEC
  0
SECTION
  2
TABLES
  0
TABLE
  2
VPORT
  5
ED
100
AcDbSymbolTable
 70
     1
  0
VPORT
  5
EE
100
AcDbSymbolTableRecord
100
AcDbViewportTableRecord
  2
*ACTIVE
 70
     0
 12
171.555888
 22
106.627884
 40
177.255768
 41
1.822856
  0
ENDTAB
  0
TABLE
  2
LTYPE
  5
EF
100
AcDbSymbolTable
 70
     3
  0
LTYPE
  5
F0
100
AcDbSymbolTableRecord
100
AcDbLinetypeTableRecord
  2
BYBLOCK
 70
     0
  3

 72
    65
 73
     0
 40
0.0
  0
LTYPE
  5
F1
100
AcDbSymbolTableRecord
100
AcDbLinetypeTableRecord
  2
BYLAYER
 70
     0
  3

 72
    65
 73
     0
 40
0.0
  0
LTYPE
  5
F2
100
AcDbSymbolTableRecord
100
AcDbLinetypeTableRecord
  2
CONTINUOUS
 70
     0
  3
Solid line (NEC CAE2D for Win R16.0 : 2021.03.11)
 72
    65
 73
     0
 40
0.0
  0
LTYPE
  5
F3
100
AcDbSymbolTableRecord
100
AcDbLinetypeTableRecord
  2
CENTER
 70
     0
  3
____ _ ____ _ ____ _ ____ _ ____ _ ____
 72
    65
 73
     4
 40
2.0
 49
1.25
 74
     0
 49
-0.25
 74
     0
 49
0.25
 74
     0
 49
-0.25
 74
     0
  0
LTYPE
  5
F4
100
AcDbSymbolTableRecord
100
AcDbLinetypeTableRecord
  2
PHANTOM
 70
     0
  3
______  __  __  ______  __  __  ______ 
 72
    65
 73
     6
 40
2.5
 49
1.25
 74
     0
 49
-0.25
 74
     0
 49
0.25
 74
     0
 49
-0.25
 74
     0
 49
0.25
 74
     0
 49
-0.25
 74
     0
  0
ENDTAB
  0
TABLE
  2
LAYER
  5
F5
100
AcDbSymbolTable
 70
    12
  0
LAYER
  5
F6
100
AcDbSymbolTableRecord
100
AcDbLayerTableRecord
  2
0
 70
     0
 62
     7
  6
CONTINUOUS
370
    -3
390

  0
LAYER
  5
F7
100
AcDbSymbolTableRecord
100
AcDbLayerTableRecord
  2
DXF0
 70
     0
 62
     7
  6
CONTINUOUS
370
    -3
390

  0
LAYER
  5
F8
100
AcDbSymbolTableRecord
100
AcDbLayerTableRecord
  2
DXF0
 70
     0
 62
     7
  6
CONTINUOUS
370
    -3
390

  0
LAYER
  5
F9
100
AcDbSymbolTableRecord
100
AcDbLayerTableRecord
  2
4
 70
     0
 62
     1
  6
CONTINUOUS
370
    -3
390

  0
LAYER
  5
FA
100
AcDbSymbolTableRecord
100
AcDbLayerTableRecord
  2
5
 70
     0
 62
     6
  6
CONTINUOUS
370
    -3
390

  0
LAYER
  5
FB
100
AcDbSymbolTableRecord
100
AcDbLayerTableRecord
  2
1
 70
     0
 62
     7
  6
CONTINUOUS
370
    -3
390

  0
LAYER
  5
FC
100
AcDbSymbolTableRecord
100
AcDbLayerTableRecord
  2
2
 70
     0
 62
     4
  6
CONTINUOUS
370
    -3
390

  0
LAYER
  5
FD
100
AcDbSymbolTableRecord
100
AcDbLayerTableRecord
  2
3
 70
     0
 62
     2
  6
CONTINUOUS
370
    -3
390

  0
LAYER
  5
FE
100
AcDbSymbolTableRecord
100
AcDbLayerTableRecord
  2
6
 70
     0
 62
     5
  6
CONTINUOUS
370
    -3
390

  0
LAYER
  5
FF
100
AcDbSymbolTableRecord
100
AcDbLayerTableRecord
  2
7
 70
     0
 62
     7
  6
CONTINUOUS
370
    -3
390

  0
LAYER
  5
100
100
AcDbSymbolTableRecord
100
AcDbLayerTableRecord
  2
DXF1023
 70
     0
 62
     8
  6
CONTINUOUS
370
    -3
390

  0
LAYER
  5
101
100
AcDbSymbolTableRecord
100
AcDbLayerTableRecord
  2
DXF1023
 70
     0
 62
    16
  6
CONTINUOUS
370
    -3
390

  0
ENDTAB
  0
TABLE
  2
STYLE
  5
102
100
AcDbSymbolTable
 70
     4
  0
STYLE
  5
103
100
AcDbSymbolTableRecord
100
AcDbTextStyleTableRecord
  2
STANDARD
 70
    64
 40
0.0
 41
1.0
 50
0.0
 71
     0
 42
3.000000000000000
  3
TXT
  4

  0
STYLE
  5
104
100
AcDbSymbolTableRecord
100
AcDbTextStyleTableRecord
  2
ANKTATE
 70
    68
 40
0.0
 41
1.0
 50
0.0
 71
     0
 42
3.000000000000000
  3
TXT
  4

  0
STYLE
  5
105
100
AcDbSymbolTableRecord
100
AcDbTextStyleTableRecord
  2
KNJYOKO
 70
    64
 40
0.0
 41
1.0
 50
0.0
 71
     0
 42
3.000000000000000
  3
TXT
  4
BIGFONT
  0
STYLE
  5
106
100
AcDbSymbolTableRecord
100
AcDbTextStyleTableRecord
  2
KNJTATE
 70
    68
 40
0.0
 41
1.0
 50
0.0
 71
     0
 42
3.000000000000000
  3
TXT
  4
BIGFONT
  0
ENDTAB
  0
TABLE
  2
VIEW
  5
107
100
AcDbSymbolTable
 70
     0
  0
ENDTAB
  0
TABLE
  2
UCS
  5
108
100
AcDbSymbolTable
 70
     0
  0
ENDTAB
  0
TABLE
  2
APPID
  5
109
100
AcDbSymbolTable
 70
     1
  0
APPID
  5
10A
100
AcDbSymbolTableRecord
100
AcDbRegAppTableRecord
  2
ACAD
 70
     0
  0
ENDTAB
  0
TABLE
  2
DIMSTYLE
  5
10B
100
AcDbSymbolTable
 70
     2
100
AcDbDimStyleTable
  0
DIMSTYLE
105
10C
100
AcDbSymbolTableRecord
100
AcDbDimStyleTableRecord
  2
STANDARD
 70
     0
 41
2.000000
 44
1.500000
 42
0.800000
145
0.661290
140
3.100000
144
1.000000
146
0.645161
340
103
  0
DIMSTYLE
105
10D
100
AcDbSymbolTableRecord
100
AcDbDimStyleTableRecord
  2
DXF001
 70
     0
 41
2.000000
 44
1.500000
 42
0.800000
145
0.661290
140
3.100000
144
1.000000
146
0.645161
 77
     1
 73
     0
 74
     0
271
     2
179
     2
275
     0
 78
     8
 79
     2
172
     1
340
103
  0
ENDTAB
  0
TABLE
  2
BLOCK_RECORD
  5
10E
100
AcDbSymbolTable
 70
    12
  0
BLOCK_RECORD
  5
10F
100
AcDbSymbolTableRecord
100
AcDbBlockTableRecord
  2
*MODEL_SPACE
  0
BLOCK_RECORD
  5
110
100
AcDbSymbolTableRecord
100
AcDbBlockTableRecord
  2
*PAPER_SPACE
  0
BLOCK_RECORD
  5
111
100
AcDbSymbolTableRecord
100
AcDbBlockTableRecord
  2
*PAPER_SPACE0
  0
BLOCK_RECORD
  5
1
100
AcDbSymbolTableRecord
100
AcDbBlockTableRecord
  2
_NONE
  0
BLOCK_RECORD
  5
4
100
AcDbSymbolTableRecord
100
AcDbBlockTableRecord
  2
_CLOSED
  0
BLOCK_RECORD
  5
B
100
AcDbSymbolTableRecord
100
AcDbBlockTableRecord
  2
_DOT
  0
BLOCK_RECORD
  5
13
100
AcDbSymbolTableRecord
100
AcDbBlockTableRecord
  2
_OPEN
  0
BLOCK_RECORD
  5
19
100
AcDbSymbolTableRecord
100
AcDbBlockTableRecord
  2
_ORIGIN
  0
BLOCK_RECORD
  5
1E
100
AcDbSymbolTableRecord
100
AcDbBlockTableRecord
  2
_OPEN30
  0
BLOCK_RECORD
  5
24
100
AcDbSymbolTableRecord
100
AcDbBlockTableRecord
  2
_BOXFILLED
  0
BLOCK_RECORD
  5
29
100
AcDbSymbolTableRecord
100
AcDbBlockTableRecord
  2
_BOXBLANK
  0
BLOCK_RECORD
  5
31
100
AcDbSymbolTableRecord
100
AcDbBlockTableRecord
  2
_OBLIQUE
  0
BLOCK_RECORD
  5
35
100
AcDbSymbolTableRecord
100
AcDbBlockTableRecord
  2
_OPEN90
  0
BLOCK_RECORD
  5
3B
100
AcDbSymbolTableRecord
100
AcDbBlockTableRecord
  2
_CLOSEDBLANK
  0
BLOCK_RECORD
  5
41
100
AcDbSymbolTableRecord
100
AcDbBlockTableRecord
  2
_DOTBLANK
  0
ENDTAB
  0
ENDSEC
  0
SECTION
  2
BLOCKS
  0
BLOCK
  5
112
100
AcDbEntity
  8
0
100
AcDbBlockBegin
  2
*MODEL_SPACE
 70
     0
 10
0.0
 20
0.0
 30
0.0
  3
*MODEL_SPACE
  1

  0
ENDBLK
  5
113
100
AcDbEntity
  8
0
100
AcDbBlockEnd
  0
BLOCK
  5
114
100
AcDbEntity
  8
0
100
AcDbBlockBegin
  2
*PAPER_SPACE
 70
     0
 10
0.0
 20
0.0
 30
0.0
  3
*PAPER_SPACE
  1

  0
ENDBLK
  5
115
100
AcDbEntity
  8
0
100
AcDbBlockEnd
  0
BLOCK
  5
116
100
AcDbEntity
  8
0
100
AcDbBlockBegin
  2
*PAPER_SPACE0
 70
     0
 10
0.0
 20
0.0
 30
0.0
  3
*PAPER_SPACE0
  1

  0
ENDBLK
  5
117
100
AcDbEntity
  8
0
100
AcDbBlockEnd
  0
BLOCK
  5
2
330
1
100
AcDbEntity
  8
0
100
AcDbBlockBegin
  2
_NONE
 70
     0
 10
0.0
 20
0.0
 30
0.0
  3
_NONE
  1

  0
ENDBLK
  5
3
330
1
100
AcDbEntity
  8
0
100
AcDbBlockEnd
  0
BLOCK
  5
5
330
4
100
AcDbEntity
  8
0
100
AcDbBlockBegin
  2
_CLOSED
 70
     0
 10
0.0
 20
0.0
 30
0.0
  3
_CLOSED
  1

  0
LINE
  5
6
330
4
100
AcDbEntity
  8
0
  6
BYBLOCK
 62
     0
370
    -2
100
AcDbLine
 10
-1.0
 20
0.166667
 30
0.0
 11
0.0
 21
0.0
 31
0.0
  0
LINE
  5
7
330
4
100
AcDbEntity
  8
0
  6
BYBLOCK
 62
     0
370
    -2
100
AcDbLine
 10
0.0
 20
0.0
 30
0.0
 11
-1.0
 21
-0.166667
 31
0.0
  0
LINE
  5
8
330
4
100
AcDbEntity
  8
0
  6
BYBLOCK
 62
     0
370
    -2
100
AcDbLine
 10
-1.0
 20
0.166667
 30
0.0
 11
-1.0
 21
-0.166667
 31
0.0
  0
LINE
  5
9
330
4
100
AcDbEntity
  8
0
  6
BYBLOCK
 62
     0
370
    -2
100
AcDbLine
 10
0.0
 20
0.0
 30
0.0
 11
-1.0
 21
0.0
 31
0.0
  0
ENDBLK
  5
A
330
4
100
AcDbEntity
  8
0
100
AcDbBlockEnd
  0
BLOCK
  5
C
330
B
100
AcDbEntity
  8
0
100
AcDbBlockBegin
  2
_DOT
 70
     0
 10
0.0
 20
0.0
 30
0.0
  3
_DOT
  1

  0
POLYLINE
  5
D
330
B
100
AcDbEntity
  8
0
  6
BYBLOCK
 62
     0
370
    -2
100
AcDb2dPolyline
 66
     1
 10
0.0
 20
0.0
 30
0.0
 70
     1
 40
0.5
 41
0.5
  0
VERTEX
  5
E
330
B
100
AcDbEntity
  8
0
  6
BYBLOCK
 62
     0
370
    -2
100
AcDbVertex
100
AcDb2dVertex
 10
-0.25
 20
0.0
 30
0.0
 42
1.0
  0
VERTEX
  5
F
330
B
100
AcDbEntity
  8
0
  6
BYBLOCK
 62
     0
370
    -2
100
AcDbVertex
100
AcDb2dVertex
 10
0.25
 20
0.0
 30
0.0
 42
1.0
  0
SEQEND
  5
10
330
B
100
AcDbEntity
  8
0
  6
BYBLOCK
 62
     0
370
    -2
  0
LINE
  5
11
330
B
100
AcDbEntity
  8
0
  6
BYBLOCK
 62
     0
370
    -2
100
AcDbLine
 10
-0.5
 20
0.0
 30
0.0
 11
-1.0
 21
0.0
 31
0.0
  0
ENDBLK
  5
12
330
B
100
AcDbEntity
  8
0
100
AcDbBlockEnd
  0
BLOCK
  5
14
330
13
100
AcDbEntity
  8
0
100
AcDbBlockBegin
  2
_OPEN
 70
     0
 10
0.0
 20
0.0
 30
0.0
  3
_OPEN
  1

  0
LINE
  5
15
330
13
100
AcDbEntity
  8
0
  6
BYBLOCK
 62
     0
370
    -2
100
AcDbLine
 10
-1.0
 20
0.166667
 30
0.0
 11
0.0
 21
0.0
 31
0.0
  0
LINE
  5
16
330
13
100
AcDbEntity
  8
0
  6
BYBLOCK
 62
     0
370
    -2
100
AcDbLine
 10
0.0
 20
0.0
 30
0.0
 11
-1.0
 21
-0.166667
 31
0.0
  0
LINE
  5
17
330
13
100
AcDbEntity
  8
0
  6
BYBLOCK
 62
     0
370
    -2
100
AcDbLine
 10
0.0
 20
0.0
 30
0.0
 11
-1.0
 21
0.0
 31
0.0
  0
ENDBLK
  5
18
330
13
100
AcDbEntity
  8
0
100
AcDbBlockEnd
  0
BLOCK
  5
1A
330
19
100
AcDbEntity
  8
0
100
AcDbBlockBegin
  2
_ORIGIN
 70
     0
 10
0.0
 20
0.0
 30
0.0
  3
_ORIGIN
  1

  0
CIRCLE
  5
1B
330
19
100
AcDbEntity
  8
0
  6
BYBLOCK
 62
     0
370
    -2
100
AcDbCircle
 10
0.0
 20
0.0
 30
0.0
 40
0.5
  0
LINE
  5
1C
330
19
100
AcDbEntity
  8
0
  6
BYBLOCK
 62
     0
370
    -2
100
AcDbLine
 10
0.0
 20
0.0
 30
0.0
 11
-1.0
 21
0.0
 31
0.0
  0
ENDBLK
  5
1D
330
19
100
AcDbEntity
  8
0
100
AcDbBlockEnd
  0
BLOCK
  5
1F
330
1E
100
AcDbEntity
  8
0
100
AcDbBlockBegin
  2
_OPEN30
 70
     0
 10
0.0
 20
0.0
 30
0.0
  3
_OPEN30
  1

  0
LINE
  5
20
330
1E
100
AcDbEntity
  8
0
  6
BYBLOCK
 62
     0
370
    -2
100
AcDbLine
 10
-1.0
 20
0.267949
 30
0.0
 11
0.0
 21
0.0
 31
0.0
  0
LINE
  5
21
330
1E
100
AcDbEntity
  8
0
  6
BYBLOCK
 62
     0
370
    -2
100
AcDbLine
 10
0.0
 20
0.0
 30
0.0
 11
-1.0
 21
-0.267949
 31
0.0
  0
LINE
  5
22
330
1E
100
AcDbEntity
  8
0
  6
BYBLOCK
 62
     0
370
    -2
100
AcDbLine
 10
0.0
 20
0.0
 30
0.0
 11
-1.0
 21
0.0
 31
0.0
  0
ENDBLK
  5
23
330
1E
100
AcDbEntity
  8
0
100
AcDbBlockEnd
  0
BLOCK
  5
25
330
24
100
AcDbEntity
  8
0
100
AcDbBlockBegin
  2
_BOXFILLED
 70
     0
 10
0.0
 20
0.0
 30
0.0
  3
_BOXFILLED
  1

  0
SOLID
  5
26
330
24
100
AcDbEntity
  8
0
  6
BYBLOCK
 62
     0
370
    -2
100
AcDbTrace
 10
-0.5
 20
0.5
 30
0.0
 11
0.5
 21
0.5
 31
0.0
 12
-0.5
 22
-0.5
 32
0.0
 13
0.5
 23
-0.5
 33
0.0
  0
LINE
  5
27
330
24
100
AcDbEntity
  8
0
  6
BYBLOCK
 62
     0
370
    -2
100
AcDbLine
 10
-0.5
 20
0.0
 30
0.0
 11
-1.0
 21
0.0
 31
0.0
  0
ENDBLK
  5
28
330
24
100
AcDbEntity
  8
0
100
AcDbBlockEnd
  0
BLOCK
  5
2A
330
29
100
AcDbEntity
  8
0
100
AcDbBlockBegin
  2
_BOXBLANK
 70
     0
 10
0.0
 20
0.0
 30
0.0
  3
_BOXBLANK
  1

  0
LINE
  5
2B
330
29
100
AcDbEntity
  8
0
  6
BYBLOCK
 62
     0
370
    -2
100
AcDbLine
 10
-0.5
 20
-0.5
 30
0.0
 11
0.5
 21
-0.5
 31
0.0
  0
LINE
  5
2C
330
29
100
AcDbEntity
  8
0
  6
BYBLOCK
 62
     0
370
    -2
100
AcDbLine
 10
0.5
 20
-0.5
 30
0.0
 11
0.5
 21
0.5
 31
0.0
  0
LINE
  5
2D
330
29
100
AcDbEntity
  8
0
  6
BYBLOCK
 62
     0
370
    -2
100
AcDbLine
 10
0.5
 20
0.5
 30
0.0
 11
-0.5
 21
0.5
 31
0.0
  0
LINE
  5
2E
330
29
100
AcDbEntity
  8
0
  6
BYBLOCK
 62
     0
370
    -2
100
AcDbLine
 10
-0.5
 20
0.5
 30
0.0
 11
-0.5
 21
-0.5
 31
0.0
  0
LINE
  5
2F
330
29
100
AcDbEntity
  8
0
  6
BYBLOCK
 62
     0
370
    -2
100
AcDbLine
 10
-0.5
 20
0.0
 30
0.0
 11
-1.0
 21
0.0
 31
0.0
  0
ENDBLK
  5
30
330
29
100
AcDbEntity
  8
0
100
AcDbBlockEnd
  0
BLOCK
  5
32
330
31
100
AcDbEntity
  8
0
100
AcDbBlockBegin
  2
_OBLIQUE
 70
     0
 10
0.0
 20
0.0
 30
0.0
  3
_OBLIQUE
  1

  0
LINE
  5
33
330
31
100
AcDbEntity
  8
0
  6
BYBLOCK
 62
     0
370
    -2
100
AcDbLine
 10
-0.5
 20
-0.5
 30
0.0
 11
0.5
 21
0.5
 31
0.0
  0
ENDBLK
  5
34
330
31
100
AcDbEntity
  8
0
100
AcDbBlockEnd
  0
BLOCK
  5
36
330
35
100
AcDbEntity
  8
0
100
AcDbBlockBegin
  2
_OPEN90
 70
     0
 10
0.0
 20
0.0
 30
0.0
  3
_OPEN90
  1

  0
LINE
  5
37
330
35
100
AcDbEntity
  8
0
  6
BYBLOCK
 62
     0
370
    -2
100
AcDbLine
 10
-0.5
 20
0.5
 30
0.0
 11
0.0
 21
0.0
 31
0.0
  0
LINE
  5
38
330
35
100
AcDbEntity
  8
0
  6
BYBLOCK
 62
     0
370
    -2
100
AcDbLine
 10
0.0
 20
0.0
 30
0.0
 11
-0.5
 21
-0.5
 31
0.0
  0
LINE
  5
39
330
35
100
AcDbEntity
  8
0
  6
BYBLOCK
 62
     0
370
    -2
100
AcDbLine
 10
0.0
 20
0.0
 30
0.0
 11
-1.0
 21
0.0
 31
0.0
  0
ENDBLK
  5
3A
330
35
100
AcDbEntity
  8
0
100
AcDbBlockEnd
  0
BLOCK
  5
3C
330
3B
100
AcDbEntity
  8
0
100
AcDbBlockBegin
  2
_CLOSEDBLANK
 70
     0
 10
0.0
 20
0.0
 30
0.0
  3
_CLOSEDBLANK
  1

  0
LINE
  5
3D
330
3B
100
AcDbEntity
  8
0
  6
BYBLOCK
 62
     0
370
    -2
100
AcDbLine
 10
-1.0
 20
0.1666666666666666
 30
0.0
 11
0.0
 21
0.0
 31
0.0
  0
LINE
  5
3E
330
3B
100
AcDbEntity
  8
0
  6
BYBLOCK
 62
     0
370
    -2
100
AcDbLine
 10
0.0
 20
0.0
 30
0.0
 11
-1.0
 21
-0.1666666666666666
 31
0.0
  0
LINE
  5
3F
330
3B
100
AcDbEntity
  8
0
  6
BYBLOCK
 62
     0
370
    -2
100
AcDbLine
 10
-1.0
 20
0.1666666666666666
 30
0.0
 11
-1.0
 21
-0.1666666666666666
 31
0.0
  0
ENDBLK
  5
40
330
3B
100
AcDbEntity
  8
0
100
AcDbBlockEnd
  0
BLOCK
  5
42
330
41
100
AcDbEntity
  8
0
100
AcDbBlockBegin
  2
_DOTBLANK
 70
     0
 10
0.0
 20
0.0
 30
0.0
  3
_DOTBLANK
  1

  0
CIRCLE
  5
43
330
41
100
AcDbEntity
  8
0
  6
BYBLOCK
 62
     0
370
    -2
100
AcDbCircle
 10
0.0
 20
0.0
 30
0.0
 40
0.5
  0
LINE
  5
44
330
41
100
AcDbEntity
  8
0
  6
BYBLOCK
 62
     0
370
    -2
100
AcDbLine
 10
-0.5
 20
0.0
 30
0.0
 11
-1.0
 21
0.0
 31
0.0
  0
ENDBLK
  5
45
330
41
100
AcDbEntity
  8
0
100
AcDbBlockEnd
  0
ENDSEC
  0
SECTION
  2
ENTITIES
  0
LINE
  5
46
100
AcDbEntity
  8
4
  6
CENTER
 62
1
100
AcDbLine
 10
314.6117249999999
 20
148.3161159999999
 30
0.000000000000000
 11
314.6117249999999
 21
105.9778899999999
 31
0.000000000000000
  0
LINE
  5
47
100
AcDbEntity
  8
1
  6
CONTINUOUS
 62
7
100
AcDbLine
 10
278.2117309999998
 20
110.9778900000000
 30
0.000000000000000
 11
278.2117309999998
 21
78.97788199999998
 31
0.000000000000000
  0
LINE
  5
48
100
AcDbEntity
  8
1
  6
CONTINUOUS
 62
7
100
AcDbLine
 10
257.1117250000000
 20
142.9778900000000
 30
0.000000000000000
 11
269.9117249999999
 21
142.9778900000000
 31
0.000000000000000
  0
LINE
  5
49
100
AcDbEntity
  8
1
  6
CONTINUOUS
 62
7
100
AcDbLine
 10
257.1117250000000
 20
78.97788199999998
 30
0.000000000000000
 11
278.2117309999998
 21
78.97788199999998
 31
0.000000000000000
  0
LINE
  5
4A
100
AcDbEntity
  8
1
  6
CONTINUOUS
 62
7
100
AcDbLine
 10
256.6117250000000
 20
142.4778900000000
 30
0.000000000000000
 11
256.6117250000000
 21
79.47788199999998
 31
0.000000000000000
  0
LINE
  5
4B
100
AcDbEntity
  8
1
  6
CONTINUOUS
 62
7
100
AcDbLine
 10
332.6117249999999
 20
142.4778900000000
 30
0.000000000000000
 11
332.6117249999999
 21
79.47788199999998
 31
0.000000000000000
  0
LINE
  5
4C
100
AcDbEntity
  8
1
  6
CONTINUOUS
 62
7
100
AcDbLine
 10
270.4117249999999
 20
142.4778900000000
 30
0.000000000000000
 11
270.4117249999999
 21
111.4778900000000
 31
0.000000000000000
  0
LINE
  5
4D
100
AcDbEntity
  8
1
  6
CONTINUOUS
 62
7
100
AcDbLine
 10
318.8117249999999
 20
110.4778900000000
 30
0.000000000000000
 11
318.8117249999999
 21
79.47788199999998
 31
0.000000000000000
  0
LINE
  5
4E
100
AcDbEntity
  8
1
  6
CONTINUOUS
 62
7
100
AcDbLine
 10
319.3117249999999
 20
78.97788199999998
 30
0.000000000000000
 11
332.1117249999999
 21
78.97788199999998
 31
0.000000000000000
  0
LINE
  5
4F
100
AcDbEntity
  8
1
  6
CONTINUOUS
 62
7
100
AcDbLine
 10
311.0117189999999
 20
142.9778900000000
 30
0.000000000000000
 11
332.1117249999999
 21
142.9778900000000
 31
0.000000000000000
  0
LINE
  5
50
100
AcDbEntity
  8
1
  6
CONTINUOUS
 62
7
100
AcDbLine
 10
270.9117249999999
 20
110.9778900000000
 30
0.000000000000000
 11
278.2117309999998
 21
110.9778900000000
 31
0.000000000000000
  0
LINE
  5
51
100
AcDbEntity
  8
1
  6
CONTINUOUS
 62
7
100
AcDbLine
 10
25.00000000000000
 20
142.9778900000000
 30
0.000000000000000
 11
25.00000000000000
 21
78.97788199999998
 31
0.000000000000000
  0
LINE
  5
52
100
AcDbEntity
  8
1
  6
CONTINUOUS
 62
7
100
AcDbLine
 10
26.60000000000000
 20
142.9778900000000
 30
0.000000000000000
 11
26.60000000000000
 21
78.97788199999998
 31
0.000000000000000
  0
LINE
  5
53
100
AcDbEntity
  8
5
  6
PHANTOM
 62
1
100
AcDbLine
 10
84.47794300000002
 20
26.60000000000000
 30
0.000000000000000
 11
82.87794499999998
 21
26.60000000000000
 31
0.000000000000000
  0
LINE
  5
54
100
AcDbEntity
  8
4
  6
CENTER
 62
1
100
AcDbLine
 10
86.47794300000002
 20
50.20000100000000
 30
0.000000000000000
 11
86.47794300000002
 21
39.00000000000000
 31
0.000000000000000
  0
LINE
  5
55
100
AcDbEntity
  8
4
  6
CENTER
 62
1
100
AcDbLine
 10
80.87794500000000
 20
44.59999800000000
 30
0.000000000000000
 11
92.07794199999999
 21
44.59999800000000
 31
0.000000000000000
  0
LINE
  5
56
100
AcDbEntity
  8
5
  6
PHANTOM
 62
1
100
AcDbLine
 10
84.47794300000002
 20
41.60667400000000
 30
0.000000000000000
 11
84.47794300000002
 21
26.60000000000000
 31
0.000000000000000
  0
LINE
  5
57
100
AcDbEntity
  8
1
  6
CONTINUOUS
 62
7
100
AcDbLine
 10
83.48461200000000
 20
42.60000200000000
 30
0.000000000000000
 11
84.81498000000001
 21
43.48888800000000
 31
0.000000000000000
  0
LINE
  5
58
100
AcDbEntity
  8
1
  6
CONTINUOUS
 62
7
100
AcDbLine
 10
90.67794300000000
 20
42.59999800000000
 30
0.000000000000000
 11
90.67794300000000
 21
41.00000000000000
 31
0.000000000000000
  0
LINE
  5
59
100
AcDbEntity
  8
1
  6
CONTINUOUS
 62
7
100
AcDbLine
 10
32.20000100000000
 20
142.9778900000000
 30
0.000000000000000
 11
32.20000100000000
 21
78.97788199999998
 31
0.000000000000000
  0
LINE
  5
5A
100
AcDbEntity
  8
4
  6
CENTER
 62
1
100
AcDbLine
 10
28.60000000000000
 20
148.8014219999998
 30
0.000000000000000
 11
28.60000000000000
 21
74.06612400000000
 31
0.000000000000000
  0
LINE
  5
5B
100
AcDbEntity
  8
1
  6
CONTINUOUS
 62
7
100
AcDbLine
 10
25.00000000000000
 20
142.9778900000000
 30
0.000000000000000
 11
32.20000100000000
 21
142.9778900000000
 31
0.000000000000000
  0
LINE
  5
5C
100
AcDbEntity
  8
1
  6
CONTINUOUS
 62
7
100
AcDbLine
 10
25.00000000000000
 20
78.97788199999998
 30
0.000000000000000
 11
32.20000100000000
 21
78.97788199999998
 31
0.000000000000000
  0
LINE
  5
5D
100
AcDbEntity
  8
1
  6
CONTINUOUS
 62
7
100
AcDbLine
 10
26.60000000000000
 20
110.9778900000000
 30
0.000000000000000
 11
32.20000100000000
 21
110.9778900000000
 31
0.000000000000000
  0
LINE
  5
5E
100
AcDbEntity
  8
1
  6
CONTINUOUS
 62
7
100
AcDbLine
 10
68.47794300000001
 20
42.59999800000000
 30
0.000000000000000
 11
86.47794300000002
 21
42.59999800000000
 31
0.000000000000000
  0
LINE
  5
5F
100
AcDbEntity
  8
5
  6
PHANTOM
 62
1
100
AcDbLine
 10
82.87794499999998
 20
44.59999800000000
 30
0.000000000000000
 11
82.87794499999998
 21
26.60000000000000
 31
0.000000000000000
  0
LINE
  5
60
100
AcDbEntity
  8
1
  6
CONTINUOUS
 62
7
100
AcDbLine
 10
68.47794300000001
 20
42.59999800000000
 30
0.000000000000000
 11
68.47794300000001
 21
41.00000000000000
 31
0.000000000000000
  0
LINE
  5
61
100
AcDbEntity
  8
1
  6
CONTINUOUS
 62
7
100
AcDbLine
 10
89.47126800000004
 20
42.59999800000000
 30
0.000000000000000
 11
104.4779430000000
 21
42.59999800000000
 31
0.000000000000000
  0
LINE
  5
62
100
AcDbEntity
  8
1
  6
CONTINUOUS
 62
7
100
AcDbLine
 10
68.47794300000001
 20
41.00000000000000
 30
0.000000000000000
 11
104.4779430000000
 21
41.00000000000000
 31
0.000000000000000
  0
LINE
  5
63
100
AcDbEntity
  8
1
  6
CONTINUOUS
 62
7
100
AcDbLine
 10
104.4779430000000
 20
42.59999800000000
 30
0.000000000000000
 11
104.4779430000000
 21
41.00000000000000
 31
0.000000000000000
  0
LINE
  5
64
100
AcDbEntity
  8
5
  6
PHANTOM
 62
1
100
AcDbLine
 10
84.47794300000002
 20
195.2557679999999
 30
0.000000000000000
 11
82.87794499999998
 21
195.2557679999999
 31
0.000000000000000
  0
LINE
  5
65
100
AcDbEntity
  8
4
  6
CENTER
 62
1
100
AcDbLine
 10
86.47794300000002
 20
171.6557620000000
 30
0.000000000000000
 11
86.47794300000002
 21
182.8557590000000
 31
0.000000000000000
  0
LINE
  5
66
100
AcDbEntity
  8
4
  6
CENTER
 62
1
100
AcDbLine
 10
80.87794500000000
 20
177.2557680000000
 30
0.000000000000000
 11
92.07794199999999
 21
177.2557680000000
 31
0.000000000000000
  0
LINE
  5
67
100
AcDbEntity
  8
5
  6
PHANTOM
 62
1
100
AcDbLine
 10
84.47794300000002
 20
180.2490840000000
 30
0.000000000000000
 11
84.47794300000002
 21
195.2557679999999
 31
0.000000000000000
  0
LINE
  5
68
100
AcDbEntity
  8
1
  6
CONTINUOUS
 62
7
100
AcDbLine
 10
68.47794300000001
 20
179.2557679999999
 30
0.000000000000000
 11
83.48461200000000
 21
179.2557679999999
 31
0.000000000000000
  0
LINE
  5
69
100
AcDbEntity
  8
5
  6
PHANTOM
 62
1
100
AcDbLine
 10
82.87794499999998
 20
177.2557680000000
 30
0.000000000000000
 11
82.87794499999998
 21
195.2557679999999
 31
0.000000000000000
  0
LINE
  5
6A
100
AcDbEntity
  8
1
  6
CONTINUOUS
 62
7
100
AcDbLine
 10
68.47794300000001
 20
179.2557679999999
 30
0.000000000000000
 11
68.47794300000001
 21
180.8557590000000
 31
0.000000000000000
  0
LINE
  5
6B
100
AcDbEntity
  8
1
  6
CONTINUOUS
 62
7
100
AcDbLine
 10
86.47794300000002
 20
179.2557679999999
 30
0.000000000000000
 11
104.4779430000000
 21
179.2557679999999
 31
0.000000000000000
  0
LINE
  5
6C
100
AcDbEntity
  8
1
  6
CONTINUOUS
 62
7
100
AcDbLine
 10
68.47794300000001
 20
180.8557590000000
 30
0.000000000000000
 11
104.4779430000000
 21
180.8557590000000
 31
0.000000000000000
  0
LINE
  5
6D
100
AcDbEntity
  8
1
  6
CONTINUOUS
 62
7
100
AcDbLine
 10
104.4779430000000
 20
179.2557679999999
 30
0.000000000000000
 11
104.4779430000000
 21
180.8557590000000
 31
0.000000000000000
  0
LINE
  5
6E
100
AcDbEntity
  8
1
  6
CONTINUOUS
 62
7
100
AcDbLine
 10
82.27794299999998
 20
179.2557679999999
 30
0.000000000000000
 11
82.27794299999998
 21
180.8557590000000
 31
0.000000000000000
  0
LINE
  5
6F
100
AcDbEntity
  8
1
  6
CONTINUOUS
 62
7
100
AcDbLine
 10
88.14090699999994
 20
178.3668820000000
 30
0.000000000000000
 11
89.47126800000004
 21
179.2557679999999
 31
0.000000000000000
  0
LINE
  5
70
100
AcDbEntity
  8
1
  6
CONTINUOUS
 62
7
100
AcDbLine
 10
147.9558869999999
 20
142.9778900000000
 30
0.000000000000000
 11
147.9558869999999
 21
78.97788199999998
 31
0.000000000000000
  0
LINE
  5
71
100
AcDbEntity
  8
1
  6
CONTINUOUS
 62
7
100
AcDbLine
 10
146.3558810000000
 20
142.9778900000000
 30
0.000000000000000
 11
146.3558810000000
 21
78.97788199999998
 31
0.000000000000000
  0
LINE
  5
72
100
AcDbEntity
  8
1
  6
CONTINUOUS
 62
7
100
AcDbLine
 10
140.7558899999999
 20
142.9778900000000
 30
0.000000000000000
 11
140.7558899999999
 21
78.97788199999998
 31
0.000000000000000
  0
LINE
  5
73
100
AcDbEntity
  8
4
  6
CENTER
 62
1
100
AcDbLine
 10
144.3558810000000
 20
148.8014219999998
 30
0.000000000000000
 11
144.3558810000000
 21
74.06612400000000
 31
0.000000000000000
  0
LINE
  5
74
100
AcDbEntity
  8
1
  6
CONTINUOUS
 62
7
100
AcDbLine
 10
147.9558869999999
 20
142.9778900000000
 30
0.000000000000000
 11
140.7558899999999
 21
142.9778900000000
 31
0.000000000000000
  0
LINE
  5
75
100
AcDbEntity
  8
1
  6
CONTINUOUS
 62
7
100
AcDbLine
 10
147.9558869999999
 20
78.97788199999998
 30
0.000000000000000
 11
140.7558899999999
 21
78.97788199999998
 31
0.000000000000000
  0
LINE
  5
76
100
AcDbEntity
  8
1
  6
CONTINUOUS
 62
7
100
AcDbLine
 10
146.3558810000000
 20
110.9778900000000
 30
0.000000000000000
 11
140.7558899999999
 21
110.9778900000000
 31
0.000000000000000
  0
LINE
  5
77
100
AcDbEntity
  8
4
  6
CENTER
 62
1
100
AcDbLine
 10
202.2338260000000
 20
148.3161159999999
 30
0.000000000000000
 11
202.2338260000000
 21
73.97788199999998
 31
0.000000000000000
  0
LINE
  5
78
100
AcDbEntity
  8
1
  6
CONTINUOUS
 62
7
100
AcDbLine
 10
198.6338199999999
 20
110.9778900000000
 30
0.000000000000000
 11
198.6338199999999
 21
78.97788199999998
 31
0.000000000000000
  0
LINE
  5
79
100
AcDbEntity
  8
1
  6
CONTINUOUS
 62
7
100
AcDbLine
 10
205.8338169999999
 20
142.9778900000000
 30
0.000000000000000
 11
205.8338169999999
 21
110.9778900000000
 31
0.000000000000000
  0
LINE
  5
7A
100
AcDbEntity
  8
1
  6
CONTINUOUS
 62
7
100
AcDbLine
 10
219.7338259999999
 20
142.9778900000000
 30
0.000000000000000
 11
206.9338259999999
 21
142.9778900000000
 31
0.000000000000000
  0
LINE
  5
7B
100
AcDbEntity
  8
1
  6
CONTINUOUS
 62
7
100
AcDbLine
 10
219.7338259999999
 20
78.97788199999998
 30
0.000000000000000
 11
198.6338199999999
 21
78.97788199999998
 31
0.000000000000000
  0
LINE
  5
7C
100
AcDbEntity
  8
1
  6
CONTINUOUS
 62
7
100
AcDbLine
 10
220.2338259999999
 20
142.4778900000000
 30
0.000000000000000
 11
220.2338259999999
 21
79.47788199999998
 31
0.000000000000000
  0
LINE
  5
7D
100
AcDbEntity
  8
1
  6
CONTINUOUS
 62
7
100
AcDbLine
 10
184.2338260000000
 20
142.4778900000000
 30
0.000000000000000
 11
184.2338260000000
 21
79.47788199999999
 31
0.000000000000000
  0
LINE
  5
7E
100
AcDbEntity
  8
1
  6
CONTINUOUS
 62
7
100
AcDbLine
 10
198.0338259999999
 20
110.4778900000000
 30
0.000000000000000
 11
198.0338259999999
 21
79.47788199999998
 31
0.000000000000000
  0
LINE
  5
7F
100
AcDbEntity
  8
1
  6
CONTINUOUS
 62
7
100
AcDbLine
 10
197.5338259999999
 20
78.97788199999998
 30
0.000000000000000
 11
184.7338260000000
 21
78.97788199999998
 31
0.000000000000000
  0
LINE
  5
80
100
AcDbEntity
  8
1
  6
CONTINUOUS
 62
7
100
AcDbLine
 10
205.8338169999999
 20
142.9778900000000
 30
0.000000000000000
 11
184.7338260000000
 21
142.9778900000000
 31
0.000000000000000
  0
LINE
  5
81
100
AcDbEntity
  8
1
  6
CONTINUOUS
 62
7
100
AcDbLine
 10
205.9338259999999
 20
110.9778900000000
 30
0.000000000000000
 11
198.5338259999999
 21
110.9778900000000
 31
0.000000000000000
  0
LINE
  5
82
100
AcDbEntity
  8
4
  6
CENTER
 62
1
100
AcDbLine
 10
86.47794300000002
 20
148.3161159999999
 30
0.000000000000000
 11
86.47794300000002
 21
73.97788199999998
 31
0.000000000000000
  0
LINE
  5
83
100
AcDbEntity
  8
1
  6
CONTINUOUS
 62
7
100
AcDbLine
 10
90.07794199999999
 20
142.9778900000000
 30
0.000000000000000
 11
90.07794199999999
 21
78.97788199999998
 31
0.000000000000000
  0
LINE
  5
84
100
AcDbEntity
  8
1
  6
CONTINUOUS
 62
7
100
AcDbLine
 10
82.87794499999998
 20
142.9778900000000
 30
0.000000000000000
 11
82.87794499999998
 21
78.97788199999998
 31
0.000000000000000
  0
LINE
  5
85
100
AcDbEntity
  8
1
  6
CONTINUOUS
 62
7
100
AcDbLine
 10
68.97794300000001
 20
142.9778900000000
 30
0.000000000000000
 11
81.77794299999998
 21
142.9778900000000
 31
0.000000000000000
  0
LINE
  5
86
100
AcDbEntity
  8
1
  6
CONTINUOUS
 62
7
100
AcDbLine
 10
68.97794300000001
 20
78.97788199999998
 30
0.000000000000000
 11
90.07794199999999
 21
78.97788199999998
 31
0.000000000000000
  0
LINE
  5
87
100
AcDbEntity
  8
1
  6
CONTINUOUS
 62
7
100
AcDbLine
 10
68.47794300000001
 20
142.4778900000000
 30
0.000000000000000
 11
68.47794300000001
 21
79.47788199999998
 31
0.000000000000000
  0
LINE
  5
88
100
AcDbEntity
  8
1
  6
CONTINUOUS
 62
7
100
AcDbLine
 10
104.4779430000000
 20
142.4778900000000
 30
0.000000000000000
 11
104.4779430000000
 21
79.47788199999998
 31
0.000000000000000
  0
LINE
  5
89
100
AcDbEntity
  8
1
  6
CONTINUOUS
 62
7
100
AcDbLine
 10
82.27794299999998
 20
142.4778900000000
 30
0.000000000000000
 11
82.27794299999998
 21
111.4778900000000
 31
0.000000000000000
  0
LINE
  5
8A
100
AcDbEntity
  8
1
  6
CONTINUOUS
 62
7
100
AcDbLine
 10
90.67794300000000
 20
110.4778900000000
 30
0.000000000000000
 11
90.67794300000000
 21
79.47788199999997
 31
0.000000000000000
  0
LINE
  5
8B
100
AcDbEntity
  8
1
  6
CONTINUOUS
 62
7
100
AcDbLine
 10
91.17794300000000
 20
78.97788199999998
 30
0.000000000000000
 11
103.9779430000000
 21
78.97788199999998
 31
0.000000000000000
  0
LINE
  5
8C
100
AcDbEntity
  8
1
  6
CONTINUOUS
 62
7
100
AcDbLine
 10
82.87794499999998
 20
142.9778900000000
 30
0.000000000000000
 11
103.9779430000000
 21
142.9778900000000
 31
0.000000000000000
  0
LINE
  5
8D
100
AcDbEntity
  8
1
  6
CONTINUOUS
 62
7
100
AcDbLine
 10
82.77794299999996
 20
110.9778900000000
 30
0.000000000000000
 11
90.17794300000000
 21
110.9778900000000
 31
0.000000000000000
  0
LINE
  5
8E
100
AcDbEntity
  8
1
  6
CONTINUOUS
 62
7
100
AcDbLine
 10
206.4338259999999
 20
142.4778900000000
 30
0.000000000000000
 11
206.4338259999999
 21
111.4778900000000
 31
0.000000000000000
  0
LINE
  5
8F
100
AcDbEntity
  8
1
  6
CONTINUOUS
 62
7
100
AcDbLine
 10
271.0117189999999
 20
110.9778900000000
 30
0.000000000000000
 11
271.0117189999999
 21
78.97788199999998
 31
0.000000000000000
  0
LINE
  5
90
100
AcDbEntity
  8
4
  6
CENTER
 62
1
100
AcDbLine
 10
274.6117249999999
 20
148.2258149999998
 30
0.000000000000000
 11
274.6117249999999
 21
73.94723499999996
 31
0.000000000000000
  0
LINE
  5
91
100
AcDbEntity
  8
1
  6
CONTINUOUS
 62
7
100
AcDbLine
 10
272.6117249999999
 20
141.4778900000000
 30
0.000000000000000
 11
272.6117249999999
 21
110.9778900000000
 31
0.000000000000000
  0
LINE
  5
92
100
AcDbEntity
  8
1
  6
CONTINUOUS
 62
7
100
AcDbLine
 10
276.6117249999999
 20
141.4778900000000
 30
0.000000000000000
 11
276.6117249999999
 21
110.9778900000000
 31
0.000000000000000
  0
LINE
  5
93
100
AcDbEntity
  8
1
  6
CONTINUOUS
 62
7
100
AcDbLine
 10
272.6117249999999
 20
141.4778900000000
 30
0.000000000000000
 11
276.6117249999999
 21
141.4778900000000
 31
0.000000000000000
  0
LINE
  5
94
100
AcDbEntity
  8
1
  6
CONTINUOUS
 62
7
100
AcDbLine
 10
311.0117189999999
 20
110.9778900000000
 30
0.000000000000000
 11
318.3117249999999
 21
110.9778900000000
 31
0.000000000000000
  0
LINE
  5
95
100
AcDbEntity
  8
1
  6
CONTINUOUS
 62
7
100
AcDbLine
 10
311.0117189999999
 20
142.9778900000000
 30
0.000000000000000
 11
311.0117189999999
 21
110.9778900000000
 31
0.000000000000000
  0
LINE
  5
96
100
AcDbEntity
  8
1
  6
CONTINUOUS
 62
7
100
AcDbLine
 10
318.2117309999998
 20
142.9778900000000
 30
0.000000000000000
 11
318.2117309999998
 21
110.9778900000000
 31
0.000000000000000
  0
CIRCLE
  5
97
100
AcDbEntity
  8
1
  6
CONTINUOUS
 62
7
100
AcDbCircle
 10
86.47794300000002
 20
44.59999800000000
 30
0.000000000000000
 40
2.000000000000000
  0
ARC
  5
98
100
AcDbEntity
  8
1
  6
CONTINUOUS
 62
7
100
AcDbCircle
 10
86.47794300000002
 20
44.59999800000000
 30
0.000000000000000
 40
3.600000000000000
100
AcDbArc
 50
269.9999969999999
 51
573.7489940000000
  0
CIRCLE
  5
99
100
AcDbEntity
  8
1
  6
CONTINUOUS
 62
7
100
AcDbCircle
 10
86.47794300000002
 20
177.2557680000000
 30
0.000000000000000
 40
2.000000000000000
  0
ARC
  5
9A
100
AcDbEntity
  8
1
  6
CONTINUOUS
 62
7
100
AcDbCircle
 10
86.47794300000002
 20
177.2557680000000
 30
0.000000000000000
 40
3.600000000000000
100
AcDbArc
 50
90.00000300000002
 51
393.7489860000000
  0
MTEXT
  5
9B
100
AcDbEntity
  8
7
  6
CONTINUOUS
 62
7
100
AcDbMText
 10
10.00005000000000
 20
18.00000000000000
 30
0.000000000000000
 40
3.000000000000000
 41
0.000000000000000
 44
0.6739999771118164
 71
     7
 72
     1
  1
{\H0.93x;{TYPE No.TH-177-L}}
 11
1.000000000000000
 21
0.000000000000000
 31
0.000000000000000
  7
STANDARD
  0
ARC
  5
9C
100
AcDbEntity
  8
1
  6
CONTINUOUS
 62
7
100
AcDbCircle
 10
68.97794300000001
 20
142.4778900000000
 30
0.000000000000000
 40
0.5000000000000000
100
AcDbArc
 50
90.00000000000000
 51
180.0000000000000
  0
ARC
  5
9D
100
AcDbEntity
  8
1
  6
CONTINUOUS
 62
7
100
AcDbCircle
 10
81.77794299999998
 20
142.4778900000000
 30
0.000000000000000
 40
0.5000000000000000
100
AcDbArc
 50
0.000000000000000
 51
90.00000000000000
  0
ARC
  5
9E
100
AcDbEntity
  8
1
  6
CONTINUOUS
 62
7
100
AcDbCircle
 10
82.77794299999996
 20
111.4778900000000
 30
0.000000000000000
 40
0.5000000000000000
100
AcDbArc
 50
180.0000000000000
 51
270.0000000000000
  0
ARC
  5
9F
100
AcDbEntity
  8
1
  6
CONTINUOUS
 62
7
100
AcDbCircle
 10
90.17794300000000
 20
110.4778900000000
 30
0.000000000000000
 40
0.5000000000000000
100
AcDbArc
 50
0.000000000000000
 51
90.00000000000000
  0
ARC
  5
A0
100
AcDbEntity
  8
1
  6
CONTINUOUS
 62
7
100
AcDbCircle
 10
91.17794300000000
 20
79.47788199999997
 30
0.000000000000000
 40
0.5000000000000000
100
AcDbArc
 50
180.0000000000000
 51
270.0000000000000
  0
ARC
  5
A1
100
AcDbEntity
  8
1
  6
CONTINUOUS
 62
7
100
AcDbCircle
 10
103.9779430000000
 20
79.47788199999998
 30
0.000000000000000
 40
0.5000000000000000
100
AcDbArc
 50
270.0000000000000
 51
360.0000000000000
  0
ARC
  5
A2
100
AcDbEntity
  8
1
  6
CONTINUOUS
 62
7
100
AcDbCircle
 10
103.9779430000000
 20
142.4778900000000
 30
0.000000000000000
 40
0.5000000000000000
100
AcDbArc
 50
0.000000000000000
 51
90.00000000000000
  0
ARC
  5
A3
100
AcDbEntity
  8
1
  6
CONTINUOUS
 62
7
100
AcDbCircle
 10
68.97794300000001
 20
79.47788199999998
 30
0.000000000000000
 40
0.5000000000000000
100
AcDbArc
 50
180.0000000000000
 51
270.0000000000000
  0
ARC
  5
A4
100
AcDbEntity
  8
1
  6
CONTINUOUS
 62
7
100
AcDbCircle
 10
197.5338259999999
 20
79.47788199999998
 30
0.000000000000000
 40
0.5000000000000000
100
AcDbArc
 50
270.0000000000000
 51
360.0000000000000
  0
ARC
  5
A5
100
AcDbEntity
  8
1
  6
CONTINUOUS
 62
7
100
AcDbCircle
 10
198.5338259999999
 20
110.4778900000000
 30
0.000000000000000
 40
0.5000000000000000
100
AcDbArc
 50
90.00000000000000
 51
180.0000000000000
  0
ARC
  5
A6
100
AcDbEntity
  8
1
  6
CONTINUOUS
 62
7
100
AcDbCircle
 10
205.9338259999999
 20
111.4778900000000
 30
0.000000000000000
 40
0.5000000000000000
100
AcDbArc
 50
270.0000000000000
 51
360.0000000000000
  0
ARC
  5
A7
100
AcDbEntity
  8
1
  6
CONTINUOUS
 62
7
100
AcDbCircle
 10
206.9338259999999
 20
142.4778900000000
 30
0.000000000000000
 40
0.5000000000000000
100
AcDbArc
 50
90.00000000000000
 51
180.0000000000000
  0
ARC
  5
A8
100
AcDbEntity
  8
1
  6
CONTINUOUS
 62
7
100
AcDbCircle
 10
219.7338259999999
 20
142.4778900000000
 30
0.000000000000000
 40
0.5000000000000000
100
AcDbArc
 50
0.000000000000000
 51
90.00000000000000
  0
ARC
  5
A9
100
AcDbEntity
  8
1
  6
CONTINUOUS
 62
7
100
AcDbCircle
 10
219.7338259999999
 20
79.47788199999998
 30
0.000000000000000
 40
0.5000000000000000
100
AcDbArc
 50
270.0000000000000
 51
360.0000000000000
  0
ARC
  5
AA
100
AcDbEntity
  8
1
  6
CONTINUOUS
 62
7
100
AcDbCircle
 10
184.7338260000000
 20
79.47788199999999
 30
0.000000000000000
 40
0.5000000000000000
100
AcDbArc
 50
180.0000000000000
 51
270.0000000000000
  0
ARC
  5
AB
100
AcDbEntity
  8
1
  6
CONTINUOUS
 62
7
100
AcDbCircle
 10
184.7338260000000
 20
142.4778900000000
 30
0.000000000000000
 40
0.5000000000000000
100
AcDbArc
 50
90.00000000000000
 51
180.0000000000000
  0
ARC
  5
AC
100
AcDbEntity
  8
1
  6
CONTINUOUS
 62
7
100
AcDbCircle
 10
332.1117249999999
 20
142.4778900000000
 30
0.000000000000000
 40
0.5000000000000000
100
AcDbArc
 50
0.000000000000000
 51
90.00000000000000
  0
ARC
  5
AD
100
AcDbEntity
  8
1
  6
CONTINUOUS
 62
7
100
AcDbCircle
 10
332.1117249999999
 20
79.47788199999998
 30
0.000000000000000
 40
0.5000000000000000
100
AcDbArc
 50
270.0000000000000
 51
360.0000000000000
  0
ARC
  5
AE
100
AcDbEntity
  8
1
  6
CONTINUOUS
 62
7
100
AcDbCircle
 10
319.3117249999999
 20
79.47788199999998
 30
0.000000000000000
 40
0.5000000000000000
100
AcDbArc
 50
180.0000000000000
 51
270.0000000000000
  0
ARC
  5
AF
100
AcDbEntity
  8
1
  6
CONTINUOUS
 62
7
100
AcDbCircle
 10
318.3117249999999
 20
110.4778900000000
 30
0.000000000000000
 40
0.5000000000000000
100
AcDbArc
 50
0.000000000000000
 51
90.00000000000000
  0
ARC
  5
B0
100
AcDbEntity
  8
1
  6
CONTINUOUS
 62
7
100
AcDbCircle
 10
269.9117249999999
 20
142.4778900000000
 30
0.000000000000000
 40
0.5000000000000000
100
AcDbArc
 50
0.000000000000000
 51
90.00000000000000
  0
ARC
  5
B1
100
AcDbEntity
  8
1
  6
CONTINUOUS
 62
7
100
AcDbCircle
 10
257.1117250000000
 20
142.4778900000000
 30
0.000000000000000
 40
0.5000000000000000
100
AcDbArc
 50
90.00000000000000
 51
180.0000000000000
  0
ARC
  5
B2
100
AcDbEntity
  8
1
  6
CONTINUOUS
 62
7
100
AcDbCircle
 10
257.1117250000000
 20
79.47788199999998
 30
0.000000000000000
 40
0.5000000000000000
100
AcDbArc
 50
180.0000000000000
 51
270.0000000000000
  0
ARC
  5
B3
100
AcDbEntity
  8
1
  6
CONTINUOUS
 62
7
100
AcDbCircle
 10
270.9117249999999
 20
111.4778900000000
 30
0.000000000000000
 40
0.5000000000000000
100
AcDbArc
 50
180.0000000000000
 51
270.0000000000000
  0
LINE
  5
B4
100
AcDbEntity
  8
1
  6
CONTINUOUS
 62
7
100
AcDbLine
 10
273.1117249999999
 20
141.9778900000000
 30
0.000000000000000
 11
276.1117249999999
 21
141.9778900000000
 31
0.000000000000000
  0
LINE
  5
B5
100
AcDbEntity
  8
1
  6
CONTINUOUS
 62
7
100
AcDbLine
 10
273.1117249999999
 20
141.9778900000000
 30
0.000000000000000
 11
272.6117249999999
 21
141.4778900000000
 31
0.000000000000000
  0
LINE
  5
B6
100
AcDbEntity
  8
1
  6
CONTINUOUS
 62
7
100
AcDbLine
 10
276.6117249999999
 20
141.4778900000000
 30
0.000000000000000
 11
276.1117249999999
 21
141.9778900000000
 31
0.000000000000000
  0
LINE
  5
B7
100
AcDbEntity
  8
4
  6
CENTER
 62
1
100
AcDbLine
 10
74.47794300000004
 20
141.4778900000002
 30
0.000000000000000
 11
74.47794300000004
 21
128.4778900000002
 31
0.000000000000000
  0
LINE
  5
B8
100
AcDbEntity
  8
4
  6
CENTER
 62
1
100
AcDbLine
 10
80.97794300000004
 20
134.9778900000002
 30
0.000000000000000
 11
67.97794300000004
 21
134.9778900000002
 31
0.000000000000000
  0
CIRCLE
  5
B9
100
AcDbEntity
  8
1
  6
CONTINUOUS
 62
7
100
AcDbCircle
 10
74.47794300000004
 20
134.9778900000002
 30
0.000000000000000
 40
1.600000000000000
  0
LINE
  5
BA
100
AcDbEntity
  8
4
  6
CENTER
 62
1
100
AcDbLine
 10
74.47794300000004
 20
117.4778900000001
 30
0.000000000000000
 11
74.47794300000004
 21
104.4778900000001
 31
0.000000000000000
  0
LINE
  5
BB
100
AcDbEntity
  8
4
  6
CENTER
 62
1
100
AcDbLine
 10
80.97794300000004
 20
110.9778900000000
 30
0.000000000000000
 11
67.97794300000004
 21
110.9778900000000
 31
0.000000000000000
  0
CIRCLE
  5
BC
100
AcDbEntity
  8
1
  6
CONTINUOUS
 62
7
100
AcDbCircle
 10
74.47794300000004
 20
110.9778900000000
 30
0.000000000000000
 40
1.600000000000000
  0
LINE
  5
BD
100
AcDbEntity
  8
4
  6
CENTER
 62
1
100
AcDbLine
 10
74.47794300000004
 20
93.47789000000020
 30
0.000000000000000
 11
74.47794300000004
 21
80.47789000000019
 31
0.000000000000000
  0
LINE
  5
BE
100
AcDbEntity
  8
4
  6
CENTER
 62
1
100
AcDbLine
 10
80.97794300000004
 20
86.97789000000020
 30
0.000000000000000
 11
67.97794300000004
 21
86.97789000000020
 31
0.000000000000000
  0
CIRCLE
  5
BF
100
AcDbEntity
  8
1
  6
CONTINUOUS
 62
7
100
AcDbCircle
 10
74.47794300000004
 20
86.97789000000020
 30
0.000000000000000
 40
1.600000000000000
  0
LINE
  5
C0
100
AcDbEntity
  8
4
  6
CENTER
 62
1
100
AcDbLine
 10
98.47794300000001
 20
141.4778900000002
 30
0.000000000000000
 11
98.47794300000001
 21
128.4778900000002
 31
0.000000000000000
  0
LINE
  5
C1
100
AcDbEntity
  8
4
  6
CENTER
 62
1
100
AcDbLine
 10
91.97794300000001
 20
134.9778900000002
 30
0.000000000000000
 11
104.9779430000000
 21
134.9778900000002
 31
0.000000000000000
  0
CIRCLE
  5
C2
100
AcDbEntity
  8
1
  6
CONTINUOUS
 62
7
100
AcDbCircle
 10
98.47794300000001
 20
134.9778900000002
 30
0.000000000000000
 40
1.600000000000000
  0
LINE
  5
C3
100
AcDbEntity
  8
4
  6
CENTER
 62
1
100
AcDbLine
 10
98.47794300000001
 20
117.4778900000001
 30
0.000000000000000
 11
98.47794300000001
 21
104.4778900000001
 31
0.000000000000000
  0
LINE
  5
C4
100
AcDbEntity
  8
4
  6
CENTER
 62
1
100
AcDbLine
 10
91.97794300000001
 20
110.9778900000000
 30
0.000000000000000
 11
104.9779430000000
 21
110.9778900000000
 31
0.000000000000000
  0
CIRCLE
  5
C5
100
AcDbEntity
  8
1
  6
CONTINUOUS
 62
7
100
AcDbCircle
 10
98.47794300000001
 20
110.9778900000000
 30
0.000000000000000
 40
1.600000000000000
  0
LINE
  5
C6
100
AcDbEntity
  8
4
  6
CENTER
 62
1
100
AcDbLine
 10
98.47794300000001
 20
93.47789000000020
 30
0.000000000000000
 11
98.47794300000001
 21
80.47789000000019
 31
0.000000000000000
  0
LINE
  5
C7
100
AcDbEntity
  8
4
  6
CENTER
 62
1
100
AcDbLine
 10
91.97794300000001
 20
86.97789000000020
 30
0.000000000000000
 11
104.9779430000000
 21
86.97789000000020
 31
0.000000000000000
  0
CIRCLE
  5
C8
100
AcDbEntity
  8
1
  6
CONTINUOUS
 62
7
100
AcDbCircle
 10
98.47794300000001
 20
86.97789000000020
 30
0.000000000000000
 40
1.600000000000000
  0
LINE
  5
C9
100
AcDbEntity
  8
4
  6
CENTER
 62
1
100
AcDbLine
 10
190.2338260000000
 20
141.4778900000002
 30
0.000000000000000
 11
190.2338260000000
 21
128.4778900000002
 31
0.000000000000000
  0
LINE
  5
CA
100
AcDbEntity
  8
4
  6
CENTER
 62
1
100
AcDbLine
 10
196.7338260000000
 20
134.9778900000002
 30
0.000000000000000
 11
183.7338260000000
 21
134.9778900000002
 31
0.000000000000000
  0
CIRCLE
  5
CB
100
AcDbEntity
  8
1
  6
CONTINUOUS
 62
7
100
AcDbCircle
 10
190.2338260000000
 20
134.9778900000002
 30
0.000000000000000
 40
1.600000000000000
  0
LINE
  5
CC
100
AcDbEntity
  8
4
  6
CENTER
 62
1
100
AcDbLine
 10
190.2338260000000
 20
117.4778900000001
 30
0.000000000000000
 11
190.2338260000000
 21
104.4778900000001
 31
0.000000000000000
  0
LINE
  5
CD
100
AcDbEntity
  8
4
  6
CENTER
 62
1
100
AcDbLine
 10
196.7338260000000
 20
110.9778900000000
 30
0.000000000000000
 11
183.7338260000000
 21
110.9778900000000
 31
0.000000000000000
  0
CIRCLE
  5
CE
100
AcDbEntity
  8
1
  6
CONTINUOUS
 62
7
100
AcDbCircle
 10
190.2338260000000
 20
110.9778900000000
 30
0.000000000000000
 40
1.600000000000000
  0
LINE
  5
CF
100
AcDbEntity
  8
4
  6
CENTER
 62
1
100
AcDbLine
 10
190.2338260000000
 20
93.47789000000020
 30
0.000000000000000
 11
190.2338260000000
 21
80.47789000000019
 31
0.000000000000000
  0
LINE
  5
D0
100
AcDbEntity
  8
4
  6
CENTER
 62
1
100
AcDbLine
 10
196.7338260000000
 20
86.97789000000020
 30
0.000000000000000
 11
183.7338260000000
 21
86.97789000000020
 31
0.000000000000000
  0
CIRCLE
  5
D1
100
AcDbEntity
  8
1
  6
CONTINUOUS
 62
7
100
AcDbCircle
 10
190.2338260000000
 20
86.97789000000020
 30
0.000000000000000
 40
1.600000000000000
  0
LINE
  5
D2
100
AcDbEntity
  8
4
  6
CENTER
 62
1
100
AcDbLine
 10
262.6117250000000
 20
141.4778900000002
 30
0.000000000000000
 11
262.6117250000000
 21
128.4778900000002
 31
0.000000000000000
  0
LINE
  5
D3
100
AcDbEntity
  8
4
  6
CENTER
 62
1
100
AcDbLine
 10
269.1117250000000
 20
134.9778900000002
 30
0.000000000000000
 11
256.1117250000000
 21
134.9778900000002
 31
0.000000000000000
  0
CIRCLE
  5
D4
100
AcDbEntity
  8
1
  6
CONTINUOUS
 62
7
100
AcDbCircle
 10
262.6117250000000
 20
134.9778900000002
 30
0.000000000000000
 40
1.600000000000000
  0
LINE
  5
D5
100
AcDbEntity
  8
4
  6
CENTER
 62
1
100
AcDbLine
 10
262.6117250000000
 20
117.4778900000001
 30
0.000000000000000
 11
262.6117250000000
 21
104.4778900000001
 31
0.000000000000000
  0
LINE
  5
D6
100
AcDbEntity
  8
4
  6
CENTER
 62
1
100
AcDbLine
 10
269.1117250000000
 20
110.9778900000000
 30
0.000000000000000
 11
256.1117250000000
 21
110.9778900000000
 31
0.000000000000000
  0
CIRCLE
  5
D7
100
AcDbEntity
  8
1
  6
CONTINUOUS
 62
7
100
AcDbCircle
 10
262.6117250000000
 20
110.9778900000000
 30
0.000000000000000
 40
1.600000000000000
  0
LINE
  5
D8
100
AcDbEntity
  8
4
  6
CENTER
 62
1
100
AcDbLine
 10
262.6117250000000
 20
93.47789000000020
 30
0.000000000000000
 11
262.6117250000000
 21
80.47789000000019
 31
0.000000000000000
  0
LINE
  5
D9
100
AcDbEntity
  8
4
  6
CENTER
 62
1
100
AcDbLine
 10
269.1117250000000
 20
86.97789000000020
 30
0.000000000000000
 11
256.1117250000000
 21
86.97789000000020
 31
0.000000000000000
  0
CIRCLE
  5
DA
100
AcDbEntity
  8
1
  6
CONTINUOUS
 62
7
100
AcDbCircle
 10
262.6117250000000
 20
86.97789000000020
 30
0.000000000000000
 40
1.600000000000000
  0
LINE
  5
DB
100
AcDbEntity
  8
4
  6
CENTER
 62
1
100
AcDbLine
 10
326.6117250000001
 20
141.4778900000002
 30
0.000000000000000
 11
326.6117250000001
 21
128.4778900000002
 31
0.000000000000000
  0
LINE
  5
DC
100
AcDbEntity
  8
4
  6
CENTER
 62
1
100
AcDbLine
 10
320.1117250000001
 20
134.9778900000002
 30
0.000000000000000
 11
333.1117250000001
 21
134.9778900000002
 31
0.000000000000000
  0
CIRCLE
  5
DD
100
AcDbEntity
  8
1
  6
CONTINUOUS
 62
7
100
AcDbCircle
 10
326.6117250000001
 20
134.9778900000002
 30
0.000000000000000
 40
1.600000000000000
  0
LINE
  5
DE
100
AcDbEntity
  8
4
  6
CENTER
 62
1
100
AcDbLine
 10
326.6117250000001
 20
117.4778900000001
 30
0.000000000000000
 11
326.6117250000001
 21
104.4778900000001
 31
0.000000000000000
  0
LINE
  5
DF
100
AcDbEntity
  8
4
  6
CENTER
 62
1
100
AcDbLine
 10
320.1117250000001
 20
110.9778900000000
 30
0.000000000000000
 11
333.1117250000001
 21
110.9778900000000
 31
0.000000000000000
  0
CIRCLE
  5
E0
100
AcDbEntity
  8
1
  6
CONTINUOUS
 62
7
100
AcDbCircle
 10
326.6117250000001
 20
110.9778900000000
 30
0.000000000000000
 40
1.600000000000000
  0
LINE
  5
E1
100
AcDbEntity
  8
4
  6
CENTER
 62
1
100
AcDbLine
 10
326.6117250000001
 20
93.47789000000020
 30
0.000000000000000
 11
326.6117250000001
 21
80.47789000000019
 31
0.000000000000000
  0
LINE
  5
E2
100
AcDbEntity
  8
4
  6
CENTER
 62
1
100
AcDbLine
 10
320.1117250000001
 20
86.97789000000020
 30
0.000000000000000
 11
333.1117250000001
 21
86.97789000000020
 31
0.000000000000000
  0
CIRCLE
  5
E3
100
AcDbEntity
  8
1
  6
CONTINUOUS
 62
7
100
AcDbCircle
 10
326.6117250000001
 20
86.97789000000020
 30
0.000000000000000
 40
1.600000000000000
  0
LINE
  5
E4
100
AcDbEntity
  8
4
  6
CENTER
 62
1
100
AcDbLine
 10
214.2338260000001
 20
141.4778900000002
 30
0.000000000000000
 11
214.2338260000001
 21
128.4778900000002
 31
0.000000000000000
  0
LINE
  5
E5
100
AcDbEntity
  8
4
  6
CENTER
 62
1
100
AcDbLine
 10
207.7338260000001
 20
134.9778900000002
 30
0.000000000000000
 11
220.7338260000001
 21
134.9778900000002
 31
0.000000000000000
  0
CIRCLE
  5
E6
100
AcDbEntity
  8
1
  6
CONTINUOUS
 62
7
100
AcDbCircle
 10
214.2338260000001
 20
134.9778900000002
 30
0.000000000000000
 40
1.600000000000000
  0
LINE
  5
E7
100
AcDbEntity
  8
4
  6
CENTER
 62
1
100
AcDbLine
 10
214.2338260000001
 20
117.4778900000001
 30
0.000000000000000
 11
214.2338260000001
 21
104.4778900000001
 31
0.000000000000000
  0
LINE
  5
E8
100
AcDbEntity
  8
4
  6
CENTER
 62
1
100
AcDbLine
 10
207.7338260000001
 20
110.9778900000000
 30
0.000000000000000
 11
220.7338260000001
 21
110.9778900000000
 31
0.000000000000000
  0
CIRCLE
  5
E9
100
AcDbEntity
  8
1
  6
CONTINUOUS
 62
7
100
AcDbCircle
 10
214.2338260000001
 20
110.9778900000000
 30
0.000000000000000
 40
1.600000000000000
  0
LINE
  5
EA
100
AcDbEntity
  8
4
  6
CENTER
 62
1
100
AcDbLine
 10
214.2338260000001
 20
93.47789000000020
 30
0.000000000000000
 11
214.2338260000001
 21
80.47789000000019
 31
0.000000000000000
  0
LINE
  5
EB
100
AcDbEntity
  8
4
  6
CENTER
 62
1
100
AcDbLine
 10
207.7338260000001
 20
86.97789000000020
 30
0.000000000000000
 11
220.7338260000001
 21
86.97789000000020
 31
0.000000000000000
  0
CIRCLE
  5
EC
100
AcDbEntity
  8
1
  6
CONTINUOUS
 62
7
100
AcDbCircle
 10
214.2338260000001
 20
86.97789000000020
 30
0.000000000000000
 40
1.600000000000000
  0
ENDSEC
  0
SECTION
  2
OBJECTS
  0
DICTIONARY
  5
118
100
AcDbDictionary
  3
ACAD_GROUP
350
119
  3
ACAD_LAYOUT
350
11A
  3
ACAD_MLINESTYLE
350
11B
  0
DICTIONARY
  5
119
102
{ACAD_REACTORS
330
118
102
}
330
118
100
AcDbDictionary
  0
DICTIONARY
  5
11A
102
{ACAD_REACTORS
330
118
102
}
330
118
100
AcDbDictionary
  3
Model
350
11C
  3
ﾚｲｱｳﾄ1
350
11D
  3
ﾚｲｱｳﾄ2
350
11E
  0
DICTIONARY
  5
11B
102
{ACAD_REACTORS
330
118
102
}
330
118
100
AcDbDictionary
  3
STANDARD
350
11F
  0
LAYOUT
  5
11C
102
{ACAD_REACTORS
330
11A
102
}
330
11A
100
AcDbPlotSettings
 70
11952
  4
A3
 44
297.000000
 45
420.000000
 73
  1
 72
  1
100
AcDbLayout
  1
Model
 71
0
330
10F
  0
LAYOUT
  5
11D
102
{ACAD_REACTORS
330
11A
102
}
330
11A
100
AcDbPlotSettings
100
AcDbLayout
  1
ﾚｲｱｳﾄ1
 71
1
330
110
  0
LAYOUT
  5
11E
102
{ACAD_REACTORS
330
11A
102
}
330
11A
100
AcDbPlotSettings
100
AcDbLayout
  1
ﾚｲｱｳﾄ2
 71
2
330
111
  0
MLINESTYLE
  5
11F
102
{ACAD_REACTORS
330
11B
102
}
330
11B
100
AcDbMlineStyle
  2
STANDARD
 70
     0
  3

 62
   256
 51
90.00
 52
90.00
 71
     2
 49
0.50
 62
   256
  6
BYLAYER
 49
-0.50
 62
   256
  6
BYLAYER
  0
ENDSEC
  0
EOF
