  0
SECTION
  2
HEADER
  9
$ACADVER
  1
AC1027
  9
$DWGCODEPAGE
  3
ANSI_932
  9
$LTSCALE
 40
20.0
  9
$FILLMODE
 70
     1
  9
$CLAYER
  8
0
  9
$PDMODE
 70
     0
  9
$SPLFRAME
 70
     0
  9
$SPLINETYPE
 70
     6
  9
$SPLINESEGS
 70
     8
  9
$DIMASZ
 40
2.000000
  9
$DIMEXE
 40
1.500000
  9
$DIMEXO
 40
0.800000
  9
$DIMTAD
 70
     1
  9
$DIMTIH
 70
     0
  9
$DIMTOH
 70
     0
  9
$DIMTVP
 40
0.500000
  9
$DIMTXT
 40
3.100000
  9
$EXTMIN
 10
0.000000
 20
0.000000
 30
0.000000
  9
$EXTMAX
 10
297.000000
 20
420.000000
 30
0.000000
  9
$MEASUREMENT
 70
  1
  9
$LIMMIN
 10
0.000000
 20
0.000000
  9
$LIMMAX
 10
297.000000
 20
420.000000
  9
$HANDSEED
  5
1B3
  9
$LWDISPLAY
290
     0
  9
$DIMBLK
  1
_OPEN
  9
$DIMDEC
 70
     2
  9
$DIMADEC
 70
     2
  9
$DIMAUNIT
 70
     0
  9
$DIMZIN
 70
     8
  9
$DIMAZIN
 70
     2
  9
$DIMTOFL
 70
     1
  0
ENDSEC
  0
SECTION
  2
CLASSES
  0
ENDSEC
  0
SECTION
  2
TABLES
  0
TABLE
  2
VPORT
  5
182
100
AcDbSymbolTable
 70
     1
  0
VPORT
  5
183
100
AcDbSymbolTableRecord
100
AcDbViewportTableRecord
  2
*ACTIVE
 70
     0
 12
164.871080
 22
116.643285
 40
197.286568
 41
1.570011
  0
ENDTAB
  0
TABLE
  2
LTYPE
  5
184
100
AcDbSymbolTable
 70
     3
  0
LTYPE
  5
185
100
AcDbSymbolTableRecord
100
AcDbLinetypeTableRecord
  2
BYBLOCK
 70
     0
  3

 72
    65
 73
     0
 40
0.0
  0
LTYPE
  5
186
100
AcDbSymbolTableRecord
100
AcDbLinetypeTableRecord
  2
BYLAYER
 70
     0
  3

 72
    65
 73
     0
 40
0.0
  0
LTYPE
  5
187
100
AcDbSymbolTableRecord
100
AcDbLinetypeTableRecord
  2
CONTINUOUS
 70
     0
  3
Solid line (NEC CAE2D for Win R18.0 : 2024.05.01)
 72
    65
 73
     0
 40
0.0
  0
LTYPE
  5
188
100
AcDbSymbolTableRecord
100
AcDbLinetypeTableRecord
  2
CENTER
 70
     0
  3
____ _ ____ _ ____ _ ____ _ ____ _ ____
 72
    65
 73
     4
 40
2.0
 49
1.25
 74
     0
 49
-0.25
 74
     0
 49
0.25
 74
     0
 49
-0.25
 74
     0
  0
LTYPE
  5
189
100
AcDbSymbolTableRecord
100
AcDbLinetypeTableRecord
  2
PHANTOM
 70
     0
  3
______  __  __  ______  __  __  ______ 
 72
    65
 73
     6
 40
2.5
 49
1.25
 74
     0
 49
-0.25
 74
     0
 49
0.25
 74
     0
 49
-0.25
 74
     0
 49
0.25
 74
     0
 49
-0.25
 74
     0
  0
ENDTAB
  0
TABLE
  2
LAYER
  5
18A
100
AcDbSymbolTable
 70
    10
  0
LAYER
  5
18B
100
AcDbSymbolTableRecord
100
AcDbLayerTableRecord
  2
0
 70
     0
 62
     7
  6
CONTINUOUS
370
    -3
390

  0
LAYER
  5
18C
100
AcDbSymbolTableRecord
100
AcDbLayerTableRecord
  2
DXF0
 70
     0
 62
     7
  6
CONTINUOUS
370
    -3
390

  0
LAYER
  5
18D
100
AcDbSymbolTableRecord
100
AcDbLayerTableRecord
  2
4
 70
     0
 62
     1
  6
CONTINUOUS
370
    -3
390

  0
LAYER
  5
18E
100
AcDbSymbolTableRecord
100
AcDbLayerTableRecord
  2
5
 70
     0
 62
     6
  6
CONTINUOUS
370
    -3
390

  0
LAYER
  5
18F
100
AcDbSymbolTableRecord
100
AcDbLayerTableRecord
  2
1
 70
     0
 62
     7
  6
CONTINUOUS
370
    -3
390

  0
LAYER
  5
190
100
AcDbSymbolTableRecord
100
AcDbLayerTableRecord
  2
2
 70
     0
 62
     4
  6
CONTINUOUS
370
    -3
390

  0
LAYER
  5
191
100
AcDbSymbolTableRecord
100
AcDbLayerTableRecord
  2
3
 70
     0
 62
     2
  6
CONTINUOUS
370
    -3
390

  0
LAYER
  5
192
100
AcDbSymbolTableRecord
100
AcDbLayerTableRecord
  2
6
 70
     0
 62
     5
  6
CONTINUOUS
370
    -3
390

  0
LAYER
  5
193
100
AcDbSymbolTableRecord
100
AcDbLayerTableRecord
  2
7
 70
     0
 62
     3
  6
CONTINUOUS
370
    -3
390

  0
LAYER
  5
194
100
AcDbSymbolTableRecord
100
AcDbLayerTableRecord
  2
DXF1023
 70
     0
 62
    16
  6
CONTINUOUS
370
    -3
390

  0
ENDTAB
  0
TABLE
  2
STYLE
  5
195
100
AcDbSymbolTable
 70
     4
  0
STYLE
  5
196
100
AcDbSymbolTableRecord
100
AcDbTextStyleTableRecord
  2
STANDARD
 70
    64
 40
0.0
 41
1.0
 50
0.0
 71
     0
 42
3.000000000000000
  3
TXT
  4

  0
STYLE
  5
197
100
AcDbSymbolTableRecord
100
AcDbTextStyleTableRecord
  2
ANKTATE
 70
    68
 40
0.0
 41
1.0
 50
0.0
 71
     0
 42
3.000000000000000
  3
TXT
  4

  0
STYLE
  5
198
100
AcDbSymbolTableRecord
100
AcDbTextStyleTableRecord
  2
KNJYOKO
 70
    64
 40
0.0
 41
1.0
 50
0.0
 71
     0
 42
3.000000000000000
  3
TXT
  4
BIGFONT
  0
STYLE
  5
199
100
AcDbSymbolTableRecord
100
AcDbTextStyleTableRecord
  2
KNJTATE
 70
    68
 40
0.0
 41
1.0
 50
0.0
 71
     0
 42
3.000000000000000
  3
TXT
  4
BIGFONT
  0
ENDTAB
  0
TABLE
  2
VIEW
  5
19A
100
AcDbSymbolTable
 70
     0
  0
ENDTAB
  0
TABLE
  2
UCS
  5
19B
100
AcDbSymbolTable
 70
     0
  0
ENDTAB
  0
TABLE
  2
APPID
  5
19C
100
AcDbSymbolTable
 70
     1
  0
APPID
  5
19D
100
AcDbSymbolTableRecord
100
AcDbRegAppTableRecord
  2
ACAD
 70
     0
  0
ENDTAB
  0
TABLE
  2
DIMSTYLE
  5
19E
100
AcDbSymbolTable
 70
     2
100
AcDbDimStyleTable
  0
DIMSTYLE
105
19F
100
AcDbSymbolTableRecord
100
AcDbDimStyleTableRecord
  2
STANDARD
 70
     0
 41
2.000000
 44
1.500000
 42
0.800000
145
0.661290
140
3.100000
144
1.000000
146
0.645161
340
196
  0
DIMSTYLE
105
1A0
100
AcDbSymbolTableRecord
100
AcDbDimStyleTableRecord
  2
DXF001
 70
     0
 41
2.000000
 44
1.500000
 42
0.800000
145
0.661290
140
3.100000
144
1.000000
146
0.645161
 77
     1
 73
     0
 74
     0
271
     2
179
     2
275
     0
 78
     8
 79
     2
172
     1
340
196
  0
ENDTAB
  0
TABLE
  2
BLOCK_RECORD
  5
1A1
100
AcDbSymbolTable
 70
    12
  0
BLOCK_RECORD
  5
1A2
100
AcDbSymbolTableRecord
100
AcDbBlockTableRecord
  2
*MODEL_SPACE
  0
BLOCK_RECORD
  5
1A3
100
AcDbSymbolTableRecord
100
AcDbBlockTableRecord
  2
*PAPER_SPACE
  0
BLOCK_RECORD
  5
1A4
100
AcDbSymbolTableRecord
100
AcDbBlockTableRecord
  2
*PAPER_SPACE0
  0
BLOCK_RECORD
  5
1
100
AcDbSymbolTableRecord
100
AcDbBlockTableRecord
  2
_NONE
  0
BLOCK_RECORD
  5
4
100
AcDbSymbolTableRecord
100
AcDbBlockTableRecord
  2
_CLOSED
  0
BLOCK_RECORD
  5
B
100
AcDbSymbolTableRecord
100
AcDbBlockTableRecord
  2
_DOT
  0
BLOCK_RECORD
  5
13
100
AcDbSymbolTableRecord
100
AcDbBlockTableRecord
  2
_OPEN
  0
BLOCK_RECORD
  5
19
100
AcDbSymbolTableRecord
100
AcDbBlockTableRecord
  2
_ORIGIN
  0
BLOCK_RECORD
  5
1E
100
AcDbSymbolTableRecord
100
AcDbBlockTableRecord
  2
_OPEN30
  0
BLOCK_RECORD
  5
24
100
AcDbSymbolTableRecord
100
AcDbBlockTableRecord
  2
_BOXFILLED
  0
BLOCK_RECORD
  5
29
100
AcDbSymbolTableRecord
100
AcDbBlockTableRecord
  2
_BOXBLANK
  0
BLOCK_RECORD
  5
31
100
AcDbSymbolTableRecord
100
AcDbBlockTableRecord
  2
_OBLIQUE
  0
BLOCK_RECORD
  5
35
100
AcDbSymbolTableRecord
100
AcDbBlockTableRecord
  2
_OPEN90
  0
BLOCK_RECORD
  5
3B
100
AcDbSymbolTableRecord
100
AcDbBlockTableRecord
  2
_CLOSEDBLANK
  0
BLOCK_RECORD
  5
41
100
AcDbSymbolTableRecord
100
AcDbBlockTableRecord
  2
_DOTBLANK
  0
ENDTAB
  0
ENDSEC
  0
SECTION
  2
BLOCKS
  0
BLOCK
  5
1A5
100
AcDbEntity
  8
0
100
AcDbBlockBegin
  2
*MODEL_SPACE
 70
     0
 10
0.0
 20
0.0
 30
0.0
  3
*MODEL_SPACE
  1

  0
ENDBLK
  5
1A6
100
AcDbEntity
  8
0
100
AcDbBlockEnd
  0
BLOCK
  5
1A7
100
AcDbEntity
  8
0
100
AcDbBlockBegin
  2
*PAPER_SPACE
 70
     0
 10
0.0
 20
0.0
 30
0.0
  3
*PAPER_SPACE
  1

  0
ENDBLK
  5
1A8
100
AcDbEntity
  8
0
100
AcDbBlockEnd
  0
BLOCK
  5
1A9
100
AcDbEntity
  8
0
100
AcDbBlockBegin
  2
*PAPER_SPACE0
 70
     0
 10
0.0
 20
0.0
 30
0.0
  3
*PAPER_SPACE0
  1

  0
ENDBLK
  5
1AA
100
AcDbEntity
  8
0
100
AcDbBlockEnd
  0
BLOCK
  5
2
330
1
100
AcDbEntity
  8
0
100
AcDbBlockBegin
  2
_NONE
 70
     0
 10
0.0
 20
0.0
 30
0.0
  3
_NONE
  1

  0
ENDBLK
  5
3
330
1
100
AcDbEntity
  8
0
100
AcDbBlockEnd
  0
BLOCK
  5
5
330
4
100
AcDbEntity
  8
0
100
AcDbBlockBegin
  2
_CLOSED
 70
     0
 10
0.0
 20
0.0
 30
0.0
  3
_CLOSED
  1

  0
LINE
  5
6
330
4
100
AcDbEntity
  8
0
  6
BYBLOCK
 62
     0
370
    -2
100
AcDbLine
 10
-1.0
 20
0.166667
 30
0.0
 11
0.0
 21
0.0
 31
0.0
  0
LINE
  5
7
330
4
100
AcDbEntity
  8
0
  6
BYBLOCK
 62
     0
370
    -2
100
AcDbLine
 10
0.0
 20
0.0
 30
0.0
 11
-1.0
 21
-0.166667
 31
0.0
  0
LINE
  5
8
330
4
100
AcDbEntity
  8
0
  6
BYBLOCK
 62
     0
370
    -2
100
AcDbLine
 10
-1.0
 20
0.166667
 30
0.0
 11
-1.0
 21
-0.166667
 31
0.0
  0
LINE
  5
9
330
4
100
AcDbEntity
  8
0
  6
BYBLOCK
 62
     0
370
    -2
100
AcDbLine
 10
0.0
 20
0.0
 30
0.0
 11
-1.0
 21
0.0
 31
0.0
  0
ENDBLK
  5
A
330
4
100
AcDbEntity
  8
0
100
AcDbBlockEnd
  0
BLOCK
  5
C
330
B
100
AcDbEntity
  8
0
100
AcDbBlockBegin
  2
_DOT
 70
     0
 10
0.0
 20
0.0
 30
0.0
  3
_DOT
  1

  0
POLYLINE
  5
D
330
B
100
AcDbEntity
  8
0
  6
BYBLOCK
 62
     0
370
    -2
100
AcDb2dPolyline
 66
     1
 10
0.0
 20
0.0
 30
0.0
 70
     1
 40
0.5
 41
0.5
  0
VERTEX
  5
E
330
B
100
AcDbEntity
  8
0
  6
BYBLOCK
 62
     0
370
    -2
100
AcDbVertex
100
AcDb2dVertex
 10
-0.25
 20
0.0
 30
0.0
 42
1.0
  0
VERTEX
  5
F
330
B
100
AcDbEntity
  8
0
  6
BYBLOCK
 62
     0
370
    -2
100
AcDbVertex
100
AcDb2dVertex
 10
0.25
 20
0.0
 30
0.0
 42
1.0
  0
SEQEND
  5
10
330
B
100
AcDbEntity
  8
0
  6
BYBLOCK
 62
     0
370
    -2
  0
LINE
  5
11
330
B
100
AcDbEntity
  8
0
  6
BYBLOCK
 62
     0
370
    -2
100
AcDbLine
 10
-0.5
 20
0.0
 30
0.0
 11
-1.0
 21
0.0
 31
0.0
  0
ENDBLK
  5
12
330
B
100
AcDbEntity
  8
0
100
AcDbBlockEnd
  0
BLOCK
  5
14
330
13
100
AcDbEntity
  8
0
100
AcDbBlockBegin
  2
_OPEN
 70
     0
 10
0.0
 20
0.0
 30
0.0
  3
_OPEN
  1

  0
LINE
  5
15
330
13
100
AcDbEntity
  8
0
  6
BYBLOCK
 62
     0
370
    -2
100
AcDbLine
 10
-1.0
 20
0.166667
 30
0.0
 11
0.0
 21
0.0
 31
0.0
  0
LINE
  5
16
330
13
100
AcDbEntity
  8
0
  6
BYBLOCK
 62
     0
370
    -2
100
AcDbLine
 10
0.0
 20
0.0
 30
0.0
 11
-1.0
 21
-0.166667
 31
0.0
  0
LINE
  5
17
330
13
100
AcDbEntity
  8
0
  6
BYBLOCK
 62
     0
370
    -2
100
AcDbLine
 10
0.0
 20
0.0
 30
0.0
 11
-1.0
 21
0.0
 31
0.0
  0
ENDBLK
  5
18
330
13
100
AcDbEntity
  8
0
100
AcDbBlockEnd
  0
BLOCK
  5
1A
330
19
100
AcDbEntity
  8
0
100
AcDbBlockBegin
  2
_ORIGIN
 70
     0
 10
0.0
 20
0.0
 30
0.0
  3
_ORIGIN
  1

  0
CIRCLE
  5
1B
330
19
100
AcDbEntity
  8
0
  6
BYBLOCK
 62
     0
370
    -2
100
AcDbCircle
 10
0.0
 20
0.0
 30
0.0
 40
0.5
  0
LINE
  5
1C
330
19
100
AcDbEntity
  8
0
  6
BYBLOCK
 62
     0
370
    -2
100
AcDbLine
 10
0.0
 20
0.0
 30
0.0
 11
-1.0
 21
0.0
 31
0.0
  0
ENDBLK
  5
1D
330
19
100
AcDbEntity
  8
0
100
AcDbBlockEnd
  0
BLOCK
  5
1F
330
1E
100
AcDbEntity
  8
0
100
AcDbBlockBegin
  2
_OPEN30
 70
     0
 10
0.0
 20
0.0
 30
0.0
  3
_OPEN30
  1

  0
LINE
  5
20
330
1E
100
AcDbEntity
  8
0
  6
BYBLOCK
 62
     0
370
    -2
100
AcDbLine
 10
-1.0
 20
0.267949
 30
0.0
 11
0.0
 21
0.0
 31
0.0
  0
LINE
  5
21
330
1E
100
AcDbEntity
  8
0
  6
BYBLOCK
 62
     0
370
    -2
100
AcDbLine
 10
0.0
 20
0.0
 30
0.0
 11
-1.0
 21
-0.267949
 31
0.0
  0
LINE
  5
22
330
1E
100
AcDbEntity
  8
0
  6
BYBLOCK
 62
     0
370
    -2
100
AcDbLine
 10
0.0
 20
0.0
 30
0.0
 11
-1.0
 21
0.0
 31
0.0
  0
ENDBLK
  5
23
330
1E
100
AcDbEntity
  8
0
100
AcDbBlockEnd
  0
BLOCK
  5
25
330
24
100
AcDbEntity
  8
0
100
AcDbBlockBegin
  2
_BOXFILLED
 70
     0
 10
0.0
 20
0.0
 30
0.0
  3
_BOXFILLED
  1

  0
SOLID
  5
26
330
24
100
AcDbEntity
  8
0
  6
BYBLOCK
 62
     0
370
    -2
100
AcDbTrace
 10
-0.5
 20
0.5
 30
0.0
 11
0.5
 21
0.5
 31
0.0
 12
-0.5
 22
-0.5
 32
0.0
 13
0.5
 23
-0.5
 33
0.0
  0
LINE
  5
27
330
24
100
AcDbEntity
  8
0
  6
BYBLOCK
 62
     0
370
    -2
100
AcDbLine
 10
-0.5
 20
0.0
 30
0.0
 11
-1.0
 21
0.0
 31
0.0
  0
ENDBLK
  5
28
330
24
100
AcDbEntity
  8
0
100
AcDbBlockEnd
  0
BLOCK
  5
2A
330
29
100
AcDbEntity
  8
0
100
AcDbBlockBegin
  2
_BOXBLANK
 70
     0
 10
0.0
 20
0.0
 30
0.0
  3
_BOXBLANK
  1

  0
LINE
  5
2B
330
29
100
AcDbEntity
  8
0
  6
BYBLOCK
 62
     0
370
    -2
100
AcDbLine
 10
-0.5
 20
-0.5
 30
0.0
 11
0.5
 21
-0.5
 31
0.0
  0
LINE
  5
2C
330
29
100
AcDbEntity
  8
0
  6
BYBLOCK
 62
     0
370
    -2
100
AcDbLine
 10
0.5
 20
-0.5
 30
0.0
 11
0.5
 21
0.5
 31
0.0
  0
LINE
  5
2D
330
29
100
AcDbEntity
  8
0
  6
BYBLOCK
 62
     0
370
    -2
100
AcDbLine
 10
0.5
 20
0.5
 30
0.0
 11
-0.5
 21
0.5
 31
0.0
  0
LINE
  5
2E
330
29
100
AcDbEntity
  8
0
  6
BYBLOCK
 62
     0
370
    -2
100
AcDbLine
 10
-0.5
 20
0.5
 30
0.0
 11
-0.5
 21
-0.5
 31
0.0
  0
LINE
  5
2F
330
29
100
AcDbEntity
  8
0
  6
BYBLOCK
 62
     0
370
    -2
100
AcDbLine
 10
-0.5
 20
0.0
 30
0.0
 11
-1.0
 21
0.0
 31
0.0
  0
ENDBLK
  5
30
330
29
100
AcDbEntity
  8
0
100
AcDbBlockEnd
  0
BLOCK
  5
32
330
31
100
AcDbEntity
  8
0
100
AcDbBlockBegin
  2
_OBLIQUE
 70
     0
 10
0.0
 20
0.0
 30
0.0
  3
_OBLIQUE
  1

  0
LINE
  5
33
330
31
100
AcDbEntity
  8
0
  6
BYBLOCK
 62
     0
370
    -2
100
AcDbLine
 10
-0.5
 20
-0.5
 30
0.0
 11
0.5
 21
0.5
 31
0.0
  0
ENDBLK
  5
34
330
31
100
AcDbEntity
  8
0
100
AcDbBlockEnd
  0
BLOCK
  5
36
330
35
100
AcDbEntity
  8
0
100
AcDbBlockBegin
  2
_OPEN90
 70
     0
 10
0.0
 20
0.0
 30
0.0
  3
_OPEN90
  1

  0
LINE
  5
37
330
35
100
AcDbEntity
  8
0
  6
BYBLOCK
 62
     0
370
    -2
100
AcDbLine
 10
-0.5
 20
0.5
 30
0.0
 11
0.0
 21
0.0
 31
0.0
  0
LINE
  5
38
330
35
100
AcDbEntity
  8
0
  6
BYBLOCK
 62
     0
370
    -2
100
AcDbLine
 10
0.0
 20
0.0
 30
0.0
 11
-0.5
 21
-0.5
 31
0.0
  0
LINE
  5
39
330
35
100
AcDbEntity
  8
0
  6
BYBLOCK
 62
     0
370
    -2
100
AcDbLine
 10
0.0
 20
0.0
 30
0.0
 11
-1.0
 21
0.0
 31
0.0
  0
ENDBLK
  5
3A
330
35
100
AcDbEntity
  8
0
100
AcDbBlockEnd
  0
BLOCK
  5
3C
330
3B
100
AcDbEntity
  8
0
100
AcDbBlockBegin
  2
_CLOSEDBLANK
 70
     0
 10
0.0
 20
0.0
 30
0.0
  3
_CLOSEDBLANK
  1

  0
LINE
  5
3D
330
3B
100
AcDbEntity
  8
0
  6
BYBLOCK
 62
     0
370
    -2
100
AcDbLine
 10
-1.0
 20
0.1666666666666666
 30
0.0
 11
0.0
 21
0.0
 31
0.0
  0
LINE
  5
3E
330
3B
100
AcDbEntity
  8
0
  6
BYBLOCK
 62
     0
370
    -2
100
AcDbLine
 10
0.0
 20
0.0
 30
0.0
 11
-1.0
 21
-0.1666666666666666
 31
0.0
  0
LINE
  5
3F
330
3B
100
AcDbEntity
  8
0
  6
BYBLOCK
 62
     0
370
    -2
100
AcDbLine
 10
-1.0
 20
0.1666666666666666
 30
0.0
 11
-1.0
 21
-0.1666666666666666
 31
0.0
  0
ENDBLK
  5
40
330
3B
100
AcDbEntity
  8
0
100
AcDbBlockEnd
  0
BLOCK
  5
42
330
41
100
AcDbEntity
  8
0
100
AcDbBlockBegin
  2
_DOTBLANK
 70
     0
 10
0.0
 20
0.0
 30
0.0
  3
_DOTBLANK
  1

  0
CIRCLE
  5
43
330
41
100
AcDbEntity
  8
0
  6
BYBLOCK
 62
     0
370
    -2
100
AcDbCircle
 10
0.0
 20
0.0
 30
0.0
 40
0.5
  0
LINE
  5
44
330
41
100
AcDbEntity
  8
0
  6
BYBLOCK
 62
     0
370
    -2
100
AcDbLine
 10
-0.5
 20
0.0
 30
0.0
 11
-1.0
 21
0.0
 31
0.0
  0
ENDBLK
  5
45
330
41
100
AcDbEntity
  8
0
100
AcDbBlockEnd
  0
ENDSEC
  0
SECTION
  2
ENTITIES
  0
MTEXT
  5
46
100
AcDbEntity
  8
7
  6
CONTINUOUS
 62
3
100
AcDbMText
 10
9.999997526638502
 20
18.00000076076889
 30
0.000000000000000
 40
3.000000000000000
 41
0.000000000000000
 44
0.6739999771118164
 71
     7
 72
     1
  1
{\H0.94x;{TYPE No.TH-189SUS-2}}
 11
1.000000000000000
 21
0.000000000000000
 31
0.000000000000000
  7
STANDARD
  0
LINE
  5
47
100
AcDbEntity
  8
4
  6
CENTER
 62
1
100
AcDbLine
 10
110.7421621844154
 20
147.5596784200669
 30
0.000000000000000
 11
110.7421621844154
 21
100.2596784200669
 31
0.000000000000000
  0
LINE
  5
48
100
AcDbEntity
  8
4
  6
CENTER
 62
1
100
AcDbLine
 10
140.7421621844155
 20
147.9096784200669
 30
0.000000000000000
 11
140.7421621844155
 21
99.90967842006702
 31
0.000000000000000
  0
LINE
  5
49
100
AcDbEntity
  8
1
  6
CONTINUOUS
 62
7
100
AcDbLine
 10
140.7421802500790
 20
136.7687138792609
 30
0.000000000000000
 11
140.7421802500790
 21
136.0798465674436
 31
0.000000000000000
  0
LINE
  5
4A
100
AcDbEntity
  8
1
  6
CONTINUOUS
 62
7
100
AcDbLine
 10
141.3659447511472
 20
135.9127093731145
 30
0.000000000000000
 11
139.9606448819450
 21
136.2892583381921
 31
0.000000000000000
  0
LINE
  5
4B
100
AcDbEntity
  8
1
  6
CONTINUOUS
 62
7
100
AcDbLine
 10
140.7421802500790
 20
135.5763250137770
 30
0.000000000000000
 11
141.5417076278978
 21
135.5763250137770
 31
0.000000000000000
  0
LINE
  5
4C
100
AcDbEntity
  8
1
  6
CONTINUOUS
 62
7
100
AcDbLine
 10
140.5755155907079
 20
135.7429896731482
 30
0.000000000000000
 11
139.8634229240725
 21
135.7429896731482
 31
0.000000000000000
  0
ARC
  5
4D
100
AcDbEntity
  8
1
  6
CONTINUOUS
 62
7
100
AcDbCircle
 10
140.5755155907079
 20
135.5763250137770
 30
0.000000000000000
 40
0.1666646593710234
100
AcDbArc
 50
270.0000000000000
 51
450.0000000000000
  0
LINE
  5
4E
100
AcDbEntity
  8
1
  6
CONTINUOUS
 62
7
100
AcDbLine
 10
139.8035049173232
 20
135.4096603544061
 30
0.000000000000000
 11
140.5755155907080
 21
135.4096603544061
 31
0.000000000000000
  0
LINE
  5
4F
100
AcDbEntity
  8
1
  6
CONTINUOUS
 62
7
100
AcDbLine
 10
139.6464692949624
 20
135.0763310356641
 30
0.000000000000000
 11
141.7333862342352
 21
135.0763310356641
 31
0.000000000000000
  0
LINE
  5
50
100
AcDbEntity
  8
1
  6
CONTINUOUS
 62
7
100
AcDbLine
 10
140.7421802500790
 20
134.7430017169221
 30
0.000000000000000
 11
140.7421802500790
 21
134.5763370575510
 31
0.000000000000000
  0
LINE
  5
51
100
AcDbEntity
  8
1
  6
CONTINUOUS
 62
7
100
AcDbLine
 10
141.6832323418807
 20
134.7430017169221
 30
0.000000000000000
 11
140.7421802500790
 21
134.7430017169221
 31
0.000000000000000
  0
ARC
  5
52
100
AcDbEntity
  8
1
  6
CONTINUOUS
 62
7
100
AcDbCircle
 10
141.6832323418807
 20
134.5763370575510
 30
0.000000000000000
 40
0.1666646593710226
100
AcDbArc
 50
10.10418271612528
 51
89.99999999999999
  0
ARC
  5
53
100
AcDbEntity
  8
1
  6
CONTINUOUS
 62
7
100
AcDbCircle
 10
137.9422139726431
 20
133.9096784200669
 30
0.000000000000000
 40
3.966618893030337
100
AcDbArc
 50
7.792924335422743
 51
10.10418271612528
  0
ARC
  5
54
100
AcDbEntity
  8
1
  6
CONTINUOUS
 62
7
100
AcDbCircle
 10
141.8391744368138
 20
134.4430053300541
 30
0.000000000000000
 40
0.03333293187420450
100
AcDbArc
 50
270.0000000000000
 51
367.7929243354228
  0
LINE
  5
55
100
AcDbEntity
  8
1
  6
CONTINUOUS
 62
7
100
AcDbLine
 10
139.6451860633385
 20
134.4096723981800
 30
0.000000000000000
 11
141.8391744368140
 21
134.4096723981800
 31
0.000000000000000
  0
ARC
  5
56
100
AcDbEntity
  8
1
  6
CONTINUOUS
 62
7
100
AcDbCircle
 10
139.6451860633385
 20
134.4430053300541
 30
0.000000000000000
 40
0.03333293187420450
100
AcDbArc
 50
172.2070756645772
 51
270.0000000000000
  0
ARC
  5
57
100
AcDbEntity
  8
1
  6
CONTINUOUS
 62
7
100
AcDbCircle
 10
143.5421465275094
 20
133.9096784200669
 30
0.000000000000000
 40
3.966618893030337
100
AcDbArc
 50
169.8958172838745
 51
172.2070756645772
  0
ARC
  5
58
100
AcDbEntity
  8
1
  6
CONTINUOUS
 62
7
100
AcDbCircle
 10
139.8011281582718
 20
134.5763370575510
 30
0.000000000000000
 40
0.1666646593710226
100
AcDbArc
 50
89.99999999999999
 51
169.8958172838745
  0
LINE
  5
59
100
AcDbEntity
  8
1
  6
CONTINUOUS
 62
7
100
AcDbLine
 10
140.3421850675886
 20
134.7430017169221
 30
0.000000000000000
 11
139.8011281582718
 21
134.7430017169221
 31
0.000000000000000
  0
LINE
  5
5A
100
AcDbEntity
  8
1
  6
CONTINUOUS
 62
7
100
AcDbLine
 10
139.5790305395698
 20
134.0763430794380
 30
0.000000000000000
 11
141.9053299605825
 21
134.0763430794380
 31
0.000000000000000
  0
LINE
  5
5B
100
AcDbEntity
  8
1
  6
CONTINUOUS
 62
7
100
AcDbLine
 10
140.7421802500790
 20
133.7430137606959
 30
0.000000000000000
 11
140.7421802500790
 21
133.4096844419539
 31
0.000000000000000
  0
LINE
  5
5C
100
AcDbEntity
  8
1
  6
CONTINUOUS
 62
7
100
AcDbLine
 10
139.5790305395698
 20
133.7430137606959
 30
0.000000000000000
 11
141.9053299605825
 21
133.7430137606959
 31
0.000000000000000
  0
LINE
  5
5D
100
AcDbEntity
  8
1
  6
CONTINUOUS
 62
7
100
AcDbLine
 10
139.6071660365290
 20
133.4096844419539
 30
0.000000000000000
 11
141.8771944636233
 21
133.4096844419539
 31
0.000000000000000
  0
LINE
  5
5E
100
AcDbEntity
  8
1
  6
CONTINUOUS
 62
7
100
AcDbLine
 10
141.7788329833649
 20
133.0763551232118
 30
0.000000000000000
 11
141.1421754325693
 21
133.0763551232118
 31
0.000000000000000
  0
ARC
  5
5F
100
AcDbEntity
  8
1
  6
CONTINUOUS
 62
7
100
AcDbCircle
 10
141.7788329833649
 20
133.0430221913376
 30
0.000000000000000
 40
0.03333293187420450
100
AcDbArc
 50
347.2710561268771
 51
450.0000000000000
  0
ARC
  5
60
100
AcDbEntity
  8
1
  6
CONTINUOUS
 62
7
100
AcDbCircle
 10
137.9422139726431
 20
133.9096784200669
 30
0.000000000000000
 40
3.966618893030337
100
AcDbArc
 50
344.7937121239407
 51
347.2710561268771
  0
ARC
  5
61
100
AcDbEntity
  8
1
  6
CONTINUOUS
 62
7
100
AcDbCircle
 10
137.9422139726431
 20
133.9096784200669
 30
0.000000000000000
 40
3.966618893030337
100
AcDbArc
 50
344.7424767095449
 51
344.7937121239407
  0
ARC
  5
62
100
AcDbEntity
  8
1
  6
CONTINUOUS
 62
7
100
AcDbCircle
 10
141.6082303754034
 20
132.9096904638408
 30
0.000000000000000
 40
0.1666646593710226
100
AcDbArc
 50
270.0000000000000
 51
344.7424767095418
  0
LINE
  5
63
100
AcDbEntity
  8
1
  6
CONTINUOUS
 62
7
100
AcDbLine
 10
139.8761301247489
 20
132.7430258044697
 30
0.000000000000000
 11
141.6082303754034
 21
132.7430258044697
 31
0.000000000000000
  0
ARC
  5
64
100
AcDbEntity
  8
1
  6
CONTINUOUS
 62
7
100
AcDbCircle
 10
139.8761301247489
 20
132.9096904638408
 30
0.000000000000000
 40
0.1666646593710226
100
AcDbArc
 50
195.2575232904550
 51
270.0000000000000
  0
ARC
  5
65
100
AcDbEntity
  8
1
  6
CONTINUOUS
 62
7
100
AcDbCircle
 10
143.5421465275094
 20
133.9096784200669
 30
0.000000000000000
 40
3.966618893030337
100
AcDbArc
 50
193.2681189705571
 51
195.2575232904550
  0
ARC
  5
66
100
AcDbEntity
  8
1
  6
CONTINUOUS
 62
7
100
AcDbCircle
 10
143.5421465275094
 20
133.9096784200669
 30
0.000000000000000
 40
3.966618893030337
100
AcDbArc
 50
192.7289438731229
 51
193.2681189705571
  0
ARC
  5
67
100
AcDbEntity
  8
1
  6
CONTINUOUS
 62
7
100
AcDbCircle
 10
139.7055275167874
 20
133.0430221913376
 30
0.000000000000000
 40
0.03333293187420450
100
AcDbArc
 50
89.99999999999999
 51
192.7289438731229
  0
LINE
  5
68
100
AcDbEntity
  8
1
  6
CONTINUOUS
 62
7
100
AcDbLine
 10
140.3421850675886
 20
133.0763551232118
 30
0.000000000000000
 11
139.7055275167875
 21
133.0763551232118
 31
0.000000000000000
  0
ARC
  5
69
100
AcDbEntity
  8
1
  6
CONTINUOUS
 62
7
100
AcDbCircle
 10
141.3571724364577
 20
132.2430318263567
 30
0.000000000000000
 40
0.1666646593710226
100
AcDbArc
 50
270.0000000000000
 51
333.9856340003638
  0
ARC
  5
6A
100
AcDbEntity
  8
1
  6
CONTINUOUS
 62
7
100
AcDbCircle
 10
137.9422139726431
 20
133.9096784200669
 30
0.000000000000000
 40
3.966618893030337
100
AcDbArc
 50
333.9856340003638
 51
337.0560464434622
  0
ARC
  5
6B
100
AcDbEntity
  8
1
  6
CONTINUOUS
 62
7
100
AcDbCircle
 10
141.5643244034937
 20
132.3763635538535
 30
0.000000000000000
 40
0.03333293187420450
100
AcDbArc
 50
337.0560464434622
 51
450.0000000000000
  0
LINE
  5
6C
100
AcDbEntity
  8
1
  6
CONTINUOUS
 62
7
100
AcDbLine
 10
139.9200360966588
 20
132.4096964857276
 30
0.000000000000000
 11
141.5643244034937
 21
132.4096964857276
 31
0.000000000000000
  0
ARC
  5
6D
100
AcDbEntity
  8
1
  6
CONTINUOUS
 62
7
100
AcDbCircle
 10
139.9200360966588
 20
132.3763635538535
 30
0.000000000000000
 40
0.03333293187420450
100
AcDbArc
 50
89.99999999999999
 51
202.9439535565377
  0
ARC
  5
6E
100
AcDbEntity
  8
1
  6
CONTINUOUS
 62
7
100
AcDbCircle
 10
143.5421465275094
 20
133.9096784200669
 30
0.000000000000000
 40
3.966618893030337
100
AcDbArc
 50
202.9439535565377
 51
206.0143659996360
  0
ARC
  5
6F
100
AcDbEntity
  8
1
  6
CONTINUOUS
 62
7
100
AcDbCircle
 10
140.1271880636947
 20
132.2430318263567
 30
0.000000000000000
 40
0.1666646593710226
100
AcDbArc
 50
206.0143659996360
 51
270.0000000000000
  0
LINE
  5
70
100
AcDbEntity
  8
1
  6
CONTINUOUS
 62
7
100
AcDbLine
 10
141.3571724364577
 20
132.0763671669856
 30
0.000000000000000
 11
140.1271880636947
 21
132.0763671669856
 31
0.000000000000000
  0
LINE
  5
71
100
AcDbEntity
  8
1
  6
CONTINUOUS
 62
7
100
AcDbLine
 10
139.8279543870224
 20
131.7430378482437
 30
0.000000000000000
 11
141.2648235005705
 21
131.7430378482437
 31
0.000000000000000
  0
ARC
  5
72
100
AcDbEntity
  8
1
  6
CONTINUOUS
 62
7
100
AcDbCircle
 10
140.7421802500790
 20
135.9096543325192
 30
0.000000000000000
 40
0.8590595467416478
100
AcDbArc
 50
35.53767779194785
 51
45.69883927961591
  0
ARC
  5
73
100
AcDbEntity
  8
1
  6
CONTINUOUS
 62
7
100
AcDbCircle
 10
137.9422139726431
 20
133.9096784200669
 30
0.000000000000000
 40
4.299948211772383
100
AcDbArc
 50
324.4623222080522
 51
395.5376777919478
  0
ARC
  5
74
100
AcDbEntity
  8
1
  6
CONTINUOUS
 62
7
100
AcDbCircle
 10
140.7421802500790
 20
131.9097025076146
 30
0.000000000000000
 40
0.8590595467416470
100
AcDbArc
 50
270.0000000000000
 51
324.4623222080522
  0
ARC
  5
75
100
AcDbEntity
  8
1
  6
CONTINUOUS
 62
7
100
AcDbCircle
 10
140.7421802500790
 20
135.9096543325192
 30
0.000000000000000
 40
0.8590595467416478
100
AcDbArc
 50
62.24965455462838
 51
144.4623222079996
  0
ARC
  5
76
100
AcDbEntity
  8
1
  6
CONTINUOUS
 62
7
100
AcDbCircle
 10
143.5421465275094
 20
133.9096784200669
 30
0.000000000000000
 40
4.299948211772383
100
AcDbArc
 50
144.4623222079996
 51
215.5376777920003
  0
ARC
  5
77
100
AcDbEntity
  8
1
  6
CONTINUOUS
 62
7
100
AcDbCircle
 10
140.7421802500790
 20
131.9097025076146
 30
0.000000000000000
 40
0.8590595467416470
100
AcDbArc
 50
215.5376777920003
 51
256.5374393917326
  0
LINE
  5
78
100
AcDbEntity
  8
4
  6
CENTER
 62
1
100
AcDbLine
 10
110.7421621844160
 20
39.03278763399180
 30
0.000000000000000
 11
110.7421621844160
 21
43.53278763399242
 31
0.000000000000000
  0
LINE
  5
79
100
AcDbEntity
  8
5
  6
PHANTOM
 62
6
100
AcDbLine
 10
125.7421621844157
 20
42.03278763399179
 30
0.000000000000000
 11
104.7421621844166
 21
42.03278763399167
 31
0.000000000000000
  0
LINE
  5
7A
100
AcDbEntity
  8
5
  6
PHANTOM
 62
6
100
AcDbLine
 10
125.7421621844157
 20
40.53278763399180
 30
0.000000000000000
 11
104.7421621844166
 21
40.53278763399169
 31
0.000000000000000
  0
LINE
  5
7B
100
AcDbEntity
  8
5
  6
PHANTOM
 62
6
100
AcDbLine
 10
104.7421621844166
 20
42.03278763399167
 30
0.000000000000000
 11
104.7421621844166
 21
40.53278763399169
 31
0.000000000000000
  0
LINE
  5
7C
100
AcDbEntity
  8
4
  6
CENTER
 62
1
100
AcDbLine
 10
140.7421621844160
 20
37.03278763399179
 30
0.000000000000000
 11
140.7421621844160
 21
32.53278763399133
 31
0.000000000000000
  0
LINE
  5
7D
100
AcDbEntity
  8
4
  6
CENTER
 62
1
100
AcDbLine
 10
110.7421621844160
 20
37.03278763399179
 30
0.000000000000000
 11
110.7421621844160
 21
32.53278763399133
 31
0.000000000000000
  0
LINE
  5
7E
100
AcDbEntity
  8
4
  6
CENTER
 62
1
100
AcDbLine
 10
39.74216218441540
 20
143.9096784200669
 30
0.000000000000000
 11
35.24216218441540
 21
143.9096784200669
 31
0.000000000000000
  0
LINE
  5
7F
100
AcDbEntity
  8
4
  6
CENTER
 62
1
100
AcDbLine
 10
39.74216218441529
 20
103.9096784200669
 30
0.000000000000000
 11
35.24216218441529
 21
103.9096784200669
 31
0.000000000000000
  0
LINE
  5
80
100
AcDbEntity
  8
4
  6
CENTER
 62
1
100
AcDbLine
 10
33.74216218441528
 20
123.9096784200912
 30
0.000000000000000
 11
47.74216218441529
 21
123.9096784200912
 31
0.000000000000000
  0
LINE
  5
81
100
AcDbEntity
  8
4
  6
CENTER
 62
1
100
AcDbLine
 10
125.7421621844160
 20
43.53278763399242
 30
0.000000000000000
 11
125.7421621844160
 21
32.53278763399133
 31
0.000000000000000
  0
LINE
  5
82
100
AcDbEntity
  8
4
  6
CENTER
 62
1
100
AcDbLine
 10
131.2421621844166
 20
38.03278763399180
 30
0.000000000000000
 11
120.2421621844154
 21
38.03278763399180
 31
0.000000000000000
  0
LINE
  5
83
100
AcDbEntity
  8
1
  6
CONTINUOUS
 62
7
100
AcDbLine
 10
125.7421621844163
 20
34.03278763399181
 30
0.000000000000000
 11
146.7421621844153
 21
34.03278763399191
 31
0.000000000000000
  0
LINE
  5
84
100
AcDbEntity
  8
1
  6
CONTINUOUS
 62
7
100
AcDbLine
 10
125.7421621844163
 20
35.53278763399180
 30
0.000000000000000
 11
146.7421621844153
 21
35.53278763399190
 31
0.000000000000000
  0
ARC
  5
85
100
AcDbEntity
  8
1
  6
CONTINUOUS
 62
7
100
AcDbCircle
 10
125.7421621844160
 20
38.03278763399180
 30
0.000000000000000
 40
4.000000000000591
100
AcDbArc
 50
321.3178125465108
 51
630.0000000000000
  0
LINE
  5
86
100
AcDbEntity
  8
1
  6
CONTINUOUS
 62
7
100
AcDbLine
 10
104.7421621844155
 20
35.53278763399180
 30
0.000000000000000
 11
122.6196631852127
 21
35.53278763399180
 31
0.000000000000000
  0
LINE
  5
87
100
AcDbEntity
  8
1
  6
CONTINUOUS
 62
7
100
AcDbLine
 10
104.7421621844155
 20
34.03278763399181
 30
0.000000000000000
 11
125.7421621844121
 21
34.03278763399181
 31
0.000000000000000
  0
LINE
  5
88
100
AcDbEntity
  8
4
  6
CENTER
 62
1
100
AcDbLine
 10
40.74216218441528
 20
158.4096784200668
 30
0.000000000000000
 11
40.74216218441528
 21
89.40967842006712
 31
0.000000000000000
  0
LINE
  5
89
100
AcDbEntity
  8
1
  6
CONTINUOUS
 62
7
100
AcDbLine
 10
40.24216218441528
 20
139.9096784200912
 30
0.000000000000000
 11
44.74216218441529
 21
139.9096784200912
 31
0.000000000000000
  0
LINE
  5
8A
100
AcDbEntity
  8
1
  6
CONTINUOUS
 62
7
100
AcDbLine
 10
40.24216218441528
 20
139.9096784200912
 30
0.000000000000000
 11
40.24216218441528
 21
129.2096784200913
 31
0.000000000000000
  0
LINE
  5
8B
100
AcDbEntity
  8
1
  6
CONTINUOUS
 62
7
100
AcDbLine
 10
40.24216218441522
 20
118.6096784200912
 30
0.000000000000000
 11
40.24216218441528
 21
107.9096784200913
 31
0.000000000000000
  0
LINE
  5
8C
100
AcDbEntity
  8
1
  6
CONTINUOUS
 62
7
100
AcDbLine
 10
40.24216218441528
 20
107.9096784200913
 30
0.000000000000000
 11
44.74216218441529
 21
107.9096784200913
 31
0.000000000000000
  0
LINE
  5
8D
100
AcDbEntity
  8
1
  6
CONTINUOUS
 62
7
100
AcDbLine
 10
36.74216218441529
 20
92.90967842009131
 30
0.000000000000000
 11
44.74216218441529
 21
92.90967842009138
 31
0.000000000000000
  0
LINE
  5
8E
100
AcDbEntity
  8
1
  6
CONTINUOUS
 62
7
100
AcDbLine
 10
36.74216218441529
 20
154.9096784200913
 30
0.000000000000000
 11
44.74216218441529
 21
154.9096784200911
 31
0.000000000000000
  0
LINE
  5
8F
100
AcDbEntity
  8
1
  6
CONTINUOUS
 62
7
100
AcDbLine
 10
36.74216218441529
 20
154.9096784200911
 30
0.000000000000000
 11
36.74216218441529
 21
92.90967842009131
 31
0.000000000000000
  0
LINE
  5
90
100
AcDbEntity
  8
1
  6
CONTINUOUS
 62
7
100
AcDbLine
 10
38.24216218441529
 20
154.9096784200911
 30
0.000000000000000
 11
38.24216218441529
 21
92.90967842009131
 31
0.000000000000000
  0
LINE
  5
91
100
AcDbEntity
  8
4
  6
CENTER
 62
1
100
AcDbLine
 10
101.7421621844155
 20
123.9096784200669
 30
0.000000000000000
 11
149.7421621844154
 21
123.9096784200669
 31
0.000000000000000
  0
LINE
  5
92
100
AcDbEntity
  8
4
  6
CENTER
 62
1
100
AcDbLine
 10
137.0921621844155
 20
103.9096784200669
 30
0.000000000000000
 11
144.3921621844153
 21
103.9096784200669
 31
0.000000000000000
  0
LINE
  5
93
100
AcDbEntity
  8
4
  6
CENTER
 62
1
100
AcDbLine
 10
137.0921621844155
 20
143.9096784200669
 30
0.000000000000000
 11
144.3921621844153
 21
143.9096784200669
 31
0.000000000000000
  0
LINE
  5
94
100
AcDbEntity
  8
4
  6
CENTER
 62
1
100
AcDbLine
 10
114.3921621844153
 20
143.9096784200669
 30
0.000000000000000
 11
107.0921621844154
 21
143.9096784200669
 31
0.000000000000000
  0
LINE
  5
95
100
AcDbEntity
  8
4
  6
CENTER
 62
1
100
AcDbLine
 10
114.3921621844153
 20
103.9096784200669
 30
0.000000000000000
 11
107.0921621844154
 21
103.9096784200669
 31
0.000000000000000
  0
LINE
  5
96
100
AcDbEntity
  8
1
  6
CONTINUOUS
 62
7
100
AcDbLine
 10
121.7421621844159
 20
142.5096784200670
 30
0.000000000000000
 11
130.7421621844154
 21
142.5096784200670
 31
0.000000000000000
  0
LINE
  5
97
100
AcDbEntity
  8
1
  6
CONTINUOUS
 62
7
100
AcDbLine
 10
121.7421621844159
 20
105.3096784200669
 30
0.000000000000000
 11
130.7421621844154
 21
105.3096784200669
 31
0.000000000000000
  0
LINE
  5
98
100
AcDbEntity
  8
1
  6
CONTINUOUS
 62
7
100
AcDbLine
 10
120.7421621844154
 20
107.9096784200670
 30
0.000000000000000
 11
129.7421621844160
 21
107.9096784200670
 31
0.000000000000000
  0
LINE
  5
99
100
AcDbEntity
  8
1
  6
CONTINUOUS
 62
7
100
AcDbLine
 10
120.7421621844154
 20
139.9096784200670
 30
0.000000000000000
 11
129.7421621844160
 21
139.9096784200670
 31
0.000000000000000
  0
LINE
  5
9A
100
AcDbEntity
  8
1
  6
CONTINUOUS
 62
7
100
AcDbLine
 10
121.7421621844162
 20
154.9096784200668
 30
0.000000000000000
 11
143.7421621844155
 21
154.9096784200668
 31
0.000000000000000
  0
LINE
  5
9B
100
AcDbEntity
  8
1
  6
CONTINUOUS
 62
7
100
AcDbLine
 10
121.7421621844159
 20
92.90967842006712
 30
0.000000000000000
 11
143.7421621844151
 21
92.90967842006712
 31
0.000000000000000
  0
LINE
  5
9C
100
AcDbEntity
  8
4
  6
CENTER
 62
1
100
AcDbLine
 10
125.7421621844160
 20
158.4096784200668
 30
0.000000000000000
 11
125.7421621844160
 21
89.40967842006712
 31
0.000000000000000
  0
ARC
  5
9D
100
AcDbEntity
  8
1
  6
CONTINUOUS
 62
7
100
AcDbCircle
 10
125.7421621844127
 20
38.03278763399180
 30
0.000000000000000
 40
3.900000000000022
100
AcDbArc
 50
320.1316584499902
 51
329.9999999999994
  0
CIRCLE
  5
9E
100
AcDbEntity
  8
1
  6
CONTINUOUS
 62
7
100
AcDbCircle
 10
125.7421621844165
 20
38.03278763399180
 30
0.000000000000000
 40
1.000000000000000
  0
CIRCLE
  5
9F
100
AcDbEntity
  8
1
  6
CONTINUOUS
 62
7
100
AcDbCircle
 10
125.7421621844165
 20
38.03278763399180
 30
0.000000000000000
 40
2.200000000000001
  0
CIRCLE
  5
A0
100
AcDbEntity
  8
1
  6
CONTINUOUS
 62
7
100
AcDbCircle
 10
125.7421621844164
 20
38.03278763399180
 30
0.000000000000000
 40
2.500000000000000
  0
LINE
  5
A1
100
AcDbEntity
  8
1
  6
CONTINUOUS
 62
7
100
AcDbLine
 10
129.5962641506660
 20
36.96232136467261
 30
0.000000000000000
 11
128.2264756677147
 21
37.75316911403734
 31
0.000000000000000
  0
LINE
  5
A2
100
AcDbEntity
  8
1
  6
CONTINUOUS
 62
7
100
AcDbLine
 10
127.9072256938773
 20
36.78278763399189
 30
0.000000000000000
 11
129.2062637995538
 21
36.03278763399189
 31
0.000000000000000
  0
LINE
  5
A3
100
AcDbEntity
  8
1
  6
CONTINUOUS
 62
7
100
AcDbLine
 10
146.7421621844155
 20
34.03278763399191
 30
0.000000000000000
 11
146.7421621844155
 21
35.53278763399190
 31
0.000000000000000
  0
LINE
  5
A4
100
AcDbEntity
  8
1
  6
CONTINUOUS
 62
7
100
AcDbLine
 10
119.7421621844162
 20
34.03278763399181
 30
0.000000000000000
 11
119.7421621844162
 21
35.53278763399180
 31
0.000000000000000
  0
LINE
  5
A5
100
AcDbEntity
  8
1
  6
CONTINUOUS
 62
7
100
AcDbLine
 10
104.7421621844155
 20
35.53278763399180
 30
0.000000000000000
 11
104.7421621844155
 21
34.03278763399181
 31
0.000000000000000
  0
LINE
  5
A6
100
AcDbEntity
  8
1
  6
CONTINUOUS
 62
7
100
AcDbLine
 10
129.6421621844161
 20
105.3096784200669
 30
0.000000000000000
 11
129.6421621844161
 21
107.9096784200670
 31
0.000000000000000
  0
LINE
  5
A7
100
AcDbEntity
  8
1
  6
CONTINUOUS
 62
7
100
AcDbLine
 10
121.8421621844161
 20
105.3096784200669
 30
0.000000000000000
 11
121.8421621844161
 21
107.9096784200670
 31
0.000000000000000
  0
LINE
  5
A8
100
AcDbEntity
  8
1
  6
CONTINUOUS
 62
7
100
AcDbLine
 10
121.8421621844161
 20
142.5096784200670
 30
0.000000000000000
 11
121.8421621844161
 21
139.9096784200670
 31
0.000000000000000
  0
LINE
  5
A9
100
AcDbEntity
  8
1
  6
CONTINUOUS
 62
7
100
AcDbLine
 10
129.6421621844160
 20
142.5096784200670
 30
0.000000000000000
 11
129.6421621844160
 21
139.9096784200670
 31
0.000000000000000
  0
LINE
  5
AA
100
AcDbEntity
  8
1
  6
CONTINUOUS
 62
7
100
AcDbLine
 10
128.2421621844160
 20
92.70967842006706
 30
0.000000000000000
 11
128.2421621844160
 21
92.90967842006701
 31
0.000000000000000
  0
LINE
  5
AB
100
AcDbEntity
  8
1
  6
CONTINUOUS
 62
7
100
AcDbLine
 10
123.2421621844160
 20
92.70967842006706
 30
0.000000000000000
 11
123.2421621844160
 21
92.90967842006701
 31
0.000000000000000
  0
LINE
  5
AC
100
AcDbEntity
  8
1
  6
CONTINUOUS
 62
7
100
AcDbLine
 10
127.9421621844160
 20
92.40967842006708
 30
0.000000000000000
 11
128.2421621844159
 21
92.70967842006704
 31
0.000000000000000
  0
LINE
  5
AD
100
AcDbEntity
  8
1
  6
CONTINUOUS
 62
7
100
AcDbLine
 10
123.5421621844160
 20
92.40967842006711
 30
0.000000000000000
 11
123.2421621844159
 21
92.70967842006706
 31
0.000000000000000
  0
LINE
  5
AE
100
AcDbEntity
  8
1
  6
CONTINUOUS
 62
7
100
AcDbLine
 10
127.9421621844161
 20
92.40967842006710
 30
0.000000000000000
 11
123.5421621844160
 21
92.40967842006710
 31
0.000000000000000
  0
LINE
  5
AF
100
AcDbEntity
  8
1
  6
CONTINUOUS
 62
7
100
AcDbLine
 10
123.2421621844160
 20
92.70967842006706
 30
0.000000000000000
 11
128.2421621844160
 21
92.70967842006706
 31
0.000000000000000
  0
LINE
  5
B0
100
AcDbEntity
  8
1
  6
CONTINUOUS
 62
7
100
AcDbLine
 10
123.2421621844160
 20
155.1096784200668
 30
0.000000000000000
 11
123.2421621844160
 21
154.9096784200670
 31
0.000000000000000
  0
LINE
  5
B1
100
AcDbEntity
  8
1
  6
CONTINUOUS
 62
7
100
AcDbLine
 10
128.2421621844161
 20
155.1096784200669
 30
0.000000000000000
 11
128.2421621844161
 21
154.9096784200669
 31
0.000000000000000
  0
LINE
  5
B2
100
AcDbEntity
  8
1
  6
CONTINUOUS
 62
7
100
AcDbLine
 10
123.5421621844160
 20
155.4096784200668
 30
0.000000000000000
 11
123.2421621844160
 21
155.1096784200669
 31
0.000000000000000
  0
LINE
  5
B3
100
AcDbEntity
  8
1
  6
CONTINUOUS
 62
7
100
AcDbLine
 10
127.9421621844162
 20
155.4096784200668
 30
0.000000000000000
 11
128.2421621844161
 21
155.1096784200669
 31
0.000000000000000
  0
LINE
  5
B4
100
AcDbEntity
  8
1
  6
CONTINUOUS
 62
7
100
AcDbLine
 10
123.5421621844160
 20
155.4096784200668
 30
0.000000000000000
 11
127.9421621844162
 21
155.4096784200668
 31
0.000000000000000
  0
LINE
  5
B5
100
AcDbEntity
  8
1
  6
CONTINUOUS
 62
7
100
AcDbLine
 10
128.2421621844161
 20
155.1096784200669
 30
0.000000000000000
 11
123.2421621844160
 21
155.1096784200669
 31
0.000000000000000
  0
LINE
  5
B6
100
AcDbEntity
  8
1
  6
CONTINUOUS
 62
7
100
AcDbLine
 10
131.7421621844154
 20
141.5096784200669
 30
0.000000000000000
 11
131.7421621844153
 21
106.3096784200669
 31
0.000000000000000
  0
LINE
  5
B7
100
AcDbEntity
  8
1
  6
CONTINUOUS
 62
7
100
AcDbLine
 10
129.7421621844160
 20
92.90967842006712
 30
0.000000000000000
 11
129.7421621844160
 21
105.3096784200669
 31
0.000000000000000
  0
LINE
  5
B8
100
AcDbEntity
  8
1
  6
CONTINUOUS
 62
7
100
AcDbLine
 10
121.7421621844159
 20
92.90967842006712
 30
0.000000000000000
 11
121.7421621844159
 21
105.3096784200669
 31
0.000000000000000
  0
LINE
  5
B9
100
AcDbEntity
  8
1
  6
CONTINUOUS
 62
7
100
AcDbLine
 10
129.7421621844162
 20
142.5096784200670
 30
0.000000000000000
 11
129.7421621844162
 21
154.9096784200668
 31
0.000000000000000
  0
LINE
  5
BA
100
AcDbEntity
  8
1
  6
CONTINUOUS
 62
7
100
AcDbLine
 10
121.7421621844162
 20
142.5096784200670
 30
0.000000000000000
 11
121.7421621844162
 21
154.9096784200668
 31
0.000000000000000
  0
LINE
  5
BB
100
AcDbEntity
  8
1
  6
CONTINUOUS
 62
7
100
AcDbLine
 10
146.7421621844155
 20
151.9096784200668
 30
0.000000000000000
 11
146.7421621844152
 21
95.90967842006710
 31
0.000000000000000
  0
ARC
  5
BC
100
AcDbEntity
  8
1
  6
CONTINUOUS
 62
7
100
AcDbCircle
 10
143.7421621844151
 20
95.90967842006708
 30
0.000000000000000
 40
3.000000000000011
100
AcDbArc
 50
270.0000000000000
 51
360.0000000000000
  0
ARC
  5
BD
100
AcDbEntity
  8
1
  6
CONTINUOUS
 62
7
100
AcDbCircle
 10
130.7421621844154
 20
106.3096784200669
 30
0.000000000000000
 40
1.000000000000001
100
AcDbArc
 50
270.0000000000000
 51
360.0000000000000
  0
ARC
  5
BE
100
AcDbEntity
  8
1
  6
CONTINUOUS
 62
7
100
AcDbCircle
 10
130.7421621844154
 20
141.5096784200669
 30
0.000000000000000
 40
0.9999999999999984
100
AcDbArc
 50
0.000000000000000
 51
89.99999999999999
  0
ARC
  5
BF
100
AcDbEntity
  8
1
  6
CONTINUOUS
 62
7
100
AcDbCircle
 10
143.7421621844155
 20
151.9096784200668
 30
0.000000000000000
 40
3.000000000000013
100
AcDbArc
 50
0.000000000000000
 51
89.99999999999999
  0
ARC
  5
C0
100
AcDbEntity
  8
1
  6
CONTINUOUS
 62
7
100
AcDbCircle
 10
140.7421621844154
 20
103.5596784200669
 30
0.000000000000000
 40
2.149999999999999
100
AcDbArc
 50
180.0000000000000
 51
360.0000000000000
  0
LINE
  5
C1
100
AcDbEntity
  8
1
  6
CONTINUOUS
 62
7
100
AcDbLine
 10
142.8921621844153
 20
104.2596784200669
 30
0.000000000000000
 11
142.8921621844153
 21
103.5596784200669
 31
0.000000000000000
  0
ARC
  5
C2
100
AcDbEntity
  8
1
  6
CONTINUOUS
 62
7
100
AcDbCircle
 10
140.7421621844154
 20
104.2596784200669
 30
0.000000000000000
 40
2.150000000000002
100
AcDbArc
 50
0.000000000000000
 51
180.0000000000000
  0
LINE
  5
C3
100
AcDbEntity
  8
1
  6
CONTINUOUS
 62
7
100
AcDbLine
 10
138.5921621844154
 20
103.5596784200669
 30
0.000000000000000
 11
138.5921621844154
 21
104.2596784200669
 31
0.000000000000000
  0
ARC
  5
C4
100
AcDbEntity
  8
1
  6
CONTINUOUS
 62
7
100
AcDbCircle
 10
140.7421621844155
 20
143.5596784200669
 30
0.000000000000000
 40
2.149999999999999
100
AcDbArc
 50
180.0000000000000
 51
360.0000000000000
  0
LINE
  5
C5
100
AcDbEntity
  8
1
  6
CONTINUOUS
 62
7
100
AcDbLine
 10
142.8921621844154
 20
144.2596784200670
 30
0.000000000000000
 11
142.8921621844154
 21
143.5596784200669
 31
0.000000000000000
  0
ARC
  5
C6
100
AcDbEntity
  8
1
  6
CONTINUOUS
 62
7
100
AcDbCircle
 10
140.7421621844155
 20
144.2596784200669
 30
0.000000000000000
 40
2.149999999999999
100
AcDbArc
 50
0.000000000000000
 51
180.0000000000000
  0
LINE
  5
C7
100
AcDbEntity
  8
1
  6
CONTINUOUS
 62
7
100
AcDbLine
 10
138.5921621844155
 20
143.5596784200669
 30
0.000000000000000
 11
138.5921621844155
 21
144.2596784200670
 31
0.000000000000000
  0
ARC
  5
C8
100
AcDbEntity
  8
1
  6
CONTINUOUS
 62
7
100
AcDbCircle
 10
140.7421621844154
 20
124.2596784200669
 30
0.000000000000000
 40
2.150000000000002
100
AcDbArc
 50
0.000000000000000
 51
180.0000000000000
  0
LINE
  5
C9
100
AcDbEntity
  8
1
  6
CONTINUOUS
 62
7
100
AcDbLine
 10
138.5921621844154
 20
123.5596784200669
 30
0.000000000000000
 11
138.5921621844154
 21
124.2596784200670
 31
0.000000000000000
  0
ARC
  5
CA
100
AcDbEntity
  8
1
  6
CONTINUOUS
 62
7
100
AcDbCircle
 10
140.7421621844154
 20
123.5596784200669
 30
0.000000000000000
 40
2.149999999999999
100
AcDbArc
 50
180.0000000000000
 51
360.0000000000000
  0
LINE
  5
CB
100
AcDbEntity
  8
1
  6
CONTINUOUS
 62
7
100
AcDbLine
 10
142.8921621844153
 20
124.2596784200670
 30
0.000000000000000
 11
142.8921621844153
 21
123.5596784200669
 31
0.000000000000000
  0
CIRCLE
  5
CC
100
AcDbEntity
  8
1
  6
CONTINUOUS
 62
7
100
AcDbCircle
 10
110.7421621844154
 20
143.9096784200669
 30
0.000000000000000
 40
2.149999999999999
  0
CIRCLE
  5
CD
100
AcDbEntity
  8
1
  6
CONTINUOUS
 62
7
100
AcDbCircle
 10
110.7421621844154
 20
123.9096784200669
 30
0.000000000000000
 40
2.149999999999999
  0
CIRCLE
  5
CE
100
AcDbEntity
  8
1
  6
CONTINUOUS
 62
7
100
AcDbCircle
 10
110.7421621844154
 20
103.9096784200669
 30
0.000000000000000
 40
2.149999999999999
  0
LINE
  5
CF
100
AcDbEntity
  8
1
  6
CONTINUOUS
 62
7
100
AcDbLine
 10
119.7421621844152
 20
140.9096784200670
 30
0.000000000000000
 11
119.7421621844152
 21
153.9096784200669
 31
0.000000000000000
  0
LINE
  5
D0
100
AcDbEntity
  8
1
  6
CONTINUOUS
 62
7
100
AcDbLine
 10
119.7421621844154
 20
93.90967842006700
 30
0.000000000000000
 11
119.7421621844154
 21
106.9096784200670
 31
0.000000000000000
  0
LINE
  5
D1
100
AcDbEntity
  8
1
  6
CONTINUOUS
 62
7
100
AcDbLine
 10
107.7421621844153
 20
92.90967842006701
 30
0.000000000000000
 11
118.7421621844154
 21
92.90967842006701
 31
0.000000000000000
  0
LINE
  5
D2
100
AcDbEntity
  8
1
  6
CONTINUOUS
 62
7
100
AcDbLine
 10
104.7421621844151
 20
151.9096784200669
 30
0.000000000000000
 11
104.7421621844152
 21
95.90967842006701
 31
0.000000000000000
  0
LINE
  5
D3
100
AcDbEntity
  8
1
  6
CONTINUOUS
 62
7
100
AcDbLine
 10
118.7421621844154
 20
154.9096784200669
 30
0.000000000000000
 11
107.7421621844153
 21
154.9096784200669
 31
0.000000000000000
  0
ARC
  5
D4
100
AcDbEntity
  8
1
  6
CONTINUOUS
 62
7
100
AcDbCircle
 10
118.7421621844154
 20
153.9096784200669
 30
0.000000000000000
 40
1.000000000000005
100
AcDbArc
 50
0.000000000000000
 51
89.99999999999999
  0
ARC
  5
D5
100
AcDbEntity
  8
1
  6
CONTINUOUS
 62
7
100
AcDbCircle
 10
120.7421621844154
 20
140.9096784200669
 30
0.000000000000000
 40
0.9999999999999974
100
AcDbArc
 50
180.0000000000000
 51
270.0000000000000
  0
ARC
  5
D6
100
AcDbEntity
  8
1
  6
CONTINUOUS
 62
7
100
AcDbCircle
 10
120.7421621844154
 20
106.9096784200669
 30
0.000000000000000
 40
0.9999999999999984
100
AcDbArc
 50
89.99999999999999
 51
180.0000000000000
  0
ARC
  5
D7
100
AcDbEntity
  8
1
  6
CONTINUOUS
 62
7
100
AcDbCircle
 10
118.7421621844154
 20
93.90967842006695
 30
0.000000000000000
 40
1.000000000000001
100
AcDbArc
 50
270.0000000000000
 51
360.0000000000000
  0
ARC
  5
D8
100
AcDbEntity
  8
1
  6
CONTINUOUS
 62
7
100
AcDbCircle
 10
107.7421621844153
 20
95.90967842006695
 30
0.000000000000000
 40
2.999999999999993
100
AcDbArc
 50
180.0000000000000
 51
270.0000000000000
  0
ARC
  5
D9
100
AcDbEntity
  8
1
  6
CONTINUOUS
 62
7
100
AcDbCircle
 10
107.7421621844153
 20
151.9096784200669
 30
0.000000000000000
 40
2.999999999999996
100
AcDbArc
 50
89.99999999999999
 51
180.0000000000000
  0
LINE
  5
DA
100
AcDbEntity
  8
1
  6
CONTINUOUS
 62
7
100
AcDbLine
 10
121.7421621844159
 20
139.4096784200669
 30
0.000000000000000
 11
121.7421621844159
 21
108.4096784200669
 31
0.000000000000000
  0
LINE
  5
DB
100
AcDbEntity
  8
1
  6
CONTINUOUS
 62
7
100
AcDbLine
 10
129.7421621844160
 20
139.9096784200670
 30
0.000000000000000
 11
129.7421621844160
 21
107.9096784200670
 31
0.000000000000000
  0
LINE
  5
DC
100
AcDbEntity
  8
1
  6
CONTINUOUS
 62
7
100
AcDbLine
 10
44.64216218441538
 20
105.3096784200913
 30
0.000000000000000
 11
44.64216218441538
 21
107.9096784200913
 31
0.000000000000000
  0
LINE
  5
DD
100
AcDbEntity
  8
1
  6
CONTINUOUS
 62
7
100
AcDbLine
 10
38.74216218441528
 20
122.4096784200913
 30
0.000000000000000
 11
38.24216218441529
 21
122.4096784200913
 31
0.000000000000000
  0
LINE
  5
DE
100
AcDbEntity
  8
1
  6
CONTINUOUS
 62
7
100
AcDbLine
 10
38.24216218441529
 20
118.9096784200913
 30
0.000000000000000
 11
39.54216218441525
 21
118.9096784200913
 31
0.000000000000000
  0
LINE
  5
DF
100
AcDbEntity
  8
1
  6
CONTINUOUS
 62
7
100
AcDbLine
 10
44.64216218441538
 20
142.5096784200913
 30
0.000000000000000
 11
44.64216218441538
 21
139.9096784200912
 31
0.000000000000000
  0
LINE
  5
E0
100
AcDbEntity
  8
1
  6
CONTINUOUS
 62
7
100
AcDbLine
 10
38.24216218441881
 20
125.4096784200912
 30
0.000000000000000
 11
38.74216218441528
 21
125.4096784200912
 31
0.000000000000000
  0
LINE
  5
E1
100
AcDbEntity
  8
1
  6
CONTINUOUS
 62
7
100
AcDbLine
 10
39.54216218441530
 20
128.9096784200912
 30
0.000000000000000
 11
38.24216218441529
 21
128.9096784200912
 31
0.000000000000000
  0
LINE
  5
E2
100
AcDbEntity
  8
1
  6
CONTINUOUS
 62
7
100
AcDbLine
 10
43.24216218441529
 20
92.70967842009139
 30
0.000000000000000
 11
43.24216218441529
 21
92.90967842009131
 31
0.000000000000000
  0
LINE
  5
E3
100
AcDbEntity
  8
1
  6
CONTINUOUS
 62
7
100
AcDbLine
 10
38.24216218441529
 20
92.70967842009139
 30
0.000000000000000
 11
38.24216218441529
 21
92.90967842009131
 31
0.000000000000000
  0
LINE
  5
E4
100
AcDbEntity
  8
1
  6
CONTINUOUS
 62
7
100
AcDbLine
 10
42.94216218441532
 20
92.40967842009138
 30
0.000000000000000
 11
43.24216218441529
 21
92.70967842009139
 31
0.000000000000000
  0
LINE
  5
E5
100
AcDbEntity
  8
1
  6
CONTINUOUS
 62
7
100
AcDbLine
 10
38.54216218441535
 20
92.40967842009132
 30
0.000000000000000
 11
38.24216218441539
 21
92.70967842009127
 31
0.000000000000000
  0
LINE
  5
E6
100
AcDbEntity
  8
1
  6
CONTINUOUS
 62
7
100
AcDbLine
 10
42.94216218441532
 20
92.40967842009140
 30
0.000000000000000
 11
38.54216218441525
 21
92.40967842009140
 31
0.000000000000000
  0
LINE
  5
E7
100
AcDbEntity
  8
1
  6
CONTINUOUS
 62
7
100
AcDbLine
 10
38.24216218441529
 20
92.70967842009139
 30
0.000000000000000
 11
43.24216218441529
 21
92.70967842009139
 31
0.000000000000000
  0
LINE
  5
E8
100
AcDbEntity
  8
1
  6
CONTINUOUS
 62
7
100
AcDbLine
 10
38.24216218441529
 20
155.1096784200912
 30
0.000000000000000
 11
38.24216218441529
 21
154.9096784200913
 31
0.000000000000000
  0
LINE
  5
E9
100
AcDbEntity
  8
1
  6
CONTINUOUS
 62
7
100
AcDbLine
 10
43.24216218441529
 20
155.1096784200912
 30
0.000000000000000
 11
43.24216218441529
 21
154.9096784200913
 31
0.000000000000000
  0
LINE
  5
EA
100
AcDbEntity
  8
1
  6
CONTINUOUS
 62
7
100
AcDbLine
 10
38.54216218441540
 20
155.4096784200912
 30
0.000000000000000
 11
38.24216218441540
 21
155.1096784200912
 31
0.000000000000000
  0
LINE
  5
EB
100
AcDbEntity
  8
1
  6
CONTINUOUS
 62
7
100
AcDbLine
 10
42.94216218441542
 20
155.4096784200912
 30
0.000000000000000
 11
43.24216218441530
 21
155.1096784200912
 31
0.000000000000000
  0
LINE
  5
EC
100
AcDbEntity
  8
1
  6
CONTINUOUS
 62
7
100
AcDbLine
 10
38.54216218441530
 20
155.4096784200912
 30
0.000000000000000
 11
42.94216218441540
 21
155.4096784200912
 31
0.000000000000000
  0
LINE
  5
ED
100
AcDbEntity
  8
1
  6
CONTINUOUS
 62
7
100
AcDbLine
 10
43.24216218441529
 20
155.1096784200912
 30
0.000000000000000
 11
38.24216218441529
 21
155.1096784200912
 31
0.000000000000000
  0
LINE
  5
EE
100
AcDbEntity
  8
1
  6
CONTINUOUS
 62
7
100
AcDbLine
 10
38.24216218441529
 20
105.3096784200914
 30
0.000000000000000
 11
44.74216218441529
 21
105.3096784200914
 31
0.000000000000000
  0
LINE
  5
EF
100
AcDbEntity
  8
1
  6
CONTINUOUS
 62
7
100
AcDbLine
 10
44.74216218441529
 20
142.5096784200913
 30
0.000000000000000
 11
38.24216218441529
 21
142.5096784200913
 31
0.000000000000000
  0
LINE
  5
F0
100
AcDbEntity
  8
1
  6
CONTINUOUS
 62
7
100
AcDbLine
 10
44.74216218441529
 20
92.90967842009138
 30
0.000000000000000
 11
44.74216218441529
 21
105.3096784200914
 31
0.000000000000000
  0
LINE
  5
F1
100
AcDbEntity
  8
1
  6
CONTINUOUS
 62
7
100
AcDbLine
 10
44.74216218441529
 20
142.5096784200913
 30
0.000000000000000
 11
44.74216218441529
 21
154.9096784200911
 31
0.000000000000000
  0
LINE
  5
F2
100
AcDbEntity
  8
1
  6
CONTINUOUS
 62
7
100
AcDbLine
 10
39.84216218441520
 20
119.0096784200912
 30
0.000000000000000
 11
39.24216218441529
 21
119.0096784200912
 31
0.000000000000000
  0
LINE
  5
F3
100
AcDbEntity
  8
1
  6
CONTINUOUS
 62
7
100
AcDbLine
 10
38.74216218441528
 20
119.5096784200913
 30
0.000000000000000
 11
38.74216218441528
 21
128.3096784200913
 31
0.000000000000000
  0
LINE
  5
F4
100
AcDbEntity
  8
1
  6
CONTINUOUS
 62
7
100
AcDbLine
 10
39.24216218441534
 20
128.8096784200913
 30
0.000000000000000
 11
39.84216218441520
 21
128.8096784200913
 31
0.000000000000000
  0
LINE
  5
F5
100
AcDbEntity
  8
1
  6
CONTINUOUS
 62
7
100
AcDbLine
 10
44.74216218441529
 20
139.9096784200912
 30
0.000000000000000
 11
44.74216218441529
 21
107.9096784200913
 31
0.000000000000000
  0
LINE
  5
F6
100
AcDbEntity
  8
4
  6
CENTER
 62
1
100
AcDbLine
 10
131.2421621844166
 20
209.7865692061422
 30
0.000000000000000
 11
120.2421621844154
 21
209.7865692061422
 31
0.000000000000000
  0
LINE
  5
F7
100
AcDbEntity
  8
1
  6
CONTINUOUS
 62
7
100
AcDbLine
 10
125.7421621844163
 20
212.2865692061421
 30
0.000000000000000
 11
146.7421621844153
 21
212.2865692061420
 31
0.000000000000000
  0
LINE
  5
F8
100
AcDbEntity
  8
1
  6
CONTINUOUS
 62
7
100
AcDbLine
 10
125.7421621844163
 20
213.7865692061422
 30
0.000000000000000
 11
146.7421621844153
 21
213.7865692061420
 31
0.000000000000000
  0
LINE
  5
F9
100
AcDbEntity
  8
5
  6
PHANTOM
 62
6
100
AcDbLine
 10
125.7421621844157
 20
207.2865692061422
 30
0.000000000000000
 11
104.7421621844166
 21
207.2865692061423
 31
0.000000000000000
  0
LINE
  5
FA
100
AcDbEntity
  8
5
  6
PHANTOM
 62
6
100
AcDbLine
 10
125.7421621844157
 20
205.7865692061422
 30
0.000000000000000
 11
104.7421621844166
 21
205.7865692061422
 31
0.000000000000000
  0
LINE
  5
FB
100
AcDbEntity
  8
1
  6
CONTINUOUS
 62
7
100
AcDbLine
 10
104.7421621844155
 20
213.7865692061422
 30
0.000000000000000
 11
125.7421621844121
 21
213.7865692061422
 31
0.000000000000000
  0
LINE
  5
FC
100
AcDbEntity
  8
1
  6
CONTINUOUS
 62
7
100
AcDbLine
 10
104.7421621844155
 20
212.2865692061421
 30
0.000000000000000
 11
122.6196631852127
 21
212.2865692061421
 31
0.000000000000000
  0
LINE
  5
FD
100
AcDbEntity
  8
4
  6
CENTER
 62
1
100
AcDbLine
 10
110.7421621844160
 20
208.7865692061421
 30
0.000000000000000
 11
110.7421621844160
 21
204.2865692061415
 31
0.000000000000000
  0
LINE
  5
FE
100
AcDbEntity
  8
1
  6
CONTINUOUS
 62
7
100
AcDbLine
 10
104.7421621844155
 20
212.2865692061421
 30
0.000000000000000
 11
104.7421621844155
 21
213.7865692061422
 31
0.000000000000000
  0
LINE
  5
FF
100
AcDbEntity
  8
4
  6
CENTER
 62
1
100
AcDbLine
 10
110.7421621844160
 20
210.7865692061421
 30
0.000000000000000
 11
110.7421621844160
 21
215.2865692061426
 31
0.000000000000000
  0
LINE
  5
100
100
AcDbEntity
  8
5
  6
PHANTOM
 62
6
100
AcDbLine
 10
104.7421621844166
 20
205.7865692061422
 30
0.000000000000000
 11
104.7421621844166
 21
207.2865692061423
 31
0.000000000000000
  0
LINE
  5
101
100
AcDbEntity
  8
4
  6
CENTER
 62
1
100
AcDbLine
 10
125.7421621844160
 20
204.2865692061415
 30
0.000000000000000
 11
125.7421621844160
 21
215.2865692061426
 31
0.000000000000000
  0
CIRCLE
  5
102
100
AcDbEntity
  8
1
  6
CONTINUOUS
 62
7
100
AcDbCircle
 10
125.7421621844164
 20
209.7865692061422
 30
0.000000000000000
 40
2.500000000000000
  0
ARC
  5
103
100
AcDbEntity
  8
1
  6
CONTINUOUS
 62
7
100
AcDbCircle
 10
125.7421621844160
 20
209.7865692061422
 30
0.000000000000000
 40
4.000000000000591
100
AcDbArc
 50
90.00000000000006
 51
398.6821874534890
  0
LINE
  5
104
100
AcDbEntity
  8
1
  6
CONTINUOUS
 62
7
100
AcDbLine
 10
119.7421621844162
 20
213.7865692061422
 30
0.000000000000000
 11
119.7421621844162
 21
212.2865692061421
 31
0.000000000000000
  0
LINE
  5
105
100
AcDbEntity
  8
1
  6
CONTINUOUS
 62
7
100
AcDbLine
 10
127.9072256938773
 20
211.0365692061420
 30
0.000000000000000
 11
129.2062637995537
 21
211.7865692061420
 31
0.000000000000000
  0
LINE
  5
106
100
AcDbEntity
  8
1
  6
CONTINUOUS
 62
7
100
AcDbLine
 10
129.5962641506660
 20
210.8570354754613
 30
0.000000000000000
 11
128.2264756677147
 21
210.0661877260966
 31
0.000000000000000
  0
CIRCLE
  5
107
100
AcDbEntity
  8
1
  6
CONTINUOUS
 62
7
100
AcDbCircle
 10
125.7421621844165
 20
209.7865692061422
 30
0.000000000000000
 40
2.200000000000001
  0
CIRCLE
  5
108
100
AcDbEntity
  8
1
  6
CONTINUOUS
 62
7
100
AcDbCircle
 10
125.7421621844165
 20
209.7865692061422
 30
0.000000000000000
 40
1.000000000000000
  0
ARC
  5
109
100
AcDbEntity
  8
1
  6
CONTINUOUS
 62
7
100
AcDbCircle
 10
125.7421621844127
 20
209.7865692061422
 30
0.000000000000000
 40
3.900000000000022
100
AcDbArc
 50
30.00000000000054
 51
39.86834155000972
  0
LINE
  5
10A
100
AcDbEntity
  8
4
  6
CENTER
 62
1
100
AcDbLine
 10
140.7421621844160
 20
210.7865692061421
 30
0.000000000000000
 11
140.7421621844160
 21
215.2865692061426
 31
0.000000000000000
  0
LINE
  5
10B
100
AcDbEntity
  8
1
  6
CONTINUOUS
 62
7
100
AcDbLine
 10
146.7421621844155
 20
213.7865692061420
 30
0.000000000000000
 11
146.7421621844155
 21
212.2865692061420
 31
0.000000000000000
  0
LINE
  5
10C
100
AcDbEntity
  8
1
  6
CONTINUOUS
 62
7
100
AcDbLine
 10
206.7421621844168
 20
139.9096784200912
 30
0.000000000000000
 11
206.7421621844168
 21
107.9096784200913
 31
0.000000000000000
  0
LINE
  5
10D
100
AcDbEntity
  8
1
  6
CONTINUOUS
 62
7
100
AcDbLine
 10
213.2421621844168
 20
154.9096784200911
 30
0.000000000000000
 11
213.2421621844168
 21
92.90967842009131
 31
0.000000000000000
  0
LINE
  5
10E
100
AcDbEntity
  8
1
  6
CONTINUOUS
 62
7
100
AcDbLine
 10
214.7421621844169
 20
154.9096784200911
 30
0.000000000000000
 11
214.7421621844169
 21
92.90967842009131
 31
0.000000000000000
  0
LINE
  5
10F
100
AcDbEntity
  8
4
  6
CENTER
 62
1
100
AcDbLine
 10
210.7421621844169
 20
158.4096784200668
 30
0.000000000000000
 11
210.7421621844169
 21
89.40967842006712
 31
0.000000000000000
  0
LINE
  5
110
100
AcDbEntity
  8
1
  6
CONTINUOUS
 62
7
100
AcDbLine
 10
214.7421621844169
 20
92.90967842009131
 30
0.000000000000000
 11
213.2421621844168
 21
92.90967842009135
 31
0.000000000000000
  0
LINE
  5
111
100
AcDbEntity
  8
4
  6
CENTER
 62
1
100
AcDbLine
 10
217.7421621844168
 20
123.9096784200912
 30
0.000000000000000
 11
203.7421621844168
 21
123.9096784200912
 31
0.000000000000000
  0
LINE
  5
112
100
AcDbEntity
  8
4
  6
CENTER
 62
1
100
AcDbLine
 10
211.7421621844168
 20
103.9096784200669
 30
0.000000000000000
 11
216.2421621844168
 21
103.9096784200669
 31
0.000000000000000
  0
LINE
  5
113
100
AcDbEntity
  8
1
  6
CONTINUOUS
 62
7
100
AcDbLine
 10
206.7421621844168
 20
92.90967842009138
 30
0.000000000000000
 11
206.7421621844168
 21
105.3096784200914
 31
0.000000000000000
  0
LINE
  5
114
100
AcDbEntity
  8
1
  6
CONTINUOUS
 62
7
100
AcDbLine
 10
213.2421621844168
 20
92.70967842009139
 30
0.000000000000000
 11
208.2421621844168
 21
92.70967842009139
 31
0.000000000000000
  0
LINE
  5
115
100
AcDbEntity
  8
1
  6
CONTINUOUS
 62
7
100
AcDbLine
 10
208.5421621844168
 20
92.40967842009140
 30
0.000000000000000
 11
212.9421621844169
 21
92.40967842009140
 31
0.000000000000000
  0
LINE
  5
116
100
AcDbEntity
  8
1
  6
CONTINUOUS
 62
7
100
AcDbLine
 10
212.9421621844168
 20
92.40967842009134
 30
0.000000000000000
 11
213.2421621844167
 21
92.70967842009129
 31
0.000000000000000
  0
LINE
  5
117
100
AcDbEntity
  8
1
  6
CONTINUOUS
 62
7
100
AcDbLine
 10
208.5421621844168
 20
92.40967842009138
 30
0.000000000000000
 11
208.2421621844168
 21
92.70967842009139
 31
0.000000000000000
  0
LINE
  5
118
100
AcDbEntity
  8
1
  6
CONTINUOUS
 62
7
100
AcDbLine
 10
213.2421621844168
 20
92.70967842009139
 30
0.000000000000000
 11
213.2421621844168
 21
92.90967842009131
 31
0.000000000000000
  0
LINE
  5
119
100
AcDbEntity
  8
1
  6
CONTINUOUS
 62
7
100
AcDbLine
 10
208.2421621844168
 20
92.70967842009139
 30
0.000000000000000
 11
208.2421621844168
 21
92.90967842009131
 31
0.000000000000000
  0
LINE
  5
11A
100
AcDbEntity
  8
1
  6
CONTINUOUS
 62
7
100
AcDbLine
 10
213.2421621844168
 20
105.3096784200914
 30
0.000000000000000
 11
206.7421621844168
 21
105.3096784200914
 31
0.000000000000000
  0
LINE
  5
11B
100
AcDbEntity
  8
1
  6
CONTINUOUS
 62
7
100
AcDbLine
 10
206.8421621844168
 20
105.3096784200913
 30
0.000000000000000
 11
206.8421621844168
 21
107.9096784200913
 31
0.000000000000000
  0
LINE
  5
11C
100
AcDbEntity
  8
1
  6
CONTINUOUS
 62
7
100
AcDbLine
 10
213.2421621844168
 20
107.9096784200912
 30
0.000000000000000
 11
206.7421621844168
 21
107.9096784200913
 31
0.000000000000000
  0
LINE
  5
11D
100
AcDbEntity
  8
1
  6
CONTINUOUS
 62
7
100
AcDbLine
 10
214.7421621844169
 20
154.9096784200913
 30
0.000000000000000
 11
213.2421621844168
 21
154.9096784200911
 31
0.000000000000000
  0
LINE
  5
11E
100
AcDbEntity
  8
4
  6
CENTER
 62
1
100
AcDbLine
 10
211.7421621844167
 20
143.9096784200669
 30
0.000000000000000
 11
216.2421621844167
 21
143.9096784200669
 31
0.000000000000000
  0
LINE
  5
11F
100
AcDbEntity
  8
1
  6
CONTINUOUS
 62
7
100
AcDbLine
 10
206.7421621844168
 20
142.5096784200913
 30
0.000000000000000
 11
206.7421621844168
 21
154.9096784200911
 31
0.000000000000000
  0
LINE
  5
120
100
AcDbEntity
  8
1
  6
CONTINUOUS
 62
7
100
AcDbLine
 10
206.7421621844168
 20
142.5096784200913
 30
0.000000000000000
 11
213.2421621844168
 21
142.5096784200913
 31
0.000000000000000
  0
LINE
  5
121
100
AcDbEntity
  8
1
  6
CONTINUOUS
 62
7
100
AcDbLine
 10
206.8421621844168
 20
142.5096784200913
 30
0.000000000000000
 11
206.8421621844168
 21
139.9096784200912
 31
0.000000000000000
  0
LINE
  5
122
100
AcDbEntity
  8
1
  6
CONTINUOUS
 62
7
100
AcDbLine
 10
213.2421621844168
 20
139.9096784200912
 30
0.000000000000000
 11
206.7421621844168
 21
139.9096784200912
 31
0.000000000000000
  0
LINE
  5
123
100
AcDbEntity
  8
1
  6
CONTINUOUS
 62
7
100
AcDbLine
 10
208.2421621844168
 20
155.1096784200912
 30
0.000000000000000
 11
213.2421621844168
 21
155.1096784200912
 31
0.000000000000000
  0
LINE
  5
124
100
AcDbEntity
  8
1
  6
CONTINUOUS
 62
7
100
AcDbLine
 10
212.9421621844168
 20
155.4096784200912
 30
0.000000000000000
 11
208.5421621844167
 21
155.4096784200912
 31
0.000000000000000
  0
LINE
  5
125
100
AcDbEntity
  8
1
  6
CONTINUOUS
 62
7
100
AcDbLine
 10
208.5421621844167
 20
155.4096784200912
 30
0.000000000000000
 11
208.2421621844168
 21
155.1096784200912
 31
0.000000000000000
  0
LINE
  5
126
100
AcDbEntity
  8
1
  6
CONTINUOUS
 62
7
100
AcDbLine
 10
212.9421621844167
 20
155.4096784200912
 30
0.000000000000000
 11
213.2421621844167
 21
155.1096784200912
 31
0.000000000000000
  0
LINE
  5
127
100
AcDbEntity
  8
1
  6
CONTINUOUS
 62
7
100
AcDbLine
 10
208.2421621844168
 20
155.1096784200912
 30
0.000000000000000
 11
208.2421621844168
 21
154.9096784200913
 31
0.000000000000000
  0
LINE
  5
128
100
AcDbEntity
  8
1
  6
CONTINUOUS
 62
7
100
AcDbLine
 10
213.2421621844168
 20
155.1096784200912
 30
0.000000000000000
 11
213.2421621844168
 21
154.9096784200913
 31
0.000000000000000
  0
LINE
  5
129
100
AcDbEntity
  8
1
  6
CONTINUOUS
 62
7
100
AcDbLine
 10
291.7421621844176
 20
139.9096784200670
 30
0.000000000000000
 11
291.7421621844176
 21
107.9096784200670
 31
0.000000000000000
  0
LINE
  5
12A
100
AcDbEntity
  8
1
  6
CONTINUOUS
 62
7
100
AcDbLine
 10
316.7421621844185
 20
151.9096784200669
 30
0.000000000000000
 11
316.7421621844184
 21
95.90967842006701
 31
0.000000000000000
  0
LINE
  5
12B
100
AcDbEntity
  8
1
  6
CONTINUOUS
 62
7
100
AcDbLine
 10
274.7421621844182
 20
151.9096784200668
 30
0.000000000000000
 11
274.7421621844184
 21
95.90967842006710
 31
0.000000000000000
  0
LINE
  5
12C
100
AcDbEntity
  8
1
  6
CONTINUOUS
 62
7
100
AcDbLine
 10
289.7421621844183
 20
141.5096784200669
 30
0.000000000000000
 11
289.7421621844184
 21
106.3096784200669
 31
0.000000000000000
  0
LINE
  5
12D
100
AcDbEntity
  8
4
  6
CENTER
 62
1
100
AcDbLine
 10
295.7421621844176
 20
158.4096784200668
 30
0.000000000000000
 11
295.7421621844176
 21
89.40967842006712
 31
0.000000000000000
  0
LINE
  5
12E
100
AcDbEntity
  8
4
  6
CENTER
 62
1
100
AcDbLine
 10
280.7421621844182
 20
147.9096784200669
 30
0.000000000000000
 11
280.7421621844182
 21
99.90967842006702
 31
0.000000000000000
  0
LINE
  5
12F
100
AcDbEntity
  8
4
  6
CENTER
 62
1
100
AcDbLine
 10
310.7421621844183
 20
147.5596784200669
 30
0.000000000000000
 11
310.7421621844183
 21
100.2596784200669
 31
0.000000000000000
  0
ARC
  5
130
100
AcDbEntity
  8
1
  6
CONTINUOUS
 62
7
100
AcDbCircle
 10
313.7421621844183
 20
95.90967842006695
 30
0.000000000000000
 40
2.999999999999993
100
AcDbArc
 50
270.0000000000000
 51
360.0000000000000
  0
ARC
  5
131
100
AcDbEntity
  8
1
  6
CONTINUOUS
 62
7
100
AcDbCircle
 10
302.7421621844183
 20
93.90967842006695
 30
0.000000000000000
 40
1.000000000000001
100
AcDbArc
 50
180.0000000000000
 51
270.0000000000000
  0
ARC
  5
132
100
AcDbEntity
  8
1
  6
CONTINUOUS
 62
7
100
AcDbCircle
 10
277.7421621844184
 20
95.90967842006708
 30
0.000000000000000
 40
3.000000000000011
100
AcDbArc
 50
180.0000000000000
 51
270.0000000000000
  0
LINE
  5
133
100
AcDbEntity
  8
1
  6
CONTINUOUS
 62
7
100
AcDbLine
 10
299.7421621844178
 20
92.90967842006712
 30
0.000000000000000
 11
299.7421621844178
 21
105.3096784200669
 31
0.000000000000000
  0
LINE
  5
134
100
AcDbEntity
  8
1
  6
CONTINUOUS
 62
7
100
AcDbLine
 10
299.7421621844178
 20
92.90967842006712
 30
0.000000000000000
 11
277.7421621844184
 21
92.90967842006712
 31
0.000000000000000
  0
LINE
  5
135
100
AcDbEntity
  8
1
  6
CONTINUOUS
 62
7
100
AcDbLine
 10
313.7421621844183
 20
92.90967842006701
 30
0.000000000000000
 11
302.7421621844183
 21
92.90967842006701
 31
0.000000000000000
  0
LINE
  5
136
100
AcDbEntity
  8
1
  6
CONTINUOUS
 62
7
100
AcDbLine
 10
298.2421621844176
 20
92.70967842006706
 30
0.000000000000000
 11
293.2421621844176
 21
92.70967842006706
 31
0.000000000000000
  0
LINE
  5
137
100
AcDbEntity
  8
1
  6
CONTINUOUS
 62
7
100
AcDbLine
 10
293.5421621844176
 20
92.40967842006710
 30
0.000000000000000
 11
297.9421621844176
 21
92.40967842006710
 31
0.000000000000000
  0
LINE
  5
138
100
AcDbEntity
  8
1
  6
CONTINUOUS
 62
7
100
AcDbLine
 10
297.9421621844177
 20
92.40967842006710
 30
0.000000000000000
 11
298.2421621844177
 21
92.70967842006705
 31
0.000000000000000
  0
LINE
  5
139
100
AcDbEntity
  8
1
  6
CONTINUOUS
 62
7
100
AcDbLine
 10
293.5421621844176
 20
92.40967842006705
 30
0.000000000000000
 11
293.2421621844177
 21
92.70967842006702
 31
0.000000000000000
  0
LINE
  5
13A
100
AcDbEntity
  8
1
  6
CONTINUOUS
 62
7
100
AcDbLine
 10
298.2421621844176
 20
92.70967842006706
 30
0.000000000000000
 11
298.2421621844176
 21
92.90967842006701
 31
0.000000000000000
  0
LINE
  5
13B
100
AcDbEntity
  8
1
  6
CONTINUOUS
 62
7
100
AcDbLine
 10
293.2421621844176
 20
92.70967842006706
 30
0.000000000000000
 11
293.2421621844176
 21
92.90967842006701
 31
0.000000000000000
  0
LINE
  5
13C
100
AcDbEntity
  8
1
  6
CONTINUOUS
 62
7
100
AcDbLine
 10
299.7421621844178
 20
105.3096784200669
 30
0.000000000000000
 11
290.7421621844183
 21
105.3096784200669
 31
0.000000000000000
  0
LINE
  5
13D
100
AcDbEntity
  8
4
  6
CENTER
 62
1
100
AcDbLine
 10
319.7421621844182
 20
123.9096784200669
 30
0.000000000000000
 11
271.7421621844183
 21
123.9096784200669
 31
0.000000000000000
  0
CIRCLE
  5
13E
100
AcDbEntity
  8
1
  6
CONTINUOUS
 62
7
100
AcDbCircle
 10
310.7421621844183
 20
103.9096784200669
 30
0.000000000000000
 40
2.149999999999999
  0
LINE
  5
13F
100
AcDbEntity
  8
4
  6
CENTER
 62
1
100
AcDbLine
 10
307.0921621844183
 20
103.9096784200669
 30
0.000000000000000
 11
314.3921621844183
 21
103.9096784200669
 31
0.000000000000000
  0
LINE
  5
140
100
AcDbEntity
  8
1
  6
CONTINUOUS
 62
7
100
AcDbLine
 10
301.7421621844183
 20
93.90967842006700
 30
0.000000000000000
 11
301.7421621844183
 21
106.9096784200670
 31
0.000000000000000
  0
LINE
  5
141
100
AcDbEntity
  8
1
  6
CONTINUOUS
 62
7
100
AcDbLine
 10
300.7421621844183
 20
107.9096784200670
 30
0.000000000000000
 11
291.7421621844176
 21
107.9096784200670
 31
0.000000000000000
  0
ARC
  5
142
100
AcDbEntity
  8
1
  6
CONTINUOUS
 62
7
100
AcDbCircle
 10
300.7421621844183
 20
106.9096784200669
 30
0.000000000000000
 40
0.9999999999999984
100
AcDbArc
 50
6.999999999999999e-15
 51
90.00000000000006
  0
LINE
  5
143
100
AcDbEntity
  8
1
  6
CONTINUOUS
 62
7
100
AcDbLine
 10
299.6421621844176
 20
105.3096784200669
 30
0.000000000000000
 11
299.6421621844176
 21
107.9096784200670
 31
0.000000000000000
  0
LINE
  5
144
100
AcDbEntity
  8
1
  6
CONTINUOUS
 62
7
100
AcDbLine
 10
291.8421621844176
 20
105.3096784200669
 30
0.000000000000000
 11
291.8421621844176
 21
107.9096784200670
 31
0.000000000000000
  0
CIRCLE
  5
145
100
AcDbEntity
  8
1
  6
CONTINUOUS
 62
7
100
AcDbCircle
 10
310.7421621844183
 20
123.9096784200669
 30
0.000000000000000
 40
2.149999999999999
  0
ARC
  5
146
100
AcDbEntity
  8
1
  6
CONTINUOUS
 62
7
100
AcDbCircle
 10
280.7421621844183
 20
104.2596784200669
 30
0.000000000000000
 40
2.150000000000002
100
AcDbArc
 50
6.999999999999999e-15
 51
180.0000000000000
  0
LINE
  5
147
100
AcDbEntity
  8
4
  6
CENTER
 62
1
100
AcDbLine
 10
284.3921621844182
 20
103.9096784200669
 30
0.000000000000000
 11
277.0921621844184
 21
103.9096784200669
 31
0.000000000000000
  0
LINE
  5
148
100
AcDbEntity
  8
1
  6
CONTINUOUS
 62
7
100
AcDbLine
 10
282.8921621844183
 20
103.5596784200669
 30
0.000000000000000
 11
282.8921621844183
 21
104.2596784200669
 31
0.000000000000000
  0
LINE
  5
149
100
AcDbEntity
  8
1
  6
CONTINUOUS
 62
7
100
AcDbLine
 10
278.5921621844183
 20
104.2596784200669
 30
0.000000000000000
 11
278.5921621844183
 21
103.5596784200669
 31
0.000000000000000
  0
ARC
  5
14A
100
AcDbEntity
  8
1
  6
CONTINUOUS
 62
7
100
AcDbCircle
 10
280.7421621844183
 20
103.5596784200669
 30
0.000000000000000
 40
2.149999999999999
100
AcDbArc
 50
180.0000000000000
 51
360.0000000000000
  0
ARC
  5
14B
100
AcDbEntity
  8
1
  6
CONTINUOUS
 62
7
100
AcDbCircle
 10
290.7421621844183
 20
106.3096784200669
 30
0.000000000000000
 40
1.000000000000001
100
AcDbArc
 50
180.0000000000000
 51
270.0000000000000
  0
ARC
  5
14C
100
AcDbEntity
  8
1
  6
CONTINUOUS
 62
7
100
AcDbCircle
 10
280.7421621844183
 20
124.2596784200669
 30
0.000000000000000
 40
2.150000000000002
100
AcDbArc
 50
6.999999999999999e-15
 51
180.0000000000000
  0
LINE
  5
14D
100
AcDbEntity
  8
1
  6
CONTINUOUS
 62
7
100
AcDbLine
 10
278.5921621844183
 20
124.2596784200670
 30
0.000000000000000
 11
278.5921621844183
 21
123.5596784200669
 31
0.000000000000000
  0
ARC
  5
14E
100
AcDbEntity
  8
1
  6
CONTINUOUS
 62
7
100
AcDbCircle
 10
280.7421621844183
 20
123.5596784200669
 30
0.000000000000000
 40
2.149999999999999
100
AcDbArc
 50
180.0000000000000
 51
360.0000000000000
  0
LINE
  5
14F
100
AcDbEntity
  8
1
  6
CONTINUOUS
 62
7
100
AcDbLine
 10
282.8921621844183
 20
123.5596784200669
 30
0.000000000000000
 11
282.8921621844183
 21
124.2596784200670
 31
0.000000000000000
  0
LINE
  5
150
100
AcDbEntity
  8
1
  6
CONTINUOUS
 62
7
100
AcDbLine
 10
299.7421621844175
 20
154.9096784200668
 30
0.000000000000000
 11
277.7421621844182
 21
154.9096784200668
 31
0.000000000000000
  0
LINE
  5
151
100
AcDbEntity
  8
1
  6
CONTINUOUS
 62
7
100
AcDbLine
 10
299.7421621844178
 20
142.5096784200670
 30
0.000000000000000
 11
290.7421621844183
 21
142.5096784200670
 31
0.000000000000000
  0
LINE
  5
152
100
AcDbEntity
  8
1
  6
CONTINUOUS
 62
7
100
AcDbLine
 10
302.7421621844183
 20
154.9096784200669
 30
0.000000000000000
 11
313.7421621844183
 21
154.9096784200669
 31
0.000000000000000
  0
LINE
  5
153
100
AcDbEntity
  8
4
  6
CENTER
 62
1
100
AcDbLine
 10
307.0921621844183
 20
143.9096784200669
 30
0.000000000000000
 11
314.3921621844183
 21
143.9096784200669
 31
0.000000000000000
  0
CIRCLE
  5
154
100
AcDbEntity
  8
1
  6
CONTINUOUS
 62
7
100
AcDbCircle
 10
310.7421621844183
 20
143.9096784200669
 30
0.000000000000000
 40
2.149999999999999
  0
ARC
  5
155
100
AcDbEntity
  8
1
  6
CONTINUOUS
 62
7
100
AcDbCircle
 10
313.7421621844183
 20
151.9096784200669
 30
0.000000000000000
 40
2.999999999999996
100
AcDbArc
 50
6.999999999999999e-15
 51
90.00000000000006
  0
LINE
  5
156
100
AcDbEntity
  8
1
  6
CONTINUOUS
 62
7
100
AcDbLine
 10
301.7421621844184
 20
140.9096784200670
 30
0.000000000000000
 11
301.7421621844184
 21
153.9096784200669
 31
0.000000000000000
  0
LINE
  5
157
100
AcDbEntity
  8
1
  6
CONTINUOUS
 62
7
100
AcDbLine
 10
299.7421621844175
 20
142.5096784200670
 30
0.000000000000000
 11
299.7421621844175
 21
154.9096784200668
 31
0.000000000000000
  0
LINE
  5
158
100
AcDbEntity
  8
1
  6
CONTINUOUS
 62
7
100
AcDbLine
 10
300.7421621844183
 20
139.9096784200670
 30
0.000000000000000
 11
291.7421621844176
 21
139.9096784200670
 31
0.000000000000000
  0
ARC
  5
159
100
AcDbEntity
  8
1
  6
CONTINUOUS
 62
7
100
AcDbCircle
 10
300.7421621844183
 20
140.9096784200669
 30
0.000000000000000
 40
0.9999999999999974
100
AcDbArc
 50
270.0000000000000
 51
360.0000000000000
  0
LINE
  5
15A
100
AcDbEntity
  8
1
  6
CONTINUOUS
 62
7
100
AcDbLine
 10
299.6421621844176
 20
142.5096784200670
 30
0.000000000000000
 11
299.6421621844176
 21
139.9096784200670
 31
0.000000000000000
  0
LINE
  5
15B
100
AcDbEntity
  8
1
  6
CONTINUOUS
 62
7
100
AcDbLine
 10
291.8421621844176
 20
142.5096784200670
 30
0.000000000000000
 11
291.8421621844176
 21
139.9096784200670
 31
0.000000000000000
  0
ARC
  5
15C
100
AcDbEntity
  8
1
  6
CONTINUOUS
 62
7
100
AcDbCircle
 10
302.7421621844183
 20
153.9096784200669
 30
0.000000000000000
 40
1.000000000000005
100
AcDbArc
 50
90.00000000000006
 51
180.0000000000000
  0
LINE
  5
15D
100
AcDbEntity
  8
1
  6
CONTINUOUS
 62
7
100
AcDbLine
 10
293.2421621844175
 20
155.1096784200669
 30
0.000000000000000
 11
298.2421621844176
 21
155.1096784200669
 31
0.000000000000000
  0
LINE
  5
15E
100
AcDbEntity
  8
1
  6
CONTINUOUS
 62
7
100
AcDbLine
 10
297.9421621844176
 20
155.4096784200668
 30
0.000000000000000
 11
293.5421621844175
 21
155.4096784200668
 31
0.000000000000000
  0
LINE
  5
15F
100
AcDbEntity
  8
1
  6
CONTINUOUS
 62
7
100
AcDbLine
 10
293.5421621844175
 20
155.4096784200668
 30
0.000000000000000
 11
293.2421621844175
 21
155.1096784200669
 31
0.000000000000000
  0
LINE
  5
160
100
AcDbEntity
  8
1
  6
CONTINUOUS
 62
7
100
AcDbLine
 10
297.9421621844177
 20
155.4096784200668
 30
0.000000000000000
 11
298.2421621844176
 21
155.1096784200669
 31
0.000000000000000
  0
LINE
  5
161
100
AcDbEntity
  8
1
  6
CONTINUOUS
 62
7
100
AcDbLine
 10
293.2421621844175
 20
155.1096784200669
 30
0.000000000000000
 11
293.2421621844175
 21
154.9096784200669
 31
0.000000000000000
  0
LINE
  5
162
100
AcDbEntity
  8
1
  6
CONTINUOUS
 62
7
100
AcDbLine
 10
298.2421621844176
 20
155.1096784200668
 30
0.000000000000000
 11
298.2421621844176
 21
154.9096784200670
 31
0.000000000000000
  0
ARC
  5
163
100
AcDbEntity
  8
1
  6
CONTINUOUS
 62
7
100
AcDbCircle
 10
277.7421621844182
 20
151.9096784200668
 30
0.000000000000000
 40
3.000000000000013
100
AcDbArc
 50
90.00000000000006
 51
180.0000000000000
  0
LINE
  5
164
100
AcDbEntity
  8
4
  6
CENTER
 62
1
100
AcDbLine
 10
284.3921621844182
 20
143.9096784200669
 30
0.000000000000000
 11
277.0921621844184
 21
143.9096784200669
 31
0.000000000000000
  0
ARC
  5
165
100
AcDbEntity
  8
1
  6
CONTINUOUS
 62
7
100
AcDbCircle
 10
290.7421621844183
 20
141.5096784200669
 30
0.000000000000000
 40
0.9999999999999984
100
AcDbArc
 50
90.00000000000006
 51
180.0000000000000
  0
LINE
  5
166
100
AcDbEntity
  8
1
  6
CONTINUOUS
 62
7
100
AcDbLine
 10
282.8921621844182
 20
143.5596784200669
 30
0.000000000000000
 11
282.8921621844182
 21
144.2596784200670
 31
0.000000000000000
  0
ARC
  5
167
100
AcDbEntity
  8
1
  6
CONTINUOUS
 62
7
100
AcDbCircle
 10
280.7421621844182
 20
144.2596784200669
 30
0.000000000000000
 40
2.149999999999999
100
AcDbArc
 50
6.999999999999999e-15
 51
180.0000000000000
  0
LINE
  5
168
100
AcDbEntity
  8
1
  6
CONTINUOUS
 62
7
100
AcDbLine
 10
278.5921621844182
 20
144.2596784200670
 30
0.000000000000000
 11
278.5921621844182
 21
143.5596784200669
 31
0.000000000000000
  0
ARC
  5
169
100
AcDbEntity
  8
1
  6
CONTINUOUS
 62
7
100
AcDbCircle
 10
280.7421621844182
 20
143.5596784200669
 30
0.000000000000000
 40
2.149999999999999
100
AcDbArc
 50
180.0000000000000
 51
360.0000000000000
  0
LINE
  5
16A
100
AcDbEntity
  8
1
  6
CONTINUOUS
 62
7
100
AcDbLine
 10
212.7421621844168
 20
150.7096784200911
 30
0.000000000000000
 11
213.2421621844168
 21
150.7096784200911
 31
0.000000000000000
  0
LINE
  5
16B
100
AcDbEntity
  8
1
  6
CONTINUOUS
 62
7
100
AcDbLine
 10
212.9421621844168
 20
150.4096784200912
 30
0.000000000000000
 11
213.2421621844168
 21
150.7096784200911
 31
0.000000000000000
  0
LINE
  5
16C
100
AcDbEntity
  8
1
  6
CONTINUOUS
 62
7
100
AcDbLine
 10
212.7421621844167
 20
150.4096784200912
 30
0.000000000000000
 11
212.9421621844168
 21
150.4096784200911
 31
0.000000000000000
  0
LINE
  5
16D
100
AcDbEntity
  8
1
  6
CONTINUOUS
 62
7
100
AcDbLine
 10
212.7421621844167
 20
153.9096784200913
 30
0.000000000000000
 11
211.8225918167693
 21
154.9096784200913
 31
0.000000000000000
  0
LINE
  5
16E
100
AcDbEntity
  8
1
  6
CONTINUOUS
 62
7
100
AcDbLine
 10
212.7421621844167
 20
153.9096784200912
 30
0.000000000000000
 11
212.7421621844167
 21
143.5096784200918
 31
0.000000000000000
  0
LINE
  5
16F
100
AcDbEntity
  8
1
  6
CONTINUOUS
 62
7
100
AcDbLine
 10
211.8225918167899
 20
142.5096784200915
 30
0.000000000000000
 11
212.7421621844167
 21
143.5096784200918
 31
0.000000000000000
  0
LINE
  5
170
100
AcDbEntity
  8
1
  6
CONTINUOUS
 62
7
100
AcDbLine
 10
211.8225918167694
 20
154.9096784200911
 30
0.000000000000000
 11
206.7421621844168
 21
154.9096784200911
 31
0.000000000000000
  0
LINE
  5
171
100
AcDbEntity
  8
1
  6
CONTINUOUS
 62
7
100
AcDbLine
 10
212.7421621844167
 20
97.40967842009132
 30
0.000000000000000
 11
212.9421621844168
 21
97.40967842009137
 31
0.000000000000000
  0
LINE
  5
172
100
AcDbEntity
  8
1
  6
CONTINUOUS
 62
7
100
AcDbLine
 10
212.9421621844168
 20
97.40967842009132
 30
0.000000000000000
 11
213.2421621844168
 21
97.10967842009134
 31
0.000000000000000
  0
LINE
  5
173
100
AcDbEntity
  8
1
  6
CONTINUOUS
 62
7
100
AcDbLine
 10
212.7421621844168
 20
97.10967842009134
 30
0.000000000000000
 11
213.2421621844168
 21
97.10967842009134
 31
0.000000000000000
  0
LINE
  5
174
100
AcDbEntity
  8
1
  6
CONTINUOUS
 62
7
100
AcDbLine
 10
212.7421621844168
 20
93.90967842009130
 30
0.000000000000000
 11
211.8225918167693
 21
92.90967842009115
 31
0.000000000000000
  0
LINE
  5
175
100
AcDbEntity
  8
1
  6
CONTINUOUS
 62
7
100
AcDbLine
 10
212.7421621844167
 20
93.90967842009128
 30
0.000000000000000
 11
212.7421621844167
 21
104.3096784200907
 31
0.000000000000000
  0
LINE
  5
176
100
AcDbEntity
  8
1
  6
CONTINUOUS
 62
7
100
AcDbLine
 10
211.8225918167899
 20
105.3096784200910
 30
0.000000000000000
 11
212.7421621844167
 21
104.3096784200907
 31
0.000000000000000
  0
LINE
  5
177
100
AcDbEntity
  8
1
  6
CONTINUOUS
 62
7
100
AcDbLine
 10
211.8225918167696
 20
92.90967842009135
 30
0.000000000000000
 11
206.7421621844168
 21
92.90967842009138
 31
0.000000000000000
  0
ARC
  5
178
100
AcDbEntity
  8
1
  6
CONTINUOUS
 62
7
100
AcDbCircle
 10
125.5865357421366
 20
108.4076942270338
 30
0.000000000000000
 40
3.844374069770541
100
AcDbArc
 50
179.9704279839775
 51
187.4432458176091
  0
ARC
  5
179
100
AcDbEntity
  8
1
  6
CONTINUOUS
 62
7
100
AcDbCircle
 10
125.5865357421366
 20
139.4116626131000
 30
0.000000000000000
 40
3.844374069770541
100
AcDbArc
 50
172.5567541823908
 51
180.0295720160223
  0
LINE
  5
17A
100
AcDbEntity
  8
1
  6
CONTINUOUS
 62
7
100
AcDbLine
 10
40.24216218441529
 20
108.9096784200913
 30
0.000000000000000
 11
41.25019600778854
 21
107.9096784200913
 31
0.000000000000000
  0
LINE
  5
17B
100
AcDbEntity
  8
1
  6
CONTINUOUS
 62
7
100
AcDbLine
 10
40.24216218441531
 20
138.9096784200912
 30
0.000000000000000
 11
41.25019600778855
 21
139.9096784200912
 31
0.000000000000000
  0
ARC
  5
17C
100
AcDbEntity
  8
1
  6
CONTINUOUS
 62
7
100
AcDbCircle
 10
39.24216218441529
 20
128.3096784200913
 30
0.000000000000000
 40
0.5000000000000000
100
AcDbArc
 50
89.99999999999729
 51
180.0000000000000
  0
ARC
  5
17D
100
AcDbEntity
  8
1
  6
CONTINUOUS
 62
7
100
AcDbCircle
 10
39.24216218441529
 20
119.5096784200913
 30
0.000000000000000
 40
0.5000000000000000
100
AcDbArc
 50
179.9999999999998
 51
270.0000000000000
  0
ARC
  5
17E
100
AcDbEntity
  8
1
  6
CONTINUOUS
 62
7
100
AcDbCircle
 10
39.84216218441520
 20
118.6096784200912
 30
0.000000000000000
 40
0.4000000000000000
100
AcDbArc
 50
359.9999999999998
 51
450.0000000000000
  0
ARC
  5
17F
100
AcDbEntity
  8
1
  6
CONTINUOUS
 62
7
100
AcDbCircle
 10
39.84216218441526
 20
129.2096784200913
 30
0.000000000000000
 40
0.4000000000000000
100
AcDbArc
 50
269.9999999999945
 51
360.0000000000000
  0
ARC
  5
180
100
AcDbEntity
  8
1
  6
CONTINUOUS
 62
7
100
AcDbCircle
 10
39.54216218441530
 20
129.6096784200912
 30
0.000000000000000
 40
0.7000000000000000
100
AcDbArc
 50
270.0000000000000
 51
359.9999999999998
  0
ARC
  5
181
100
AcDbEntity
  8
1
  6
CONTINUOUS
 62
7
100
AcDbCircle
 10
39.54216218441525
 20
118.2096784200913
 30
0.000000000000000
 40
0.7000000000000000
100
AcDbArc
 50
1.527000000000000e-13
 51
90.00000000000000
  0
ENDSEC
  0
SECTION
  2
OBJECTS
  0
DICTIONARY
  5
1AB
100
AcDbDictionary
  3
ACAD_GROUP
350
1AC
  3
ACAD_LAYOUT
350
1AD
  3
ACAD_MLINESTYLE
350
1AE
  0
DICTIONARY
  5
1AC
102
{ACAD_REACTORS
330
1AB
102
}
330
1AB
100
AcDbDictionary
  0
DICTIONARY
  5
1AD
102
{ACAD_REACTORS
330
1AB
102
}
330
1AB
100
AcDbDictionary
  3
Model
350
1AF
  3
ﾚｲｱｳﾄ1
350
1B0
  3
ﾚｲｱｳﾄ2
350
1B1
  0
DICTIONARY
  5
1AE
102
{ACAD_REACTORS
330
1AB
102
}
330
1AB
100
AcDbDictionary
  3
STANDARD
350
1B2
  0
LAYOUT
  5
1AF
102
{ACAD_REACTORS
330
1AD
102
}
330
1AD
100
AcDbPlotSettings
 70
11952
  4
A3
 44
297.000000
 45
420.000000
 73
  1
 72
  1
100
AcDbLayout
  1
Model
 71
0
330
1A2
  0
LAYOUT
  5
1B0
102
{ACAD_REACTORS
330
1AD
102
}
330
1AD
100
AcDbPlotSettings
100
AcDbLayout
  1
ﾚｲｱｳﾄ1
 71
1
330
1A3
  0
LAYOUT
  5
1B1
102
{ACAD_REACTORS
330
1AD
102
}
330
1AD
100
AcDbPlotSettings
100
AcDbLayout
  1
ﾚｲｱｳﾄ2
 71
2
330
1A4
  0
MLINESTYLE
  5
1B2
102
{ACAD_REACTORS
330
1AE
102
}
330
1AE
100
AcDbMlineStyle
  2
STANDARD
 70
     0
  3

 62
   256
 51
90.00
 52
90.00
 71
     2
 49
0.50
 62
   256
  6
BYLAYER
 49
-0.50
 62
   256
  6
BYLAYER
  0
ENDSEC
  0
EOF
