  0
SECTION
  2
HEADER
  9
$ACADVER
  1
AC1027
  9
$DWGCODEPAGE
  3
ANSI_932
  9
$LTSCALE
 40
20.0
  9
$FILLMODE
 70
     1
  9
$CLAYER
  8
0
  9
$PDMODE
 70
     0
  9
$SPLFRAME
 70
     0
  9
$SPLINETYPE
 70
     6
  9
$SPLINESEGS
 70
     8
  9
$DIMASZ
 40
2.000000
  9
$DIMEXE
 40
1.500000
  9
$DIMEXO
 40
0.800000
  9
$DIMTAD
 70
     1
  9
$DIMTIH
 70
     0
  9
$DIMTOH
 70
     0
  9
$DIMTVP
 40
0.500000
  9
$DIMTXT
 40
3.100000
  9
$EXTMIN
 10
0.000000
 20
0.000000
 30
0.000000
  9
$EXTMAX
 10
297.000000
 20
420.000000
 30
0.000000
  9
$MEASUREMENT
 70
  1
  9
$LIMMIN
 10
0.000000
 20
0.000000
  9
$LIMMAX
 10
297.000000
 20
420.000000
  9
$HANDSEED
  5
1B5
  9
$LWDISPLAY
290
     0
  9
$DIMBLK
  1
_OPEN
  9
$DIMDEC
 70
     2
  9
$DIMADEC
 70
     2
  9
$DIMAUNIT
 70
     0
  9
$DIMZIN
 70
     8
  9
$DIMAZIN
 70
     2
  9
$DIMTOFL
 70
     1
  0
ENDSEC
  0
SECTION
  2
CLASSES
  0
ENDSEC
  0
SECTION
  2
TABLES
  0
TABLE
  2
VPORT
  5
184
100
AcDbSymbolTable
 70
     1
  0
VPORT
  5
185
100
AcDbSymbolTableRecord
100
AcDbViewportTableRecord
  2
*ACTIVE
 70
     0
 12
132.523697
 22
94.578427
 40
153.156852
 41
1.599977
  0
ENDTAB
  0
TABLE
  2
LTYPE
  5
186
100
AcDbSymbolTable
 70
     3
  0
LTYPE
  5
187
100
AcDbSymbolTableRecord
100
AcDbLinetypeTableRecord
  2
BYBLOCK
 70
     0
  3

 72
    65
 73
     0
 40
0.0
  0
LTYPE
  5
188
100
AcDbSymbolTableRecord
100
AcDbLinetypeTableRecord
  2
BYLAYER
 70
     0
  3

 72
    65
 73
     0
 40
0.0
  0
LTYPE
  5
189
100
AcDbSymbolTableRecord
100
AcDbLinetypeTableRecord
  2
CONTINUOUS
 70
     0
  3
Solid line (NEC CAE2D for Win R18.0 : 2024.05.01)
 72
    65
 73
     0
 40
0.0
  0
LTYPE
  5
18A
100
AcDbSymbolTableRecord
100
AcDbLinetypeTableRecord
  2
CENTER
 70
     0
  3
____ _ ____ _ ____ _ ____ _ ____ _ ____
 72
    65
 73
     4
 40
2.0
 49
1.25
 74
     0
 49
-0.25
 74
     0
 49
0.25
 74
     0
 49
-0.25
 74
     0
  0
LTYPE
  5
18B
100
AcDbSymbolTableRecord
100
AcDbLinetypeTableRecord
  2
PHANTOM
 70
     0
  3
______  __  __  ______  __  __  ______ 
 72
    65
 73
     6
 40
2.5
 49
1.25
 74
     0
 49
-0.25
 74
     0
 49
0.25
 74
     0
 49
-0.25
 74
     0
 49
0.25
 74
     0
 49
-0.25
 74
     0
  0
ENDTAB
  0
TABLE
  2
LAYER
  5
18C
100
AcDbSymbolTable
 70
    10
  0
LAYER
  5
18D
100
AcDbSymbolTableRecord
100
AcDbLayerTableRecord
  2
0
 70
     0
 62
     7
  6
CONTINUOUS
370
    -3
390

  0
LAYER
  5
18E
100
AcDbSymbolTableRecord
100
AcDbLayerTableRecord
  2
DXF0
 70
     0
 62
     7
  6
CONTINUOUS
370
    -3
390

  0
LAYER
  5
18F
100
AcDbSymbolTableRecord
100
AcDbLayerTableRecord
  2
4
 70
     0
 62
     1
  6
CONTINUOUS
370
    -3
390

  0
LAYER
  5
190
100
AcDbSymbolTableRecord
100
AcDbLayerTableRecord
  2
5
 70
     0
 62
     6
  6
CONTINUOUS
370
    -3
390

  0
LAYER
  5
191
100
AcDbSymbolTableRecord
100
AcDbLayerTableRecord
  2
1
 70
     0
 62
     7
  6
CONTINUOUS
370
    -3
390

  0
LAYER
  5
192
100
AcDbSymbolTableRecord
100
AcDbLayerTableRecord
  2
2
 70
     0
 62
     4
  6
CONTINUOUS
370
    -3
390

  0
LAYER
  5
193
100
AcDbSymbolTableRecord
100
AcDbLayerTableRecord
  2
3
 70
     0
 62
     2
  6
CONTINUOUS
370
    -3
390

  0
LAYER
  5
194
100
AcDbSymbolTableRecord
100
AcDbLayerTableRecord
  2
6
 70
     0
 62
     5
  6
CONTINUOUS
370
    -3
390

  0
LAYER
  5
195
100
AcDbSymbolTableRecord
100
AcDbLayerTableRecord
  2
7
 70
     0
 62
     3
  6
CONTINUOUS
370
    -3
390

  0
LAYER
  5
196
100
AcDbSymbolTableRecord
100
AcDbLayerTableRecord
  2
DXF1023
 70
     0
 62
    16
  6
CONTINUOUS
370
    -3
390

  0
ENDTAB
  0
TABLE
  2
STYLE
  5
197
100
AcDbSymbolTable
 70
     4
  0
STYLE
  5
198
100
AcDbSymbolTableRecord
100
AcDbTextStyleTableRecord
  2
STANDARD
 70
    64
 40
0.0
 41
1.0
 50
0.0
 71
     0
 42
3.000000000000000
  3
TXT
  4

  0
STYLE
  5
199
100
AcDbSymbolTableRecord
100
AcDbTextStyleTableRecord
  2
ANKTATE
 70
    68
 40
0.0
 41
1.0
 50
0.0
 71
     0
 42
3.000000000000000
  3
TXT
  4

  0
STYLE
  5
19A
100
AcDbSymbolTableRecord
100
AcDbTextStyleTableRecord
  2
KNJYOKO
 70
    64
 40
0.0
 41
1.0
 50
0.0
 71
     0
 42
3.000000000000000
  3
TXT
  4
BIGFONT
  0
STYLE
  5
19B
100
AcDbSymbolTableRecord
100
AcDbTextStyleTableRecord
  2
KNJTATE
 70
    68
 40
0.0
 41
1.0
 50
0.0
 71
     0
 42
3.000000000000000
  3
TXT
  4
BIGFONT
  0
ENDTAB
  0
TABLE
  2
VIEW
  5
19C
100
AcDbSymbolTable
 70
     0
  0
ENDTAB
  0
TABLE
  2
UCS
  5
19D
100
AcDbSymbolTable
 70
     0
  0
ENDTAB
  0
TABLE
  2
APPID
  5
19E
100
AcDbSymbolTable
 70
     1
  0
APPID
  5
19F
100
AcDbSymbolTableRecord
100
AcDbRegAppTableRecord
  2
ACAD
 70
     0
  0
ENDTAB
  0
TABLE
  2
DIMSTYLE
  5
1A0
100
AcDbSymbolTable
 70
     2
100
AcDbDimStyleTable
  0
DIMSTYLE
105
1A1
100
AcDbSymbolTableRecord
100
AcDbDimStyleTableRecord
  2
STANDARD
 70
     0
 41
2.000000
 44
1.500000
 42
0.800000
145
0.661290
140
3.100000
144
1.000000
146
0.645161
340
198
  0
DIMSTYLE
105
1A2
100
AcDbSymbolTableRecord
100
AcDbDimStyleTableRecord
  2
DXF001
 70
     0
 41
2.000000
 44
1.500000
 42
0.800000
145
0.661290
140
3.100000
144
1.000000
146
0.645161
 77
     1
 73
     0
 74
     0
271
     2
179
     2
275
     0
 78
     8
 79
     2
172
     1
340
198
  0
ENDTAB
  0
TABLE
  2
BLOCK_RECORD
  5
1A3
100
AcDbSymbolTable
 70
    12
  0
BLOCK_RECORD
  5
1A4
100
AcDbSymbolTableRecord
100
AcDbBlockTableRecord
  2
*MODEL_SPACE
  0
BLOCK_RECORD
  5
1A5
100
AcDbSymbolTableRecord
100
AcDbBlockTableRecord
  2
*PAPER_SPACE
  0
BLOCK_RECORD
  5
1A6
100
AcDbSymbolTableRecord
100
AcDbBlockTableRecord
  2
*PAPER_SPACE0
  0
BLOCK_RECORD
  5
1
100
AcDbSymbolTableRecord
100
AcDbBlockTableRecord
  2
_NONE
  0
BLOCK_RECORD
  5
4
100
AcDbSymbolTableRecord
100
AcDbBlockTableRecord
  2
_CLOSED
  0
BLOCK_RECORD
  5
B
100
AcDbSymbolTableRecord
100
AcDbBlockTableRecord
  2
_DOT
  0
BLOCK_RECORD
  5
13
100
AcDbSymbolTableRecord
100
AcDbBlockTableRecord
  2
_OPEN
  0
BLOCK_RECORD
  5
19
100
AcDbSymbolTableRecord
100
AcDbBlockTableRecord
  2
_ORIGIN
  0
BLOCK_RECORD
  5
1E
100
AcDbSymbolTableRecord
100
AcDbBlockTableRecord
  2
_OPEN30
  0
BLOCK_RECORD
  5
24
100
AcDbSymbolTableRecord
100
AcDbBlockTableRecord
  2
_BOXFILLED
  0
BLOCK_RECORD
  5
29
100
AcDbSymbolTableRecord
100
AcDbBlockTableRecord
  2
_BOXBLANK
  0
BLOCK_RECORD
  5
31
100
AcDbSymbolTableRecord
100
AcDbBlockTableRecord
  2
_OBLIQUE
  0
BLOCK_RECORD
  5
35
100
AcDbSymbolTableRecord
100
AcDbBlockTableRecord
  2
_OPEN90
  0
BLOCK_RECORD
  5
3B
100
AcDbSymbolTableRecord
100
AcDbBlockTableRecord
  2
_CLOSEDBLANK
  0
BLOCK_RECORD
  5
41
100
AcDbSymbolTableRecord
100
AcDbBlockTableRecord
  2
_DOTBLANK
  0
ENDTAB
  0
ENDSEC
  0
SECTION
  2
BLOCKS
  0
BLOCK
  5
1A7
100
AcDbEntity
  8
0
100
AcDbBlockBegin
  2
*MODEL_SPACE
 70
     0
 10
0.0
 20
0.0
 30
0.0
  3
*MODEL_SPACE
  1

  0
ENDBLK
  5
1A8
100
AcDbEntity
  8
0
100
AcDbBlockEnd
  0
BLOCK
  5
1A9
100
AcDbEntity
  8
0
100
AcDbBlockBegin
  2
*PAPER_SPACE
 70
     0
 10
0.0
 20
0.0
 30
0.0
  3
*PAPER_SPACE
  1

  0
ENDBLK
  5
1AA
100
AcDbEntity
  8
0
100
AcDbBlockEnd
  0
BLOCK
  5
1AB
100
AcDbEntity
  8
0
100
AcDbBlockBegin
  2
*PAPER_SPACE0
 70
     0
 10
0.0
 20
0.0
 30
0.0
  3
*PAPER_SPACE0
  1

  0
ENDBLK
  5
1AC
100
AcDbEntity
  8
0
100
AcDbBlockEnd
  0
BLOCK
  5
2
330
1
100
AcDbEntity
  8
0
100
AcDbBlockBegin
  2
_NONE
 70
     0
 10
0.0
 20
0.0
 30
0.0
  3
_NONE
  1

  0
ENDBLK
  5
3
330
1
100
AcDbEntity
  8
0
100
AcDbBlockEnd
  0
BLOCK
  5
5
330
4
100
AcDbEntity
  8
0
100
AcDbBlockBegin
  2
_CLOSED
 70
     0
 10
0.0
 20
0.0
 30
0.0
  3
_CLOSED
  1

  0
LINE
  5
6
330
4
100
AcDbEntity
  8
0
  6
BYBLOCK
 62
     0
370
    -2
100
AcDbLine
 10
-1.0
 20
0.166667
 30
0.0
 11
0.0
 21
0.0
 31
0.0
  0
LINE
  5
7
330
4
100
AcDbEntity
  8
0
  6
BYBLOCK
 62
     0
370
    -2
100
AcDbLine
 10
0.0
 20
0.0
 30
0.0
 11
-1.0
 21
-0.166667
 31
0.0
  0
LINE
  5
8
330
4
100
AcDbEntity
  8
0
  6
BYBLOCK
 62
     0
370
    -2
100
AcDbLine
 10
-1.0
 20
0.166667
 30
0.0
 11
-1.0
 21
-0.166667
 31
0.0
  0
LINE
  5
9
330
4
100
AcDbEntity
  8
0
  6
BYBLOCK
 62
     0
370
    -2
100
AcDbLine
 10
0.0
 20
0.0
 30
0.0
 11
-1.0
 21
0.0
 31
0.0
  0
ENDBLK
  5
A
330
4
100
AcDbEntity
  8
0
100
AcDbBlockEnd
  0
BLOCK
  5
C
330
B
100
AcDbEntity
  8
0
100
AcDbBlockBegin
  2
_DOT
 70
     0
 10
0.0
 20
0.0
 30
0.0
  3
_DOT
  1

  0
POLYLINE
  5
D
330
B
100
AcDbEntity
  8
0
  6
BYBLOCK
 62
     0
370
    -2
100
AcDb2dPolyline
 66
     1
 10
0.0
 20
0.0
 30
0.0
 70
     1
 40
0.5
 41
0.5
  0
VERTEX
  5
E
330
B
100
AcDbEntity
  8
0
  6
BYBLOCK
 62
     0
370
    -2
100
AcDbVertex
100
AcDb2dVertex
 10
-0.25
 20
0.0
 30
0.0
 42
1.0
  0
VERTEX
  5
F
330
B
100
AcDbEntity
  8
0
  6
BYBLOCK
 62
     0
370
    -2
100
AcDbVertex
100
AcDb2dVertex
 10
0.25
 20
0.0
 30
0.0
 42
1.0
  0
SEQEND
  5
10
330
B
100
AcDbEntity
  8
0
  6
BYBLOCK
 62
     0
370
    -2
  0
LINE
  5
11
330
B
100
AcDbEntity
  8
0
  6
BYBLOCK
 62
     0
370
    -2
100
AcDbLine
 10
-0.5
 20
0.0
 30
0.0
 11
-1.0
 21
0.0
 31
0.0
  0
ENDBLK
  5
12
330
B
100
AcDbEntity
  8
0
100
AcDbBlockEnd
  0
BLOCK
  5
14
330
13
100
AcDbEntity
  8
0
100
AcDbBlockBegin
  2
_OPEN
 70
     0
 10
0.0
 20
0.0
 30
0.0
  3
_OPEN
  1

  0
LINE
  5
15
330
13
100
AcDbEntity
  8
0
  6
BYBLOCK
 62
     0
370
    -2
100
AcDbLine
 10
-1.0
 20
0.166667
 30
0.0
 11
0.0
 21
0.0
 31
0.0
  0
LINE
  5
16
330
13
100
AcDbEntity
  8
0
  6
BYBLOCK
 62
     0
370
    -2
100
AcDbLine
 10
0.0
 20
0.0
 30
0.0
 11
-1.0
 21
-0.166667
 31
0.0
  0
LINE
  5
17
330
13
100
AcDbEntity
  8
0
  6
BYBLOCK
 62
     0
370
    -2
100
AcDbLine
 10
0.0
 20
0.0
 30
0.0
 11
-1.0
 21
0.0
 31
0.0
  0
ENDBLK
  5
18
330
13
100
AcDbEntity
  8
0
100
AcDbBlockEnd
  0
BLOCK
  5
1A
330
19
100
AcDbEntity
  8
0
100
AcDbBlockBegin
  2
_ORIGIN
 70
     0
 10
0.0
 20
0.0
 30
0.0
  3
_ORIGIN
  1

  0
CIRCLE
  5
1B
330
19
100
AcDbEntity
  8
0
  6
BYBLOCK
 62
     0
370
    -2
100
AcDbCircle
 10
0.0
 20
0.0
 30
0.0
 40
0.5
  0
LINE
  5
1C
330
19
100
AcDbEntity
  8
0
  6
BYBLOCK
 62
     0
370
    -2
100
AcDbLine
 10
0.0
 20
0.0
 30
0.0
 11
-1.0
 21
0.0
 31
0.0
  0
ENDBLK
  5
1D
330
19
100
AcDbEntity
  8
0
100
AcDbBlockEnd
  0
BLOCK
  5
1F
330
1E
100
AcDbEntity
  8
0
100
AcDbBlockBegin
  2
_OPEN30
 70
     0
 10
0.0
 20
0.0
 30
0.0
  3
_OPEN30
  1

  0
LINE
  5
20
330
1E
100
AcDbEntity
  8
0
  6
BYBLOCK
 62
     0
370
    -2
100
AcDbLine
 10
-1.0
 20
0.267949
 30
0.0
 11
0.0
 21
0.0
 31
0.0
  0
LINE
  5
21
330
1E
100
AcDbEntity
  8
0
  6
BYBLOCK
 62
     0
370
    -2
100
AcDbLine
 10
0.0
 20
0.0
 30
0.0
 11
-1.0
 21
-0.267949
 31
0.0
  0
LINE
  5
22
330
1E
100
AcDbEntity
  8
0
  6
BYBLOCK
 62
     0
370
    -2
100
AcDbLine
 10
0.0
 20
0.0
 30
0.0
 11
-1.0
 21
0.0
 31
0.0
  0
ENDBLK
  5
23
330
1E
100
AcDbEntity
  8
0
100
AcDbBlockEnd
  0
BLOCK
  5
25
330
24
100
AcDbEntity
  8
0
100
AcDbBlockBegin
  2
_BOXFILLED
 70
     0
 10
0.0
 20
0.0
 30
0.0
  3
_BOXFILLED
  1

  0
SOLID
  5
26
330
24
100
AcDbEntity
  8
0
  6
BYBLOCK
 62
     0
370
    -2
100
AcDbTrace
 10
-0.5
 20
0.5
 30
0.0
 11
0.5
 21
0.5
 31
0.0
 12
-0.5
 22
-0.5
 32
0.0
 13
0.5
 23
-0.5
 33
0.0
  0
LINE
  5
27
330
24
100
AcDbEntity
  8
0
  6
BYBLOCK
 62
     0
370
    -2
100
AcDbLine
 10
-0.5
 20
0.0
 30
0.0
 11
-1.0
 21
0.0
 31
0.0
  0
ENDBLK
  5
28
330
24
100
AcDbEntity
  8
0
100
AcDbBlockEnd
  0
BLOCK
  5
2A
330
29
100
AcDbEntity
  8
0
100
AcDbBlockBegin
  2
_BOXBLANK
 70
     0
 10
0.0
 20
0.0
 30
0.0
  3
_BOXBLANK
  1

  0
LINE
  5
2B
330
29
100
AcDbEntity
  8
0
  6
BYBLOCK
 62
     0
370
    -2
100
AcDbLine
 10
-0.5
 20
-0.5
 30
0.0
 11
0.5
 21
-0.5
 31
0.0
  0
LINE
  5
2C
330
29
100
AcDbEntity
  8
0
  6
BYBLOCK
 62
     0
370
    -2
100
AcDbLine
 10
0.5
 20
-0.5
 30
0.0
 11
0.5
 21
0.5
 31
0.0
  0
LINE
  5
2D
330
29
100
AcDbEntity
  8
0
  6
BYBLOCK
 62
     0
370
    -2
100
AcDbLine
 10
0.5
 20
0.5
 30
0.0
 11
-0.5
 21
0.5
 31
0.0
  0
LINE
  5
2E
330
29
100
AcDbEntity
  8
0
  6
BYBLOCK
 62
     0
370
    -2
100
AcDbLine
 10
-0.5
 20
0.5
 30
0.0
 11
-0.5
 21
-0.5
 31
0.0
  0
LINE
  5
2F
330
29
100
AcDbEntity
  8
0
  6
BYBLOCK
 62
     0
370
    -2
100
AcDbLine
 10
-0.5
 20
0.0
 30
0.0
 11
-1.0
 21
0.0
 31
0.0
  0
ENDBLK
  5
30
330
29
100
AcDbEntity
  8
0
100
AcDbBlockEnd
  0
BLOCK
  5
32
330
31
100
AcDbEntity
  8
0
100
AcDbBlockBegin
  2
_OBLIQUE
 70
     0
 10
0.0
 20
0.0
 30
0.0
  3
_OBLIQUE
  1

  0
LINE
  5
33
330
31
100
AcDbEntity
  8
0
  6
BYBLOCK
 62
     0
370
    -2
100
AcDbLine
 10
-0.5
 20
-0.5
 30
0.0
 11
0.5
 21
0.5
 31
0.0
  0
ENDBLK
  5
34
330
31
100
AcDbEntity
  8
0
100
AcDbBlockEnd
  0
BLOCK
  5
36
330
35
100
AcDbEntity
  8
0
100
AcDbBlockBegin
  2
_OPEN90
 70
     0
 10
0.0
 20
0.0
 30
0.0
  3
_OPEN90
  1

  0
LINE
  5
37
330
35
100
AcDbEntity
  8
0
  6
BYBLOCK
 62
     0
370
    -2
100
AcDbLine
 10
-0.5
 20
0.5
 30
0.0
 11
0.0
 21
0.0
 31
0.0
  0
LINE
  5
38
330
35
100
AcDbEntity
  8
0
  6
BYBLOCK
 62
     0
370
    -2
100
AcDbLine
 10
0.0
 20
0.0
 30
0.0
 11
-0.5
 21
-0.5
 31
0.0
  0
LINE
  5
39
330
35
100
AcDbEntity
  8
0
  6
BYBLOCK
 62
     0
370
    -2
100
AcDbLine
 10
0.0
 20
0.0
 30
0.0
 11
-1.0
 21
0.0
 31
0.0
  0
ENDBLK
  5
3A
330
35
100
AcDbEntity
  8
0
100
AcDbBlockEnd
  0
BLOCK
  5
3C
330
3B
100
AcDbEntity
  8
0
100
AcDbBlockBegin
  2
_CLOSEDBLANK
 70
     0
 10
0.0
 20
0.0
 30
0.0
  3
_CLOSEDBLANK
  1

  0
LINE
  5
3D
330
3B
100
AcDbEntity
  8
0
  6
BYBLOCK
 62
     0
370
    -2
100
AcDbLine
 10
-1.0
 20
0.1666666666666666
 30
0.0
 11
0.0
 21
0.0
 31
0.0
  0
LINE
  5
3E
330
3B
100
AcDbEntity
  8
0
  6
BYBLOCK
 62
     0
370
    -2
100
AcDbLine
 10
0.0
 20
0.0
 30
0.0
 11
-1.0
 21
-0.1666666666666666
 31
0.0
  0
LINE
  5
3F
330
3B
100
AcDbEntity
  8
0
  6
BYBLOCK
 62
     0
370
    -2
100
AcDbLine
 10
-1.0
 20
0.1666666666666666
 30
0.0
 11
-1.0
 21
-0.1666666666666666
 31
0.0
  0
ENDBLK
  5
40
330
3B
100
AcDbEntity
  8
0
100
AcDbBlockEnd
  0
BLOCK
  5
42
330
41
100
AcDbEntity
  8
0
100
AcDbBlockBegin
  2
_DOTBLANK
 70
     0
 10
0.0
 20
0.0
 30
0.0
  3
_DOTBLANK
  1

  0
CIRCLE
  5
43
330
41
100
AcDbEntity
  8
0
  6
BYBLOCK
 62
     0
370
    -2
100
AcDbCircle
 10
0.0
 20
0.0
 30
0.0
 40
0.5
  0
LINE
  5
44
330
41
100
AcDbEntity
  8
0
  6
BYBLOCK
 62
     0
370
    -2
100
AcDbLine
 10
-0.5
 20
0.0
 30
0.0
 11
-1.0
 21
0.0
 31
0.0
  0
ENDBLK
  5
45
330
41
100
AcDbEntity
  8
0
100
AcDbBlockEnd
  0
ENDSEC
  0
SECTION
  2
ENTITIES
  0
MTEXT
  5
46
100
AcDbEntity
  8
7
  6
CONTINUOUS
 62
3
100
AcDbMText
 10
9.999997526638502
 20
18.00000076076889
 30
0.000000000000000
 40
3.000000000000000
 41
0.000000000000000
 44
0.6739999771118164
 71
     7
 72
     1
  1
{\H0.94x;{TYPE No.TH-189SUS-3}}
 11
1.000000000000000
 21
0.000000000000000
 31
0.000000000000000
  7
STANDARD
  0
LINE
  5
47
100
AcDbEntity
  8
4
  6
CENTER
 62
1
100
AcDbLine
 10
101.8968431612428
 20
41.03223027622997
 30
0.000000000000000
 11
101.8968431612428
 21
45.53223027622965
 31
0.000000000000000
  0
LINE
  5
48
100
AcDbEntity
  8
4
  6
CENTER
 62
1
100
AcDbLine
 10
101.8968431612421
 20
40.03223027622937
 30
0.000000000000000
 11
101.8968431612421
 21
35.53223027622968
 31
0.000000000000000
  0
LINE
  5
49
100
AcDbEntity
  8
4
  6
CENTER
 62
1
100
AcDbLine
 10
117.8968431612428
 20
40.03223027622937
 30
0.000000000000000
 11
117.8968431612428
 21
35.53223027622968
 31
0.000000000000000
  0
LINE
  5
4A
100
AcDbEntity
  8
4
  6
CENTER
 62
1
100
AcDbLine
 10
44.07156627977982
 20
83.84454157915383
 30
0.000000000000000
 11
39.57156627977971
 21
83.84454157915383
 31
0.000000000000000
  0
LINE
  5
4B
100
AcDbEntity
  8
4
  6
CENTER
 62
1
100
AcDbLine
 10
44.07156627977982
 20
122.8445415791538
 30
0.000000000000000
 11
39.57156627977983
 21
122.8445415791538
 31
0.000000000000000
  0
LINE
  5
4C
100
AcDbEntity
  8
1
  6
CONTINUOUS
 62
7
100
AcDbLine
 10
109.8968431612427
 20
37.03223027622966
 30
0.000000000000000
 11
122.8968431612418
 21
37.03223027622955
 31
0.000000000000000
  0
LINE
  5
4D
100
AcDbEntity
  8
1
  6
CONTINUOUS
 62
7
100
AcDbLine
 10
96.89684316124180
 20
37.03223027622966
 30
0.000000000000000
 11
109.8968431612426
 21
37.03223027622966
 31
0.000000000000000
  0
LINE
  5
4E
100
AcDbEntity
  8
1
  6
CONTINUOUS
 62
7
100
AcDbLine
 10
106.3968431612428
 20
128.3445415791538
 30
0.000000000000000
 11
119.8968431612422
 21
128.3445415791538
 31
0.000000000000000
  0
LINE
  5
4F
100
AcDbEntity
  8
1
  6
CONTINUOUS
 62
7
100
AcDbLine
 10
106.3968431612428
 20
78.34454157915383
 30
0.000000000000000
 11
119.8968431612422
 21
78.34454157915383
 31
0.000000000000000
  0
LINE
  5
50
100
AcDbEntity
  8
4
  6
CENTER
 62
1
100
AcDbLine
 10
95.39684316124223
 20
103.3445415791538
 30
0.000000000000000
 11
124.3968431612422
 21
103.3445415791538
 31
0.000000000000000
  0
LINE
  5
51
100
AcDbEntity
  8
4
  6
CENTER
 62
1
100
AcDbLine
 10
117.8968431612422
 20
126.8445415791538
 30
0.000000000000000
 11
117.8968431612422
 21
79.84454157915383
 31
0.000000000000000
  0
LINE
  5
52
100
AcDbEntity
  8
4
  6
CENTER
 62
1
100
AcDbLine
 10
101.8968431612422
 20
126.4945415791538
 30
0.000000000000000
 11
101.8968431612422
 21
80.19454157915381
 31
0.000000000000000
  0
LINE
  5
53
100
AcDbEntity
  8
1
  6
CONTINUOUS
 62
7
100
AcDbLine
 10
117.8968612269057
 20
115.9535770383479
 30
0.000000000000000
 11
117.8968612269057
 21
115.2647097265306
 31
0.000000000000000
  0
LINE
  5
54
100
AcDbEntity
  8
1
  6
CONTINUOUS
 62
7
100
AcDbLine
 10
118.5206257279739
 20
115.0975725322015
 30
0.000000000000000
 11
117.1153258587718
 21
115.4741214972791
 31
0.000000000000000
  0
LINE
  5
55
100
AcDbEntity
  8
1
  6
CONTINUOUS
 62
7
100
AcDbLine
 10
117.8968612269057
 20
114.7611881728641
 30
0.000000000000000
 11
118.6963886047246
 21
114.7611881728641
 31
0.000000000000000
  0
LINE
  5
56
100
AcDbEntity
  8
1
  6
CONTINUOUS
 62
7
100
AcDbLine
 10
117.7301965675348
 20
114.9278528322351
 30
0.000000000000000
 11
117.0181039008994
 21
114.9278528322351
 31
0.000000000000000
  0
ARC
  5
57
100
AcDbEntity
  8
1
  6
CONTINUOUS
 62
7
100
AcDbCircle
 10
117.7301965675347
 20
114.7611881728641
 30
0.000000000000000
 40
0.1666646593710234
100
AcDbArc
 50
270.0000000000000
 51
450.0000000000000
  0
LINE
  5
58
100
AcDbEntity
  8
1
  6
CONTINUOUS
 62
7
100
AcDbLine
 10
116.9581858941500
 20
114.5945235134931
 30
0.000000000000000
 11
117.7301965675348
 21
114.5945235134931
 31
0.000000000000000
  0
LINE
  5
59
100
AcDbEntity
  8
1
  6
CONTINUOUS
 62
7
100
AcDbLine
 10
116.8011502717891
 20
114.2611941947511
 30
0.000000000000000
 11
118.8880672110620
 21
114.2611941947511
 31
0.000000000000000
  0
LINE
  5
5A
100
AcDbEntity
  8
1
  6
CONTINUOUS
 62
7
100
AcDbLine
 10
117.8968612269057
 20
113.9278648760090
 30
0.000000000000000
 11
117.8968612269057
 21
113.7612002166380
 31
0.000000000000000
  0
LINE
  5
5B
100
AcDbEntity
  8
1
  6
CONTINUOUS
 62
7
100
AcDbLine
 10
118.8379133187074
 20
113.9278648760089
 30
0.000000000000000
 11
117.8968612269057
 21
113.9278648760089
 31
0.000000000000000
  0
ARC
  5
5C
100
AcDbEntity
  8
1
  6
CONTINUOUS
 62
7
100
AcDbCircle
 10
118.8379133187074
 20
113.7612002166380
 30
0.000000000000000
 40
0.1666646593710226
100
AcDbArc
 50
10.10418271612448
 51
89.99999999999918
  0
ARC
  5
5D
100
AcDbEntity
  8
1
  6
CONTINUOUS
 62
7
100
AcDbCircle
 10
115.0968949494698
 20
113.0945415791539
 30
0.000000000000000
 40
3.966618893030337
100
AcDbArc
 50
7.792924335421941
 51
10.10418271612448
  0
ARC
  5
5E
100
AcDbEntity
  8
1
  6
CONTINUOUS
 62
7
100
AcDbCircle
 10
118.9938554136408
 20
113.6278684891412
 30
0.000000000000000
 40
0.03333293187420450
100
AcDbArc
 50
270.0000000000000
 51
367.7929243354228
  0
LINE
  5
5F
100
AcDbEntity
  8
1
  6
CONTINUOUS
 62
7
100
AcDbLine
 10
116.7998670401652
 20
113.5945355572670
 30
0.000000000000000
 11
118.9938554136407
 21
113.5945355572669
 31
0.000000000000000
  0
ARC
  5
60
100
AcDbEntity
  8
1
  6
CONTINUOUS
 62
7
100
AcDbCircle
 10
116.7998670401653
 20
113.6278684891412
 30
0.000000000000000
 40
0.03333293187420450
100
AcDbArc
 50
172.2070756645764
 51
270.0000000000000
  0
ARC
  5
61
100
AcDbEntity
  8
1
  6
CONTINUOUS
 62
7
100
AcDbCircle
 10
120.6968275043362
 20
113.0945415791539
 30
0.000000000000000
 40
3.966618893030337
100
AcDbArc
 50
169.8958172838745
 51
172.2070756645772
  0
ARC
  5
62
100
AcDbEntity
  8
1
  6
CONTINUOUS
 62
7
100
AcDbCircle
 10
116.9558091350986
 20
113.7612002166380
 30
0.000000000000000
 40
0.1666646593710226
100
AcDbArc
 50
89.99999999999999
 51
169.8958172838745
  0
LINE
  5
63
100
AcDbEntity
  8
1
  6
CONTINUOUS
 62
7
100
AcDbLine
 10
117.4968660444152
 20
113.9278648760090
 30
0.000000000000000
 11
116.9558091350986
 21
113.9278648760090
 31
0.000000000000000
  0
LINE
  5
64
100
AcDbEntity
  8
1
  6
CONTINUOUS
 62
7
100
AcDbLine
 10
116.7337115163966
 20
113.2612062385249
 30
0.000000000000000
 11
119.0600109374093
 21
113.2612062385249
 31
0.000000000000000
  0
LINE
  5
65
100
AcDbEntity
  8
1
  6
CONTINUOUS
 62
7
100
AcDbLine
 10
117.8968612269057
 20
112.9278769197829
 30
0.000000000000000
 11
117.8968612269057
 21
112.5945476010408
 31
0.000000000000000
  0
LINE
  5
66
100
AcDbEntity
  8
1
  6
CONTINUOUS
 62
7
100
AcDbLine
 10
116.7337115163966
 20
112.9278769197829
 30
0.000000000000000
 11
119.0600109374093
 21
112.9278769197829
 31
0.000000000000000
  0
LINE
  5
67
100
AcDbEntity
  8
1
  6
CONTINUOUS
 62
7
100
AcDbLine
 10
116.7618470133559
 20
112.5945476010408
 30
0.000000000000000
 11
119.0318754404502
 21
112.5945476010408
 31
0.000000000000000
  0
LINE
  5
68
100
AcDbEntity
  8
1
  6
CONTINUOUS
 62
7
100
AcDbLine
 10
118.9335139601918
 20
112.2612182822987
 30
0.000000000000000
 11
118.2968564093962
 21
112.2612182822987
 31
0.000000000000000
  0
ARC
  5
69
100
AcDbEntity
  8
1
  6
CONTINUOUS
 62
7
100
AcDbCircle
 10
118.9335139601917
 20
112.2278853504246
 30
0.000000000000000
 40
0.03333293187420450
100
AcDbArc
 50
347.2710561268771
 51
449.9999999999992
  0
ARC
  5
6A
100
AcDbEntity
  8
1
  6
CONTINUOUS
 62
7
100
AcDbCircle
 10
115.0968949494698
 20
113.0945415791539
 30
0.000000000000000
 40
3.966618893030337
100
AcDbArc
 50
344.7937121239422
 51
347.2710561268771
  0
ARC
  5
6B
100
AcDbEntity
  8
1
  6
CONTINUOUS
 62
7
100
AcDbCircle
 10
115.0968949494698
 20
113.0945415791539
 30
0.000000000000000
 40
3.966618893030337
100
AcDbArc
 50
344.7424767095430
 51
344.7937121239422
  0
ARC
  5
6C
100
AcDbEntity
  8
1
  6
CONTINUOUS
 62
7
100
AcDbCircle
 10
118.7629113522302
 20
112.0945536229277
 30
0.000000000000000
 40
0.1666646593710226
100
AcDbArc
 50
270.0000000000000
 51
344.7424767095430
  0
LINE
  5
6D
100
AcDbEntity
  8
1
  6
CONTINUOUS
 62
7
100
AcDbLine
 10
117.0308111015759
 20
111.9278889635566
 30
0.000000000000000
 11
118.7629113522302
 21
111.9278889635566
 31
0.000000000000000
  0
ARC
  5
6E
100
AcDbEntity
  8
1
  6
CONTINUOUS
 62
7
100
AcDbCircle
 10
117.0308111015759
 20
112.0945536229277
 30
0.000000000000000
 40
0.1666646593710226
100
AcDbArc
 50
195.2575232904568
 51
270.0000000000000
  0
ARC
  5
6F
100
AcDbEntity
  8
1
  6
CONTINUOUS
 62
7
100
AcDbCircle
 10
120.6968275043362
 20
113.0945415791539
 30
0.000000000000000
 40
3.966618893030337
100
AcDbArc
 50
193.2681189705554
 51
195.2575232904568
  0
ARC
  5
70
100
AcDbEntity
  8
1
  6
CONTINUOUS
 62
7
100
AcDbCircle
 10
120.6968275043362
 20
113.0945415791539
 30
0.000000000000000
 40
3.966618893030337
100
AcDbArc
 50
192.7289438731229
 51
193.2681189705554
  0
ARC
  5
71
100
AcDbEntity
  8
1
  6
CONTINUOUS
 62
7
100
AcDbCircle
 10
116.8602084936143
 20
112.2278853504246
 30
0.000000000000000
 40
0.03333293187420450
100
AcDbArc
 50
89.99999999999999
 51
192.7289438731229
  0
LINE
  5
72
100
AcDbEntity
  8
1
  6
CONTINUOUS
 62
7
100
AcDbLine
 10
117.4968660444152
 20
112.2612182822988
 30
0.000000000000000
 11
116.8602084936143
 21
112.2612182822988
 31
0.000000000000000
  0
ARC
  5
73
100
AcDbEntity
  8
1
  6
CONTINUOUS
 62
7
100
AcDbCircle
 10
118.5118534132845
 20
111.4278949854437
 30
0.000000000000000
 40
0.1666646593710226
100
AcDbArc
 50
270.0000000000000
 51
333.9856340003635
  0
ARC
  5
74
100
AcDbEntity
  8
1
  6
CONTINUOUS
 62
7
100
AcDbCircle
 10
115.0968949494698
 20
113.0945415791539
 30
0.000000000000000
 40
3.966618893030337
100
AcDbArc
 50
333.9856340003635
 51
337.0560464434614
  0
ARC
  5
75
100
AcDbEntity
  8
1
  6
CONTINUOUS
 62
7
100
AcDbCircle
 10
118.7190053803204
 20
111.5612267129405
 30
0.000000000000000
 40
0.03333293187420450
100
AcDbArc
 50
337.0560464434614
 51
449.9999999999992
  0
LINE
  5
76
100
AcDbEntity
  8
1
  6
CONTINUOUS
 62
7
100
AcDbLine
 10
117.0747170734855
 20
111.5945596448147
 30
0.000000000000000
 11
118.7190053803204
 21
111.5945596448147
 31
0.000000000000000
  0
ARC
  5
77
100
AcDbEntity
  8
1
  6
CONTINUOUS
 62
7
100
AcDbCircle
 10
117.0747170734856
 20
111.5612267129405
 30
0.000000000000000
 40
0.03333293187420450
100
AcDbArc
 50
89.99999999999999
 51
202.9439535565366
  0
ARC
  5
78
100
AcDbEntity
  8
1
  6
CONTINUOUS
 62
7
100
AcDbCircle
 10
120.6968275043362
 20
113.0945415791539
 30
0.000000000000000
 40
3.966618893030337
100
AcDbArc
 50
202.9439535565377
 51
206.0143659996364
  0
ARC
  5
79
100
AcDbEntity
  8
1
  6
CONTINUOUS
 62
7
100
AcDbCircle
 10
117.2818690405216
 20
111.4278949854437
 30
0.000000000000000
 40
0.1666646593710226
100
AcDbArc
 50
206.0143659996364
 51
270.0000000000000
  0
LINE
  5
7A
100
AcDbEntity
  8
1
  6
CONTINUOUS
 62
7
100
AcDbLine
 10
118.5118534132844
 20
111.2612303260727
 30
0.000000000000000
 11
117.2818690405214
 21
111.2612303260727
 31
0.000000000000000
  0
LINE
  5
7B
100
AcDbEntity
  8
1
  6
CONTINUOUS
 62
7
100
AcDbLine
 10
116.9826353638494
 20
110.9279010073305
 30
0.000000000000000
 11
118.4195044773973
 21
110.9279010073305
 31
0.000000000000000
  0
ARC
  5
7C
100
AcDbEntity
  8
1
  6
CONTINUOUS
 62
7
100
AcDbCircle
 10
117.8968612269057
 20
115.0945174916062
 30
0.000000000000000
 40
0.8590595467416478
100
AcDbArc
 50
35.53767779194785
 51
45.69883927961646
  0
ARC
  5
7D
100
AcDbEntity
  8
1
  6
CONTINUOUS
 62
7
100
AcDbCircle
 10
115.0968949494698
 20
113.0945415791539
 30
0.000000000000000
 40
4.299948211772383
100
AcDbArc
 50
324.4623222080522
 51
395.5376777919478
  0
ARC
  5
7E
100
AcDbEntity
  8
1
  6
CONTINUOUS
 62
7
100
AcDbCircle
 10
117.8968612269057
 20
111.0945656667017
 30
0.000000000000000
 40
0.8590595467416470
100
AcDbArc
 50
270.0000000000000
 51
324.4623222080522
  0
ARC
  5
7F
100
AcDbEntity
  8
1
  6
CONTINUOUS
 62
7
100
AcDbCircle
 10
117.8968612269057
 20
115.0945174916062
 30
0.000000000000000
 40
0.8590595467416478
100
AcDbArc
 50
62.24965455462728
 51
144.4623222079990
  0
ARC
  5
80
100
AcDbEntity
  8
1
  6
CONTINUOUS
 62
7
100
AcDbCircle
 10
120.6968275043362
 20
113.0945415791539
 30
0.000000000000000
 40
4.299948211772383
100
AcDbArc
 50
144.4623222079983
 51
215.5376777919998
  0
ARC
  5
81
100
AcDbEntity
  8
1
  6
CONTINUOUS
 62
7
100
AcDbCircle
 10
117.8968612269057
 20
111.0945656667017
 30
0.000000000000000
 40
0.8590595467416470
100
AcDbArc
 50
215.5376777919998
 51
256.5374393917325
  0
LINE
  5
82
100
AcDbEntity
  8
4
  6
CENTER
 62
1
100
AcDbLine
 10
114.2468431612422
 20
83.84454157915383
 30
0.000000000000000
 11
121.5468431612423
 21
83.84454157915383
 31
0.000000000000000
  0
LINE
  5
83
100
AcDbEntity
  8
4
  6
CENTER
 62
1
100
AcDbLine
 10
114.2468431612422
 20
122.8445415791538
 30
0.000000000000000
 11
121.5468431612423
 21
122.8445415791538
 31
0.000000000000000
  0
LINE
  5
84
100
AcDbEntity
  8
4
  6
CENTER
 62
1
100
AcDbLine
 10
105.5468431612423
 20
122.8445415791538
 30
0.000000000000000
 11
98.24684316124225
 21
122.8445415791538
 31
0.000000000000000
  0
LINE
  5
85
100
AcDbEntity
  8
4
  6
CENTER
 62
1
100
AcDbLine
 10
105.5468431612423
 20
83.84454157915383
 30
0.000000000000000
 11
98.24684316124225
 21
83.84454157915383
 31
0.000000000000000
  0
LINE
  5
86
100
AcDbEntity
  8
4
  6
CENTER
 62
1
100
AcDbLine
 10
109.8968431612427
 20
130.3445415791804
 30
0.000000000000000
 11
109.8968431612427
 21
76.34454157918042
 31
0.000000000000000
  0
LINE
  5
87
100
AcDbEntity
  8
4
  6
CENTER
 62
1
100
AcDbLine
 10
39.57156627977983
 20
103.3445415791804
 30
0.000000000000000
 11
49.57156627977982
 21
103.3445415791804
 31
0.000000000000000
  0
LINE
  5
88
100
AcDbEntity
  8
4
  6
CENTER
 62
1
100
AcDbLine
 10
44.57156627977986
 20
130.3445415791804
 30
0.000000000000000
 11
44.57156627977981
 21
76.34454157918042
 31
0.000000000000000
  0
LINE
  5
89
100
AcDbEntity
  8
1
  6
CONTINUOUS
 62
7
100
AcDbLine
 10
44.17156627977981
 20
115.8445415791804
 30
0.000000000000000
 11
48.07156627977982
 21
115.8445415791804
 31
0.000000000000000
  0
LINE
  5
8A
100
AcDbEntity
  8
1
  6
CONTINUOUS
 62
7
100
AcDbLine
 10
44.17156627977981
 20
115.8445415791804
 30
0.000000000000000
 11
44.17156627977981
 21
108.7445415791804
 31
0.000000000000000
  0
LINE
  5
8B
100
AcDbEntity
  8
1
  6
CONTINUOUS
 62
7
100
AcDbLine
 10
44.17156627977985
 20
97.94454157918035
 30
0.000000000000000
 11
44.17156627977981
 21
90.84454157918044
 31
0.000000000000000
  0
LINE
  5
8C
100
AcDbEntity
  8
1
  6
CONTINUOUS
 62
7
100
AcDbLine
 10
44.17156627977981
 20
90.84454157918044
 30
0.000000000000000
 11
48.07156627977982
 21
90.84454157918044
 31
0.000000000000000
  0
LINE
  5
8D
100
AcDbEntity
  8
1
  6
CONTINUOUS
 62
7
100
AcDbLine
 10
41.07156627977984
 20
128.3445415791804
 30
0.000000000000000
 11
41.07156627977983
 21
78.34454157918044
 31
0.000000000000000
  0
LINE
  5
8E
100
AcDbEntity
  8
1
  6
CONTINUOUS
 62
7
100
AcDbLine
 10
42.57156627977986
 20
128.3445415791804
 30
0.000000000000000
 11
42.57156627977983
 21
78.34454157918044
 31
0.000000000000000
  0
LINE
  5
8F
100
AcDbEntity
  8
1
  6
CONTINUOUS
 62
7
100
AcDbLine
 10
41.07156627977983
 20
78.34454157918044
 30
0.000000000000000
 11
48.07156627977982
 21
78.34454157918044
 31
0.000000000000000
  0
LINE
  5
90
100
AcDbEntity
  8
1
  6
CONTINUOUS
 62
7
100
AcDbLine
 10
41.07156627977984
 20
128.3445415791804
 30
0.000000000000000
 11
48.07156627977986
 21
128.3445415791804
 31
0.000000000000000
  0
LINE
  5
91
100
AcDbEntity
  8
1
  6
CONTINUOUS
 62
7
100
AcDbLine
 10
96.89684316124188
 20
38.53223027622966
 30
0.000000000000000
 11
107.0245618379698
 21
38.53223027622966
 31
0.000000000000000
  0
ARC
  5
92
100
AcDbEntity
  8
1
  6
CONTINUOUS
 62
7
100
AcDbCircle
 10
109.8968431612427
 20
40.53223027622967
 30
0.000000000000000
 40
3.500000000000006
100
AcDbArc
 50
325.1500954209528
 51
630.0000000000000
  0
LINE
  5
93
100
AcDbEntity
  8
1
  6
CONTINUOUS
 62
7
100
AcDbLine
 10
109.8968431612426
 20
38.53223027622966
 30
0.000000000000000
 11
122.8968431612418
 21
38.53223027622955
 31
0.000000000000000
  0
LINE
  5
94
100
AcDbEntity
  8
4
  6
CENTER
 62
1
100
AcDbLine
 10
109.8968431612427
 20
45.53223027622965
 30
0.000000000000000
 11
109.8968431612427
 21
35.53223027622968
 31
0.000000000000000
  0
LINE
  5
95
100
AcDbEntity
  8
4
  6
CENTER
 62
1
100
AcDbLine
 10
114.8968431612428
 20
40.53223027622967
 30
0.000000000000000
 11
104.8968431612427
 21
40.53223027622967
 31
0.000000000000000
  0
LINE
  5
96
100
AcDbEntity
  8
5
  6
PHANTOM
 62
6
100
AcDbLine
 10
96.89684316124359
 20
44.03223027622966
 30
0.000000000000000
 11
109.8968431612424
 21
44.03223027622966
 31
0.000000000000000
  0
LINE
  5
97
100
AcDbEntity
  8
5
  6
PHANTOM
 62
6
100
AcDbLine
 10
96.89684316124359
 20
42.53223027622968
 30
0.000000000000000
 11
96.89684316124359
 21
44.03223027622966
 31
0.000000000000000
  0
LINE
  5
98
100
AcDbEntity
  8
5
  6
PHANTOM
 62
6
100
AcDbLine
 10
109.8968431612427
 20
42.53223027622968
 30
0.000000000000000
 11
96.89684316124359
 21
42.53223027622968
 31
0.000000000000000
  0
ARC
  5
99
100
AcDbEntity
  8
1
  6
CONTINUOUS
 62
7
100
AcDbCircle
 10
109.8968431612395
 20
40.53223027622967
 30
0.000000000000000
 40
3.399999999999995
100
AcDbArc
 50
323.9681209275288
 51
334.6230664748473
  0
ARC
  5
9A
100
AcDbEntity
  8
1
  6
CONTINUOUS
 62
7
100
AcDbCircle
 10
109.8968431612395
 20
40.53223027622967
 30
0.000000000000000
 40
2.399999999999999
100
AcDbArc
 50
303.5573097619188
 51
334.6230664748467
  0
CIRCLE
  5
9B
100
AcDbEntity
  8
1
  6
CONTINUOUS
 62
7
100
AcDbCircle
 10
109.8968431612427
 20
40.53223027622967
 30
0.000000000000000
 40
0.9999999999999998
  0
CIRCLE
  5
9C
100
AcDbEntity
  8
1
  6
CONTINUOUS
 62
7
100
AcDbCircle
 10
109.8968431612427
 20
40.53223027622967
 30
0.000000000000000
 40
1.700000000000000
  0
CIRCLE
  5
9D
100
AcDbEntity
  8
1
  6
CONTINUOUS
 62
7
100
AcDbCircle
 10
109.8968431612427
 20
40.53223027622967
 30
0.000000000000000
 40
2.000000000000000
  0
LINE
  5
9E
100
AcDbEntity
  8
1
  6
CONTINUOUS
 62
7
100
AcDbLine
 10
113.3558722234706
 20
39.99826590788496
 30
0.000000000000000
 11
111.8903361826860
 21
40.69343069017675
 31
0.000000000000000
  0
LINE
  5
9F
100
AcDbEntity
  8
1
  6
CONTINUOUS
 62
7
100
AcDbLine
 10
111.7038589670530
 20
39.67508741908676
 30
0.000000000000000
 11
113.0591208214109
 21
39.03223027622955
 31
0.000000000000000
  0
LINE
  5
A0
100
AcDbEntity
  8
1
  6
CONTINUOUS
 62
7
100
AcDbLine
 10
122.8968431612418
 20
37.03223027622955
 30
0.000000000000000
 11
122.8968431612418
 21
38.53223027622955
 31
0.000000000000000
  0
LINE
  5
A1
100
AcDbEntity
  8
1
  6
CONTINUOUS
 62
7
100
AcDbLine
 10
105.8968431612423
 20
37.03223027622966
 30
0.000000000000000
 11
105.8968431612423
 21
38.53223027622966
 31
0.000000000000000
  0
LINE
  5
A2
100
AcDbEntity
  8
1
  6
CONTINUOUS
 62
7
100
AcDbLine
 10
96.89684316124188
 20
38.53223027622966
 30
0.000000000000000
 11
96.89684316124188
 21
37.03223027622966
 31
0.000000000000000
  0
LINE
  5
A3
100
AcDbEntity
  8
1
  6
CONTINUOUS
 62
7
100
AcDbLine
 10
113.2968431612429
 20
88.84454157915383
 30
0.000000000000000
 11
113.2968431612429
 21
90.84454157915384
 31
0.000000000000000
  0
LINE
  5
A4
100
AcDbEntity
  8
1
  6
CONTINUOUS
 62
7
100
AcDbLine
 10
106.4968431612428
 20
88.84454157915383
 30
0.000000000000000
 11
106.4968431612428
 21
90.84454157915384
 31
0.000000000000000
  0
LINE
  5
A5
100
AcDbEntity
  8
1
  6
CONTINUOUS
 62
7
100
AcDbLine
 10
106.4968431612428
 20
117.8445415791538
 30
0.000000000000000
 11
106.4968431612428
 21
115.8445415791538
 31
0.000000000000000
  0
LINE
  5
A6
100
AcDbEntity
  8
1
  6
CONTINUOUS
 62
7
100
AcDbLine
 10
113.2968431612429
 20
117.8445415791538
 30
0.000000000000000
 11
113.2968431612429
 21
115.8445415791538
 31
0.000000000000000
  0
LINE
  5
A7
100
AcDbEntity
  8
1
  6
CONTINUOUS
 62
7
100
AcDbLine
 10
111.8968431612427
 20
78.14454157915392
 30
0.000000000000000
 11
111.8968431612427
 21
78.34454157915383
 31
0.000000000000000
  0
LINE
  5
A8
100
AcDbEntity
  8
1
  6
CONTINUOUS
 62
7
100
AcDbLine
 10
107.8968431612427
 20
78.14454157915392
 30
0.000000000000000
 11
107.8968431612427
 21
78.34454157915383
 31
0.000000000000000
  0
LINE
  5
A9
100
AcDbEntity
  8
1
  6
CONTINUOUS
 62
7
100
AcDbLine
 10
111.5968431612429
 20
77.84454157915391
 30
0.000000000000000
 11
111.8968431612429
 21
78.14454157915384
 31
0.000000000000000
  0
LINE
  5
AA
100
AcDbEntity
  8
1
  6
CONTINUOUS
 62
7
100
AcDbLine
 10
108.1968431612429
 20
77.84454157915394
 30
0.000000000000000
 11
107.8968431612427
 21
78.14454157915392
 31
0.000000000000000
  0
LINE
  5
AB
100
AcDbEntity
  8
1
  6
CONTINUOUS
 62
7
100
AcDbLine
 10
111.5968431612428
 20
77.84454157915394
 30
0.000000000000000
 11
108.1968431612429
 21
77.84454157915394
 31
0.000000000000000
  0
LINE
  5
AC
100
AcDbEntity
  8
1
  6
CONTINUOUS
 62
7
100
AcDbLine
 10
107.8968431612427
 20
78.14454157915392
 30
0.000000000000000
 11
111.8968431612427
 21
78.14454157915392
 31
0.000000000000000
  0
LINE
  5
AD
100
AcDbEntity
  8
1
  6
CONTINUOUS
 62
7
100
AcDbLine
 10
107.8968431612427
 20
128.5445415791538
 30
0.000000000000000
 11
107.8968431612427
 21
128.3445415791538
 31
0.000000000000000
  0
LINE
  5
AE
100
AcDbEntity
  8
1
  6
CONTINUOUS
 62
7
100
AcDbLine
 10
111.8968431612427
 20
128.5445415791538
 30
0.000000000000000
 11
111.8968431612427
 21
128.3445415791538
 31
0.000000000000000
  0
LINE
  5
AF
100
AcDbEntity
  8
1
  6
CONTINUOUS
 62
7
100
AcDbLine
 10
108.1968431612429
 20
128.8445415791537
 30
0.000000000000000
 11
107.8968431612429
 21
128.5445415791537
 31
0.000000000000000
  0
LINE
  5
B0
100
AcDbEntity
  8
1
  6
CONTINUOUS
 62
7
100
AcDbLine
 10
111.5968431612429
 20
128.8445415791537
 30
0.000000000000000
 11
111.8968431612429
 21
128.5445415791537
 31
0.000000000000000
  0
LINE
  5
B1
100
AcDbEntity
  8
1
  6
CONTINUOUS
 62
7
100
AcDbLine
 10
108.1968431612429
 20
128.8445415791538
 30
0.000000000000000
 11
111.5968431612428
 21
128.8445415791537
 31
0.000000000000000
  0
LINE
  5
B2
100
AcDbEntity
  8
1
  6
CONTINUOUS
 62
7
100
AcDbLine
 10
111.8968431612427
 20
128.5445415791538
 30
0.000000000000000
 11
107.8968431612427
 21
128.5445415791538
 31
0.000000000000000
  0
LINE
  5
B3
100
AcDbEntity
  8
1
  6
CONTINUOUS
 62
7
100
AcDbLine
 10
106.3968431612428
 20
88.84454157915383
 30
0.000000000000000
 11
113.3968431612428
 21
88.84454157915383
 31
0.000000000000000
  0
LINE
  5
B4
100
AcDbEntity
  8
1
  6
CONTINUOUS
 62
7
100
AcDbLine
 10
113.3968431612428
 20
117.8445415791538
 30
0.000000000000000
 11
106.3968431612428
 21
117.8445415791538
 31
0.000000000000000
  0
LINE
  5
B5
100
AcDbEntity
  8
1
  6
CONTINUOUS
 62
7
100
AcDbLine
 10
113.8968431612422
 20
116.8445415791538
 30
0.000000000000000
 11
113.8968431612422
 21
89.84454157915383
 31
0.000000000000000
  0
LINE
  5
B6
100
AcDbEntity
  8
1
  6
CONTINUOUS
 62
7
100
AcDbLine
 10
113.3968431612428
 20
78.34454157915383
 30
0.000000000000000
 11
113.3968431612428
 21
88.84454157915383
 31
0.000000000000000
  0
LINE
  5
B7
100
AcDbEntity
  8
1
  6
CONTINUOUS
 62
7
100
AcDbLine
 10
106.3968431612428
 20
78.34454157915383
 30
0.000000000000000
 11
106.3968431612428
 21
88.84454157915383
 31
0.000000000000000
  0
LINE
  5
B8
100
AcDbEntity
  8
1
  6
CONTINUOUS
 62
7
100
AcDbLine
 10
113.3968431612428
 20
117.8445415791538
 30
0.000000000000000
 11
113.3968431612428
 21
128.3445415791538
 31
0.000000000000000
  0
LINE
  5
B9
100
AcDbEntity
  8
1
  6
CONTINUOUS
 62
7
100
AcDbLine
 10
106.3968431612428
 20
117.8445415791538
 30
0.000000000000000
 11
106.3968431612428
 21
128.3445415791538
 31
0.000000000000000
  0
LINE
  5
BA
100
AcDbEntity
  8
1
  6
CONTINUOUS
 62
7
100
AcDbLine
 10
122.8968431612422
 20
125.3445415791538
 30
0.000000000000000
 11
122.8968431612422
 21
81.34454157915383
 31
0.000000000000000
  0
ARC
  5
BB
100
AcDbEntity
  8
1
  6
CONTINUOUS
 62
7
100
AcDbCircle
 10
119.8968431612422
 20
81.34454157915383
 30
0.000000000000000
 40
3.000000000000008
100
AcDbArc
 50
270.0000000000000
 51
360.0000000000000
  0
ARC
  5
BC
100
AcDbEntity
  8
1
  6
CONTINUOUS
 62
7
100
AcDbCircle
 10
112.8968431612423
 20
89.84454157915383
 30
0.000000000000000
 40
1.000000000000001
100
AcDbArc
 50
293.5781784782012
 51
359.9999999999992
  0
ARC
  5
BD
100
AcDbEntity
  8
1
  6
CONTINUOUS
 62
7
100
AcDbCircle
 10
112.8968431612422
 20
116.8445415791538
 30
0.000000000000000
 40
0.9999999999999948
100
AcDbArc
 50
0.000000000000000
 51
66.42182152179872
  0
ARC
  5
BE
100
AcDbEntity
  8
1
  6
CONTINUOUS
 62
7
100
AcDbCircle
 10
119.8968431612422
 20
125.3445415791538
 30
0.000000000000000
 40
3.000000000000008
100
AcDbArc
 50
0.000000000000000
 51
89.99999999999999
  0
ARC
  5
BF
100
AcDbEntity
  8
1
  6
CONTINUOUS
 62
7
100
AcDbCircle
 10
117.8968431612422
 20
83.49454157915392
 30
0.000000000000000
 40
2.149999999999999
100
AcDbArc
 50
180.0000000000000
 51
360.0000000000000
  0
LINE
  5
C0
100
AcDbEntity
  8
1
  6
CONTINUOUS
 62
7
100
AcDbLine
 10
120.0468431612423
 20
84.19454157915391
 30
0.000000000000000
 11
120.0468431612423
 21
83.49454157915392
 31
0.000000000000000
  0
ARC
  5
C1
100
AcDbEntity
  8
1
  6
CONTINUOUS
 62
7
100
AcDbCircle
 10
117.8968431612422
 20
84.19454157915391
 30
0.000000000000000
 40
2.150000000000002
100
AcDbArc
 50
0.000000000000000
 51
180.0000000000000
  0
LINE
  5
C2
100
AcDbEntity
  8
1
  6
CONTINUOUS
 62
7
100
AcDbLine
 10
115.7468431612422
 20
83.49454157915392
 30
0.000000000000000
 11
115.7468431612422
 21
84.19454157915391
 31
0.000000000000000
  0
ARC
  5
C3
100
AcDbEntity
  8
1
  6
CONTINUOUS
 62
7
100
AcDbCircle
 10
117.8968431612422
 20
122.4945415791538
 30
0.000000000000000
 40
2.149999999999999
100
AcDbArc
 50
180.0000000000000
 51
360.0000000000000
  0
LINE
  5
C4
100
AcDbEntity
  8
1
  6
CONTINUOUS
 62
7
100
AcDbLine
 10
120.0468431612423
 20
123.1945415791538
 30
0.000000000000000
 11
120.0468431612423
 21
122.4945415791538
 31
0.000000000000000
  0
ARC
  5
C5
100
AcDbEntity
  8
1
  6
CONTINUOUS
 62
7
100
AcDbCircle
 10
117.8968431612422
 20
123.1945415791538
 30
0.000000000000000
 40
2.150000000000002
100
AcDbArc
 50
0.000000000000000
 51
180.0000000000000
  0
LINE
  5
C6
100
AcDbEntity
  8
1
  6
CONTINUOUS
 62
7
100
AcDbLine
 10
115.7468431612422
 20
122.4945415791538
 30
0.000000000000000
 11
115.7468431612422
 21
123.1945415791538
 31
0.000000000000000
  0
ARC
  5
C7
100
AcDbEntity
  8
1
  6
CONTINUOUS
 62
7
100
AcDbCircle
 10
117.8968431612422
 20
103.6945415791537
 30
0.000000000000000
 40
2.150000000000002
100
AcDbArc
 50
0.000000000000000
 51
180.0000000000000
  0
LINE
  5
C8
100
AcDbEntity
  8
1
  6
CONTINUOUS
 62
7
100
AcDbLine
 10
115.7468431612422
 20
102.9945415791539
 30
0.000000000000000
 11
115.7468431612422
 21
103.6945415791537
 31
0.000000000000000
  0
ARC
  5
C9
100
AcDbEntity
  8
1
  6
CONTINUOUS
 62
7
100
AcDbCircle
 10
117.8968431612422
 20
102.9945415791539
 30
0.000000000000000
 40
2.149999999999999
100
AcDbArc
 50
180.0000000000000
 51
360.0000000000000
  0
LINE
  5
CA
100
AcDbEntity
  8
1
  6
CONTINUOUS
 62
7
100
AcDbLine
 10
120.0468431612423
 20
103.6945415791537
 30
0.000000000000000
 11
120.0468431612423
 21
102.9945415791539
 31
0.000000000000000
  0
LINE
  5
CB
100
AcDbEntity
  8
1
  6
CONTINUOUS
 62
7
100
AcDbLine
 10
104.8968431612422
 20
128.3445415791538
 30
0.000000000000000
 11
99.89684316124224
 21
128.3445415791538
 31
0.000000000000000
  0
LINE
  5
CC
100
AcDbEntity
  8
1
  6
CONTINUOUS
 62
7
100
AcDbLine
 10
105.8968431612422
 20
116.8445415791538
 30
0.000000000000000
 11
105.8968431612422
 21
127.3445415791538
 31
0.000000000000000
  0
LINE
  5
CD
100
AcDbEntity
  8
1
  6
CONTINUOUS
 62
7
100
AcDbLine
 10
105.8968431612422
 20
79.34454157915381
 30
0.000000000000000
 11
105.8968431612422
 21
89.84454157915383
 31
0.000000000000000
  0
LINE
  5
CE
100
AcDbEntity
  8
1
  6
CONTINUOUS
 62
7
100
AcDbLine
 10
99.89684316124224
 20
78.34454157915383
 30
0.000000000000000
 11
104.8968431612422
 21
78.34454157915383
 31
0.000000000000000
  0
LINE
  5
CF
100
AcDbEntity
  8
1
  6
CONTINUOUS
 62
7
100
AcDbLine
 10
96.89684316124223
 20
125.3445415791538
 30
0.000000000000000
 11
96.89684316124223
 21
81.34454157915383
 31
0.000000000000000
  0
CIRCLE
  5
D0
100
AcDbEntity
  8
1
  6
CONTINUOUS
 62
7
100
AcDbCircle
 10
101.8968431612422
 20
122.8445415791538
 30
0.000000000000000
 40
2.149999999999999
  0
CIRCLE
  5
D1
100
AcDbEntity
  8
1
  6
CONTINUOUS
 62
7
100
AcDbCircle
 10
101.8968431612422
 20
103.3445415791538
 30
0.000000000000000
 40
2.149999999999999
  0
CIRCLE
  5
D2
100
AcDbEntity
  8
1
  6
CONTINUOUS
 62
7
100
AcDbCircle
 10
101.8968431612422
 20
83.84454157915383
 30
0.000000000000000
 40
2.149999999999999
  0
ARC
  5
D3
100
AcDbEntity
  8
1
  6
CONTINUOUS
 62
7
100
AcDbCircle
 10
104.8968431612422
 20
127.3445415791538
 30
0.000000000000000
 40
0.9999999999999920
100
AcDbArc
 50
359.9999999999992
 51
450.0000000000000
  0
ARC
  5
D4
100
AcDbEntity
  8
1
  6
CONTINUOUS
 62
7
100
AcDbCircle
 10
106.8968431612422
 20
116.8445415791538
 30
0.000000000000000
 40
0.9999999999999984
100
AcDbArc
 50
180.0000000000000
 51
246.4218215217988
  0
ARC
  5
D5
100
AcDbEntity
  8
1
  6
CONTINUOUS
 62
7
100
AcDbCircle
 10
106.8968431612422
 20
89.84454157915383
 30
0.000000000000000
 40
0.9999999999999992
100
AcDbArc
 50
113.5781784782012
 51
180.0000000000000
  0
ARC
  5
D6
100
AcDbEntity
  8
1
  6
CONTINUOUS
 62
7
100
AcDbCircle
 10
104.8968431612422
 20
79.34454157915381
 30
0.000000000000000
 40
0.9999999999999944
100
AcDbArc
 50
270.0000000000000
 51
360.0000000000016
  0
ARC
  5
D7
100
AcDbEntity
  8
1
  6
CONTINUOUS
 62
7
100
AcDbCircle
 10
99.89684316124224
 20
81.34454157915383
 30
0.000000000000000
 40
2.999999999999993
100
AcDbArc
 50
179.9999999999991
 51
270.0000000000000
  0
ARC
  5
D8
100
AcDbEntity
  8
1
  6
CONTINUOUS
 62
7
100
AcDbCircle
 10
99.89684316124224
 20
125.3445415791538
 30
0.000000000000000
 40
2.999999999999993
100
AcDbArc
 50
89.99999999999999
 51
180.0000000000000
  0
LINE
  5
D9
100
AcDbEntity
  8
1
  6
CONTINUOUS
 62
7
100
AcDbLine
 10
106.3968431612428
 20
115.2445415791538
 30
0.000000000000000
 11
106.3968431612428
 21
91.44454157915391
 31
0.000000000000000
  0
LINE
  5
DA
100
AcDbEntity
  8
1
  6
CONTINUOUS
 62
7
100
AcDbLine
 10
113.3968431612428
 20
115.8445415791538
 30
0.000000000000000
 11
113.3968431612428
 21
90.84454157915384
 31
0.000000000000000
  0
LINE
  5
DB
100
AcDbEntity
  8
1
  6
CONTINUOUS
 62
7
100
AcDbLine
 10
113.3968431612428
 20
90.84454157915384
 30
0.000000000000000
 11
106.4504318153986
 21
90.84454157915384
 31
0.000000000000000
  0
LINE
  5
DC
100
AcDbEntity
  8
1
  6
CONTINUOUS
 62
7
100
AcDbLine
 10
106.4504318153986
 20
115.8445415791538
 30
0.000000000000000
 11
113.3968431612428
 21
115.8445415791538
 31
0.000000000000000
  0
LINE
  5
DD
100
AcDbEntity
  8
1
  6
CONTINUOUS
 62
7
100
AcDbLine
 10
47.97156627977982
 20
88.84454157918042
 30
0.000000000000000
 11
47.97156627977982
 21
90.84454157918044
 31
0.000000000000000
  0
LINE
  5
DE
100
AcDbEntity
  8
1
  6
CONTINUOUS
 62
7
100
AcDbLine
 10
43.07156627977982
 20
101.8445415791803
 30
0.000000000000000
 11
42.57156627977983
 21
101.8445415791803
 31
0.000000000000000
  0
LINE
  5
DF
100
AcDbEntity
  8
1
  6
CONTINUOUS
 62
7
100
AcDbLine
 10
42.57156627977983
 20
98.34454157918044
 30
0.000000000000000
 11
43.47156627977986
 21
98.34454157918042
 31
0.000000000000000
  0
LINE
  5
E0
100
AcDbEntity
  8
1
  6
CONTINUOUS
 62
7
100
AcDbLine
 10
47.97156627977982
 20
117.8445415791804
 30
0.000000000000000
 11
47.97156627977982
 21
115.8445415791804
 31
0.000000000000000
  0
LINE
  5
E1
100
AcDbEntity
  8
1
  6
CONTINUOUS
 62
7
100
AcDbLine
 10
42.57156627977983
 20
104.8445415791804
 30
0.000000000000000
 11
43.07156627977982
 21
104.8445415791804
 31
0.000000000000000
  0
LINE
  5
E2
100
AcDbEntity
  8
1
  6
CONTINUOUS
 62
7
100
AcDbLine
 10
43.47156627977982
 20
108.3445415791804
 30
0.000000000000000
 11
42.57156627977983
 21
108.3445415791804
 31
0.000000000000000
  0
LINE
  5
E3
100
AcDbEntity
  8
1
  6
CONTINUOUS
 62
7
100
AcDbLine
 10
46.57156627977982
 20
78.14454157918038
 30
0.000000000000000
 11
46.57156627977982
 21
78.34454157918044
 31
0.000000000000000
  0
LINE
  5
E4
100
AcDbEntity
  8
1
  6
CONTINUOUS
 62
7
100
AcDbLine
 10
42.57156627977983
 20
78.14454157918038
 30
0.000000000000000
 11
42.57156627977983
 21
78.34454157918044
 31
0.000000000000000
  0
LINE
  5
E5
100
AcDbEntity
  8
1
  6
CONTINUOUS
 62
7
100
AcDbLine
 10
46.27156627977980
 20
77.84454157918043
 30
0.000000000000000
 11
46.57156627977982
 21
78.14454157918037
 31
0.000000000000000
  0
LINE
  5
E6
100
AcDbEntity
  8
1
  6
CONTINUOUS
 62
7
100
AcDbLine
 10
42.87156627977981
 20
77.84454157918044
 30
0.000000000000000
 11
42.57156627977983
 21
78.14454157918038
 31
0.000000000000000
  0
LINE
  5
E7
100
AcDbEntity
  8
1
  6
CONTINUOUS
 62
7
100
AcDbLine
 10
46.27156627977981
 20
77.84454157918044
 30
0.000000000000000
 11
42.87156627977981
 21
77.84454157918044
 31
0.000000000000000
  0
LINE
  5
E8
100
AcDbEntity
  8
1
  6
CONTINUOUS
 62
7
100
AcDbLine
 10
42.57156627977983
 20
78.14454157918038
 30
0.000000000000000
 11
46.57156627977982
 21
78.14454157918038
 31
0.000000000000000
  0
LINE
  5
E9
100
AcDbEntity
  8
1
  6
CONTINUOUS
 62
7
100
AcDbLine
 10
42.57156627977986
 20
128.5445415791804
 30
0.000000000000000
 11
42.57156627977986
 21
128.3445415791804
 31
0.000000000000000
  0
LINE
  5
EA
100
AcDbEntity
  8
1
  6
CONTINUOUS
 62
7
100
AcDbLine
 10
46.57156627977985
 20
128.5445415791803
 30
0.000000000000000
 11
46.57156627977985
 21
128.3445415791804
 31
0.000000000000000
  0
LINE
  5
EB
100
AcDbEntity
  8
1
  6
CONTINUOUS
 62
7
100
AcDbLine
 10
42.87156627977984
 20
128.8445415791804
 30
0.000000000000000
 11
42.57156627977986
 21
128.5445415791804
 31
0.000000000000000
  0
LINE
  5
EC
100
AcDbEntity
  8
1
  6
CONTINUOUS
 62
7
100
AcDbLine
 10
46.27156627977982
 20
128.8445415791804
 30
0.000000000000000
 11
46.57156627977984
 21
128.5445415791804
 31
0.000000000000000
  0
LINE
  5
ED
100
AcDbEntity
  8
1
  6
CONTINUOUS
 62
7
100
AcDbLine
 10
42.87156627977984
 20
128.8445415791803
 30
0.000000000000000
 11
46.27156627977984
 21
128.8445415791803
 31
0.000000000000000
  0
LINE
  5
EE
100
AcDbEntity
  8
1
  6
CONTINUOUS
 62
7
100
AcDbLine
 10
46.57156627977985
 20
128.5445415791803
 30
0.000000000000000
 11
42.57156627977986
 21
128.5445415791804
 31
0.000000000000000
  0
LINE
  5
EF
100
AcDbEntity
  8
1
  6
CONTINUOUS
 62
7
100
AcDbLine
 10
42.57156627977983
 20
88.84454157918042
 30
0.000000000000000
 11
48.07156627977982
 21
88.84454157918042
 31
0.000000000000000
  0
LINE
  5
F0
100
AcDbEntity
  8
1
  6
CONTINUOUS
 62
7
100
AcDbLine
 10
48.07156627977982
 20
117.8445415791804
 30
0.000000000000000
 11
42.57156627977983
 21
117.8445415791804
 31
0.000000000000000
  0
LINE
  5
F1
100
AcDbEntity
  8
1
  6
CONTINUOUS
 62
7
100
AcDbLine
 10
48.07156627977982
 20
78.34454157918044
 30
0.000000000000000
 11
48.07156627977982
 21
88.84454157918042
 31
0.000000000000000
  0
LINE
  5
F2
100
AcDbEntity
  8
1
  6
CONTINUOUS
 62
7
100
AcDbLine
 10
48.07156627977982
 20
117.8445415791804
 30
0.000000000000000
 11
48.07156627977986
 21
128.3445415791804
 31
0.000000000000000
  0
LINE
  5
F3
100
AcDbEntity
  8
1
  6
CONTINUOUS
 62
7
100
AcDbLine
 10
43.67156627977971
 20
98.44454157918037
 30
0.000000000000000
 11
43.57156627977979
 21
98.44454157918037
 31
0.000000000000000
  0
LINE
  5
F4
100
AcDbEntity
  8
1
  6
CONTINUOUS
 62
7
100
AcDbLine
 10
43.07156627977979
 20
98.94454157918035
 30
0.000000000000000
 11
43.07156627977982
 21
107.7445415791804
 31
0.000000000000000
  0
LINE
  5
F5
100
AcDbEntity
  8
1
  6
CONTINUOUS
 62
7
100
AcDbLine
 10
43.57156627977982
 20
108.2445415791804
 30
0.000000000000000
 11
43.67156627977982
 21
108.2445415791804
 31
0.000000000000000
  0
LINE
  5
F6
100
AcDbEntity
  8
1
  6
CONTINUOUS
 62
7
100
AcDbLine
 10
48.07156627977982
 20
115.8445415791804
 30
0.000000000000000
 11
48.07156627977982
 21
90.84454157918044
 31
0.000000000000000
  0
ARC
  5
F7
100
AcDbEntity
  8
1
  6
CONTINUOUS
 62
7
100
AcDbCircle
 10
109.7492158370779
 20
115.2475194658211
 30
0.000000000000000
 40
3.352373998451703
100
AcDbArc
 50
169.7415102947998
 51
180.0508953835169
  0
ARC
  5
F8
100
AcDbEntity
  8
1
  6
CONTINUOUS
 62
7
100
AcDbCircle
 10
109.7492158370779
 20
91.44156369248648
 30
0.000000000000000
 40
3.352373998451703
100
AcDbArc
 50
179.9491046164830
 51
190.2584897052000
  0
LINE
  5
F9
100
AcDbEntity
  8
1
  6
CONTINUOUS
 62
7
100
AcDbLine
 10
44.17156627977987
 20
114.8445415791804
 30
0.000000000000000
 11
45.18168826367777
 21
115.8445415791804
 31
0.000000000000000
  0
LINE
  5
FA
100
AcDbEntity
  8
1
  6
CONTINUOUS
 62
7
100
AcDbLine
 10
44.17156627977986
 20
91.84454157918044
 30
0.000000000000000
 11
45.18168826367778
 21
90.84454157918046
 31
0.000000000000000
  0
ARC
  5
FB
100
AcDbEntity
  8
1
  6
CONTINUOUS
 62
7
100
AcDbCircle
 10
43.47156627977986
 20
97.64454157918041
 30
0.000000000000000
 40
0.7000000000000000
100
AcDbArc
 50
0.000000000000000
 51
90.00000000000000
  0
ARC
  5
FC
100
AcDbEntity
  8
1
  6
CONTINUOUS
 62
7
100
AcDbCircle
 10
43.47156627977982
 20
109.0445415791803
 30
0.000000000000000
 40
0.7000000000000000
100
AcDbArc
 50
270.0000000000000
 51
360.0000000000000
  0
ARC
  5
FD
100
AcDbEntity
  8
1
  6
CONTINUOUS
 62
7
100
AcDbCircle
 10
43.57156627977979
 20
98.94454157918035
 30
0.000000000000000
 40
0.5000000000000000
100
AcDbArc
 50
180.0000000000000
 51
270.0000000000000
  0
ARC
  5
FE
100
AcDbEntity
  8
1
  6
CONTINUOUS
 62
7
100
AcDbCircle
 10
43.67156627977985
 20
97.94454157918035
 30
0.000000000000000
 40
0.5000000000000000
100
AcDbArc
 50
359.9999999999997
 51
450.0000000000152
  0
ARC
  5
FF
100
AcDbEntity
  8
1
  6
CONTINUOUS
 62
7
100
AcDbCircle
 10
43.57156627977982
 20
107.7445415791804
 30
0.000000000000000
 40
0.5000000000000000
100
AcDbArc
 50
90.00000000000000
 51
179.9999999999998
  0
ARC
  5
100
100
AcDbEntity
  8
1
  6
CONTINUOUS
 62
7
100
AcDbCircle
 10
43.67156627977982
 20
108.7445415791804
 30
0.000000000000000
 40
0.5000000000000000
100
AcDbArc
 50
270.0000000000000
 51
360.0000000000000
  0
LINE
  5
101
100
AcDbEntity
  8
1
  6
CONTINUOUS
 62
7
100
AcDbLine
 10
171.7221200427057
 20
115.8445415791804
 30
0.000000000000000
 11
171.7221200427057
 21
90.84454157918044
 31
0.000000000000000
  0
LINE
  5
102
100
AcDbEntity
  8
1
  6
CONTINUOUS
 62
7
100
AcDbLine
 10
177.2221200427057
 20
128.3445415791804
 30
0.000000000000000
 11
177.2221200427057
 21
78.34454157918044
 31
0.000000000000000
  0
LINE
  5
103
100
AcDbEntity
  8
1
  6
CONTINUOUS
 62
7
100
AcDbLine
 10
178.7221200427057
 20
128.3445415791804
 30
0.000000000000000
 11
178.7221200427057
 21
78.34454157918044
 31
0.000000000000000
  0
LINE
  5
104
100
AcDbEntity
  8
4
  6
CENTER
 62
1
100
AcDbLine
 10
175.2221200427056
 20
130.3445415791804
 30
0.000000000000000
 11
175.2221200427056
 21
76.34454157918042
 31
0.000000000000000
  0
LINE
  5
105
100
AcDbEntity
  8
4
  6
CENTER
 62
1
100
AcDbLine
 10
175.7221200427057
 20
83.84454157915383
 30
0.000000000000000
 11
180.2221200427058
 21
83.84454157915383
 31
0.000000000000000
  0
LINE
  5
106
100
AcDbEntity
  8
1
  6
CONTINUOUS
 62
7
100
AcDbLine
 10
177.2221200427057
 20
88.84454157918042
 30
0.000000000000000
 11
171.7221200427057
 21
88.84454157918042
 31
0.000000000000000
  0
LINE
  5
107
100
AcDbEntity
  8
1
  6
CONTINUOUS
 62
7
100
AcDbLine
 10
176.9221200427057
 20
77.84454157918043
 30
0.000000000000000
 11
177.2221200427057
 21
78.14454157918038
 31
0.000000000000000
  0
LINE
  5
108
100
AcDbEntity
  8
1
  6
CONTINUOUS
 62
7
100
AcDbLine
 10
178.7221200427057
 20
78.34454157918044
 30
0.000000000000000
 11
177.2221200427057
 21
78.34454157918044
 31
0.000000000000000
  0
LINE
  5
109
100
AcDbEntity
  8
1
  6
CONTINUOUS
 62
7
100
AcDbLine
 10
177.2221200427057
 20
78.14454157918038
 30
0.000000000000000
 11
173.2221200427057
 21
78.14454157918038
 31
0.000000000000000
  0
LINE
  5
10A
100
AcDbEntity
  8
1
  6
CONTINUOUS
 62
7
100
AcDbLine
 10
177.2221200427057
 20
78.14454157918038
 30
0.000000000000000
 11
177.2221200427057
 21
78.34454157918044
 31
0.000000000000000
  0
LINE
  5
10B
100
AcDbEntity
  8
1
  6
CONTINUOUS
 62
7
100
AcDbLine
 10
171.7221200427057
 20
78.34454157918044
 30
0.000000000000000
 11
171.7221200427057
 21
88.84454157918042
 31
0.000000000000000
  0
LINE
  5
10C
100
AcDbEntity
  8
1
  6
CONTINUOUS
 62
7
100
AcDbLine
 10
173.5221200427057
 20
77.84454157918043
 30
0.000000000000000
 11
173.2221200427057
 21
78.14454157918038
 31
0.000000000000000
  0
LINE
  5
10D
100
AcDbEntity
  8
1
  6
CONTINUOUS
 62
7
100
AcDbLine
 10
173.2221200427057
 20
78.14454157918038
 30
0.000000000000000
 11
173.2221200427057
 21
78.34454157918044
 31
0.000000000000000
  0
LINE
  5
10E
100
AcDbEntity
  8
1
  6
CONTINUOUS
 62
7
100
AcDbLine
 10
173.5221200427057
 20
77.84454157918044
 30
0.000000000000000
 11
176.9221200427057
 21
77.84454157918044
 31
0.000000000000000
  0
LINE
  5
10F
100
AcDbEntity
  8
1
  6
CONTINUOUS
 62
7
100
AcDbLine
 10
177.2221200427057
 20
90.84454157918044
 30
0.000000000000000
 11
171.7221200427057
 21
90.84454157918044
 31
0.000000000000000
  0
LINE
  5
110
100
AcDbEntity
  8
1
  6
CONTINUOUS
 62
7
100
AcDbLine
 10
171.8221200427056
 20
88.84454157918042
 30
0.000000000000000
 11
171.8221200427056
 21
90.84454157918044
 31
0.000000000000000
  0
LINE
  5
111
100
AcDbEntity
  8
1
  6
CONTINUOUS
 62
7
100
AcDbLine
 10
176.9221200427057
 20
128.8445415791804
 30
0.000000000000000
 11
177.2221200427057
 21
128.5445415791804
 31
0.000000000000000
  0
LINE
  5
112
100
AcDbEntity
  8
4
  6
CENTER
 62
1
100
AcDbLine
 10
175.7221200427057
 20
122.8445415791538
 30
0.000000000000000
 11
180.2221200427057
 21
122.8445415791538
 31
0.000000000000000
  0
LINE
  5
113
100
AcDbEntity
  8
1
  6
CONTINUOUS
 62
7
100
AcDbLine
 10
178.7221200427057
 20
128.3445415791804
 30
0.000000000000000
 11
177.2221200427057
 21
128.3445415791804
 31
0.000000000000000
  0
LINE
  5
114
100
AcDbEntity
  8
1
  6
CONTINUOUS
 62
7
100
AcDbLine
 10
173.2221200427057
 20
128.5445415791803
 30
0.000000000000000
 11
177.2221200427057
 21
128.5445415791804
 31
0.000000000000000
  0
LINE
  5
115
100
AcDbEntity
  8
1
  6
CONTINUOUS
 62
7
100
AcDbLine
 10
171.7221200427057
 20
117.8445415791804
 30
0.000000000000000
 11
177.2221200427057
 21
117.8445415791804
 31
0.000000000000000
  0
LINE
  5
116
100
AcDbEntity
  8
4
  6
CENTER
 62
1
100
AcDbLine
 10
180.2221200427057
 20
103.3445415791804
 30
0.000000000000000
 11
170.2221200427057
 21
103.3445415791804
 31
0.000000000000000
  0
LINE
  5
117
100
AcDbEntity
  8
1
  6
CONTINUOUS
 62
7
100
AcDbLine
 10
177.2221200427057
 20
128.5445415791804
 30
0.000000000000000
 11
177.2221200427057
 21
128.3445415791804
 31
0.000000000000000
  0
LINE
  5
118
100
AcDbEntity
  8
1
  6
CONTINUOUS
 62
7
100
AcDbLine
 10
171.7221200427057
 20
117.8445415791804
 30
0.000000000000000
 11
171.7221200427057
 21
128.3445415791804
 31
0.000000000000000
  0
LINE
  5
119
100
AcDbEntity
  8
1
  6
CONTINUOUS
 62
7
100
AcDbLine
 10
171.8221200427056
 20
117.8445415791804
 30
0.000000000000000
 11
171.8221200427056
 21
115.8445415791804
 31
0.000000000000000
  0
LINE
  5
11A
100
AcDbEntity
  8
1
  6
CONTINUOUS
 62
7
100
AcDbLine
 10
177.2221200427057
 20
115.8445415791804
 30
0.000000000000000
 11
171.7221200427057
 21
115.8445415791804
 31
0.000000000000000
  0
LINE
  5
11B
100
AcDbEntity
  8
1
  6
CONTINUOUS
 62
7
100
AcDbLine
 10
173.5221200427057
 20
128.8445415791804
 30
0.000000000000000
 11
173.2221200427057
 21
128.5445415791804
 31
0.000000000000000
  0
LINE
  5
11C
100
AcDbEntity
  8
1
  6
CONTINUOUS
 62
7
100
AcDbLine
 10
173.2221200427057
 20
128.5445415791803
 30
0.000000000000000
 11
173.2221200427057
 21
128.3445415791804
 31
0.000000000000000
  0
LINE
  5
11D
100
AcDbEntity
  8
1
  6
CONTINUOUS
 62
7
100
AcDbLine
 10
176.9221200427057
 20
128.8445415791803
 30
0.000000000000000
 11
173.5221200427057
 21
128.8445415791803
 31
0.000000000000000
  0
LINE
  5
11E
100
AcDbEntity
  8
1
  6
CONTINUOUS
 62
7
100
AcDbLine
 10
109.8968431612427
 20
169.6568528820780
 30
0.000000000000000
 11
122.8968431612418
 21
169.6568528820781
 31
0.000000000000000
  0
LINE
  5
11F
100
AcDbEntity
  8
1
  6
CONTINUOUS
 62
7
100
AcDbLine
 10
109.8968431612426
 20
168.1568528820780
 30
0.000000000000000
 11
122.8968431612418
 21
168.1568528820781
 31
0.000000000000000
  0
LINE
  5
120
100
AcDbEntity
  8
1
  6
CONTINUOUS
 62
7
100
AcDbLine
 10
105.8968431612423
 20
169.6568528820780
 30
0.000000000000000
 11
105.8968431612423
 21
168.1568528820780
 31
0.000000000000000
  0
LINE
  5
121
100
AcDbEntity
  8
1
  6
CONTINUOUS
 62
7
100
AcDbLine
 10
96.89684316124188
 20
168.1568528820780
 30
0.000000000000000
 11
96.89684316124188
 21
169.6568528820780
 31
0.000000000000000
  0
LINE
  5
122
100
AcDbEntity
  8
4
  6
CENTER
 62
1
100
AcDbLine
 10
109.8968431612427
 20
161.1568528820779
 30
0.000000000000000
 11
109.8968431612427
 21
171.1568528820779
 31
0.000000000000000
  0
LINE
  5
123
100
AcDbEntity
  8
4
  6
CENTER
 62
1
100
AcDbLine
 10
101.8968431612421
 20
166.6568528820782
 30
0.000000000000000
 11
101.8968431612421
 21
171.1568528820779
 31
0.000000000000000
  0
ARC
  5
124
100
AcDbEntity
  8
1
  6
CONTINUOUS
 62
7
100
AcDbCircle
 10
109.8968431612427
 20
166.1568528820779
 30
0.000000000000000
 40
3.500000000000006
100
AcDbArc
 50
90.00000000000006
 51
394.8499045790472
  0
LINE
  5
125
100
AcDbEntity
  8
1
  6
CONTINUOUS
 62
7
100
AcDbLine
 10
96.89684316124180
 20
169.6568528820780
 30
0.000000000000000
 11
109.8968431612426
 21
169.6568528820780
 31
0.000000000000000
  0
LINE
  5
126
100
AcDbEntity
  8
5
  6
PHANTOM
 62
6
100
AcDbLine
 10
96.89684316124359
 20
162.6568528820780
 30
0.000000000000000
 11
109.8968431612424
 21
162.6568528820780
 31
0.000000000000000
  0
LINE
  5
127
100
AcDbEntity
  8
5
  6
PHANTOM
 62
6
100
AcDbLine
 10
109.8968431612427
 20
164.1568528820779
 30
0.000000000000000
 11
96.89684316124359
 21
164.1568528820779
 31
0.000000000000000
  0
LINE
  5
128
100
AcDbEntity
  8
1
  6
CONTINUOUS
 62
7
100
AcDbLine
 10
96.89684316124188
 20
168.1568528820780
 30
0.000000000000000
 11
107.0245618379698
 21
168.1568528820780
 31
0.000000000000000
  0
LINE
  5
129
100
AcDbEntity
  8
4
  6
CENTER
 62
1
100
AcDbLine
 10
101.8968431612428
 20
165.6568528820776
 30
0.000000000000000
 11
101.8968431612428
 21
161.1568528820779
 31
0.000000000000000
  0
LINE
  5
12A
100
AcDbEntity
  8
5
  6
PHANTOM
 62
6
100
AcDbLine
 10
96.89684316124359
 20
164.1568528820779
 30
0.000000000000000
 11
96.89684316124359
 21
162.6568528820780
 31
0.000000000000000
  0
CIRCLE
  5
12B
100
AcDbEntity
  8
1
  6
CONTINUOUS
 62
7
100
AcDbCircle
 10
109.8968431612427
 20
166.1568528820779
 30
0.000000000000000
 40
0.9999999999999998
  0
CIRCLE
  5
12C
100
AcDbEntity
  8
1
  6
CONTINUOUS
 62
7
100
AcDbCircle
 10
109.8968431612427
 20
166.1568528820779
 30
0.000000000000000
 40
1.700000000000000
  0
CIRCLE
  5
12D
100
AcDbEntity
  8
1
  6
CONTINUOUS
 62
7
100
AcDbCircle
 10
109.8968431612427
 20
166.1568528820779
 30
0.000000000000000
 40
2.000000000000000
  0
LINE
  5
12E
100
AcDbEntity
  8
4
  6
CENTER
 62
1
100
AcDbLine
 10
114.8968431612428
 20
166.1568528820779
 30
0.000000000000000
 11
104.8968431612427
 21
166.1568528820779
 31
0.000000000000000
  0
ARC
  5
12F
100
AcDbEntity
  8
1
  6
CONTINUOUS
 62
7
100
AcDbCircle
 10
109.8968431612395
 20
166.1568528820779
 30
0.000000000000000
 40
3.399999999999995
100
AcDbArc
 50
25.37693352515254
 51
36.03187907247119
  0
ARC
  5
130
100
AcDbEntity
  8
1
  6
CONTINUOUS
 62
7
100
AcDbCircle
 10
109.8968431612395
 20
166.1568528820779
 30
0.000000000000000
 40
2.399999999999999
100
AcDbArc
 50
25.37693352515326
 51
56.44269023808112
  0
LINE
  5
131
100
AcDbEntity
  8
1
  6
CONTINUOUS
 62
7
100
AcDbLine
 10
113.3558722234706
 20
166.6908172504227
 30
0.000000000000000
 11
111.8903361826860
 21
165.9956524681309
 31
0.000000000000000
  0
LINE
  5
132
100
AcDbEntity
  8
1
  6
CONTINUOUS
 62
7
100
AcDbLine
 10
111.7038589670530
 20
167.0139957392208
 30
0.000000000000000
 11
113.0591208214109
 21
167.6568528820781
 31
0.000000000000000
  0
LINE
  5
133
100
AcDbEntity
  8
1
  6
CONTINUOUS
 62
7
100
AcDbLine
 10
122.8968431612418
 20
169.6568528820781
 30
0.000000000000000
 11
122.8968431612418
 21
168.1568528820781
 31
0.000000000000000
  0
LINE
  5
134
100
AcDbEntity
  8
4
  6
CENTER
 62
1
100
AcDbLine
 10
117.8968431612428
 20
166.6568528820782
 30
0.000000000000000
 11
117.8968431612428
 21
171.1568528820779
 31
0.000000000000000
  0
LINE
  5
135
100
AcDbEntity
  8
1
  6
CONTINUOUS
 62
7
100
AcDbLine
 10
175.7776097696962
 20
117.8445415791802
 30
0.000000000000000
 11
176.7221200427056
 21
118.8445415791804
 31
0.000000000000000
  0
LINE
  5
136
100
AcDbEntity
  8
1
  6
CONTINUOUS
 62
7
100
AcDbLine
 10
176.7221200427056
 20
127.3445415791802
 30
0.000000000000000
 11
175.7776097696938
 21
128.3445415791804
 31
0.000000000000000
  0
LINE
  5
137
100
AcDbEntity
  8
1
  6
CONTINUOUS
 62
7
100
AcDbLine
 10
176.7221200427056
 20
118.8445415791804
 30
0.000000000000000
 11
176.7221200427056
 21
127.3445415791802
 31
0.000000000000000
  0
LINE
  5
138
100
AcDbEntity
  8
1
  6
CONTINUOUS
 62
7
100
AcDbLine
 10
175.7776097696938
 20
128.3445415791804
 30
0.000000000000000
 11
171.7221200427057
 21
128.3445415791804
 31
0.000000000000000
  0
LINE
  5
139
100
AcDbEntity
  8
1
  6
CONTINUOUS
 62
7
100
AcDbLine
 10
176.7221200427056
 20
124.1445415791803
 30
0.000000000000000
 11
177.2221200427057
 21
124.1445415791803
 31
0.000000000000000
  0
LINE
  5
13A
100
AcDbEntity
  8
1
  6
CONTINUOUS
 62
7
100
AcDbLine
 10
176.9221200427057
 20
123.8445415791804
 30
0.000000000000000
 11
177.2221200427057
 21
124.1445415791804
 31
0.000000000000000
  0
LINE
  5
13B
100
AcDbEntity
  8
1
  6
CONTINUOUS
 62
7
100
AcDbLine
 10
176.7221200427056
 20
123.8445415791804
 30
0.000000000000000
 11
176.9221200427057
 21
123.8445415791804
 31
0.000000000000000
  0
LINE
  5
13C
100
AcDbEntity
  8
1
  6
CONTINUOUS
 62
7
100
AcDbLine
 10
176.9221200427057
 20
82.84454157918039
 30
0.000000000000000
 11
177.2221200427057
 21
82.54454157918042
 31
0.000000000000000
  0
LINE
  5
13D
100
AcDbEntity
  8
1
  6
CONTINUOUS
 62
7
100
AcDbLine
 10
176.7221200427056
 20
82.54454157918047
 30
0.000000000000000
 11
177.2221200427057
 21
82.54454157918047
 31
0.000000000000000
  0
LINE
  5
13E
100
AcDbEntity
  8
1
  6
CONTINUOUS
 62
7
100
AcDbLine
 10
176.7221200427056
 20
82.84454157918044
 30
0.000000000000000
 11
176.9221200427057
 21
82.84454157918044
 31
0.000000000000000
  0
LINE
  5
13F
100
AcDbEntity
  8
1
  6
CONTINUOUS
 62
7
100
AcDbLine
 10
176.7221200427056
 20
79.34454157918063
 30
0.000000000000000
 11
175.7776097696938
 21
78.34454157918043
 31
0.000000000000000
  0
LINE
  5
140
100
AcDbEntity
  8
1
  6
CONTINUOUS
 62
7
100
AcDbLine
 10
176.7221200427056
 20
87.84454157918044
 30
0.000000000000000
 11
176.7221200427056
 21
79.34454157918066
 31
0.000000000000000
  0
LINE
  5
141
100
AcDbEntity
  8
1
  6
CONTINUOUS
 62
7
100
AcDbLine
 10
175.7776097696962
 20
88.84454157918054
 30
0.000000000000000
 11
176.7221200427056
 21
87.84454157918042
 31
0.000000000000000
  0
LINE
  5
142
100
AcDbEntity
  8
1
  6
CONTINUOUS
 62
7
100
AcDbLine
 10
175.7776097696938
 20
78.34454157918044
 30
0.000000000000000
 11
171.7221200427057
 21
78.34454157918044
 31
0.000000000000000
  0
ARC
  5
143
100
AcDbEntity
  8
1
  6
CONTINUOUS
 62
7
100
AcDbCircle
 10
232.5473969241692
 20
102.9945415791539
 30
0.000000000000000
 40
2.149999999999999
100
AcDbArc
 50
180.0000000000000
 51
360.0000000000000
  0
CIRCLE
  5
144
100
AcDbEntity
  8
1
  6
CONTINUOUS
 62
7
100
AcDbCircle
 10
248.5473969241692
 20
103.3445415791538
 30
0.000000000000000
 40
2.149999999999999
  0
LINE
  5
145
100
AcDbEntity
  8
1
  6
CONTINUOUS
 62
7
100
AcDbLine
 10
237.0473969241686
 20
115.8445415791538
 30
0.000000000000000
 11
237.0473969241686
 21
90.84454157915384
 31
0.000000000000000
  0
LINE
  5
146
100
AcDbEntity
  8
1
  6
CONTINUOUS
 62
7
100
AcDbLine
 10
253.5473969241692
 20
125.3445415791538
 30
0.000000000000000
 11
253.5473969241692
 21
81.34454157915383
 31
0.000000000000000
  0
LINE
  5
147
100
AcDbEntity
  8
1
  6
CONTINUOUS
 62
7
100
AcDbLine
 10
227.5473969241692
 20
125.3445415791538
 30
0.000000000000000
 11
227.5473969241692
 21
81.34454157915383
 31
0.000000000000000
  0
LINE
  5
148
100
AcDbEntity
  8
1
  6
CONTINUOUS
 62
7
100
AcDbLine
 10
236.5473969241692
 20
116.8445415791538
 30
0.000000000000000
 11
236.5473969241692
 21
89.84454157915383
 31
0.000000000000000
  0
LINE
  5
149
100
AcDbEntity
  8
4
  6
CENTER
 62
1
100
AcDbLine
 10
232.5473969241692
 20
126.8445415791538
 30
0.000000000000000
 11
232.5473969241692
 21
79.84454157915383
 31
0.000000000000000
  0
LINE
  5
14A
100
AcDbEntity
  8
4
  6
CENTER
 62
1
100
AcDbLine
 10
240.5473969241686
 20
130.3445415791804
 30
0.000000000000000
 11
240.5473969241686
 21
76.34454157918042
 31
0.000000000000000
  0
LINE
  5
14B
100
AcDbEntity
  8
4
  6
CENTER
 62
1
100
AcDbLine
 10
248.5473969241692
 20
126.4945415791538
 30
0.000000000000000
 11
248.5473969241692
 21
80.19454157915381
 31
0.000000000000000
  0
ARC
  5
14C
100
AcDbEntity
  8
1
  6
CONTINUOUS
 62
7
100
AcDbCircle
 10
232.5473969241692
 20
84.19454157915391
 30
0.000000000000000
 40
2.150000000000002
100
AcDbArc
 50
6.999999999999999e-15
 51
180.0000000000000
  0
ARC
  5
14D
100
AcDbEntity
  8
1
  6
CONTINUOUS
 62
7
100
AcDbCircle
 10
232.5473969241692
 20
83.49454157915392
 30
0.000000000000000
 40
2.149999999999999
100
AcDbArc
 50
180.0000000000000
 51
360.0000000000000
  0
LINE
  5
14E
100
AcDbEntity
  8
4
  6
CENTER
 62
1
100
AcDbLine
 10
236.1973969241692
 20
83.84454157915383
 30
0.000000000000000
 11
228.8973969241691
 21
83.84454157915383
 31
0.000000000000000
  0
LINE
  5
14F
100
AcDbEntity
  8
1
  6
CONTINUOUS
 62
7
100
AcDbLine
 10
244.0473969241686
 20
78.34454157915383
 30
0.000000000000000
 11
230.5473969241692
 21
78.34454157915383
 31
0.000000000000000
  0
LINE
  5
150
100
AcDbEntity
  8
1
  6
CONTINUOUS
 62
7
100
AcDbLine
 10
244.0473969241686
 20
78.34454157915383
 30
0.000000000000000
 11
244.0473969241686
 21
88.84454157915383
 31
0.000000000000000
  0
ARC
  5
151
100
AcDbEntity
  8
1
  6
CONTINUOUS
 62
7
100
AcDbCircle
 10
250.5473969241692
 20
81.34454157915383
 30
0.000000000000000
 40
2.999999999999993
100
AcDbArc
 50
270.0000000000000
 51
360.0000000000008
  0
LINE
  5
152
100
AcDbEntity
  8
1
  6
CONTINUOUS
 62
7
100
AcDbLine
 10
244.5473969241692
 20
79.34454157915381
 30
0.000000000000000
 11
244.5473969241692
 21
89.84454157915383
 31
0.000000000000000
  0
LINE
  5
153
100
AcDbEntity
  8
1
  6
CONTINUOUS
 62
7
100
AcDbLine
 10
250.5473969241692
 20
78.34454157915383
 30
0.000000000000000
 11
245.5473969241692
 21
78.34454157915383
 31
0.000000000000000
  0
LINE
  5
154
100
AcDbEntity
  8
1
  6
CONTINUOUS
 62
7
100
AcDbLine
 10
242.5473969241686
 20
78.14454157915392
 30
0.000000000000000
 11
238.5473969241686
 21
78.14454157915392
 31
0.000000000000000
  0
LINE
  5
155
100
AcDbEntity
  8
1
  6
CONTINUOUS
 62
7
100
AcDbLine
 10
238.8473969241686
 20
77.84454157915394
 30
0.000000000000000
 11
242.2473969241685
 21
77.84454157915394
 31
0.000000000000000
  0
LINE
  5
156
100
AcDbEntity
  8
1
  6
CONTINUOUS
 62
7
100
AcDbLine
 10
242.2473969241685
 20
77.84454157915395
 30
0.000000000000000
 11
242.5473969241687
 21
78.14454157915394
 31
0.000000000000000
  0
LINE
  5
157
100
AcDbEntity
  8
1
  6
CONTINUOUS
 62
7
100
AcDbLine
 10
242.5473969241686
 20
78.14454157915392
 30
0.000000000000000
 11
242.5473969241686
 21
78.34454157915383
 31
0.000000000000000
  0
ARC
  5
158
100
AcDbEntity
  8
1
  6
CONTINUOUS
 62
7
100
AcDbCircle
 10
245.5473969241692
 20
79.34454157915381
 30
0.000000000000000
 40
0.9999999999999944
100
AcDbArc
 50
179.9999999999984
 51
270.0000000000000
  0
LINE
  5
159
100
AcDbEntity
  8
1
  6
CONTINUOUS
 62
7
100
AcDbLine
 10
238.8473969241685
 20
77.84454157915391
 30
0.000000000000000
 11
238.5473969241685
 21
78.14454157915382
 31
0.000000000000000
  0
LINE
  5
15A
100
AcDbEntity
  8
1
  6
CONTINUOUS
 62
7
100
AcDbLine
 10
238.5473969241686
 20
78.14454157915392
 30
0.000000000000000
 11
238.5473969241686
 21
78.34454157915383
 31
0.000000000000000
  0
CIRCLE
  5
15B
100
AcDbEntity
  8
1
  6
CONTINUOUS
 62
7
100
AcDbCircle
 10
248.5473969241692
 20
83.84454157915383
 30
0.000000000000000
 40
2.149999999999999
  0
LINE
  5
15C
100
AcDbEntity
  8
4
  6
CENTER
 62
1
100
AcDbLine
 10
244.8973969241691
 20
83.84454157915383
 30
0.000000000000000
 11
252.1973969241692
 21
83.84454157915383
 31
0.000000000000000
  0
LINE
  5
15D
100
AcDbEntity
  8
1
  6
CONTINUOUS
 62
7
100
AcDbLine
 10
237.0473969241686
 20
90.84454157915384
 30
0.000000000000000
 11
243.5473969241692
 21
90.84454157915384
 31
0.000000000000000
  0
LINE
  5
15E
100
AcDbEntity
  8
1
  6
CONTINUOUS
 62
7
100
AcDbLine
 10
244.0473969241686
 20
88.84454157915383
 30
0.000000000000000
 11
237.5473969241691
 21
88.84454157915383
 31
0.000000000000000
  0
ARC
  5
15F
100
AcDbEntity
  8
1
  6
CONTINUOUS
 62
7
100
AcDbCircle
 10
243.5473969241692
 20
89.84454157915383
 30
0.000000000000000
 40
0.9999999999999992
100
AcDbArc
 50
6.999999999999999e-15
 51
90.00000000000000
  0
LINE
  5
160
100
AcDbEntity
  8
1
  6
CONTINUOUS
 62
7
100
AcDbLine
 10
243.9473969241686
 20
88.84454157915383
 30
0.000000000000000
 11
243.9473969241686
 21
90.76105671814524
 31
0.000000000000000
  0
LINE
  5
161
100
AcDbEntity
  8
1
  6
CONTINUOUS
 62
7
100
AcDbLine
 10
234.6973969241692
 20
83.49454157915392
 30
0.000000000000000
 11
234.6973969241692
 21
84.19454157915391
 31
0.000000000000000
  0
ARC
  5
162
100
AcDbEntity
  8
1
  6
CONTINUOUS
 62
7
100
AcDbCircle
 10
237.5473969241691
 20
89.84454157915383
 30
0.000000000000000
 40
1.000000000000001
100
AcDbArc
 50
180.0000000000008
 51
270.0000000000000
  0
LINE
  5
163
100
AcDbEntity
  8
1
  6
CONTINUOUS
 62
7
100
AcDbLine
 10
237.1473969241685
 20
88.92802644016292
 30
0.000000000000000
 11
237.1473969241685
 21
90.84454157915384
 31
0.000000000000000
  0
ARC
  5
164
100
AcDbEntity
  8
1
  6
CONTINUOUS
 62
7
100
AcDbCircle
 10
230.5473969241692
 20
81.34454157915383
 30
0.000000000000000
 40
3.000000000000008
100
AcDbArc
 50
180.0000000000000
 51
270.0000000000000
  0
LINE
  5
165
100
AcDbEntity
  8
1
  6
CONTINUOUS
 62
7
100
AcDbLine
 10
230.3973969241691
 20
84.19454157915391
 30
0.000000000000000
 11
230.3973969241691
 21
83.49454157915392
 31
0.000000000000000
  0
ARC
  5
166
100
AcDbEntity
  8
1
  6
CONTINUOUS
 62
7
100
AcDbCircle
 10
232.5473969241692
 20
123.1945415791538
 30
0.000000000000000
 40
2.150000000000002
100
AcDbArc
 50
6.999999999999999e-15
 51
180.0000000000000
  0
LINE
  5
167
100
AcDbEntity
  8
4
  6
CENTER
 62
1
100
AcDbLine
 10
236.1973969241692
 20
122.8445415791538
 30
0.000000000000000
 11
228.8973969241691
 21
122.8445415791538
 31
0.000000000000000
  0
ARC
  5
168
100
AcDbEntity
  8
1
  6
CONTINUOUS
 62
7
100
AcDbCircle
 10
232.5473969241692
 20
122.4945415791538
 30
0.000000000000000
 40
2.149999999999999
100
AcDbArc
 50
180.0000000000000
 51
360.0000000000000
  0
LINE
  5
169
100
AcDbEntity
  8
1
  6
CONTINUOUS
 62
7
100
AcDbLine
 10
244.0473969241686
 20
128.3445415791538
 30
0.000000000000000
 11
230.5473969241692
 21
128.3445415791538
 31
0.000000000000000
  0
ARC
  5
16A
100
AcDbEntity
  8
1
  6
CONTINUOUS
 62
7
100
AcDbCircle
 10
232.5473969241692
 20
103.6945415791537
 30
0.000000000000000
 40
2.150000000000002
100
AcDbArc
 50
6.999999999999999e-15
 51
180.0000000000000
  0
LINE
  5
16B
100
AcDbEntity
  8
4
  6
CENTER
 62
1
100
AcDbLine
 10
255.0473969241692
 20
103.3445415791538
 30
0.000000000000000
 11
226.0473969241692
 21
103.3445415791538
 31
0.000000000000000
  0
LINE
  5
16C
100
AcDbEntity
  8
1
  6
CONTINUOUS
 62
7
100
AcDbLine
 10
244.5473969241692
 20
116.8445415791538
 30
0.000000000000000
 11
244.5473969241692
 21
127.3445415791538
 31
0.000000000000000
  0
LINE
  5
16D
100
AcDbEntity
  8
1
  6
CONTINUOUS
 62
7
100
AcDbLine
 10
244.0473969241686
 20
117.8445415791538
 30
0.000000000000000
 11
244.0473969241686
 21
128.3445415791538
 31
0.000000000000000
  0
CIRCLE
  5
16E
100
AcDbEntity
  8
1
  6
CONTINUOUS
 62
7
100
AcDbCircle
 10
248.5473969241692
 20
122.8445415791538
 30
0.000000000000000
 40
2.149999999999999
  0
LINE
  5
16F
100
AcDbEntity
  8
4
  6
CENTER
 62
1
100
AcDbLine
 10
244.8973969241691
 20
122.8445415791538
 30
0.000000000000000
 11
252.1973969241692
 21
122.8445415791538
 31
0.000000000000000
  0
LINE
  5
170
100
AcDbEntity
  8
1
  6
CONTINUOUS
 62
7
100
AcDbLine
 10
234.6973969241692
 20
102.9945415791539
 30
0.000000000000000
 11
234.6973969241692
 21
103.6945415791537
 31
0.000000000000000
  0
LINE
  5
171
100
AcDbEntity
  8
1
  6
CONTINUOUS
 62
7
100
AcDbLine
 10
243.5473969241692
 20
115.8445415791538
 30
0.000000000000000
 11
237.0473969241686
 21
115.8445415791538
 31
0.000000000000000
  0
LINE
  5
172
100
AcDbEntity
  8
1
  6
CONTINUOUS
 62
7
100
AcDbLine
 10
237.5473969241692
 20
117.8445415791538
 30
0.000000000000000
 11
244.0473969241686
 21
117.8445415791538
 31
0.000000000000000
  0
ARC
  5
173
100
AcDbEntity
  8
1
  6
CONTINUOUS
 62
7
100
AcDbCircle
 10
243.5473969241692
 20
116.8445415791538
 30
0.000000000000000
 40
0.9999999999999984
100
AcDbArc
 50
270.0000000000000
 51
360.0000000000000
  0
LINE
  5
174
100
AcDbEntity
  8
1
  6
CONTINUOUS
 62
7
100
AcDbLine
 10
243.9473969241686
 20
117.8445415791538
 30
0.000000000000000
 11
243.9473969241686
 21
115.9280264401624
 31
0.000000000000000
  0
LINE
  5
175
100
AcDbEntity
  8
1
  6
CONTINUOUS
 62
7
100
AcDbLine
 10
234.6973969241692
 20
122.4945415791538
 30
0.000000000000000
 11
234.6973969241692
 21
123.1945415791538
 31
0.000000000000000
  0
ARC
  5
176
100
AcDbEntity
  8
1
  6
CONTINUOUS
 62
7
100
AcDbCircle
 10
237.5473969241692
 20
116.8445415791538
 30
0.000000000000000
 40
0.9999999999999948
100
AcDbArc
 50
90.00000000000000
 51
180.0000000000000
  0
LINE
  5
177
100
AcDbEntity
  8
1
  6
CONTINUOUS
 62
7
100
AcDbLine
 10
237.1473969241685
 20
117.7610567181446
 30
0.000000000000000
 11
237.1473969241685
 21
115.8445415791538
 31
0.000000000000000
  0
LINE
  5
178
100
AcDbEntity
  8
1
  6
CONTINUOUS
 62
7
100
AcDbLine
 10
245.5473969241692
 20
128.3445415791538
 30
0.000000000000000
 11
250.5473969241692
 21
128.3445415791538
 31
0.000000000000000
  0
ARC
  5
179
100
AcDbEntity
  8
1
  6
CONTINUOUS
 62
7
100
AcDbCircle
 10
250.5473969241692
 20
125.3445415791538
 30
0.000000000000000
 40
2.999999999999993
100
AcDbArc
 50
6.999999999999999e-15
 51
90.00000000000006
  0
LINE
  5
17A
100
AcDbEntity
  8
1
  6
CONTINUOUS
 62
7
100
AcDbLine
 10
238.5473969241686
 20
128.5445415791538
 30
0.000000000000000
 11
242.5473969241686
 21
128.5445415791538
 31
0.000000000000000
  0
LINE
  5
17B
100
AcDbEntity
  8
1
  6
CONTINUOUS
 62
7
100
AcDbLine
 10
242.2473969241685
 20
128.8445415791538
 30
0.000000000000000
 11
238.8473969241686
 21
128.8445415791537
 31
0.000000000000000
  0
ARC
  5
17C
100
AcDbEntity
  8
1
  6
CONTINUOUS
 62
7
100
AcDbCircle
 10
245.5473969241692
 20
127.3445415791538
 30
0.000000000000000
 40
0.9999999999999920
100
AcDbArc
 50
90.00000000000006
 51
180.0000000000008
  0
LINE
  5
17D
100
AcDbEntity
  8
1
  6
CONTINUOUS
 62
7
100
AcDbLine
 10
242.2473969241684
 20
128.8445415791537
 30
0.000000000000000
 11
242.5473969241685
 21
128.5445415791536
 31
0.000000000000000
  0
LINE
  5
17E
100
AcDbEntity
  8
1
  6
CONTINUOUS
 62
7
100
AcDbLine
 10
242.5473969241686
 20
128.5445415791538
 30
0.000000000000000
 11
242.5473969241686
 21
128.3445415791538
 31
0.000000000000000
  0
LINE
  5
17F
100
AcDbEntity
  8
1
  6
CONTINUOUS
 62
7
100
AcDbLine
 10
238.8473969241685
 20
128.8445415791537
 30
0.000000000000000
 11
238.5473969241685
 21
128.5445415791537
 31
0.000000000000000
  0
LINE
  5
180
100
AcDbEntity
  8
1
  6
CONTINUOUS
 62
7
100
AcDbLine
 10
238.5473969241686
 20
128.5445415791538
 30
0.000000000000000
 11
238.5473969241686
 21
128.3445415791538
 31
0.000000000000000
  0
LINE
  5
181
100
AcDbEntity
  8
1
  6
CONTINUOUS
 62
7
100
AcDbLine
 10
230.3973969241691
 20
103.6945415791537
 30
0.000000000000000
 11
230.3973969241691
 21
102.9945415791539
 31
0.000000000000000
  0
LINE
  5
182
100
AcDbEntity
  8
1
  6
CONTINUOUS
 62
7
100
AcDbLine
 10
230.3973969241691
 20
123.1945415791538
 30
0.000000000000000
 11
230.3973969241691
 21
122.4945415791538
 31
0.000000000000000
  0
ARC
  5
183
100
AcDbEntity
  8
1
  6
CONTINUOUS
 62
7
100
AcDbCircle
 10
230.5473969241692
 20
125.3445415791538
 30
0.000000000000000
 40
3.000000000000008
100
AcDbArc
 50
90.00000000000006
 51
180.0000000000000
  0
ENDSEC
  0
SECTION
  2
OBJECTS
  0
DICTIONARY
  5
1AD
100
AcDbDictionary
  3
ACAD_GROUP
350
1AE
  3
ACAD_LAYOUT
350
1AF
  3
ACAD_MLINESTYLE
350
1B0
  0
DICTIONARY
  5
1AE
102
{ACAD_REACTORS
330
1AD
102
}
330
1AD
100
AcDbDictionary
  0
DICTIONARY
  5
1AF
102
{ACAD_REACTORS
330
1AD
102
}
330
1AD
100
AcDbDictionary
  3
Model
350
1B1
  3
ﾚｲｱｳﾄ1
350
1B2
  3
ﾚｲｱｳﾄ2
350
1B3
  0
DICTIONARY
  5
1B0
102
{ACAD_REACTORS
330
1AD
102
}
330
1AD
100
AcDbDictionary
  3
STANDARD
350
1B4
  0
LAYOUT
  5
1B1
102
{ACAD_REACTORS
330
1AF
102
}
330
1AF
100
AcDbPlotSettings
 70
11952
  4
A3
 44
297.000000
 45
420.000000
 73
  1
 72
  1
100
AcDbLayout
  1
Model
 71
0
330
1A4
  0
LAYOUT
  5
1B2
102
{ACAD_REACTORS
330
1AF
102
}
330
1AF
100
AcDbPlotSettings
100
AcDbLayout
  1
ﾚｲｱｳﾄ1
 71
1
330
1A5
  0
LAYOUT
  5
1B3
102
{ACAD_REACTORS
330
1AF
102
}
330
1AF
100
AcDbPlotSettings
100
AcDbLayout
  1
ﾚｲｱｳﾄ2
 71
2
330
1A6
  0
MLINESTYLE
  5
1B4
102
{ACAD_REACTORS
330
1B0
102
}
330
1B0
100
AcDbMlineStyle
  2
STANDARD
 70
     0
  3

 62
   256
 51
90.00
 52
90.00
 71
     2
 49
0.50
 62
   256
  6
BYLAYER
 49
-0.50
 62
   256
  6
BYLAYER
  0
ENDSEC
  0
EOF
