  0
SECTION
  2
HEADER
  9
$ACADVER
  1
AC1015
  9
$ACADMAINTVER
 70
    20
  9
$DWGCODEPAGE
  3
ANSI_932
  9
$INSBASE
 10
0.0
 20
0.0
 30
0.0
  9
$EXTMIN
 10
9.99995
 20
9.999999999999998
 30
0.0
  9
$EXTMAX
 10
453.992645
 20
459.4588319999998
 30
0.0
  9
$LIMMIN
 10
0.0
 20
0.0
  9
$LIMMAX
 10
792.0
 20
546.0
  9
$ORTHOMODE
 70
     1
  9
$REGENMODE
 70
     1
  9
$FILLMODE
 70
     1
  9
$QTEXTMODE
 70
     0
  9
$MIRRTEXT
 70
     1
  9
$LTSCALE
 40
20.0
  9
$ATTMODE
 70
     1
  9
$TEXTSIZE
 40
5.0
  9
$TRACEWID
 40
1.0
  9
$TEXTSTYLE
  7
STANDARD
  9
$CLAYER
  8
0
  9
$CELTYPE
  6
BYLAYER
  9
$CECOLOR
 62
   256
  9
$CELTSCALE
 40
1.0
  9
$DISPSILH
 70
     0
  9
$DIMSCALE
 40
1.0
  9
$DIMASZ
 40
3.0
  9
$DIMEXO
 40
1.0
  9
$DIMDLI
 40
10.0
  9
$DIMRND
 40
0.0
  9
$DIMDLE
 40
0.0
  9
$DIMEXE
 40
1.0
  9
$DIMTP
 40
0.0
  9
$DIMTM
 40
0.0
  9
$DIMTXT
 40
3.2
  9
$DIMCEN
 40
0.0
  9
$DIMTSZ
 40
0.0
  9
$DIMTOL
 70
     0
  9
$DIMLIM
 70
     0
  9
$DIMTIH
 70
     0
  9
$DIMTOH
 70
     0
  9
$DIMSE1
 70
     0
  9
$DIMSE2
 70
     0
  9
$DIMTAD
 70
     3
  9
$DIMZIN
 70
     8
  9
$DIMBLK
  1

  9
$DIMASO
 70
     1
  9
$DIMSHO
 70
     1
  9
$DIMPOST
  1

  9
$DIMAPOST
  1

  9
$DIMALT
 70
     0
  9
$DIMALTD
 70
     2
  9
$DIMALTF
 40
25.4
  9
$DIMLFAC
 40
1.0
  9
$DIMTOFL
 70
     1
  9
$DIMTVP
 40
0.0
  9
$DIMTIX
 70
     0
  9
$DIMSOXD
 70
     0
  9
$DIMSAH
 70
     1
  9
$DIMBLK1
  1

  9
$DIMBLK2
  1

  9
$DIMSTYLE
  2
STANDARD
  9
$DIMCLRD
 70
     0
  9
$DIMCLRE
 70
     0
  9
$DIMCLRT
 70
     0
  9
$DIMTFAC
 40
1.0
  9
$DIMGAP
 40
1.0
  9
$DIMJUST
 70
     0
  9
$DIMSD1
 70
     0
  9
$DIMSD2
 70
     0
  9
$DIMTOLJ
 70
     1
  9
$DIMTZIN
 70
     0
  9
$DIMALTZ
 70
     0
  9
$DIMALTTZ
 70
     0
  9
$DIMUPT
 70
     0
  9
$DIMDEC
 70
     4
  9
$DIMTDEC
 70
     4
  9
$DIMALTU
 70
     2
  9
$DIMALTTD
 70
     2
  9
$DIMTXSTY
  7
STANDARD
  9
$DIMAUNIT
 70
     0
  9
$DIMADEC
 70
     0
  9
$DIMALTRND
 40
0.0
  9
$DIMAZIN
 70
     0
  9
$DIMDSEP
 70
    46
  9
$DIMATFIT
 70
     3
  9
$DIMFRAC
 70
     0
  9
$DIMLDRBLK
  1

  9
$DIMLUNIT
 70
     2
  9
$DIMLWD
 70
    -2
  9
$DIMLWE
 70
    -2
  9
$DIMTMOVE
 70
     0
  9
$LUNITS
 70
     2
  9
$LUPREC
 70
     4
  9
$SKETCHINC
 40
1.0
  9
$FILLETRAD
 40
2.5
  9
$AUNITS
 70
     0
  9
$AUPREC
 70
     2
  9
$MENU
  1
.
  9
$ELEVATION
 40
0.0
  9
$PELEVATION
 40
0.0
  9
$THICKNESS
 40
0.0
  9
$LIMCHECK
 70
     0
  9
$CHAMFERA
 40
10.0
  9
$CHAMFERB
 40
10.0
  9
$CHAMFERC
 40
0.0
  9
$CHAMFERD
 40
0.0
  9
$SKPOLY
 70
     0
  9
$TDCREATE
 40
2451062.581084375
  9
$TDUCREATE
 40
2451062.206084375
  9
$TDUPDATE
 40
2457192.618551968
  9
$TDUUPDATE
 40
2457192.243551968
  9
$TDINDWG
 40
0.0000166204
  9
$TDUSRTIMER
 40
0.0000163079
  9
$USRTIMER
 70
     1
  9
$ANGBASE
 50
0.0
  9
$ANGDIR
 70
     0
  9
$PDMODE
 70
     0
  9
$PDSIZE
 40
0.0
  9
$PLINEWID
 40
0.0
  9
$SPLFRAME
 70
     0
  9
$SPLINETYPE
 70
     6
  9
$SPLINESEGS
 70
     8
  9
$HANDSEED
  5
976D
  9
$SURFTAB1
 70
     6
  9
$SURFTAB2
 70
     6
  9
$SURFTYPE
 70
     6
  9
$SURFU
 70
     6
  9
$SURFV
 70
     6
  9
$UCSBASE
  2

  9
$UCSNAME
  2

  9
$UCSORG
 10
0.0
 20
0.0
 30
0.0
  9
$UCSXDIR
 10
1.0
 20
0.0
 30
0.0
  9
$UCSYDIR
 10
0.0
 20
1.0
 30
0.0
  9
$UCSORTHOREF
  2

  9
$UCSORTHOVIEW
 70
     0
  9
$UCSORGTOP
 10
0.0
 20
0.0
 30
0.0
  9
$UCSORGBOTTOM
 10
0.0
 20
0.0
 30
0.0
  9
$UCSORGLEFT
 10
0.0
 20
0.0
 30
0.0
  9
$UCSORGRIGHT
 10
0.0
 20
0.0
 30
0.0
  9
$UCSORGFRONT
 10
0.0
 20
0.0
 30
0.0
  9
$UCSORGBACK
 10
0.0
 20
0.0
 30
0.0
  9
$PUCSBASE
  2

  9
$PUCSNAME
  2

  9
$PUCSORG
 10
0.0
 20
0.0
 30
0.0
  9
$PUCSXDIR
 10
1.0
 20
0.0
 30
0.0
  9
$PUCSYDIR
 10
0.0
 20
1.0
 30
0.0
  9
$PUCSORTHOREF
  2

  9
$PUCSORTHOVIEW
 70
     0
  9
$PUCSORGTOP
 10
0.0
 20
0.0
 30
0.0
  9
$PUCSORGBOTTOM
 10
0.0
 20
0.0
 30
0.0
  9
$PUCSORGLEFT
 10
0.0
 20
0.0
 30
0.0
  9
$PUCSORGRIGHT
 10
0.0
 20
0.0
 30
0.0
  9
$PUCSORGFRONT
 10
0.0
 20
0.0
 30
0.0
  9
$PUCSORGBACK
 10
0.0
 20
0.0
 30
0.0
  9
$USERI1
 70
     0
  9
$USERI2
 70
     0
  9
$USERI3
 70
     0
  9
$USERI4
 70
     0
  9
$USERI5
 70
     0
  9
$USERR1
 40
0.0
  9
$USERR2
 40
0.0
  9
$USERR3
 40
0.0
  9
$USERR4
 40
0.0
  9
$USERR5
 40
0.0
  9
$WORLDVIEW
 70
     1
  9
$SHADEDGE
 70
     3
  9
$SHADEDIF
 70
    70
  9
$TILEMODE
 70
     1
  9
$MAXACTVP
 70
    16
  9
$PINSBASE
 10
0.0
 20
0.0
 30
0.0
  9
$PLIMCHECK
 70
     0
  9
$PEXTMIN
 10
1.000000000000000E+20
 20
1.000000000000000E+20
 30
1.000000000000000E+20
  9
$PEXTMAX
 10
-1.000000000000000E+20
 20
-1.000000000000000E+20
 30
-1.000000000000000E+20
  9
$PLIMMIN
 10
0.0
 20
0.0
  9
$PLIMMAX
 10
420.0
 20
297.0
  9
$UNITMODE
 70
     0
  9
$VISRETAIN
 70
     0
  9
$PLINEGEN
 70
     0
  9
$PSLTSCALE
 70
     0
  9
$TREEDEPTH
 70
  3020
  9
$CMLSTYLE
  2
STANDARD
  9
$CMLJUST
 70
     0
  9
$CMLSCALE
 40
1.0
  9
$PROXYGRAPHICS
 70
     1
  9
$MEASUREMENT
 70
     0
  9
$CELWEIGHT
370
    -1
  9
$ENDCAPS
280
     0
  9
$JOINSTYLE
280
     0
  9
$LWDISPLAY
290
     0
  9
$INSUNITS
 70
     0
  9
$HYPERLINKBASE
  1

  9
$STYLESHEET
  1

  9
$XEDIT
290
     1
  9
$CEPSNTYPE
380
     0
  9
$PSTYLEMODE
290
     1
  9
$FINGERPRINTGUID
  2
{03363E66-2A60-4BA3-9BC3-DA1FD15F569D}
  9
$VERSIONGUID
  2
{13F5083A-78AF-441A-AA55-E2BF6B861B7B}
  9
$EXTNAMES
290
     1
  9
$PSVPSCALE
 40
0.0
  9
$OLESTARTUP
290
     0
  0
ENDSEC
  0
SECTION
  2
CLASSES
  0
CLASS
  1
ACDBDICTIONARYWDFLT
  2
AcDbDictionaryWithDefault
  3
ObjectDBX Classes
 90
        0
280
     0
281
     0
  0
CLASS
  1
ACDBPLACEHOLDER
  2
AcDbPlaceHolder
  3
ObjectDBX Classes
 90
        0
280
     0
281
     0
  0
CLASS
  1
LAYOUT
  2
AcDbLayout
  3
ObjectDBX Classes
 90
        0
280
     0
281
     0
  0
CLASS
  1
DICTIONARYVAR
  2
AcDbDictionaryVar
  3
ObjectDBX Classes
 90
        0
280
     0
281
     0
  0
CLASS
  1
MATERIAL
  2
AcDbMaterial
  3
ObjectDBX Classes
 90
     1153
280
     0
281
     0
  0
CLASS
  1
VISUALSTYLE
  2
AcDbVisualStyle
  3
ObjectDBX Classes
 90
     4095
280
     0
281
     0
  0
CLASS
  1
TABLESTYLE
  2
AcDbTableStyle
  3
ObjectDBX Classes
 90
     4095
280
     0
281
     0
  0
CLASS
  1
SCALE
  2
AcDbScale
  3
ObjectDBX Classes
 90
     1153
280
     0
281
     0
  0
CLASS
  1
MLEADERSTYLE
  2
AcDbMLeaderStyle
  3
ACDB_MLEADERSTYLE_CLASS
 90
     4095
280
     0
281
     0
  0
CLASS
  1
ACDBSECTIONVIEWSTYLE
  2
AcDbSectionViewStyle
  3
ObjectDBX Classes
 90
     1025
280
     0
281
     0
  0
CLASS
  1
ACDBDETAILVIEWSTYLE
  2
AcDbDetailViewStyle
  3
ObjectDBX Classes
 90
     1025
280
     0
281
     0
  0
CLASS
  1
CELLSTYLEMAP
  2
AcDbCellStyleMap
  3
ObjectDBX Classes
 90
     1152
280
     0
281
     0
  0
ENDSEC
  0
SECTION
  2
TABLES
  0
TABLE
  2
VPORT
  5
93EF
330
0
100
AcDbSymbolTable
 70
     1
  0
VPORT
  5
96B6
330
93EF
100
AcDbSymbolTableRecord
100
AcDbViewportTableRecord
  2
*ACTIVE
 70
     0
 10
0.0
 20
0.0
 11
1.0
 21
1.0
 12
368.1269207936817
 22
234.7385113585489
 13
0.0
 23
0.0
 14
10.0
 24
10.0
 15
10.0
 25
10.0
 16
0.0
 26
0.0
 36
1.0
 17
0.0
 27
0.0
 37
0.0
 40
454.5427942248515
 41
1.899603698811096
 42
50.0
 43
0.0
 44
0.0
 50
0.0
 51
0.0
 71
     0
 72
   100
 73
     1
 74
     0
 75
     0
 76
     0
 77
     0
 78
     0
281
     0
 65
     1
110
0.0
120
0.0
130
0.0
111
1.0
121
0.0
131
0.0
112
0.0
122
1.0
132
0.0
 79
     0
146
0.0
1001
ACAD_NAV_VCDISPLAY
1070
     3
  0
ENDTAB
  0
TABLE
  2
LTYPE
  5
93EC
330
0
100
AcDbSymbolTable
 70
     4
  0
LTYPE
  5
93FA
330
93EC
100
AcDbSymbolTableRecord
100
AcDbLinetypeTableRecord
  2
BYBLOCK
 70
     0
  3

 72
    65
 73
     0
 40
0.0
  0
LTYPE
  5
93FB
330
93EC
100
AcDbSymbolTableRecord
100
AcDbLinetypeTableRecord
  2
BYLAYER
 70
     0
  3

 72
    65
 73
     0
 40
0.0
  0
LTYPE
  5
93FC
330
93EC
100
AcDbSymbolTableRecord
100
AcDbLinetypeTableRecord
  2
CONTINUOUS
 70
     0
  3
Solid line
 72
    65
 73
     0
 40
0.0
  0
LTYPE
  5
940A
330
93EC
100
AcDbSymbolTableRecord
100
AcDbLinetypeTableRecord
  2
DASHED
 70
     0
  3
__ __ __ __ __ __ __ __ __ __ __ __ __ __ __ __
 72
    65
 73
     2
 40
0.75
 49
0.5
 74
     0
 49
-0.25
 74
     0
  0
LTYPE
  5
940B
330
93EC
100
AcDbSymbolTableRecord
100
AcDbLinetypeTableRecord
  2
CENTER
 70
     0
  3
____ _ ____ _ ____ _ ____ _ ____ _ ____ _ ____ 
 72
    65
 73
     4
 40
2.0
 49
1.25
 74
     0
 49
-0.25
 74
     0
 49
0.25
 74
     0
 49
-0.25
 74
     0
  0
LTYPE
  5
940C
330
93EC
100
AcDbSymbolTableRecord
100
AcDbLinetypeTableRecord
  2
PHANTOM
 70
     0
  3
______  __  __  ______  __  __  ______  __  __ 
 72
    65
 73
     6
 40
2.5
 49
1.25
 74
     0
 49
-0.25
 74
     0
 49
0.25
 74
     0
 49
-0.25
 74
     0
 49
0.25
 74
     0
 49
-0.25
 74
     0
  0
ENDTAB
  0
TABLE
  2
LAYER
  5
93E9
330
0
100
AcDbSymbolTable
 70
     8
  0
LAYER
  5
93F7
102
{ACAD_XDICTIONARY
360
9711
102
}
330
93E9
100
AcDbSymbolTableRecord
100
AcDbLayerTableRecord
  2
0
 70
     0
 62
     7
  6
CONTINUOUS
370
    -3
390
96BF
  0
LAYER
  5
940D
102
{ACAD_XDICTIONARY
360
9713
102
}
330
93E9
100
AcDbSymbolTableRecord
100
AcDbLayerTableRecord
  2
4
 70
     0
 62
     1
  6
CENTER
370
    -3
390
96BF
  0
LAYER
  5
940E
102
{ACAD_XDICTIONARY
360
9715
102
}
330
93E9
100
AcDbSymbolTableRecord
100
AcDbLayerTableRecord
  2
5
 70
     0
 62
     6
  6
PHANTOM
370
    -3
390
96BF
  0
LAYER
  5
940F
102
{ACAD_XDICTIONARY
360
9717
102
}
330
93E9
100
AcDbSymbolTableRecord
100
AcDbLayerTableRecord
  2
1
 70
     0
 62
     7
  6
CONTINUOUS
370
    -3
390
96BF
  0
LAYER
  5
9410
102
{ACAD_XDICTIONARY
360
9719
102
}
330
93E9
100
AcDbSymbolTableRecord
100
AcDbLayerTableRecord
  2
2
 70
     0
 62
     4
  6
CONTINUOUS
370
    -3
390
96BF
  0
LAYER
  5
9411
102
{ACAD_XDICTIONARY
360
971B
102
}
330
93E9
100
AcDbSymbolTableRecord
100
AcDbLayerTableRecord
  2
3
 70
     0
 62
     2
  6
DASHED
370
    -3
390
96BF
  0
LAYER
  5
9412
102
{ACAD_XDICTIONARY
360
971D
102
}
330
93E9
100
AcDbSymbolTableRecord
100
AcDbLayerTableRecord
  2
6
 70
     0
 62
     5
  6
CONTINUOUS
370
    -3
390
96BF
  0
LAYER
  5
9413
102
{ACAD_XDICTIONARY
360
971F
102
}
330
93E9
100
AcDbSymbolTableRecord
100
AcDbLayerTableRecord
  2
7
 70
     0
 62
     3
  6
CONTINUOUS
370
    -3
390
96BF
  0
ENDTAB
  0
TABLE
  2
STYLE
  5
93EA
330
0
100
AcDbSymbolTable
 70
     1
  0
STYLE
  5
93F8
330
93EA
100
AcDbSymbolTableRecord
100
AcDbTextStyleTableRecord
  2
STANDARD
 70
     0
 40
0.0
 41
1.0
 50
0.0
 71
     0
 42
5.0
  3
txt
  4

  0
ENDTAB
  0
TABLE
  2
VIEW
  5
93ED
330
0
100
AcDbSymbolTable
 70
     0
  0
ENDTAB
  0
TABLE
  2
UCS
  5
93EE
330
0
100
AcDbSymbolTable
 70
     0
  0
ENDTAB
  0
TABLE
  2
APPID
  5
93F0
330
0
100
AcDbSymbolTable
 70
     3
  0
APPID
  5
93F9
330
93F0
100
AcDbSymbolTableRecord
100
AcDbRegAppTableRecord
  2
ACAD
 70
     0
  0
APPID
  5
972B
330
93F0
100
AcDbSymbolTableRecord
100
AcDbRegAppTableRecord
  2
ACAD_NAV_VCDISPLAY
 70
     0
  0
APPID
  5
9764
330
93F0
100
AcDbSymbolTableRecord
100
AcDbRegAppTableRecord
  2
ACAD_MLEADERVER
 70
     0
  0
ENDTAB
  0
TABLE
  2
DIMSTYLE
  5
93F1
330
0
100
AcDbSymbolTable
 70
     1
100
AcDbDimStyleTable
 71
     0
  0
DIMSTYLE
105
9415
330
93F1
100
AcDbSymbolTableRecord
100
AcDbDimStyleTableRecord
  2
STANDARD
 70
     0
 41
3.0
 42
1.0
 43
10.0
 44
1.0
 73
     0
 74
     0
 77
     3
 78
     8
140
3.2
141
0.0
147
1.0
172
     1
173
     1
284
     8
285
     8
286
     8
340
93F8
  0
ENDTAB
  0
TABLE
  2
BLOCK_RECORD
  5
93E8
330
0
100
AcDbSymbolTable
 70
     0
  0
BLOCK_RECORD
  5
9405
102
{ACAD_XDICTIONARY
360
96B9
102
}
330
93E8
100
AcDbSymbolTableRecord
100
AcDbBlockTableRecord
  2
*MODEL_SPACE
340
970D
  0
BLOCK_RECORD
  5
9401
102
{ACAD_XDICTIONARY
360
96B7
102
}
330
93E8
100
AcDbSymbolTableRecord
100
AcDbBlockTableRecord
  2
*PAPER_SPACE
340
970E
  0
ENDTAB
  0
ENDSEC
  0
SECTION
  2
BLOCKS
  0
BLOCK
  5
9406
330
9405
100
AcDbEntity
  8
0
100
AcDbBlockBegin
  2
*MODEL_SPACE
 70
     0
 10
0.0
 20
0.0
 30
0.0
  3
*MODEL_SPACE
  1

  0
ENDBLK
  5
9407
330
9405
100
AcDbEntity
  8
0
100
AcDbBlockEnd
  0
BLOCK
  5
9402
330
9401
100
AcDbEntity
 67
     1
  8
0
100
AcDbBlockBegin
  2
*PAPER_SPACE
 70
     0
 10
0.0
 20
0.0
 30
0.0
  3
*PAPER_SPACE
  1

  0
ENDBLK
  5
9403
330
9401
100
AcDbEntity
 67
     1
  8
0
100
AcDbBlockEnd
  0
ENDSEC
  0
SECTION
  2
ENTITIES
  0
LINE
  5
941D
330
9405
100
AcDbEntity
  8
1
  6
Continuous
100
AcDbLine
 10
194.3308869999999
 20
314.437195
 30
0.0
 11
194.3308869999999
 21
160.7294159999999
 31
0.0
  0
LINE
  5
941E
330
9405
100
AcDbEntity
  8
1
  6
Continuous
100
AcDbLine
 10
154.3308869999999
 20
314.437195
 30
0.0
 11
154.3308869999999
 21
160.7294159999999
 31
0.0
  0
LINE
  5
941F
330
9405
100
AcDbEntity
  8
1
  6
Continuous
100
AcDbLine
 10
144.3308869999999
 20
160.7294159999999
 30
0.0
 11
204.3308869999999
 21
160.7294159999999
 31
0.0
  0
LINE
  5
9420
330
9405
100
AcDbEntity
  8
1
  6
Continuous
100
AcDbLine
 10
209.3308869999999
 20
274.729401
 30
0.0
 11
209.3308869999999
 21
165.729416
 31
0.0
  0
LINE
  5
9421
330
9405
100
AcDbEntity
  8
1
  6
Continuous
100
AcDbLine
 10
139.330887
 20
274.729401
 30
0.0
 11
139.330887
 21
165.729416
 31
0.0
  0
LINE
  5
9422
330
9405
100
AcDbEntity
  8
1
  6
Continuous
100
AcDbLine
 10
144.3308869999999
 20
279.7294009999998
 30
0.0
 11
154.3308869999999
 21
279.7294009999998
 31
0.0
  0
LINE
  5
9423
330
9405
100
AcDbEntity
  8
1
  6
Continuous
100
AcDbLine
 10
194.3308869999999
 20
279.7294009999998
 30
0.0
 11
204.3308869999999
 21
279.7294009999998
 31
0.0
  0
LINE
  5
9424
330
9405
100
AcDbEntity
  8
1
  6
Continuous
100
AcDbLine
 10
141.3308869999999
 20
305.729401
 30
0.0
 11
150.830887
 21
305.729401
 31
0.0
  0
LINE
  5
9425
330
9405
100
AcDbEntity
  8
1
  6
Continuous
100
AcDbLine
 10
141.3308869999999
 20
334.729401
 30
0.0
 11
207.3308869999999
 21
334.729401
 31
0.0
  0
LINE
  5
9426
330
9405
100
AcDbEntity
  8
1
  6
Continuous
100
AcDbLine
 10
211.330887
 20
330.729401
 30
0.0
 11
211.330887
 21
309.729401
 31
0.0
  0
LINE
  5
9427
330
9405
100
AcDbEntity
  8
1
  6
Continuous
100
AcDbLine
 10
137.330887
 20
330.729401
 30
0.0
 11
137.330887
 21
309.729401
 31
0.0
  0
LINE
  5
9428
330
9405
100
AcDbEntity
  8
1
  6
Continuous
100
AcDbLine
 10
197.830887
 20
305.729401
 30
0.0
 11
207.3308869999999
 21
305.729401
 31
0.0
  0
LINE
  5
9429
330
9405
100
AcDbEntity
  8
1
  6
Continuous
100
AcDbLine
 10
205.8308869999999
 20
178.229416
 30
0.0
 11
205.8308869999999
 21
171.2294159999999
 31
0.0
  0
LINE
  5
942A
330
9405
100
AcDbEntity
  8
1
  6
Continuous
100
AcDbLine
 10
198.830887
 20
178.229416
 30
0.0
 11
198.830887
 21
171.2294159999999
 31
0.0
  0
LINE
  5
942B
330
9405
100
AcDbEntity
  8
4
  6
CENTER
100
AcDbLine
 10
202.330887
 20
188.7294159999999
 30
0.0
 11
202.330887
 21
160.7294159999999
 31
0.0
  0
LINE
  5
942C
330
9405
100
AcDbEntity
  8
4
  6
CENTER
100
AcDbLine
 10
195.3308869999999
 20
174.7294159999999
 30
0.0
 11
209.3308869999999
 21
174.7294159999999
 31
0.0
  0
LINE
  5
942D
330
9405
100
AcDbEntity
  8
1
  6
Continuous
100
AcDbLine
 10
149.8308869999999
 20
178.229416
 30
0.0
 11
149.8308869999999
 21
171.2294159999999
 31
0.0
  0
LINE
  5
942E
330
9405
100
AcDbEntity
  8
1
  6
Continuous
100
AcDbLine
 10
142.8308869999999
 20
178.229416
 30
0.0
 11
142.8308869999999
 21
171.2294159999999
 31
0.0
  0
LINE
  5
942F
330
9405
100
AcDbEntity
  8
4
  6
CENTER
100
AcDbLine
 10
146.3308869999999
 20
188.7294159999999
 30
0.0
 11
146.3308869999999
 21
160.7294159999999
 31
0.0
  0
LINE
  5
9430
330
9405
100
AcDbEntity
  8
4
  6
CENTER
100
AcDbLine
 10
139.330887
 20
174.7294159999999
 30
0.0
 11
153.3308869999999
 21
174.7294159999999
 31
0.0
  0
LINE
  5
9431
330
9405
100
AcDbEntity
  8
1
  6
Continuous
100
AcDbLine
 10
198.830887
 20
322.229401
 30
0.0
 11
198.830887
 21
319.2294009999999
 31
0.0
  0
LINE
  5
9432
330
9405
100
AcDbEntity
  8
1
  6
Continuous
100
AcDbLine
 10
205.8308869999999
 20
322.229401
 30
0.0
 11
205.8308869999999
 21
319.2294009999999
 31
0.0
  0
LINE
  5
9433
330
9405
100
AcDbEntity
  8
4
  6
CENTER
100
AcDbLine
 10
202.330887
 20
330.729401
 30
0.0
 11
202.330887
 21
310.7294009999999
 31
0.0
  0
LINE
  5
9434
330
9405
100
AcDbEntity
  8
4
  6
CENTER
100
AcDbLine
 10
195.3308869999999
 20
320.729401
 30
0.0
 11
209.3308869999999
 21
320.729401
 31
0.0
  0
LINE
  5
9435
330
9405
100
AcDbEntity
  8
1
  6
Continuous
100
AcDbLine
 10
142.8308869999999
 20
322.229401
 30
0.0
 11
142.8308869999999
 21
319.2294009999999
 31
0.0
  0
LINE
  5
9436
330
9405
100
AcDbEntity
  8
1
  6
Continuous
100
AcDbLine
 10
149.8308869999999
 20
322.229401
 30
0.0
 11
149.8308869999999
 21
319.2294009999999
 31
0.0
  0
LINE
  5
9437
330
9405
100
AcDbEntity
  8
4
  6
CENTER
100
AcDbLine
 10
146.3308869999999
 20
330.729401
 30
0.0
 11
146.3308869999999
 21
310.7294009999999
 31
0.0
  0
LINE
  5
9438
330
9405
100
AcDbEntity
  8
4
  6
CENTER
100
AcDbLine
 10
139.330887
 20
320.729401
 30
0.0
 11
153.3308869999999
 21
320.729401
 31
0.0
  0
LINE
  5
9439
330
9405
100
AcDbEntity
  8
1
  6
Continuous
100
AcDbLine
 10
142.8308869999999
 20
271.2294009999999
 30
0.0
 11
142.8308869999999
 21
268.229401
 31
0.0
  0
LINE
  5
943A
330
9405
100
AcDbEntity
  8
1
  6
Continuous
100
AcDbLine
 10
149.8308869999999
 20
271.2294009999999
 30
0.0
 11
149.8308869999999
 21
268.229401
 31
0.0
  0
LINE
  5
943B
330
9405
100
AcDbEntity
  8
4
  6
CENTER
100
AcDbLine
 10
146.3308869999999
 20
279.7294009999998
 30
0.0
 11
146.3308869999999
 21
259.729401
 31
0.0
  0
LINE
  5
943C
330
9405
100
AcDbEntity
  8
4
  6
CENTER
100
AcDbLine
 10
139.330887
 20
269.7294009999998
 30
0.0
 11
153.3308869999999
 21
269.7294009999998
 31
0.0
  0
LINE
  5
943D
330
9405
100
AcDbEntity
  8
1
  6
Continuous
100
AcDbLine
 10
198.830887
 20
271.2294009999999
 30
0.0
 11
198.830887
 21
268.229401
 31
0.0
  0
LINE
  5
943E
330
9405
100
AcDbEntity
  8
1
  6
Continuous
100
AcDbLine
 10
205.8308869999999
 20
271.2294009999999
 30
0.0
 11
205.8308869999999
 21
268.229401
 31
0.0
  0
LINE
  5
943F
330
9405
100
AcDbEntity
  8
4
  6
CENTER
100
AcDbLine
 10
202.330887
 20
279.7294009999998
 30
0.0
 11
202.330887
 21
259.729401
 31
0.0
  0
LINE
  5
9440
330
9405
100
AcDbEntity
  8
4
  6
CENTER
100
AcDbLine
 10
195.3308869999999
 20
269.7294009999998
 30
0.0
 11
209.3308869999999
 21
269.7294009999998
 31
0.0
  0
LINE
  5
9441
330
9405
100
AcDbEntity
  8
1
  6
Continuous
100
AcDbLine
 10
139.263046
 20
331.7294009999999
 30
0.0
 11
209.151566
 21
331.7294009999999
 31
0.0
  0
LINE
  5
9442
330
9405
100
AcDbEntity
  8
1
  6
Continuous
100
AcDbLine
 10
139.263046
 20
308.7294009999999
 30
0.0
 11
151.830887
 21
308.7294009999999
 31
0.0
  0
LINE
  5
9443
330
9405
100
AcDbEntity
  8
1
  6
Continuous
100
AcDbLine
 10
196.8308869999999
 20
308.7294009999999
 30
0.0
 11
209.319977
 21
308.7294009999999
 31
0.0
  0
LINE
  5
9444
330
9405
100
AcDbEntity
  8
4
  6
CENTER
100
AcDbLine
 10
145.8308869999999
 20
301.729401
 30
0.0
 11
202.830887
 21
301.729401
 31
0.0
  0
LINE
  5
9445
330
9405
100
AcDbEntity
  8
1
  6
Continuous
100
AcDbLine
 10
195.580887
 20
327.2294009999999
 30
0.0
 11
195.580887
 21
289.737946
 31
0.0
  0
LINE
  5
9446
330
9405
100
AcDbEntity
  8
1
  6
Continuous
100
AcDbLine
 10
153.0808869999999
 20
327.2294009999999
 30
0.0
 11
153.0808869999999
 21
289.737946
 31
0.0
  0
LINE
  5
9447
330
9405
100
AcDbEntity
  8
1
  6
Continuous
100
AcDbLine
 10
153.0808869999999
 20
289.737946
 30
0.0
 11
154.3308869999999
 21
289.737946
 31
0.0
  0
LINE
  5
9448
330
9405
100
AcDbEntity
  8
1
  6
Continuous
100
AcDbLine
 10
194.3308869999999
 20
289.737946
 30
0.0
 11
195.580887
 21
289.737946
 31
0.0
  0
LINE
  5
9449
330
9405
100
AcDbEntity
  8
1
  6
Continuous
100
AcDbLine
 10
154.3308869999999
 20
314.437195
 30
0.0
 11
194.3308869999999
 21
314.437195
 31
0.0
  0
LINE
  5
944A
330
9405
100
AcDbEntity
  8
4
  6
CENTER
100
AcDbLine
 10
416.992645
 20
339.7294009999999
 30
0.0
 11
416.992645
 21
154.2294159999999
 31
0.0
  0
LINE
  5
944B
330
9405
100
AcDbEntity
  8
1
  6
Continuous
100
AcDbLine
 10
446.9926449999999
 20
160.7294159999999
 30
0.0
 11
386.9926449999999
 21
160.7294159999999
 31
0.0
  0
LINE
  5
944C
330
9405
100
AcDbEntity
  8
1
  6
Continuous
100
AcDbLine
 10
381.992645
 20
274.729401
 30
0.0
 11
381.992645
 21
165.729416
 31
0.0
  0
LINE
  5
944D
330
9405
100
AcDbEntity
  8
1
  6
Continuous
100
AcDbLine
 10
451.9926449999998
 20
274.729401
 30
0.0
 11
451.9926449999998
 21
165.729416
 31
0.0
  0
LINE
  5
944E
330
9405
100
AcDbEntity
  8
1
  6
Continuous
100
AcDbLine
 10
446.9926449999999
 20
279.7294009999998
 30
0.0
 11
434.9926449999999
 21
279.7294009999998
 31
0.0
  0
LINE
  5
944F
330
9405
100
AcDbEntity
  8
1
  6
Continuous
100
AcDbLine
 10
398.992645
 20
279.7294009999998
 30
0.0
 11
386.9926449999999
 21
279.7294009999998
 31
0.0
  0
LINE
  5
9450
330
9405
100
AcDbEntity
  8
1
  6
Continuous
100
AcDbLine
 10
449.992645
 20
305.729401
 30
0.0
 11
423.4926449999998
 21
305.729401
 31
0.0
  0
LINE
  5
9451
330
9405
100
AcDbEntity
  8
1
  6
Continuous
100
AcDbLine
 10
449.992645
 20
334.729401
 30
0.0
 11
383.992645
 21
334.729401
 31
0.0
  0
LINE
  5
9452
330
9405
100
AcDbEntity
  8
1
  6
Continuous
100
AcDbLine
 10
379.992645
 20
330.729401
 30
0.0
 11
379.992645
 21
309.729401
 31
0.0
  0
LINE
  5
9453
330
9405
100
AcDbEntity
  8
1
  6
Continuous
100
AcDbLine
 10
453.992645
 20
330.729401
 30
0.0
 11
453.992645
 21
309.729401
 31
0.0
  0
LINE
  5
9454
330
9405
100
AcDbEntity
  8
1
  6
Continuous
100
AcDbLine
 10
410.4926449999998
 20
305.729401
 30
0.0
 11
383.992645
 21
305.729401
 31
0.0
  0
LINE
  5
9455
330
9405
100
AcDbEntity
  8
1
  6
Continuous
100
AcDbLine
 10
385.4926449999999
 20
178.229416
 30
0.0
 11
385.4926449999999
 21
171.2294159999999
 31
0.0
  0
LINE
  5
9456
330
9405
100
AcDbEntity
  8
1
  6
Continuous
100
AcDbLine
 10
392.492645
 20
178.229416
 30
0.0
 11
392.492645
 21
171.2294159999999
 31
0.0
  0
LINE
  5
9457
330
9405
100
AcDbEntity
  8
4
  6
CENTER
100
AcDbLine
 10
388.9926449999999
 20
188.7294159999999
 30
0.0
 11
388.9926449999999
 21
160.7294159999999
 31
0.0
  0
LINE
  5
9458
330
9405
100
AcDbEntity
  8
4
  6
CENTER
100
AcDbLine
 10
395.9926449999999
 20
174.7294159999999
 30
0.0
 11
381.992645
 21
174.7294159999999
 31
0.0
  0
LINE
  5
9459
330
9405
100
AcDbEntity
  8
1
  6
Continuous
100
AcDbLine
 10
441.492645
 20
178.229416
 30
0.0
 11
441.492645
 21
171.2294159999999
 31
0.0
  0
LINE
  5
945A
330
9405
100
AcDbEntity
  8
1
  6
Continuous
100
AcDbLine
 10
448.4926449999998
 20
178.229416
 30
0.0
 11
448.4926449999998
 21
171.2294159999999
 31
0.0
  0
LINE
  5
945B
330
9405
100
AcDbEntity
  8
4
  6
CENTER
100
AcDbLine
 10
444.9926449999998
 20
188.7294159999999
 30
0.0
 11
444.9926449999998
 21
160.7294159999999
 31
0.0
  0
LINE
  5
945C
330
9405
100
AcDbEntity
  8
4
  6
CENTER
100
AcDbLine
 10
451.9926449999998
 20
174.7294159999999
 30
0.0
 11
437.992645
 21
174.7294159999999
 31
0.0
  0
LINE
  5
945D
330
9405
100
AcDbEntity
  8
1
  6
Continuous
100
AcDbLine
 10
392.492645
 20
322.229401
 30
0.0
 11
392.492645
 21
319.2294009999999
 31
0.0
  0
LINE
  5
945E
330
9405
100
AcDbEntity
  8
1
  6
Continuous
100
AcDbLine
 10
385.4926449999999
 20
322.229401
 30
0.0
 11
385.4926449999999
 21
319.2294009999999
 31
0.0
  0
LINE
  5
945F
330
9405
100
AcDbEntity
  8
4
  6
CENTER
100
AcDbLine
 10
388.9926449999999
 20
330.729401
 30
0.0
 11
388.9926449999999
 21
310.7294009999999
 31
0.0
  0
LINE
  5
9460
330
9405
100
AcDbEntity
  8
4
  6
CENTER
100
AcDbLine
 10
395.9926449999999
 20
320.729401
 30
0.0
 11
381.992645
 21
320.729401
 31
0.0
  0
LINE
  5
9461
330
9405
100
AcDbEntity
  8
1
  6
Continuous
100
AcDbLine
 10
448.4926449999998
 20
322.229401
 30
0.0
 11
448.4926449999998
 21
319.2294009999999
 31
0.0
  0
LINE
  5
9462
330
9405
100
AcDbEntity
  8
1
  6
Continuous
100
AcDbLine
 10
441.492645
 20
322.229401
 30
0.0
 11
441.492645
 21
319.2294009999999
 31
0.0
  0
LINE
  5
9463
330
9405
100
AcDbEntity
  8
4
  6
CENTER
100
AcDbLine
 10
444.9926449999998
 20
330.729401
 30
0.0
 11
444.9926449999998
 21
310.7294009999999
 31
0.0
  0
LINE
  5
9464
330
9405
100
AcDbEntity
  8
4
  6
CENTER
100
AcDbLine
 10
451.9926449999998
 20
320.729401
 30
0.0
 11
437.992645
 21
320.729401
 31
0.0
  0
LINE
  5
9465
330
9405
100
AcDbEntity
  8
1
  6
Continuous
100
AcDbLine
 10
448.4926449999998
 20
271.2294009999999
 30
0.0
 11
448.4926449999998
 21
268.229401
 31
0.0
  0
LINE
  5
9466
330
9405
100
AcDbEntity
  8
1
  6
Continuous
100
AcDbLine
 10
441.492645
 20
271.2294009999999
 30
0.0
 11
441.492645
 21
268.229401
 31
0.0
  0
LINE
  5
9467
330
9405
100
AcDbEntity
  8
4
  6
CENTER
100
AcDbLine
 10
444.9926449999998
 20
279.7294009999998
 30
0.0
 11
444.9926449999998
 21
259.729401
 31
0.0
  0
LINE
  5
9468
330
9405
100
AcDbEntity
  8
4
  6
CENTER
100
AcDbLine
 10
451.9926449999998
 20
269.7294009999998
 30
0.0
 11
437.992645
 21
269.7294009999998
 31
0.0
  0
LINE
  5
9469
330
9405
100
AcDbEntity
  8
1
  6
Continuous
100
AcDbLine
 10
392.492645
 20
271.2294009999999
 30
0.0
 11
392.492645
 21
268.229401
 31
0.0
  0
LINE
  5
946A
330
9405
100
AcDbEntity
  8
1
  6
Continuous
100
AcDbLine
 10
385.4926449999999
 20
271.2294009999999
 30
0.0
 11
385.4926449999999
 21
268.229401
 31
0.0
  0
LINE
  5
946B
330
9405
100
AcDbEntity
  8
4
  6
CENTER
100
AcDbLine
 10
388.9926449999999
 20
279.7294009999998
 30
0.0
 11
388.9926449999999
 21
259.729401
 31
0.0
  0
LINE
  5
946C
330
9405
100
AcDbEntity
  8
4
  6
CENTER
100
AcDbLine
 10
395.9926449999999
 20
269.7294009999998
 30
0.0
 11
381.992645
 21
269.7294009999998
 31
0.0
  0
LINE
  5
946D
330
9405
100
AcDbEntity
  8
4
  6
CENTER
100
AcDbLine
 10
445.4928889999997
 20
301.729401
 30
0.0
 11
388.4928889999998
 21
301.729401
 31
0.0
  0
LINE
  5
946E
330
9405
100
AcDbEntity
  8
1
  6
Continuous
100
AcDbLine
 10
395.7426449999999
 20
305.729401
 30
0.0
 11
395.7426449999999
 21
289.737946
 31
0.0
  0
LINE
  5
946F
330
9405
100
AcDbEntity
  8
1
  6
Continuous
100
AcDbLine
 10
438.2426449999998
 20
305.729401
 30
0.0
 11
438.2426449999998
 21
289.737946
 31
0.0
  0
LINE
  5
9470
330
9405
100
AcDbEntity
  8
1
  6
Continuous
100
AcDbLine
 10
438.2426449999998
 20
289.737946
 30
0.0
 11
436.992645
 21
289.737946
 31
0.0
  0
LINE
  5
9471
330
9405
100
AcDbEntity
  8
1
  6
Continuous
100
AcDbLine
 10
396.9926449999999
 20
289.737946
 30
0.0
 11
395.7426449999999
 21
289.737946
 31
0.0
  0
LINE
  5
9472
330
9405
100
AcDbEntity
  8
4
  6
CENTER
100
AcDbLine
 10
174.3308869999999
 20
339.7294009999999
 30
0.0
 11
174.3308869999999
 21
154.2294159999999
 31
0.0
  0
LINE
  5
9473
330
9405
100
AcDbEntity
  8
4
  6
CENTER
100
AcDbLine
 10
174.3308869999999
 20
97.822502
 30
0.0
 11
174.3308869999999
 21
32.92480900000001
 31
0.0
  0
LINE
  5
9474
330
9405
100
AcDbEntity
  8
1
  6
Continuous
100
AcDbLine
 10
398.992645
 20
305.729401
 30
0.0
 11
398.992645
 21
160.7294159999999
 31
0.0
  0
LINE
  5
9475
330
9405
100
AcDbEntity
  8
1
  6
Continuous
100
AcDbLine
 10
434.9926449999999
 20
305.729401
 30
0.0
 11
434.9926449999999
 21
160.7294159999999
 31
0.0
  0
LINE
  5
9476
330
9405
100
AcDbEntity
  8
1
  6
Continuous
100
AcDbLine
 10
398.992645
 20
286.729401
 30
0.0
 11
434.9926449999999
 21
286.729401
 31
0.0
  0
LINE
  5
9477
330
9405
100
AcDbEntity
  8
1
  6
Continuous
100
AcDbLine
 10
396.9926449999999
 20
305.729401
 30
0.0
 11
396.9926449999999
 21
279.7294009999998
 31
0.0
  0
LINE
  5
9478
330
9405
100
AcDbEntity
  8
1
  6
Continuous
100
AcDbLine
 10
436.992645
 20
305.729401
 30
0.0
 11
436.992645
 21
279.7294009999998
 31
0.0
  0
LINE
  5
9479
330
9405
100
AcDbEntity
  8
1
  6
Continuous
100
AcDbLine
 10
420.492645
 20
311.729401
 30
0.0
 11
413.492645
 21
311.729401
 31
0.0
  0
LINE
  5
947A
330
9405
100
AcDbEntity
  8
1
  6
Continuous
100
AcDbLine
 10
410.4926449999998
 20
308.7294009999999
 30
0.0
 11
410.4926449999998
 21
299.729401
 31
0.0
  0
LINE
  5
947B
330
9405
100
AcDbEntity
  8
1
  6
Continuous
100
AcDbLine
 10
423.4926449999998
 20
308.7294009999999
 30
0.0
 11
423.4926449999998
 21
299.729401
 31
0.0
  0
LINE
  5
947C
330
9405
100
AcDbEntity
  8
1
  6
Continuous
100
AcDbLine
 10
423.4926449999998
 20
299.729401
 30
0.0
 11
410.4926449999998
 21
299.729401
 31
0.0
  0
LINE
  5
947D
330
9405
100
AcDbEntity
  8
1
  6
Continuous
100
AcDbLine
 10
423.4926449999998
 20
305.729401
 30
0.0
 11
410.4926449999998
 21
305.729401
 31
0.0
  0
LINE
  5
947E
330
9405
100
AcDbEntity
  8
1
  6
Continuous
100
AcDbLine
 10
394.4928889999998
 20
294.7294009999998
 30
0.0
 11
395.742889
 21
294.7294009999998
 31
0.0
  0
LINE
  5
947F
330
9405
100
AcDbEntity
  8
1
  6
Continuous
100
AcDbLine
 10
393.492889
 20
305.729401
 30
0.0
 11
393.492889
 21
295.729401
 31
0.0
  0
LINE
  5
9480
330
9405
100
AcDbEntity
  8
1
  6
Continuous
100
AcDbLine
 10
440.4928889999998
 20
305.729401
 30
0.0
 11
440.4928889999998
 21
295.729401
 31
0.0
  0
LINE
  5
9481
330
9405
100
AcDbEntity
  8
1
  6
Continuous
100
AcDbLine
 10
438.2428889999998
 20
294.7294009999998
 30
0.0
 11
439.492889
 21
294.7294009999998
 31
0.0
  0
LINE
  5
9482
330
9405
100
AcDbEntity
  8
1
  6
Continuous
100
AcDbLine
 10
154.5808869999999
 20
328.729401
 30
0.0
 11
194.0808869999999
 21
328.729401
 31
0.0
  0
LINE
  5
9483
330
9405
100
AcDbEntity
  8
1
  6
Continuous
100
AcDbLine
 10
393.492889
 20
295.729401
 30
0.0
 11
394.4928889999998
 21
294.7294009999998
 31
0.0
  0
LINE
  5
9484
330
9405
100
AcDbEntity
  8
1
  6
Continuous
100
AcDbLine
 10
439.492889
 20
294.7294009999998
 30
0.0
 11
440.4928889999998
 21
295.729401
 31
0.0
  0
LINE
  5
9485
330
9405
100
AcDbEntity
  8
1
  6
Continuous
100
AcDbLine
 10
394.4928889999998
 20
305.729401
 30
0.0
 11
394.4928889999998
 21
302.5794069999999
 31
0.0
  0
LINE
  5
9486
330
9405
100
AcDbEntity
  8
1
  6
Continuous
100
AcDbLine
 10
439.492889
 20
305.729401
 30
0.0
 11
439.492889
 21
302.5794069999999
 31
0.0
  0
LINE
  5
9487
330
9405
100
AcDbEntity
  8
1
  6
Continuous
100
AcDbLine
 10
150.830887
 20
75.00041199999998
 30
0.0
 11
150.830887
 21
63.00041199999999
 31
0.0
  0
LINE
  5
9488
330
9405
100
AcDbEntity
  8
1
  6
Continuous
100
AcDbLine
 10
150.830887
 20
75.00041199999998
 30
0.0
 11
151.830887
 21
76.00041199999998
 31
0.0
  0
LINE
  5
9489
330
9405
100
AcDbEntity
  8
1
  6
Continuous
100
AcDbLine
 10
151.830887
 20
76.00041199999998
 30
0.0
 11
153.0808869999999
 21
76.00041199999998
 31
0.0
  0
LINE
  5
948A
330
9405
100
AcDbEntity
  8
1
  6
Continuous
100
AcDbLine
 10
150.830887
 20
63.00041199999999
 30
0.0
 11
151.830887
 21
62.000412
 31
0.0
  0
LINE
  5
948B
330
9405
100
AcDbEntity
  8
1
  6
Continuous
100
AcDbLine
 10
151.830887
 20
76.00041199999998
 30
0.0
 11
151.830887
 21
62.000412
 31
0.0
  0
LINE
  5
948C
330
9405
100
AcDbEntity
  8
1
  6
Continuous
100
AcDbLine
 10
151.830887
 20
62.000412
 30
0.0
 11
153.0808869999999
 21
62.000412
 31
0.0
  0
LINE
  5
948D
330
9405
100
AcDbEntity
  8
1
  6
Continuous
100
AcDbLine
 10
196.8308869999999
 20
76.00041199999998
 30
0.0
 11
196.8308869999999
 21
62.000412
 31
0.0
  0
LINE
  5
948E
330
9405
100
AcDbEntity
  8
1
  6
Continuous
100
AcDbLine
 10
196.8308869999999
 20
62.000412
 30
0.0
 11
197.830887
 21
63.00041199999999
 31
0.0
  0
LINE
  5
948F
330
9405
100
AcDbEntity
  8
1
  6
Continuous
100
AcDbLine
 10
197.830887
 20
75.00041199999998
 30
0.0
 11
197.830887
 21
63.00041199999999
 31
0.0
  0
LINE
  5
9490
330
9405
100
AcDbEntity
  8
1
  6
Continuous
100
AcDbLine
 10
196.8308869999999
 20
76.00041199999998
 30
0.0
 11
197.830887
 21
75.00041199999998
 31
0.0
  0
LINE
  5
9491
330
9405
100
AcDbEntity
  8
1
  6
Continuous
100
AcDbLine
 10
195.580887
 20
76.00041199999998
 30
0.0
 11
196.8308869999999
 21
76.00041199999998
 31
0.0
  0
LINE
  5
9492
330
9405
100
AcDbEntity
  8
1
  6
Continuous
100
AcDbLine
 10
195.580887
 20
62.000412
 30
0.0
 11
196.8308869999999
 21
62.000412
 31
0.0
  0
LINE
  5
9493
330
9405
100
AcDbEntity
  8
1
  6
Continuous
100
AcDbLine
 10
398.992645
 20
272.229401
 30
0.0
 11
434.9926449999999
 21
272.229401
 31
0.0
  0
LINE
  5
9494
330
9405
100
AcDbEntity
  8
1
  6
Continuous
100
AcDbLine
 10
398.992645
 20
170.1924899999999
 30
0.0
 11
434.9926449999999
 21
170.1924899999999
 31
0.0
  0
LINE
  5
9495
330
9405
100
AcDbEntity
  8
1
  6
Continuous
100
AcDbLine
 10
398.992645
 20
167.194626
 30
0.0
 11
400.492645
 21
167.194626
 31
0.0
  0
LINE
  5
9496
330
9405
100
AcDbEntity
  8
1
  6
Continuous
100
AcDbLine
 10
433.492645
 20
167.194626
 30
0.0
 11
434.9926449999999
 21
167.194626
 31
0.0
  0
LINE
  5
9497
330
9405
100
AcDbEntity
  8
1
  6
Continuous
100
AcDbLine
 10
399.4926449999999
 20
195.2294159999999
 30
0.0
 11
399.4926449999999
 21
170.1924899999999
 31
0.0
  0
LINE
  5
9498
330
9405
100
AcDbEntity
  8
1
  6
Continuous
100
AcDbLine
 10
434.4926449999999
 20
195.2294159999999
 30
0.0
 11
434.4926449999999
 21
170.1924899999999
 31
0.0
  0
LINE
  5
9499
330
9405
100
AcDbEntity
  8
1
  6
Continuous
100
AcDbLine
 10
399.4926449999999
 20
167.194626
 30
0.0
 11
399.4926449999999
 21
160.7294159999999
 31
0.0
  0
LINE
  5
949A
330
9405
100
AcDbEntity
  8
1
  6
Continuous
100
AcDbLine
 10
434.4926449999999
 20
167.194626
 30
0.0
 11
434.4926449999999
 21
160.7294159999999
 31
0.0
  0
LINE
  5
949B
330
9405
100
AcDbEntity
  8
1
  6
Continuous
100
AcDbLine
 10
434.4926449999999
 20
195.2294159999999
 30
0.0
 11
421.7138369999998
 21
195.2294159999999
 31
0.0
  0
LINE
  5
949C
330
9405
100
AcDbEntity
  8
1
  6
Continuous
100
AcDbLine
 10
294.695374
 20
158.985367
 30
0.0
 11
300.191467
 21
159.1927639999999
 31
0.0
  0
LINE
  5
949D
330
9405
100
AcDbEntity
  8
1
  6
Continuous
100
AcDbLine
 10
293.6686399999999
 20
159.5276029999999
 30
0.0
 11
293.623291
 21
160.7294159999999
 31
0.0
  0
LINE
  5
949E
330
9405
100
AcDbEntity
  8
1
  6
Continuous
100
AcDbLine
 10
308.6690669999999
 20
160.093658
 30
0.0
 11
308.645081
 21
160.7294159999999
 31
0.0
  0
LINE
  5
949F
330
9405
100
AcDbEntity
  8
1
  6
Continuous
100
AcDbLine
 10
304.9189759999998
 20
159.9521329999998
 30
0.0
 11
304.889648
 21
160.7294159999999
 31
0.0
  0
LINE
  5
94A0
330
9405
100
AcDbEntity
  8
1
  6
Continuous
100
AcDbLine
 10
297.418762
 20
159.6691129999999
 30
0.0
 11
297.378754
 21
160.7294159999999
 31
0.0
  0
LINE
  5
94A1
330
9405
100
AcDbEntity
  8
1
  6
Continuous
100
AcDbLine
 10
294.695374
 20
158.985367
 30
0.0
 11
293.6686399999999
 21
159.5276029999999
 31
0.0
  0
LINE
  5
94A2
330
9405
100
AcDbEntity
  8
1
  6
Continuous
100
AcDbLine
 10
307.686127
 20
159.475586
 30
0.0
 11
308.6690669999999
 21
160.0936429999999
 31
0.0
  0
LINE
  5
94A3
330
9405
100
AcDbEntity
  8
1
  6
Continuous
100
AcDbLine
 10
150.830887
 20
300.8794250000002
 30
0.0
 11
153.0808869999999
 21
300.8794250000002
 31
0.0
  0
LINE
  5
94A4
330
9405
100
AcDbEntity
  8
1
  6
Continuous
100
AcDbLine
 10
150.830887
 20
302.5794069999999
 30
0.0
 11
153.0808869999999
 21
302.5794069999999
 31
0.0
  0
LINE
  5
94A5
330
9405
100
AcDbEntity
  8
1
  6
Continuous
100
AcDbLine
 10
195.580887
 20
302.5794069999999
 30
0.0
 11
197.830887
 21
302.5794069999999
 31
0.0
  0
LINE
  5
94A6
330
9405
100
AcDbEntity
  8
1
  6
Continuous
100
AcDbLine
 10
195.580887
 20
300.8794250000002
 30
0.0
 11
197.830887
 21
300.8794250000002
 31
0.0
  0
LINE
  5
94A7
330
9405
100
AcDbEntity
  8
1
  6
Continuous
100
AcDbLine
 10
393.492889
 20
302.5794069999999
 30
0.0
 11
395.7426449999999
 21
302.5794069999999
 31
0.0
  0
LINE
  5
94A8
330
9405
100
AcDbEntity
  8
1
  6
Continuous
100
AcDbLine
 10
393.492889
 20
300.8794250000002
 30
0.0
 11
395.7426449999999
 21
300.8794250000002
 31
0.0
  0
LINE
  5
94A9
330
9405
100
AcDbEntity
  8
1
  6
Continuous
100
AcDbLine
 10
438.2426449999998
 20
302.5794069999999
 30
0.0
 11
440.4928889999998
 21
302.5794069999999
 31
0.0
  0
LINE
  5
94AA
330
9405
100
AcDbEntity
  8
1
  6
Continuous
100
AcDbLine
 10
438.2426449999998
 20
300.8794250000002
 30
0.0
 11
440.4928889999998
 21
300.8794250000002
 31
0.0
  0
LINE
  5
94AB
330
9405
100
AcDbEntity
  8
1
  6
Continuous
100
AcDbLine
 10
394.4928889999998
 20
300.8794250000002
 30
0.0
 11
394.4928889999998
 21
294.7294009999998
 31
0.0
  0
LINE
  5
94AC
330
9405
100
AcDbEntity
  8
1
  6
Continuous
100
AcDbLine
 10
439.492889
 20
300.8794250000002
 30
0.0
 11
439.492889
 21
294.7294009999998
 31
0.0
  0
LINE
  5
94AD
330
9405
100
AcDbEntity
  8
1
  6
Continuous
100
AcDbLine
 10
404.6879579999998
 20
195.2294159999999
 30
0.0
 11
399.4926449999999
 21
195.2294159999999
 31
0.0
  0
LINE
  5
94AE
330
9405
100
AcDbEntity
  8
1
  6
Continuous
100
AcDbLine
 10
410.4926449999998
 20
159.2294159999999
 30
0.0
 11
423.4926449999998
 21
159.2294159999999
 31
0.0
  0
LINE
  5
94AF
330
9405
100
AcDbEntity
  8
1
  6
Continuous
100
AcDbLine
 10
412.992645
 20
268.3064879999998
 30
0.0
 11
412.992645
 21
263.914581
 31
0.0
  0
LINE
  5
94B0
330
9405
100
AcDbEntity
  8
1
  6
Continuous
100
AcDbLine
 10
420.992645
 20
270.070404
 30
0.0
 11
420.992645
 21
265.6784669999999
 31
0.0
  0
LINE
  5
94B1
330
9405
100
AcDbEntity
  8
1
  6
Continuous
100
AcDbLine
 10
139.330887
 20
43.0
 30
0.0
 11
139.330887
 21
41.0
 31
0.0
  0
LINE
  5
94B2
330
9405
100
AcDbEntity
  8
1
  6
Continuous
100
AcDbLine
 10
209.3308869999999
 20
43.0
 30
0.0
 11
209.3308869999999
 21
41.0
 31
0.0
  0
LINE
  5
94B3
330
9405
100
AcDbEntity
  8
1
  6
Continuous
100
AcDbLine
 10
158.3308869999999
 20
88.0
 30
0.0
 11
190.330887
 21
88.0
 31
0.0
  0
LINE
  5
94B4
330
9405
100
AcDbEntity
  8
1
  6
Continuous
100
AcDbLine
 10
157.3308869999999
 20
82.0
 30
0.0
 11
191.3308869999999
 21
82.0
 31
0.0
  0
LINE
  5
94B5
330
9405
100
AcDbEntity
  8
1
  6
Continuous
100
AcDbLine
 10
137.330887
 20
41.0
 30
0.0
 11
211.330887
 21
41.0
 31
0.0
  0
LINE
  5
94B6
330
9405
100
AcDbEntity
  8
1
  6
Continuous
100
AcDbLine
 10
156.330887
 20
78.0
 30
0.0
 11
156.330887
 21
45.0
 31
0.0
  0
LINE
  5
94B7
330
9405
100
AcDbEntity
  8
1
  6
Continuous
100
AcDbLine
 10
192.3308869999999
 20
78.0
 30
0.0
 11
192.3308869999999
 21
45.0
 31
0.0
  0
LINE
  5
94B8
330
9405
100
AcDbEntity
  8
1
  6
Continuous
100
AcDbLine
 10
154.3308869999999
 20
91.572502
 30
0.0
 11
154.3308869999999
 21
45.0
 31
0.0
  0
LINE
  5
94B9
330
9405
100
AcDbEntity
  8
1
  6
Continuous
100
AcDbLine
 10
194.3308869999999
 20
91.572502
 30
0.0
 11
194.3308869999999
 21
45.0
 31
0.0
  0
LINE
  5
94BA
330
9405
100
AcDbEntity
  8
1
  6
Continuous
100
AcDbLine
 10
139.330887
 20
43.0
 30
0.0
 11
152.3308869999999
 21
43.0
 31
0.0
  0
LINE
  5
94BB
330
9405
100
AcDbEntity
  8
1
  6
Continuous
100
AcDbLine
 10
196.3308869999999
 20
43.0
 30
0.0
 11
209.3308869999999
 21
43.0
 31
0.0
  0
LINE
  5
94BC
330
9405
100
AcDbEntity
  8
1
  6
Continuous
100
AcDbLine
 10
137.330887
 20
49.0
 30
0.0
 11
137.330887
 21
41.0
 31
0.0
  0
LINE
  5
94BD
330
9405
100
AcDbEntity
  8
1
  6
Continuous
100
AcDbLine
 10
211.330887
 20
49.0
 30
0.0
 11
211.330887
 21
41.0
 31
0.0
  0
LINE
  5
94BE
330
9405
100
AcDbEntity
  8
4
  6
CENTER
100
AcDbLine
 10
146.3308869999999
 20
54.0
 30
0.0
 11
146.3308869999999
 21
37.0
 31
0.0
  0
LINE
  5
94BF
330
9405
100
AcDbEntity
  8
4
  6
CENTER
100
AcDbLine
 10
202.330887
 20
53.73349399999999
 30
0.0
 11
202.330887
 21
36.688931
 31
0.0
  0
LINE
  5
94C0
330
9405
100
AcDbEntity
  8
1
  6
Continuous
100
AcDbLine
 10
158.3308869999999
 20
80.0
 30
0.0
 11
190.330887
 21
80.0
 31
0.0
  0
LINE
  5
94C1
330
9405
100
AcDbEntity
  8
1
  6
Continuous
100
AcDbLine
 10
156.8308869999999
 20
77.0
 30
0.0
 11
191.8308869999999
 21
77.0
 31
0.0
  0
LINE
  5
94C2
330
9405
100
AcDbEntity
  8
1
  6
Continuous
100
AcDbLine
 10
191.8308869999999
 20
79.32287599999998
 30
0.0
 11
191.8308869999999
 21
77.0
 31
0.0
  0
LINE
  5
94C3
330
9405
100
AcDbEntity
  8
1
  6
Continuous
100
AcDbLine
 10
156.8308869999999
 20
79.32287599999998
 30
0.0
 11
156.8308869999999
 21
77.0
 31
0.0
  0
LINE
  5
94C4
330
9405
100
AcDbEntity
  8
1
  6
Continuous
100
AcDbLine
 10
139.330887
 20
51.0
 30
0.0
 11
154.3308869999999
 21
51.0
 31
0.0
  0
LINE
  5
94C5
330
9405
100
AcDbEntity
  8
1
  6
Continuous
100
AcDbLine
 10
141.3308869999999
 20
46.0
 30
0.0
 11
154.3308869999999
 21
46.0
 31
0.0
  0
LINE
  5
94C6
330
9405
100
AcDbEntity
  8
1
  6
Continuous
100
AcDbLine
 10
194.3308869999999
 20
51.0
 30
0.0
 11
209.3308869999999
 21
51.0
 31
0.0
  0
LINE
  5
94C7
330
9405
100
AcDbEntity
  8
1
  6
Continuous
100
AcDbLine
 10
194.3308869999999
 20
46.0
 30
0.0
 11
207.3308869999999
 21
46.0
 31
0.0
  0
LINE
  5
94C8
330
9405
100
AcDbEntity
  8
1
  6
Continuous
100
AcDbLine
 10
157.8308869999999
 20
49.0
 30
0.0
 11
190.8308869999999
 21
49.0
 31
0.0
  0
LINE
  5
94C9
330
9405
100
AcDbEntity
  8
1
  6
Continuous
100
AcDbLine
 10
159.3308869999999
 20
77.0
 30
0.0
 11
159.3308869999999
 21
74.0
 31
0.0
  0
LINE
  5
94CA
330
9405
100
AcDbEntity
  8
1
  6
Continuous
100
AcDbLine
 10
189.330887
 20
77.0
 30
0.0
 11
189.330887
 21
74.0
 31
0.0
  0
LINE
  5
94CB
330
9405
100
AcDbEntity
  8
1
  6
Continuous
100
AcDbLine
 10
157.8308869999999
 20
77.0
 30
0.0
 11
157.8308869999999
 21
67.5
 31
0.0
  0
LINE
  5
94CC
330
9405
100
AcDbEntity
  8
1
  6
Continuous
100
AcDbLine
 10
190.8308869999999
 20
77.0
 30
0.0
 11
190.8308869999999
 21
67.5
 31
0.0
  0
LINE
  5
94CD
330
9405
100
AcDbEntity
  8
1
  6
Continuous
100
AcDbLine
 10
157.8308869999999
 20
52.0
 30
0.0
 11
190.8308869999999
 21
52.0
 31
0.0
  0
LINE
  5
94CE
330
9405
100
AcDbEntity
  8
1
  6
Continuous
100
AcDbLine
 10
157.8308869999999
 20
74.0
 30
0.0
 11
190.8308869999999
 21
74.0
 31
0.0
  0
LINE
  5
94CF
330
9405
100
AcDbEntity
  8
1
  6
Continuous
100
AcDbLine
 10
159.3308869999999
 20
52.0
 30
0.0
 11
159.3308869999999
 21
49.0
 31
0.0
  0
LINE
  5
94D0
330
9405
100
AcDbEntity
  8
1
  6
Continuous
100
AcDbLine
 10
189.330887
 20
52.0
 30
0.0
 11
189.330887
 21
49.0
 31
0.0
  0
LINE
  5
94D1
330
9405
100
AcDbEntity
  8
1
  6
Continuous
100
AcDbLine
 10
156.330887
 20
67.5
 30
0.0
 11
157.8308869999999
 21
67.5
 31
0.0
  0
LINE
  5
94D2
330
9405
100
AcDbEntity
  8
1
  6
Continuous
100
AcDbLine
 10
156.330887
 20
58.5
 30
0.0
 11
157.8308869999999
 21
58.5
 31
0.0
  0
LINE
  5
94D3
330
9405
100
AcDbEntity
  8
1
  6
Continuous
100
AcDbLine
 10
190.8308869999999
 20
67.5
 30
0.0
 11
192.3308869999999
 21
67.5
 31
0.0
  0
LINE
  5
94D4
330
9405
100
AcDbEntity
  8
1
  6
Continuous
100
AcDbLine
 10
190.8308869999999
 20
58.5
 30
0.0
 11
192.3308869999999
 21
58.5
 31
0.0
  0
LINE
  5
94D5
330
9405
100
AcDbEntity
  8
4
  6
CENTER
100
AcDbLine
 10
165.330887
 20
63.0
 30
0.0
 11
183.3308869999999
 21
63.0
 31
0.0
  0
LINE
  5
94D6
330
9405
100
AcDbEntity
  8
1
  6
Continuous
100
AcDbLine
 10
157.8308869999999
 20
58.5
 30
0.0
 11
157.8308869999999
 21
49.0
 31
0.0
  0
LINE
  5
94D7
330
9405
100
AcDbEntity
  8
1
  6
Continuous
100
AcDbLine
 10
190.8308869999999
 20
58.5
 30
0.0
 11
190.8308869999999
 21
49.0
 31
0.0
  0
LINE
  5
94D8
330
9405
100
AcDbEntity
  8
1
  6
Continuous
100
AcDbLine
 10
174.3308869999999
 20
55.49444199999999
 30
0.0
 11
180.8308869999999
 21
59.247215
 31
0.0
  0
LINE
  5
94D9
330
9405
100
AcDbEntity
  8
1
  6
Continuous
100
AcDbLine
 10
167.8308869999999
 20
66.75277700000001
 30
0.0
 11
174.3308869999999
 21
70.505554
 31
0.0
  0
LINE
  5
94DA
330
9405
100
AcDbEntity
  8
1
  6
Continuous
100
AcDbLine
 10
167.8308869999999
 20
66.75277700000001
 30
0.0
 11
167.8308869999999
 21
59.24722299999999
 31
0.0
  0
LINE
  5
94DB
330
9405
100
AcDbEntity
  8
1
  6
Continuous
100
AcDbLine
 10
180.8308869999999
 20
66.75277700000001
 30
0.0
 11
180.8308869999999
 21
59.24722299999999
 31
0.0
  0
LINE
  5
94DC
330
9405
100
AcDbEntity
  8
1
  6
Continuous
100
AcDbLine
 10
167.8308869999999
 20
59.24722299999999
 30
0.0
 11
174.3308869999999
 21
55.49444600000001
 31
0.0
  0
LINE
  5
94DD
330
9405
100
AcDbEntity
  8
1
  6
Continuous
100
AcDbLine
 10
174.3308869999999
 20
70.505554
 30
0.0
 11
180.8308869999999
 21
66.75277700000001
 31
0.0
  0
LINE
  5
94DE
330
9405
100
AcDbEntity
  8
1
  6
Continuous
100
AcDbLine
 10
167.8308869999999
 20
64.0
 30
0.0
 11
180.8308869999999
 21
64.0
 31
0.0
  0
LINE
  5
94DF
330
9405
100
AcDbEntity
  8
1
  6
Continuous
100
AcDbLine
 10
167.8308869999999
 20
62.0
 30
0.0
 11
180.8308869999999
 21
62.0
 31
0.0
  0
LINE
  5
94E0
330
9405
100
AcDbEntity
  8
1
  6
Continuous
100
AcDbLine
 10
156.330887
 20
45.49999999999999
 30
0.0
 11
192.3308869999999
 21
45.49999999999999
 31
0.0
  0
LINE
  5
94E1
330
9405
100
AcDbEntity
  8
1
  6
Continuous
100
AcDbLine
 10
154.080887
 20
92.822502
 30
0.0
 11
194.580887
 21
92.822502
 31
0.0
  0
LINE
  5
94E2
330
9405
100
AcDbEntity
  8
1
  6
Continuous
100
AcDbLine
 10
153.0808869999999
 20
91.822502
 30
0.0
 11
153.0808869999999
 21
52.0
 31
0.0
  0
LINE
  5
94E3
330
9405
100
AcDbEntity
  8
1
  6
Continuous
100
AcDbLine
 10
195.580887
 20
91.822502
 30
0.0
 11
195.580887
 21
52.0
 31
0.0
  0
LINE
  5
94E4
330
9405
100
AcDbEntity
  8
1
  6
Continuous
100
AcDbLine
 10
153.0808869999999
 20
52.0
 30
0.0
 11
154.3308869999999
 21
52.0
 31
0.0
  0
LINE
  5
94E5
330
9405
100
AcDbEntity
  8
1
  6
Continuous
100
AcDbLine
 10
194.3308869999999
 20
52.0
 30
0.0
 11
195.580887
 21
52.0
 31
0.0
  0
LINE
  5
94E6
330
9405
100
AcDbEntity
  8
4
  6
CENTER
100
AcDbLine
 10
145.8308869999999
 20
69.0
 30
0.0
 11
202.830887
 21
69.0
 31
0.0
  0
LINE
  5
94E7
330
9405
100
AcDbEntity
  8
1
  6
Continuous
100
AcDbLine
 10
153.0808869999999
 20
91.822502
 30
0.0
 11
153.5808869999999
 21
91.822502
 31
0.0
  0
LINE
  5
94E8
330
9405
100
AcDbEntity
  8
1
  6
Continuous
100
AcDbLine
 10
153.5808869999999
 20
91.822502
 30
0.0
 11
154.080887
 21
92.822502
 31
0.0
  0
LINE
  5
94E9
330
9405
100
AcDbEntity
  8
1
  6
Continuous
100
AcDbLine
 10
194.580887
 20
92.822502
 30
0.0
 11
195.0808869999999
 21
91.822502
 31
0.0
  0
LINE
  5
94EA
330
9405
100
AcDbEntity
  8
1
  6
Continuous
100
AcDbLine
 10
195.0808869999999
 20
91.822502
 30
0.0
 11
195.580887
 21
91.822502
 31
0.0
  0
LINE
  5
94EB
330
9405
100
AcDbEntity
  8
1
  6
Continuous
100
AcDbLine
 10
150.830887
 20
295.729401
 30
0.0
 11
151.830887
 21
294.7294009999998
 31
0.0
  0
LINE
  5
94EC
330
9405
100
AcDbEntity
  8
1
  6
Continuous
100
AcDbLine
 10
151.830887
 20
294.7294009999998
 30
0.0
 11
153.0808869999999
 21
294.7294009999998
 31
0.0
  0
LINE
  5
94ED
330
9405
100
AcDbEntity
  8
1
  6
Continuous
100
AcDbLine
 10
151.830887
 20
300.8794250000002
 30
0.0
 11
151.830887
 21
294.7294009999998
 31
0.0
  0
LINE
  5
94EE
330
9405
100
AcDbEntity
  8
1
  6
Continuous
100
AcDbLine
 10
150.830887
 20
307.729401
 30
0.0
 11
150.830887
 21
295.729401
 31
0.0
  0
LINE
  5
94EF
330
9405
100
AcDbEntity
  8
1
  6
Continuous
100
AcDbLine
 10
151.830887
 20
308.7294009999999
 30
0.0
 11
151.830887
 21
302.5794069999999
 31
0.0
  0
LINE
  5
94F0
330
9405
100
AcDbEntity
  8
1
  6
Continuous
100
AcDbLine
 10
150.830887
 20
307.729401
 30
0.0
 11
151.830887
 21
308.7294009999999
 31
0.0
  0
LINE
  5
94F1
330
9405
100
AcDbEntity
  8
1
  6
Continuous
100
AcDbLine
 10
151.830887
 20
308.7294009999999
 30
0.0
 11
153.0808869999999
 21
308.7294009999999
 31
0.0
  0
LINE
  5
94F2
330
9405
100
AcDbEntity
  8
1
  6
Continuous
100
AcDbLine
 10
196.8308869999999
 20
308.7294009999999
 30
0.0
 11
197.830887
 21
307.729401
 31
0.0
  0
LINE
  5
94F3
330
9405
100
AcDbEntity
  8
1
  6
Continuous
100
AcDbLine
 10
195.580887
 20
308.7294009999999
 30
0.0
 11
196.8308869999999
 21
308.7294009999999
 31
0.0
  0
LINE
  5
94F4
330
9405
100
AcDbEntity
  8
1
  6
Continuous
100
AcDbLine
 10
196.8308869999999
 20
308.7294009999999
 30
0.0
 11
196.8308869999999
 21
302.5794069999999
 31
0.0
  0
LINE
  5
94F5
330
9405
100
AcDbEntity
  8
1
  6
Continuous
100
AcDbLine
 10
197.830887
 20
307.729401
 30
0.0
 11
197.830887
 21
295.729401
 31
0.0
  0
LINE
  5
94F6
330
9405
100
AcDbEntity
  8
1
  6
Continuous
100
AcDbLine
 10
195.580887
 20
294.7294009999998
 30
0.0
 11
196.8308869999999
 21
294.7294009999998
 31
0.0
  0
LINE
  5
94F7
330
9405
100
AcDbEntity
  8
1
  6
Continuous
100
AcDbLine
 10
196.8308869999999
 20
294.7294009999998
 30
0.0
 11
197.830887
 21
295.729401
 31
0.0
  0
LINE
  5
94F8
330
9405
100
AcDbEntity
  8
1
  6
Continuous
100
AcDbLine
 10
196.8308869999999
 20
300.8794250000002
 30
0.0
 11
196.8308869999999
 21
294.7294009999998
 31
0.0
  0
LINE
  5
94F9
330
9405
100
AcDbEntity
  8
4
  6
CENTER
100
AcDbLine
 10
174.3308869999999
 20
397.6363219999998
 30
0.0
 11
174.3308869999999
 21
459.4588319999998
 31
0.0
  0
LINE
  5
94FA
330
9405
100
AcDbEntity
  8
1
  6
Continuous
100
AcDbLine
 10
150.830887
 20
420.4584049999998
 30
0.0
 11
150.830887
 21
432.4584049999998
 31
0.0
  0
LINE
  5
94FB
330
9405
100
AcDbEntity
  8
1
  6
Continuous
100
AcDbLine
 10
150.830887
 20
420.4584049999998
 30
0.0
 11
151.830887
 21
419.4584049999998
 31
0.0
  0
LINE
  5
94FC
330
9405
100
AcDbEntity
  8
1
  6
Continuous
100
AcDbLine
 10
151.830887
 20
419.4584049999998
 30
0.0
 11
153.0808869999999
 21
419.4584049999998
 31
0.0
  0
LINE
  5
94FD
330
9405
100
AcDbEntity
  8
1
  6
Continuous
100
AcDbLine
 10
150.830887
 20
432.4584049999998
 30
0.0
 11
151.830887
 21
433.458405
 31
0.0
  0
LINE
  5
94FE
330
9405
100
AcDbEntity
  8
1
  6
Continuous
100
AcDbLine
 10
151.830887
 20
419.4584049999998
 30
0.0
 11
151.830887
 21
433.458405
 31
0.0
  0
LINE
  5
94FF
330
9405
100
AcDbEntity
  8
1
  6
Continuous
100
AcDbLine
 10
151.830887
 20
433.458405
 30
0.0
 11
153.0808869999999
 21
433.458405
 31
0.0
  0
LINE
  5
9500
330
9405
100
AcDbEntity
  8
1
  6
Continuous
100
AcDbLine
 10
196.8308869999999
 20
419.4584049999998
 30
0.0
 11
196.8308869999999
 21
433.458405
 31
0.0
  0
LINE
  5
9501
330
9405
100
AcDbEntity
  8
1
  6
Continuous
100
AcDbLine
 10
196.8308869999999
 20
433.458405
 30
0.0
 11
197.830887
 21
432.4584049999998
 31
0.0
  0
LINE
  5
9502
330
9405
100
AcDbEntity
  8
1
  6
Continuous
100
AcDbLine
 10
197.830887
 20
420.4584049999998
 30
0.0
 11
197.830887
 21
432.4584049999998
 31
0.0
  0
LINE
  5
9503
330
9405
100
AcDbEntity
  8
1
  6
Continuous
100
AcDbLine
 10
196.8308869999999
 20
419.4584049999998
 30
0.0
 11
197.830887
 21
420.4584049999998
 31
0.0
  0
LINE
  5
9504
330
9405
100
AcDbEntity
  8
1
  6
Continuous
100
AcDbLine
 10
195.580887
 20
419.4584049999998
 30
0.0
 11
196.8308869999999
 21
419.4584049999998
 31
0.0
  0
LINE
  5
9505
330
9405
100
AcDbEntity
  8
1
  6
Continuous
100
AcDbLine
 10
195.580887
 20
433.458405
 30
0.0
 11
196.8308869999999
 21
433.458405
 31
0.0
  0
LINE
  5
9506
330
9405
100
AcDbEntity
  8
1
  6
Continuous
100
AcDbLine
 10
137.330887
 20
454.4588319999999
 30
0.0
 11
211.330887
 21
454.4588319999999
 31
0.0
  0
LINE
  5
9507
330
9405
100
AcDbEntity
  8
1
  6
Continuous
100
AcDbLine
 10
137.330887
 20
446.4588319999998
 30
0.0
 11
137.330887
 21
454.4588319999999
 31
0.0
  0
LINE
  5
9508
330
9405
100
AcDbEntity
  8
1
  6
Continuous
100
AcDbLine
 10
211.330887
 20
446.4588319999998
 30
0.0
 11
211.330887
 21
454.4588319999999
 31
0.0
  0
LINE
  5
9509
330
9405
100
AcDbEntity
  8
4
  6
CENTER
100
AcDbLine
 10
146.3308869999999
 20
441.458832
 30
0.0
 11
146.3308869999999
 21
457.458832
 31
0.0
  0
LINE
  5
950A
330
9405
100
AcDbEntity
  8
4
  6
CENTER
100
AcDbLine
 10
202.330887
 20
441.458832
 30
0.0
 11
202.330887
 21
457.458832
 31
0.0
  0
LINE
  5
950B
330
9405
100
AcDbEntity
  8
1
  6
Continuous
100
AcDbLine
 10
139.330887
 20
444.458832
 30
0.0
 11
209.3308869999999
 21
444.458832
 31
0.0
  0
LINE
  5
950C
330
9405
100
AcDbEntity
  8
1
  6
Continuous
100
AcDbLine
 10
154.080887
 20
402.636322
 30
0.0
 11
194.580887
 21
402.636322
 31
0.0
  0
LINE
  5
950D
330
9405
100
AcDbEntity
  8
1
  6
Continuous
100
AcDbLine
 10
153.0808869999999
 20
403.636322
 30
0.0
 11
153.0808869999999
 21
441.458832
 31
0.0
  0
LINE
  5
950E
330
9405
100
AcDbEntity
  8
1
  6
Continuous
100
AcDbLine
 10
195.580887
 20
403.636322
 30
0.0
 11
195.580887
 21
441.458832
 31
0.0
  0
LINE
  5
950F
330
9405
100
AcDbEntity
  8
1
  6
Continuous
100
AcDbLine
 10
154.080887
 20
443.4588319999998
 30
0.0
 11
194.580887
 21
443.4588319999998
 31
0.0
  0
LINE
  5
9510
330
9405
100
AcDbEntity
  8
4
  6
CENTER
100
AcDbLine
 10
145.8308869999999
 20
426.4588319999998
 30
0.0
 11
202.830887
 21
426.4588319999998
 31
0.0
  0
LINE
  5
9511
330
9405
100
AcDbEntity
  8
1
  6
Continuous
100
AcDbLine
 10
153.0808869999999
 20
403.636322
 30
0.0
 11
153.5808869999999
 21
403.636322
 31
0.0
  0
LINE
  5
9512
330
9405
100
AcDbEntity
  8
1
  6
Continuous
100
AcDbLine
 10
153.5808869999999
 20
403.636322
 30
0.0
 11
154.080887
 21
402.636322
 31
0.0
  0
LINE
  5
9513
330
9405
100
AcDbEntity
  8
1
  6
Continuous
100
AcDbLine
 10
194.580887
 20
402.636322
 30
0.0
 11
195.0808869999999
 21
403.636322
 31
0.0
  0
LINE
  5
9514
330
9405
100
AcDbEntity
  8
1
  6
Continuous
100
AcDbLine
 10
195.0808869999999
 20
403.636322
 30
0.0
 11
195.580887
 21
403.636322
 31
0.0
  0
LINE
  5
9515
330
9405
100
AcDbEntity
  8
1
  6
Continuous
100
AcDbLine
 10
141.3308869999999
 20
449.458832
 30
0.0
 11
207.3308869999999
 21
449.458832
 31
0.0
  0
LINE
  5
9516
330
9405
100
AcDbEntity
  8
1
  6
Continuous
100
AcDbLine
 10
167.3308869999999
 20
443.4588319999998
 30
0.0
 11
169.8308869999999
 21
444.458832
 31
0.0
  0
LINE
  5
9517
330
9405
100
AcDbEntity
  8
1
  6
Continuous
100
AcDbLine
 10
178.8308869999999
 20
444.458832
 30
0.0
 11
181.330887
 21
443.4588319999998
 31
0.0
  0
LINE
  5
9518
330
9405
100
AcDbEntity
  8
1
  6
Continuous
100
AcDbLine
 10
156.5808869999999
 20
444.458832
 30
0.0
 11
159.5808869999999
 21
443.4588319999998
 31
0.0
  0
LINE
  5
9519
330
9405
100
AcDbEntity
  8
1
  6
Continuous
100
AcDbLine
 10
189.0808869999999
 20
443.4588319999998
 30
0.0
 11
192.0808869999999
 21
444.458832
 31
0.0
  0
LINE
  5
951A
330
9405
100
AcDbEntity
  8
1
  6
Continuous
100
AcDbLine
 10
153.41861
 20
444.458832
 30
0.0
 11
156.41861
 21
443.4588319999998
 31
0.0
  0
LINE
  5
951B
330
9405
100
AcDbEntity
  8
1
  6
Continuous
100
AcDbLine
 10
192.2431639999999
 20
443.4588319999998
 30
0.0
 11
195.243164
 21
444.458832
 31
0.0
  0
LINE
  5
951C
330
9405
100
AcDbEntity
  8
5
  6
PHANTOM
100
AcDbLine
 10
274.2284849999999
 20
339.3274839999999
 30
0.0
 11
301.4795529999998
 21
329.408875
 31
0.0
  0
LINE
  5
951D
330
9405
100
AcDbEntity
  8
5
  6
PHANTOM
100
AcDbLine
 10
274.2284849999999
 20
339.3274839999999
 30
0.0
 11
272.897308
 21
335.670135
 31
0.0
  0
LINE
  5
951E
330
9405
100
AcDbEntity
  8
5
  6
PHANTOM
100
AcDbLine
 10
301.4795529999998
 20
329.408875
 30
0.0
 11
300.1484069999999
 21
325.7515559999998
 31
0.0
  0
LINE
  5
951F
330
9405
100
AcDbEntity
  8
1
  6
Continuous
100
AcDbLine
 10
323.6617739999999
 20
279.7294009999998
 30
0.0
 11
323.6617739999999
 21
160.7294159999999
 31
0.0
  0
LINE
  5
9520
330
9405
100
AcDbEntity
  8
5
  6
PHANTOM
100
AcDbLine
 10
274.159393
 20
328.710846
 30
0.0
 11
294.7082209999999
 21
321.2316589999999
 31
0.0
  0
LINE
  5
9521
330
9405
100
AcDbEntity
  8
5
  6
PHANTOM
100
AcDbLine
 10
272.7290949999999
 20
333.54129
 30
0.0
 11
273.519653
 21
329.460327
 31
0.0
  0
LINE
  5
9522
330
9405
100
AcDbEntity
  8
5
  6
PHANTOM
100
AcDbLine
 10
298.908875
 20
324.0126339999998
 30
0.0
 11
295.6800539999999
 21
321.394623
 31
0.0
  0
LINE
  5
9523
330
9405
100
AcDbEntity
  8
1
  6
Continuous
100
AcDbLine
 10
321.6617739999999
 20
279.7294009999998
 30
0.0
 11
321.6617739999999
 21
160.7294159999999
 31
0.0
  0
LINE
  5
9524
330
9405
100
AcDbEntity
  8
1
  6
Continuous
100
AcDbLine
 10
323.6617739999999
 20
160.7294159999999
 30
0.0
 11
282.6617739999999
 21
160.7294159999999
 31
0.0
  0
LINE
  5
9525
330
9405
100
AcDbEntity
  8
1
  6
Continuous
100
AcDbLine
 10
323.6617739999999
 20
279.7294009999998
 30
0.0
 11
321.6617739999999
 21
279.7294009999998
 31
0.0
  0
LINE
  5
9526
330
9405
100
AcDbEntity
  8
4
  6
CENTER
100
AcDbLine
 10
327.6617739999999
 20
269.7294009999998
 30
0.0
 11
317.6617739999999
 21
269.7294009999998
 31
0.0
  0
LINE
  5
9527
330
9405
100
AcDbEntity
  8
4
  6
CENTER
100
AcDbLine
 10
327.6617739999999
 20
174.7294159999999
 30
0.0
 11
317.6617739999999
 21
174.7294159999999
 31
0.0
  0
LINE
  5
9528
330
9405
100
AcDbEntity
  8
4
  6
CENTER
100
AcDbLine
 10
295.661774
 20
333.7294009999999
 30
0.0
 11
295.661774
 21
284.729401
 31
0.0
  0
LINE
  5
9529
330
9405
100
AcDbEntity
  8
4
  6
CENTER
100
AcDbLine
 10
303.2943419999999
 20
322.699768
 30
0.0
 11
289.847412
 21
285.7546389999999
 31
0.0
  0
LINE
  5
952A
330
9405
100
AcDbEntity
  8
1
  6
Continuous
100
AcDbLine
 10
282.6617739999999
 20
160.7294159999999
 30
0.0
 11
277.1416319999999
 21
307.0131839999999
 31
0.0
  0
LINE
  5
952B
330
9405
100
AcDbEntity
  8
1
  6
Continuous
100
AcDbLine
 10
317.481873
 20
280.3927919999998
 30
0.0
 11
317.1370539999998
 21
289.530548
 31
0.0
  0
LINE
  5
952C
330
9405
100
AcDbEntity
  8
1
  6
Continuous
100
AcDbLine
 10
302.6099549999999
 20
302.5794069999999
 30
0.0
 11
301.601257
 21
302.5794069999999
 31
0.0
  0
LINE
  5
952D
330
9405
100
AcDbEntity
  8
1
  6
Continuous
100
AcDbLine
 10
302.6099549999999
 20
300.8794250000002
 30
0.0
 11
301.601257
 21
300.8794250000002
 31
0.0
  0
LINE
  5
952E
330
9405
100
AcDbEntity
  8
1
  6
Continuous
100
AcDbLine
 10
289.72229
 20
302.5794069999999
 30
0.0
 11
288.713562
 21
302.5794069999999
 31
0.0
  0
LINE
  5
952F
330
9405
100
AcDbEntity
  8
1
  6
Continuous
100
AcDbLine
 10
289.72229
 20
300.8794250000002
 30
0.0
 11
288.713562
 21
300.8794250000002
 31
0.0
  0
LINE
  5
9530
330
9405
100
AcDbEntity
  8
1
  6
Continuous
100
AcDbLine
 10
308.1617739999999
 20
303.732117
 30
0.0
 11
308.1617739999999
 21
293.229401
 31
0.0
  0
LINE
  5
9531
330
9405
100
AcDbEntity
  8
1
  6
Continuous
100
AcDbLine
 10
316.6185609999998
 20
290.011322
 30
0.0
 11
308.6286319999999
 21
289.709839
 31
0.0
  0
LINE
  5
9532
330
9405
100
AcDbEntity
  8
1
  6
Continuous
100
AcDbLine
 10
316.6373899999999
 20
289.5116879999998
 30
0.0
 11
308.7724909999999
 21
289.214905
 31
0.0
  0
LINE
  5
9533
330
9405
100
AcDbEntity
  8
1
  6
Continuous
100
AcDbLine
 10
316.974854
 20
280.5691219999999
 30
0.0
 11
316.6373899999999
 21
289.5116879999998
 31
0.0
  0
LINE
  5
9534
330
9405
100
AcDbEntity
  8
4
  6
CENTER
100
AcDbLine
 10
301.3228759999999
 20
155.7294159999998
 30
0.0
 11
299.704834
 21
198.606918
 31
0.0
  0
LINE
  5
9535
330
9405
100
AcDbEntity
  8
1
  6
Continuous
100
AcDbLine
 10
304.798676
 20
192.195694
 30
0.0
 11
294.805786
 21
191.8186039999999
 31
0.0
  0
LINE
  5
9536
330
9405
100
AcDbEntity
  8
1
  6
Continuous
100
AcDbLine
 10
305.7413939999999
 20
167.2134699999998
 30
0.0
 11
304.798676
 21
192.195694
 31
0.0
  0
LINE
  5
9537
330
9405
100
AcDbEntity
  8
1
  6
Continuous
100
AcDbLine
 10
295.7485049999998
 20
166.8363799999999
 30
0.0
 11
294.805786
 21
191.8186039999999
 31
0.0
  0
LINE
  5
9538
330
9405
100
AcDbEntity
  8
1
  6
Continuous
100
AcDbLine
 10
305.24176
 20
167.194626
 30
0.0
 11
305.1286319999999
 21
170.1924899999999
 31
0.0
  0
LINE
  5
9539
330
9405
100
AcDbEntity
  8
1
  6
Continuous
100
AcDbLine
 10
296.2481379999999
 20
166.8552399999998
 30
0.0
 11
296.13504
 21
169.8531039999998
 31
0.0
  0
LINE
  5
953A
330
9405
100
AcDbEntity
  8
1
  6
Continuous
100
AcDbLine
 10
305.6282649999999
 20
170.211349
 30
0.0
 11
295.6353759999998
 21
169.834259
 31
0.0
  0
LINE
  5
953B
330
9405
100
AcDbEntity
  8
4
  6
CENTER
100
AcDbLine
 10
289.094269
 20
339.2376399999998
 30
0.0
 11
282.253876
 21
320.443787
 31
0.0
  0
LINE
  5
953C
330
9405
100
AcDbEntity
  8
5
  6
PHANTOM
100
AcDbLine
 10
277.044098
 20
326.5967099999999
 30
0.0
 11
279.8631899999999
 21
325.570648
 31
0.0
  0
LINE
  5
953D
330
9405
100
AcDbEntity
  8
5
  6
PHANTOM
100
AcDbLine
 10
275.76239
 20
325.999023
 30
0.0
 11
270.29007
 21
310.963959
 31
0.0
  0
LINE
  5
953E
330
9405
100
AcDbEntity
  8
5
  6
PHANTOM
100
AcDbLine
 10
279.8631899999999
 20
325.570648
 30
0.0
 11
279.5211489999999
 21
324.6309509999999
 31
0.0
  0
LINE
  5
953F
330
9405
100
AcDbEntity
  8
5
  6
PHANTOM
100
AcDbLine
 10
281.144897
 20
326.168335
 30
0.0
 11
280.403839
 21
324.1322939999998
 31
0.0
  0
LINE
  5
9540
330
9405
100
AcDbEntity
  8
5
  6
PHANTOM
100
AcDbLine
 10
279.5211489999999
 20
324.6309509999999
 30
0.0
 11
301.5644529999998
 21
312.1773069999999
 31
0.0
  0
LINE
  5
9541
330
9405
100
AcDbEntity
  8
5
  6
PHANTOM
100
AcDbLine
 10
277.2302859999999
 20
284.1507259999999
 30
0.0
 11
298.8757019999998
 21
290.167816
 31
0.0
  0
LINE
  5
9542
330
9405
100
AcDbEntity
  8
5
  6
PHANTOM
100
AcDbLine
 10
275.914581
 20
284.6295779999999
 30
0.0
 11
275.5725709999999
 21
283.6898799999999
 31
0.0
  0
LINE
  5
9543
330
9405
100
AcDbEntity
  8
5
  6
PHANTOM
100
AcDbLine
 10
275.914581
 20
284.6295779999999
 30
0.0
 11
277.2302859999999
 21
284.1507259999999
 31
0.0
  0
LINE
  5
9544
330
9405
100
AcDbEntity
  8
1
  6
Continuous
100
AcDbLine
 10
323.6617739999999
 20
334.729401
 30
0.0
 11
323.6617739999999
 21
305.729401
 31
0.0
  0
LINE
  5
9545
330
9405
100
AcDbEntity
  8
1
  6
Continuous
100
AcDbLine
 10
323.6617739999999
 20
334.729401
 30
0.0
 11
319.769714
 21
334.729401
 31
0.0
  0
LINE
  5
9546
330
9405
100
AcDbEntity
  8
1
  6
Continuous
100
AcDbLine
 10
317.7117309999998
 20
334.159393
 30
0.0
 11
314.1472779999999
 21
332.0207209999999
 31
0.0
  0
LINE
  5
9547
330
9405
100
AcDbEntity
  8
1
  6
Continuous
100
AcDbLine
 10
313.6617739999999
 20
323.7294009999998
 30
0.0
 11
311.495056
 21
323.7294009999998
 31
0.0
  0
LINE
  5
9548
330
9405
100
AcDbEntity
  8
1
  6
Continuous
100
AcDbLine
 10
312.6617739999999
 20
324.729401
 30
0.0
 11
311.6617739999999
 21
324.729401
 31
0.0
  0
LINE
  5
9549
330
9405
100
AcDbEntity
  8
1
  6
Continuous
100
AcDbLine
 10
312.6617739999999
 20
327.7294009999998
 30
0.0
 11
312.6617739999999
 21
324.729401
 31
0.0
  0
LINE
  5
954A
330
9405
100
AcDbEntity
  8
1
  6
Continuous
100
AcDbLine
 10
311.6617739999999
 20
328.729401
 30
0.0
 11
295.661774
 21
328.729401
 31
0.0
  0
LINE
  5
954B
330
9405
100
AcDbEntity
  8
1
  6
Continuous
100
AcDbLine
 10
317.7117309999998
 20
306.299438
 30
0.0
 11
314.1472779999999
 21
308.4381099999998
 31
0.0
  0
LINE
  5
954C
330
9405
100
AcDbEntity
  8
1
  6
Continuous
100
AcDbLine
 10
323.6617739999999
 20
305.729401
 30
0.0
 11
319.769714
 21
305.729401
 31
0.0
  0
LINE
  5
954D
330
9405
100
AcDbEntity
  8
1
  6
Continuous
100
AcDbLine
 10
313.6617739999999
 20
331.1632079999998
 30
0.0
 11
313.6617739999999
 21
309.295593
 31
0.0
  0
LINE
  5
954E
330
9405
100
AcDbEntity
  8
1
  6
Continuous
100
AcDbLine
 10
311.6617739999999
 20
324.729401
 30
0.0
 11
307.4984129999998
 21
299.7561039999999
 31
0.0
  0
LINE
  5
954F
330
9405
100
AcDbEntity
  8
1
  6
Continuous
100
AcDbLine
 10
272.839264
 20
313.037079
 30
0.0
 11
285.896667
 21
294.7549739999999
 31
0.0
  0
LINE
  5
9550
330
9405
100
AcDbEntity
  8
1
  6
Continuous
100
AcDbLine
 10
272.839264
 20
314.437195
 30
0.0
 11
272.839264
 21
313.037079
 31
0.0
  0
LINE
  5
9551
330
9405
100
AcDbEntity
  8
1
  6
Continuous
100
AcDbLine
 10
272.839264
 20
314.437195
 30
0.0
 11
271.839264
 21
314.437195
 31
0.0
  0
LINE
  5
9552
330
9405
100
AcDbEntity
  8
4
  6
CENTER
100
AcDbLine
 10
328.661774
 20
320.729401
 30
0.0
 11
308.6617739999998
 21
320.729401
 31
0.0
  0
LINE
  5
9553
330
9405
100
AcDbEntity
  8
4
  6
CENTER
100
AcDbLine
 10
317.9779359999999
 20
301.729401
 30
0.0
 11
262.1691279999998
 21
301.729401
 31
0.0
  0
LINE
  5
9554
330
9405
100
AcDbEntity
  8
1
  6
Continuous
100
AcDbLine
 10
154.080887
 20
442.4588319999998
 30
0.0
 11
154.080887
 21
443.4588319999998
 31
0.0
  0
LINE
  5
9555
330
9405
100
AcDbEntity
  8
1
  6
Continuous
100
AcDbLine
 10
194.580887
 20
442.4588319999998
 30
0.0
 11
194.580887
 21
443.4588319999998
 31
0.0
  0
LINE
  5
9556
330
9405
100
AcDbEntity
  8
1
  6
Continuous
100
AcDbLine
 10
154.3308869999999
 20
91.572502
 30
0.0
 11
194.3308869999999
 21
91.572502
 31
0.0
  0
LINE
  5
9557
330
9405
100
AcDbEntity
  8
1
  6
Continuous
100
AcDbLine
 10
407.2271119999999
 20
267.035248
 30
0.0
 11
427.7271119999999
 21
271.555267
 31
0.0
  0
LINE
  5
9558
330
9405
100
AcDbEntity
  8
1
  6
Continuous
100
AcDbLine
 10
406.258179
 20
271.4297179999999
 30
0.0
 11
409.8851319999998
 21
272.229401
 31
0.0
  0
LINE
  5
9559
330
9405
100
AcDbEntity
  8
1
  6
Continuous
100
AcDbLine
 10
406.6742549999998
 20
266.983521
 30
0.0
 11
412.992645
 21
265.590393
 31
0.0
  0
LINE
  5
955A
330
9405
100
AcDbEntity
  8
1
  6
Continuous
100
AcDbLine
 10
420.992645
 20
268.43457
 30
0.0
 11
427.7271119999999
 21
266.9497069999998
 31
0.0
  0
LINE
  5
955B
330
9405
100
AcDbEntity
  8
1
  6
Continuous
100
AcDbLine
 10
412.992645
 20
214.306488
 30
0.0
 11
412.992645
 21
209.914581
 31
0.0
  0
LINE
  5
955C
330
9405
100
AcDbEntity
  8
1
  6
Continuous
100
AcDbLine
 10
420.992645
 20
216.070389
 30
0.0
 11
420.992645
 21
211.6784819999999
 31
0.0
  0
LINE
  5
955D
330
9405
100
AcDbEntity
  8
1
  6
Continuous
100
AcDbLine
 10
412.992645
 20
223.306488
 30
0.0
 11
412.992645
 21
218.9145809999998
 31
0.0
  0
LINE
  5
955E
330
9405
100
AcDbEntity
  8
1
  6
Continuous
100
AcDbLine
 10
420.992645
 20
225.070389
 30
0.0
 11
420.992645
 21
220.6784819999998
 31
0.0
  0
LINE
  5
955F
330
9405
100
AcDbEntity
  8
1
  6
Continuous
100
AcDbLine
 10
412.992645
 20
232.3064879999999
 30
0.0
 11
412.992645
 21
227.914581
 31
0.0
  0
LINE
  5
9560
330
9405
100
AcDbEntity
  8
1
  6
Continuous
100
AcDbLine
 10
420.992645
 20
234.0703889999999
 30
0.0
 11
420.992645
 21
229.6784819999998
 31
0.0
  0
LINE
  5
9561
330
9405
100
AcDbEntity
  8
1
  6
Continuous
100
AcDbLine
 10
412.992645
 20
241.3064879999998
 30
0.0
 11
412.992645
 21
236.914581
 31
0.0
  0
LINE
  5
9562
330
9405
100
AcDbEntity
  8
1
  6
Continuous
100
AcDbLine
 10
420.992645
 20
243.070389
 30
0.0
 11
420.992645
 21
238.6784819999999
 31
0.0
  0
LINE
  5
9563
330
9405
100
AcDbEntity
  8
1
  6
Continuous
100
AcDbLine
 10
412.992645
 20
250.306488
 30
0.0
 11
412.992645
 21
245.9145809999998
 31
0.0
  0
LINE
  5
9564
330
9405
100
AcDbEntity
  8
1
  6
Continuous
100
AcDbLine
 10
420.992645
 20
252.070389
 30
0.0
 11
420.992645
 21
247.6784819999998
 31
0.0
  0
LINE
  5
9565
330
9405
100
AcDbEntity
  8
1
  6
Continuous
100
AcDbLine
 10
412.992645
 20
259.306488
 30
0.0
 11
412.992645
 21
254.914581
 31
0.0
  0
LINE
  5
9566
330
9405
100
AcDbEntity
  8
1
  6
Continuous
100
AcDbLine
 10
420.992645
 20
261.0704039999999
 30
0.0
 11
420.992645
 21
256.678467
 31
0.0
  0
LINE
  5
9567
330
9405
100
AcDbEntity
  8
1
  6
Continuous
100
AcDbLine
 10
406.258179
 20
208.4297179999999
 30
0.0
 11
426.758179
 21
212.9497069999999
 31
0.0
  0
LINE
  5
9568
330
9405
100
AcDbEntity
  8
1
  6
Continuous
100
AcDbLine
 10
407.2271119999999
 20
204.035263
 30
0.0
 11
427.7271119999999
 21
208.5552669999999
 31
0.0
  0
LINE
  5
9569
330
9405
100
AcDbEntity
  8
1
  6
Continuous
100
AcDbLine
 10
406.258179
 20
217.4297179999999
 30
0.0
 11
426.758179
 21
221.949707
 31
0.0
  0
LINE
  5
956A
330
9405
100
AcDbEntity
  8
1
  6
Continuous
100
AcDbLine
 10
407.2271119999999
 20
213.0352629999999
 30
0.0
 11
427.7271119999999
 21
217.555267
 31
0.0
  0
LINE
  5
956B
330
9405
100
AcDbEntity
  8
1
  6
Continuous
100
AcDbLine
 10
406.258179
 20
226.429718
 30
0.0
 11
426.758179
 21
230.9497069999999
 31
0.0
  0
LINE
  5
956C
330
9405
100
AcDbEntity
  8
1
  6
Continuous
100
AcDbLine
 10
407.2271119999999
 20
222.0352629999999
 30
0.0
 11
427.7271119999999
 21
226.5552669999999
 31
0.0
  0
LINE
  5
956D
330
9405
100
AcDbEntity
  8
1
  6
Continuous
100
AcDbLine
 10
406.258179
 20
235.429718
 30
0.0
 11
426.758179
 21
239.9497069999999
 31
0.0
  0
LINE
  5
956E
330
9405
100
AcDbEntity
  8
1
  6
Continuous
100
AcDbLine
 10
407.2271119999999
 20
231.035263
 30
0.0
 11
427.7271119999999
 21
235.5552669999999
 31
0.0
  0
LINE
  5
956F
330
9405
100
AcDbEntity
  8
1
  6
Continuous
100
AcDbLine
 10
406.258179
 20
244.4297179999999
 30
0.0
 11
426.758179
 21
248.949707
 31
0.0
  0
LINE
  5
9570
330
9405
100
AcDbEntity
  8
1
  6
Continuous
100
AcDbLine
 10
407.2271119999999
 20
240.0352629999999
 30
0.0
 11
427.7271119999999
 21
244.555267
 31
0.0
  0
LINE
  5
9571
330
9405
100
AcDbEntity
  8
1
  6
Continuous
100
AcDbLine
 10
406.258179
 20
253.429718
 30
0.0
 11
426.758179
 21
257.9497069999998
 31
0.0
  0
LINE
  5
9572
330
9405
100
AcDbEntity
  8
1
  6
Continuous
100
AcDbLine
 10
407.2271119999999
 20
249.0352629999999
 30
0.0
 11
427.7271119999999
 21
253.5552669999999
 31
0.0
  0
LINE
  5
9573
330
9405
100
AcDbEntity
  8
1
  6
Continuous
100
AcDbLine
 10
406.258179
 20
262.4297179999999
 30
0.0
 11
426.758179
 21
266.9497069999998
 31
0.0
  0
LINE
  5
9574
330
9405
100
AcDbEntity
  8
1
  6
Continuous
100
AcDbLine
 10
407.2271119999999
 20
258.035248
 30
0.0
 11
427.7271119999999
 21
262.555267
 31
0.0
  0
LINE
  5
9575
330
9405
100
AcDbEntity
  8
1
  6
Continuous
100
AcDbLine
 10
406.6742549999998
 20
203.983521
 30
0.0
 11
412.992645
 21
202.590393
 31
0.0
  0
LINE
  5
9576
330
9405
100
AcDbEntity
  8
1
  6
Continuous
100
AcDbLine
 10
420.992645
 20
205.434586
 30
0.0
 11
427.7271119999999
 21
203.9497069999999
 31
0.0
  0
LINE
  5
9577
330
9405
100
AcDbEntity
  8
1
  6
Continuous
100
AcDbLine
 10
406.6742549999998
 20
212.9835209999999
 30
0.0
 11
412.992645
 21
211.5903929999999
 31
0.0
  0
LINE
  5
9578
330
9405
100
AcDbEntity
  8
1
  6
Continuous
100
AcDbLine
 10
420.992645
 20
214.434586
 30
0.0
 11
427.7271119999999
 21
212.9497069999999
 31
0.0
  0
LINE
  5
9579
330
9405
100
AcDbEntity
  8
1
  6
Continuous
100
AcDbLine
 10
406.6742549999998
 20
221.9835209999998
 30
0.0
 11
412.992645
 21
220.590393
 31
0.0
  0
LINE
  5
957A
330
9405
100
AcDbEntity
  8
1
  6
Continuous
100
AcDbLine
 10
420.992645
 20
223.4345859999999
 30
0.0
 11
427.7271119999999
 21
221.949707
 31
0.0
  0
LINE
  5
957B
330
9405
100
AcDbEntity
  8
1
  6
Continuous
100
AcDbLine
 10
406.6742549999998
 20
230.983521
 30
0.0
 11
412.992645
 21
229.590393
 31
0.0
  0
LINE
  5
957C
330
9405
100
AcDbEntity
  8
1
  6
Continuous
100
AcDbLine
 10
420.992645
 20
232.434586
 30
0.0
 11
427.7271119999999
 21
230.9497069999999
 31
0.0
  0
LINE
  5
957D
330
9405
100
AcDbEntity
  8
1
  6
Continuous
100
AcDbLine
 10
406.6742549999998
 20
239.9835209999999
 30
0.0
 11
412.992645
 21
238.590393
 31
0.0
  0
LINE
  5
957E
330
9405
100
AcDbEntity
  8
1
  6
Continuous
100
AcDbLine
 10
420.992645
 20
241.434586
 30
0.0
 11
427.7271119999999
 21
239.9497069999999
 31
0.0
  0
LINE
  5
957F
330
9405
100
AcDbEntity
  8
1
  6
Continuous
100
AcDbLine
 10
406.6742549999998
 20
248.9835209999998
 30
0.0
 11
412.992645
 21
247.590393
 31
0.0
  0
LINE
  5
9580
330
9405
100
AcDbEntity
  8
1
  6
Continuous
100
AcDbLine
 10
420.992645
 20
250.4345859999999
 30
0.0
 11
427.7271119999999
 21
248.949707
 31
0.0
  0
LINE
  5
9581
330
9405
100
AcDbEntity
  8
1
  6
Continuous
100
AcDbLine
 10
406.6742549999998
 20
257.983521
 30
0.0
 11
412.992645
 21
256.590393
 31
0.0
  0
LINE
  5
9582
330
9405
100
AcDbEntity
  8
1
  6
Continuous
100
AcDbLine
 10
420.992645
 20
259.43457
 30
0.0
 11
427.7271119999999
 21
257.9497069999998
 31
0.0
  0
LINE
  5
9583
330
9405
100
AcDbEntity
  8
1
  6
Continuous
100
AcDbLine
 10
422.742645
 20
185.19249
 30
0.0
 11
422.8476559999998
 21
185.0874939999999
 31
0.0
  0
LINE
  5
9584
330
9405
100
AcDbEntity
  8
1
  6
Continuous
100
AcDbLine
 10
43.163948
 20
173.668304
 30
0.0
 11
53.255398
 21
175.903198
 31
0.0
  0
LINE
  5
9585
330
9405
100
AcDbEntity
  8
1
  6
Continuous
100
AcDbLine
 10
43.561085
 20
184.19249
 30
0.0
 11
49.67469000000001
 21
184.19249
 31
0.0
  0
LINE
  5
9586
330
9405
100
AcDbEntity
  8
1
  6
Continuous
100
AcDbLine
 10
53.08300799999999
 20
171.334869
 30
0.0
 11
47.878857
 21
170.1924899999999
 31
0.0
  0
LINE
  5
9587
330
9405
100
AcDbEntity
  8
1
  6
Continuous
100
AcDbLine
 10
43.33444199999997
 20
178.186462
 30
0.0
 11
53.425522
 21
180.4114229999999
 31
0.0
  0
LINE
  5
9588
330
9405
100
AcDbEntity
  8
1
  6
Continuous
100
AcDbLine
 10
43.509792
 20
182.8332059999999
 30
0.0
 11
53.60087199999998
 21
185.058167
 31
0.0
  0
LINE
  5
9589
330
9405
100
AcDbEntity
  8
1
  6
Continuous
100
AcDbLine
 10
43.878857
 20
187.306488
 30
0.0
 11
43.878857
 21
185.19249
 31
0.0
  0
LINE
  5
958A
330
9405
100
AcDbEntity
  8
1
  6
Continuous
100
AcDbLine
 10
51.878857
 20
189.0703889999999
 30
0.0
 11
51.878857
 21
185.19249
 31
0.0
  0
LINE
  5
958B
330
9405
100
AcDbEntity
  8
1
  6
Continuous
100
AcDbLine
 10
43.676914
 20
187.2619629999999
 30
0.0
 11
53.76799399999999
 21
189.4869229999999
 31
0.0
  0
LINE
  5
958C
330
9405
100
AcDbEntity
  8
5
  6
PHANTOM
100
AcDbLine
 10
74.433296
 20
339.3274839999999
 30
0.0
 11
47.182205
 21
329.408875
 31
0.0
  0
LINE
  5
958D
330
9405
100
AcDbEntity
  8
5
  6
PHANTOM
100
AcDbLine
 10
74.433296
 20
339.3274839999999
 30
0.0
 11
75.76445799999998
 21
335.670135
 31
0.0
  0
LINE
  5
958E
330
9405
100
AcDbEntity
  8
5
  6
PHANTOM
100
AcDbLine
 10
47.182205
 20
329.408875
 30
0.0
 11
48.513371
 21
325.7515559999998
 31
0.0
  0
LINE
  5
958F
330
9405
100
AcDbEntity
  8
1
  6
Continuous
100
AcDbLine
 10
25.0
 20
279.7294009999998
 30
0.0
 11
25.0
 21
160.7294159999999
 31
0.0
  0
LINE
  5
9590
330
9405
100
AcDbEntity
  8
5
  6
PHANTOM
100
AcDbLine
 10
74.50237299999997
 20
328.710846
 30
0.0
 11
53.953529
 21
321.2316589999999
 31
0.0
  0
LINE
  5
9591
330
9405
100
AcDbEntity
  8
5
  6
PHANTOM
100
AcDbLine
 10
75.93267800000003
 20
333.54129
 30
0.0
 11
75.14209699999998
 21
329.460327
 31
0.0
  0
LINE
  5
9592
330
9405
100
AcDbEntity
  8
5
  6
PHANTOM
100
AcDbLine
 10
49.752895
 20
324.0126339999998
 30
0.0
 11
52.98169699999998
 21
321.394623
 31
0.0
  0
LINE
  5
9593
330
9405
100
AcDbEntity
  8
1
  6
Continuous
100
AcDbLine
 10
27.0
 20
279.7294009999998
 30
0.0
 11
27.0
 21
160.7294159999999
 31
0.0
  0
LINE
  5
9594
330
9405
100
AcDbEntity
  8
1
  6
Continuous
100
AcDbLine
 10
25.0
 20
160.7294159999999
 30
0.0
 11
66.0
 21
160.7294159999999
 31
0.0
  0
LINE
  5
9595
330
9405
100
AcDbEntity
  8
1
  6
Continuous
100
AcDbLine
 10
25.0
 20
279.7294009999998
 30
0.0
 11
27.0
 21
279.7294009999998
 31
0.0
  0
LINE
  5
9596
330
9405
100
AcDbEntity
  8
4
  6
CENTER
100
AcDbLine
 10
21.0
 20
269.7294009999998
 30
0.0
 11
31.0
 21
269.7294009999998
 31
0.0
  0
LINE
  5
9597
330
9405
100
AcDbEntity
  8
4
  6
CENTER
100
AcDbLine
 10
21.0
 20
174.7294159999999
 30
0.0
 11
31.0
 21
174.7294159999999
 31
0.0
  0
LINE
  5
9598
330
9405
100
AcDbEntity
  8
4
  6
CENTER
100
AcDbLine
 10
53.0
 20
333.7294009999999
 30
0.0
 11
53.0
 21
284.729401
 31
0.0
  0
LINE
  5
9599
330
9405
100
AcDbEntity
  8
4
  6
CENTER
100
AcDbLine
 10
45.367416
 20
322.699768
 30
0.0
 11
58.81434200000001
 21
285.7546389999999
 31
0.0
  0
LINE
  5
959A
330
9405
100
AcDbEntity
  8
1
  6
Continuous
100
AcDbLine
 10
66.0
 20
160.7294159999999
 30
0.0
 11
71.52014200000002
 21
307.0131839999999
 31
0.0
  0
LINE
  5
959B
330
9405
100
AcDbEntity
  8
1
  6
Continuous
100
AcDbLine
 10
31.17989899999999
 20
280.3927919999998
 30
0.0
 11
31.524719
 21
289.530548
 31
0.0
  0
LINE
  5
959C
330
9405
100
AcDbEntity
  8
1
  6
Continuous
100
AcDbLine
 10
46.05179999999999
 20
302.5794069999999
 30
0.0
 11
47.060513
 21
302.5794069999999
 31
0.0
  0
LINE
  5
959D
330
9405
100
AcDbEntity
  8
1
  6
Continuous
100
AcDbLine
 10
46.05179999999999
 20
300.8794250000002
 30
0.0
 11
47.060513
 21
300.8794250000002
 31
0.0
  0
LINE
  5
959E
330
9405
100
AcDbEntity
  8
1
  6
Continuous
100
AcDbLine
 10
58.939487
 20
302.5794069999999
 30
0.0
 11
59.9482
 21
302.5794069999999
 31
0.0
  0
LINE
  5
959F
330
9405
100
AcDbEntity
  8
1
  6
Continuous
100
AcDbLine
 10
58.939487
 20
300.8794250000002
 30
0.0
 11
59.9482
 21
300.8794250000002
 31
0.0
  0
LINE
  5
95A0
330
9405
100
AcDbEntity
  8
1
  6
Continuous
100
AcDbLine
 10
40.49999999999999
 20
303.732117
 30
0.0
 11
40.49999999999999
 21
293.229401
 31
0.0
  0
LINE
  5
95A1
330
9405
100
AcDbEntity
  8
1
  6
Continuous
100
AcDbLine
 10
32.04321699999999
 20
290.011322
 30
0.0
 11
40.03313399999998
 21
289.709839
 31
0.0
  0
LINE
  5
95A2
330
9405
100
AcDbEntity
  8
1
  6
Continuous
100
AcDbLine
 10
32.02436399999999
 20
289.5116879999998
 30
0.0
 11
39.88928599999999
 21
289.214905
 31
0.0
  0
LINE
  5
95A3
330
9405
100
AcDbEntity
  8
1
  6
Continuous
100
AcDbLine
 10
31.686909
 20
280.5691219999999
 30
0.0
 11
32.02436399999999
 21
289.5116879999998
 31
0.0
  0
LINE
  5
95A4
330
9405
100
AcDbEntity
  8
4
  6
CENTER
100
AcDbLine
 10
47.338898
 20
155.7294159999998
 30
0.0
 11
48.958981
 21
198.66156
 31
0.0
  0
LINE
  5
95A5
330
9405
100
AcDbEntity
  8
1
  6
Continuous
100
AcDbLine
 10
42.92036799999999
 20
167.2134699999998
 30
0.0
 11
52.913258
 21
166.8363799999999
 31
0.0
  0
LINE
  5
95A6
330
9405
100
AcDbEntity
  8
1
  6
Continuous
100
AcDbLine
 10
43.863094
 20
192.195694
 30
0.0
 11
53.85598
 21
191.8186039999999
 31
0.0
  0
LINE
  5
95A7
330
9405
100
AcDbEntity
  8
1
  6
Continuous
100
AcDbLine
 10
42.92036799999999
 20
167.2134699999998
 30
0.0
 11
43.863094
 21
192.195694
 31
0.0
  0
LINE
  5
95A8
330
9405
100
AcDbEntity
  8
1
  6
Continuous
100
AcDbLine
 10
52.913258
 20
166.8363799999999
 30
0.0
 11
53.85598
 21
191.8186039999999
 31
0.0
  0
LINE
  5
95A9
330
9405
100
AcDbEntity
  8
1
  6
Continuous
100
AcDbLine
 10
43.42001299999998
 20
167.194626
 30
0.0
 11
43.533138
 21
170.1924899999999
 31
0.0
  0
LINE
  5
95AA
330
9405
100
AcDbEntity
  8
1
  6
Continuous
100
AcDbLine
 10
52.413612
 20
166.8552399999998
 30
0.0
 11
52.52673699999999
 21
169.8531039999998
 31
0.0
  0
LINE
  5
95AB
330
9405
100
AcDbEntity
  8
1
  6
Continuous
100
AcDbLine
 10
43.033497
 20
170.211349
 30
0.0
 11
53.026382
 21
169.834259
 31
0.0
  0
LINE
  5
95AC
330
9405
100
AcDbEntity
  8
1
  6
Continuous
100
AcDbLine
 10
40.212551
 20
175.32135
 30
0.0
 11
42.069153
 21
175.2512969999999
 31
0.0
  0
LINE
  5
95AD
330
9405
100
AcDbEntity
  8
1
  6
Continuous
100
AcDbLine
 10
40.202251
 20
179.324585
 30
0.0
 11
42.058849
 21
179.254532
 31
0.0
  0
LINE
  5
95AE
330
9405
100
AcDbEntity
  8
1
  6
Continuous
100
AcDbLine
 10
40.377605
 20
183.3208159999998
 30
0.0
 11
42.44088399999998
 21
183.24295
 31
0.0
  0
LINE
  5
95AF
330
9405
100
AcDbEntity
  8
1
  6
Continuous
100
AcDbLine
 10
40.549461
 20
187.3171839999999
 30
0.0
 11
42.584717
 21
187.240372
 31
0.0
  0
LINE
  5
95B0
330
9405
100
AcDbEntity
  8
1
  6
Continuous
100
AcDbLine
 10
39.91088099999998
 20
167.327042
 30
0.0
 11
41.76747899999997
 21
167.2569889999998
 31
0.0
  0
LINE
  5
95B1
330
9405
100
AcDbEntity
  8
4
  6
CENTER
100
AcDbLine
 10
59.56749300000001
 20
339.2376399999998
 30
0.0
 11
66.407898
 21
320.443787
 31
0.0
  0
LINE
  5
95B2
330
9405
100
AcDbEntity
  8
5
  6
PHANTOM
100
AcDbLine
 10
71.61766800000002
 20
326.5967099999999
 30
0.0
 11
68.798592
 21
325.570648
 31
0.0
  0
LINE
  5
95B3
330
9405
100
AcDbEntity
  8
5
  6
PHANTOM
100
AcDbLine
 10
72.899376
 20
325.999023
 30
0.0
 11
78.37170399999997
 21
310.963959
 31
0.0
  0
LINE
  5
95B4
330
9405
100
AcDbEntity
  8
5
  6
PHANTOM
100
AcDbLine
 10
68.798592
 20
325.570648
 30
0.0
 11
69.14061
 21
324.6309509999999
 31
0.0
  0
LINE
  5
95B5
330
9405
100
AcDbEntity
  8
5
  6
PHANTOM
100
AcDbLine
 10
67.516876
 20
326.168335
 30
0.0
 11
68.257935
 21
324.1322939999998
 31
0.0
  0
LINE
  5
95B6
330
9405
100
AcDbEntity
  8
5
  6
PHANTOM
100
AcDbLine
 10
69.14061
 20
324.6309509999999
 30
0.0
 11
47.097321
 21
312.1773069999999
 31
0.0
  0
LINE
  5
95B7
330
9405
100
AcDbEntity
  8
5
  6
PHANTOM
100
AcDbLine
 10
71.43147999999998
 20
284.1507259999999
 30
0.0
 11
49.786049
 21
290.167816
 31
0.0
  0
LINE
  5
95B8
330
9405
100
AcDbEntity
  8
5
  6
PHANTOM
100
AcDbLine
 10
72.74717699999998
 20
284.6295779999999
 30
0.0
 11
73.08919499999999
 21
283.6898799999999
 31
0.0
  0
LINE
  5
95B9
330
9405
100
AcDbEntity
  8
5
  6
PHANTOM
100
AcDbLine
 10
72.74717699999998
 20
284.6295779999999
 30
0.0
 11
71.43147999999998
 21
284.1507259999999
 31
0.0
  0
LINE
  5
95BA
330
9405
100
AcDbEntity
  8
1
  6
Continuous
100
AcDbLine
 10
25.0
 20
334.729401
 30
0.0
 11
25.0
 21
305.729401
 31
0.0
  0
LINE
  5
95BB
330
9405
100
AcDbEntity
  8
1
  6
Continuous
100
AcDbLine
 10
25.0
 20
334.729401
 30
0.0
 11
28.892065
 21
334.729401
 31
0.0
  0
LINE
  5
95BC
330
9405
100
AcDbEntity
  8
1
  6
Continuous
100
AcDbLine
 10
30.950047
 20
334.159393
 30
0.0
 11
34.514496
 21
332.0207209999999
 31
0.0
  0
LINE
  5
95BD
330
9405
100
AcDbEntity
  8
1
  6
Continuous
100
AcDbLine
 10
35.0
 20
323.7294009999998
 30
0.0
 11
37.166714
 21
323.7294009999998
 31
0.0
  0
LINE
  5
95BE
330
9405
100
AcDbEntity
  8
1
  6
Continuous
100
AcDbLine
 10
36.0
 20
324.729401
 30
0.0
 11
37.0
 21
324.729401
 31
0.0
  0
LINE
  5
95BF
330
9405
100
AcDbEntity
  8
1
  6
Continuous
100
AcDbLine
 10
36.0
 20
327.7294009999998
 30
0.0
 11
36.0
 21
324.729401
 31
0.0
  0
LINE
  5
95C0
330
9405
100
AcDbEntity
  8
1
  6
Continuous
100
AcDbLine
 10
37.0
 20
328.729401
 30
0.0
 11
53.0
 21
328.729401
 31
0.0
  0
LINE
  5
95C1
330
9405
100
AcDbEntity
  8
1
  6
Continuous
100
AcDbLine
 10
30.950047
 20
306.299438
 30
0.0
 11
34.514496
 21
308.4381099999998
 31
0.0
  0
LINE
  5
95C2
330
9405
100
AcDbEntity
  8
1
  6
Continuous
100
AcDbLine
 10
25.0
 20
305.729401
 30
0.0
 11
28.892065
 21
305.729401
 31
0.0
  0
LINE
  5
95C3
330
9405
100
AcDbEntity
  8
1
  6
Continuous
100
AcDbLine
 10
35.0
 20
331.1632079999998
 30
0.0
 11
35.0
 21
309.295593
 31
0.0
  0
LINE
  5
95C4
330
9405
100
AcDbEntity
  8
1
  6
Continuous
100
AcDbLine
 10
37.0
 20
324.729401
 30
0.0
 11
41.163361
 21
299.7561039999999
 31
0.0
  0
LINE
  5
95C5
330
9405
100
AcDbEntity
  8
1
  6
Continuous
100
AcDbLine
 10
75.82250999999998
 20
313.037079
 30
0.0
 11
62.76511
 21
294.7549739999999
 31
0.0
  0
LINE
  5
95C6
330
9405
100
AcDbEntity
  8
1
  6
Continuous
100
AcDbLine
 10
75.82250999999998
 20
314.437195
 30
0.0
 11
75.82250999999998
 21
313.037079
 31
0.0
  0
LINE
  5
95C7
330
9405
100
AcDbEntity
  8
1
  6
Continuous
100
AcDbLine
 10
75.82250999999998
 20
314.437195
 30
0.0
 11
76.82250999999998
 21
314.437195
 31
0.0
  0
LINE
  5
95C8
330
9405
100
AcDbEntity
  8
4
  6
CENTER
100
AcDbLine
 10
20.0
 20
320.729401
 30
0.0
 11
40.0
 21
320.729401
 31
0.0
  0
LINE
  5
95C9
330
9405
100
AcDbEntity
  8
4
  6
CENTER
100
AcDbLine
 10
30.68382299999999
 20
301.729401
 30
0.0
 11
86.49264499999999
 21
301.729401
 31
0.0
  0
LINE
  5
95CA
330
9405
100
AcDbEntity
  8
1
  6
Continuous
100
AcDbLine
 10
43.59882
 20
185.19249
 30
0.0
 11
53.605938
 21
185.19249
 31
0.0
  0
LINE
  5
95CB
330
9405
100
AcDbEntity
  8
1
  6
Continuous
100
AcDbLine
 10
411.242645
 20
185.19249
 30
0.0
 11
422.742645
 21
185.19249
 31
0.0
  0
LINE
  5
95CC
330
9405
100
AcDbEntity
  8
1
  6
Continuous
100
AcDbLine
 10
410.242645
 20
184.19249
 30
0.0
 11
418.7884829999998
 21
184.19249
 31
0.0
  0
LINE
  5
95CD
330
9405
100
AcDbEntity
  8
1
  6
Continuous
100
AcDbLine
 10
410.242645
 20
184.19249
 30
0.0
 11
410.242645
 21
182.308243
 31
0.0
  0
LINE
  5
95CE
330
9405
100
AcDbEntity
  8
1
  6
Continuous
100
AcDbLine
 10
410.242645
 20
177.70015
 30
0.0
 11
410.242645
 21
173.217606
 31
0.0
  0
LINE
  5
95CF
330
9405
100
AcDbEntity
  8
1
  6
Continuous
100
AcDbLine
 10
406.742645
 20
176.982483
 30
0.0
 11
410.242645
 21
176.207367
 31
0.0
  0
LINE
  5
95D0
330
9405
100
AcDbEntity
  8
1
  6
Continuous
100
AcDbLine
 10
407.2271119999999
 20
177.0352629999999
 30
0.0
 11
427.7271119999999
 21
181.5552669999999
 31
0.0
  0
LINE
  5
95D1
330
9405
100
AcDbEntity
  8
1
  6
Continuous
100
AcDbLine
 10
406.258179
 20
181.4297179999998
 30
0.0
 11
426.758179
 21
185.9497069999999
 31
0.0
  0
LINE
  5
95D2
330
9405
100
AcDbEntity
  8
1
  6
Continuous
100
AcDbLine
 10
423.742645
 20
177.750778
 30
0.0
 11
427.242645
 21
176.982483
 31
0.0
  0
LINE
  5
95D3
330
9405
100
AcDbEntity
  8
1
  6
Continuous
100
AcDbLine
 10
423.742645
 20
180.6767429999999
 30
0.0
 11
423.742645
 21
176.207367
 31
0.0
  0
LINE
  5
95D4
330
9405
100
AcDbEntity
  8
1
  6
Continuous
100
AcDbLine
 10
406.742645
 20
172.4424899999999
 30
0.0
 11
426.384644
 21
176.7924649999999
 31
0.0
  0
LINE
  5
95D5
330
9405
100
AcDbEntity
  8
1
  6
Continuous
100
AcDbLine
 10
427.309662
 20
172.457199
 30
0.0
 11
416.992645
 21
170.1924899999999
 31
0.0
  0
LINE
  5
95D6
330
9405
100
AcDbEntity
  8
1
  6
Continuous
100
AcDbLine
 10
407.2271119999999
 20
186.0352629999999
 30
0.0
 11
427.7271119999999
 21
190.5552669999999
 31
0.0
  0
LINE
  5
95D7
330
9405
100
AcDbEntity
  8
1
  6
Continuous
100
AcDbLine
 10
406.6742549999998
 20
185.9835209999999
 30
0.0
 11
411.06546
 21
185.01532
 31
0.0
  0
LINE
  5
95D8
330
9405
100
AcDbEntity
  8
1
  6
Continuous
100
AcDbLine
 10
420.992645
 20
187.434586
 30
0.0
 11
427.7271119999999
 21
185.9497069999999
 31
0.0
  0
LINE
  5
95D9
330
9405
100
AcDbEntity
  8
1
  6
Continuous
100
AcDbLine
 10
420.992645
 20
189.0703889999999
 30
0.0
 11
420.992645
 21
185.19249
 31
0.0
  0
LINE
  5
95DA
330
9405
100
AcDbEntity
  8
1
  6
Continuous
100
AcDbLine
 10
412.992645
 20
187.306488
 30
0.0
 11
412.992645
 21
185.19249
 31
0.0
  0
LINE
  5
95DB
330
9405
100
AcDbEntity
  8
1
  6
Continuous
100
AcDbLine
 10
406.258179
 20
190.429718
 30
0.0
 11
426.758179
 21
194.9497069999999
 31
0.0
  0
LINE
  5
95DC
330
9405
100
AcDbEntity
  8
1
  6
Continuous
100
AcDbLine
 10
406.6742549999998
 20
194.9835209999999
 30
0.0
 11
412.992645
 21
193.590393
 31
0.0
  0
LINE
  5
95DD
330
9405
100
AcDbEntity
  8
1
  6
Continuous
100
AcDbLine
 10
412.992645
 20
196.306488
 30
0.0
 11
412.992645
 21
191.914581
 31
0.0
  0
LINE
  5
95DE
330
9405
100
AcDbEntity
  8
1
  6
Continuous
100
AcDbLine
 10
420.992645
 20
198.0703889999998
 30
0.0
 11
420.992645
 21
193.6784819999998
 31
0.0
  0
LINE
  5
95DF
330
9405
100
AcDbEntity
  8
1
  6
Continuous
100
AcDbLine
 10
420.992645
 20
196.434586
 30
0.0
 11
427.7271119999999
 21
194.9497069999999
 31
0.0
  0
LINE
  5
95E0
330
9405
100
AcDbEntity
  8
1
  6
Continuous
100
AcDbLine
 10
410.242645
 20
184.19249
 30
0.0
 11
411.242645
 21
185.19249
 31
0.0
  0
LINE
  5
95E1
330
9405
100
AcDbEntity
  8
1
  6
Continuous
100
AcDbLine
 10
407.2271119999999
 20
195.0352629999999
 30
0.0
 11
427.7271119999999
 21
199.555267
 31
0.0
  0
LINE
  5
95E2
330
9405
100
AcDbEntity
  8
1
  6
Continuous
100
AcDbLine
 10
412.992645
 20
205.3064879999999
 30
0.0
 11
412.992645
 21
200.914581
 31
0.0
  0
LINE
  5
95E3
330
9405
100
AcDbEntity
  8
1
  6
Continuous
100
AcDbLine
 10
420.992645
 20
207.0703889999998
 30
0.0
 11
420.992645
 21
202.678482
 31
0.0
  0
LINE
  5
95E4
330
9405
100
AcDbEntity
  8
1
  6
Continuous
100
AcDbLine
 10
406.258179
 20
199.4297179999998
 30
0.0
 11
426.758179
 21
203.9497069999999
 31
0.0
  0
LINE
  5
95E5
330
9405
100
AcDbEntity
  8
1
  6
Continuous
100
AcDbLine
 10
423.742645
 20
171.674194
 30
0.0
 11
423.742645
 21
170.1924899999999
 31
0.0
  0
LINE
  5
95E6
330
9405
100
AcDbEntity
  8
1
  6
Continuous
100
AcDbLine
 10
305.589172
 20
171.2473599999999
 30
0.0
 11
299.8816529999999
 21
169.9944919999998
 31
0.0
  0
LINE
  5
95E7
330
9405
100
AcDbEntity
  8
1
  6
Continuous
100
AcDbLine
 10
295.4954829999999
 20
173.5413509999999
 30
0.0
 11
305.4196779999998
 21
175.739197
 31
0.0
  0
LINE
  5
95E8
330
9405
100
AcDbEntity
  8
1
  6
Continuous
100
AcDbLine
 10
295.3277889999998
 20
177.985489
 30
0.0
 11
305.252319
 21
180.1737369999999
 31
0.0
  0
LINE
  5
95E9
330
9405
100
AcDbEntity
  8
1
  6
Continuous
100
AcDbLine
 10
295.1553339999999
 20
182.5555569999999
 30
0.0
 11
305.0798649999999
 21
184.7437899999999
 31
0.0
  0
LINE
  5
95EA
330
9405
100
AcDbEntity
  8
1
  6
Continuous
100
AcDbLine
 10
295.093567
 20
184.19249
 30
0.0
 11
302.579468
 21
184.19249
 31
0.0
  0
LINE
  5
95EB
330
9405
100
AcDbEntity
  8
1
  6
Continuous
100
AcDbLine
 10
295.0558169999998
 20
185.19249
 30
0.0
 11
305.0629579999999
 21
185.19249
 31
0.0
  0
LINE
  5
95EC
330
9405
100
AcDbEntity
  8
1
  6
Continuous
100
AcDbLine
 10
296.7836609999998
 20
187.306488
 30
0.0
 11
296.7836609999998
 21
185.19249
 31
0.0
  0
LINE
  5
95ED
330
9405
100
AcDbEntity
  8
1
  6
Continuous
100
AcDbLine
 10
294.990967
 20
186.9112239999998
 30
0.0
 11
304.915497
 21
189.0994719999999
 31
0.0
  0
LINE
  5
95EE
330
9405
100
AcDbEntity
  8
1
  6
Continuous
100
AcDbLine
 10
304.783661
 20
189.0703889999999
 30
0.0
 11
304.783661
 21
185.19249
 31
0.0
  0
LINE
  5
95EF
330
9405
100
AcDbEntity
  8
1
  6
Continuous
100
AcDbLine
 10
294.818512
 20
191.481293
 30
0.0
 11
296.666901
 21
191.8888399999999
 31
0.0
  0
LINE
  5
95F0
330
9405
100
AcDbEntity
  8
1
  6
Continuous
100
AcDbLine
 10
304.783661
 20
187.434586
 30
0.0
 11
304.9799799999998
 21
187.391296
 31
0.0
  0
LINE
  5
95F1
330
9405
100
AcDbEntity
  8
1
  6
Continuous
100
AcDbLine
 10
400.492645
 20
167.194626
 30
0.0
 11
401.9926449999998
 21
160.7294159999999
 31
0.0
  0
LINE
  5
95F2
330
9405
100
AcDbEntity
  8
1
  6
Continuous
100
AcDbLine
 10
400.492645
 20
170.1924899999999
 30
0.0
 11
400.492645
 21
167.194626
 31
0.0
  0
LINE
  5
95F3
330
9405
100
AcDbEntity
  8
1
  6
Continuous
100
AcDbLine
 10
433.492645
 20
170.1924899999999
 30
0.0
 11
433.492645
 21
167.194626
 31
0.0
  0
LINE
  5
95F4
330
9405
100
AcDbEntity
  8
1
  6
Continuous
100
AcDbLine
 10
433.492645
 20
167.194626
 30
0.0
 11
431.9926449999998
 21
160.7294159999999
 31
0.0
  0
LINE
  5
95F5
330
9405
100
AcDbEntity
  8
1
  6
Continuous
100
AcDbLine
 10
410.4926449999998
 20
160.7294159999999
 30
0.0
 11
410.4926449999998
 21
159.2294159999999
 31
0.0
  0
LINE
  5
95F6
330
9405
100
AcDbEntity
  8
1
  6
Continuous
100
AcDbLine
 10
423.4926449999998
 20
160.7294159999999
 30
0.0
 11
423.4926449999998
 21
159.2294159999999
 31
0.0
  0
LINE
  5
95F7
330
9405
100
AcDbEntity
  8
1
  6
Continuous
100
AcDbLine
 10
416.992645
 20
160.7294159999999
 30
0.0
 11
416.992645
 21
159.809967
 31
0.0
  0
LINE
  5
95F8
330
9405
100
AcDbEntity
  8
1
  6
Continuous
100
AcDbLine
 10
305.7413939999999
 20
167.2134699999998
 30
0.0
 11
295.7485049999998
 21
166.8363799999999
 31
0.0
  0
LINE
  5
95F9
330
9405
100
AcDbEntity
  8
1
  6
Continuous
100
AcDbLine
 10
300.191467
 20
159.1927639999999
 30
0.0
 11
300.133484
 21
160.7294159999999
 31
0.0
  0
LINE
  5
95FA
330
9405
100
AcDbEntity
  8
1
  6
Continuous
100
AcDbLine
 10
302.1900330000002
 20
159.2681879999998
 30
0.0
 11
302.134888
 21
160.7294159999999
 31
0.0
  0
LINE
  5
95FB
330
9405
100
AcDbEntity
  8
1
  6
Continuous
100
AcDbLine
 10
302.1900330000002
 20
159.2681879999998
 30
0.0
 11
307.686127
 21
159.475586
 31
0.0
  0
LINE
  5
95FC
330
9405
100
AcDbEntity
  8
1
  6
Continuous
100
AcDbLine
 10
167.8308869999999
 20
159.2294159999999
 30
0.0
 11
180.8308869999999
 21
159.2294159999999
 31
0.0
  0
LINE
  5
95FD
330
9405
100
AcDbEntity
  8
1
  6
Continuous
100
AcDbLine
 10
167.8308869999999
 20
160.7294159999999
 30
0.0
 11
167.8308869999999
 21
159.2294159999999
 31
0.0
  0
LINE
  5
95FE
330
9405
100
AcDbEntity
  8
1
  6
Continuous
100
AcDbLine
 10
180.8308869999999
 20
160.7294159999999
 30
0.0
 11
180.8308869999999
 21
159.2294159999999
 31
0.0
  0
LINE
  5
95FF
330
9405
100
AcDbEntity
  8
1
  6
Continuous
100
AcDbLine
 10
174.3308869999999
 20
160.7294159999999
 30
0.0
 11
174.3308869999999
 21
159.809967
 31
0.0
  0
LINE
  5
9600
330
9405
100
AcDbEntity
  8
1
  6
Continuous
100
AcDbLine
 10
53.966389
 20
158.985367
 30
0.0
 11
48.470303
 21
159.1927639999999
 31
0.0
  0
LINE
  5
9601
330
9405
100
AcDbEntity
  8
1
  6
Continuous
100
AcDbLine
 10
54.993122
 20
159.5276029999999
 30
0.0
 11
55.038475
 21
160.7294159999999
 31
0.0
  0
LINE
  5
9602
330
9405
100
AcDbEntity
  8
1
  6
Continuous
100
AcDbLine
 10
39.992691
 20
160.093658
 30
0.0
 11
40.016682
 21
160.7294159999999
 31
0.0
  0
LINE
  5
9603
330
9405
100
AcDbEntity
  8
1
  6
Continuous
100
AcDbLine
 10
43.742798
 20
159.9521329999998
 30
0.0
 11
43.77212899999999
 21
160.7294159999999
 31
0.0
  0
LINE
  5
9604
330
9405
100
AcDbEntity
  8
1
  6
Continuous
100
AcDbLine
 10
51.243015
 20
159.6691129999999
 30
0.0
 11
51.28302399999999
 21
160.7294159999999
 31
0.0
  0
LINE
  5
9605
330
9405
100
AcDbEntity
  8
1
  6
Continuous
100
AcDbLine
 10
53.96638499999999
 20
158.985367
 30
0.0
 11
54.993118
 21
159.5276029999999
 31
0.0
  0
LINE
  5
9606
330
9405
100
AcDbEntity
  8
1
  6
Continuous
100
AcDbLine
 10
40.97563899999999
 20
159.475586
 30
0.0
 11
39.992695
 21
160.0936429999999
 31
0.0
  0
LINE
  5
9607
330
9405
100
AcDbEntity
  8
1
  6
Continuous
100
AcDbLine
 10
48.470303
 20
159.1927639999999
 30
0.0
 11
48.52828999999999
 21
160.7294159999999
 31
0.0
  0
LINE
  5
9608
330
9405
100
AcDbEntity
  8
1
  6
Continuous
100
AcDbLine
 10
46.47172499999999
 20
159.2681879999998
 30
0.0
 11
46.52686699999999
 21
160.7294159999999
 31
0.0
  0
LINE
  5
9609
330
9405
100
AcDbEntity
  8
1
  6
Continuous
100
AcDbLine
 10
46.47172499999999
 20
159.2681879999998
 30
0.0
 11
40.97563599999999
 21
159.475586
 31
0.0
  0
ARC
  5
960A
330
9405
100
AcDbEntity
  8
1
  6
Continuous
100
AcDbCircle
 10
202.330887
 20
178.229416
 30
0.0
 40
3.5
100
AcDbArc
 50
0.0
 51
180.000005
  0
ARC
  5
960B
330
9405
100
AcDbEntity
  8
1
  6
Continuous
100
AcDbCircle
 10
202.330887
 20
171.2294159999999
 30
0.0
 40
3.5
100
AcDbArc
 50
180.000005
 51
0.00001
  0
ARC
  5
960C
330
9405
100
AcDbEntity
  8
1
  6
Continuous
100
AcDbCircle
 10
146.3308869999999
 20
178.229416
 30
0.0
 40
3.5
100
AcDbArc
 50
0.0
 51
180.000005
  0
ARC
  5
960D
330
9405
100
AcDbEntity
  8
1
  6
Continuous
100
AcDbCircle
 10
146.3308869999999
 20
171.2294159999999
 30
0.0
 40
3.5
100
AcDbArc
 50
180.000005
 51
0.00001
  0
ARC
  5
960E
330
9405
100
AcDbEntity
  8
1
  6
Continuous
100
AcDbCircle
 10
202.330887
 20
322.229401
 30
0.0
 40
3.5
100
AcDbArc
 50
0.0
 51
180.000005
  0
ARC
  5
960F
330
9405
100
AcDbEntity
  8
1
  6
Continuous
100
AcDbCircle
 10
202.330887
 20
319.2294009999999
 30
0.0
 40
3.5
100
AcDbArc
 50
180.000005
 51
0.00001
  0
ARC
  5
9610
330
9405
100
AcDbEntity
  8
1
  6
Continuous
100
AcDbCircle
 10
146.3308869999999
 20
322.229401
 30
0.0
 40
3.5
100
AcDbArc
 50
0.0
 51
180.000005
  0
ARC
  5
9611
330
9405
100
AcDbEntity
  8
1
  6
Continuous
100
AcDbCircle
 10
146.3308869999999
 20
319.2294009999999
 30
0.0
 40
3.5
100
AcDbArc
 50
180.000005
 51
0.00001
  0
ARC
  5
9612
330
9405
100
AcDbEntity
  8
1
  6
Continuous
100
AcDbCircle
 10
144.3308869999999
 20
274.729401
 30
0.0
 40
5.0
100
AcDbArc
 50
90.00000300000001
 51
180.000005
  0
ARC
  5
9613
330
9405
100
AcDbEntity
  8
1
  6
Continuous
100
AcDbCircle
 10
204.3308869999999
 20
274.729401
 30
0.0
 40
5.0
100
AcDbArc
 50
0.0
 51
90.00000300000001
  0
ARC
  5
9614
330
9405
100
AcDbEntity
  8
1
  6
Continuous
100
AcDbCircle
 10
144.3308869999999
 20
165.729416
 30
0.0
 40
5.0
100
AcDbArc
 50
180.000005
 51
270.000001
  0
ARC
  5
9615
330
9405
100
AcDbEntity
  8
1
  6
Continuous
100
AcDbCircle
 10
204.3308869999999
 20
165.729416
 30
0.0
 40
5.0
100
AcDbArc
 50
269.9999969999999
 51
0.0
  0
ARC
  5
9616
330
9405
100
AcDbEntity
  8
1
  6
Continuous
100
AcDbCircle
 10
141.3308869999999
 20
330.729401
 30
0.0
 40
4.0
100
AcDbArc
 50
90.00000300000001
 51
180.000005
  0
ARC
  5
9617
330
9405
100
AcDbEntity
  8
1
  6
Continuous
100
AcDbCircle
 10
141.3308869999999
 20
309.729401
 30
0.0
 40
4.0
100
AcDbArc
 50
180.000005
 51
270.000001
  0
ARC
  5
9618
330
9405
100
AcDbEntity
  8
1
  6
Continuous
100
AcDbCircle
 10
207.3308869999999
 20
309.729401
 30
0.0
 40
4.0
100
AcDbArc
 50
269.9999969999999
 51
0.0
  0
ARC
  5
9619
330
9405
100
AcDbEntity
  8
1
  6
Continuous
100
AcDbCircle
 10
207.3308869999999
 20
330.729401
 30
0.0
 40
4.0
100
AcDbArc
 50
0.0
 51
90.00000300000001
  0
ARC
  5
961A
330
9405
100
AcDbEntity
  8
1
  6
Continuous
100
AcDbCircle
 10
146.3308869999999
 20
271.2294009999999
 30
0.0
 40
3.5
100
AcDbArc
 50
0.0
 51
180.000005
  0
ARC
  5
961B
330
9405
100
AcDbEntity
  8
1
  6
Continuous
100
AcDbCircle
 10
146.3308869999999
 20
268.229401
 30
0.0
 40
3.5
100
AcDbArc
 50
180.000005
 51
0.00001
  0
ARC
  5
961C
330
9405
100
AcDbEntity
  8
1
  6
Continuous
100
AcDbCircle
 10
202.330887
 20
271.2294009999999
 30
0.0
 40
3.5
100
AcDbArc
 50
0.0
 51
180.000005
  0
ARC
  5
961D
330
9405
100
AcDbEntity
  8
1
  6
Continuous
100
AcDbCircle
 10
202.330887
 20
268.229401
 30
0.0
 40
3.5
100
AcDbArc
 50
180.000005
 51
0.00001
  0
ARC
  5
961E
330
9405
100
AcDbEntity
  8
1
  6
Continuous
100
AcDbCircle
 10
139.330887
 20
329.7294009999998
 30
0.0
 40
2.0
100
AcDbArc
 50
90.00000300000001
 51
137.099805
  0
ARC
  5
961F
330
9405
100
AcDbEntity
  8
1
  6
Continuous
100
AcDbCircle
 10
139.330887
 20
310.7294009999999
 30
0.0
 40
2.0
100
AcDbArc
 50
232.0340149999999
 51
269.9999969999999
  0
ARC
  5
9620
330
9405
100
AcDbEntity
  8
1
  6
Continuous
100
AcDbCircle
 10
209.3308869999999
 20
329.7294009999998
 30
0.0
 40
2.0
100
AcDbArc
 50
52.533703
 51
90.00000300000001
  0
ARC
  5
9621
330
9405
100
AcDbEntity
  8
1
  6
Continuous
100
AcDbCircle
 10
209.3308869999999
 20
310.7294009999999
 30
0.0
 40
2.0
100
AcDbArc
 50
269.9999969999999
 51
307.394655
  0
ARC
  5
9622
330
9405
100
AcDbEntity
  8
1
  6
Continuous
100
AcDbCircle
 10
388.9926449999999
 20
178.229416
 30
0.0
 40
3.5
100
AcDbArc
 50
0.0
 51
180.000005
  0
ARC
  5
9623
330
9405
100
AcDbEntity
  8
1
  6
Continuous
100
AcDbCircle
 10
388.9926449999999
 20
171.2294159999999
 30
0.0
 40
3.5
100
AcDbArc
 50
180.000005
 51
0.00001
  0
ARC
  5
9624
330
9405
100
AcDbEntity
  8
1
  6
Continuous
100
AcDbCircle
 10
444.9926449999998
 20
178.229416
 30
0.0
 40
3.5
100
AcDbArc
 50
0.0
 51
180.000005
  0
ARC
  5
9625
330
9405
100
AcDbEntity
  8
1
  6
Continuous
100
AcDbCircle
 10
444.9926449999998
 20
171.2294159999999
 30
0.0
 40
3.5
100
AcDbArc
 50
180.000005
 51
0.00001
  0
ARC
  5
9626
330
9405
100
AcDbEntity
  8
1
  6
Continuous
100
AcDbCircle
 10
388.9926449999999
 20
322.229401
 30
0.0
 40
3.5
100
AcDbArc
 50
0.0
 51
180.000005
  0
ARC
  5
9627
330
9405
100
AcDbEntity
  8
1
  6
Continuous
100
AcDbCircle
 10
388.9926449999999
 20
319.2294009999999
 30
0.0
 40
3.5
100
AcDbArc
 50
180.000005
 51
0.00001
  0
ARC
  5
9628
330
9405
100
AcDbEntity
  8
1
  6
Continuous
100
AcDbCircle
 10
444.9926449999998
 20
322.229401
 30
0.0
 40
3.5
100
AcDbArc
 50
0.0
 51
180.000005
  0
ARC
  5
9629
330
9405
100
AcDbEntity
  8
1
  6
Continuous
100
AcDbCircle
 10
444.9926449999998
 20
319.2294009999999
 30
0.0
 40
3.5
100
AcDbArc
 50
180.000005
 51
0.00001
  0
ARC
  5
962A
330
9405
100
AcDbEntity
  8
1
  6
Continuous
100
AcDbCircle
 10
446.9926449999999
 20
274.729401
 30
0.0
 40
5.0
100
AcDbArc
 50
0.0
 51
90.00000300000001
  0
ARC
  5
962B
330
9405
100
AcDbEntity
  8
1
  6
Continuous
100
AcDbCircle
 10
386.9926449999999
 20
274.729401
 30
0.0
 40
5.0
100
AcDbArc
 50
90.00000300000001
 51
180.000005
  0
ARC
  5
962C
330
9405
100
AcDbEntity
  8
1
  6
Continuous
100
AcDbCircle
 10
446.9926449999999
 20
165.729416
 30
0.0
 40
5.0
100
AcDbArc
 50
269.9999969999999
 51
0.0
  0
ARC
  5
962D
330
9405
100
AcDbEntity
  8
1
  6
Continuous
100
AcDbCircle
 10
386.9926449999999
 20
165.729416
 30
0.0
 40
5.0
100
AcDbArc
 50
180.000005
 51
270.000001
  0
ARC
  5
962E
330
9405
100
AcDbEntity
  8
1
  6
Continuous
100
AcDbCircle
 10
449.992645
 20
330.729401
 30
0.0
 40
4.0
100
AcDbArc
 50
0.0
 51
90.00000300000001
  0
ARC
  5
962F
330
9405
100
AcDbEntity
  8
1
  6
Continuous
100
AcDbCircle
 10
449.992645
 20
309.729401
 30
0.0
 40
4.0
100
AcDbArc
 50
269.9999969999999
 51
0.0
  0
ARC
  5
9630
330
9405
100
AcDbEntity
  8
1
  6
Continuous
100
AcDbCircle
 10
383.992645
 20
309.729401
 30
0.0
 40
4.0
100
AcDbArc
 50
180.000005
 51
270.000001
  0
ARC
  5
9631
330
9405
100
AcDbEntity
  8
1
  6
Continuous
100
AcDbCircle
 10
383.992645
 20
330.729401
 30
0.0
 40
4.0
100
AcDbArc
 50
90.00000300000001
 51
180.000005
  0
ARC
  5
9632
330
9405
100
AcDbEntity
  8
1
  6
Continuous
100
AcDbCircle
 10
444.9926449999998
 20
271.2294009999999
 30
0.0
 40
3.5
100
AcDbArc
 50
0.0
 51
180.000005
  0
ARC
  5
9633
330
9405
100
AcDbEntity
  8
1
  6
Continuous
100
AcDbCircle
 10
444.9926449999998
 20
268.229401
 30
0.0
 40
3.5
100
AcDbArc
 50
180.000005
 51
0.00001
  0
ARC
  5
9634
330
9405
100
AcDbEntity
  8
1
  6
Continuous
100
AcDbCircle
 10
388.9926449999999
 20
271.2294009999999
 30
0.0
 40
3.5
100
AcDbArc
 50
0.0
 51
180.000005
  0
ARC
  5
9635
330
9405
100
AcDbEntity
  8
1
  6
Continuous
100
AcDbCircle
 10
388.9926449999999
 20
268.229401
 30
0.0
 40
3.5
100
AcDbArc
 50
180.000005
 51
0.00001
  0
ARC
  5
9636
330
9405
100
AcDbEntity
  8
1
  6
Continuous
100
AcDbCircle
 10
413.492645
 20
308.7294009999999
 30
0.0
 40
3.0
100
AcDbArc
 50
90.00000300000001
 51
180.000005
  0
ARC
  5
9637
330
9405
100
AcDbEntity
  8
1
  6
Continuous
100
AcDbCircle
 10
420.492645
 20
308.7294009999999
 30
0.0
 40
3.0
100
AcDbArc
 50
0.0
 51
90.00000300000001
  0
ARC
  5
9638
330
9405
100
AcDbEntity
  8
1
  6
Continuous
100
AcDbCircle
 10
154.5808869999999
 20
327.2294009999999
 30
0.0
 40
1.5
100
AcDbArc
 50
90.00000300000001
 51
180.000005
  0
ARC
  5
9639
330
9405
100
AcDbEntity
  8
1
  6
Continuous
100
AcDbCircle
 10
194.0808869999999
 20
327.2294009999999
 30
0.0
 40
1.5
100
AcDbArc
 50
0.0
 51
90.00000300000001
  0
ARC
  5
963A
330
9405
100
AcDbEntity
  8
1
  6
Continuous
100
AcDbCircle
 10
295.440308
 20
162.338409
 30
0.0
 40
3.322566999999998
100
AcDbArc
 50
237.776797
 51
306.5453619999999
  0
ARC
  5
963B
330
9405
100
AcDbEntity
  8
1
  6
Continuous
100
AcDbCircle
 10
300.722412
 20
171.641083
 30
0.0
 40
12.41943599999999
100
AcDbArc
 50
254.573114
 51
267.5426869999999
  0
ARC
  5
963C
330
9405
100
AcDbEntity
  8
1
  6
Continuous
100
AcDbCircle
 10
306.690613
 20
162.7629549999998
 30
0.0
 40
3.322562999999998
100
AcDbArc
 50
237.7767839999999
 51
306.5453749999999
  0
ARC
  5
963D
330
9405
100
AcDbEntity
  8
1
  6
Continuous
100
AcDbCircle
 10
152.3308869999999
 20
45.0
 30
0.0
 40
2.0
100
AcDbArc
 50
269.9999969999999
 51
0.0
  0
ARC
  5
963E
330
9405
100
AcDbEntity
  8
1
  6
Continuous
100
AcDbCircle
 10
152.3308869999999
 20
45.0
 30
0.0
 40
4.0
100
AcDbArc
 50
269.9999969999999
 51
0.0
  0
ARC
  5
963F
330
9405
100
AcDbEntity
  8
1
  6
Continuous
100
AcDbCircle
 10
196.3308869999999
 20
45.0
 30
0.0
 40
4.0
100
AcDbArc
 50
180.000005
 51
270.000001
  0
ARC
  5
9640
330
9405
100
AcDbEntity
  8
1
  6
Continuous
100
AcDbCircle
 10
196.3308869999999
 20
45.0
 30
0.0
 40
2.0
100
AcDbArc
 50
180.000005
 51
270.000001
  0
ARC
  5
9641
330
9405
100
AcDbEntity
  8
1
  6
Continuous
100
AcDbCircle
 10
158.3308869999999
 20
84.0
 30
0.0
 40
4.0
100
AcDbArc
 50
90.00000300000001
 51
180.000005
  0
ARC
  5
9642
330
9405
100
AcDbEntity
  8
1
  6
Continuous
100
AcDbCircle
 10
190.330887
 20
84.0
 30
0.0
 40
4.0
100
AcDbArc
 50
0.0
 51
90.00000300000001
  0
ARC
  5
9643
330
9405
100
AcDbEntity
  8
1
  6
Continuous
100
AcDbCircle
 10
141.3308869999999
 20
50.0
 30
0.0
 40
4.0
100
AcDbArc
 50
216.414466
 51
269.9999969999999
  0
ARC
  5
9644
330
9405
100
AcDbEntity
  8
1
  6
Continuous
100
AcDbCircle
 10
207.3308869999999
 20
50.0
 30
0.0
 40
4.0
100
AcDbArc
 50
269.9999969999999
 51
323.28483
  0
ARC
  5
9645
330
9405
100
AcDbEntity
  8
1
  6
Continuous
100
AcDbCircle
 10
157.3308869999999
 20
79.0
 30
0.0
 40
3.0
100
AcDbArc
 50
90.00000300000001
 51
180.000005
  0
ARC
  5
9646
330
9405
100
AcDbEntity
  8
1
  6
Continuous
100
AcDbCircle
 10
191.3308869999999
 20
79.0
 30
0.0
 40
3.0
100
AcDbArc
 50
0.0
 51
90.00000300000001
  0
ARC
  5
9647
330
9405
100
AcDbEntity
  8
1
  6
Continuous
100
AcDbCircle
 10
158.3308869999999
 20
78.0
 30
0.0
 40
2.0
100
AcDbArc
 50
90.00000300000001
 51
180.000005
  0
ARC
  5
9648
330
9405
100
AcDbEntity
  8
1
  6
Continuous
100
AcDbCircle
 10
190.330887
 20
78.0
 30
0.0
 40
2.0
100
AcDbArc
 50
0.0
 51
90.00000300000001
  0
ARC
  5
9649
330
9405
100
AcDbEntity
  8
1
  6
Continuous
100
AcDbCircle
 10
174.3308869999999
 20
63.0
 30
0.0
 40
6.5
100
AcDbArc
 50
8.849883
 51
171.150115
  0
ARC
  5
964A
330
9405
100
AcDbEntity
  8
1
  6
Continuous
100
AcDbCircle
 10
139.330887
 20
49.0
 30
0.0
 40
2.0
100
AcDbArc
 50
90.00000300000001
 51
180.000005
  0
ARC
  5
964B
330
9405
100
AcDbEntity
  8
1
  6
Continuous
100
AcDbCircle
 10
209.3308869999999
 20
49.0
 30
0.0
 40
2.0
100
AcDbArc
 50
0.0
 51
90.00000300000001
  0
ARC
  5
964C
330
9405
100
AcDbEntity
  8
1
  6
Continuous
100
AcDbCircle
 10
141.3308869999999
 20
445.458832
 30
0.0
 40
4.0
100
AcDbArc
 50
90.00000300000001
 51
143.5855339999999
  0
ARC
  5
964D
330
9405
100
AcDbEntity
  8
1
  6
Continuous
100
AcDbCircle
 10
207.3308869999999
 20
445.458832
 30
0.0
 40
4.0
100
AcDbArc
 50
36.71517000000001
 51
90.00000300000001
  0
ARC
  5
964E
330
9405
100
AcDbEntity
  8
1
  6
Continuous
100
AcDbCircle
 10
139.330887
 20
446.4588319999998
 30
0.0
 40
2.0
100
AcDbArc
 50
180.000005
 51
270.000001
  0
ARC
  5
964F
330
9405
100
AcDbEntity
  8
1
  6
Continuous
100
AcDbCircle
 10
209.3308869999999
 20
446.4588319999998
 30
0.0
 40
2.0
100
AcDbArc
 50
269.9999969999999
 51
0.0
  0
ARC
  5
9650
330
9405
100
AcDbEntity
  8
5
  6
PHANTOM
100
AcDbCircle
 10
274.501404
 20
329.6505129999999
 30
0.0
 40
1.0
100
AcDbArc
 50
190.96376
 51
250.0000009999999
  0
ARC
  5
9651
330
9405
100
AcDbEntity
  8
5
  6
PHANTOM
100
AcDbCircle
 10
295.0502619999999
 20
322.1713559999999
 30
0.0
 40
1.0
100
AcDbArc
 50
250.0000009999999
 51
309.036243
  0
ARC
  5
9652
330
9405
100
AcDbEntity
  8
5
  6
PHANTOM
100
AcDbCircle
 10
276.656067
 20
334.3020319999999
 30
0.0
 40
4.0
100
AcDbArc
 50
159.9999949999999
 51
190.963756
  0
ARC
  5
9653
330
9405
100
AcDbEntity
  8
5
  6
PHANTOM
100
AcDbCircle
 10
296.3896179999998
 20
327.1196289999999
 30
0.0
 40
4.0
100
AcDbArc
 50
309.036243
 51
340.0000009999998
  0
ARC
  5
9654
330
9405
100
AcDbEntity
  8
5
  6
PHANTOM
100
AcDbCircle
 10
295.661774
 20
301.729401
 30
0.0
 40
12.0
100
AcDbArc
 50
285.5351259999998
 51
60.527975
  0
CIRCLE
  5
9655
330
9405
100
AcDbEntity
  8
1
  6
Continuous
100
AcDbCircle
 10
295.661774
 20
301.729401
 30
0.0
 40
7.0
  0
CIRCLE
  5
9656
330
9405
100
AcDbEntity
  8
1
  6
Continuous
100
AcDbCircle
 10
295.661774
 20
301.729401
 30
0.0
 40
6.0
  0
ARC
  5
9657
330
9405
100
AcDbEntity
  8
1
  6
Continuous
100
AcDbCircle
 10
321.6617739999999
 20
293.229401
 30
0.0
 40
13.5
100
AcDbArc
 50
180.000005
 51
270.000001
  0
ARC
  5
9658
330
9405
100
AcDbEntity
  8
5
  6
PHANTOM
100
AcDbCircle
 10
295.661774
 20
301.729401
 30
0.0
 40
15.0
100
AcDbArc
 50
36.454079
 51
56.11346000000001
  0
ARC
  5
9659
330
9405
100
AcDbEntity
  8
5
  6
PHANTOM
100
AcDbCircle
 10
309.600525
 20
322.483002
 30
0.0
 40
10.0
100
AcDbArc
 50
159.9999949999999
 51
236.113465
  0
ARC
  5
965A
330
9405
100
AcDbEntity
  8
1
  6
Continuous
100
AcDbCircle
 10
316.6373899999999
 20
289.5116879999998
 30
0.0
 40
0.5
100
AcDbArc
 50
2.16108
 51
92.16108100000004
  0
ARC
  5
965B
330
9405
100
AcDbEntity
  8
5
  6
PHANTOM
100
AcDbCircle
 10
295.661774
 20
301.729401
 30
0.0
 40
27.0
100
AcDbArc
 50
159.9999949999999
 51
221.922927
  0
ARC
  5
965C
330
9405
100
AcDbEntity
  8
5
  6
PHANTOM
100
AcDbCircle
 10
276.702087
 20
325.657013
 30
0.0
 40
1.0
100
AcDbArc
 50
70.0
 51
159.9999949999999
  0
ARC
  5
965D
330
9405
100
AcDbEntity
  8
1
  6
Continuous
100
AcDbCircle
 10
319.769714
 20
330.729401
 30
0.0
 40
4.0
100
AcDbArc
 50
90.00000300000001
 51
120.9637569999999
  0
ARC
  5
965E
330
9405
100
AcDbEntity
  8
1
  6
Continuous
100
AcDbCircle
 10
314.6617739999999
 20
331.1632079999998
 30
0.0
 40
1.0
100
AcDbArc
 50
120.9637569999999
 51
180.000005
  0
ARC
  5
965F
330
9405
100
AcDbEntity
  8
1
  6
Continuous
100
AcDbCircle
 10
319.769714
 20
309.729401
 30
0.0
 40
4.0
100
AcDbArc
 50
239.036243
 51
269.9999969999999
  0
ARC
  5
9660
330
9405
100
AcDbEntity
  8
1
  6
Continuous
100
AcDbCircle
 10
319.9310909999999
 20
295.729401
 30
0.0
 40
10.0
100
AcDbArc
 50
90.00000300000001
 51
166.1134649999999
  0
ARC
  5
9661
330
9405
100
AcDbEntity
  8
1
  6
Continuous
100
AcDbCircle
 10
314.6617739999999
 20
309.295593
 30
0.0
 40
1.0
100
AcDbArc
 50
180.000005
 51
239.0362399999999
  0
ARC
  5
9662
330
9405
100
AcDbEntity
  8
1
  6
Continuous
100
AcDbCircle
 10
295.661774
 20
301.729401
 30
0.0
 40
15.0
100
AcDbArc
 50
326.4540789999998
 51
346.1134599999998
  0
ARC
  5
9663
330
9405
100
AcDbEntity
  8
1
  6
Continuous
100
AcDbCircle
 10
295.661774
 20
301.729401
 30
0.0
 40
12.0
100
AcDbArc
 50
215.535133
 51
350.5279779999999
  0
ARC
  5
9664
330
9405
100
AcDbEntity
  8
1
  6
Continuous
100
AcDbCircle
 10
295.661774
 20
301.729401
 30
0.0
 40
27.0
100
AcDbArc
 50
90.00000300000001
 51
151.922928
  0
ARC
  5
9665
330
9405
100
AcDbEntity
  8
1
  6
Continuous
100
AcDbCircle
 10
311.6617739999999
 20
327.7294009999998
 30
0.0
 40
1.0
100
AcDbArc
 50
0.0
 51
90.00000300000001
  0
ARC
  5
9666
330
9405
100
AcDbEntity
  8
1
  6
Continuous
100
AcDbCircle
 10
154.080887
 20
441.458832
 30
0.0
 40
1.0
100
AcDbArc
 50
90.00000300000001
 51
180.000005
  0
ARC
  5
9667
330
9405
100
AcDbEntity
  8
1
  6
Continuous
100
AcDbCircle
 10
194.580887
 20
441.458832
 30
0.0
 40
1.0
100
AcDbArc
 50
0.0
 51
90.00000300000001
  0
ARC
  5
9668
330
9405
100
AcDbEntity
  8
1
  6
Continuous
100
AcDbCircle
 10
427.242645
 20
170.1924899999999
 30
0.0
 40
2.25
100
AcDbArc
 50
0.0
 51
180.000005
  0
ARC
  5
9669
330
9405
100
AcDbEntity
  8
1
  6
Continuous
100
AcDbCircle
 10
406.742645
 20
269.232483
 30
0.0
 40
2.25
100
AcDbArc
 50
102.434075
 51
282.4340869999998
  0
ARC
  5
966A
330
9405
100
AcDbEntity
  8
1
  6
Continuous
100
AcDbCircle
 10
427.242645
 20
273.752502
 30
0.0
 40
2.25
100
AcDbArc
 50
282.434077
 51
317.396364
  0
ARC
  5
966B
330
9405
100
AcDbEntity
  8
1
  6
Continuous
100
AcDbCircle
 10
427.242645
 20
210.752487
 30
0.0
 40
2.25
100
AcDbArc
 50
282.434077
 51
102.434075
  0
ARC
  5
966C
330
9405
100
AcDbEntity
  8
1
  6
Continuous
100
AcDbCircle
 10
406.742645
 20
206.232483
 30
0.0
 40
2.25
100
AcDbArc
 50
102.434075
 51
282.4340869999998
  0
ARC
  5
966D
330
9405
100
AcDbEntity
  8
1
  6
Continuous
100
AcDbCircle
 10
427.242645
 20
219.752487
 30
0.0
 40
2.25
100
AcDbArc
 50
282.434077
 51
102.434075
  0
ARC
  5
966E
330
9405
100
AcDbEntity
  8
1
  6
Continuous
100
AcDbCircle
 10
406.742645
 20
215.2324829999999
 30
0.0
 40
2.25
100
AcDbArc
 50
102.434075
 51
282.4340869999998
  0
ARC
  5
966F
330
9405
100
AcDbEntity
  8
1
  6
Continuous
100
AcDbCircle
 10
427.242645
 20
228.7524869999999
 30
0.0
 40
2.25
100
AcDbArc
 50
282.434077
 51
102.434075
  0
ARC
  5
9670
330
9405
100
AcDbEntity
  8
1
  6
Continuous
100
AcDbCircle
 10
406.742645
 20
224.232483
 30
0.0
 40
2.25
100
AcDbArc
 50
102.434075
 51
282.4340869999998
  0
ARC
  5
9671
330
9405
100
AcDbEntity
  8
1
  6
Continuous
100
AcDbCircle
 10
427.242645
 20
237.752487
 30
0.0
 40
2.25
100
AcDbArc
 50
282.434077
 51
102.434075
  0
ARC
  5
9672
330
9405
100
AcDbEntity
  8
1
  6
Continuous
100
AcDbCircle
 10
406.742645
 20
233.232483
 30
0.0
 40
2.25
100
AcDbArc
 50
102.434075
 51
282.4340869999998
  0
ARC
  5
9673
330
9405
100
AcDbEntity
  8
1
  6
Continuous
100
AcDbCircle
 10
427.242645
 20
246.752487
 30
0.0
 40
2.25
100
AcDbArc
 50
282.434077
 51
102.434075
  0
ARC
  5
9674
330
9405
100
AcDbEntity
  8
1
  6
Continuous
100
AcDbCircle
 10
406.742645
 20
242.2324829999999
 30
0.0
 40
2.25
100
AcDbArc
 50
102.434075
 51
282.4340869999998
  0
ARC
  5
9675
330
9405
100
AcDbEntity
  8
1
  6
Continuous
100
AcDbCircle
 10
427.242645
 20
255.7524869999999
 30
0.0
 40
2.25
100
AcDbArc
 50
282.434077
 51
102.434075
  0
ARC
  5
9676
330
9405
100
AcDbEntity
  8
1
  6
Continuous
100
AcDbCircle
 10
406.742645
 20
251.232483
 30
0.0
 40
2.25
100
AcDbArc
 50
102.434075
 51
282.4340869999998
  0
ARC
  5
9677
330
9405
100
AcDbEntity
  8
1
  6
Continuous
100
AcDbCircle
 10
427.242645
 20
264.7525019999998
 30
0.0
 40
2.25
100
AcDbArc
 50
282.434077
 51
102.434075
  0
ARC
  5
9678
330
9405
100
AcDbEntity
  8
1
  6
Continuous
100
AcDbCircle
 10
406.742645
 20
260.232483
 30
0.0
 40
2.25
100
AcDbArc
 50
102.434075
 51
282.4340869999998
  0
ARC
  5
9679
330
9405
100
AcDbEntity
  8
5
  6
PHANTOM
100
AcDbCircle
 10
74.16035500000003
 20
329.6505129999999
 30
0.0
 40
1.0
100
AcDbArc
 50
290.0
 51
349.036244
  0
ARC
  5
967A
330
9405
100
AcDbEntity
  8
5
  6
PHANTOM
100
AcDbCircle
 10
53.611511
 20
322.1713559999999
 30
0.0
 40
1.0
100
AcDbArc
 50
230.9637519999999
 51
290.0
  0
ARC
  5
967B
330
9405
100
AcDbEntity
  8
5
  6
PHANTOM
100
AcDbCircle
 10
72.005684
 20
334.3020319999999
 30
0.0
 40
4.0
100
AcDbArc
 50
349.036244
 51
19.99999899999998
  0
ARC
  5
967C
330
9405
100
AcDbEntity
  8
5
  6
PHANTOM
100
AcDbCircle
 10
52.272141
 20
327.1196289999999
 30
0.0
 40
4.0
100
AcDbArc
 50
200.0000049999999
 51
230.9637519999999
  0
ARC
  5
967D
330
9405
100
AcDbEntity
  8
5
  6
PHANTOM
100
AcDbCircle
 10
53.0
 20
301.729401
 30
0.0
 40
12.0
100
AcDbArc
 50
119.472016
 51
254.464872
  0
CIRCLE
  5
967E
330
9405
100
AcDbEntity
  8
1
  6
Continuous
100
AcDbCircle
 10
53.0
 20
301.729401
 30
0.0
 40
7.0
  0
CIRCLE
  5
967F
330
9405
100
AcDbEntity
  8
1
  6
Continuous
100
AcDbCircle
 10
53.0
 20
301.729401
 30
0.0
 40
6.0
  0
ARC
  5
9680
330
9405
100
AcDbEntity
  8
1
  6
Continuous
100
AcDbCircle
 10
27.0
 20
293.229401
 30
0.0
 40
13.5
100
AcDbArc
 50
269.9999969999999
 51
0.0
  0
ARC
  5
9681
330
9405
100
AcDbEntity
  8
5
  6
PHANTOM
100
AcDbCircle
 10
53.0
 20
301.729401
 30
0.0
 40
15.0
100
AcDbArc
 50
123.886545
 51
143.5459189999999
  0
ARC
  5
9682
330
9405
100
AcDbEntity
  8
5
  6
PHANTOM
100
AcDbCircle
 10
39.061249
 20
322.483002
 30
0.0
 40
10.0
100
AcDbArc
 50
303.8865399999999
 51
19.99999899999998
  0
ARC
  5
9683
330
9405
100
AcDbEntity
  8
1
  6
Continuous
100
AcDbCircle
 10
32.02436399999999
 20
289.5116879999998
 30
0.0
 40
0.5
100
AcDbArc
 50
87.838924
 51
177.838919
  0
ARC
  5
9684
330
9405
100
AcDbEntity
  8
5
  6
PHANTOM
100
AcDbCircle
 10
53.0
 20
301.729401
 30
0.0
 40
27.0
100
AcDbArc
 50
318.077071
 51
19.99999899999998
  0
ARC
  5
9685
330
9405
100
AcDbEntity
  8
5
  6
PHANTOM
100
AcDbCircle
 10
71.95968600000002
 20
325.657013
 30
0.0
 40
1.0
100
AcDbArc
 50
19.99999899999998
 51
109.999999
  0
ARC
  5
9686
330
9405
100
AcDbEntity
  8
1
  6
Continuous
100
AcDbCircle
 10
28.892065
 20
330.729401
 30
0.0
 40
4.0
100
AcDbArc
 50
59.036241
 51
90.00000300000001
  0
ARC
  5
9687
330
9405
100
AcDbEntity
  8
1
  6
Continuous
100
AcDbCircle
 10
34.0
 20
331.1632079999998
 30
0.0
 40
1.0
100
AcDbArc
 50
0.0
 51
59.036241
  0
ARC
  5
9688
330
9405
100
AcDbEntity
  8
1
  6
Continuous
100
AcDbCircle
 10
28.892065
 20
309.729401
 30
0.0
 40
4.0
100
AcDbArc
 50
269.9999969999999
 51
300.963759
  0
ARC
  5
9689
330
9405
100
AcDbEntity
  8
1
  6
Continuous
100
AcDbCircle
 10
28.730679
 20
295.729401
 30
0.0
 40
10.0
100
AcDbArc
 50
13.88654
 51
90.00000300000001
  0
ARC
  5
968A
330
9405
100
AcDbEntity
  8
1
  6
Continuous
100
AcDbCircle
 10
34.0
 20
309.295593
 30
0.0
 40
1.0
100
AcDbArc
 50
300.963759
 51
0.0
  0
ARC
  5
968B
330
9405
100
AcDbEntity
  8
1
  6
Continuous
100
AcDbCircle
 10
53.0
 20
301.729401
 30
0.0
 40
15.0
100
AcDbArc
 50
193.886535
 51
213.5459229999999
  0
ARC
  5
968C
330
9405
100
AcDbEntity
  8
1
  6
Continuous
100
AcDbCircle
 10
53.0
 20
301.729401
 30
0.0
 40
12.0
100
AcDbArc
 50
189.4720189999999
 51
324.464872
  0
ARC
  5
968D
330
9405
100
AcDbEntity
  8
1
  6
Continuous
100
AcDbCircle
 10
53.0
 20
301.729401
 30
0.0
 40
27.0
100
AcDbArc
 50
28.07707
 51
90.00000300000001
  0
ARC
  5
968E
330
9405
100
AcDbEntity
  8
1
  6
Continuous
100
AcDbCircle
 10
37.0
 20
327.7294009999998
 30
0.0
 40
1.0
100
AcDbArc
 50
90.00000300000001
 51
180.000005
  0
ARC
  5
968F
330
9405
100
AcDbEntity
  8
1
  6
Continuous
100
AcDbCircle
 10
406.742645
 20
179.232483
 30
0.0
 40
2.25
100
AcDbArc
 50
102.434075
 51
282.4340869999998
  0
ARC
  5
9690
330
9405
100
AcDbEntity
  8
1
  6
Continuous
100
AcDbCircle
 10
427.242645
 20
183.752487
 30
0.0
 40
2.25
100
AcDbArc
 50
282.434077
 51
102.434075
  0
ARC
  5
9691
330
9405
100
AcDbEntity
  8
1
  6
Continuous
100
AcDbCircle
 10
427.242645
 20
174.7124939999999
 30
0.0
 40
2.25
100
AcDbArc
 50
272.5870269999999
 51
112.4163279999999
  0
ARC
  5
9692
330
9405
100
AcDbEntity
  8
1
  6
Continuous
100
AcDbCircle
 10
406.742645
 20
170.1924899999999
 30
0.0
 40
2.25
100
AcDbArc
 50
90.00000300000001
 51
180.000005
  0
ARC
  5
9693
330
9405
100
AcDbEntity
  8
1
  6
Continuous
100
AcDbCircle
 10
427.242645
 20
192.752487
 30
0.0
 40
2.25
100
AcDbArc
 50
282.434077
 51
102.434075
  0
ARC
  5
9694
330
9405
100
AcDbEntity
  8
1
  6
Continuous
100
AcDbCircle
 10
406.742645
 20
188.2324829999998
 30
0.0
 40
2.25
100
AcDbArc
 50
102.434075
 51
282.4340869999998
  0
ARC
  5
9695
330
9405
100
AcDbEntity
  8
1
  6
Continuous
100
AcDbCircle
 10
406.742645
 20
197.2324829999998
 30
0.0
 40
2.25
100
AcDbArc
 50
102.434075
 51
282.4340869999998
  0
ARC
  5
9696
330
9405
100
AcDbEntity
  8
1
  6
Continuous
100
AcDbCircle
 10
427.242645
 20
201.7524869999999
 30
0.0
 40
2.25
100
AcDbArc
 50
282.434077
 51
102.434075
  0
ARC
  5
9697
330
9405
100
AcDbEntity
  8
1
  6
Continuous
100
AcDbCircle
 10
174.3308869999999
 20
63.0
 30
0.0
 40
6.5
100
AcDbArc
 50
188.8498849999999
 51
351.1501169999998
  0
ARC
  5
9698
330
9405
100
AcDbEntity
  8
1
  6
Continuous
100
AcDbCircle
 10
420.2426449999999
 20
168.616592
 30
0.0
 40
9.387185
100
AcDbArc
 50
249.7439239999999
 51
290.256091
  0
ARC
  5
9699
330
9405
100
AcDbEntity
  8
1
  6
Continuous
100
AcDbCircle
 10
413.7426449999998
 20
168.616608
 30
0.0
 40
9.387189999999996
100
AcDbArc
 50
249.7439239999999
 51
290.256071
  0
ARC
  5
969A
330
9405
100
AcDbEntity
  8
1
  6
Continuous
100
AcDbCircle
 10
300.722412
 20
171.641083
 30
0.0
 40
12.41943599999999
100
AcDbArc
 50
276.7794729999998
 51
289.749052
  0
ARC
  5
969B
330
9405
100
AcDbEntity
  8
1
  6
Continuous
100
AcDbCircle
 10
171.0808869999999
 20
168.616608
 30
0.0
 40
9.387189999999996
100
AcDbArc
 50
249.7439239999999
 51
290.256071
  0
ARC
  5
969C
330
9405
100
AcDbEntity
  8
1
  6
Continuous
100
AcDbCircle
 10
177.5808869999999
 20
168.616592
 30
0.0
 40
9.387185
100
AcDbArc
 50
249.7439239999999
 51
290.256091
  0
ARC
  5
969D
330
9405
100
AcDbEntity
  8
1
  6
Continuous
100
AcDbCircle
 10
47.93933899999998
 20
171.641083
 30
0.0
 40
12.41943599999999
100
AcDbArc
 50
250.250949
 51
263.220522
  0
ARC
  5
969E
330
9405
100
AcDbEntity
  8
1
  6
Continuous
100
AcDbCircle
 10
41.971142
 20
162.7629549999998
 30
0.0
 40
3.322562999999998
100
AcDbArc
 50
233.454626
 51
302.223225
  0
ARC
  5
969F
330
9405
100
AcDbEntity
  8
1
  6
Continuous
100
AcDbCircle
 10
53.22146599999999
 20
162.338409
 30
0.0
 40
3.322566999999998
100
AcDbArc
 50
233.45464
 51
302.223211
  0
ARC
  5
96A0
330
9405
100
AcDbEntity
  8
1
  6
Continuous
100
AcDbCircle
 10
47.93933899999998
 20
171.641083
 30
0.0
 40
12.41943599999999
100
AcDbArc
 50
272.4573149999998
 51
285.4268879999998
  0
TEXT
  5
96A1
330
9405
100
AcDbEntity
  8
6
  6
Continuous
100
AcDbText
 10
27.97945
 20
10.0487
 30
0.0
 40
1.399999999999999
  1
6
 41
1.069393
100
AcDbText
  0
TEXT
  5
96A2
330
9405
100
AcDbEntity
  8
1
  6
Continuous
100
AcDbText
 10
17.97945
 20
10.0487
 30
0.0
 40
1.399999999999999
  1
1
 41
1.069393
100
AcDbText
  0
TEXT
  5
96A3
330
9405
100
AcDbEntity
  8
1
  6
Continuous
100
AcDbText
 10
9.99995
 20
10.0
 30
0.0
 40
1.399999999999999
  1
LAYER
 41
1.009912999999997
100
AcDbText
  0
TEXT
  5
96A4
330
9405
100
AcDbEntity
  8
2
  6
Continuous
100
AcDbText
 10
19.97944999999998
 20
10.0487
 30
0.0
 40
1.399999999999999
  1
2
 41
1.069393
100
AcDbText
  0
TEXT
  5
96A5
330
9405
100
AcDbEntity
  8
3
  6
DASHED
100
AcDbText
 10
21.97945
 20
10.0487
 30
0.0
 40
1.399999999999999
  1
3
 41
1.069393
100
AcDbText
  0
TEXT
  5
96A6
330
9405
100
AcDbEntity
  8
4
  6
CENTER
100
AcDbText
 10
23.97944999999999
 20
10.0487
 30
0.0
 40
1.399999999999999
  1
4
 41
1.069393
100
AcDbText
  0
TEXT
  5
96A7
330
9405
100
AcDbEntity
  8
5
  6
PHANTOM
100
AcDbText
 10
25.97945
 20
10.0487
 30
0.0
 40
1.399999999999999
  1
5
 41
1.069393
100
AcDbText
  0
TEXT
  5
96A8
330
9405
100
AcDbEntity
  8
7
  6
Continuous
100
AcDbText
 10
10.00005
 20
26.0
 30
0.0
 40
3.0
  1
CODE No.2416
 41
1.003962999999999
100
AcDbText
  0
TEXT
  5
96A9
330
9405
100
AcDbEntity
  8
7
  6
Continuous
100
AcDbText
 10
10.00005
 20
18.0
 30
0.0
 40
3.0
  1
TYPE No.TH-64
 41
1.003649999999999
100
AcDbText
  0
TEXT
  5
96AA
330
9405
100
AcDbEntity
  8
7
  6
Continuous
100
AcDbText
 10
29.97944999999999
 20
10.0487
 30
0.0
 40
1.399999999999999
  1
7
 41
1.069393
100
AcDbText
  0
ENDSEC
  0
SECTION
  2
OBJECTS
  0
DICTIONARY
  5
93F3
330
0
100
AcDbDictionary
281
     1
  3
ACAD_CIP_PREVIOUS_PRODUCT_INFO
350
9710
  3
ACAD_COLOR
350
96F2
  3
ACAD_DETAILVIEWSTYLE
350
970B
  3
ACAD_GROUP
350
93F4
  3
ACAD_LAYOUT
350
9400
  3
ACAD_MATERIAL
350
96C0
  3
ACAD_MLEADERSTYLE
350
9707
  3
ACAD_MLINESTYLE
350
93FD
  3
ACAD_PLOTSETTINGS
350
93FF
  3
ACAD_PLOTSTYLENAME
350
96BE
  3
ACAD_SCALELIST
350
96F5
  3
ACAD_SECTIONVIEWSTYLE
350
9709
  3
ACAD_TABLESTYLE
350
96F3
  3
ACAD_VISUALSTYLE
350
96D9
  3
ACDB_RECOMPOSE_DATA
350
972E
  3
AcDbVariableDictionary
350
9721
  3
DWGPROPS
350
972F
  0
DICTIONARY
  5
9711
330
93F7
100
AcDbDictionary
280
     1
281
     1
  3
ADSK_XREC_LAYER_RECONCILED
360
9712
  0
DICTIONARY
  5
9713
330
940D
100
AcDbDictionary
280
     1
281
     1
  3
ADSK_XREC_LAYER_RECONCILED
360
9714
  0
DICTIONARY
  5
9715
330
940E
100
AcDbDictionary
280
     1
281
     1
  3
ADSK_XREC_LAYER_RECONCILED
360
9716
  0
DICTIONARY
  5
9717
330
940F
100
AcDbDictionary
280
     1
281
     1
  3
ADSK_XREC_LAYER_RECONCILED
360
9718
  0
DICTIONARY
  5
9719
330
9410
100
AcDbDictionary
280
     1
281
     1
  3
ADSK_XREC_LAYER_RECONCILED
360
971A
  0
DICTIONARY
  5
971B
330
9411
100
AcDbDictionary
280
     1
281
     1
  3
ADSK_XREC_LAYER_RECONCILED
360
971C
  0
DICTIONARY
  5
971D
330
9412
100
AcDbDictionary
280
     1
281
     1
  3
ADSK_XREC_LAYER_RECONCILED
360
971E
  0
DICTIONARY
  5
971F
330
9413
100
AcDbDictionary
280
     1
281
     1
  3
ADSK_XREC_LAYER_RECONCILED
360
9720
  0
DICTIONARY
  5
96B9
330
9405
100
AcDbDictionary
281
     1
  3
ACAD_LAYOUTSELFREF
350
96BA
  0
DICTIONARY
  5
96B7
330
9401
100
AcDbDictionary
281
     1
  3
ACAD_LAYOUTSELFREF
350
96B8
  0
XRECORD
  5
9710
102
{ACAD_REACTORS
330
93F3
102
}
330
93F3
100
AcDbXrecord
280
     1
300
ACDLT
300
2014
300
ACDLT_F_S
  0
DICTIONARY
  5
96F2
102
{ACAD_REACTORS
330
93F3
102
}
330
93F3
100
AcDbDictionary
281
     1
  0
DICTIONARY
  5
970B
102
{ACAD_REACTORS
330
93F3
102
}
330
93F3
100
AcDbDictionary
281
     1
  3
Imperial24
350
970C
  0
DICTIONARY
  5
93F4
102
{ACAD_REACTORS
330
93F3
102
}
330
93F3
100
AcDbDictionary
281
     1
  0
DICTIONARY
  5
9400
102
{ACAD_REACTORS
330
93F3
102
}
330
93F3
100
AcDbDictionary
281
     1
  3
Model
350
970D
  3
レイアウト1
350
970E
  0
DICTIONARY
  5
96C0
102
{ACAD_REACTORS
330
93F3
102
}
330
93F3
100
AcDbDictionary
281
     1
  3
ByBlock
350
96C9
  3
ByLayer
350
96C1
  3
Global
350
96D1
  0
DICTIONARY
  5
9707
102
{ACAD_REACTORS
330
93F3
102
}
330
93F3
100
AcDbDictionary
281
     1
  3
Standard
350
9708
  0
DICTIONARY
  5
93FD
102
{ACAD_REACTORS
330
93F3
102
}
330
93F3
100
AcDbDictionary
281
     1
  3
STANDARD
350
93FE
  0
DICTIONARY
  5
93FF
102
{ACAD_REACTORS
330
93F3
102
}
330
93F3
100
AcDbDictionary
281
     1
  0
ACDBDICTIONARYWDFLT
  5
96BE
102
{ACAD_REACTORS
330
93F3
102
}
330
93F3
100
AcDbDictionary
281
     1
  3
Normal
350
96BF
100
AcDbDictionaryWithDefault
340
96BF
  0
DICTIONARY
  5
96F5
102
{ACAD_REACTORS
330
93F3
102
}
330
93F3
100
AcDbDictionary
281
     1
  3
A0
350
96F6
  3
A1
350
96F7
  3
A2
350
96F8
  3
A3
350
96F9
  3
A4
350
96FA
  3
A5
350
96FB
  3
A6
350
96FC
  3
A7
350
96FD
  3
A8
350
96FE
  3
A9
350
96FF
  3
B0
350
9700
  3
B1
350
9701
  3
B2
350
9702
  3
B3
350
9703
  3
B4
350
9704
  3
B5
350
9705
  3
B6
350
9706
  0
DICTIONARY
  5
9709
102
{ACAD_REACTORS
330
93F3
102
}
330
93F3
100
AcDbDictionary
281
     1
  3
Imperial24
350
970A
  0
DICTIONARY
  5
96F3
102
{ACAD_REACTORS
330
93F3
102
}
330
93F3
100
AcDbDictionary
281
     1
  3
Standard
350
96F4
  0
DICTIONARY
  5
96D9
102
{ACAD_REACTORS
330
93F3
102
}
330
93F3
100
AcDbDictionary
281
     1
  3
2dWireframe
350
96DF
  3
Basic
350
96DE
  3
Brighten
350
96E5
  3
ColorChange
350
96E9
  3
Conceptual
350
96E2
  3
Dim
350
96E4
  3
EdgeColorOff
350
96F1
  3
Facepattern
350
96E8
  3
Flat
350
96DA
  3
FlatWithEdges
350
96DB
  3
Gouraud
350
96DC
  3
GouraudWithEdges
350
96DD
  3
Hidden
350
96E1
  3
JitterOff
350
96EF
  3
Linepattern
350
96E7
  3
OverhangOff
350
96F0
  3
Realistic
350
96E3
  3
Shaded
350
96EE
  3
Shaded with edges
350
96ED
  3
Shades of Gray
350
96EA
  3
Sketchy
350
96EB
  3
Thicken
350
96E6
  3
Wireframe
350
96E0
  3
X-Ray
350
96EC
  0
XRECORD
  5
972E
102
{ACAD_REACTORS
330
93F3
102
}
330
93F3
100
AcDbXrecord
280
     1
 90
        1
330
96F4
  0
DICTIONARY
  5
9721
102
{ACAD_REACTORS
330
93F3
102
}
330
93F3
100
AcDbDictionary
281
     1
  3
CANNOSCALE
350
9726
  3
CMLEADERSTYLE
350
9723
  3
CTABLESTYLE
350
9722
  3
CVIEWDETAILSTYLE
350
9724
  3
CVIEWSECTIONSTYLE
350
9725
  3
DIMASSOC
350
9729
  3
INDEXCTL
350
9728
  3
SORTENTS
350
9727
  3
XCLIPFRAME
350
972A
  0
XRECORD
  5
972F
102
{ACAD_REACTORS
330
93F3
102
}
330
93F3
100
AcDbXrecord
280
     1
  1
DWGPROPS COOKIE
  2

  3

  4

  6

  7

  8
Yoshitsune
  9

300
=
301
=
302
=
303
=
304
=
305
=
306
=
307
=
308
=
309
=
 40
0.0000159375
 41
2451062.581084375
 42
2457192.618551968
  1

 90
        0
  0
XRECORD
  5
9712
102
{ACAD_REACTORS
330
9711
102
}
330
9711
100
AcDbXrecord
280
     1
290
     1
  0
XRECORD
  5
9714
102
{ACAD_REACTORS
330
9713
102
}
330
9713
100
AcDbXrecord
280
     1
290
     1
  0
XRECORD
  5
9716
102
{ACAD_REACTORS
330
9715
102
}
330
9715
100
AcDbXrecord
280
     1
290
     1
  0
XRECORD
  5
9718
102
{ACAD_REACTORS
330
9717
102
}
330
9717
100
AcDbXrecord
280
     1
290
     1
  0
XRECORD
  5
971A
102
{ACAD_REACTORS
330
9719
102
}
330
9719
100
AcDbXrecord
280
     1
290
     1
  0
XRECORD
  5
971C
102
{ACAD_REACTORS
330
971B
102
}
330
971B
100
AcDbXrecord
280
     1
290
     1
  0
XRECORD
  5
971E
102
{ACAD_REACTORS
330
971D
102
}
330
971D
100
AcDbXrecord
280
     1
290
     1
  0
XRECORD
  5
9720
102
{ACAD_REACTORS
330
971F
102
}
330
971F
100
AcDbXrecord
280
     1
290
     1
  0
XRECORD
  5
96BA
102
{ACAD_REACTORS
330
96B9
102
}
330
96B9
100
AcDbXrecord
280
     1
340
9405
  0
XRECORD
  5
96B8
102
{ACAD_REACTORS
330
96B7
102
}
330
96B7
100
AcDbXrecord
280
     1
340
9401
  0
ACDBDETAILVIEWSTYLE
  5
970C
102
{ACAD_XDICTIONARY
360
9767
102
}
102
{ACAD_REACTORS
330
970B
102
}
330
970B
100
AcDbModelDocViewStyle
 70
     0
  3
Imperial24
290
     0
100
AcDbDetailViewStyle
 70
     0
 71
     0
 90
        3
 71
     1
340
93F8
 40
0.24
340
0
 40
0.24
300

 40
0.36
280
     3
 71
     2
340
93FC
 90
       25
 71
     3
340
93F8
 40
0.24
 90
        1
 40
0.75
 90
        1
300
%<\AcVar ViewType \f "%tc1">% %<\AcVar ViewDetailId>%\PSCALE %<\AcVar ViewScale \f "%sn">%
 71
     4
340
93FC
 90
       25
340
93FC
 90
       25
280
     0
  0
LAYOUT
  5
970D
102
{ACAD_XDICTIONARY
360
9769
102
}
102
{ACAD_REACTORS
330
9400
102
}
330
9400
100
AcDbPlotSettings
  1

  2
Canon LBP9100C
  4

  6

 40
0.0
 41
0.0
 42
0.0
 43
0.0
 44
0.0
 45
0.0
 46
0.0
 47
0.0
 48
0.0
 49
0.0
140
0.0
141
0.0
142
1.0
143
1.0
 70
  1712
 72
     0
 73
     0
 74
     0
  7

 75
     0
147
1.0
148
0.0
149
0.0
100
AcDbLayout
  1
Model
 70
     1
 71
     0
 10
0.0
 20
0.0
 11
12.0
 21
9.0
 12
0.0
 22
0.0
 32
0.0
 14
0.0
 24
0.0
 34
0.0
 15
0.0
 25
0.0
 35
0.0
146
0.0
 13
0.0
 23
0.0
 33
0.0
 16
1.0
 26
0.0
 36
0.0
 17
0.0
 27
1.0
 37
0.0
 76
     0
330
9405
331
96B6
  0
LAYOUT
  5
970E
102
{ACAD_XDICTIONARY
360
976B
102
}
102
{ACAD_REACTORS
330
9400
102
}
330
9400
100
AcDbPlotSettings
  1

  2
Canon LBP9100C
  4

  6

 40
0.0
 41
0.0
 42
0.0
 43
0.0
 44
0.0
 45
0.0
 46
0.0
 47
0.0
 48
0.0
 49
0.0
140
0.0
141
0.0
142
1.0
143
1.0
 70
   688
 72
     0
 73
     0
 74
     5
  7

 75
    16
147
1.0
148
0.0
149
0.0
100
AcDbLayout
  1
レイアウト1
 70
     0
 71
     1
 10
0.0
 20
0.0
 11
420.0
 21
297.0
 12
0.0
 22
0.0
 32
0.0
 14
1.000000000000000E+20
 24
1.000000000000000E+20
 34
1.000000000000000E+20
 15
-1.000000000000000E+20
 25
-1.000000000000000E+20
 35
-1.000000000000000E+20
146
0.0
 13
0.0
 23
0.0
 33
0.0
 16
1.0
 26
0.0
 36
0.0
 17
0.0
 27
1.0
 37
0.0
 76
     0
330
9401
  0
MATERIAL
  5
96C9
102
{ACAD_XDICTIONARY
360
96CA
102
}
102
{ACAD_REACTORS
330
96C0
102
}
330
96C0
100
AcDbMaterial
  1
ByBlock
 72
     0
 43
0.0208333333333333
 43
0.0
 43
0.0
 43
0.0
 43
0.0
 43
0.0208333333333333
 43
0.0
 43
0.0
 43
0.0
 43
0.0
 43
1.0
 43
0.0
 43
0.0
 43
0.0
 43
0.0
 43
1.0
 77
     0
 47
0.0208333333333333
 47
0.0
 47
0.0
 47
0.0
 47
0.0
 47
0.0208333333333333
 47
0.0
 47
0.0
 47
0.0
 47
0.0
 47
1.0
 47
0.0
 47
0.0
 47
0.0
 47
0.0
 47
1.0
171
     0
 49
0.0208333333333333
 49
0.0
 49
0.0
 49
0.0
 49
0.0
 49
0.0208333333333333
 49
0.0
 49
0.0
 49
0.0
 49
0.0
 49
1.0
 49
0.0
 49
0.0
 49
0.0
 49
0.0
 49
1.0
175
     0
142
0.0208333333333333
142
0.0
142
0.0
142
0.0
142
0.0
142
0.0208333333333333
142
0.0
142
0.0
142
0.0
142
0.0
142
1.0
142
0.0
142
0.0
142
0.0
142
0.0
142
1.0
179
     0
144
0.0208333333333333
144
0.0
144
0.0
144
0.0
144
0.0
144
0.0208333333333333
144
0.0
144
0.0
144
0.0
144
0.0
144
1.0
144
0.0
144
0.0
144
0.0
144
0.0
144
1.0
147
0.0208333333333333
147
0.0
147
0.0
147
0.0
147
0.0
147
0.0208333333333333
147
0.0
147
0.0
147
0.0
147
0.0
147
1.0
147
0.0
147
0.0
147
0.0
147
0.0
147
1.0
  0
MATERIAL
  5
96C1
102
{ACAD_XDICTIONARY
360
96C2
102
}
102
{ACAD_REACTORS
330
96C0
102
}
330
96C0
100
AcDbMaterial
  1
ByLayer
 72
     0
 43
0.0208333333333333
 43
0.0
 43
0.0
 43
0.0
 43
0.0
 43
0.0208333333333333
 43
0.0
 43
0.0
 43
0.0
 43
0.0
 43
1.0
 43
0.0
 43
0.0
 43
0.0
 43
0.0
 43
1.0
 77
     0
 47
0.0208333333333333
 47
0.0
 47
0.0
 47
0.0
 47
0.0
 47
0.0208333333333333
 47
0.0
 47
0.0
 47
0.0
 47
0.0
 47
1.0
 47
0.0
 47
0.0
 47
0.0
 47
0.0
 47
1.0
171
     0
 49
0.0208333333333333
 49
0.0
 49
0.0
 49
0.0
 49
0.0
 49
0.0208333333333333
 49
0.0
 49
0.0
 49
0.0
 49
0.0
 49
1.0
 49
0.0
 49
0.0
 49
0.0
 49
0.0
 49
1.0
175
     0
142
0.0208333333333333
142
0.0
142
0.0
142
0.0
142
0.0
142
0.0208333333333333
142
0.0
142
0.0
142
0.0
142
0.0
142
1.0
142
0.0
142
0.0
142
0.0
142
0.0
142
1.0
179
     0
144
0.0208333333333333
144
0.0
144
0.0
144
0.0
144
0.0
144
0.0208333333333333
144
0.0
144
0.0
144
0.0
144
0.0
144
1.0
144
0.0
144
0.0
144
0.0
144
0.0
144
1.0
147
0.0208333333333333
147
0.0
147
0.0
147
0.0
147
0.0
147
0.0208333333333333
147
0.0
147
0.0
147
0.0
147
0.0
147
1.0
147
0.0
147
0.0
147
0.0
147
0.0
147
1.0
  0
MATERIAL
  5
96D1
102
{ACAD_XDICTIONARY
360
96D2
102
}
102
{ACAD_REACTORS
330
96C0
102
}
330
96C0
100
AcDbMaterial
  1
Global
 72
     0
 43
0.0208333333333333
 43
0.0
 43
0.0
 43
0.0
 43
0.0
 43
0.0208333333333333
 43
0.0
 43
0.0
 43
0.0
 43
0.0
 43
1.0
 43
0.0
 43
0.0
 43
0.0
 43
0.0
 43
1.0
 77
     0
 47
0.0208333333333333
 47
0.0
 47
0.0
 47
0.0
 47
0.0
 47
0.0208333333333333
 47
0.0
 47
0.0
 47
0.0
 47
0.0
 47
1.0
 47
0.0
 47
0.0
 47
0.0
 47
0.0
 47
1.0
171
     0
 49
0.0208333333333333
 49
0.0
 49
0.0
 49
0.0
 49
0.0
 49
0.0208333333333333
 49
0.0
 49
0.0
 49
0.0
 49
0.0
 49
1.0
 49
0.0
 49
0.0
 49
0.0
 49
0.0
 49
1.0
175
     0
142
0.0208333333333333
142
0.0
142
0.0
142
0.0
142
0.0
142
0.0208333333333333
142
0.0
142
0.0
142
0.0
142
0.0
142
1.0
142
0.0
142
0.0
142
0.0
142
0.0
142
1.0
179
     0
144
0.0208333333333333
144
0.0
144
0.0
144
0.0
144
0.0
144
0.0208333333333333
144
0.0
144
0.0
144
0.0
144
0.0
144
1.0
144
0.0
144
0.0
144
0.0
144
0.0
144
1.0
147
0.0208333333333333
147
0.0
147
0.0
147
0.0
147
0.0
147
0.0208333333333333
147
0.0
147
0.0
147
0.0
147
0.0
147
1.0
147
0.0
147
0.0
147
0.0
147
0.0
147
1.0
  0
MLEADERSTYLE
  5
9708
102
{ACAD_REACTORS
330
9707
102
}
330
9707
100
AcDbMLeaderStyle
170
     2
171
     1
172
     0
 90
        2
 40
0.0
 41
0.0
173
     1
 91
-1056964608
340
93FA
 92
       -2
290
     1
 42
0.09
291
     1
 43
0.36
  3
Standard
 44
0.18
300

342
93F8
174
     1
178
     6
175
     1
176
     0
 93
-1056964608
 45
0.18
292
     0
297
     0
 46
0.18
 94
-1056964608
 47
1.0
 49
1.0
140
1.0
293
     1
141
0.0
294
     1
177
     0
142
1.0
295
     0
296
     0
143
0.125
1001
ACAD_MLEADERVER
1070
     2
  0
MLINESTYLE
  5
93FE
102
{ACAD_REACTORS
330
93FD
102
}
330
93FD
100
AcDbMlineStyle
  2
STANDARD
 70
     0
  3

 62
   256
 51
90.0
 52
90.0
 71
     2
 49
0.5
 62
   256
  6
BYLAYER
 49
-0.5
 62
   256
  6
BYLAYER
  0
ACDBPLACEHOLDER
  5
96BF
102
{ACAD_REACTORS
330
96BE
102
}
330
96BE
  0
SCALE
  5
96F6
102
{ACAD_REACTORS
330
96F5
102
}
330
96F5
100
AcDbScale
 70
     0
300
1:1
140
1.0
141
1.0
290
     1
  0
SCALE
  5
96F7
102
{ACAD_REACTORS
330
96F5
102
}
330
96F5
100
AcDbScale
 70
     0
300
1/128" = 1'-0"
140
0.0078125
141
12.0
290
     0
  0
SCALE
  5
96F8
102
{ACAD_REACTORS
330
96F5
102
}
330
96F5
100
AcDbScale
 70
     0
300
1/64" = 1'-0"
140
0.015625
141
12.0
290
     0
  0
SCALE
  5
96F9
102
{ACAD_REACTORS
330
96F5
102
}
330
96F5
100
AcDbScale
 70
     0
300
1/32" = 1'-0"
140
0.03125
141
12.0
290
     0
  0
SCALE
  5
96FA
102
{ACAD_REACTORS
330
96F5
102
}
330
96F5
100
AcDbScale
 70
     0
300
1/16" = 1'-0"
140
0.0625
141
12.0
290
     0
  0
SCALE
  5
96FB
102
{ACAD_REACTORS
330
96F5
102
}
330
96F5
100
AcDbScale
 70
     0
300
3/32" = 1'-0"
140
0.09375
141
12.0
290
     0
  0
SCALE
  5
96FC
102
{ACAD_REACTORS
330
96F5
102
}
330
96F5
100
AcDbScale
 70
     0
300
1/8" = 1'-0"
140
0.125
141
12.0
290
     0
  0
SCALE
  5
96FD
102
{ACAD_REACTORS
330
96F5
102
}
330
96F5
100
AcDbScale
 70
     0
300
3/16" = 1'-0"
140
0.1875
141
12.0
290
     0
  0
SCALE
  5
96FE
102
{ACAD_REACTORS
330
96F5
102
}
330
96F5
100
AcDbScale
 70
     0
300
1/4" = 1'-0"
140
0.25
141
12.0
290
     0
  0
SCALE
  5
96FF
102
{ACAD_REACTORS
330
96F5
102
}
330
96F5
100
AcDbScale
 70
     0
300
3/8" = 1'-0"
140
0.375
141
12.0
290
     0
  0
SCALE
  5
9700
102
{ACAD_REACTORS
330
96F5
102
}
330
96F5
100
AcDbScale
 70
     0
300
1/2" = 1'-0"
140
0.5
141
12.0
290
     0
  0
SCALE
  5
9701
102
{ACAD_REACTORS
330
96F5
102
}
330
96F5
100
AcDbScale
 70
     0
300
3/4" = 1'-0"
140
0.75
141
12.0
290
     0
  0
SCALE
  5
9702
102
{ACAD_REACTORS
330
96F5
102
}
330
96F5
100
AcDbScale
 70
     0
300
1" = 1'-0"
140
1.0
141
12.0
290
     0
  0
SCALE
  5
9703
102
{ACAD_REACTORS
330
96F5
102
}
330
96F5
100
AcDbScale
 70
     0
300
1-1/2" = 1'-0"
140
1.5
141
12.0
290
     0
  0
SCALE
  5
9704
102
{ACAD_REACTORS
330
96F5
102
}
330
96F5
100
AcDbScale
 70
     0
300
3" = 1'-0"
140
3.0
141
12.0
290
     0
  0
SCALE
  5
9705
102
{ACAD_REACTORS
330
96F5
102
}
330
96F5
100
AcDbScale
 70
     0
300
6" = 1'-0"
140
6.0
141
12.0
290
     0
  0
SCALE
  5
9706
102
{ACAD_REACTORS
330
96F5
102
}
330
96F5
100
AcDbScale
 70
     0
300
1'-0" = 1'-0"
140
12.0
141
12.0
290
     0
  0
ACDBSECTIONVIEWSTYLE
  5
970A
102
{ACAD_XDICTIONARY
360
9765
102
}
102
{ACAD_REACTORS
330
9709
102
}
330
9709
100
AcDbModelDocViewStyle
 70
     0
  3
Imperial24
290
     0
100
AcDbSectionViewStyle
 70
     0
 71
     0
 90
       78
 71
     1
340
93F8
 40
0.24
340
0
340
0
 40
0.24
300
I, O, Q, S, X, Z
 40
0.48
 90
        3
 40
0.18
 90
        1
 71
     2
340
93FC
 90
       25
340
93FC
 90
       50
 40
0.24
 40
0.0
 40
0.24
 71
     3
340
93F8
 40
0.24
 90
        1
 40
0.75
 90
        1
300
%<\AcVar ViewType \f "%tc1">% %<\AcVar ViewSectionStartId>%-%<\AcVar ViewSectionEndId>%\PSCALE %<\AcVar ViewScale \f "%sn">%
 71
     4
300
ANSI31
 40
1.0
 90
        0
290
     0
290
     0
 90
        6
 40
0.0
 40
1.570796326794896
 40
0.2617993877991494
 40
1.308996938995747
 40
-0.2617993877991494
 40
1.832595714594046
  0
TABLESTYLE
  5
96F4
102
{ACAD_XDICTIONARY
360
972C
102
}
102
{ACAD_REACTORS
330
96F3
102
}
330
96F3
100
AcDbTableStyle
  3
Standard
 70
     0
 71
     0
 40
0.06
 41
0.06
280
     0
281
     0
  7
STANDARD
140
0.18
170
     2
 62
     0
 63
     7
283
     0
274
    -2
284
     1
 64
     0
275
    -2
285
     1
 65
     0
276
    -2
286
     1
 66
     0
277
    -2
287
     1
 67
     0
278
    -2
288
     1
 68
     0
279
    -2
289
     1
 69
     0
  7
STANDARD
140
0.25
170
     5
 62
     0
 63
     7
283
     0
274
    -2
284
     1
 64
     0
275
    -2
285
     1
 65
     0
276
    -2
286
     1
 66
     0
277
    -2
287
     1
 67
     0
278
    -2
288
     1
 68
     0
279
    -2
289
     1
 69
     0
  7
STANDARD
140
0.18
170
     5
 62
     0
 63
     7
283
     0
274
    -2
284
     1
 64
     0
275
    -2
285
     1
 65
     0
276
    -2
286
     1
 66
     0
277
    -2
287
     1
 67
     0
278
    -2
288
     1
 68
     0
279
    -2
289
     1
 69
     0
  0
VISUALSTYLE
  5
96DF
102
{ACAD_XDICTIONARY
360
973D
102
}
102
{ACAD_REACTORS
330
96D9
102
}
330
96D9
100
AcDbVisualStyle
  2
2dWireframe
 70
     4
 71
     0
 72
     2
 73
     0
 90
        0
 40
-0.6
 41
-30.0
 62
     5
 63
     7
 74
     1
 91
        4
 64
     7
 65
   257
 75
     1
175
     1
 42
1.0
 92
        0
 66
   257
 43
1.0
 76
     1
 77
     6
 78
     2
 67
     7
 79
     5
170
     0
171
     0
290
     0
174
     0
 93
        1
 44
0.0
173
     0
291
     0
 45
0.0
1001
ACAD
1000
AcDbSavedByObjectVersion
1070
     0
  0
VISUALSTYLE
  5
96DE
102
{ACAD_XDICTIONARY
360
973B
102
}
102
{ACAD_REACTORS
330
96D9
102
}
330
96D9
100
AcDbVisualStyle
  2
Basic
 70
     7
 71
     1
 72
     0
 73
     1
 90
        0
 40
-0.6
 41
-30.0
 62
     5
 63
     7
 74
     0
 91
        4
 64
     7
 65
   257
 75
     1
175
     1
 42
1.0
 92
        8
 66
     7
 43
1.0
 76
     1
 77
     6
 78
     2
 67
     7
 79
     5
170
     0
171
     0
290
     0
174
     0
 93
        1
 44
0.0
173
     0
291
     1
 45
0.0
1001
ACAD
1000
AcDbSavedByObjectVersion
1070
     0
  0
VISUALSTYLE
  5
96E5
102
{ACAD_XDICTIONARY
360
9749
102
}
102
{ACAD_REACTORS
330
96D9
102
}
330
96D9
100
AcDbVisualStyle
  2
Brighten
 70
    12
 71
     2
 72
     2
 73
     0
 90
        0
 40
-0.6
 41
-30.0
 62
     5
 63
     7
 74
     1
 91
        4
 64
     7
 65
   257
 75
     1
175
     1
 42
1.0
 92
        8
 66
     7
 43
1.0
 76
     1
 77
     6
 78
     2
 67
     7
 79
     5
170
     0
171
     0
290
     0
174
     0
 93
        1
 44
50.0
173
     0
291
     1
 45
0.0
1001
ACAD
1000
AcDbSavedByObjectVersion
1070
     0
  0
VISUALSTYLE
  5
96E9
102
{ACAD_XDICTIONARY
360
9751
102
}
102
{ACAD_REACTORS
330
96D9
102
}
330
96D9
100
AcDbVisualStyle
  2
ColorChange
 70
    16
 71
     2
 72
     2
 73
     3
 90
        0
 40
-0.6
 41
-30.0
 62
     5
 63
     8
 74
     1
 91
        4
 64
     7
 65
   257
 75
     1
175
     1
 42
1.0
 92
        8
 66
     8
 43
1.0
 76
     1
 77
     6
 78
     2
 67
     7
 79
     5
170
     0
171
     0
290
     0
174
     0
 93
        1
 44
0.0
173
     0
291
     1
 45
0.0
1001
ACAD
1000
AcDbSavedByObjectVersion
1070
     0
  0
VISUALSTYLE
  5
96E2
102
{ACAD_XDICTIONARY
360
9743
102
}
102
{ACAD_REACTORS
330
96D9
102
}
330
96D9
100
AcDbVisualStyle
  2
Conceptual
 70
     9
 71
     3
 72
     2
 73
     0
 90
        0
 40
-0.6
 41
-30.0
 62
     5
 63
     7
 74
     2
 91
        2
 64
     7
 65
   257
 75
     1
175
     1
 42
179.0
 92
        8
 66
     7
 43
1.0
 76
     1
 77
     6
 78
     2
 67
     7
 79
     3
170
     0
171
     0
290
     0
174
     0
 93
        1
 44
0.0
173
     0
291
     0
 45
0.0
1001
ACAD
1000
AcDbSavedByObjectVersion
1070
     0
  0
VISUALSTYLE
  5
96E4
102
{ACAD_XDICTIONARY
360
9747
102
}
102
{ACAD_REACTORS
330
96D9
102
}
330
96D9
100
AcDbVisualStyle
  2
Dim
 70
    11
 71
     2
 72
     2
 73
     0
 90
        0
 40
-0.6
 41
-30.0
 62
     5
 63
     7
 74
     1
 91
        4
 64
     7
 65
   257
 75
     1
175
     1
 42
1.0
 92
        8
 66
     7
 43
1.0
 76
     1
 77
     6
 78
     2
 67
     7
 79
     5
170
     0
171
     0
290
     0
174
     0
 93
        1
 44
-50.0
173
     0
291
     1
 45
0.0
1001
ACAD
1000
AcDbSavedByObjectVersion
1070
     0
  0
VISUALSTYLE
  5
96F1
102
{ACAD_XDICTIONARY
360
9761
102
}
102
{ACAD_REACTORS
330
96D9
102
}
330
96D9
100
AcDbVisualStyle
  2
EdgeColorOff
 70
    22
 71
     2
 72
     2
 73
     0
 90
        0
 40
-0.6
 41
-30.0
 62
     5
 63
     7
 74
     1
 91
        4
 64
     7
 65
   257
 75
     1
175
     1
 42
1.0
 92
        8
 66
     7
 43
1.0
 76
     1
 77
     6
 78
     2
 67
     7
 79
     5
170
     0
171
     0
290
     0
174
     0
 93
        1
 44
0.0
173
     0
291
     1
 45
0.0
1001
ACAD
1000
AcDbSavedByObjectVersion
1070
     0
  0
VISUALSTYLE
  5
96E8
102
{ACAD_XDICTIONARY
360
974F
102
}
102
{ACAD_REACTORS
330
96D9
102
}
330
96D9
100
AcDbVisualStyle
  2
Facepattern
 70
    15
 71
     2
 72
     2
 73
     0
 90
        0
 40
-0.6
 41
-30.0
 62
     5
 63
     7
 74
     1
 91
        4
 64
     7
 65
   257
 75
     1
175
     1
 42
1.0
 92
        8
 66
     7
 43
1.0
 76
     1
 77
     6
 78
     2
 67
     7
 79
     5
170
     0
171
     0
290
     0
174
     0
 93
        1
 44
0.0
173
     0
291
     1
 45
0.0
1001
ACAD
1000
AcDbSavedByObjectVersion
1070
     0
  0
VISUALSTYLE
  5
96DA
102
{ACAD_XDICTIONARY
360
9733
102
}
102
{ACAD_REACTORS
330
96D9
102
}
330
96D9
100
AcDbVisualStyle
  2
Flat
 70
     0
 71
     2
 72
     1
 73
     1
 90
        2
 40
-0.6
 41
30.0
 62
     5
 63
     7
 74
     0
 91
        0
 64
     7
 65
   257
 75
     1
175
     1
 42
1.0
 92
        8
 66
     7
 43
1.0
 76
     1
 77
     6
 78
     2
 67
     7
 79
     5
170
     0
171
     0
290
     0
174
     0
 93
       13
 44
0.0
173
     0
291
     1
 45
0.0
1001
ACAD
1000
AcDbSavedByObjectVersion
1070
     0
  0
VISUALSTYLE
  5
96DB
102
{ACAD_XDICTIONARY
360
9735
102
}
102
{ACAD_REACTORS
330
96D9
102
}
330
96D9
100
AcDbVisualStyle
  2
FlatWithEdges
 70
     1
 71
     2
 72
     1
 73
     1
 90
        2
 40
-0.6
 41
30.0
 62
     5
 63
     7
 74
     1
 91
        0
 64
     7
 65
   257
 75
     1
175
     1
 42
1.0
 92
        0
 66
   257
 43
1.0
 76
     1
 77
     6
 78
     2
 67
     7
 79
     5
170
     0
171
     0
290
     0
174
     0
 93
       13
 44
0.0
173
     0
291
     1
 45
0.0
1001
ACAD
1000
AcDbSavedByObjectVersion
1070
     0
  0
VISUALSTYLE
  5
96DC
102
{ACAD_XDICTIONARY
360
9737
102
}
102
{ACAD_REACTORS
330
96D9
102
}
330
96D9
100
AcDbVisualStyle
  2
Gouraud
 70
     2
 71
     2
 72
     2
 73
     1
 90
        2
 40
-0.6
 41
30.0
 62
     5
 63
     7
 74
     0
 91
        0
 64
     7
 65
   257
 75
     1
175
     1
 42
1.0
 92
        0
 66
     7
 43
1.0
 76
     1
 77
     6
 78
     2
 67
     7
 79
     5
170
     0
171
     0
290
     0
174
     0
 93
       13
 44
0.0
173
     0
291
     1
 45
0.0
1001
ACAD
1000
AcDbSavedByObjectVersion
1070
     0
  0
VISUALSTYLE
  5
96DD
102
{ACAD_XDICTIONARY
360
9739
102
}
102
{ACAD_REACTORS
330
96D9
102
}
330
96D9
100
AcDbVisualStyle
  2
GouraudWithEdges
 70
     3
 71
     2
 72
     2
 73
     1
 90
        2
 40
-0.6
 41
30.0
 62
     5
 63
     7
 74
     1
 91
        0
 64
     7
 65
   257
 75
     1
175
     1
 42
1.0
 92
        0
 66
   257
 43
1.0
 76
     1
 77
     6
 78
     2
 67
     7
 79
     5
170
     0
171
     0
290
     0
174
     0
 93
       13
 44
0.0
173
     0
291
     1
 45
0.0
1001
ACAD
1000
AcDbSavedByObjectVersion
1070
     0
  0
VISUALSTYLE
  5
96E1
102
{ACAD_XDICTIONARY
360
9741
102
}
102
{ACAD_REACTORS
330
96D9
102
}
330
96D9
100
AcDbVisualStyle
  2
Hidden
 70
     6
 71
     1
 72
     2
 73
     2
 90
        0
 40
-0.6
 41
-30.0
 62
     5
 63
     7
 74
     2
 91
        2
 64
     7
 65
   257
 75
     2
175
     1
 42
40.0
 92
        0
 66
   257
 43
1.0
 76
     1
 77
     6
 78
     2
 67
     7
 79
     3
170
     0
171
     0
290
     0
174
     0
 93
        1
 44
0.0
173
     0
291
     0
 45
0.0
1001
ACAD
1000
AcDbSavedByObjectVersion
1070
     0
  0
VISUALSTYLE
  5
96EF
102
{ACAD_XDICTIONARY
360
975D
102
}
102
{ACAD_REACTORS
330
96D9
102
}
330
96D9
100
AcDbVisualStyle
  2
JitterOff
 70
    20
 71
     2
 72
     2
 73
     0
 90
        0
 40
-0.6
 41
-30.0
 62
     5
 63
     7
 74
     1
 91
        4
 64
     7
 65
   257
 75
     1
175
     1
 42
1.0
 92
       10
 66
     7
 43
1.0
 76
     1
 77
     6
 78
     2
 67
     7
 79
     5
170
     0
171
     0
290
     0
174
     0
 93
        1
 44
0.0
173
     0
291
     1
 45
0.0
1001
ACAD
1000
AcDbSavedByObjectVersion
1070
     0
  0
VISUALSTYLE
  5
96E7
102
{ACAD_XDICTIONARY
360
974D
102
}
102
{ACAD_REACTORS
330
96D9
102
}
330
96D9
100
AcDbVisualStyle
  2
Linepattern
 70
    14
 71
     2
 72
     2
 73
     0
 90
        0
 40
-0.6
 41
-30.0
 62
     5
 63
     7
 74
     1
 91
        4
 64
     7
 65
   257
 75
     7
175
     7
 42
1.0
 92
        8
 66
     7
 43
1.0
 76
     1
 77
     6
 78
     2
 67
     7
 79
     5
170
     0
171
     0
290
     0
174
     0
 93
        1
 44
0.0
173
     0
291
     1
 45
0.0
1001
ACAD
1000
AcDbSavedByObjectVersion
1070
     0
  0
VISUALSTYLE
  5
96F0
102
{ACAD_XDICTIONARY
360
975F
102
}
102
{ACAD_REACTORS
330
96D9
102
}
330
96D9
100
AcDbVisualStyle
  2
OverhangOff
 70
    21
 71
     2
 72
     2
 73
     0
 90
        0
 40
-0.6
 41
-30.0
 62
     5
 63
     7
 74
     1
 91
        4
 64
     7
 65
   257
 75
     1
175
     1
 42
1.0
 92
        9
 66
     7
 43
1.0
 76
     1
 77
     6
 78
     2
 67
     7
 79
     5
170
     0
171
     0
290
     0
174
     0
 93
        1
 44
0.0
173
     0
291
     1
 45
0.0
1001
ACAD
1000
AcDbSavedByObjectVersion
1070
     0
  0
VISUALSTYLE
  5
96E3
102
{ACAD_XDICTIONARY
360
9745
102
}
102
{ACAD_REACTORS
330
96D9
102
}
330
96D9
100
AcDbVisualStyle
  2
Realistic
 70
     8
 71
     2
 72
     3
 73
     0
 90
        2
 40
-0.6
 41
30.0
 62
     5
 63
     7
 74
     0
 91
        0
 64
     7
 65
   257
 75
     1
175
     1
 42
1.0
 92
        8
 66
   257
 43
1.0
 76
     1
 77
     6
 78
     2
 67
     7
 79
     3
170
     0
171
     0
290
     0
174
     0
 93
       13
 44
0.0
173
     0
291
     0
 45
0.0
1001
ACAD
1000
AcDbSavedByObjectVersion
1070
     0
  0
VISUALSTYLE
  5
96EE
102
{ACAD_XDICTIONARY
360
975B
102
}
102
{ACAD_REACTORS
330
96D9
102
}
330
96D9
100
AcDbVisualStyle
  2
Shaded
 70
    27
 71
     2
 72
     2
 73
     1
 90
        2
 40
-0.6
 41
30.0
 62
     5
 63
     7
 74
     0
 91
        4
 64
     7
 65
   257
 75
     1
175
     1
 42
1.0
 92
        8
 66
   257
 43
1.0
 76
     1
 77
     6
 78
     2
 67
     8
 79
     3
170
     0
171
     0
290
     0
174
     0
 93
        5
 44
0.0
173
     0
291
     0
 45
0.0
1001
ACAD
1000
AcDbSavedByObjectVersion
1070
     0
  0
VISUALSTYLE
  5
96ED
102
{ACAD_XDICTIONARY
360
9759
102
}
102
{ACAD_REACTORS
330
96D9
102
}
330
96D9
100
AcDbVisualStyle
  2
Shaded with edges
 70
    26
 71
     2
 72
     2
 73
     1
 90
        2
 40
-0.6
 41
30.0
 62
     5
 63
     7
 74
     1
 91
       10
 64
     7
 65
   257
 75
     2
175
     1
 42
1.0
 92
        8
 66
   257
 43
1.0
 76
     1
 77
     6
 78
     2
 67
     7
 79
     3
170
     0
171
     0
290
     0
174
     0
 93
        5
 44
0.0
173
     0
291
     0
 45
0.0
1001
ACAD
1000
AcDbSavedByObjectVersion
1070
     0
  0
VISUALSTYLE
  5
96EA
102
{ACAD_XDICTIONARY
360
9753
102
}
102
{ACAD_REACTORS
330
96D9
102
}
330
96D9
100
AcDbVisualStyle
  2
Shades of Gray
 70
    23
 71
     2
 72
     2
 73
     3
 90
        0
 40
-0.6
 41
-30.0
 62
     5
 63
     7
 74
     2
 91
        2
 64
     7
 65
     7
 75
     1
175
     1
 42
40.0
 92
        8
 66
     7
 43
1.0
 76
     1
 77
     6
 78
     2
 67
     7
 79
     3
170
     0
171
     0
290
     0
174
     0
 93
        1
 44
0.0
173
     0
291
     0
 45
0.0
1001
ACAD
1000
AcDbSavedByObjectVersion
1070
     0
  0
VISUALSTYLE
  5
96EB
102
{ACAD_XDICTIONARY
360
9755
102
}
102
{ACAD_REACTORS
330
96D9
102
}
330
96D9
100
AcDbVisualStyle
  2
Sketchy
 70
    24
 71
     1
 72
     2
 73
     2
 90
        0
 40
-0.6
 41
-30.0
 62
     5
 63
     7
 74
     2
 91
        2
 64
     7
 65
     7
 75
     1
175
     1
 42
40.0
 92
       11
 66
     7
 43
1.0
 76
     1
 77
     6
 78
     2
 67
     7
 79
     6
170
     0
171
     0
290
     0
174
     0
 93
        1
 44
0.0
173
     0
291
     0
 45
0.0
1001
ACAD
1000
AcDbSavedByObjectVersion
1070
     0
  0
VISUALSTYLE
  5
96E6
102
{ACAD_XDICTIONARY
360
974B
102
}
102
{ACAD_REACTORS
330
96D9
102
}
330
96D9
100
AcDbVisualStyle
  2
Thicken
 70
    13
 71
     2
 72
     2
 73
     0
 90
        0
 40
-0.6
 41
-30.0
 62
     5
 63
     7
 74
     1
 91
        4
 64
     7
 65
   257
 75
     1
175
     1
 42
1.0
 92
       12
 66
     7
 43
1.0
 76
     1
 77
     6
 78
     2
 67
     7
 79
     5
170
     0
171
     0
290
     0
174
     0
 93
        1
 44
0.0
173
     0
291
     1
 45
0.0
1001
ACAD
1000
AcDbSavedByObjectVersion
1070
     0
  0
VISUALSTYLE
  5
96E0
102
{ACAD_XDICTIONARY
360
973F
102
}
102
{ACAD_REACTORS
330
96D9
102
}
330
96D9
100
AcDbVisualStyle
  2
Wireframe
 70
     5
 71
     0
 72
     2
 73
     0
 90
        0
 40
-0.6
 41
-30.0
 62
     5
 63
     7
 74
     1
 91
        4
 64
     7
 65
   257
 75
     1
175
     1
 42
1.0
 92
        0
 66
   257
 43
1.0
 76
     1
 77
     6
 78
     2
 67
     7
 79
     3
170
     0
171
     0
290
     0
174
     0
 93
        1
 44
0.0
173
     0
291
     0
 45
0.0
1001
ACAD
1000
AcDbSavedByObjectVersion
1070
     0
  0
VISUALSTYLE
  5
96EC
102
{ACAD_XDICTIONARY
360
9757
102
}
102
{ACAD_REACTORS
330
96D9
102
}
330
96D9
100
AcDbVisualStyle
  2
X-Ray
 70
    25
 71
     2
 72
     2
 73
     1
 90
        1
 40
0.5
 41
-30.0
 62
     5
 63
     7
 74
     1
 91
        0
 64
     7
 65
   257
 75
     1
175
     1
 42
1.0
 92
        8
 66
     7
 43
1.0
 76
     1
 77
     6
 78
     2
 67
     7
 79
     3
170
     0
171
     0
290
     0
174
     0
 93
       13
 44
0.0
173
     0
291
     0
 45
0.0
1001
ACAD
1000
AcDbSavedByObjectVersion
1070
     0
  0
DICTIONARYVAR
  5
9726
102
{ACAD_REACTORS
330
9721
102
}
330
9721
100
DictionaryVariables
280
     0
  1
1:1
  0
DICTIONARYVAR
  5
9723
102
{ACAD_REACTORS
330
9721
102
}
330
9721
100
DictionaryVariables
280
     0
  1
STANDARD
  0
DICTIONARYVAR
  5
9722
102
{ACAD_REACTORS
330
9721
102
}
330
9721
100
DictionaryVariables
280
     0
  1
STANDARD
  0
DICTIONARYVAR
  5
9724
102
{ACAD_REACTORS
330
9721
102
}
330
9721
100
DictionaryVariables
280
     0
  1
Imperial24
  0
DICTIONARYVAR
  5
9725
102
{ACAD_REACTORS
330
9721
102
}
330
9721
100
DictionaryVariables
280
     0
  1
Imperial24
  0
DICTIONARYVAR
  5
9729
102
{ACAD_REACTORS
330
9721
102
}
330
9721
100
DictionaryVariables
280
     0
  1
1
  0
DICTIONARYVAR
  5
9728
102
{ACAD_REACTORS
330
9721
102
}
330
9721
100
DictionaryVariables
280
     0
  1
0
  0
DICTIONARYVAR
  5
9727
102
{ACAD_REACTORS
330
9721
102
}
330
9721
100
DictionaryVariables
280
     0
  1
127
  0
DICTIONARYVAR
  5
972A
102
{ACAD_REACTORS
330
9721
102
}
330
9721
100
DictionaryVariables
280
     0
  1
2
  0
DICTIONARY
  5
9767
330
970C
100
AcDbDictionary
280
     1
281
     1
  3
ACAD_XREC_ROUNDTRIP
360
9768
  0
DICTIONARY
  5
9769
330
970D
100
AcDbDictionary
280
     1
281
     1
  3
ACAD_XREC_ROUNDTRIP
360
976A
  0
DICTIONARY
  5
976B
330
970E
100
AcDbDictionary
280
     1
281
     1
  3
ACAD_XREC_ROUNDTRIP
360
976C
  0
DICTIONARY
  5
96CA
330
96C9
100
AcDbDictionary
280
     1
281
     1
  3
ACAD_XREC_ROUNDTRIP
360
9731
  3
BUMPTILE
360
96CC
  3
DIFFUSETILE
360
96CB
  3
OPACITYTILE
360
96CF
  3
REFLECTIONTILE
360
96CE
  3
REFRACTIONTILE
360
96D0
  3
SPECULARTILE
360
96CD
  0
DICTIONARY
  5
96C2
330
96C1
100
AcDbDictionary
280
     1
281
     1
  3
ACAD_XREC_ROUNDTRIP
360
9730
  3
BUMPTILE
360
96C4
  3
DIFFUSETILE
360
96C3
  3
OPACITYTILE
360
96C7
  3
REFLECTIONTILE
360
96C6
  3
REFRACTIONTILE
360
96C8
  3
SPECULARTILE
360
96C5
  0
DICTIONARY
  5
96D2
330
96D1
100
AcDbDictionary
280
     1
281
     1
  3
ACAD_XREC_ROUNDTRIP
360
9732
  3
BUMPTILE
360
96D4
  3
DIFFUSETILE
360
96D3
  3
OPACITYTILE
360
96D7
  3
REFLECTIONTILE
360
96D6
  3
REFRACTIONTILE
360
96D8
  3
SPECULARTILE
360
96D5
  0
DICTIONARY
  5
9765
330
970A
100
AcDbDictionary
280
     1
281
     1
  3
ACAD_XREC_ROUNDTRIP
360
9766
  0
DICTIONARY
  5
972C
330
96F4
100
AcDbDictionary
280
     1
281
     1
  3
ACAD_ROUNDTRIP_2008_TABLESTYLE_CELLSTYLEMAP
360
972D
  3
ACAD_XREC_ROUNDTRIP
360
9763
  0
DICTIONARY
  5
973D
330
96DF
100
AcDbDictionary
280
     1
281
     1
  3
ACAD_XREC_ROUNDTRIP
360
973E
  0
DICTIONARY
  5
973B
330
96DE
100
AcDbDictionary
280
     1
281
     1
  3
ACAD_XREC_ROUNDTRIP
360
973C
  0
DICTIONARY
  5
9749
330
96E5
100
AcDbDictionary
280
     1
281
     1
  3
ACAD_XREC_ROUNDTRIP
360
974A
  0
DICTIONARY
  5
9751
330
96E9
100
AcDbDictionary
280
     1
281
     1
  3
ACAD_XREC_ROUNDTRIP
360
9752
  0
DICTIONARY
  5
9743
330
96E2
100
AcDbDictionary
280
     1
281
     1
  3
ACAD_XREC_ROUNDTRIP
360
9744
  0
DICTIONARY
  5
9747
330
96E4
100
AcDbDictionary
280
     1
281
     1
  3
ACAD_XREC_ROUNDTRIP
360
9748
  0
DICTIONARY
  5
9761
330
96F1
100
AcDbDictionary
280
     1
281
     1
  3
ACAD_XREC_ROUNDTRIP
360
9762
  0
DICTIONARY
  5
974F
330
96E8
100
AcDbDictionary
280
     1
281
     1
  3
ACAD_XREC_ROUNDTRIP
360
9750
  0
DICTIONARY
  5
9733
330
96DA
100
AcDbDictionary
280
     1
281
     1
  3
ACAD_XREC_ROUNDTRIP
360
9734
  0
DICTIONARY
  5
9735
330
96DB
100
AcDbDictionary
280
     1
281
     1
  3
ACAD_XREC_ROUNDTRIP
360
9736
  0
DICTIONARY
  5
9737
330
96DC
100
AcDbDictionary
280
     1
281
     1
  3
ACAD_XREC_ROUNDTRIP
360
9738
  0
DICTIONARY
  5
9739
330
96DD
100
AcDbDictionary
280
     1
281
     1
  3
ACAD_XREC_ROUNDTRIP
360
973A
  0
DICTIONARY
  5
9741
330
96E1
100
AcDbDictionary
280
     1
281
     1
  3
ACAD_XREC_ROUNDTRIP
360
9742
  0
DICTIONARY
  5
975D
330
96EF
100
AcDbDictionary
280
     1
281
     1
  3
ACAD_XREC_ROUNDTRIP
360
975E
  0
DICTIONARY
  5
974D
330
96E7
100
AcDbDictionary
280
     1
281
     1
  3
ACAD_XREC_ROUNDTRIP
360
974E
  0
DICTIONARY
  5
975F
330
96F0
100
AcDbDictionary
280
     1
281
     1
  3
ACAD_XREC_ROUNDTRIP
360
9760
  0
DICTIONARY
  5
9745
330
96E3
100
AcDbDictionary
280
     1
281
     1
  3
ACAD_XREC_ROUNDTRIP
360
9746
  0
DICTIONARY
  5
975B
330
96EE
100
AcDbDictionary
280
     1
281
     1
  3
ACAD_XREC_ROUNDTRIP
360
975C
  0
DICTIONARY
  5
9759
330
96ED
100
AcDbDictionary
280
     1
281
     1
  3
ACAD_XREC_ROUNDTRIP
360
975A
  0
DICTIONARY
  5
9753
330
96EA
100
AcDbDictionary
280
     1
281
     1
  3
ACAD_XREC_ROUNDTRIP
360
9754
  0
DICTIONARY
  5
9755
330
96EB
100
AcDbDictionary
280
     1
281
     1
  3
ACAD_XREC_ROUNDTRIP
360
9756
  0
DICTIONARY
  5
974B
330
96E6
100
AcDbDictionary
280
     1
281
     1
  3
ACAD_XREC_ROUNDTRIP
360
974C
  0
DICTIONARY
  5
973F
330
96E0
100
AcDbDictionary
280
     1
281
     1
  3
ACAD_XREC_ROUNDTRIP
360
9740
  0
DICTIONARY
  5
9757
330
96EC
100
AcDbDictionary
280
     1
281
     1
  3
ACAD_XREC_ROUNDTRIP
360
9758
  0
XRECORD
  5
9768
102
{ACAD_REACTORS
330
9767
102
}
330
9767
100
AcDbXrecord
280
     1
102
DISPLAYNAME
  1
Imperial24
102
FLAGS
 90
        0
  0
XRECORD
  5
976A
102
{ACAD_REACTORS
330
9769
102
}
330
9769
100
AcDbXrecord
280
     1
102
SHADEPLOT
 70
     0
102
SHADEPLOTRESLEVEL
 70
     2
102
SHADEPLOTCUSTOMDPI
 70
   300
  0
XRECORD
  5
976C
102
{ACAD_REACTORS
330
976B
102
}
330
976B
100
AcDbXrecord
280
     1
102
SHADEPLOT
 70
     0
102
SHADEPLOTRESLEVEL
 70
     2
102
SHADEPLOTCUSTOMDPI
 70
   300
  0
XRECORD
  5
9731
102
{ACAD_REACTORS
330
96CA
102
}
330
96CA
100
AcDbXrecord
280
     1
102
MATERIAL
148
0.0
149
0.0
149
0.0
 93
        0
 94
      127
282
     0
 72
     0
 77
     0
171
     0
175
     0
179
     0
273
     0
  0
XRECORD
  5
96CC
102
{ACAD_REACTORS
330
96CA
102
}
330
96CA
100
AcDbXrecord
280
     1
270
     1
271
     1
  0
XRECORD
  5
96CB
102
{ACAD_REACTORS
330
96CA
102
}
330
96CA
100
AcDbXrecord
280
     1
270
     1
271
     1
  0
XRECORD
  5
96CF
102
{ACAD_REACTORS
330
96CA
102
}
330
96CA
100
AcDbXrecord
280
     1
270
     1
271
     1
  0
XRECORD
  5
96CE
102
{ACAD_REACTORS
330
96CA
102
}
330
96CA
100
AcDbXrecord
280
     1
270
     1
271
     1
  0
XRECORD
  5
96D0
102
{ACAD_REACTORS
330
96CA
102
}
330
96CA
100
AcDbXrecord
280
     1
270
     1
271
     1
  0
XRECORD
  5
96CD
102
{ACAD_REACTORS
330
96CA
102
}
330
96CA
100
AcDbXrecord
280
     1
270
     1
271
     1
  0
XRECORD
  5
9730
102
{ACAD_REACTORS
330
96C2
102
}
330
96C2
100
AcDbXrecord
280
     1
102
MATERIAL
148
0.0
149
0.0
149
0.0
 93
        0
 94
      127
282
     0
 72
     0
 77
     0
171
     0
175
     0
179
     0
273
     0
  0
XRECORD
  5
96C4
102
{ACAD_REACTORS
330
96C2
102
}
330
96C2
100
AcDbXrecord
280
     1
270
     1
271
     1
  0
XRECORD
  5
96C3
102
{ACAD_REACTORS
330
96C2
102
}
330
96C2
100
AcDbXrecord
280
     1
270
     1
271
     1
  0
XRECORD
  5
96C7
102
{ACAD_REACTORS
330
96C2
102
}
330
96C2
100
AcDbXrecord
280
     1
270
     1
271
     1
  0
XRECORD
  5
96C6
102
{ACAD_REACTORS
330
96C2
102
}
330
96C2
100
AcDbXrecord
280
     1
270
     1
271
     1
  0
XRECORD
  5
96C8
102
{ACAD_REACTORS
330
96C2
102
}
330
96C2
100
AcDbXrecord
280
     1
270
     1
271
     1
  0
XRECORD
  5
96C5
102
{ACAD_REACTORS
330
96C2
102
}
330
96C2
100
AcDbXrecord
280
     1
270
     1
271
     1
  0
XRECORD
  5
9732
102
{ACAD_REACTORS
330
96D2
102
}
330
96D2
100
AcDbXrecord
280
     1
102
MATERIAL
148
0.0
149
0.0
149
0.0
 93
        0
 94
      127
282
     0
 72
     0
 77
     0
171
     0
175
     0
179
     0
273
     0
  0
XRECORD
  5
96D4
102
{ACAD_REACTORS
330
96D2
102
}
330
96D2
100
AcDbXrecord
280
     1
270
     1
271
     1
  0
XRECORD
  5
96D3
102
{ACAD_REACTORS
330
96D2
102
}
330
96D2
100
AcDbXrecord
280
     1
270
     1
271
     1
  0
XRECORD
  5
96D7
102
{ACAD_REACTORS
330
96D2
102
}
330
96D2
100
AcDbXrecord
280
     1
270
     1
271
     1
  0
XRECORD
  5
96D6
102
{ACAD_REACTORS
330
96D2
102
}
330
96D2
100
AcDbXrecord
280
     1
270
     1
271
     1
  0
XRECORD
  5
96D8
102
{ACAD_REACTORS
330
96D2
102
}
330
96D2
100
AcDbXrecord
280
     1
270
     1
271
     1
  0
XRECORD
  5
96D5
102
{ACAD_REACTORS
330
96D2
102
}
330
96D2
100
AcDbXrecord
280
     1
270
     1
271
     1
  0
XRECORD
  5
9766
102
{ACAD_REACTORS
330
9765
102
}
330
9765
100
AcDbXrecord
280
     1
102
DISPLAYNAME
  1
Imperial24
102
FLAGS
 90
        0
  0
CELLSTYLEMAP
  5
972D
102
{ACAD_REACTORS
330
972C
102
}
330
972C
100
AcDbCellStyleMap
 90
        3
300
CELLSTYLE
  1
TABLEFORMAT_BEGIN
 90
        5
170
     1
 91
        0
 92
    32768
 62
   257
 93
        1
300
CONTENTFORMAT
  1
CONTENTFORMAT_BEGIN
 90
        0
 91
        0
 92
      512
 93
        0
300

 40
0.0
140
1.0
 94
        5
 62
     0
340
93F8
144
0.25
309
CONTENTFORMAT_END
171
     0
 94
        0
309
TABLEFORMAT_END
  1
CELLSTYLE_BEGIN
 90
        1
 91
        1
300
_TITLE
309
CELLSTYLE_END
300
CELLSTYLE
  1
TABLEFORMAT_BEGIN
 90
        5
170
     1
 91
        0
 92
        0
 62
   257
 93
        1
300
CONTENTFORMAT
  1
CONTENTFORMAT_BEGIN
 90
        0
 91
        0
 92
      512
 93
        0
300

 40
0.0
140
1.0
 94
        5
 62
     0
340
93F8
144
0.18
309
CONTENTFORMAT_END
171
     0
 94
        0
309
TABLEFORMAT_END
  1
CELLSTYLE_BEGIN
 90
        2
 91
        1
300
_HEADER
309
CELLSTYLE_END
300
CELLSTYLE
  1
TABLEFORMAT_BEGIN
 90
        5
170
     1
 91
        0
 92
        0
 62
   257
 93
        1
300
CONTENTFORMAT
  1
CONTENTFORMAT_BEGIN
 90
        0
 91
        0
 92
      512
 93
        0
300

 40
0.0
140
1.0
 94
        2
 62
     0
340
93F8
144
0.18
309
CONTENTFORMAT_END
171
     0
 94
        0
309
TABLEFORMAT_END
  1
CELLSTYLE_BEGIN
 90
        3
 91
        2
300
_DATA
309
CELLSTYLE_END
  0
XRECORD
  5
9763
102
{ACAD_REACTORS
330
972C
102
}
330
972C
100
AcDbXrecord
280
     1
102
ACAD_ROUNDTRIP_PRE2007_TABLESTYLE
 90
      512
 91
        0
  1

 92
      512
 93
        0
  2

 94
      512
 95
        0
  3

  0
XRECORD
  5
973E
102
{ACAD_REACTORS
330
973D
102
}
330
973D
100
AcDbXrecord
280
     1
102
RTVSPost2010Prop28
280
     1
102
RTVSPost2010PropOp28
 70
     1
102
RTVSPost2010Prop29
280
     1
102
RTVSPost2010PropOp29
 70
     1
102
RTVSPost2010Prop30
280
     0
102
RTVSPost2010PropOp30
 70
     1
102
RTVSPost2010Prop31
280
     0
102
RTVSPost2010PropOp31
 70
     1
102
RTVSPost2010Prop32
280
     0
102
RTVSPost2010PropOp32
 70
     1
102
RTVSPost2010Prop33
280
     0
102
RTVSPost2010PropOp33
 70
     1
102
RTVSPost2010Prop34
280
     0
102
RTVSPost2010PropOp34
 70
     1
102
RTVSPost2010Prop35
280
     0
102
RTVSPost2010PropOp35
 70
     1
102
RTVSPost2010Prop36
280
     0
102
RTVSPost2010PropOp36
 70
     1
102
RTVSPost2010Prop37
 90
       50
102
RTVSPost2010PropOp37
 70
     1
102
RTVSPost2010Prop38
140
0.0
102
RTVSPost2010PropOp38
 70
     1
102
RTVSPost2010Prop39
140
1.0
102
RTVSPost2010PropOp39
 70
     1
102
RTVSPost2010Prop40
 90
        0
102
RTVSPost2010PropOp40
 70
     1
102
RTVSPost2010Prop41ColorIndex
 90
       18
102
RTVSPost2010Prop41ColorRGB
 90
        0
102
RTVSPost2010PropOp41
 70
     1
102
RTVSPost2010Prop42
 90
       50
102
RTVSPost2010PropOp42
 70
     1
102
RTVSPost2010Prop43
 90
        3
102
RTVSPost2010PropOp43
 70
     1
102
RTVSPost2010Prop44ColorIndex
 90
        5
102
RTVSPost2010Prop44ColorRGB
 90
      255
102
RTVSPost2010PropOp44
 70
     1
102
RTVSPost2010Prop45
280
     0
102
RTVSPost2010PropOp45
 70
     1
102
RTVSPost2010Prop46
 90
       50
102
RTVSPost2010PropOp46
 70
     1
102
RTVSPost2010Prop47
 90
       50
102
RTVSPost2010PropOp47
 70
     1
102
RTVSPost2010Prop48
 90
       50
102
RTVSPost2010PropOp48
 70
     1
102
RTVSPost2010Prop49
280
     0
102
RTVSPost2010PropOp49
 70
     1
102
RTVSPost2010Prop50
 90
       50
102
RTVSPost2010PropOp50
 70
     1
102
RTVSPost2010Prop51ColorIndex
 90
      256
102
RTVSPost2010Prop51ColorRGB
 90
-16777216
102
RTVSPost2010PropOp51
 70
     0
102
RTVSPost2010Prop52
140
1.0
102
RTVSPost2010PropOp52
 70
     0
102
RTVSPost2010Prop53
 90
        2
102
RTVSPost2010PropOp53
 70
     1
102
RTVSPost2010Prop54
  1
strokes_ogs.tif
102
RTVSPost2010PropOp54
 70
     1
102
RTVSPost2010Prop55
280
     0
102
RTVSPost2010PropOp55
 70
     1
102
RTVSPost2010Prop56
140
1.0
102
RTVSPost2010PropOp56
 70
     1
102
RTVSPost2010Prop57
140
1.0
102
RTVSPost2010PropOp57
 70
     1
102
RTVSPropertyOp0
 70
     1
102
RTVSPropertyOp1
 70
     1
102
RTVSPropertyOp2
 70
     1
102
RTVSPropertyOp3
 70
     1
102
RTVSPropertyOp4
 70
     1
102
RTVSPropertyOp5
 70
     1
102
RTVSPropertyOp6
 70
     1
102
RTVSPropertyOp7
 70
     1
102
RTVSPropertyOp8
 70
     1
102
RTVSPropertyOp9
 70
     1
102
RTVSPropertyOp10
 70
     1
102
RTVSPropertyOp11
 70
     1
102
RTVSPropertyOp12
 70
     1
102
RTVSPropertyOp13
 70
     1
102
RTVSPropertyOp14
 70
     1
102
RTVSPropertyOp15
 70
     1
102
RTVSPropertyOp16
 70
     1
102
RTVSPropertyOp17
 70
     1
102
RTVSPropertyOp18
 70
     1
102
RTVSPropertyOp19
 70
     1
102
RTVSPropertyOp20
 70
     1
102
RTVSPropertyOp21
 70
     1
102
RTVSPropertyOp22
 70
     1
102
RTVSPropertyOp23
 70
     1
102
RTVSPropertyOp24
 70
     1
102
RTVSPropertyOp25
 70
     1
102
RTVSPropertyOp26
 70
     1
102
RTVSPropertyOp27
 70
     1
102
RTVSPropertyOp28
 70
     1
102
RTVSPropertyOp29
 70
     1
102
RTVSPropertyOp30
 70
     1
102
RTVSPropertyOp31
 70
     1
102
RTVSPropertyOp32
 70
     1
102
RTVSPropertyOp33
 70
     1
102
RTVSPropertyOp34
 70
     1
102
RTVSPropertyOp35
 70
     1
102
RTVSPropertyOp36
 70
     1
102
RTVSPropertyOp37
 70
     1
102
RTVSPropertyOp38
 70
     1
102
RTVSPropertyOp39
 70
     1
102
RTVSPropertyOp40
 70
     1
102
RTVSPropertyOp41
 70
     1
102
RTVSPropertyOp42
 70
     1
102
RTVSPropertyOp43
 70
     1
102
RTVSPropertyOp44
 70
     1
102
RTVSPropertyOp45
 70
     1
102
RTVSPropertyOp46
 70
     1
102
RTVSPropertyOp47
 70
     1
102
RTVSPropertyOp48
 70
     1
102
RTVSPropertyOp49
 70
     1
102
RTVSPropertyOp50
 70
     1
102
RTVSPropertyOp51
 70
     0
102
RTVSPropertyOp52
 70
     0
102
RTVSPropertyOp53
 70
     1
102
RTVSPropertyOp54
 70
     1
102
RTVSPropertyOp55
 70
     1
102
RTVSPropertyOp56
 70
     1
102
RTVSPropertyOp57
 70
     1
102
RTVSPropertyOp58
 70
     1
102
RTVSPropertyOp59
 70
     1
102
RTVSPropertyOp60
 70
     1
102
RTVSPropertyOp61
 70
     1
102
RTVSPropertyOp62
 70
     1
  0
XRECORD
  5
973C
102
{ACAD_REACTORS
330
973B
102
}
330
973B
100
AcDbXrecord
280
     1
102
RTVSPost2010Prop28
280
     0
102
RTVSPost2010PropOp28
 70
     1
102
RTVSPost2010Prop29
280
     1
102
RTVSPost2010PropOp29
 70
     1
102
RTVSPost2010Prop30
280
     1
102
RTVSPost2010PropOp30
 70
     1
102
RTVSPost2010Prop31
280
     0
102
RTVSPost2010PropOp31
 70
     1
102
RTVSPost2010Prop32
280
     0
102
RTVSPost2010PropOp32
 70
     1
102
RTVSPost2010Prop33
280
     0
102
RTVSPost2010PropOp33
 70
     1
102
RTVSPost2010Prop34
280
     0
102
RTVSPost2010PropOp34
 70
     1
102
RTVSPost2010Prop35
280
     0
102
RTVSPost2010PropOp35
 70
     1
102
RTVSPost2010Prop36
280
     0
102
RTVSPost2010PropOp36
 70
     1
102
RTVSPost2010Prop37
 90
       50
102
RTVSPost2010PropOp37
 70
     1
102
RTVSPost2010Prop38
140
0.0
102
RTVSPost2010PropOp38
 70
     1
102
RTVSPost2010Prop39
140
1.0
102
RTVSPost2010PropOp39
 70
     1
102
RTVSPost2010Prop40
 90
        0
102
RTVSPost2010PropOp40
 70
     1
102
RTVSPost2010Prop41ColorIndex
 90
       18
102
RTVSPost2010Prop41ColorRGB
 90
        0
102
RTVSPost2010PropOp41
 70
     1
102
RTVSPost2010Prop42
 90
       50
102
RTVSPost2010PropOp42
 70
     1
102
RTVSPost2010Prop43
 90
        3
102
RTVSPost2010PropOp43
 70
     1
102
RTVSPost2010Prop44ColorIndex
 90
        5
102
RTVSPost2010Prop44ColorRGB
 90
      255
102
RTVSPost2010PropOp44
 70
     1
102
RTVSPost2010Prop45
280
     0
102
RTVSPost2010PropOp45
 70
     1
102
RTVSPost2010Prop46
 90
       50
102
RTVSPost2010PropOp46
 70
     1
102
RTVSPost2010Prop47
 90
       50
102
RTVSPost2010PropOp47
 70
     1
102
RTVSPost2010Prop48
 90
       50
102
RTVSPost2010PropOp48
 70
     1
102
RTVSPost2010Prop49
280
     0
102
RTVSPost2010PropOp49
 70
     1
102
RTVSPost2010Prop50
 90
       50
102
RTVSPost2010PropOp50
 70
     1
102
RTVSPost2010Prop51ColorIndex
 90
      256
102
RTVSPost2010Prop51ColorRGB
 90
-16777216
102
RTVSPost2010PropOp51
 70
     0
102
RTVSPost2010Prop52
140
1.0
102
RTVSPost2010PropOp52
 70
     0
102
RTVSPost2010Prop53
 90
        2
102
RTVSPost2010PropOp53
 70
     1
102
RTVSPost2010Prop54
  1
strokes_ogs.tif
102
RTVSPost2010PropOp54
 70
     1
102
RTVSPost2010Prop55
280
     0
102
RTVSPost2010PropOp55
 70
     1
102
RTVSPost2010Prop56
140
1.0
102
RTVSPost2010PropOp56
 70
     1
102
RTVSPost2010Prop57
140
1.0
102
RTVSPost2010PropOp57
 70
     1
102
RTVSPropertyOp0
 70
     1
102
RTVSPropertyOp1
 70
     1
102
RTVSPropertyOp2
 70
     1
102
RTVSPropertyOp3
 70
     1
102
RTVSPropertyOp4
 70
     1
102
RTVSPropertyOp5
 70
     1
102
RTVSPropertyOp6
 70
     1
102
RTVSPropertyOp7
 70
     1
102
RTVSPropertyOp8
 70
     1
102
RTVSPropertyOp9
 70
     1
102
RTVSPropertyOp10
 70
     1
102
RTVSPropertyOp11
 70
     1
102
RTVSPropertyOp12
 70
     1
102
RTVSPropertyOp13
 70
     1
102
RTVSPropertyOp14
 70
     1
102
RTVSPropertyOp15
 70
     1
102
RTVSPropertyOp16
 70
     1
102
RTVSPropertyOp17
 70
     1
102
RTVSPropertyOp18
 70
     1
102
RTVSPropertyOp19
 70
     1
102
RTVSPropertyOp20
 70
     1
102
RTVSPropertyOp21
 70
     1
102
RTVSPropertyOp22
 70
     1
102
RTVSPropertyOp23
 70
     1
102
RTVSPropertyOp24
 70
     1
102
RTVSPropertyOp25
 70
     1
102
RTVSPropertyOp26
 70
     1
102
RTVSPropertyOp27
 70
     1
102
RTVSPropertyOp28
 70
     1
102
RTVSPropertyOp29
 70
     1
102
RTVSPropertyOp30
 70
     1
102
RTVSPropertyOp31
 70
     1
102
RTVSPropertyOp32
 70
     1
102
RTVSPropertyOp33
 70
     1
102
RTVSPropertyOp34
 70
     1
102
RTVSPropertyOp35
 70
     1
102
RTVSPropertyOp36
 70
     1
102
RTVSPropertyOp37
 70
     1
102
RTVSPropertyOp38
 70
     1
102
RTVSPropertyOp39
 70
     1
102
RTVSPropertyOp40
 70
     1
102
RTVSPropertyOp41
 70
     1
102
RTVSPropertyOp42
 70
     1
102
RTVSPropertyOp43
 70
     1
102
RTVSPropertyOp44
 70
     1
102
RTVSPropertyOp45
 70
     1
102
RTVSPropertyOp46
 70
     1
102
RTVSPropertyOp47
 70
     1
102
RTVSPropertyOp48
 70
     1
102
RTVSPropertyOp49
 70
     1
102
RTVSPropertyOp50
 70
     1
102
RTVSPropertyOp51
 70
     0
102
RTVSPropertyOp52
 70
     0
102
RTVSPropertyOp53
 70
     1
102
RTVSPropertyOp54
 70
     1
102
RTVSPropertyOp55
 70
     1
102
RTVSPropertyOp56
 70
     1
102
RTVSPropertyOp57
 70
     1
102
RTVSPropertyOp58
 70
     1
102
RTVSPropertyOp59
 70
     1
102
RTVSPropertyOp60
 70
     1
102
RTVSPropertyOp61
 70
     1
102
RTVSPropertyOp62
 70
     1
  0
XRECORD
  5
974A
102
{ACAD_REACTORS
330
9749
102
}
330
9749
100
AcDbXrecord
280
     1
102
RTVSPost2010Prop28
280
     0
102
RTVSPost2010PropOp28
 70
     1
102
RTVSPost2010Prop29
280
     1
102
RTVSPost2010PropOp29
 70
     1
102
RTVSPost2010Prop30
280
     1
102
RTVSPost2010PropOp30
 70
     1
102
RTVSPost2010Prop31
280
     0
102
RTVSPost2010PropOp31
 70
     1
102
RTVSPost2010Prop32
280
     0
102
RTVSPost2010PropOp32
 70
     1
102
RTVSPost2010Prop33
280
     0
102
RTVSPost2010PropOp33
 70
     1
102
RTVSPost2010Prop34
280
     0
102
RTVSPost2010PropOp34
 70
     1
102
RTVSPost2010Prop35
280
     0
102
RTVSPost2010PropOp35
 70
     1
102
RTVSPost2010Prop36
280
     0
102
RTVSPost2010PropOp36
 70
     1
102
RTVSPost2010Prop37
 90
       50
102
RTVSPost2010PropOp37
 70
     1
102
RTVSPost2010Prop38
140
0.0
102
RTVSPost2010PropOp38
 70
     1
102
RTVSPost2010Prop39
140
1.0
102
RTVSPost2010PropOp39
 70
     1
102
RTVSPost2010Prop40
 90
        0
102
RTVSPost2010PropOp40
 70
     1
102
RTVSPost2010Prop41ColorIndex
 90
       18
102
RTVSPost2010Prop41ColorRGB
 90
        0
102
RTVSPost2010PropOp41
 70
     1
102
RTVSPost2010Prop42
 90
       50
102
RTVSPost2010PropOp42
 70
     1
102
RTVSPost2010Prop43
 90
        3
102
RTVSPost2010PropOp43
 70
     1
102
RTVSPost2010Prop44ColorIndex
 90
        5
102
RTVSPost2010Prop44ColorRGB
 90
      255
102
RTVSPost2010PropOp44
 70
     1
102
RTVSPost2010Prop45
280
     0
102
RTVSPost2010PropOp45
 70
     1
102
RTVSPost2010Prop46
 90
       50
102
RTVSPost2010PropOp46
 70
     1
102
RTVSPost2010Prop47
 90
       50
102
RTVSPost2010PropOp47
 70
     1
102
RTVSPost2010Prop48
 90
       50
102
RTVSPost2010PropOp48
 70
     1
102
RTVSPost2010Prop49
280
     0
102
RTVSPost2010PropOp49
 70
     1
102
RTVSPost2010Prop50
 90
       50
102
RTVSPost2010PropOp50
 70
     1
102
RTVSPost2010Prop51ColorIndex
 90
      256
102
RTVSPost2010Prop51ColorRGB
 90
-16777216
102
RTVSPost2010PropOp51
 70
     0
102
RTVSPost2010Prop52
140
1.0
102
RTVSPost2010PropOp52
 70
     0
102
RTVSPost2010Prop53
 90
        2
102
RTVSPost2010PropOp53
 70
     1
102
RTVSPost2010Prop54
  1
strokes_ogs.tif
102
RTVSPost2010PropOp54
 70
     1
102
RTVSPost2010Prop55
280
     0
102
RTVSPost2010PropOp55
 70
     1
102
RTVSPost2010Prop56
140
1.0
102
RTVSPost2010PropOp56
 70
     1
102
RTVSPost2010Prop57
140
1.0
102
RTVSPost2010PropOp57
 70
     1
102
RTVSPropertyOp0
 70
     1
102
RTVSPropertyOp1
 70
     1
102
RTVSPropertyOp2
 70
     1
102
RTVSPropertyOp3
 70
     1
102
RTVSPropertyOp4
 70
     1
102
RTVSPropertyOp5
 70
     1
102
RTVSPropertyOp6
 70
     1
102
RTVSPropertyOp7
 70
     1
102
RTVSPropertyOp8
 70
     1
102
RTVSPropertyOp9
 70
     1
102
RTVSPropertyOp10
 70
     1
102
RTVSPropertyOp11
 70
     1
102
RTVSPropertyOp12
 70
     1
102
RTVSPropertyOp13
 70
     1
102
RTVSPropertyOp14
 70
     1
102
RTVSPropertyOp15
 70
     1
102
RTVSPropertyOp16
 70
     1
102
RTVSPropertyOp17
 70
     1
102
RTVSPropertyOp18
 70
     1
102
RTVSPropertyOp19
 70
     1
102
RTVSPropertyOp20
 70
     1
102
RTVSPropertyOp21
 70
     1
102
RTVSPropertyOp22
 70
     1
102
RTVSPropertyOp23
 70
     1
102
RTVSPropertyOp24
 70
     1
102
RTVSPropertyOp25
 70
     1
102
RTVSPropertyOp26
 70
     1
102
RTVSPropertyOp27
 70
     1
102
RTVSPropertyOp28
 70
     1
102
RTVSPropertyOp29
 70
     1
102
RTVSPropertyOp30
 70
     1
102
RTVSPropertyOp31
 70
     1
102
RTVSPropertyOp32
 70
     1
102
RTVSPropertyOp33
 70
     1
102
RTVSPropertyOp34
 70
     1
102
RTVSPropertyOp35
 70
     1
102
RTVSPropertyOp36
 70
     1
102
RTVSPropertyOp37
 70
     1
102
RTVSPropertyOp38
 70
     1
102
RTVSPropertyOp39
 70
     1
102
RTVSPropertyOp40
 70
     1
102
RTVSPropertyOp41
 70
     1
102
RTVSPropertyOp42
 70
     1
102
RTVSPropertyOp43
 70
     1
102
RTVSPropertyOp44
 70
     1
102
RTVSPropertyOp45
 70
     1
102
RTVSPropertyOp46
 70
     1
102
RTVSPropertyOp47
 70
     1
102
RTVSPropertyOp48
 70
     1
102
RTVSPropertyOp49
 70
     1
102
RTVSPropertyOp50
 70
     1
102
RTVSPropertyOp51
 70
     0
102
RTVSPropertyOp52
 70
     0
102
RTVSPropertyOp53
 70
     1
102
RTVSPropertyOp54
 70
     1
102
RTVSPropertyOp55
 70
     1
102
RTVSPropertyOp56
 70
     1
102
RTVSPropertyOp57
 70
     1
102
RTVSPropertyOp58
 70
     1
102
RTVSPropertyOp59
 70
     1
102
RTVSPropertyOp60
 70
     1
102
RTVSPropertyOp61
 70
     1
102
RTVSPropertyOp62
 70
     1
  0
XRECORD
  5
9752
102
{ACAD_REACTORS
330
9751
102
}
330
9751
100
AcDbXrecord
280
     1
102
RTVSPost2010Prop28
280
     0
102
RTVSPost2010PropOp28
 70
     1
102
RTVSPost2010Prop29
280
     1
102
RTVSPost2010PropOp29
 70
     1
102
RTVSPost2010Prop30
280
     1
102
RTVSPost2010PropOp30
 70
     1
102
RTVSPost2010Prop31
280
     0
102
RTVSPost2010PropOp31
 70
     1
102
RTVSPost2010Prop32
280
     0
102
RTVSPost2010PropOp32
 70
     1
102
RTVSPost2010Prop33
280
     0
102
RTVSPost2010PropOp33
 70
     1
102
RTVSPost2010Prop34
280
     0
102
RTVSPost2010PropOp34
 70
     1
102
RTVSPost2010Prop35
280
     0
102
RTVSPost2010PropOp35
 70
     1
102
RTVSPost2010Prop36
280
     0
102
RTVSPost2010PropOp36
 70
     1
102
RTVSPost2010Prop37
 90
       50
102
RTVSPost2010PropOp37
 70
     1
102
RTVSPost2010Prop38
140
0.0
102
RTVSPost2010PropOp38
 70
     1
102
RTVSPost2010Prop39
140
1.0
102
RTVSPost2010PropOp39
 70
     1
102
RTVSPost2010Prop40
 90
        0
102
RTVSPost2010PropOp40
 70
     1
102
RTVSPost2010Prop41ColorIndex
 90
       18
102
RTVSPost2010Prop41ColorRGB
 90
        0
102
RTVSPost2010PropOp41
 70
     1
102
RTVSPost2010Prop42
 90
       50
102
RTVSPost2010PropOp42
 70
     1
102
RTVSPost2010Prop43
 90
        3
102
RTVSPost2010PropOp43
 70
     1
102
RTVSPost2010Prop44ColorIndex
 90
        5
102
RTVSPost2010Prop44ColorRGB
 90
      255
102
RTVSPost2010PropOp44
 70
     1
102
RTVSPost2010Prop45
280
     0
102
RTVSPost2010PropOp45
 70
     1
102
RTVSPost2010Prop46
 90
       50
102
RTVSPost2010PropOp46
 70
     1
102
RTVSPost2010Prop47
 90
       50
102
RTVSPost2010PropOp47
 70
     1
102
RTVSPost2010Prop48
 90
       50
102
RTVSPost2010PropOp48
 70
     1
102
RTVSPost2010Prop49
280
     0
102
RTVSPost2010PropOp49
 70
     1
102
RTVSPost2010Prop50
 90
       50
102
RTVSPost2010PropOp50
 70
     1
102
RTVSPost2010Prop51ColorIndex
 90
      256
102
RTVSPost2010Prop51ColorRGB
 90
-16777216
102
RTVSPost2010PropOp51
 70
     0
102
RTVSPost2010Prop52
140
1.0
102
RTVSPost2010PropOp52
 70
     0
102
RTVSPost2010Prop53
 90
        2
102
RTVSPost2010PropOp53
 70
     1
102
RTVSPost2010Prop54
  1
strokes_ogs.tif
102
RTVSPost2010PropOp54
 70
     1
102
RTVSPost2010Prop55
280
     0
102
RTVSPost2010PropOp55
 70
     1
102
RTVSPost2010Prop56
140
1.0
102
RTVSPost2010PropOp56
 70
     1
102
RTVSPost2010Prop57
140
1.0
102
RTVSPost2010PropOp57
 70
     1
102
RTVSPropertyOp0
 70
     1
102
RTVSPropertyOp1
 70
     1
102
RTVSPropertyOp2
 70
     1
102
RTVSPropertyOp3
 70
     1
102
RTVSPropertyOp4
 70
     1
102
RTVSPropertyOp5
 70
     1
102
RTVSPropertyOp6
 70
     1
102
RTVSPropertyOp7
 70
     1
102
RTVSPropertyOp8
 70
     1
102
RTVSPropertyOp9
 70
     1
102
RTVSPropertyOp10
 70
     1
102
RTVSPropertyOp11
 70
     1
102
RTVSPropertyOp12
 70
     1
102
RTVSPropertyOp13
 70
     1
102
RTVSPropertyOp14
 70
     1
102
RTVSPropertyOp15
 70
     1
102
RTVSPropertyOp16
 70
     1
102
RTVSPropertyOp17
 70
     1
102
RTVSPropertyOp18
 70
     1
102
RTVSPropertyOp19
 70
     1
102
RTVSPropertyOp20
 70
     1
102
RTVSPropertyOp21
 70
     1
102
RTVSPropertyOp22
 70
     1
102
RTVSPropertyOp23
 70
     1
102
RTVSPropertyOp24
 70
     1
102
RTVSPropertyOp25
 70
     1
102
RTVSPropertyOp26
 70
     1
102
RTVSPropertyOp27
 70
     1
102
RTVSPropertyOp28
 70
     1
102
RTVSPropertyOp29
 70
     1
102
RTVSPropertyOp30
 70
     1
102
RTVSPropertyOp31
 70
     1
102
RTVSPropertyOp32
 70
     1
102
RTVSPropertyOp33
 70
     1
102
RTVSPropertyOp34
 70
     1
102
RTVSPropertyOp35
 70
     1
102
RTVSPropertyOp36
 70
     1
102
RTVSPropertyOp37
 70
     1
102
RTVSPropertyOp38
 70
     1
102
RTVSPropertyOp39
 70
     1
102
RTVSPropertyOp40
 70
     1
102
RTVSPropertyOp41
 70
     1
102
RTVSPropertyOp42
 70
     1
102
RTVSPropertyOp43
 70
     1
102
RTVSPropertyOp44
 70
     1
102
RTVSPropertyOp45
 70
     1
102
RTVSPropertyOp46
 70
     1
102
RTVSPropertyOp47
 70
     1
102
RTVSPropertyOp48
 70
     1
102
RTVSPropertyOp49
 70
     1
102
RTVSPropertyOp50
 70
     1
102
RTVSPropertyOp51
 70
     0
102
RTVSPropertyOp52
 70
     0
102
RTVSPropertyOp53
 70
     1
102
RTVSPropertyOp54
 70
     1
102
RTVSPropertyOp55
 70
     1
102
RTVSPropertyOp56
 70
     1
102
RTVSPropertyOp57
 70
     1
102
RTVSPropertyOp58
 70
     1
102
RTVSPropertyOp59
 70
     1
102
RTVSPropertyOp60
 70
     1
102
RTVSPropertyOp61
 70
     1
102
RTVSPropertyOp62
 70
     1
  0
XRECORD
  5
9744
102
{ACAD_REACTORS
330
9743
102
}
330
9743
100
AcDbXrecord
280
     1
102
RTVSPost2010Prop28
280
     0
102
RTVSPost2010PropOp28
 70
     1
102
RTVSPost2010Prop29
280
     1
102
RTVSPost2010PropOp29
 70
     1
102
RTVSPost2010Prop30
280
     1
102
RTVSPost2010PropOp30
 70
     1
102
RTVSPost2010Prop31
280
     0
102
RTVSPost2010PropOp31
 70
     1
102
RTVSPost2010Prop32
280
     0
102
RTVSPost2010PropOp32
 70
     1
102
RTVSPost2010Prop33
280
     0
102
RTVSPost2010PropOp33
 70
     1
102
RTVSPost2010Prop34
280
     0
102
RTVSPost2010PropOp34
 70
     1
102
RTVSPost2010Prop35
280
     0
102
RTVSPost2010PropOp35
 70
     1
102
RTVSPost2010Prop36
280
     0
102
RTVSPost2010PropOp36
 70
     1
102
RTVSPost2010Prop37
 90
       50
102
RTVSPost2010PropOp37
 70
     1
102
RTVSPost2010Prop38
140
0.0
102
RTVSPost2010PropOp38
 70
     1
102
RTVSPost2010Prop39
140
1.0
102
RTVSPost2010PropOp39
 70
     1
102
RTVSPost2010Prop40
 90
        0
102
RTVSPost2010PropOp40
 70
     1
102
RTVSPost2010Prop41ColorIndex
 90
       18
102
RTVSPost2010Prop41ColorRGB
 90
        0
102
RTVSPost2010PropOp41
 70
     1
102
RTVSPost2010Prop42
 90
       50
102
RTVSPost2010PropOp42
 70
     1
102
RTVSPost2010Prop43
 90
        3
102
RTVSPost2010PropOp43
 70
     1
102
RTVSPost2010Prop44ColorIndex
 90
        5
102
RTVSPost2010Prop44ColorRGB
 90
      255
102
RTVSPost2010PropOp44
 70
     1
102
RTVSPost2010Prop45
280
     0
102
RTVSPost2010PropOp45
 70
     1
102
RTVSPost2010Prop46
 90
       50
102
RTVSPost2010PropOp46
 70
     1
102
RTVSPost2010Prop47
 90
       50
102
RTVSPost2010PropOp47
 70
     1
102
RTVSPost2010Prop48
 90
       50
102
RTVSPost2010PropOp48
 70
     1
102
RTVSPost2010Prop49
280
     0
102
RTVSPost2010PropOp49
 70
     1
102
RTVSPost2010Prop50
 90
       50
102
RTVSPost2010PropOp50
 70
     1
102
RTVSPost2010Prop51ColorIndex
 90
      256
102
RTVSPost2010Prop51ColorRGB
 90
-16777216
102
RTVSPost2010PropOp51
 70
     0
102
RTVSPost2010Prop52
140
1.0
102
RTVSPost2010PropOp52
 70
     0
102
RTVSPost2010Prop53
 90
        2
102
RTVSPost2010PropOp53
 70
     1
102
RTVSPost2010Prop54
  1
strokes_ogs.tif
102
RTVSPost2010PropOp54
 70
     1
102
RTVSPost2010Prop55
280
     0
102
RTVSPost2010PropOp55
 70
     1
102
RTVSPost2010Prop56
140
1.0
102
RTVSPost2010PropOp56
 70
     1
102
RTVSPost2010Prop57
140
1.0
102
RTVSPost2010PropOp57
 70
     1
102
RTVSPropertyOp0
 70
     1
102
RTVSPropertyOp1
 70
     1
102
RTVSPropertyOp2
 70
     1
102
RTVSPropertyOp3
 70
     1
102
RTVSPropertyOp4
 70
     1
102
RTVSPropertyOp5
 70
     1
102
RTVSPropertyOp6
 70
     1
102
RTVSPropertyOp7
 70
     1
102
RTVSPropertyOp8
 70
     1
102
RTVSPropertyOp9
 70
     1
102
RTVSPropertyOp10
 70
     1
102
RTVSPropertyOp11
 70
     1
102
RTVSPropertyOp12
 70
     1
102
RTVSPropertyOp13
 70
     1
102
RTVSPropertyOp14
 70
     1
102
RTVSPropertyOp15
 70
     1
102
RTVSPropertyOp16
 70
     1
102
RTVSPropertyOp17
 70
     1
102
RTVSPropertyOp18
 70
     1
102
RTVSPropertyOp19
 70
     1
102
RTVSPropertyOp20
 70
     1
102
RTVSPropertyOp21
 70
     1
102
RTVSPropertyOp22
 70
     1
102
RTVSPropertyOp23
 70
     1
102
RTVSPropertyOp24
 70
     1
102
RTVSPropertyOp25
 70
     1
102
RTVSPropertyOp26
 70
     1
102
RTVSPropertyOp27
 70
     1
102
RTVSPropertyOp28
 70
     1
102
RTVSPropertyOp29
 70
     1
102
RTVSPropertyOp30
 70
     1
102
RTVSPropertyOp31
 70
     1
102
RTVSPropertyOp32
 70
     1
102
RTVSPropertyOp33
 70
     1
102
RTVSPropertyOp34
 70
     1
102
RTVSPropertyOp35
 70
     1
102
RTVSPropertyOp36
 70
     1
102
RTVSPropertyOp37
 70
     1
102
RTVSPropertyOp38
 70
     1
102
RTVSPropertyOp39
 70
     1
102
RTVSPropertyOp40
 70
     1
102
RTVSPropertyOp41
 70
     1
102
RTVSPropertyOp42
 70
     1
102
RTVSPropertyOp43
 70
     1
102
RTVSPropertyOp44
 70
     1
102
RTVSPropertyOp45
 70
     1
102
RTVSPropertyOp46
 70
     1
102
RTVSPropertyOp47
 70
     1
102
RTVSPropertyOp48
 70
     1
102
RTVSPropertyOp49
 70
     1
102
RTVSPropertyOp50
 70
     1
102
RTVSPropertyOp51
 70
     0
102
RTVSPropertyOp52
 70
     0
102
RTVSPropertyOp53
 70
     1
102
RTVSPropertyOp54
 70
     1
102
RTVSPropertyOp55
 70
     1
102
RTVSPropertyOp56
 70
     1
102
RTVSPropertyOp57
 70
     1
102
RTVSPropertyOp58
 70
     1
102
RTVSPropertyOp59
 70
     1
102
RTVSPropertyOp60
 70
     1
102
RTVSPropertyOp61
 70
     1
102
RTVSPropertyOp62
 70
     1
  0
XRECORD
  5
9748
102
{ACAD_REACTORS
330
9747
102
}
330
9747
100
AcDbXrecord
280
     1
102
RTVSPost2010Prop28
280
     0
102
RTVSPost2010PropOp28
 70
     1
102
RTVSPost2010Prop29
280
     1
102
RTVSPost2010PropOp29
 70
     1
102
RTVSPost2010Prop30
280
     1
102
RTVSPost2010PropOp30
 70
     1
102
RTVSPost2010Prop31
280
     0
102
RTVSPost2010PropOp31
 70
     1
102
RTVSPost2010Prop32
280
     0
102
RTVSPost2010PropOp32
 70
     1
102
RTVSPost2010Prop33
280
     0
102
RTVSPost2010PropOp33
 70
     1
102
RTVSPost2010Prop34
280
     0
102
RTVSPost2010PropOp34
 70
     1
102
RTVSPost2010Prop35
280
     0
102
RTVSPost2010PropOp35
 70
     1
102
RTVSPost2010Prop36
280
     0
102
RTVSPost2010PropOp36
 70
     1
102
RTVSPost2010Prop37
 90
       50
102
RTVSPost2010PropOp37
 70
     1
102
RTVSPost2010Prop38
140
0.0
102
RTVSPost2010PropOp38
 70
     1
102
RTVSPost2010Prop39
140
1.0
102
RTVSPost2010PropOp39
 70
     1
102
RTVSPost2010Prop40
 90
        0
102
RTVSPost2010PropOp40
 70
     1
102
RTVSPost2010Prop41ColorIndex
 90
       18
102
RTVSPost2010Prop41ColorRGB
 90
        0
102
RTVSPost2010PropOp41
 70
     1
102
RTVSPost2010Prop42
 90
       50
102
RTVSPost2010PropOp42
 70
     1
102
RTVSPost2010Prop43
 90
        3
102
RTVSPost2010PropOp43
 70
     1
102
RTVSPost2010Prop44ColorIndex
 90
        5
102
RTVSPost2010Prop44ColorRGB
 90
      255
102
RTVSPost2010PropOp44
 70
     1
102
RTVSPost2010Prop45
280
     0
102
RTVSPost2010PropOp45
 70
     1
102
RTVSPost2010Prop46
 90
       50
102
RTVSPost2010PropOp46
 70
     1
102
RTVSPost2010Prop47
 90
       50
102
RTVSPost2010PropOp47
 70
     1
102
RTVSPost2010Prop48
 90
       50
102
RTVSPost2010PropOp48
 70
     1
102
RTVSPost2010Prop49
280
     0
102
RTVSPost2010PropOp49
 70
     1
102
RTVSPost2010Prop50
 90
       50
102
RTVSPost2010PropOp50
 70
     1
102
RTVSPost2010Prop51ColorIndex
 90
      256
102
RTVSPost2010Prop51ColorRGB
 90
-16777216
102
RTVSPost2010PropOp51
 70
     0
102
RTVSPost2010Prop52
140
1.0
102
RTVSPost2010PropOp52
 70
     0
102
RTVSPost2010Prop53
 90
        2
102
RTVSPost2010PropOp53
 70
     1
102
RTVSPost2010Prop54
  1
strokes_ogs.tif
102
RTVSPost2010PropOp54
 70
     1
102
RTVSPost2010Prop55
280
     0
102
RTVSPost2010PropOp55
 70
     1
102
RTVSPost2010Prop56
140
1.0
102
RTVSPost2010PropOp56
 70
     1
102
RTVSPost2010Prop57
140
1.0
102
RTVSPost2010PropOp57
 70
     1
102
RTVSPropertyOp0
 70
     1
102
RTVSPropertyOp1
 70
     1
102
RTVSPropertyOp2
 70
     1
102
RTVSPropertyOp3
 70
     1
102
RTVSPropertyOp4
 70
     1
102
RTVSPropertyOp5
 70
     1
102
RTVSPropertyOp6
 70
     1
102
RTVSPropertyOp7
 70
     1
102
RTVSPropertyOp8
 70
     1
102
RTVSPropertyOp9
 70
     1
102
RTVSPropertyOp10
 70
     1
102
RTVSPropertyOp11
 70
     1
102
RTVSPropertyOp12
 70
     1
102
RTVSPropertyOp13
 70
     1
102
RTVSPropertyOp14
 70
     1
102
RTVSPropertyOp15
 70
     1
102
RTVSPropertyOp16
 70
     1
102
RTVSPropertyOp17
 70
     1
102
RTVSPropertyOp18
 70
     1
102
RTVSPropertyOp19
 70
     1
102
RTVSPropertyOp20
 70
     1
102
RTVSPropertyOp21
 70
     1
102
RTVSPropertyOp22
 70
     1
102
RTVSPropertyOp23
 70
     1
102
RTVSPropertyOp24
 70
     1
102
RTVSPropertyOp25
 70
     1
102
RTVSPropertyOp26
 70
     1
102
RTVSPropertyOp27
 70
     1
102
RTVSPropertyOp28
 70
     1
102
RTVSPropertyOp29
 70
     1
102
RTVSPropertyOp30
 70
     1
102
RTVSPropertyOp31
 70
     1
102
RTVSPropertyOp32
 70
     1
102
RTVSPropertyOp33
 70
     1
102
RTVSPropertyOp34
 70
     1
102
RTVSPropertyOp35
 70
     1
102
RTVSPropertyOp36
 70
     1
102
RTVSPropertyOp37
 70
     1
102
RTVSPropertyOp38
 70
     1
102
RTVSPropertyOp39
 70
     1
102
RTVSPropertyOp40
 70
     1
102
RTVSPropertyOp41
 70
     1
102
RTVSPropertyOp42
 70
     1
102
RTVSPropertyOp43
 70
     1
102
RTVSPropertyOp44
 70
     1
102
RTVSPropertyOp45
 70
     1
102
RTVSPropertyOp46
 70
     1
102
RTVSPropertyOp47
 70
     1
102
RTVSPropertyOp48
 70
     1
102
RTVSPropertyOp49
 70
     1
102
RTVSPropertyOp50
 70
     1
102
RTVSPropertyOp51
 70
     0
102
RTVSPropertyOp52
 70
     0
102
RTVSPropertyOp53
 70
     1
102
RTVSPropertyOp54
 70
     1
102
RTVSPropertyOp55
 70
     1
102
RTVSPropertyOp56
 70
     1
102
RTVSPropertyOp57
 70
     1
102
RTVSPropertyOp58
 70
     1
102
RTVSPropertyOp59
 70
     1
102
RTVSPropertyOp60
 70
     1
102
RTVSPropertyOp61
 70
     1
102
RTVSPropertyOp62
 70
     1
  0
XRECORD
  5
9762
102
{ACAD_REACTORS
330
9761
102
}
330
9761
100
AcDbXrecord
280
     1
102
RTVSPost2010Prop28
280
     0
102
RTVSPost2010PropOp28
 70
     1
102
RTVSPost2010Prop29
280
     1
102
RTVSPost2010PropOp29
 70
     1
102
RTVSPost2010Prop30
280
     1
102
RTVSPost2010PropOp30
 70
     1
102
RTVSPost2010Prop31
280
     0
102
RTVSPost2010PropOp31
 70
     1
102
RTVSPost2010Prop32
280
     0
102
RTVSPost2010PropOp32
 70
     1
102
RTVSPost2010Prop33
280
     0
102
RTVSPost2010PropOp33
 70
     1
102
RTVSPost2010Prop34
280
     0
102
RTVSPost2010PropOp34
 70
     1
102
RTVSPost2010Prop35
280
     0
102
RTVSPost2010PropOp35
 70
     1
102
RTVSPost2010Prop36
280
     0
102
RTVSPost2010PropOp36
 70
     1
102
RTVSPost2010Prop37
 90
       50
102
RTVSPost2010PropOp37
 70
     0
102
RTVSPost2010Prop38
140
0.0
102
RTVSPost2010PropOp38
 70
     0
102
RTVSPost2010Prop39
140
1.0
102
RTVSPost2010PropOp39
 70
     0
102
RTVSPost2010Prop40
 90
        0
102
RTVSPost2010PropOp40
 70
     0
102
RTVSPost2010Prop41ColorIndex
 90
       18
102
RTVSPost2010Prop41ColorRGB
 90
        0
102
RTVSPost2010PropOp41
 70
     0
102
RTVSPost2010Prop42
 90
       50
102
RTVSPost2010PropOp42
 70
     0
102
RTVSPost2010Prop43
 90
        3
102
RTVSPost2010PropOp43
 70
     0
102
RTVSPost2010Prop44ColorIndex
 90
        5
102
RTVSPost2010Prop44ColorRGB
 90
      255
102
RTVSPost2010PropOp44
 70
     0
102
RTVSPost2010Prop45
280
     0
102
RTVSPost2010PropOp45
 70
     1
102
RTVSPost2010Prop46
 90
       50
102
RTVSPost2010PropOp46
 70
     0
102
RTVSPost2010Prop47
 90
       50
102
RTVSPost2010PropOp47
 70
     0
102
RTVSPost2010Prop48
 90
       50
102
RTVSPost2010PropOp48
 70
     0
102
RTVSPost2010Prop49
280
     0
102
RTVSPost2010PropOp49
 70
     1
102
RTVSPost2010Prop50
 90
       50
102
RTVSPost2010PropOp50
 70
     0
102
RTVSPost2010Prop51ColorIndex
 90
      256
102
RTVSPost2010Prop51ColorRGB
 90
-16777216
102
RTVSPost2010PropOp51
 70
     0
102
RTVSPost2010Prop52
140
1.0
102
RTVSPost2010PropOp52
 70
     0
102
RTVSPost2010Prop53
 90
        2
102
RTVSPost2010PropOp53
 70
     0
102
RTVSPost2010Prop54
  1
strokes_ogs.tif
102
RTVSPost2010PropOp54
 70
     0
102
RTVSPost2010Prop55
280
     0
102
RTVSPost2010PropOp55
 70
     1
102
RTVSPost2010Prop56
140
1.0
102
RTVSPost2010PropOp56
 70
     0
102
RTVSPost2010Prop57
140
1.0
102
RTVSPost2010PropOp57
 70
     0
102
RTVSPropertyOp0
 70
     0
102
RTVSPropertyOp1
 70
     0
102
RTVSPropertyOp2
 70
     0
102
RTVSPropertyOp3
 70
     0
102
RTVSPropertyOp4
 70
     0
102
RTVSPropertyOp5
 70
     0
102
RTVSPropertyOp6
 70
     0
102
RTVSPropertyOp7
 70
     0
102
RTVSPropertyOp8
 70
     0
102
RTVSPropertyOp9
 70
     0
102
RTVSPropertyOp10
 70
     0
102
RTVSPropertyOp11
 70
     0
102
RTVSPropertyOp12
 70
     0
102
RTVSPropertyOp13
 70
     0
102
RTVSPropertyOp14
 70
     2
102
RTVSPropertyOp15
 70
     0
102
RTVSPropertyOp16
 70
     0
102
RTVSPropertyOp17
 70
     0
102
RTVSPropertyOp18
 70
     0
102
RTVSPropertyOp19
 70
     0
102
RTVSPropertyOp20
 70
     0
102
RTVSPropertyOp21
 70
     0
102
RTVSPropertyOp22
 70
     0
102
RTVSPropertyOp23
 70
     0
102
RTVSPropertyOp24
 70
     0
102
RTVSPropertyOp25
 70
     0
102
RTVSPropertyOp26
 70
     0
102
RTVSPropertyOp27
 70
     0
102
RTVSPropertyOp28
 70
     1
102
RTVSPropertyOp29
 70
     1
102
RTVSPropertyOp30
 70
     1
102
RTVSPropertyOp31
 70
     1
102
RTVSPropertyOp32
 70
     1
102
RTVSPropertyOp33
 70
     1
102
RTVSPropertyOp34
 70
     1
102
RTVSPropertyOp35
 70
     1
102
RTVSPropertyOp36
 70
     1
102
RTVSPropertyOp37
 70
     0
102
RTVSPropertyOp38
 70
     0
102
RTVSPropertyOp39
 70
     0
102
RTVSPropertyOp40
 70
     0
102
RTVSPropertyOp41
 70
     0
102
RTVSPropertyOp42
 70
     0
102
RTVSPropertyOp43
 70
     0
102
RTVSPropertyOp44
 70
     0
102
RTVSPropertyOp45
 70
     1
102
RTVSPropertyOp46
 70
     0
102
RTVSPropertyOp47
 70
     0
102
RTVSPropertyOp48
 70
     0
102
RTVSPropertyOp49
 70
     1
102
RTVSPropertyOp50
 70
     0
102
RTVSPropertyOp51
 70
     0
102
RTVSPropertyOp52
 70
     0
102
RTVSPropertyOp53
 70
     0
102
RTVSPropertyOp54
 70
     0
102
RTVSPropertyOp55
 70
     1
102
RTVSPropertyOp56
 70
     0
102
RTVSPropertyOp57
 70
     0
102
RTVSPropertyOp58
 70
     0
102
RTVSPropertyOp59
 70
     0
102
RTVSPropertyOp60
 70
     0
102
RTVSPropertyOp61
 70
     0
102
RTVSPropertyOp62
 70
     0
  0
XRECORD
  5
9750
102
{ACAD_REACTORS
330
974F
102
}
330
974F
100
AcDbXrecord
280
     1
102
RTVSPost2010Prop28
280
     0
102
RTVSPost2010PropOp28
 70
     1
102
RTVSPost2010Prop29
280
     1
102
RTVSPost2010PropOp29
 70
     1
102
RTVSPost2010Prop30
280
     1
102
RTVSPost2010PropOp30
 70
     1
102
RTVSPost2010Prop31
280
     0
102
RTVSPost2010PropOp31
 70
     1
102
RTVSPost2010Prop32
280
     0
102
RTVSPost2010PropOp32
 70
     1
102
RTVSPost2010Prop33
280
     0
102
RTVSPost2010PropOp33
 70
     1
102
RTVSPost2010Prop34
280
     0
102
RTVSPost2010PropOp34
 70
     1
102
RTVSPost2010Prop35
280
     0
102
RTVSPost2010PropOp35
 70
     1
102
RTVSPost2010Prop36
280
     0
102
RTVSPost2010PropOp36
 70
     1
102
RTVSPost2010Prop37
 90
       50
102
RTVSPost2010PropOp37
 70
     1
102
RTVSPost2010Prop38
140
0.0
102
RTVSPost2010PropOp38
 70
     1
102
RTVSPost2010Prop39
140
1.0
102
RTVSPost2010PropOp39
 70
     1
102
RTVSPost2010Prop40
 90
        0
102
RTVSPost2010PropOp40
 70
     1
102
RTVSPost2010Prop41ColorIndex
 90
       18
102
RTVSPost2010Prop41ColorRGB
 90
        0
102
RTVSPost2010PropOp41
 70
     1
102
RTVSPost2010Prop42
 90
       50
102
RTVSPost2010PropOp42
 70
     1
102
RTVSPost2010Prop43
 90
        3
102
RTVSPost2010PropOp43
 70
     1
102
RTVSPost2010Prop44ColorIndex
 90
        5
102
RTVSPost2010Prop44ColorRGB
 90
      255
102
RTVSPost2010PropOp44
 70
     1
102
RTVSPost2010Prop45
280
     0
102
RTVSPost2010PropOp45
 70
     1
102
RTVSPost2010Prop46
 90
       50
102
RTVSPost2010PropOp46
 70
     1
102
RTVSPost2010Prop47
 90
       50
102
RTVSPost2010PropOp47
 70
     1
102
RTVSPost2010Prop48
 90
       50
102
RTVSPost2010PropOp48
 70
     1
102
RTVSPost2010Prop49
280
     0
102
RTVSPost2010PropOp49
 70
     1
102
RTVSPost2010Prop50
 90
       50
102
RTVSPost2010PropOp50
 70
     1
102
RTVSPost2010Prop51ColorIndex
 90
      256
102
RTVSPost2010Prop51ColorRGB
 90
-16777216
102
RTVSPost2010PropOp51
 70
     0
102
RTVSPost2010Prop52
140
1.0
102
RTVSPost2010PropOp52
 70
     0
102
RTVSPost2010Prop53
 90
        2
102
RTVSPost2010PropOp53
 70
     1
102
RTVSPost2010Prop54
  1
strokes_ogs.tif
102
RTVSPost2010PropOp54
 70
     1
102
RTVSPost2010Prop55
280
     0
102
RTVSPost2010PropOp55
 70
     1
102
RTVSPost2010Prop56
140
1.0
102
RTVSPost2010PropOp56
 70
     1
102
RTVSPost2010Prop57
140
1.0
102
RTVSPost2010PropOp57
 70
     1
102
RTVSPropertyOp0
 70
     1
102
RTVSPropertyOp1
 70
     1
102
RTVSPropertyOp2
 70
     1
102
RTVSPropertyOp3
 70
     1
102
RTVSPropertyOp4
 70
     1
102
RTVSPropertyOp5
 70
     1
102
RTVSPropertyOp6
 70
     1
102
RTVSPropertyOp7
 70
     1
102
RTVSPropertyOp8
 70
     1
102
RTVSPropertyOp9
 70
     1
102
RTVSPropertyOp10
 70
     1
102
RTVSPropertyOp11
 70
     1
102
RTVSPropertyOp12
 70
     1
102
RTVSPropertyOp13
 70
     1
102
RTVSPropertyOp14
 70
     1
102
RTVSPropertyOp15
 70
     1
102
RTVSPropertyOp16
 70
     1
102
RTVSPropertyOp17
 70
     1
102
RTVSPropertyOp18
 70
     1
102
RTVSPropertyOp19
 70
     1
102
RTVSPropertyOp20
 70
     1
102
RTVSPropertyOp21
 70
     1
102
RTVSPropertyOp22
 70
     1
102
RTVSPropertyOp23
 70
     1
102
RTVSPropertyOp24
 70
     1
102
RTVSPropertyOp25
 70
     1
102
RTVSPropertyOp26
 70
     1
102
RTVSPropertyOp27
 70
     1
102
RTVSPropertyOp28
 70
     1
102
RTVSPropertyOp29
 70
     1
102
RTVSPropertyOp30
 70
     1
102
RTVSPropertyOp31
 70
     1
102
RTVSPropertyOp32
 70
     1
102
RTVSPropertyOp33
 70
     1
102
RTVSPropertyOp34
 70
     1
102
RTVSPropertyOp35
 70
     1
102
RTVSPropertyOp36
 70
     1
102
RTVSPropertyOp37
 70
     1
102
RTVSPropertyOp38
 70
     1
102
RTVSPropertyOp39
 70
     1
102
RTVSPropertyOp40
 70
     1
102
RTVSPropertyOp41
 70
     1
102
RTVSPropertyOp42
 70
     1
102
RTVSPropertyOp43
 70
     1
102
RTVSPropertyOp44
 70
     1
102
RTVSPropertyOp45
 70
     1
102
RTVSPropertyOp46
 70
     1
102
RTVSPropertyOp47
 70
     1
102
RTVSPropertyOp48
 70
     1
102
RTVSPropertyOp49
 70
     1
102
RTVSPropertyOp50
 70
     1
102
RTVSPropertyOp51
 70
     0
102
RTVSPropertyOp52
 70
     0
102
RTVSPropertyOp53
 70
     1
102
RTVSPropertyOp54
 70
     1
102
RTVSPropertyOp55
 70
     1
102
RTVSPropertyOp56
 70
     1
102
RTVSPropertyOp57
 70
     1
102
RTVSPropertyOp58
 70
     1
102
RTVSPropertyOp59
 70
     1
102
RTVSPropertyOp60
 70
     1
102
RTVSPropertyOp61
 70
     1
102
RTVSPropertyOp62
 70
     1
  0
XRECORD
  5
9734
102
{ACAD_REACTORS
330
9733
102
}
330
9733
100
AcDbXrecord
280
     1
102
RTVSPost2010Prop28
280
     0
102
RTVSPost2010PropOp28
 70
     1
102
RTVSPost2010Prop29
280
     1
102
RTVSPost2010PropOp29
 70
     1
102
RTVSPost2010Prop30
280
     1
102
RTVSPost2010PropOp30
 70
     1
102
RTVSPost2010Prop31
280
     0
102
RTVSPost2010PropOp31
 70
     1
102
RTVSPost2010Prop32
280
     0
102
RTVSPost2010PropOp32
 70
     1
102
RTVSPost2010Prop33
280
     0
102
RTVSPost2010PropOp33
 70
     1
102
RTVSPost2010Prop34
280
     0
102
RTVSPost2010PropOp34
 70
     1
102
RTVSPost2010Prop35
280
     0
102
RTVSPost2010PropOp35
 70
     1
102
RTVSPost2010Prop36
280
     0
102
RTVSPost2010PropOp36
 70
     1
102
RTVSPost2010Prop37
 90
       50
102
RTVSPost2010PropOp37
 70
     1
102
RTVSPost2010Prop38
140
0.0
102
RTVSPost2010PropOp38
 70
     1
102
RTVSPost2010Prop39
140
1.0
102
RTVSPost2010PropOp39
 70
     1
102
RTVSPost2010Prop40
 90
        0
102
RTVSPost2010PropOp40
 70
     1
102
RTVSPost2010Prop41ColorIndex
 90
       18
102
RTVSPost2010Prop41ColorRGB
 90
        0
102
RTVSPost2010PropOp41
 70
     1
102
RTVSPost2010Prop42
 90
       50
102
RTVSPost2010PropOp42
 70
     1
102
RTVSPost2010Prop43
 90
        3
102
RTVSPost2010PropOp43
 70
     1
102
RTVSPost2010Prop44ColorIndex
 90
        5
102
RTVSPost2010Prop44ColorRGB
 90
      255
102
RTVSPost2010PropOp44
 70
     1
102
RTVSPost2010Prop45
280
     0
102
RTVSPost2010PropOp45
 70
     1
102
RTVSPost2010Prop46
 90
       50
102
RTVSPost2010PropOp46
 70
     1
102
RTVSPost2010Prop47
 90
       50
102
RTVSPost2010PropOp47
 70
     1
102
RTVSPost2010Prop48
 90
       50
102
RTVSPost2010PropOp48
 70
     1
102
RTVSPost2010Prop49
280
     0
102
RTVSPost2010PropOp49
 70
     1
102
RTVSPost2010Prop50
 90
       50
102
RTVSPost2010PropOp50
 70
     1
102
RTVSPost2010Prop51ColorIndex
 90
      256
102
RTVSPost2010Prop51ColorRGB
 90
-16777216
102
RTVSPost2010PropOp51
 70
     0
102
RTVSPost2010Prop52
140
1.0
102
RTVSPost2010PropOp52
 70
     0
102
RTVSPost2010Prop53
 90
        2
102
RTVSPost2010PropOp53
 70
     1
102
RTVSPost2010Prop54
  1
strokes_ogs.tif
102
RTVSPost2010PropOp54
 70
     1
102
RTVSPost2010Prop55
280
     0
102
RTVSPost2010PropOp55
 70
     1
102
RTVSPost2010Prop56
140
1.0
102
RTVSPost2010PropOp56
 70
     1
102
RTVSPost2010Prop57
140
1.0
102
RTVSPost2010PropOp57
 70
     1
102
RTVSPropertyOp0
 70
     1
102
RTVSPropertyOp1
 70
     1
102
RTVSPropertyOp2
 70
     1
102
RTVSPropertyOp3
 70
     1
102
RTVSPropertyOp4
 70
     1
102
RTVSPropertyOp5
 70
     1
102
RTVSPropertyOp6
 70
     1
102
RTVSPropertyOp7
 70
     1
102
RTVSPropertyOp8
 70
     1
102
RTVSPropertyOp9
 70
     1
102
RTVSPropertyOp10
 70
     1
102
RTVSPropertyOp11
 70
     1
102
RTVSPropertyOp12
 70
     1
102
RTVSPropertyOp13
 70
     1
102
RTVSPropertyOp14
 70
     1
102
RTVSPropertyOp15
 70
     1
102
RTVSPropertyOp16
 70
     1
102
RTVSPropertyOp17
 70
     1
102
RTVSPropertyOp18
 70
     1
102
RTVSPropertyOp19
 70
     1
102
RTVSPropertyOp20
 70
     1
102
RTVSPropertyOp21
 70
     1
102
RTVSPropertyOp22
 70
     1
102
RTVSPropertyOp23
 70
     1
102
RTVSPropertyOp24
 70
     1
102
RTVSPropertyOp25
 70
     1
102
RTVSPropertyOp26
 70
     1
102
RTVSPropertyOp27
 70
     1
102
RTVSPropertyOp28
 70
     1
102
RTVSPropertyOp29
 70
     1
102
RTVSPropertyOp30
 70
     1
102
RTVSPropertyOp31
 70
     1
102
RTVSPropertyOp32
 70
     1
102
RTVSPropertyOp33
 70
     1
102
RTVSPropertyOp34
 70
     1
102
RTVSPropertyOp35
 70
     1
102
RTVSPropertyOp36
 70
     1
102
RTVSPropertyOp37
 70
     1
102
RTVSPropertyOp38
 70
     1
102
RTVSPropertyOp39
 70
     1
102
RTVSPropertyOp40
 70
     1
102
RTVSPropertyOp41
 70
     1
102
RTVSPropertyOp42
 70
     1
102
RTVSPropertyOp43
 70
     1
102
RTVSPropertyOp44
 70
     1
102
RTVSPropertyOp45
 70
     1
102
RTVSPropertyOp46
 70
     1
102
RTVSPropertyOp47
 70
     1
102
RTVSPropertyOp48
 70
     1
102
RTVSPropertyOp49
 70
     1
102
RTVSPropertyOp50
 70
     1
102
RTVSPropertyOp51
 70
     0
102
RTVSPropertyOp52
 70
     0
102
RTVSPropertyOp53
 70
     1
102
RTVSPropertyOp54
 70
     1
102
RTVSPropertyOp55
 70
     1
102
RTVSPropertyOp56
 70
     1
102
RTVSPropertyOp57
 70
     1
102
RTVSPropertyOp58
 70
     1
102
RTVSPropertyOp59
 70
     1
102
RTVSPropertyOp60
 70
     1
102
RTVSPropertyOp61
 70
     1
102
RTVSPropertyOp62
 70
     1
  0
XRECORD
  5
9736
102
{ACAD_REACTORS
330
9735
102
}
330
9735
100
AcDbXrecord
280
     1
102
RTVSPost2010Prop28
280
     0
102
RTVSPost2010PropOp28
 70
     1
102
RTVSPost2010Prop29
280
     1
102
RTVSPost2010PropOp29
 70
     1
102
RTVSPost2010Prop30
280
     1
102
RTVSPost2010PropOp30
 70
     1
102
RTVSPost2010Prop31
280
     0
102
RTVSPost2010PropOp31
 70
     1
102
RTVSPost2010Prop32
280
     0
102
RTVSPost2010PropOp32
 70
     1
102
RTVSPost2010Prop33
280
     0
102
RTVSPost2010PropOp33
 70
     1
102
RTVSPost2010Prop34
280
     0
102
RTVSPost2010PropOp34
 70
     1
102
RTVSPost2010Prop35
280
     0
102
RTVSPost2010PropOp35
 70
     1
102
RTVSPost2010Prop36
280
     0
102
RTVSPost2010PropOp36
 70
     1
102
RTVSPost2010Prop37
 90
       50
102
RTVSPost2010PropOp37
 70
     1
102
RTVSPost2010Prop38
140
0.0
102
RTVSPost2010PropOp38
 70
     1
102
RTVSPost2010Prop39
140
1.0
102
RTVSPost2010PropOp39
 70
     1
102
RTVSPost2010Prop40
 90
        0
102
RTVSPost2010PropOp40
 70
     1
102
RTVSPost2010Prop41ColorIndex
 90
       18
102
RTVSPost2010Prop41ColorRGB
 90
        0
102
RTVSPost2010PropOp41
 70
     1
102
RTVSPost2010Prop42
 90
       50
102
RTVSPost2010PropOp42
 70
     1
102
RTVSPost2010Prop43
 90
        3
102
RTVSPost2010PropOp43
 70
     1
102
RTVSPost2010Prop44ColorIndex
 90
        5
102
RTVSPost2010Prop44ColorRGB
 90
      255
102
RTVSPost2010PropOp44
 70
     1
102
RTVSPost2010Prop45
280
     0
102
RTVSPost2010PropOp45
 70
     1
102
RTVSPost2010Prop46
 90
       50
102
RTVSPost2010PropOp46
 70
     1
102
RTVSPost2010Prop47
 90
       50
102
RTVSPost2010PropOp47
 70
     1
102
RTVSPost2010Prop48
 90
       50
102
RTVSPost2010PropOp48
 70
     1
102
RTVSPost2010Prop49
280
     0
102
RTVSPost2010PropOp49
 70
     1
102
RTVSPost2010Prop50
 90
       50
102
RTVSPost2010PropOp50
 70
     1
102
RTVSPost2010Prop51ColorIndex
 90
      256
102
RTVSPost2010Prop51ColorRGB
 90
-16777216
102
RTVSPost2010PropOp51
 70
     0
102
RTVSPost2010Prop52
140
1.0
102
RTVSPost2010PropOp52
 70
     0
102
RTVSPost2010Prop53
 90
        2
102
RTVSPost2010PropOp53
 70
     1
102
RTVSPost2010Prop54
  1
strokes_ogs.tif
102
RTVSPost2010PropOp54
 70
     1
102
RTVSPost2010Prop55
280
     0
102
RTVSPost2010PropOp55
 70
     1
102
RTVSPost2010Prop56
140
1.0
102
RTVSPost2010PropOp56
 70
     1
102
RTVSPost2010Prop57
140
1.0
102
RTVSPost2010PropOp57
 70
     1
102
RTVSPropertyOp0
 70
     1
102
RTVSPropertyOp1
 70
     1
102
RTVSPropertyOp2
 70
     1
102
RTVSPropertyOp3
 70
     1
102
RTVSPropertyOp4
 70
     1
102
RTVSPropertyOp5
 70
     1
102
RTVSPropertyOp6
 70
     1
102
RTVSPropertyOp7
 70
     1
102
RTVSPropertyOp8
 70
     1
102
RTVSPropertyOp9
 70
     1
102
RTVSPropertyOp10
 70
     1
102
RTVSPropertyOp11
 70
     1
102
RTVSPropertyOp12
 70
     1
102
RTVSPropertyOp13
 70
     1
102
RTVSPropertyOp14
 70
     1
102
RTVSPropertyOp15
 70
     1
102
RTVSPropertyOp16
 70
     1
102
RTVSPropertyOp17
 70
     1
102
RTVSPropertyOp18
 70
     1
102
RTVSPropertyOp19
 70
     1
102
RTVSPropertyOp20
 70
     1
102
RTVSPropertyOp21
 70
     1
102
RTVSPropertyOp22
 70
     1
102
RTVSPropertyOp23
 70
     1
102
RTVSPropertyOp24
 70
     1
102
RTVSPropertyOp25
 70
     1
102
RTVSPropertyOp26
 70
     1
102
RTVSPropertyOp27
 70
     1
102
RTVSPropertyOp28
 70
     1
102
RTVSPropertyOp29
 70
     1
102
RTVSPropertyOp30
 70
     1
102
RTVSPropertyOp31
 70
     1
102
RTVSPropertyOp32
 70
     1
102
RTVSPropertyOp33
 70
     1
102
RTVSPropertyOp34
 70
     1
102
RTVSPropertyOp35
 70
     1
102
RTVSPropertyOp36
 70
     1
102
RTVSPropertyOp37
 70
     1
102
RTVSPropertyOp38
 70
     1
102
RTVSPropertyOp39
 70
     1
102
RTVSPropertyOp40
 70
     1
102
RTVSPropertyOp41
 70
     1
102
RTVSPropertyOp42
 70
     1
102
RTVSPropertyOp43
 70
     1
102
RTVSPropertyOp44
 70
     1
102
RTVSPropertyOp45
 70
     1
102
RTVSPropertyOp46
 70
     1
102
RTVSPropertyOp47
 70
     1
102
RTVSPropertyOp48
 70
     1
102
RTVSPropertyOp49
 70
     1
102
RTVSPropertyOp50
 70
     1
102
RTVSPropertyOp51
 70
     0
102
RTVSPropertyOp52
 70
     0
102
RTVSPropertyOp53
 70
     1
102
RTVSPropertyOp54
 70
     1
102
RTVSPropertyOp55
 70
     1
102
RTVSPropertyOp56
 70
     1
102
RTVSPropertyOp57
 70
     1
102
RTVSPropertyOp58
 70
     1
102
RTVSPropertyOp59
 70
     1
102
RTVSPropertyOp60
 70
     1
102
RTVSPropertyOp61
 70
     1
102
RTVSPropertyOp62
 70
     1
  0
XRECORD
  5
9738
102
{ACAD_REACTORS
330
9737
102
}
330
9737
100
AcDbXrecord
280
     1
102
RTVSPost2010Prop28
280
     0
102
RTVSPost2010PropOp28
 70
     1
102
RTVSPost2010Prop29
280
     1
102
RTVSPost2010PropOp29
 70
     1
102
RTVSPost2010Prop30
280
     1
102
RTVSPost2010PropOp30
 70
     1
102
RTVSPost2010Prop31
280
     0
102
RTVSPost2010PropOp31
 70
     1
102
RTVSPost2010Prop32
280
     0
102
RTVSPost2010PropOp32
 70
     1
102
RTVSPost2010Prop33
280
     0
102
RTVSPost2010PropOp33
 70
     1
102
RTVSPost2010Prop34
280
     0
102
RTVSPost2010PropOp34
 70
     1
102
RTVSPost2010Prop35
280
     0
102
RTVSPost2010PropOp35
 70
     1
102
RTVSPost2010Prop36
280
     0
102
RTVSPost2010PropOp36
 70
     1
102
RTVSPost2010Prop37
 90
       50
102
RTVSPost2010PropOp37
 70
     1
102
RTVSPost2010Prop38
140
0.0
102
RTVSPost2010PropOp38
 70
     1
102
RTVSPost2010Prop39
140
1.0
102
RTVSPost2010PropOp39
 70
     1
102
RTVSPost2010Prop40
 90
        0
102
RTVSPost2010PropOp40
 70
     1
102
RTVSPost2010Prop41ColorIndex
 90
       18
102
RTVSPost2010Prop41ColorRGB
 90
        0
102
RTVSPost2010PropOp41
 70
     1
102
RTVSPost2010Prop42
 90
       50
102
RTVSPost2010PropOp42
 70
     1
102
RTVSPost2010Prop43
 90
        3
102
RTVSPost2010PropOp43
 70
     1
102
RTVSPost2010Prop44ColorIndex
 90
        5
102
RTVSPost2010Prop44ColorRGB
 90
      255
102
RTVSPost2010PropOp44
 70
     1
102
RTVSPost2010Prop45
280
     0
102
RTVSPost2010PropOp45
 70
     1
102
RTVSPost2010Prop46
 90
       50
102
RTVSPost2010PropOp46
 70
     1
102
RTVSPost2010Prop47
 90
       50
102
RTVSPost2010PropOp47
 70
     1
102
RTVSPost2010Prop48
 90
       50
102
RTVSPost2010PropOp48
 70
     1
102
RTVSPost2010Prop49
280
     0
102
RTVSPost2010PropOp49
 70
     1
102
RTVSPost2010Prop50
 90
       50
102
RTVSPost2010PropOp50
 70
     1
102
RTVSPost2010Prop51ColorIndex
 90
      256
102
RTVSPost2010Prop51ColorRGB
 90
-16777216
102
RTVSPost2010PropOp51
 70
     0
102
RTVSPost2010Prop52
140
1.0
102
RTVSPost2010PropOp52
 70
     0
102
RTVSPost2010Prop53
 90
        2
102
RTVSPost2010PropOp53
 70
     1
102
RTVSPost2010Prop54
  1
strokes_ogs.tif
102
RTVSPost2010PropOp54
 70
     1
102
RTVSPost2010Prop55
280
     0
102
RTVSPost2010PropOp55
 70
     1
102
RTVSPost2010Prop56
140
1.0
102
RTVSPost2010PropOp56
 70
     1
102
RTVSPost2010Prop57
140
1.0
102
RTVSPost2010PropOp57
 70
     1
102
RTVSPropertyOp0
 70
     1
102
RTVSPropertyOp1
 70
     1
102
RTVSPropertyOp2
 70
     1
102
RTVSPropertyOp3
 70
     1
102
RTVSPropertyOp4
 70
     1
102
RTVSPropertyOp5
 70
     1
102
RTVSPropertyOp6
 70
     1
102
RTVSPropertyOp7
 70
     1
102
RTVSPropertyOp8
 70
     1
102
RTVSPropertyOp9
 70
     1
102
RTVSPropertyOp10
 70
     1
102
RTVSPropertyOp11
 70
     1
102
RTVSPropertyOp12
 70
     1
102
RTVSPropertyOp13
 70
     1
102
RTVSPropertyOp14
 70
     1
102
RTVSPropertyOp15
 70
     1
102
RTVSPropertyOp16
 70
     1
102
RTVSPropertyOp17
 70
     1
102
RTVSPropertyOp18
 70
     1
102
RTVSPropertyOp19
 70
     1
102
RTVSPropertyOp20
 70
     1
102
RTVSPropertyOp21
 70
     1
102
RTVSPropertyOp22
 70
     1
102
RTVSPropertyOp23
 70
     1
102
RTVSPropertyOp24
 70
     1
102
RTVSPropertyOp25
 70
     1
102
RTVSPropertyOp26
 70
     1
102
RTVSPropertyOp27
 70
     1
102
RTVSPropertyOp28
 70
     1
102
RTVSPropertyOp29
 70
     1
102
RTVSPropertyOp30
 70
     1
102
RTVSPropertyOp31
 70
     1
102
RTVSPropertyOp32
 70
     1
102
RTVSPropertyOp33
 70
     1
102
RTVSPropertyOp34
 70
     1
102
RTVSPropertyOp35
 70
     1
102
RTVSPropertyOp36
 70
     1
102
RTVSPropertyOp37
 70
     1
102
RTVSPropertyOp38
 70
     1
102
RTVSPropertyOp39
 70
     1
102
RTVSPropertyOp40
 70
     1
102
RTVSPropertyOp41
 70
     1
102
RTVSPropertyOp42
 70
     1
102
RTVSPropertyOp43
 70
     1
102
RTVSPropertyOp44
 70
     1
102
RTVSPropertyOp45
 70
     1
102
RTVSPropertyOp46
 70
     1
102
RTVSPropertyOp47
 70
     1
102
RTVSPropertyOp48
 70
     1
102
RTVSPropertyOp49
 70
     1
102
RTVSPropertyOp50
 70
     1
102
RTVSPropertyOp51
 70
     0
102
RTVSPropertyOp52
 70
     0
102
RTVSPropertyOp53
 70
     1
102
RTVSPropertyOp54
 70
     1
102
RTVSPropertyOp55
 70
     1
102
RTVSPropertyOp56
 70
     1
102
RTVSPropertyOp57
 70
     1
102
RTVSPropertyOp58
 70
     1
102
RTVSPropertyOp59
 70
     1
102
RTVSPropertyOp60
 70
     1
102
RTVSPropertyOp61
 70
     1
102
RTVSPropertyOp62
 70
     1
  0
XRECORD
  5
973A
102
{ACAD_REACTORS
330
9739
102
}
330
9739
100
AcDbXrecord
280
     1
102
RTVSPost2010Prop28
280
     0
102
RTVSPost2010PropOp28
 70
     1
102
RTVSPost2010Prop29
280
     1
102
RTVSPost2010PropOp29
 70
     1
102
RTVSPost2010Prop30
280
     1
102
RTVSPost2010PropOp30
 70
     1
102
RTVSPost2010Prop31
280
     0
102
RTVSPost2010PropOp31
 70
     1
102
RTVSPost2010Prop32
280
     0
102
RTVSPost2010PropOp32
 70
     1
102
RTVSPost2010Prop33
280
     0
102
RTVSPost2010PropOp33
 70
     1
102
RTVSPost2010Prop34
280
     0
102
RTVSPost2010PropOp34
 70
     1
102
RTVSPost2010Prop35
280
     0
102
RTVSPost2010PropOp35
 70
     1
102
RTVSPost2010Prop36
280
     0
102
RTVSPost2010PropOp36
 70
     1
102
RTVSPost2010Prop37
 90
       50
102
RTVSPost2010PropOp37
 70
     1
102
RTVSPost2010Prop38
140
0.0
102
RTVSPost2010PropOp38
 70
     1
102
RTVSPost2010Prop39
140
1.0
102
RTVSPost2010PropOp39
 70
     1
102
RTVSPost2010Prop40
 90
        0
102
RTVSPost2010PropOp40
 70
     1
102
RTVSPost2010Prop41ColorIndex
 90
       18
102
RTVSPost2010Prop41ColorRGB
 90
        0
102
RTVSPost2010PropOp41
 70
     1
102
RTVSPost2010Prop42
 90
       50
102
RTVSPost2010PropOp42
 70
     1
102
RTVSPost2010Prop43
 90
        3
102
RTVSPost2010PropOp43
 70
     1
102
RTVSPost2010Prop44ColorIndex
 90
        5
102
RTVSPost2010Prop44ColorRGB
 90
      255
102
RTVSPost2010PropOp44
 70
     1
102
RTVSPost2010Prop45
280
     0
102
RTVSPost2010PropOp45
 70
     1
102
RTVSPost2010Prop46
 90
       50
102
RTVSPost2010PropOp46
 70
     1
102
RTVSPost2010Prop47
 90
       50
102
RTVSPost2010PropOp47
 70
     1
102
RTVSPost2010Prop48
 90
       50
102
RTVSPost2010PropOp48
 70
     1
102
RTVSPost2010Prop49
280
     0
102
RTVSPost2010PropOp49
 70
     1
102
RTVSPost2010Prop50
 90
       50
102
RTVSPost2010PropOp50
 70
     1
102
RTVSPost2010Prop51ColorIndex
 90
      256
102
RTVSPost2010Prop51ColorRGB
 90
-16777216
102
RTVSPost2010PropOp51
 70
     0
102
RTVSPost2010Prop52
140
1.0
102
RTVSPost2010PropOp52
 70
     0
102
RTVSPost2010Prop53
 90
        2
102
RTVSPost2010PropOp53
 70
     1
102
RTVSPost2010Prop54
  1
strokes_ogs.tif
102
RTVSPost2010PropOp54
 70
     1
102
RTVSPost2010Prop55
280
     0
102
RTVSPost2010PropOp55
 70
     1
102
RTVSPost2010Prop56
140
1.0
102
RTVSPost2010PropOp56
 70
     1
102
RTVSPost2010Prop57
140
1.0
102
RTVSPost2010PropOp57
 70
     1
102
RTVSPropertyOp0
 70
     1
102
RTVSPropertyOp1
 70
     1
102
RTVSPropertyOp2
 70
     1
102
RTVSPropertyOp3
 70
     1
102
RTVSPropertyOp4
 70
     1
102
RTVSPropertyOp5
 70
     1
102
RTVSPropertyOp6
 70
     1
102
RTVSPropertyOp7
 70
     1
102
RTVSPropertyOp8
 70
     1
102
RTVSPropertyOp9
 70
     1
102
RTVSPropertyOp10
 70
     1
102
RTVSPropertyOp11
 70
     1
102
RTVSPropertyOp12
 70
     1
102
RTVSPropertyOp13
 70
     1
102
RTVSPropertyOp14
 70
     1
102
RTVSPropertyOp15
 70
     1
102
RTVSPropertyOp16
 70
     1
102
RTVSPropertyOp17
 70
     1
102
RTVSPropertyOp18
 70
     1
102
RTVSPropertyOp19
 70
     1
102
RTVSPropertyOp20
 70
     1
102
RTVSPropertyOp21
 70
     1
102
RTVSPropertyOp22
 70
     1
102
RTVSPropertyOp23
 70
     1
102
RTVSPropertyOp24
 70
     1
102
RTVSPropertyOp25
 70
     1
102
RTVSPropertyOp26
 70
     1
102
RTVSPropertyOp27
 70
     1
102
RTVSPropertyOp28
 70
     1
102
RTVSPropertyOp29
 70
     1
102
RTVSPropertyOp30
 70
     1
102
RTVSPropertyOp31
 70
     1
102
RTVSPropertyOp32
 70
     1
102
RTVSPropertyOp33
 70
     1
102
RTVSPropertyOp34
 70
     1
102
RTVSPropertyOp35
 70
     1
102
RTVSPropertyOp36
 70
     1
102
RTVSPropertyOp37
 70
     1
102
RTVSPropertyOp38
 70
     1
102
RTVSPropertyOp39
 70
     1
102
RTVSPropertyOp40
 70
     1
102
RTVSPropertyOp41
 70
     1
102
RTVSPropertyOp42
 70
     1
102
RTVSPropertyOp43
 70
     1
102
RTVSPropertyOp44
 70
     1
102
RTVSPropertyOp45
 70
     1
102
RTVSPropertyOp46
 70
     1
102
RTVSPropertyOp47
 70
     1
102
RTVSPropertyOp48
 70
     1
102
RTVSPropertyOp49
 70
     1
102
RTVSPropertyOp50
 70
     1
102
RTVSPropertyOp51
 70
     0
102
RTVSPropertyOp52
 70
     0
102
RTVSPropertyOp53
 70
     1
102
RTVSPropertyOp54
 70
     1
102
RTVSPropertyOp55
 70
     1
102
RTVSPropertyOp56
 70
     1
102
RTVSPropertyOp57
 70
     1
102
RTVSPropertyOp58
 70
     1
102
RTVSPropertyOp59
 70
     1
102
RTVSPropertyOp60
 70
     1
102
RTVSPropertyOp61
 70
     1
102
RTVSPropertyOp62
 70
     1
  0
XRECORD
  5
9742
102
{ACAD_REACTORS
330
9741
102
}
330
9741
100
AcDbXrecord
280
     1
102
RTVSPost2010Prop28
280
     0
102
RTVSPost2010PropOp28
 70
     1
102
RTVSPost2010Prop29
280
     1
102
RTVSPost2010PropOp29
 70
     1
102
RTVSPost2010Prop30
280
     1
102
RTVSPost2010PropOp30
 70
     1
102
RTVSPost2010Prop31
280
     0
102
RTVSPost2010PropOp31
 70
     1
102
RTVSPost2010Prop32
280
     0
102
RTVSPost2010PropOp32
 70
     1
102
RTVSPost2010Prop33
280
     0
102
RTVSPost2010PropOp33
 70
     1
102
RTVSPost2010Prop34
280
     0
102
RTVSPost2010PropOp34
 70
     1
102
RTVSPost2010Prop35
280
     0
102
RTVSPost2010PropOp35
 70
     1
102
RTVSPost2010Prop36
280
     0
102
RTVSPost2010PropOp36
 70
     1
102
RTVSPost2010Prop37
 90
       50
102
RTVSPost2010PropOp37
 70
     1
102
RTVSPost2010Prop38
140
0.0
102
RTVSPost2010PropOp38
 70
     1
102
RTVSPost2010Prop39
140
1.0
102
RTVSPost2010PropOp39
 70
     1
102
RTVSPost2010Prop40
 90
        0
102
RTVSPost2010PropOp40
 70
     1
102
RTVSPost2010Prop41ColorIndex
 90
       18
102
RTVSPost2010Prop41ColorRGB
 90
        0
102
RTVSPost2010PropOp41
 70
     1
102
RTVSPost2010Prop42
 90
       50
102
RTVSPost2010PropOp42
 70
     1
102
RTVSPost2010Prop43
 90
        3
102
RTVSPost2010PropOp43
 70
     1
102
RTVSPost2010Prop44ColorIndex
 90
        5
102
RTVSPost2010Prop44ColorRGB
 90
      255
102
RTVSPost2010PropOp44
 70
     1
102
RTVSPost2010Prop45
280
     0
102
RTVSPost2010PropOp45
 70
     1
102
RTVSPost2010Prop46
 90
       50
102
RTVSPost2010PropOp46
 70
     1
102
RTVSPost2010Prop47
 90
       50
102
RTVSPost2010PropOp47
 70
     1
102
RTVSPost2010Prop48
 90
       50
102
RTVSPost2010PropOp48
 70
     1
102
RTVSPost2010Prop49
280
     0
102
RTVSPost2010PropOp49
 70
     1
102
RTVSPost2010Prop50
 90
       50
102
RTVSPost2010PropOp50
 70
     1
102
RTVSPost2010Prop51ColorIndex
 90
      256
102
RTVSPost2010Prop51ColorRGB
 90
-16777216
102
RTVSPost2010PropOp51
 70
     0
102
RTVSPost2010Prop52
140
1.0
102
RTVSPost2010PropOp52
 70
     0
102
RTVSPost2010Prop53
 90
        2
102
RTVSPost2010PropOp53
 70
     1
102
RTVSPost2010Prop54
  1
strokes_ogs.tif
102
RTVSPost2010PropOp54
 70
     1
102
RTVSPost2010Prop55
280
     0
102
RTVSPost2010PropOp55
 70
     1
102
RTVSPost2010Prop56
140
1.0
102
RTVSPost2010PropOp56
 70
     1
102
RTVSPost2010Prop57
140
1.0
102
RTVSPost2010PropOp57
 70
     1
102
RTVSPropertyOp0
 70
     1
102
RTVSPropertyOp1
 70
     1
102
RTVSPropertyOp2
 70
     1
102
RTVSPropertyOp3
 70
     1
102
RTVSPropertyOp4
 70
     1
102
RTVSPropertyOp5
 70
     1
102
RTVSPropertyOp6
 70
     1
102
RTVSPropertyOp7
 70
     1
102
RTVSPropertyOp8
 70
     1
102
RTVSPropertyOp9
 70
     1
102
RTVSPropertyOp10
 70
     1
102
RTVSPropertyOp11
 70
     1
102
RTVSPropertyOp12
 70
     1
102
RTVSPropertyOp13
 70
     1
102
RTVSPropertyOp14
 70
     1
102
RTVSPropertyOp15
 70
     1
102
RTVSPropertyOp16
 70
     1
102
RTVSPropertyOp17
 70
     1
102
RTVSPropertyOp18
 70
     1
102
RTVSPropertyOp19
 70
     1
102
RTVSPropertyOp20
 70
     1
102
RTVSPropertyOp21
 70
     1
102
RTVSPropertyOp22
 70
     1
102
RTVSPropertyOp23
 70
     1
102
RTVSPropertyOp24
 70
     1
102
RTVSPropertyOp25
 70
     1
102
RTVSPropertyOp26
 70
     1
102
RTVSPropertyOp27
 70
     1
102
RTVSPropertyOp28
 70
     1
102
RTVSPropertyOp29
 70
     1
102
RTVSPropertyOp30
 70
     1
102
RTVSPropertyOp31
 70
     1
102
RTVSPropertyOp32
 70
     1
102
RTVSPropertyOp33
 70
     1
102
RTVSPropertyOp34
 70
     1
102
RTVSPropertyOp35
 70
     1
102
RTVSPropertyOp36
 70
     1
102
RTVSPropertyOp37
 70
     1
102
RTVSPropertyOp38
 70
     1
102
RTVSPropertyOp39
 70
     1
102
RTVSPropertyOp40
 70
     1
102
RTVSPropertyOp41
 70
     1
102
RTVSPropertyOp42
 70
     1
102
RTVSPropertyOp43
 70
     1
102
RTVSPropertyOp44
 70
     1
102
RTVSPropertyOp45
 70
     1
102
RTVSPropertyOp46
 70
     1
102
RTVSPropertyOp47
 70
     1
102
RTVSPropertyOp48
 70
     1
102
RTVSPropertyOp49
 70
     1
102
RTVSPropertyOp50
 70
     1
102
RTVSPropertyOp51
 70
     0
102
RTVSPropertyOp52
 70
     0
102
RTVSPropertyOp53
 70
     1
102
RTVSPropertyOp54
 70
     1
102
RTVSPropertyOp55
 70
     1
102
RTVSPropertyOp56
 70
     1
102
RTVSPropertyOp57
 70
     1
102
RTVSPropertyOp58
 70
     1
102
RTVSPropertyOp59
 70
     1
102
RTVSPropertyOp60
 70
     1
102
RTVSPropertyOp61
 70
     1
102
RTVSPropertyOp62
 70
     1
  0
XRECORD
  5
975E
102
{ACAD_REACTORS
330
975D
102
}
330
975D
100
AcDbXrecord
280
     1
102
RTVSPost2010Prop28
280
     0
102
RTVSPost2010PropOp28
 70
     1
102
RTVSPost2010Prop29
280
     1
102
RTVSPost2010PropOp29
 70
     1
102
RTVSPost2010Prop30
280
     1
102
RTVSPost2010PropOp30
 70
     1
102
RTVSPost2010Prop31
280
     0
102
RTVSPost2010PropOp31
 70
     1
102
RTVSPost2010Prop32
280
     0
102
RTVSPost2010PropOp32
 70
     1
102
RTVSPost2010Prop33
280
     0
102
RTVSPost2010PropOp33
 70
     1
102
RTVSPost2010Prop34
280
     0
102
RTVSPost2010PropOp34
 70
     1
102
RTVSPost2010Prop35
280
     0
102
RTVSPost2010PropOp35
 70
     1
102
RTVSPost2010Prop36
280
     0
102
RTVSPost2010PropOp36
 70
     1
102
RTVSPost2010Prop37
 90
       50
102
RTVSPost2010PropOp37
 70
     0
102
RTVSPost2010Prop38
140
0.0
102
RTVSPost2010PropOp38
 70
     0
102
RTVSPost2010Prop39
140
1.0
102
RTVSPost2010PropOp39
 70
     0
102
RTVSPost2010Prop40
 90
        0
102
RTVSPost2010PropOp40
 70
     0
102
RTVSPost2010Prop41ColorIndex
 90
       18
102
RTVSPost2010Prop41ColorRGB
 90
        0
102
RTVSPost2010PropOp41
 70
     0
102
RTVSPost2010Prop42
 90
       50
102
RTVSPost2010PropOp42
 70
     0
102
RTVSPost2010Prop43
 90
        3
102
RTVSPost2010PropOp43
 70
     0
102
RTVSPost2010Prop44ColorIndex
 90
        5
102
RTVSPost2010Prop44ColorRGB
 90
      255
102
RTVSPost2010PropOp44
 70
     0
102
RTVSPost2010Prop45
280
     0
102
RTVSPost2010PropOp45
 70
     1
102
RTVSPost2010Prop46
 90
       50
102
RTVSPost2010PropOp46
 70
     0
102
RTVSPost2010Prop47
 90
       50
102
RTVSPost2010PropOp47
 70
     0
102
RTVSPost2010Prop48
 90
       50
102
RTVSPost2010PropOp48
 70
     0
102
RTVSPost2010Prop49
280
     0
102
RTVSPost2010PropOp49
 70
     1
102
RTVSPost2010Prop50
 90
       50
102
RTVSPost2010PropOp50
 70
     0
102
RTVSPost2010Prop51ColorIndex
 90
      256
102
RTVSPost2010Prop51ColorRGB
 90
-16777216
102
RTVSPost2010PropOp51
 70
     0
102
RTVSPost2010Prop52
140
1.0
102
RTVSPost2010PropOp52
 70
     0
102
RTVSPost2010Prop53
 90
        2
102
RTVSPost2010PropOp53
 70
     0
102
RTVSPost2010Prop54
  1
strokes_ogs.tif
102
RTVSPost2010PropOp54
 70
     0
102
RTVSPost2010Prop55
280
     0
102
RTVSPost2010PropOp55
 70
     1
102
RTVSPost2010Prop56
140
1.0
102
RTVSPost2010PropOp56
 70
     0
102
RTVSPost2010Prop57
140
1.0
102
RTVSPost2010PropOp57
 70
     0
102
RTVSPropertyOp0
 70
     0
102
RTVSPropertyOp1
 70
     0
102
RTVSPropertyOp2
 70
     0
102
RTVSPropertyOp3
 70
     0
102
RTVSPropertyOp4
 70
     0
102
RTVSPropertyOp5
 70
     0
102
RTVSPropertyOp6
 70
     0
102
RTVSPropertyOp7
 70
     0
102
RTVSPropertyOp8
 70
     0
102
RTVSPropertyOp9
 70
     0
102
RTVSPropertyOp10
 70
     0
102
RTVSPropertyOp11
 70
     0
102
RTVSPropertyOp12
 70
     0
102
RTVSPropertyOp13
 70
     0
102
RTVSPropertyOp14
 70
     2
102
RTVSPropertyOp15
 70
     0
102
RTVSPropertyOp16
 70
     0
102
RTVSPropertyOp17
 70
     0
102
RTVSPropertyOp18
 70
     0
102
RTVSPropertyOp19
 70
     0
102
RTVSPropertyOp20
 70
     0
102
RTVSPropertyOp21
 70
     0
102
RTVSPropertyOp22
 70
     0
102
RTVSPropertyOp23
 70
     0
102
RTVSPropertyOp24
 70
     0
102
RTVSPropertyOp25
 70
     0
102
RTVSPropertyOp26
 70
     0
102
RTVSPropertyOp27
 70
     0
102
RTVSPropertyOp28
 70
     1
102
RTVSPropertyOp29
 70
     1
102
RTVSPropertyOp30
 70
     1
102
RTVSPropertyOp31
 70
     1
102
RTVSPropertyOp32
 70
     1
102
RTVSPropertyOp33
 70
     1
102
RTVSPropertyOp34
 70
     1
102
RTVSPropertyOp35
 70
     1
102
RTVSPropertyOp36
 70
     1
102
RTVSPropertyOp37
 70
     0
102
RTVSPropertyOp38
 70
     0
102
RTVSPropertyOp39
 70
     0
102
RTVSPropertyOp40
 70
     0
102
RTVSPropertyOp41
 70
     0
102
RTVSPropertyOp42
 70
     0
102
RTVSPropertyOp43
 70
     0
102
RTVSPropertyOp44
 70
     0
102
RTVSPropertyOp45
 70
     1
102
RTVSPropertyOp46
 70
     0
102
RTVSPropertyOp47
 70
     0
102
RTVSPropertyOp48
 70
     0
102
RTVSPropertyOp49
 70
     1
102
RTVSPropertyOp50
 70
     0
102
RTVSPropertyOp51
 70
     0
102
RTVSPropertyOp52
 70
     0
102
RTVSPropertyOp53
 70
     0
102
RTVSPropertyOp54
 70
     0
102
RTVSPropertyOp55
 70
     1
102
RTVSPropertyOp56
 70
     0
102
RTVSPropertyOp57
 70
     0
102
RTVSPropertyOp58
 70
     0
102
RTVSPropertyOp59
 70
     0
102
RTVSPropertyOp60
 70
     0
102
RTVSPropertyOp61
 70
     0
102
RTVSPropertyOp62
 70
     0
  0
XRECORD
  5
974E
102
{ACAD_REACTORS
330
974D
102
}
330
974D
100
AcDbXrecord
280
     1
102
RTVSPost2010Prop28
280
     0
102
RTVSPost2010PropOp28
 70
     1
102
RTVSPost2010Prop29
280
     1
102
RTVSPost2010PropOp29
 70
     1
102
RTVSPost2010Prop30
280
     1
102
RTVSPost2010PropOp30
 70
     1
102
RTVSPost2010Prop31
280
     0
102
RTVSPost2010PropOp31
 70
     1
102
RTVSPost2010Prop32
280
     0
102
RTVSPost2010PropOp32
 70
     1
102
RTVSPost2010Prop33
280
     0
102
RTVSPost2010PropOp33
 70
     1
102
RTVSPost2010Prop34
280
     0
102
RTVSPost2010PropOp34
 70
     1
102
RTVSPost2010Prop35
280
     0
102
RTVSPost2010PropOp35
 70
     1
102
RTVSPost2010Prop36
280
     0
102
RTVSPost2010PropOp36
 70
     1
102
RTVSPost2010Prop37
 90
       50
102
RTVSPost2010PropOp37
 70
     1
102
RTVSPost2010Prop38
140
0.0
102
RTVSPost2010PropOp38
 70
     1
102
RTVSPost2010Prop39
140
1.0
102
RTVSPost2010PropOp39
 70
     1
102
RTVSPost2010Prop40
 90
        0
102
RTVSPost2010PropOp40
 70
     1
102
RTVSPost2010Prop41ColorIndex
 90
       18
102
RTVSPost2010Prop41ColorRGB
 90
        0
102
RTVSPost2010PropOp41
 70
     1
102
RTVSPost2010Prop42
 90
       50
102
RTVSPost2010PropOp42
 70
     1
102
RTVSPost2010Prop43
 90
        3
102
RTVSPost2010PropOp43
 70
     1
102
RTVSPost2010Prop44ColorIndex
 90
        5
102
RTVSPost2010Prop44ColorRGB
 90
      255
102
RTVSPost2010PropOp44
 70
     1
102
RTVSPost2010Prop45
280
     0
102
RTVSPost2010PropOp45
 70
     1
102
RTVSPost2010Prop46
 90
       50
102
RTVSPost2010PropOp46
 70
     1
102
RTVSPost2010Prop47
 90
       50
102
RTVSPost2010PropOp47
 70
     1
102
RTVSPost2010Prop48
 90
       50
102
RTVSPost2010PropOp48
 70
     1
102
RTVSPost2010Prop49
280
     0
102
RTVSPost2010PropOp49
 70
     1
102
RTVSPost2010Prop50
 90
       50
102
RTVSPost2010PropOp50
 70
     1
102
RTVSPost2010Prop51ColorIndex
 90
      256
102
RTVSPost2010Prop51ColorRGB
 90
-16777216
102
RTVSPost2010PropOp51
 70
     0
102
RTVSPost2010Prop52
140
1.0
102
RTVSPost2010PropOp52
 70
     0
102
RTVSPost2010Prop53
 90
        2
102
RTVSPost2010PropOp53
 70
     1
102
RTVSPost2010Prop54
  1
strokes_ogs.tif
102
RTVSPost2010PropOp54
 70
     1
102
RTVSPost2010Prop55
280
     0
102
RTVSPost2010PropOp55
 70
     1
102
RTVSPost2010Prop56
140
1.0
102
RTVSPost2010PropOp56
 70
     1
102
RTVSPost2010Prop57
140
1.0
102
RTVSPost2010PropOp57
 70
     1
102
RTVSPropertyOp0
 70
     1
102
RTVSPropertyOp1
 70
     1
102
RTVSPropertyOp2
 70
     1
102
RTVSPropertyOp3
 70
     1
102
RTVSPropertyOp4
 70
     1
102
RTVSPropertyOp5
 70
     1
102
RTVSPropertyOp6
 70
     1
102
RTVSPropertyOp7
 70
     1
102
RTVSPropertyOp8
 70
     1
102
RTVSPropertyOp9
 70
     1
102
RTVSPropertyOp10
 70
     1
102
RTVSPropertyOp11
 70
     1
102
RTVSPropertyOp12
 70
     1
102
RTVSPropertyOp13
 70
     1
102
RTVSPropertyOp14
 70
     1
102
RTVSPropertyOp15
 70
     1
102
RTVSPropertyOp16
 70
     1
102
RTVSPropertyOp17
 70
     1
102
RTVSPropertyOp18
 70
     1
102
RTVSPropertyOp19
 70
     1
102
RTVSPropertyOp20
 70
     1
102
RTVSPropertyOp21
 70
     1
102
RTVSPropertyOp22
 70
     1
102
RTVSPropertyOp23
 70
     1
102
RTVSPropertyOp24
 70
     1
102
RTVSPropertyOp25
 70
     1
102
RTVSPropertyOp26
 70
     1
102
RTVSPropertyOp27
 70
     1
102
RTVSPropertyOp28
 70
     1
102
RTVSPropertyOp29
 70
     1
102
RTVSPropertyOp30
 70
     1
102
RTVSPropertyOp31
 70
     1
102
RTVSPropertyOp32
 70
     1
102
RTVSPropertyOp33
 70
     1
102
RTVSPropertyOp34
 70
     1
102
RTVSPropertyOp35
 70
     1
102
RTVSPropertyOp36
 70
     1
102
RTVSPropertyOp37
 70
     1
102
RTVSPropertyOp38
 70
     1
102
RTVSPropertyOp39
 70
     1
102
RTVSPropertyOp40
 70
     1
102
RTVSPropertyOp41
 70
     1
102
RTVSPropertyOp42
 70
     1
102
RTVSPropertyOp43
 70
     1
102
RTVSPropertyOp44
 70
     1
102
RTVSPropertyOp45
 70
     1
102
RTVSPropertyOp46
 70
     1
102
RTVSPropertyOp47
 70
     1
102
RTVSPropertyOp48
 70
     1
102
RTVSPropertyOp49
 70
     1
102
RTVSPropertyOp50
 70
     1
102
RTVSPropertyOp51
 70
     0
102
RTVSPropertyOp52
 70
     0
102
RTVSPropertyOp53
 70
     1
102
RTVSPropertyOp54
 70
     1
102
RTVSPropertyOp55
 70
     1
102
RTVSPropertyOp56
 70
     1
102
RTVSPropertyOp57
 70
     1
102
RTVSPropertyOp58
 70
     1
102
RTVSPropertyOp59
 70
     1
102
RTVSPropertyOp60
 70
     1
102
RTVSPropertyOp61
 70
     1
102
RTVSPropertyOp62
 70
     1
  0
XRECORD
  5
9760
102
{ACAD_REACTORS
330
975F
102
}
330
975F
100
AcDbXrecord
280
     1
102
RTVSPost2010Prop28
280
     0
102
RTVSPost2010PropOp28
 70
     1
102
RTVSPost2010Prop29
280
     1
102
RTVSPost2010PropOp29
 70
     1
102
RTVSPost2010Prop30
280
     1
102
RTVSPost2010PropOp30
 70
     1
102
RTVSPost2010Prop31
280
     0
102
RTVSPost2010PropOp31
 70
     1
102
RTVSPost2010Prop32
280
     0
102
RTVSPost2010PropOp32
 70
     1
102
RTVSPost2010Prop33
280
     0
102
RTVSPost2010PropOp33
 70
     1
102
RTVSPost2010Prop34
280
     0
102
RTVSPost2010PropOp34
 70
     1
102
RTVSPost2010Prop35
280
     0
102
RTVSPost2010PropOp35
 70
     1
102
RTVSPost2010Prop36
280
     0
102
RTVSPost2010PropOp36
 70
     1
102
RTVSPost2010Prop37
 90
       50
102
RTVSPost2010PropOp37
 70
     0
102
RTVSPost2010Prop38
140
0.0
102
RTVSPost2010PropOp38
 70
     0
102
RTVSPost2010Prop39
140
1.0
102
RTVSPost2010PropOp39
 70
     0
102
RTVSPost2010Prop40
 90
        0
102
RTVSPost2010PropOp40
 70
     0
102
RTVSPost2010Prop41ColorIndex
 90
       18
102
RTVSPost2010Prop41ColorRGB
 90
        0
102
RTVSPost2010PropOp41
 70
     0
102
RTVSPost2010Prop42
 90
       50
102
RTVSPost2010PropOp42
 70
     0
102
RTVSPost2010Prop43
 90
        3
102
RTVSPost2010PropOp43
 70
     0
102
RTVSPost2010Prop44ColorIndex
 90
        5
102
RTVSPost2010Prop44ColorRGB
 90
      255
102
RTVSPost2010PropOp44
 70
     0
102
RTVSPost2010Prop45
280
     0
102
RTVSPost2010PropOp45
 70
     1
102
RTVSPost2010Prop46
 90
       50
102
RTVSPost2010PropOp46
 70
     0
102
RTVSPost2010Prop47
 90
       50
102
RTVSPost2010PropOp47
 70
     0
102
RTVSPost2010Prop48
 90
       50
102
RTVSPost2010PropOp48
 70
     0
102
RTVSPost2010Prop49
280
     0
102
RTVSPost2010PropOp49
 70
     1
102
RTVSPost2010Prop50
 90
       50
102
RTVSPost2010PropOp50
 70
     0
102
RTVSPost2010Prop51ColorIndex
 90
      256
102
RTVSPost2010Prop51ColorRGB
 90
-16777216
102
RTVSPost2010PropOp51
 70
     0
102
RTVSPost2010Prop52
140
1.0
102
RTVSPost2010PropOp52
 70
     0
102
RTVSPost2010Prop53
 90
        2
102
RTVSPost2010PropOp53
 70
     0
102
RTVSPost2010Prop54
  1
strokes_ogs.tif
102
RTVSPost2010PropOp54
 70
     0
102
RTVSPost2010Prop55
280
     0
102
RTVSPost2010PropOp55
 70
     1
102
RTVSPost2010Prop56
140
1.0
102
RTVSPost2010PropOp56
 70
     0
102
RTVSPost2010Prop57
140
1.0
102
RTVSPost2010PropOp57
 70
     0
102
RTVSPropertyOp0
 70
     0
102
RTVSPropertyOp1
 70
     0
102
RTVSPropertyOp2
 70
     0
102
RTVSPropertyOp3
 70
     0
102
RTVSPropertyOp4
 70
     0
102
RTVSPropertyOp5
 70
     0
102
RTVSPropertyOp6
 70
     0
102
RTVSPropertyOp7
 70
     0
102
RTVSPropertyOp8
 70
     0
102
RTVSPropertyOp9
 70
     0
102
RTVSPropertyOp10
 70
     0
102
RTVSPropertyOp11
 70
     0
102
RTVSPropertyOp12
 70
     0
102
RTVSPropertyOp13
 70
     0
102
RTVSPropertyOp14
 70
     2
102
RTVSPropertyOp15
 70
     0
102
RTVSPropertyOp16
 70
     0
102
RTVSPropertyOp17
 70
     0
102
RTVSPropertyOp18
 70
     0
102
RTVSPropertyOp19
 70
     0
102
RTVSPropertyOp20
 70
     0
102
RTVSPropertyOp21
 70
     0
102
RTVSPropertyOp22
 70
     0
102
RTVSPropertyOp23
 70
     0
102
RTVSPropertyOp24
 70
     0
102
RTVSPropertyOp25
 70
     0
102
RTVSPropertyOp26
 70
     0
102
RTVSPropertyOp27
 70
     0
102
RTVSPropertyOp28
 70
     1
102
RTVSPropertyOp29
 70
     1
102
RTVSPropertyOp30
 70
     1
102
RTVSPropertyOp31
 70
     1
102
RTVSPropertyOp32
 70
     1
102
RTVSPropertyOp33
 70
     1
102
RTVSPropertyOp34
 70
     1
102
RTVSPropertyOp35
 70
     1
102
RTVSPropertyOp36
 70
     1
102
RTVSPropertyOp37
 70
     0
102
RTVSPropertyOp38
 70
     0
102
RTVSPropertyOp39
 70
     0
102
RTVSPropertyOp40
 70
     0
102
RTVSPropertyOp41
 70
     0
102
RTVSPropertyOp42
 70
     0
102
RTVSPropertyOp43
 70
     0
102
RTVSPropertyOp44
 70
     0
102
RTVSPropertyOp45
 70
     1
102
RTVSPropertyOp46
 70
     0
102
RTVSPropertyOp47
 70
     0
102
RTVSPropertyOp48
 70
     0
102
RTVSPropertyOp49
 70
     1
102
RTVSPropertyOp50
 70
     0
102
RTVSPropertyOp51
 70
     0
102
RTVSPropertyOp52
 70
     0
102
RTVSPropertyOp53
 70
     0
102
RTVSPropertyOp54
 70
     0
102
RTVSPropertyOp55
 70
     1
102
RTVSPropertyOp56
 70
     0
102
RTVSPropertyOp57
 70
     0
102
RTVSPropertyOp58
 70
     0
102
RTVSPropertyOp59
 70
     0
102
RTVSPropertyOp60
 70
     0
102
RTVSPropertyOp61
 70
     0
102
RTVSPropertyOp62
 70
     0
  0
XRECORD
  5
9746
102
{ACAD_REACTORS
330
9745
102
}
330
9745
100
AcDbXrecord
280
     1
102
RTVSPost2010Prop28
280
     0
102
RTVSPost2010PropOp28
 70
     1
102
RTVSPost2010Prop29
280
     1
102
RTVSPost2010PropOp29
 70
     1
102
RTVSPost2010Prop30
280
     1
102
RTVSPost2010PropOp30
 70
     1
102
RTVSPost2010Prop31
280
     0
102
RTVSPost2010PropOp31
 70
     1
102
RTVSPost2010Prop32
280
     0
102
RTVSPost2010PropOp32
 70
     1
102
RTVSPost2010Prop33
280
     0
102
RTVSPost2010PropOp33
 70
     1
102
RTVSPost2010Prop34
280
     0
102
RTVSPost2010PropOp34
 70
     1
102
RTVSPost2010Prop35
280
     0
102
RTVSPost2010PropOp35
 70
     1
102
RTVSPost2010Prop36
280
     0
102
RTVSPost2010PropOp36
 70
     1
102
RTVSPost2010Prop37
 90
       50
102
RTVSPost2010PropOp37
 70
     1
102
RTVSPost2010Prop38
140
0.0
102
RTVSPost2010PropOp38
 70
     1
102
RTVSPost2010Prop39
140
1.0
102
RTVSPost2010PropOp39
 70
     1
102
RTVSPost2010Prop40
 90
        0
102
RTVSPost2010PropOp40
 70
     1
102
RTVSPost2010Prop41ColorIndex
 90
       18
102
RTVSPost2010Prop41ColorRGB
 90
        0
102
RTVSPost2010PropOp41
 70
     1
102
RTVSPost2010Prop42
 90
       50
102
RTVSPost2010PropOp42
 70
     1
102
RTVSPost2010Prop43
 90
        3
102
RTVSPost2010PropOp43
 70
     1
102
RTVSPost2010Prop44ColorIndex
 90
        5
102
RTVSPost2010Prop44ColorRGB
 90
      255
102
RTVSPost2010PropOp44
 70
     1
102
RTVSPost2010Prop45
280
     0
102
RTVSPost2010PropOp45
 70
     1
102
RTVSPost2010Prop46
 90
       50
102
RTVSPost2010PropOp46
 70
     1
102
RTVSPost2010Prop47
 90
       50
102
RTVSPost2010PropOp47
 70
     1
102
RTVSPost2010Prop48
 90
       50
102
RTVSPost2010PropOp48
 70
     1
102
RTVSPost2010Prop49
280
     0
102
RTVSPost2010PropOp49
 70
     1
102
RTVSPost2010Prop50
 90
       50
102
RTVSPost2010PropOp50
 70
     1
102
RTVSPost2010Prop51ColorIndex
 90
      256
102
RTVSPost2010Prop51ColorRGB
 90
-16777216
102
RTVSPost2010PropOp51
 70
     0
102
RTVSPost2010Prop52
140
1.0
102
RTVSPost2010PropOp52
 70
     0
102
RTVSPost2010Prop53
 90
        2
102
RTVSPost2010PropOp53
 70
     1
102
RTVSPost2010Prop54
  1
strokes_ogs.tif
102
RTVSPost2010PropOp54
 70
     1
102
RTVSPost2010Prop55
280
     0
102
RTVSPost2010PropOp55
 70
     1
102
RTVSPost2010Prop56
140
1.0
102
RTVSPost2010PropOp56
 70
     1
102
RTVSPost2010Prop57
140
1.0
102
RTVSPost2010PropOp57
 70
     1
102
RTVSPropertyOp0
 70
     1
102
RTVSPropertyOp1
 70
     1
102
RTVSPropertyOp2
 70
     1
102
RTVSPropertyOp3
 70
     1
102
RTVSPropertyOp4
 70
     1
102
RTVSPropertyOp5
 70
     1
102
RTVSPropertyOp6
 70
     1
102
RTVSPropertyOp7
 70
     1
102
RTVSPropertyOp8
 70
     1
102
RTVSPropertyOp9
 70
     1
102
RTVSPropertyOp10
 70
     1
102
RTVSPropertyOp11
 70
     1
102
RTVSPropertyOp12
 70
     1
102
RTVSPropertyOp13
 70
     1
102
RTVSPropertyOp14
 70
     1
102
RTVSPropertyOp15
 70
     1
102
RTVSPropertyOp16
 70
     1
102
RTVSPropertyOp17
 70
     1
102
RTVSPropertyOp18
 70
     1
102
RTVSPropertyOp19
 70
     1
102
RTVSPropertyOp20
 70
     1
102
RTVSPropertyOp21
 70
     1
102
RTVSPropertyOp22
 70
     1
102
RTVSPropertyOp23
 70
     1
102
RTVSPropertyOp24
 70
     1
102
RTVSPropertyOp25
 70
     1
102
RTVSPropertyOp26
 70
     1
102
RTVSPropertyOp27
 70
     1
102
RTVSPropertyOp28
 70
     1
102
RTVSPropertyOp29
 70
     1
102
RTVSPropertyOp30
 70
     1
102
RTVSPropertyOp31
 70
     1
102
RTVSPropertyOp32
 70
     1
102
RTVSPropertyOp33
 70
     1
102
RTVSPropertyOp34
 70
     1
102
RTVSPropertyOp35
 70
     1
102
RTVSPropertyOp36
 70
     1
102
RTVSPropertyOp37
 70
     1
102
RTVSPropertyOp38
 70
     1
102
RTVSPropertyOp39
 70
     1
102
RTVSPropertyOp40
 70
     1
102
RTVSPropertyOp41
 70
     1
102
RTVSPropertyOp42
 70
     1
102
RTVSPropertyOp43
 70
     1
102
RTVSPropertyOp44
 70
     1
102
RTVSPropertyOp45
 70
     1
102
RTVSPropertyOp46
 70
     1
102
RTVSPropertyOp47
 70
     1
102
RTVSPropertyOp48
 70
     1
102
RTVSPropertyOp49
 70
     1
102
RTVSPropertyOp50
 70
     1
102
RTVSPropertyOp51
 70
     0
102
RTVSPropertyOp52
 70
     0
102
RTVSPropertyOp53
 70
     1
102
RTVSPropertyOp54
 70
     1
102
RTVSPropertyOp55
 70
     1
102
RTVSPropertyOp56
 70
     1
102
RTVSPropertyOp57
 70
     1
102
RTVSPropertyOp58
 70
     1
102
RTVSPropertyOp59
 70
     1
102
RTVSPropertyOp60
 70
     1
102
RTVSPropertyOp61
 70
     1
102
RTVSPropertyOp62
 70
     1
  0
XRECORD
  5
975C
102
{ACAD_REACTORS
330
975B
102
}
330
975B
100
AcDbXrecord
280
     1
102
RTVSPost2010Prop28
280
     0
102
RTVSPost2010PropOp28
 70
     1
102
RTVSPost2010Prop29
280
     1
102
RTVSPost2010PropOp29
 70
     1
102
RTVSPost2010Prop30
280
     1
102
RTVSPost2010PropOp30
 70
     1
102
RTVSPost2010Prop31
280
     0
102
RTVSPost2010PropOp31
 70
     1
102
RTVSPost2010Prop32
280
     0
102
RTVSPost2010PropOp32
 70
     1
102
RTVSPost2010Prop33
280
     0
102
RTVSPost2010PropOp33
 70
     1
102
RTVSPost2010Prop34
280
     0
102
RTVSPost2010PropOp34
 70
     1
102
RTVSPost2010Prop35
280
     0
102
RTVSPost2010PropOp35
 70
     1
102
RTVSPost2010Prop36
280
     0
102
RTVSPost2010PropOp36
 70
     1
102
RTVSPost2010Prop37
 90
       50
102
RTVSPost2010PropOp37
 70
     1
102
RTVSPost2010Prop38
140
0.0
102
RTVSPost2010PropOp38
 70
     1
102
RTVSPost2010Prop39
140
1.0
102
RTVSPost2010PropOp39
 70
     1
102
RTVSPost2010Prop40
 90
        0
102
RTVSPost2010PropOp40
 70
     1
102
RTVSPost2010Prop41ColorIndex
 90
       18
102
RTVSPost2010Prop41ColorRGB
 90
        0
102
RTVSPost2010PropOp41
 70
     1
102
RTVSPost2010Prop42
 90
       50
102
RTVSPost2010PropOp42
 70
     1
102
RTVSPost2010Prop43
 90
        3
102
RTVSPost2010PropOp43
 70
     1
102
RTVSPost2010Prop44ColorIndex
 90
        5
102
RTVSPost2010Prop44ColorRGB
 90
      255
102
RTVSPost2010PropOp44
 70
     1
102
RTVSPost2010Prop45
280
     0
102
RTVSPost2010PropOp45
 70
     1
102
RTVSPost2010Prop46
 90
       50
102
RTVSPost2010PropOp46
 70
     1
102
RTVSPost2010Prop47
 90
       50
102
RTVSPost2010PropOp47
 70
     1
102
RTVSPost2010Prop48
 90
       50
102
RTVSPost2010PropOp48
 70
     1
102
RTVSPost2010Prop49
280
     0
102
RTVSPost2010PropOp49
 70
     1
102
RTVSPost2010Prop50
 90
       50
102
RTVSPost2010PropOp50
 70
     1
102
RTVSPost2010Prop51ColorIndex
 90
      256
102
RTVSPost2010Prop51ColorRGB
 90
-16777216
102
RTVSPost2010PropOp51
 70
     0
102
RTVSPost2010Prop52
140
1.0
102
RTVSPost2010PropOp52
 70
     0
102
RTVSPost2010Prop53
 90
        2
102
RTVSPost2010PropOp53
 70
     1
102
RTVSPost2010Prop54
  1
strokes_ogs.tif
102
RTVSPost2010PropOp54
 70
     1
102
RTVSPost2010Prop55
280
     0
102
RTVSPost2010PropOp55
 70
     1
102
RTVSPost2010Prop56
140
1.0
102
RTVSPost2010PropOp56
 70
     1
102
RTVSPost2010Prop57
140
1.0
102
RTVSPost2010PropOp57
 70
     1
102
RTVSPropertyOp0
 70
     1
102
RTVSPropertyOp1
 70
     1
102
RTVSPropertyOp2
 70
     1
102
RTVSPropertyOp3
 70
     1
102
RTVSPropertyOp4
 70
     1
102
RTVSPropertyOp5
 70
     1
102
RTVSPropertyOp6
 70
     1
102
RTVSPropertyOp7
 70
     1
102
RTVSPropertyOp8
 70
     1
102
RTVSPropertyOp9
 70
     1
102
RTVSPropertyOp10
 70
     1
102
RTVSPropertyOp11
 70
     1
102
RTVSPropertyOp12
 70
     1
102
RTVSPropertyOp13
 70
     1
102
RTVSPropertyOp14
 70
     1
102
RTVSPropertyOp15
 70
     1
102
RTVSPropertyOp16
 70
     1
102
RTVSPropertyOp17
 70
     1
102
RTVSPropertyOp18
 70
     1
102
RTVSPropertyOp19
 70
     1
102
RTVSPropertyOp20
 70
     1
102
RTVSPropertyOp21
 70
     1
102
RTVSPropertyOp22
 70
     1
102
RTVSPropertyOp23
 70
     1
102
RTVSPropertyOp24
 70
     1
102
RTVSPropertyOp25
 70
     1
102
RTVSPropertyOp26
 70
     1
102
RTVSPropertyOp27
 70
     1
102
RTVSPropertyOp28
 70
     1
102
RTVSPropertyOp29
 70
     1
102
RTVSPropertyOp30
 70
     1
102
RTVSPropertyOp31
 70
     1
102
RTVSPropertyOp32
 70
     1
102
RTVSPropertyOp33
 70
     1
102
RTVSPropertyOp34
 70
     1
102
RTVSPropertyOp35
 70
     1
102
RTVSPropertyOp36
 70
     1
102
RTVSPropertyOp37
 70
     1
102
RTVSPropertyOp38
 70
     1
102
RTVSPropertyOp39
 70
     1
102
RTVSPropertyOp40
 70
     1
102
RTVSPropertyOp41
 70
     1
102
RTVSPropertyOp42
 70
     1
102
RTVSPropertyOp43
 70
     1
102
RTVSPropertyOp44
 70
     1
102
RTVSPropertyOp45
 70
     1
102
RTVSPropertyOp46
 70
     1
102
RTVSPropertyOp47
 70
     1
102
RTVSPropertyOp48
 70
     1
102
RTVSPropertyOp49
 70
     1
102
RTVSPropertyOp50
 70
     1
102
RTVSPropertyOp51
 70
     0
102
RTVSPropertyOp52
 70
     0
102
RTVSPropertyOp53
 70
     1
102
RTVSPropertyOp54
 70
     1
102
RTVSPropertyOp55
 70
     1
102
RTVSPropertyOp56
 70
     1
102
RTVSPropertyOp57
 70
     1
102
RTVSPropertyOp58
 70
     1
102
RTVSPropertyOp59
 70
     1
102
RTVSPropertyOp60
 70
     1
102
RTVSPropertyOp61
 70
     1
102
RTVSPropertyOp62
 70
     1
  0
XRECORD
  5
975A
102
{ACAD_REACTORS
330
9759
102
}
330
9759
100
AcDbXrecord
280
     1
102
RTVSPost2010Prop28
280
     0
102
RTVSPost2010PropOp28
 70
     1
102
RTVSPost2010Prop29
280
     1
102
RTVSPost2010PropOp29
 70
     1
102
RTVSPost2010Prop30
280
     1
102
RTVSPost2010PropOp30
 70
     1
102
RTVSPost2010Prop31
280
     0
102
RTVSPost2010PropOp31
 70
     1
102
RTVSPost2010Prop32
280
     0
102
RTVSPost2010PropOp32
 70
     1
102
RTVSPost2010Prop33
280
     0
102
RTVSPost2010PropOp33
 70
     1
102
RTVSPost2010Prop34
280
     0
102
RTVSPost2010PropOp34
 70
     1
102
RTVSPost2010Prop35
280
     0
102
RTVSPost2010PropOp35
 70
     1
102
RTVSPost2010Prop36
280
     0
102
RTVSPost2010PropOp36
 70
     1
102
RTVSPost2010Prop37
 90
       50
102
RTVSPost2010PropOp37
 70
     1
102
RTVSPost2010Prop38
140
0.0
102
RTVSPost2010PropOp38
 70
     1
102
RTVSPost2010Prop39
140
1.0
102
RTVSPost2010PropOp39
 70
     1
102
RTVSPost2010Prop40
 90
        0
102
RTVSPost2010PropOp40
 70
     1
102
RTVSPost2010Prop41ColorIndex
 90
       18
102
RTVSPost2010Prop41ColorRGB
 90
        0
102
RTVSPost2010PropOp41
 70
     1
102
RTVSPost2010Prop42
 90
       50
102
RTVSPost2010PropOp42
 70
     1
102
RTVSPost2010Prop43
 90
        3
102
RTVSPost2010PropOp43
 70
     1
102
RTVSPost2010Prop44ColorIndex
 90
        5
102
RTVSPost2010Prop44ColorRGB
 90
      255
102
RTVSPost2010PropOp44
 70
     1
102
RTVSPost2010Prop45
280
     0
102
RTVSPost2010PropOp45
 70
     1
102
RTVSPost2010Prop46
 90
       50
102
RTVSPost2010PropOp46
 70
     1
102
RTVSPost2010Prop47
 90
       50
102
RTVSPost2010PropOp47
 70
     1
102
RTVSPost2010Prop48
 90
       50
102
RTVSPost2010PropOp48
 70
     1
102
RTVSPost2010Prop49
280
     0
102
RTVSPost2010PropOp49
 70
     1
102
RTVSPost2010Prop50
 90
       50
102
RTVSPost2010PropOp50
 70
     1
102
RTVSPost2010Prop51ColorIndex
 90
      256
102
RTVSPost2010Prop51ColorRGB
 90
-16777216
102
RTVSPost2010PropOp51
 70
     0
102
RTVSPost2010Prop52
140
1.0
102
RTVSPost2010PropOp52
 70
     0
102
RTVSPost2010Prop53
 90
        2
102
RTVSPost2010PropOp53
 70
     1
102
RTVSPost2010Prop54
  1
strokes_ogs.tif
102
RTVSPost2010PropOp54
 70
     1
102
RTVSPost2010Prop55
280
     0
102
RTVSPost2010PropOp55
 70
     1
102
RTVSPost2010Prop56
140
1.0
102
RTVSPost2010PropOp56
 70
     1
102
RTVSPost2010Prop57
140
1.0
102
RTVSPost2010PropOp57
 70
     1
102
RTVSPropertyOp0
 70
     1
102
RTVSPropertyOp1
 70
     1
102
RTVSPropertyOp2
 70
     1
102
RTVSPropertyOp3
 70
     1
102
RTVSPropertyOp4
 70
     1
102
RTVSPropertyOp5
 70
     1
102
RTVSPropertyOp6
 70
     1
102
RTVSPropertyOp7
 70
     1
102
RTVSPropertyOp8
 70
     1
102
RTVSPropertyOp9
 70
     1
102
RTVSPropertyOp10
 70
     1
102
RTVSPropertyOp11
 70
     1
102
RTVSPropertyOp12
 70
     1
102
RTVSPropertyOp13
 70
     1
102
RTVSPropertyOp14
 70
     1
102
RTVSPropertyOp15
 70
     1
102
RTVSPropertyOp16
 70
     1
102
RTVSPropertyOp17
 70
     1
102
RTVSPropertyOp18
 70
     1
102
RTVSPropertyOp19
 70
     1
102
RTVSPropertyOp20
 70
     1
102
RTVSPropertyOp21
 70
     1
102
RTVSPropertyOp22
 70
     1
102
RTVSPropertyOp23
 70
     1
102
RTVSPropertyOp24
 70
     1
102
RTVSPropertyOp25
 70
     1
102
RTVSPropertyOp26
 70
     1
102
RTVSPropertyOp27
 70
     1
102
RTVSPropertyOp28
 70
     1
102
RTVSPropertyOp29
 70
     1
102
RTVSPropertyOp30
 70
     1
102
RTVSPropertyOp31
 70
     1
102
RTVSPropertyOp32
 70
     1
102
RTVSPropertyOp33
 70
     1
102
RTVSPropertyOp34
 70
     1
102
RTVSPropertyOp35
 70
     1
102
RTVSPropertyOp36
 70
     1
102
RTVSPropertyOp37
 70
     1
102
RTVSPropertyOp38
 70
     1
102
RTVSPropertyOp39
 70
     1
102
RTVSPropertyOp40
 70
     1
102
RTVSPropertyOp41
 70
     1
102
RTVSPropertyOp42
 70
     1
102
RTVSPropertyOp43
 70
     1
102
RTVSPropertyOp44
 70
     1
102
RTVSPropertyOp45
 70
     1
102
RTVSPropertyOp46
 70
     1
102
RTVSPropertyOp47
 70
     1
102
RTVSPropertyOp48
 70
     1
102
RTVSPropertyOp49
 70
     1
102
RTVSPropertyOp50
 70
     1
102
RTVSPropertyOp51
 70
     0
102
RTVSPropertyOp52
 70
     0
102
RTVSPropertyOp53
 70
     1
102
RTVSPropertyOp54
 70
     1
102
RTVSPropertyOp55
 70
     1
102
RTVSPropertyOp56
 70
     1
102
RTVSPropertyOp57
 70
     1
102
RTVSPropertyOp58
 70
     1
102
RTVSPropertyOp59
 70
     1
102
RTVSPropertyOp60
 70
     1
102
RTVSPropertyOp61
 70
     1
102
RTVSPropertyOp62
 70
     1
  0
XRECORD
  5
9754
102
{ACAD_REACTORS
330
9753
102
}
330
9753
100
AcDbXrecord
280
     1
102
RTVSPost2010Prop28
280
     0
102
RTVSPost2010PropOp28
 70
     1
102
RTVSPost2010Prop29
280
     1
102
RTVSPost2010PropOp29
 70
     1
102
RTVSPost2010Prop30
280
     1
102
RTVSPost2010PropOp30
 70
     1
102
RTVSPost2010Prop31
280
     0
102
RTVSPost2010PropOp31
 70
     1
102
RTVSPost2010Prop32
280
     0
102
RTVSPost2010PropOp32
 70
     1
102
RTVSPost2010Prop33
280
     0
102
RTVSPost2010PropOp33
 70
     1
102
RTVSPost2010Prop34
280
     0
102
RTVSPost2010PropOp34
 70
     1
102
RTVSPost2010Prop35
280
     0
102
RTVSPost2010PropOp35
 70
     1
102
RTVSPost2010Prop36
280
     0
102
RTVSPost2010PropOp36
 70
     1
102
RTVSPost2010Prop37
 90
       50
102
RTVSPost2010PropOp37
 70
     1
102
RTVSPost2010Prop38
140
0.0
102
RTVSPost2010PropOp38
 70
     1
102
RTVSPost2010Prop39
140
1.0
102
RTVSPost2010PropOp39
 70
     1
102
RTVSPost2010Prop40
 90
        0
102
RTVSPost2010PropOp40
 70
     1
102
RTVSPost2010Prop41ColorIndex
 90
       18
102
RTVSPost2010Prop41ColorRGB
 90
        0
102
RTVSPost2010PropOp41
 70
     1
102
RTVSPost2010Prop42
 90
       50
102
RTVSPost2010PropOp42
 70
     1
102
RTVSPost2010Prop43
 90
        3
102
RTVSPost2010PropOp43
 70
     1
102
RTVSPost2010Prop44ColorIndex
 90
        5
102
RTVSPost2010Prop44ColorRGB
 90
      255
102
RTVSPost2010PropOp44
 70
     1
102
RTVSPost2010Prop45
280
     0
102
RTVSPost2010PropOp45
 70
     1
102
RTVSPost2010Prop46
 90
       50
102
RTVSPost2010PropOp46
 70
     1
102
RTVSPost2010Prop47
 90
       50
102
RTVSPost2010PropOp47
 70
     1
102
RTVSPost2010Prop48
 90
       50
102
RTVSPost2010PropOp48
 70
     1
102
RTVSPost2010Prop49
280
     0
102
RTVSPost2010PropOp49
 70
     1
102
RTVSPost2010Prop50
 90
       50
102
RTVSPost2010PropOp50
 70
     1
102
RTVSPost2010Prop51ColorIndex
 90
      256
102
RTVSPost2010Prop51ColorRGB
 90
-16777216
102
RTVSPost2010PropOp51
 70
     0
102
RTVSPost2010Prop52
140
1.0
102
RTVSPost2010PropOp52
 70
     0
102
RTVSPost2010Prop53
 90
        2
102
RTVSPost2010PropOp53
 70
     1
102
RTVSPost2010Prop54
  1
strokes_ogs.tif
102
RTVSPost2010PropOp54
 70
     1
102
RTVSPost2010Prop55
280
     0
102
RTVSPost2010PropOp55
 70
     1
102
RTVSPost2010Prop56
140
1.0
102
RTVSPost2010PropOp56
 70
     1
102
RTVSPost2010Prop57
140
1.0
102
RTVSPost2010PropOp57
 70
     1
102
RTVSPropertyOp0
 70
     1
102
RTVSPropertyOp1
 70
     1
102
RTVSPropertyOp2
 70
     1
102
RTVSPropertyOp3
 70
     1
102
RTVSPropertyOp4
 70
     1
102
RTVSPropertyOp5
 70
     1
102
RTVSPropertyOp6
 70
     1
102
RTVSPropertyOp7
 70
     1
102
RTVSPropertyOp8
 70
     1
102
RTVSPropertyOp9
 70
     1
102
RTVSPropertyOp10
 70
     1
102
RTVSPropertyOp11
 70
     1
102
RTVSPropertyOp12
 70
     1
102
RTVSPropertyOp13
 70
     1
102
RTVSPropertyOp14
 70
     1
102
RTVSPropertyOp15
 70
     1
102
RTVSPropertyOp16
 70
     1
102
RTVSPropertyOp17
 70
     1
102
RTVSPropertyOp18
 70
     1
102
RTVSPropertyOp19
 70
     1
102
RTVSPropertyOp20
 70
     1
102
RTVSPropertyOp21
 70
     1
102
RTVSPropertyOp22
 70
     1
102
RTVSPropertyOp23
 70
     1
102
RTVSPropertyOp24
 70
     1
102
RTVSPropertyOp25
 70
     1
102
RTVSPropertyOp26
 70
     1
102
RTVSPropertyOp27
 70
     1
102
RTVSPropertyOp28
 70
     1
102
RTVSPropertyOp29
 70
     1
102
RTVSPropertyOp30
 70
     1
102
RTVSPropertyOp31
 70
     1
102
RTVSPropertyOp32
 70
     1
102
RTVSPropertyOp33
 70
     1
102
RTVSPropertyOp34
 70
     1
102
RTVSPropertyOp35
 70
     1
102
RTVSPropertyOp36
 70
     1
102
RTVSPropertyOp37
 70
     1
102
RTVSPropertyOp38
 70
     1
102
RTVSPropertyOp39
 70
     1
102
RTVSPropertyOp40
 70
     1
102
RTVSPropertyOp41
 70
     1
102
RTVSPropertyOp42
 70
     1
102
RTVSPropertyOp43
 70
     1
102
RTVSPropertyOp44
 70
     1
102
RTVSPropertyOp45
 70
     1
102
RTVSPropertyOp46
 70
     1
102
RTVSPropertyOp47
 70
     1
102
RTVSPropertyOp48
 70
     1
102
RTVSPropertyOp49
 70
     1
102
RTVSPropertyOp50
 70
     1
102
RTVSPropertyOp51
 70
     0
102
RTVSPropertyOp52
 70
     0
102
RTVSPropertyOp53
 70
     1
102
RTVSPropertyOp54
 70
     1
102
RTVSPropertyOp55
 70
     1
102
RTVSPropertyOp56
 70
     1
102
RTVSPropertyOp57
 70
     1
102
RTVSPropertyOp58
 70
     1
102
RTVSPropertyOp59
 70
     1
102
RTVSPropertyOp60
 70
     1
102
RTVSPropertyOp61
 70
     1
102
RTVSPropertyOp62
 70
     1
  0
XRECORD
  5
9756
102
{ACAD_REACTORS
330
9755
102
}
330
9755
100
AcDbXrecord
280
     1
102
RTVSPost2010Prop28
280
     0
102
RTVSPost2010PropOp28
 70
     1
102
RTVSPost2010Prop29
280
     1
102
RTVSPost2010PropOp29
 70
     1
102
RTVSPost2010Prop30
280
     1
102
RTVSPost2010PropOp30
 70
     1
102
RTVSPost2010Prop31
280
     0
102
RTVSPost2010PropOp31
 70
     1
102
RTVSPost2010Prop32
280
     0
102
RTVSPost2010PropOp32
 70
     1
102
RTVSPost2010Prop33
280
     0
102
RTVSPost2010PropOp33
 70
     1
102
RTVSPost2010Prop34
280
     0
102
RTVSPost2010PropOp34
 70
     1
102
RTVSPost2010Prop35
280
     0
102
RTVSPost2010PropOp35
 70
     1
102
RTVSPost2010Prop36
280
     0
102
RTVSPost2010PropOp36
 70
     1
102
RTVSPost2010Prop37
 90
       50
102
RTVSPost2010PropOp37
 70
     1
102
RTVSPost2010Prop38
140
0.0
102
RTVSPost2010PropOp38
 70
     1
102
RTVSPost2010Prop39
140
1.0
102
RTVSPost2010PropOp39
 70
     1
102
RTVSPost2010Prop40
 90
        0
102
RTVSPost2010PropOp40
 70
     1
102
RTVSPost2010Prop41ColorIndex
 90
       18
102
RTVSPost2010Prop41ColorRGB
 90
        0
102
RTVSPost2010PropOp41
 70
     1
102
RTVSPost2010Prop42
 90
       50
102
RTVSPost2010PropOp42
 70
     1
102
RTVSPost2010Prop43
 90
        3
102
RTVSPost2010PropOp43
 70
     1
102
RTVSPost2010Prop44ColorIndex
 90
        5
102
RTVSPost2010Prop44ColorRGB
 90
      255
102
RTVSPost2010PropOp44
 70
     1
102
RTVSPost2010Prop45
280
     0
102
RTVSPost2010PropOp45
 70
     1
102
RTVSPost2010Prop46
 90
       50
102
RTVSPost2010PropOp46
 70
     1
102
RTVSPost2010Prop47
 90
       50
102
RTVSPost2010PropOp47
 70
     1
102
RTVSPost2010Prop48
 90
       50
102
RTVSPost2010PropOp48
 70
     1
102
RTVSPost2010Prop49
280
     0
102
RTVSPost2010PropOp49
 70
     1
102
RTVSPost2010Prop50
 90
       50
102
RTVSPost2010PropOp50
 70
     1
102
RTVSPost2010Prop51ColorIndex
 90
      256
102
RTVSPost2010Prop51ColorRGB
 90
-16777216
102
RTVSPost2010PropOp51
 70
     0
102
RTVSPost2010Prop52
140
1.0
102
RTVSPost2010PropOp52
 70
     0
102
RTVSPost2010Prop53
 90
        2
102
RTVSPost2010PropOp53
 70
     1
102
RTVSPost2010Prop54
  1
strokes_ogs.tif
102
RTVSPost2010PropOp54
 70
     1
102
RTVSPost2010Prop55
280
     0
102
RTVSPost2010PropOp55
 70
     1
102
RTVSPost2010Prop56
140
1.0
102
RTVSPost2010PropOp56
 70
     1
102
RTVSPost2010Prop57
140
1.0
102
RTVSPost2010PropOp57
 70
     1
102
RTVSPropertyOp0
 70
     1
102
RTVSPropertyOp1
 70
     1
102
RTVSPropertyOp2
 70
     1
102
RTVSPropertyOp3
 70
     1
102
RTVSPropertyOp4
 70
     1
102
RTVSPropertyOp5
 70
     1
102
RTVSPropertyOp6
 70
     1
102
RTVSPropertyOp7
 70
     1
102
RTVSPropertyOp8
 70
     1
102
RTVSPropertyOp9
 70
     1
102
RTVSPropertyOp10
 70
     1
102
RTVSPropertyOp11
 70
     1
102
RTVSPropertyOp12
 70
     1
102
RTVSPropertyOp13
 70
     1
102
RTVSPropertyOp14
 70
     1
102
RTVSPropertyOp15
 70
     1
102
RTVSPropertyOp16
 70
     1
102
RTVSPropertyOp17
 70
     1
102
RTVSPropertyOp18
 70
     1
102
RTVSPropertyOp19
 70
     1
102
RTVSPropertyOp20
 70
     1
102
RTVSPropertyOp21
 70
     1
102
RTVSPropertyOp22
 70
     1
102
RTVSPropertyOp23
 70
     1
102
RTVSPropertyOp24
 70
     1
102
RTVSPropertyOp25
 70
     1
102
RTVSPropertyOp26
 70
     1
102
RTVSPropertyOp27
 70
     1
102
RTVSPropertyOp28
 70
     1
102
RTVSPropertyOp29
 70
     1
102
RTVSPropertyOp30
 70
     1
102
RTVSPropertyOp31
 70
     1
102
RTVSPropertyOp32
 70
     1
102
RTVSPropertyOp33
 70
     1
102
RTVSPropertyOp34
 70
     1
102
RTVSPropertyOp35
 70
     1
102
RTVSPropertyOp36
 70
     1
102
RTVSPropertyOp37
 70
     1
102
RTVSPropertyOp38
 70
     1
102
RTVSPropertyOp39
 70
     1
102
RTVSPropertyOp40
 70
     1
102
RTVSPropertyOp41
 70
     1
102
RTVSPropertyOp42
 70
     1
102
RTVSPropertyOp43
 70
     1
102
RTVSPropertyOp44
 70
     1
102
RTVSPropertyOp45
 70
     1
102
RTVSPropertyOp46
 70
     1
102
RTVSPropertyOp47
 70
     1
102
RTVSPropertyOp48
 70
     1
102
RTVSPropertyOp49
 70
     1
102
RTVSPropertyOp50
 70
     1
102
RTVSPropertyOp51
 70
     0
102
RTVSPropertyOp52
 70
     0
102
RTVSPropertyOp53
 70
     1
102
RTVSPropertyOp54
 70
     1
102
RTVSPropertyOp55
 70
     1
102
RTVSPropertyOp56
 70
     1
102
RTVSPropertyOp57
 70
     1
102
RTVSPropertyOp58
 70
     1
102
RTVSPropertyOp59
 70
     1
102
RTVSPropertyOp60
 70
     1
102
RTVSPropertyOp61
 70
     1
102
RTVSPropertyOp62
 70
     1
  0
XRECORD
  5
974C
102
{ACAD_REACTORS
330
974B
102
}
330
974B
100
AcDbXrecord
280
     1
102
RTVSPost2010Prop28
280
     0
102
RTVSPost2010PropOp28
 70
     1
102
RTVSPost2010Prop29
280
     1
102
RTVSPost2010PropOp29
 70
     1
102
RTVSPost2010Prop30
280
     1
102
RTVSPost2010PropOp30
 70
     1
102
RTVSPost2010Prop31
280
     0
102
RTVSPost2010PropOp31
 70
     1
102
RTVSPost2010Prop32
280
     0
102
RTVSPost2010PropOp32
 70
     1
102
RTVSPost2010Prop33
280
     0
102
RTVSPost2010PropOp33
 70
     1
102
RTVSPost2010Prop34
280
     0
102
RTVSPost2010PropOp34
 70
     1
102
RTVSPost2010Prop35
280
     0
102
RTVSPost2010PropOp35
 70
     1
102
RTVSPost2010Prop36
280
     0
102
RTVSPost2010PropOp36
 70
     1
102
RTVSPost2010Prop37
 90
       50
102
RTVSPost2010PropOp37
 70
     1
102
RTVSPost2010Prop38
140
0.0
102
RTVSPost2010PropOp38
 70
     1
102
RTVSPost2010Prop39
140
1.0
102
RTVSPost2010PropOp39
 70
     1
102
RTVSPost2010Prop40
 90
        0
102
RTVSPost2010PropOp40
 70
     1
102
RTVSPost2010Prop41ColorIndex
 90
       18
102
RTVSPost2010Prop41ColorRGB
 90
        0
102
RTVSPost2010PropOp41
 70
     1
102
RTVSPost2010Prop42
 90
       50
102
RTVSPost2010PropOp42
 70
     1
102
RTVSPost2010Prop43
 90
        3
102
RTVSPost2010PropOp43
 70
     1
102
RTVSPost2010Prop44ColorIndex
 90
        5
102
RTVSPost2010Prop44ColorRGB
 90
      255
102
RTVSPost2010PropOp44
 70
     1
102
RTVSPost2010Prop45
280
     0
102
RTVSPost2010PropOp45
 70
     1
102
RTVSPost2010Prop46
 90
       50
102
RTVSPost2010PropOp46
 70
     1
102
RTVSPost2010Prop47
 90
       50
102
RTVSPost2010PropOp47
 70
     1
102
RTVSPost2010Prop48
 90
       50
102
RTVSPost2010PropOp48
 70
     1
102
RTVSPost2010Prop49
280
     0
102
RTVSPost2010PropOp49
 70
     1
102
RTVSPost2010Prop50
 90
       50
102
RTVSPost2010PropOp50
 70
     1
102
RTVSPost2010Prop51ColorIndex
 90
      256
102
RTVSPost2010Prop51ColorRGB
 90
-16777216
102
RTVSPost2010PropOp51
 70
     0
102
RTVSPost2010Prop52
140
1.0
102
RTVSPost2010PropOp52
 70
     0
102
RTVSPost2010Prop53
 90
        2
102
RTVSPost2010PropOp53
 70
     1
102
RTVSPost2010Prop54
  1
strokes_ogs.tif
102
RTVSPost2010PropOp54
 70
     1
102
RTVSPost2010Prop55
280
     0
102
RTVSPost2010PropOp55
 70
     1
102
RTVSPost2010Prop56
140
1.0
102
RTVSPost2010PropOp56
 70
     1
102
RTVSPost2010Prop57
140
1.0
102
RTVSPost2010PropOp57
 70
     1
102
RTVSPropertyOp0
 70
     1
102
RTVSPropertyOp1
 70
     1
102
RTVSPropertyOp2
 70
     1
102
RTVSPropertyOp3
 70
     1
102
RTVSPropertyOp4
 70
     1
102
RTVSPropertyOp5
 70
     1
102
RTVSPropertyOp6
 70
     1
102
RTVSPropertyOp7
 70
     1
102
RTVSPropertyOp8
 70
     1
102
RTVSPropertyOp9
 70
     1
102
RTVSPropertyOp10
 70
     1
102
RTVSPropertyOp11
 70
     1
102
RTVSPropertyOp12
 70
     1
102
RTVSPropertyOp13
 70
     1
102
RTVSPropertyOp14
 70
     1
102
RTVSPropertyOp15
 70
     1
102
RTVSPropertyOp16
 70
     1
102
RTVSPropertyOp17
 70
     1
102
RTVSPropertyOp18
 70
     1
102
RTVSPropertyOp19
 70
     1
102
RTVSPropertyOp20
 70
     1
102
RTVSPropertyOp21
 70
     1
102
RTVSPropertyOp22
 70
     1
102
RTVSPropertyOp23
 70
     1
102
RTVSPropertyOp24
 70
     1
102
RTVSPropertyOp25
 70
     1
102
RTVSPropertyOp26
 70
     1
102
RTVSPropertyOp27
 70
     1
102
RTVSPropertyOp28
 70
     1
102
RTVSPropertyOp29
 70
     1
102
RTVSPropertyOp30
 70
     1
102
RTVSPropertyOp31
 70
     1
102
RTVSPropertyOp32
 70
     1
102
RTVSPropertyOp33
 70
     1
102
RTVSPropertyOp34
 70
     1
102
RTVSPropertyOp35
 70
     1
102
RTVSPropertyOp36
 70
     1
102
RTVSPropertyOp37
 70
     1
102
RTVSPropertyOp38
 70
     1
102
RTVSPropertyOp39
 70
     1
102
RTVSPropertyOp40
 70
     1
102
RTVSPropertyOp41
 70
     1
102
RTVSPropertyOp42
 70
     1
102
RTVSPropertyOp43
 70
     1
102
RTVSPropertyOp44
 70
     1
102
RTVSPropertyOp45
 70
     1
102
RTVSPropertyOp46
 70
     1
102
RTVSPropertyOp47
 70
     1
102
RTVSPropertyOp48
 70
     1
102
RTVSPropertyOp49
 70
     1
102
RTVSPropertyOp50
 70
     1
102
RTVSPropertyOp51
 70
     0
102
RTVSPropertyOp52
 70
     0
102
RTVSPropertyOp53
 70
     1
102
RTVSPropertyOp54
 70
     1
102
RTVSPropertyOp55
 70
     1
102
RTVSPropertyOp56
 70
     1
102
RTVSPropertyOp57
 70
     1
102
RTVSPropertyOp58
 70
     1
102
RTVSPropertyOp59
 70
     1
102
RTVSPropertyOp60
 70
     1
102
RTVSPropertyOp61
 70
     1
102
RTVSPropertyOp62
 70
     1
  0
XRECORD
  5
9740
102
{ACAD_REACTORS
330
973F
102
}
330
973F
100
AcDbXrecord
280
     1
102
RTVSPost2010Prop28
280
     0
102
RTVSPost2010PropOp28
 70
     1
102
RTVSPost2010Prop29
280
     1
102
RTVSPost2010PropOp29
 70
     1
102
RTVSPost2010Prop30
280
     1
102
RTVSPost2010PropOp30
 70
     1
102
RTVSPost2010Prop31
280
     0
102
RTVSPost2010PropOp31
 70
     1
102
RTVSPost2010Prop32
280
     0
102
RTVSPost2010PropOp32
 70
     1
102
RTVSPost2010Prop33
280
     0
102
RTVSPost2010PropOp33
 70
     1
102
RTVSPost2010Prop34
280
     0
102
RTVSPost2010PropOp34
 70
     1
102
RTVSPost2010Prop35
280
     0
102
RTVSPost2010PropOp35
 70
     1
102
RTVSPost2010Prop36
280
     0
102
RTVSPost2010PropOp36
 70
     1
102
RTVSPost2010Prop37
 90
       50
102
RTVSPost2010PropOp37
 70
     1
102
RTVSPost2010Prop38
140
0.0
102
RTVSPost2010PropOp38
 70
     1
102
RTVSPost2010Prop39
140
1.0
102
RTVSPost2010PropOp39
 70
     1
102
RTVSPost2010Prop40
 90
        0
102
RTVSPost2010PropOp40
 70
     1
102
RTVSPost2010Prop41ColorIndex
 90
       18
102
RTVSPost2010Prop41ColorRGB
 90
        0
102
RTVSPost2010PropOp41
 70
     1
102
RTVSPost2010Prop42
 90
       50
102
RTVSPost2010PropOp42
 70
     1
102
RTVSPost2010Prop43
 90
        3
102
RTVSPost2010PropOp43
 70
     1
102
RTVSPost2010Prop44ColorIndex
 90
        5
102
RTVSPost2010Prop44ColorRGB
 90
      255
102
RTVSPost2010PropOp44
 70
     1
102
RTVSPost2010Prop45
280
     0
102
RTVSPost2010PropOp45
 70
     1
102
RTVSPost2010Prop46
 90
       50
102
RTVSPost2010PropOp46
 70
     1
102
RTVSPost2010Prop47
 90
       50
102
RTVSPost2010PropOp47
 70
     1
102
RTVSPost2010Prop48
 90
       50
102
RTVSPost2010PropOp48
 70
     1
102
RTVSPost2010Prop49
280
     0
102
RTVSPost2010PropOp49
 70
     1
102
RTVSPost2010Prop50
 90
       50
102
RTVSPost2010PropOp50
 70
     1
102
RTVSPost2010Prop51ColorIndex
 90
      256
102
RTVSPost2010Prop51ColorRGB
 90
-16777216
102
RTVSPost2010PropOp51
 70
     0
102
RTVSPost2010Prop52
140
1.0
102
RTVSPost2010PropOp52
 70
     0
102
RTVSPost2010Prop53
 90
        2
102
RTVSPost2010PropOp53
 70
     1
102
RTVSPost2010Prop54
  1
strokes_ogs.tif
102
RTVSPost2010PropOp54
 70
     1
102
RTVSPost2010Prop55
280
     0
102
RTVSPost2010PropOp55
 70
     1
102
RTVSPost2010Prop56
140
1.0
102
RTVSPost2010PropOp56
 70
     1
102
RTVSPost2010Prop57
140
1.0
102
RTVSPost2010PropOp57
 70
     1
102
RTVSPropertyOp0
 70
     1
102
RTVSPropertyOp1
 70
     1
102
RTVSPropertyOp2
 70
     1
102
RTVSPropertyOp3
 70
     1
102
RTVSPropertyOp4
 70
     1
102
RTVSPropertyOp5
 70
     1
102
RTVSPropertyOp6
 70
     1
102
RTVSPropertyOp7
 70
     1
102
RTVSPropertyOp8
 70
     1
102
RTVSPropertyOp9
 70
     1
102
RTVSPropertyOp10
 70
     1
102
RTVSPropertyOp11
 70
     1
102
RTVSPropertyOp12
 70
     1
102
RTVSPropertyOp13
 70
     1
102
RTVSPropertyOp14
 70
     1
102
RTVSPropertyOp15
 70
     1
102
RTVSPropertyOp16
 70
     1
102
RTVSPropertyOp17
 70
     1
102
RTVSPropertyOp18
 70
     1
102
RTVSPropertyOp19
 70
     1
102
RTVSPropertyOp20
 70
     1
102
RTVSPropertyOp21
 70
     1
102
RTVSPropertyOp22
 70
     1
102
RTVSPropertyOp23
 70
     1
102
RTVSPropertyOp24
 70
     1
102
RTVSPropertyOp25
 70
     1
102
RTVSPropertyOp26
 70
     1
102
RTVSPropertyOp27
 70
     1
102
RTVSPropertyOp28
 70
     1
102
RTVSPropertyOp29
 70
     1
102
RTVSPropertyOp30
 70
     1
102
RTVSPropertyOp31
 70
     1
102
RTVSPropertyOp32
 70
     1
102
RTVSPropertyOp33
 70
     1
102
RTVSPropertyOp34
 70
     1
102
RTVSPropertyOp35
 70
     1
102
RTVSPropertyOp36
 70
     1
102
RTVSPropertyOp37
 70
     1
102
RTVSPropertyOp38
 70
     1
102
RTVSPropertyOp39
 70
     1
102
RTVSPropertyOp40
 70
     1
102
RTVSPropertyOp41
 70
     1
102
RTVSPropertyOp42
 70
     1
102
RTVSPropertyOp43
 70
     1
102
RTVSPropertyOp44
 70
     1
102
RTVSPropertyOp45
 70
     1
102
RTVSPropertyOp46
 70
     1
102
RTVSPropertyOp47
 70
     1
102
RTVSPropertyOp48
 70
     1
102
RTVSPropertyOp49
 70
     1
102
RTVSPropertyOp50
 70
     1
102
RTVSPropertyOp51
 70
     0
102
RTVSPropertyOp52
 70
     0
102
RTVSPropertyOp53
 70
     1
102
RTVSPropertyOp54
 70
     1
102
RTVSPropertyOp55
 70
     1
102
RTVSPropertyOp56
 70
     1
102
RTVSPropertyOp57
 70
     1
102
RTVSPropertyOp58
 70
     1
102
RTVSPropertyOp59
 70
     1
102
RTVSPropertyOp60
 70
     1
102
RTVSPropertyOp61
 70
     1
102
RTVSPropertyOp62
 70
     1
  0
XRECORD
  5
9758
102
{ACAD_REACTORS
330
9757
102
}
330
9757
100
AcDbXrecord
280
     1
102
RTVSPost2010Prop28
280
     0
102
RTVSPost2010PropOp28
 70
     1
102
RTVSPost2010Prop29
280
     1
102
RTVSPost2010PropOp29
 70
     1
102
RTVSPost2010Prop30
280
     1
102
RTVSPost2010PropOp30
 70
     1
102
RTVSPost2010Prop31
280
     0
102
RTVSPost2010PropOp31
 70
     1
102
RTVSPost2010Prop32
280
     0
102
RTVSPost2010PropOp32
 70
     1
102
RTVSPost2010Prop33
280
     0
102
RTVSPost2010PropOp33
 70
     1
102
RTVSPost2010Prop34
280
     0
102
RTVSPost2010PropOp34
 70
     1
102
RTVSPost2010Prop35
280
     0
102
RTVSPost2010PropOp35
 70
     1
102
RTVSPost2010Prop36
280
     0
102
RTVSPost2010PropOp36
 70
     1
102
RTVSPost2010Prop37
 90
       50
102
RTVSPost2010PropOp37
 70
     1
102
RTVSPost2010Prop38
140
0.0
102
RTVSPost2010PropOp38
 70
     1
102
RTVSPost2010Prop39
140
1.0
102
RTVSPost2010PropOp39
 70
     1
102
RTVSPost2010Prop40
 90
        0
102
RTVSPost2010PropOp40
 70
     1
102
RTVSPost2010Prop41ColorIndex
 90
       18
102
RTVSPost2010Prop41ColorRGB
 90
        0
102
RTVSPost2010PropOp41
 70
     1
102
RTVSPost2010Prop42
 90
       50
102
RTVSPost2010PropOp42
 70
     1
102
RTVSPost2010Prop43
 90
        3
102
RTVSPost2010PropOp43
 70
     1
102
RTVSPost2010Prop44ColorIndex
 90
        5
102
RTVSPost2010Prop44ColorRGB
 90
      255
102
RTVSPost2010PropOp44
 70
     1
102
RTVSPost2010Prop45
280
     0
102
RTVSPost2010PropOp45
 70
     1
102
RTVSPost2010Prop46
 90
       50
102
RTVSPost2010PropOp46
 70
     1
102
RTVSPost2010Prop47
 90
       50
102
RTVSPost2010PropOp47
 70
     1
102
RTVSPost2010Prop48
 90
       50
102
RTVSPost2010PropOp48
 70
     1
102
RTVSPost2010Prop49
280
     0
102
RTVSPost2010PropOp49
 70
     1
102
RTVSPost2010Prop50
 90
       50
102
RTVSPost2010PropOp50
 70
     1
102
RTVSPost2010Prop51ColorIndex
 90
      256
102
RTVSPost2010Prop51ColorRGB
 90
-16777216
102
RTVSPost2010PropOp51
 70
     0
102
RTVSPost2010Prop52
140
1.0
102
RTVSPost2010PropOp52
 70
     0
102
RTVSPost2010Prop53
 90
        2
102
RTVSPost2010PropOp53
 70
     1
102
RTVSPost2010Prop54
  1
strokes_ogs.tif
102
RTVSPost2010PropOp54
 70
     1
102
RTVSPost2010Prop55
280
     0
102
RTVSPost2010PropOp55
 70
     1
102
RTVSPost2010Prop56
140
1.0
102
RTVSPost2010PropOp56
 70
     1
102
RTVSPost2010Prop57
140
1.0
102
RTVSPost2010PropOp57
 70
     1
102
RTVSPropertyOp0
 70
     1
102
RTVSPropertyOp1
 70
     1
102
RTVSPropertyOp2
 70
     1
102
RTVSPropertyOp3
 70
     1
102
RTVSPropertyOp4
 70
     1
102
RTVSPropertyOp5
 70
     1
102
RTVSPropertyOp6
 70
     1
102
RTVSPropertyOp7
 70
     1
102
RTVSPropertyOp8
 70
     1
102
RTVSPropertyOp9
 70
     1
102
RTVSPropertyOp10
 70
     1
102
RTVSPropertyOp11
 70
     1
102
RTVSPropertyOp12
 70
     1
102
RTVSPropertyOp13
 70
     1
102
RTVSPropertyOp14
 70
     1
102
RTVSPropertyOp15
 70
     1
102
RTVSPropertyOp16
 70
     1
102
RTVSPropertyOp17
 70
     1
102
RTVSPropertyOp18
 70
     1
102
RTVSPropertyOp19
 70
     1
102
RTVSPropertyOp20
 70
     1
102
RTVSPropertyOp21
 70
     1
102
RTVSPropertyOp22
 70
     1
102
RTVSPropertyOp23
 70
     1
102
RTVSPropertyOp24
 70
     1
102
RTVSPropertyOp25
 70
     1
102
RTVSPropertyOp26
 70
     1
102
RTVSPropertyOp27
 70
     1
102
RTVSPropertyOp28
 70
     1
102
RTVSPropertyOp29
 70
     1
102
RTVSPropertyOp30
 70
     1
102
RTVSPropertyOp31
 70
     1
102
RTVSPropertyOp32
 70
     1
102
RTVSPropertyOp33
 70
     1
102
RTVSPropertyOp34
 70
     1
102
RTVSPropertyOp35
 70
     1
102
RTVSPropertyOp36
 70
     1
102
RTVSPropertyOp37
 70
     1
102
RTVSPropertyOp38
 70
     1
102
RTVSPropertyOp39
 70
     1
102
RTVSPropertyOp40
 70
     1
102
RTVSPropertyOp41
 70
     1
102
RTVSPropertyOp42
 70
     1
102
RTVSPropertyOp43
 70
     1
102
RTVSPropertyOp44
 70
     1
102
RTVSPropertyOp45
 70
     1
102
RTVSPropertyOp46
 70
     1
102
RTVSPropertyOp47
 70
     1
102
RTVSPropertyOp48
 70
     1
102
RTVSPropertyOp49
 70
     1
102
RTVSPropertyOp50
 70
     1
102
RTVSPropertyOp51
 70
     0
102
RTVSPropertyOp52
 70
     0
102
RTVSPropertyOp53
 70
     1
102
RTVSPropertyOp54
 70
     1
102
RTVSPropertyOp55
 70
     1
102
RTVSPropertyOp56
 70
     1
102
RTVSPropertyOp57
 70
     1
102
RTVSPropertyOp58
 70
     1
102
RTVSPropertyOp59
 70
     1
102
RTVSPropertyOp60
 70
     1
102
RTVSPropertyOp61
 70
     1
102
RTVSPropertyOp62
 70
     1
  0
ENDSEC
  0
EOF
