  0
SECTION
  2
HEADER
  9
$ACADVER
  1
AC1015
  9
$ACADMAINTVER
 70
    20
  9
$DWGCODEPAGE
  3
ANSI_932
  9
$INSBASE
 10
0.0
 20
0.0
 30
0.0
  9
$EXTMIN
 10
10.0
 20
9.999999999999998
 30
0.0
  9
$EXTMAX
 10
385.6283309999998
 20
262.7439659999998
 30
0.0
  9
$LIMMIN
 10
0.0
 20
0.0
  9
$LIMMAX
 10
396.0
 20
273.0
  9
$ORTHOMODE
 70
     1
  9
$REGENMODE
 70
     1
  9
$FILLMODE
 70
     1
  9
$QTEXTMODE
 70
     0
  9
$MIRRTEXT
 70
     1
  9
$LTSCALE
 40
20.0
  9
$ATTMODE
 70
     1
  9
$TEXTSIZE
 40
5.0
  9
$TRACEWID
 40
1.0
  9
$TEXTSTYLE
  7
STANDARD
  9
$CLAYER
  8
0
  9
$CELTYPE
  6
BYLAYER
  9
$CECOLOR
 62
   256
  9
$CELTSCALE
 40
1.0
  9
$DISPSILH
 70
     0
  9
$DIMSCALE
 40
1.0
  9
$DIMASZ
 40
3.0
  9
$DIMEXO
 40
1.0
  9
$DIMDLI
 40
10.0
  9
$DIMRND
 40
0.0
  9
$DIMDLE
 40
0.0
  9
$DIMEXE
 40
1.0
  9
$DIMTP
 40
0.0
  9
$DIMTM
 40
0.0
  9
$DIMTXT
 40
3.2
  9
$DIMCEN
 40
0.0
  9
$DIMTSZ
 40
0.0
  9
$DIMTOL
 70
     0
  9
$DIMLIM
 70
     0
  9
$DIMTIH
 70
     0
  9
$DIMTOH
 70
     0
  9
$DIMSE1
 70
     0
  9
$DIMSE2
 70
     0
  9
$DIMTAD
 70
     3
  9
$DIMZIN
 70
     8
  9
$DIMBLK
  1

  9
$DIMASO
 70
     1
  9
$DIMSHO
 70
     1
  9
$DIMPOST
  1

  9
$DIMAPOST
  1

  9
$DIMALT
 70
     0
  9
$DIMALTD
 70
     2
  9
$DIMALTF
 40
25.4
  9
$DIMLFAC
 40
1.0
  9
$DIMTOFL
 70
     1
  9
$DIMTVP
 40
0.0
  9
$DIMTIX
 70
     0
  9
$DIMSOXD
 70
     0
  9
$DIMSAH
 70
     1
  9
$DIMBLK1
  1

  9
$DIMBLK2
  1

  9
$DIMSTYLE
  2
STANDARD
  9
$DIMCLRD
 70
     0
  9
$DIMCLRE
 70
     0
  9
$DIMCLRT
 70
     0
  9
$DIMTFAC
 40
1.0
  9
$DIMGAP
 40
1.0
  9
$DIMJUST
 70
     0
  9
$DIMSD1
 70
     0
  9
$DIMSD2
 70
     0
  9
$DIMTOLJ
 70
     1
  9
$DIMTZIN
 70
     0
  9
$DIMALTZ
 70
     0
  9
$DIMALTTZ
 70
     0
  9
$DIMUPT
 70
     0
  9
$DIMDEC
 70
     4
  9
$DIMTDEC
 70
     4
  9
$DIMALTU
 70
     2
  9
$DIMALTTD
 70
     2
  9
$DIMTXSTY
  7
STANDARD
  9
$DIMAUNIT
 70
     0
  9
$DIMADEC
 70
     0
  9
$DIMALTRND
 40
0.0
  9
$DIMAZIN
 70
     0
  9
$DIMDSEP
 70
    46
  9
$DIMATFIT
 70
     3
  9
$DIMFRAC
 70
     0
  9
$DIMLDRBLK
  1

  9
$DIMLUNIT
 70
     2
  9
$DIMLWD
 70
    -2
  9
$DIMLWE
 70
    -2
  9
$DIMTMOVE
 70
     0
  9
$LUNITS
 70
     2
  9
$LUPREC
 70
     4
  9
$SKETCHINC
 40
1.0
  9
$FILLETRAD
 40
0.0
  9
$AUNITS
 70
     0
  9
$AUPREC
 70
     2
  9
$MENU
  1
.
  9
$ELEVATION
 40
0.0
  9
$PELEVATION
 40
0.0
  9
$THICKNESS
 40
0.0
  9
$LIMCHECK
 70
     0
  9
$CHAMFERA
 40
10.0
  9
$CHAMFERB
 40
10.0
  9
$CHAMFERC
 40
0.0
  9
$CHAMFERD
 40
0.0
  9
$SKPOLY
 70
     0
  9
$TDCREATE
 40
2451066.408574422
  9
$TDUCREATE
 40
2451066.033574422
  9
$TDUPDATE
 40
2457192.598558426
  9
$TDUUPDATE
 40
2457192.223558426
  9
$TDINDWG
 40
0.0000160880
  9
$TDUSRTIMER
 40
0.0000157755
  9
$USRTIMER
 70
     1
  9
$ANGBASE
 50
0.0
  9
$ANGDIR
 70
     0
  9
$PDMODE
 70
     0
  9
$PDSIZE
 40
0.0
  9
$PLINEWID
 40
0.0
  9
$SPLFRAME
 70
     0
  9
$SPLINETYPE
 70
     6
  9
$SPLINESEGS
 70
     8
  9
$HANDSEED
  5
9910
  9
$SURFTAB1
 70
     6
  9
$SURFTAB2
 70
     6
  9
$SURFTYPE
 70
     6
  9
$SURFU
 70
     6
  9
$SURFV
 70
     6
  9
$UCSBASE
  2

  9
$UCSNAME
  2

  9
$UCSORG
 10
0.0
 20
0.0
 30
0.0
  9
$UCSXDIR
 10
1.0
 20
0.0
 30
0.0
  9
$UCSYDIR
 10
0.0
 20
1.0
 30
0.0
  9
$UCSORTHOREF
  2

  9
$UCSORTHOVIEW
 70
     0
  9
$UCSORGTOP
 10
0.0
 20
0.0
 30
0.0
  9
$UCSORGBOTTOM
 10
0.0
 20
0.0
 30
0.0
  9
$UCSORGLEFT
 10
0.0
 20
0.0
 30
0.0
  9
$UCSORGRIGHT
 10
0.0
 20
0.0
 30
0.0
  9
$UCSORGFRONT
 10
0.0
 20
0.0
 30
0.0
  9
$UCSORGBACK
 10
0.0
 20
0.0
 30
0.0
  9
$PUCSBASE
  2

  9
$PUCSNAME
  2

  9
$PUCSORG
 10
0.0
 20
0.0
 30
0.0
  9
$PUCSXDIR
 10
1.0
 20
0.0
 30
0.0
  9
$PUCSYDIR
 10
0.0
 20
1.0
 30
0.0
  9
$PUCSORTHOREF
  2

  9
$PUCSORTHOVIEW
 70
     0
  9
$PUCSORGTOP
 10
0.0
 20
0.0
 30
0.0
  9
$PUCSORGBOTTOM
 10
0.0
 20
0.0
 30
0.0
  9
$PUCSORGLEFT
 10
0.0
 20
0.0
 30
0.0
  9
$PUCSORGRIGHT
 10
0.0
 20
0.0
 30
0.0
  9
$PUCSORGFRONT
 10
0.0
 20
0.0
 30
0.0
  9
$PUCSORGBACK
 10
0.0
 20
0.0
 30
0.0
  9
$USERI1
 70
     0
  9
$USERI2
 70
     0
  9
$USERI3
 70
     0
  9
$USERI4
 70
     0
  9
$USERI5
 70
     0
  9
$USERR1
 40
0.0
  9
$USERR2
 40
0.0
  9
$USERR3
 40
0.0
  9
$USERR4
 40
0.0
  9
$USERR5
 40
0.0
  9
$WORLDVIEW
 70
     1
  9
$SHADEDGE
 70
     3
  9
$SHADEDIF
 70
    70
  9
$TILEMODE
 70
     1
  9
$MAXACTVP
 70
    16
  9
$PINSBASE
 10
0.0
 20
0.0
 30
0.0
  9
$PLIMCHECK
 70
     0
  9
$PEXTMIN
 10
1.000000000000000E+20
 20
1.000000000000000E+20
 30
1.000000000000000E+20
  9
$PEXTMAX
 10
-1.000000000000000E+20
 20
-1.000000000000000E+20
 30
-1.000000000000000E+20
  9
$PLIMMIN
 10
0.0
 20
0.0
  9
$PLIMMAX
 10
420.0
 20
297.0
  9
$UNITMODE
 70
     0
  9
$VISRETAIN
 70
     0
  9
$PLINEGEN
 70
     0
  9
$PSLTSCALE
 70
     0
  9
$TREEDEPTH
 70
  3020
  9
$CMLSTYLE
  2
STANDARD
  9
$CMLJUST
 70
     0
  9
$CMLSCALE
 40
1.0
  9
$PROXYGRAPHICS
 70
     1
  9
$MEASUREMENT
 70
     0
  9
$CELWEIGHT
370
    -1
  9
$ENDCAPS
280
     0
  9
$JOINSTYLE
280
     0
  9
$LWDISPLAY
290
     0
  9
$INSUNITS
 70
     0
  9
$HYPERLINKBASE
  1

  9
$STYLESHEET
  1

  9
$XEDIT
290
     1
  9
$CEPSNTYPE
380
     0
  9
$PSTYLEMODE
290
     1
  9
$FINGERPRINTGUID
  2
{54757AED-84CB-417F-8869-9C09480017A4}
  9
$VERSIONGUID
  2
{DD953C64-13BE-4AE2-BED7-6B177F9AFF33}
  9
$EXTNAMES
290
     1
  9
$PSVPSCALE
 40
0.0
  9
$OLESTARTUP
290
     0
  0
ENDSEC
  0
SECTION
  2
CLASSES
  0
CLASS
  1
ACDBDICTIONARYWDFLT
  2
AcDbDictionaryWithDefault
  3
ObjectDBX Classes
 90
        0
280
     0
281
     0
  0
CLASS
  1
ACDBPLACEHOLDER
  2
AcDbPlaceHolder
  3
ObjectDBX Classes
 90
        0
280
     0
281
     0
  0
CLASS
  1
LAYOUT
  2
AcDbLayout
  3
ObjectDBX Classes
 90
        0
280
     0
281
     0
  0
CLASS
  1
DICTIONARYVAR
  2
AcDbDictionaryVar
  3
ObjectDBX Classes
 90
        0
280
     0
281
     0
  0
CLASS
  1
MATERIAL
  2
AcDbMaterial
  3
ObjectDBX Classes
 90
     1153
280
     0
281
     0
  0
CLASS
  1
VISUALSTYLE
  2
AcDbVisualStyle
  3
ObjectDBX Classes
 90
     4095
280
     0
281
     0
  0
CLASS
  1
TABLESTYLE
  2
AcDbTableStyle
  3
ObjectDBX Classes
 90
     4095
280
     0
281
     0
  0
CLASS
  1
SCALE
  2
AcDbScale
  3
ObjectDBX Classes
 90
     1153
280
     0
281
     0
  0
CLASS
  1
MLEADERSTYLE
  2
AcDbMLeaderStyle
  3
ACDB_MLEADERSTYLE_CLASS
 90
     4095
280
     0
281
     0
  0
CLASS
  1
ACDBSECTIONVIEWSTYLE
  2
AcDbSectionViewStyle
  3
ObjectDBX Classes
 90
     1025
280
     0
281
     0
  0
CLASS
  1
ACDBDETAILVIEWSTYLE
  2
AcDbDetailViewStyle
  3
ObjectDBX Classes
 90
     1025
280
     0
281
     0
  0
CLASS
  1
CELLSTYLEMAP
  2
AcDbCellStyleMap
  3
ObjectDBX Classes
 90
     1152
280
     0
281
     0
  0
ENDSEC
  0
SECTION
  2
TABLES
  0
TABLE
  2
VPORT
  5
9512
330
0
100
AcDbSymbolTable
 70
     1
  0
VPORT
  5
9859
330
9512
100
AcDbSymbolTableRecord
100
AcDbViewportTableRecord
  2
*ACTIVE
 70
     0
 10
0.0
 20
0.0
 11
1.0
 21
1.0
 12
274.3786850303989
 22
136.3750311530601
 13
0.0
 23
0.0
 14
10.0
 24
10.0
 15
10.0
 25
10.0
 16
0.0
 26
0.0
 36
1.0
 17
0.0
 27
0.0
 37
0.0
 40
255.5987096458752
 41
1.899603698811096
 42
50.0
 43
0.0
 44
0.0
 50
0.0
 51
0.0
 71
     0
 72
   100
 73
     1
 74
     0
 75
     0
 76
     0
 77
     0
 78
     0
281
     0
 65
     1
110
0.0
120
0.0
130
0.0
111
1.0
121
0.0
131
0.0
112
0.0
122
1.0
132
0.0
 79
     0
146
0.0
1001
ACAD_NAV_VCDISPLAY
1070
     3
  0
ENDTAB
  0
TABLE
  2
LTYPE
  5
950F
330
0
100
AcDbSymbolTable
 70
     4
  0
LTYPE
  5
951D
330
950F
100
AcDbSymbolTableRecord
100
AcDbLinetypeTableRecord
  2
BYBLOCK
 70
     0
  3

 72
    65
 73
     0
 40
0.0
  0
LTYPE
  5
951E
330
950F
100
AcDbSymbolTableRecord
100
AcDbLinetypeTableRecord
  2
BYLAYER
 70
     0
  3

 72
    65
 73
     0
 40
0.0
  0
LTYPE
  5
951F
330
950F
100
AcDbSymbolTableRecord
100
AcDbLinetypeTableRecord
  2
CONTINUOUS
 70
     0
  3
Solid line
 72
    65
 73
     0
 40
0.0
  0
LTYPE
  5
952D
330
950F
100
AcDbSymbolTableRecord
100
AcDbLinetypeTableRecord
  2
DASHED
 70
     0
  3
__ __ __ __ __ __ __ __ __ __ __ __ __ __ __ __
 72
    65
 73
     2
 40
0.75
 49
0.5
 74
     0
 49
-0.25
 74
     0
  0
LTYPE
  5
952E
330
950F
100
AcDbSymbolTableRecord
100
AcDbLinetypeTableRecord
  2
CENTER
 70
     0
  3
____ _ ____ _ ____ _ ____ _ ____ _ ____ _ ____ 
 72
    65
 73
     4
 40
2.0
 49
1.25
 74
     0
 49
-0.25
 74
     0
 49
0.25
 74
     0
 49
-0.25
 74
     0
  0
LTYPE
  5
952F
330
950F
100
AcDbSymbolTableRecord
100
AcDbLinetypeTableRecord
  2
PHANTOM
 70
     0
  3
______  __  __  ______  __  __  ______  __  __ 
 72
    65
 73
     6
 40
2.5
 49
1.25
 74
     0
 49
-0.25
 74
     0
 49
0.25
 74
     0
 49
-0.25
 74
     0
 49
0.25
 74
     0
 49
-0.25
 74
     0
  0
ENDTAB
  0
TABLE
  2
LAYER
  5
950C
330
0
100
AcDbSymbolTable
 70
     8
  0
LAYER
  5
951A
102
{ACAD_XDICTIONARY
360
98B4
102
}
330
950C
100
AcDbSymbolTableRecord
100
AcDbLayerTableRecord
  2
0
 70
     0
 62
     7
  6
CONTINUOUS
370
    -3
390
9862
  0
LAYER
  5
9530
102
{ACAD_XDICTIONARY
360
98B6
102
}
330
950C
100
AcDbSymbolTableRecord
100
AcDbLayerTableRecord
  2
4
 70
     0
 62
     1
  6
CENTER
370
    -3
390
9862
  0
LAYER
  5
9531
102
{ACAD_XDICTIONARY
360
98B8
102
}
330
950C
100
AcDbSymbolTableRecord
100
AcDbLayerTableRecord
  2
5
 70
     0
 62
     6
  6
PHANTOM
370
    -3
390
9862
  0
LAYER
  5
9532
102
{ACAD_XDICTIONARY
360
98BA
102
}
330
950C
100
AcDbSymbolTableRecord
100
AcDbLayerTableRecord
  2
1
 70
     0
 62
     7
  6
CONTINUOUS
370
    -3
390
9862
  0
LAYER
  5
9533
102
{ACAD_XDICTIONARY
360
98BC
102
}
330
950C
100
AcDbSymbolTableRecord
100
AcDbLayerTableRecord
  2
2
 70
     0
 62
     4
  6
CONTINUOUS
370
    -3
390
9862
  0
LAYER
  5
9534
102
{ACAD_XDICTIONARY
360
98BE
102
}
330
950C
100
AcDbSymbolTableRecord
100
AcDbLayerTableRecord
  2
3
 70
     0
 62
     2
  6
DASHED
370
    -3
390
9862
  0
LAYER
  5
9535
102
{ACAD_XDICTIONARY
360
98C0
102
}
330
950C
100
AcDbSymbolTableRecord
100
AcDbLayerTableRecord
  2
6
 70
     0
 62
     5
  6
CONTINUOUS
370
    -3
390
9862
  0
LAYER
  5
9536
102
{ACAD_XDICTIONARY
360
98C2
102
}
330
950C
100
AcDbSymbolTableRecord
100
AcDbLayerTableRecord
  2
7
 70
     0
 62
     3
  6
CONTINUOUS
370
    -3
390
9862
  0
ENDTAB
  0
TABLE
  2
STYLE
  5
950D
330
0
100
AcDbSymbolTable
 70
     1
  0
STYLE
  5
951B
330
950D
100
AcDbSymbolTableRecord
100
AcDbTextStyleTableRecord
  2
STANDARD
 70
     0
 40
0.0
 41
1.0
 50
0.0
 71
     0
 42
5.0
  3
txt
  4

  0
ENDTAB
  0
TABLE
  2
VIEW
  5
9510
330
0
100
AcDbSymbolTable
 70
     0
  0
ENDTAB
  0
TABLE
  2
UCS
  5
9511
330
0
100
AcDbSymbolTable
 70
     0
  0
ENDTAB
  0
TABLE
  2
APPID
  5
9513
330
0
100
AcDbSymbolTable
 70
     3
  0
APPID
  5
951C
330
9513
100
AcDbSymbolTableRecord
100
AcDbRegAppTableRecord
  2
ACAD
 70
     0
  0
APPID
  5
98CE
330
9513
100
AcDbSymbolTableRecord
100
AcDbRegAppTableRecord
  2
ACAD_NAV_VCDISPLAY
 70
     0
  0
APPID
  5
9907
330
9513
100
AcDbSymbolTableRecord
100
AcDbRegAppTableRecord
  2
ACAD_MLEADERVER
 70
     0
  0
ENDTAB
  0
TABLE
  2
DIMSTYLE
  5
9514
330
0
100
AcDbSymbolTable
 70
     1
100
AcDbDimStyleTable
 71
     0
  0
DIMSTYLE
105
9538
330
9514
100
AcDbSymbolTableRecord
100
AcDbDimStyleTableRecord
  2
STANDARD
 70
     0
 41
3.0
 42
1.0
 43
10.0
 44
1.0
 73
     0
 74
     0
 77
     3
 78
     8
140
3.2
141
0.0
147
1.0
172
     1
173
     1
284
     8
285
     8
286
     8
340
951B
  0
ENDTAB
  0
TABLE
  2
BLOCK_RECORD
  5
950B
330
0
100
AcDbSymbolTable
 70
     0
  0
BLOCK_RECORD
  5
9528
102
{ACAD_XDICTIONARY
360
985C
102
}
330
950B
100
AcDbSymbolTableRecord
100
AcDbBlockTableRecord
  2
*MODEL_SPACE
340
98B0
  0
BLOCK_RECORD
  5
9524
102
{ACAD_XDICTIONARY
360
985A
102
}
330
950B
100
AcDbSymbolTableRecord
100
AcDbBlockTableRecord
  2
*PAPER_SPACE
340
98B1
  0
ENDTAB
  0
ENDSEC
  0
SECTION
  2
BLOCKS
  0
BLOCK
  5
9529
330
9528
100
AcDbEntity
  8
0
100
AcDbBlockBegin
  2
*MODEL_SPACE
 70
     0
 10
0.0
 20
0.0
 30
0.0
  3
*MODEL_SPACE
  1

  0
ENDBLK
  5
952A
330
9528
100
AcDbEntity
  8
0
100
AcDbBlockEnd
  0
BLOCK
  5
9525
330
9524
100
AcDbEntity
 67
     1
  8
0
100
AcDbBlockBegin
  2
*PAPER_SPACE
 70
     0
 10
0.0
 20
0.0
 30
0.0
  3
*PAPER_SPACE
  1

  0
ENDBLK
  5
9526
330
9524
100
AcDbEntity
 67
     1
  8
0
100
AcDbBlockEnd
  0
ENDSEC
  0
SECTION
  2
ENTITIES
  0
TEXT
  5
9540
330
9528
100
AcDbEntity
  8
7
  6
Continuous
100
AcDbText
 10
10.0
 20
18.0
 30
0.0
 40
3.0
  1
TYPE No.TL-11F
100
AcDbText
  0
TEXT
  5
9541
330
9528
100
AcDbEntity
  8
7
  6
Continuous
100
AcDbText
 10
10.0
 20
26.0
 30
0.0
 40
3.0
  1
CODE No.1022
100
AcDbText
  0
TEXT
  5
9542
330
9528
100
AcDbEntity
  8
1
  6
Continuous
100
AcDbText
 10
10.0
 20
10.0
 30
0.0
 40
1.399999999999999
  1
LAYER
100
AcDbText
  0
TEXT
  5
9543
330
9528
100
AcDbEntity
  8
1
  6
Continuous
100
AcDbText
 10
17.97951099999998
 20
10.04873699999998
 30
0.0
 40
1.399999999999999
  1
1
100
AcDbText
  0
TEXT
  5
9544
330
9528
100
AcDbEntity
  8
7
  6
Continuous
100
AcDbText
 10
29.97951099999999
 20
10.04873699999998
 30
0.0
 40
1.399999999999999
  1
7
100
AcDbText
  0
TEXT
  5
9545
330
9528
100
AcDbEntity
  8
4
  6
CENTER
100
AcDbText
 10
23.97951099999999
 20
10.04873699999998
 30
0.0
 40
1.399999999999999
  1
4
100
AcDbText
  0
TEXT
  5
9546
330
9528
100
AcDbEntity
  8
3
  6
DASHED
100
AcDbText
 10
21.979511
 20
10.04873699999998
 30
0.0
 40
1.399999999999999
  1
3
100
AcDbText
  0
TEXT
  5
9547
330
9528
100
AcDbEntity
  8
2
  6
Continuous
100
AcDbText
 10
19.97951099999999
 20
10.04873699999998
 30
0.0
 40
1.399999999999999
  1
2
100
AcDbText
  0
TEXT
  5
9548
330
9528
100
AcDbEntity
  8
6
  6
Continuous
100
AcDbText
 10
27.979511
 20
10.04873699999998
 30
0.0
 40
1.399999999999999
  1
6
100
AcDbText
  0
TEXT
  5
9549
330
9528
100
AcDbEntity
  8
5
  6
PHANTOM
100
AcDbText
 10
25.97951099999999
 20
10.04873699999998
 30
0.0
 40
1.399999999999999
  1
5
100
AcDbText
  0
LINE
  5
954A
330
9528
100
AcDbEntity
  8
1
  6
Continuous
100
AcDbLine
 10
42.877931
 20
166.743966
 30
0.0
 11
42.877931
 21
160.743966
 31
0.0
  0
LINE
  5
954B
330
9528
100
AcDbEntity
  8
4
  6
CENTER
100
AcDbLine
 10
33.87793099999999
 20
170.743966
 30
0.0
 11
33.87793099999999
 21
104.243966
 31
0.0
  0
LINE
  5
954C
330
9528
100
AcDbEntity
  8
4
  6
CENTER
100
AcDbLine
 10
19.377931
 20
164.2439659999998
 30
0.0
 11
48.37793099999998
 21
164.2439659999998
 31
0.0
  0
LINE
  5
954D
330
9528
100
AcDbEntity
  8
1
  6
Continuous
100
AcDbLine
 10
24.877931
 20
165.743966
 30
0.0
 11
42.877931
 21
165.743966
 31
0.0
  0
LINE
  5
954E
330
9528
100
AcDbEntity
  8
1
  6
Continuous
100
AcDbLine
 10
24.877931
 20
162.743966
 30
0.0
 11
42.877931
 21
162.743966
 31
0.0
  0
LINE
  5
954F
330
9528
100
AcDbEntity
  8
1
  6
Continuous
100
AcDbLine
 10
45.377931
 20
165.343966
 30
0.0
 11
45.377931
 21
163.1439659999998
 31
0.0
  0
LINE
  5
9550
330
9528
100
AcDbEntity
  8
1
  6
Continuous
100
AcDbLine
 10
22.377931
 20
165.343966
 30
0.0
 11
22.377931
 21
163.1439659999998
 31
0.0
  0
LINE
  5
9551
330
9528
100
AcDbEntity
  8
1
  6
Continuous
100
AcDbLine
 10
44.37793099999999
 20
131.743966
 30
0.0
 11
44.37793099999999
 21
125.7439659999999
 31
0.0
  0
LINE
  5
9552
330
9528
100
AcDbEntity
  8
1
  6
Continuous
100
AcDbLine
 10
42.877931
 20
166.743966
 30
0.0
 11
44.37793099999999
 21
166.743966
 31
0.0
  0
LINE
  5
9553
330
9528
100
AcDbEntity
  8
1
  6
Continuous
100
AcDbLine
 10
22.377931
 20
163.1439659999998
 30
0.0
 11
23.377931
 21
163.1439659999998
 31
0.0
  0
LINE
  5
9554
330
9528
100
AcDbEntity
  8
1
  6
Continuous
100
AcDbLine
 10
22.377931
 20
165.343966
 30
0.0
 11
23.377931
 21
165.343966
 31
0.0
  0
LINE
  5
9555
330
9528
100
AcDbEntity
  8
1
  6
Continuous
100
AcDbLine
 10
44.37793099999999
 20
165.343966
 30
0.0
 11
45.377931
 21
165.343966
 31
0.0
  0
LINE
  5
9556
330
9528
100
AcDbEntity
  8
1
  6
Continuous
100
AcDbLine
 10
44.37793099999999
 20
163.1439659999998
 30
0.0
 11
45.377931
 21
163.1439659999998
 31
0.0
  0
LINE
  5
9557
330
9528
100
AcDbEntity
  8
1
  6
Continuous
100
AcDbLine
 10
49.377931
 20
159.243966
 30
0.0
 11
49.377931
 21
152.519966
 31
0.0
  0
LINE
  5
9558
330
9528
100
AcDbEntity
  8
1
  6
Continuous
100
AcDbLine
 10
44.37793099999999
 20
159.243966
 30
0.0
 11
47.877931
 21
159.243966
 31
0.0
  0
LINE
  5
9559
330
9528
100
AcDbEntity
  8
1
  6
Continuous
100
AcDbLine
 10
47.877931
 20
137.2439659999998
 30
0.0
 11
49.377931
 21
137.2439659999998
 31
0.0
  0
LINE
  5
955A
330
9528
100
AcDbEntity
  8
4
  6
CENTER
100
AcDbLine
 10
19.377931
 20
128.7439659999998
 30
0.0
 11
48.37793099999998
 21
128.7439659999998
 31
0.0
  0
LINE
  5
955B
330
9528
100
AcDbEntity
  8
1
  6
Continuous
100
AcDbLine
 10
47.877931
 20
159.243966
 30
0.0
 11
47.877931
 21
152.3889659999998
 31
0.0
  0
LINE
  5
955C
330
9528
100
AcDbEntity
  8
1
  6
Continuous
100
AcDbLine
 10
44.37793099999999
 20
160.743966
 30
0.0
 11
47.877931
 21
160.743966
 31
0.0
  0
LINE
  5
955D
330
9528
100
AcDbEntity
  8
1
  6
Continuous
100
AcDbLine
 10
47.877931
 20
140.2439659999998
 30
0.0
 11
49.377931
 21
140.2439659999998
 31
0.0
  0
LINE
  5
955E
330
9528
100
AcDbEntity
  8
1
  6
Continuous
100
AcDbLine
 10
46.37793099999998
 20
155.743966
 30
0.0
 11
46.37793099999998
 21
152.2579659999999
 31
0.0
  0
LINE
  5
955F
330
9528
100
AcDbEntity
  8
1
  6
Continuous
100
AcDbLine
 10
46.37793099999998
 20
152.7439659999998
 30
0.0
 11
47.877931
 21
152.7439659999998
 31
0.0
  0
LINE
  5
9560
330
9528
100
AcDbEntity
  8
1
  6
Continuous
100
AcDbLine
 10
42.877931
 20
125.7439659999999
 30
0.0
 11
44.37793099999999
 21
125.7439659999999
 31
0.0
  0
LINE
  5
9561
330
9528
100
AcDbEntity
  8
1
  6
Continuous
100
AcDbLine
 10
46.37793099999998
 20
135.2439659999998
 30
0.0
 11
43.44603099999999
 21
132.9189659999999
 31
0.0
  0
LINE
  5
9562
330
9528
100
AcDbEntity
  8
1
  6
Continuous
100
AcDbLine
 10
44.37793099999999
 20
131.743966
 30
0.0
 11
47.309931
 21
134.0679659999999
 31
0.0
  0
LINE
  5
9563
330
9528
100
AcDbEntity
  8
1
  6
Continuous
100
AcDbLine
 10
44.37793099999999
 20
166.743966
 30
0.0
 11
44.37793099999999
 21
160.743966
 31
0.0
  0
LINE
  5
9564
330
9528
100
AcDbEntity
  8
1
  6
Continuous
100
AcDbLine
 10
42.877931
 20
131.743966
 30
0.0
 11
42.877931
 21
125.7439659999999
 31
0.0
  0
LINE
  5
9565
330
9528
100
AcDbEntity
  8
1
  6
Continuous
100
AcDbLine
 10
24.877931
 20
166.743966
 30
0.0
 11
24.877931
 21
160.743966
 31
0.0
  0
LINE
  5
9566
330
9528
100
AcDbEntity
  8
1
  6
Continuous
100
AcDbLine
 10
24.877931
 20
131.743966
 30
0.0
 11
24.877931
 21
125.7439659999999
 31
0.0
  0
LINE
  5
9567
330
9528
100
AcDbEntity
  8
1
  6
Continuous
100
AcDbLine
 10
23.37803099999999
 20
131.743966
 30
0.0
 11
20.446031
 21
134.0679659999999
 31
0.0
  0
LINE
  5
9568
330
9528
100
AcDbEntity
  8
1
  6
Continuous
100
AcDbLine
 10
23.377931
 20
131.743966
 30
0.0
 11
23.377931
 21
125.7439659999999
 31
0.0
  0
LINE
  5
9569
330
9528
100
AcDbEntity
  8
1
  6
Continuous
100
AcDbLine
 10
24.877931
 20
166.743966
 30
0.0
 11
23.377931
 21
166.743966
 31
0.0
  0
LINE
  5
956A
330
9528
100
AcDbEntity
  8
1
  6
Continuous
100
AcDbLine
 10
21.378031
 20
135.2439659999998
 30
0.0
 11
24.309931
 21
132.9189659999999
 31
0.0
  0
LINE
  5
956B
330
9528
100
AcDbEntity
  8
1
  6
Continuous
100
AcDbLine
 10
18.377931
 20
159.243966
 30
0.0
 11
18.377931
 21
152.2579659999999
 31
0.0
  0
LINE
  5
956C
330
9528
100
AcDbEntity
  8
1
  6
Continuous
100
AcDbLine
 10
23.377931
 20
159.243966
 30
0.0
 11
19.877931
 21
159.243966
 31
0.0
  0
LINE
  5
956D
330
9528
100
AcDbEntity
  8
1
  6
Continuous
100
AcDbLine
 10
19.877931
 20
137.2439659999998
 30
0.0
 11
18.377931
 21
137.2439659999998
 31
0.0
  0
LINE
  5
956E
330
9528
100
AcDbEntity
  8
1
  6
Continuous
100
AcDbLine
 10
19.877931
 20
159.243966
 30
0.0
 11
19.877931
 21
152.3889659999998
 31
0.0
  0
LINE
  5
956F
330
9528
100
AcDbEntity
  8
1
  6
Continuous
100
AcDbLine
 10
23.377931
 20
160.743966
 30
0.0
 11
19.877931
 21
160.743966
 31
0.0
  0
LINE
  5
9570
330
9528
100
AcDbEntity
  8
1
  6
Continuous
100
AcDbLine
 10
19.877931
 20
140.2439659999998
 30
0.0
 11
18.377931
 21
140.2439659999998
 31
0.0
  0
LINE
  5
9571
330
9528
100
AcDbEntity
  8
1
  6
Continuous
100
AcDbLine
 10
21.377931
 20
155.743966
 30
0.0
 11
21.377931
 21
152.519966
 31
0.0
  0
LINE
  5
9572
330
9528
100
AcDbEntity
  8
1
  6
Continuous
100
AcDbLine
 10
21.377931
 20
152.7439659999998
 30
0.0
 11
19.877931
 21
152.7439659999998
 31
0.0
  0
LINE
  5
9573
330
9528
100
AcDbEntity
  8
1
  6
Continuous
100
AcDbLine
 10
24.877931
 20
125.7439659999999
 30
0.0
 11
23.377931
 21
125.7439659999999
 31
0.0
  0
LINE
  5
9574
330
9528
100
AcDbEntity
  8
1
  6
Continuous
100
AcDbLine
 10
23.377931
 20
166.743966
 30
0.0
 11
23.377931
 21
160.743966
 31
0.0
  0
LINE
  5
9575
330
9528
100
AcDbEntity
  8
1
  6
Continuous
100
AcDbLine
 10
25.627931
 20
124.7439659999999
 30
0.0
 11
26.627931
 21
124.7439659999999
 31
0.0
  0
LINE
  5
9576
330
9528
100
AcDbEntity
  8
1
  6
Continuous
100
AcDbLine
 10
27.627931
 20
123.7439659999999
 30
0.0
 11
27.627931
 21
115.4939659999999
 31
0.0
  0
LINE
  5
9577
330
9528
100
AcDbEntity
  8
1
  6
Continuous
100
AcDbLine
 10
40.12793099999997
 20
123.7439659999999
 30
0.0
 11
40.12793099999997
 21
115.4939659999999
 31
0.0
  0
LINE
  5
9578
330
9528
100
AcDbEntity
  8
1
  6
Continuous
100
AcDbLine
 10
26.127931
 20
149.243966
 30
0.0
 11
41.627931
 21
149.243966
 31
0.0
  0
LINE
  5
9579
330
9528
100
AcDbEntity
  8
1
  6
Continuous
100
AcDbLine
 10
25.627931
 20
147.7439659999998
 30
0.0
 11
25.627931
 21
124.7439659999999
 31
0.0
  0
LINE
  5
957A
330
9528
100
AcDbEntity
  8
1
  6
Continuous
100
AcDbLine
 10
42.12793099999998
 20
147.7439659999998
 30
0.0
 11
42.12793099999998
 21
124.7439659999999
 31
0.0
  0
LINE
  5
957B
330
9528
100
AcDbEntity
  8
1
  6
Continuous
100
AcDbLine
 10
25.627931
 20
147.7439659999998
 30
0.0
 11
26.127931
 21
147.7439659999998
 31
0.0
  0
LINE
  5
957C
330
9528
100
AcDbEntity
  8
1
  6
Continuous
100
AcDbLine
 10
26.127931
 20
149.243966
 30
0.0
 11
26.127931
 21
147.7439659999998
 31
0.0
  0
LINE
  5
957D
330
9528
100
AcDbEntity
  8
1
  6
Continuous
100
AcDbLine
 10
41.627931
 20
149.243966
 30
0.0
 11
41.627931
 21
147.7439659999998
 31
0.0
  0
LINE
  5
957E
330
9528
100
AcDbEntity
  8
1
  6
Continuous
100
AcDbLine
 10
27.127931
 20
147.7439659999998
 30
0.0
 11
40.62793099999999
 21
147.7439659999998
 31
0.0
  0
LINE
  5
957F
330
9528
100
AcDbEntity
  8
1
  6
Continuous
100
AcDbLine
 10
41.627931
 20
147.7439659999998
 30
0.0
 11
42.12793099999998
 21
147.7439659999998
 31
0.0
  0
LINE
  5
9580
330
9528
100
AcDbEntity
  8
1
  6
Continuous
100
AcDbLine
 10
28.627931
 20
124.7439659999999
 30
0.0
 11
39.127931
 21
124.7439659999999
 31
0.0
  0
LINE
  5
9581
330
9528
100
AcDbEntity
  8
1
  6
Continuous
100
AcDbLine
 10
41.127931
 20
124.7439659999999
 30
0.0
 11
42.12793099999998
 21
124.7439659999999
 31
0.0
  0
LINE
  5
9582
330
9528
100
AcDbEntity
  8
4
  6
CENTER
100
AcDbLine
 10
175.5704889999999
 20
168.708158
 30
0.0
 11
173.582203
 21
121.750233
 31
0.0
  0
LINE
  5
9583
330
9528
100
AcDbEntity
  8
1
  6
Continuous
100
AcDbLine
 10
179.6283309999998
 20
129.762966
 30
0.0
 11
179.6283309999998
 21
126.7439659999999
 31
0.0
  0
LINE
  5
9584
330
9528
100
AcDbEntity
  8
1
  6
Continuous
100
AcDbLine
 10
168.378331
 20
124.7439659999999
 30
0.0
 11
177.628331
 21
124.7439659999999
 31
0.0
  0
LINE
  5
9585
330
9528
100
AcDbEntity
  8
1
  6
Continuous
100
AcDbLine
 10
178.753331
 20
130.9429659999999
 30
0.0
 11
179.2523309999999
 21
130.5439659999999
 31
0.0
  0
LINE
  5
9586
330
9528
100
AcDbEntity
  8
1
  6
Continuous
100
AcDbLine
 10
169.878331
 20
145.243966
 30
0.0
 11
169.878331
 21
145.1239659999998
 31
0.0
  0
LINE
  5
9587
330
9528
100
AcDbEntity
  8
1
  6
Continuous
100
AcDbLine
 10
168.378331
 20
124.7439659999999
 30
0.0
 11
170.397331
 21
121.254966
 31
0.0
  0
LINE
  5
9588
330
9528
100
AcDbEntity
  8
1
  6
Continuous
100
AcDbLine
 10
170.111331
 20
124.7439659999999
 30
0.0
 11
171.6963309999999
 21
122.0059659999999
 31
0.0
  0
LINE
  5
9589
330
9528
100
AcDbEntity
  8
1
  6
Continuous
100
AcDbLine
 10
170.378331
 20
109.8569659999999
 30
0.0
 11
171.747331
 21
109.242966
 31
0.0
  0
LINE
  5
958A
330
9528
100
AcDbEntity
  8
1
  6
Continuous
100
AcDbLine
 10
170.378331
 20
109.8569659999999
 30
0.0
 11
171.105331
 21
111.6939659999999
 31
0.0
  0
LINE
  5
958B
330
9528
100
AcDbEntity
  8
1
  6
Continuous
100
AcDbLine
 10
171.747331
 20
109.242966
 30
0.0
 11
172.497331
 21
111.1339659999998
 31
0.0
  0
LINE
  5
958C
330
9528
100
AcDbEntity
  8
1
  6
Continuous
100
AcDbLine
 10
168.378331
 20
124.7439659999999
 30
0.0
 11
168.378331
 21
145.243966
 31
0.0
  0
LINE
  5
958D
330
9528
100
AcDbEntity
  8
1
  6
Continuous
100
AcDbLine
 10
180.378331
 20
111.2439659999999
 30
0.0
 11
180.378331
 21
134.2439659999998
 31
0.0
  0
LINE
  5
958E
330
9528
100
AcDbEntity
  8
1
  6
Continuous
100
AcDbLine
 10
178.378331
 20
111.2439659999999
 30
0.0
 11
180.378331
 21
111.2439659999999
 31
0.0
  0
LINE
  5
958F
330
9528
100
AcDbEntity
  8
1
  6
Continuous
100
AcDbLine
 10
178.378331
 20
111.2439659999999
 30
0.0
 11
178.378331
 21
124.7439659999999
 31
0.0
  0
LINE
  5
9590
330
9528
100
AcDbEntity
  8
1
  6
Continuous
100
AcDbLine
 10
178.501331
 20
131.243966
 30
0.0
 11
180.378331
 21
131.243966
 31
0.0
  0
LINE
  5
9591
330
9528
100
AcDbEntity
  8
1
  6
Continuous
100
AcDbLine
 10
178.378331
 20
134.2439659999998
 30
0.0
 11
180.378331
 21
134.2439659999998
 31
0.0
  0
LINE
  5
9592
330
9528
100
AcDbEntity
  8
1
  6
Continuous
100
AcDbLine
 10
170.27479
 20
155.920739
 30
0.0
 11
172.5227759999999
 21
155.825556
 31
0.0
  0
LINE
  5
9593
330
9528
100
AcDbEntity
  8
1
  6
Continuous
100
AcDbLine
 10
170.1478779999999
 20
152.923425
 30
0.0
 11
172.395864
 21
152.8282409999999
 31
0.0
  0
LINE
  5
9594
330
9528
100
AcDbEntity
  8
1
  6
Continuous
100
AcDbLine
 10
177.7298189999999
 20
160.6095599999999
 30
0.0
 11
177.385634
 21
152.480843
 31
0.0
  0
LINE
  5
9595
330
9528
100
AcDbEntity
  8
1
  6
Continuous
100
AcDbLine
 10
170.27479
 20
155.920739
 30
0.0
 11
170.1478779999999
 21
152.923425
 31
0.0
  0
LINE
  5
9596
330
9528
100
AcDbEntity
  8
1
  6
Continuous
100
AcDbLine
 10
179.766285
 20
155.518852
 30
0.0
 11
179.639373
 21
152.5215379999998
 31
0.0
  0
LINE
  5
9597
330
9528
100
AcDbEntity
  8
1
  6
Continuous
100
AcDbLine
 10
169.492167
 20
137.437301
 30
0.0
 11
178.983662
 21
137.0354129999997
 31
0.0
  0
LINE
  5
9598
330
9528
100
AcDbEntity
  8
1
  6
Continuous
100
AcDbLine
 10
169.6190789999999
 20
140.4346149999998
 30
0.0
 11
171.867064
 21
140.3394309999999
 31
0.0
  0
LINE
  5
9599
330
9528
100
AcDbEntity
  8
1
  6
Continuous
100
AcDbLine
 10
169.6190789999999
 20
140.4346149999998
 30
0.0
 11
169.492167
 21
137.437301
 31
0.0
  0
LINE
  5
959A
330
9528
100
AcDbEntity
  8
1
  6
Continuous
100
AcDbLine
 10
179.1105739999999
 20
140.0327279999999
 30
0.0
 11
178.983662
 21
137.0354129999997
 31
0.0
  0
LINE
  5
959B
330
9528
100
AcDbEntity
  8
1
  6
Continuous
100
AcDbLine
 10
171.7401519999999
 20
137.342117
 30
0.0
 11
171.3594169999998
 21
128.350174
 31
0.0
  0
LINE
  5
959C
330
9528
100
AcDbEntity
  8
1
  6
Continuous
100
AcDbLine
 10
176.735676
 20
137.1305969999999
 30
0.0
 11
176.3549409999999
 21
128.1386539999998
 31
0.0
  0
LINE
  5
959D
330
9528
100
AcDbEntity
  8
1
  6
Continuous
100
AcDbLine
 10
176.8625879999999
 20
140.127912
 30
0.0
 11
179.1105739999999
 21
140.0327279999999
 31
0.0
  0
LINE
  5
959E
330
9528
100
AcDbEntity
  8
1
  6
Continuous
100
AcDbLine
 10
177.7298189999999
 20
160.6095599999999
 30
0.0
 11
179.313084
 21
162.5443129999998
 31
0.0
  0
LINE
  5
959F
330
9528
100
AcDbEntity
  8
1
  6
Continuous
100
AcDbLine
 10
172.804774
 20
162.4855879999998
 30
0.0
 11
175.443577
 21
165.7108439999998
 31
0.0
  0
LINE
  5
95A0
330
9528
100
AcDbEntity
  8
1
  6
Continuous
100
AcDbLine
 10
177.5183
 20
155.614036
 30
0.0
 11
179.766285
 21
155.518852
 31
0.0
  0
LINE
  5
95A1
330
9528
100
AcDbEntity
  8
1
  6
Continuous
100
AcDbLine
 10
177.3913879999998
 20
152.6167209999998
 30
0.0
 11
179.639373
 21
152.5215379999998
 31
0.0
  0
LINE
  5
95A2
330
9528
100
AcDbEntity
  8
1
  6
Continuous
100
AcDbLine
 10
178.378331
 20
137.0610439999998
 30
0.0
 11
178.378331
 21
131.723966
 31
0.0
  0
LINE
  5
95A3
330
9528
100
AcDbEntity
  8
1
  6
Continuous
100
AcDbLine
 10
172.804774
 20
162.4855879999998
 30
0.0
 11
172.3716239999999
 21
152.255754
 31
0.0
  0
LINE
  5
95A4
330
9528
100
AcDbEntity
  8
1
  6
Continuous
100
AcDbLine
 10
294.8783309999999
 20
166.743966
 30
0.0
 11
294.8783309999999
 21
160.743966
 31
0.0
  0
LINE
  5
95A5
330
9528
100
AcDbEntity
  8
4
  6
CENTER
100
AcDbLine
 10
303.8783309999999
 20
168.743966
 30
0.0
 11
303.8783309999999
 21
106.2439659999999
 31
0.0
  0
LINE
  5
95A6
330
9528
100
AcDbEntity
  8
4
  6
CENTER
100
AcDbLine
 10
318.3783309999999
 20
164.2439659999998
 30
0.0
 11
289.3783309999998
 21
164.2439659999998
 31
0.0
  0
LINE
  5
95A7
330
9528
100
AcDbEntity
  8
1
  6
Continuous
100
AcDbLine
 10
292.378331
 20
165.343966
 30
0.0
 11
292.378331
 21
163.1439659999998
 31
0.0
  0
LINE
  5
95A8
330
9528
100
AcDbEntity
  8
1
  6
Continuous
100
AcDbLine
 10
315.378331
 20
165.343966
 30
0.0
 11
315.378331
 21
163.1439659999998
 31
0.0
  0
LINE
  5
95A9
330
9528
100
AcDbEntity
  8
1
  6
Continuous
100
AcDbLine
 10
293.3783309999999
 20
131.743966
 30
0.0
 11
293.3783309999999
 21
125.7439659999999
 31
0.0
  0
LINE
  5
95AA
330
9528
100
AcDbEntity
  8
1
  6
Continuous
100
AcDbLine
 10
294.8783309999999
 20
166.743966
 30
0.0
 11
293.3783309999999
 21
166.743966
 31
0.0
  0
LINE
  5
95AB
330
9528
100
AcDbEntity
  8
1
  6
Continuous
100
AcDbLine
 10
315.378331
 20
163.1439659999998
 30
0.0
 11
314.3783309999998
 21
163.1439659999998
 31
0.0
  0
LINE
  5
95AC
330
9528
100
AcDbEntity
  8
1
  6
Continuous
100
AcDbLine
 10
315.378331
 20
165.343966
 30
0.0
 11
314.3783309999998
 21
165.343966
 31
0.0
  0
LINE
  5
95AD
330
9528
100
AcDbEntity
  8
1
  6
Continuous
100
AcDbLine
 10
293.3783309999999
 20
165.343966
 30
0.0
 11
292.378331
 21
165.343966
 31
0.0
  0
LINE
  5
95AE
330
9528
100
AcDbEntity
  8
1
  6
Continuous
100
AcDbLine
 10
293.3783309999999
 20
163.1439659999998
 30
0.0
 11
292.378331
 21
163.1439659999998
 31
0.0
  0
LINE
  5
95AF
330
9528
100
AcDbEntity
  8
1
  6
Continuous
100
AcDbLine
 10
288.378331
 20
159.243966
 30
0.0
 11
288.378331
 21
152.2579659999999
 31
0.0
  0
LINE
  5
95B0
330
9528
100
AcDbEntity
  8
1
  6
Continuous
100
AcDbLine
 10
293.3783309999999
 20
159.243966
 30
0.0
 11
289.878331
 21
159.243966
 31
0.0
  0
LINE
  5
95B1
330
9528
100
AcDbEntity
  8
1
  6
Continuous
100
AcDbLine
 10
289.878331
 20
137.2439659999998
 30
0.0
 11
288.378331
 21
137.2439659999998
 31
0.0
  0
LINE
  5
95B2
330
9528
100
AcDbEntity
  8
4
  6
CENTER
100
AcDbLine
 10
318.3783309999999
 20
128.7439659999998
 30
0.0
 11
289.3783309999998
 21
128.7439659999998
 31
0.0
  0
LINE
  5
95B3
330
9528
100
AcDbEntity
  8
1
  6
Continuous
100
AcDbLine
 10
289.878331
 20
159.243966
 30
0.0
 11
289.878331
 21
152.3889659999998
 31
0.0
  0
LINE
  5
95B4
330
9528
100
AcDbEntity
  8
1
  6
Continuous
100
AcDbLine
 10
293.3783309999999
 20
160.743966
 30
0.0
 11
289.878331
 21
160.743966
 31
0.0
  0
LINE
  5
95B5
330
9528
100
AcDbEntity
  8
1
  6
Continuous
100
AcDbLine
 10
289.878331
 20
140.2439659999998
 30
0.0
 11
288.378331
 21
140.2439659999998
 31
0.0
  0
LINE
  5
95B6
330
9528
100
AcDbEntity
  8
1
  6
Continuous
100
AcDbLine
 10
291.3783309999999
 20
155.743966
 30
0.0
 11
291.3783309999999
 21
152.519966
 31
0.0
  0
LINE
  5
95B7
330
9528
100
AcDbEntity
  8
1
  6
Continuous
100
AcDbLine
 10
291.3783309999999
 20
152.7439659999998
 30
0.0
 11
289.878331
 21
152.7439659999998
 31
0.0
  0
LINE
  5
95B8
330
9528
100
AcDbEntity
  8
1
  6
Continuous
100
AcDbLine
 10
294.8783309999999
 20
125.7439659999999
 30
0.0
 11
293.3783309999999
 21
125.7439659999999
 31
0.0
  0
LINE
  5
95B9
330
9528
100
AcDbEntity
  8
1
  6
Continuous
100
AcDbLine
 10
291.3783309999999
 20
135.2439659999998
 30
0.0
 11
294.310331
 21
132.9189659999999
 31
0.0
  0
LINE
  5
95BA
330
9528
100
AcDbEntity
  8
1
  6
Continuous
100
AcDbLine
 10
293.3783309999999
 20
131.743966
 30
0.0
 11
290.446331
 21
134.0679659999999
 31
0.0
  0
LINE
  5
95BB
330
9528
100
AcDbEntity
  8
1
  6
Continuous
100
AcDbLine
 10
293.3783309999999
 20
166.743966
 30
0.0
 11
293.3783309999999
 21
160.743966
 31
0.0
  0
LINE
  5
95BC
330
9528
100
AcDbEntity
  8
1
  6
Continuous
100
AcDbLine
 10
294.8783309999999
 20
131.743966
 30
0.0
 11
294.8783309999999
 21
125.7439659999999
 31
0.0
  0
LINE
  5
95BD
330
9528
100
AcDbEntity
  8
1
  6
Continuous
100
AcDbLine
 10
312.878331
 20
166.743966
 30
0.0
 11
312.878331
 21
160.743966
 31
0.0
  0
LINE
  5
95BE
330
9528
100
AcDbEntity
  8
1
  6
Continuous
100
AcDbLine
 10
312.878331
 20
131.743966
 30
0.0
 11
312.878331
 21
125.7439659999999
 31
0.0
  0
LINE
  5
95BF
330
9528
100
AcDbEntity
  8
1
  6
Continuous
100
AcDbLine
 10
314.3783309999998
 20
131.743966
 30
0.0
 11
317.310331
 21
134.0679659999999
 31
0.0
  0
LINE
  5
95C0
330
9528
100
AcDbEntity
  8
1
  6
Continuous
100
AcDbLine
 10
314.3783309999998
 20
131.743966
 30
0.0
 11
314.3783309999998
 21
125.7439659999999
 31
0.0
  0
LINE
  5
95C1
330
9528
100
AcDbEntity
  8
1
  6
Continuous
100
AcDbLine
 10
312.878331
 20
166.743966
 30
0.0
 11
314.3783309999998
 21
166.743966
 31
0.0
  0
LINE
  5
95C2
330
9528
100
AcDbEntity
  8
1
  6
Continuous
100
AcDbLine
 10
316.3783309999999
 20
135.2439659999998
 30
0.0
 11
313.446331
 21
132.9189659999999
 31
0.0
  0
LINE
  5
95C3
330
9528
100
AcDbEntity
  8
1
  6
Continuous
100
AcDbLine
 10
319.378331
 20
159.243966
 30
0.0
 11
319.378331
 21
152.519966
 31
0.0
  0
LINE
  5
95C4
330
9528
100
AcDbEntity
  8
1
  6
Continuous
100
AcDbLine
 10
314.3783309999998
 20
159.243966
 30
0.0
 11
317.878331
 21
159.243966
 31
0.0
  0
LINE
  5
95C5
330
9528
100
AcDbEntity
  8
1
  6
Continuous
100
AcDbLine
 10
317.878331
 20
137.2439659999998
 30
0.0
 11
319.378331
 21
137.2439659999998
 31
0.0
  0
LINE
  5
95C6
330
9528
100
AcDbEntity
  8
1
  6
Continuous
100
AcDbLine
 10
317.878331
 20
159.243966
 30
0.0
 11
317.878331
 21
152.3889659999998
 31
0.0
  0
LINE
  5
95C7
330
9528
100
AcDbEntity
  8
1
  6
Continuous
100
AcDbLine
 10
314.3783309999998
 20
160.743966
 30
0.0
 11
317.878331
 21
160.743966
 31
0.0
  0
LINE
  5
95C8
330
9528
100
AcDbEntity
  8
1
  6
Continuous
100
AcDbLine
 10
317.878331
 20
140.2439659999998
 30
0.0
 11
319.378331
 21
140.2439659999998
 31
0.0
  0
LINE
  5
95C9
330
9528
100
AcDbEntity
  8
1
  6
Continuous
100
AcDbLine
 10
316.3783309999999
 20
155.743966
 30
0.0
 11
316.3783309999999
 21
152.2579659999999
 31
0.0
  0
LINE
  5
95CA
330
9528
100
AcDbEntity
  8
1
  6
Continuous
100
AcDbLine
 10
316.3783309999999
 20
152.7439659999998
 30
0.0
 11
317.878331
 21
152.7439659999998
 31
0.0
  0
LINE
  5
95CB
330
9528
100
AcDbEntity
  8
1
  6
Continuous
100
AcDbLine
 10
312.878331
 20
125.7439659999999
 30
0.0
 11
314.3783309999998
 21
125.7439659999999
 31
0.0
  0
LINE
  5
95CC
330
9528
100
AcDbEntity
  8
1
  6
Continuous
100
AcDbLine
 10
314.3783309999998
 20
166.743966
 30
0.0
 11
314.3783309999998
 21
160.743966
 31
0.0
  0
LINE
  5
95CD
330
9528
100
AcDbEntity
  8
1
  6
Continuous
100
AcDbLine
 10
312.1283309999999
 20
124.7439659999999
 30
0.0
 11
311.128331
 21
124.7439659999999
 31
0.0
  0
LINE
  5
95CE
330
9528
100
AcDbEntity
  8
1
  6
Continuous
100
AcDbLine
 10
310.1283309999999
 20
123.7439659999999
 30
0.0
 11
310.1283309999999
 21
115.4939659999999
 31
0.0
  0
LINE
  5
95CF
330
9528
100
AcDbEntity
  8
1
  6
Continuous
100
AcDbLine
 10
297.6283309999999
 20
123.7439659999999
 30
0.0
 11
297.6283309999999
 21
115.4939659999999
 31
0.0
  0
LINE
  5
95D0
330
9528
100
AcDbEntity
  8
1
  6
Continuous
100
AcDbLine
 10
311.628331
 20
149.243966
 30
0.0
 11
296.128331
 21
149.243966
 31
0.0
  0
LINE
  5
95D1
330
9528
100
AcDbEntity
  8
1
  6
Continuous
100
AcDbLine
 10
312.1283309999999
 20
147.7439659999998
 30
0.0
 11
312.1283309999999
 21
124.7439659999999
 31
0.0
  0
LINE
  5
95D2
330
9528
100
AcDbEntity
  8
1
  6
Continuous
100
AcDbLine
 10
295.6283309999998
 20
147.7439659999998
 30
0.0
 11
295.6283309999998
 21
124.7439659999999
 31
0.0
  0
LINE
  5
95D3
330
9528
100
AcDbEntity
  8
1
  6
Continuous
100
AcDbLine
 10
311.628331
 20
149.243966
 30
0.0
 11
311.628331
 21
147.7439659999998
 31
0.0
  0
LINE
  5
95D4
330
9528
100
AcDbEntity
  8
1
  6
Continuous
100
AcDbLine
 10
296.128331
 20
149.243966
 30
0.0
 11
296.128331
 21
147.7439659999998
 31
0.0
  0
LINE
  5
95D5
330
9528
100
AcDbEntity
  8
1
  6
Continuous
100
AcDbLine
 10
312.1283309999999
 20
147.7439659999998
 30
0.0
 11
295.6283309999998
 21
147.7439659999998
 31
0.0
  0
LINE
  5
95D6
330
9528
100
AcDbEntity
  8
1
  6
Continuous
100
AcDbLine
 10
296.628331
 20
124.7439659999999
 30
0.0
 11
295.6283309999998
 21
124.7439659999999
 31
0.0
  0
LINE
  5
95D7
330
9528
100
AcDbEntity
  8
1
  6
Continuous
100
AcDbLine
 10
297.128331
 20
147.7439659999998
 30
0.0
 11
297.128331
 21
134.2439659999998
 31
0.0
  0
LINE
  5
95D8
330
9528
100
AcDbEntity
  8
1
  6
Continuous
100
AcDbLine
 10
310.628331
 20
147.7439659999998
 30
0.0
 11
310.628331
 21
134.2439659999998
 31
0.0
  0
LINE
  5
95D9
330
9528
100
AcDbEntity
  8
1
  6
Continuous
100
AcDbLine
 10
310.628331
 20
146.7439659999998
 30
0.0
 11
297.128331
 21
146.7439659999998
 31
0.0
  0
LINE
  5
95DA
330
9528
100
AcDbEntity
  8
1
  6
Continuous
100
AcDbLine
 10
310.628331
 20
143.743966
 30
0.0
 11
310.378331
 21
143.743966
 31
0.0
  0
LINE
  5
95DB
330
9528
100
AcDbEntity
  8
1
  6
Continuous
100
AcDbLine
 10
309.378331
 20
131.243966
 30
0.0
 11
309.378331
 21
116.7439659999998
 31
0.0
  0
LINE
  5
95DC
330
9528
100
AcDbEntity
  8
1
  6
Continuous
100
AcDbLine
 10
298.378331
 20
131.243966
 30
0.0
 11
298.378331
 21
116.7439659999998
 31
0.0
  0
LINE
  5
95DD
330
9528
100
AcDbEntity
  8
1
  6
Continuous
100
AcDbLine
 10
312.1283309999999
 20
131.243966
 30
0.0
 11
309.378331
 21
131.243966
 31
0.0
  0
LINE
  5
95DE
330
9528
100
AcDbEntity
  8
1
  6
Continuous
100
AcDbLine
 10
312.1283309999999
 20
134.2439659999998
 30
0.0
 11
310.378331
 21
134.2439659999998
 31
0.0
  0
LINE
  5
95DF
330
9528
100
AcDbEntity
  8
1
  6
Continuous
100
AcDbLine
 10
298.378331
 20
131.243966
 30
0.0
 11
295.6283309999998
 21
131.243966
 31
0.0
  0
LINE
  5
95E0
330
9528
100
AcDbEntity
  8
1
  6
Continuous
100
AcDbLine
 10
297.128331
 20
131.243966
 30
0.0
 11
297.128331
 21
124.6099659999998
 31
0.0
  0
LINE
  5
95E1
330
9528
100
AcDbEntity
  8
1
  6
Continuous
100
AcDbLine
 10
310.628331
 20
131.243966
 30
0.0
 11
310.628331
 21
124.6099659999998
 31
0.0
  0
LINE
  5
95E2
330
9528
100
AcDbEntity
  8
1
  6
Continuous
100
AcDbLine
 10
297.3783309999999
 20
143.743966
 30
0.0
 11
297.3783309999999
 21
134.2439659999998
 31
0.0
  0
LINE
  5
95E3
330
9528
100
AcDbEntity
  8
1
  6
Continuous
100
AcDbLine
 10
310.378331
 20
143.743966
 30
0.0
 11
310.378331
 21
134.2439659999998
 31
0.0
  0
LINE
  5
95E4
330
9528
100
AcDbEntity
  8
1
  6
Continuous
100
AcDbLine
 10
297.3783309999999
 20
134.2439659999998
 30
0.0
 11
295.6283309999998
 21
134.2439659999998
 31
0.0
  0
LINE
  5
95E5
330
9528
100
AcDbEntity
  8
1
  6
Continuous
100
AcDbLine
 10
297.3783309999999
 20
143.743966
 30
0.0
 11
297.128331
 21
143.743966
 31
0.0
  0
LINE
  5
95E6
330
9528
100
AcDbEntity
  8
4
  6
CENTER
100
AcDbLine
 10
301.3783309999999
 20
145.743966
 30
0.0
 11
301.3783309999999
 21
132.243966
 31
0.0
  0
LINE
  5
95E7
330
9528
100
AcDbEntity
  8
4
  6
CENTER
100
AcDbLine
 10
306.378331
 20
145.743966
 30
0.0
 11
306.378331
 21
132.243966
 31
0.0
  0
LINE
  5
95E8
330
9528
100
AcDbEntity
  8
1
  6
Continuous
100
AcDbLine
 10
307.8783309999999
 20
142.243966
 30
0.0
 11
307.8783309999999
 21
135.743966
 31
0.0
  0
LINE
  5
95E9
330
9528
100
AcDbEntity
  8
1
  6
Continuous
100
AcDbLine
 10
304.878331
 20
142.243966
 30
0.0
 11
304.878331
 21
135.743966
 31
0.0
  0
LINE
  5
95EA
330
9528
100
AcDbEntity
  8
1
  6
Continuous
100
AcDbLine
 10
299.878331
 20
142.243966
 30
0.0
 11
299.878331
 21
135.743966
 31
0.0
  0
LINE
  5
95EB
330
9528
100
AcDbEntity
  8
1
  6
Continuous
100
AcDbLine
 10
302.878331
 20
142.243966
 30
0.0
 11
302.878331
 21
135.743966
 31
0.0
  0
LINE
  5
95EC
330
9528
100
AcDbEntity
  8
1
  6
Continuous
100
AcDbLine
 10
27.127931
 20
247.243966
 30
0.0
 11
40.62793099999999
 21
247.243966
 31
0.0
  0
LINE
  5
95ED
330
9528
100
AcDbEntity
  8
1
  6
Continuous
100
AcDbLine
 10
25.627931
 20
259.243966
 30
0.0
 11
42.12793099999998
 21
259.243966
 31
0.0
  0
LINE
  5
95EE
330
9528
100
AcDbEntity
  8
1
  6
Continuous
100
AcDbLine
 10
22.377931
 20
255.8439659999999
 30
0.0
 11
23.377931
 21
255.8439659999999
 31
0.0
  0
LINE
  5
95EF
330
9528
100
AcDbEntity
  8
1
  6
Continuous
100
AcDbLine
 10
22.377931
 20
253.643966
 30
0.0
 11
23.377931
 21
253.643966
 31
0.0
  0
LINE
  5
95F0
330
9528
100
AcDbEntity
  8
4
  6
CENTER
100
AcDbLine
 10
19.377931
 20
254.743966
 30
0.0
 11
48.37793099999998
 21
254.743966
 31
0.0
  0
LINE
  5
95F1
330
9528
100
AcDbEntity
  8
4
  6
CENTER
100
AcDbLine
 10
33.87793099999999
 20
244.243966
 30
0.0
 11
33.87793099999999
 21
262.2439659999999
 31
0.0
  0
LINE
  5
95F2
330
9528
100
AcDbEntity
  8
1
  6
Continuous
100
AcDbLine
 10
42.877931
 20
250.243966
 30
0.0
 11
42.877931
 21
257.243966
 31
0.0
  0
LINE
  5
95F3
330
9528
100
AcDbEntity
  8
1
  6
Continuous
100
AcDbLine
 10
24.877931
 20
250.243966
 30
0.0
 11
24.877931
 21
257.243966
 31
0.0
  0
LINE
  5
95F4
330
9528
100
AcDbEntity
  8
1
  6
Continuous
100
AcDbLine
 10
44.37793099999999
 20
250.243966
 30
0.0
 11
44.37793099999999
 21
257.243966
 31
0.0
  0
LINE
  5
95F5
330
9528
100
AcDbEntity
  8
1
  6
Continuous
100
AcDbLine
 10
23.377931
 20
250.243966
 30
0.0
 11
23.377931
 21
257.243966
 31
0.0
  0
LINE
  5
95F6
330
9528
100
AcDbEntity
  8
1
  6
Continuous
100
AcDbLine
 10
22.377931
 20
253.643966
 30
0.0
 11
22.377931
 21
255.8439659999999
 31
0.0
  0
LINE
  5
95F7
330
9528
100
AcDbEntity
  8
1
  6
Continuous
100
AcDbLine
 10
45.377931
 20
253.643966
 30
0.0
 11
45.377931
 21
255.8439659999999
 31
0.0
  0
LINE
  5
95F8
330
9528
100
AcDbEntity
  8
1
  6
Continuous
100
AcDbLine
 10
44.37793099999999
 20
253.643966
 30
0.0
 11
45.377931
 21
253.643966
 31
0.0
  0
LINE
  5
95F9
330
9528
100
AcDbEntity
  8
1
  6
Continuous
100
AcDbLine
 10
44.37793099999999
 20
255.8439659999999
 30
0.0
 11
45.377931
 21
255.8439659999999
 31
0.0
  0
LINE
  5
95FA
330
9528
100
AcDbEntity
  8
1
  6
Continuous
100
AcDbLine
 10
24.877931
 20
253.243966
 30
0.0
 11
42.877931
 21
253.243966
 31
0.0
  0
LINE
  5
95FB
330
9528
100
AcDbEntity
  8
1
  6
Continuous
100
AcDbLine
 10
42.12793099999998
 20
248.743966
 30
0.0
 11
42.12793099999998
 21
253.243966
 31
0.0
  0
LINE
  5
95FC
330
9528
100
AcDbEntity
  8
1
  6
Continuous
100
AcDbLine
 10
25.627931
 20
248.743966
 30
0.0
 11
25.627931
 21
253.243966
 31
0.0
  0
LINE
  5
95FD
330
9528
100
AcDbEntity
  8
1
  6
Continuous
100
AcDbLine
 10
25.627931
 20
250.243966
 30
0.0
 11
26.127931
 21
250.243966
 31
0.0
  0
LINE
  5
95FE
330
9528
100
AcDbEntity
  8
1
  6
Continuous
100
AcDbLine
 10
25.627931
 20
252.243966
 30
0.0
 11
26.127931
 21
252.243966
 31
0.0
  0
LINE
  5
95FF
330
9528
100
AcDbEntity
  8
1
  6
Continuous
100
AcDbLine
 10
27.377931
 20
256.2439659999999
 30
0.0
 11
27.377931
 21
259.243966
 31
0.0
  0
LINE
  5
9600
330
9528
100
AcDbEntity
  8
1
  6
Continuous
100
AcDbLine
 10
40.377931
 20
256.2439659999999
 30
0.0
 11
40.377931
 21
259.243966
 31
0.0
  0
LINE
  5
9601
330
9528
100
AcDbEntity
  8
1
  6
Continuous
100
AcDbLine
 10
41.627931
 20
247.625932
 30
0.0
 11
41.627931
 21
253.243966
 31
0.0
  0
LINE
  5
9602
330
9528
100
AcDbEntity
  8
1
  6
Continuous
100
AcDbLine
 10
26.127931
 20
247.625932
 30
0.0
 11
26.127931
 21
253.243966
 31
0.0
  0
LINE
  5
9603
330
9528
100
AcDbEntity
  8
1
  6
Continuous
100
AcDbLine
 10
41.627931
 20
250.243966
 30
0.0
 11
42.12793099999998
 21
250.243966
 31
0.0
  0
LINE
  5
9604
330
9528
100
AcDbEntity
  8
1
  6
Continuous
100
AcDbLine
 10
41.627931
 20
252.243966
 30
0.0
 11
42.12793099999998
 21
252.243966
 31
0.0
  0
LINE
  5
9605
330
9528
100
AcDbEntity
  8
1
  6
Continuous
100
AcDbLine
 10
18.377931
 20
247.993966
 30
0.0
 11
18.377931
 21
248.236966
 31
0.0
  0
LINE
  5
9606
330
9528
100
AcDbEntity
  8
1
  6
Continuous
100
AcDbLine
 10
49.377931
 20
247.993966
 30
0.0
 11
49.377931
 21
248.236966
 31
0.0
  0
LINE
  5
9607
330
9528
100
AcDbEntity
  8
1
  6
Continuous
100
AcDbLine
 10
47.877931
 20
247.993966
 30
0.0
 11
47.877931
 21
250.243966
 31
0.0
  0
LINE
  5
9608
330
9528
100
AcDbEntity
  8
1
  6
Continuous
100
AcDbLine
 10
46.37793099999998
 20
247.993966
 30
0.0
 11
46.37793099999998
 21
250.243966
 31
0.0
  0
LINE
  5
9609
330
9528
100
AcDbEntity
  8
4
  6
CENTER
100
AcDbLine
 10
12.127931
 20
252.743966
 30
0.0
 11
55.627931
 21
252.743966
 31
0.0
  0
LINE
  5
960A
330
9528
100
AcDbEntity
  8
1
  6
Continuous
100
AcDbLine
 10
18.377931
 20
255.243966
 30
0.0
 11
22.377931
 21
255.243966
 31
0.0
  0
LINE
  5
960B
330
9528
100
AcDbEntity
  8
1
  6
Continuous
100
AcDbLine
 10
18.377931
 20
250.243966
 30
0.0
 11
24.877931
 21
250.243966
 31
0.0
  0
LINE
  5
960C
330
9528
100
AcDbEntity
  8
1
  6
Continuous
100
AcDbLine
 10
19.877931
 20
247.993966
 30
0.0
 11
19.877931
 21
250.243966
 31
0.0
  0
LINE
  5
960D
330
9528
100
AcDbEntity
  8
1
  6
Continuous
100
AcDbLine
 10
21.377931
 20
247.993966
 30
0.0
 11
21.377931
 21
250.243966
 31
0.0
  0
LINE
  5
960E
330
9528
100
AcDbEntity
  8
1
  6
Continuous
100
AcDbLine
 10
18.377931
 20
247.993966
 30
0.0
 11
21.377931
 21
247.993966
 31
0.0
  0
LINE
  5
960F
330
9528
100
AcDbEntity
  8
1
  6
Continuous
100
AcDbLine
 10
18.377931
 20
257.493966
 30
0.0
 11
21.377931
 21
257.493966
 31
0.0
  0
LINE
  5
9610
330
9528
100
AcDbEntity
  8
1
  6
Continuous
100
AcDbLine
 10
46.37793099999998
 20
247.993966
 30
0.0
 11
49.377931
 21
247.993966
 31
0.0
  0
LINE
  5
9611
330
9528
100
AcDbEntity
  8
1
  6
Continuous
100
AcDbLine
 10
46.37793099999998
 20
257.493966
 30
0.0
 11
49.377931
 21
257.493966
 31
0.0
  0
LINE
  5
9612
330
9528
100
AcDbEntity
  8
1
  6
Continuous
100
AcDbLine
 10
42.877931
 20
250.243966
 30
0.0
 11
49.377931
 21
250.243966
 31
0.0
  0
LINE
  5
9613
330
9528
100
AcDbEntity
  8
1
  6
Continuous
100
AcDbLine
 10
92.128331
 20
256.2439659999999
 30
0.0
 11
115.628331
 21
256.2439659999999
 31
0.0
  0
LINE
  5
9614
330
9528
100
AcDbEntity
  8
1
  6
Continuous
100
AcDbLine
 10
45.377931
 20
255.243966
 30
0.0
 11
49.377931
 21
255.243966
 31
0.0
  0
LINE
  5
9615
330
9528
100
AcDbEntity
  8
1
  6
Continuous
100
AcDbLine
 10
21.377931
 20
255.243966
 30
0.0
 11
21.377931
 21
257.493966
 31
0.0
  0
LINE
  5
9616
330
9528
100
AcDbEntity
  8
1
  6
Continuous
100
AcDbLine
 10
19.877931
 20
255.243966
 30
0.0
 11
19.877931
 21
257.493966
 31
0.0
  0
LINE
  5
9617
330
9528
100
AcDbEntity
  8
1
  6
Continuous
100
AcDbLine
 10
47.877931
 20
255.243966
 30
0.0
 11
47.877931
 21
257.493966
 31
0.0
  0
LINE
  5
9618
330
9528
100
AcDbEntity
  8
1
  6
Continuous
100
AcDbLine
 10
46.37793099999998
 20
255.243966
 30
0.0
 11
46.37793099999998
 21
257.493966
 31
0.0
  0
LINE
  5
9619
330
9528
100
AcDbEntity
  8
1
  6
Continuous
100
AcDbLine
 10
18.377931
 20
249.7479659999999
 30
0.0
 11
18.377931
 21
255.738966
 31
0.0
  0
LINE
  5
961A
330
9528
100
AcDbEntity
  8
1
  6
Continuous
100
AcDbLine
 10
18.377931
 20
257.2499659999999
 30
0.0
 11
18.377931
 21
257.493966
 31
0.0
  0
LINE
  5
961B
330
9528
100
AcDbEntity
  8
1
  6
Continuous
100
AcDbLine
 10
49.377931
 20
249.7479659999999
 30
0.0
 11
49.377931
 21
255.738966
 31
0.0
  0
LINE
  5
961C
330
9528
100
AcDbEntity
  8
1
  6
Continuous
100
AcDbLine
 10
49.377931
 20
257.250966
 30
0.0
 11
49.377931
 21
257.493966
 31
0.0
  0
LINE
  5
961D
330
9528
100
AcDbEntity
  8
1
  6
Continuous
100
AcDbLine
 10
178.378331
 20
144.23683
 30
0.0
 11
178.378331
 21
143.9439659999998
 31
0.0
  0
LINE
  5
961E
330
9528
100
AcDbEntity
  8
1
  6
Continuous
100
AcDbLine
 10
27.127931
 20
52.243566
 30
0.0
 11
40.628031
 21
52.243566
 31
0.0
  0
LINE
  5
961F
330
9528
100
AcDbEntity
  8
1
  6
Continuous
100
AcDbLine
 10
25.627931
 20
40.24356599999999
 30
0.0
 11
42.12793099999998
 21
40.24356599999999
 31
0.0
  0
LINE
  5
9620
330
9528
100
AcDbEntity
  8
4
  6
CENTER
100
AcDbLine
 10
19.377931
 20
44.74356599999999
 30
0.0
 11
48.37793099999998
 21
44.74356599999999
 31
0.0
  0
LINE
  5
9621
330
9528
100
AcDbEntity
  8
4
  6
CENTER
100
AcDbLine
 10
33.87793099999999
 20
55.243566
 30
0.0
 11
33.87793099999999
 21
37.24356599999997
 31
0.0
  0
LINE
  5
9622
330
9528
100
AcDbEntity
  8
1
  6
Continuous
100
AcDbLine
 10
42.878031
 20
49.24356599999999
 30
0.0
 11
42.878031
 21
42.24356599999999
 31
0.0
  0
LINE
  5
9623
330
9528
100
AcDbEntity
  8
1
  6
Continuous
100
AcDbLine
 10
24.877931
 20
49.24356599999999
 30
0.0
 11
24.877931
 21
42.24356599999999
 31
0.0
  0
LINE
  5
9624
330
9528
100
AcDbEntity
  8
1
  6
Continuous
100
AcDbLine
 10
44.378031
 20
49.24356599999999
 30
0.0
 11
44.378031
 21
44.24356599999998
 31
0.0
  0
LINE
  5
9625
330
9528
100
AcDbEntity
  8
1
  6
Continuous
100
AcDbLine
 10
23.377931
 20
49.24356599999999
 30
0.0
 11
23.377931
 21
44.24356599999998
 31
0.0
  0
LINE
  5
9626
330
9528
100
AcDbEntity
  8
1
  6
Continuous
100
AcDbLine
 10
22.377931
 20
47.84356599999997
 30
0.0
 11
22.377931
 21
45.64356599999999
 31
0.0
  0
LINE
  5
9627
330
9528
100
AcDbEntity
  8
1
  6
Continuous
100
AcDbLine
 10
45.378031
 20
47.84356599999997
 30
0.0
 11
45.378031
 21
45.64356599999999
 31
0.0
  0
LINE
  5
9628
330
9528
100
AcDbEntity
  8
1
  6
Continuous
100
AcDbLine
 10
42.128031
 20
50.74356599999997
 30
0.0
 11
42.128031
 21
40.24356599999999
 31
0.0
  0
LINE
  5
9629
330
9528
100
AcDbEntity
  8
1
  6
Continuous
100
AcDbLine
 10
25.627931
 20
50.74356599999997
 30
0.0
 11
25.627931
 21
40.24356599999999
 31
0.0
  0
LINE
  5
962A
330
9528
100
AcDbEntity
  8
1
  6
Continuous
100
AcDbLine
 10
27.377931
 20
45.24356599999999
 30
0.0
 11
27.377931
 21
42.24356599999999
 31
0.0
  0
LINE
  5
962B
330
9528
100
AcDbEntity
  8
1
  6
Continuous
100
AcDbLine
 10
40.378031
 20
45.24356599999999
 30
0.0
 11
40.378031
 21
42.24356599999999
 31
0.0
  0
LINE
  5
962C
330
9528
100
AcDbEntity
  8
1
  6
Continuous
100
AcDbLine
 10
27.127931
 20
49.24356599999999
 30
0.0
 11
27.627931
 21
49.24356599999999
 31
0.0
  0
LINE
  5
962D
330
9528
100
AcDbEntity
  8
1
  6
Continuous
100
AcDbLine
 10
27.127931
 20
42.24356599999999
 30
0.0
 11
40.62793099999999
 21
42.24356599999999
 31
0.0
  0
LINE
  5
962E
330
9528
100
AcDbEntity
  8
1
  6
Continuous
100
AcDbLine
 10
47.878031
 20
51.49356599999999
 30
0.0
 11
47.878031
 21
41.99356599999997
 31
0.0
  0
LINE
  5
962F
330
9528
100
AcDbEntity
  8
1
  6
Continuous
100
AcDbLine
 10
46.378031
 20
51.49356599999999
 30
0.0
 11
46.378031
 21
51.25046600000001
 31
0.0
  0
LINE
  5
9630
330
9528
100
AcDbEntity
  8
4
  6
CENTER
100
AcDbLine
 10
12.127931
 20
46.74356599999998
 30
0.0
 11
55.627931
 21
46.74356599999998
 31
0.0
  0
LINE
  5
9631
330
9528
100
AcDbEntity
  8
1
  6
Continuous
100
AcDbLine
 10
19.877931
 20
44.24356599999998
 30
0.0
 11
24.877931
 21
44.24356599999998
 31
0.0
  0
LINE
  5
9632
330
9528
100
AcDbEntity
  8
1
  6
Continuous
100
AcDbLine
 10
19.877931
 20
49.24356599999999
 30
0.0
 11
24.877931
 21
49.24356599999999
 31
0.0
  0
LINE
  5
9633
330
9528
100
AcDbEntity
  8
1
  6
Continuous
100
AcDbLine
 10
23.377931
 20
42.24356599999999
 30
0.0
 11
24.877931
 21
42.24356599999999
 31
0.0
  0
LINE
  5
9634
330
9528
100
AcDbEntity
  8
1
  6
Continuous
100
AcDbLine
 10
42.877931
 20
42.24356599999999
 30
0.0
 11
44.37793099999999
 21
42.24356599999999
 31
0.0
  0
LINE
  5
9635
330
9528
100
AcDbEntity
  8
1
  6
Continuous
100
AcDbLine
 10
19.877931
 20
51.49356599999999
 30
0.0
 11
19.877931
 21
41.99356599999997
 31
0.0
  0
LINE
  5
9636
330
9528
100
AcDbEntity
  8
1
  6
Continuous
100
AcDbLine
 10
21.377931
 20
51.49356599999999
 30
0.0
 11
21.377931
 21
51.25046600000001
 31
0.0
  0
LINE
  5
9637
330
9528
100
AcDbEntity
  8
1
  6
Continuous
100
AcDbLine
 10
18.377931
 20
51.49356599999999
 30
0.0
 11
21.377931
 21
51.49356599999999
 31
0.0
  0
LINE
  5
9638
330
9528
100
AcDbEntity
  8
1
  6
Continuous
100
AcDbLine
 10
18.377931
 20
41.99356599999997
 30
0.0
 11
21.377931
 21
41.99356599999997
 31
0.0
  0
LINE
  5
9639
330
9528
100
AcDbEntity
  8
1
  6
Continuous
100
AcDbLine
 10
46.378031
 20
51.49356599999999
 30
0.0
 11
49.378031
 21
51.49356599999999
 31
0.0
  0
LINE
  5
963A
330
9528
100
AcDbEntity
  8
1
  6
Continuous
100
AcDbLine
 10
46.37793099999998
 20
41.99356599999997
 30
0.0
 11
49.377931
 21
41.99356599999997
 31
0.0
  0
LINE
  5
963B
330
9528
100
AcDbEntity
  8
1
  6
Continuous
100
AcDbLine
 10
42.877931
 20
49.24356599999999
 30
0.0
 11
47.877931
 21
49.24356599999999
 31
0.0
  0
LINE
  5
963C
330
9528
100
AcDbEntity
  8
1
  6
Continuous
100
AcDbLine
 10
42.877931
 20
44.24356599999998
 30
0.0
 11
47.877931
 21
44.24356599999998
 31
0.0
  0
LINE
  5
963D
330
9528
100
AcDbEntity
  8
1
  6
Continuous
100
AcDbLine
 10
21.377931
 20
44.24356599999998
 30
0.0
 11
21.377931
 21
43.74816599999999
 31
0.0
  0
LINE
  5
963E
330
9528
100
AcDbEntity
  8
1
  6
Continuous
100
AcDbLine
 10
46.378031
 20
44.24356599999998
 30
0.0
 11
46.378031
 21
43.74816599999999
 31
0.0
  0
LINE
  5
963F
330
9528
100
AcDbEntity
  8
1
  6
Continuous
100
AcDbLine
 10
18.377931
 20
51.49356599999999
 30
0.0
 11
18.377931
 21
41.99356599999997
 31
0.0
  0
LINE
  5
9640
330
9528
100
AcDbEntity
  8
1
  6
Continuous
100
AcDbLine
 10
49.378031
 20
51.49356599999999
 30
0.0
 11
49.378031
 21
41.99356599999997
 31
0.0
  0
LINE
  5
9641
330
9528
100
AcDbEntity
  8
1
  6
Continuous
100
AcDbLine
 10
39.378031
 20
42.24356599999999
 30
0.0
 11
39.378031
 21
40.24356599999999
 31
0.0
  0
LINE
  5
9642
330
9528
100
AcDbEntity
  8
1
  6
Continuous
100
AcDbLine
 10
28.377931
 20
42.24356599999999
 30
0.0
 11
28.377931
 21
40.24356599999999
 31
0.0
  0
LINE
  5
9643
330
9528
100
AcDbEntity
  8
1
  6
Continuous
100
AcDbLine
 10
25.627931
 20
40.99356599999999
 30
0.0
 11
27.127931
 21
40.99356599999999
 31
0.0
  0
LINE
  5
9644
330
9528
100
AcDbEntity
  8
1
  6
Continuous
100
AcDbLine
 10
40.62793099999999
 20
40.99356599999999
 30
0.0
 11
42.12793099999998
 21
40.99356599999999
 31
0.0
  0
LINE
  5
9645
330
9528
100
AcDbEntity
  8
1
  6
Continuous
100
AcDbLine
 10
27.127931
 20
50.74356599999997
 30
0.0
 11
27.627931
 21
50.74356599999997
 31
0.0
  0
LINE
  5
9646
330
9528
100
AcDbEntity
  8
1
  6
Continuous
100
AcDbLine
 10
40.628031
 20
50.74356599999997
 30
0.0
 11
40.628031
 21
40.99356599999999
 31
0.0
  0
LINE
  5
9647
330
9528
100
AcDbEntity
  8
1
  6
Continuous
100
AcDbLine
 10
27.127931
 20
50.74356599999997
 30
0.0
 11
27.127931
 21
40.99356599999999
 31
0.0
  0
LINE
  5
9648
330
9528
100
AcDbEntity
  8
1
  6
Continuous
100
AcDbLine
 10
24.877931
 20
48.24356599999997
 30
0.0
 11
25.627931
 21
48.24356599999997
 31
0.0
  0
LINE
  5
9649
330
9528
100
AcDbEntity
  8
1
  6
Continuous
100
AcDbLine
 10
24.877931
 20
45.24356599999999
 30
0.0
 11
25.627931
 21
45.24356599999999
 31
0.0
  0
LINE
  5
964A
330
9528
100
AcDbEntity
  8
1
  6
Continuous
100
AcDbLine
 10
42.12793099999998
 20
48.24356599999997
 30
0.0
 11
42.877931
 21
48.24356599999997
 31
0.0
  0
LINE
  5
964B
330
9528
100
AcDbEntity
  8
1
  6
Continuous
100
AcDbLine
 10
42.12793099999998
 20
45.24356599999999
 30
0.0
 11
42.877931
 21
45.24356599999999
 31
0.0
  0
LINE
  5
964C
330
9528
100
AcDbEntity
  8
1
  6
Continuous
100
AcDbLine
 10
27.127931
 20
48.24356599999997
 30
0.0
 11
27.627931
 21
48.24356599999997
 31
0.0
  0
LINE
  5
964D
330
9528
100
AcDbEntity
  8
1
  6
Continuous
100
AcDbLine
 10
27.127931
 20
45.24356599999999
 30
0.0
 11
40.62793099999999
 21
45.24356599999999
 31
0.0
  0
LINE
  5
964E
330
9528
100
AcDbEntity
  8
1
  6
Continuous
100
AcDbLine
 10
23.089331
 20
43.24356599999997
 30
0.0
 11
23.377931
 21
43.24356599999997
 31
0.0
  0
LINE
  5
964F
330
9528
100
AcDbEntity
  8
1
  6
Continuous
100
AcDbLine
 10
42.12793099999998
 20
43.24356599999997
 30
0.0
 11
42.877931
 21
43.24356599999997
 31
0.0
  0
LINE
  5
9650
330
9528
100
AcDbEntity
  8
1
  6
Continuous
100
AcDbLine
 10
40.378031
 20
49.24356599999999
 30
0.0
 11
40.378031
 21
48.24356599999997
 31
0.0
  0
LINE
  5
9651
330
9528
100
AcDbEntity
  8
1
  6
Continuous
100
AcDbLine
 10
27.377931
 20
49.24356599999999
 30
0.0
 11
27.377931
 21
48.24356599999997
 31
0.0
  0
LINE
  5
9652
330
9528
100
AcDbEntity
  8
1
  6
Continuous
100
AcDbLine
 10
22.377931
 20
47.84356599999997
 30
0.0
 11
23.377931
 21
47.84356599999997
 31
0.0
  0
LINE
  5
9653
330
9528
100
AcDbEntity
  8
1
  6
Continuous
100
AcDbLine
 10
22.377931
 20
45.64356599999999
 30
0.0
 11
23.377931
 21
45.64356599999999
 31
0.0
  0
LINE
  5
9654
330
9528
100
AcDbEntity
  8
1
  6
Continuous
100
AcDbLine
 10
44.37793099999999
 20
47.84356599999997
 30
0.0
 11
45.377931
 21
47.84356599999997
 31
0.0
  0
LINE
  5
9655
330
9528
100
AcDbEntity
  8
1
  6
Continuous
100
AcDbLine
 10
44.37793099999999
 20
45.64356599999999
 30
0.0
 11
45.377931
 21
45.64356599999999
 31
0.0
  0
LINE
  5
9656
330
9528
100
AcDbEntity
  8
1
  6
Continuous
100
AcDbLine
 10
46.378031
 20
49.73896599999999
 30
0.0
 11
46.378031
 21
49.24356599999999
 31
0.0
  0
LINE
  5
9657
330
9528
100
AcDbEntity
  8
1
  6
Continuous
100
AcDbLine
 10
46.378031
 20
42.23656599999999
 30
0.0
 11
46.378031
 21
41.99356599999997
 31
0.0
  0
LINE
  5
9658
330
9528
100
AcDbEntity
  8
1
  6
Continuous
100
AcDbLine
 10
21.377931
 20
49.73896599999999
 30
0.0
 11
21.377931
 21
49.24356599999999
 31
0.0
  0
LINE
  5
9659
330
9528
100
AcDbEntity
  8
1
  6
Continuous
100
AcDbLine
 10
21.377931
 20
42.23656599999999
 30
0.0
 11
21.377931
 21
41.99356599999997
 31
0.0
  0
LINE
  5
965A
330
9528
100
AcDbEntity
  8
1
  6
Continuous
100
AcDbLine
 10
40.128031
 20
52.243566
 30
0.0
 11
40.128031
 21
47.246066
 31
0.0
  0
LINE
  5
965B
330
9528
100
AcDbEntity
  8
1
  6
Continuous
100
AcDbLine
 10
27.627931
 20
52.243566
 30
0.0
 11
27.627931
 21
47.246066
 31
0.0
  0
LINE
  5
965C
330
9528
100
AcDbEntity
  8
1
  6
Continuous
100
AcDbLine
 10
40.12793099999997
 20
50.74356599999997
 30
0.0
 11
40.62793099999999
 21
50.74356599999997
 31
0.0
  0
LINE
  5
965D
330
9528
100
AcDbEntity
  8
1
  6
Continuous
100
AcDbLine
 10
40.12793099999997
 20
49.24356599999999
 30
0.0
 11
40.62793099999999
 21
49.24356599999999
 31
0.0
  0
LINE
  5
965E
330
9528
100
AcDbEntity
  8
1
  6
Continuous
100
AcDbLine
 10
40.12793099999997
 20
48.24356599999997
 30
0.0
 11
40.62793099999999
 21
48.24356599999997
 31
0.0
  0
LINE
  5
965F
330
9528
100
AcDbEntity
  8
1
  6
Continuous
100
AcDbLine
 10
40.12793099999997
 20
47.246066
 30
0.0
 11
27.627931
 21
47.246066
 31
0.0
  0
LINE
  5
9660
330
9528
100
AcDbEntity
  8
4
  6
CENTER
100
AcDbLine
 10
180.475556
 20
163.996436
 30
0.0
 11
174.281106
 21
164.258721
 31
0.0
  0
LINE
  5
9661
330
9528
100
AcDbEntity
  8
4
  6
CENTER
100
AcDbLine
 10
177.5094729999999
 20
167.224803
 30
0.0
 11
177.247189
 21
161.0303539999999
 31
0.0
  0
LINE
  5
9662
330
9528
100
AcDbEntity
  8
4
  6
CENTER
100
AcDbLine
 10
170.778331
 20
128.7439659999998
 30
0.0
 11
182.3783309999998
 21
128.7439659999998
 31
0.0
  0
LINE
  5
9663
330
9528
100
AcDbEntity
  8
4
  6
CENTER
100
AcDbLine
 10
298.628331
 20
117.2439659999999
 30
0.0
 11
309.128331
 21
117.2439659999999
 31
0.0
  0
LINE
  5
9664
330
9528
100
AcDbEntity
  8
1
  6
Continuous
100
AcDbLine
 10
19.877931
 20
155.743966
 30
0.0
 11
21.377931
 21
155.743966
 31
0.0
  0
LINE
  5
9665
330
9528
100
AcDbEntity
  8
1
  6
Continuous
100
AcDbLine
 10
46.37793099999998
 20
155.743966
 30
0.0
 11
47.877931
 21
155.743966
 31
0.0
  0
LINE
  5
9666
330
9528
100
AcDbEntity
  8
1
  6
Continuous
100
AcDbLine
 10
24.877931
 20
127.2439659999998
 30
0.0
 11
25.627931
 21
127.2439659999998
 31
0.0
  0
LINE
  5
9667
330
9528
100
AcDbEntity
  8
1
  6
Continuous
100
AcDbLine
 10
24.877931
 20
130.243966
 30
0.0
 11
25.627931
 21
130.243966
 31
0.0
  0
LINE
  5
9668
330
9528
100
AcDbEntity
  8
1
  6
Continuous
100
AcDbLine
 10
42.12793099999998
 20
130.243966
 30
0.0
 11
42.877931
 21
130.243966
 31
0.0
  0
LINE
  5
9669
330
9528
100
AcDbEntity
  8
1
  6
Continuous
100
AcDbLine
 10
42.12793099999998
 20
127.2439659999998
 30
0.0
 11
42.877931
 21
127.2439659999998
 31
0.0
  0
LINE
  5
966A
330
9528
100
AcDbEntity
  8
1
  6
Continuous
100
AcDbLine
 10
22.377931
 20
129.8439659999999
 30
0.0
 11
22.377931
 21
127.6439659999999
 31
0.0
  0
LINE
  5
966B
330
9528
100
AcDbEntity
  8
1
  6
Continuous
100
AcDbLine
 10
45.377931
 20
129.8439659999999
 30
0.0
 11
45.377931
 21
127.6439659999999
 31
0.0
  0
LINE
  5
966C
330
9528
100
AcDbEntity
  8
1
  6
Continuous
100
AcDbLine
 10
22.377931
 20
127.6439659999999
 30
0.0
 11
23.377931
 21
127.6439659999999
 31
0.0
  0
LINE
  5
966D
330
9528
100
AcDbEntity
  8
1
  6
Continuous
100
AcDbLine
 10
22.377931
 20
129.8439659999999
 30
0.0
 11
23.377931
 21
129.8439659999999
 31
0.0
  0
LINE
  5
966E
330
9528
100
AcDbEntity
  8
1
  6
Continuous
100
AcDbLine
 10
44.37793099999999
 20
129.8439659999999
 30
0.0
 11
45.377931
 21
129.8439659999999
 31
0.0
  0
LINE
  5
966F
330
9528
100
AcDbEntity
  8
1
  6
Continuous
100
AcDbLine
 10
44.37793099999999
 20
127.6439659999999
 30
0.0
 11
45.377931
 21
127.6439659999999
 31
0.0
  0
LINE
  5
9670
330
9528
100
AcDbEntity
  8
1
  6
Continuous
100
AcDbLine
 10
289.878331
 20
155.743966
 30
0.0
 11
291.3783309999999
 21
155.743966
 31
0.0
  0
LINE
  5
9671
330
9528
100
AcDbEntity
  8
1
  6
Continuous
100
AcDbLine
 10
316.3783309999999
 20
155.743966
 30
0.0
 11
317.878331
 21
155.743966
 31
0.0
  0
LINE
  5
9672
330
9528
100
AcDbEntity
  8
1
  6
Continuous
100
AcDbLine
 10
312.878331
 20
127.2439659999998
 30
0.0
 11
312.1283309999999
 21
127.2439659999998
 31
0.0
  0
LINE
  5
9673
330
9528
100
AcDbEntity
  8
1
  6
Continuous
100
AcDbLine
 10
312.878331
 20
130.243966
 30
0.0
 11
312.1283309999999
 21
130.243966
 31
0.0
  0
LINE
  5
9674
330
9528
100
AcDbEntity
  8
1
  6
Continuous
100
AcDbLine
 10
295.6283309999998
 20
130.243966
 30
0.0
 11
294.8783309999999
 21
130.243966
 31
0.0
  0
LINE
  5
9675
330
9528
100
AcDbEntity
  8
1
  6
Continuous
100
AcDbLine
 10
295.6283309999998
 20
127.2439659999998
 30
0.0
 11
294.8783309999999
 21
127.2439659999998
 31
0.0
  0
LINE
  5
9676
330
9528
100
AcDbEntity
  8
1
  6
Continuous
100
AcDbLine
 10
292.378331
 20
129.8439659999999
 30
0.0
 11
292.378331
 21
127.6439659999999
 31
0.0
  0
LINE
  5
9677
330
9528
100
AcDbEntity
  8
1
  6
Continuous
100
AcDbLine
 10
315.378331
 20
129.8439659999999
 30
0.0
 11
315.378331
 21
127.6439659999999
 31
0.0
  0
LINE
  5
9678
330
9528
100
AcDbEntity
  8
1
  6
Continuous
100
AcDbLine
 10
315.378331
 20
127.6439659999999
 30
0.0
 11
314.3783309999998
 21
127.6439659999999
 31
0.0
  0
LINE
  5
9679
330
9528
100
AcDbEntity
  8
1
  6
Continuous
100
AcDbLine
 10
315.378331
 20
129.8439659999999
 30
0.0
 11
314.3783309999998
 21
129.8439659999999
 31
0.0
  0
LINE
  5
967A
330
9528
100
AcDbEntity
  8
1
  6
Continuous
100
AcDbLine
 10
293.3783309999999
 20
129.8439659999999
 30
0.0
 11
292.378331
 21
129.8439659999999
 31
0.0
  0
LINE
  5
967B
330
9528
100
AcDbEntity
  8
1
  6
Continuous
100
AcDbLine
 10
293.3783309999999
 20
127.6439659999999
 30
0.0
 11
292.378331
 21
127.6439659999999
 31
0.0
  0
LINE
  5
967C
330
9528
100
AcDbEntity
  8
1
  6
Continuous
100
AcDbLine
 10
15.76693099999999
 20
152.029966
 30
0.0
 11
23.866931
 21
152.737966
 31
0.0
  0
LINE
  5
967D
330
9528
100
AcDbEntity
  8
1
  6
Continuous
100
AcDbLine
 10
15.889031
 20
150.6349659999998
 30
0.0
 11
23.989031
 21
151.3439659999999
 31
0.0
  0
LINE
  5
967E
330
9528
100
AcDbEntity
  8
1
  6
Continuous
100
AcDbLine
 10
15.76693099999999
 20
150.3029659999999
 30
0.0
 11
23.866931
 21
151.0119659999998
 31
0.0
  0
LINE
  5
967F
330
9528
100
AcDbEntity
  8
1
  6
Continuous
100
AcDbLine
 10
15.889031
 20
148.9079659999999
 30
0.0
 11
23.989031
 21
149.6169659999999
 31
0.0
  0
LINE
  5
9680
330
9528
100
AcDbEntity
  8
1
  6
Continuous
100
AcDbLine
 10
15.76693099999999
 20
148.575966
 30
0.0
 11
23.866931
 21
149.284966
 31
0.0
  0
LINE
  5
9681
330
9528
100
AcDbEntity
  8
1
  6
Continuous
100
AcDbLine
 10
15.889031
 20
147.1819659999999
 30
0.0
 11
23.989031
 21
147.8899659999999
 31
0.0
  0
LINE
  5
9682
330
9528
100
AcDbEntity
  8
1
  6
Continuous
100
AcDbLine
 10
15.76693099999999
 20
146.8499659999999
 30
0.0
 11
23.866931
 21
147.5589659999999
 31
0.0
  0
LINE
  5
9683
330
9528
100
AcDbEntity
  8
1
  6
Continuous
100
AcDbLine
 10
15.889031
 20
145.4549659999998
 30
0.0
 11
23.989031
 21
146.1639659999999
 31
0.0
  0
LINE
  5
9684
330
9528
100
AcDbEntity
  8
1
  6
Continuous
100
AcDbLine
 10
15.76693099999999
 20
145.1229659999999
 30
0.0
 11
23.866931
 21
145.8319659999999
 31
0.0
  0
LINE
  5
9685
330
9528
100
AcDbEntity
  8
1
  6
Continuous
100
AcDbLine
 10
15.889031
 20
143.7289659999999
 30
0.0
 11
23.989031
 21
144.4369659999999
 31
0.0
  0
LINE
  5
9686
330
9528
100
AcDbEntity
  8
1
  6
Continuous
100
AcDbLine
 10
15.76693099999999
 20
143.3969659999999
 30
0.0
 11
23.866931
 21
144.104966
 31
0.0
  0
LINE
  5
9687
330
9528
100
AcDbEntity
  8
1
  6
Continuous
100
AcDbLine
 10
15.889031
 20
142.0019659999999
 30
0.0
 11
23.989031
 21
142.7109659999999
 31
0.0
  0
LINE
  5
9688
330
9528
100
AcDbEntity
  8
1
  6
Continuous
100
AcDbLine
 10
15.76693099999999
 20
141.6699659999999
 30
0.0
 11
23.866931
 21
142.3789659999999
 31
0.0
  0
LINE
  5
9689
330
9528
100
AcDbEntity
  8
1
  6
Continuous
100
AcDbLine
 10
15.889031
 20
140.2749659999997
 30
0.0
 11
23.989031
 21
140.9839659999998
 31
0.0
  0
LINE
  5
968A
330
9528
100
AcDbEntity
  8
1
  6
Continuous
100
AcDbLine
 10
22.360031
 20
151.2009659999999
 30
0.0
 11
23.866931
 21
151.0119659999998
 31
0.0
  0
LINE
  5
968B
330
9528
100
AcDbEntity
  8
1
  6
Continuous
100
AcDbLine
 10
15.889031
 20
150.6349659999998
 30
0.0
 11
17.395931
 21
150.445966
 31
0.0
  0
LINE
  5
968C
330
9528
100
AcDbEntity
  8
1
  6
Continuous
100
AcDbLine
 10
22.360031
 20
149.473966
 30
0.0
 11
23.866931
 21
149.284966
 31
0.0
  0
LINE
  5
968D
330
9528
100
AcDbEntity
  8
1
  6
Continuous
100
AcDbLine
 10
15.889031
 20
148.9079659999999
 30
0.0
 11
17.395931
 21
148.718966
 31
0.0
  0
LINE
  5
968E
330
9528
100
AcDbEntity
  8
1
  6
Continuous
100
AcDbLine
 10
22.360031
 20
147.747966
 30
0.0
 11
23.866931
 21
147.5589659999999
 31
0.0
  0
LINE
  5
968F
330
9528
100
AcDbEntity
  8
1
  6
Continuous
100
AcDbLine
 10
15.889031
 20
147.1819659999999
 30
0.0
 11
17.395931
 21
146.9919659999999
 31
0.0
  0
LINE
  5
9690
330
9528
100
AcDbEntity
  8
1
  6
Continuous
100
AcDbLine
 10
22.360031
 20
146.0209659999998
 30
0.0
 11
23.866931
 21
145.8319659999999
 31
0.0
  0
LINE
  5
9691
330
9528
100
AcDbEntity
  8
1
  6
Continuous
100
AcDbLine
 10
15.889031
 20
145.4549659999998
 30
0.0
 11
17.395931
 21
145.2659659999999
 31
0.0
  0
LINE
  5
9692
330
9528
100
AcDbEntity
  8
1
  6
Continuous
100
AcDbLine
 10
22.360031
 20
144.2949659999999
 30
0.0
 11
23.866931
 21
144.104966
 31
0.0
  0
LINE
  5
9693
330
9528
100
AcDbEntity
  8
1
  6
Continuous
100
AcDbLine
 10
15.889031
 20
143.7289659999999
 30
0.0
 11
17.395931
 21
143.538966
 31
0.0
  0
LINE
  5
9694
330
9528
100
AcDbEntity
  8
1
  6
Continuous
100
AcDbLine
 10
22.360031
 20
142.5679659999999
 30
0.0
 11
23.866931
 21
142.3789659999999
 31
0.0
  0
LINE
  5
9695
330
9528
100
AcDbEntity
  8
1
  6
Continuous
100
AcDbLine
 10
15.889031
 20
142.0019659999999
 30
0.0
 11
17.395931
 21
141.8129659999999
 31
0.0
  0
LINE
  5
9696
330
9528
100
AcDbEntity
  8
1
  6
Continuous
100
AcDbLine
 10
43.76693099999999
 20
152.029966
 30
0.0
 11
51.866931
 21
152.737966
 31
0.0
  0
LINE
  5
9697
330
9528
100
AcDbEntity
  8
1
  6
Continuous
100
AcDbLine
 10
43.889031
 20
150.6349659999998
 30
0.0
 11
51.98903099999999
 21
151.3439659999999
 31
0.0
  0
LINE
  5
9698
330
9528
100
AcDbEntity
  8
1
  6
Continuous
100
AcDbLine
 10
43.76693099999999
 20
150.3029659999999
 30
0.0
 11
51.866931
 21
151.0119659999998
 31
0.0
  0
LINE
  5
9699
330
9528
100
AcDbEntity
  8
1
  6
Continuous
100
AcDbLine
 10
43.889031
 20
148.9079659999999
 30
0.0
 11
51.98903099999999
 21
149.6169659999999
 31
0.0
  0
LINE
  5
969A
330
9528
100
AcDbEntity
  8
1
  6
Continuous
100
AcDbLine
 10
43.76693099999999
 20
148.575966
 30
0.0
 11
51.866931
 21
149.284966
 31
0.0
  0
LINE
  5
969B
330
9528
100
AcDbEntity
  8
1
  6
Continuous
100
AcDbLine
 10
43.889031
 20
147.1819659999999
 30
0.0
 11
51.98903099999999
 21
147.8899659999999
 31
0.0
  0
LINE
  5
969C
330
9528
100
AcDbEntity
  8
1
  6
Continuous
100
AcDbLine
 10
43.76693099999999
 20
146.8499659999999
 30
0.0
 11
51.866931
 21
147.5589659999999
 31
0.0
  0
LINE
  5
969D
330
9528
100
AcDbEntity
  8
1
  6
Continuous
100
AcDbLine
 10
43.889031
 20
145.4549659999998
 30
0.0
 11
51.98903099999999
 21
146.1639659999999
 31
0.0
  0
LINE
  5
969E
330
9528
100
AcDbEntity
  8
1
  6
Continuous
100
AcDbLine
 10
43.76693099999999
 20
145.1229659999999
 30
0.0
 11
51.866931
 21
145.8319659999999
 31
0.0
  0
LINE
  5
969F
330
9528
100
AcDbEntity
  8
1
  6
Continuous
100
AcDbLine
 10
43.889031
 20
143.7289659999999
 30
0.0
 11
51.98903099999999
 21
144.4369659999999
 31
0.0
  0
LINE
  5
96A0
330
9528
100
AcDbEntity
  8
1
  6
Continuous
100
AcDbLine
 10
43.76693099999999
 20
143.3969659999999
 30
0.0
 11
51.866931
 21
144.104966
 31
0.0
  0
LINE
  5
96A1
330
9528
100
AcDbEntity
  8
1
  6
Continuous
100
AcDbLine
 10
43.889031
 20
142.0019659999999
 30
0.0
 11
51.98903099999999
 21
142.7109659999999
 31
0.0
  0
LINE
  5
96A2
330
9528
100
AcDbEntity
  8
1
  6
Continuous
100
AcDbLine
 10
43.76693099999999
 20
141.6699659999999
 30
0.0
 11
51.866931
 21
142.3789659999999
 31
0.0
  0
LINE
  5
96A3
330
9528
100
AcDbEntity
  8
1
  6
Continuous
100
AcDbLine
 10
43.889031
 20
140.2749659999997
 30
0.0
 11
51.98903099999999
 21
140.9839659999998
 31
0.0
  0
LINE
  5
96A4
330
9528
100
AcDbEntity
  8
1
  6
Continuous
100
AcDbLine
 10
50.360031
 20
151.2009659999999
 30
0.0
 11
51.866931
 21
151.0119659999998
 31
0.0
  0
LINE
  5
96A5
330
9528
100
AcDbEntity
  8
1
  6
Continuous
100
AcDbLine
 10
43.889031
 20
150.6349659999998
 30
0.0
 11
45.395931
 21
150.445966
 31
0.0
  0
LINE
  5
96A6
330
9528
100
AcDbEntity
  8
1
  6
Continuous
100
AcDbLine
 10
50.360031
 20
149.473966
 30
0.0
 11
51.866931
 21
149.284966
 31
0.0
  0
LINE
  5
96A7
330
9528
100
AcDbEntity
  8
1
  6
Continuous
100
AcDbLine
 10
43.889031
 20
148.9079659999999
 30
0.0
 11
45.395931
 21
148.718966
 31
0.0
  0
LINE
  5
96A8
330
9528
100
AcDbEntity
  8
1
  6
Continuous
100
AcDbLine
 10
50.360031
 20
147.747966
 30
0.0
 11
51.866931
 21
147.5589659999999
 31
0.0
  0
LINE
  5
96A9
330
9528
100
AcDbEntity
  8
1
  6
Continuous
100
AcDbLine
 10
43.889031
 20
147.1819659999999
 30
0.0
 11
45.395931
 21
146.9919659999999
 31
0.0
  0
LINE
  5
96AA
330
9528
100
AcDbEntity
  8
1
  6
Continuous
100
AcDbLine
 10
50.360031
 20
146.0209659999998
 30
0.0
 11
51.866931
 21
145.8319659999999
 31
0.0
  0
LINE
  5
96AB
330
9528
100
AcDbEntity
  8
1
  6
Continuous
100
AcDbLine
 10
43.889031
 20
145.4549659999998
 30
0.0
 11
45.395931
 21
145.2659659999999
 31
0.0
  0
LINE
  5
96AC
330
9528
100
AcDbEntity
  8
1
  6
Continuous
100
AcDbLine
 10
50.360031
 20
144.2949659999999
 30
0.0
 11
51.866931
 21
144.104966
 31
0.0
  0
LINE
  5
96AD
330
9528
100
AcDbEntity
  8
1
  6
Continuous
100
AcDbLine
 10
43.889031
 20
143.7289659999999
 30
0.0
 11
45.395931
 21
143.538966
 31
0.0
  0
LINE
  5
96AE
330
9528
100
AcDbEntity
  8
1
  6
Continuous
100
AcDbLine
 10
50.360031
 20
142.5679659999999
 30
0.0
 11
51.866931
 21
142.3789659999999
 31
0.0
  0
LINE
  5
96AF
330
9528
100
AcDbEntity
  8
1
  6
Continuous
100
AcDbLine
 10
43.889031
 20
142.0019659999999
 30
0.0
 11
45.395931
 21
141.8129659999999
 31
0.0
  0
LINE
  5
96B0
330
9528
100
AcDbEntity
  8
1
  6
Continuous
100
AcDbLine
 10
18.377931
 20
150.8529659999998
 30
0.0
 11
18.377931
 21
150.5309659999998
 31
0.0
  0
LINE
  5
96B1
330
9528
100
AcDbEntity
  8
1
  6
Continuous
100
AcDbLine
 10
19.877931
 20
150.9839659999999
 30
0.0
 11
19.877931
 21
150.6629659999999
 31
0.0
  0
LINE
  5
96B2
330
9528
100
AcDbEntity
  8
1
  6
Continuous
100
AcDbLine
 10
21.377931
 20
151.1149659999998
 30
0.0
 11
21.377931
 21
150.7939659999999
 31
0.0
  0
LINE
  5
96B3
330
9528
100
AcDbEntity
  8
1
  6
Continuous
100
AcDbLine
 10
21.377931
 20
149.3889659999998
 30
0.0
 11
21.377931
 21
149.0669659999998
 31
0.0
  0
LINE
  5
96B4
330
9528
100
AcDbEntity
  8
1
  6
Continuous
100
AcDbLine
 10
19.877931
 20
149.256966
 30
0.0
 11
19.877931
 21
148.9359659999998
 31
0.0
  0
LINE
  5
96B5
330
9528
100
AcDbEntity
  8
1
  6
Continuous
100
AcDbLine
 10
18.377931
 20
149.125966
 30
0.0
 11
18.377931
 21
148.8049659999998
 31
0.0
  0
LINE
  5
96B6
330
9528
100
AcDbEntity
  8
1
  6
Continuous
100
AcDbLine
 10
18.377931
 20
147.3999659999998
 30
0.0
 11
18.377931
 21
147.0779659999998
 31
0.0
  0
LINE
  5
96B7
330
9528
100
AcDbEntity
  8
1
  6
Continuous
100
AcDbLine
 10
19.877931
 20
147.5309659999998
 30
0.0
 11
19.877931
 21
147.2099659999998
 31
0.0
  0
LINE
  5
96B8
330
9528
100
AcDbEntity
  8
1
  6
Continuous
100
AcDbLine
 10
21.377931
 20
147.6619659999998
 30
0.0
 11
21.377931
 21
147.3409659999999
 31
0.0
  0
LINE
  5
96B9
330
9528
100
AcDbEntity
  8
1
  6
Continuous
100
AcDbLine
 10
21.377931
 20
145.9349659999998
 30
0.0
 11
21.377931
 21
145.613966
 31
0.0
  0
LINE
  5
96BA
330
9528
100
AcDbEntity
  8
1
  6
Continuous
100
AcDbLine
 10
19.877931
 20
145.803966
 30
0.0
 11
19.877931
 21
145.482966
 31
0.0
  0
LINE
  5
96BB
330
9528
100
AcDbEntity
  8
1
  6
Continuous
100
AcDbLine
 10
18.377931
 20
145.672966
 30
0.0
 11
18.377931
 21
145.3519659999998
 31
0.0
  0
LINE
  5
96BC
330
9528
100
AcDbEntity
  8
1
  6
Continuous
100
AcDbLine
 10
18.377931
 20
143.9459659999999
 30
0.0
 11
18.377931
 21
143.624966
 31
0.0
  0
LINE
  5
96BD
330
9528
100
AcDbEntity
  8
1
  6
Continuous
100
AcDbLine
 10
19.877931
 20
144.077966
 30
0.0
 11
19.877931
 21
143.7559659999998
 31
0.0
  0
LINE
  5
96BE
330
9528
100
AcDbEntity
  8
1
  6
Continuous
100
AcDbLine
 10
21.377931
 20
144.208966
 30
0.0
 11
21.377931
 21
143.887966
 31
0.0
  0
LINE
  5
96BF
330
9528
100
AcDbEntity
  8
1
  6
Continuous
100
AcDbLine
 10
21.377931
 20
142.4819659999998
 30
0.0
 11
21.377931
 21
142.160966
 31
0.0
  0
LINE
  5
96C0
330
9528
100
AcDbEntity
  8
1
  6
Continuous
100
AcDbLine
 10
19.877931
 20
142.350966
 30
0.0
 11
19.877931
 21
142.0299659999998
 31
0.0
  0
LINE
  5
96C1
330
9528
100
AcDbEntity
  8
1
  6
Continuous
100
AcDbLine
 10
18.377931
 20
142.2199659999999
 30
0.0
 11
18.377931
 21
141.898966
 31
0.0
  0
LINE
  5
96C2
330
9528
100
AcDbEntity
  8
1
  6
Continuous
100
AcDbLine
 10
18.377931
 20
140.492966
 30
0.0
 11
18.377931
 21
137.2439659999998
 31
0.0
  0
LINE
  5
96C3
330
9528
100
AcDbEntity
  8
1
  6
Continuous
100
AcDbLine
 10
19.877931
 20
140.6239659999999
 30
0.0
 11
19.877931
 21
135.2439659999998
 31
0.0
  0
LINE
  5
96C4
330
9528
100
AcDbEntity
  8
1
  6
Continuous
100
AcDbLine
 10
21.377931
 20
140.7559659999998
 30
0.0
 11
21.377931
 21
135.2439659999998
 31
0.0
  0
LINE
  5
96C5
330
9528
100
AcDbEntity
  8
1
  6
Continuous
100
AcDbLine
 10
46.37793099999998
 20
150.8529659999998
 30
0.0
 11
46.37793099999998
 21
150.5309659999998
 31
0.0
  0
LINE
  5
96C6
330
9528
100
AcDbEntity
  8
1
  6
Continuous
100
AcDbLine
 10
47.877931
 20
150.9839659999999
 30
0.0
 11
47.877931
 21
150.6629659999999
 31
0.0
  0
LINE
  5
96C7
330
9528
100
AcDbEntity
  8
1
  6
Continuous
100
AcDbLine
 10
49.377931
 20
151.1149659999998
 30
0.0
 11
49.377931
 21
150.7939659999999
 31
0.0
  0
LINE
  5
96C8
330
9528
100
AcDbEntity
  8
1
  6
Continuous
100
AcDbLine
 10
49.377931
 20
149.3889659999998
 30
0.0
 11
49.377931
 21
149.0669659999998
 31
0.0
  0
LINE
  5
96C9
330
9528
100
AcDbEntity
  8
1
  6
Continuous
100
AcDbLine
 10
47.877931
 20
149.256966
 30
0.0
 11
47.877931
 21
148.9359659999998
 31
0.0
  0
LINE
  5
96CA
330
9528
100
AcDbEntity
  8
1
  6
Continuous
100
AcDbLine
 10
46.37793099999998
 20
149.125966
 30
0.0
 11
46.37793099999998
 21
148.8049659999998
 31
0.0
  0
LINE
  5
96CB
330
9528
100
AcDbEntity
  8
1
  6
Continuous
100
AcDbLine
 10
46.37793099999998
 20
147.3999659999998
 30
0.0
 11
46.37793099999998
 21
147.0779659999998
 31
0.0
  0
LINE
  5
96CC
330
9528
100
AcDbEntity
  8
1
  6
Continuous
100
AcDbLine
 10
47.877931
 20
147.5309659999998
 30
0.0
 11
47.877931
 21
147.2099659999998
 31
0.0
  0
LINE
  5
96CD
330
9528
100
AcDbEntity
  8
1
  6
Continuous
100
AcDbLine
 10
49.377931
 20
147.6619659999998
 30
0.0
 11
49.377931
 21
147.3409659999999
 31
0.0
  0
LINE
  5
96CE
330
9528
100
AcDbEntity
  8
1
  6
Continuous
100
AcDbLine
 10
49.377931
 20
145.9349659999998
 30
0.0
 11
49.377931
 21
145.613966
 31
0.0
  0
LINE
  5
96CF
330
9528
100
AcDbEntity
  8
1
  6
Continuous
100
AcDbLine
 10
47.877931
 20
145.803966
 30
0.0
 11
47.877931
 21
145.482966
 31
0.0
  0
LINE
  5
96D0
330
9528
100
AcDbEntity
  8
1
  6
Continuous
100
AcDbLine
 10
46.37793099999998
 20
145.672966
 30
0.0
 11
46.37793099999998
 21
145.3519659999998
 31
0.0
  0
LINE
  5
96D1
330
9528
100
AcDbEntity
  8
1
  6
Continuous
100
AcDbLine
 10
46.37793099999998
 20
143.9459659999999
 30
0.0
 11
46.37793099999998
 21
143.624966
 31
0.0
  0
LINE
  5
96D2
330
9528
100
AcDbEntity
  8
1
  6
Continuous
100
AcDbLine
 10
47.877931
 20
144.077966
 30
0.0
 11
47.877931
 21
143.7559659999998
 31
0.0
  0
LINE
  5
96D3
330
9528
100
AcDbEntity
  8
1
  6
Continuous
100
AcDbLine
 10
49.377931
 20
144.208966
 30
0.0
 11
49.377931
 21
143.887966
 31
0.0
  0
LINE
  5
96D4
330
9528
100
AcDbEntity
  8
1
  6
Continuous
100
AcDbLine
 10
49.377931
 20
142.4819659999998
 30
0.0
 11
49.377931
 21
142.160966
 31
0.0
  0
LINE
  5
96D5
330
9528
100
AcDbEntity
  8
1
  6
Continuous
100
AcDbLine
 10
47.877931
 20
142.350966
 30
0.0
 11
47.877931
 21
142.0299659999998
 31
0.0
  0
LINE
  5
96D6
330
9528
100
AcDbEntity
  8
1
  6
Continuous
100
AcDbLine
 10
46.37793099999998
 20
142.2199659999999
 30
0.0
 11
46.37793099999998
 21
141.898966
 31
0.0
  0
LINE
  5
96D7
330
9528
100
AcDbEntity
  8
1
  6
Continuous
100
AcDbLine
 10
46.37793099999998
 20
140.492966
 30
0.0
 11
46.37793099999998
 21
135.2439659999998
 31
0.0
  0
LINE
  5
96D8
330
9528
100
AcDbEntity
  8
1
  6
Continuous
100
AcDbLine
 10
47.877931
 20
140.6239659999999
 30
0.0
 11
47.877931
 21
135.2439659999998
 31
0.0
  0
LINE
  5
96D9
330
9528
100
AcDbEntity
  8
1
  6
Continuous
100
AcDbLine
 10
49.377931
 20
140.7559659999998
 30
0.0
 11
49.377931
 21
137.2439659999998
 31
0.0
  0
LINE
  5
96DA
330
9528
100
AcDbEntity
  8
1
  6
Continuous
100
AcDbLine
 10
170.756101
 20
152.183032
 30
0.0
 11
178.878801
 21
152.547736
 31
0.0
  0
LINE
  5
96DB
330
9528
100
AcDbEntity
  8
1
  6
Continuous
100
AcDbLine
 10
170.8189779999999
 20
150.78412
 30
0.0
 11
178.94172
 21
151.1498229999999
 31
0.0
  0
LINE
  5
96DC
330
9528
100
AcDbEntity
  8
1
  6
Continuous
100
AcDbLine
 10
170.683042
 20
150.457578
 30
0.0
 11
178.805784
 21
150.823281
 31
0.0
  0
LINE
  5
96DD
330
9528
100
AcDbEntity
  8
1
  6
Continuous
100
AcDbLine
 10
170.7459189999999
 20
149.0586659999999
 30
0.0
 11
178.868661
 21
149.4243689999999
 31
0.0
  0
LINE
  5
96DE
330
9528
100
AcDbEntity
  8
1
  6
Continuous
100
AcDbLine
 10
170.609983
 20
148.7321239999999
 30
0.0
 11
178.7327249999999
 21
149.097827
 31
0.0
  0
LINE
  5
96DF
330
9528
100
AcDbEntity
  8
1
  6
Continuous
100
AcDbLine
 10
170.672902
 20
147.334211
 30
0.0
 11
178.795602
 21
147.698915
 31
0.0
  0
LINE
  5
96E0
330
9528
100
AcDbEntity
  8
1
  6
Continuous
100
AcDbLine
 10
170.5369659999998
 20
147.0076689999999
 30
0.0
 11
178.6597089999999
 21
147.373373
 31
0.0
  0
LINE
  5
96E1
330
9528
100
AcDbEntity
  8
1
  6
Continuous
100
AcDbLine
 10
170.5998429999999
 20
145.608757
 30
0.0
 11
178.722586
 21
145.97446
 31
0.0
  0
LINE
  5
96E2
330
9528
100
AcDbEntity
  8
1
  6
Continuous
100
AcDbLine
 10
170.4639079999998
 20
145.2822149999998
 30
0.0
 11
178.58665
 21
145.647919
 31
0.0
  0
LINE
  5
96E3
330
9528
100
AcDbEntity
  8
1
  6
Continuous
100
AcDbLine
 10
170.5268269999999
 20
143.884302
 30
0.0
 11
178.649527
 21
144.249006
 31
0.0
  0
LINE
  5
96E4
330
9528
100
AcDbEntity
  8
1
  6
Continuous
100
AcDbLine
 10
170.3908909999999
 20
143.55776
 30
0.0
 11
178.5135909999999
 21
143.9224649999998
 31
0.0
  0
LINE
  5
96E5
330
9528
100
AcDbEntity
  8
1
  6
Continuous
100
AcDbLine
 10
170.453768
 20
142.158848
 30
0.0
 11
178.57651
 21
142.524551
 31
0.0
  0
LINE
  5
96E6
330
9528
100
AcDbEntity
  8
1
  6
Continuous
100
AcDbLine
 10
170.317832
 20
141.8323059999999
 30
0.0
 11
178.4405739999999
 21
142.19801
 31
0.0
  0
LINE
  5
96E7
330
9528
100
AcDbEntity
  8
1
  6
Continuous
100
AcDbLine
 10
170.3807089999999
 20
140.4333939999999
 30
0.0
 11
178.503451
 21
140.7990969999999
 31
0.0
  0
LINE
  5
96E8
330
9528
100
AcDbEntity
  8
1
  6
Continuous
100
AcDbLine
 10
177.326028
 20
151.0731049999999
 30
0.0
 11
178.805784
 21
150.823281
 31
0.0
  0
LINE
  5
96E9
330
9528
100
AcDbEntity
  8
1
  6
Continuous
100
AcDbLine
 10
170.8189779999999
 20
150.78412
 30
0.0
 11
172.2987339999999
 21
150.534297
 31
0.0
  0
LINE
  5
96EA
330
9528
100
AcDbEntity
  8
1
  6
Continuous
100
AcDbLine
 10
177.252969
 20
149.347651
 30
0.0
 11
178.7327249999999
 21
149.097827
 31
0.0
  0
LINE
  5
96EB
330
9528
100
AcDbEntity
  8
1
  6
Continuous
100
AcDbLine
 10
170.7459189999999
 20
149.0586659999999
 30
0.0
 11
172.2256749999999
 21
148.8088429999999
 31
0.0
  0
LINE
  5
96EC
330
9528
100
AcDbEntity
  8
1
  6
Continuous
100
AcDbLine
 10
177.179953
 20
147.6231959999998
 30
0.0
 11
178.6597089999999
 21
147.373373
 31
0.0
  0
LINE
  5
96ED
330
9528
100
AcDbEntity
  8
1
  6
Continuous
100
AcDbLine
 10
170.672902
 20
147.334211
 30
0.0
 11
172.152658
 21
147.0843879999998
 31
0.0
  0
LINE
  5
96EE
330
9528
100
AcDbEntity
  8
1
  6
Continuous
100
AcDbLine
 10
177.1068939999999
 20
145.8977419999999
 30
0.0
 11
178.58665
 21
145.647919
 31
0.0
  0
LINE
  5
96EF
330
9528
100
AcDbEntity
  8
1
  6
Continuous
100
AcDbLine
 10
170.5998429999999
 20
145.608757
 30
0.0
 11
172.079599
 21
145.358934
 31
0.0
  0
LINE
  5
96F0
330
9528
100
AcDbEntity
  8
1
  6
Continuous
100
AcDbLine
 10
177.033835
 20
144.1722879999999
 30
0.0
 11
178.5135909999999
 21
143.9224649999998
 31
0.0
  0
LINE
  5
96F1
330
9528
100
AcDbEntity
  8
1
  6
Continuous
100
AcDbLine
 10
170.5268269999999
 20
143.884302
 30
0.0
 11
172.006583
 21
143.6344789999999
 31
0.0
  0
LINE
  5
96F2
330
9528
100
AcDbEntity
  8
1
  6
Continuous
100
AcDbLine
 10
176.9608179999999
 20
142.447833
 30
0.0
 11
178.4405739999999
 21
142.19801
 31
0.0
  0
LINE
  5
96F3
330
9528
100
AcDbEntity
  8
1
  6
Continuous
100
AcDbLine
 10
170.453768
 20
142.158848
 30
0.0
 11
171.933524
 21
141.909025
 31
0.0
  0
LINE
  5
96F4
330
9528
100
AcDbEntity
  8
1
  6
Continuous
100
AcDbLine
 10
178.378331
 20
140.793464
 30
0.0
 11
178.378331
 21
140.0637319999999
 31
0.0
  0
LINE
  5
96F5
330
9528
100
AcDbEntity
  8
1
  6
Continuous
100
AcDbLine
 10
178.378331
 20
142.5156289999998
 30
0.0
 11
178.378331
 21
142.208518
 31
0.0
  0
LINE
  5
96F6
330
9528
100
AcDbEntity
  8
1
  6
Continuous
100
AcDbLine
 10
171.946934
 20
142.225741
 30
0.0
 11
171.867064
 21
140.3394309999999
 31
0.0
  0
LINE
  5
96F7
330
9528
100
AcDbEntity
  8
1
  6
Continuous
100
AcDbLine
 10
172.0199929999998
 20
143.9511949999999
 30
0.0
 11
172.0064139999998
 21
143.630483
 31
0.0
  0
LINE
  5
96F8
330
9528
100
AcDbEntity
  8
1
  6
Continuous
100
AcDbLine
 10
172.0930099999999
 20
145.67565
 30
0.0
 11
172.07943
 21
145.354937
 31
0.0
  0
LINE
  5
96F9
330
9528
100
AcDbEntity
  8
1
  6
Continuous
100
AcDbLine
 10
172.166069
 20
147.401104
 30
0.0
 11
172.1524889999998
 21
147.0803909999998
 31
0.0
  0
LINE
  5
96FA
330
9528
100
AcDbEntity
  8
1
  6
Continuous
100
AcDbLine
 10
172.239128
 20
149.1265579999999
 30
0.0
 11
172.2255059999999
 21
148.8048459999999
 31
0.0
  0
LINE
  5
96FB
330
9528
100
AcDbEntity
  8
1
  6
Continuous
100
AcDbLine
 10
172.3121439999999
 20
150.8510129999999
 30
0.0
 11
172.298565
 21
150.5303
 31
0.0
  0
LINE
  5
96FC
330
9528
100
AcDbEntity
  8
1
  6
Continuous
100
AcDbLine
 10
177.326197
 20
151.077101
 30
0.0
 11
177.312575
 21
150.7553889999998
 31
0.0
  0
LINE
  5
96FD
330
9528
100
AcDbEntity
  8
1
  6
Continuous
100
AcDbLine
 10
177.2531379999998
 20
149.3516469999998
 30
0.0
 11
177.239559
 21
149.030934
 31
0.0
  0
LINE
  5
96FE
330
9528
100
AcDbEntity
  8
1
  6
Continuous
100
AcDbLine
 10
177.180079
 20
147.6261929999998
 30
0.0
 11
177.1665
 21
147.3054799999999
 31
0.0
  0
LINE
  5
96FF
330
9528
100
AcDbEntity
  8
1
  6
Continuous
100
AcDbLine
 10
177.1070629999999
 20
145.9017379999998
 30
0.0
 11
177.0934829999999
 21
145.5810259999998
 31
0.0
  0
LINE
  5
9700
330
9528
100
AcDbEntity
  8
1
  6
Continuous
100
AcDbLine
 10
177.034004
 20
144.176284
 30
0.0
 11
177.0204239999999
 21
143.8555719999999
 31
0.0
  0
LINE
  5
9701
330
9528
100
AcDbEntity
  8
1
  6
Continuous
100
AcDbLine
 10
176.960987
 20
142.4518289999998
 30
0.0
 11
176.9474079999999
 21
142.1311169999999
 31
0.0
  0
LINE
  5
9702
330
9528
100
AcDbEntity
  8
1
  6
Continuous
100
AcDbLine
 10
176.8879279999999
 20
140.726375
 30
0.0
 11
176.8625879999999
 21
140.127912
 31
0.0
  0
LINE
  5
9703
330
9528
100
AcDbEntity
  8
1
  6
Continuous
100
AcDbLine
 10
285.767331
 20
152.029966
 30
0.0
 11
293.867331
 21
152.737966
 31
0.0
  0
LINE
  5
9704
330
9528
100
AcDbEntity
  8
1
  6
Continuous
100
AcDbLine
 10
285.889331
 20
150.6349659999998
 30
0.0
 11
293.989331
 21
151.3439659999999
 31
0.0
  0
LINE
  5
9705
330
9528
100
AcDbEntity
  8
1
  6
Continuous
100
AcDbLine
 10
285.767331
 20
150.3029659999999
 30
0.0
 11
293.867331
 21
151.0119659999998
 31
0.0
  0
LINE
  5
9706
330
9528
100
AcDbEntity
  8
1
  6
Continuous
100
AcDbLine
 10
285.889331
 20
148.9079659999999
 30
0.0
 11
293.989331
 21
149.6169659999999
 31
0.0
  0
LINE
  5
9707
330
9528
100
AcDbEntity
  8
1
  6
Continuous
100
AcDbLine
 10
285.767331
 20
148.575966
 30
0.0
 11
293.867331
 21
149.284966
 31
0.0
  0
LINE
  5
9708
330
9528
100
AcDbEntity
  8
1
  6
Continuous
100
AcDbLine
 10
285.889331
 20
147.1819659999999
 30
0.0
 11
293.989331
 21
147.8899659999999
 31
0.0
  0
LINE
  5
9709
330
9528
100
AcDbEntity
  8
1
  6
Continuous
100
AcDbLine
 10
285.767331
 20
146.8499659999999
 30
0.0
 11
293.867331
 21
147.5589659999999
 31
0.0
  0
LINE
  5
970A
330
9528
100
AcDbEntity
  8
1
  6
Continuous
100
AcDbLine
 10
285.889331
 20
145.4549659999998
 30
0.0
 11
293.989331
 21
146.1639659999999
 31
0.0
  0
LINE
  5
970B
330
9528
100
AcDbEntity
  8
1
  6
Continuous
100
AcDbLine
 10
285.767331
 20
145.1229659999999
 30
0.0
 11
293.867331
 21
145.8319659999999
 31
0.0
  0
LINE
  5
970C
330
9528
100
AcDbEntity
  8
1
  6
Continuous
100
AcDbLine
 10
285.889331
 20
143.7289659999999
 30
0.0
 11
293.989331
 21
144.4369659999999
 31
0.0
  0
LINE
  5
970D
330
9528
100
AcDbEntity
  8
1
  6
Continuous
100
AcDbLine
 10
285.767331
 20
143.3969659999999
 30
0.0
 11
293.867331
 21
144.104966
 31
0.0
  0
LINE
  5
970E
330
9528
100
AcDbEntity
  8
1
  6
Continuous
100
AcDbLine
 10
285.889331
 20
142.0019659999999
 30
0.0
 11
293.989331
 21
142.7109659999999
 31
0.0
  0
LINE
  5
970F
330
9528
100
AcDbEntity
  8
1
  6
Continuous
100
AcDbLine
 10
285.767331
 20
141.6699659999999
 30
0.0
 11
293.867331
 21
142.3789659999999
 31
0.0
  0
LINE
  5
9710
330
9528
100
AcDbEntity
  8
1
  6
Continuous
100
AcDbLine
 10
285.889331
 20
140.2749659999997
 30
0.0
 11
293.989331
 21
140.9839659999998
 31
0.0
  0
LINE
  5
9711
330
9528
100
AcDbEntity
  8
1
  6
Continuous
100
AcDbLine
 10
292.3603309999998
 20
151.2009659999999
 30
0.0
 11
293.867331
 21
151.0119659999998
 31
0.0
  0
LINE
  5
9712
330
9528
100
AcDbEntity
  8
1
  6
Continuous
100
AcDbLine
 10
285.889331
 20
150.6349659999998
 30
0.0
 11
287.3963309999999
 21
150.445966
 31
0.0
  0
LINE
  5
9713
330
9528
100
AcDbEntity
  8
1
  6
Continuous
100
AcDbLine
 10
292.3603309999998
 20
149.473966
 30
0.0
 11
293.867331
 21
149.284966
 31
0.0
  0
LINE
  5
9714
330
9528
100
AcDbEntity
  8
1
  6
Continuous
100
AcDbLine
 10
285.889331
 20
148.9079659999999
 30
0.0
 11
287.3963309999999
 21
148.718966
 31
0.0
  0
LINE
  5
9715
330
9528
100
AcDbEntity
  8
1
  6
Continuous
100
AcDbLine
 10
292.3603309999998
 20
147.747966
 30
0.0
 11
293.867331
 21
147.5589659999999
 31
0.0
  0
LINE
  5
9716
330
9528
100
AcDbEntity
  8
1
  6
Continuous
100
AcDbLine
 10
285.889331
 20
147.1819659999999
 30
0.0
 11
287.3963309999999
 21
146.9919659999999
 31
0.0
  0
LINE
  5
9717
330
9528
100
AcDbEntity
  8
1
  6
Continuous
100
AcDbLine
 10
292.3603309999998
 20
146.0209659999998
 30
0.0
 11
293.867331
 21
145.8319659999999
 31
0.0
  0
LINE
  5
9718
330
9528
100
AcDbEntity
  8
1
  6
Continuous
100
AcDbLine
 10
285.889331
 20
145.4549659999998
 30
0.0
 11
287.3963309999999
 21
145.2659659999999
 31
0.0
  0
LINE
  5
9719
330
9528
100
AcDbEntity
  8
1
  6
Continuous
100
AcDbLine
 10
292.3603309999998
 20
144.2949659999999
 30
0.0
 11
293.867331
 21
144.104966
 31
0.0
  0
LINE
  5
971A
330
9528
100
AcDbEntity
  8
1
  6
Continuous
100
AcDbLine
 10
285.889331
 20
143.7289659999999
 30
0.0
 11
287.3963309999999
 21
143.538966
 31
0.0
  0
LINE
  5
971B
330
9528
100
AcDbEntity
  8
1
  6
Continuous
100
AcDbLine
 10
292.3603309999998
 20
142.5679659999999
 30
0.0
 11
293.867331
 21
142.3789659999999
 31
0.0
  0
LINE
  5
971C
330
9528
100
AcDbEntity
  8
1
  6
Continuous
100
AcDbLine
 10
285.889331
 20
142.0019659999999
 30
0.0
 11
287.3963309999999
 21
141.8129659999999
 31
0.0
  0
LINE
  5
971D
330
9528
100
AcDbEntity
  8
1
  6
Continuous
100
AcDbLine
 10
313.767331
 20
152.029966
 30
0.0
 11
321.8673309999999
 21
152.737966
 31
0.0
  0
LINE
  5
971E
330
9528
100
AcDbEntity
  8
1
  6
Continuous
100
AcDbLine
 10
313.889331
 20
150.6349659999998
 30
0.0
 11
321.9893309999998
 21
151.3439659999999
 31
0.0
  0
LINE
  5
971F
330
9528
100
AcDbEntity
  8
1
  6
Continuous
100
AcDbLine
 10
313.767331
 20
150.3029659999999
 30
0.0
 11
321.8673309999999
 21
151.0119659999998
 31
0.0
  0
LINE
  5
9720
330
9528
100
AcDbEntity
  8
1
  6
Continuous
100
AcDbLine
 10
313.889331
 20
148.9079659999999
 30
0.0
 11
321.9893309999998
 21
149.6169659999999
 31
0.0
  0
LINE
  5
9721
330
9528
100
AcDbEntity
  8
1
  6
Continuous
100
AcDbLine
 10
313.767331
 20
148.575966
 30
0.0
 11
321.8673309999999
 21
149.284966
 31
0.0
  0
LINE
  5
9722
330
9528
100
AcDbEntity
  8
1
  6
Continuous
100
AcDbLine
 10
313.889331
 20
147.1819659999999
 30
0.0
 11
321.9893309999998
 21
147.8899659999999
 31
0.0
  0
LINE
  5
9723
330
9528
100
AcDbEntity
  8
1
  6
Continuous
100
AcDbLine
 10
313.767331
 20
146.8499659999999
 30
0.0
 11
321.8673309999999
 21
147.5589659999999
 31
0.0
  0
LINE
  5
9724
330
9528
100
AcDbEntity
  8
1
  6
Continuous
100
AcDbLine
 10
313.889331
 20
145.4549659999998
 30
0.0
 11
321.9893309999998
 21
146.1639659999999
 31
0.0
  0
LINE
  5
9725
330
9528
100
AcDbEntity
  8
1
  6
Continuous
100
AcDbLine
 10
313.767331
 20
145.1229659999999
 30
0.0
 11
321.8673309999999
 21
145.8319659999999
 31
0.0
  0
LINE
  5
9726
330
9528
100
AcDbEntity
  8
1
  6
Continuous
100
AcDbLine
 10
313.889331
 20
143.7289659999999
 30
0.0
 11
321.9893309999998
 21
144.4369659999999
 31
0.0
  0
LINE
  5
9727
330
9528
100
AcDbEntity
  8
1
  6
Continuous
100
AcDbLine
 10
313.767331
 20
143.3969659999999
 30
0.0
 11
321.8673309999999
 21
144.104966
 31
0.0
  0
LINE
  5
9728
330
9528
100
AcDbEntity
  8
1
  6
Continuous
100
AcDbLine
 10
313.889331
 20
142.0019659999999
 30
0.0
 11
321.9893309999998
 21
142.7109659999999
 31
0.0
  0
LINE
  5
9729
330
9528
100
AcDbEntity
  8
1
  6
Continuous
100
AcDbLine
 10
313.767331
 20
141.6699659999999
 30
0.0
 11
321.8673309999999
 21
142.3789659999999
 31
0.0
  0
LINE
  5
972A
330
9528
100
AcDbEntity
  8
1
  6
Continuous
100
AcDbLine
 10
313.889331
 20
140.2749659999997
 30
0.0
 11
321.9893309999998
 21
140.9839659999998
 31
0.0
  0
LINE
  5
972B
330
9528
100
AcDbEntity
  8
1
  6
Continuous
100
AcDbLine
 10
320.3603309999999
 20
151.2009659999999
 30
0.0
 11
321.8673309999999
 21
151.0119659999998
 31
0.0
  0
LINE
  5
972C
330
9528
100
AcDbEntity
  8
1
  6
Continuous
100
AcDbLine
 10
313.889331
 20
150.6349659999998
 30
0.0
 11
315.3963309999999
 21
150.445966
 31
0.0
  0
LINE
  5
972D
330
9528
100
AcDbEntity
  8
1
  6
Continuous
100
AcDbLine
 10
320.3603309999999
 20
149.473966
 30
0.0
 11
321.8673309999999
 21
149.284966
 31
0.0
  0
LINE
  5
972E
330
9528
100
AcDbEntity
  8
1
  6
Continuous
100
AcDbLine
 10
313.889331
 20
148.9079659999999
 30
0.0
 11
315.3963309999999
 21
148.718966
 31
0.0
  0
LINE
  5
972F
330
9528
100
AcDbEntity
  8
1
  6
Continuous
100
AcDbLine
 10
320.3603309999999
 20
147.747966
 30
0.0
 11
321.8673309999999
 21
147.5589659999999
 31
0.0
  0
LINE
  5
9730
330
9528
100
AcDbEntity
  8
1
  6
Continuous
100
AcDbLine
 10
313.889331
 20
147.1819659999999
 30
0.0
 11
315.3963309999999
 21
146.9919659999999
 31
0.0
  0
LINE
  5
9731
330
9528
100
AcDbEntity
  8
1
  6
Continuous
100
AcDbLine
 10
320.3603309999999
 20
146.0209659999998
 30
0.0
 11
321.8673309999999
 21
145.8319659999999
 31
0.0
  0
LINE
  5
9732
330
9528
100
AcDbEntity
  8
1
  6
Continuous
100
AcDbLine
 10
313.889331
 20
145.4549659999998
 30
0.0
 11
315.3963309999999
 21
145.2659659999999
 31
0.0
  0
LINE
  5
9733
330
9528
100
AcDbEntity
  8
1
  6
Continuous
100
AcDbLine
 10
320.3603309999999
 20
144.2949659999999
 30
0.0
 11
321.8673309999999
 21
144.104966
 31
0.0
  0
LINE
  5
9734
330
9528
100
AcDbEntity
  8
1
  6
Continuous
100
AcDbLine
 10
313.889331
 20
143.7289659999999
 30
0.0
 11
315.3963309999999
 21
143.538966
 31
0.0
  0
LINE
  5
9735
330
9528
100
AcDbEntity
  8
1
  6
Continuous
100
AcDbLine
 10
320.3603309999999
 20
142.5679659999999
 30
0.0
 11
321.8673309999999
 21
142.3789659999999
 31
0.0
  0
LINE
  5
9736
330
9528
100
AcDbEntity
  8
1
  6
Continuous
100
AcDbLine
 10
313.889331
 20
142.0019659999999
 30
0.0
 11
315.3963309999999
 21
141.8129659999999
 31
0.0
  0
LINE
  5
9737
330
9528
100
AcDbEntity
  8
1
  6
Continuous
100
AcDbLine
 10
288.378331
 20
150.8529659999998
 30
0.0
 11
288.378331
 21
150.5309659999998
 31
0.0
  0
LINE
  5
9738
330
9528
100
AcDbEntity
  8
1
  6
Continuous
100
AcDbLine
 10
289.878331
 20
150.9839659999999
 30
0.0
 11
289.878331
 21
150.6629659999999
 31
0.0
  0
LINE
  5
9739
330
9528
100
AcDbEntity
  8
1
  6
Continuous
100
AcDbLine
 10
291.3783309999999
 20
151.1149659999998
 30
0.0
 11
291.3783309999999
 21
150.7939659999999
 31
0.0
  0
LINE
  5
973A
330
9528
100
AcDbEntity
  8
1
  6
Continuous
100
AcDbLine
 10
291.3783309999999
 20
149.3889659999998
 30
0.0
 11
291.3783309999999
 21
149.0669659999998
 31
0.0
  0
LINE
  5
973B
330
9528
100
AcDbEntity
  8
1
  6
Continuous
100
AcDbLine
 10
289.878331
 20
149.256966
 30
0.0
 11
289.878331
 21
148.9359659999998
 31
0.0
  0
LINE
  5
973C
330
9528
100
AcDbEntity
  8
1
  6
Continuous
100
AcDbLine
 10
288.378331
 20
149.125966
 30
0.0
 11
288.378331
 21
148.8049659999998
 31
0.0
  0
LINE
  5
973D
330
9528
100
AcDbEntity
  8
1
  6
Continuous
100
AcDbLine
 10
288.378331
 20
147.3999659999998
 30
0.0
 11
288.378331
 21
147.0779659999998
 31
0.0
  0
LINE
  5
973E
330
9528
100
AcDbEntity
  8
1
  6
Continuous
100
AcDbLine
 10
289.878331
 20
147.5309659999998
 30
0.0
 11
289.878331
 21
147.2099659999998
 31
0.0
  0
LINE
  5
973F
330
9528
100
AcDbEntity
  8
1
  6
Continuous
100
AcDbLine
 10
291.3783309999999
 20
147.6619659999998
 30
0.0
 11
291.3783309999999
 21
147.3409659999999
 31
0.0
  0
LINE
  5
9740
330
9528
100
AcDbEntity
  8
1
  6
Continuous
100
AcDbLine
 10
291.3783309999999
 20
145.9349659999998
 30
0.0
 11
291.3783309999999
 21
145.613966
 31
0.0
  0
LINE
  5
9741
330
9528
100
AcDbEntity
  8
1
  6
Continuous
100
AcDbLine
 10
289.878331
 20
145.803966
 30
0.0
 11
289.878331
 21
145.482966
 31
0.0
  0
LINE
  5
9742
330
9528
100
AcDbEntity
  8
1
  6
Continuous
100
AcDbLine
 10
288.378331
 20
145.672966
 30
0.0
 11
288.378331
 21
145.3519659999998
 31
0.0
  0
LINE
  5
9743
330
9528
100
AcDbEntity
  8
1
  6
Continuous
100
AcDbLine
 10
288.378331
 20
143.9459659999999
 30
0.0
 11
288.378331
 21
143.624966
 31
0.0
  0
LINE
  5
9744
330
9528
100
AcDbEntity
  8
1
  6
Continuous
100
AcDbLine
 10
289.878331
 20
144.077966
 30
0.0
 11
289.878331
 21
143.7559659999998
 31
0.0
  0
LINE
  5
9745
330
9528
100
AcDbEntity
  8
1
  6
Continuous
100
AcDbLine
 10
291.3783309999999
 20
144.208966
 30
0.0
 11
291.3783309999999
 21
143.887966
 31
0.0
  0
LINE
  5
9746
330
9528
100
AcDbEntity
  8
1
  6
Continuous
100
AcDbLine
 10
291.3783309999999
 20
142.4819659999998
 30
0.0
 11
291.3783309999999
 21
142.160966
 31
0.0
  0
LINE
  5
9747
330
9528
100
AcDbEntity
  8
1
  6
Continuous
100
AcDbLine
 10
289.878331
 20
142.350966
 30
0.0
 11
289.878331
 21
142.0299659999998
 31
0.0
  0
LINE
  5
9748
330
9528
100
AcDbEntity
  8
1
  6
Continuous
100
AcDbLine
 10
288.378331
 20
142.2199659999999
 30
0.0
 11
288.378331
 21
141.898966
 31
0.0
  0
LINE
  5
9749
330
9528
100
AcDbEntity
  8
1
  6
Continuous
100
AcDbLine
 10
288.378331
 20
140.492966
 30
0.0
 11
288.378331
 21
137.2439659999998
 31
0.0
  0
LINE
  5
974A
330
9528
100
AcDbEntity
  8
1
  6
Continuous
100
AcDbLine
 10
289.878331
 20
140.6239659999999
 30
0.0
 11
289.878331
 21
135.2439659999998
 31
0.0
  0
LINE
  5
974B
330
9528
100
AcDbEntity
  8
1
  6
Continuous
100
AcDbLine
 10
291.3783309999999
 20
140.7559659999998
 30
0.0
 11
291.3783309999999
 21
135.2439659999998
 31
0.0
  0
LINE
  5
974C
330
9528
100
AcDbEntity
  8
1
  6
Continuous
100
AcDbLine
 10
316.3783309999999
 20
150.8529659999998
 30
0.0
 11
316.3783309999999
 21
150.5309659999998
 31
0.0
  0
LINE
  5
974D
330
9528
100
AcDbEntity
  8
1
  6
Continuous
100
AcDbLine
 10
317.878331
 20
150.9839659999999
 30
0.0
 11
317.878331
 21
150.6629659999999
 31
0.0
  0
LINE
  5
974E
330
9528
100
AcDbEntity
  8
1
  6
Continuous
100
AcDbLine
 10
319.378331
 20
151.1149659999998
 30
0.0
 11
319.378331
 21
150.7939659999999
 31
0.0
  0
LINE
  5
974F
330
9528
100
AcDbEntity
  8
1
  6
Continuous
100
AcDbLine
 10
319.378331
 20
149.3889659999998
 30
0.0
 11
319.378331
 21
149.0669659999998
 31
0.0
  0
LINE
  5
9750
330
9528
100
AcDbEntity
  8
1
  6
Continuous
100
AcDbLine
 10
317.878331
 20
149.256966
 30
0.0
 11
317.878331
 21
148.9359659999998
 31
0.0
  0
LINE
  5
9751
330
9528
100
AcDbEntity
  8
1
  6
Continuous
100
AcDbLine
 10
316.3783309999999
 20
149.125966
 30
0.0
 11
316.3783309999999
 21
148.8049659999998
 31
0.0
  0
LINE
  5
9752
330
9528
100
AcDbEntity
  8
1
  6
Continuous
100
AcDbLine
 10
316.3783309999999
 20
147.3999659999998
 30
0.0
 11
316.3783309999999
 21
147.0779659999998
 31
0.0
  0
LINE
  5
9753
330
9528
100
AcDbEntity
  8
1
  6
Continuous
100
AcDbLine
 10
317.878331
 20
147.5309659999998
 30
0.0
 11
317.878331
 21
147.2099659999998
 31
0.0
  0
LINE
  5
9754
330
9528
100
AcDbEntity
  8
1
  6
Continuous
100
AcDbLine
 10
319.378331
 20
147.6619659999998
 30
0.0
 11
319.378331
 21
147.3409659999999
 31
0.0
  0
LINE
  5
9755
330
9528
100
AcDbEntity
  8
1
  6
Continuous
100
AcDbLine
 10
319.378331
 20
145.9349659999998
 30
0.0
 11
319.378331
 21
145.613966
 31
0.0
  0
LINE
  5
9756
330
9528
100
AcDbEntity
  8
1
  6
Continuous
100
AcDbLine
 10
317.878331
 20
145.803966
 30
0.0
 11
317.878331
 21
145.482966
 31
0.0
  0
LINE
  5
9757
330
9528
100
AcDbEntity
  8
1
  6
Continuous
100
AcDbLine
 10
316.3783309999999
 20
145.672966
 30
0.0
 11
316.3783309999999
 21
145.3519659999998
 31
0.0
  0
LINE
  5
9758
330
9528
100
AcDbEntity
  8
1
  6
Continuous
100
AcDbLine
 10
316.3783309999999
 20
143.9459659999999
 30
0.0
 11
316.3783309999999
 21
143.624966
 31
0.0
  0
LINE
  5
9759
330
9528
100
AcDbEntity
  8
1
  6
Continuous
100
AcDbLine
 10
317.878331
 20
144.077966
 30
0.0
 11
317.878331
 21
143.7559659999998
 31
0.0
  0
LINE
  5
975A
330
9528
100
AcDbEntity
  8
1
  6
Continuous
100
AcDbLine
 10
319.378331
 20
144.208966
 30
0.0
 11
319.378331
 21
143.887966
 31
0.0
  0
LINE
  5
975B
330
9528
100
AcDbEntity
  8
1
  6
Continuous
100
AcDbLine
 10
319.378331
 20
142.4819659999998
 30
0.0
 11
319.378331
 21
142.160966
 31
0.0
  0
LINE
  5
975C
330
9528
100
AcDbEntity
  8
1
  6
Continuous
100
AcDbLine
 10
317.878331
 20
142.350966
 30
0.0
 11
317.878331
 21
142.0299659999998
 31
0.0
  0
LINE
  5
975D
330
9528
100
AcDbEntity
  8
1
  6
Continuous
100
AcDbLine
 10
316.3783309999999
 20
142.2199659999999
 30
0.0
 11
316.3783309999999
 21
141.898966
 31
0.0
  0
LINE
  5
975E
330
9528
100
AcDbEntity
  8
1
  6
Continuous
100
AcDbLine
 10
316.3783309999999
 20
140.492966
 30
0.0
 11
316.3783309999999
 21
135.2439659999998
 31
0.0
  0
LINE
  5
975F
330
9528
100
AcDbEntity
  8
1
  6
Continuous
100
AcDbLine
 10
317.878331
 20
140.6239659999999
 30
0.0
 11
317.878331
 21
135.2439659999998
 31
0.0
  0
LINE
  5
9760
330
9528
100
AcDbEntity
  8
1
  6
Continuous
100
AcDbLine
 10
319.378331
 20
140.7559659999998
 30
0.0
 11
319.378331
 21
137.2439659999998
 31
0.0
  0
LINE
  5
9761
330
9528
100
AcDbEntity
  8
1
  6
Continuous
100
AcDbLine
 10
366.3783309999999
 20
161.2439659999998
 30
0.0
 11
381.378331
 21
161.2439659999998
 31
0.0
  0
LINE
  5
9762
330
9528
100
AcDbEntity
  8
1
  6
Continuous
100
AcDbLine
 10
365.378331
 20
176.7439659999998
 30
0.0
 11
382.3783309999998
 21
176.7439659999998
 31
0.0
  0
LINE
  5
9763
330
9528
100
AcDbEntity
  8
1
  6
Continuous
100
AcDbLine
 10
366.3783309999999
 20
170.243966
 30
0.0
 11
366.3783309999999
 21
161.2439659999998
 31
0.0
  0
LINE
  5
9764
330
9528
100
AcDbEntity
  8
1
  6
Continuous
100
AcDbLine
 10
381.378331
 20
170.243966
 30
0.0
 11
381.378331
 21
161.2439659999998
 31
0.0
  0
LINE
  5
9765
330
9528
100
AcDbEntity
  8
1
  6
Continuous
100
AcDbLine
 10
365.378331
 20
170.243966
 30
0.0
 11
366.3783309999999
 21
170.243966
 31
0.0
  0
LINE
  5
9766
330
9528
100
AcDbEntity
  8
1
  6
Continuous
100
AcDbLine
 10
97.878331
 20
166.2439659999998
 30
0.0
 11
109.8783309999999
 21
166.2439659999998
 31
0.0
  0
LINE
  5
9767
330
9528
100
AcDbEntity
  8
1
  6
Continuous
100
AcDbLine
 10
381.378331
 20
170.243966
 30
0.0
 11
382.3783309999998
 21
170.243966
 31
0.0
  0
LINE
  5
9768
330
9528
100
AcDbEntity
  8
4
  6
CENTER
100
AcDbLine
 10
381.878331
 20
177.343966
 30
0.0
 11
381.878331
 21
170.1439659999998
 31
0.0
  0
LINE
  5
9769
330
9528
100
AcDbEntity
  8
4
  6
CENTER
100
AcDbLine
 10
378.2783309999999
 20
173.7439659999998
 30
0.0
 11
385.478331
 21
173.7439659999998
 31
0.0
  0
LINE
  5
976A
330
9528
100
AcDbEntity
  8
4
  6
CENTER
100
AcDbLine
 10
365.878331
 20
177.343966
 30
0.0
 11
365.878331
 21
170.1439659999998
 31
0.0
  0
LINE
  5
976B
330
9528
100
AcDbEntity
  8
4
  6
CENTER
100
AcDbLine
 10
362.2783309999999
 20
173.7439659999998
 30
0.0
 11
369.478331
 21
173.7439659999998
 31
0.0
  0
LINE
  5
976C
330
9528
100
AcDbEntity
  8
1
  6
Continuous
100
AcDbLine
 10
228.8783309999999
 20
176.7439659999998
 30
0.0
 11
227.378331
 21
176.7439659999998
 31
0.0
  0
LINE
  5
976D
330
9528
100
AcDbEntity
  8
1
  6
Continuous
100
AcDbLine
 10
228.8783309999999
 20
176.7439659999998
 30
0.0
 11
228.8783309999999
 21
164.2439659999998
 31
0.0
  0
LINE
  5
976E
330
9528
100
AcDbEntity
  8
1
  6
Continuous
100
AcDbLine
 10
227.378331
 20
176.7439659999998
 30
0.0
 11
227.378331
 21
164.2439659999998
 31
0.0
  0
LINE
  5
976F
330
9528
100
AcDbEntity
  8
1
  6
Continuous
100
AcDbLine
 10
221.878331
 20
165.5789659999998
 30
0.0
 11
223.186331
 21
162.9189659999999
 31
0.0
  0
LINE
  5
9770
330
9528
100
AcDbEntity
  8
1
  6
Continuous
100
AcDbLine
 10
223.222331
 20
166.2439659999998
 30
0.0
 11
224.5323309999999
 21
163.5809659999999
 31
0.0
  0
LINE
  5
9771
330
9528
100
AcDbEntity
  8
1
  6
Continuous
100
AcDbLine
 10
223.222331
 20
166.2439659999998
 30
0.0
 11
221.878331
 21
165.5789659999998
 31
0.0
  0
LINE
  5
9772
330
9528
100
AcDbEntity
  8
1
  6
Continuous
100
AcDbLine
 10
97.878331
 20
165.5789659999998
 30
0.0
 11
109.8783309999999
 21
165.5789659999998
 31
0.0
  0
LINE
  5
9773
330
9528
100
AcDbEntity
  8
1
  6
Continuous
100
AcDbLine
 10
95.378331
 20
176.7439659999998
 30
0.0
 11
112.378331
 21
176.7439659999998
 31
0.0
  0
LINE
  5
9774
330
9528
100
AcDbEntity
  8
1
  6
Continuous
100
AcDbLine
 10
111.378331
 20
170.243966
 30
0.0
 11
111.378331
 21
161.2439659999998
 31
0.0
  0
LINE
  5
9775
330
9528
100
AcDbEntity
  8
1
  6
Continuous
100
AcDbLine
 10
96.37833100000001
 20
170.243966
 30
0.0
 11
96.37833100000001
 21
161.2439659999998
 31
0.0
  0
LINE
  5
9776
330
9528
100
AcDbEntity
  8
1
  6
Continuous
100
AcDbLine
 10
96.37833100000001
 20
161.2439659999998
 30
0.0
 11
111.378331
 21
161.2439659999998
 31
0.0
  0
LINE
  5
9777
330
9528
100
AcDbEntity
  8
1
  6
Continuous
100
AcDbLine
 10
95.378331
 20
170.243966
 30
0.0
 11
96.37833100000001
 21
170.243966
 31
0.0
  0
LINE
  5
9778
330
9528
100
AcDbEntity
  8
4
  6
CENTER
100
AcDbLine
 10
111.8783309999999
 20
177.343966
 30
0.0
 11
111.8783309999999
 21
170.1439659999998
 31
0.0
  0
LINE
  5
9779
330
9528
100
AcDbEntity
  8
4
  6
CENTER
100
AcDbLine
 10
108.2783309999999
 20
173.7439659999998
 30
0.0
 11
115.478331
 21
173.7439659999998
 31
0.0
  0
LINE
  5
977A
330
9528
100
AcDbEntity
  8
1
  6
Continuous
100
AcDbLine
 10
111.378331
 20
170.243966
 30
0.0
 11
112.378331
 21
170.243966
 31
0.0
  0
LINE
  5
977B
330
9528
100
AcDbEntity
  8
4
  6
CENTER
100
AcDbLine
 10
92.27833100000003
 20
173.7439659999998
 30
0.0
 11
99.47833100000003
 21
173.7439659999998
 31
0.0
  0
LINE
  5
977C
330
9528
100
AcDbEntity
  8
4
  6
CENTER
100
AcDbLine
 10
95.878331
 20
177.343966
 30
0.0
 11
95.878331
 21
170.1439659999998
 31
0.0
  0
LINE
  5
977D
330
9528
100
AcDbEntity
  8
1
  6
Continuous
100
AcDbLine
 10
312.878331
 20
165.743966
 30
0.0
 11
294.8783309999999
 21
165.743966
 31
0.0
  0
LINE
  5
977E
330
9528
100
AcDbEntity
  8
1
  6
Continuous
100
AcDbLine
 10
312.878331
 20
162.743966
 30
0.0
 11
294.8783309999999
 21
162.743966
 31
0.0
  0
LINE
  5
977F
330
9528
100
AcDbEntity
  8
1
  6
Continuous
100
AcDbLine
 10
92.128331
 20
256.2439659999999
 30
0.0
 11
92.128331
 21
257.743966
 31
0.0
  0
LINE
  5
9780
330
9528
100
AcDbEntity
  8
1
  6
Continuous
100
AcDbLine
 10
115.628331
 20
256.2439659999999
 30
0.0
 11
115.628331
 21
257.743966
 31
0.0
  0
LINE
  5
9781
330
9528
100
AcDbEntity
  8
1
  6
Continuous
100
AcDbLine
 10
92.128331
 20
257.743966
 30
0.0
 11
115.628331
 21
257.743966
 31
0.0
  0
LINE
  5
9782
330
9528
100
AcDbEntity
  8
1
  6
Continuous
100
AcDbLine
 10
97.878331
 20
250.743966
 30
0.0
 11
109.8783309999999
 21
250.743966
 31
0.0
  0
LINE
  5
9783
330
9528
100
AcDbEntity
  8
1
  6
Continuous
100
AcDbLine
 10
97.878331
 20
252.0879659999999
 30
0.0
 11
109.8783309999999
 21
252.0879659999999
 31
0.0
  0
LINE
  5
9784
330
9528
100
AcDbEntity
  8
1
  6
Continuous
100
AcDbLine
 10
111.378331
 20
252.243966
 30
0.0
 11
111.378331
 21
256.2439659999999
 31
0.0
  0
LINE
  5
9785
330
9528
100
AcDbEntity
  8
1
  6
Continuous
100
AcDbLine
 10
96.37833100000001
 20
252.243966
 30
0.0
 11
96.37833100000001
 21
256.2439659999999
 31
0.0
  0
LINE
  5
9786
330
9528
100
AcDbEntity
  8
1
  6
Continuous
100
AcDbLine
 10
25.627931
 20
256.2439659999999
 30
0.0
 11
25.627931
 21
259.243966
 31
0.0
  0
LINE
  5
9787
330
9528
100
AcDbEntity
  8
1
  6
Continuous
100
AcDbLine
 10
42.12793099999998
 20
256.2439659999999
 30
0.0
 11
42.12793099999998
 21
259.243966
 31
0.0
  0
LINE
  5
9788
330
9528
100
AcDbEntity
  8
1
  6
Continuous
100
AcDbLine
 10
45.62793099999999
 20
41.74356599999997
 30
0.0
 11
42.12793099999998
 21
41.74356599999997
 31
0.0
  0
LINE
  5
9789
330
9528
100
AcDbEntity
  8
1
  6
Continuous
100
AcDbLine
 10
45.628031
 20
42.560266
 30
0.0
 11
45.628031
 21
41.74356599999997
 31
0.0
  0
LINE
  5
978A
330
9528
100
AcDbEntity
  8
1
  6
Continuous
100
AcDbLine
 10
22.127931
 20
42.560266
 30
0.0
 11
22.127931
 21
41.74356599999997
 31
0.0
  0
LINE
  5
978B
330
9528
100
AcDbEntity
  8
1
  6
Continuous
100
AcDbLine
 10
24.877931
 20
43.24356599999997
 30
0.0
 11
25.627931
 21
43.24356599999997
 31
0.0
  0
LINE
  5
978C
330
9528
100
AcDbEntity
  8
1
  6
Continuous
100
AcDbLine
 10
44.37793099999999
 20
43.24356599999997
 30
0.0
 11
44.666631
 21
43.24356599999997
 31
0.0
  0
LINE
  5
978D
330
9528
100
AcDbEntity
  8
1
  6
Continuous
100
AcDbLine
 10
25.627931
 20
41.74356599999997
 30
0.0
 11
22.127931
 21
41.74356599999997
 31
0.0
  0
LINE
  5
978E
330
9528
100
AcDbEntity
  8
1
  6
Continuous
100
AcDbLine
 10
227.378331
 20
170.243966
 30
0.0
 11
228.8783309999999
 21
170.243966
 31
0.0
  0
LINE
  5
978F
330
9528
100
AcDbEntity
  8
4
  6
CENTER
100
AcDbLine
 10
224.3783309999999
 20
173.7439659999998
 30
0.0
 11
231.878331
 21
173.7439659999998
 31
0.0
  0
LINE
  5
9790
330
9528
100
AcDbEntity
  8
4
  6
CENTER
100
AcDbLine
 10
94.378331
 20
164.2439659999998
 30
0.0
 11
113.378331
 21
164.2439659999998
 31
0.0
  0
LINE
  5
9791
330
9528
100
AcDbEntity
  8
4
  6
CENTER
100
AcDbLine
 10
103.878331
 20
181.7439659999998
 30
0.0
 11
103.878331
 21
156.243966
 31
0.0
  0
LINE
  5
9792
330
9528
100
AcDbEntity
  8
4
  6
CENTER
100
AcDbLine
 10
364.3783309999998
 20
164.2439659999998
 30
0.0
 11
383.378331
 21
164.2439659999998
 31
0.0
  0
LINE
  5
9793
330
9528
100
AcDbEntity
  8
4
  6
CENTER
100
AcDbLine
 10
373.878331
 20
181.7439659999998
 30
0.0
 11
373.878331
 21
156.243966
 31
0.0
  0
LINE
  5
9794
330
9528
100
AcDbEntity
  8
4
  6
CENTER
100
AcDbLine
 10
225.878331
 20
167.743966
 30
0.0
 11
225.878331
 21
160.743966
 31
0.0
  0
LINE
  5
9795
330
9528
100
AcDbEntity
  8
4
  6
CENTER
100
AcDbLine
 10
222.3783309999999
 20
164.2439659999998
 30
0.0
 11
229.378331
 21
164.2439659999998
 31
0.0
  0
LINE
  5
9796
330
9528
100
AcDbEntity
  8
4
  6
CENTER
100
AcDbLine
 10
176.3783309999998
 20
117.2439659999999
 30
0.0
 11
182.3783309999998
 21
117.2439659999999
 31
0.0
  0
LINE
  5
9797
330
9528
100
AcDbEntity
  8
4
  6
CENTER
100
AcDbLine
 10
31.377931
 20
117.2439659999999
 30
0.0
 11
36.37793099999999
 21
117.2439659999999
 31
0.0
  0
LINE
  5
9798
330
9528
100
AcDbEntity
  8
1
  6
Continuous
100
AcDbLine
 10
24.877931
 20
256.2439659999999
 30
0.0
 11
42.877931
 21
256.2439659999999
 31
0.0
  0
LINE
  5
9799
330
9528
100
AcDbEntity
  8
4
  6
CENTER
100
AcDbLine
 10
103.878331
 20
245.743966
 30
0.0
 11
103.878331
 21
262.7439659999998
 31
0.0
  0
LINE
  5
979A
330
9528
100
AcDbEntity
  8
4
  6
CENTER
100
AcDbLine
 10
94.378331
 20
254.743966
 30
0.0
 11
113.378331
 21
254.743966
 31
0.0
  0
LINE
  5
979B
330
9528
100
AcDbEntity
  8
1
  6
Continuous
100
AcDbLine
 10
32.877931
 20
256.2439659999999
 30
0.0
 11
32.877931
 21
259.243966
 31
0.0
  0
LINE
  5
979C
330
9528
100
AcDbEntity
  8
1
  6
Continuous
100
AcDbLine
 10
34.87793099999999
 20
256.2439659999999
 30
0.0
 11
34.87793099999999
 21
259.243966
 31
0.0
  0
LINE
  5
979D
330
9528
100
AcDbEntity
  8
1
  6
Continuous
100
AcDbLine
 10
29.877931
 20
256.2439659999999
 30
0.0
 11
29.877931
 21
259.243966
 31
0.0
  0
LINE
  5
979E
330
9528
100
AcDbEntity
  8
1
  6
Continuous
100
AcDbLine
 10
37.877931
 20
256.2439659999999
 30
0.0
 11
37.877931
 21
259.243966
 31
0.0
  0
LINE
  5
979F
330
9528
100
AcDbEntity
  8
1
  6
Continuous
100
AcDbLine
 10
25.627931
 20
257.243966
 30
0.0
 11
27.377931
 21
257.243966
 31
0.0
  0
LINE
  5
97A0
330
9528
100
AcDbEntity
  8
1
  6
Continuous
100
AcDbLine
 10
40.377931
 20
257.243966
 30
0.0
 11
42.12793099999998
 21
257.243966
 31
0.0
  0
LINE
  5
97A1
330
9528
100
AcDbEntity
  8
1
  6
Continuous
100
AcDbLine
 10
172.734295
 20
160.8210799999999
 30
0.0
 11
177.7298189999999
 21
160.6095599999999
 31
0.0
  0
LINE
  5
97A2
330
9528
100
AcDbEntity
  8
1
  6
Continuous
100
AcDbLine
 10
23.377931
 20
257.243966
 30
0.0
 11
24.877931
 21
257.243966
 31
0.0
  0
LINE
  5
97A3
330
9528
100
AcDbEntity
  8
1
  6
Continuous
100
AcDbLine
 10
42.877931
 20
257.243966
 30
0.0
 11
44.37793099999999
 21
257.243966
 31
0.0
  0
LINE
  5
97A4
330
9528
100
AcDbEntity
  8
1
  6
Continuous
100
AcDbLine
 10
23.677931
 20
160.743966
 30
0.0
 11
24.578031
 21
160.743966
 31
0.0
  0
LINE
  5
97A5
330
9528
100
AcDbEntity
  8
1
  6
Continuous
100
AcDbLine
 10
313.178331
 20
160.743966
 30
0.0
 11
314.0783309999998
 21
160.743966
 31
0.0
  0
LINE
  5
97A6
330
9528
100
AcDbEntity
  8
1
  6
Continuous
100
AcDbLine
 10
293.678331
 20
160.743966
 30
0.0
 11
294.5783309999999
 21
160.743966
 31
0.0
  0
LINE
  5
97A7
330
9528
100
AcDbEntity
  8
1
  6
Continuous
100
AcDbLine
 10
43.177931
 20
160.743966
 30
0.0
 11
44.078031
 21
160.743966
 31
0.0
  0
ARC
  5
97A8
330
9528
100
AcDbEntity
  8
1
  6
Continuous
100
AcDbCircle
 10
44.37793099999999
 20
160.743966
 30
0.0
 40
1.5
100
AcDbArc
 50
180.0
 51
270.0
  0
ARC
  5
97A9
330
9528
100
AcDbEntity
  8
1
  6
Continuous
100
AcDbCircle
 10
46.37793099999998
 20
135.2439659999998
 30
0.0
 40
1.5
100
AcDbArc
 50
308.41
 51
0.0
  0
ARC
  5
97AA
330
9528
100
AcDbEntity
  8
1
  6
Continuous
100
AcDbCircle
 10
44.37793099999999
 20
131.743966
 30
0.0
 40
1.5
100
AcDbArc
 50
128.41
 51
180.0
  0
ARC
  5
97AB
330
9528
100
AcDbEntity
  8
1
  6
Continuous
100
AcDbCircle
 10
21.377931
 20
135.2439659999998
 30
0.0
 40
1.5
100
AcDbArc
 50
180.0
 51
231.59
  0
ARC
  5
97AC
330
9528
100
AcDbEntity
  8
1
  6
Continuous
100
AcDbCircle
 10
23.377931
 20
160.743966
 30
0.0
 40
1.5
100
AcDbArc
 50
270.0
 51
0.0
  0
ARC
  5
97AD
330
9528
100
AcDbEntity
  8
1
  6
Continuous
100
AcDbCircle
 10
23.377931
 20
131.743966
 30
0.0
 40
1.5
100
AcDbArc
 50
0.0
 51
51.5903
  0
ARC
  5
97AE
330
9528
100
AcDbEntity
  8
1
  6
Continuous
100
AcDbCircle
 10
26.627931
 20
123.7439659999999
 30
0.0
 40
1.0
100
AcDbArc
 50
0.0
 51
90.0
  0
ARC
  5
97AF
330
9528
100
AcDbEntity
  8
1
  6
Continuous
100
AcDbCircle
 10
41.127931
 20
123.7439659999999
 30
0.0
 40
1.0
100
AcDbArc
 50
90.0
 51
180.0
  0
ARC
  5
97B0
330
9528
100
AcDbEntity
  8
1
  6
Continuous
100
AcDbCircle
 10
33.87793099999999
 20
115.4939659999999
 30
0.0
 40
6.25
100
AcDbArc
 50
180.0
 51
0.00001
  0
ARC
  5
97B1
330
9528
100
AcDbEntity
  8
1
  6
Continuous
100
AcDbCircle
 10
177.628331
 20
126.7439659999999
 30
0.0
 40
2.0
100
AcDbArc
 50
270.0
 51
0.0
  0
ARC
  5
97B2
330
9528
100
AcDbEntity
  8
1
  6
Continuous
100
AcDbCircle
 10
178.6283309999998
 20
129.762966
 30
0.0
 40
1.0
100
AcDbArc
 50
0.0
 51
51.3402
  0
ARC
  5
97B3
330
9528
100
AcDbEntity
  8
1
  6
Continuous
100
AcDbCircle
 10
179.378331
 20
131.723966
 30
0.0
 40
1.0
100
AcDbArc
 50
180.0
 51
231.34
  0
ARC
  5
97B4
330
9528
100
AcDbEntity
  8
1
  6
Continuous
100
AcDbCircle
 10
176.3783309999998
 20
145.743966
 30
0.0
 40
2.0
100
AcDbArc
 50
358.2601669999998
 51
6.156107999999998
  0
ARC
  5
97B5
330
9528
100
AcDbEntity
  8
1
  6
Continuous
100
AcDbCircle
 10
172.3783309999998
 20
145.243966
 30
0.0
 40
4.0
100
AcDbArc
 50
109.675011
 51
180.0
  0
ARC
  5
97B6
330
9528
100
AcDbEntity
  8
1
  6
Continuous
100
AcDbCircle
 10
172.3783309999998
 20
147.7439659999998
 30
0.0
 40
4.0
100
AcDbArc
 50
198.2099999999999
 51
229.914326
  0
ARC
  5
97B7
330
9528
100
AcDbEntity
  8
1
  6
Continuous
100
AcDbCircle
 10
160.8783309999998
 20
115.7439659999998
 30
0.0
 40
11.0
100
AcDbArc
 50
338.4009999999999
 51
30.0682
  0
ARC
  5
97B8
330
9528
100
AcDbEntity
  8
1
  6
Continuous
100
AcDbCircle
 10
160.8783309999998
 20
115.7439659999998
 30
0.0
 40
12.5
100
AcDbArc
 50
338.36
 51
30.0682
  0
ARC
  5
97B9
330
9528
100
AcDbEntity
  8
1
  6
Continuous
100
AcDbCircle
 10
174.3783309999998
 20
134.2439659999998
 30
0.0
 40
6.0
100
AcDbArc
 50
0.0
 51
39.22818499999999
  0
CIRCLE
  5
97BA
330
9528
100
AcDbEntity
  8
1
  6
Continuous
100
AcDbCircle
 10
173.878331
 20
128.7439659999998
 30
0.0
 40
1.1
  0
ARC
  5
97BB
330
9528
100
AcDbEntity
  8
1
  6
Continuous
100
AcDbCircle
 10
173.8571789999998
 20
128.2444139999997
 30
0.0
 40
2.5
100
AcDbArc
 50
177.5754379999999
 51
357.575448
  0
ARC
  5
97BC
330
9528
100
AcDbEntity
  8
1
  6
Continuous
100
AcDbCircle
 10
177.3783309999998
 20
164.1275779999998
 30
0.0
 40
2.5
100
AcDbArc
 50
320.705438
 51
140.7054379999999
  0
CIRCLE
  5
97BD
330
9528
100
AcDbEntity
  8
1
  6
Continuous
100
AcDbCircle
 10
177.3783309999998
 20
164.1275779999998
 30
0.0
 40
1.1
  0
ARC
  5
97BE
330
9528
100
AcDbEntity
  8
1
  6
Continuous
100
AcDbCircle
 10
293.3783309999999
 20
160.743966
 30
0.0
 40
1.5
100
AcDbArc
 50
270.0
 51
0.0
  0
ARC
  5
97BF
330
9528
100
AcDbEntity
  8
1
  6
Continuous
100
AcDbCircle
 10
291.3783309999999
 20
135.2439659999998
 30
0.0
 40
1.5
100
AcDbArc
 50
180.0
 51
231.59
  0
ARC
  5
97C0
330
9528
100
AcDbEntity
  8
1
  6
Continuous
100
AcDbCircle
 10
293.3783309999999
 20
131.743966
 30
0.0
 40
1.5
100
AcDbArc
 50
0.0
 51
51.5903
  0
ARC
  5
97C1
330
9528
100
AcDbEntity
  8
1
  6
Continuous
100
AcDbCircle
 10
316.3783309999999
 20
135.2439659999998
 30
0.0
 40
1.5
100
AcDbArc
 50
308.41
 51
0.0
  0
ARC
  5
97C2
330
9528
100
AcDbEntity
  8
1
  6
Continuous
100
AcDbCircle
 10
314.3783309999998
 20
160.743966
 30
0.0
 40
1.5
100
AcDbArc
 50
180.0
 51
270.0
  0
ARC
  5
97C3
330
9528
100
AcDbEntity
  8
1
  6
Continuous
100
AcDbCircle
 10
314.3783309999998
 20
131.743966
 30
0.0
 40
1.5
100
AcDbArc
 50
128.41
 51
180.0
  0
ARC
  5
97C4
330
9528
100
AcDbEntity
  8
1
  6
Continuous
100
AcDbCircle
 10
311.128331
 20
123.7439659999999
 30
0.0
 40
1.0
100
AcDbArc
 50
90.0
 51
180.0
  0
ARC
  5
97C5
330
9528
100
AcDbEntity
  8
1
  6
Continuous
100
AcDbCircle
 10
296.628331
 20
123.7439659999999
 30
0.0
 40
1.0
100
AcDbArc
 50
0.0
 51
90.0
  0
ARC
  5
97C6
330
9528
100
AcDbEntity
  8
1
  6
Continuous
100
AcDbCircle
 10
303.8783309999999
 20
115.4939659999999
 30
0.0
 40
6.25
100
AcDbArc
 50
180.0
 51
0.0
  0
CIRCLE
  5
97C7
330
9528
100
AcDbEntity
  8
1
  6
Continuous
100
AcDbCircle
 10
303.8783309999999
 20
128.7439659999998
 30
0.0
 40
2.1
  0
CIRCLE
  5
97C8
330
9528
100
AcDbEntity
  8
1
  6
Continuous
100
AcDbCircle
 10
303.8783309999999
 20
117.2439659999999
 30
0.0
 40
2.1
  0
ARC
  5
97C9
330
9528
100
AcDbEntity
  8
1
  6
Continuous
100
AcDbCircle
 10
303.8783309999999
 20
116.7439659999998
 30
0.0
 40
5.5
100
AcDbArc
 50
180.0
 51
0.00001
  0
ARC
  5
97CA
330
9528
100
AcDbEntity
  8
1
  6
Continuous
100
AcDbCircle
 10
301.3783309999999
 20
142.243966
 30
0.0
 40
1.5
100
AcDbArc
 50
0.0
 51
180.0
  0
ARC
  5
97CB
330
9528
100
AcDbEntity
  8
1
  6
Continuous
100
AcDbCircle
 10
301.3783309999999
 20
135.743966
 30
0.0
 40
1.5
100
AcDbArc
 50
180.0
 51
0.0
  0
ARC
  5
97CC
330
9528
100
AcDbEntity
  8
1
  6
Continuous
100
AcDbCircle
 10
306.378331
 20
142.243966
 30
0.0
 40
1.5
100
AcDbArc
 50
0.0
 51
180.0
  0
ARC
  5
97CD
330
9528
100
AcDbEntity
  8
1
  6
Continuous
100
AcDbCircle
 10
306.378331
 20
135.743966
 30
0.0
 40
1.5
100
AcDbArc
 50
180.0
 51
0.0
  0
ARC
  5
97CE
330
9528
100
AcDbEntity
  8
1
  6
Continuous
100
AcDbCircle
 10
172.3783309999998
 20
145.243966
 30
0.0
 40
2.5
100
AcDbArc
 50
125.1116069999999
 51
135.0254689999998
  0
ARC
  5
97CF
330
9528
100
AcDbEntity
  8
1
  6
Continuous
100
AcDbCircle
 10
19.877931
 20
252.743966
 30
0.0
 40
4.75
100
AcDbArc
 50
90.0
 51
270.0
  0
ARC
  5
97D0
330
9528
100
AcDbEntity
  8
1
  6
Continuous
100
AcDbCircle
 10
19.877931
 20
252.743966
 30
0.0
 40
3.35
100
AcDbArc
 50
90.0
 51
270.0
  0
ARC
  5
97D1
330
9528
100
AcDbEntity
  8
1
  6
Continuous
100
AcDbCircle
 10
47.877931
 20
252.743966
 30
0.0
 40
4.75
100
AcDbArc
 50
108.4079999999999
 51
139.2599999999999
  0
ARC
  5
97D2
330
9528
100
AcDbEntity
  8
1
  6
Continuous
100
AcDbCircle
 10
47.877931
 20
252.743966
 30
0.0
 40
3.35
100
AcDbArc
 50
116.5999999999998
 51
131.732
  0
ARC
  5
97D3
330
9528
100
AcDbEntity
  8
1
  6
Continuous
100
AcDbCircle
 10
19.877931
 20
252.743966
 30
0.0
 40
3.35
100
AcDbArc
 50
296.6
 51
311.732
  0
ARC
  5
97D4
330
9528
100
AcDbEntity
  8
1
  6
Continuous
100
AcDbCircle
 10
19.877931
 20
252.743966
 30
0.0
 40
4.75
100
AcDbArc
 50
288.408
 51
328.2430000000001
  0
ARC
  5
97D5
330
9528
100
AcDbEntity
  8
1
  6
Continuous
100
AcDbCircle
 10
19.877931
 20
252.743966
 30
0.0
 40
3.35
100
AcDbArc
 50
48.26819999999999
 51
63.3999
  0
ARC
  5
97D6
330
9528
100
AcDbEntity
  8
1
  6
Continuous
100
AcDbCircle
 10
47.877931
 20
252.743966
 30
0.0
 40
4.75
100
AcDbArc
 50
211.757
 51
251.5919999999999
  0
ARC
  5
97D7
330
9528
100
AcDbEntity
  8
1
  6
Continuous
100
AcDbCircle
 10
47.877931
 20
252.743966
 30
0.0
 40
4.75
100
AcDbArc
 50
270.0
 51
90.0
  0
ARC
  5
97D8
330
9528
100
AcDbEntity
  8
1
  6
Continuous
100
AcDbCircle
 10
47.877931
 20
252.743966
 30
0.0
 40
3.35
100
AcDbArc
 50
228.2679999999999
 51
243.4000000000001
  0
ARC
  5
97D9
330
9528
100
AcDbEntity
  8
1
  6
Continuous
100
AcDbCircle
 10
47.877931
 20
252.743966
 30
0.0
 40
3.35
100
AcDbArc
 50
270.0
 51
90.0
  0
ARC
  5
97DA
330
9528
100
AcDbEntity
  8
1
  6
Continuous
100
AcDbCircle
 10
172.3783309999998
 20
145.243966
 30
0.0
 40
2.5
100
AcDbArc
 50
163.9330109999999
 51
186.86219
  0
ARC
  5
97DB
330
9528
100
AcDbEntity
  8
1
  6
Continuous
100
AcDbCircle
 10
19.877931
 20
46.74356599999998
 30
0.0
 40
4.75
100
AcDbArc
 50
108.4079999999999
 51
251.5919999999999
  0
ARC
  5
97DC
330
9528
100
AcDbEntity
  8
1
  6
Continuous
100
AcDbCircle
 10
19.877931
 20
46.74356599999998
 30
0.0
 40
3.35
100
AcDbArc
 50
116.5999999999998
 51
243.4000000000001
  0
ARC
  5
97DD
330
9528
100
AcDbEntity
  8
1
  6
Continuous
100
AcDbCircle
 10
47.877931
 20
46.74356599999998
 30
0.0
 40
4.75
100
AcDbArc
 50
211.756864
 51
270.0
  0
ARC
  5
97DE
330
9528
100
AcDbEntity
  8
1
  6
Continuous
100
AcDbCircle
 10
47.877931
 20
46.74356599999998
 30
0.0
 40
3.35
100
AcDbArc
 50
228.2679999999999
 51
270.0
  0
ARC
  5
97DF
330
9528
100
AcDbEntity
  8
1
  6
Continuous
100
AcDbCircle
 10
19.877931
 20
46.74356599999998
 30
0.0
 40
3.35
100
AcDbArc
 50
48.26819999999999
 51
90.0
  0
ARC
  5
97E0
330
9528
100
AcDbEntity
  8
1
  6
Continuous
100
AcDbCircle
 10
19.877931
 20
46.74356599999998
 30
0.0
 40
4.75
100
AcDbArc
 50
31.7569
 51
90.0
  0
ARC
  5
97E1
330
9528
100
AcDbEntity
  8
1
  6
Continuous
100
AcDbCircle
 10
19.877931
 20
46.74356599999998
 30
0.0
 40
3.35
100
AcDbArc
 50
270.0
 51
311.732
  0
ARC
  5
97E2
330
9528
100
AcDbEntity
  8
1
  6
Continuous
100
AcDbCircle
 10
19.877931
 20
46.74356599999998
 30
0.0
 40
4.75
100
AcDbArc
 50
270.0
 51
328.243136
  0
ARC
  5
97E3
330
9528
100
AcDbEntity
  8
1
  6
Continuous
100
AcDbCircle
 10
47.877931
 20
46.74356599999998
 30
0.0
 40
4.75
100
AcDbArc
 50
90.0
 51
148.2429999999999
  0
ARC
  5
97E4
330
9528
100
AcDbEntity
  8
1
  6
Continuous
100
AcDbCircle
 10
47.877931
 20
46.74356599999998
 30
0.0
 40
4.75
100
AcDbArc
 50
288.408
 51
71.5915
  0
ARC
  5
97E5
330
9528
100
AcDbEntity
  8
1
  6
Continuous
100
AcDbCircle
 10
47.877931
 20
46.74356599999998
 30
0.0
 40
3.35
100
AcDbArc
 50
90.0
 51
131.732
  0
ARC
  5
97E6
330
9528
100
AcDbEntity
  8
1
  6
Continuous
100
AcDbCircle
 10
47.877931
 20
46.74356599999998
 30
0.0
 40
3.35
100
AcDbArc
 50
296.6
 51
63.3999
  0
ARC
  5
97E7
330
9528
100
AcDbEntity
  8
1
  6
Continuous
100
AcDbCircle
 10
33.87793099999999
 20
36.44936599999999
 30
0.0
 40
13.7941
100
AcDbArc
 50
63.0578
 51
116.9419999999998
  0
ARC
  5
97E8
330
9528
100
AcDbEntity
  8
1
  6
Continuous
100
AcDbCircle
 10
33.87793099999999
 20
36.066966
 30
0.0
 40
12.8076
100
AcDbArc
 50
60.7913
 51
119.209
  0
ARC
  5
97E9
330
9528
100
AcDbEntity
  8
1
  6
Continuous
100
AcDbCircle
 10
317.878331
 20
159.243966
 30
0.0
 40
1.5
100
AcDbArc
 50
0.0
 51
90.0
  0
ARC
  5
97EA
330
9528
100
AcDbEntity
  8
1
  6
Continuous
100
AcDbCircle
 10
289.878331
 20
159.243966
 30
0.0
 40
1.5
100
AcDbArc
 50
90.0
 51
180.0
  0
ARC
  5
97EB
330
9528
100
AcDbEntity
  8
1
  6
Continuous
100
AcDbCircle
 10
19.877931
 20
159.243966
 30
0.0
 40
1.5
100
AcDbArc
 50
90.0
 51
180.0
  0
ARC
  5
97EC
330
9528
100
AcDbEntity
  8
1
  6
Continuous
100
AcDbCircle
 10
47.877931
 20
159.243966
 30
0.0
 40
1.5
100
AcDbArc
 50
0.0
 51
90.0
  0
ARC
  5
97ED
330
9528
100
AcDbEntity
  8
1
  6
Continuous
100
AcDbCircle
 10
15.828031
 20
151.331966
 30
0.0
 40
0.7
100
AcDbArc
 50
95.0
 51
275.0
  0
ARC
  5
97EE
330
9528
100
AcDbEntity
  8
1
  6
Continuous
100
AcDbCircle
 10
23.927931
 20
152.040966
 30
0.0
 40
0.7
100
AcDbArc
 50
275.0
 51
95.0
  0
ARC
  5
97EF
330
9528
100
AcDbEntity
  8
1
  6
Continuous
100
AcDbCircle
 10
23.927931
 20
150.3139659999999
 30
0.0
 40
0.7
100
AcDbArc
 50
275.0
 51
95.0
  0
ARC
  5
97F0
330
9528
100
AcDbEntity
  8
1
  6
Continuous
100
AcDbCircle
 10
15.828031
 20
149.605966
 30
0.0
 40
0.7
100
AcDbArc
 50
95.0
 51
275.0
  0
ARC
  5
97F1
330
9528
100
AcDbEntity
  8
1
  6
Continuous
100
AcDbCircle
 10
15.828031
 20
147.8789659999999
 30
0.0
 40
0.7
100
AcDbArc
 50
95.0
 51
275.0
  0
ARC
  5
97F2
330
9528
100
AcDbEntity
  8
1
  6
Continuous
100
AcDbCircle
 10
23.927931
 20
148.5879659999999
 30
0.0
 40
0.7
100
AcDbArc
 50
275.0
 51
95.0
  0
ARC
  5
97F3
330
9528
100
AcDbEntity
  8
1
  6
Continuous
100
AcDbCircle
 10
23.927931
 20
146.860966
 30
0.0
 40
0.7
100
AcDbArc
 50
275.0
 51
95.0
  0
ARC
  5
97F4
330
9528
100
AcDbEntity
  8
1
  6
Continuous
100
AcDbCircle
 10
15.828031
 20
146.1529659999999
 30
0.0
 40
0.7
100
AcDbArc
 50
95.0
 51
275.0
  0
ARC
  5
97F5
330
9528
100
AcDbEntity
  8
1
  6
Continuous
100
AcDbCircle
 10
15.828031
 20
144.4259659999999
 30
0.0
 40
0.7
100
AcDbArc
 50
95.0
 51
275.0
  0
ARC
  5
97F6
330
9528
100
AcDbEntity
  8
1
  6
Continuous
100
AcDbCircle
 10
23.927931
 20
145.1349659999999
 30
0.0
 40
0.7
100
AcDbArc
 50
275.0
 51
95.0
  0
ARC
  5
97F7
330
9528
100
AcDbEntity
  8
1
  6
Continuous
100
AcDbCircle
 10
23.927931
 20
143.4079659999999
 30
0.0
 40
0.7
100
AcDbArc
 50
275.0
 51
95.0
  0
ARC
  5
97F8
330
9528
100
AcDbEntity
  8
1
  6
Continuous
100
AcDbCircle
 10
15.828031
 20
142.6989659999998
 30
0.0
 40
0.7
100
AcDbArc
 50
95.0
 51
275.0
  0
ARC
  5
97F9
330
9528
100
AcDbEntity
  8
1
  6
Continuous
100
AcDbCircle
 10
23.927931
 20
141.680966
 30
0.0
 40
0.7
100
AcDbArc
 50
275.0
 51
95.0
  0
ARC
  5
97FA
330
9528
100
AcDbEntity
  8
1
  6
Continuous
100
AcDbCircle
 10
15.828031
 20
140.9729659999999
 30
0.0
 40
0.7
100
AcDbArc
 50
95.0
 51
275.0
  0
ARC
  5
97FB
330
9528
100
AcDbEntity
  8
1
  6
Continuous
100
AcDbCircle
 10
43.828031
 20
151.331966
 30
0.0
 40
0.7
100
AcDbArc
 50
95.0
 51
275.0
  0
ARC
  5
97FC
330
9528
100
AcDbEntity
  8
1
  6
Continuous
100
AcDbCircle
 10
51.927931
 20
152.040966
 30
0.0
 40
0.7
100
AcDbArc
 50
275.0
 51
95.0
  0
ARC
  5
97FD
330
9528
100
AcDbEntity
  8
1
  6
Continuous
100
AcDbCircle
 10
51.927931
 20
150.3139659999999
 30
0.0
 40
0.7
100
AcDbArc
 50
275.0
 51
95.0
  0
ARC
  5
97FE
330
9528
100
AcDbEntity
  8
1
  6
Continuous
100
AcDbCircle
 10
43.828031
 20
149.605966
 30
0.0
 40
0.7
100
AcDbArc
 50
95.0
 51
275.0
  0
ARC
  5
97FF
330
9528
100
AcDbEntity
  8
1
  6
Continuous
100
AcDbCircle
 10
43.828031
 20
147.8789659999999
 30
0.0
 40
0.7
100
AcDbArc
 50
95.0
 51
275.0
  0
ARC
  5
9800
330
9528
100
AcDbEntity
  8
1
  6
Continuous
100
AcDbCircle
 10
51.927931
 20
148.5879659999999
 30
0.0
 40
0.7
100
AcDbArc
 50
275.0
 51
95.0
  0
ARC
  5
9801
330
9528
100
AcDbEntity
  8
1
  6
Continuous
100
AcDbCircle
 10
51.927931
 20
146.860966
 30
0.0
 40
0.7
100
AcDbArc
 50
275.0
 51
95.0
  0
ARC
  5
9802
330
9528
100
AcDbEntity
  8
1
  6
Continuous
100
AcDbCircle
 10
43.828031
 20
146.1529659999999
 30
0.0
 40
0.7
100
AcDbArc
 50
95.0
 51
275.0
  0
ARC
  5
9803
330
9528
100
AcDbEntity
  8
1
  6
Continuous
100
AcDbCircle
 10
43.828031
 20
144.4259659999999
 30
0.0
 40
0.7
100
AcDbArc
 50
95.0
 51
275.0
  0
ARC
  5
9804
330
9528
100
AcDbEntity
  8
1
  6
Continuous
100
AcDbCircle
 10
51.927931
 20
145.1349659999999
 30
0.0
 40
0.7
100
AcDbArc
 50
275.0
 51
95.0
  0
ARC
  5
9805
330
9528
100
AcDbEntity
  8
1
  6
Continuous
100
AcDbCircle
 10
51.927931
 20
143.4079659999999
 30
0.0
 40
0.7
100
AcDbArc
 50
275.0
 51
95.0
  0
ARC
  5
9806
330
9528
100
AcDbEntity
  8
1
  6
Continuous
100
AcDbCircle
 10
43.828031
 20
142.6989659999998
 30
0.0
 40
0.7
100
AcDbArc
 50
95.0
 51
275.0
  0
ARC
  5
9807
330
9528
100
AcDbEntity
  8
1
  6
Continuous
100
AcDbCircle
 10
51.927931
 20
141.680966
 30
0.0
 40
0.7
100
AcDbArc
 50
275.0
 51
95.0
  0
ARC
  5
9808
330
9528
100
AcDbEntity
  8
1
  6
Continuous
100
AcDbCircle
 10
43.828031
 20
140.9729659999999
 30
0.0
 40
0.7
100
AcDbArc
 50
95.0
 51
275.0
  0
ARC
  5
9809
330
9528
100
AcDbEntity
  8
1
  6
Continuous
100
AcDbCircle
 10
170.787518
 20
151.483076
 30
0.0
 40
0.7
100
AcDbArc
 50
92.575438
 51
272.5754379999999
  0
ARC
  5
980A
330
9528
100
AcDbEntity
  8
1
  6
Continuous
100
AcDbCircle
 10
178.9102599999999
 20
151.84878
 30
0.0
 40
0.7
100
AcDbArc
 50
272.5754379999999
 51
92.575438
  0
ARC
  5
980B
330
9528
100
AcDbEntity
  8
1
  6
Continuous
100
AcDbCircle
 10
178.8372019999999
 20
150.123326
 30
0.0
 40
0.7
100
AcDbArc
 50
272.5754379999999
 51
92.575438
  0
ARC
  5
980C
330
9528
100
AcDbEntity
  8
1
  6
Continuous
100
AcDbCircle
 10
170.714502
 20
149.758622
 30
0.0
 40
0.7
100
AcDbArc
 50
92.575438
 51
272.5754379999999
  0
ARC
  5
980D
330
9528
100
AcDbEntity
  8
1
  6
Continuous
100
AcDbCircle
 10
170.6414429999998
 20
148.0331679999999
 30
0.0
 40
0.7
100
AcDbArc
 50
92.575438
 51
272.5754379999999
  0
ARC
  5
980E
330
9528
100
AcDbEntity
  8
1
  6
Continuous
100
AcDbCircle
 10
178.7641849999999
 20
148.398871
 30
0.0
 40
0.7
100
AcDbArc
 50
272.5754379999999
 51
92.575438
  0
ARC
  5
980F
330
9528
100
AcDbEntity
  8
1
  6
Continuous
100
AcDbCircle
 10
178.691126
 20
146.673417
 30
0.0
 40
0.7
100
AcDbArc
 50
272.5754379999999
 51
92.575438
  0
ARC
  5
9810
330
9528
100
AcDbEntity
  8
1
  6
Continuous
100
AcDbCircle
 10
170.5684259999999
 20
146.3087129999999
 30
0.0
 40
0.7
100
AcDbArc
 50
92.575438
 51
272.5754379999999
  0
ARC
  5
9811
330
9528
100
AcDbEntity
  8
1
  6
Continuous
100
AcDbCircle
 10
170.4953669999999
 20
144.583259
 30
0.0
 40
0.7
100
AcDbArc
 50
92.575438
 51
272.5754379999999
  0
ARC
  5
9812
330
9528
100
AcDbEntity
  8
1
  6
Continuous
100
AcDbCircle
 10
178.618109
 20
144.948962
 30
0.0
 40
0.7
100
AcDbArc
 50
272.5754379999999
 51
92.575438
  0
ARC
  5
9813
330
9528
100
AcDbEntity
  8
1
  6
Continuous
100
AcDbCircle
 10
178.54505
 20
143.223508
 30
0.0
 40
0.7
100
AcDbArc
 50
272.5754379999999
 51
92.575438
  0
ARC
  5
9814
330
9528
100
AcDbEntity
  8
1
  6
Continuous
100
AcDbCircle
 10
170.422308
 20
142.857805
 30
0.0
 40
0.7
100
AcDbArc
 50
92.575438
 51
272.5754379999999
  0
ARC
  5
9815
330
9528
100
AcDbEntity
  8
1
  6
Continuous
100
AcDbCircle
 10
178.4719909999998
 20
141.4980539999999
 30
0.0
 40
0.7
100
AcDbArc
 50
272.5754379999999
 51
92.575438
  0
ARC
  5
9816
330
9528
100
AcDbEntity
  8
1
  6
Continuous
100
AcDbCircle
 10
170.3492919999999
 20
141.13335
 30
0.0
 40
0.7
100
AcDbArc
 50
92.575438
 51
272.5754379999999
  0
ARC
  5
9817
330
9528
100
AcDbEntity
  8
1
  6
Continuous
100
AcDbCircle
 10
285.828331
 20
151.331966
 30
0.0
 40
0.7
100
AcDbArc
 50
95.0
 51
275.0
  0
ARC
  5
9818
330
9528
100
AcDbEntity
  8
1
  6
Continuous
100
AcDbCircle
 10
293.928331
 20
152.040966
 30
0.0
 40
0.7
100
AcDbArc
 50
275.0
 51
95.0
  0
ARC
  5
9819
330
9528
100
AcDbEntity
  8
1
  6
Continuous
100
AcDbCircle
 10
293.928331
 20
150.3139659999999
 30
0.0
 40
0.7
100
AcDbArc
 50
275.0
 51
95.0
  0
ARC
  5
981A
330
9528
100
AcDbEntity
  8
1
  6
Continuous
100
AcDbCircle
 10
285.828331
 20
149.605966
 30
0.0
 40
0.7
100
AcDbArc
 50
95.0
 51
275.0
  0
ARC
  5
981B
330
9528
100
AcDbEntity
  8
1
  6
Continuous
100
AcDbCircle
 10
285.828331
 20
147.8789659999999
 30
0.0
 40
0.7
100
AcDbArc
 50
95.0
 51
275.0
  0
ARC
  5
981C
330
9528
100
AcDbEntity
  8
1
  6
Continuous
100
AcDbCircle
 10
293.928331
 20
148.5879659999999
 30
0.0
 40
0.7
100
AcDbArc
 50
275.0
 51
95.0
  0
ARC
  5
981D
330
9528
100
AcDbEntity
  8
1
  6
Continuous
100
AcDbCircle
 10
293.928331
 20
146.860966
 30
0.0
 40
0.7
100
AcDbArc
 50
275.0
 51
95.0
  0
ARC
  5
981E
330
9528
100
AcDbEntity
  8
1
  6
Continuous
100
AcDbCircle
 10
285.828331
 20
146.1529659999999
 30
0.0
 40
0.7
100
AcDbArc
 50
95.0
 51
275.0
  0
ARC
  5
981F
330
9528
100
AcDbEntity
  8
1
  6
Continuous
100
AcDbCircle
 10
285.828331
 20
144.4259659999999
 30
0.0
 40
0.7
100
AcDbArc
 50
95.0
 51
275.0
  0
ARC
  5
9820
330
9528
100
AcDbEntity
  8
1
  6
Continuous
100
AcDbCircle
 10
293.928331
 20
145.1349659999999
 30
0.0
 40
0.7
100
AcDbArc
 50
275.0
 51
95.0
  0
ARC
  5
9821
330
9528
100
AcDbEntity
  8
1
  6
Continuous
100
AcDbCircle
 10
293.928331
 20
143.4079659999999
 30
0.0
 40
0.7
100
AcDbArc
 50
275.0
 51
95.0
  0
ARC
  5
9822
330
9528
100
AcDbEntity
  8
1
  6
Continuous
100
AcDbCircle
 10
285.828331
 20
142.6989659999998
 30
0.0
 40
0.7
100
AcDbArc
 50
95.0
 51
275.0
  0
ARC
  5
9823
330
9528
100
AcDbEntity
  8
1
  6
Continuous
100
AcDbCircle
 10
293.928331
 20
141.680966
 30
0.0
 40
0.7
100
AcDbArc
 50
275.0
 51
95.0
  0
ARC
  5
9824
330
9528
100
AcDbEntity
  8
1
  6
Continuous
100
AcDbCircle
 10
285.828331
 20
140.9729659999999
 30
0.0
 40
0.7
100
AcDbArc
 50
95.0
 51
275.0
  0
ARC
  5
9825
330
9528
100
AcDbEntity
  8
1
  6
Continuous
100
AcDbCircle
 10
313.8283309999998
 20
151.331966
 30
0.0
 40
0.7
100
AcDbArc
 50
95.0
 51
275.0
  0
ARC
  5
9826
330
9528
100
AcDbEntity
  8
1
  6
Continuous
100
AcDbCircle
 10
321.928331
 20
152.040966
 30
0.0
 40
0.7
100
AcDbArc
 50
275.0
 51
95.0
  0
ARC
  5
9827
330
9528
100
AcDbEntity
  8
1
  6
Continuous
100
AcDbCircle
 10
321.928331
 20
150.3139659999999
 30
0.0
 40
0.7
100
AcDbArc
 50
275.0
 51
95.0
  0
ARC
  5
9828
330
9528
100
AcDbEntity
  8
1
  6
Continuous
100
AcDbCircle
 10
313.8283309999998
 20
149.605966
 30
0.0
 40
0.7
100
AcDbArc
 50
95.0
 51
275.0
  0
ARC
  5
9829
330
9528
100
AcDbEntity
  8
1
  6
Continuous
100
AcDbCircle
 10
313.8283309999998
 20
147.8789659999999
 30
0.0
 40
0.7
100
AcDbArc
 50
95.0
 51
275.0
  0
ARC
  5
982A
330
9528
100
AcDbEntity
  8
1
  6
Continuous
100
AcDbCircle
 10
321.928331
 20
148.5879659999999
 30
0.0
 40
0.7
100
AcDbArc
 50
275.0
 51
95.0
  0
ARC
  5
982B
330
9528
100
AcDbEntity
  8
1
  6
Continuous
100
AcDbCircle
 10
321.928331
 20
146.860966
 30
0.0
 40
0.7
100
AcDbArc
 50
275.0
 51
95.0
  0
ARC
  5
982C
330
9528
100
AcDbEntity
  8
1
  6
Continuous
100
AcDbCircle
 10
313.8283309999998
 20
146.1529659999999
 30
0.0
 40
0.7
100
AcDbArc
 50
95.0
 51
275.0
  0
ARC
  5
982D
330
9528
100
AcDbEntity
  8
1
  6
Continuous
100
AcDbCircle
 10
313.8283309999998
 20
144.4259659999999
 30
0.0
 40
0.7
100
AcDbArc
 50
95.0
 51
275.0
  0
ARC
  5
982E
330
9528
100
AcDbEntity
  8
1
  6
Continuous
100
AcDbCircle
 10
321.928331
 20
145.1349659999999
 30
0.0
 40
0.7
100
AcDbArc
 50
275.0
 51
95.0
  0
ARC
  5
982F
330
9528
100
AcDbEntity
  8
1
  6
Continuous
100
AcDbCircle
 10
321.928331
 20
143.4079659999999
 30
0.0
 40
0.7
100
AcDbArc
 50
275.0
 51
95.0
  0
ARC
  5
9830
330
9528
100
AcDbEntity
  8
1
  6
Continuous
100
AcDbCircle
 10
313.8283309999998
 20
142.6989659999998
 30
0.0
 40
0.7
100
AcDbArc
 50
95.0
 51
275.0
  0
ARC
  5
9831
330
9528
100
AcDbEntity
  8
1
  6
Continuous
100
AcDbCircle
 10
321.928331
 20
141.680966
 30
0.0
 40
0.7
100
AcDbArc
 50
275.0
 51
95.0
  0
ARC
  5
9832
330
9528
100
AcDbEntity
  8
1
  6
Continuous
100
AcDbCircle
 10
313.8283309999998
 20
140.9729659999999
 30
0.0
 40
0.7
100
AcDbArc
 50
95.0
 51
275.0
  0
ARC
  5
9833
330
9528
100
AcDbEntity
  8
1
  6
Continuous
100
AcDbCircle
 10
365.378331
 20
173.493966
 30
0.0
 40
3.25
100
AcDbArc
 50
90.0
 51
270.0
  0
ARC
  5
9834
330
9528
100
AcDbEntity
  8
1
  6
Continuous
100
AcDbCircle
 10
382.3783309999998
 20
173.493966
 30
0.0
 40
3.25
100
AcDbArc
 50
270.0
 51
90.0
  0
CIRCLE
  5
9835
330
9528
100
AcDbEntity
  8
1
  6
Continuous
100
AcDbCircle
 10
381.878331
 20
173.7439659999998
 30
0.0
 40
1.6
  0
CIRCLE
  5
9836
330
9528
100
AcDbEntity
  8
1
  6
Continuous
100
AcDbCircle
 10
365.878331
 20
173.7439659999998
 30
0.0
 40
1.6
  0
ARC
  5
9837
330
9528
100
AcDbEntity
  8
1
  6
Continuous
100
AcDbCircle
 10
225.878331
 20
164.2439659999998
 30
0.0
 40
3.0
100
AcDbArc
 50
206.1929999999999
 51
0.0
  0
ARC
  5
9838
330
9528
100
AcDbEntity
  8
1
  6
Continuous
100
AcDbCircle
 10
97.878331
 20
164.0789659999998
 30
0.0
 40
1.5
100
AcDbArc
 50
90.0
 51
180.0
  0
ARC
  5
9839
330
9528
100
AcDbEntity
  8
1
  6
Continuous
100
AcDbCircle
 10
109.8783309999999
 20
164.0789659999998
 30
0.0
 40
1.5
100
AcDbArc
 50
0.0
 51
90.0
  0
ARC
  5
983A
330
9528
100
AcDbEntity
  8
1
  6
Continuous
100
AcDbCircle
 10
109.8783309999999
 20
164.743966
 30
0.0
 40
1.5
100
AcDbArc
 50
0.0
 51
90.0
  0
ARC
  5
983B
330
9528
100
AcDbEntity
  8
1
  6
Continuous
100
AcDbCircle
 10
97.878331
 20
164.743966
 30
0.0
 40
1.5
100
AcDbArc
 50
90.0
 51
180.0
  0
ARC
  5
983C
330
9528
100
AcDbEntity
  8
1
  6
Continuous
100
AcDbCircle
 10
95.378331
 20
173.493966
 30
0.0
 40
3.25
100
AcDbArc
 50
90.0
 51
270.0
  0
ARC
  5
983D
330
9528
100
AcDbEntity
  8
1
  6
Continuous
100
AcDbCircle
 10
112.378331
 20
173.493966
 30
0.0
 40
3.25
100
AcDbArc
 50
270.0
 51
90.0
  0
CIRCLE
  5
983E
330
9528
100
AcDbEntity
  8
1
  6
Continuous
100
AcDbCircle
 10
111.8783309999999
 20
173.7439659999998
 30
0.0
 40
1.6
  0
CIRCLE
  5
983F
330
9528
100
AcDbEntity
  8
1
  6
Continuous
100
AcDbCircle
 10
95.878331
 20
173.7439659999998
 30
0.0
 40
1.6
  0
ARC
  5
9840
330
9528
100
AcDbEntity
  8
1
  6
Continuous
100
AcDbCircle
 10
19.877931
 20
252.743966
 30
0.0
 40
4.75
100
AcDbArc
 50
42.5369
 51
71.5915
  0
ARC
  5
9841
330
9528
100
AcDbEntity
  8
1
  6
Continuous
100
AcDbCircle
 10
225.878331
 20
164.2439659999998
 30
0.0
 40
1.5
100
AcDbArc
 50
206.1929999999999
 51
0.0
  0
ARC
  5
9842
330
9528
100
AcDbEntity
  8
1
  6
Continuous
100
AcDbCircle
 10
97.878331
 20
252.243966
 30
0.0
 40
1.5
100
AcDbArc
 50
180.0
 51
270.0
  0
ARC
  5
9843
330
9528
100
AcDbEntity
  8
1
  6
Continuous
100
AcDbCircle
 10
109.8783309999999
 20
252.243966
 30
0.0
 40
1.5
100
AcDbArc
 50
270.0
 51
0.0
  0
ARC
  5
9844
330
9528
100
AcDbEntity
  8
1
  6
Continuous
100
AcDbCircle
 10
97.878331
 20
253.5879659999999
 30
0.0
 40
1.5
100
AcDbArc
 50
180.0
 51
270.0
  0
ARC
  5
9845
330
9528
100
AcDbEntity
  8
1
  6
Continuous
100
AcDbCircle
 10
109.8783309999999
 20
253.5879659999999
 30
0.0
 40
1.5
100
AcDbArc
 50
270.0
 51
0.0
  0
CIRCLE
  5
9846
330
9528
100
AcDbEntity
  8
3
  6
DASHED
100
AcDbCircle
 10
303.8783309999999
 20
128.7439659999998
 30
0.0
 40
3.25
  0
CIRCLE
  5
9847
330
9528
100
AcDbEntity
  8
3
  6
DASHED
100
AcDbCircle
 10
303.8783309999999
 20
117.2439659999999
 30
0.0
 40
3.25
  0
ARC
  5
9848
330
9528
100
AcDbEntity
  8
1
  6
Continuous
100
AcDbCircle
 10
27.127931
 20
248.743966
 30
0.0
 40
1.5
100
AcDbArc
 50
180.0
 51
270.0
  0
ARC
  5
9849
330
9528
100
AcDbEntity
  8
1
  6
Continuous
100
AcDbCircle
 10
40.62793099999999
 20
248.743966
 30
0.0
 40
1.5
100
AcDbArc
 50
270.0
 51
0.0
  0
ARC
  5
984A
330
9528
100
AcDbEntity
  8
1
  6
Continuous
100
AcDbCircle
 10
27.127931
 20
50.74356599999997
 30
0.0
 40
1.5
100
AcDbArc
 50
90.0
 51
180.0
  0
ARC
  5
984B
330
9528
100
AcDbEntity
  8
1
  6
Continuous
100
AcDbCircle
 10
40.628031
 20
50.74356599999997
 30
0.0
 40
1.5
100
AcDbArc
 50
0.0
 51
90.0
  0
LINE
  5
984C
330
9528
100
AcDbEntity
  8
1
  6
Continuous
100
AcDbLine
 10
44.378031
 20
43.532149
 30
0.0
 11
44.378031
 21
42.24356599999999
 31
0.0
  0
LINE
  5
984D
330
9528
100
AcDbEntity
  8
1
  6
Continuous
100
AcDbLine
 10
23.377931
 20
43.53225799999999
 30
0.0
 11
23.377931
 21
42.24356599999999
 31
0.0
  0
LINE
  5
984E
330
9528
100
AcDbEntity
  8
4
  6
CENTER
100
AcDbLine
 10
111.8783309999999
 20
259.976901
 30
0.0
 11
111.8783309999999
 21
253.886915
 31
0.0
  0
LINE
  5
984F
330
9528
100
AcDbEntity
  8
4
  6
CENTER
100
AcDbLine
 10
95.878331
 20
259.976901
 30
0.0
 11
95.878331
 21
253.886915
 31
0.0
  0
ENDSEC
  0
SECTION
  2
OBJECTS
  0
DICTIONARY
  5
9516
330
0
100
AcDbDictionary
281
     1
  3
ACAD_CIP_PREVIOUS_PRODUCT_INFO
350
98B3
  3
ACAD_COLOR
350
9895
  3
ACAD_DETAILVIEWSTYLE
350
98AE
  3
ACAD_GROUP
350
9517
  3
ACAD_LAYOUT
350
9523
  3
ACAD_MATERIAL
350
9863
  3
ACAD_MLEADERSTYLE
350
98AA
  3
ACAD_MLINESTYLE
350
9520
  3
ACAD_PLOTSETTINGS
350
9522
  3
ACAD_PLOTSTYLENAME
350
9861
  3
ACAD_SCALELIST
350
9898
  3
ACAD_SECTIONVIEWSTYLE
350
98AC
  3
ACAD_TABLESTYLE
350
9896
  3
ACAD_VISUALSTYLE
350
987C
  3
ACDB_RECOMPOSE_DATA
350
98D1
  3
AcDbVariableDictionary
350
98C4
  3
DWGPROPS
350
98D2
  0
DICTIONARY
  5
98B4
330
951A
100
AcDbDictionary
280
     1
281
     1
  3
ADSK_XREC_LAYER_RECONCILED
360
98B5
  0
DICTIONARY
  5
98B6
330
9530
100
AcDbDictionary
280
     1
281
     1
  3
ADSK_XREC_LAYER_RECONCILED
360
98B7
  0
DICTIONARY
  5
98B8
330
9531
100
AcDbDictionary
280
     1
281
     1
  3
ADSK_XREC_LAYER_RECONCILED
360
98B9
  0
DICTIONARY
  5
98BA
330
9532
100
AcDbDictionary
280
     1
281
     1
  3
ADSK_XREC_LAYER_RECONCILED
360
98BB
  0
DICTIONARY
  5
98BC
330
9533
100
AcDbDictionary
280
     1
281
     1
  3
ADSK_XREC_LAYER_RECONCILED
360
98BD
  0
DICTIONARY
  5
98BE
330
9534
100
AcDbDictionary
280
     1
281
     1
  3
ADSK_XREC_LAYER_RECONCILED
360
98BF
  0
DICTIONARY
  5
98C0
330
9535
100
AcDbDictionary
280
     1
281
     1
  3
ADSK_XREC_LAYER_RECONCILED
360
98C1
  0
DICTIONARY
  5
98C2
330
9536
100
AcDbDictionary
280
     1
281
     1
  3
ADSK_XREC_LAYER_RECONCILED
360
98C3
  0
DICTIONARY
  5
985C
330
9528
100
AcDbDictionary
281
     1
  3
ACAD_LAYOUTSELFREF
350
985D
  0
DICTIONARY
  5
985A
330
9524
100
AcDbDictionary
281
     1
  3
ACAD_LAYOUTSELFREF
350
985B
  0
XRECORD
  5
98B3
102
{ACAD_REACTORS
330
9516
102
}
330
9516
100
AcDbXrecord
280
     1
300
ACDLT
300
2014
300
ACDLT_F_S
  0
DICTIONARY
  5
9895
102
{ACAD_REACTORS
330
9516
102
}
330
9516
100
AcDbDictionary
281
     1
  0
DICTIONARY
  5
98AE
102
{ACAD_REACTORS
330
9516
102
}
330
9516
100
AcDbDictionary
281
     1
  3
Imperial24
350
98AF
  0
DICTIONARY
  5
9517
102
{ACAD_REACTORS
330
9516
102
}
330
9516
100
AcDbDictionary
281
     1
  0
DICTIONARY
  5
9523
102
{ACAD_REACTORS
330
9516
102
}
330
9516
100
AcDbDictionary
281
     1
  3
Model
350
98B0
  3
レイアウト1
350
98B1
  0
DICTIONARY
  5
9863
102
{ACAD_REACTORS
330
9516
102
}
330
9516
100
AcDbDictionary
281
     1
  3
ByBlock
350
986C
  3
ByLayer
350
9864
  3
Global
350
9874
  0
DICTIONARY
  5
98AA
102
{ACAD_REACTORS
330
9516
102
}
330
9516
100
AcDbDictionary
281
     1
  3
Standard
350
98AB
  0
DICTIONARY
  5
9520
102
{ACAD_REACTORS
330
9516
102
}
330
9516
100
AcDbDictionary
281
     1
  3
STANDARD
350
9521
  0
DICTIONARY
  5
9522
102
{ACAD_REACTORS
330
9516
102
}
330
9516
100
AcDbDictionary
281
     1
  0
ACDBDICTIONARYWDFLT
  5
9861
102
{ACAD_REACTORS
330
9516
102
}
330
9516
100
AcDbDictionary
281
     1
  3
Normal
350
9862
100
AcDbDictionaryWithDefault
340
9862
  0
DICTIONARY
  5
9898
102
{ACAD_REACTORS
330
9516
102
}
330
9516
100
AcDbDictionary
281
     1
  3
A0
350
9899
  3
A1
350
989A
  3
A2
350
989B
  3
A3
350
989C
  3
A4
350
989D
  3
A5
350
989E
  3
A6
350
989F
  3
A7
350
98A0
  3
A8
350
98A1
  3
A9
350
98A2
  3
B0
350
98A3
  3
B1
350
98A4
  3
B2
350
98A5
  3
B3
350
98A6
  3
B4
350
98A7
  3
B5
350
98A8
  3
B6
350
98A9
  0
DICTIONARY
  5
98AC
102
{ACAD_REACTORS
330
9516
102
}
330
9516
100
AcDbDictionary
281
     1
  3
Imperial24
350
98AD
  0
DICTIONARY
  5
9896
102
{ACAD_REACTORS
330
9516
102
}
330
9516
100
AcDbDictionary
281
     1
  3
Standard
350
9897
  0
DICTIONARY
  5
987C
102
{ACAD_REACTORS
330
9516
102
}
330
9516
100
AcDbDictionary
281
     1
  3
2dWireframe
350
9882
  3
Basic
350
9881
  3
Brighten
350
9888
  3
ColorChange
350
988C
  3
Conceptual
350
9885
  3
Dim
350
9887
  3
EdgeColorOff
350
9894
  3
Facepattern
350
988B
  3
Flat
350
987D
  3
FlatWithEdges
350
987E
  3
Gouraud
350
987F
  3
GouraudWithEdges
350
9880
  3
Hidden
350
9884
  3
JitterOff
350
9892
  3
Linepattern
350
988A
  3
OverhangOff
350
9893
  3
Realistic
350
9886
  3
Shaded
350
9891
  3
Shaded with edges
350
9890
  3
Shades of Gray
350
988D
  3
Sketchy
350
988E
  3
Thicken
350
9889
  3
Wireframe
350
9883
  3
X-Ray
350
988F
  0
XRECORD
  5
98D1
102
{ACAD_REACTORS
330
9516
102
}
330
9516
100
AcDbXrecord
280
     1
 90
        1
330
9897
  0
DICTIONARY
  5
98C4
102
{ACAD_REACTORS
330
9516
102
}
330
9516
100
AcDbDictionary
281
     1
  3
CANNOSCALE
350
98C9
  3
CMLEADERSTYLE
350
98C6
  3
CTABLESTYLE
350
98C5
  3
CVIEWDETAILSTYLE
350
98C7
  3
CVIEWSECTIONSTYLE
350
98C8
  3
DIMASSOC
350
98CC
  3
INDEXCTL
350
98CB
  3
SORTENTS
350
98CA
  3
XCLIPFRAME
350
98CD
  0
XRECORD
  5
98D2
102
{ACAD_REACTORS
330
9516
102
}
330
9516
100
AcDbXrecord
280
     1
  1
DWGPROPS COOKIE
  2

  3

  4

  6

  7

  8
Yoshitsune
  9

300
=
301
=
302
=
303
=
304
=
305
=
306
=
307
=
308
=
309
=
 40
0.0000153587962963
 41
2451066.408574422
 42
2457192.598558426
  1

 90
        0
  0
XRECORD
  5
98B5
102
{ACAD_REACTORS
330
98B4
102
}
330
98B4
100
AcDbXrecord
280
     1
290
     1
  0
XRECORD
  5
98B7
102
{ACAD_REACTORS
330
98B6
102
}
330
98B6
100
AcDbXrecord
280
     1
290
     1
  0
XRECORD
  5
98B9
102
{ACAD_REACTORS
330
98B8
102
}
330
98B8
100
AcDbXrecord
280
     1
290
     1
  0
XRECORD
  5
98BB
102
{ACAD_REACTORS
330
98BA
102
}
330
98BA
100
AcDbXrecord
280
     1
290
     1
  0
XRECORD
  5
98BD
102
{ACAD_REACTORS
330
98BC
102
}
330
98BC
100
AcDbXrecord
280
     1
290
     1
  0
XRECORD
  5
98BF
102
{ACAD_REACTORS
330
98BE
102
}
330
98BE
100
AcDbXrecord
280
     1
290
     1
  0
XRECORD
  5
98C1
102
{ACAD_REACTORS
330
98C0
102
}
330
98C0
100
AcDbXrecord
280
     1
290
     1
  0
XRECORD
  5
98C3
102
{ACAD_REACTORS
330
98C2
102
}
330
98C2
100
AcDbXrecord
280
     1
290
     1
  0
XRECORD
  5
985D
102
{ACAD_REACTORS
330
985C
102
}
330
985C
100
AcDbXrecord
280
     1
340
9528
  0
XRECORD
  5
985B
102
{ACAD_REACTORS
330
985A
102
}
330
985A
100
AcDbXrecord
280
     1
340
9524
  0
ACDBDETAILVIEWSTYLE
  5
98AF
102
{ACAD_XDICTIONARY
360
990A
102
}
102
{ACAD_REACTORS
330
98AE
102
}
330
98AE
100
AcDbModelDocViewStyle
 70
     0
  3
Imperial24
290
     0
100
AcDbDetailViewStyle
 70
     0
 71
     0
 90
        3
 71
     1
340
951B
 40
0.24
340
0
 40
0.24
300

 40
0.36
280
     3
 71
     2
340
951F
 90
       25
 71
     3
340
951B
 40
0.24
 90
        1
 40
0.75
 90
        1
300
%<\AcVar ViewType \f "%tc1">% %<\AcVar ViewDetailId>%\PSCALE %<\AcVar ViewScale \f "%sn">%
 71
     4
340
951F
 90
       25
340
951F
 90
       25
280
     0
  0
LAYOUT
  5
98B0
102
{ACAD_XDICTIONARY
360
990C
102
}
102
{ACAD_REACTORS
330
9523
102
}
330
9523
100
AcDbPlotSettings
  1

  2
Canon LBP9100C
  4

  6

 40
0.0
 41
0.0
 42
0.0
 43
0.0
 44
0.0
 45
0.0
 46
0.0
 47
0.0
 48
0.0
 49
0.0
140
0.0
141
0.0
142
1.0
143
1.0
 70
  1712
 72
     0
 73
     0
 74
     0
  7

 75
     0
147
1.0
148
0.0
149
0.0
100
AcDbLayout
  1
Model
 70
     1
 71
     0
 10
0.0
 20
0.0
 11
12.0
 21
9.0
 12
0.0
 22
0.0
 32
0.0
 14
0.0
 24
0.0
 34
0.0
 15
0.0
 25
0.0
 35
0.0
146
0.0
 13
0.0
 23
0.0
 33
0.0
 16
1.0
 26
0.0
 36
0.0
 17
0.0
 27
1.0
 37
0.0
 76
     0
330
9528
331
9859
  0
LAYOUT
  5
98B1
102
{ACAD_XDICTIONARY
360
990E
102
}
102
{ACAD_REACTORS
330
9523
102
}
330
9523
100
AcDbPlotSettings
  1

  2
Canon LBP9100C
  4

  6

 40
0.0
 41
0.0
 42
0.0
 43
0.0
 44
0.0
 45
0.0
 46
0.0
 47
0.0
 48
0.0
 49
0.0
140
0.0
141
0.0
142
1.0
143
1.0
 70
   688
 72
     0
 73
     0
 74
     5
  7

 75
    16
147
1.0
148
0.0
149
0.0
100
AcDbLayout
  1
レイアウト1
 70
     0
 71
     1
 10
0.0
 20
0.0
 11
420.0
 21
297.0
 12
0.0
 22
0.0
 32
0.0
 14
1.000000000000000E+20
 24
1.000000000000000E+20
 34
1.000000000000000E+20
 15
-1.000000000000000E+20
 25
-1.000000000000000E+20
 35
-1.000000000000000E+20
146
0.0
 13
0.0
 23
0.0
 33
0.0
 16
1.0
 26
0.0
 36
0.0
 17
0.0
 27
1.0
 37
0.0
 76
     0
330
9524
  0
MATERIAL
  5
986C
102
{ACAD_XDICTIONARY
360
986D
102
}
102
{ACAD_REACTORS
330
9863
102
}
330
9863
100
AcDbMaterial
  1
ByBlock
 72
     0
 43
0.0208333333333333
 43
0.0
 43
0.0
 43
0.0
 43
0.0
 43
0.0208333333333333
 43
0.0
 43
0.0
 43
0.0
 43
0.0
 43
1.0
 43
0.0
 43
0.0
 43
0.0
 43
0.0
 43
1.0
 77
     0
 47
0.0208333333333333
 47
0.0
 47
0.0
 47
0.0
 47
0.0
 47
0.0208333333333333
 47
0.0
 47
0.0
 47
0.0
 47
0.0
 47
1.0
 47
0.0
 47
0.0
 47
0.0
 47
0.0
 47
1.0
171
     0
 49
0.0208333333333333
 49
0.0
 49
0.0
 49
0.0
 49
0.0
 49
0.0208333333333333
 49
0.0
 49
0.0
 49
0.0
 49
0.0
 49
1.0
 49
0.0
 49
0.0
 49
0.0
 49
0.0
 49
1.0
175
     0
142
0.0208333333333333
142
0.0
142
0.0
142
0.0
142
0.0
142
0.0208333333333333
142
0.0
142
0.0
142
0.0
142
0.0
142
1.0
142
0.0
142
0.0
142
0.0
142
0.0
142
1.0
179
     0
144
0.0208333333333333
144
0.0
144
0.0
144
0.0
144
0.0
144
0.0208333333333333
144
0.0
144
0.0
144
0.0
144
0.0
144
1.0
144
0.0
144
0.0
144
0.0
144
0.0
144
1.0
147
0.0208333333333333
147
0.0
147
0.0
147
0.0
147
0.0
147
0.0208333333333333
147
0.0
147
0.0
147
0.0
147
0.0
147
1.0
147
0.0
147
0.0
147
0.0
147
0.0
147
1.0
  0
MATERIAL
  5
9864
102
{ACAD_XDICTIONARY
360
9865
102
}
102
{ACAD_REACTORS
330
9863
102
}
330
9863
100
AcDbMaterial
  1
ByLayer
 72
     0
 43
0.0208333333333333
 43
0.0
 43
0.0
 43
0.0
 43
0.0
 43
0.0208333333333333
 43
0.0
 43
0.0
 43
0.0
 43
0.0
 43
1.0
 43
0.0
 43
0.0
 43
0.0
 43
0.0
 43
1.0
 77
     0
 47
0.0208333333333333
 47
0.0
 47
0.0
 47
0.0
 47
0.0
 47
0.0208333333333333
 47
0.0
 47
0.0
 47
0.0
 47
0.0
 47
1.0
 47
0.0
 47
0.0
 47
0.0
 47
0.0
 47
1.0
171
     0
 49
0.0208333333333333
 49
0.0
 49
0.0
 49
0.0
 49
0.0
 49
0.0208333333333333
 49
0.0
 49
0.0
 49
0.0
 49
0.0
 49
1.0
 49
0.0
 49
0.0
 49
0.0
 49
0.0
 49
1.0
175
     0
142
0.0208333333333333
142
0.0
142
0.0
142
0.0
142
0.0
142
0.0208333333333333
142
0.0
142
0.0
142
0.0
142
0.0
142
1.0
142
0.0
142
0.0
142
0.0
142
0.0
142
1.0
179
     0
144
0.0208333333333333
144
0.0
144
0.0
144
0.0
144
0.0
144
0.0208333333333333
144
0.0
144
0.0
144
0.0
144
0.0
144
1.0
144
0.0
144
0.0
144
0.0
144
0.0
144
1.0
147
0.0208333333333333
147
0.0
147
0.0
147
0.0
147
0.0
147
0.0208333333333333
147
0.0
147
0.0
147
0.0
147
0.0
147
1.0
147
0.0
147
0.0
147
0.0
147
0.0
147
1.0
  0
MATERIAL
  5
9874
102
{ACAD_XDICTIONARY
360
9875
102
}
102
{ACAD_REACTORS
330
9863
102
}
330
9863
100
AcDbMaterial
  1
Global
 72
     0
 43
0.0208333333333333
 43
0.0
 43
0.0
 43
0.0
 43
0.0
 43
0.0208333333333333
 43
0.0
 43
0.0
 43
0.0
 43
0.0
 43
1.0
 43
0.0
 43
0.0
 43
0.0
 43
0.0
 43
1.0
 77
     0
 47
0.0208333333333333
 47
0.0
 47
0.0
 47
0.0
 47
0.0
 47
0.0208333333333333
 47
0.0
 47
0.0
 47
0.0
 47
0.0
 47
1.0
 47
0.0
 47
0.0
 47
0.0
 47
0.0
 47
1.0
171
     0
 49
0.0208333333333333
 49
0.0
 49
0.0
 49
0.0
 49
0.0
 49
0.0208333333333333
 49
0.0
 49
0.0
 49
0.0
 49
0.0
 49
1.0
 49
0.0
 49
0.0
 49
0.0
 49
0.0
 49
1.0
175
     0
142
0.0208333333333333
142
0.0
142
0.0
142
0.0
142
0.0
142
0.0208333333333333
142
0.0
142
0.0
142
0.0
142
0.0
142
1.0
142
0.0
142
0.0
142
0.0
142
0.0
142
1.0
179
     0
144
0.0208333333333333
144
0.0
144
0.0
144
0.0
144
0.0
144
0.0208333333333333
144
0.0
144
0.0
144
0.0
144
0.0
144
1.0
144
0.0
144
0.0
144
0.0
144
0.0
144
1.0
147
0.0208333333333333
147
0.0
147
0.0
147
0.0
147
0.0
147
0.0208333333333333
147
0.0
147
0.0
147
0.0
147
0.0
147
1.0
147
0.0
147
0.0
147
0.0
147
0.0
147
1.0
  0
MLEADERSTYLE
  5
98AB
102
{ACAD_REACTORS
330
98AA
102
}
330
98AA
100
AcDbMLeaderStyle
170
     2
171
     1
172
     0
 90
        2
 40
0.0
 41
0.0
173
     1
 91
-1056964608
340
951D
 92
       -2
290
     1
 42
0.09
291
     1
 43
0.36
  3
Standard
 44
0.18
300

342
951B
174
     1
178
     6
175
     1
176
     0
 93
-1056964608
 45
0.18
292
     0
297
     0
 46
0.18
 94
-1056964608
 47
1.0
 49
1.0
140
1.0
293
     1
141
0.0
294
     1
177
     0
142
1.0
295
     0
296
     0
143
0.125
1001
ACAD_MLEADERVER
1070
     2
  0
MLINESTYLE
  5
9521
102
{ACAD_REACTORS
330
9520
102
}
330
9520
100
AcDbMlineStyle
  2
STANDARD
 70
     0
  3

 62
   256
 51
90.0
 52
90.0
 71
     2
 49
0.5
 62
   256
  6
BYLAYER
 49
-0.5
 62
   256
  6
BYLAYER
  0
ACDBPLACEHOLDER
  5
9862
102
{ACAD_REACTORS
330
9861
102
}
330
9861
  0
SCALE
  5
9899
102
{ACAD_REACTORS
330
9898
102
}
330
9898
100
AcDbScale
 70
     0
300
1:1
140
1.0
141
1.0
290
     1
  0
SCALE
  5
989A
102
{ACAD_REACTORS
330
9898
102
}
330
9898
100
AcDbScale
 70
     0
300
1/128" = 1'-0"
140
0.0078125
141
12.0
290
     0
  0
SCALE
  5
989B
102
{ACAD_REACTORS
330
9898
102
}
330
9898
100
AcDbScale
 70
     0
300
1/64" = 1'-0"
140
0.015625
141
12.0
290
     0
  0
SCALE
  5
989C
102
{ACAD_REACTORS
330
9898
102
}
330
9898
100
AcDbScale
 70
     0
300
1/32" = 1'-0"
140
0.03125
141
12.0
290
     0
  0
SCALE
  5
989D
102
{ACAD_REACTORS
330
9898
102
}
330
9898
100
AcDbScale
 70
     0
300
1/16" = 1'-0"
140
0.0625
141
12.0
290
     0
  0
SCALE
  5
989E
102
{ACAD_REACTORS
330
9898
102
}
330
9898
100
AcDbScale
 70
     0
300
3/32" = 1'-0"
140
0.09375
141
12.0
290
     0
  0
SCALE
  5
989F
102
{ACAD_REACTORS
330
9898
102
}
330
9898
100
AcDbScale
 70
     0
300
1/8" = 1'-0"
140
0.125
141
12.0
290
     0
  0
SCALE
  5
98A0
102
{ACAD_REACTORS
330
9898
102
}
330
9898
100
AcDbScale
 70
     0
300
3/16" = 1'-0"
140
0.1875
141
12.0
290
     0
  0
SCALE
  5
98A1
102
{ACAD_REACTORS
330
9898
102
}
330
9898
100
AcDbScale
 70
     0
300
1/4" = 1'-0"
140
0.25
141
12.0
290
     0
  0
SCALE
  5
98A2
102
{ACAD_REACTORS
330
9898
102
}
330
9898
100
AcDbScale
 70
     0
300
3/8" = 1'-0"
140
0.375
141
12.0
290
     0
  0
SCALE
  5
98A3
102
{ACAD_REACTORS
330
9898
102
}
330
9898
100
AcDbScale
 70
     0
300
1/2" = 1'-0"
140
0.5
141
12.0
290
     0
  0
SCALE
  5
98A4
102
{ACAD_REACTORS
330
9898
102
}
330
9898
100
AcDbScale
 70
     0
300
3/4" = 1'-0"
140
0.75
141
12.0
290
     0
  0
SCALE
  5
98A5
102
{ACAD_REACTORS
330
9898
102
}
330
9898
100
AcDbScale
 70
     0
300
1" = 1'-0"
140
1.0
141
12.0
290
     0
  0
SCALE
  5
98A6
102
{ACAD_REACTORS
330
9898
102
}
330
9898
100
AcDbScale
 70
     0
300
1-1/2" = 1'-0"
140
1.5
141
12.0
290
     0
  0
SCALE
  5
98A7
102
{ACAD_REACTORS
330
9898
102
}
330
9898
100
AcDbScale
 70
     0
300
3" = 1'-0"
140
3.0
141
12.0
290
     0
  0
SCALE
  5
98A8
102
{ACAD_REACTORS
330
9898
102
}
330
9898
100
AcDbScale
 70
     0
300
6" = 1'-0"
140
6.0
141
12.0
290
     0
  0
SCALE
  5
98A9
102
{ACAD_REACTORS
330
9898
102
}
330
9898
100
AcDbScale
 70
     0
300
1'-0" = 1'-0"
140
12.0
141
12.0
290
     0
  0
ACDBSECTIONVIEWSTYLE
  5
98AD
102
{ACAD_XDICTIONARY
360
9908
102
}
102
{ACAD_REACTORS
330
98AC
102
}
330
98AC
100
AcDbModelDocViewStyle
 70
     0
  3
Imperial24
290
     0
100
AcDbSectionViewStyle
 70
     0
 71
     0
 90
       78
 71
     1
340
951B
 40
0.24
340
0
340
0
 40
0.24
300
I, O, Q, S, X, Z
 40
0.48
 90
        3
 40
0.18
 90
        1
 71
     2
340
951F
 90
       25
340
951F
 90
       50
 40
0.24
 40
0.0
 40
0.24
 71
     3
340
951B
 40
0.24
 90
        1
 40
0.75
 90
        1
300
%<\AcVar ViewType \f "%tc1">% %<\AcVar ViewSectionStartId>%-%<\AcVar ViewSectionEndId>%\PSCALE %<\AcVar ViewScale \f "%sn">%
 71
     4
300
ANSI31
 40
1.0
 90
        0
290
     0
290
     0
 90
        6
 40
0.0
 40
1.570796326794896
 40
0.2617993877991494
 40
1.308996938995747
 40
-0.2617993877991494
 40
1.832595714594046
  0
TABLESTYLE
  5
9897
102
{ACAD_XDICTIONARY
360
98CF
102
}
102
{ACAD_REACTORS
330
9896
102
}
330
9896
100
AcDbTableStyle
  3
Standard
 70
     0
 71
     0
 40
0.06
 41
0.06
280
     0
281
     0
  7
STANDARD
140
0.18
170
     2
 62
     0
 63
     7
283
     0
274
    -2
284
     1
 64
     0
275
    -2
285
     1
 65
     0
276
    -2
286
     1
 66
     0
277
    -2
287
     1
 67
     0
278
    -2
288
     1
 68
     0
279
    -2
289
     1
 69
     0
  7
STANDARD
140
0.25
170
     5
 62
     0
 63
     7
283
     0
274
    -2
284
     1
 64
     0
275
    -2
285
     1
 65
     0
276
    -2
286
     1
 66
     0
277
    -2
287
     1
 67
     0
278
    -2
288
     1
 68
     0
279
    -2
289
     1
 69
     0
  7
STANDARD
140
0.18
170
     5
 62
     0
 63
     7
283
     0
274
    -2
284
     1
 64
     0
275
    -2
285
     1
 65
     0
276
    -2
286
     1
 66
     0
277
    -2
287
     1
 67
     0
278
    -2
288
     1
 68
     0
279
    -2
289
     1
 69
     0
  0
VISUALSTYLE
  5
9882
102
{ACAD_XDICTIONARY
360
98E0
102
}
102
{ACAD_REACTORS
330
987C
102
}
330
987C
100
AcDbVisualStyle
  2
2dWireframe
 70
     4
 71
     0
 72
     2
 73
     0
 90
        0
 40
-0.6
 41
-30.0
 62
     5
 63
     7
 74
     1
 91
        4
 64
     7
 65
   257
 75
     1
175
     1
 42
1.0
 92
        0
 66
   257
 43
1.0
 76
     1
 77
     6
 78
     2
 67
     7
 79
     5
170
     0
171
     0
290
     0
174
     0
 93
        1
 44
0.0
173
     0
291
     0
 45
0.0
1001
ACAD
1000
AcDbSavedByObjectVersion
1070
     0
  0
VISUALSTYLE
  5
9881
102
{ACAD_XDICTIONARY
360
98DE
102
}
102
{ACAD_REACTORS
330
987C
102
}
330
987C
100
AcDbVisualStyle
  2
Basic
 70
     7
 71
     1
 72
     0
 73
     1
 90
        0
 40
-0.6
 41
-30.0
 62
     5
 63
     7
 74
     0
 91
        4
 64
     7
 65
   257
 75
     1
175
     1
 42
1.0
 92
        8
 66
     7
 43
1.0
 76
     1
 77
     6
 78
     2
 67
     7
 79
     5
170
     0
171
     0
290
     0
174
     0
 93
        1
 44
0.0
173
     0
291
     1
 45
0.0
1001
ACAD
1000
AcDbSavedByObjectVersion
1070
     0
  0
VISUALSTYLE
  5
9888
102
{ACAD_XDICTIONARY
360
98EC
102
}
102
{ACAD_REACTORS
330
987C
102
}
330
987C
100
AcDbVisualStyle
  2
Brighten
 70
    12
 71
     2
 72
     2
 73
     0
 90
        0
 40
-0.6
 41
-30.0
 62
     5
 63
     7
 74
     1
 91
        4
 64
     7
 65
   257
 75
     1
175
     1
 42
1.0
 92
        8
 66
     7
 43
1.0
 76
     1
 77
     6
 78
     2
 67
     7
 79
     5
170
     0
171
     0
290
     0
174
     0
 93
        1
 44
50.0
173
     0
291
     1
 45
0.0
1001
ACAD
1000
AcDbSavedByObjectVersion
1070
     0
  0
VISUALSTYLE
  5
988C
102
{ACAD_XDICTIONARY
360
98F4
102
}
102
{ACAD_REACTORS
330
987C
102
}
330
987C
100
AcDbVisualStyle
  2
ColorChange
 70
    16
 71
     2
 72
     2
 73
     3
 90
        0
 40
-0.6
 41
-30.0
 62
     5
 63
     8
 74
     1
 91
        4
 64
     7
 65
   257
 75
     1
175
     1
 42
1.0
 92
        8
 66
     8
 43
1.0
 76
     1
 77
     6
 78
     2
 67
     7
 79
     5
170
     0
171
     0
290
     0
174
     0
 93
        1
 44
0.0
173
     0
291
     1
 45
0.0
1001
ACAD
1000
AcDbSavedByObjectVersion
1070
     0
  0
VISUALSTYLE
  5
9885
102
{ACAD_XDICTIONARY
360
98E6
102
}
102
{ACAD_REACTORS
330
987C
102
}
330
987C
100
AcDbVisualStyle
  2
Conceptual
 70
     9
 71
     3
 72
     2
 73
     0
 90
        0
 40
-0.6
 41
-30.0
 62
     5
 63
     7
 74
     2
 91
        2
 64
     7
 65
   257
 75
     1
175
     1
 42
179.0
 92
        8
 66
     7
 43
1.0
 76
     1
 77
     6
 78
     2
 67
     7
 79
     3
170
     0
171
     0
290
     0
174
     0
 93
        1
 44
0.0
173
     0
291
     0
 45
0.0
1001
ACAD
1000
AcDbSavedByObjectVersion
1070
     0
  0
VISUALSTYLE
  5
9887
102
{ACAD_XDICTIONARY
360
98EA
102
}
102
{ACAD_REACTORS
330
987C
102
}
330
987C
100
AcDbVisualStyle
  2
Dim
 70
    11
 71
     2
 72
     2
 73
     0
 90
        0
 40
-0.6
 41
-30.0
 62
     5
 63
     7
 74
     1
 91
        4
 64
     7
 65
   257
 75
     1
175
     1
 42
1.0
 92
        8
 66
     7
 43
1.0
 76
     1
 77
     6
 78
     2
 67
     7
 79
     5
170
     0
171
     0
290
     0
174
     0
 93
        1
 44
-50.0
173
     0
291
     1
 45
0.0
1001
ACAD
1000
AcDbSavedByObjectVersion
1070
     0
  0
VISUALSTYLE
  5
9894
102
{ACAD_XDICTIONARY
360
9904
102
}
102
{ACAD_REACTORS
330
987C
102
}
330
987C
100
AcDbVisualStyle
  2
EdgeColorOff
 70
    22
 71
     2
 72
     2
 73
     0
 90
        0
 40
-0.6
 41
-30.0
 62
     5
 63
     7
 74
     1
 91
        4
 64
     7
 65
   257
 75
     1
175
     1
 42
1.0
 92
        8
 66
     7
 43
1.0
 76
     1
 77
     6
 78
     2
 67
     7
 79
     5
170
     0
171
     0
290
     0
174
     0
 93
        1
 44
0.0
173
     0
291
     1
 45
0.0
1001
ACAD
1000
AcDbSavedByObjectVersion
1070
     0
  0
VISUALSTYLE
  5
988B
102
{ACAD_XDICTIONARY
360
98F2
102
}
102
{ACAD_REACTORS
330
987C
102
}
330
987C
100
AcDbVisualStyle
  2
Facepattern
 70
    15
 71
     2
 72
     2
 73
     0
 90
        0
 40
-0.6
 41
-30.0
 62
     5
 63
     7
 74
     1
 91
        4
 64
     7
 65
   257
 75
     1
175
     1
 42
1.0
 92
        8
 66
     7
 43
1.0
 76
     1
 77
     6
 78
     2
 67
     7
 79
     5
170
     0
171
     0
290
     0
174
     0
 93
        1
 44
0.0
173
     0
291
     1
 45
0.0
1001
ACAD
1000
AcDbSavedByObjectVersion
1070
     0
  0
VISUALSTYLE
  5
987D
102
{ACAD_XDICTIONARY
360
98D6
102
}
102
{ACAD_REACTORS
330
987C
102
}
330
987C
100
AcDbVisualStyle
  2
Flat
 70
     0
 71
     2
 72
     1
 73
     1
 90
        2
 40
-0.6
 41
30.0
 62
     5
 63
     7
 74
     0
 91
        0
 64
     7
 65
   257
 75
     1
175
     1
 42
1.0
 92
        8
 66
     7
 43
1.0
 76
     1
 77
     6
 78
     2
 67
     7
 79
     5
170
     0
171
     0
290
     0
174
     0
 93
       13
 44
0.0
173
     0
291
     1
 45
0.0
1001
ACAD
1000
AcDbSavedByObjectVersion
1070
     0
  0
VISUALSTYLE
  5
987E
102
{ACAD_XDICTIONARY
360
98D8
102
}
102
{ACAD_REACTORS
330
987C
102
}
330
987C
100
AcDbVisualStyle
  2
FlatWithEdges
 70
     1
 71
     2
 72
     1
 73
     1
 90
        2
 40
-0.6
 41
30.0
 62
     5
 63
     7
 74
     1
 91
        0
 64
     7
 65
   257
 75
     1
175
     1
 42
1.0
 92
        0
 66
   257
 43
1.0
 76
     1
 77
     6
 78
     2
 67
     7
 79
     5
170
     0
171
     0
290
     0
174
     0
 93
       13
 44
0.0
173
     0
291
     1
 45
0.0
1001
ACAD
1000
AcDbSavedByObjectVersion
1070
     0
  0
VISUALSTYLE
  5
987F
102
{ACAD_XDICTIONARY
360
98DA
102
}
102
{ACAD_REACTORS
330
987C
102
}
330
987C
100
AcDbVisualStyle
  2
Gouraud
 70
     2
 71
     2
 72
     2
 73
     1
 90
        2
 40
-0.6
 41
30.0
 62
     5
 63
     7
 74
     0
 91
        0
 64
     7
 65
   257
 75
     1
175
     1
 42
1.0
 92
        0
 66
     7
 43
1.0
 76
     1
 77
     6
 78
     2
 67
     7
 79
     5
170
     0
171
     0
290
     0
174
     0
 93
       13
 44
0.0
173
     0
291
     1
 45
0.0
1001
ACAD
1000
AcDbSavedByObjectVersion
1070
     0
  0
VISUALSTYLE
  5
9880
102
{ACAD_XDICTIONARY
360
98DC
102
}
102
{ACAD_REACTORS
330
987C
102
}
330
987C
100
AcDbVisualStyle
  2
GouraudWithEdges
 70
     3
 71
     2
 72
     2
 73
     1
 90
        2
 40
-0.6
 41
30.0
 62
     5
 63
     7
 74
     1
 91
        0
 64
     7
 65
   257
 75
     1
175
     1
 42
1.0
 92
        0
 66
   257
 43
1.0
 76
     1
 77
     6
 78
     2
 67
     7
 79
     5
170
     0
171
     0
290
     0
174
     0
 93
       13
 44
0.0
173
     0
291
     1
 45
0.0
1001
ACAD
1000
AcDbSavedByObjectVersion
1070
     0
  0
VISUALSTYLE
  5
9884
102
{ACAD_XDICTIONARY
360
98E4
102
}
102
{ACAD_REACTORS
330
987C
102
}
330
987C
100
AcDbVisualStyle
  2
Hidden
 70
     6
 71
     1
 72
     2
 73
     2
 90
        0
 40
-0.6
 41
-30.0
 62
     5
 63
     7
 74
     2
 91
        2
 64
     7
 65
   257
 75
     2
175
     1
 42
40.0
 92
        0
 66
   257
 43
1.0
 76
     1
 77
     6
 78
     2
 67
     7
 79
     3
170
     0
171
     0
290
     0
174
     0
 93
        1
 44
0.0
173
     0
291
     0
 45
0.0
1001
ACAD
1000
AcDbSavedByObjectVersion
1070
     0
  0
VISUALSTYLE
  5
9892
102
{ACAD_XDICTIONARY
360
9900
102
}
102
{ACAD_REACTORS
330
987C
102
}
330
987C
100
AcDbVisualStyle
  2
JitterOff
 70
    20
 71
     2
 72
     2
 73
     0
 90
        0
 40
-0.6
 41
-30.0
 62
     5
 63
     7
 74
     1
 91
        4
 64
     7
 65
   257
 75
     1
175
     1
 42
1.0
 92
       10
 66
     7
 43
1.0
 76
     1
 77
     6
 78
     2
 67
     7
 79
     5
170
     0
171
     0
290
     0
174
     0
 93
        1
 44
0.0
173
     0
291
     1
 45
0.0
1001
ACAD
1000
AcDbSavedByObjectVersion
1070
     0
  0
VISUALSTYLE
  5
988A
102
{ACAD_XDICTIONARY
360
98F0
102
}
102
{ACAD_REACTORS
330
987C
102
}
330
987C
100
AcDbVisualStyle
  2
Linepattern
 70
    14
 71
     2
 72
     2
 73
     0
 90
        0
 40
-0.6
 41
-30.0
 62
     5
 63
     7
 74
     1
 91
        4
 64
     7
 65
   257
 75
     7
175
     7
 42
1.0
 92
        8
 66
     7
 43
1.0
 76
     1
 77
     6
 78
     2
 67
     7
 79
     5
170
     0
171
     0
290
     0
174
     0
 93
        1
 44
0.0
173
     0
291
     1
 45
0.0
1001
ACAD
1000
AcDbSavedByObjectVersion
1070
     0
  0
VISUALSTYLE
  5
9893
102
{ACAD_XDICTIONARY
360
9902
102
}
102
{ACAD_REACTORS
330
987C
102
}
330
987C
100
AcDbVisualStyle
  2
OverhangOff
 70
    21
 71
     2
 72
     2
 73
     0
 90
        0
 40
-0.6
 41
-30.0
 62
     5
 63
     7
 74
     1
 91
        4
 64
     7
 65
   257
 75
     1
175
     1
 42
1.0
 92
        9
 66
     7
 43
1.0
 76
     1
 77
     6
 78
     2
 67
     7
 79
     5
170
     0
171
     0
290
     0
174
     0
 93
        1
 44
0.0
173
     0
291
     1
 45
0.0
1001
ACAD
1000
AcDbSavedByObjectVersion
1070
     0
  0
VISUALSTYLE
  5
9886
102
{ACAD_XDICTIONARY
360
98E8
102
}
102
{ACAD_REACTORS
330
987C
102
}
330
987C
100
AcDbVisualStyle
  2
Realistic
 70
     8
 71
     2
 72
     3
 73
     0
 90
        2
 40
-0.6
 41
30.0
 62
     5
 63
     7
 74
     0
 91
        0
 64
     7
 65
   257
 75
     1
175
     1
 42
1.0
 92
        8
 66
   257
 43
1.0
 76
     1
 77
     6
 78
     2
 67
     7
 79
     3
170
     0
171
     0
290
     0
174
     0
 93
       13
 44
0.0
173
     0
291
     0
 45
0.0
1001
ACAD
1000
AcDbSavedByObjectVersion
1070
     0
  0
VISUALSTYLE
  5
9891
102
{ACAD_XDICTIONARY
360
98FE
102
}
102
{ACAD_REACTORS
330
987C
102
}
330
987C
100
AcDbVisualStyle
  2
Shaded
 70
    27
 71
     2
 72
     2
 73
     1
 90
        2
 40
-0.6
 41
30.0
 62
     5
 63
     7
 74
     0
 91
        4
 64
     7
 65
   257
 75
     1
175
     1
 42
1.0
 92
        8
 66
   257
 43
1.0
 76
     1
 77
     6
 78
     2
 67
     8
 79
     3
170
     0
171
     0
290
     0
174
     0
 93
        5
 44
0.0
173
     0
291
     0
 45
0.0
1001
ACAD
1000
AcDbSavedByObjectVersion
1070
     0
  0
VISUALSTYLE
  5
9890
102
{ACAD_XDICTIONARY
360
98FC
102
}
102
{ACAD_REACTORS
330
987C
102
}
330
987C
100
AcDbVisualStyle
  2
Shaded with edges
 70
    26
 71
     2
 72
     2
 73
     1
 90
        2
 40
-0.6
 41
30.0
 62
     5
 63
     7
 74
     1
 91
       10
 64
     7
 65
   257
 75
     2
175
     1
 42
1.0
 92
        8
 66
   257
 43
1.0
 76
     1
 77
     6
 78
     2
 67
     7
 79
     3
170
     0
171
     0
290
     0
174
     0
 93
        5
 44
0.0
173
     0
291
     0
 45
0.0
1001
ACAD
1000
AcDbSavedByObjectVersion
1070
     0
  0
VISUALSTYLE
  5
988D
102
{ACAD_XDICTIONARY
360
98F6
102
}
102
{ACAD_REACTORS
330
987C
102
}
330
987C
100
AcDbVisualStyle
  2
Shades of Gray
 70
    23
 71
     2
 72
     2
 73
     3
 90
        0
 40
-0.6
 41
-30.0
 62
     5
 63
     7
 74
     2
 91
        2
 64
     7
 65
     7
 75
     1
175
     1
 42
40.0
 92
        8
 66
     7
 43
1.0
 76
     1
 77
     6
 78
     2
 67
     7
 79
     3
170
     0
171
     0
290
     0
174
     0
 93
        1
 44
0.0
173
     0
291
     0
 45
0.0
1001
ACAD
1000
AcDbSavedByObjectVersion
1070
     0
  0
VISUALSTYLE
  5
988E
102
{ACAD_XDICTIONARY
360
98F8
102
}
102
{ACAD_REACTORS
330
987C
102
}
330
987C
100
AcDbVisualStyle
  2
Sketchy
 70
    24
 71
     1
 72
     2
 73
     2
 90
        0
 40
-0.6
 41
-30.0
 62
     5
 63
     7
 74
     2
 91
        2
 64
     7
 65
     7
 75
     1
175
     1
 42
40.0
 92
       11
 66
     7
 43
1.0
 76
     1
 77
     6
 78
     2
 67
     7
 79
     6
170
     0
171
     0
290
     0
174
     0
 93
        1
 44
0.0
173
     0
291
     0
 45
0.0
1001
ACAD
1000
AcDbSavedByObjectVersion
1070
     0
  0
VISUALSTYLE
  5
9889
102
{ACAD_XDICTIONARY
360
98EE
102
}
102
{ACAD_REACTORS
330
987C
102
}
330
987C
100
AcDbVisualStyle
  2
Thicken
 70
    13
 71
     2
 72
     2
 73
     0
 90
        0
 40
-0.6
 41
-30.0
 62
     5
 63
     7
 74
     1
 91
        4
 64
     7
 65
   257
 75
     1
175
     1
 42
1.0
 92
       12
 66
     7
 43
1.0
 76
     1
 77
     6
 78
     2
 67
     7
 79
     5
170
     0
171
     0
290
     0
174
     0
 93
        1
 44
0.0
173
     0
291
     1
 45
0.0
1001
ACAD
1000
AcDbSavedByObjectVersion
1070
     0
  0
VISUALSTYLE
  5
9883
102
{ACAD_XDICTIONARY
360
98E2
102
}
102
{ACAD_REACTORS
330
987C
102
}
330
987C
100
AcDbVisualStyle
  2
Wireframe
 70
     5
 71
     0
 72
     2
 73
     0
 90
        0
 40
-0.6
 41
-30.0
 62
     5
 63
     7
 74
     1
 91
        4
 64
     7
 65
   257
 75
     1
175
     1
 42
1.0
 92
        0
 66
   257
 43
1.0
 76
     1
 77
     6
 78
     2
 67
     7
 79
     3
170
     0
171
     0
290
     0
174
     0
 93
        1
 44
0.0
173
     0
291
     0
 45
0.0
1001
ACAD
1000
AcDbSavedByObjectVersion
1070
     0
  0
VISUALSTYLE
  5
988F
102
{ACAD_XDICTIONARY
360
98FA
102
}
102
{ACAD_REACTORS
330
987C
102
}
330
987C
100
AcDbVisualStyle
  2
X-Ray
 70
    25
 71
     2
 72
     2
 73
     1
 90
        1
 40
0.5
 41
-30.0
 62
     5
 63
     7
 74
     1
 91
        0
 64
     7
 65
   257
 75
     1
175
     1
 42
1.0
 92
        8
 66
     7
 43
1.0
 76
     1
 77
     6
 78
     2
 67
     7
 79
     3
170
     0
171
     0
290
     0
174
     0
 93
       13
 44
0.0
173
     0
291
     0
 45
0.0
1001
ACAD
1000
AcDbSavedByObjectVersion
1070
     0
  0
DICTIONARYVAR
  5
98C9
102
{ACAD_REACTORS
330
98C4
102
}
330
98C4
100
DictionaryVariables
280
     0
  1
1:1
  0
DICTIONARYVAR
  5
98C6
102
{ACAD_REACTORS
330
98C4
102
}
330
98C4
100
DictionaryVariables
280
     0
  1
STANDARD
  0
DICTIONARYVAR
  5
98C5
102
{ACAD_REACTORS
330
98C4
102
}
330
98C4
100
DictionaryVariables
280
     0
  1
STANDARD
  0
DICTIONARYVAR
  5
98C7
102
{ACAD_REACTORS
330
98C4
102
}
330
98C4
100
DictionaryVariables
280
     0
  1
Imperial24
  0
DICTIONARYVAR
  5
98C8
102
{ACAD_REACTORS
330
98C4
102
}
330
98C4
100
DictionaryVariables
280
     0
  1
Imperial24
  0
DICTIONARYVAR
  5
98CC
102
{ACAD_REACTORS
330
98C4
102
}
330
98C4
100
DictionaryVariables
280
     0
  1
1
  0
DICTIONARYVAR
  5
98CB
102
{ACAD_REACTORS
330
98C4
102
}
330
98C4
100
DictionaryVariables
280
     0
  1
0
  0
DICTIONARYVAR
  5
98CA
102
{ACAD_REACTORS
330
98C4
102
}
330
98C4
100
DictionaryVariables
280
     0
  1
127
  0
DICTIONARYVAR
  5
98CD
102
{ACAD_REACTORS
330
98C4
102
}
330
98C4
100
DictionaryVariables
280
     0
  1
2
  0
DICTIONARY
  5
990A
330
98AF
100
AcDbDictionary
280
     1
281
     1
  3
ACAD_XREC_ROUNDTRIP
360
990B
  0
DICTIONARY
  5
990C
330
98B0
100
AcDbDictionary
280
     1
281
     1
  3
ACAD_XREC_ROUNDTRIP
360
990D
  0
DICTIONARY
  5
990E
330
98B1
100
AcDbDictionary
280
     1
281
     1
  3
ACAD_XREC_ROUNDTRIP
360
990F
  0
DICTIONARY
  5
986D
330
986C
100
AcDbDictionary
280
     1
281
     1
  3
ACAD_XREC_ROUNDTRIP
360
98D4
  3
BUMPTILE
360
986F
  3
DIFFUSETILE
360
986E
  3
OPACITYTILE
360
9872
  3
REFLECTIONTILE
360
9871
  3
REFRACTIONTILE
360
9873
  3
SPECULARTILE
360
9870
  0
DICTIONARY
  5
9865
330
9864
100
AcDbDictionary
280
     1
281
     1
  3
ACAD_XREC_ROUNDTRIP
360
98D3
  3
BUMPTILE
360
9867
  3
DIFFUSETILE
360
9866
  3
OPACITYTILE
360
986A
  3
REFLECTIONTILE
360
9869
  3
REFRACTIONTILE
360
986B
  3
SPECULARTILE
360
9868
  0
DICTIONARY
  5
9875
330
9874
100
AcDbDictionary
280
     1
281
     1
  3
ACAD_XREC_ROUNDTRIP
360
98D5
  3
BUMPTILE
360
9877
  3
DIFFUSETILE
360
9876
  3
OPACITYTILE
360
987A
  3
REFLECTIONTILE
360
9879
  3
REFRACTIONTILE
360
987B
  3
SPECULARTILE
360
9878
  0
DICTIONARY
  5
9908
330
98AD
100
AcDbDictionary
280
     1
281
     1
  3
ACAD_XREC_ROUNDTRIP
360
9909
  0
DICTIONARY
  5
98CF
330
9897
100
AcDbDictionary
280
     1
281
     1
  3
ACAD_ROUNDTRIP_2008_TABLESTYLE_CELLSTYLEMAP
360
98D0
  3
ACAD_XREC_ROUNDTRIP
360
9906
  0
DICTIONARY
  5
98E0
330
9882
100
AcDbDictionary
280
     1
281
     1
  3
ACAD_XREC_ROUNDTRIP
360
98E1
  0
DICTIONARY
  5
98DE
330
9881
100
AcDbDictionary
280
     1
281
     1
  3
ACAD_XREC_ROUNDTRIP
360
98DF
  0
DICTIONARY
  5
98EC
330
9888
100
AcDbDictionary
280
     1
281
     1
  3
ACAD_XREC_ROUNDTRIP
360
98ED
  0
DICTIONARY
  5
98F4
330
988C
100
AcDbDictionary
280
     1
281
     1
  3
ACAD_XREC_ROUNDTRIP
360
98F5
  0
DICTIONARY
  5
98E6
330
9885
100
AcDbDictionary
280
     1
281
     1
  3
ACAD_XREC_ROUNDTRIP
360
98E7
  0
DICTIONARY
  5
98EA
330
9887
100
AcDbDictionary
280
     1
281
     1
  3
ACAD_XREC_ROUNDTRIP
360
98EB
  0
DICTIONARY
  5
9904
330
9894
100
AcDbDictionary
280
     1
281
     1
  3
ACAD_XREC_ROUNDTRIP
360
9905
  0
DICTIONARY
  5
98F2
330
988B
100
AcDbDictionary
280
     1
281
     1
  3
ACAD_XREC_ROUNDTRIP
360
98F3
  0
DICTIONARY
  5
98D6
330
987D
100
AcDbDictionary
280
     1
281
     1
  3
ACAD_XREC_ROUNDTRIP
360
98D7
  0
DICTIONARY
  5
98D8
330
987E
100
AcDbDictionary
280
     1
281
     1
  3
ACAD_XREC_ROUNDTRIP
360
98D9
  0
DICTIONARY
  5
98DA
330
987F
100
AcDbDictionary
280
     1
281
     1
  3
ACAD_XREC_ROUNDTRIP
360
98DB
  0
DICTIONARY
  5
98DC
330
9880
100
AcDbDictionary
280
     1
281
     1
  3
ACAD_XREC_ROUNDTRIP
360
98DD
  0
DICTIONARY
  5
98E4
330
9884
100
AcDbDictionary
280
     1
281
     1
  3
ACAD_XREC_ROUNDTRIP
360
98E5
  0
DICTIONARY
  5
9900
330
9892
100
AcDbDictionary
280
     1
281
     1
  3
ACAD_XREC_ROUNDTRIP
360
9901
  0
DICTIONARY
  5
98F0
330
988A
100
AcDbDictionary
280
     1
281
     1
  3
ACAD_XREC_ROUNDTRIP
360
98F1
  0
DICTIONARY
  5
9902
330
9893
100
AcDbDictionary
280
     1
281
     1
  3
ACAD_XREC_ROUNDTRIP
360
9903
  0
DICTIONARY
  5
98E8
330
9886
100
AcDbDictionary
280
     1
281
     1
  3
ACAD_XREC_ROUNDTRIP
360
98E9
  0
DICTIONARY
  5
98FE
330
9891
100
AcDbDictionary
280
     1
281
     1
  3
ACAD_XREC_ROUNDTRIP
360
98FF
  0
DICTIONARY
  5
98FC
330
9890
100
AcDbDictionary
280
     1
281
     1
  3
ACAD_XREC_ROUNDTRIP
360
98FD
  0
DICTIONARY
  5
98F6
330
988D
100
AcDbDictionary
280
     1
281
     1
  3
ACAD_XREC_ROUNDTRIP
360
98F7
  0
DICTIONARY
  5
98F8
330
988E
100
AcDbDictionary
280
     1
281
     1
  3
ACAD_XREC_ROUNDTRIP
360
98F9
  0
DICTIONARY
  5
98EE
330
9889
100
AcDbDictionary
280
     1
281
     1
  3
ACAD_XREC_ROUNDTRIP
360
98EF
  0
DICTIONARY
  5
98E2
330
9883
100
AcDbDictionary
280
     1
281
     1
  3
ACAD_XREC_ROUNDTRIP
360
98E3
  0
DICTIONARY
  5
98FA
330
988F
100
AcDbDictionary
280
     1
281
     1
  3
ACAD_XREC_ROUNDTRIP
360
98FB
  0
XRECORD
  5
990B
102
{ACAD_REACTORS
330
990A
102
}
330
990A
100
AcDbXrecord
280
     1
102
DISPLAYNAME
  1
Imperial24
102
FLAGS
 90
        0
  0
XRECORD
  5
990D
102
{ACAD_REACTORS
330
990C
102
}
330
990C
100
AcDbXrecord
280
     1
102
SHADEPLOT
 70
     0
102
SHADEPLOTRESLEVEL
 70
     2
102
SHADEPLOTCUSTOMDPI
 70
   300
  0
XRECORD
  5
990F
102
{ACAD_REACTORS
330
990E
102
}
330
990E
100
AcDbXrecord
280
     1
102
SHADEPLOT
 70
     0
102
SHADEPLOTRESLEVEL
 70
     2
102
SHADEPLOTCUSTOMDPI
 70
   300
  0
XRECORD
  5
98D4
102
{ACAD_REACTORS
330
986D
102
}
330
986D
100
AcDbXrecord
280
     1
102
MATERIAL
148
0.0
149
0.0
149
0.0
 93
        0
 94
      127
282
     0
 72
     0
 77
     0
171
     0
175
     0
179
     0
273
     0
  0
XRECORD
  5
986F
102
{ACAD_REACTORS
330
986D
102
}
330
986D
100
AcDbXrecord
280
     1
270
     1
271
     1
  0
XRECORD
  5
986E
102
{ACAD_REACTORS
330
986D
102
}
330
986D
100
AcDbXrecord
280
     1
270
     1
271
     1
  0
XRECORD
  5
9872
102
{ACAD_REACTORS
330
986D
102
}
330
986D
100
AcDbXrecord
280
     1
270
     1
271
     1
  0
XRECORD
  5
9871
102
{ACAD_REACTORS
330
986D
102
}
330
986D
100
AcDbXrecord
280
     1
270
     1
271
     1
  0
XRECORD
  5
9873
102
{ACAD_REACTORS
330
986D
102
}
330
986D
100
AcDbXrecord
280
     1
270
     1
271
     1
  0
XRECORD
  5
9870
102
{ACAD_REACTORS
330
986D
102
}
330
986D
100
AcDbXrecord
280
     1
270
     1
271
     1
  0
XRECORD
  5
98D3
102
{ACAD_REACTORS
330
9865
102
}
330
9865
100
AcDbXrecord
280
     1
102
MATERIAL
148
0.0
149
0.0
149
0.0
 93
        0
 94
      127
282
     0
 72
     0
 77
     0
171
     0
175
     0
179
     0
273
     0
  0
XRECORD
  5
9867
102
{ACAD_REACTORS
330
9865
102
}
330
9865
100
AcDbXrecord
280
     1
270
     1
271
     1
  0
XRECORD
  5
9866
102
{ACAD_REACTORS
330
9865
102
}
330
9865
100
AcDbXrecord
280
     1
270
     1
271
     1
  0
XRECORD
  5
986A
102
{ACAD_REACTORS
330
9865
102
}
330
9865
100
AcDbXrecord
280
     1
270
     1
271
     1
  0
XRECORD
  5
9869
102
{ACAD_REACTORS
330
9865
102
}
330
9865
100
AcDbXrecord
280
     1
270
     1
271
     1
  0
XRECORD
  5
986B
102
{ACAD_REACTORS
330
9865
102
}
330
9865
100
AcDbXrecord
280
     1
270
     1
271
     1
  0
XRECORD
  5
9868
102
{ACAD_REACTORS
330
9865
102
}
330
9865
100
AcDbXrecord
280
     1
270
     1
271
     1
  0
XRECORD
  5
98D5
102
{ACAD_REACTORS
330
9875
102
}
330
9875
100
AcDbXrecord
280
     1
102
MATERIAL
148
0.0
149
0.0
149
0.0
 93
        0
 94
      127
282
     0
 72
     0
 77
     0
171
     0
175
     0
179
     0
273
     0
  0
XRECORD
  5
9877
102
{ACAD_REACTORS
330
9875
102
}
330
9875
100
AcDbXrecord
280
     1
270
     1
271
     1
  0
XRECORD
  5
9876
102
{ACAD_REACTORS
330
9875
102
}
330
9875
100
AcDbXrecord
280
     1
270
     1
271
     1
  0
XRECORD
  5
987A
102
{ACAD_REACTORS
330
9875
102
}
330
9875
100
AcDbXrecord
280
     1
270
     1
271
     1
  0
XRECORD
  5
9879
102
{ACAD_REACTORS
330
9875
102
}
330
9875
100
AcDbXrecord
280
     1
270
     1
271
     1
  0
XRECORD
  5
987B
102
{ACAD_REACTORS
330
9875
102
}
330
9875
100
AcDbXrecord
280
     1
270
     1
271
     1
  0
XRECORD
  5
9878
102
{ACAD_REACTORS
330
9875
102
}
330
9875
100
AcDbXrecord
280
     1
270
     1
271
     1
  0
XRECORD
  5
9909
102
{ACAD_REACTORS
330
9908
102
}
330
9908
100
AcDbXrecord
280
     1
102
DISPLAYNAME
  1
Imperial24
102
FLAGS
 90
        0
  0
CELLSTYLEMAP
  5
98D0
102
{ACAD_REACTORS
330
98CF
102
}
330
98CF
100
AcDbCellStyleMap
 90
        3
300
CELLSTYLE
  1
TABLEFORMAT_BEGIN
 90
        5
170
     1
 91
        0
 92
    32768
 62
   257
 93
        1
300
CONTENTFORMAT
  1
CONTENTFORMAT_BEGIN
 90
        0
 91
        0
 92
      512
 93
        0
300

 40
0.0
140
1.0
 94
        5
 62
     0
340
951B
144
0.25
309
CONTENTFORMAT_END
171
     0
 94
        0
309
TABLEFORMAT_END
  1
CELLSTYLE_BEGIN
 90
        1
 91
        1
300
_TITLE
309
CELLSTYLE_END
300
CELLSTYLE
  1
TABLEFORMAT_BEGIN
 90
        5
170
     1
 91
        0
 92
        0
 62
   257
 93
        1
300
CONTENTFORMAT
  1
CONTENTFORMAT_BEGIN
 90
        0
 91
        0
 92
      512
 93
        0
300

 40
0.0
140
1.0
 94
        5
 62
     0
340
951B
144
0.18
309
CONTENTFORMAT_END
171
     0
 94
        0
309
TABLEFORMAT_END
  1
CELLSTYLE_BEGIN
 90
        2
 91
        1
300
_HEADER
309
CELLSTYLE_END
300
CELLSTYLE
  1
TABLEFORMAT_BEGIN
 90
        5
170
     1
 91
        0
 92
        0
 62
   257
 93
        1
300
CONTENTFORMAT
  1
CONTENTFORMAT_BEGIN
 90
        0
 91
        0
 92
      512
 93
        0
300

 40
0.0
140
1.0
 94
        2
 62
     0
340
951B
144
0.18
309
CONTENTFORMAT_END
171
     0
 94
        0
309
TABLEFORMAT_END
  1
CELLSTYLE_BEGIN
 90
        3
 91
        2
300
_DATA
309
CELLSTYLE_END
  0
XRECORD
  5
9906
102
{ACAD_REACTORS
330
98CF
102
}
330
98CF
100
AcDbXrecord
280
     1
102
ACAD_ROUNDTRIP_PRE2007_TABLESTYLE
 90
      512
 91
        0
  1

 92
      512
 93
        0
  2

 94
      512
 95
        0
  3

  0
XRECORD
  5
98E1
102
{ACAD_REACTORS
330
98E0
102
}
330
98E0
100
AcDbXrecord
280
     1
102
RTVSPost2010Prop28
280
     1
102
RTVSPost2010PropOp28
 70
     1
102
RTVSPost2010Prop29
280
     1
102
RTVSPost2010PropOp29
 70
     1
102
RTVSPost2010Prop30
280
     0
102
RTVSPost2010PropOp30
 70
     1
102
RTVSPost2010Prop31
280
     0
102
RTVSPost2010PropOp31
 70
     1
102
RTVSPost2010Prop32
280
     0
102
RTVSPost2010PropOp32
 70
     1
102
RTVSPost2010Prop33
280
     0
102
RTVSPost2010PropOp33
 70
     1
102
RTVSPost2010Prop34
280
     0
102
RTVSPost2010PropOp34
 70
     1
102
RTVSPost2010Prop35
280
     0
102
RTVSPost2010PropOp35
 70
     1
102
RTVSPost2010Prop36
280
     0
102
RTVSPost2010PropOp36
 70
     1
102
RTVSPost2010Prop37
 90
       50
102
RTVSPost2010PropOp37
 70
     1
102
RTVSPost2010Prop38
140
0.0
102
RTVSPost2010PropOp38
 70
     1
102
RTVSPost2010Prop39
140
1.0
102
RTVSPost2010PropOp39
 70
     1
102
RTVSPost2010Prop40
 90
        0
102
RTVSPost2010PropOp40
 70
     1
102
RTVSPost2010Prop41ColorIndex
 90
       18
102
RTVSPost2010Prop41ColorRGB
 90
        0
102
RTVSPost2010PropOp41
 70
     1
102
RTVSPost2010Prop42
 90
       50
102
RTVSPost2010PropOp42
 70
     1
102
RTVSPost2010Prop43
 90
        3
102
RTVSPost2010PropOp43
 70
     1
102
RTVSPost2010Prop44ColorIndex
 90
        5
102
RTVSPost2010Prop44ColorRGB
 90
      255
102
RTVSPost2010PropOp44
 70
     1
102
RTVSPost2010Prop45
280
     0
102
RTVSPost2010PropOp45
 70
     1
102
RTVSPost2010Prop46
 90
       50
102
RTVSPost2010PropOp46
 70
     1
102
RTVSPost2010Prop47
 90
       50
102
RTVSPost2010PropOp47
 70
     1
102
RTVSPost2010Prop48
 90
       50
102
RTVSPost2010PropOp48
 70
     1
102
RTVSPost2010Prop49
280
     0
102
RTVSPost2010PropOp49
 70
     1
102
RTVSPost2010Prop50
 90
       50
102
RTVSPost2010PropOp50
 70
     1
102
RTVSPost2010Prop51ColorIndex
 90
      256
102
RTVSPost2010Prop51ColorRGB
 90
-16777216
102
RTVSPost2010PropOp51
 70
     0
102
RTVSPost2010Prop52
140
1.0
102
RTVSPost2010PropOp52
 70
     0
102
RTVSPost2010Prop53
 90
        2
102
RTVSPost2010PropOp53
 70
     1
102
RTVSPost2010Prop54
  1
strokes_ogs.tif
102
RTVSPost2010PropOp54
 70
     1
102
RTVSPost2010Prop55
280
     0
102
RTVSPost2010PropOp55
 70
     1
102
RTVSPost2010Prop56
140
1.0
102
RTVSPost2010PropOp56
 70
     1
102
RTVSPost2010Prop57
140
1.0
102
RTVSPost2010PropOp57
 70
     1
102
RTVSPropertyOp0
 70
     1
102
RTVSPropertyOp1
 70
     1
102
RTVSPropertyOp2
 70
     1
102
RTVSPropertyOp3
 70
     1
102
RTVSPropertyOp4
 70
     1
102
RTVSPropertyOp5
 70
     1
102
RTVSPropertyOp6
 70
     1
102
RTVSPropertyOp7
 70
     1
102
RTVSPropertyOp8
 70
     1
102
RTVSPropertyOp9
 70
     1
102
RTVSPropertyOp10
 70
     1
102
RTVSPropertyOp11
 70
     1
102
RTVSPropertyOp12
 70
     1
102
RTVSPropertyOp13
 70
     1
102
RTVSPropertyOp14
 70
     1
102
RTVSPropertyOp15
 70
     1
102
RTVSPropertyOp16
 70
     1
102
RTVSPropertyOp17
 70
     1
102
RTVSPropertyOp18
 70
     1
102
RTVSPropertyOp19
 70
     1
102
RTVSPropertyOp20
 70
     1
102
RTVSPropertyOp21
 70
     1
102
RTVSPropertyOp22
 70
     1
102
RTVSPropertyOp23
 70
     1
102
RTVSPropertyOp24
 70
     1
102
RTVSPropertyOp25
 70
     1
102
RTVSPropertyOp26
 70
     1
102
RTVSPropertyOp27
 70
     1
102
RTVSPropertyOp28
 70
     1
102
RTVSPropertyOp29
 70
     1
102
RTVSPropertyOp30
 70
     1
102
RTVSPropertyOp31
 70
     1
102
RTVSPropertyOp32
 70
     1
102
RTVSPropertyOp33
 70
     1
102
RTVSPropertyOp34
 70
     1
102
RTVSPropertyOp35
 70
     1
102
RTVSPropertyOp36
 70
     1
102
RTVSPropertyOp37
 70
     1
102
RTVSPropertyOp38
 70
     1
102
RTVSPropertyOp39
 70
     1
102
RTVSPropertyOp40
 70
     1
102
RTVSPropertyOp41
 70
     1
102
RTVSPropertyOp42
 70
     1
102
RTVSPropertyOp43
 70
     1
102
RTVSPropertyOp44
 70
     1
102
RTVSPropertyOp45
 70
     1
102
RTVSPropertyOp46
 70
     1
102
RTVSPropertyOp47
 70
     1
102
RTVSPropertyOp48
 70
     1
102
RTVSPropertyOp49
 70
     1
102
RTVSPropertyOp50
 70
     1
102
RTVSPropertyOp51
 70
     0
102
RTVSPropertyOp52
 70
     0
102
RTVSPropertyOp53
 70
     1
102
RTVSPropertyOp54
 70
     1
102
RTVSPropertyOp55
 70
     1
102
RTVSPropertyOp56
 70
     1
102
RTVSPropertyOp57
 70
     1
102
RTVSPropertyOp58
 70
     1
102
RTVSPropertyOp59
 70
     1
102
RTVSPropertyOp60
 70
     1
102
RTVSPropertyOp61
 70
     1
102
RTVSPropertyOp62
 70
     1
  0
XRECORD
  5
98DF
102
{ACAD_REACTORS
330
98DE
102
}
330
98DE
100
AcDbXrecord
280
     1
102
RTVSPost2010Prop28
280
     0
102
RTVSPost2010PropOp28
 70
     1
102
RTVSPost2010Prop29
280
     1
102
RTVSPost2010PropOp29
 70
     1
102
RTVSPost2010Prop30
280
     1
102
RTVSPost2010PropOp30
 70
     1
102
RTVSPost2010Prop31
280
     0
102
RTVSPost2010PropOp31
 70
     1
102
RTVSPost2010Prop32
280
     0
102
RTVSPost2010PropOp32
 70
     1
102
RTVSPost2010Prop33
280
     0
102
RTVSPost2010PropOp33
 70
     1
102
RTVSPost2010Prop34
280
     0
102
RTVSPost2010PropOp34
 70
     1
102
RTVSPost2010Prop35
280
     0
102
RTVSPost2010PropOp35
 70
     1
102
RTVSPost2010Prop36
280
     0
102
RTVSPost2010PropOp36
 70
     1
102
RTVSPost2010Prop37
 90
       50
102
RTVSPost2010PropOp37
 70
     1
102
RTVSPost2010Prop38
140
0.0
102
RTVSPost2010PropOp38
 70
     1
102
RTVSPost2010Prop39
140
1.0
102
RTVSPost2010PropOp39
 70
     1
102
RTVSPost2010Prop40
 90
        0
102
RTVSPost2010PropOp40
 70
     1
102
RTVSPost2010Prop41ColorIndex
 90
       18
102
RTVSPost2010Prop41ColorRGB
 90
        0
102
RTVSPost2010PropOp41
 70
     1
102
RTVSPost2010Prop42
 90
       50
102
RTVSPost2010PropOp42
 70
     1
102
RTVSPost2010Prop43
 90
        3
102
RTVSPost2010PropOp43
 70
     1
102
RTVSPost2010Prop44ColorIndex
 90
        5
102
RTVSPost2010Prop44ColorRGB
 90
      255
102
RTVSPost2010PropOp44
 70
     1
102
RTVSPost2010Prop45
280
     0
102
RTVSPost2010PropOp45
 70
     1
102
RTVSPost2010Prop46
 90
       50
102
RTVSPost2010PropOp46
 70
     1
102
RTVSPost2010Prop47
 90
       50
102
RTVSPost2010PropOp47
 70
     1
102
RTVSPost2010Prop48
 90
       50
102
RTVSPost2010PropOp48
 70
     1
102
RTVSPost2010Prop49
280
     0
102
RTVSPost2010PropOp49
 70
     1
102
RTVSPost2010Prop50
 90
       50
102
RTVSPost2010PropOp50
 70
     1
102
RTVSPost2010Prop51ColorIndex
 90
      256
102
RTVSPost2010Prop51ColorRGB
 90
-16777216
102
RTVSPost2010PropOp51
 70
     0
102
RTVSPost2010Prop52
140
1.0
102
RTVSPost2010PropOp52
 70
     0
102
RTVSPost2010Prop53
 90
        2
102
RTVSPost2010PropOp53
 70
     1
102
RTVSPost2010Prop54
  1
strokes_ogs.tif
102
RTVSPost2010PropOp54
 70
     1
102
RTVSPost2010Prop55
280
     0
102
RTVSPost2010PropOp55
 70
     1
102
RTVSPost2010Prop56
140
1.0
102
RTVSPost2010PropOp56
 70
     1
102
RTVSPost2010Prop57
140
1.0
102
RTVSPost2010PropOp57
 70
     1
102
RTVSPropertyOp0
 70
     1
102
RTVSPropertyOp1
 70
     1
102
RTVSPropertyOp2
 70
     1
102
RTVSPropertyOp3
 70
     1
102
RTVSPropertyOp4
 70
     1
102
RTVSPropertyOp5
 70
     1
102
RTVSPropertyOp6
 70
     1
102
RTVSPropertyOp7
 70
     1
102
RTVSPropertyOp8
 70
     1
102
RTVSPropertyOp9
 70
     1
102
RTVSPropertyOp10
 70
     1
102
RTVSPropertyOp11
 70
     1
102
RTVSPropertyOp12
 70
     1
102
RTVSPropertyOp13
 70
     1
102
RTVSPropertyOp14
 70
     1
102
RTVSPropertyOp15
 70
     1
102
RTVSPropertyOp16
 70
     1
102
RTVSPropertyOp17
 70
     1
102
RTVSPropertyOp18
 70
     1
102
RTVSPropertyOp19
 70
     1
102
RTVSPropertyOp20
 70
     1
102
RTVSPropertyOp21
 70
     1
102
RTVSPropertyOp22
 70
     1
102
RTVSPropertyOp23
 70
     1
102
RTVSPropertyOp24
 70
     1
102
RTVSPropertyOp25
 70
     1
102
RTVSPropertyOp26
 70
     1
102
RTVSPropertyOp27
 70
     1
102
RTVSPropertyOp28
 70
     1
102
RTVSPropertyOp29
 70
     1
102
RTVSPropertyOp30
 70
     1
102
RTVSPropertyOp31
 70
     1
102
RTVSPropertyOp32
 70
     1
102
RTVSPropertyOp33
 70
     1
102
RTVSPropertyOp34
 70
     1
102
RTVSPropertyOp35
 70
     1
102
RTVSPropertyOp36
 70
     1
102
RTVSPropertyOp37
 70
     1
102
RTVSPropertyOp38
 70
     1
102
RTVSPropertyOp39
 70
     1
102
RTVSPropertyOp40
 70
     1
102
RTVSPropertyOp41
 70
     1
102
RTVSPropertyOp42
 70
     1
102
RTVSPropertyOp43
 70
     1
102
RTVSPropertyOp44
 70
     1
102
RTVSPropertyOp45
 70
     1
102
RTVSPropertyOp46
 70
     1
102
RTVSPropertyOp47
 70
     1
102
RTVSPropertyOp48
 70
     1
102
RTVSPropertyOp49
 70
     1
102
RTVSPropertyOp50
 70
     1
102
RTVSPropertyOp51
 70
     0
102
RTVSPropertyOp52
 70
     0
102
RTVSPropertyOp53
 70
     1
102
RTVSPropertyOp54
 70
     1
102
RTVSPropertyOp55
 70
     1
102
RTVSPropertyOp56
 70
     1
102
RTVSPropertyOp57
 70
     1
102
RTVSPropertyOp58
 70
     1
102
RTVSPropertyOp59
 70
     1
102
RTVSPropertyOp60
 70
     1
102
RTVSPropertyOp61
 70
     1
102
RTVSPropertyOp62
 70
     1
  0
XRECORD
  5
98ED
102
{ACAD_REACTORS
330
98EC
102
}
330
98EC
100
AcDbXrecord
280
     1
102
RTVSPost2010Prop28
280
     0
102
RTVSPost2010PropOp28
 70
     1
102
RTVSPost2010Prop29
280
     1
102
RTVSPost2010PropOp29
 70
     1
102
RTVSPost2010Prop30
280
     1
102
RTVSPost2010PropOp30
 70
     1
102
RTVSPost2010Prop31
280
     0
102
RTVSPost2010PropOp31
 70
     1
102
RTVSPost2010Prop32
280
     0
102
RTVSPost2010PropOp32
 70
     1
102
RTVSPost2010Prop33
280
     0
102
RTVSPost2010PropOp33
 70
     1
102
RTVSPost2010Prop34
280
     0
102
RTVSPost2010PropOp34
 70
     1
102
RTVSPost2010Prop35
280
     0
102
RTVSPost2010PropOp35
 70
     1
102
RTVSPost2010Prop36
280
     0
102
RTVSPost2010PropOp36
 70
     1
102
RTVSPost2010Prop37
 90
       50
102
RTVSPost2010PropOp37
 70
     1
102
RTVSPost2010Prop38
140
0.0
102
RTVSPost2010PropOp38
 70
     1
102
RTVSPost2010Prop39
140
1.0
102
RTVSPost2010PropOp39
 70
     1
102
RTVSPost2010Prop40
 90
        0
102
RTVSPost2010PropOp40
 70
     1
102
RTVSPost2010Prop41ColorIndex
 90
       18
102
RTVSPost2010Prop41ColorRGB
 90
        0
102
RTVSPost2010PropOp41
 70
     1
102
RTVSPost2010Prop42
 90
       50
102
RTVSPost2010PropOp42
 70
     1
102
RTVSPost2010Prop43
 90
        3
102
RTVSPost2010PropOp43
 70
     1
102
RTVSPost2010Prop44ColorIndex
 90
        5
102
RTVSPost2010Prop44ColorRGB
 90
      255
102
RTVSPost2010PropOp44
 70
     1
102
RTVSPost2010Prop45
280
     0
102
RTVSPost2010PropOp45
 70
     1
102
RTVSPost2010Prop46
 90
       50
102
RTVSPost2010PropOp46
 70
     1
102
RTVSPost2010Prop47
 90
       50
102
RTVSPost2010PropOp47
 70
     1
102
RTVSPost2010Prop48
 90
       50
102
RTVSPost2010PropOp48
 70
     1
102
RTVSPost2010Prop49
280
     0
102
RTVSPost2010PropOp49
 70
     1
102
RTVSPost2010Prop50
 90
       50
102
RTVSPost2010PropOp50
 70
     1
102
RTVSPost2010Prop51ColorIndex
 90
      256
102
RTVSPost2010Prop51ColorRGB
 90
-16777216
102
RTVSPost2010PropOp51
 70
     0
102
RTVSPost2010Prop52
140
1.0
102
RTVSPost2010PropOp52
 70
     0
102
RTVSPost2010Prop53
 90
        2
102
RTVSPost2010PropOp53
 70
     1
102
RTVSPost2010Prop54
  1
strokes_ogs.tif
102
RTVSPost2010PropOp54
 70
     1
102
RTVSPost2010Prop55
280
     0
102
RTVSPost2010PropOp55
 70
     1
102
RTVSPost2010Prop56
140
1.0
102
RTVSPost2010PropOp56
 70
     1
102
RTVSPost2010Prop57
140
1.0
102
RTVSPost2010PropOp57
 70
     1
102
RTVSPropertyOp0
 70
     1
102
RTVSPropertyOp1
 70
     1
102
RTVSPropertyOp2
 70
     1
102
RTVSPropertyOp3
 70
     1
102
RTVSPropertyOp4
 70
     1
102
RTVSPropertyOp5
 70
     1
102
RTVSPropertyOp6
 70
     1
102
RTVSPropertyOp7
 70
     1
102
RTVSPropertyOp8
 70
     1
102
RTVSPropertyOp9
 70
     1
102
RTVSPropertyOp10
 70
     1
102
RTVSPropertyOp11
 70
     1
102
RTVSPropertyOp12
 70
     1
102
RTVSPropertyOp13
 70
     1
102
RTVSPropertyOp14
 70
     1
102
RTVSPropertyOp15
 70
     1
102
RTVSPropertyOp16
 70
     1
102
RTVSPropertyOp17
 70
     1
102
RTVSPropertyOp18
 70
     1
102
RTVSPropertyOp19
 70
     1
102
RTVSPropertyOp20
 70
     1
102
RTVSPropertyOp21
 70
     1
102
RTVSPropertyOp22
 70
     1
102
RTVSPropertyOp23
 70
     1
102
RTVSPropertyOp24
 70
     1
102
RTVSPropertyOp25
 70
     1
102
RTVSPropertyOp26
 70
     1
102
RTVSPropertyOp27
 70
     1
102
RTVSPropertyOp28
 70
     1
102
RTVSPropertyOp29
 70
     1
102
RTVSPropertyOp30
 70
     1
102
RTVSPropertyOp31
 70
     1
102
RTVSPropertyOp32
 70
     1
102
RTVSPropertyOp33
 70
     1
102
RTVSPropertyOp34
 70
     1
102
RTVSPropertyOp35
 70
     1
102
RTVSPropertyOp36
 70
     1
102
RTVSPropertyOp37
 70
     1
102
RTVSPropertyOp38
 70
     1
102
RTVSPropertyOp39
 70
     1
102
RTVSPropertyOp40
 70
     1
102
RTVSPropertyOp41
 70
     1
102
RTVSPropertyOp42
 70
     1
102
RTVSPropertyOp43
 70
     1
102
RTVSPropertyOp44
 70
     1
102
RTVSPropertyOp45
 70
     1
102
RTVSPropertyOp46
 70
     1
102
RTVSPropertyOp47
 70
     1
102
RTVSPropertyOp48
 70
     1
102
RTVSPropertyOp49
 70
     1
102
RTVSPropertyOp50
 70
     1
102
RTVSPropertyOp51
 70
     0
102
RTVSPropertyOp52
 70
     0
102
RTVSPropertyOp53
 70
     1
102
RTVSPropertyOp54
 70
     1
102
RTVSPropertyOp55
 70
     1
102
RTVSPropertyOp56
 70
     1
102
RTVSPropertyOp57
 70
     1
102
RTVSPropertyOp58
 70
     1
102
RTVSPropertyOp59
 70
     1
102
RTVSPropertyOp60
 70
     1
102
RTVSPropertyOp61
 70
     1
102
RTVSPropertyOp62
 70
     1
  0
XRECORD
  5
98F5
102
{ACAD_REACTORS
330
98F4
102
}
330
98F4
100
AcDbXrecord
280
     1
102
RTVSPost2010Prop28
280
     0
102
RTVSPost2010PropOp28
 70
     1
102
RTVSPost2010Prop29
280
     1
102
RTVSPost2010PropOp29
 70
     1
102
RTVSPost2010Prop30
280
     1
102
RTVSPost2010PropOp30
 70
     1
102
RTVSPost2010Prop31
280
     0
102
RTVSPost2010PropOp31
 70
     1
102
RTVSPost2010Prop32
280
     0
102
RTVSPost2010PropOp32
 70
     1
102
RTVSPost2010Prop33
280
     0
102
RTVSPost2010PropOp33
 70
     1
102
RTVSPost2010Prop34
280
     0
102
RTVSPost2010PropOp34
 70
     1
102
RTVSPost2010Prop35
280
     0
102
RTVSPost2010PropOp35
 70
     1
102
RTVSPost2010Prop36
280
     0
102
RTVSPost2010PropOp36
 70
     1
102
RTVSPost2010Prop37
 90
       50
102
RTVSPost2010PropOp37
 70
     1
102
RTVSPost2010Prop38
140
0.0
102
RTVSPost2010PropOp38
 70
     1
102
RTVSPost2010Prop39
140
1.0
102
RTVSPost2010PropOp39
 70
     1
102
RTVSPost2010Prop40
 90
        0
102
RTVSPost2010PropOp40
 70
     1
102
RTVSPost2010Prop41ColorIndex
 90
       18
102
RTVSPost2010Prop41ColorRGB
 90
        0
102
RTVSPost2010PropOp41
 70
     1
102
RTVSPost2010Prop42
 90
       50
102
RTVSPost2010PropOp42
 70
     1
102
RTVSPost2010Prop43
 90
        3
102
RTVSPost2010PropOp43
 70
     1
102
RTVSPost2010Prop44ColorIndex
 90
        5
102
RTVSPost2010Prop44ColorRGB
 90
      255
102
RTVSPost2010PropOp44
 70
     1
102
RTVSPost2010Prop45
280
     0
102
RTVSPost2010PropOp45
 70
     1
102
RTVSPost2010Prop46
 90
       50
102
RTVSPost2010PropOp46
 70
     1
102
RTVSPost2010Prop47
 90
       50
102
RTVSPost2010PropOp47
 70
     1
102
RTVSPost2010Prop48
 90
       50
102
RTVSPost2010PropOp48
 70
     1
102
RTVSPost2010Prop49
280
     0
102
RTVSPost2010PropOp49
 70
     1
102
RTVSPost2010Prop50
 90
       50
102
RTVSPost2010PropOp50
 70
     1
102
RTVSPost2010Prop51ColorIndex
 90
      256
102
RTVSPost2010Prop51ColorRGB
 90
-16777216
102
RTVSPost2010PropOp51
 70
     0
102
RTVSPost2010Prop52
140
1.0
102
RTVSPost2010PropOp52
 70
     0
102
RTVSPost2010Prop53
 90
        2
102
RTVSPost2010PropOp53
 70
     1
102
RTVSPost2010Prop54
  1
strokes_ogs.tif
102
RTVSPost2010PropOp54
 70
     1
102
RTVSPost2010Prop55
280
     0
102
RTVSPost2010PropOp55
 70
     1
102
RTVSPost2010Prop56
140
1.0
102
RTVSPost2010PropOp56
 70
     1
102
RTVSPost2010Prop57
140
1.0
102
RTVSPost2010PropOp57
 70
     1
102
RTVSPropertyOp0
 70
     1
102
RTVSPropertyOp1
 70
     1
102
RTVSPropertyOp2
 70
     1
102
RTVSPropertyOp3
 70
     1
102
RTVSPropertyOp4
 70
     1
102
RTVSPropertyOp5
 70
     1
102
RTVSPropertyOp6
 70
     1
102
RTVSPropertyOp7
 70
     1
102
RTVSPropertyOp8
 70
     1
102
RTVSPropertyOp9
 70
     1
102
RTVSPropertyOp10
 70
     1
102
RTVSPropertyOp11
 70
     1
102
RTVSPropertyOp12
 70
     1
102
RTVSPropertyOp13
 70
     1
102
RTVSPropertyOp14
 70
     1
102
RTVSPropertyOp15
 70
     1
102
RTVSPropertyOp16
 70
     1
102
RTVSPropertyOp17
 70
     1
102
RTVSPropertyOp18
 70
     1
102
RTVSPropertyOp19
 70
     1
102
RTVSPropertyOp20
 70
     1
102
RTVSPropertyOp21
 70
     1
102
RTVSPropertyOp22
 70
     1
102
RTVSPropertyOp23
 70
     1
102
RTVSPropertyOp24
 70
     1
102
RTVSPropertyOp25
 70
     1
102
RTVSPropertyOp26
 70
     1
102
RTVSPropertyOp27
 70
     1
102
RTVSPropertyOp28
 70
     1
102
RTVSPropertyOp29
 70
     1
102
RTVSPropertyOp30
 70
     1
102
RTVSPropertyOp31
 70
     1
102
RTVSPropertyOp32
 70
     1
102
RTVSPropertyOp33
 70
     1
102
RTVSPropertyOp34
 70
     1
102
RTVSPropertyOp35
 70
     1
102
RTVSPropertyOp36
 70
     1
102
RTVSPropertyOp37
 70
     1
102
RTVSPropertyOp38
 70
     1
102
RTVSPropertyOp39
 70
     1
102
RTVSPropertyOp40
 70
     1
102
RTVSPropertyOp41
 70
     1
102
RTVSPropertyOp42
 70
     1
102
RTVSPropertyOp43
 70
     1
102
RTVSPropertyOp44
 70
     1
102
RTVSPropertyOp45
 70
     1
102
RTVSPropertyOp46
 70
     1
102
RTVSPropertyOp47
 70
     1
102
RTVSPropertyOp48
 70
     1
102
RTVSPropertyOp49
 70
     1
102
RTVSPropertyOp50
 70
     1
102
RTVSPropertyOp51
 70
     0
102
RTVSPropertyOp52
 70
     0
102
RTVSPropertyOp53
 70
     1
102
RTVSPropertyOp54
 70
     1
102
RTVSPropertyOp55
 70
     1
102
RTVSPropertyOp56
 70
     1
102
RTVSPropertyOp57
 70
     1
102
RTVSPropertyOp58
 70
     1
102
RTVSPropertyOp59
 70
     1
102
RTVSPropertyOp60
 70
     1
102
RTVSPropertyOp61
 70
     1
102
RTVSPropertyOp62
 70
     1
  0
XRECORD
  5
98E7
102
{ACAD_REACTORS
330
98E6
102
}
330
98E6
100
AcDbXrecord
280
     1
102
RTVSPost2010Prop28
280
     0
102
RTVSPost2010PropOp28
 70
     1
102
RTVSPost2010Prop29
280
     1
102
RTVSPost2010PropOp29
 70
     1
102
RTVSPost2010Prop30
280
     1
102
RTVSPost2010PropOp30
 70
     1
102
RTVSPost2010Prop31
280
     0
102
RTVSPost2010PropOp31
 70
     1
102
RTVSPost2010Prop32
280
     0
102
RTVSPost2010PropOp32
 70
     1
102
RTVSPost2010Prop33
280
     0
102
RTVSPost2010PropOp33
 70
     1
102
RTVSPost2010Prop34
280
     0
102
RTVSPost2010PropOp34
 70
     1
102
RTVSPost2010Prop35
280
     0
102
RTVSPost2010PropOp35
 70
     1
102
RTVSPost2010Prop36
280
     0
102
RTVSPost2010PropOp36
 70
     1
102
RTVSPost2010Prop37
 90
       50
102
RTVSPost2010PropOp37
 70
     1
102
RTVSPost2010Prop38
140
0.0
102
RTVSPost2010PropOp38
 70
     1
102
RTVSPost2010Prop39
140
1.0
102
RTVSPost2010PropOp39
 70
     1
102
RTVSPost2010Prop40
 90
        0
102
RTVSPost2010PropOp40
 70
     1
102
RTVSPost2010Prop41ColorIndex
 90
       18
102
RTVSPost2010Prop41ColorRGB
 90
        0
102
RTVSPost2010PropOp41
 70
     1
102
RTVSPost2010Prop42
 90
       50
102
RTVSPost2010PropOp42
 70
     1
102
RTVSPost2010Prop43
 90
        3
102
RTVSPost2010PropOp43
 70
     1
102
RTVSPost2010Prop44ColorIndex
 90
        5
102
RTVSPost2010Prop44ColorRGB
 90
      255
102
RTVSPost2010PropOp44
 70
     1
102
RTVSPost2010Prop45
280
     0
102
RTVSPost2010PropOp45
 70
     1
102
RTVSPost2010Prop46
 90
       50
102
RTVSPost2010PropOp46
 70
     1
102
RTVSPost2010Prop47
 90
       50
102
RTVSPost2010PropOp47
 70
     1
102
RTVSPost2010Prop48
 90
       50
102
RTVSPost2010PropOp48
 70
     1
102
RTVSPost2010Prop49
280
     0
102
RTVSPost2010PropOp49
 70
     1
102
RTVSPost2010Prop50
 90
       50
102
RTVSPost2010PropOp50
 70
     1
102
RTVSPost2010Prop51ColorIndex
 90
      256
102
RTVSPost2010Prop51ColorRGB
 90
-16777216
102
RTVSPost2010PropOp51
 70
     0
102
RTVSPost2010Prop52
140
1.0
102
RTVSPost2010PropOp52
 70
     0
102
RTVSPost2010Prop53
 90
        2
102
RTVSPost2010PropOp53
 70
     1
102
RTVSPost2010Prop54
  1
strokes_ogs.tif
102
RTVSPost2010PropOp54
 70
     1
102
RTVSPost2010Prop55
280
     0
102
RTVSPost2010PropOp55
 70
     1
102
RTVSPost2010Prop56
140
1.0
102
RTVSPost2010PropOp56
 70
     1
102
RTVSPost2010Prop57
140
1.0
102
RTVSPost2010PropOp57
 70
     1
102
RTVSPropertyOp0
 70
     1
102
RTVSPropertyOp1
 70
     1
102
RTVSPropertyOp2
 70
     1
102
RTVSPropertyOp3
 70
     1
102
RTVSPropertyOp4
 70
     1
102
RTVSPropertyOp5
 70
     1
102
RTVSPropertyOp6
 70
     1
102
RTVSPropertyOp7
 70
     1
102
RTVSPropertyOp8
 70
     1
102
RTVSPropertyOp9
 70
     1
102
RTVSPropertyOp10
 70
     1
102
RTVSPropertyOp11
 70
     1
102
RTVSPropertyOp12
 70
     1
102
RTVSPropertyOp13
 70
     1
102
RTVSPropertyOp14
 70
     1
102
RTVSPropertyOp15
 70
     1
102
RTVSPropertyOp16
 70
     1
102
RTVSPropertyOp17
 70
     1
102
RTVSPropertyOp18
 70
     1
102
RTVSPropertyOp19
 70
     1
102
RTVSPropertyOp20
 70
     1
102
RTVSPropertyOp21
 70
     1
102
RTVSPropertyOp22
 70
     1
102
RTVSPropertyOp23
 70
     1
102
RTVSPropertyOp24
 70
     1
102
RTVSPropertyOp25
 70
     1
102
RTVSPropertyOp26
 70
     1
102
RTVSPropertyOp27
 70
     1
102
RTVSPropertyOp28
 70
     1
102
RTVSPropertyOp29
 70
     1
102
RTVSPropertyOp30
 70
     1
102
RTVSPropertyOp31
 70
     1
102
RTVSPropertyOp32
 70
     1
102
RTVSPropertyOp33
 70
     1
102
RTVSPropertyOp34
 70
     1
102
RTVSPropertyOp35
 70
     1
102
RTVSPropertyOp36
 70
     1
102
RTVSPropertyOp37
 70
     1
102
RTVSPropertyOp38
 70
     1
102
RTVSPropertyOp39
 70
     1
102
RTVSPropertyOp40
 70
     1
102
RTVSPropertyOp41
 70
     1
102
RTVSPropertyOp42
 70
     1
102
RTVSPropertyOp43
 70
     1
102
RTVSPropertyOp44
 70
     1
102
RTVSPropertyOp45
 70
     1
102
RTVSPropertyOp46
 70
     1
102
RTVSPropertyOp47
 70
     1
102
RTVSPropertyOp48
 70
     1
102
RTVSPropertyOp49
 70
     1
102
RTVSPropertyOp50
 70
     1
102
RTVSPropertyOp51
 70
     0
102
RTVSPropertyOp52
 70
     0
102
RTVSPropertyOp53
 70
     1
102
RTVSPropertyOp54
 70
     1
102
RTVSPropertyOp55
 70
     1
102
RTVSPropertyOp56
 70
     1
102
RTVSPropertyOp57
 70
     1
102
RTVSPropertyOp58
 70
     1
102
RTVSPropertyOp59
 70
     1
102
RTVSPropertyOp60
 70
     1
102
RTVSPropertyOp61
 70
     1
102
RTVSPropertyOp62
 70
     1
  0
XRECORD
  5
98EB
102
{ACAD_REACTORS
330
98EA
102
}
330
98EA
100
AcDbXrecord
280
     1
102
RTVSPost2010Prop28
280
     0
102
RTVSPost2010PropOp28
 70
     1
102
RTVSPost2010Prop29
280
     1
102
RTVSPost2010PropOp29
 70
     1
102
RTVSPost2010Prop30
280
     1
102
RTVSPost2010PropOp30
 70
     1
102
RTVSPost2010Prop31
280
     0
102
RTVSPost2010PropOp31
 70
     1
102
RTVSPost2010Prop32
280
     0
102
RTVSPost2010PropOp32
 70
     1
102
RTVSPost2010Prop33
280
     0
102
RTVSPost2010PropOp33
 70
     1
102
RTVSPost2010Prop34
280
     0
102
RTVSPost2010PropOp34
 70
     1
102
RTVSPost2010Prop35
280
     0
102
RTVSPost2010PropOp35
 70
     1
102
RTVSPost2010Prop36
280
     0
102
RTVSPost2010PropOp36
 70
     1
102
RTVSPost2010Prop37
 90
       50
102
RTVSPost2010PropOp37
 70
     1
102
RTVSPost2010Prop38
140
0.0
102
RTVSPost2010PropOp38
 70
     1
102
RTVSPost2010Prop39
140
1.0
102
RTVSPost2010PropOp39
 70
     1
102
RTVSPost2010Prop40
 90
        0
102
RTVSPost2010PropOp40
 70
     1
102
RTVSPost2010Prop41ColorIndex
 90
       18
102
RTVSPost2010Prop41ColorRGB
 90
        0
102
RTVSPost2010PropOp41
 70
     1
102
RTVSPost2010Prop42
 90
       50
102
RTVSPost2010PropOp42
 70
     1
102
RTVSPost2010Prop43
 90
        3
102
RTVSPost2010PropOp43
 70
     1
102
RTVSPost2010Prop44ColorIndex
 90
        5
102
RTVSPost2010Prop44ColorRGB
 90
      255
102
RTVSPost2010PropOp44
 70
     1
102
RTVSPost2010Prop45
280
     0
102
RTVSPost2010PropOp45
 70
     1
102
RTVSPost2010Prop46
 90
       50
102
RTVSPost2010PropOp46
 70
     1
102
RTVSPost2010Prop47
 90
       50
102
RTVSPost2010PropOp47
 70
     1
102
RTVSPost2010Prop48
 90
       50
102
RTVSPost2010PropOp48
 70
     1
102
RTVSPost2010Prop49
280
     0
102
RTVSPost2010PropOp49
 70
     1
102
RTVSPost2010Prop50
 90
       50
102
RTVSPost2010PropOp50
 70
     1
102
RTVSPost2010Prop51ColorIndex
 90
      256
102
RTVSPost2010Prop51ColorRGB
 90
-16777216
102
RTVSPost2010PropOp51
 70
     0
102
RTVSPost2010Prop52
140
1.0
102
RTVSPost2010PropOp52
 70
     0
102
RTVSPost2010Prop53
 90
        2
102
RTVSPost2010PropOp53
 70
     1
102
RTVSPost2010Prop54
  1
strokes_ogs.tif
102
RTVSPost2010PropOp54
 70
     1
102
RTVSPost2010Prop55
280
     0
102
RTVSPost2010PropOp55
 70
     1
102
RTVSPost2010Prop56
140
1.0
102
RTVSPost2010PropOp56
 70
     1
102
RTVSPost2010Prop57
140
1.0
102
RTVSPost2010PropOp57
 70
     1
102
RTVSPropertyOp0
 70
     1
102
RTVSPropertyOp1
 70
     1
102
RTVSPropertyOp2
 70
     1
102
RTVSPropertyOp3
 70
     1
102
RTVSPropertyOp4
 70
     1
102
RTVSPropertyOp5
 70
     1
102
RTVSPropertyOp6
 70
     1
102
RTVSPropertyOp7
 70
     1
102
RTVSPropertyOp8
 70
     1
102
RTVSPropertyOp9
 70
     1
102
RTVSPropertyOp10
 70
     1
102
RTVSPropertyOp11
 70
     1
102
RTVSPropertyOp12
 70
     1
102
RTVSPropertyOp13
 70
     1
102
RTVSPropertyOp14
 70
     1
102
RTVSPropertyOp15
 70
     1
102
RTVSPropertyOp16
 70
     1
102
RTVSPropertyOp17
 70
     1
102
RTVSPropertyOp18
 70
     1
102
RTVSPropertyOp19
 70
     1
102
RTVSPropertyOp20
 70
     1
102
RTVSPropertyOp21
 70
     1
102
RTVSPropertyOp22
 70
     1
102
RTVSPropertyOp23
 70
     1
102
RTVSPropertyOp24
 70
     1
102
RTVSPropertyOp25
 70
     1
102
RTVSPropertyOp26
 70
     1
102
RTVSPropertyOp27
 70
     1
102
RTVSPropertyOp28
 70
     1
102
RTVSPropertyOp29
 70
     1
102
RTVSPropertyOp30
 70
     1
102
RTVSPropertyOp31
 70
     1
102
RTVSPropertyOp32
 70
     1
102
RTVSPropertyOp33
 70
     1
102
RTVSPropertyOp34
 70
     1
102
RTVSPropertyOp35
 70
     1
102
RTVSPropertyOp36
 70
     1
102
RTVSPropertyOp37
 70
     1
102
RTVSPropertyOp38
 70
     1
102
RTVSPropertyOp39
 70
     1
102
RTVSPropertyOp40
 70
     1
102
RTVSPropertyOp41
 70
     1
102
RTVSPropertyOp42
 70
     1
102
RTVSPropertyOp43
 70
     1
102
RTVSPropertyOp44
 70
     1
102
RTVSPropertyOp45
 70
     1
102
RTVSPropertyOp46
 70
     1
102
RTVSPropertyOp47
 70
     1
102
RTVSPropertyOp48
 70
     1
102
RTVSPropertyOp49
 70
     1
102
RTVSPropertyOp50
 70
     1
102
RTVSPropertyOp51
 70
     0
102
RTVSPropertyOp52
 70
     0
102
RTVSPropertyOp53
 70
     1
102
RTVSPropertyOp54
 70
     1
102
RTVSPropertyOp55
 70
     1
102
RTVSPropertyOp56
 70
     1
102
RTVSPropertyOp57
 70
     1
102
RTVSPropertyOp58
 70
     1
102
RTVSPropertyOp59
 70
     1
102
RTVSPropertyOp60
 70
     1
102
RTVSPropertyOp61
 70
     1
102
RTVSPropertyOp62
 70
     1
  0
XRECORD
  5
9905
102
{ACAD_REACTORS
330
9904
102
}
330
9904
100
AcDbXrecord
280
     1
102
RTVSPost2010Prop28
280
     0
102
RTVSPost2010PropOp28
 70
     1
102
RTVSPost2010Prop29
280
     1
102
RTVSPost2010PropOp29
 70
     1
102
RTVSPost2010Prop30
280
     1
102
RTVSPost2010PropOp30
 70
     1
102
RTVSPost2010Prop31
280
     0
102
RTVSPost2010PropOp31
 70
     1
102
RTVSPost2010Prop32
280
     0
102
RTVSPost2010PropOp32
 70
     1
102
RTVSPost2010Prop33
280
     0
102
RTVSPost2010PropOp33
 70
     1
102
RTVSPost2010Prop34
280
     0
102
RTVSPost2010PropOp34
 70
     1
102
RTVSPost2010Prop35
280
     0
102
RTVSPost2010PropOp35
 70
     1
102
RTVSPost2010Prop36
280
     0
102
RTVSPost2010PropOp36
 70
     1
102
RTVSPost2010Prop37
 90
       50
102
RTVSPost2010PropOp37
 70
     0
102
RTVSPost2010Prop38
140
0.0
102
RTVSPost2010PropOp38
 70
     0
102
RTVSPost2010Prop39
140
1.0
102
RTVSPost2010PropOp39
 70
     0
102
RTVSPost2010Prop40
 90
        0
102
RTVSPost2010PropOp40
 70
     0
102
RTVSPost2010Prop41ColorIndex
 90
       18
102
RTVSPost2010Prop41ColorRGB
 90
        0
102
RTVSPost2010PropOp41
 70
     0
102
RTVSPost2010Prop42
 90
       50
102
RTVSPost2010PropOp42
 70
     0
102
RTVSPost2010Prop43
 90
        3
102
RTVSPost2010PropOp43
 70
     0
102
RTVSPost2010Prop44ColorIndex
 90
        5
102
RTVSPost2010Prop44ColorRGB
 90
      255
102
RTVSPost2010PropOp44
 70
     0
102
RTVSPost2010Prop45
280
     0
102
RTVSPost2010PropOp45
 70
     1
102
RTVSPost2010Prop46
 90
       50
102
RTVSPost2010PropOp46
 70
     0
102
RTVSPost2010Prop47
 90
       50
102
RTVSPost2010PropOp47
 70
     0
102
RTVSPost2010Prop48
 90
       50
102
RTVSPost2010PropOp48
 70
     0
102
RTVSPost2010Prop49
280
     0
102
RTVSPost2010PropOp49
 70
     1
102
RTVSPost2010Prop50
 90
       50
102
RTVSPost2010PropOp50
 70
     0
102
RTVSPost2010Prop51ColorIndex
 90
      256
102
RTVSPost2010Prop51ColorRGB
 90
-16777216
102
RTVSPost2010PropOp51
 70
     0
102
RTVSPost2010Prop52
140
1.0
102
RTVSPost2010PropOp52
 70
     0
102
RTVSPost2010Prop53
 90
        2
102
RTVSPost2010PropOp53
 70
     0
102
RTVSPost2010Prop54
  1
strokes_ogs.tif
102
RTVSPost2010PropOp54
 70
     0
102
RTVSPost2010Prop55
280
     0
102
RTVSPost2010PropOp55
 70
     1
102
RTVSPost2010Prop56
140
1.0
102
RTVSPost2010PropOp56
 70
     0
102
RTVSPost2010Prop57
140
1.0
102
RTVSPost2010PropOp57
 70
     0
102
RTVSPropertyOp0
 70
     0
102
RTVSPropertyOp1
 70
     0
102
RTVSPropertyOp2
 70
     0
102
RTVSPropertyOp3
 70
     0
102
RTVSPropertyOp4
 70
     0
102
RTVSPropertyOp5
 70
     0
102
RTVSPropertyOp6
 70
     0
102
RTVSPropertyOp7
 70
     0
102
RTVSPropertyOp8
 70
     0
102
RTVSPropertyOp9
 70
     0
102
RTVSPropertyOp10
 70
     0
102
RTVSPropertyOp11
 70
     0
102
RTVSPropertyOp12
 70
     0
102
RTVSPropertyOp13
 70
     0
102
RTVSPropertyOp14
 70
     2
102
RTVSPropertyOp15
 70
     0
102
RTVSPropertyOp16
 70
     0
102
RTVSPropertyOp17
 70
     0
102
RTVSPropertyOp18
 70
     0
102
RTVSPropertyOp19
 70
     0
102
RTVSPropertyOp20
 70
     0
102
RTVSPropertyOp21
 70
     0
102
RTVSPropertyOp22
 70
     0
102
RTVSPropertyOp23
 70
     0
102
RTVSPropertyOp24
 70
     0
102
RTVSPropertyOp25
 70
     0
102
RTVSPropertyOp26
 70
     0
102
RTVSPropertyOp27
 70
     0
102
RTVSPropertyOp28
 70
     1
102
RTVSPropertyOp29
 70
     1
102
RTVSPropertyOp30
 70
     1
102
RTVSPropertyOp31
 70
     1
102
RTVSPropertyOp32
 70
     1
102
RTVSPropertyOp33
 70
     1
102
RTVSPropertyOp34
 70
     1
102
RTVSPropertyOp35
 70
     1
102
RTVSPropertyOp36
 70
     1
102
RTVSPropertyOp37
 70
     0
102
RTVSPropertyOp38
 70
     0
102
RTVSPropertyOp39
 70
     0
102
RTVSPropertyOp40
 70
     0
102
RTVSPropertyOp41
 70
     0
102
RTVSPropertyOp42
 70
     0
102
RTVSPropertyOp43
 70
     0
102
RTVSPropertyOp44
 70
     0
102
RTVSPropertyOp45
 70
     1
102
RTVSPropertyOp46
 70
     0
102
RTVSPropertyOp47
 70
     0
102
RTVSPropertyOp48
 70
     0
102
RTVSPropertyOp49
 70
     1
102
RTVSPropertyOp50
 70
     0
102
RTVSPropertyOp51
 70
     0
102
RTVSPropertyOp52
 70
     0
102
RTVSPropertyOp53
 70
     0
102
RTVSPropertyOp54
 70
     0
102
RTVSPropertyOp55
 70
     1
102
RTVSPropertyOp56
 70
     0
102
RTVSPropertyOp57
 70
     0
102
RTVSPropertyOp58
 70
     0
102
RTVSPropertyOp59
 70
     0
102
RTVSPropertyOp60
 70
     0
102
RTVSPropertyOp61
 70
     0
102
RTVSPropertyOp62
 70
     0
  0
XRECORD
  5
98F3
102
{ACAD_REACTORS
330
98F2
102
}
330
98F2
100
AcDbXrecord
280
     1
102
RTVSPost2010Prop28
280
     0
102
RTVSPost2010PropOp28
 70
     1
102
RTVSPost2010Prop29
280
     1
102
RTVSPost2010PropOp29
 70
     1
102
RTVSPost2010Prop30
280
     1
102
RTVSPost2010PropOp30
 70
     1
102
RTVSPost2010Prop31
280
     0
102
RTVSPost2010PropOp31
 70
     1
102
RTVSPost2010Prop32
280
     0
102
RTVSPost2010PropOp32
 70
     1
102
RTVSPost2010Prop33
280
     0
102
RTVSPost2010PropOp33
 70
     1
102
RTVSPost2010Prop34
280
     0
102
RTVSPost2010PropOp34
 70
     1
102
RTVSPost2010Prop35
280
     0
102
RTVSPost2010PropOp35
 70
     1
102
RTVSPost2010Prop36
280
     0
102
RTVSPost2010PropOp36
 70
     1
102
RTVSPost2010Prop37
 90
       50
102
RTVSPost2010PropOp37
 70
     1
102
RTVSPost2010Prop38
140
0.0
102
RTVSPost2010PropOp38
 70
     1
102
RTVSPost2010Prop39
140
1.0
102
RTVSPost2010PropOp39
 70
     1
102
RTVSPost2010Prop40
 90
        0
102
RTVSPost2010PropOp40
 70
     1
102
RTVSPost2010Prop41ColorIndex
 90
       18
102
RTVSPost2010Prop41ColorRGB
 90
        0
102
RTVSPost2010PropOp41
 70
     1
102
RTVSPost2010Prop42
 90
       50
102
RTVSPost2010PropOp42
 70
     1
102
RTVSPost2010Prop43
 90
        3
102
RTVSPost2010PropOp43
 70
     1
102
RTVSPost2010Prop44ColorIndex
 90
        5
102
RTVSPost2010Prop44ColorRGB
 90
      255
102
RTVSPost2010PropOp44
 70
     1
102
RTVSPost2010Prop45
280
     0
102
RTVSPost2010PropOp45
 70
     1
102
RTVSPost2010Prop46
 90
       50
102
RTVSPost2010PropOp46
 70
     1
102
RTVSPost2010Prop47
 90
       50
102
RTVSPost2010PropOp47
 70
     1
102
RTVSPost2010Prop48
 90
       50
102
RTVSPost2010PropOp48
 70
     1
102
RTVSPost2010Prop49
280
     0
102
RTVSPost2010PropOp49
 70
     1
102
RTVSPost2010Prop50
 90
       50
102
RTVSPost2010PropOp50
 70
     1
102
RTVSPost2010Prop51ColorIndex
 90
      256
102
RTVSPost2010Prop51ColorRGB
 90
-16777216
102
RTVSPost2010PropOp51
 70
     0
102
RTVSPost2010Prop52
140
1.0
102
RTVSPost2010PropOp52
 70
     0
102
RTVSPost2010Prop53
 90
        2
102
RTVSPost2010PropOp53
 70
     1
102
RTVSPost2010Prop54
  1
strokes_ogs.tif
102
RTVSPost2010PropOp54
 70
     1
102
RTVSPost2010Prop55
280
     0
102
RTVSPost2010PropOp55
 70
     1
102
RTVSPost2010Prop56
140
1.0
102
RTVSPost2010PropOp56
 70
     1
102
RTVSPost2010Prop57
140
1.0
102
RTVSPost2010PropOp57
 70
     1
102
RTVSPropertyOp0
 70
     1
102
RTVSPropertyOp1
 70
     1
102
RTVSPropertyOp2
 70
     1
102
RTVSPropertyOp3
 70
     1
102
RTVSPropertyOp4
 70
     1
102
RTVSPropertyOp5
 70
     1
102
RTVSPropertyOp6
 70
     1
102
RTVSPropertyOp7
 70
     1
102
RTVSPropertyOp8
 70
     1
102
RTVSPropertyOp9
 70
     1
102
RTVSPropertyOp10
 70
     1
102
RTVSPropertyOp11
 70
     1
102
RTVSPropertyOp12
 70
     1
102
RTVSPropertyOp13
 70
     1
102
RTVSPropertyOp14
 70
     1
102
RTVSPropertyOp15
 70
     1
102
RTVSPropertyOp16
 70
     1
102
RTVSPropertyOp17
 70
     1
102
RTVSPropertyOp18
 70
     1
102
RTVSPropertyOp19
 70
     1
102
RTVSPropertyOp20
 70
     1
102
RTVSPropertyOp21
 70
     1
102
RTVSPropertyOp22
 70
     1
102
RTVSPropertyOp23
 70
     1
102
RTVSPropertyOp24
 70
     1
102
RTVSPropertyOp25
 70
     1
102
RTVSPropertyOp26
 70
     1
102
RTVSPropertyOp27
 70
     1
102
RTVSPropertyOp28
 70
     1
102
RTVSPropertyOp29
 70
     1
102
RTVSPropertyOp30
 70
     1
102
RTVSPropertyOp31
 70
     1
102
RTVSPropertyOp32
 70
     1
102
RTVSPropertyOp33
 70
     1
102
RTVSPropertyOp34
 70
     1
102
RTVSPropertyOp35
 70
     1
102
RTVSPropertyOp36
 70
     1
102
RTVSPropertyOp37
 70
     1
102
RTVSPropertyOp38
 70
     1
102
RTVSPropertyOp39
 70
     1
102
RTVSPropertyOp40
 70
     1
102
RTVSPropertyOp41
 70
     1
102
RTVSPropertyOp42
 70
     1
102
RTVSPropertyOp43
 70
     1
102
RTVSPropertyOp44
 70
     1
102
RTVSPropertyOp45
 70
     1
102
RTVSPropertyOp46
 70
     1
102
RTVSPropertyOp47
 70
     1
102
RTVSPropertyOp48
 70
     1
102
RTVSPropertyOp49
 70
     1
102
RTVSPropertyOp50
 70
     1
102
RTVSPropertyOp51
 70
     0
102
RTVSPropertyOp52
 70
     0
102
RTVSPropertyOp53
 70
     1
102
RTVSPropertyOp54
 70
     1
102
RTVSPropertyOp55
 70
     1
102
RTVSPropertyOp56
 70
     1
102
RTVSPropertyOp57
 70
     1
102
RTVSPropertyOp58
 70
     1
102
RTVSPropertyOp59
 70
     1
102
RTVSPropertyOp60
 70
     1
102
RTVSPropertyOp61
 70
     1
102
RTVSPropertyOp62
 70
     1
  0
XRECORD
  5
98D7
102
{ACAD_REACTORS
330
98D6
102
}
330
98D6
100
AcDbXrecord
280
     1
102
RTVSPost2010Prop28
280
     0
102
RTVSPost2010PropOp28
 70
     1
102
RTVSPost2010Prop29
280
     1
102
RTVSPost2010PropOp29
 70
     1
102
RTVSPost2010Prop30
280
     1
102
RTVSPost2010PropOp30
 70
     1
102
RTVSPost2010Prop31
280
     0
102
RTVSPost2010PropOp31
 70
     1
102
RTVSPost2010Prop32
280
     0
102
RTVSPost2010PropOp32
 70
     1
102
RTVSPost2010Prop33
280
     0
102
RTVSPost2010PropOp33
 70
     1
102
RTVSPost2010Prop34
280
     0
102
RTVSPost2010PropOp34
 70
     1
102
RTVSPost2010Prop35
280
     0
102
RTVSPost2010PropOp35
 70
     1
102
RTVSPost2010Prop36
280
     0
102
RTVSPost2010PropOp36
 70
     1
102
RTVSPost2010Prop37
 90
       50
102
RTVSPost2010PropOp37
 70
     1
102
RTVSPost2010Prop38
140
0.0
102
RTVSPost2010PropOp38
 70
     1
102
RTVSPost2010Prop39
140
1.0
102
RTVSPost2010PropOp39
 70
     1
102
RTVSPost2010Prop40
 90
        0
102
RTVSPost2010PropOp40
 70
     1
102
RTVSPost2010Prop41ColorIndex
 90
       18
102
RTVSPost2010Prop41ColorRGB
 90
        0
102
RTVSPost2010PropOp41
 70
     1
102
RTVSPost2010Prop42
 90
       50
102
RTVSPost2010PropOp42
 70
     1
102
RTVSPost2010Prop43
 90
        3
102
RTVSPost2010PropOp43
 70
     1
102
RTVSPost2010Prop44ColorIndex
 90
        5
102
RTVSPost2010Prop44ColorRGB
 90
      255
102
RTVSPost2010PropOp44
 70
     1
102
RTVSPost2010Prop45
280
     0
102
RTVSPost2010PropOp45
 70
     1
102
RTVSPost2010Prop46
 90
       50
102
RTVSPost2010PropOp46
 70
     1
102
RTVSPost2010Prop47
 90
       50
102
RTVSPost2010PropOp47
 70
     1
102
RTVSPost2010Prop48
 90
       50
102
RTVSPost2010PropOp48
 70
     1
102
RTVSPost2010Prop49
280
     0
102
RTVSPost2010PropOp49
 70
     1
102
RTVSPost2010Prop50
 90
       50
102
RTVSPost2010PropOp50
 70
     1
102
RTVSPost2010Prop51ColorIndex
 90
      256
102
RTVSPost2010Prop51ColorRGB
 90
-16777216
102
RTVSPost2010PropOp51
 70
     0
102
RTVSPost2010Prop52
140
1.0
102
RTVSPost2010PropOp52
 70
     0
102
RTVSPost2010Prop53
 90
        2
102
RTVSPost2010PropOp53
 70
     1
102
RTVSPost2010Prop54
  1
strokes_ogs.tif
102
RTVSPost2010PropOp54
 70
     1
102
RTVSPost2010Prop55
280
     0
102
RTVSPost2010PropOp55
 70
     1
102
RTVSPost2010Prop56
140
1.0
102
RTVSPost2010PropOp56
 70
     1
102
RTVSPost2010Prop57
140
1.0
102
RTVSPost2010PropOp57
 70
     1
102
RTVSPropertyOp0
 70
     1
102
RTVSPropertyOp1
 70
     1
102
RTVSPropertyOp2
 70
     1
102
RTVSPropertyOp3
 70
     1
102
RTVSPropertyOp4
 70
     1
102
RTVSPropertyOp5
 70
     1
102
RTVSPropertyOp6
 70
     1
102
RTVSPropertyOp7
 70
     1
102
RTVSPropertyOp8
 70
     1
102
RTVSPropertyOp9
 70
     1
102
RTVSPropertyOp10
 70
     1
102
RTVSPropertyOp11
 70
     1
102
RTVSPropertyOp12
 70
     1
102
RTVSPropertyOp13
 70
     1
102
RTVSPropertyOp14
 70
     1
102
RTVSPropertyOp15
 70
     1
102
RTVSPropertyOp16
 70
     1
102
RTVSPropertyOp17
 70
     1
102
RTVSPropertyOp18
 70
     1
102
RTVSPropertyOp19
 70
     1
102
RTVSPropertyOp20
 70
     1
102
RTVSPropertyOp21
 70
     1
102
RTVSPropertyOp22
 70
     1
102
RTVSPropertyOp23
 70
     1
102
RTVSPropertyOp24
 70
     1
102
RTVSPropertyOp25
 70
     1
102
RTVSPropertyOp26
 70
     1
102
RTVSPropertyOp27
 70
     1
102
RTVSPropertyOp28
 70
     1
102
RTVSPropertyOp29
 70
     1
102
RTVSPropertyOp30
 70
     1
102
RTVSPropertyOp31
 70
     1
102
RTVSPropertyOp32
 70
     1
102
RTVSPropertyOp33
 70
     1
102
RTVSPropertyOp34
 70
     1
102
RTVSPropertyOp35
 70
     1
102
RTVSPropertyOp36
 70
     1
102
RTVSPropertyOp37
 70
     1
102
RTVSPropertyOp38
 70
     1
102
RTVSPropertyOp39
 70
     1
102
RTVSPropertyOp40
 70
     1
102
RTVSPropertyOp41
 70
     1
102
RTVSPropertyOp42
 70
     1
102
RTVSPropertyOp43
 70
     1
102
RTVSPropertyOp44
 70
     1
102
RTVSPropertyOp45
 70
     1
102
RTVSPropertyOp46
 70
     1
102
RTVSPropertyOp47
 70
     1
102
RTVSPropertyOp48
 70
     1
102
RTVSPropertyOp49
 70
     1
102
RTVSPropertyOp50
 70
     1
102
RTVSPropertyOp51
 70
     0
102
RTVSPropertyOp52
 70
     0
102
RTVSPropertyOp53
 70
     1
102
RTVSPropertyOp54
 70
     1
102
RTVSPropertyOp55
 70
     1
102
RTVSPropertyOp56
 70
     1
102
RTVSPropertyOp57
 70
     1
102
RTVSPropertyOp58
 70
     1
102
RTVSPropertyOp59
 70
     1
102
RTVSPropertyOp60
 70
     1
102
RTVSPropertyOp61
 70
     1
102
RTVSPropertyOp62
 70
     1
  0
XRECORD
  5
98D9
102
{ACAD_REACTORS
330
98D8
102
}
330
98D8
100
AcDbXrecord
280
     1
102
RTVSPost2010Prop28
280
     0
102
RTVSPost2010PropOp28
 70
     1
102
RTVSPost2010Prop29
280
     1
102
RTVSPost2010PropOp29
 70
     1
102
RTVSPost2010Prop30
280
     1
102
RTVSPost2010PropOp30
 70
     1
102
RTVSPost2010Prop31
280
     0
102
RTVSPost2010PropOp31
 70
     1
102
RTVSPost2010Prop32
280
     0
102
RTVSPost2010PropOp32
 70
     1
102
RTVSPost2010Prop33
280
     0
102
RTVSPost2010PropOp33
 70
     1
102
RTVSPost2010Prop34
280
     0
102
RTVSPost2010PropOp34
 70
     1
102
RTVSPost2010Prop35
280
     0
102
RTVSPost2010PropOp35
 70
     1
102
RTVSPost2010Prop36
280
     0
102
RTVSPost2010PropOp36
 70
     1
102
RTVSPost2010Prop37
 90
       50
102
RTVSPost2010PropOp37
 70
     1
102
RTVSPost2010Prop38
140
0.0
102
RTVSPost2010PropOp38
 70
     1
102
RTVSPost2010Prop39
140
1.0
102
RTVSPost2010PropOp39
 70
     1
102
RTVSPost2010Prop40
 90
        0
102
RTVSPost2010PropOp40
 70
     1
102
RTVSPost2010Prop41ColorIndex
 90
       18
102
RTVSPost2010Prop41ColorRGB
 90
        0
102
RTVSPost2010PropOp41
 70
     1
102
RTVSPost2010Prop42
 90
       50
102
RTVSPost2010PropOp42
 70
     1
102
RTVSPost2010Prop43
 90
        3
102
RTVSPost2010PropOp43
 70
     1
102
RTVSPost2010Prop44ColorIndex
 90
        5
102
RTVSPost2010Prop44ColorRGB
 90
      255
102
RTVSPost2010PropOp44
 70
     1
102
RTVSPost2010Prop45
280
     0
102
RTVSPost2010PropOp45
 70
     1
102
RTVSPost2010Prop46
 90
       50
102
RTVSPost2010PropOp46
 70
     1
102
RTVSPost2010Prop47
 90
       50
102
RTVSPost2010PropOp47
 70
     1
102
RTVSPost2010Prop48
 90
       50
102
RTVSPost2010PropOp48
 70
     1
102
RTVSPost2010Prop49
280
     0
102
RTVSPost2010PropOp49
 70
     1
102
RTVSPost2010Prop50
 90
       50
102
RTVSPost2010PropOp50
 70
     1
102
RTVSPost2010Prop51ColorIndex
 90
      256
102
RTVSPost2010Prop51ColorRGB
 90
-16777216
102
RTVSPost2010PropOp51
 70
     0
102
RTVSPost2010Prop52
140
1.0
102
RTVSPost2010PropOp52
 70
     0
102
RTVSPost2010Prop53
 90
        2
102
RTVSPost2010PropOp53
 70
     1
102
RTVSPost2010Prop54
  1
strokes_ogs.tif
102
RTVSPost2010PropOp54
 70
     1
102
RTVSPost2010Prop55
280
     0
102
RTVSPost2010PropOp55
 70
     1
102
RTVSPost2010Prop56
140
1.0
102
RTVSPost2010PropOp56
 70
     1
102
RTVSPost2010Prop57
140
1.0
102
RTVSPost2010PropOp57
 70
     1
102
RTVSPropertyOp0
 70
     1
102
RTVSPropertyOp1
 70
     1
102
RTVSPropertyOp2
 70
     1
102
RTVSPropertyOp3
 70
     1
102
RTVSPropertyOp4
 70
     1
102
RTVSPropertyOp5
 70
     1
102
RTVSPropertyOp6
 70
     1
102
RTVSPropertyOp7
 70
     1
102
RTVSPropertyOp8
 70
     1
102
RTVSPropertyOp9
 70
     1
102
RTVSPropertyOp10
 70
     1
102
RTVSPropertyOp11
 70
     1
102
RTVSPropertyOp12
 70
     1
102
RTVSPropertyOp13
 70
     1
102
RTVSPropertyOp14
 70
     1
102
RTVSPropertyOp15
 70
     1
102
RTVSPropertyOp16
 70
     1
102
RTVSPropertyOp17
 70
     1
102
RTVSPropertyOp18
 70
     1
102
RTVSPropertyOp19
 70
     1
102
RTVSPropertyOp20
 70
     1
102
RTVSPropertyOp21
 70
     1
102
RTVSPropertyOp22
 70
     1
102
RTVSPropertyOp23
 70
     1
102
RTVSPropertyOp24
 70
     1
102
RTVSPropertyOp25
 70
     1
102
RTVSPropertyOp26
 70
     1
102
RTVSPropertyOp27
 70
     1
102
RTVSPropertyOp28
 70
     1
102
RTVSPropertyOp29
 70
     1
102
RTVSPropertyOp30
 70
     1
102
RTVSPropertyOp31
 70
     1
102
RTVSPropertyOp32
 70
     1
102
RTVSPropertyOp33
 70
     1
102
RTVSPropertyOp34
 70
     1
102
RTVSPropertyOp35
 70
     1
102
RTVSPropertyOp36
 70
     1
102
RTVSPropertyOp37
 70
     1
102
RTVSPropertyOp38
 70
     1
102
RTVSPropertyOp39
 70
     1
102
RTVSPropertyOp40
 70
     1
102
RTVSPropertyOp41
 70
     1
102
RTVSPropertyOp42
 70
     1
102
RTVSPropertyOp43
 70
     1
102
RTVSPropertyOp44
 70
     1
102
RTVSPropertyOp45
 70
     1
102
RTVSPropertyOp46
 70
     1
102
RTVSPropertyOp47
 70
     1
102
RTVSPropertyOp48
 70
     1
102
RTVSPropertyOp49
 70
     1
102
RTVSPropertyOp50
 70
     1
102
RTVSPropertyOp51
 70
     0
102
RTVSPropertyOp52
 70
     0
102
RTVSPropertyOp53
 70
     1
102
RTVSPropertyOp54
 70
     1
102
RTVSPropertyOp55
 70
     1
102
RTVSPropertyOp56
 70
     1
102
RTVSPropertyOp57
 70
     1
102
RTVSPropertyOp58
 70
     1
102
RTVSPropertyOp59
 70
     1
102
RTVSPropertyOp60
 70
     1
102
RTVSPropertyOp61
 70
     1
102
RTVSPropertyOp62
 70
     1
  0
XRECORD
  5
98DB
102
{ACAD_REACTORS
330
98DA
102
}
330
98DA
100
AcDbXrecord
280
     1
102
RTVSPost2010Prop28
280
     0
102
RTVSPost2010PropOp28
 70
     1
102
RTVSPost2010Prop29
280
     1
102
RTVSPost2010PropOp29
 70
     1
102
RTVSPost2010Prop30
280
     1
102
RTVSPost2010PropOp30
 70
     1
102
RTVSPost2010Prop31
280
     0
102
RTVSPost2010PropOp31
 70
     1
102
RTVSPost2010Prop32
280
     0
102
RTVSPost2010PropOp32
 70
     1
102
RTVSPost2010Prop33
280
     0
102
RTVSPost2010PropOp33
 70
     1
102
RTVSPost2010Prop34
280
     0
102
RTVSPost2010PropOp34
 70
     1
102
RTVSPost2010Prop35
280
     0
102
RTVSPost2010PropOp35
 70
     1
102
RTVSPost2010Prop36
280
     0
102
RTVSPost2010PropOp36
 70
     1
102
RTVSPost2010Prop37
 90
       50
102
RTVSPost2010PropOp37
 70
     1
102
RTVSPost2010Prop38
140
0.0
102
RTVSPost2010PropOp38
 70
     1
102
RTVSPost2010Prop39
140
1.0
102
RTVSPost2010PropOp39
 70
     1
102
RTVSPost2010Prop40
 90
        0
102
RTVSPost2010PropOp40
 70
     1
102
RTVSPost2010Prop41ColorIndex
 90
       18
102
RTVSPost2010Prop41ColorRGB
 90
        0
102
RTVSPost2010PropOp41
 70
     1
102
RTVSPost2010Prop42
 90
       50
102
RTVSPost2010PropOp42
 70
     1
102
RTVSPost2010Prop43
 90
        3
102
RTVSPost2010PropOp43
 70
     1
102
RTVSPost2010Prop44ColorIndex
 90
        5
102
RTVSPost2010Prop44ColorRGB
 90
      255
102
RTVSPost2010PropOp44
 70
     1
102
RTVSPost2010Prop45
280
     0
102
RTVSPost2010PropOp45
 70
     1
102
RTVSPost2010Prop46
 90
       50
102
RTVSPost2010PropOp46
 70
     1
102
RTVSPost2010Prop47
 90
       50
102
RTVSPost2010PropOp47
 70
     1
102
RTVSPost2010Prop48
 90
       50
102
RTVSPost2010PropOp48
 70
     1
102
RTVSPost2010Prop49
280
     0
102
RTVSPost2010PropOp49
 70
     1
102
RTVSPost2010Prop50
 90
       50
102
RTVSPost2010PropOp50
 70
     1
102
RTVSPost2010Prop51ColorIndex
 90
      256
102
RTVSPost2010Prop51ColorRGB
 90
-16777216
102
RTVSPost2010PropOp51
 70
     0
102
RTVSPost2010Prop52
140
1.0
102
RTVSPost2010PropOp52
 70
     0
102
RTVSPost2010Prop53
 90
        2
102
RTVSPost2010PropOp53
 70
     1
102
RTVSPost2010Prop54
  1
strokes_ogs.tif
102
RTVSPost2010PropOp54
 70
     1
102
RTVSPost2010Prop55
280
     0
102
RTVSPost2010PropOp55
 70
     1
102
RTVSPost2010Prop56
140
1.0
102
RTVSPost2010PropOp56
 70
     1
102
RTVSPost2010Prop57
140
1.0
102
RTVSPost2010PropOp57
 70
     1
102
RTVSPropertyOp0
 70
     1
102
RTVSPropertyOp1
 70
     1
102
RTVSPropertyOp2
 70
     1
102
RTVSPropertyOp3
 70
     1
102
RTVSPropertyOp4
 70
     1
102
RTVSPropertyOp5
 70
     1
102
RTVSPropertyOp6
 70
     1
102
RTVSPropertyOp7
 70
     1
102
RTVSPropertyOp8
 70
     1
102
RTVSPropertyOp9
 70
     1
102
RTVSPropertyOp10
 70
     1
102
RTVSPropertyOp11
 70
     1
102
RTVSPropertyOp12
 70
     1
102
RTVSPropertyOp13
 70
     1
102
RTVSPropertyOp14
 70
     1
102
RTVSPropertyOp15
 70
     1
102
RTVSPropertyOp16
 70
     1
102
RTVSPropertyOp17
 70
     1
102
RTVSPropertyOp18
 70
     1
102
RTVSPropertyOp19
 70
     1
102
RTVSPropertyOp20
 70
     1
102
RTVSPropertyOp21
 70
     1
102
RTVSPropertyOp22
 70
     1
102
RTVSPropertyOp23
 70
     1
102
RTVSPropertyOp24
 70
     1
102
RTVSPropertyOp25
 70
     1
102
RTVSPropertyOp26
 70
     1
102
RTVSPropertyOp27
 70
     1
102
RTVSPropertyOp28
 70
     1
102
RTVSPropertyOp29
 70
     1
102
RTVSPropertyOp30
 70
     1
102
RTVSPropertyOp31
 70
     1
102
RTVSPropertyOp32
 70
     1
102
RTVSPropertyOp33
 70
     1
102
RTVSPropertyOp34
 70
     1
102
RTVSPropertyOp35
 70
     1
102
RTVSPropertyOp36
 70
     1
102
RTVSPropertyOp37
 70
     1
102
RTVSPropertyOp38
 70
     1
102
RTVSPropertyOp39
 70
     1
102
RTVSPropertyOp40
 70
     1
102
RTVSPropertyOp41
 70
     1
102
RTVSPropertyOp42
 70
     1
102
RTVSPropertyOp43
 70
     1
102
RTVSPropertyOp44
 70
     1
102
RTVSPropertyOp45
 70
     1
102
RTVSPropertyOp46
 70
     1
102
RTVSPropertyOp47
 70
     1
102
RTVSPropertyOp48
 70
     1
102
RTVSPropertyOp49
 70
     1
102
RTVSPropertyOp50
 70
     1
102
RTVSPropertyOp51
 70
     0
102
RTVSPropertyOp52
 70
     0
102
RTVSPropertyOp53
 70
     1
102
RTVSPropertyOp54
 70
     1
102
RTVSPropertyOp55
 70
     1
102
RTVSPropertyOp56
 70
     1
102
RTVSPropertyOp57
 70
     1
102
RTVSPropertyOp58
 70
     1
102
RTVSPropertyOp59
 70
     1
102
RTVSPropertyOp60
 70
     1
102
RTVSPropertyOp61
 70
     1
102
RTVSPropertyOp62
 70
     1
  0
XRECORD
  5
98DD
102
{ACAD_REACTORS
330
98DC
102
}
330
98DC
100
AcDbXrecord
280
     1
102
RTVSPost2010Prop28
280
     0
102
RTVSPost2010PropOp28
 70
     1
102
RTVSPost2010Prop29
280
     1
102
RTVSPost2010PropOp29
 70
     1
102
RTVSPost2010Prop30
280
     1
102
RTVSPost2010PropOp30
 70
     1
102
RTVSPost2010Prop31
280
     0
102
RTVSPost2010PropOp31
 70
     1
102
RTVSPost2010Prop32
280
     0
102
RTVSPost2010PropOp32
 70
     1
102
RTVSPost2010Prop33
280
     0
102
RTVSPost2010PropOp33
 70
     1
102
RTVSPost2010Prop34
280
     0
102
RTVSPost2010PropOp34
 70
     1
102
RTVSPost2010Prop35
280
     0
102
RTVSPost2010PropOp35
 70
     1
102
RTVSPost2010Prop36
280
     0
102
RTVSPost2010PropOp36
 70
     1
102
RTVSPost2010Prop37
 90
       50
102
RTVSPost2010PropOp37
 70
     1
102
RTVSPost2010Prop38
140
0.0
102
RTVSPost2010PropOp38
 70
     1
102
RTVSPost2010Prop39
140
1.0
102
RTVSPost2010PropOp39
 70
     1
102
RTVSPost2010Prop40
 90
        0
102
RTVSPost2010PropOp40
 70
     1
102
RTVSPost2010Prop41ColorIndex
 90
       18
102
RTVSPost2010Prop41ColorRGB
 90
        0
102
RTVSPost2010PropOp41
 70
     1
102
RTVSPost2010Prop42
 90
       50
102
RTVSPost2010PropOp42
 70
     1
102
RTVSPost2010Prop43
 90
        3
102
RTVSPost2010PropOp43
 70
     1
102
RTVSPost2010Prop44ColorIndex
 90
        5
102
RTVSPost2010Prop44ColorRGB
 90
      255
102
RTVSPost2010PropOp44
 70
     1
102
RTVSPost2010Prop45
280
     0
102
RTVSPost2010PropOp45
 70
     1
102
RTVSPost2010Prop46
 90
       50
102
RTVSPost2010PropOp46
 70
     1
102
RTVSPost2010Prop47
 90
       50
102
RTVSPost2010PropOp47
 70
     1
102
RTVSPost2010Prop48
 90
       50
102
RTVSPost2010PropOp48
 70
     1
102
RTVSPost2010Prop49
280
     0
102
RTVSPost2010PropOp49
 70
     1
102
RTVSPost2010Prop50
 90
       50
102
RTVSPost2010PropOp50
 70
     1
102
RTVSPost2010Prop51ColorIndex
 90
      256
102
RTVSPost2010Prop51ColorRGB
 90
-16777216
102
RTVSPost2010PropOp51
 70
     0
102
RTVSPost2010Prop52
140
1.0
102
RTVSPost2010PropOp52
 70
     0
102
RTVSPost2010Prop53
 90
        2
102
RTVSPost2010PropOp53
 70
     1
102
RTVSPost2010Prop54
  1
strokes_ogs.tif
102
RTVSPost2010PropOp54
 70
     1
102
RTVSPost2010Prop55
280
     0
102
RTVSPost2010PropOp55
 70
     1
102
RTVSPost2010Prop56
140
1.0
102
RTVSPost2010PropOp56
 70
     1
102
RTVSPost2010Prop57
140
1.0
102
RTVSPost2010PropOp57
 70
     1
102
RTVSPropertyOp0
 70
     1
102
RTVSPropertyOp1
 70
     1
102
RTVSPropertyOp2
 70
     1
102
RTVSPropertyOp3
 70
     1
102
RTVSPropertyOp4
 70
     1
102
RTVSPropertyOp5
 70
     1
102
RTVSPropertyOp6
 70
     1
102
RTVSPropertyOp7
 70
     1
102
RTVSPropertyOp8
 70
     1
102
RTVSPropertyOp9
 70
     1
102
RTVSPropertyOp10
 70
     1
102
RTVSPropertyOp11
 70
     1
102
RTVSPropertyOp12
 70
     1
102
RTVSPropertyOp13
 70
     1
102
RTVSPropertyOp14
 70
     1
102
RTVSPropertyOp15
 70
     1
102
RTVSPropertyOp16
 70
     1
102
RTVSPropertyOp17
 70
     1
102
RTVSPropertyOp18
 70
     1
102
RTVSPropertyOp19
 70
     1
102
RTVSPropertyOp20
 70
     1
102
RTVSPropertyOp21
 70
     1
102
RTVSPropertyOp22
 70
     1
102
RTVSPropertyOp23
 70
     1
102
RTVSPropertyOp24
 70
     1
102
RTVSPropertyOp25
 70
     1
102
RTVSPropertyOp26
 70
     1
102
RTVSPropertyOp27
 70
     1
102
RTVSPropertyOp28
 70
     1
102
RTVSPropertyOp29
 70
     1
102
RTVSPropertyOp30
 70
     1
102
RTVSPropertyOp31
 70
     1
102
RTVSPropertyOp32
 70
     1
102
RTVSPropertyOp33
 70
     1
102
RTVSPropertyOp34
 70
     1
102
RTVSPropertyOp35
 70
     1
102
RTVSPropertyOp36
 70
     1
102
RTVSPropertyOp37
 70
     1
102
RTVSPropertyOp38
 70
     1
102
RTVSPropertyOp39
 70
     1
102
RTVSPropertyOp40
 70
     1
102
RTVSPropertyOp41
 70
     1
102
RTVSPropertyOp42
 70
     1
102
RTVSPropertyOp43
 70
     1
102
RTVSPropertyOp44
 70
     1
102
RTVSPropertyOp45
 70
     1
102
RTVSPropertyOp46
 70
     1
102
RTVSPropertyOp47
 70
     1
102
RTVSPropertyOp48
 70
     1
102
RTVSPropertyOp49
 70
     1
102
RTVSPropertyOp50
 70
     1
102
RTVSPropertyOp51
 70
     0
102
RTVSPropertyOp52
 70
     0
102
RTVSPropertyOp53
 70
     1
102
RTVSPropertyOp54
 70
     1
102
RTVSPropertyOp55
 70
     1
102
RTVSPropertyOp56
 70
     1
102
RTVSPropertyOp57
 70
     1
102
RTVSPropertyOp58
 70
     1
102
RTVSPropertyOp59
 70
     1
102
RTVSPropertyOp60
 70
     1
102
RTVSPropertyOp61
 70
     1
102
RTVSPropertyOp62
 70
     1
  0
XRECORD
  5
98E5
102
{ACAD_REACTORS
330
98E4
102
}
330
98E4
100
AcDbXrecord
280
     1
102
RTVSPost2010Prop28
280
     0
102
RTVSPost2010PropOp28
 70
     1
102
RTVSPost2010Prop29
280
     1
102
RTVSPost2010PropOp29
 70
     1
102
RTVSPost2010Prop30
280
     1
102
RTVSPost2010PropOp30
 70
     1
102
RTVSPost2010Prop31
280
     0
102
RTVSPost2010PropOp31
 70
     1
102
RTVSPost2010Prop32
280
     0
102
RTVSPost2010PropOp32
 70
     1
102
RTVSPost2010Prop33
280
     0
102
RTVSPost2010PropOp33
 70
     1
102
RTVSPost2010Prop34
280
     0
102
RTVSPost2010PropOp34
 70
     1
102
RTVSPost2010Prop35
280
     0
102
RTVSPost2010PropOp35
 70
     1
102
RTVSPost2010Prop36
280
     0
102
RTVSPost2010PropOp36
 70
     1
102
RTVSPost2010Prop37
 90
       50
102
RTVSPost2010PropOp37
 70
     1
102
RTVSPost2010Prop38
140
0.0
102
RTVSPost2010PropOp38
 70
     1
102
RTVSPost2010Prop39
140
1.0
102
RTVSPost2010PropOp39
 70
     1
102
RTVSPost2010Prop40
 90
        0
102
RTVSPost2010PropOp40
 70
     1
102
RTVSPost2010Prop41ColorIndex
 90
       18
102
RTVSPost2010Prop41ColorRGB
 90
        0
102
RTVSPost2010PropOp41
 70
     1
102
RTVSPost2010Prop42
 90
       50
102
RTVSPost2010PropOp42
 70
     1
102
RTVSPost2010Prop43
 90
        3
102
RTVSPost2010PropOp43
 70
     1
102
RTVSPost2010Prop44ColorIndex
 90
        5
102
RTVSPost2010Prop44ColorRGB
 90
      255
102
RTVSPost2010PropOp44
 70
     1
102
RTVSPost2010Prop45
280
     0
102
RTVSPost2010PropOp45
 70
     1
102
RTVSPost2010Prop46
 90
       50
102
RTVSPost2010PropOp46
 70
     1
102
RTVSPost2010Prop47
 90
       50
102
RTVSPost2010PropOp47
 70
     1
102
RTVSPost2010Prop48
 90
       50
102
RTVSPost2010PropOp48
 70
     1
102
RTVSPost2010Prop49
280
     0
102
RTVSPost2010PropOp49
 70
     1
102
RTVSPost2010Prop50
 90
       50
102
RTVSPost2010PropOp50
 70
     1
102
RTVSPost2010Prop51ColorIndex
 90
      256
102
RTVSPost2010Prop51ColorRGB
 90
-16777216
102
RTVSPost2010PropOp51
 70
     0
102
RTVSPost2010Prop52
140
1.0
102
RTVSPost2010PropOp52
 70
     0
102
RTVSPost2010Prop53
 90
        2
102
RTVSPost2010PropOp53
 70
     1
102
RTVSPost2010Prop54
  1
strokes_ogs.tif
102
RTVSPost2010PropOp54
 70
     1
102
RTVSPost2010Prop55
280
     0
102
RTVSPost2010PropOp55
 70
     1
102
RTVSPost2010Prop56
140
1.0
102
RTVSPost2010PropOp56
 70
     1
102
RTVSPost2010Prop57
140
1.0
102
RTVSPost2010PropOp57
 70
     1
102
RTVSPropertyOp0
 70
     1
102
RTVSPropertyOp1
 70
     1
102
RTVSPropertyOp2
 70
     1
102
RTVSPropertyOp3
 70
     1
102
RTVSPropertyOp4
 70
     1
102
RTVSPropertyOp5
 70
     1
102
RTVSPropertyOp6
 70
     1
102
RTVSPropertyOp7
 70
     1
102
RTVSPropertyOp8
 70
     1
102
RTVSPropertyOp9
 70
     1
102
RTVSPropertyOp10
 70
     1
102
RTVSPropertyOp11
 70
     1
102
RTVSPropertyOp12
 70
     1
102
RTVSPropertyOp13
 70
     1
102
RTVSPropertyOp14
 70
     1
102
RTVSPropertyOp15
 70
     1
102
RTVSPropertyOp16
 70
     1
102
RTVSPropertyOp17
 70
     1
102
RTVSPropertyOp18
 70
     1
102
RTVSPropertyOp19
 70
     1
102
RTVSPropertyOp20
 70
     1
102
RTVSPropertyOp21
 70
     1
102
RTVSPropertyOp22
 70
     1
102
RTVSPropertyOp23
 70
     1
102
RTVSPropertyOp24
 70
     1
102
RTVSPropertyOp25
 70
     1
102
RTVSPropertyOp26
 70
     1
102
RTVSPropertyOp27
 70
     1
102
RTVSPropertyOp28
 70
     1
102
RTVSPropertyOp29
 70
     1
102
RTVSPropertyOp30
 70
     1
102
RTVSPropertyOp31
 70
     1
102
RTVSPropertyOp32
 70
     1
102
RTVSPropertyOp33
 70
     1
102
RTVSPropertyOp34
 70
     1
102
RTVSPropertyOp35
 70
     1
102
RTVSPropertyOp36
 70
     1
102
RTVSPropertyOp37
 70
     1
102
RTVSPropertyOp38
 70
     1
102
RTVSPropertyOp39
 70
     1
102
RTVSPropertyOp40
 70
     1
102
RTVSPropertyOp41
 70
     1
102
RTVSPropertyOp42
 70
     1
102
RTVSPropertyOp43
 70
     1
102
RTVSPropertyOp44
 70
     1
102
RTVSPropertyOp45
 70
     1
102
RTVSPropertyOp46
 70
     1
102
RTVSPropertyOp47
 70
     1
102
RTVSPropertyOp48
 70
     1
102
RTVSPropertyOp49
 70
     1
102
RTVSPropertyOp50
 70
     1
102
RTVSPropertyOp51
 70
     0
102
RTVSPropertyOp52
 70
     0
102
RTVSPropertyOp53
 70
     1
102
RTVSPropertyOp54
 70
     1
102
RTVSPropertyOp55
 70
     1
102
RTVSPropertyOp56
 70
     1
102
RTVSPropertyOp57
 70
     1
102
RTVSPropertyOp58
 70
     1
102
RTVSPropertyOp59
 70
     1
102
RTVSPropertyOp60
 70
     1
102
RTVSPropertyOp61
 70
     1
102
RTVSPropertyOp62
 70
     1
  0
XRECORD
  5
9901
102
{ACAD_REACTORS
330
9900
102
}
330
9900
100
AcDbXrecord
280
     1
102
RTVSPost2010Prop28
280
     0
102
RTVSPost2010PropOp28
 70
     1
102
RTVSPost2010Prop29
280
     1
102
RTVSPost2010PropOp29
 70
     1
102
RTVSPost2010Prop30
280
     1
102
RTVSPost2010PropOp30
 70
     1
102
RTVSPost2010Prop31
280
     0
102
RTVSPost2010PropOp31
 70
     1
102
RTVSPost2010Prop32
280
     0
102
RTVSPost2010PropOp32
 70
     1
102
RTVSPost2010Prop33
280
     0
102
RTVSPost2010PropOp33
 70
     1
102
RTVSPost2010Prop34
280
     0
102
RTVSPost2010PropOp34
 70
     1
102
RTVSPost2010Prop35
280
     0
102
RTVSPost2010PropOp35
 70
     1
102
RTVSPost2010Prop36
280
     0
102
RTVSPost2010PropOp36
 70
     1
102
RTVSPost2010Prop37
 90
       50
102
RTVSPost2010PropOp37
 70
     0
102
RTVSPost2010Prop38
140
0.0
102
RTVSPost2010PropOp38
 70
     0
102
RTVSPost2010Prop39
140
1.0
102
RTVSPost2010PropOp39
 70
     0
102
RTVSPost2010Prop40
 90
        0
102
RTVSPost2010PropOp40
 70
     0
102
RTVSPost2010Prop41ColorIndex
 90
       18
102
RTVSPost2010Prop41ColorRGB
 90
        0
102
RTVSPost2010PropOp41
 70
     0
102
RTVSPost2010Prop42
 90
       50
102
RTVSPost2010PropOp42
 70
     0
102
RTVSPost2010Prop43
 90
        3
102
RTVSPost2010PropOp43
 70
     0
102
RTVSPost2010Prop44ColorIndex
 90
        5
102
RTVSPost2010Prop44ColorRGB
 90
      255
102
RTVSPost2010PropOp44
 70
     0
102
RTVSPost2010Prop45
280
     0
102
RTVSPost2010PropOp45
 70
     1
102
RTVSPost2010Prop46
 90
       50
102
RTVSPost2010PropOp46
 70
     0
102
RTVSPost2010Prop47
 90
       50
102
RTVSPost2010PropOp47
 70
     0
102
RTVSPost2010Prop48
 90
       50
102
RTVSPost2010PropOp48
 70
     0
102
RTVSPost2010Prop49
280
     0
102
RTVSPost2010PropOp49
 70
     1
102
RTVSPost2010Prop50
 90
       50
102
RTVSPost2010PropOp50
 70
     0
102
RTVSPost2010Prop51ColorIndex
 90
      256
102
RTVSPost2010Prop51ColorRGB
 90
-16777216
102
RTVSPost2010PropOp51
 70
     0
102
RTVSPost2010Prop52
140
1.0
102
RTVSPost2010PropOp52
 70
     0
102
RTVSPost2010Prop53
 90
        2
102
RTVSPost2010PropOp53
 70
     0
102
RTVSPost2010Prop54
  1
strokes_ogs.tif
102
RTVSPost2010PropOp54
 70
     0
102
RTVSPost2010Prop55
280
     0
102
RTVSPost2010PropOp55
 70
     1
102
RTVSPost2010Prop56
140
1.0
102
RTVSPost2010PropOp56
 70
     0
102
RTVSPost2010Prop57
140
1.0
102
RTVSPost2010PropOp57
 70
     0
102
RTVSPropertyOp0
 70
     0
102
RTVSPropertyOp1
 70
     0
102
RTVSPropertyOp2
 70
     0
102
RTVSPropertyOp3
 70
     0
102
RTVSPropertyOp4
 70
     0
102
RTVSPropertyOp5
 70
     0
102
RTVSPropertyOp6
 70
     0
102
RTVSPropertyOp7
 70
     0
102
RTVSPropertyOp8
 70
     0
102
RTVSPropertyOp9
 70
     0
102
RTVSPropertyOp10
 70
     0
102
RTVSPropertyOp11
 70
     0
102
RTVSPropertyOp12
 70
     0
102
RTVSPropertyOp13
 70
     0
102
RTVSPropertyOp14
 70
     2
102
RTVSPropertyOp15
 70
     0
102
RTVSPropertyOp16
 70
     0
102
RTVSPropertyOp17
 70
     0
102
RTVSPropertyOp18
 70
     0
102
RTVSPropertyOp19
 70
     0
102
RTVSPropertyOp20
 70
     0
102
RTVSPropertyOp21
 70
     0
102
RTVSPropertyOp22
 70
     0
102
RTVSPropertyOp23
 70
     0
102
RTVSPropertyOp24
 70
     0
102
RTVSPropertyOp25
 70
     0
102
RTVSPropertyOp26
 70
     0
102
RTVSPropertyOp27
 70
     0
102
RTVSPropertyOp28
 70
     1
102
RTVSPropertyOp29
 70
     1
102
RTVSPropertyOp30
 70
     1
102
RTVSPropertyOp31
 70
     1
102
RTVSPropertyOp32
 70
     1
102
RTVSPropertyOp33
 70
     1
102
RTVSPropertyOp34
 70
     1
102
RTVSPropertyOp35
 70
     1
102
RTVSPropertyOp36
 70
     1
102
RTVSPropertyOp37
 70
     0
102
RTVSPropertyOp38
 70
     0
102
RTVSPropertyOp39
 70
     0
102
RTVSPropertyOp40
 70
     0
102
RTVSPropertyOp41
 70
     0
102
RTVSPropertyOp42
 70
     0
102
RTVSPropertyOp43
 70
     0
102
RTVSPropertyOp44
 70
     0
102
RTVSPropertyOp45
 70
     1
102
RTVSPropertyOp46
 70
     0
102
RTVSPropertyOp47
 70
     0
102
RTVSPropertyOp48
 70
     0
102
RTVSPropertyOp49
 70
     1
102
RTVSPropertyOp50
 70
     0
102
RTVSPropertyOp51
 70
     0
102
RTVSPropertyOp52
 70
     0
102
RTVSPropertyOp53
 70
     0
102
RTVSPropertyOp54
 70
     0
102
RTVSPropertyOp55
 70
     1
102
RTVSPropertyOp56
 70
     0
102
RTVSPropertyOp57
 70
     0
102
RTVSPropertyOp58
 70
     0
102
RTVSPropertyOp59
 70
     0
102
RTVSPropertyOp60
 70
     0
102
RTVSPropertyOp61
 70
     0
102
RTVSPropertyOp62
 70
     0
  0
XRECORD
  5
98F1
102
{ACAD_REACTORS
330
98F0
102
}
330
98F0
100
AcDbXrecord
280
     1
102
RTVSPost2010Prop28
280
     0
102
RTVSPost2010PropOp28
 70
     1
102
RTVSPost2010Prop29
280
     1
102
RTVSPost2010PropOp29
 70
     1
102
RTVSPost2010Prop30
280
     1
102
RTVSPost2010PropOp30
 70
     1
102
RTVSPost2010Prop31
280
     0
102
RTVSPost2010PropOp31
 70
     1
102
RTVSPost2010Prop32
280
     0
102
RTVSPost2010PropOp32
 70
     1
102
RTVSPost2010Prop33
280
     0
102
RTVSPost2010PropOp33
 70
     1
102
RTVSPost2010Prop34
280
     0
102
RTVSPost2010PropOp34
 70
     1
102
RTVSPost2010Prop35
280
     0
102
RTVSPost2010PropOp35
 70
     1
102
RTVSPost2010Prop36
280
     0
102
RTVSPost2010PropOp36
 70
     1
102
RTVSPost2010Prop37
 90
       50
102
RTVSPost2010PropOp37
 70
     1
102
RTVSPost2010Prop38
140
0.0
102
RTVSPost2010PropOp38
 70
     1
102
RTVSPost2010Prop39
140
1.0
102
RTVSPost2010PropOp39
 70
     1
102
RTVSPost2010Prop40
 90
        0
102
RTVSPost2010PropOp40
 70
     1
102
RTVSPost2010Prop41ColorIndex
 90
       18
102
RTVSPost2010Prop41ColorRGB
 90
        0
102
RTVSPost2010PropOp41
 70
     1
102
RTVSPost2010Prop42
 90
       50
102
RTVSPost2010PropOp42
 70
     1
102
RTVSPost2010Prop43
 90
        3
102
RTVSPost2010PropOp43
 70
     1
102
RTVSPost2010Prop44ColorIndex
 90
        5
102
RTVSPost2010Prop44ColorRGB
 90
      255
102
RTVSPost2010PropOp44
 70
     1
102
RTVSPost2010Prop45
280
     0
102
RTVSPost2010PropOp45
 70
     1
102
RTVSPost2010Prop46
 90
       50
102
RTVSPost2010PropOp46
 70
     1
102
RTVSPost2010Prop47
 90
       50
102
RTVSPost2010PropOp47
 70
     1
102
RTVSPost2010Prop48
 90
       50
102
RTVSPost2010PropOp48
 70
     1
102
RTVSPost2010Prop49
280
     0
102
RTVSPost2010PropOp49
 70
     1
102
RTVSPost2010Prop50
 90
       50
102
RTVSPost2010PropOp50
 70
     1
102
RTVSPost2010Prop51ColorIndex
 90
      256
102
RTVSPost2010Prop51ColorRGB
 90
-16777216
102
RTVSPost2010PropOp51
 70
     0
102
RTVSPost2010Prop52
140
1.0
102
RTVSPost2010PropOp52
 70
     0
102
RTVSPost2010Prop53
 90
        2
102
RTVSPost2010PropOp53
 70
     1
102
RTVSPost2010Prop54
  1
strokes_ogs.tif
102
RTVSPost2010PropOp54
 70
     1
102
RTVSPost2010Prop55
280
     0
102
RTVSPost2010PropOp55
 70
     1
102
RTVSPost2010Prop56
140
1.0
102
RTVSPost2010PropOp56
 70
     1
102
RTVSPost2010Prop57
140
1.0
102
RTVSPost2010PropOp57
 70
     1
102
RTVSPropertyOp0
 70
     1
102
RTVSPropertyOp1
 70
     1
102
RTVSPropertyOp2
 70
     1
102
RTVSPropertyOp3
 70
     1
102
RTVSPropertyOp4
 70
     1
102
RTVSPropertyOp5
 70
     1
102
RTVSPropertyOp6
 70
     1
102
RTVSPropertyOp7
 70
     1
102
RTVSPropertyOp8
 70
     1
102
RTVSPropertyOp9
 70
     1
102
RTVSPropertyOp10
 70
     1
102
RTVSPropertyOp11
 70
     1
102
RTVSPropertyOp12
 70
     1
102
RTVSPropertyOp13
 70
     1
102
RTVSPropertyOp14
 70
     1
102
RTVSPropertyOp15
 70
     1
102
RTVSPropertyOp16
 70
     1
102
RTVSPropertyOp17
 70
     1
102
RTVSPropertyOp18
 70
     1
102
RTVSPropertyOp19
 70
     1
102
RTVSPropertyOp20
 70
     1
102
RTVSPropertyOp21
 70
     1
102
RTVSPropertyOp22
 70
     1
102
RTVSPropertyOp23
 70
     1
102
RTVSPropertyOp24
 70
     1
102
RTVSPropertyOp25
 70
     1
102
RTVSPropertyOp26
 70
     1
102
RTVSPropertyOp27
 70
     1
102
RTVSPropertyOp28
 70
     1
102
RTVSPropertyOp29
 70
     1
102
RTVSPropertyOp30
 70
     1
102
RTVSPropertyOp31
 70
     1
102
RTVSPropertyOp32
 70
     1
102
RTVSPropertyOp33
 70
     1
102
RTVSPropertyOp34
 70
     1
102
RTVSPropertyOp35
 70
     1
102
RTVSPropertyOp36
 70
     1
102
RTVSPropertyOp37
 70
     1
102
RTVSPropertyOp38
 70
     1
102
RTVSPropertyOp39
 70
     1
102
RTVSPropertyOp40
 70
     1
102
RTVSPropertyOp41
 70
     1
102
RTVSPropertyOp42
 70
     1
102
RTVSPropertyOp43
 70
     1
102
RTVSPropertyOp44
 70
     1
102
RTVSPropertyOp45
 70
     1
102
RTVSPropertyOp46
 70
     1
102
RTVSPropertyOp47
 70
     1
102
RTVSPropertyOp48
 70
     1
102
RTVSPropertyOp49
 70
     1
102
RTVSPropertyOp50
 70
     1
102
RTVSPropertyOp51
 70
     0
102
RTVSPropertyOp52
 70
     0
102
RTVSPropertyOp53
 70
     1
102
RTVSPropertyOp54
 70
     1
102
RTVSPropertyOp55
 70
     1
102
RTVSPropertyOp56
 70
     1
102
RTVSPropertyOp57
 70
     1
102
RTVSPropertyOp58
 70
     1
102
RTVSPropertyOp59
 70
     1
102
RTVSPropertyOp60
 70
     1
102
RTVSPropertyOp61
 70
     1
102
RTVSPropertyOp62
 70
     1
  0
XRECORD
  5
9903
102
{ACAD_REACTORS
330
9902
102
}
330
9902
100
AcDbXrecord
280
     1
102
RTVSPost2010Prop28
280
     0
102
RTVSPost2010PropOp28
 70
     1
102
RTVSPost2010Prop29
280
     1
102
RTVSPost2010PropOp29
 70
     1
102
RTVSPost2010Prop30
280
     1
102
RTVSPost2010PropOp30
 70
     1
102
RTVSPost2010Prop31
280
     0
102
RTVSPost2010PropOp31
 70
     1
102
RTVSPost2010Prop32
280
     0
102
RTVSPost2010PropOp32
 70
     1
102
RTVSPost2010Prop33
280
     0
102
RTVSPost2010PropOp33
 70
     1
102
RTVSPost2010Prop34
280
     0
102
RTVSPost2010PropOp34
 70
     1
102
RTVSPost2010Prop35
280
     0
102
RTVSPost2010PropOp35
 70
     1
102
RTVSPost2010Prop36
280
     0
102
RTVSPost2010PropOp36
 70
     1
102
RTVSPost2010Prop37
 90
       50
102
RTVSPost2010PropOp37
 70
     0
102
RTVSPost2010Prop38
140
0.0
102
RTVSPost2010PropOp38
 70
     0
102
RTVSPost2010Prop39
140
1.0
102
RTVSPost2010PropOp39
 70
     0
102
RTVSPost2010Prop40
 90
        0
102
RTVSPost2010PropOp40
 70
     0
102
RTVSPost2010Prop41ColorIndex
 90
       18
102
RTVSPost2010Prop41ColorRGB
 90
        0
102
RTVSPost2010PropOp41
 70
     0
102
RTVSPost2010Prop42
 90
       50
102
RTVSPost2010PropOp42
 70
     0
102
RTVSPost2010Prop43
 90
        3
102
RTVSPost2010PropOp43
 70
     0
102
RTVSPost2010Prop44ColorIndex
 90
        5
102
RTVSPost2010Prop44ColorRGB
 90
      255
102
RTVSPost2010PropOp44
 70
     0
102
RTVSPost2010Prop45
280
     0
102
RTVSPost2010PropOp45
 70
     1
102
RTVSPost2010Prop46
 90
       50
102
RTVSPost2010PropOp46
 70
     0
102
RTVSPost2010Prop47
 90
       50
102
RTVSPost2010PropOp47
 70
     0
102
RTVSPost2010Prop48
 90
       50
102
RTVSPost2010PropOp48
 70
     0
102
RTVSPost2010Prop49
280
     0
102
RTVSPost2010PropOp49
 70
     1
102
RTVSPost2010Prop50
 90
       50
102
RTVSPost2010PropOp50
 70
     0
102
RTVSPost2010Prop51ColorIndex
 90
      256
102
RTVSPost2010Prop51ColorRGB
 90
-16777216
102
RTVSPost2010PropOp51
 70
     0
102
RTVSPost2010Prop52
140
1.0
102
RTVSPost2010PropOp52
 70
     0
102
RTVSPost2010Prop53
 90
        2
102
RTVSPost2010PropOp53
 70
     0
102
RTVSPost2010Prop54
  1
strokes_ogs.tif
102
RTVSPost2010PropOp54
 70
     0
102
RTVSPost2010Prop55
280
     0
102
RTVSPost2010PropOp55
 70
     1
102
RTVSPost2010Prop56
140
1.0
102
RTVSPost2010PropOp56
 70
     0
102
RTVSPost2010Prop57
140
1.0
102
RTVSPost2010PropOp57
 70
     0
102
RTVSPropertyOp0
 70
     0
102
RTVSPropertyOp1
 70
     0
102
RTVSPropertyOp2
 70
     0
102
RTVSPropertyOp3
 70
     0
102
RTVSPropertyOp4
 70
     0
102
RTVSPropertyOp5
 70
     0
102
RTVSPropertyOp6
 70
     0
102
RTVSPropertyOp7
 70
     0
102
RTVSPropertyOp8
 70
     0
102
RTVSPropertyOp9
 70
     0
102
RTVSPropertyOp10
 70
     0
102
RTVSPropertyOp11
 70
     0
102
RTVSPropertyOp12
 70
     0
102
RTVSPropertyOp13
 70
     0
102
RTVSPropertyOp14
 70
     2
102
RTVSPropertyOp15
 70
     0
102
RTVSPropertyOp16
 70
     0
102
RTVSPropertyOp17
 70
     0
102
RTVSPropertyOp18
 70
     0
102
RTVSPropertyOp19
 70
     0
102
RTVSPropertyOp20
 70
     0
102
RTVSPropertyOp21
 70
     0
102
RTVSPropertyOp22
 70
     0
102
RTVSPropertyOp23
 70
     0
102
RTVSPropertyOp24
 70
     0
102
RTVSPropertyOp25
 70
     0
102
RTVSPropertyOp26
 70
     0
102
RTVSPropertyOp27
 70
     0
102
RTVSPropertyOp28
 70
     1
102
RTVSPropertyOp29
 70
     1
102
RTVSPropertyOp30
 70
     1
102
RTVSPropertyOp31
 70
     1
102
RTVSPropertyOp32
 70
     1
102
RTVSPropertyOp33
 70
     1
102
RTVSPropertyOp34
 70
     1
102
RTVSPropertyOp35
 70
     1
102
RTVSPropertyOp36
 70
     1
102
RTVSPropertyOp37
 70
     0
102
RTVSPropertyOp38
 70
     0
102
RTVSPropertyOp39
 70
     0
102
RTVSPropertyOp40
 70
     0
102
RTVSPropertyOp41
 70
     0
102
RTVSPropertyOp42
 70
     0
102
RTVSPropertyOp43
 70
     0
102
RTVSPropertyOp44
 70
     0
102
RTVSPropertyOp45
 70
     1
102
RTVSPropertyOp46
 70
     0
102
RTVSPropertyOp47
 70
     0
102
RTVSPropertyOp48
 70
     0
102
RTVSPropertyOp49
 70
     1
102
RTVSPropertyOp50
 70
     0
102
RTVSPropertyOp51
 70
     0
102
RTVSPropertyOp52
 70
     0
102
RTVSPropertyOp53
 70
     0
102
RTVSPropertyOp54
 70
     0
102
RTVSPropertyOp55
 70
     1
102
RTVSPropertyOp56
 70
     0
102
RTVSPropertyOp57
 70
     0
102
RTVSPropertyOp58
 70
     0
102
RTVSPropertyOp59
 70
     0
102
RTVSPropertyOp60
 70
     0
102
RTVSPropertyOp61
 70
     0
102
RTVSPropertyOp62
 70
     0
  0
XRECORD
  5
98E9
102
{ACAD_REACTORS
330
98E8
102
}
330
98E8
100
AcDbXrecord
280
     1
102
RTVSPost2010Prop28
280
     0
102
RTVSPost2010PropOp28
 70
     1
102
RTVSPost2010Prop29
280
     1
102
RTVSPost2010PropOp29
 70
     1
102
RTVSPost2010Prop30
280
     1
102
RTVSPost2010PropOp30
 70
     1
102
RTVSPost2010Prop31
280
     0
102
RTVSPost2010PropOp31
 70
     1
102
RTVSPost2010Prop32
280
     0
102
RTVSPost2010PropOp32
 70
     1
102
RTVSPost2010Prop33
280
     0
102
RTVSPost2010PropOp33
 70
     1
102
RTVSPost2010Prop34
280
     0
102
RTVSPost2010PropOp34
 70
     1
102
RTVSPost2010Prop35
280
     0
102
RTVSPost2010PropOp35
 70
     1
102
RTVSPost2010Prop36
280
     0
102
RTVSPost2010PropOp36
 70
     1
102
RTVSPost2010Prop37
 90
       50
102
RTVSPost2010PropOp37
 70
     1
102
RTVSPost2010Prop38
140
0.0
102
RTVSPost2010PropOp38
 70
     1
102
RTVSPost2010Prop39
140
1.0
102
RTVSPost2010PropOp39
 70
     1
102
RTVSPost2010Prop40
 90
        0
102
RTVSPost2010PropOp40
 70
     1
102
RTVSPost2010Prop41ColorIndex
 90
       18
102
RTVSPost2010Prop41ColorRGB
 90
        0
102
RTVSPost2010PropOp41
 70
     1
102
RTVSPost2010Prop42
 90
       50
102
RTVSPost2010PropOp42
 70
     1
102
RTVSPost2010Prop43
 90
        3
102
RTVSPost2010PropOp43
 70
     1
102
RTVSPost2010Prop44ColorIndex
 90
        5
102
RTVSPost2010Prop44ColorRGB
 90
      255
102
RTVSPost2010PropOp44
 70
     1
102
RTVSPost2010Prop45
280
     0
102
RTVSPost2010PropOp45
 70
     1
102
RTVSPost2010Prop46
 90
       50
102
RTVSPost2010PropOp46
 70
     1
102
RTVSPost2010Prop47
 90
       50
102
RTVSPost2010PropOp47
 70
     1
102
RTVSPost2010Prop48
 90
       50
102
RTVSPost2010PropOp48
 70
     1
102
RTVSPost2010Prop49
280
     0
102
RTVSPost2010PropOp49
 70
     1
102
RTVSPost2010Prop50
 90
       50
102
RTVSPost2010PropOp50
 70
     1
102
RTVSPost2010Prop51ColorIndex
 90
      256
102
RTVSPost2010Prop51ColorRGB
 90
-16777216
102
RTVSPost2010PropOp51
 70
     0
102
RTVSPost2010Prop52
140
1.0
102
RTVSPost2010PropOp52
 70
     0
102
RTVSPost2010Prop53
 90
        2
102
RTVSPost2010PropOp53
 70
     1
102
RTVSPost2010Prop54
  1
strokes_ogs.tif
102
RTVSPost2010PropOp54
 70
     1
102
RTVSPost2010Prop55
280
     0
102
RTVSPost2010PropOp55
 70
     1
102
RTVSPost2010Prop56
140
1.0
102
RTVSPost2010PropOp56
 70
     1
102
RTVSPost2010Prop57
140
1.0
102
RTVSPost2010PropOp57
 70
     1
102
RTVSPropertyOp0
 70
     1
102
RTVSPropertyOp1
 70
     1
102
RTVSPropertyOp2
 70
     1
102
RTVSPropertyOp3
 70
     1
102
RTVSPropertyOp4
 70
     1
102
RTVSPropertyOp5
 70
     1
102
RTVSPropertyOp6
 70
     1
102
RTVSPropertyOp7
 70
     1
102
RTVSPropertyOp8
 70
     1
102
RTVSPropertyOp9
 70
     1
102
RTVSPropertyOp10
 70
     1
102
RTVSPropertyOp11
 70
     1
102
RTVSPropertyOp12
 70
     1
102
RTVSPropertyOp13
 70
     1
102
RTVSPropertyOp14
 70
     1
102
RTVSPropertyOp15
 70
     1
102
RTVSPropertyOp16
 70
     1
102
RTVSPropertyOp17
 70
     1
102
RTVSPropertyOp18
 70
     1
102
RTVSPropertyOp19
 70
     1
102
RTVSPropertyOp20
 70
     1
102
RTVSPropertyOp21
 70
     1
102
RTVSPropertyOp22
 70
     1
102
RTVSPropertyOp23
 70
     1
102
RTVSPropertyOp24
 70
     1
102
RTVSPropertyOp25
 70
     1
102
RTVSPropertyOp26
 70
     1
102
RTVSPropertyOp27
 70
     1
102
RTVSPropertyOp28
 70
     1
102
RTVSPropertyOp29
 70
     1
102
RTVSPropertyOp30
 70
     1
102
RTVSPropertyOp31
 70
     1
102
RTVSPropertyOp32
 70
     1
102
RTVSPropertyOp33
 70
     1
102
RTVSPropertyOp34
 70
     1
102
RTVSPropertyOp35
 70
     1
102
RTVSPropertyOp36
 70
     1
102
RTVSPropertyOp37
 70
     1
102
RTVSPropertyOp38
 70
     1
102
RTVSPropertyOp39
 70
     1
102
RTVSPropertyOp40
 70
     1
102
RTVSPropertyOp41
 70
     1
102
RTVSPropertyOp42
 70
     1
102
RTVSPropertyOp43
 70
     1
102
RTVSPropertyOp44
 70
     1
102
RTVSPropertyOp45
 70
     1
102
RTVSPropertyOp46
 70
     1
102
RTVSPropertyOp47
 70
     1
102
RTVSPropertyOp48
 70
     1
102
RTVSPropertyOp49
 70
     1
102
RTVSPropertyOp50
 70
     1
102
RTVSPropertyOp51
 70
     0
102
RTVSPropertyOp52
 70
     0
102
RTVSPropertyOp53
 70
     1
102
RTVSPropertyOp54
 70
     1
102
RTVSPropertyOp55
 70
     1
102
RTVSPropertyOp56
 70
     1
102
RTVSPropertyOp57
 70
     1
102
RTVSPropertyOp58
 70
     1
102
RTVSPropertyOp59
 70
     1
102
RTVSPropertyOp60
 70
     1
102
RTVSPropertyOp61
 70
     1
102
RTVSPropertyOp62
 70
     1
  0
XRECORD
  5
98FF
102
{ACAD_REACTORS
330
98FE
102
}
330
98FE
100
AcDbXrecord
280
     1
102
RTVSPost2010Prop28
280
     0
102
RTVSPost2010PropOp28
 70
     1
102
RTVSPost2010Prop29
280
     1
102
RTVSPost2010PropOp29
 70
     1
102
RTVSPost2010Prop30
280
     1
102
RTVSPost2010PropOp30
 70
     1
102
RTVSPost2010Prop31
280
     0
102
RTVSPost2010PropOp31
 70
     1
102
RTVSPost2010Prop32
280
     0
102
RTVSPost2010PropOp32
 70
     1
102
RTVSPost2010Prop33
280
     0
102
RTVSPost2010PropOp33
 70
     1
102
RTVSPost2010Prop34
280
     0
102
RTVSPost2010PropOp34
 70
     1
102
RTVSPost2010Prop35
280
     0
102
RTVSPost2010PropOp35
 70
     1
102
RTVSPost2010Prop36
280
     0
102
RTVSPost2010PropOp36
 70
     1
102
RTVSPost2010Prop37
 90
       50
102
RTVSPost2010PropOp37
 70
     1
102
RTVSPost2010Prop38
140
0.0
102
RTVSPost2010PropOp38
 70
     1
102
RTVSPost2010Prop39
140
1.0
102
RTVSPost2010PropOp39
 70
     1
102
RTVSPost2010Prop40
 90
        0
102
RTVSPost2010PropOp40
 70
     1
102
RTVSPost2010Prop41ColorIndex
 90
       18
102
RTVSPost2010Prop41ColorRGB
 90
        0
102
RTVSPost2010PropOp41
 70
     1
102
RTVSPost2010Prop42
 90
       50
102
RTVSPost2010PropOp42
 70
     1
102
RTVSPost2010Prop43
 90
        3
102
RTVSPost2010PropOp43
 70
     1
102
RTVSPost2010Prop44ColorIndex
 90
        5
102
RTVSPost2010Prop44ColorRGB
 90
      255
102
RTVSPost2010PropOp44
 70
     1
102
RTVSPost2010Prop45
280
     0
102
RTVSPost2010PropOp45
 70
     1
102
RTVSPost2010Prop46
 90
       50
102
RTVSPost2010PropOp46
 70
     1
102
RTVSPost2010Prop47
 90
       50
102
RTVSPost2010PropOp47
 70
     1
102
RTVSPost2010Prop48
 90
       50
102
RTVSPost2010PropOp48
 70
     1
102
RTVSPost2010Prop49
280
     0
102
RTVSPost2010PropOp49
 70
     1
102
RTVSPost2010Prop50
 90
       50
102
RTVSPost2010PropOp50
 70
     1
102
RTVSPost2010Prop51ColorIndex
 90
      256
102
RTVSPost2010Prop51ColorRGB
 90
-16777216
102
RTVSPost2010PropOp51
 70
     0
102
RTVSPost2010Prop52
140
1.0
102
RTVSPost2010PropOp52
 70
     0
102
RTVSPost2010Prop53
 90
        2
102
RTVSPost2010PropOp53
 70
     1
102
RTVSPost2010Prop54
  1
strokes_ogs.tif
102
RTVSPost2010PropOp54
 70
     1
102
RTVSPost2010Prop55
280
     0
102
RTVSPost2010PropOp55
 70
     1
102
RTVSPost2010Prop56
140
1.0
102
RTVSPost2010PropOp56
 70
     1
102
RTVSPost2010Prop57
140
1.0
102
RTVSPost2010PropOp57
 70
     1
102
RTVSPropertyOp0
 70
     1
102
RTVSPropertyOp1
 70
     1
102
RTVSPropertyOp2
 70
     1
102
RTVSPropertyOp3
 70
     1
102
RTVSPropertyOp4
 70
     1
102
RTVSPropertyOp5
 70
     1
102
RTVSPropertyOp6
 70
     1
102
RTVSPropertyOp7
 70
     1
102
RTVSPropertyOp8
 70
     1
102
RTVSPropertyOp9
 70
     1
102
RTVSPropertyOp10
 70
     1
102
RTVSPropertyOp11
 70
     1
102
RTVSPropertyOp12
 70
     1
102
RTVSPropertyOp13
 70
     1
102
RTVSPropertyOp14
 70
     1
102
RTVSPropertyOp15
 70
     1
102
RTVSPropertyOp16
 70
     1
102
RTVSPropertyOp17
 70
     1
102
RTVSPropertyOp18
 70
     1
102
RTVSPropertyOp19
 70
     1
102
RTVSPropertyOp20
 70
     1
102
RTVSPropertyOp21
 70
     1
102
RTVSPropertyOp22
 70
     1
102
RTVSPropertyOp23
 70
     1
102
RTVSPropertyOp24
 70
     1
102
RTVSPropertyOp25
 70
     1
102
RTVSPropertyOp26
 70
     1
102
RTVSPropertyOp27
 70
     1
102
RTVSPropertyOp28
 70
     1
102
RTVSPropertyOp29
 70
     1
102
RTVSPropertyOp30
 70
     1
102
RTVSPropertyOp31
 70
     1
102
RTVSPropertyOp32
 70
     1
102
RTVSPropertyOp33
 70
     1
102
RTVSPropertyOp34
 70
     1
102
RTVSPropertyOp35
 70
     1
102
RTVSPropertyOp36
 70
     1
102
RTVSPropertyOp37
 70
     1
102
RTVSPropertyOp38
 70
     1
102
RTVSPropertyOp39
 70
     1
102
RTVSPropertyOp40
 70
     1
102
RTVSPropertyOp41
 70
     1
102
RTVSPropertyOp42
 70
     1
102
RTVSPropertyOp43
 70
     1
102
RTVSPropertyOp44
 70
     1
102
RTVSPropertyOp45
 70
     1
102
RTVSPropertyOp46
 70
     1
102
RTVSPropertyOp47
 70
     1
102
RTVSPropertyOp48
 70
     1
102
RTVSPropertyOp49
 70
     1
102
RTVSPropertyOp50
 70
     1
102
RTVSPropertyOp51
 70
     0
102
RTVSPropertyOp52
 70
     0
102
RTVSPropertyOp53
 70
     1
102
RTVSPropertyOp54
 70
     1
102
RTVSPropertyOp55
 70
     1
102
RTVSPropertyOp56
 70
     1
102
RTVSPropertyOp57
 70
     1
102
RTVSPropertyOp58
 70
     1
102
RTVSPropertyOp59
 70
     1
102
RTVSPropertyOp60
 70
     1
102
RTVSPropertyOp61
 70
     1
102
RTVSPropertyOp62
 70
     1
  0
XRECORD
  5
98FD
102
{ACAD_REACTORS
330
98FC
102
}
330
98FC
100
AcDbXrecord
280
     1
102
RTVSPost2010Prop28
280
     0
102
RTVSPost2010PropOp28
 70
     1
102
RTVSPost2010Prop29
280
     1
102
RTVSPost2010PropOp29
 70
     1
102
RTVSPost2010Prop30
280
     1
102
RTVSPost2010PropOp30
 70
     1
102
RTVSPost2010Prop31
280
     0
102
RTVSPost2010PropOp31
 70
     1
102
RTVSPost2010Prop32
280
     0
102
RTVSPost2010PropOp32
 70
     1
102
RTVSPost2010Prop33
280
     0
102
RTVSPost2010PropOp33
 70
     1
102
RTVSPost2010Prop34
280
     0
102
RTVSPost2010PropOp34
 70
     1
102
RTVSPost2010Prop35
280
     0
102
RTVSPost2010PropOp35
 70
     1
102
RTVSPost2010Prop36
280
     0
102
RTVSPost2010PropOp36
 70
     1
102
RTVSPost2010Prop37
 90
       50
102
RTVSPost2010PropOp37
 70
     1
102
RTVSPost2010Prop38
140
0.0
102
RTVSPost2010PropOp38
 70
     1
102
RTVSPost2010Prop39
140
1.0
102
RTVSPost2010PropOp39
 70
     1
102
RTVSPost2010Prop40
 90
        0
102
RTVSPost2010PropOp40
 70
     1
102
RTVSPost2010Prop41ColorIndex
 90
       18
102
RTVSPost2010Prop41ColorRGB
 90
        0
102
RTVSPost2010PropOp41
 70
     1
102
RTVSPost2010Prop42
 90
       50
102
RTVSPost2010PropOp42
 70
     1
102
RTVSPost2010Prop43
 90
        3
102
RTVSPost2010PropOp43
 70
     1
102
RTVSPost2010Prop44ColorIndex
 90
        5
102
RTVSPost2010Prop44ColorRGB
 90
      255
102
RTVSPost2010PropOp44
 70
     1
102
RTVSPost2010Prop45
280
     0
102
RTVSPost2010PropOp45
 70
     1
102
RTVSPost2010Prop46
 90
       50
102
RTVSPost2010PropOp46
 70
     1
102
RTVSPost2010Prop47
 90
       50
102
RTVSPost2010PropOp47
 70
     1
102
RTVSPost2010Prop48
 90
       50
102
RTVSPost2010PropOp48
 70
     1
102
RTVSPost2010Prop49
280
     0
102
RTVSPost2010PropOp49
 70
     1
102
RTVSPost2010Prop50
 90
       50
102
RTVSPost2010PropOp50
 70
     1
102
RTVSPost2010Prop51ColorIndex
 90
      256
102
RTVSPost2010Prop51ColorRGB
 90
-16777216
102
RTVSPost2010PropOp51
 70
     0
102
RTVSPost2010Prop52
140
1.0
102
RTVSPost2010PropOp52
 70
     0
102
RTVSPost2010Prop53
 90
        2
102
RTVSPost2010PropOp53
 70
     1
102
RTVSPost2010Prop54
  1
strokes_ogs.tif
102
RTVSPost2010PropOp54
 70
     1
102
RTVSPost2010Prop55
280
     0
102
RTVSPost2010PropOp55
 70
     1
102
RTVSPost2010Prop56
140
1.0
102
RTVSPost2010PropOp56
 70
     1
102
RTVSPost2010Prop57
140
1.0
102
RTVSPost2010PropOp57
 70
     1
102
RTVSPropertyOp0
 70
     1
102
RTVSPropertyOp1
 70
     1
102
RTVSPropertyOp2
 70
     1
102
RTVSPropertyOp3
 70
     1
102
RTVSPropertyOp4
 70
     1
102
RTVSPropertyOp5
 70
     1
102
RTVSPropertyOp6
 70
     1
102
RTVSPropertyOp7
 70
     1
102
RTVSPropertyOp8
 70
     1
102
RTVSPropertyOp9
 70
     1
102
RTVSPropertyOp10
 70
     1
102
RTVSPropertyOp11
 70
     1
102
RTVSPropertyOp12
 70
     1
102
RTVSPropertyOp13
 70
     1
102
RTVSPropertyOp14
 70
     1
102
RTVSPropertyOp15
 70
     1
102
RTVSPropertyOp16
 70
     1
102
RTVSPropertyOp17
 70
     1
102
RTVSPropertyOp18
 70
     1
102
RTVSPropertyOp19
 70
     1
102
RTVSPropertyOp20
 70
     1
102
RTVSPropertyOp21
 70
     1
102
RTVSPropertyOp22
 70
     1
102
RTVSPropertyOp23
 70
     1
102
RTVSPropertyOp24
 70
     1
102
RTVSPropertyOp25
 70
     1
102
RTVSPropertyOp26
 70
     1
102
RTVSPropertyOp27
 70
     1
102
RTVSPropertyOp28
 70
     1
102
RTVSPropertyOp29
 70
     1
102
RTVSPropertyOp30
 70
     1
102
RTVSPropertyOp31
 70
     1
102
RTVSPropertyOp32
 70
     1
102
RTVSPropertyOp33
 70
     1
102
RTVSPropertyOp34
 70
     1
102
RTVSPropertyOp35
 70
     1
102
RTVSPropertyOp36
 70
     1
102
RTVSPropertyOp37
 70
     1
102
RTVSPropertyOp38
 70
     1
102
RTVSPropertyOp39
 70
     1
102
RTVSPropertyOp40
 70
     1
102
RTVSPropertyOp41
 70
     1
102
RTVSPropertyOp42
 70
     1
102
RTVSPropertyOp43
 70
     1
102
RTVSPropertyOp44
 70
     1
102
RTVSPropertyOp45
 70
     1
102
RTVSPropertyOp46
 70
     1
102
RTVSPropertyOp47
 70
     1
102
RTVSPropertyOp48
 70
     1
102
RTVSPropertyOp49
 70
     1
102
RTVSPropertyOp50
 70
     1
102
RTVSPropertyOp51
 70
     0
102
RTVSPropertyOp52
 70
     0
102
RTVSPropertyOp53
 70
     1
102
RTVSPropertyOp54
 70
     1
102
RTVSPropertyOp55
 70
     1
102
RTVSPropertyOp56
 70
     1
102
RTVSPropertyOp57
 70
     1
102
RTVSPropertyOp58
 70
     1
102
RTVSPropertyOp59
 70
     1
102
RTVSPropertyOp60
 70
     1
102
RTVSPropertyOp61
 70
     1
102
RTVSPropertyOp62
 70
     1
  0
XRECORD
  5
98F7
102
{ACAD_REACTORS
330
98F6
102
}
330
98F6
100
AcDbXrecord
280
     1
102
RTVSPost2010Prop28
280
     0
102
RTVSPost2010PropOp28
 70
     1
102
RTVSPost2010Prop29
280
     1
102
RTVSPost2010PropOp29
 70
     1
102
RTVSPost2010Prop30
280
     1
102
RTVSPost2010PropOp30
 70
     1
102
RTVSPost2010Prop31
280
     0
102
RTVSPost2010PropOp31
 70
     1
102
RTVSPost2010Prop32
280
     0
102
RTVSPost2010PropOp32
 70
     1
102
RTVSPost2010Prop33
280
     0
102
RTVSPost2010PropOp33
 70
     1
102
RTVSPost2010Prop34
280
     0
102
RTVSPost2010PropOp34
 70
     1
102
RTVSPost2010Prop35
280
     0
102
RTVSPost2010PropOp35
 70
     1
102
RTVSPost2010Prop36
280
     0
102
RTVSPost2010PropOp36
 70
     1
102
RTVSPost2010Prop37
 90
       50
102
RTVSPost2010PropOp37
 70
     1
102
RTVSPost2010Prop38
140
0.0
102
RTVSPost2010PropOp38
 70
     1
102
RTVSPost2010Prop39
140
1.0
102
RTVSPost2010PropOp39
 70
     1
102
RTVSPost2010Prop40
 90
        0
102
RTVSPost2010PropOp40
 70
     1
102
RTVSPost2010Prop41ColorIndex
 90
       18
102
RTVSPost2010Prop41ColorRGB
 90
        0
102
RTVSPost2010PropOp41
 70
     1
102
RTVSPost2010Prop42
 90
       50
102
RTVSPost2010PropOp42
 70
     1
102
RTVSPost2010Prop43
 90
        3
102
RTVSPost2010PropOp43
 70
     1
102
RTVSPost2010Prop44ColorIndex
 90
        5
102
RTVSPost2010Prop44ColorRGB
 90
      255
102
RTVSPost2010PropOp44
 70
     1
102
RTVSPost2010Prop45
280
     0
102
RTVSPost2010PropOp45
 70
     1
102
RTVSPost2010Prop46
 90
       50
102
RTVSPost2010PropOp46
 70
     1
102
RTVSPost2010Prop47
 90
       50
102
RTVSPost2010PropOp47
 70
     1
102
RTVSPost2010Prop48
 90
       50
102
RTVSPost2010PropOp48
 70
     1
102
RTVSPost2010Prop49
280
     0
102
RTVSPost2010PropOp49
 70
     1
102
RTVSPost2010Prop50
 90
       50
102
RTVSPost2010PropOp50
 70
     1
102
RTVSPost2010Prop51ColorIndex
 90
      256
102
RTVSPost2010Prop51ColorRGB
 90
-16777216
102
RTVSPost2010PropOp51
 70
     0
102
RTVSPost2010Prop52
140
1.0
102
RTVSPost2010PropOp52
 70
     0
102
RTVSPost2010Prop53
 90
        2
102
RTVSPost2010PropOp53
 70
     1
102
RTVSPost2010Prop54
  1
strokes_ogs.tif
102
RTVSPost2010PropOp54
 70
     1
102
RTVSPost2010Prop55
280
     0
102
RTVSPost2010PropOp55
 70
     1
102
RTVSPost2010Prop56
140
1.0
102
RTVSPost2010PropOp56
 70
     1
102
RTVSPost2010Prop57
140
1.0
102
RTVSPost2010PropOp57
 70
     1
102
RTVSPropertyOp0
 70
     1
102
RTVSPropertyOp1
 70
     1
102
RTVSPropertyOp2
 70
     1
102
RTVSPropertyOp3
 70
     1
102
RTVSPropertyOp4
 70
     1
102
RTVSPropertyOp5
 70
     1
102
RTVSPropertyOp6
 70
     1
102
RTVSPropertyOp7
 70
     1
102
RTVSPropertyOp8
 70
     1
102
RTVSPropertyOp9
 70
     1
102
RTVSPropertyOp10
 70
     1
102
RTVSPropertyOp11
 70
     1
102
RTVSPropertyOp12
 70
     1
102
RTVSPropertyOp13
 70
     1
102
RTVSPropertyOp14
 70
     1
102
RTVSPropertyOp15
 70
     1
102
RTVSPropertyOp16
 70
     1
102
RTVSPropertyOp17
 70
     1
102
RTVSPropertyOp18
 70
     1
102
RTVSPropertyOp19
 70
     1
102
RTVSPropertyOp20
 70
     1
102
RTVSPropertyOp21
 70
     1
102
RTVSPropertyOp22
 70
     1
102
RTVSPropertyOp23
 70
     1
102
RTVSPropertyOp24
 70
     1
102
RTVSPropertyOp25
 70
     1
102
RTVSPropertyOp26
 70
     1
102
RTVSPropertyOp27
 70
     1
102
RTVSPropertyOp28
 70
     1
102
RTVSPropertyOp29
 70
     1
102
RTVSPropertyOp30
 70
     1
102
RTVSPropertyOp31
 70
     1
102
RTVSPropertyOp32
 70
     1
102
RTVSPropertyOp33
 70
     1
102
RTVSPropertyOp34
 70
     1
102
RTVSPropertyOp35
 70
     1
102
RTVSPropertyOp36
 70
     1
102
RTVSPropertyOp37
 70
     1
102
RTVSPropertyOp38
 70
     1
102
RTVSPropertyOp39
 70
     1
102
RTVSPropertyOp40
 70
     1
102
RTVSPropertyOp41
 70
     1
102
RTVSPropertyOp42
 70
     1
102
RTVSPropertyOp43
 70
     1
102
RTVSPropertyOp44
 70
     1
102
RTVSPropertyOp45
 70
     1
102
RTVSPropertyOp46
 70
     1
102
RTVSPropertyOp47
 70
     1
102
RTVSPropertyOp48
 70
     1
102
RTVSPropertyOp49
 70
     1
102
RTVSPropertyOp50
 70
     1
102
RTVSPropertyOp51
 70
     0
102
RTVSPropertyOp52
 70
     0
102
RTVSPropertyOp53
 70
     1
102
RTVSPropertyOp54
 70
     1
102
RTVSPropertyOp55
 70
     1
102
RTVSPropertyOp56
 70
     1
102
RTVSPropertyOp57
 70
     1
102
RTVSPropertyOp58
 70
     1
102
RTVSPropertyOp59
 70
     1
102
RTVSPropertyOp60
 70
     1
102
RTVSPropertyOp61
 70
     1
102
RTVSPropertyOp62
 70
     1
  0
XRECORD
  5
98F9
102
{ACAD_REACTORS
330
98F8
102
}
330
98F8
100
AcDbXrecord
280
     1
102
RTVSPost2010Prop28
280
     0
102
RTVSPost2010PropOp28
 70
     1
102
RTVSPost2010Prop29
280
     1
102
RTVSPost2010PropOp29
 70
     1
102
RTVSPost2010Prop30
280
     1
102
RTVSPost2010PropOp30
 70
     1
102
RTVSPost2010Prop31
280
     0
102
RTVSPost2010PropOp31
 70
     1
102
RTVSPost2010Prop32
280
     0
102
RTVSPost2010PropOp32
 70
     1
102
RTVSPost2010Prop33
280
     0
102
RTVSPost2010PropOp33
 70
     1
102
RTVSPost2010Prop34
280
     0
102
RTVSPost2010PropOp34
 70
     1
102
RTVSPost2010Prop35
280
     0
102
RTVSPost2010PropOp35
 70
     1
102
RTVSPost2010Prop36
280
     0
102
RTVSPost2010PropOp36
 70
     1
102
RTVSPost2010Prop37
 90
       50
102
RTVSPost2010PropOp37
 70
     1
102
RTVSPost2010Prop38
140
0.0
102
RTVSPost2010PropOp38
 70
     1
102
RTVSPost2010Prop39
140
1.0
102
RTVSPost2010PropOp39
 70
     1
102
RTVSPost2010Prop40
 90
        0
102
RTVSPost2010PropOp40
 70
     1
102
RTVSPost2010Prop41ColorIndex
 90
       18
102
RTVSPost2010Prop41ColorRGB
 90
        0
102
RTVSPost2010PropOp41
 70
     1
102
RTVSPost2010Prop42
 90
       50
102
RTVSPost2010PropOp42
 70
     1
102
RTVSPost2010Prop43
 90
        3
102
RTVSPost2010PropOp43
 70
     1
102
RTVSPost2010Prop44ColorIndex
 90
        5
102
RTVSPost2010Prop44ColorRGB
 90
      255
102
RTVSPost2010PropOp44
 70
     1
102
RTVSPost2010Prop45
280
     0
102
RTVSPost2010PropOp45
 70
     1
102
RTVSPost2010Prop46
 90
       50
102
RTVSPost2010PropOp46
 70
     1
102
RTVSPost2010Prop47
 90
       50
102
RTVSPost2010PropOp47
 70
     1
102
RTVSPost2010Prop48
 90
       50
102
RTVSPost2010PropOp48
 70
     1
102
RTVSPost2010Prop49
280
     0
102
RTVSPost2010PropOp49
 70
     1
102
RTVSPost2010Prop50
 90
       50
102
RTVSPost2010PropOp50
 70
     1
102
RTVSPost2010Prop51ColorIndex
 90
      256
102
RTVSPost2010Prop51ColorRGB
 90
-16777216
102
RTVSPost2010PropOp51
 70
     0
102
RTVSPost2010Prop52
140
1.0
102
RTVSPost2010PropOp52
 70
     0
102
RTVSPost2010Prop53
 90
        2
102
RTVSPost2010PropOp53
 70
     1
102
RTVSPost2010Prop54
  1
strokes_ogs.tif
102
RTVSPost2010PropOp54
 70
     1
102
RTVSPost2010Prop55
280
     0
102
RTVSPost2010PropOp55
 70
     1
102
RTVSPost2010Prop56
140
1.0
102
RTVSPost2010PropOp56
 70
     1
102
RTVSPost2010Prop57
140
1.0
102
RTVSPost2010PropOp57
 70
     1
102
RTVSPropertyOp0
 70
     1
102
RTVSPropertyOp1
 70
     1
102
RTVSPropertyOp2
 70
     1
102
RTVSPropertyOp3
 70
     1
102
RTVSPropertyOp4
 70
     1
102
RTVSPropertyOp5
 70
     1
102
RTVSPropertyOp6
 70
     1
102
RTVSPropertyOp7
 70
     1
102
RTVSPropertyOp8
 70
     1
102
RTVSPropertyOp9
 70
     1
102
RTVSPropertyOp10
 70
     1
102
RTVSPropertyOp11
 70
     1
102
RTVSPropertyOp12
 70
     1
102
RTVSPropertyOp13
 70
     1
102
RTVSPropertyOp14
 70
     1
102
RTVSPropertyOp15
 70
     1
102
RTVSPropertyOp16
 70
     1
102
RTVSPropertyOp17
 70
     1
102
RTVSPropertyOp18
 70
     1
102
RTVSPropertyOp19
 70
     1
102
RTVSPropertyOp20
 70
     1
102
RTVSPropertyOp21
 70
     1
102
RTVSPropertyOp22
 70
     1
102
RTVSPropertyOp23
 70
     1
102
RTVSPropertyOp24
 70
     1
102
RTVSPropertyOp25
 70
     1
102
RTVSPropertyOp26
 70
     1
102
RTVSPropertyOp27
 70
     1
102
RTVSPropertyOp28
 70
     1
102
RTVSPropertyOp29
 70
     1
102
RTVSPropertyOp30
 70
     1
102
RTVSPropertyOp31
 70
     1
102
RTVSPropertyOp32
 70
     1
102
RTVSPropertyOp33
 70
     1
102
RTVSPropertyOp34
 70
     1
102
RTVSPropertyOp35
 70
     1
102
RTVSPropertyOp36
 70
     1
102
RTVSPropertyOp37
 70
     1
102
RTVSPropertyOp38
 70
     1
102
RTVSPropertyOp39
 70
     1
102
RTVSPropertyOp40
 70
     1
102
RTVSPropertyOp41
 70
     1
102
RTVSPropertyOp42
 70
     1
102
RTVSPropertyOp43
 70
     1
102
RTVSPropertyOp44
 70
     1
102
RTVSPropertyOp45
 70
     1
102
RTVSPropertyOp46
 70
     1
102
RTVSPropertyOp47
 70
     1
102
RTVSPropertyOp48
 70
     1
102
RTVSPropertyOp49
 70
     1
102
RTVSPropertyOp50
 70
     1
102
RTVSPropertyOp51
 70
     0
102
RTVSPropertyOp52
 70
     0
102
RTVSPropertyOp53
 70
     1
102
RTVSPropertyOp54
 70
     1
102
RTVSPropertyOp55
 70
     1
102
RTVSPropertyOp56
 70
     1
102
RTVSPropertyOp57
 70
     1
102
RTVSPropertyOp58
 70
     1
102
RTVSPropertyOp59
 70
     1
102
RTVSPropertyOp60
 70
     1
102
RTVSPropertyOp61
 70
     1
102
RTVSPropertyOp62
 70
     1
  0
XRECORD
  5
98EF
102
{ACAD_REACTORS
330
98EE
102
}
330
98EE
100
AcDbXrecord
280
     1
102
RTVSPost2010Prop28
280
     0
102
RTVSPost2010PropOp28
 70
     1
102
RTVSPost2010Prop29
280
     1
102
RTVSPost2010PropOp29
 70
     1
102
RTVSPost2010Prop30
280
     1
102
RTVSPost2010PropOp30
 70
     1
102
RTVSPost2010Prop31
280
     0
102
RTVSPost2010PropOp31
 70
     1
102
RTVSPost2010Prop32
280
     0
102
RTVSPost2010PropOp32
 70
     1
102
RTVSPost2010Prop33
280
     0
102
RTVSPost2010PropOp33
 70
     1
102
RTVSPost2010Prop34
280
     0
102
RTVSPost2010PropOp34
 70
     1
102
RTVSPost2010Prop35
280
     0
102
RTVSPost2010PropOp35
 70
     1
102
RTVSPost2010Prop36
280
     0
102
RTVSPost2010PropOp36
 70
     1
102
RTVSPost2010Prop37
 90
       50
102
RTVSPost2010PropOp37
 70
     1
102
RTVSPost2010Prop38
140
0.0
102
RTVSPost2010PropOp38
 70
     1
102
RTVSPost2010Prop39
140
1.0
102
RTVSPost2010PropOp39
 70
     1
102
RTVSPost2010Prop40
 90
        0
102
RTVSPost2010PropOp40
 70
     1
102
RTVSPost2010Prop41ColorIndex
 90
       18
102
RTVSPost2010Prop41ColorRGB
 90
        0
102
RTVSPost2010PropOp41
 70
     1
102
RTVSPost2010Prop42
 90
       50
102
RTVSPost2010PropOp42
 70
     1
102
RTVSPost2010Prop43
 90
        3
102
RTVSPost2010PropOp43
 70
     1
102
RTVSPost2010Prop44ColorIndex
 90
        5
102
RTVSPost2010Prop44ColorRGB
 90
      255
102
RTVSPost2010PropOp44
 70
     1
102
RTVSPost2010Prop45
280
     0
102
RTVSPost2010PropOp45
 70
     1
102
RTVSPost2010Prop46
 90
       50
102
RTVSPost2010PropOp46
 70
     1
102
RTVSPost2010Prop47
 90
       50
102
RTVSPost2010PropOp47
 70
     1
102
RTVSPost2010Prop48
 90
       50
102
RTVSPost2010PropOp48
 70
     1
102
RTVSPost2010Prop49
280
     0
102
RTVSPost2010PropOp49
 70
     1
102
RTVSPost2010Prop50
 90
       50
102
RTVSPost2010PropOp50
 70
     1
102
RTVSPost2010Prop51ColorIndex
 90
      256
102
RTVSPost2010Prop51ColorRGB
 90
-16777216
102
RTVSPost2010PropOp51
 70
     0
102
RTVSPost2010Prop52
140
1.0
102
RTVSPost2010PropOp52
 70
     0
102
RTVSPost2010Prop53
 90
        2
102
RTVSPost2010PropOp53
 70
     1
102
RTVSPost2010Prop54
  1
strokes_ogs.tif
102
RTVSPost2010PropOp54
 70
     1
102
RTVSPost2010Prop55
280
     0
102
RTVSPost2010PropOp55
 70
     1
102
RTVSPost2010Prop56
140
1.0
102
RTVSPost2010PropOp56
 70
     1
102
RTVSPost2010Prop57
140
1.0
102
RTVSPost2010PropOp57
 70
     1
102
RTVSPropertyOp0
 70
     1
102
RTVSPropertyOp1
 70
     1
102
RTVSPropertyOp2
 70
     1
102
RTVSPropertyOp3
 70
     1
102
RTVSPropertyOp4
 70
     1
102
RTVSPropertyOp5
 70
     1
102
RTVSPropertyOp6
 70
     1
102
RTVSPropertyOp7
 70
     1
102
RTVSPropertyOp8
 70
     1
102
RTVSPropertyOp9
 70
     1
102
RTVSPropertyOp10
 70
     1
102
RTVSPropertyOp11
 70
     1
102
RTVSPropertyOp12
 70
     1
102
RTVSPropertyOp13
 70
     1
102
RTVSPropertyOp14
 70
     1
102
RTVSPropertyOp15
 70
     1
102
RTVSPropertyOp16
 70
     1
102
RTVSPropertyOp17
 70
     1
102
RTVSPropertyOp18
 70
     1
102
RTVSPropertyOp19
 70
     1
102
RTVSPropertyOp20
 70
     1
102
RTVSPropertyOp21
 70
     1
102
RTVSPropertyOp22
 70
     1
102
RTVSPropertyOp23
 70
     1
102
RTVSPropertyOp24
 70
     1
102
RTVSPropertyOp25
 70
     1
102
RTVSPropertyOp26
 70
     1
102
RTVSPropertyOp27
 70
     1
102
RTVSPropertyOp28
 70
     1
102
RTVSPropertyOp29
 70
     1
102
RTVSPropertyOp30
 70
     1
102
RTVSPropertyOp31
 70
     1
102
RTVSPropertyOp32
 70
     1
102
RTVSPropertyOp33
 70
     1
102
RTVSPropertyOp34
 70
     1
102
RTVSPropertyOp35
 70
     1
102
RTVSPropertyOp36
 70
     1
102
RTVSPropertyOp37
 70
     1
102
RTVSPropertyOp38
 70
     1
102
RTVSPropertyOp39
 70
     1
102
RTVSPropertyOp40
 70
     1
102
RTVSPropertyOp41
 70
     1
102
RTVSPropertyOp42
 70
     1
102
RTVSPropertyOp43
 70
     1
102
RTVSPropertyOp44
 70
     1
102
RTVSPropertyOp45
 70
     1
102
RTVSPropertyOp46
 70
     1
102
RTVSPropertyOp47
 70
     1
102
RTVSPropertyOp48
 70
     1
102
RTVSPropertyOp49
 70
     1
102
RTVSPropertyOp50
 70
     1
102
RTVSPropertyOp51
 70
     0
102
RTVSPropertyOp52
 70
     0
102
RTVSPropertyOp53
 70
     1
102
RTVSPropertyOp54
 70
     1
102
RTVSPropertyOp55
 70
     1
102
RTVSPropertyOp56
 70
     1
102
RTVSPropertyOp57
 70
     1
102
RTVSPropertyOp58
 70
     1
102
RTVSPropertyOp59
 70
     1
102
RTVSPropertyOp60
 70
     1
102
RTVSPropertyOp61
 70
     1
102
RTVSPropertyOp62
 70
     1
  0
XRECORD
  5
98E3
102
{ACAD_REACTORS
330
98E2
102
}
330
98E2
100
AcDbXrecord
280
     1
102
RTVSPost2010Prop28
280
     0
102
RTVSPost2010PropOp28
 70
     1
102
RTVSPost2010Prop29
280
     1
102
RTVSPost2010PropOp29
 70
     1
102
RTVSPost2010Prop30
280
     1
102
RTVSPost2010PropOp30
 70
     1
102
RTVSPost2010Prop31
280
     0
102
RTVSPost2010PropOp31
 70
     1
102
RTVSPost2010Prop32
280
     0
102
RTVSPost2010PropOp32
 70
     1
102
RTVSPost2010Prop33
280
     0
102
RTVSPost2010PropOp33
 70
     1
102
RTVSPost2010Prop34
280
     0
102
RTVSPost2010PropOp34
 70
     1
102
RTVSPost2010Prop35
280
     0
102
RTVSPost2010PropOp35
 70
     1
102
RTVSPost2010Prop36
280
     0
102
RTVSPost2010PropOp36
 70
     1
102
RTVSPost2010Prop37
 90
       50
102
RTVSPost2010PropOp37
 70
     1
102
RTVSPost2010Prop38
140
0.0
102
RTVSPost2010PropOp38
 70
     1
102
RTVSPost2010Prop39
140
1.0
102
RTVSPost2010PropOp39
 70
     1
102
RTVSPost2010Prop40
 90
        0
102
RTVSPost2010PropOp40
 70
     1
102
RTVSPost2010Prop41ColorIndex
 90
       18
102
RTVSPost2010Prop41ColorRGB
 90
        0
102
RTVSPost2010PropOp41
 70
     1
102
RTVSPost2010Prop42
 90
       50
102
RTVSPost2010PropOp42
 70
     1
102
RTVSPost2010Prop43
 90
        3
102
RTVSPost2010PropOp43
 70
     1
102
RTVSPost2010Prop44ColorIndex
 90
        5
102
RTVSPost2010Prop44ColorRGB
 90
      255
102
RTVSPost2010PropOp44
 70
     1
102
RTVSPost2010Prop45
280
     0
102
RTVSPost2010PropOp45
 70
     1
102
RTVSPost2010Prop46
 90
       50
102
RTVSPost2010PropOp46
 70
     1
102
RTVSPost2010Prop47
 90
       50
102
RTVSPost2010PropOp47
 70
     1
102
RTVSPost2010Prop48
 90
       50
102
RTVSPost2010PropOp48
 70
     1
102
RTVSPost2010Prop49
280
     0
102
RTVSPost2010PropOp49
 70
     1
102
RTVSPost2010Prop50
 90
       50
102
RTVSPost2010PropOp50
 70
     1
102
RTVSPost2010Prop51ColorIndex
 90
      256
102
RTVSPost2010Prop51ColorRGB
 90
-16777216
102
RTVSPost2010PropOp51
 70
     0
102
RTVSPost2010Prop52
140
1.0
102
RTVSPost2010PropOp52
 70
     0
102
RTVSPost2010Prop53
 90
        2
102
RTVSPost2010PropOp53
 70
     1
102
RTVSPost2010Prop54
  1
strokes_ogs.tif
102
RTVSPost2010PropOp54
 70
     1
102
RTVSPost2010Prop55
280
     0
102
RTVSPost2010PropOp55
 70
     1
102
RTVSPost2010Prop56
140
1.0
102
RTVSPost2010PropOp56
 70
     1
102
RTVSPost2010Prop57
140
1.0
102
RTVSPost2010PropOp57
 70
     1
102
RTVSPropertyOp0
 70
     1
102
RTVSPropertyOp1
 70
     1
102
RTVSPropertyOp2
 70
     1
102
RTVSPropertyOp3
 70
     1
102
RTVSPropertyOp4
 70
     1
102
RTVSPropertyOp5
 70
     1
102
RTVSPropertyOp6
 70
     1
102
RTVSPropertyOp7
 70
     1
102
RTVSPropertyOp8
 70
     1
102
RTVSPropertyOp9
 70
     1
102
RTVSPropertyOp10
 70
     1
102
RTVSPropertyOp11
 70
     1
102
RTVSPropertyOp12
 70
     1
102
RTVSPropertyOp13
 70
     1
102
RTVSPropertyOp14
 70
     1
102
RTVSPropertyOp15
 70
     1
102
RTVSPropertyOp16
 70
     1
102
RTVSPropertyOp17
 70
     1
102
RTVSPropertyOp18
 70
     1
102
RTVSPropertyOp19
 70
     1
102
RTVSPropertyOp20
 70
     1
102
RTVSPropertyOp21
 70
     1
102
RTVSPropertyOp22
 70
     1
102
RTVSPropertyOp23
 70
     1
102
RTVSPropertyOp24
 70
     1
102
RTVSPropertyOp25
 70
     1
102
RTVSPropertyOp26
 70
     1
102
RTVSPropertyOp27
 70
     1
102
RTVSPropertyOp28
 70
     1
102
RTVSPropertyOp29
 70
     1
102
RTVSPropertyOp30
 70
     1
102
RTVSPropertyOp31
 70
     1
102
RTVSPropertyOp32
 70
     1
102
RTVSPropertyOp33
 70
     1
102
RTVSPropertyOp34
 70
     1
102
RTVSPropertyOp35
 70
     1
102
RTVSPropertyOp36
 70
     1
102
RTVSPropertyOp37
 70
     1
102
RTVSPropertyOp38
 70
     1
102
RTVSPropertyOp39
 70
     1
102
RTVSPropertyOp40
 70
     1
102
RTVSPropertyOp41
 70
     1
102
RTVSPropertyOp42
 70
     1
102
RTVSPropertyOp43
 70
     1
102
RTVSPropertyOp44
 70
     1
102
RTVSPropertyOp45
 70
     1
102
RTVSPropertyOp46
 70
     1
102
RTVSPropertyOp47
 70
     1
102
RTVSPropertyOp48
 70
     1
102
RTVSPropertyOp49
 70
     1
102
RTVSPropertyOp50
 70
     1
102
RTVSPropertyOp51
 70
     0
102
RTVSPropertyOp52
 70
     0
102
RTVSPropertyOp53
 70
     1
102
RTVSPropertyOp54
 70
     1
102
RTVSPropertyOp55
 70
     1
102
RTVSPropertyOp56
 70
     1
102
RTVSPropertyOp57
 70
     1
102
RTVSPropertyOp58
 70
     1
102
RTVSPropertyOp59
 70
     1
102
RTVSPropertyOp60
 70
     1
102
RTVSPropertyOp61
 70
     1
102
RTVSPropertyOp62
 70
     1
  0
XRECORD
  5
98FB
102
{ACAD_REACTORS
330
98FA
102
}
330
98FA
100
AcDbXrecord
280
     1
102
RTVSPost2010Prop28
280
     0
102
RTVSPost2010PropOp28
 70
     1
102
RTVSPost2010Prop29
280
     1
102
RTVSPost2010PropOp29
 70
     1
102
RTVSPost2010Prop30
280
     1
102
RTVSPost2010PropOp30
 70
     1
102
RTVSPost2010Prop31
280
     0
102
RTVSPost2010PropOp31
 70
     1
102
RTVSPost2010Prop32
280
     0
102
RTVSPost2010PropOp32
 70
     1
102
RTVSPost2010Prop33
280
     0
102
RTVSPost2010PropOp33
 70
     1
102
RTVSPost2010Prop34
280
     0
102
RTVSPost2010PropOp34
 70
     1
102
RTVSPost2010Prop35
280
     0
102
RTVSPost2010PropOp35
 70
     1
102
RTVSPost2010Prop36
280
     0
102
RTVSPost2010PropOp36
 70
     1
102
RTVSPost2010Prop37
 90
       50
102
RTVSPost2010PropOp37
 70
     1
102
RTVSPost2010Prop38
140
0.0
102
RTVSPost2010PropOp38
 70
     1
102
RTVSPost2010Prop39
140
1.0
102
RTVSPost2010PropOp39
 70
     1
102
RTVSPost2010Prop40
 90
        0
102
RTVSPost2010PropOp40
 70
     1
102
RTVSPost2010Prop41ColorIndex
 90
       18
102
RTVSPost2010Prop41ColorRGB
 90
        0
102
RTVSPost2010PropOp41
 70
     1
102
RTVSPost2010Prop42
 90
       50
102
RTVSPost2010PropOp42
 70
     1
102
RTVSPost2010Prop43
 90
        3
102
RTVSPost2010PropOp43
 70
     1
102
RTVSPost2010Prop44ColorIndex
 90
        5
102
RTVSPost2010Prop44ColorRGB
 90
      255
102
RTVSPost2010PropOp44
 70
     1
102
RTVSPost2010Prop45
280
     0
102
RTVSPost2010PropOp45
 70
     1
102
RTVSPost2010Prop46
 90
       50
102
RTVSPost2010PropOp46
 70
     1
102
RTVSPost2010Prop47
 90
       50
102
RTVSPost2010PropOp47
 70
     1
102
RTVSPost2010Prop48
 90
       50
102
RTVSPost2010PropOp48
 70
     1
102
RTVSPost2010Prop49
280
     0
102
RTVSPost2010PropOp49
 70
     1
102
RTVSPost2010Prop50
 90
       50
102
RTVSPost2010PropOp50
 70
     1
102
RTVSPost2010Prop51ColorIndex
 90
      256
102
RTVSPost2010Prop51ColorRGB
 90
-16777216
102
RTVSPost2010PropOp51
 70
     0
102
RTVSPost2010Prop52
140
1.0
102
RTVSPost2010PropOp52
 70
     0
102
RTVSPost2010Prop53
 90
        2
102
RTVSPost2010PropOp53
 70
     1
102
RTVSPost2010Prop54
  1
strokes_ogs.tif
102
RTVSPost2010PropOp54
 70
     1
102
RTVSPost2010Prop55
280
     0
102
RTVSPost2010PropOp55
 70
     1
102
RTVSPost2010Prop56
140
1.0
102
RTVSPost2010PropOp56
 70
     1
102
RTVSPost2010Prop57
140
1.0
102
RTVSPost2010PropOp57
 70
     1
102
RTVSPropertyOp0
 70
     1
102
RTVSPropertyOp1
 70
     1
102
RTVSPropertyOp2
 70
     1
102
RTVSPropertyOp3
 70
     1
102
RTVSPropertyOp4
 70
     1
102
RTVSPropertyOp5
 70
     1
102
RTVSPropertyOp6
 70
     1
102
RTVSPropertyOp7
 70
     1
102
RTVSPropertyOp8
 70
     1
102
RTVSPropertyOp9
 70
     1
102
RTVSPropertyOp10
 70
     1
102
RTVSPropertyOp11
 70
     1
102
RTVSPropertyOp12
 70
     1
102
RTVSPropertyOp13
 70
     1
102
RTVSPropertyOp14
 70
     1
102
RTVSPropertyOp15
 70
     1
102
RTVSPropertyOp16
 70
     1
102
RTVSPropertyOp17
 70
     1
102
RTVSPropertyOp18
 70
     1
102
RTVSPropertyOp19
 70
     1
102
RTVSPropertyOp20
 70
     1
102
RTVSPropertyOp21
 70
     1
102
RTVSPropertyOp22
 70
     1
102
RTVSPropertyOp23
 70
     1
102
RTVSPropertyOp24
 70
     1
102
RTVSPropertyOp25
 70
     1
102
RTVSPropertyOp26
 70
     1
102
RTVSPropertyOp27
 70
     1
102
RTVSPropertyOp28
 70
     1
102
RTVSPropertyOp29
 70
     1
102
RTVSPropertyOp30
 70
     1
102
RTVSPropertyOp31
 70
     1
102
RTVSPropertyOp32
 70
     1
102
RTVSPropertyOp33
 70
     1
102
RTVSPropertyOp34
 70
     1
102
RTVSPropertyOp35
 70
     1
102
RTVSPropertyOp36
 70
     1
102
RTVSPropertyOp37
 70
     1
102
RTVSPropertyOp38
 70
     1
102
RTVSPropertyOp39
 70
     1
102
RTVSPropertyOp40
 70
     1
102
RTVSPropertyOp41
 70
     1
102
RTVSPropertyOp42
 70
     1
102
RTVSPropertyOp43
 70
     1
102
RTVSPropertyOp44
 70
     1
102
RTVSPropertyOp45
 70
     1
102
RTVSPropertyOp46
 70
     1
102
RTVSPropertyOp47
 70
     1
102
RTVSPropertyOp48
 70
     1
102
RTVSPropertyOp49
 70
     1
102
RTVSPropertyOp50
 70
     1
102
RTVSPropertyOp51
 70
     0
102
RTVSPropertyOp52
 70
     0
102
RTVSPropertyOp53
 70
     1
102
RTVSPropertyOp54
 70
     1
102
RTVSPropertyOp55
 70
     1
102
RTVSPropertyOp56
 70
     1
102
RTVSPropertyOp57
 70
     1
102
RTVSPropertyOp58
 70
     1
102
RTVSPropertyOp59
 70
     1
102
RTVSPropertyOp60
 70
     1
102
RTVSPropertyOp61
 70
     1
102
RTVSPropertyOp62
 70
     1
  0
ENDSEC
  0
EOF
