  0
SECTION
  2
HEADER
  9
$ACADVER
  1
AC1015
  9
$ACADMAINTVER
 70
    20
  9
$DWGCODEPAGE
  3
ANSI_932
  9
$INSBASE
 10
0.0
 20
0.0
 30
0.0
  9
$EXTMIN
 10
9.460650999999996
 20
9.999999999999998
 30
0.0
  9
$EXTMAX
 10
485.110551
 20
302.7718829999999
 30
0.0
  9
$LIMMIN
 10
0.0
 20
0.0
  9
$LIMMAX
 10
495.0
 20
341.25
  9
$ORTHOMODE
 70
     1
  9
$REGENMODE
 70
     1
  9
$FILLMODE
 70
     1
  9
$QTEXTMODE
 70
     0
  9
$MIRRTEXT
 70
     1
  9
$LTSCALE
 40
20.0
  9
$ATTMODE
 70
     1
  9
$TEXTSIZE
 40
5.0
  9
$TRACEWID
 40
1.0
  9
$TEXTSTYLE
  7
STANDARD
  9
$CLAYER
  8
0
  9
$CELTYPE
  6
BYLAYER
  9
$CECOLOR
 62
   256
  9
$CELTSCALE
 40
1.0
  9
$DISPSILH
 70
     0
  9
$DIMSCALE
 40
1.0
  9
$DIMASZ
 40
3.0
  9
$DIMEXO
 40
1.0
  9
$DIMDLI
 40
10.0
  9
$DIMRND
 40
0.0
  9
$DIMDLE
 40
0.0
  9
$DIMEXE
 40
1.0
  9
$DIMTP
 40
0.0
  9
$DIMTM
 40
0.0
  9
$DIMTXT
 40
3.2
  9
$DIMCEN
 40
0.0
  9
$DIMTSZ
 40
0.0
  9
$DIMTOL
 70
     0
  9
$DIMLIM
 70
     0
  9
$DIMTIH
 70
     0
  9
$DIMTOH
 70
     0
  9
$DIMSE1
 70
     0
  9
$DIMSE2
 70
     0
  9
$DIMTAD
 70
     3
  9
$DIMZIN
 70
     8
  9
$DIMBLK
  1

  9
$DIMASO
 70
     1
  9
$DIMSHO
 70
     1
  9
$DIMPOST
  1

  9
$DIMAPOST
  1

  9
$DIMALT
 70
     0
  9
$DIMALTD
 70
     2
  9
$DIMALTF
 40
25.4
  9
$DIMLFAC
 40
1.0
  9
$DIMTOFL
 70
     1
  9
$DIMTVP
 40
0.0
  9
$DIMTIX
 70
     0
  9
$DIMSOXD
 70
     0
  9
$DIMSAH
 70
     1
  9
$DIMBLK1
  1

  9
$DIMBLK2
  1

  9
$DIMSTYLE
  2
STANDARD
  9
$DIMCLRD
 70
     0
  9
$DIMCLRE
 70
     0
  9
$DIMCLRT
 70
     0
  9
$DIMTFAC
 40
1.0
  9
$DIMGAP
 40
1.0
  9
$DIMJUST
 70
     0
  9
$DIMSD1
 70
     0
  9
$DIMSD2
 70
     0
  9
$DIMTOLJ
 70
     1
  9
$DIMTZIN
 70
     0
  9
$DIMALTZ
 70
     0
  9
$DIMALTTZ
 70
     0
  9
$DIMUPT
 70
     0
  9
$DIMDEC
 70
     4
  9
$DIMTDEC
 70
     4
  9
$DIMALTU
 70
     2
  9
$DIMALTTD
 70
     2
  9
$DIMTXSTY
  7
STANDARD
  9
$DIMAUNIT
 70
     0
  9
$DIMADEC
 70
     0
  9
$DIMALTRND
 40
0.0
  9
$DIMAZIN
 70
     0
  9
$DIMDSEP
 70
    46
  9
$DIMATFIT
 70
     3
  9
$DIMFRAC
 70
     0
  9
$DIMLDRBLK
  1

  9
$DIMLUNIT
 70
     2
  9
$DIMLWD
 70
    -2
  9
$DIMLWE
 70
    -2
  9
$DIMTMOVE
 70
     0
  9
$LUNITS
 70
     2
  9
$LUPREC
 70
     4
  9
$SKETCHINC
 40
1.0
  9
$FILLETRAD
 40
2.0
  9
$AUNITS
 70
     0
  9
$AUPREC
 70
     2
  9
$MENU
  1
.
  9
$ELEVATION
 40
0.0
  9
$PELEVATION
 40
0.0
  9
$THICKNESS
 40
0.0
  9
$LIMCHECK
 70
     0
  9
$CHAMFERA
 40
10.0
  9
$CHAMFERB
 40
10.0
  9
$CHAMFERC
 40
0.0
  9
$CHAMFERD
 40
0.0
  9
$SKPOLY
 70
     0
  9
$TDCREATE
 40
2451066.616881945
  9
$TDUCREATE
 40
2451066.241881945
  9
$TDUPDATE
 40
2457192.598591829
  9
$TDUUPDATE
 40
2457192.223591829
  9
$TDINDWG
 40
0.0000148495
  9
$TDUSRTIMER
 40
0.0000145370
  9
$USRTIMER
 70
     1
  9
$ANGBASE
 50
0.0
  9
$ANGDIR
 70
     0
  9
$PDMODE
 70
     0
  9
$PDSIZE
 40
0.0
  9
$PLINEWID
 40
0.0
  9
$SPLFRAME
 70
     0
  9
$SPLINETYPE
 70
     6
  9
$SPLINESEGS
 70
     8
  9
$HANDSEED
  5
98DE
  9
$SURFTAB1
 70
     6
  9
$SURFTAB2
 70
     6
  9
$SURFTYPE
 70
     6
  9
$SURFU
 70
     6
  9
$SURFV
 70
     6
  9
$UCSBASE
  2

  9
$UCSNAME
  2

  9
$UCSORG
 10
0.0
 20
0.0
 30
0.0
  9
$UCSXDIR
 10
1.0
 20
0.0
 30
0.0
  9
$UCSYDIR
 10
0.0
 20
1.0
 30
0.0
  9
$UCSORTHOREF
  2

  9
$UCSORTHOVIEW
 70
     0
  9
$UCSORGTOP
 10
0.0
 20
0.0
 30
0.0
  9
$UCSORGBOTTOM
 10
0.0
 20
0.0
 30
0.0
  9
$UCSORGLEFT
 10
0.0
 20
0.0
 30
0.0
  9
$UCSORGRIGHT
 10
0.0
 20
0.0
 30
0.0
  9
$UCSORGFRONT
 10
0.0
 20
0.0
 30
0.0
  9
$UCSORGBACK
 10
0.0
 20
0.0
 30
0.0
  9
$PUCSBASE
  2

  9
$PUCSNAME
  2

  9
$PUCSORG
 10
0.0
 20
0.0
 30
0.0
  9
$PUCSXDIR
 10
1.0
 20
0.0
 30
0.0
  9
$PUCSYDIR
 10
0.0
 20
1.0
 30
0.0
  9
$PUCSORTHOREF
  2

  9
$PUCSORTHOVIEW
 70
     0
  9
$PUCSORGTOP
 10
0.0
 20
0.0
 30
0.0
  9
$PUCSORGBOTTOM
 10
0.0
 20
0.0
 30
0.0
  9
$PUCSORGLEFT
 10
0.0
 20
0.0
 30
0.0
  9
$PUCSORGRIGHT
 10
0.0
 20
0.0
 30
0.0
  9
$PUCSORGFRONT
 10
0.0
 20
0.0
 30
0.0
  9
$PUCSORGBACK
 10
0.0
 20
0.0
 30
0.0
  9
$USERI1
 70
     0
  9
$USERI2
 70
     0
  9
$USERI3
 70
     0
  9
$USERI4
 70
     0
  9
$USERI5
 70
     0
  9
$USERR1
 40
0.0
  9
$USERR2
 40
0.0
  9
$USERR3
 40
0.0
  9
$USERR4
 40
0.0
  9
$USERR5
 40
0.0
  9
$WORLDVIEW
 70
     1
  9
$SHADEDGE
 70
     3
  9
$SHADEDIF
 70
    70
  9
$TILEMODE
 70
     1
  9
$MAXACTVP
 70
    16
  9
$PINSBASE
 10
0.0
 20
0.0
 30
0.0
  9
$PLIMCHECK
 70
     0
  9
$PEXTMIN
 10
1.000000000000000E+20
 20
1.000000000000000E+20
 30
1.000000000000000E+20
  9
$PEXTMAX
 10
-1.000000000000000E+20
 20
-1.000000000000000E+20
 30
-1.000000000000000E+20
  9
$PLIMMIN
 10
0.0
 20
0.0
  9
$PLIMMAX
 10
420.0
 20
297.0
  9
$UNITMODE
 70
     0
  9
$VISRETAIN
 70
     0
  9
$PLINEGEN
 70
     0
  9
$PSLTSCALE
 70
     0
  9
$TREEDEPTH
 70
  3020
  9
$CMLSTYLE
  2
STANDARD
  9
$CMLJUST
 70
     0
  9
$CMLSCALE
 40
1.0
  9
$PROXYGRAPHICS
 70
     1
  9
$MEASUREMENT
 70
     0
  9
$CELWEIGHT
370
    -1
  9
$ENDCAPS
280
     0
  9
$JOINSTYLE
280
     0
  9
$LWDISPLAY
290
     0
  9
$INSUNITS
 70
     0
  9
$HYPERLINKBASE
  1

  9
$STYLESHEET
  1

  9
$XEDIT
290
     1
  9
$CEPSNTYPE
380
     0
  9
$PSTYLEMODE
290
     1
  9
$FINGERPRINTGUID
  2
{9A65200A-2B79-4708-9A93-F56B66F317CC}
  9
$VERSIONGUID
  2
{3BDD244C-8384-4A40-AE38-64DE3DF93F1D}
  9
$EXTNAMES
290
     1
  9
$PSVPSCALE
 40
0.0
  9
$OLESTARTUP
290
     0
  0
ENDSEC
  0
SECTION
  2
CLASSES
  0
CLASS
  1
ACDBDICTIONARYWDFLT
  2
AcDbDictionaryWithDefault
  3
ObjectDBX Classes
 90
        0
280
     0
281
     0
  0
CLASS
  1
ACDBPLACEHOLDER
  2
AcDbPlaceHolder
  3
ObjectDBX Classes
 90
        0
280
     0
281
     0
  0
CLASS
  1
LAYOUT
  2
AcDbLayout
  3
ObjectDBX Classes
 90
        0
280
     0
281
     0
  0
CLASS
  1
DICTIONARYVAR
  2
AcDbDictionaryVar
  3
ObjectDBX Classes
 90
        0
280
     0
281
     0
  0
CLASS
  1
MATERIAL
  2
AcDbMaterial
  3
ObjectDBX Classes
 90
     1153
280
     0
281
     0
  0
CLASS
  1
VISUALSTYLE
  2
AcDbVisualStyle
  3
ObjectDBX Classes
 90
     4095
280
     0
281
     0
  0
CLASS
  1
TABLESTYLE
  2
AcDbTableStyle
  3
ObjectDBX Classes
 90
     4095
280
     0
281
     0
  0
CLASS
  1
SCALE
  2
AcDbScale
  3
ObjectDBX Classes
 90
     1153
280
     0
281
     0
  0
CLASS
  1
MLEADERSTYLE
  2
AcDbMLeaderStyle
  3
ACDB_MLEADERSTYLE_CLASS
 90
     4095
280
     0
281
     0
  0
CLASS
  1
ACDBSECTIONVIEWSTYLE
  2
AcDbSectionViewStyle
  3
ObjectDBX Classes
 90
     1025
280
     0
281
     0
  0
CLASS
  1
ACDBDETAILVIEWSTYLE
  2
AcDbDetailViewStyle
  3
ObjectDBX Classes
 90
     1025
280
     0
281
     0
  0
CLASS
  1
CELLSTYLEMAP
  2
AcDbCellStyleMap
  3
ObjectDBX Classes
 90
     1152
280
     0
281
     0
  0
ENDSEC
  0
SECTION
  2
TABLES
  0
TABLE
  2
VPORT
  5
94EC
330
0
100
AcDbSymbolTable
 70
     1
  0
VPORT
  5
9827
330
94EC
100
AcDbSymbolTableRecord
100
AcDbViewportTableRecord
  2
*ACTIVE
 70
     0
 10
0.0
 20
0.0
 11
1.0
 21
1.0
 12
335.9551497979236
 22
156.3836868436292
 13
0.0
 23
0.0
 14
10.0
 24
10.0
 15
10.0
 25
10.0
 16
0.0
 26
0.0
 36
1.0
 17
0.0
 27
0.0
 37
0.0
 40
296.067803270383
 41
1.899603698811096
 42
50.0
 43
0.0
 44
0.0
 50
0.0
 51
0.0
 71
     0
 72
   100
 73
     1
 74
     0
 75
     0
 76
     0
 77
     0
 78
     0
281
     0
 65
     1
110
0.0
120
0.0
130
0.0
111
1.0
121
0.0
131
0.0
112
0.0
122
1.0
132
0.0
 79
     0
146
0.0
1001
ACAD_NAV_VCDISPLAY
1070
     3
  0
ENDTAB
  0
TABLE
  2
LTYPE
  5
94E9
330
0
100
AcDbSymbolTable
 70
     4
  0
LTYPE
  5
94F7
330
94E9
100
AcDbSymbolTableRecord
100
AcDbLinetypeTableRecord
  2
BYBLOCK
 70
     0
  3

 72
    65
 73
     0
 40
0.0
  0
LTYPE
  5
94F8
330
94E9
100
AcDbSymbolTableRecord
100
AcDbLinetypeTableRecord
  2
BYLAYER
 70
     0
  3

 72
    65
 73
     0
 40
0.0
  0
LTYPE
  5
94F9
330
94E9
100
AcDbSymbolTableRecord
100
AcDbLinetypeTableRecord
  2
CONTINUOUS
 70
     0
  3
Solid line
 72
    65
 73
     0
 40
0.0
  0
LTYPE
  5
9507
330
94E9
100
AcDbSymbolTableRecord
100
AcDbLinetypeTableRecord
  2
DASHED
 70
     0
  3
__ __ __ __ __ __ __ __ __ __ __ __ __ __ __ __
 72
    65
 73
     2
 40
0.75
 49
0.5
 74
     0
 49
-0.25
 74
     0
  0
LTYPE
  5
9508
330
94E9
100
AcDbSymbolTableRecord
100
AcDbLinetypeTableRecord
  2
CENTER
 70
     0
  3
____ _ ____ _ ____ _ ____ _ ____ _ ____ _ ____ 
 72
    65
 73
     4
 40
2.0
 49
1.25
 74
     0
 49
-0.25
 74
     0
 49
0.25
 74
     0
 49
-0.25
 74
     0
  0
LTYPE
  5
9509
330
94E9
100
AcDbSymbolTableRecord
100
AcDbLinetypeTableRecord
  2
PHANTOM
 70
     0
  3
______  __  __  ______  __  __  ______  __  __ 
 72
    65
 73
     6
 40
2.5
 49
1.25
 74
     0
 49
-0.25
 74
     0
 49
0.25
 74
     0
 49
-0.25
 74
     0
 49
0.25
 74
     0
 49
-0.25
 74
     0
  0
ENDTAB
  0
TABLE
  2
LAYER
  5
94E6
330
0
100
AcDbSymbolTable
 70
     8
  0
LAYER
  5
94F4
102
{ACAD_XDICTIONARY
360
9882
102
}
330
94E6
100
AcDbSymbolTableRecord
100
AcDbLayerTableRecord
  2
0
 70
     0
 62
     7
  6
CONTINUOUS
370
    -3
390
9830
  0
LAYER
  5
950A
102
{ACAD_XDICTIONARY
360
9884
102
}
330
94E6
100
AcDbSymbolTableRecord
100
AcDbLayerTableRecord
  2
4
 70
     0
 62
     1
  6
CENTER
370
    -3
390
9830
  0
LAYER
  5
950B
102
{ACAD_XDICTIONARY
360
9886
102
}
330
94E6
100
AcDbSymbolTableRecord
100
AcDbLayerTableRecord
  2
5
 70
     0
 62
     6
  6
PHANTOM
370
    -3
390
9830
  0
LAYER
  5
950C
102
{ACAD_XDICTIONARY
360
9888
102
}
330
94E6
100
AcDbSymbolTableRecord
100
AcDbLayerTableRecord
  2
1
 70
     0
 62
     7
  6
CONTINUOUS
370
    -3
390
9830
  0
LAYER
  5
950D
102
{ACAD_XDICTIONARY
360
988A
102
}
330
94E6
100
AcDbSymbolTableRecord
100
AcDbLayerTableRecord
  2
2
 70
     0
 62
     4
  6
CONTINUOUS
370
    -3
390
9830
  0
LAYER
  5
950E
102
{ACAD_XDICTIONARY
360
988C
102
}
330
94E6
100
AcDbSymbolTableRecord
100
AcDbLayerTableRecord
  2
3
 70
     0
 62
     2
  6
DASHED
370
    -3
390
9830
  0
LAYER
  5
950F
102
{ACAD_XDICTIONARY
360
988E
102
}
330
94E6
100
AcDbSymbolTableRecord
100
AcDbLayerTableRecord
  2
6
 70
     0
 62
     5
  6
CONTINUOUS
370
    -3
390
9830
  0
LAYER
  5
9510
102
{ACAD_XDICTIONARY
360
9890
102
}
330
94E6
100
AcDbSymbolTableRecord
100
AcDbLayerTableRecord
  2
7
 70
     0
 62
     3
  6
CONTINUOUS
370
    -3
390
9830
  0
ENDTAB
  0
TABLE
  2
STYLE
  5
94E7
330
0
100
AcDbSymbolTable
 70
     1
  0
STYLE
  5
94F5
330
94E7
100
AcDbSymbolTableRecord
100
AcDbTextStyleTableRecord
  2
STANDARD
 70
     0
 40
0.0
 41
1.0
 50
0.0
 71
     0
 42
5.0
  3
txt
  4

  0
ENDTAB
  0
TABLE
  2
VIEW
  5
94EA
330
0
100
AcDbSymbolTable
 70
     0
  0
ENDTAB
  0
TABLE
  2
UCS
  5
94EB
330
0
100
AcDbSymbolTable
 70
     0
  0
ENDTAB
  0
TABLE
  2
APPID
  5
94ED
330
0
100
AcDbSymbolTable
 70
     3
  0
APPID
  5
94F6
330
94ED
100
AcDbSymbolTableRecord
100
AcDbRegAppTableRecord
  2
ACAD
 70
     0
  0
APPID
  5
989C
330
94ED
100
AcDbSymbolTableRecord
100
AcDbRegAppTableRecord
  2
ACAD_NAV_VCDISPLAY
 70
     0
  0
APPID
  5
98D5
330
94ED
100
AcDbSymbolTableRecord
100
AcDbRegAppTableRecord
  2
ACAD_MLEADERVER
 70
     0
  0
ENDTAB
  0
TABLE
  2
DIMSTYLE
  5
94EE
330
0
100
AcDbSymbolTable
 70
     1
100
AcDbDimStyleTable
 71
     0
  0
DIMSTYLE
105
9512
330
94EE
100
AcDbSymbolTableRecord
100
AcDbDimStyleTableRecord
  2
STANDARD
 70
     0
 41
3.0
 42
1.0
 43
10.0
 44
1.0
 73
     0
 74
     0
 77
     3
 78
     8
140
3.2
141
0.0
147
1.0
172
     1
173
     1
284
     8
285
     8
286
     8
340
94F5
  0
ENDTAB
  0
TABLE
  2
BLOCK_RECORD
  5
94E5
330
0
100
AcDbSymbolTable
 70
     0
  0
BLOCK_RECORD
  5
9502
102
{ACAD_XDICTIONARY
360
982A
102
}
330
94E5
100
AcDbSymbolTableRecord
100
AcDbBlockTableRecord
  2
*MODEL_SPACE
340
987E
  0
BLOCK_RECORD
  5
94FE
102
{ACAD_XDICTIONARY
360
9828
102
}
330
94E5
100
AcDbSymbolTableRecord
100
AcDbBlockTableRecord
  2
*PAPER_SPACE
340
987F
  0
ENDTAB
  0
ENDSEC
  0
SECTION
  2
BLOCKS
  0
BLOCK
  5
9503
330
9502
100
AcDbEntity
  8
0
100
AcDbBlockBegin
  2
*MODEL_SPACE
 70
     0
 10
0.0
 20
0.0
 30
0.0
  3
*MODEL_SPACE
  1

  0
ENDBLK
  5
9504
330
9502
100
AcDbEntity
  8
0
100
AcDbBlockEnd
  0
BLOCK
  5
94FF
330
94FE
100
AcDbEntity
 67
     1
  8
0
100
AcDbBlockBegin
  2
*PAPER_SPACE
 70
     0
 10
0.0
 20
0.0
 30
0.0
  3
*PAPER_SPACE
  1

  0
ENDBLK
  5
9500
330
94FE
100
AcDbEntity
 67
     1
  8
0
100
AcDbBlockEnd
  0
ENDSEC
  0
SECTION
  2
ENTITIES
  0
TEXT
  5
951A
330
9502
100
AcDbEntity
  8
7
  6
Continuous
100
AcDbText
 10
10.0
 20
18.0
 30
0.0
 40
3.0
  1
TYPE No.TL-11H
100
AcDbText
  0
TEXT
  5
951B
330
9502
100
AcDbEntity
  8
7
  6
Continuous
100
AcDbText
 10
10.0
 20
26.0
 30
0.0
 40
3.0
  1
CODE No.1146
100
AcDbText
  0
TEXT
  5
951C
330
9502
100
AcDbEntity
  8
1
  6
Continuous
100
AcDbText
 10
10.0
 20
10.0
 30
0.0
 40
1.399999999999999
  1
LAYER
100
AcDbText
  0
TEXT
  5
951D
330
9502
100
AcDbEntity
  8
1
  6
Continuous
100
AcDbText
 10
17.97951099999998
 20
10.04873699999998
 30
0.0
 40
1.399999999999999
  1
1
100
AcDbText
  0
TEXT
  5
951E
330
9502
100
AcDbEntity
  8
7
  6
Continuous
100
AcDbText
 10
29.97951099999999
 20
10.04873699999998
 30
0.0
 40
1.399999999999999
  1
7
100
AcDbText
  0
TEXT
  5
951F
330
9502
100
AcDbEntity
  8
4
  6
CENTER
100
AcDbText
 10
23.97951099999999
 20
10.04873699999998
 30
0.0
 40
1.399999999999999
  1
4
100
AcDbText
  0
TEXT
  5
9520
330
9502
100
AcDbEntity
  8
3
  6
DASHED
100
AcDbText
 10
21.979511
 20
10.04873699999998
 30
0.0
 40
1.399999999999999
  1
3
100
AcDbText
  0
TEXT
  5
9521
330
9502
100
AcDbEntity
  8
2
  6
Continuous
100
AcDbText
 10
19.97951099999999
 20
10.04873699999998
 30
0.0
 40
1.399999999999999
  1
2
100
AcDbText
  0
TEXT
  5
9522
330
9502
100
AcDbEntity
  8
6
  6
Continuous
100
AcDbText
 10
27.979511
 20
10.04873699999998
 30
0.0
 40
1.399999999999999
  1
6
100
AcDbText
  0
TEXT
  5
9523
330
9502
100
AcDbEntity
  8
5
  6
PHANTOM
100
AcDbText
 10
25.97951099999999
 20
10.04873699999998
 30
0.0
 40
1.399999999999999
  1
5
100
AcDbText
  0
LINE
  5
9524
330
9502
100
AcDbEntity
  8
1
  6
Continuous
100
AcDbLine
 10
28.610651
 20
138.771883
 30
0.0
 11
28.610651
 21
120.771883
 31
0.0
  0
LINE
  5
9525
330
9502
100
AcDbEntity
  8
1
  6
Continuous
100
AcDbLine
 10
44.610551
 20
138.771883
 30
0.0
 11
44.610551
 21
120.771883
 31
0.0
  0
LINE
  5
9526
330
9502
100
AcDbEntity
  8
1
  6
Continuous
100
AcDbLine
 10
25.610651
 20
174.771883
 30
0.0
 11
25.610651
 21
139.771883
 31
0.0
  0
LINE
  5
9527
330
9502
100
AcDbEntity
  8
1
  6
Continuous
100
AcDbLine
 10
47.610551
 20
174.771883
 30
0.0
 11
47.610551
 21
139.771883
 31
0.0
  0
LINE
  5
9528
330
9502
100
AcDbEntity
  8
1
  6
Continuous
100
AcDbLine
 10
25.860651
 20
176.7718829999998
 30
0.0
 11
47.360551
 21
176.7718829999998
 31
0.0
  0
LINE
  5
9529
330
9502
100
AcDbEntity
  8
1
  6
Continuous
100
AcDbLine
 10
25.610651
 20
139.771883
 30
0.0
 11
27.610651
 21
139.771883
 31
0.0
  0
LINE
  5
952A
330
9502
100
AcDbEntity
  8
4
  6
CENTER
100
AcDbLine
 10
17.260651
 20
146.271883
 30
0.0
 11
55.960551
 21
146.271883
 31
0.0
  0
LINE
  5
952B
330
9502
100
AcDbEntity
  8
4
  6
CENTER
100
AcDbLine
 10
17.260651
 20
189.771883
 30
0.0
 11
55.960551
 21
189.771883
 31
0.0
  0
LINE
  5
952C
330
9502
100
AcDbEntity
  8
1
  6
Continuous
100
AcDbLine
 10
21.46065099999999
 20
193.771883
 30
0.0
 11
24.460651
 21
193.771883
 31
0.0
  0
LINE
  5
952D
330
9502
100
AcDbEntity
  8
1
  6
Continuous
100
AcDbLine
 10
45.61055099999999
 20
139.771883
 30
0.0
 11
47.610551
 21
139.771883
 31
0.0
  0
LINE
  5
952E
330
9502
100
AcDbEntity
  8
1
  6
Continuous
100
AcDbLine
 10
24.460651
 20
191.771883
 30
0.0
 11
48.760551
 21
191.771883
 31
0.0
  0
LINE
  5
952F
330
9502
100
AcDbEntity
  8
1
  6
Continuous
100
AcDbLine
 10
24.460651
 20
193.771883
 30
0.0
 11
24.460651
 21
184.7718829999998
 31
0.0
  0
LINE
  5
9530
330
9502
100
AcDbEntity
  8
1
  6
Continuous
100
AcDbLine
 10
52.960551
 20
191.271883
 30
0.0
 11
52.960551
 21
188.2718829999998
 31
0.0
  0
LINE
  5
9531
330
9502
100
AcDbEntity
  8
1
  6
Continuous
100
AcDbLine
 10
20.26065099999998
 20
191.271883
 30
0.0
 11
20.26065099999998
 21
188.2718829999998
 31
0.0
  0
LINE
  5
9532
330
9502
100
AcDbEntity
  8
1
  6
Continuous
100
AcDbLine
 10
20.26065099999998
 20
191.271883
 30
0.0
 11
21.46065099999999
 21
191.271883
 31
0.0
  0
LINE
  5
9533
330
9502
100
AcDbEntity
  8
1
  6
Continuous
100
AcDbLine
 10
20.26065099999998
 20
188.2718829999998
 30
0.0
 11
21.46065099999999
 21
188.2718829999998
 31
0.0
  0
LINE
  5
9534
330
9502
100
AcDbEntity
  8
1
  6
Continuous
100
AcDbLine
 10
51.760551
 20
191.271883
 30
0.0
 11
52.960551
 21
191.271883
 31
0.0
  0
LINE
  5
9535
330
9502
100
AcDbEntity
  8
1
  6
Continuous
100
AcDbLine
 10
24.460651
 20
187.771883
 30
0.0
 11
48.760551
 21
187.771883
 31
0.0
  0
LINE
  5
9536
330
9502
100
AcDbEntity
  8
1
  6
Continuous
100
AcDbLine
 10
51.760551
 20
188.2718829999998
 30
0.0
 11
52.960551
 21
188.2718829999998
 31
0.0
  0
LINE
  5
9537
330
9502
100
AcDbEntity
  8
1
  6
Continuous
100
AcDbLine
 10
51.760551
 20
193.771883
 30
0.0
 11
51.760551
 21
184.7718829999998
 31
0.0
  0
LINE
  5
9538
330
9502
100
AcDbEntity
  8
1
  6
Continuous
100
AcDbLine
 10
57.760551
 20
180.7718829999998
 30
0.0
 11
57.760551
 21
175.1618829999999
 31
0.0
  0
LINE
  5
9539
330
9502
100
AcDbEntity
  8
1
  6
Continuous
100
AcDbLine
 10
18.46065099999998
 20
179.271883
 30
0.0
 11
21.46065099999999
 21
179.271883
 31
0.0
  0
LINE
  5
953A
330
9502
100
AcDbEntity
  8
1
  6
Continuous
100
AcDbLine
 10
21.46065099999999
 20
193.771883
 30
0.0
 11
21.46065099999999
 21
184.7718829999998
 31
0.0
  0
LINE
  5
953B
330
9502
100
AcDbEntity
  8
1
  6
Continuous
100
AcDbLine
 10
15.460651
 20
180.7718829999998
 30
0.0
 11
15.460651
 21
174.846883
 31
0.0
  0
LINE
  5
953C
330
9502
100
AcDbEntity
  8
1
  6
Continuous
100
AcDbLine
 10
15.460651
 20
157.271883
 30
0.0
 11
18.46065099999998
 21
157.271883
 31
0.0
  0
LINE
  5
953D
330
9502
100
AcDbEntity
  8
1
  6
Continuous
100
AcDbLine
 10
15.460651
 20
161.271883
 30
0.0
 11
18.46065099999998
 21
161.271883
 31
0.0
  0
LINE
  5
953E
330
9502
100
AcDbEntity
  8
1
  6
Continuous
100
AcDbLine
 10
54.76055099999999
 20
161.271883
 30
0.0
 11
57.760551
 21
161.271883
 31
0.0
  0
LINE
  5
953F
330
9502
100
AcDbEntity
  8
1
  6
Continuous
100
AcDbLine
 10
54.76055099999999
 20
157.271883
 30
0.0
 11
57.760551
 21
157.271883
 31
0.0
  0
LINE
  5
9540
330
9502
100
AcDbEntity
  8
1
  6
Continuous
100
AcDbLine
 10
48.760551
 20
193.771883
 30
0.0
 11
51.760551
 21
193.771883
 31
0.0
  0
LINE
  5
9541
330
9502
100
AcDbEntity
  8
1
  6
Continuous
100
AcDbLine
 10
18.46065099999998
 20
180.7718829999998
 30
0.0
 11
18.46065099999998
 21
175.003883
 31
0.0
  0
LINE
  5
9542
330
9502
100
AcDbEntity
  8
1
  6
Continuous
100
AcDbLine
 10
21.46065099999999
 20
140.771883
 30
0.0
 11
24.460651
 21
140.771883
 31
0.0
  0
LINE
  5
9543
330
9502
100
AcDbEntity
  8
1
  6
Continuous
100
AcDbLine
 10
48.760551
 20
150.7718829999998
 30
0.0
 11
48.760551
 21
140.771883
 31
0.0
  0
LINE
  5
9544
330
9502
100
AcDbEntity
  8
1
  6
Continuous
100
AcDbLine
 10
24.460651
 20
150.7718829999998
 30
0.0
 11
24.460651
 21
140.771883
 31
0.0
  0
LINE
  5
9545
330
9502
100
AcDbEntity
  8
1
  6
Continuous
100
AcDbLine
 10
51.760551
 20
150.7718829999998
 30
0.0
 11
51.760551
 21
140.771883
 31
0.0
  0
LINE
  5
9546
330
9502
100
AcDbEntity
  8
1
  6
Continuous
100
AcDbLine
 10
21.46065099999999
 20
150.7718829999998
 30
0.0
 11
21.46065099999999
 21
140.771883
 31
0.0
  0
LINE
  5
9547
330
9502
100
AcDbEntity
  8
1
  6
Continuous
100
AcDbLine
 10
21.46065099999999
 20
150.7718829999998
 30
0.0
 11
19.476251
 21
152.521883
 31
0.0
  0
LINE
  5
9548
330
9502
100
AcDbEntity
  8
1
  6
Continuous
100
AcDbLine
 10
21.46065099999999
 20
154.7718829999998
 30
0.0
 11
23.444951
 21
153.021883
 31
0.0
  0
LINE
  5
9549
330
9502
100
AcDbEntity
  8
1
  6
Continuous
100
AcDbLine
 10
51.760551
 20
150.7718829999998
 30
0.0
 11
53.744551
 21
152.521883
 31
0.0
  0
LINE
  5
954A
330
9502
100
AcDbEntity
  8
1
  6
Continuous
100
AcDbLine
 10
51.760551
 20
154.7718829999998
 30
0.0
 11
49.77655099999999
 21
153.021883
 31
0.0
  0
LINE
  5
954B
330
9502
100
AcDbEntity
  8
1
  6
Continuous
100
AcDbLine
 10
48.760551
 20
140.771883
 30
0.0
 11
51.760551
 21
140.771883
 31
0.0
  0
LINE
  5
954C
330
9502
100
AcDbEntity
  8
1
  6
Continuous
100
AcDbLine
 10
18.46065099999998
 20
175.271883
 30
0.0
 11
21.46065099999999
 21
175.271883
 31
0.0
  0
LINE
  5
954D
330
9502
100
AcDbEntity
  8
1
  6
Continuous
100
AcDbLine
 10
51.760551
 20
175.271883
 30
0.0
 11
54.76055099999999
 21
175.271883
 31
0.0
  0
LINE
  5
954E
330
9502
100
AcDbEntity
  8
1
  6
Continuous
100
AcDbLine
 10
24.460651
 20
148.271883
 30
0.0
 11
25.610651
 21
148.271883
 31
0.0
  0
LINE
  5
954F
330
9502
100
AcDbEntity
  8
1
  6
Continuous
100
AcDbLine
 10
24.460651
 20
144.271883
 30
0.0
 11
25.610651
 21
144.271883
 31
0.0
  0
LINE
  5
9550
330
9502
100
AcDbEntity
  8
1
  6
Continuous
100
AcDbLine
 10
20.26065099999998
 20
147.771883
 30
0.0
 11
20.26065099999998
 21
144.771883
 31
0.0
  0
LINE
  5
9551
330
9502
100
AcDbEntity
  8
1
  6
Continuous
100
AcDbLine
 10
52.960551
 20
147.771883
 30
0.0
 11
52.960551
 21
144.771883
 31
0.0
  0
LINE
  5
9552
330
9502
100
AcDbEntity
  8
1
  6
Continuous
100
AcDbLine
 10
20.26065099999998
 20
144.771883
 30
0.0
 11
21.46065099999999
 21
144.771883
 31
0.0
  0
LINE
  5
9553
330
9502
100
AcDbEntity
  8
1
  6
Continuous
100
AcDbLine
 10
20.26065099999998
 20
147.771883
 30
0.0
 11
21.46065099999999
 21
147.771883
 31
0.0
  0
LINE
  5
9554
330
9502
100
AcDbEntity
  8
1
  6
Continuous
100
AcDbLine
 10
51.760551
 20
147.771883
 30
0.0
 11
52.960551
 21
147.771883
 31
0.0
  0
LINE
  5
9555
330
9502
100
AcDbEntity
  8
1
  6
Continuous
100
AcDbLine
 10
51.760551
 20
144.771883
 30
0.0
 11
52.960551
 21
144.771883
 31
0.0
  0
LINE
  5
9556
330
9502
100
AcDbEntity
  8
1
  6
Continuous
100
AcDbLine
 10
47.610551
 20
148.271883
 30
0.0
 11
48.760551
 21
148.271883
 31
0.0
  0
LINE
  5
9557
330
9502
100
AcDbEntity
  8
1
  6
Continuous
100
AcDbLine
 10
47.610551
 20
144.271883
 30
0.0
 11
48.760551
 21
144.271883
 31
0.0
  0
LINE
  5
9558
330
9502
100
AcDbEntity
  8
4
  6
CENTER
100
AcDbLine
 10
216.6105509999999
 20
193.2718829999998
 30
0.0
 11
216.6105509999999
 21
136.771883
 31
0.0
  0
LINE
  5
9559
330
9502
100
AcDbEntity
  8
1
  6
Continuous
100
AcDbLine
 10
223.1105509999999
 20
169.271883
 30
0.0
 11
223.1105509999999
 21
164.2718829999998
 31
0.0
  0
LINE
  5
955A
330
9502
100
AcDbEntity
  8
1
  6
Continuous
100
AcDbLine
 10
209.1105509999999
 20
139.771883
 30
0.0
 11
221.6105509999999
 21
139.771883
 31
0.0
  0
LINE
  5
955B
330
9502
100
AcDbEntity
  8
1
  6
Continuous
100
AcDbLine
 10
221.1105509999999
 20
153.771883
 30
0.0
 11
223.1105509999999
 21
153.771883
 31
0.0
  0
LINE
  5
955C
330
9502
100
AcDbEntity
  8
1
  6
Continuous
100
AcDbLine
 10
223.1105509999999
 20
153.771883
 30
0.0
 11
223.1105509999999
 21
141.271883
 31
0.0
  0
LINE
  5
955D
330
9502
100
AcDbEntity
  8
1
  6
Continuous
100
AcDbLine
 10
209.1105509999999
 20
171.771883
 30
0.0
 11
209.1105509999999
 21
139.771883
 31
0.0
  0
LINE
  5
955E
330
9502
100
AcDbEntity
  8
1
  6
Continuous
100
AcDbLine
 10
209.1105509999999
 20
117.231883
 30
0.0
 11
211.0565509999999
 21
116.771883
 31
0.0
  0
LINE
  5
955F
330
9502
100
AcDbEntity
  8
1
  6
Continuous
100
AcDbLine
 10
209.1105509999999
 20
117.2718829999999
 30
0.0
 11
211.9225509999999
 21
129.159883
 31
0.0
  0
LINE
  5
9560
330
9502
100
AcDbEntity
  8
1
  6
Continuous
100
AcDbLine
 10
211.0565509999999
 20
116.771883
 30
0.0
 11
213.8705509999998
 21
128.705883
 31
0.0
  0
LINE
  5
9561
330
9502
100
AcDbEntity
  8
1
  6
Continuous
100
AcDbLine
 10
209.1105509999999
 20
139.771883
 30
0.0
 11
211.6305509999999
 21
133.317883
 31
0.0
  0
LINE
  5
9562
330
9502
100
AcDbEntity
  8
1
  6
Continuous
100
AcDbLine
 10
211.2575509999998
 20
139.771883
 30
0.0
 11
213.4935509999999
 21
134.0458829999997
 31
0.0
  0
LINE
  5
9563
330
9502
100
AcDbEntity
  8
1
  6
Continuous
100
AcDbLine
 10
224.110551
 20
159.271883
 30
0.0
 11
224.110551
 21
119.271883
 31
0.0
  0
LINE
  5
9564
330
9502
100
AcDbEntity
  8
1
  6
Continuous
100
AcDbLine
 10
221.1105509999999
 20
119.271883
 30
0.0
 11
224.110551
 21
119.271883
 31
0.0
  0
LINE
  5
9565
330
9502
100
AcDbEntity
  8
1
  6
Continuous
100
AcDbLine
 10
221.1105509999999
 20
139.771883
 30
0.0
 11
221.1105509999999
 21
119.271883
 31
0.0
  0
LINE
  5
9566
330
9502
100
AcDbEntity
  8
1
  6
Continuous
100
AcDbLine
 10
221.1105509999999
 20
154.271883
 30
0.0
 11
224.110551
 21
154.271883
 31
0.0
  0
LINE
  5
9567
330
9502
100
AcDbEntity
  8
1
  6
Continuous
100
AcDbLine
 10
222.8605509999999
 20
159.271883
 30
0.0
 11
224.110551
 21
159.271883
 31
0.0
  0
LINE
  5
9568
330
9502
100
AcDbEntity
  8
1
  6
Continuous
100
AcDbLine
 10
211.3605509999999
 20
157.271883
 30
0.0
 11
221.8605509999999
 21
157.271883
 31
0.0
  0
LINE
  5
9569
330
9502
100
AcDbEntity
  8
1
  6
Continuous
100
AcDbLine
 10
211.3605509999999
 20
179.271883
 30
0.0
 11
213.6105509999999
 21
179.271883
 31
0.0
  0
LINE
  5
956A
330
9502
100
AcDbEntity
  8
1
  6
Continuous
100
AcDbLine
 10
219.6105509999999
 20
184.5488829999999
 30
0.0
 11
219.6105509999999
 21
175.1618829999999
 31
0.0
  0
LINE
  5
956B
330
9502
100
AcDbEntity
  8
1
  6
Continuous
100
AcDbLine
 10
213.6105509999999
 20
184.9128829999999
 30
0.0
 11
213.6105509999999
 21
174.846883
 31
0.0
  0
LINE
  5
956C
330
9502
100
AcDbEntity
  8
1
  6
Continuous
100
AcDbLine
 10
210.3605509999999
 20
160.271883
 30
0.0
 11
210.3605509999999
 21
158.271883
 31
0.0
  0
LINE
  5
956D
330
9502
100
AcDbEntity
  8
1
  6
Continuous
100
AcDbLine
 10
222.8605509999999
 20
160.271883
 30
0.0
 11
222.8605509999999
 21
158.271883
 31
0.0
  0
LINE
  5
956E
330
9502
100
AcDbEntity
  8
1
  6
Continuous
100
AcDbLine
 10
220.6105509999999
 20
161.271883
 30
0.0
 11
221.8605509999999
 21
161.271883
 31
0.0
  0
LINE
  5
956F
330
9502
100
AcDbEntity
  8
1
  6
Continuous
100
AcDbLine
 10
211.3605509999999
 20
175.271883
 30
0.0
 11
213.6105509999999
 21
175.271883
 31
0.0
  0
LINE
  5
9570
330
9502
100
AcDbEntity
  8
1
  6
Continuous
100
AcDbLine
 10
213.6105509999999
 20
157.271883
 30
0.0
 11
213.6105509999999
 21
143.771883
 31
0.0
  0
LINE
  5
9571
330
9502
100
AcDbEntity
  8
1
  6
Continuous
100
AcDbLine
 10
219.6105509999999
 20
157.271883
 30
0.0
 11
219.6105509999999
 21
143.771883
 31
0.0
  0
LINE
  5
9572
330
9502
100
AcDbEntity
  8
1
  6
Continuous
100
AcDbLine
 10
222.8605509999999
 20
178.271883
 30
0.0
 11
222.8605509999999
 21
176.271883
 31
0.0
  0
LINE
  5
9573
330
9502
100
AcDbEntity
  8
1
  6
Continuous
100
AcDbLine
 10
210.3605509999999
 20
178.271883
 30
0.0
 11
210.3605509999999
 21
176.271883
 31
0.0
  0
LINE
  5
9574
330
9502
100
AcDbEntity
  8
1
  6
Continuous
100
AcDbLine
 10
219.6105509999999
 20
179.271883
 30
0.0
 11
221.8605509999999
 21
179.271883
 31
0.0
  0
LINE
  5
9575
330
9502
100
AcDbEntity
  8
1
  6
Continuous
100
AcDbLine
 10
219.6105509999999
 20
175.271883
 30
0.0
 11
221.8605509999999
 21
175.271883
 31
0.0
  0
LINE
  5
9576
330
9502
100
AcDbEntity
  8
1
  6
Continuous
100
AcDbLine
 10
221.1105509999999
 20
157.271883
 30
0.0
 11
221.1105509999999
 21
153.771883
 31
0.0
  0
LINE
  5
9577
330
9502
100
AcDbEntity
  8
4
  6
CENTER
100
AcDbLine
 10
386.610551
 20
196.771883
 30
0.0
 11
386.610551
 21
111.771883
 31
0.0
  0
LINE
  5
9578
330
9502
100
AcDbEntity
  8
1
  6
Continuous
100
AcDbLine
 10
394.6105509999999
 20
152.7718829999998
 30
0.0
 11
394.6105509999999
 21
120.771883
 31
0.0
  0
LINE
  5
9579
330
9502
100
AcDbEntity
  8
1
  6
Continuous
100
AcDbLine
 10
378.610551
 20
152.7718829999998
 30
0.0
 11
378.610551
 21
120.771883
 31
0.0
  0
LINE
  5
957A
330
9502
100
AcDbEntity
  8
1
  6
Continuous
100
AcDbLine
 10
397.610551
 20
176.7718829999998
 30
0.0
 11
397.610551
 21
159.271883
 31
0.0
  0
LINE
  5
957B
330
9502
100
AcDbEntity
  8
1
  6
Continuous
100
AcDbLine
 10
375.6105509999999
 20
176.7718829999998
 30
0.0
 11
375.6105509999999
 21
159.271883
 31
0.0
  0
LINE
  5
957C
330
9502
100
AcDbEntity
  8
1
  6
Continuous
100
AcDbLine
 10
397.610551
 20
176.7718829999998
 30
0.0
 11
375.6105509999999
 21
176.7718829999998
 31
0.0
  0
LINE
  5
957D
330
9502
100
AcDbEntity
  8
1
  6
Continuous
100
AcDbLine
 10
397.610551
 20
139.771883
 30
0.0
 11
395.610551
 21
139.771883
 31
0.0
  0
LINE
  5
957E
330
9502
100
AcDbEntity
  8
1
  6
Continuous
100
AcDbLine
 10
401.760551
 20
193.771883
 30
0.0
 11
398.7605509999998
 21
193.771883
 31
0.0
  0
LINE
  5
957F
330
9502
100
AcDbEntity
  8
1
  6
Continuous
100
AcDbLine
 10
377.6105509999999
 20
139.771883
 30
0.0
 11
375.6105509999999
 21
139.771883
 31
0.0
  0
LINE
  5
9580
330
9502
100
AcDbEntity
  8
1
  6
Continuous
100
AcDbLine
 10
398.7605509999998
 20
193.771883
 30
0.0
 11
398.7605509999998
 21
184.7718829999998
 31
0.0
  0
LINE
  5
9581
330
9502
100
AcDbEntity
  8
1
  6
Continuous
100
AcDbLine
 10
374.4605509999999
 20
193.771883
 30
0.0
 11
374.4605509999999
 21
184.7718829999998
 31
0.0
  0
LINE
  5
9582
330
9502
100
AcDbEntity
  8
1
  6
Continuous
100
AcDbLine
 10
370.2605509999998
 20
191.271883
 30
0.0
 11
370.2605509999998
 21
188.2718829999998
 31
0.0
  0
LINE
  5
9583
330
9502
100
AcDbEntity
  8
1
  6
Continuous
100
AcDbLine
 10
402.9605509999998
 20
191.271883
 30
0.0
 11
402.9605509999998
 21
188.2718829999998
 31
0.0
  0
LINE
  5
9584
330
9502
100
AcDbEntity
  8
1
  6
Continuous
100
AcDbLine
 10
402.9605509999998
 20
191.271883
 30
0.0
 11
401.760551
 21
191.271883
 31
0.0
  0
LINE
  5
9585
330
9502
100
AcDbEntity
  8
1
  6
Continuous
100
AcDbLine
 10
402.9605509999998
 20
188.2718829999998
 30
0.0
 11
401.760551
 21
188.2718829999998
 31
0.0
  0
LINE
  5
9586
330
9502
100
AcDbEntity
  8
1
  6
Continuous
100
AcDbLine
 10
371.4605509999998
 20
191.271883
 30
0.0
 11
370.2605509999998
 21
191.271883
 31
0.0
  0
LINE
  5
9587
330
9502
100
AcDbEntity
  8
1
  6
Continuous
100
AcDbLine
 10
371.4605509999998
 20
188.2718829999998
 30
0.0
 11
370.2605509999998
 21
188.2718829999998
 31
0.0
  0
LINE
  5
9588
330
9502
100
AcDbEntity
  8
1
  6
Continuous
100
AcDbLine
 10
371.4605509999998
 20
193.771883
 30
0.0
 11
371.4605509999998
 21
184.7718829999998
 31
0.0
  0
LINE
  5
9589
330
9502
100
AcDbEntity
  8
1
  6
Continuous
100
AcDbLine
 10
365.4605509999998
 20
180.7718829999998
 30
0.0
 11
365.4605509999998
 21
174.846883
 31
0.0
  0
LINE
  5
958A
330
9502
100
AcDbEntity
  8
1
  6
Continuous
100
AcDbLine
 10
404.7605509999998
 20
179.271883
 30
0.0
 11
401.760551
 21
179.271883
 31
0.0
  0
LINE
  5
958B
330
9502
100
AcDbEntity
  8
1
  6
Continuous
100
AcDbLine
 10
401.760551
 20
193.771883
 30
0.0
 11
401.760551
 21
184.7718829999998
 31
0.0
  0
LINE
  5
958C
330
9502
100
AcDbEntity
  8
1
  6
Continuous
100
AcDbLine
 10
407.7605509999998
 20
180.7718829999998
 30
0.0
 11
407.7605509999998
 21
175.1618829999999
 31
0.0
  0
LINE
  5
958D
330
9502
100
AcDbEntity
  8
1
  6
Continuous
100
AcDbLine
 10
407.7605509999998
 20
157.271883
 30
0.0
 11
404.7605509999998
 21
157.271883
 31
0.0
  0
LINE
  5
958E
330
9502
100
AcDbEntity
  8
1
  6
Continuous
100
AcDbLine
 10
407.7605509999998
 20
161.271883
 30
0.0
 11
404.7605509999998
 21
161.271883
 31
0.0
  0
LINE
  5
958F
330
9502
100
AcDbEntity
  8
1
  6
Continuous
100
AcDbLine
 10
371.4605509999998
 20
179.271883
 30
0.0
 11
368.4605509999999
 21
179.271883
 31
0.0
  0
LINE
  5
9590
330
9502
100
AcDbEntity
  8
1
  6
Continuous
100
AcDbLine
 10
368.4605509999999
 20
161.271883
 30
0.0
 11
365.4605509999998
 21
161.271883
 31
0.0
  0
LINE
  5
9591
330
9502
100
AcDbEntity
  8
1
  6
Continuous
100
AcDbLine
 10
368.4605509999999
 20
157.271883
 30
0.0
 11
365.4605509999998
 21
157.271883
 31
0.0
  0
LINE
  5
9592
330
9502
100
AcDbEntity
  8
1
  6
Continuous
100
AcDbLine
 10
374.4605509999999
 20
193.771883
 30
0.0
 11
371.4605509999998
 21
193.771883
 31
0.0
  0
LINE
  5
9593
330
9502
100
AcDbEntity
  8
1
  6
Continuous
100
AcDbLine
 10
401.760551
 20
140.771883
 30
0.0
 11
398.7605509999998
 21
140.771883
 31
0.0
  0
LINE
  5
9594
330
9502
100
AcDbEntity
  8
1
  6
Continuous
100
AcDbLine
 10
374.4605509999999
 20
150.7718829999998
 30
0.0
 11
374.4605509999999
 21
140.771883
 31
0.0
  0
LINE
  5
9595
330
9502
100
AcDbEntity
  8
1
  6
Continuous
100
AcDbLine
 10
398.7605509999998
 20
150.7718829999998
 30
0.0
 11
398.7605509999998
 21
140.771883
 31
0.0
  0
LINE
  5
9596
330
9502
100
AcDbEntity
  8
1
  6
Continuous
100
AcDbLine
 10
371.4605509999998
 20
150.7718829999998
 30
0.0
 11
371.4605509999998
 21
140.771883
 31
0.0
  0
LINE
  5
9597
330
9502
100
AcDbEntity
  8
1
  6
Continuous
100
AcDbLine
 10
401.760551
 20
150.7718829999998
 30
0.0
 11
401.760551
 21
140.771883
 31
0.0
  0
LINE
  5
9598
330
9502
100
AcDbEntity
  8
1
  6
Continuous
100
AcDbLine
 10
401.760551
 20
150.7718829999998
 30
0.0
 11
403.744551
 21
152.521883
 31
0.0
  0
LINE
  5
9599
330
9502
100
AcDbEntity
  8
1
  6
Continuous
100
AcDbLine
 10
401.760551
 20
154.7718829999998
 30
0.0
 11
399.7765509999999
 21
153.021883
 31
0.0
  0
LINE
  5
959A
330
9502
100
AcDbEntity
  8
1
  6
Continuous
100
AcDbLine
 10
371.4605509999998
 20
150.7718829999998
 30
0.0
 11
369.4765509999998
 21
152.521883
 31
0.0
  0
LINE
  5
959B
330
9502
100
AcDbEntity
  8
1
  6
Continuous
100
AcDbLine
 10
371.4605509999998
 20
154.7718829999998
 30
0.0
 11
373.444551
 21
153.021883
 31
0.0
  0
LINE
  5
959C
330
9502
100
AcDbEntity
  8
1
  6
Continuous
100
AcDbLine
 10
374.4605509999999
 20
140.771883
 30
0.0
 11
371.4605509999998
 21
140.771883
 31
0.0
  0
LINE
  5
959D
330
9502
100
AcDbEntity
  8
1
  6
Continuous
100
AcDbLine
 10
404.7605509999998
 20
175.271883
 30
0.0
 11
401.760551
 21
175.271883
 31
0.0
  0
LINE
  5
959E
330
9502
100
AcDbEntity
  8
1
  6
Continuous
100
AcDbLine
 10
371.4605509999998
 20
175.271883
 30
0.0
 11
368.4605509999999
 21
175.271883
 31
0.0
  0
LINE
  5
959F
330
9502
100
AcDbEntity
  8
1
  6
Continuous
100
AcDbLine
 10
398.7605509999998
 20
148.271883
 30
0.0
 11
397.610551
 21
148.271883
 31
0.0
  0
LINE
  5
95A0
330
9502
100
AcDbEntity
  8
1
  6
Continuous
100
AcDbLine
 10
398.7605509999998
 20
144.271883
 30
0.0
 11
397.610551
 21
144.271883
 31
0.0
  0
LINE
  5
95A1
330
9502
100
AcDbEntity
  8
1
  6
Continuous
100
AcDbLine
 10
402.9605509999998
 20
147.771883
 30
0.0
 11
402.9605509999998
 21
144.771883
 31
0.0
  0
LINE
  5
95A2
330
9502
100
AcDbEntity
  8
1
  6
Continuous
100
AcDbLine
 10
370.2605509999998
 20
147.771883
 30
0.0
 11
370.2605509999998
 21
144.771883
 31
0.0
  0
LINE
  5
95A3
330
9502
100
AcDbEntity
  8
1
  6
Continuous
100
AcDbLine
 10
402.9605509999998
 20
144.771883
 30
0.0
 11
401.760551
 21
144.771883
 31
0.0
  0
LINE
  5
95A4
330
9502
100
AcDbEntity
  8
1
  6
Continuous
100
AcDbLine
 10
402.9605509999998
 20
147.771883
 30
0.0
 11
401.760551
 21
147.771883
 31
0.0
  0
LINE
  5
95A5
330
9502
100
AcDbEntity
  8
1
  6
Continuous
100
AcDbLine
 10
371.4605509999998
 20
147.771883
 30
0.0
 11
370.2605509999998
 21
147.771883
 31
0.0
  0
LINE
  5
95A6
330
9502
100
AcDbEntity
  8
1
  6
Continuous
100
AcDbLine
 10
371.4605509999998
 20
144.771883
 30
0.0
 11
370.2605509999998
 21
144.771883
 31
0.0
  0
LINE
  5
95A7
330
9502
100
AcDbEntity
  8
1
  6
Continuous
100
AcDbLine
 10
375.6105509999999
 20
148.271883
 30
0.0
 11
374.4605509999999
 21
148.271883
 31
0.0
  0
LINE
  5
95A8
330
9502
100
AcDbEntity
  8
1
  6
Continuous
100
AcDbLine
 10
375.6105509999999
 20
144.271883
 30
0.0
 11
374.4605509999999
 21
144.271883
 31
0.0
  0
LINE
  5
95A9
330
9502
100
AcDbEntity
  8
1
  6
Continuous
100
AcDbLine
 10
380.1105509999999
 20
119.271883
 30
0.0
 11
393.110551
 21
119.271883
 31
0.0
  0
LINE
  5
95AA
330
9502
100
AcDbEntity
  8
1
  6
Continuous
100
AcDbLine
 10
375.410551
 20
154.271883
 30
0.0
 11
377.1105509999999
 21
154.271883
 31
0.0
  0
LINE
  5
95AB
330
9502
100
AcDbEntity
  8
1
  6
Continuous
100
AcDbLine
 10
375.410551
 20
159.271883
 30
0.0
 11
376.8605509999999
 21
159.271883
 31
0.0
  0
LINE
  5
95AC
330
9502
100
AcDbEntity
  8
1
  6
Continuous
100
AcDbLine
 10
397.8105509999999
 20
173.271883
 30
0.0
 11
397.8105509999999
 21
169.271883
 31
0.0
  0
LINE
  5
95AD
330
9502
100
AcDbEntity
  8
1
  6
Continuous
100
AcDbLine
 10
375.410551
 20
173.271883
 30
0.0
 11
375.410551
 21
169.271883
 31
0.0
  0
LINE
  5
95AE
330
9502
100
AcDbEntity
  8
1
  6
Continuous
100
AcDbLine
 10
396.1105509999999
 20
154.271883
 30
0.0
 11
397.8105509999999
 21
154.271883
 31
0.0
  0
LINE
  5
95AF
330
9502
100
AcDbEntity
  8
1
  6
Continuous
100
AcDbLine
 10
395.360551
 20
168.2718829999998
 30
0.0
 11
395.360551
 21
160.271883
 31
0.0
  0
LINE
  5
95B0
330
9502
100
AcDbEntity
  8
1
  6
Continuous
100
AcDbLine
 10
377.8605509999999
 20
168.2718829999998
 30
0.0
 11
377.8605509999999
 21
160.271883
 31
0.0
  0
LINE
  5
95B1
330
9502
100
AcDbEntity
  8
1
  6
Continuous
100
AcDbLine
 10
396.3605509999999
 20
159.271883
 30
0.0
 11
397.8105509999999
 21
159.271883
 31
0.0
  0
LINE
  5
95B2
330
9502
100
AcDbEntity
  8
1
  6
Continuous
100
AcDbLine
 10
375.410551
 20
169.271883
 30
0.0
 11
375.6105509999999
 21
169.271883
 31
0.0
  0
LINE
  5
95B3
330
9502
100
AcDbEntity
  8
1
  6
Continuous
100
AcDbLine
 10
375.410551
 20
173.271883
 30
0.0
 11
375.6105509999999
 21
173.271883
 31
0.0
  0
LINE
  5
95B4
330
9502
100
AcDbEntity
  8
1
  6
Continuous
100
AcDbLine
 10
397.610551
 20
169.271883
 30
0.0
 11
397.8105509999999
 21
169.271883
 31
0.0
  0
LINE
  5
95B5
330
9502
100
AcDbEntity
  8
1
  6
Continuous
100
AcDbLine
 10
377.6105509999999
 20
174.271883
 30
0.0
 11
377.6105509999999
 21
159.609883
 31
0.0
  0
LINE
  5
95B6
330
9502
100
AcDbEntity
  8
1
  6
Continuous
100
AcDbLine
 10
375.6105509999999
 20
153.771883
 30
0.0
 11
377.6105509999999
 21
153.771883
 31
0.0
  0
LINE
  5
95B7
330
9502
100
AcDbEntity
  8
1
  6
Continuous
100
AcDbLine
 10
375.6105509999999
 20
161.271883
 30
0.0
 11
377.6105509999999
 21
161.271883
 31
0.0
  0
LINE
  5
95B8
330
9502
100
AcDbEntity
  8
1
  6
Continuous
100
AcDbLine
 10
395.610551
 20
153.771883
 30
0.0
 11
397.610551
 21
153.771883
 31
0.0
  0
LINE
  5
95B9
330
9502
100
AcDbEntity
  8
1
  6
Continuous
100
AcDbLine
 10
395.610551
 20
161.271883
 30
0.0
 11
397.610551
 21
161.271883
 31
0.0
  0
LINE
  5
95BA
330
9502
100
AcDbEntity
  8
1
  6
Continuous
100
AcDbLine
 10
375.6105509999999
 20
154.271883
 30
0.0
 11
375.6105509999999
 21
139.771883
 31
0.0
  0
LINE
  5
95BB
330
9502
100
AcDbEntity
  8
1
  6
Continuous
100
AcDbLine
 10
377.6105509999999
 20
154.1858829999999
 30
0.0
 11
377.6105509999999
 21
139.771883
 31
0.0
  0
LINE
  5
95BC
330
9502
100
AcDbEntity
  8
1
  6
Continuous
100
AcDbLine
 10
397.610551
 20
154.271883
 30
0.0
 11
397.610551
 21
139.771883
 31
0.0
  0
LINE
  5
95BD
330
9502
100
AcDbEntity
  8
1
  6
Continuous
100
AcDbLine
 10
375.410551
 20
159.271883
 30
0.0
 11
375.410551
 21
154.271883
 31
0.0
  0
LINE
  5
95BE
330
9502
100
AcDbEntity
  8
1
  6
Continuous
100
AcDbLine
 10
397.8105509999999
 20
159.271883
 30
0.0
 11
397.8105509999999
 21
154.271883
 31
0.0
  0
LINE
  5
95BF
330
9502
100
AcDbEntity
  8
1
  6
Continuous
100
AcDbLine
 10
377.6105509999999
 20
173.271883
 30
0.0
 11
395.610551
 21
173.271883
 31
0.0
  0
LINE
  5
95C0
330
9502
100
AcDbEntity
  8
1
  6
Continuous
100
AcDbLine
 10
397.610551
 20
173.271883
 30
0.0
 11
397.8105509999999
 21
173.271883
 31
0.0
  0
LINE
  5
95C1
330
9502
100
AcDbEntity
  8
1
  6
Continuous
100
AcDbLine
 10
377.6105509999999
 20
174.271883
 30
0.0
 11
375.6105509999999
 21
174.271883
 31
0.0
  0
LINE
  5
95C2
330
9502
100
AcDbEntity
  8
1
  6
Continuous
100
AcDbLine
 10
397.610551
 20
174.771883
 30
0.0
 11
375.6105509999999
 21
174.771883
 31
0.0
  0
LINE
  5
95C3
330
9502
100
AcDbEntity
  8
1
  6
Continuous
100
AcDbLine
 10
395.610551
 20
174.271883
 30
0.0
 11
397.610551
 21
174.271883
 31
0.0
  0
LINE
  5
95C4
330
9502
100
AcDbEntity
  8
4
  6
CENTER
100
AcDbLine
 10
390.610551
 20
171.271883
 30
0.0
 11
390.610551
 21
157.271883
 31
0.0
  0
LINE
  5
95C5
330
9502
100
AcDbEntity
  8
4
  6
CENTER
100
AcDbLine
 10
382.610551
 20
171.271883
 30
0.0
 11
382.610551
 21
157.271883
 31
0.0
  0
LINE
  5
95C6
330
9502
100
AcDbEntity
  8
1
  6
Continuous
100
AcDbLine
 10
384.1105509999999
 20
167.771883
 30
0.0
 11
384.1105509999999
 21
160.771883
 31
0.0
  0
LINE
  5
95C7
330
9502
100
AcDbEntity
  8
1
  6
Continuous
100
AcDbLine
 10
381.1105509999999
 20
167.771883
 30
0.0
 11
381.1105509999999
 21
160.771883
 31
0.0
  0
LINE
  5
95C8
330
9502
100
AcDbEntity
  8
1
  6
Continuous
100
AcDbLine
 10
392.1105509999999
 20
167.771883
 30
0.0
 11
392.1105509999999
 21
160.771883
 31
0.0
  0
LINE
  5
95C9
330
9502
100
AcDbEntity
  8
1
  6
Continuous
100
AcDbLine
 10
389.110551
 20
167.771883
 30
0.0
 11
389.110551
 21
160.771883
 31
0.0
  0
LINE
  5
95CA
330
9502
100
AcDbEntity
  8
4
  6
CENTER
100
AcDbLine
 10
381.9605509999998
 20
152.7718829999998
 30
0.0
 11
391.2605509999999
 21
152.7718829999998
 31
0.0
  0
LINE
  5
95CB
330
9502
100
AcDbEntity
  8
4
  6
CENTER
100
AcDbLine
 10
381.9605509999998
 20
138.771883
 30
0.0
 11
391.2605509999999
 21
138.771883
 31
0.0
  0
LINE
  5
95CC
330
9502
100
AcDbEntity
  8
4
  6
CENTER
100
AcDbLine
 10
381.9605509999998
 20
124.7718829999999
 30
0.0
 11
391.2605509999999
 21
124.7718829999999
 31
0.0
  0
LINE
  5
95CD
330
9502
100
AcDbEntity
  8
4
  6
CENTER
100
AcDbLine
 10
219.6105509999999
 20
193.037504
 30
0.0
 11
219.6105509999999
 21
186.037504
 31
0.0
  0
LINE
  5
95CE
330
9502
100
AcDbEntity
  8
4
  6
CENTER
100
AcDbLine
 10
367.2605509999999
 20
189.771883
 30
0.0
 11
405.9605509999998
 21
189.771883
 31
0.0
  0
LINE
  5
95CF
330
9502
100
AcDbEntity
  8
4
  6
CENTER
100
AcDbLine
 10
367.2605509999999
 20
146.271883
 30
0.0
 11
405.9605509999998
 21
146.271883
 31
0.0
  0
LINE
  5
95D0
330
9502
100
AcDbEntity
  8
4
  6
CENTER
100
AcDbLine
 10
216.110551
 20
189.771883
 30
0.0
 11
223.1105509999999
 21
189.771883
 31
0.0
  0
LINE
  5
95D1
330
9502
100
AcDbEntity
  8
4
  6
CENTER
100
AcDbLine
 10
213.1105509999999
 20
146.271883
 30
0.0
 11
220.110551
 21
146.271883
 31
0.0
  0
LINE
  5
95D2
330
9502
100
AcDbEntity
  8
1
  6
Continuous
100
AcDbLine
 10
30.110651
 20
119.271883
 30
0.0
 11
30.801151
 21
119.271883
 31
0.0
  0
LINE
  5
95D3
330
9502
100
AcDbEntity
  8
1
  6
Continuous
100
AcDbLine
 10
42.420051
 20
119.271883
 30
0.0
 11
43.11055099999999
 21
119.271883
 31
0.0
  0
LINE
  5
95D4
330
9502
100
AcDbEntity
  8
1
  6
Continuous
100
AcDbLine
 10
21.46065099999999
 20
179.271883
 30
0.0
 11
21.46065099999999
 21
175.1618829999999
 31
0.0
  0
LINE
  5
95D5
330
9502
100
AcDbEntity
  8
1
  6
Continuous
100
AcDbLine
 10
401.760551
 20
179.271883
 30
0.0
 11
401.760551
 21
174.846883
 31
0.0
  0
LINE
  5
95D6
330
9502
100
AcDbEntity
  8
1
  6
Continuous
100
AcDbLine
 10
404.7605509999998
 20
180.7718829999998
 30
0.0
 11
404.7605509999998
 21
175.003883
 31
0.0
  0
LINE
  5
95D7
330
9502
100
AcDbEntity
  8
1
  6
Continuous
100
AcDbLine
 10
368.4605509999999
 20
180.7718829999998
 30
0.0
 11
368.4605509999999
 21
175.003883
 31
0.0
  0
LINE
  5
95D8
330
9502
100
AcDbEntity
  8
1
  6
Continuous
100
AcDbLine
 10
371.4605509999998
 20
179.271883
 30
0.0
 11
371.4605509999998
 21
175.1618829999999
 31
0.0
  0
LINE
  5
95D9
330
9502
100
AcDbEntity
  8
1
  6
Continuous
100
AcDbLine
 10
51.760551
 20
179.271883
 30
0.0
 11
51.760551
 21
174.846883
 31
0.0
  0
LINE
  5
95DA
330
9502
100
AcDbEntity
  8
1
  6
Continuous
100
AcDbLine
 10
54.76055099999999
 20
180.7718829999998
 30
0.0
 11
54.76055099999999
 21
175.003883
 31
0.0
  0
LINE
  5
95DB
330
9502
100
AcDbEntity
  8
1
  6
Continuous
100
AcDbLine
 10
29.610651
 20
139.771883
 30
0.0
 11
43.610551
 21
139.771883
 31
0.0
  0
LINE
  5
95DC
330
9502
100
AcDbEntity
  8
1
  6
Continuous
100
AcDbLine
 10
29.610651
 20
131.080883
 30
0.0
 11
43.610551
 21
131.080883
 31
0.0
  0
LINE
  5
95DD
330
9502
100
AcDbEntity
  8
1
  6
Continuous
100
AcDbLine
 10
29.610651
 20
171.771883
 30
0.0
 11
43.610551
 21
171.771883
 31
0.0
  0
LINE
  5
95DE
330
9502
100
AcDbEntity
  8
1
  6
Continuous
100
AcDbLine
 10
214.110551
 20
150.7718829999998
 30
0.0
 11
219.1105509999999
 21
150.7718829999998
 31
0.0
  0
LINE
  5
95DF
330
9502
100
AcDbEntity
  8
1
  6
Continuous
100
AcDbLine
 10
24.460651
 20
291.271883
 30
0.0
 11
48.760551
 21
291.271883
 31
0.0
  0
LINE
  5
95E0
330
9502
100
AcDbEntity
  8
1
  6
Continuous
100
AcDbLine
 10
24.460651
 20
295.271883
 30
0.0
 11
48.760551
 21
295.271883
 31
0.0
  0
LINE
  5
95E1
330
9502
100
AcDbEntity
  8
4
  6
CENTER
100
AcDbLine
 10
36.610651
 20
277.7718829999999
 30
0.0
 11
36.610651
 21
302.7718829999999
 31
0.0
  0
LINE
  5
95E2
330
9502
100
AcDbEntity
  8
1
  6
Continuous
100
AcDbLine
 10
52.960551
 20
293.271883
 30
0.0
 11
57.699551
 21
293.271883
 31
0.0
  0
LINE
  5
95E3
330
9502
100
AcDbEntity
  8
1
  6
Continuous
100
AcDbLine
 10
48.760551
 20
287.271883
 30
0.0
 11
57.699551
 21
287.271883
 31
0.0
  0
LINE
  5
95E4
330
9502
100
AcDbEntity
  8
1
  6
Continuous
100
AcDbLine
 10
48.760551
 20
287.271883
 30
0.0
 11
48.760551
 21
297.6858829999999
 31
0.0
  0
LINE
  5
95E5
330
9502
100
AcDbEntity
  8
1
  6
Continuous
100
AcDbLine
 10
24.460651
 20
287.271883
 30
0.0
 11
24.460651
 21
297.6858829999999
 31
0.0
  0
LINE
  5
95E6
330
9502
100
AcDbEntity
  8
1
  6
Continuous
100
AcDbLine
 10
51.760551
 20
284.0218829999999
 30
0.0
 11
51.760551
 21
297.6858829999999
 31
0.0
  0
LINE
  5
95E7
330
9502
100
AcDbEntity
  8
1
  6
Continuous
100
AcDbLine
 10
21.46065099999999
 20
284.0218829999999
 30
0.0
 11
21.46065099999999
 21
297.6858829999999
 31
0.0
  0
LINE
  5
95E8
330
9502
100
AcDbEntity
  8
1
  6
Continuous
100
AcDbLine
 10
54.76055099999999
 20
284.0218829999999
 30
0.0
 11
54.76055099999999
 21
287.271883
 31
0.0
  0
LINE
  5
95E9
330
9502
100
AcDbEntity
  8
1
  6
Continuous
100
AcDbLine
 10
18.46065099999998
 20
284.0218829999999
 30
0.0
 11
18.46065099999998
 21
287.271883
 31
0.0
  0
LINE
  5
95EA
330
9502
100
AcDbEntity
  8
1
  6
Continuous
100
AcDbLine
 10
57.760551
 20
284.0218829999999
 30
0.0
 11
57.760551
 21
285.074883
 31
0.0
  0
LINE
  5
95EB
330
9502
100
AcDbEntity
  8
1
  6
Continuous
100
AcDbLine
 10
15.460651
 20
284.0218829999999
 30
0.0
 11
15.460651
 21
285.074883
 31
0.0
  0
LINE
  5
95EC
330
9502
100
AcDbEntity
  8
1
  6
Continuous
100
AcDbLine
 10
15.460651
 20
284.0218829999999
 30
0.0
 11
21.46065099999999
 21
284.0218829999999
 31
0.0
  0
LINE
  5
95ED
330
9502
100
AcDbEntity
  8
1
  6
Continuous
100
AcDbLine
 10
15.460651
 20
296.5218829999999
 30
0.0
 11
21.46065099999999
 21
296.5218829999999
 31
0.0
  0
LINE
  5
95EE
330
9502
100
AcDbEntity
  8
1
  6
Continuous
100
AcDbLine
 10
15.521251
 20
287.271883
 30
0.0
 11
24.460651
 21
287.271883
 31
0.0
  0
LINE
  5
95EF
330
9502
100
AcDbEntity
  8
1
  6
Continuous
100
AcDbLine
 10
15.521251
 20
293.271883
 30
0.0
 11
20.260551
 21
293.271883
 31
0.0
  0
LINE
  5
95F0
330
9502
100
AcDbEntity
  8
1
  6
Continuous
100
AcDbLine
 10
51.760551
 20
284.0218829999999
 30
0.0
 11
57.760551
 21
284.0218829999999
 31
0.0
  0
LINE
  5
95F1
330
9502
100
AcDbEntity
  8
1
  6
Continuous
100
AcDbLine
 10
51.760551
 20
296.5218829999999
 30
0.0
 11
57.760551
 21
296.5218829999999
 31
0.0
  0
LINE
  5
95F2
330
9502
100
AcDbEntity
  8
1
  6
Continuous
100
AcDbLine
 10
54.76055099999999
 20
293.271883
 30
0.0
 11
54.76055099999999
 21
296.5218829999999
 31
0.0
  0
LINE
  5
95F3
330
9502
100
AcDbEntity
  8
1
  6
Continuous
100
AcDbLine
 10
18.46065099999998
 20
293.271883
 30
0.0
 11
18.46065099999998
 21
296.5218829999999
 31
0.0
  0
LINE
  5
95F4
330
9502
100
AcDbEntity
  8
1
  6
Continuous
100
AcDbLine
 10
52.960551
 20
291.771883
 30
0.0
 11
52.960551
 21
294.7718829999999
 31
0.0
  0
LINE
  5
95F5
330
9502
100
AcDbEntity
  8
1
  6
Continuous
100
AcDbLine
 10
20.26065099999998
 20
291.771883
 30
0.0
 11
20.26065099999998
 21
294.7718829999999
 31
0.0
  0
LINE
  5
95F6
330
9502
100
AcDbEntity
  8
4
  6
CENTER
100
AcDbLine
 10
20.260551
 20
293.271883
 30
0.0
 11
52.960551
 21
293.271883
 31
0.0
  0
LINE
  5
95F7
330
9502
100
AcDbEntity
  8
1
  6
Continuous
100
AcDbLine
 10
51.760551
 20
294.7718829999999
 30
0.0
 11
52.960551
 21
294.7718829999999
 31
0.0
  0
LINE
  5
95F8
330
9502
100
AcDbEntity
  8
1
  6
Continuous
100
AcDbLine
 10
51.760551
 20
291.771883
 30
0.0
 11
52.960551
 21
291.771883
 31
0.0
  0
LINE
  5
95F9
330
9502
100
AcDbEntity
  8
1
  6
Continuous
100
AcDbLine
 10
20.260551
 20
291.771883
 30
0.0
 11
21.46065099999999
 21
291.771883
 31
0.0
  0
LINE
  5
95FA
330
9502
100
AcDbEntity
  8
1
  6
Continuous
100
AcDbLine
 10
20.260551
 20
294.7718829999999
 30
0.0
 11
21.46065099999999
 21
294.7718829999999
 31
0.0
  0
LINE
  5
95FB
330
9502
100
AcDbEntity
  8
1
  6
Continuous
100
AcDbLine
 10
57.760551
 20
295.4678829999998
 30
0.0
 11
57.760551
 21
296.5218829999999
 31
0.0
  0
LINE
  5
95FC
330
9502
100
AcDbEntity
  8
1
  6
Continuous
100
AcDbLine
 10
57.760551
 20
287.331883
 30
0.0
 11
57.760551
 21
293.210883
 31
0.0
  0
LINE
  5
95FD
330
9502
100
AcDbEntity
  8
1
  6
Continuous
100
AcDbLine
 10
15.460651
 20
287.331883
 30
0.0
 11
15.460651
 21
293.210883
 31
0.0
  0
LINE
  5
95FE
330
9502
100
AcDbEntity
  8
1
  6
Continuous
100
AcDbLine
 10
15.460651
 20
295.4678829999998
 30
0.0
 11
15.460651
 21
296.5218829999999
 31
0.0
  0
LINE
  5
95FF
330
9502
100
AcDbEntity
  8
1
  6
Continuous
100
AcDbLine
 10
27.610651
 20
282.771883
 30
0.0
 11
45.61055099999999
 21
282.771883
 31
0.0
  0
LINE
  5
9600
330
9502
100
AcDbEntity
  8
1
  6
Continuous
100
AcDbLine
 10
47.610551
 20
284.771883
 30
0.0
 11
47.610551
 21
286.771883
 31
0.0
  0
LINE
  5
9601
330
9502
100
AcDbEntity
  8
1
  6
Continuous
100
AcDbLine
 10
25.610651
 20
284.771883
 30
0.0
 11
25.610651
 21
286.771883
 31
0.0
  0
LINE
  5
9602
330
9502
100
AcDbEntity
  8
1
  6
Continuous
100
AcDbLine
 10
25.860651
 20
283.8036369999999
 30
0.0
 11
25.860651
 21
291.271883
 31
0.0
  0
LINE
  5
9603
330
9502
100
AcDbEntity
  8
1
  6
Continuous
100
AcDbLine
 10
47.360551
 20
283.8036369999999
 30
0.0
 11
47.360551
 21
291.271883
 31
0.0
  0
LINE
  5
9604
330
9502
100
AcDbEntity
  8
1
  6
Continuous
100
AcDbLine
 10
25.410651
 20
295.271883
 30
0.0
 11
25.410651
 21
297.771883
 31
0.0
  0
LINE
  5
9605
330
9502
100
AcDbEntity
  8
1
  6
Continuous
100
AcDbLine
 10
47.81055099999998
 20
295.271883
 30
0.0
 11
47.81055099999998
 21
297.771883
 31
0.0
  0
LINE
  5
9606
330
9502
100
AcDbEntity
  8
1
  6
Continuous
100
AcDbLine
 10
25.410551
 20
286.771883
 30
0.0
 11
25.860651
 21
286.771883
 31
0.0
  0
LINE
  5
9607
330
9502
100
AcDbEntity
  8
1
  6
Continuous
100
AcDbLine
 10
25.410551
 20
289.771883
 30
0.0
 11
25.860651
 21
289.771883
 31
0.0
  0
LINE
  5
9608
330
9502
100
AcDbEntity
  8
1
  6
Continuous
100
AcDbLine
 10
25.410651
 20
286.771883
 30
0.0
 11
25.410651
 21
289.771883
 31
0.0
  0
LINE
  5
9609
330
9502
100
AcDbEntity
  8
1
  6
Continuous
100
AcDbLine
 10
47.81055099999998
 20
286.771883
 30
0.0
 11
47.81055099999998
 21
289.771883
 31
0.0
  0
LINE
  5
960A
330
9502
100
AcDbEntity
  8
1
  6
Continuous
100
AcDbLine
 10
47.360551
 20
286.771883
 30
0.0
 11
47.81055099999998
 21
286.771883
 31
0.0
  0
LINE
  5
960B
330
9502
100
AcDbEntity
  8
1
  6
Continuous
100
AcDbLine
 10
47.360551
 20
289.771883
 30
0.0
 11
47.81055099999998
 21
289.771883
 31
0.0
  0
LINE
  5
960C
330
9502
100
AcDbEntity
  8
1
  6
Continuous
100
AcDbLine
 10
25.610651
 20
289.771883
 30
0.0
 11
25.610651
 21
291.271883
 31
0.0
  0
LINE
  5
960D
330
9502
100
AcDbEntity
  8
1
  6
Continuous
100
AcDbLine
 10
47.610551
 20
289.771883
 30
0.0
 11
47.610551
 21
291.271883
 31
0.0
  0
LINE
  5
960E
330
9502
100
AcDbEntity
  8
4
  6
CENTER
100
AcDbLine
 10
9.460650999999996
 20
290.2718829999999
 30
0.0
 11
63.760551
 21
290.2718829999999
 31
0.0
  0
LINE
  5
960F
330
9502
100
AcDbEntity
  8
1
  6
Continuous
100
AcDbLine
 10
24.460651
 20
288.2718829999999
 30
0.0
 11
25.410551
 21
288.2718829999999
 31
0.0
  0
LINE
  5
9610
330
9502
100
AcDbEntity
  8
1
  6
Continuous
100
AcDbLine
 10
47.81055099999998
 20
288.2718829999999
 30
0.0
 11
48.760551
 21
288.2718829999999
 31
0.0
  0
LINE
  5
9611
330
9502
100
AcDbEntity
  8
1
  6
Continuous
100
AcDbLine
 10
54.76055099999999
 20
57.52148299999999
 30
0.0
 11
54.76055099999999
 21
45.021483
 31
0.0
  0
LINE
  5
9612
330
9502
100
AcDbEntity
  8
1
  6
Continuous
100
AcDbLine
 10
48.760551
 20
48.27148300000001
 30
0.0
 11
54.76055099999999
 21
48.27148300000001
 31
0.0
  0
LINE
  5
9613
330
9502
100
AcDbEntity
  8
4
  6
CENTER
100
AcDbLine
 10
36.610651
 20
61.77148299999998
 30
0.0
 11
36.610651
 21
40.771483
 31
0.0
  0
LINE
  5
9614
330
9502
100
AcDbEntity
  8
1
  6
Continuous
100
AcDbLine
 10
48.760551
 20
54.27148299999998
 30
0.0
 11
54.76055099999999
 21
54.27148299999998
 31
0.0
  0
LINE
  5
9615
330
9502
100
AcDbEntity
  8
1
  6
Continuous
100
AcDbLine
 10
48.760551
 20
54.27148299999998
 30
0.0
 11
48.760551
 21
44.271483
 31
0.0
  0
LINE
  5
9616
330
9502
100
AcDbEntity
  8
1
  6
Continuous
100
AcDbLine
 10
51.760551
 20
57.52148299999999
 30
0.0
 11
51.760551
 21
56.467583
 31
0.0
  0
LINE
  5
9617
330
9502
100
AcDbEntity
  8
1
  6
Continuous
100
AcDbLine
 10
51.760551
 20
45.021483
 30
0.0
 11
57.760551
 21
45.021483
 31
0.0
  0
LINE
  5
9618
330
9502
100
AcDbEntity
  8
1
  6
Continuous
100
AcDbLine
 10
51.760551
 20
57.52148299999999
 30
0.0
 11
57.760551
 21
57.52148299999999
 31
0.0
  0
LINE
  5
9619
330
9502
100
AcDbEntity
  8
1
  6
Continuous
100
AcDbLine
 10
51.760551
 20
49.771483
 30
0.0
 11
52.960551
 21
49.771483
 31
0.0
  0
LINE
  5
961A
330
9502
100
AcDbEntity
  8
4
  6
CENTER
100
AcDbLine
 10
19.226548
 20
48.27148300000001
 30
0.0
 11
50.72644799999999
 21
48.27148300000001
 31
0.0
  0
LINE
  5
961B
330
9502
100
AcDbEntity
  8
1
  6
Continuous
100
AcDbLine
 10
52.960551
 20
52.771483
 30
0.0
 11
52.960551
 21
49.771483
 31
0.0
  0
LINE
  5
961C
330
9502
100
AcDbEntity
  8
1
  6
Continuous
100
AcDbLine
 10
47.610551
 20
56.77148299999998
 30
0.0
 11
47.610551
 21
44.771483
 31
0.0
  0
LINE
  5
961D
330
9502
100
AcDbEntity
  8
1
  6
Continuous
100
AcDbLine
 10
25.610651
 20
56.77148299999998
 30
0.0
 11
25.610651
 21
44.771483
 31
0.0
  0
LINE
  5
961E
330
9502
100
AcDbEntity
  8
1
  6
Continuous
100
AcDbLine
 10
57.760551
 20
57.52148299999999
 30
0.0
 11
57.760551
 21
45.021483
 31
0.0
  0
LINE
  5
961F
330
9502
100
AcDbEntity
  8
1
  6
Continuous
100
AcDbLine
 10
25.610651
 20
44.771483
 30
0.0
 11
27.610651
 21
44.771483
 31
0.0
  0
LINE
  5
9620
330
9502
100
AcDbEntity
  8
1
  6
Continuous
100
AcDbLine
 10
18.110651
 20
43.771483
 30
0.0
 11
55.110551
 21
43.771483
 31
0.0
  0
LINE
  5
9621
330
9502
100
AcDbEntity
  8
1
  6
Continuous
100
AcDbLine
 10
27.610651
 20
58.77148299999999
 30
0.0
 11
45.61055099999999
 21
58.77148299999999
 31
0.0
  0
LINE
  5
9622
330
9502
100
AcDbEntity
  8
1
  6
Continuous
100
AcDbLine
 10
45.61055099999999
 20
44.771483
 30
0.0
 11
47.610551
 21
44.771483
 31
0.0
  0
LINE
  5
9623
330
9502
100
AcDbEntity
  8
4
  6
CENTER
100
AcDbLine
 10
9.460650999999996
 20
51.271483
 30
0.0
 11
63.760551
 21
51.271483
 31
0.0
  0
LINE
  5
9624
330
9502
100
AcDbEntity
  8
1
  6
Continuous
100
AcDbLine
 10
24.460651
 20
53.27148300000001
 30
0.0
 11
25.610651
 21
53.27148300000001
 31
0.0
  0
LINE
  5
9625
330
9502
100
AcDbEntity
  8
1
  6
Continuous
100
AcDbLine
 10
24.460651
 20
49.271483
 30
0.0
 11
25.610651
 21
49.271483
 31
0.0
  0
LINE
  5
9626
330
9502
100
AcDbEntity
  8
1
  6
Continuous
100
AcDbLine
 10
51.760551
 20
52.771483
 30
0.0
 11
52.960551
 21
52.771483
 31
0.0
  0
LINE
  5
9627
330
9502
100
AcDbEntity
  8
1
  6
Continuous
100
AcDbLine
 10
51.760551
 20
46.075283
 30
0.0
 11
51.760551
 21
44.271483
 31
0.0
  0
LINE
  5
9628
330
9502
100
AcDbEntity
  8
1
  6
Continuous
100
AcDbLine
 10
51.760551
 20
54.27148299999998
 30
0.0
 11
51.760551
 21
48.27148300000001
 31
0.0
  0
LINE
  5
9629
330
9502
100
AcDbEntity
  8
1
  6
Continuous
100
AcDbLine
 10
24.460651
 20
48.27148300000001
 30
0.0
 11
18.46065099999998
 21
48.27148300000001
 31
0.0
  0
LINE
  5
962A
330
9502
100
AcDbEntity
  8
1
  6
Continuous
100
AcDbLine
 10
18.46065099999998
 20
57.52148299999999
 30
0.0
 11
18.46065099999998
 21
45.021483
 31
0.0
  0
LINE
  5
962B
330
9502
100
AcDbEntity
  8
1
  6
Continuous
100
AcDbLine
 10
24.460651
 20
54.27148299999998
 30
0.0
 11
18.46065099999998
 21
54.27148299999998
 31
0.0
  0
LINE
  5
962C
330
9502
100
AcDbEntity
  8
1
  6
Continuous
100
AcDbLine
 10
24.460651
 20
54.27148299999998
 30
0.0
 11
24.460651
 21
44.271483
 31
0.0
  0
LINE
  5
962D
330
9502
100
AcDbEntity
  8
1
  6
Continuous
100
AcDbLine
 10
21.46065099999999
 20
57.52148299999999
 30
0.0
 11
21.46065099999999
 21
56.467583
 31
0.0
  0
LINE
  5
962E
330
9502
100
AcDbEntity
  8
1
  6
Continuous
100
AcDbLine
 10
21.46065099999999
 20
45.021483
 30
0.0
 11
15.460651
 21
45.021483
 31
0.0
  0
LINE
  5
962F
330
9502
100
AcDbEntity
  8
1
  6
Continuous
100
AcDbLine
 10
21.46065099999999
 20
57.52148299999999
 30
0.0
 11
15.460651
 21
57.52148299999999
 31
0.0
  0
LINE
  5
9630
330
9502
100
AcDbEntity
  8
1
  6
Continuous
100
AcDbLine
 10
21.46065099999999
 20
49.771483
 30
0.0
 11
20.26065099999998
 21
49.771483
 31
0.0
  0
LINE
  5
9631
330
9502
100
AcDbEntity
  8
1
  6
Continuous
100
AcDbLine
 10
20.26065099999998
 20
52.771483
 30
0.0
 11
20.26065099999998
 21
49.771483
 31
0.0
  0
LINE
  5
9632
330
9502
100
AcDbEntity
  8
1
  6
Continuous
100
AcDbLine
 10
21.46065099999999
 20
52.771483
 30
0.0
 11
20.26065099999998
 21
52.771483
 31
0.0
  0
LINE
  5
9633
330
9502
100
AcDbEntity
  8
1
  6
Continuous
100
AcDbLine
 10
15.460651
 20
57.52148299999999
 30
0.0
 11
15.460651
 21
45.021483
 31
0.0
  0
LINE
  5
9634
330
9502
100
AcDbEntity
  8
1
  6
Continuous
100
AcDbLine
 10
21.46065099999999
 20
54.27148299999998
 30
0.0
 11
21.46065099999999
 21
48.27148300000001
 31
0.0
  0
LINE
  5
9635
330
9502
100
AcDbEntity
  8
1
  6
Continuous
100
AcDbLine
 10
21.46065099999999
 20
46.075283
 30
0.0
 11
21.46065099999999
 21
44.271483
 31
0.0
  0
LINE
  5
9636
330
9502
100
AcDbEntity
  8
1
  6
Continuous
100
AcDbLine
 10
27.610651
 20
56.77148299999998
 30
0.0
 11
28.610651
 21
56.77148299999998
 31
0.0
  0
LINE
  5
9637
330
9502
100
AcDbEntity
  8
1
  6
Continuous
100
AcDbLine
 10
45.61055099999999
 20
56.77148299999998
 30
0.0
 11
45.61055099999999
 21
44.771483
 31
0.0
  0
LINE
  5
9638
330
9502
100
AcDbEntity
  8
1
  6
Continuous
100
AcDbLine
 10
27.610651
 20
56.77148299999998
 30
0.0
 11
27.610651
 21
44.771483
 31
0.0
  0
LINE
  5
9639
330
9502
100
AcDbEntity
  8
1
  6
Continuous
100
AcDbLine
 10
25.410651
 20
46.771483
 30
0.0
 11
25.610651
 21
46.771483
 31
0.0
  0
LINE
  5
963A
330
9502
100
AcDbEntity
  8
1
  6
Continuous
100
AcDbLine
 10
47.81055099999998
 20
46.771483
 30
0.0
 11
47.81055099999998
 21
43.771483
 31
0.0
  0
LINE
  5
963B
330
9502
100
AcDbEntity
  8
1
  6
Continuous
100
AcDbLine
 10
25.410651
 20
46.771483
 30
0.0
 11
25.410651
 21
43.771483
 31
0.0
  0
LINE
  5
963C
330
9502
100
AcDbEntity
  8
1
  6
Continuous
100
AcDbLine
 10
45.360551
 20
49.271483
 30
0.0
 11
45.360551
 21
43.771483
 31
0.0
  0
LINE
  5
963D
330
9502
100
AcDbEntity
  8
1
  6
Continuous
100
AcDbLine
 10
27.860651
 20
49.271483
 30
0.0
 11
27.860651
 21
43.771483
 31
0.0
  0
LINE
  5
963E
330
9502
100
AcDbEntity
  8
1
  6
Continuous
100
AcDbLine
 10
25.410651
 20
54.77148299999999
 30
0.0
 11
25.610651
 21
54.77148299999999
 31
0.0
  0
LINE
  5
963F
330
9502
100
AcDbEntity
  8
1
  6
Continuous
100
AcDbLine
 10
47.81055099999998
 20
54.77148299999999
 30
0.0
 11
47.81055099999998
 21
53.27148300000001
 31
0.0
  0
LINE
  5
9640
330
9502
100
AcDbEntity
  8
1
  6
Continuous
100
AcDbLine
 10
25.410651
 20
54.77148299999999
 30
0.0
 11
25.410651
 21
53.27148300000001
 31
0.0
  0
LINE
  5
9641
330
9502
100
AcDbEntity
  8
1
  6
Continuous
100
AcDbLine
 10
47.610551
 20
54.77148299999999
 30
0.0
 11
47.81055099999998
 21
54.77148299999999
 31
0.0
  0
LINE
  5
9642
330
9502
100
AcDbEntity
  8
1
  6
Continuous
100
AcDbLine
 10
27.610651
 20
54.77148299999999
 30
0.0
 11
28.610651
 21
54.77148299999999
 31
0.0
  0
LINE
  5
9643
330
9502
100
AcDbEntity
  8
1
  6
Continuous
100
AcDbLine
 10
47.610551
 20
46.771483
 30
0.0
 11
47.81055099999998
 21
46.771483
 31
0.0
  0
LINE
  5
9644
330
9502
100
AcDbEntity
  8
1
  6
Continuous
100
AcDbLine
 10
27.610651
 20
46.771483
 30
0.0
 11
45.61055099999999
 21
46.771483
 31
0.0
  0
LINE
  5
9645
330
9502
100
AcDbEntity
  8
1
  6
Continuous
100
AcDbLine
 10
44.610551
 20
53.77148299999999
 30
0.0
 11
28.610651
 21
53.77148299999999
 31
0.0
  0
LINE
  5
9646
330
9502
100
AcDbEntity
  8
1
  6
Continuous
100
AcDbLine
 10
28.610651
 20
58.77148299999999
 30
0.0
 11
28.610651
 21
53.77148299999999
 31
0.0
  0
LINE
  5
9647
330
9502
100
AcDbEntity
  8
1
  6
Continuous
100
AcDbLine
 10
44.610551
 20
58.77148299999999
 30
0.0
 11
44.610551
 21
53.77148299999999
 31
0.0
  0
LINE
  5
9648
330
9502
100
AcDbEntity
  8
1
  6
Continuous
100
AcDbLine
 10
44.610551
 20
56.77148299999998
 30
0.0
 11
45.61055099999999
 21
56.77148299999998
 31
0.0
  0
LINE
  5
9649
330
9502
100
AcDbEntity
  8
1
  6
Continuous
100
AcDbLine
 10
44.610551
 20
54.77148299999999
 30
0.0
 11
45.61055099999999
 21
54.77148299999999
 31
0.0
  0
LINE
  5
964A
330
9502
100
AcDbEntity
  8
1
  6
Continuous
100
AcDbLine
 10
24.460651
 20
46.271483
 30
0.0
 11
25.410651
 21
46.271483
 31
0.0
  0
LINE
  5
964B
330
9502
100
AcDbEntity
  8
1
  6
Continuous
100
AcDbLine
 10
47.81055099999998
 20
46.271483
 30
0.0
 11
48.760551
 21
46.271483
 31
0.0
  0
LINE
  5
964C
330
9502
100
AcDbEntity
  8
1
  6
Continuous
100
AcDbLine
 10
51.760551
 20
179.271883
 30
0.0
 11
54.76055099999999
 21
179.271883
 31
0.0
  0
LINE
  5
964D
330
9502
100
AcDbEntity
  8
1
  6
Continuous
100
AcDbLine
 10
48.760551
 20
193.771883
 30
0.0
 11
48.760551
 21
184.7718829999998
 31
0.0
  0
LINE
  5
964E
330
9502
100
AcDbEntity
  8
1
  6
Continuous
100
AcDbLine
 10
51.760551
 20
184.7718829999998
 30
0.0
 11
55.600551
 21
183.6518829999999
 31
0.0
  0
LINE
  5
964F
330
9502
100
AcDbEntity
  8
1
  6
Continuous
100
AcDbLine
 10
50.920551
 20
181.891883
 30
0.0
 11
54.76055099999999
 21
180.7718829999998
 31
0.0
  0
LINE
  5
9650
330
9502
100
AcDbEntity
  8
1
  6
Continuous
100
AcDbLine
 10
21.46065099999999
 20
184.7718829999998
 30
0.0
 11
17.620651
 21
183.6518829999999
 31
0.0
  0
LINE
  5
9651
330
9502
100
AcDbEntity
  8
1
  6
Continuous
100
AcDbLine
 10
18.46065099999998
 20
180.7718829999998
 30
0.0
 11
22.300651
 21
181.891883
 31
0.0
  0
LINE
  5
9652
330
9502
100
AcDbEntity
  8
1
  6
Continuous
100
AcDbLine
 10
371.4605509999998
 20
184.7718829999998
 30
0.0
 11
367.6205509999999
 21
183.6518829999999
 31
0.0
  0
LINE
  5
9653
330
9502
100
AcDbEntity
  8
1
  6
Continuous
100
AcDbLine
 10
401.760551
 20
184.7718829999998
 30
0.0
 11
405.600551
 21
183.6518829999999
 31
0.0
  0
LINE
  5
9654
330
9502
100
AcDbEntity
  8
1
  6
Continuous
100
AcDbLine
 10
368.4605509999999
 20
180.7718829999998
 30
0.0
 11
372.300551
 21
181.891883
 31
0.0
  0
LINE
  5
9655
330
9502
100
AcDbEntity
  8
1
  6
Continuous
100
AcDbLine
 10
404.7605509999998
 20
180.7718829999998
 30
0.0
 11
400.920551
 21
181.891883
 31
0.0
  0
LINE
  5
9656
330
9502
100
AcDbEntity
  8
1
  6
Continuous
100
AcDbLine
 10
25.410651
 20
173.271883
 30
0.0
 11
25.610651
 21
173.271883
 31
0.0
  0
LINE
  5
9657
330
9502
100
AcDbEntity
  8
1
  6
Continuous
100
AcDbLine
 10
25.410651
 20
159.271883
 30
0.0
 11
25.610651
 21
159.271883
 31
0.0
  0
LINE
  5
9658
330
9502
100
AcDbEntity
  8
1
  6
Continuous
100
AcDbLine
 10
25.410651
 20
154.271883
 30
0.0
 11
25.610651
 21
154.271883
 31
0.0
  0
LINE
  5
9659
330
9502
100
AcDbEntity
  8
1
  6
Continuous
100
AcDbLine
 10
25.410651
 20
169.271883
 30
0.0
 11
25.610651
 21
169.271883
 31
0.0
  0
LINE
  5
965A
330
9502
100
AcDbEntity
  8
1
  6
Continuous
100
AcDbLine
 10
25.410651
 20
173.271883
 30
0.0
 11
25.410651
 21
169.271883
 31
0.0
  0
LINE
  5
965B
330
9502
100
AcDbEntity
  8
1
  6
Continuous
100
AcDbLine
 10
47.81055099999998
 20
173.271883
 30
0.0
 11
47.81055099999998
 21
169.271883
 31
0.0
  0
LINE
  5
965C
330
9502
100
AcDbEntity
  8
1
  6
Continuous
100
AcDbLine
 10
25.410651
 20
159.271883
 30
0.0
 11
25.410651
 21
154.271883
 31
0.0
  0
LINE
  5
965D
330
9502
100
AcDbEntity
  8
1
  6
Continuous
100
AcDbLine
 10
47.81055099999998
 20
159.271883
 30
0.0
 11
47.81055099999998
 21
154.271883
 31
0.0
  0
LINE
  5
965E
330
9502
100
AcDbEntity
  8
1
  6
Continuous
100
AcDbLine
 10
47.610551
 20
173.271883
 30
0.0
 11
47.81055099999998
 21
173.271883
 31
0.0
  0
LINE
  5
965F
330
9502
100
AcDbEntity
  8
1
  6
Continuous
100
AcDbLine
 10
47.610551
 20
169.271883
 30
0.0
 11
47.81055099999998
 21
169.271883
 31
0.0
  0
LINE
  5
9660
330
9502
100
AcDbEntity
  8
1
  6
Continuous
100
AcDbLine
 10
47.610551
 20
159.271883
 30
0.0
 11
47.81055099999998
 21
159.271883
 31
0.0
  0
LINE
  5
9661
330
9502
100
AcDbEntity
  8
1
  6
Continuous
100
AcDbLine
 10
47.610551
 20
154.271883
 30
0.0
 11
47.81055099999998
 21
154.271883
 31
0.0
  0
LINE
  5
9662
330
9502
100
AcDbEntity
  8
1
  6
Continuous
100
AcDbLine
 10
219.8445509999999
 20
185.190883
 30
0.0
 11
222.9085509999999
 21
188.842883
 31
0.0
  0
LINE
  5
9663
330
9502
100
AcDbEntity
  8
1
  6
Continuous
100
AcDbLine
 10
215.0145509999999
 20
188.7688829999999
 30
0.0
 11
218.3125509999999
 21
192.699883
 31
0.0
  0
LINE
  5
9664
330
9502
100
AcDbEntity
  8
4
  6
CENTER
100
AcDbLine
 10
212.3175509999999
 20
181.0798829999999
 30
0.0
 11
224.3725509999999
 21
195.445883
 31
0.0
  0
LINE
  5
9665
330
9502
100
AcDbEntity
  8
1
  6
Continuous
100
AcDbLine
 10
395.610551
 20
174.271883
 30
0.0
 11
395.610551
 21
159.609883
 31
0.0
  0
LINE
  5
9666
330
9502
100
AcDbEntity
  8
1
  6
Continuous
100
AcDbLine
 10
395.610551
 20
154.1858829999999
 30
0.0
 11
395.610551
 21
139.771883
 31
0.0
  0
LINE
  5
9667
330
9502
100
AcDbEntity
  8
1
  6
Continuous
100
AcDbLine
 10
48.760551
 20
44.271483
 30
0.0
 11
51.760551
 21
44.271483
 31
0.0
  0
LINE
  5
9668
330
9502
100
AcDbEntity
  8
1
  6
Continuous
100
AcDbLine
 10
21.46065099999999
 20
44.271483
 30
0.0
 11
24.460651
 21
44.271483
 31
0.0
  0
LINE
  5
9669
330
9502
100
AcDbEntity
  8
1
  6
Continuous
100
AcDbLine
 10
212.6105509999999
 20
161.271883
 30
0.0
 11
211.3605509999999
 21
161.271883
 31
0.0
  0
LINE
  5
966A
330
9502
100
AcDbEntity
  8
1
  6
Continuous
100
AcDbLine
 10
13.313551
 20
174.7348829999999
 30
0.0
 11
23.513551
 21
175.2688829999999
 31
0.0
  0
LINE
  5
966B
330
9502
100
AcDbEntity
  8
1
  6
Continuous
100
AcDbLine
 10
13.407751
 20
172.936883
 30
0.0
 11
23.607751
 21
173.471883
 31
0.0
  0
LINE
  5
966C
330
9502
100
AcDbEntity
  8
1
  6
Continuous
100
AcDbLine
 10
13.360651
 20
172.793883
 30
0.0
 11
23.56065099999999
 21
173.328883
 31
0.0
  0
LINE
  5
966D
330
9502
100
AcDbEntity
  8
1
  6
Continuous
100
AcDbLine
 10
13.360651
 20
170.991883
 30
0.0
 11
23.56065099999999
 21
171.5258829999999
 31
0.0
  0
LINE
  5
966E
330
9502
100
AcDbEntity
  8
1
  6
Continuous
100
AcDbLine
 10
13.360651
 20
170.8518829999999
 30
0.0
 11
23.56065099999999
 21
171.385883
 31
0.0
  0
LINE
  5
966F
330
9502
100
AcDbEntity
  8
1
  6
Continuous
100
AcDbLine
 10
13.360651
 20
169.0488829999999
 30
0.0
 11
23.56065099999999
 21
169.5838829999999
 31
0.0
  0
LINE
  5
9670
330
9502
100
AcDbEntity
  8
1
  6
Continuous
100
AcDbLine
 10
13.360651
 20
168.908883
 30
0.0
 11
23.56065099999999
 21
169.4438829999998
 31
0.0
  0
LINE
  5
9671
330
9502
100
AcDbEntity
  8
1
  6
Continuous
100
AcDbLine
 10
13.360651
 20
167.106883
 30
0.0
 11
23.56065099999999
 21
167.6408829999998
 31
0.0
  0
LINE
  5
9672
330
9502
100
AcDbEntity
  8
1
  6
Continuous
100
AcDbLine
 10
13.360651
 20
166.9658829999999
 30
0.0
 11
23.56065099999999
 21
167.5008829999999
 31
0.0
  0
LINE
  5
9673
330
9502
100
AcDbEntity
  8
1
  6
Continuous
100
AcDbLine
 10
13.360651
 20
165.163883
 30
0.0
 11
23.56065099999999
 21
165.6978829999999
 31
0.0
  0
LINE
  5
9674
330
9502
100
AcDbEntity
  8
1
  6
Continuous
100
AcDbLine
 10
13.360651
 20
165.023883
 30
0.0
 11
23.56065099999999
 21
165.557883
 31
0.0
  0
LINE
  5
9675
330
9502
100
AcDbEntity
  8
1
  6
Continuous
100
AcDbLine
 10
13.360651
 20
163.2208829999999
 30
0.0
 11
23.56065099999999
 21
163.755883
 31
0.0
  0
LINE
  5
9676
330
9502
100
AcDbEntity
  8
1
  6
Continuous
100
AcDbLine
 10
13.360651
 20
163.080883
 30
0.0
 11
23.56065099999999
 21
163.615883
 31
0.0
  0
LINE
  5
9677
330
9502
100
AcDbEntity
  8
1
  6
Continuous
100
AcDbLine
 10
13.360651
 20
161.278883
 30
0.0
 11
23.56065099999999
 21
161.812883
 31
0.0
  0
LINE
  5
9678
330
9502
100
AcDbEntity
  8
1
  6
Continuous
100
AcDbLine
 10
49.613551
 20
174.7348829999999
 30
0.0
 11
59.813551
 21
175.2688829999999
 31
0.0
  0
LINE
  5
9679
330
9502
100
AcDbEntity
  8
1
  6
Continuous
100
AcDbLine
 10
49.707551
 20
172.936883
 30
0.0
 11
59.907551
 21
173.471883
 31
0.0
  0
LINE
  5
967A
330
9502
100
AcDbEntity
  8
1
  6
Continuous
100
AcDbLine
 10
49.660551
 20
172.793883
 30
0.0
 11
59.860551
 21
173.328883
 31
0.0
  0
LINE
  5
967B
330
9502
100
AcDbEntity
  8
1
  6
Continuous
100
AcDbLine
 10
49.660551
 20
170.991883
 30
0.0
 11
59.860551
 21
171.5258829999999
 31
0.0
  0
LINE
  5
967C
330
9502
100
AcDbEntity
  8
1
  6
Continuous
100
AcDbLine
 10
49.660551
 20
170.8518829999999
 30
0.0
 11
59.860551
 21
171.385883
 31
0.0
  0
LINE
  5
967D
330
9502
100
AcDbEntity
  8
1
  6
Continuous
100
AcDbLine
 10
49.660551
 20
169.0488829999999
 30
0.0
 11
59.860551
 21
169.5838829999999
 31
0.0
  0
LINE
  5
967E
330
9502
100
AcDbEntity
  8
1
  6
Continuous
100
AcDbLine
 10
49.660551
 20
168.908883
 30
0.0
 11
59.860551
 21
169.4438829999998
 31
0.0
  0
LINE
  5
967F
330
9502
100
AcDbEntity
  8
1
  6
Continuous
100
AcDbLine
 10
49.660551
 20
167.106883
 30
0.0
 11
59.860551
 21
167.6408829999998
 31
0.0
  0
LINE
  5
9680
330
9502
100
AcDbEntity
  8
1
  6
Continuous
100
AcDbLine
 10
49.660551
 20
166.9658829999999
 30
0.0
 11
59.860551
 21
167.5008829999999
 31
0.0
  0
LINE
  5
9681
330
9502
100
AcDbEntity
  8
1
  6
Continuous
100
AcDbLine
 10
49.660551
 20
165.163883
 30
0.0
 11
59.860551
 21
165.6978829999999
 31
0.0
  0
LINE
  5
9682
330
9502
100
AcDbEntity
  8
1
  6
Continuous
100
AcDbLine
 10
49.660551
 20
165.023883
 30
0.0
 11
59.860551
 21
165.557883
 31
0.0
  0
LINE
  5
9683
330
9502
100
AcDbEntity
  8
1
  6
Continuous
100
AcDbLine
 10
49.660551
 20
163.2208829999999
 30
0.0
 11
59.860551
 21
163.755883
 31
0.0
  0
LINE
  5
9684
330
9502
100
AcDbEntity
  8
1
  6
Continuous
100
AcDbLine
 10
49.660551
 20
163.080883
 30
0.0
 11
59.860551
 21
163.615883
 31
0.0
  0
LINE
  5
9685
330
9502
100
AcDbEntity
  8
1
  6
Continuous
100
AcDbLine
 10
49.660551
 20
161.278883
 30
0.0
 11
59.860551
 21
161.812883
 31
0.0
  0
LINE
  5
9686
330
9502
100
AcDbEntity
  8
1
  6
Continuous
100
AcDbLine
 10
15.460651
 20
173.044883
 30
0.0
 11
15.460651
 21
172.903883
 31
0.0
  0
LINE
  5
9687
330
9502
100
AcDbEntity
  8
1
  6
Continuous
100
AcDbLine
 10
15.460651
 20
171.1018829999999
 30
0.0
 11
15.460651
 21
170.961883
 31
0.0
  0
LINE
  5
9688
330
9502
100
AcDbEntity
  8
1
  6
Continuous
100
AcDbLine
 10
15.460651
 20
169.158883
 30
0.0
 11
15.460651
 21
169.0188829999999
 31
0.0
  0
LINE
  5
9689
330
9502
100
AcDbEntity
  8
1
  6
Continuous
100
AcDbLine
 10
15.460651
 20
167.2168829999999
 30
0.0
 11
15.460651
 21
167.075883
 31
0.0
  0
LINE
  5
968A
330
9502
100
AcDbEntity
  8
1
  6
Continuous
100
AcDbLine
 10
15.460651
 20
165.273883
 30
0.0
 11
15.460651
 21
165.133883
 31
0.0
  0
LINE
  5
968B
330
9502
100
AcDbEntity
  8
1
  6
Continuous
100
AcDbLine
 10
15.460651
 20
163.330883
 30
0.0
 11
15.460651
 21
163.190883
 31
0.0
  0
LINE
  5
968C
330
9502
100
AcDbEntity
  8
1
  6
Continuous
100
AcDbLine
 10
15.460651
 20
161.388883
 30
0.0
 11
15.460651
 21
157.271883
 31
0.0
  0
LINE
  5
968D
330
9502
100
AcDbEntity
  8
1
  6
Continuous
100
AcDbLine
 10
18.46065099999998
 20
161.545883
 30
0.0
 11
18.46065099999998
 21
154.7718829999998
 31
0.0
  0
LINE
  5
968E
330
9502
100
AcDbEntity
  8
1
  6
Continuous
100
AcDbLine
 10
18.46065099999998
 20
163.4888829999999
 30
0.0
 11
18.46065099999998
 21
163.347883
 31
0.0
  0
LINE
  5
968F
330
9502
100
AcDbEntity
  8
1
  6
Continuous
100
AcDbLine
 10
18.46065099999998
 20
165.4308829999999
 30
0.0
 11
18.46065099999998
 21
165.290883
 31
0.0
  0
LINE
  5
9690
330
9502
100
AcDbEntity
  8
1
  6
Continuous
100
AcDbLine
 10
18.46065099999998
 20
167.373883
 30
0.0
 11
18.46065099999998
 21
167.2338829999999
 31
0.0
  0
LINE
  5
9691
330
9502
100
AcDbEntity
  8
1
  6
Continuous
100
AcDbLine
 10
18.46065099999998
 20
169.3168829999999
 30
0.0
 11
18.46065099999998
 21
169.1758829999999
 31
0.0
  0
LINE
  5
9692
330
9502
100
AcDbEntity
  8
1
  6
Continuous
100
AcDbLine
 10
18.46065099999998
 20
171.258883
 30
0.0
 11
18.46065099999998
 21
171.118883
 31
0.0
  0
LINE
  5
9693
330
9502
100
AcDbEntity
  8
1
  6
Continuous
100
AcDbLine
 10
18.46065099999998
 20
173.201883
 30
0.0
 11
18.46065099999998
 21
173.061883
 31
0.0
  0
LINE
  5
9694
330
9502
100
AcDbEntity
  8
1
  6
Continuous
100
AcDbLine
 10
21.46065099999999
 20
173.3588829999999
 30
0.0
 11
21.46065099999999
 21
173.218883
 31
0.0
  0
LINE
  5
9695
330
9502
100
AcDbEntity
  8
1
  6
Continuous
100
AcDbLine
 10
21.46065099999999
 20
171.415883
 30
0.0
 11
21.46065099999999
 21
171.275883
 31
0.0
  0
LINE
  5
9696
330
9502
100
AcDbEntity
  8
1
  6
Continuous
100
AcDbLine
 10
21.46065099999999
 20
169.473883
 30
0.0
 11
21.46065099999999
 21
169.3338829999999
 31
0.0
  0
LINE
  5
9697
330
9502
100
AcDbEntity
  8
1
  6
Continuous
100
AcDbLine
 10
21.46065099999999
 20
167.5308829999999
 30
0.0
 11
21.46065099999999
 21
167.390883
 31
0.0
  0
LINE
  5
9698
330
9502
100
AcDbEntity
  8
1
  6
Continuous
100
AcDbLine
 10
21.46065099999999
 20
165.5878829999998
 30
0.0
 11
21.46065099999999
 21
165.4478829999999
 31
0.0
  0
LINE
  5
9699
330
9502
100
AcDbEntity
  8
1
  6
Continuous
100
AcDbLine
 10
21.46065099999999
 20
163.645883
 30
0.0
 11
21.46065099999999
 21
163.505883
 31
0.0
  0
LINE
  5
969A
330
9502
100
AcDbEntity
  8
1
  6
Continuous
100
AcDbLine
 10
21.46065099999999
 20
161.702883
 30
0.0
 11
21.46065099999999
 21
154.7718829999998
 31
0.0
  0
LINE
  5
969B
330
9502
100
AcDbEntity
  8
1
  6
Continuous
100
AcDbLine
 10
51.760551
 20
173.044883
 30
0.0
 11
51.760551
 21
172.903883
 31
0.0
  0
LINE
  5
969C
330
9502
100
AcDbEntity
  8
1
  6
Continuous
100
AcDbLine
 10
51.760551
 20
171.1018829999999
 30
0.0
 11
51.760551
 21
170.961883
 31
0.0
  0
LINE
  5
969D
330
9502
100
AcDbEntity
  8
1
  6
Continuous
100
AcDbLine
 10
51.760551
 20
169.158883
 30
0.0
 11
51.760551
 21
169.0188829999999
 31
0.0
  0
LINE
  5
969E
330
9502
100
AcDbEntity
  8
1
  6
Continuous
100
AcDbLine
 10
51.760551
 20
167.2168829999999
 30
0.0
 11
51.760551
 21
167.075883
 31
0.0
  0
LINE
  5
969F
330
9502
100
AcDbEntity
  8
1
  6
Continuous
100
AcDbLine
 10
51.760551
 20
165.273883
 30
0.0
 11
51.760551
 21
165.133883
 31
0.0
  0
LINE
  5
96A0
330
9502
100
AcDbEntity
  8
1
  6
Continuous
100
AcDbLine
 10
51.760551
 20
163.330883
 30
0.0
 11
51.760551
 21
163.190883
 31
0.0
  0
LINE
  5
96A1
330
9502
100
AcDbEntity
  8
1
  6
Continuous
100
AcDbLine
 10
51.760551
 20
161.388883
 30
0.0
 11
51.760551
 21
154.7718829999998
 31
0.0
  0
LINE
  5
96A2
330
9502
100
AcDbEntity
  8
1
  6
Continuous
100
AcDbLine
 10
54.76055099999999
 20
161.545883
 30
0.0
 11
54.76055099999999
 21
154.7718829999998
 31
0.0
  0
LINE
  5
96A3
330
9502
100
AcDbEntity
  8
1
  6
Continuous
100
AcDbLine
 10
54.76055099999999
 20
163.4888829999999
 30
0.0
 11
54.76055099999999
 21
163.347883
 31
0.0
  0
LINE
  5
96A4
330
9502
100
AcDbEntity
  8
1
  6
Continuous
100
AcDbLine
 10
54.76055099999999
 20
165.4308829999999
 30
0.0
 11
54.76055099999999
 21
165.290883
 31
0.0
  0
LINE
  5
96A5
330
9502
100
AcDbEntity
  8
1
  6
Continuous
100
AcDbLine
 10
54.76055099999999
 20
167.373883
 30
0.0
 11
54.76055099999999
 21
167.2338829999999
 31
0.0
  0
LINE
  5
96A6
330
9502
100
AcDbEntity
  8
1
  6
Continuous
100
AcDbLine
 10
54.76055099999999
 20
169.3168829999999
 30
0.0
 11
54.76055099999999
 21
169.1758829999999
 31
0.0
  0
LINE
  5
96A7
330
9502
100
AcDbEntity
  8
1
  6
Continuous
100
AcDbLine
 10
54.76055099999999
 20
171.258883
 30
0.0
 11
54.76055099999999
 21
171.118883
 31
0.0
  0
LINE
  5
96A8
330
9502
100
AcDbEntity
  8
1
  6
Continuous
100
AcDbLine
 10
54.76055099999999
 20
173.201883
 30
0.0
 11
54.76055099999999
 21
173.061883
 31
0.0
  0
LINE
  5
96A9
330
9502
100
AcDbEntity
  8
1
  6
Continuous
100
AcDbLine
 10
57.760551
 20
173.3588829999999
 30
0.0
 11
57.760551
 21
173.218883
 31
0.0
  0
LINE
  5
96AA
330
9502
100
AcDbEntity
  8
1
  6
Continuous
100
AcDbLine
 10
57.760551
 20
171.415883
 30
0.0
 11
57.760551
 21
171.275883
 31
0.0
  0
LINE
  5
96AB
330
9502
100
AcDbEntity
  8
1
  6
Continuous
100
AcDbLine
 10
57.760551
 20
169.473883
 30
0.0
 11
57.760551
 21
169.3338829999999
 31
0.0
  0
LINE
  5
96AC
330
9502
100
AcDbEntity
  8
1
  6
Continuous
100
AcDbLine
 10
57.760551
 20
167.5308829999999
 30
0.0
 11
57.760551
 21
167.390883
 31
0.0
  0
LINE
  5
96AD
330
9502
100
AcDbEntity
  8
1
  6
Continuous
100
AcDbLine
 10
57.760551
 20
165.5878829999998
 30
0.0
 11
57.760551
 21
165.4478829999999
 31
0.0
  0
LINE
  5
96AE
330
9502
100
AcDbEntity
  8
1
  6
Continuous
100
AcDbLine
 10
57.760551
 20
163.645883
 30
0.0
 11
57.760551
 21
163.505883
 31
0.0
  0
LINE
  5
96AF
330
9502
100
AcDbEntity
  8
1
  6
Continuous
100
AcDbLine
 10
57.760551
 20
161.702883
 30
0.0
 11
57.760551
 21
157.271883
 31
0.0
  0
LINE
  5
96B0
330
9502
100
AcDbEntity
  8
1
  6
Continuous
100
AcDbLine
 10
211.4635509999998
 20
174.7348829999999
 30
0.0
 11
221.6635509999999
 21
175.2688829999999
 31
0.0
  0
LINE
  5
96B1
330
9502
100
AcDbEntity
  8
1
  6
Continuous
100
AcDbLine
 10
211.5575509999999
 20
172.936883
 30
0.0
 11
221.7575509999999
 21
173.471883
 31
0.0
  0
LINE
  5
96B2
330
9502
100
AcDbEntity
  8
1
  6
Continuous
100
AcDbLine
 10
211.5105509999999
 20
172.793883
 30
0.0
 11
221.7105509999999
 21
173.328883
 31
0.0
  0
LINE
  5
96B3
330
9502
100
AcDbEntity
  8
1
  6
Continuous
100
AcDbLine
 10
211.5105509999999
 20
170.991883
 30
0.0
 11
221.7105509999999
 21
171.5258829999999
 31
0.0
  0
LINE
  5
96B4
330
9502
100
AcDbEntity
  8
1
  6
Continuous
100
AcDbLine
 10
211.5105509999999
 20
170.8518829999999
 30
0.0
 11
221.7105509999999
 21
171.385883
 31
0.0
  0
LINE
  5
96B5
330
9502
100
AcDbEntity
  8
1
  6
Continuous
100
AcDbLine
 10
211.5105509999999
 20
169.0488829999999
 30
0.0
 11
221.7105509999999
 21
169.5838829999999
 31
0.0
  0
LINE
  5
96B6
330
9502
100
AcDbEntity
  8
1
  6
Continuous
100
AcDbLine
 10
211.5105509999999
 20
168.908883
 30
0.0
 11
221.7105509999999
 21
169.4438829999998
 31
0.0
  0
LINE
  5
96B7
330
9502
100
AcDbEntity
  8
1
  6
Continuous
100
AcDbLine
 10
211.5105509999999
 20
167.106883
 30
0.0
 11
221.7105509999999
 21
167.6408829999998
 31
0.0
  0
LINE
  5
96B8
330
9502
100
AcDbEntity
  8
1
  6
Continuous
100
AcDbLine
 10
211.5105509999999
 20
166.9658829999999
 30
0.0
 11
221.7105509999999
 21
167.5008829999999
 31
0.0
  0
LINE
  5
96B9
330
9502
100
AcDbEntity
  8
1
  6
Continuous
100
AcDbLine
 10
211.5105509999999
 20
165.163883
 30
0.0
 11
221.7105509999999
 21
165.6978829999999
 31
0.0
  0
LINE
  5
96BA
330
9502
100
AcDbEntity
  8
1
  6
Continuous
100
AcDbLine
 10
211.5105509999999
 20
165.023883
 30
0.0
 11
221.7105509999999
 21
165.557883
 31
0.0
  0
LINE
  5
96BB
330
9502
100
AcDbEntity
  8
1
  6
Continuous
100
AcDbLine
 10
211.5105509999999
 20
163.2208829999999
 30
0.0
 11
221.7105509999999
 21
163.755883
 31
0.0
  0
LINE
  5
96BC
330
9502
100
AcDbEntity
  8
1
  6
Continuous
100
AcDbLine
 10
211.5105509999999
 20
163.080883
 30
0.0
 11
221.7105509999999
 21
163.615883
 31
0.0
  0
LINE
  5
96BD
330
9502
100
AcDbEntity
  8
1
  6
Continuous
100
AcDbLine
 10
211.5105509999999
 20
161.278883
 30
0.0
 11
221.7105509999999
 21
161.812883
 31
0.0
  0
LINE
  5
96BE
330
9502
100
AcDbEntity
  8
1
  6
Continuous
100
AcDbLine
 10
211.1105509999999
 20
171.086883
 30
0.0
 11
211.1105509999999
 21
170.7568829999999
 31
0.0
  0
LINE
  5
96BF
330
9502
100
AcDbEntity
  8
1
  6
Continuous
100
AcDbLine
 10
213.6105509999999
 20
173.044883
 30
0.0
 11
213.6105509999999
 21
172.903883
 31
0.0
  0
LINE
  5
96C0
330
9502
100
AcDbEntity
  8
1
  6
Continuous
100
AcDbLine
 10
213.6105509999999
 20
171.1018829999999
 30
0.0
 11
213.6105509999999
 21
170.961883
 31
0.0
  0
LINE
  5
96C1
330
9502
100
AcDbEntity
  8
1
  6
Continuous
100
AcDbLine
 10
213.6105509999999
 20
169.158883
 30
0.0
 11
213.6105509999999
 21
169.0188829999999
 31
0.0
  0
LINE
  5
96C2
330
9502
100
AcDbEntity
  8
1
  6
Continuous
100
AcDbLine
 10
213.6105509999999
 20
167.2168829999999
 30
0.0
 11
213.6105509999999
 21
167.075883
 31
0.0
  0
LINE
  5
96C3
330
9502
100
AcDbEntity
  8
1
  6
Continuous
100
AcDbLine
 10
213.6105509999999
 20
165.273883
 30
0.0
 11
213.6105509999999
 21
165.133883
 31
0.0
  0
LINE
  5
96C4
330
9502
100
AcDbEntity
  8
1
  6
Continuous
100
AcDbLine
 10
213.6105509999999
 20
163.330883
 30
0.0
 11
213.6105509999999
 21
163.190883
 31
0.0
  0
LINE
  5
96C5
330
9502
100
AcDbEntity
  8
1
  6
Continuous
100
AcDbLine
 10
219.6105509999999
 20
163.645883
 30
0.0
 11
219.6105509999999
 21
163.505883
 31
0.0
  0
LINE
  5
96C6
330
9502
100
AcDbEntity
  8
1
  6
Continuous
100
AcDbLine
 10
219.6105509999999
 20
165.5878829999998
 30
0.0
 11
219.6105509999999
 21
165.4478829999999
 31
0.0
  0
LINE
  5
96C7
330
9502
100
AcDbEntity
  8
1
  6
Continuous
100
AcDbLine
 10
219.6105509999999
 20
167.5308829999999
 30
0.0
 11
219.6105509999999
 21
167.390883
 31
0.0
  0
LINE
  5
96C8
330
9502
100
AcDbEntity
  8
1
  6
Continuous
100
AcDbLine
 10
219.6105509999999
 20
169.473883
 30
0.0
 11
219.6105509999999
 21
169.3338829999999
 31
0.0
  0
LINE
  5
96C9
330
9502
100
AcDbEntity
  8
1
  6
Continuous
100
AcDbLine
 10
219.6105509999999
 20
171.415883
 30
0.0
 11
219.6105509999999
 21
171.275883
 31
0.0
  0
LINE
  5
96CA
330
9502
100
AcDbEntity
  8
1
  6
Continuous
100
AcDbLine
 10
219.6105509999999
 20
173.3588829999999
 30
0.0
 11
219.6105509999999
 21
173.218883
 31
0.0
  0
LINE
  5
96CB
330
9502
100
AcDbEntity
  8
1
  6
Continuous
100
AcDbLine
 10
363.3135509999998
 20
174.7348829999999
 30
0.0
 11
373.5135509999998
 21
175.2688829999999
 31
0.0
  0
LINE
  5
96CC
330
9502
100
AcDbEntity
  8
1
  6
Continuous
100
AcDbLine
 10
363.4075509999998
 20
172.936883
 30
0.0
 11
373.607551
 21
173.471883
 31
0.0
  0
LINE
  5
96CD
330
9502
100
AcDbEntity
  8
1
  6
Continuous
100
AcDbLine
 10
363.3605509999999
 20
172.793883
 30
0.0
 11
373.5605509999999
 21
173.328883
 31
0.0
  0
LINE
  5
96CE
330
9502
100
AcDbEntity
  8
1
  6
Continuous
100
AcDbLine
 10
363.3605509999999
 20
170.991883
 30
0.0
 11
373.5605509999999
 21
171.5258829999999
 31
0.0
  0
LINE
  5
96CF
330
9502
100
AcDbEntity
  8
1
  6
Continuous
100
AcDbLine
 10
363.3605509999999
 20
170.8518829999999
 30
0.0
 11
373.5605509999999
 21
171.385883
 31
0.0
  0
LINE
  5
96D0
330
9502
100
AcDbEntity
  8
1
  6
Continuous
100
AcDbLine
 10
363.3605509999999
 20
169.0488829999999
 30
0.0
 11
373.5605509999999
 21
169.5838829999999
 31
0.0
  0
LINE
  5
96D1
330
9502
100
AcDbEntity
  8
1
  6
Continuous
100
AcDbLine
 10
363.3605509999999
 20
168.908883
 30
0.0
 11
373.5605509999999
 21
169.4438829999998
 31
0.0
  0
LINE
  5
96D2
330
9502
100
AcDbEntity
  8
1
  6
Continuous
100
AcDbLine
 10
363.3605509999999
 20
167.106883
 30
0.0
 11
373.5605509999999
 21
167.6408829999998
 31
0.0
  0
LINE
  5
96D3
330
9502
100
AcDbEntity
  8
1
  6
Continuous
100
AcDbLine
 10
363.3605509999999
 20
166.9658829999999
 30
0.0
 11
373.5605509999999
 21
167.5008829999999
 31
0.0
  0
LINE
  5
96D4
330
9502
100
AcDbEntity
  8
1
  6
Continuous
100
AcDbLine
 10
363.3605509999999
 20
165.163883
 30
0.0
 11
373.5605509999999
 21
165.6978829999999
 31
0.0
  0
LINE
  5
96D5
330
9502
100
AcDbEntity
  8
1
  6
Continuous
100
AcDbLine
 10
363.3605509999999
 20
165.023883
 30
0.0
 11
373.5605509999999
 21
165.557883
 31
0.0
  0
LINE
  5
96D6
330
9502
100
AcDbEntity
  8
1
  6
Continuous
100
AcDbLine
 10
363.3605509999999
 20
163.2208829999999
 30
0.0
 11
373.5605509999999
 21
163.755883
 31
0.0
  0
LINE
  5
96D7
330
9502
100
AcDbEntity
  8
1
  6
Continuous
100
AcDbLine
 10
363.3605509999999
 20
163.080883
 30
0.0
 11
373.5605509999999
 21
163.615883
 31
0.0
  0
LINE
  5
96D8
330
9502
100
AcDbEntity
  8
1
  6
Continuous
100
AcDbLine
 10
363.3605509999999
 20
161.278883
 30
0.0
 11
373.5605509999999
 21
161.812883
 31
0.0
  0
LINE
  5
96D9
330
9502
100
AcDbEntity
  8
1
  6
Continuous
100
AcDbLine
 10
399.6135509999999
 20
174.7348829999999
 30
0.0
 11
409.8135509999998
 21
175.2688829999999
 31
0.0
  0
LINE
  5
96DA
330
9502
100
AcDbEntity
  8
1
  6
Continuous
100
AcDbLine
 10
399.7075509999999
 20
172.936883
 30
0.0
 11
409.9075509999998
 21
173.471883
 31
0.0
  0
LINE
  5
96DB
330
9502
100
AcDbEntity
  8
1
  6
Continuous
100
AcDbLine
 10
399.660551
 20
172.793883
 30
0.0
 11
409.8605509999998
 21
173.328883
 31
0.0
  0
LINE
  5
96DC
330
9502
100
AcDbEntity
  8
1
  6
Continuous
100
AcDbLine
 10
399.660551
 20
170.991883
 30
0.0
 11
409.8605509999998
 21
171.5258829999999
 31
0.0
  0
LINE
  5
96DD
330
9502
100
AcDbEntity
  8
1
  6
Continuous
100
AcDbLine
 10
399.660551
 20
170.8518829999999
 30
0.0
 11
409.8605509999998
 21
171.385883
 31
0.0
  0
LINE
  5
96DE
330
9502
100
AcDbEntity
  8
1
  6
Continuous
100
AcDbLine
 10
399.660551
 20
169.0488829999999
 30
0.0
 11
409.8605509999998
 21
169.5838829999999
 31
0.0
  0
LINE
  5
96DF
330
9502
100
AcDbEntity
  8
1
  6
Continuous
100
AcDbLine
 10
399.660551
 20
168.908883
 30
0.0
 11
409.8605509999998
 21
169.4438829999998
 31
0.0
  0
LINE
  5
96E0
330
9502
100
AcDbEntity
  8
1
  6
Continuous
100
AcDbLine
 10
399.660551
 20
167.106883
 30
0.0
 11
409.8605509999998
 21
167.6408829999998
 31
0.0
  0
LINE
  5
96E1
330
9502
100
AcDbEntity
  8
1
  6
Continuous
100
AcDbLine
 10
399.660551
 20
166.9658829999999
 30
0.0
 11
409.8605509999998
 21
167.5008829999999
 31
0.0
  0
LINE
  5
96E2
330
9502
100
AcDbEntity
  8
1
  6
Continuous
100
AcDbLine
 10
399.660551
 20
165.163883
 30
0.0
 11
409.8605509999998
 21
165.6978829999999
 31
0.0
  0
LINE
  5
96E3
330
9502
100
AcDbEntity
  8
1
  6
Continuous
100
AcDbLine
 10
399.660551
 20
165.023883
 30
0.0
 11
409.8605509999998
 21
165.557883
 31
0.0
  0
LINE
  5
96E4
330
9502
100
AcDbEntity
  8
1
  6
Continuous
100
AcDbLine
 10
399.660551
 20
163.2208829999999
 30
0.0
 11
409.8605509999998
 21
163.755883
 31
0.0
  0
LINE
  5
96E5
330
9502
100
AcDbEntity
  8
1
  6
Continuous
100
AcDbLine
 10
399.660551
 20
163.080883
 30
0.0
 11
409.8605509999998
 21
163.615883
 31
0.0
  0
LINE
  5
96E6
330
9502
100
AcDbEntity
  8
1
  6
Continuous
100
AcDbLine
 10
399.660551
 20
161.278883
 30
0.0
 11
409.8605509999998
 21
161.812883
 31
0.0
  0
LINE
  5
96E7
330
9502
100
AcDbEntity
  8
1
  6
Continuous
100
AcDbLine
 10
401.760551
 20
173.044883
 30
0.0
 11
401.760551
 21
172.903883
 31
0.0
  0
LINE
  5
96E8
330
9502
100
AcDbEntity
  8
1
  6
Continuous
100
AcDbLine
 10
401.760551
 20
171.1018829999999
 30
0.0
 11
401.760551
 21
170.961883
 31
0.0
  0
LINE
  5
96E9
330
9502
100
AcDbEntity
  8
1
  6
Continuous
100
AcDbLine
 10
401.760551
 20
169.158883
 30
0.0
 11
401.760551
 21
169.0188829999999
 31
0.0
  0
LINE
  5
96EA
330
9502
100
AcDbEntity
  8
1
  6
Continuous
100
AcDbLine
 10
401.760551
 20
167.2168829999999
 30
0.0
 11
401.760551
 21
167.075883
 31
0.0
  0
LINE
  5
96EB
330
9502
100
AcDbEntity
  8
1
  6
Continuous
100
AcDbLine
 10
401.760551
 20
165.273883
 30
0.0
 11
401.760551
 21
165.133883
 31
0.0
  0
LINE
  5
96EC
330
9502
100
AcDbEntity
  8
1
  6
Continuous
100
AcDbLine
 10
401.760551
 20
163.330883
 30
0.0
 11
401.760551
 21
163.190883
 31
0.0
  0
LINE
  5
96ED
330
9502
100
AcDbEntity
  8
1
  6
Continuous
100
AcDbLine
 10
401.760551
 20
161.388883
 30
0.0
 11
401.760551
 21
154.7718829999998
 31
0.0
  0
LINE
  5
96EE
330
9502
100
AcDbEntity
  8
1
  6
Continuous
100
AcDbLine
 10
404.7605509999998
 20
161.545883
 30
0.0
 11
404.7605509999998
 21
154.7718829999998
 31
0.0
  0
LINE
  5
96EF
330
9502
100
AcDbEntity
  8
1
  6
Continuous
100
AcDbLine
 10
404.7605509999998
 20
163.4888829999999
 30
0.0
 11
404.7605509999998
 21
163.347883
 31
0.0
  0
LINE
  5
96F0
330
9502
100
AcDbEntity
  8
1
  6
Continuous
100
AcDbLine
 10
404.7605509999998
 20
165.4308829999999
 30
0.0
 11
404.7605509999998
 21
165.290883
 31
0.0
  0
LINE
  5
96F1
330
9502
100
AcDbEntity
  8
1
  6
Continuous
100
AcDbLine
 10
404.7605509999998
 20
167.373883
 30
0.0
 11
404.7605509999998
 21
167.2338829999999
 31
0.0
  0
LINE
  5
96F2
330
9502
100
AcDbEntity
  8
1
  6
Continuous
100
AcDbLine
 10
404.7605509999998
 20
169.3168829999999
 30
0.0
 11
404.7605509999998
 21
169.1758829999999
 31
0.0
  0
LINE
  5
96F3
330
9502
100
AcDbEntity
  8
1
  6
Continuous
100
AcDbLine
 10
404.7605509999998
 20
171.258883
 30
0.0
 11
404.7605509999998
 21
171.118883
 31
0.0
  0
LINE
  5
96F4
330
9502
100
AcDbEntity
  8
1
  6
Continuous
100
AcDbLine
 10
404.7605509999998
 20
173.201883
 30
0.0
 11
404.7605509999998
 21
173.061883
 31
0.0
  0
LINE
  5
96F5
330
9502
100
AcDbEntity
  8
1
  6
Continuous
100
AcDbLine
 10
407.7605509999998
 20
173.3588829999999
 30
0.0
 11
407.7605509999998
 21
173.218883
 31
0.0
  0
LINE
  5
96F6
330
9502
100
AcDbEntity
  8
1
  6
Continuous
100
AcDbLine
 10
407.7605509999998
 20
171.415883
 30
0.0
 11
407.7605509999998
 21
171.275883
 31
0.0
  0
LINE
  5
96F7
330
9502
100
AcDbEntity
  8
1
  6
Continuous
100
AcDbLine
 10
407.7605509999998
 20
169.473883
 30
0.0
 11
407.7605509999998
 21
169.3338829999999
 31
0.0
  0
LINE
  5
96F8
330
9502
100
AcDbEntity
  8
1
  6
Continuous
100
AcDbLine
 10
407.7605509999998
 20
167.5308829999999
 30
0.0
 11
407.7605509999998
 21
167.390883
 31
0.0
  0
LINE
  5
96F9
330
9502
100
AcDbEntity
  8
1
  6
Continuous
100
AcDbLine
 10
407.7605509999998
 20
165.5878829999998
 30
0.0
 11
407.7605509999998
 21
165.4478829999999
 31
0.0
  0
LINE
  5
96FA
330
9502
100
AcDbEntity
  8
1
  6
Continuous
100
AcDbLine
 10
407.7605509999998
 20
163.645883
 30
0.0
 11
407.7605509999998
 21
163.505883
 31
0.0
  0
LINE
  5
96FB
330
9502
100
AcDbEntity
  8
1
  6
Continuous
100
AcDbLine
 10
407.7605509999998
 20
161.702883
 30
0.0
 11
407.7605509999998
 21
157.271883
 31
0.0
  0
LINE
  5
96FC
330
9502
100
AcDbEntity
  8
1
  6
Continuous
100
AcDbLine
 10
365.4605509999998
 20
173.044883
 30
0.0
 11
365.4605509999998
 21
172.903883
 31
0.0
  0
LINE
  5
96FD
330
9502
100
AcDbEntity
  8
1
  6
Continuous
100
AcDbLine
 10
365.4605509999998
 20
171.1018829999999
 30
0.0
 11
365.4605509999998
 21
170.961883
 31
0.0
  0
LINE
  5
96FE
330
9502
100
AcDbEntity
  8
1
  6
Continuous
100
AcDbLine
 10
365.4605509999998
 20
169.158883
 30
0.0
 11
365.4605509999998
 21
169.0188829999999
 31
0.0
  0
LINE
  5
96FF
330
9502
100
AcDbEntity
  8
1
  6
Continuous
100
AcDbLine
 10
365.4605509999998
 20
167.2168829999999
 30
0.0
 11
365.4605509999998
 21
167.075883
 31
0.0
  0
LINE
  5
9700
330
9502
100
AcDbEntity
  8
1
  6
Continuous
100
AcDbLine
 10
365.4605509999998
 20
165.273883
 30
0.0
 11
365.4605509999998
 21
165.133883
 31
0.0
  0
LINE
  5
9701
330
9502
100
AcDbEntity
  8
1
  6
Continuous
100
AcDbLine
 10
365.4605509999998
 20
163.330883
 30
0.0
 11
365.4605509999998
 21
163.190883
 31
0.0
  0
LINE
  5
9702
330
9502
100
AcDbEntity
  8
1
  6
Continuous
100
AcDbLine
 10
365.4605509999998
 20
161.388883
 30
0.0
 11
365.4605509999998
 21
157.271883
 31
0.0
  0
LINE
  5
9703
330
9502
100
AcDbEntity
  8
1
  6
Continuous
100
AcDbLine
 10
368.4605509999999
 20
161.545883
 30
0.0
 11
368.4605509999999
 21
154.7718829999998
 31
0.0
  0
LINE
  5
9704
330
9502
100
AcDbEntity
  8
1
  6
Continuous
100
AcDbLine
 10
368.4605509999999
 20
163.4888829999999
 30
0.0
 11
368.4605509999999
 21
163.347883
 31
0.0
  0
LINE
  5
9705
330
9502
100
AcDbEntity
  8
1
  6
Continuous
100
AcDbLine
 10
368.4605509999999
 20
165.4308829999999
 30
0.0
 11
368.4605509999999
 21
165.290883
 31
0.0
  0
LINE
  5
9706
330
9502
100
AcDbEntity
  8
1
  6
Continuous
100
AcDbLine
 10
368.4605509999999
 20
167.373883
 30
0.0
 11
368.4605509999999
 21
167.2338829999999
 31
0.0
  0
LINE
  5
9707
330
9502
100
AcDbEntity
  8
1
  6
Continuous
100
AcDbLine
 10
368.4605509999999
 20
169.3168829999999
 30
0.0
 11
368.4605509999999
 21
169.1758829999999
 31
0.0
  0
LINE
  5
9708
330
9502
100
AcDbEntity
  8
1
  6
Continuous
100
AcDbLine
 10
368.4605509999999
 20
171.258883
 30
0.0
 11
368.4605509999999
 21
171.118883
 31
0.0
  0
LINE
  5
9709
330
9502
100
AcDbEntity
  8
1
  6
Continuous
100
AcDbLine
 10
368.4605509999999
 20
173.201883
 30
0.0
 11
368.4605509999999
 21
173.061883
 31
0.0
  0
LINE
  5
970A
330
9502
100
AcDbEntity
  8
1
  6
Continuous
100
AcDbLine
 10
371.4605509999998
 20
173.3588829999999
 30
0.0
 11
371.4605509999998
 21
173.218883
 31
0.0
  0
LINE
  5
970B
330
9502
100
AcDbEntity
  8
1
  6
Continuous
100
AcDbLine
 10
371.4605509999998
 20
171.415883
 30
0.0
 11
371.4605509999998
 21
171.275883
 31
0.0
  0
LINE
  5
970C
330
9502
100
AcDbEntity
  8
1
  6
Continuous
100
AcDbLine
 10
371.4605509999998
 20
169.473883
 30
0.0
 11
371.4605509999998
 21
169.3338829999999
 31
0.0
  0
LINE
  5
970D
330
9502
100
AcDbEntity
  8
1
  6
Continuous
100
AcDbLine
 10
371.4605509999998
 20
167.5308829999999
 30
0.0
 11
371.4605509999998
 21
167.390883
 31
0.0
  0
LINE
  5
970E
330
9502
100
AcDbEntity
  8
1
  6
Continuous
100
AcDbLine
 10
371.4605509999998
 20
165.5878829999998
 30
0.0
 11
371.4605509999998
 21
165.4478829999999
 31
0.0
  0
LINE
  5
970F
330
9502
100
AcDbEntity
  8
1
  6
Continuous
100
AcDbLine
 10
371.4605509999998
 20
163.645883
 30
0.0
 11
371.4605509999998
 21
163.505883
 31
0.0
  0
LINE
  5
9710
330
9502
100
AcDbEntity
  8
1
  6
Continuous
100
AcDbLine
 10
371.4605509999998
 20
161.702883
 30
0.0
 11
371.4605509999998
 21
154.7718829999998
 31
0.0
  0
LINE
  5
9711
330
9502
100
AcDbEntity
  8
1
  6
Continuous
100
AcDbLine
 10
106.1105509999999
 20
185.7718829999998
 30
0.0
 11
127.1105509999999
 21
185.7718829999998
 31
0.0
  0
LINE
  5
9712
330
9502
100
AcDbEntity
  8
1
  6
Continuous
100
AcDbLine
 10
104.1105509999999
 20
210.771883
 30
0.0
 11
129.1105509999999
 21
210.771883
 31
0.0
  0
LINE
  5
9713
330
9502
100
AcDbEntity
  8
1
  6
Continuous
100
AcDbLine
 10
106.1105509999999
 20
197.771883
 30
0.0
 11
106.1105509999999
 21
185.7718829999998
 31
0.0
  0
LINE
  5
9714
330
9502
100
AcDbEntity
  8
1
  6
Continuous
100
AcDbLine
 10
127.1105509999999
 20
197.771883
 30
0.0
 11
127.1105509999999
 21
185.7718829999998
 31
0.0
  0
LINE
  5
9715
330
9502
100
AcDbEntity
  8
1
  6
Continuous
100
AcDbLine
 10
104.1105509999999
 20
198.771883
 30
0.0
 11
105.1105509999999
 21
198.771883
 31
0.0
  0
LINE
  5
9716
330
9502
100
AcDbEntity
  8
1
  6
Continuous
100
AcDbLine
 10
128.1105509999999
 20
198.771883
 30
0.0
 11
129.1105509999999
 21
198.771883
 31
0.0
  0
LINE
  5
9717
330
9502
100
AcDbEntity
  8
4
  6
CENTER
100
AcDbLine
 10
36.610651
 20
196.771883
 30
0.0
 11
36.610651
 21
111.771883
 31
0.0
  0
LINE
  5
9718
330
9502
100
AcDbEntity
  8
4
  6
CENTER
100
AcDbLine
 10
133.7605509999999
 20
204.7718829999999
 30
0.0
 11
124.4605509999999
 21
204.7718829999999
 31
0.0
  0
LINE
  5
9719
330
9502
100
AcDbEntity
  8
4
  6
CENTER
100
AcDbLine
 10
129.1105509999999
 20
209.4218829999999
 30
0.0
 11
129.1105509999999
 21
200.121883
 31
0.0
  0
LINE
  5
971A
330
9502
100
AcDbEntity
  8
4
  6
CENTER
100
AcDbLine
 10
108.760551
 20
204.7718829999999
 30
0.0
 11
99.460551
 21
204.7718829999999
 31
0.0
  0
LINE
  5
971B
330
9502
100
AcDbEntity
  8
4
  6
CENTER
100
AcDbLine
 10
104.1105509999999
 20
209.4218829999999
 30
0.0
 11
104.1105509999999
 21
200.121883
 31
0.0
  0
LINE
  5
971C
330
9502
100
AcDbEntity
  8
1
  6
Continuous
100
AcDbLine
 10
282.1105509999998
 20
210.771883
 30
0.0
 11
284.1105509999998
 21
210.771883
 31
0.0
  0
LINE
  5
971D
330
9502
100
AcDbEntity
  8
1
  6
Continuous
100
AcDbLine
 10
282.1105509999998
 20
210.771883
 30
0.0
 11
282.1105509999998
 21
190.2718829999998
 31
0.0
  0
LINE
  5
971E
330
9502
100
AcDbEntity
  8
1
  6
Continuous
100
AcDbLine
 10
284.1105509999998
 20
210.771883
 30
0.0
 11
284.1105509999998
 21
190.2718829999998
 31
0.0
  0
LINE
  5
971F
330
9502
100
AcDbEntity
  8
1
  6
Continuous
100
AcDbLine
 10
108.1105509999999
 20
193.2718829999998
 30
0.0
 11
125.110551
 21
193.2718829999998
 31
0.0
  0
LINE
  5
9720
330
9502
100
AcDbEntity
  8
1
  6
Continuous
100
AcDbLine
 10
273.1105509999998
 20
192.2098829999999
 30
0.0
 11
274.8055509999999
 21
193.2718829999998
 31
0.0
  0
LINE
  5
9721
330
9502
100
AcDbEntity
  8
1
  6
Continuous
100
AcDbLine
 10
274.8055509999999
 20
193.2718829999998
 30
0.0
 11
277.4865509999999
 21
188.952883
 31
0.0
  0
LINE
  5
9722
330
9502
100
AcDbEntity
  8
1
  6
Continuous
100
AcDbLine
 10
273.1105509999998
 20
192.2098829999999
 30
0.0
 11
275.7875509999998
 21
187.897883
 31
0.0
  0
LINE
  5
9723
330
9502
100
AcDbEntity
  8
1
  6
Continuous
100
AcDbLine
 10
108.1105509999999
 20
192.2098829999999
 30
0.0
 11
125.110551
 21
192.2098829999999
 31
0.0
  0
LINE
  5
9724
330
9502
100
AcDbEntity
  8
1
  6
Continuous
100
AcDbLine
 10
282.1105509999998
 20
198.771883
 30
0.0
 11
284.1105509999998
 21
198.771883
 31
0.0
  0
LINE
  5
9725
330
9502
100
AcDbEntity
  8
4
  6
CENTER
100
AcDbLine
 10
279.1105509999998
 20
204.7718829999999
 30
0.0
 11
287.1105509999998
 21
204.7718829999999
 31
0.0
  0
LINE
  5
9726
330
9502
100
AcDbEntity
  8
1
  6
Continuous
100
AcDbLine
 10
454.110551
 20
210.771883
 30
0.0
 11
479.110551
 21
210.771883
 31
0.0
  0
LINE
  5
9727
330
9502
100
AcDbEntity
  8
1
  6
Continuous
100
AcDbLine
 10
456.1105509999999
 20
185.7718829999998
 30
0.0
 11
477.1105509999999
 21
185.7718829999998
 31
0.0
  0
LINE
  5
9728
330
9502
100
AcDbEntity
  8
1
  6
Continuous
100
AcDbLine
 10
454.110551
 20
198.771883
 30
0.0
 11
456.1105509999999
 21
198.771883
 31
0.0
  0
LINE
  5
9729
330
9502
100
AcDbEntity
  8
1
  6
Continuous
100
AcDbLine
 10
477.1105509999999
 20
198.771883
 30
0.0
 11
477.1105509999999
 21
185.7718829999998
 31
0.0
  0
LINE
  5
972A
330
9502
100
AcDbEntity
  8
1
  6
Continuous
100
AcDbLine
 10
456.1105509999999
 20
198.771883
 30
0.0
 11
456.1105509999999
 21
185.7718829999998
 31
0.0
  0
LINE
  5
972B
330
9502
100
AcDbEntity
  8
1
  6
Continuous
100
AcDbLine
 10
477.1105509999999
 20
198.771883
 30
0.0
 11
479.110551
 21
198.771883
 31
0.0
  0
LINE
  5
972C
330
9502
100
AcDbEntity
  8
4
  6
CENTER
100
AcDbLine
 10
479.110551
 20
209.4218829999999
 30
0.0
 11
479.110551
 21
200.121883
 31
0.0
  0
LINE
  5
972D
330
9502
100
AcDbEntity
  8
4
  6
CENTER
100
AcDbLine
 10
474.4605509999998
 20
204.7718829999999
 30
0.0
 11
483.7605509999998
 21
204.7718829999999
 31
0.0
  0
LINE
  5
972E
330
9502
100
AcDbEntity
  8
4
  6
CENTER
100
AcDbLine
 10
454.110551
 20
209.4218829999999
 30
0.0
 11
454.110551
 21
200.121883
 31
0.0
  0
LINE
  5
972F
330
9502
100
AcDbEntity
  8
4
  6
CENTER
100
AcDbLine
 10
449.4605509999998
 20
204.7718829999999
 30
0.0
 11
458.7605509999998
 21
204.7718829999999
 31
0.0
  0
LINE
  5
9730
330
9502
100
AcDbEntity
  8
1
  6
Continuous
100
AcDbLine
 10
398.7605509999998
 20
191.771883
 30
0.0
 11
374.4605509999999
 21
191.771883
 31
0.0
  0
LINE
  5
9731
330
9502
100
AcDbEntity
  8
1
  6
Continuous
100
AcDbLine
 10
398.7605509999998
 20
187.771883
 30
0.0
 11
374.4605509999999
 21
187.771883
 31
0.0
  0
LINE
  5
9732
330
9502
100
AcDbEntity
  8
1
  6
Continuous
100
AcDbLine
 10
98.110551
 20
295.771883
 30
0.0
 11
135.1105509999999
 21
295.771883
 31
0.0
  0
LINE
  5
9733
330
9502
100
AcDbEntity
  8
1
  6
Continuous
100
AcDbLine
 10
108.1105509999999
 20
288.4668829999998
 30
0.0
 11
125.110551
 21
288.4668829999998
 31
0.0
  0
LINE
  5
9734
330
9502
100
AcDbEntity
  8
1
  6
Continuous
100
AcDbLine
 10
108.1105509999999
 20
286.771883
 30
0.0
 11
125.110551
 21
286.771883
 31
0.0
  0
LINE
  5
9735
330
9502
100
AcDbEntity
  8
1
  6
Continuous
100
AcDbLine
 10
98.110551
 20
295.771883
 30
0.0
 11
98.110551
 21
297.771883
 31
0.0
  0
LINE
  5
9736
330
9502
100
AcDbEntity
  8
1
  6
Continuous
100
AcDbLine
 10
135.1105509999999
 20
295.771883
 30
0.0
 11
135.1105509999999
 21
297.771883
 31
0.0
  0
LINE
  5
9737
330
9502
100
AcDbEntity
  8
1
  6
Continuous
100
AcDbLine
 10
106.1105509999999
 20
288.771883
 30
0.0
 11
106.1105509999999
 21
295.771883
 31
0.0
  0
LINE
  5
9738
330
9502
100
AcDbEntity
  8
1
  6
Continuous
100
AcDbLine
 10
127.1105509999999
 20
288.771883
 30
0.0
 11
127.1105509999999
 21
295.771883
 31
0.0
  0
LINE
  5
9739
330
9502
100
AcDbEntity
  8
1
  6
Continuous
100
AcDbLine
 10
98.110551
 20
297.771883
 30
0.0
 11
135.1105509999999
 21
297.771883
 31
0.0
  0
LINE
  5
973A
330
9502
100
AcDbEntity
  8
1
  6
Continuous
100
AcDbLine
 10
49.887551
 20
54.77148299999999
 30
0.0
 11
47.81055099999998
 21
54.77148299999999
 31
0.0
  0
LINE
  5
973B
330
9502
100
AcDbEntity
  8
1
  6
Continuous
100
AcDbLine
 10
55.110551
 20
45.021483
 30
0.0
 11
55.110551
 21
43.771483
 31
0.0
  0
LINE
  5
973C
330
9502
100
AcDbEntity
  8
1
  6
Continuous
100
AcDbLine
 10
18.110651
 20
45.021483
 30
0.0
 11
18.110651
 21
43.771483
 31
0.0
  0
LINE
  5
973D
330
9502
100
AcDbEntity
  8
1
  6
Continuous
100
AcDbLine
 10
52.36255100000001
 20
45.771483
 30
0.0
 11
51.760551
 21
45.771483
 31
0.0
  0
LINE
  5
973E
330
9502
100
AcDbEntity
  8
1
  6
Continuous
100
AcDbLine
 10
25.410651
 20
45.771483
 30
0.0
 11
24.460651
 21
45.771483
 31
0.0
  0
LINE
  5
973F
330
9502
100
AcDbEntity
  8
1
  6
Continuous
100
AcDbLine
 10
48.760551
 20
45.771483
 30
0.0
 11
47.81055099999998
 21
45.771483
 31
0.0
  0
LINE
  5
9740
330
9502
100
AcDbEntity
  8
1
  6
Continuous
100
AcDbLine
 10
21.46065099999999
 20
45.771483
 30
0.0
 11
20.85855099999999
 21
45.771483
 31
0.0
  0
LINE
  5
9741
330
9502
100
AcDbEntity
  8
1
  6
Continuous
100
AcDbLine
 10
25.410651
 20
54.77148299999999
 30
0.0
 11
23.33405099999999
 21
54.77148299999999
 31
0.0
  0
LINE
  5
9742
330
9502
100
AcDbEntity
  8
1
  6
Continuous
100
AcDbLine
 10
25.610651
 20
174.771883
 30
0.0
 11
25.860651
 21
174.771883
 31
0.0
  0
LINE
  5
9743
330
9502
100
AcDbEntity
  8
1
  6
Continuous
100
AcDbLine
 10
25.860651
 20
176.7718829999998
 30
0.0
 11
25.860651
 21
174.771883
 31
0.0
  0
LINE
  5
9744
330
9502
100
AcDbEntity
  8
1
  6
Continuous
100
AcDbLine
 10
47.360551
 20
176.7718829999998
 30
0.0
 11
47.360551
 21
174.771883
 31
0.0
  0
LINE
  5
9745
330
9502
100
AcDbEntity
  8
1
  6
Continuous
100
AcDbLine
 10
47.360551
 20
174.771883
 30
0.0
 11
47.610551
 21
174.771883
 31
0.0
  0
LINE
  5
9746
330
9502
100
AcDbEntity
  8
4
  6
CENTER
100
AcDbLine
 10
279.6105509999998
 20
193.771883
 30
0.0
 11
279.6105509999998
 21
185.7718829999998
 31
0.0
  0
LINE
  5
9747
330
9502
100
AcDbEntity
  8
4
  6
CENTER
100
AcDbLine
 10
275.6105509999998
 20
189.771883
 30
0.0
 11
283.6105509999999
 21
189.771883
 31
0.0
  0
LINE
  5
9748
330
9502
100
AcDbEntity
  8
4
  6
CENTER
100
AcDbLine
 10
466.610551
 20
215.7718829999998
 30
0.0
 11
466.610551
 21
180.7718829999998
 31
0.0
  0
LINE
  5
9749
330
9502
100
AcDbEntity
  8
4
  6
CENTER
100
AcDbLine
 10
454.110551
 20
189.771883
 30
0.0
 11
479.110551
 21
189.771883
 31
0.0
  0
LINE
  5
974A
330
9502
100
AcDbEntity
  8
4
  6
CENTER
100
AcDbLine
 10
219.1105509999999
 20
152.7718829999998
 30
0.0
 11
226.1105509999999
 21
152.7718829999998
 31
0.0
  0
LINE
  5
974B
330
9502
100
AcDbEntity
  8
4
  6
CENTER
100
AcDbLine
 10
219.1105509999999
 20
138.771883
 30
0.0
 11
226.1105509999999
 21
138.771883
 31
0.0
  0
LINE
  5
974C
330
9502
100
AcDbEntity
  8
4
  6
CENTER
100
AcDbLine
 10
219.1105509999999
 20
124.7718829999999
 30
0.0
 11
226.1105509999999
 21
124.7718829999999
 31
0.0
  0
LINE
  5
974D
330
9502
100
AcDbEntity
  8
4
  6
CENTER
100
AcDbLine
 10
34.110651
 20
152.7718829999998
 30
0.0
 11
39.110651
 21
152.7718829999998
 31
0.0
  0
LINE
  5
974E
330
9502
100
AcDbEntity
  8
4
  6
CENTER
100
AcDbLine
 10
34.110651
 20
138.771883
 30
0.0
 11
39.110651
 21
138.771883
 31
0.0
  0
LINE
  5
974F
330
9502
100
AcDbEntity
  8
4
  6
CENTER
100
AcDbLine
 10
34.110651
 20
124.7718829999999
 30
0.0
 11
39.110651
 21
124.7718829999999
 31
0.0
  0
LINE
  5
9750
330
9502
100
AcDbEntity
  8
4
  6
CENTER
100
AcDbLine
 10
104.1105509999999
 20
189.771883
 30
0.0
 11
129.1105509999999
 21
189.771883
 31
0.0
  0
LINE
  5
9751
330
9502
100
AcDbEntity
  8
4
  6
CENTER
100
AcDbLine
 10
116.6105509999999
 20
215.7718829999998
 30
0.0
 11
116.6105509999999
 21
180.7718829999998
 31
0.0
  0
LINE
  5
9752
330
9502
100
AcDbEntity
  8
1
  6
Continuous
100
AcDbLine
 10
25.410651
 20
297.771883
 30
0.0
 11
47.81055099999998
 21
297.771883
 31
0.0
  0
LINE
  5
9753
330
9502
100
AcDbEntity
  8
1
  6
Continuous
100
AcDbLine
 10
21.46065099999999
 20
297.6858829999999
 30
0.0
 11
24.460651
 21
297.6858829999999
 31
0.0
  0
LINE
  5
9754
330
9502
100
AcDbEntity
  8
1
  6
Continuous
100
AcDbLine
 10
48.760551
 20
297.6858829999999
 30
0.0
 11
51.760551
 21
297.6858829999999
 31
0.0
  0
LINE
  5
9755
330
9502
100
AcDbEntity
  8
4
  6
CENTER
100
AcDbLine
 10
102.943181
 20
293.271883
 30
0.0
 11
130.3429999999998
 21
293.271883
 31
0.0
  0
LINE
  5
9756
330
9502
100
AcDbEntity
  8
4
  6
CENTER
100
AcDbLine
 10
116.6105509999999
 20
281.771883
 30
0.0
 11
116.6105509999999
 21
302.7718829999999
 31
0.0
  0
ARC
  5
9757
330
9502
100
AcDbEntity
  8
1
  6
Continuous
100
AcDbCircle
 10
386.610551
 20
124.7718829999999
 30
0.0
 40
8.0
100
AcDbArc
 50
223.4329999999999
 51
316.5669999999999
  0
ARC
  5
9758
330
9502
100
AcDbEntity
  8
1
  6
Continuous
100
AcDbCircle
 10
371.4605509999998
 20
154.7718829999998
 30
0.0
 40
3.0
100
AcDbArc
 50
180.0
 51
228.59
  0
ARC
  5
9759
330
9502
100
AcDbEntity
  8
1
  6
Continuous
100
AcDbCircle
 10
371.4605509999998
 20
150.7718829999998
 30
0.0
 40
3.0
100
AcDbArc
 50
0.0
 51
48.5904
  0
ARC
  5
975A
330
9502
100
AcDbEntity
  8
1
  6
Continuous
100
AcDbCircle
 10
401.760551
 20
154.7718829999998
 30
0.0
 40
3.0
100
AcDbArc
 50
311.41
 51
0.0
  0
ARC
  5
975B
330
9502
100
AcDbEntity
  8
1
  6
Continuous
100
AcDbCircle
 10
401.760551
 20
150.7718829999998
 30
0.0
 40
3.0
100
AcDbArc
 50
131.41
 51
180.0
  0
ARC
  5
975C
330
9502
100
AcDbEntity
  8
1
  6
Continuous
100
AcDbCircle
 10
220.110551
 20
164.2718829999998
 30
0.0
 40
3.0
100
AcDbArc
 50
317.748
 51
0.0
  0
ARC
  5
975D
330
9502
100
AcDbEntity
  8
1
  6
Continuous
100
AcDbCircle
 10
218.110551
 20
169.271883
 30
0.0
 40
5.0
100
AcDbArc
 50
0.0
 51
30.98539999999999
  0
ARC
  5
975E
330
9502
100
AcDbEntity
  8
1
  6
Continuous
100
AcDbCircle
 10
214.110551
 20
171.771883
 30
0.0
 40
5.0
100
AcDbArc
 50
132.1769999999999
 51
180.0
  0
ARC
  5
975F
330
9502
100
AcDbEntity
  8
1
  6
Continuous
100
AcDbCircle
 10
212.110551
 20
172.2718829999998
 30
0.0
 40
3.0
100
AcDbArc
 50
180.0
 51
241.138
  0
ARC
  5
9760
330
9502
100
AcDbEntity
  8
1
  6
Continuous
100
AcDbCircle
 10
205.1105509999999
 20
130.7718829999998
 30
0.0
 40
9.0
100
AcDbArc
 50
346.735
 51
21.3328
  0
ARC
  5
9761
330
9502
100
AcDbEntity
  8
1
  6
Continuous
100
AcDbCircle
 10
205.1105509999999
 20
130.7718829999998
 30
0.0
 40
7.0
100
AcDbArc
 50
346.692
 51
21.3329
  0
ARC
  5
9762
330
9502
100
AcDbEntity
  8
1
  6
Continuous
100
AcDbCircle
 10
217.1105509999999
 20
159.271883
 30
0.0
 40
7.0
100
AcDbArc
 50
0.0
 51
34.0613
  0
ARC
  5
9763
330
9502
100
AcDbEntity
  8
1
  6
Continuous
100
AcDbCircle
 10
220.6105509999999
 20
190.771883
 30
0.0
 40
3.0
100
AcDbArc
 50
320.0
 51
140.0
  0
ARC
  5
9764
330
9502
100
AcDbEntity
  8
1
  6
Continuous
100
AcDbCircle
 10
220.6105509999999
 20
162.271883
 30
0.0
 40
1.0
100
AcDbArc
 50
214.0229999999998
 51
270.0
  0
ARC
  5
9765
330
9502
100
AcDbEntity
  8
1
  6
Continuous
100
AcDbCircle
 10
211.3605509999999
 20
160.271883
 30
0.0
 40
1.0
100
AcDbArc
 50
90.0
 51
180.0
  0
ARC
  5
9766
330
9502
100
AcDbEntity
  8
1
  6
Continuous
100
AcDbCircle
 10
211.3605509999999
 20
158.271883
 30
0.0
 40
1.0
100
AcDbArc
 50
180.0
 51
270.0
  0
ARC
  5
9767
330
9502
100
AcDbEntity
  8
1
  6
Continuous
100
AcDbCircle
 10
221.8605509999999
 20
160.271883
 30
0.0
 40
1.0
100
AcDbArc
 50
0.0
 51
90.0
  0
ARC
  5
9768
330
9502
100
AcDbEntity
  8
1
  6
Continuous
100
AcDbCircle
 10
221.8605509999999
 20
158.271883
 30
0.0
 40
1.0
100
AcDbArc
 50
270.0
 51
0.0
  0
ARC
  5
9769
330
9502
100
AcDbEntity
  8
1
  6
Continuous
100
AcDbCircle
 10
216.6105509999999
 20
143.771883
 30
0.0
 40
3.0
100
AcDbArc
 50
180.0
 51
0.00001
  0
ARC
  5
976A
330
9502
100
AcDbEntity
  8
1
  6
Continuous
100
AcDbCircle
 10
211.3605509999999
 20
178.271883
 30
0.0
 40
1.0
100
AcDbArc
 50
90.0
 51
180.0
  0
ARC
  5
976B
330
9502
100
AcDbEntity
  8
1
  6
Continuous
100
AcDbCircle
 10
211.3605509999999
 20
176.271883
 30
0.0
 40
1.0
100
AcDbArc
 50
180.0
 51
270.0
  0
ARC
  5
976C
330
9502
100
AcDbEntity
  8
1
  6
Continuous
100
AcDbCircle
 10
221.8605509999999
 20
178.271883
 30
0.0
 40
1.0
100
AcDbArc
 50
0.0
 51
90.0
  0
ARC
  5
976D
330
9502
100
AcDbEntity
  8
1
  6
Continuous
100
AcDbCircle
 10
221.8605509999999
 20
176.271883
 30
0.0
 40
1.0
100
AcDbArc
 50
270.0
 51
0.0
  0
ARC
  5
976E
330
9502
100
AcDbEntity
  8
1
  6
Continuous
100
AcDbCircle
 10
371.4605509999998
 20
150.7718829999998
 30
0.0
 40
3.0
100
AcDbArc
 50
0.0
 51
48.5904
  0
ARC
  5
976F
330
9502
100
AcDbEntity
  8
1
  6
Continuous
100
AcDbCircle
 10
371.4605509999998
 20
154.7718829999998
 30
0.0
 40
3.0
100
AcDbArc
 50
180.0
 51
228.59
  0
ARC
  5
9770
330
9502
100
AcDbEntity
  8
1
  6
Continuous
100
AcDbCircle
 10
401.760551
 20
154.7718829999998
 30
0.0
 40
3.0
100
AcDbArc
 50
311.41
 51
0.0
  0
ARC
  5
9771
330
9502
100
AcDbEntity
  8
1
  6
Continuous
100
AcDbCircle
 10
401.760551
 20
150.7718829999998
 30
0.0
 40
3.0
100
AcDbArc
 50
131.41
 51
180.0
  0
ARC
  5
9772
330
9502
100
AcDbEntity
  8
1
  6
Continuous
100
AcDbCircle
 10
376.8605509999999
 20
168.2718829999998
 30
0.0
 40
1.0
100
AcDbArc
 50
0.0
 51
41.40959999999997
  0
ARC
  5
9773
330
9502
100
AcDbEntity
  8
1
  6
Continuous
100
AcDbCircle
 10
376.8605509999999
 20
160.271883
 30
0.0
 40
1.0
100
AcDbArc
 50
270.0
 51
0.0
  0
ARC
  5
9774
330
9502
100
AcDbEntity
  8
1
  6
Continuous
100
AcDbCircle
 10
396.3605509999999
 20
168.2718829999998
 30
0.0
 40
1.0
100
AcDbArc
 50
138.59
 51
180.0
  0
ARC
  5
9775
330
9502
100
AcDbEntity
  8
1
  6
Continuous
100
AcDbCircle
 10
396.3605509999999
 20
160.271883
 30
0.0
 40
1.0
100
AcDbArc
 50
180.0
 51
270.0
  0
ARC
  5
9776
330
9502
100
AcDbEntity
  8
1
  6
Continuous
100
AcDbCircle
 10
377.1105509999999
 20
152.7718829999998
 30
0.0
 40
1.5
100
AcDbArc
 50
0.0
 51
90.0
  0
ARC
  5
9777
330
9502
100
AcDbEntity
  8
1
  6
Continuous
100
AcDbCircle
 10
396.1105509999999
 20
152.7718829999998
 30
0.0
 40
1.5
100
AcDbArc
 50
90.0
 51
180.0
  0
ARC
  5
9778
330
9502
100
AcDbEntity
  8
1
  6
Continuous
100
AcDbCircle
 10
380.1105509999999
 20
120.771883
 30
0.0
 40
1.5
100
AcDbArc
 50
180.0
 51
270.0
  0
ARC
  5
9779
330
9502
100
AcDbEntity
  8
1
  6
Continuous
100
AcDbCircle
 10
393.110551
 20
120.771883
 30
0.0
 40
1.5
100
AcDbArc
 50
270.0
 51
0.0
  0
ARC
  5
977A
330
9502
100
AcDbEntity
  8
1
  6
Continuous
100
AcDbCircle
 10
377.6105509999999
 20
138.771883
 30
0.0
 40
1.0
100
AcDbArc
 50
0.0
 51
90.0
  0
ARC
  5
977B
330
9502
100
AcDbEntity
  8
1
  6
Continuous
100
AcDbCircle
 10
395.610551
 20
138.771883
 30
0.0
 40
1.0
100
AcDbArc
 50
90.0
 51
180.0
  0
ARC
  5
977C
330
9502
100
AcDbEntity
  8
1
  6
Continuous
100
AcDbCircle
 10
377.6105509999999
 20
138.771883
 30
0.0
 40
1.0
100
AcDbArc
 50
0.0
 51
90.0
  0
ARC
  5
977D
330
9502
100
AcDbEntity
  8
1
  6
Continuous
100
AcDbCircle
 10
395.610551
 20
138.771883
 30
0.0
 40
1.0
100
AcDbArc
 50
90.0
 51
180.0
  0
ARC
  5
977E
330
9502
100
AcDbEntity
  8
1
  6
Continuous
100
AcDbCircle
 10
382.610551
 20
167.771883
 30
0.0
 40
1.5
100
AcDbArc
 50
0.0
 51
180.0
  0
ARC
  5
977F
330
9502
100
AcDbEntity
  8
1
  6
Continuous
100
AcDbCircle
 10
382.610551
 20
160.771883
 30
0.0
 40
1.5
100
AcDbArc
 50
180.0
 51
0.0
  0
ARC
  5
9780
330
9502
100
AcDbEntity
  8
1
  6
Continuous
100
AcDbCircle
 10
390.610551
 20
167.771883
 30
0.0
 40
1.5
100
AcDbArc
 50
0.0
 51
180.0
  0
ARC
  5
9781
330
9502
100
AcDbEntity
  8
1
  6
Continuous
100
AcDbCircle
 10
390.610551
 20
160.771883
 30
0.0
 40
1.5
100
AcDbArc
 50
180.0
 51
0.0
  0
CIRCLE
  5
9782
330
9502
100
AcDbEntity
  8
1
  6
Continuous
100
AcDbCircle
 10
386.610551
 20
152.7718829999998
 30
0.0
 40
2.649999999999999
  0
CIRCLE
  5
9783
330
9502
100
AcDbEntity
  8
1
  6
Continuous
100
AcDbCircle
 10
386.610551
 20
138.771883
 30
0.0
 40
2.649999999999999
  0
CIRCLE
  5
9784
330
9502
100
AcDbEntity
  8
1
  6
Continuous
100
AcDbCircle
 10
386.610551
 20
124.7718829999999
 30
0.0
 40
2.649999999999999
  0
CIRCLE
  5
9785
330
9502
100
AcDbEntity
  8
1
  6
Continuous
100
AcDbCircle
 10
219.6105509999999
 20
189.771883
 30
0.0
 40
1.5
  0
CIRCLE
  5
9786
330
9502
100
AcDbEntity
  8
1
  6
Continuous
100
AcDbCircle
 10
216.6105509999999
 20
146.271883
 30
0.0
 40
1.5
  0
ARC
  5
9787
330
9502
100
AcDbEntity
  8
1
  6
Continuous
100
AcDbCircle
 10
18.46065099999998
 20
290.2718829999999
 30
0.0
 40
6.0
100
AcDbArc
 50
90.0
 51
270.0
  0
ARC
  5
9788
330
9502
100
AcDbEntity
  8
1
  6
Continuous
100
AcDbCircle
 10
54.76055099999999
 20
290.2718829999999
 30
0.0
 40
6.0
100
AcDbArc
 50
210.0
 51
239.9999999999999
  0
ARC
  5
9789
330
9502
100
AcDbEntity
  8
1
  6
Continuous
100
AcDbCircle
 10
18.46065099999998
 20
290.2718829999999
 30
0.0
 40
4.2
100
AcDbArc
 50
90.0
 51
270.0
  0
ARC
  5
978A
330
9502
100
AcDbEntity
  8
1
  6
Continuous
100
AcDbCircle
 10
54.76055099999999
 20
290.2718829999999
 30
0.0
 40
4.2
100
AcDbArc
 50
270.0
 51
90.0
  0
ARC
  5
978B
330
9502
100
AcDbEntity
  8
1
  6
Continuous
100
AcDbCircle
 10
54.76055099999999
 20
290.2718829999999
 30
0.0
 40
6.0
100
AcDbArc
 50
270.0
 51
90.0
  0
ARC
  5
978C
330
9502
100
AcDbEntity
  8
1
  6
Continuous
100
AcDbCircle
 10
18.46065099999998
 20
290.2718829999999
 30
0.0
 40
6.0
100
AcDbArc
 50
300.0
 51
330.0
  0
ARC
  5
978D
330
9502
100
AcDbEntity
  8
1
  6
Continuous
100
AcDbCircle
 10
54.76055099999999
 20
51.271483
 30
0.0
 40
6.0
100
AcDbArc
 50
90.0
 51
150.0
  0
ARC
  5
978E
330
9502
100
AcDbEntity
  8
1
  6
Continuous
100
AcDbCircle
 10
54.76055099999999
 20
51.271483
 30
0.0
 40
4.2
100
AcDbArc
 50
315.585
 51
44.4153
  0
ARC
  5
978F
330
9502
100
AcDbEntity
  8
1
  6
Continuous
100
AcDbCircle
 10
54.76055099999999
 20
51.271483
 30
0.0
 40
6.0
100
AcDbArc
 50
300.0
 51
60.0
  0
ARC
  5
9790
330
9502
100
AcDbEntity
  8
1
  6
Continuous
100
AcDbCircle
 10
54.76055099999999
 20
51.271483
 30
0.0
 40
4.2
100
AcDbArc
 50
90.0
 51
134.4149999999999
  0
ARC
  5
9791
330
9502
100
AcDbEntity
  8
1
  6
Continuous
100
AcDbCircle
 10
54.76055099999999
 20
51.271483
 30
0.0
 40
4.2
100
AcDbArc
 50
225.5849999999998
 51
270.0
  0
ARC
  5
9792
330
9502
100
AcDbEntity
  8
1
  6
Continuous
100
AcDbCircle
 10
54.76055099999999
 20
51.271483
 30
0.0
 40
6.0
100
AcDbArc
 50
210.0
 51
270.0
  0
ARC
  5
9793
330
9502
100
AcDbEntity
  8
1
  6
Continuous
100
AcDbCircle
 10
18.46065099999998
 20
51.271483
 30
0.0
 40
4.2
100
AcDbArc
 50
45.58469999999999
 51
90.0
  0
ARC
  5
9794
330
9502
100
AcDbEntity
  8
1
  6
Continuous
100
AcDbCircle
 10
18.46065099999998
 20
51.271483
 30
0.0
 40
6.0
100
AcDbArc
 50
270.0
 51
330.0
  0
ARC
  5
9795
330
9502
100
AcDbEntity
  8
1
  6
Continuous
100
AcDbCircle
 10
18.46065099999998
 20
51.271483
 30
0.0
 40
4.2
100
AcDbArc
 50
270.0
 51
314.415
  0
ARC
  5
9796
330
9502
100
AcDbEntity
  8
1
  6
Continuous
100
AcDbCircle
 10
18.46065099999998
 20
51.271483
 30
0.0
 40
6.0
100
AcDbArc
 50
30.0
 51
90.0
  0
ARC
  5
9797
330
9502
100
AcDbEntity
  8
1
  6
Continuous
100
AcDbCircle
 10
18.46065099999998
 20
51.271483
 30
0.0
 40
4.2
100
AcDbArc
 50
135.5849999999998
 51
224.415
  0
ARC
  5
9798
330
9502
100
AcDbEntity
  8
1
  6
Continuous
100
AcDbCircle
 10
18.46065099999998
 20
51.271483
 30
0.0
 40
6.0
100
AcDbArc
 50
119.9999999999999
 51
239.9999999999999
  0
ARC
  5
9799
330
9502
100
AcDbEntity
  8
1
  6
Continuous
100
AcDbCircle
 10
36.610651
 20
39.845883
 30
0.0
 40
18.92559999999998
100
AcDbArc
 50
64.99439999999998
 51
115.006
  0
ARC
  5
979A
330
9502
100
AcDbEntity
  8
1
  6
Continuous
100
AcDbCircle
 10
36.610651
 20
38.914583
 30
0.0
 40
17.91059999999999
100
AcDbArc
 50
63.4702
 51
116.53
  0
ARC
  5
979B
330
9502
100
AcDbEntity
  8
1
  6
Continuous
100
AcDbCircle
 10
368.4605509999999
 20
180.7718829999998
 30
0.0
 40
3.0
100
AcDbArc
 50
106.2599999999999
 51
180.0
  0
ARC
  5
979C
330
9502
100
AcDbEntity
  8
1
  6
Continuous
100
AcDbCircle
 10
404.7605509999998
 20
180.7718829999998
 30
0.0
 40
3.0
100
AcDbArc
 50
0.0
 51
73.7398
  0
ARC
  5
979D
330
9502
100
AcDbEntity
  8
1
  6
Continuous
100
AcDbCircle
 10
371.4605509999998
 20
184.7718829999998
 30
0.0
 40
3.0
100
AcDbArc
 50
286.26
 51
0.0
  0
ARC
  5
979E
330
9502
100
AcDbEntity
  8
1
  6
Continuous
100
AcDbCircle
 10
401.760551
 20
184.7718829999998
 30
0.0
 40
3.0
100
AcDbArc
 50
180.0
 51
253.7399999999999
  0
ARC
  5
979F
330
9502
100
AcDbEntity
  8
1
  6
Continuous
100
AcDbCircle
 10
219.6105509999999
 20
184.9128829999999
 30
0.0
 40
6.0
100
AcDbArc
 50
140.0
 51
180.0
  0
ARC
  5
97A0
330
9502
100
AcDbEntity
  8
1
  6
Continuous
100
AcDbCircle
 10
21.46065099999999
 20
184.7718829999998
 30
0.0
 40
3.0
100
AcDbArc
 50
286.26
 51
0.0
  0
ARC
  5
97A1
330
9502
100
AcDbEntity
  8
1
  6
Continuous
100
AcDbCircle
 10
18.46065099999998
 20
180.7718829999998
 30
0.0
 40
3.0
100
AcDbArc
 50
106.2599999999999
 51
180.0
  0
ARC
  5
97A2
330
9502
100
AcDbEntity
  8
1
  6
Continuous
100
AcDbCircle
 10
51.760551
 20
184.7718829999998
 30
0.0
 40
3.0
100
AcDbArc
 50
180.0
 51
253.7399999999999
  0
ARC
  5
97A3
330
9502
100
AcDbEntity
  8
1
  6
Continuous
100
AcDbCircle
 10
54.76055099999999
 20
180.7718829999998
 30
0.0
 40
3.0
100
AcDbArc
 50
0.0
 51
73.7398
  0
ARC
  5
97A4
330
9502
100
AcDbEntity
  8
1
  6
Continuous
100
AcDbCircle
 10
43.11055099999999
 20
120.771883
 30
0.0
 40
1.5
100
AcDbArc
 50
270.0
 51
0.0
  0
ARC
  5
97A5
330
9502
100
AcDbEntity
  8
1
  6
Continuous
100
AcDbCircle
 10
30.110651
 20
120.771883
 30
0.0
 40
1.5
100
AcDbArc
 50
180.0
 51
270.0
  0
ARC
  5
97A6
330
9502
100
AcDbEntity
  8
1
  6
Continuous
100
AcDbCircle
 10
45.61055099999999
 20
138.771883
 30
0.0
 40
1.0
100
AcDbArc
 50
90.0
 51
180.0
  0
ARC
  5
97A7
330
9502
100
AcDbEntity
  8
1
  6
Continuous
100
AcDbCircle
 10
27.610651
 20
138.771883
 30
0.0
 40
1.0
100
AcDbArc
 50
0.0
 51
90.0
  0
ARC
  5
97A8
330
9502
100
AcDbEntity
  8
1
  6
Continuous
100
AcDbCircle
 10
51.760551
 20
150.7718829999998
 30
0.0
 40
3.0
100
AcDbArc
 50
131.41
 51
180.0
  0
ARC
  5
97A9
330
9502
100
AcDbEntity
  8
1
  6
Continuous
100
AcDbCircle
 10
51.760551
 20
154.7718829999998
 30
0.0
 40
3.0
100
AcDbArc
 50
311.41
 51
0.0
  0
ARC
  5
97AA
330
9502
100
AcDbEntity
  8
1
  6
Continuous
100
AcDbCircle
 10
21.46065099999999
 20
150.7718829999998
 30
0.0
 40
3.0
100
AcDbArc
 50
0.0
 51
48.5904
  0
ARC
  5
97AB
330
9502
100
AcDbEntity
  8
1
  6
Continuous
100
AcDbCircle
 10
21.46065099999999
 20
154.7718829999998
 30
0.0
 40
3.0
100
AcDbArc
 50
180.0
 51
228.59
  0
ARC
  5
97AC
330
9502
100
AcDbEntity
  8
1
  6
Continuous
100
AcDbCircle
 10
36.610651
 20
124.7718829999999
 30
0.0
 40
8.0
100
AcDbArc
 50
180.0
 51
0.00001
  0
ARC
  5
97AD
330
9502
100
AcDbEntity
  8
1
  6
Continuous
100
AcDbCircle
 10
212.6105509999999
 20
162.271883
 30
0.0
 40
1.0
100
AcDbArc
 50
270.0
 51
293.921
  0
ARC
  5
97AE
330
9502
100
AcDbEntity
  8
1
  6
Continuous
100
AcDbCircle
 10
23.56065099999999
 20
174.3698829999999
 30
0.0
 40
0.9
100
AcDbArc
 50
273.0
 51
93.0
  0
ARC
  5
97AF
330
9502
100
AcDbEntity
  8
1
  6
Continuous
100
AcDbCircle
 10
23.56065099999999
 20
172.427883
 30
0.0
 40
0.9
100
AcDbArc
 50
273.0
 51
93.0
  0
ARC
  5
97B0
330
9502
100
AcDbEntity
  8
1
  6
Continuous
100
AcDbCircle
 10
23.56065099999999
 20
170.4848829999999
 30
0.0
 40
0.9
100
AcDbArc
 50
273.0
 51
93.0
  0
ARC
  5
97B1
330
9502
100
AcDbEntity
  8
1
  6
Continuous
100
AcDbCircle
 10
23.56065099999999
 20
168.541883
 30
0.0
 40
0.9
100
AcDbArc
 50
273.0
 51
93.0
  0
ARC
  5
97B2
330
9502
100
AcDbEntity
  8
1
  6
Continuous
100
AcDbCircle
 10
23.56065099999999
 20
166.599883
 30
0.0
 40
0.9
100
AcDbArc
 50
273.0
 51
93.0
  0
ARC
  5
97B3
330
9502
100
AcDbEntity
  8
1
  6
Continuous
100
AcDbCircle
 10
23.56065099999999
 20
164.6568829999999
 30
0.0
 40
0.9
100
AcDbArc
 50
273.0
 51
93.0
  0
ARC
  5
97B4
330
9502
100
AcDbEntity
  8
1
  6
Continuous
100
AcDbCircle
 10
23.56065099999999
 20
162.7138829999998
 30
0.0
 40
0.9
100
AcDbArc
 50
273.0
 51
93.0
  0
ARC
  5
97B5
330
9502
100
AcDbEntity
  8
1
  6
Continuous
100
AcDbCircle
 10
13.360651
 20
173.8358829999999
 30
0.0
 40
0.9
100
AcDbArc
 50
93.0
 51
273.0
  0
ARC
  5
97B6
330
9502
100
AcDbEntity
  8
1
  6
Continuous
100
AcDbCircle
 10
13.360651
 20
171.892883
 30
0.0
 40
0.9
100
AcDbArc
 50
93.0
 51
273.0
  0
ARC
  5
97B7
330
9502
100
AcDbEntity
  8
1
  6
Continuous
100
AcDbCircle
 10
13.360651
 20
169.949883
 30
0.0
 40
0.9
100
AcDbArc
 50
93.0
 51
273.0
  0
ARC
  5
97B8
330
9502
100
AcDbEntity
  8
1
  6
Continuous
100
AcDbCircle
 10
13.360651
 20
168.007883
 30
0.0
 40
0.9
100
AcDbArc
 50
93.0
 51
273.0
  0
ARC
  5
97B9
330
9502
100
AcDbEntity
  8
1
  6
Continuous
100
AcDbCircle
 10
13.360651
 20
166.064883
 30
0.0
 40
0.9
100
AcDbArc
 50
93.0
 51
273.0
  0
ARC
  5
97BA
330
9502
100
AcDbEntity
  8
1
  6
Continuous
100
AcDbCircle
 10
13.360651
 20
164.1218829999999
 30
0.0
 40
0.9
100
AcDbArc
 50
93.0
 51
273.0
  0
ARC
  5
97BB
330
9502
100
AcDbEntity
  8
1
  6
Continuous
100
AcDbCircle
 10
13.360651
 20
162.1798829999999
 30
0.0
 40
0.9
100
AcDbArc
 50
93.0
 51
273.0
  0
ARC
  5
97BC
330
9502
100
AcDbEntity
  8
1
  6
Continuous
100
AcDbCircle
 10
59.860551
 20
174.3698829999999
 30
0.0
 40
0.9
100
AcDbArc
 50
273.0
 51
93.0
  0
ARC
  5
97BD
330
9502
100
AcDbEntity
  8
1
  6
Continuous
100
AcDbCircle
 10
59.860551
 20
172.427883
 30
0.0
 40
0.9
100
AcDbArc
 50
273.0
 51
93.0
  0
ARC
  5
97BE
330
9502
100
AcDbEntity
  8
1
  6
Continuous
100
AcDbCircle
 10
59.860551
 20
170.4848829999999
 30
0.0
 40
0.9
100
AcDbArc
 50
273.0
 51
93.0
  0
ARC
  5
97BF
330
9502
100
AcDbEntity
  8
1
  6
Continuous
100
AcDbCircle
 10
59.860551
 20
168.541883
 30
0.0
 40
0.9
100
AcDbArc
 50
273.0
 51
93.0
  0
ARC
  5
97C0
330
9502
100
AcDbEntity
  8
1
  6
Continuous
100
AcDbCircle
 10
59.860551
 20
166.599883
 30
0.0
 40
0.9
100
AcDbArc
 50
273.0
 51
93.0
  0
ARC
  5
97C1
330
9502
100
AcDbEntity
  8
1
  6
Continuous
100
AcDbCircle
 10
59.860551
 20
164.6568829999999
 30
0.0
 40
0.9
100
AcDbArc
 50
273.0
 51
93.0
  0
ARC
  5
97C2
330
9502
100
AcDbEntity
  8
1
  6
Continuous
100
AcDbCircle
 10
59.860551
 20
162.7138829999998
 30
0.0
 40
0.9
100
AcDbArc
 50
273.0
 51
93.0
  0
ARC
  5
97C3
330
9502
100
AcDbEntity
  8
1
  6
Continuous
100
AcDbCircle
 10
49.660551
 20
173.8358829999999
 30
0.0
 40
0.9
100
AcDbArc
 50
93.0
 51
273.0
  0
ARC
  5
97C4
330
9502
100
AcDbEntity
  8
1
  6
Continuous
100
AcDbCircle
 10
49.660551
 20
171.892883
 30
0.0
 40
0.9
100
AcDbArc
 50
93.0
 51
273.0
  0
ARC
  5
97C5
330
9502
100
AcDbEntity
  8
1
  6
Continuous
100
AcDbCircle
 10
49.660551
 20
169.949883
 30
0.0
 40
0.9
100
AcDbArc
 50
93.0
 51
273.0
  0
ARC
  5
97C6
330
9502
100
AcDbEntity
  8
1
  6
Continuous
100
AcDbCircle
 10
49.660551
 20
168.007883
 30
0.0
 40
0.9
100
AcDbArc
 50
93.0
 51
273.0
  0
ARC
  5
97C7
330
9502
100
AcDbEntity
  8
1
  6
Continuous
100
AcDbCircle
 10
49.660551
 20
166.064883
 30
0.0
 40
0.9
100
AcDbArc
 50
93.0
 51
273.0
  0
ARC
  5
97C8
330
9502
100
AcDbEntity
  8
1
  6
Continuous
100
AcDbCircle
 10
49.660551
 20
164.1218829999999
 30
0.0
 40
0.9
100
AcDbArc
 50
93.0
 51
273.0
  0
ARC
  5
97C9
330
9502
100
AcDbEntity
  8
1
  6
Continuous
100
AcDbCircle
 10
49.660551
 20
162.1798829999999
 30
0.0
 40
0.9
100
AcDbArc
 50
93.0
 51
273.0
  0
ARC
  5
97CA
330
9502
100
AcDbEntity
  8
1
  6
Continuous
100
AcDbCircle
 10
221.7105509999999
 20
174.3698829999999
 30
0.0
 40
0.9
100
AcDbArc
 50
273.0
 51
93.0
  0
ARC
  5
97CB
330
9502
100
AcDbEntity
  8
1
  6
Continuous
100
AcDbCircle
 10
221.7105509999999
 20
172.427883
 30
0.0
 40
0.9
100
AcDbArc
 50
273.0
 51
93.0
  0
ARC
  5
97CC
330
9502
100
AcDbEntity
  8
1
  6
Continuous
100
AcDbCircle
 10
221.7105509999999
 20
170.4848829999999
 30
0.0
 40
0.9
100
AcDbArc
 50
273.0
 51
93.0
  0
ARC
  5
97CD
330
9502
100
AcDbEntity
  8
1
  6
Continuous
100
AcDbCircle
 10
221.7105509999999
 20
168.541883
 30
0.0
 40
0.9
100
AcDbArc
 50
273.0
 51
93.0
  0
ARC
  5
97CE
330
9502
100
AcDbEntity
  8
1
  6
Continuous
100
AcDbCircle
 10
221.7105509999999
 20
166.599883
 30
0.0
 40
0.9
100
AcDbArc
 50
273.0
 51
93.0
  0
ARC
  5
97CF
330
9502
100
AcDbEntity
  8
1
  6
Continuous
100
AcDbCircle
 10
221.7105509999999
 20
164.6568829999999
 30
0.0
 40
0.9
100
AcDbArc
 50
273.0
 51
93.0
  0
ARC
  5
97D0
330
9502
100
AcDbEntity
  8
1
  6
Continuous
100
AcDbCircle
 10
221.7105509999999
 20
162.7138829999998
 30
0.0
 40
0.9
100
AcDbArc
 50
273.0
 51
93.0
  0
ARC
  5
97D1
330
9502
100
AcDbEntity
  8
1
  6
Continuous
100
AcDbCircle
 10
211.5105509999999
 20
173.8358829999999
 30
0.0
 40
0.9
100
AcDbArc
 50
93.0
 51
273.0
  0
ARC
  5
97D2
330
9502
100
AcDbEntity
  8
1
  6
Continuous
100
AcDbCircle
 10
211.5105509999999
 20
171.892883
 30
0.0
 40
0.9
100
AcDbArc
 50
93.0
 51
273.0
  0
ARC
  5
97D3
330
9502
100
AcDbEntity
  8
1
  6
Continuous
100
AcDbCircle
 10
211.5105509999999
 20
169.949883
 30
0.0
 40
0.9
100
AcDbArc
 50
93.0
 51
273.0
  0
ARC
  5
97D4
330
9502
100
AcDbEntity
  8
1
  6
Continuous
100
AcDbCircle
 10
211.5105509999999
 20
168.007883
 30
0.0
 40
0.9
100
AcDbArc
 50
93.0
 51
273.0
  0
ARC
  5
97D5
330
9502
100
AcDbEntity
  8
1
  6
Continuous
100
AcDbCircle
 10
211.5105509999999
 20
166.064883
 30
0.0
 40
0.9
100
AcDbArc
 50
93.0
 51
273.0
  0
ARC
  5
97D6
330
9502
100
AcDbEntity
  8
1
  6
Continuous
100
AcDbCircle
 10
211.5105509999999
 20
164.1218829999999
 30
0.0
 40
0.9
100
AcDbArc
 50
93.0
 51
273.0
  0
ARC
  5
97D7
330
9502
100
AcDbEntity
  8
1
  6
Continuous
100
AcDbCircle
 10
211.5105509999999
 20
162.1798829999999
 30
0.0
 40
0.9
100
AcDbArc
 50
93.0
 51
273.0
  0
ARC
  5
97D8
330
9502
100
AcDbEntity
  8
1
  6
Continuous
100
AcDbCircle
 10
214.110551
 20
171.771883
 30
0.0
 40
3.0
100
AcDbArc
 50
156.872
 51
160.7059999999999
  0
ARC
  5
97D9
330
9502
100
AcDbEntity
  8
1
  6
Continuous
100
AcDbCircle
 10
218.110551
 20
169.271883
 30
0.0
 40
5.0
100
AcDbArc
 50
53.5946
 51
56.1945
  0
ARC
  5
97DA
330
9502
100
AcDbEntity
  8
1
  6
Continuous
100
AcDbCircle
 10
217.1105509999999
 20
159.271883
 30
0.0
 40
4.0
100
AcDbArc
 50
30.0
 51
38.0529
  0
ARC
  5
97DB
330
9502
100
AcDbEntity
  8
1
  6
Continuous
100
AcDbCircle
 10
373.5605509999999
 20
174.3698829999999
 30
0.0
 40
0.9
100
AcDbArc
 50
273.0
 51
93.0
  0
ARC
  5
97DC
330
9502
100
AcDbEntity
  8
1
  6
Continuous
100
AcDbCircle
 10
373.5605509999999
 20
172.427883
 30
0.0
 40
0.9
100
AcDbArc
 50
273.0
 51
93.0
  0
ARC
  5
97DD
330
9502
100
AcDbEntity
  8
1
  6
Continuous
100
AcDbCircle
 10
373.5605509999999
 20
170.4848829999999
 30
0.0
 40
0.9
100
AcDbArc
 50
273.0
 51
93.0
  0
ARC
  5
97DE
330
9502
100
AcDbEntity
  8
1
  6
Continuous
100
AcDbCircle
 10
373.5605509999999
 20
168.541883
 30
0.0
 40
0.9
100
AcDbArc
 50
273.0
 51
93.0
  0
ARC
  5
97DF
330
9502
100
AcDbEntity
  8
1
  6
Continuous
100
AcDbCircle
 10
373.5605509999999
 20
166.599883
 30
0.0
 40
0.9
100
AcDbArc
 50
273.0
 51
93.0
  0
ARC
  5
97E0
330
9502
100
AcDbEntity
  8
1
  6
Continuous
100
AcDbCircle
 10
373.5605509999999
 20
164.6568829999999
 30
0.0
 40
0.9
100
AcDbArc
 50
273.0
 51
93.0
  0
ARC
  5
97E1
330
9502
100
AcDbEntity
  8
1
  6
Continuous
100
AcDbCircle
 10
373.5605509999999
 20
162.7138829999998
 30
0.0
 40
0.9
100
AcDbArc
 50
273.0
 51
93.0
  0
ARC
  5
97E2
330
9502
100
AcDbEntity
  8
1
  6
Continuous
100
AcDbCircle
 10
363.3605509999999
 20
173.8358829999999
 30
0.0
 40
0.9
100
AcDbArc
 50
93.0
 51
273.0
  0
ARC
  5
97E3
330
9502
100
AcDbEntity
  8
1
  6
Continuous
100
AcDbCircle
 10
363.3605509999999
 20
171.892883
 30
0.0
 40
0.9
100
AcDbArc
 50
93.0
 51
273.0
  0
ARC
  5
97E4
330
9502
100
AcDbEntity
  8
1
  6
Continuous
100
AcDbCircle
 10
363.3605509999999
 20
169.949883
 30
0.0
 40
0.9
100
AcDbArc
 50
93.0
 51
273.0
  0
ARC
  5
97E5
330
9502
100
AcDbEntity
  8
1
  6
Continuous
100
AcDbCircle
 10
363.3605509999999
 20
168.007883
 30
0.0
 40
0.9
100
AcDbArc
 50
93.0
 51
273.0
  0
ARC
  5
97E6
330
9502
100
AcDbEntity
  8
1
  6
Continuous
100
AcDbCircle
 10
363.3605509999999
 20
166.064883
 30
0.0
 40
0.9
100
AcDbArc
 50
93.0
 51
273.0
  0
ARC
  5
97E7
330
9502
100
AcDbEntity
  8
1
  6
Continuous
100
AcDbCircle
 10
363.3605509999999
 20
164.1218829999999
 30
0.0
 40
0.9
100
AcDbArc
 50
93.0
 51
273.0
  0
ARC
  5
97E8
330
9502
100
AcDbEntity
  8
1
  6
Continuous
100
AcDbCircle
 10
363.3605509999999
 20
162.1798829999999
 30
0.0
 40
0.9
100
AcDbArc
 50
93.0
 51
273.0
  0
ARC
  5
97E9
330
9502
100
AcDbEntity
  8
1
  6
Continuous
100
AcDbCircle
 10
409.8605509999998
 20
174.3698829999999
 30
0.0
 40
0.9
100
AcDbArc
 50
273.0
 51
93.0
  0
ARC
  5
97EA
330
9502
100
AcDbEntity
  8
1
  6
Continuous
100
AcDbCircle
 10
409.8605509999998
 20
172.427883
 30
0.0
 40
0.9
100
AcDbArc
 50
273.0
 51
93.0
  0
ARC
  5
97EB
330
9502
100
AcDbEntity
  8
1
  6
Continuous
100
AcDbCircle
 10
409.8605509999998
 20
170.4848829999999
 30
0.0
 40
0.9
100
AcDbArc
 50
273.0
 51
93.0
  0
ARC
  5
97EC
330
9502
100
AcDbEntity
  8
1
  6
Continuous
100
AcDbCircle
 10
409.8605509999998
 20
168.541883
 30
0.0
 40
0.9
100
AcDbArc
 50
273.0
 51
93.0
  0
ARC
  5
97ED
330
9502
100
AcDbEntity
  8
1
  6
Continuous
100
AcDbCircle
 10
409.8605509999998
 20
166.599883
 30
0.0
 40
0.9
100
AcDbArc
 50
273.0
 51
93.0
  0
ARC
  5
97EE
330
9502
100
AcDbEntity
  8
1
  6
Continuous
100
AcDbCircle
 10
409.8605509999998
 20
164.6568829999999
 30
0.0
 40
0.9
100
AcDbArc
 50
273.0
 51
93.0
  0
ARC
  5
97EF
330
9502
100
AcDbEntity
  8
1
  6
Continuous
100
AcDbCircle
 10
409.8605509999998
 20
162.7138829999998
 30
0.0
 40
0.9
100
AcDbArc
 50
273.0
 51
93.0
  0
ARC
  5
97F0
330
9502
100
AcDbEntity
  8
1
  6
Continuous
100
AcDbCircle
 10
399.660551
 20
173.8358829999999
 30
0.0
 40
0.9
100
AcDbArc
 50
93.0
 51
273.0
  0
ARC
  5
97F1
330
9502
100
AcDbEntity
  8
1
  6
Continuous
100
AcDbCircle
 10
399.660551
 20
171.892883
 30
0.0
 40
0.9
100
AcDbArc
 50
93.0
 51
273.0
  0
ARC
  5
97F2
330
9502
100
AcDbEntity
  8
1
  6
Continuous
100
AcDbCircle
 10
399.660551
 20
169.949883
 30
0.0
 40
0.9
100
AcDbArc
 50
93.0
 51
273.0
  0
ARC
  5
97F3
330
9502
100
AcDbEntity
  8
1
  6
Continuous
100
AcDbCircle
 10
399.660551
 20
168.007883
 30
0.0
 40
0.9
100
AcDbArc
 50
93.0
 51
273.0
  0
ARC
  5
97F4
330
9502
100
AcDbEntity
  8
1
  6
Continuous
100
AcDbCircle
 10
399.660551
 20
166.064883
 30
0.0
 40
0.9
100
AcDbArc
 50
93.0
 51
273.0
  0
ARC
  5
97F5
330
9502
100
AcDbEntity
  8
1
  6
Continuous
100
AcDbCircle
 10
399.660551
 20
164.1218829999999
 30
0.0
 40
0.9
100
AcDbArc
 50
93.0
 51
273.0
  0
ARC
  5
97F6
330
9502
100
AcDbEntity
  8
1
  6
Continuous
100
AcDbCircle
 10
399.660551
 20
162.1798829999999
 30
0.0
 40
0.9
100
AcDbArc
 50
93.0
 51
273.0
  0
ARC
  5
97F7
330
9502
100
AcDbEntity
  8
1
  6
Continuous
100
AcDbCircle
 10
104.1105509999999
 20
204.7718829999999
 30
0.0
 40
6.0
100
AcDbArc
 50
90.0
 51
270.0
  0
ARC
  5
97F8
330
9502
100
AcDbEntity
  8
1
  6
Continuous
100
AcDbCircle
 10
129.1105509999999
 20
204.7718829999999
 30
0.0
 40
6.0
100
AcDbArc
 50
270.0
 51
90.0
  0
CIRCLE
  5
97F9
330
9502
100
AcDbEntity
  8
1
  6
Continuous
100
AcDbCircle
 10
129.1105509999999
 20
204.7718829999999
 30
0.0
 40
2.649999999999999
  0
CIRCLE
  5
97FA
330
9502
100
AcDbEntity
  8
1
  6
Continuous
100
AcDbCircle
 10
104.1105509999999
 20
204.7718829999999
 30
0.0
 40
2.649999999999999
  0
ARC
  5
97FB
330
9502
100
AcDbEntity
  8
1
  6
Continuous
100
AcDbCircle
 10
279.6105509999998
 20
190.2718829999998
 30
0.0
 40
4.5
100
AcDbArc
 50
211.8329999999999
 51
0.0
  0
ARC
  5
97FC
330
9502
100
AcDbEntity
  8
1
  6
Continuous
100
AcDbCircle
 10
108.1105509999999
 20
191.271883
 30
0.0
 40
2.0
100
AcDbArc
 50
90.0
 51
180.0
  0
ARC
  5
97FD
330
9502
100
AcDbEntity
  8
1
  6
Continuous
100
AcDbCircle
 10
125.110551
 20
191.271883
 30
0.0
 40
2.0
100
AcDbArc
 50
0.0
 51
90.0
  0
ARC
  5
97FE
330
9502
100
AcDbEntity
  8
1
  6
Continuous
100
AcDbCircle
 10
108.1105509999999
 20
190.2098829999999
 30
0.0
 40
2.0
100
AcDbArc
 50
90.0
 51
180.0
  0
ARC
  5
97FF
330
9502
100
AcDbEntity
  8
1
  6
Continuous
100
AcDbCircle
 10
125.110551
 20
190.2098829999999
 30
0.0
 40
2.0
100
AcDbArc
 50
0.0
 51
90.0
  0
ARC
  5
9800
330
9502
100
AcDbEntity
  8
1
  6
Continuous
100
AcDbCircle
 10
454.110551
 20
204.7718829999999
 30
0.0
 40
6.0
100
AcDbArc
 50
90.0
 51
270.0
  0
ARC
  5
9801
330
9502
100
AcDbEntity
  8
1
  6
Continuous
100
AcDbCircle
 10
479.110551
 20
204.7718829999999
 30
0.0
 40
6.0
100
AcDbArc
 50
270.0
 51
90.0
  0
CIRCLE
  5
9802
330
9502
100
AcDbEntity
  8
1
  6
Continuous
100
AcDbCircle
 10
479.110551
 20
204.7718829999999
 30
0.0
 40
2.649999999999999
  0
CIRCLE
  5
9803
330
9502
100
AcDbEntity
  8
1
  6
Continuous
100
AcDbCircle
 10
454.110551
 20
204.7718829999999
 30
0.0
 40
2.649999999999999
  0
ARC
  5
9804
330
9502
100
AcDbEntity
  8
1
  6
Continuous
100
AcDbCircle
 10
105.1105509999999
 20
197.771883
 30
0.0
 40
1.0
100
AcDbArc
 50
0.0
 51
90.0
  0
ARC
  5
9805
330
9502
100
AcDbEntity
  8
1
  6
Continuous
100
AcDbCircle
 10
128.1105509999999
 20
197.771883
 30
0.0
 40
1.0
100
AcDbArc
 50
90.0
 51
180.0
  0
ARC
  5
9806
330
9502
100
AcDbEntity
  8
1
  6
Continuous
100
AcDbCircle
 10
220.6105509999999
 20
184.5488829999999
 30
0.0
 40
1.0
100
AcDbArc
 50
140.0
 51
180.0
  0
ARC
  5
9807
330
9502
100
AcDbEntity
  8
1
  6
Continuous
100
AcDbCircle
 10
279.6105509999998
 20
190.2718829999998
 30
0.0
 40
2.5
100
AcDbArc
 50
211.8329999999999
 51
0.0
  0
ARC
  5
9808
330
9502
100
AcDbEntity
  8
1
  6
Continuous
100
AcDbCircle
 10
108.1105509999999
 20
288.771883
 30
0.0
 40
2.0
100
AcDbArc
 50
180.0
 51
270.0
  0
ARC
  5
9809
330
9502
100
AcDbEntity
  8
1
  6
Continuous
100
AcDbCircle
 10
125.110551
 20
288.771883
 30
0.0
 40
2.0
100
AcDbArc
 50
270.0
 51
0.0
  0
ARC
  5
980A
330
9502
100
AcDbEntity
  8
1
  6
Continuous
100
AcDbCircle
 10
108.1105509999999
 20
290.4668829999998
 30
0.0
 40
2.0
100
AcDbArc
 50
180.0
 51
270.0
  0
ARC
  5
980B
330
9502
100
AcDbEntity
  8
1
  6
Continuous
100
AcDbCircle
 10
125.110551
 20
290.4668829999998
 30
0.0
 40
2.0
100
AcDbArc
 50
270.0
 51
0.0
  0
LINE
  5
980C
330
9502
100
AcDbEntity
  8
1
  6
Continuous
100
AcDbLine
 10
395.610551
 20
148.271883
 30
0.0
 11
394.6105509999999
 21
148.271883
 31
0.0
  0
LINE
  5
980D
330
9502
100
AcDbEntity
  8
1
  6
Continuous
100
AcDbLine
 10
395.610551
 20
144.271883
 30
0.0
 11
394.6105509999999
 21
144.271883
 31
0.0
  0
LINE
  5
980E
330
9502
100
AcDbEntity
  8
1
  6
Continuous
100
AcDbLine
 10
377.6105509999999
 20
148.271883
 30
0.0
 11
378.610551
 21
148.271883
 31
0.0
  0
LINE
  5
980F
330
9502
100
AcDbEntity
  8
1
  6
Continuous
100
AcDbLine
 10
377.6105509999999
 20
144.271883
 30
0.0
 11
378.610551
 21
144.271883
 31
0.0
  0
LINE
  5
9810
330
9502
100
AcDbEntity
  8
1
  6
Continuous
100
AcDbLine
 10
218.9105509999999
 20
183.0218829999998
 30
0.0
 11
214.3105509999998
 21
183.0218829999998
 31
0.0
  0
ARC
  5
9811
330
9502
100
AcDbEntity
  8
1
  6
Continuous
100
AcDbCircle
 10
221.6105509999999
 20
141.271883
 30
0.0
 40
1.5
100
AcDbArc
 50
270.0
 51
0.0
  0
ARC
  5
9812
330
9502
100
AcDbEntity
  8
1
  6
Continuous
100
AcDbCircle
 10
27.610651
 20
56.77148299999998
 30
0.0
 40
2.0
100
AcDbArc
 50
90.0
 51
180.0
  0
ARC
  5
9813
330
9502
100
AcDbEntity
  8
1
  6
Continuous
100
AcDbCircle
 10
45.61055099999999
 20
56.77148299999998
 30
0.0
 40
2.0
100
AcDbArc
 50
0.0
 51
90.0
  0
ARC
  5
9814
330
9502
100
AcDbEntity
  8
1
  6
Continuous
100
AcDbCircle
 10
27.610651
 20
284.771883
 30
0.0
 40
2.0
100
AcDbArc
 50
180.0
 51
270.0
  0
ARC
  5
9815
330
9502
100
AcDbEntity
  8
1
  6
Continuous
100
AcDbCircle
 10
45.61055099999999
 20
284.771883
 30
0.0
 40
2.0
100
AcDbArc
 50
270.0
 51
0.0
  0
LINE
  5
9816
330
9502
100
AcDbEntity
  8
1
  6
Continuous
100
AcDbLine
 10
45.81055099999999
 20
295.271883
 30
0.0
 11
45.81055099999999
 21
297.771883
 31
0.0
  0
LINE
  5
9817
330
9502
100
AcDbEntity
  8
1
  6
Continuous
100
AcDbLine
 10
27.410651
 20
295.271883
 30
0.0
 11
27.410651
 21
297.771883
 31
0.0
  0
LINE
  5
9818
330
9502
100
AcDbEntity
  8
1
  6
Continuous
100
AcDbLine
 10
47.610551
 20
53.27148300000001
 30
0.0
 11
48.760551
 21
53.27148300000001
 31
0.0
  0
LINE
  5
9819
330
9502
100
AcDbEntity
  8
1
  6
Continuous
100
AcDbLine
 10
47.610551
 20
49.271483
 30
0.0
 11
48.760551
 21
49.271483
 31
0.0
  0
LINE
  5
981A
330
9502
100
AcDbEntity
  8
1
  6
Continuous
100
AcDbLine
 10
27.610651
 20
53.27148300000001
 30
0.0
 11
45.61055099999999
 21
53.27148300000001
 31
0.0
  0
LINE
  5
981B
330
9502
100
AcDbEntity
  8
1
  6
Continuous
100
AcDbLine
 10
27.610651
 20
49.271483
 30
0.0
 11
45.61055099999999
 21
49.271483
 31
0.0
  0
LINE
  5
981C
330
9502
100
AcDbEntity
  8
4
  6
CENTER
100
AcDbLine
 10
129.1105509999999
 20
300.271883
 30
0.0
 11
129.1105509999999
 21
293.271883
 31
0.0
  0
LINE
  5
981D
330
9502
100
AcDbEntity
  8
4
  6
CENTER
100
AcDbLine
 10
104.1105509999999
 20
300.271883
 30
0.0
 11
104.1105509999999
 21
293.271883
 31
0.0
  0
ENDSEC
  0
SECTION
  2
OBJECTS
  0
DICTIONARY
  5
94F0
330
0
100
AcDbDictionary
281
     1
  3
ACAD_CIP_PREVIOUS_PRODUCT_INFO
350
9881
  3
ACAD_COLOR
350
9863
  3
ACAD_DETAILVIEWSTYLE
350
987C
  3
ACAD_GROUP
350
94F1
  3
ACAD_LAYOUT
350
94FD
  3
ACAD_MATERIAL
350
9831
  3
ACAD_MLEADERSTYLE
350
9878
  3
ACAD_MLINESTYLE
350
94FA
  3
ACAD_PLOTSETTINGS
350
94FC
  3
ACAD_PLOTSTYLENAME
350
982F
  3
ACAD_SCALELIST
350
9866
  3
ACAD_SECTIONVIEWSTYLE
350
987A
  3
ACAD_TABLESTYLE
350
9864
  3
ACAD_VISUALSTYLE
350
984A
  3
ACDB_RECOMPOSE_DATA
350
989F
  3
AcDbVariableDictionary
350
9892
  3
DWGPROPS
350
98A0
  0
DICTIONARY
  5
9882
330
94F4
100
AcDbDictionary
280
     1
281
     1
  3
ADSK_XREC_LAYER_RECONCILED
360
9883
  0
DICTIONARY
  5
9884
330
950A
100
AcDbDictionary
280
     1
281
     1
  3
ADSK_XREC_LAYER_RECONCILED
360
9885
  0
DICTIONARY
  5
9886
330
950B
100
AcDbDictionary
280
     1
281
     1
  3
ADSK_XREC_LAYER_RECONCILED
360
9887
  0
DICTIONARY
  5
9888
330
950C
100
AcDbDictionary
280
     1
281
     1
  3
ADSK_XREC_LAYER_RECONCILED
360
9889
  0
DICTIONARY
  5
988A
330
950D
100
AcDbDictionary
280
     1
281
     1
  3
ADSK_XREC_LAYER_RECONCILED
360
988B
  0
DICTIONARY
  5
988C
330
950E
100
AcDbDictionary
280
     1
281
     1
  3
ADSK_XREC_LAYER_RECONCILED
360
988D
  0
DICTIONARY
  5
988E
330
950F
100
AcDbDictionary
280
     1
281
     1
  3
ADSK_XREC_LAYER_RECONCILED
360
988F
  0
DICTIONARY
  5
9890
330
9510
100
AcDbDictionary
280
     1
281
     1
  3
ADSK_XREC_LAYER_RECONCILED
360
9891
  0
DICTIONARY
  5
982A
330
9502
100
AcDbDictionary
281
     1
  3
ACAD_LAYOUTSELFREF
350
982B
  0
DICTIONARY
  5
9828
330
94FE
100
AcDbDictionary
281
     1
  3
ACAD_LAYOUTSELFREF
350
9829
  0
XRECORD
  5
9881
102
{ACAD_REACTORS
330
94F0
102
}
330
94F0
100
AcDbXrecord
280
     1
300
ACDLT
300
2014
300
ACDLT_F_S
  0
DICTIONARY
  5
9863
102
{ACAD_REACTORS
330
94F0
102
}
330
94F0
100
AcDbDictionary
281
     1
  0
DICTIONARY
  5
987C
102
{ACAD_REACTORS
330
94F0
102
}
330
94F0
100
AcDbDictionary
281
     1
  3
Imperial24
350
987D
  0
DICTIONARY
  5
94F1
102
{ACAD_REACTORS
330
94F0
102
}
330
94F0
100
AcDbDictionary
281
     1
  0
DICTIONARY
  5
94FD
102
{ACAD_REACTORS
330
94F0
102
}
330
94F0
100
AcDbDictionary
281
     1
  3
Model
350
987E
  3
レイアウト1
350
987F
  0
DICTIONARY
  5
9831
102
{ACAD_REACTORS
330
94F0
102
}
330
94F0
100
AcDbDictionary
281
     1
  3
ByBlock
350
983A
  3
ByLayer
350
9832
  3
Global
350
9842
  0
DICTIONARY
  5
9878
102
{ACAD_REACTORS
330
94F0
102
}
330
94F0
100
AcDbDictionary
281
     1
  3
Standard
350
9879
  0
DICTIONARY
  5
94FA
102
{ACAD_REACTORS
330
94F0
102
}
330
94F0
100
AcDbDictionary
281
     1
  3
STANDARD
350
94FB
  0
DICTIONARY
  5
94FC
102
{ACAD_REACTORS
330
94F0
102
}
330
94F0
100
AcDbDictionary
281
     1
  0
ACDBDICTIONARYWDFLT
  5
982F
102
{ACAD_REACTORS
330
94F0
102
}
330
94F0
100
AcDbDictionary
281
     1
  3
Normal
350
9830
100
AcDbDictionaryWithDefault
340
9830
  0
DICTIONARY
  5
9866
102
{ACAD_REACTORS
330
94F0
102
}
330
94F0
100
AcDbDictionary
281
     1
  3
A0
350
9867
  3
A1
350
9868
  3
A2
350
9869
  3
A3
350
986A
  3
A4
350
986B
  3
A5
350
986C
  3
A6
350
986D
  3
A7
350
986E
  3
A8
350
986F
  3
A9
350
9870
  3
B0
350
9871
  3
B1
350
9872
  3
B2
350
9873
  3
B3
350
9874
  3
B4
350
9875
  3
B5
350
9876
  3
B6
350
9877
  0
DICTIONARY
  5
987A
102
{ACAD_REACTORS
330
94F0
102
}
330
94F0
100
AcDbDictionary
281
     1
  3
Imperial24
350
987B
  0
DICTIONARY
  5
9864
102
{ACAD_REACTORS
330
94F0
102
}
330
94F0
100
AcDbDictionary
281
     1
  3
Standard
350
9865
  0
DICTIONARY
  5
984A
102
{ACAD_REACTORS
330
94F0
102
}
330
94F0
100
AcDbDictionary
281
     1
  3
2dWireframe
350
9850
  3
Basic
350
984F
  3
Brighten
350
9856
  3
ColorChange
350
985A
  3
Conceptual
350
9853
  3
Dim
350
9855
  3
EdgeColorOff
350
9862
  3
Facepattern
350
9859
  3
Flat
350
984B
  3
FlatWithEdges
350
984C
  3
Gouraud
350
984D
  3
GouraudWithEdges
350
984E
  3
Hidden
350
9852
  3
JitterOff
350
9860
  3
Linepattern
350
9858
  3
OverhangOff
350
9861
  3
Realistic
350
9854
  3
Shaded
350
985F
  3
Shaded with edges
350
985E
  3
Shades of Gray
350
985B
  3
Sketchy
350
985C
  3
Thicken
350
9857
  3
Wireframe
350
9851
  3
X-Ray
350
985D
  0
XRECORD
  5
989F
102
{ACAD_REACTORS
330
94F0
102
}
330
94F0
100
AcDbXrecord
280
     1
 90
        1
330
9865
  0
DICTIONARY
  5
9892
102
{ACAD_REACTORS
330
94F0
102
}
330
94F0
100
AcDbDictionary
281
     1
  3
CANNOSCALE
350
9897
  3
CMLEADERSTYLE
350
9894
  3
CTABLESTYLE
350
9893
  3
CVIEWDETAILSTYLE
350
9895
  3
CVIEWSECTIONSTYLE
350
9896
  3
DIMASSOC
350
989A
  3
INDEXCTL
350
9899
  3
SORTENTS
350
9898
  3
XCLIPFRAME
350
989B
  0
XRECORD
  5
98A0
102
{ACAD_REACTORS
330
94F0
102
}
330
94F0
100
AcDbXrecord
280
     1
  1
DWGPROPS COOKIE
  2

  3

  4

  6

  7

  8
Yoshitsune
  9

300
=
301
=
302
=
303
=
304
=
305
=
306
=
307
=
308
=
309
=
 40
0.0000141782407407
 41
2451066.616881945
 42
2457192.598591829
  1

 90
        0
  0
XRECORD
  5
9883
102
{ACAD_REACTORS
330
9882
102
}
330
9882
100
AcDbXrecord
280
     1
290
     1
  0
XRECORD
  5
9885
102
{ACAD_REACTORS
330
9884
102
}
330
9884
100
AcDbXrecord
280
     1
290
     1
  0
XRECORD
  5
9887
102
{ACAD_REACTORS
330
9886
102
}
330
9886
100
AcDbXrecord
280
     1
290
     1
  0
XRECORD
  5
9889
102
{ACAD_REACTORS
330
9888
102
}
330
9888
100
AcDbXrecord
280
     1
290
     1
  0
XRECORD
  5
988B
102
{ACAD_REACTORS
330
988A
102
}
330
988A
100
AcDbXrecord
280
     1
290
     1
  0
XRECORD
  5
988D
102
{ACAD_REACTORS
330
988C
102
}
330
988C
100
AcDbXrecord
280
     1
290
     1
  0
XRECORD
  5
988F
102
{ACAD_REACTORS
330
988E
102
}
330
988E
100
AcDbXrecord
280
     1
290
     1
  0
XRECORD
  5
9891
102
{ACAD_REACTORS
330
9890
102
}
330
9890
100
AcDbXrecord
280
     1
290
     1
  0
XRECORD
  5
982B
102
{ACAD_REACTORS
330
982A
102
}
330
982A
100
AcDbXrecord
280
     1
340
9502
  0
XRECORD
  5
9829
102
{ACAD_REACTORS
330
9828
102
}
330
9828
100
AcDbXrecord
280
     1
340
94FE
  0
ACDBDETAILVIEWSTYLE
  5
987D
102
{ACAD_XDICTIONARY
360
98D8
102
}
102
{ACAD_REACTORS
330
987C
102
}
330
987C
100
AcDbModelDocViewStyle
 70
     0
  3
Imperial24
290
     0
100
AcDbDetailViewStyle
 70
     0
 71
     0
 90
        3
 71
     1
340
94F5
 40
0.24
340
0
 40
0.24
300

 40
0.36
280
     3
 71
     2
340
94F9
 90
       25
 71
     3
340
94F5
 40
0.24
 90
        1
 40
0.75
 90
        1
300
%<\AcVar ViewType \f "%tc1">% %<\AcVar ViewDetailId>%\PSCALE %<\AcVar ViewScale \f "%sn">%
 71
     4
340
94F9
 90
       25
340
94F9
 90
       25
280
     0
  0
LAYOUT
  5
987E
102
{ACAD_XDICTIONARY
360
98DA
102
}
102
{ACAD_REACTORS
330
94FD
102
}
330
94FD
100
AcDbPlotSettings
  1

  2
Canon LBP9100C
  4

  6

 40
0.0
 41
0.0
 42
0.0
 43
0.0
 44
0.0
 45
0.0
 46
0.0
 47
0.0
 48
0.0
 49
0.0
140
0.0
141
0.0
142
1.0
143
1.0
 70
  1712
 72
     0
 73
     0
 74
     0
  7

 75
     0
147
1.0
148
0.0
149
0.0
100
AcDbLayout
  1
Model
 70
     1
 71
     0
 10
0.0
 20
0.0
 11
12.0
 21
9.0
 12
0.0
 22
0.0
 32
0.0
 14
0.0
 24
0.0
 34
0.0
 15
0.0
 25
0.0
 35
0.0
146
0.0
 13
0.0
 23
0.0
 33
0.0
 16
1.0
 26
0.0
 36
0.0
 17
0.0
 27
1.0
 37
0.0
 76
     0
330
9502
331
9827
  0
LAYOUT
  5
987F
102
{ACAD_XDICTIONARY
360
98DC
102
}
102
{ACAD_REACTORS
330
94FD
102
}
330
94FD
100
AcDbPlotSettings
  1

  2
Canon LBP9100C
  4

  6

 40
0.0
 41
0.0
 42
0.0
 43
0.0
 44
0.0
 45
0.0
 46
0.0
 47
0.0
 48
0.0
 49
0.0
140
0.0
141
0.0
142
1.0
143
1.0
 70
   688
 72
     0
 73
     0
 74
     5
  7

 75
    16
147
1.0
148
0.0
149
0.0
100
AcDbLayout
  1
レイアウト1
 70
     0
 71
     1
 10
0.0
 20
0.0
 11
420.0
 21
297.0
 12
0.0
 22
0.0
 32
0.0
 14
1.000000000000000E+20
 24
1.000000000000000E+20
 34
1.000000000000000E+20
 15
-1.000000000000000E+20
 25
-1.000000000000000E+20
 35
-1.000000000000000E+20
146
0.0
 13
0.0
 23
0.0
 33
0.0
 16
1.0
 26
0.0
 36
0.0
 17
0.0
 27
1.0
 37
0.0
 76
     0
330
94FE
  0
MATERIAL
  5
983A
102
{ACAD_XDICTIONARY
360
983B
102
}
102
{ACAD_REACTORS
330
9831
102
}
330
9831
100
AcDbMaterial
  1
ByBlock
 72
     0
 43
0.0208333333333333
 43
0.0
 43
0.0
 43
0.0
 43
0.0
 43
0.0208333333333333
 43
0.0
 43
0.0
 43
0.0
 43
0.0
 43
1.0
 43
0.0
 43
0.0
 43
0.0
 43
0.0
 43
1.0
 77
     0
 47
0.0208333333333333
 47
0.0
 47
0.0
 47
0.0
 47
0.0
 47
0.0208333333333333
 47
0.0
 47
0.0
 47
0.0
 47
0.0
 47
1.0
 47
0.0
 47
0.0
 47
0.0
 47
0.0
 47
1.0
171
     0
 49
0.0208333333333333
 49
0.0
 49
0.0
 49
0.0
 49
0.0
 49
0.0208333333333333
 49
0.0
 49
0.0
 49
0.0
 49
0.0
 49
1.0
 49
0.0
 49
0.0
 49
0.0
 49
0.0
 49
1.0
175
     0
142
0.0208333333333333
142
0.0
142
0.0
142
0.0
142
0.0
142
0.0208333333333333
142
0.0
142
0.0
142
0.0
142
0.0
142
1.0
142
0.0
142
0.0
142
0.0
142
0.0
142
1.0
179
     0
144
0.0208333333333333
144
0.0
144
0.0
144
0.0
144
0.0
144
0.0208333333333333
144
0.0
144
0.0
144
0.0
144
0.0
144
1.0
144
0.0
144
0.0
144
0.0
144
0.0
144
1.0
147
0.0208333333333333
147
0.0
147
0.0
147
0.0
147
0.0
147
0.0208333333333333
147
0.0
147
0.0
147
0.0
147
0.0
147
1.0
147
0.0
147
0.0
147
0.0
147
0.0
147
1.0
  0
MATERIAL
  5
9832
102
{ACAD_XDICTIONARY
360
9833
102
}
102
{ACAD_REACTORS
330
9831
102
}
330
9831
100
AcDbMaterial
  1
ByLayer
 72
     0
 43
0.0208333333333333
 43
0.0
 43
0.0
 43
0.0
 43
0.0
 43
0.0208333333333333
 43
0.0
 43
0.0
 43
0.0
 43
0.0
 43
1.0
 43
0.0
 43
0.0
 43
0.0
 43
0.0
 43
1.0
 77
     0
 47
0.0208333333333333
 47
0.0
 47
0.0
 47
0.0
 47
0.0
 47
0.0208333333333333
 47
0.0
 47
0.0
 47
0.0
 47
0.0
 47
1.0
 47
0.0
 47
0.0
 47
0.0
 47
0.0
 47
1.0
171
     0
 49
0.0208333333333333
 49
0.0
 49
0.0
 49
0.0
 49
0.0
 49
0.0208333333333333
 49
0.0
 49
0.0
 49
0.0
 49
0.0
 49
1.0
 49
0.0
 49
0.0
 49
0.0
 49
0.0
 49
1.0
175
     0
142
0.0208333333333333
142
0.0
142
0.0
142
0.0
142
0.0
142
0.0208333333333333
142
0.0
142
0.0
142
0.0
142
0.0
142
1.0
142
0.0
142
0.0
142
0.0
142
0.0
142
1.0
179
     0
144
0.0208333333333333
144
0.0
144
0.0
144
0.0
144
0.0
144
0.0208333333333333
144
0.0
144
0.0
144
0.0
144
0.0
144
1.0
144
0.0
144
0.0
144
0.0
144
0.0
144
1.0
147
0.0208333333333333
147
0.0
147
0.0
147
0.0
147
0.0
147
0.0208333333333333
147
0.0
147
0.0
147
0.0
147
0.0
147
1.0
147
0.0
147
0.0
147
0.0
147
0.0
147
1.0
  0
MATERIAL
  5
9842
102
{ACAD_XDICTIONARY
360
9843
102
}
102
{ACAD_REACTORS
330
9831
102
}
330
9831
100
AcDbMaterial
  1
Global
 72
     0
 43
0.0208333333333333
 43
0.0
 43
0.0
 43
0.0
 43
0.0
 43
0.0208333333333333
 43
0.0
 43
0.0
 43
0.0
 43
0.0
 43
1.0
 43
0.0
 43
0.0
 43
0.0
 43
0.0
 43
1.0
 77
     0
 47
0.0208333333333333
 47
0.0
 47
0.0
 47
0.0
 47
0.0
 47
0.0208333333333333
 47
0.0
 47
0.0
 47
0.0
 47
0.0
 47
1.0
 47
0.0
 47
0.0
 47
0.0
 47
0.0
 47
1.0
171
     0
 49
0.0208333333333333
 49
0.0
 49
0.0
 49
0.0
 49
0.0
 49
0.0208333333333333
 49
0.0
 49
0.0
 49
0.0
 49
0.0
 49
1.0
 49
0.0
 49
0.0
 49
0.0
 49
0.0
 49
1.0
175
     0
142
0.0208333333333333
142
0.0
142
0.0
142
0.0
142
0.0
142
0.0208333333333333
142
0.0
142
0.0
142
0.0
142
0.0
142
1.0
142
0.0
142
0.0
142
0.0
142
0.0
142
1.0
179
     0
144
0.0208333333333333
144
0.0
144
0.0
144
0.0
144
0.0
144
0.0208333333333333
144
0.0
144
0.0
144
0.0
144
0.0
144
1.0
144
0.0
144
0.0
144
0.0
144
0.0
144
1.0
147
0.0208333333333333
147
0.0
147
0.0
147
0.0
147
0.0
147
0.0208333333333333
147
0.0
147
0.0
147
0.0
147
0.0
147
1.0
147
0.0
147
0.0
147
0.0
147
0.0
147
1.0
  0
MLEADERSTYLE
  5
9879
102
{ACAD_REACTORS
330
9878
102
}
330
9878
100
AcDbMLeaderStyle
170
     2
171
     1
172
     0
 90
        2
 40
0.0
 41
0.0
173
     1
 91
-1056964608
340
94F7
 92
       -2
290
     1
 42
0.09
291
     1
 43
0.36
  3
Standard
 44
0.18
300

342
94F5
174
     1
178
     6
175
     1
176
     0
 93
-1056964608
 45
0.18
292
     0
297
     0
 46
0.18
 94
-1056964608
 47
1.0
 49
1.0
140
1.0
293
     1
141
0.0
294
     1
177
     0
142
1.0
295
     0
296
     0
143
0.125
1001
ACAD_MLEADERVER
1070
     2
  0
MLINESTYLE
  5
94FB
102
{ACAD_REACTORS
330
94FA
102
}
330
94FA
100
AcDbMlineStyle
  2
STANDARD
 70
     0
  3

 62
   256
 51
90.0
 52
90.0
 71
     2
 49
0.5
 62
   256
  6
BYLAYER
 49
-0.5
 62
   256
  6
BYLAYER
  0
ACDBPLACEHOLDER
  5
9830
102
{ACAD_REACTORS
330
982F
102
}
330
982F
  0
SCALE
  5
9867
102
{ACAD_REACTORS
330
9866
102
}
330
9866
100
AcDbScale
 70
     0
300
1:1
140
1.0
141
1.0
290
     1
  0
SCALE
  5
9868
102
{ACAD_REACTORS
330
9866
102
}
330
9866
100
AcDbScale
 70
     0
300
1/128" = 1'-0"
140
0.0078125
141
12.0
290
     0
  0
SCALE
  5
9869
102
{ACAD_REACTORS
330
9866
102
}
330
9866
100
AcDbScale
 70
     0
300
1/64" = 1'-0"
140
0.015625
141
12.0
290
     0
  0
SCALE
  5
986A
102
{ACAD_REACTORS
330
9866
102
}
330
9866
100
AcDbScale
 70
     0
300
1/32" = 1'-0"
140
0.03125
141
12.0
290
     0
  0
SCALE
  5
986B
102
{ACAD_REACTORS
330
9866
102
}
330
9866
100
AcDbScale
 70
     0
300
1/16" = 1'-0"
140
0.0625
141
12.0
290
     0
  0
SCALE
  5
986C
102
{ACAD_REACTORS
330
9866
102
}
330
9866
100
AcDbScale
 70
     0
300
3/32" = 1'-0"
140
0.09375
141
12.0
290
     0
  0
SCALE
  5
986D
102
{ACAD_REACTORS
330
9866
102
}
330
9866
100
AcDbScale
 70
     0
300
1/8" = 1'-0"
140
0.125
141
12.0
290
     0
  0
SCALE
  5
986E
102
{ACAD_REACTORS
330
9866
102
}
330
9866
100
AcDbScale
 70
     0
300
3/16" = 1'-0"
140
0.1875
141
12.0
290
     0
  0
SCALE
  5
986F
102
{ACAD_REACTORS
330
9866
102
}
330
9866
100
AcDbScale
 70
     0
300
1/4" = 1'-0"
140
0.25
141
12.0
290
     0
  0
SCALE
  5
9870
102
{ACAD_REACTORS
330
9866
102
}
330
9866
100
AcDbScale
 70
     0
300
3/8" = 1'-0"
140
0.375
141
12.0
290
     0
  0
SCALE
  5
9871
102
{ACAD_REACTORS
330
9866
102
}
330
9866
100
AcDbScale
 70
     0
300
1/2" = 1'-0"
140
0.5
141
12.0
290
     0
  0
SCALE
  5
9872
102
{ACAD_REACTORS
330
9866
102
}
330
9866
100
AcDbScale
 70
     0
300
3/4" = 1'-0"
140
0.75
141
12.0
290
     0
  0
SCALE
  5
9873
102
{ACAD_REACTORS
330
9866
102
}
330
9866
100
AcDbScale
 70
     0
300
1" = 1'-0"
140
1.0
141
12.0
290
     0
  0
SCALE
  5
9874
102
{ACAD_REACTORS
330
9866
102
}
330
9866
100
AcDbScale
 70
     0
300
1-1/2" = 1'-0"
140
1.5
141
12.0
290
     0
  0
SCALE
  5
9875
102
{ACAD_REACTORS
330
9866
102
}
330
9866
100
AcDbScale
 70
     0
300
3" = 1'-0"
140
3.0
141
12.0
290
     0
  0
SCALE
  5
9876
102
{ACAD_REACTORS
330
9866
102
}
330
9866
100
AcDbScale
 70
     0
300
6" = 1'-0"
140
6.0
141
12.0
290
     0
  0
SCALE
  5
9877
102
{ACAD_REACTORS
330
9866
102
}
330
9866
100
AcDbScale
 70
     0
300
1'-0" = 1'-0"
140
12.0
141
12.0
290
     0
  0
ACDBSECTIONVIEWSTYLE
  5
987B
102
{ACAD_XDICTIONARY
360
98D6
102
}
102
{ACAD_REACTORS
330
987A
102
}
330
987A
100
AcDbModelDocViewStyle
 70
     0
  3
Imperial24
290
     0
100
AcDbSectionViewStyle
 70
     0
 71
     0
 90
       78
 71
     1
340
94F5
 40
0.24
340
0
340
0
 40
0.24
300
I, O, Q, S, X, Z
 40
0.48
 90
        3
 40
0.18
 90
        1
 71
     2
340
94F9
 90
       25
340
94F9
 90
       50
 40
0.24
 40
0.0
 40
0.24
 71
     3
340
94F5
 40
0.24
 90
        1
 40
0.75
 90
        1
300
%<\AcVar ViewType \f "%tc1">% %<\AcVar ViewSectionStartId>%-%<\AcVar ViewSectionEndId>%\PSCALE %<\AcVar ViewScale \f "%sn">%
 71
     4
300
ANSI31
 40
1.0
 90
        0
290
     0
290
     0
 90
        6
 40
0.0
 40
1.570796326794896
 40
0.2617993877991494
 40
1.308996938995747
 40
-0.2617993877991494
 40
1.832595714594046
  0
TABLESTYLE
  5
9865
102
{ACAD_XDICTIONARY
360
989D
102
}
102
{ACAD_REACTORS
330
9864
102
}
330
9864
100
AcDbTableStyle
  3
Standard
 70
     0
 71
     0
 40
0.06
 41
0.06
280
     0
281
     0
  7
STANDARD
140
0.18
170
     2
 62
     0
 63
     7
283
     0
274
    -2
284
     1
 64
     0
275
    -2
285
     1
 65
     0
276
    -2
286
     1
 66
     0
277
    -2
287
     1
 67
     0
278
    -2
288
     1
 68
     0
279
    -2
289
     1
 69
     0
  7
STANDARD
140
0.25
170
     5
 62
     0
 63
     7
283
     0
274
    -2
284
     1
 64
     0
275
    -2
285
     1
 65
     0
276
    -2
286
     1
 66
     0
277
    -2
287
     1
 67
     0
278
    -2
288
     1
 68
     0
279
    -2
289
     1
 69
     0
  7
STANDARD
140
0.18
170
     5
 62
     0
 63
     7
283
     0
274
    -2
284
     1
 64
     0
275
    -2
285
     1
 65
     0
276
    -2
286
     1
 66
     0
277
    -2
287
     1
 67
     0
278
    -2
288
     1
 68
     0
279
    -2
289
     1
 69
     0
  0
VISUALSTYLE
  5
9850
102
{ACAD_XDICTIONARY
360
98AE
102
}
102
{ACAD_REACTORS
330
984A
102
}
330
984A
100
AcDbVisualStyle
  2
2dWireframe
 70
     4
 71
     0
 72
     2
 73
     0
 90
        0
 40
-0.6
 41
-30.0
 62
     5
 63
     7
 74
     1
 91
        4
 64
     7
 65
   257
 75
     1
175
     1
 42
1.0
 92
        0
 66
   257
 43
1.0
 76
     1
 77
     6
 78
     2
 67
     7
 79
     5
170
     0
171
     0
290
     0
174
     0
 93
        1
 44
0.0
173
     0
291
     0
 45
0.0
1001
ACAD
1000
AcDbSavedByObjectVersion
1070
     0
  0
VISUALSTYLE
  5
984F
102
{ACAD_XDICTIONARY
360
98AC
102
}
102
{ACAD_REACTORS
330
984A
102
}
330
984A
100
AcDbVisualStyle
  2
Basic
 70
     7
 71
     1
 72
     0
 73
     1
 90
        0
 40
-0.6
 41
-30.0
 62
     5
 63
     7
 74
     0
 91
        4
 64
     7
 65
   257
 75
     1
175
     1
 42
1.0
 92
        8
 66
     7
 43
1.0
 76
     1
 77
     6
 78
     2
 67
     7
 79
     5
170
     0
171
     0
290
     0
174
     0
 93
        1
 44
0.0
173
     0
291
     1
 45
0.0
1001
ACAD
1000
AcDbSavedByObjectVersion
1070
     0
  0
VISUALSTYLE
  5
9856
102
{ACAD_XDICTIONARY
360
98BA
102
}
102
{ACAD_REACTORS
330
984A
102
}
330
984A
100
AcDbVisualStyle
  2
Brighten
 70
    12
 71
     2
 72
     2
 73
     0
 90
        0
 40
-0.6
 41
-30.0
 62
     5
 63
     7
 74
     1
 91
        4
 64
     7
 65
   257
 75
     1
175
     1
 42
1.0
 92
        8
 66
     7
 43
1.0
 76
     1
 77
     6
 78
     2
 67
     7
 79
     5
170
     0
171
     0
290
     0
174
     0
 93
        1
 44
50.0
173
     0
291
     1
 45
0.0
1001
ACAD
1000
AcDbSavedByObjectVersion
1070
     0
  0
VISUALSTYLE
  5
985A
102
{ACAD_XDICTIONARY
360
98C2
102
}
102
{ACAD_REACTORS
330
984A
102
}
330
984A
100
AcDbVisualStyle
  2
ColorChange
 70
    16
 71
     2
 72
     2
 73
     3
 90
        0
 40
-0.6
 41
-30.0
 62
     5
 63
     8
 74
     1
 91
        4
 64
     7
 65
   257
 75
     1
175
     1
 42
1.0
 92
        8
 66
     8
 43
1.0
 76
     1
 77
     6
 78
     2
 67
     7
 79
     5
170
     0
171
     0
290
     0
174
     0
 93
        1
 44
0.0
173
     0
291
     1
 45
0.0
1001
ACAD
1000
AcDbSavedByObjectVersion
1070
     0
  0
VISUALSTYLE
  5
9853
102
{ACAD_XDICTIONARY
360
98B4
102
}
102
{ACAD_REACTORS
330
984A
102
}
330
984A
100
AcDbVisualStyle
  2
Conceptual
 70
     9
 71
     3
 72
     2
 73
     0
 90
        0
 40
-0.6
 41
-30.0
 62
     5
 63
     7
 74
     2
 91
        2
 64
     7
 65
   257
 75
     1
175
     1
 42
179.0
 92
        8
 66
     7
 43
1.0
 76
     1
 77
     6
 78
     2
 67
     7
 79
     3
170
     0
171
     0
290
     0
174
     0
 93
        1
 44
0.0
173
     0
291
     0
 45
0.0
1001
ACAD
1000
AcDbSavedByObjectVersion
1070
     0
  0
VISUALSTYLE
  5
9855
102
{ACAD_XDICTIONARY
360
98B8
102
}
102
{ACAD_REACTORS
330
984A
102
}
330
984A
100
AcDbVisualStyle
  2
Dim
 70
    11
 71
     2
 72
     2
 73
     0
 90
        0
 40
-0.6
 41
-30.0
 62
     5
 63
     7
 74
     1
 91
        4
 64
     7
 65
   257
 75
     1
175
     1
 42
1.0
 92
        8
 66
     7
 43
1.0
 76
     1
 77
     6
 78
     2
 67
     7
 79
     5
170
     0
171
     0
290
     0
174
     0
 93
        1
 44
-50.0
173
     0
291
     1
 45
0.0
1001
ACAD
1000
AcDbSavedByObjectVersion
1070
     0
  0
VISUALSTYLE
  5
9862
102
{ACAD_XDICTIONARY
360
98D2
102
}
102
{ACAD_REACTORS
330
984A
102
}
330
984A
100
AcDbVisualStyle
  2
EdgeColorOff
 70
    22
 71
     2
 72
     2
 73
     0
 90
        0
 40
-0.6
 41
-30.0
 62
     5
 63
     7
 74
     1
 91
        4
 64
     7
 65
   257
 75
     1
175
     1
 42
1.0
 92
        8
 66
     7
 43
1.0
 76
     1
 77
     6
 78
     2
 67
     7
 79
     5
170
     0
171
     0
290
     0
174
     0
 93
        1
 44
0.0
173
     0
291
     1
 45
0.0
1001
ACAD
1000
AcDbSavedByObjectVersion
1070
     0
  0
VISUALSTYLE
  5
9859
102
{ACAD_XDICTIONARY
360
98C0
102
}
102
{ACAD_REACTORS
330
984A
102
}
330
984A
100
AcDbVisualStyle
  2
Facepattern
 70
    15
 71
     2
 72
     2
 73
     0
 90
        0
 40
-0.6
 41
-30.0
 62
     5
 63
     7
 74
     1
 91
        4
 64
     7
 65
   257
 75
     1
175
     1
 42
1.0
 92
        8
 66
     7
 43
1.0
 76
     1
 77
     6
 78
     2
 67
     7
 79
     5
170
     0
171
     0
290
     0
174
     0
 93
        1
 44
0.0
173
     0
291
     1
 45
0.0
1001
ACAD
1000
AcDbSavedByObjectVersion
1070
     0
  0
VISUALSTYLE
  5
984B
102
{ACAD_XDICTIONARY
360
98A4
102
}
102
{ACAD_REACTORS
330
984A
102
}
330
984A
100
AcDbVisualStyle
  2
Flat
 70
     0
 71
     2
 72
     1
 73
     1
 90
        2
 40
-0.6
 41
30.0
 62
     5
 63
     7
 74
     0
 91
        0
 64
     7
 65
   257
 75
     1
175
     1
 42
1.0
 92
        8
 66
     7
 43
1.0
 76
     1
 77
     6
 78
     2
 67
     7
 79
     5
170
     0
171
     0
290
     0
174
     0
 93
       13
 44
0.0
173
     0
291
     1
 45
0.0
1001
ACAD
1000
AcDbSavedByObjectVersion
1070
     0
  0
VISUALSTYLE
  5
984C
102
{ACAD_XDICTIONARY
360
98A6
102
}
102
{ACAD_REACTORS
330
984A
102
}
330
984A
100
AcDbVisualStyle
  2
FlatWithEdges
 70
     1
 71
     2
 72
     1
 73
     1
 90
        2
 40
-0.6
 41
30.0
 62
     5
 63
     7
 74
     1
 91
        0
 64
     7
 65
   257
 75
     1
175
     1
 42
1.0
 92
        0
 66
   257
 43
1.0
 76
     1
 77
     6
 78
     2
 67
     7
 79
     5
170
     0
171
     0
290
     0
174
     0
 93
       13
 44
0.0
173
     0
291
     1
 45
0.0
1001
ACAD
1000
AcDbSavedByObjectVersion
1070
     0
  0
VISUALSTYLE
  5
984D
102
{ACAD_XDICTIONARY
360
98A8
102
}
102
{ACAD_REACTORS
330
984A
102
}
330
984A
100
AcDbVisualStyle
  2
Gouraud
 70
     2
 71
     2
 72
     2
 73
     1
 90
        2
 40
-0.6
 41
30.0
 62
     5
 63
     7
 74
     0
 91
        0
 64
     7
 65
   257
 75
     1
175
     1
 42
1.0
 92
        0
 66
     7
 43
1.0
 76
     1
 77
     6
 78
     2
 67
     7
 79
     5
170
     0
171
     0
290
     0
174
     0
 93
       13
 44
0.0
173
     0
291
     1
 45
0.0
1001
ACAD
1000
AcDbSavedByObjectVersion
1070
     0
  0
VISUALSTYLE
  5
984E
102
{ACAD_XDICTIONARY
360
98AA
102
}
102
{ACAD_REACTORS
330
984A
102
}
330
984A
100
AcDbVisualStyle
  2
GouraudWithEdges
 70
     3
 71
     2
 72
     2
 73
     1
 90
        2
 40
-0.6
 41
30.0
 62
     5
 63
     7
 74
     1
 91
        0
 64
     7
 65
   257
 75
     1
175
     1
 42
1.0
 92
        0
 66
   257
 43
1.0
 76
     1
 77
     6
 78
     2
 67
     7
 79
     5
170
     0
171
     0
290
     0
174
     0
 93
       13
 44
0.0
173
     0
291
     1
 45
0.0
1001
ACAD
1000
AcDbSavedByObjectVersion
1070
     0
  0
VISUALSTYLE
  5
9852
102
{ACAD_XDICTIONARY
360
98B2
102
}
102
{ACAD_REACTORS
330
984A
102
}
330
984A
100
AcDbVisualStyle
  2
Hidden
 70
     6
 71
     1
 72
     2
 73
     2
 90
        0
 40
-0.6
 41
-30.0
 62
     5
 63
     7
 74
     2
 91
        2
 64
     7
 65
   257
 75
     2
175
     1
 42
40.0
 92
        0
 66
   257
 43
1.0
 76
     1
 77
     6
 78
     2
 67
     7
 79
     3
170
     0
171
     0
290
     0
174
     0
 93
        1
 44
0.0
173
     0
291
     0
 45
0.0
1001
ACAD
1000
AcDbSavedByObjectVersion
1070
     0
  0
VISUALSTYLE
  5
9860
102
{ACAD_XDICTIONARY
360
98CE
102
}
102
{ACAD_REACTORS
330
984A
102
}
330
984A
100
AcDbVisualStyle
  2
JitterOff
 70
    20
 71
     2
 72
     2
 73
     0
 90
        0
 40
-0.6
 41
-30.0
 62
     5
 63
     7
 74
     1
 91
        4
 64
     7
 65
   257
 75
     1
175
     1
 42
1.0
 92
       10
 66
     7
 43
1.0
 76
     1
 77
     6
 78
     2
 67
     7
 79
     5
170
     0
171
     0
290
     0
174
     0
 93
        1
 44
0.0
173
     0
291
     1
 45
0.0
1001
ACAD
1000
AcDbSavedByObjectVersion
1070
     0
  0
VISUALSTYLE
  5
9858
102
{ACAD_XDICTIONARY
360
98BE
102
}
102
{ACAD_REACTORS
330
984A
102
}
330
984A
100
AcDbVisualStyle
  2
Linepattern
 70
    14
 71
     2
 72
     2
 73
     0
 90
        0
 40
-0.6
 41
-30.0
 62
     5
 63
     7
 74
     1
 91
        4
 64
     7
 65
   257
 75
     7
175
     7
 42
1.0
 92
        8
 66
     7
 43
1.0
 76
     1
 77
     6
 78
     2
 67
     7
 79
     5
170
     0
171
     0
290
     0
174
     0
 93
        1
 44
0.0
173
     0
291
     1
 45
0.0
1001
ACAD
1000
AcDbSavedByObjectVersion
1070
     0
  0
VISUALSTYLE
  5
9861
102
{ACAD_XDICTIONARY
360
98D0
102
}
102
{ACAD_REACTORS
330
984A
102
}
330
984A
100
AcDbVisualStyle
  2
OverhangOff
 70
    21
 71
     2
 72
     2
 73
     0
 90
        0
 40
-0.6
 41
-30.0
 62
     5
 63
     7
 74
     1
 91
        4
 64
     7
 65
   257
 75
     1
175
     1
 42
1.0
 92
        9
 66
     7
 43
1.0
 76
     1
 77
     6
 78
     2
 67
     7
 79
     5
170
     0
171
     0
290
     0
174
     0
 93
        1
 44
0.0
173
     0
291
     1
 45
0.0
1001
ACAD
1000
AcDbSavedByObjectVersion
1070
     0
  0
VISUALSTYLE
  5
9854
102
{ACAD_XDICTIONARY
360
98B6
102
}
102
{ACAD_REACTORS
330
984A
102
}
330
984A
100
AcDbVisualStyle
  2
Realistic
 70
     8
 71
     2
 72
     3
 73
     0
 90
        2
 40
-0.6
 41
30.0
 62
     5
 63
     7
 74
     0
 91
        0
 64
     7
 65
   257
 75
     1
175
     1
 42
1.0
 92
        8
 66
   257
 43
1.0
 76
     1
 77
     6
 78
     2
 67
     7
 79
     3
170
     0
171
     0
290
     0
174
     0
 93
       13
 44
0.0
173
     0
291
     0
 45
0.0
1001
ACAD
1000
AcDbSavedByObjectVersion
1070
     0
  0
VISUALSTYLE
  5
985F
102
{ACAD_XDICTIONARY
360
98CC
102
}
102
{ACAD_REACTORS
330
984A
102
}
330
984A
100
AcDbVisualStyle
  2
Shaded
 70
    27
 71
     2
 72
     2
 73
     1
 90
        2
 40
-0.6
 41
30.0
 62
     5
 63
     7
 74
     0
 91
        4
 64
     7
 65
   257
 75
     1
175
     1
 42
1.0
 92
        8
 66
   257
 43
1.0
 76
     1
 77
     6
 78
     2
 67
     8
 79
     3
170
     0
171
     0
290
     0
174
     0
 93
        5
 44
0.0
173
     0
291
     0
 45
0.0
1001
ACAD
1000
AcDbSavedByObjectVersion
1070
     0
  0
VISUALSTYLE
  5
985E
102
{ACAD_XDICTIONARY
360
98CA
102
}
102
{ACAD_REACTORS
330
984A
102
}
330
984A
100
AcDbVisualStyle
  2
Shaded with edges
 70
    26
 71
     2
 72
     2
 73
     1
 90
        2
 40
-0.6
 41
30.0
 62
     5
 63
     7
 74
     1
 91
       10
 64
     7
 65
   257
 75
     2
175
     1
 42
1.0
 92
        8
 66
   257
 43
1.0
 76
     1
 77
     6
 78
     2
 67
     7
 79
     3
170
     0
171
     0
290
     0
174
     0
 93
        5
 44
0.0
173
     0
291
     0
 45
0.0
1001
ACAD
1000
AcDbSavedByObjectVersion
1070
     0
  0
VISUALSTYLE
  5
985B
102
{ACAD_XDICTIONARY
360
98C4
102
}
102
{ACAD_REACTORS
330
984A
102
}
330
984A
100
AcDbVisualStyle
  2
Shades of Gray
 70
    23
 71
     2
 72
     2
 73
     3
 90
        0
 40
-0.6
 41
-30.0
 62
     5
 63
     7
 74
     2
 91
        2
 64
     7
 65
     7
 75
     1
175
     1
 42
40.0
 92
        8
 66
     7
 43
1.0
 76
     1
 77
     6
 78
     2
 67
     7
 79
     3
170
     0
171
     0
290
     0
174
     0
 93
        1
 44
0.0
173
     0
291
     0
 45
0.0
1001
ACAD
1000
AcDbSavedByObjectVersion
1070
     0
  0
VISUALSTYLE
  5
985C
102
{ACAD_XDICTIONARY
360
98C6
102
}
102
{ACAD_REACTORS
330
984A
102
}
330
984A
100
AcDbVisualStyle
  2
Sketchy
 70
    24
 71
     1
 72
     2
 73
     2
 90
        0
 40
-0.6
 41
-30.0
 62
     5
 63
     7
 74
     2
 91
        2
 64
     7
 65
     7
 75
     1
175
     1
 42
40.0
 92
       11
 66
     7
 43
1.0
 76
     1
 77
     6
 78
     2
 67
     7
 79
     6
170
     0
171
     0
290
     0
174
     0
 93
        1
 44
0.0
173
     0
291
     0
 45
0.0
1001
ACAD
1000
AcDbSavedByObjectVersion
1070
     0
  0
VISUALSTYLE
  5
9857
102
{ACAD_XDICTIONARY
360
98BC
102
}
102
{ACAD_REACTORS
330
984A
102
}
330
984A
100
AcDbVisualStyle
  2
Thicken
 70
    13
 71
     2
 72
     2
 73
     0
 90
        0
 40
-0.6
 41
-30.0
 62
     5
 63
     7
 74
     1
 91
        4
 64
     7
 65
   257
 75
     1
175
     1
 42
1.0
 92
       12
 66
     7
 43
1.0
 76
     1
 77
     6
 78
     2
 67
     7
 79
     5
170
     0
171
     0
290
     0
174
     0
 93
        1
 44
0.0
173
     0
291
     1
 45
0.0
1001
ACAD
1000
AcDbSavedByObjectVersion
1070
     0
  0
VISUALSTYLE
  5
9851
102
{ACAD_XDICTIONARY
360
98B0
102
}
102
{ACAD_REACTORS
330
984A
102
}
330
984A
100
AcDbVisualStyle
  2
Wireframe
 70
     5
 71
     0
 72
     2
 73
     0
 90
        0
 40
-0.6
 41
-30.0
 62
     5
 63
     7
 74
     1
 91
        4
 64
     7
 65
   257
 75
     1
175
     1
 42
1.0
 92
        0
 66
   257
 43
1.0
 76
     1
 77
     6
 78
     2
 67
     7
 79
     3
170
     0
171
     0
290
     0
174
     0
 93
        1
 44
0.0
173
     0
291
     0
 45
0.0
1001
ACAD
1000
AcDbSavedByObjectVersion
1070
     0
  0
VISUALSTYLE
  5
985D
102
{ACAD_XDICTIONARY
360
98C8
102
}
102
{ACAD_REACTORS
330
984A
102
}
330
984A
100
AcDbVisualStyle
  2
X-Ray
 70
    25
 71
     2
 72
     2
 73
     1
 90
        1
 40
0.5
 41
-30.0
 62
     5
 63
     7
 74
     1
 91
        0
 64
     7
 65
   257
 75
     1
175
     1
 42
1.0
 92
        8
 66
     7
 43
1.0
 76
     1
 77
     6
 78
     2
 67
     7
 79
     3
170
     0
171
     0
290
     0
174
     0
 93
       13
 44
0.0
173
     0
291
     0
 45
0.0
1001
ACAD
1000
AcDbSavedByObjectVersion
1070
     0
  0
DICTIONARYVAR
  5
9897
102
{ACAD_REACTORS
330
9892
102
}
330
9892
100
DictionaryVariables
280
     0
  1
1:1
  0
DICTIONARYVAR
  5
9894
102
{ACAD_REACTORS
330
9892
102
}
330
9892
100
DictionaryVariables
280
     0
  1
STANDARD
  0
DICTIONARYVAR
  5
9893
102
{ACAD_REACTORS
330
9892
102
}
330
9892
100
DictionaryVariables
280
     0
  1
STANDARD
  0
DICTIONARYVAR
  5
9895
102
{ACAD_REACTORS
330
9892
102
}
330
9892
100
DictionaryVariables
280
     0
  1
Imperial24
  0
DICTIONARYVAR
  5
9896
102
{ACAD_REACTORS
330
9892
102
}
330
9892
100
DictionaryVariables
280
     0
  1
Imperial24
  0
DICTIONARYVAR
  5
989A
102
{ACAD_REACTORS
330
9892
102
}
330
9892
100
DictionaryVariables
280
     0
  1
1
  0
DICTIONARYVAR
  5
9899
102
{ACAD_REACTORS
330
9892
102
}
330
9892
100
DictionaryVariables
280
     0
  1
0
  0
DICTIONARYVAR
  5
9898
102
{ACAD_REACTORS
330
9892
102
}
330
9892
100
DictionaryVariables
280
     0
  1
127
  0
DICTIONARYVAR
  5
989B
102
{ACAD_REACTORS
330
9892
102
}
330
9892
100
DictionaryVariables
280
     0
  1
2
  0
DICTIONARY
  5
98D8
330
987D
100
AcDbDictionary
280
     1
281
     1
  3
ACAD_XREC_ROUNDTRIP
360
98D9
  0
DICTIONARY
  5
98DA
330
987E
100
AcDbDictionary
280
     1
281
     1
  3
ACAD_XREC_ROUNDTRIP
360
98DB
  0
DICTIONARY
  5
98DC
330
987F
100
AcDbDictionary
280
     1
281
     1
  3
ACAD_XREC_ROUNDTRIP
360
98DD
  0
DICTIONARY
  5
983B
330
983A
100
AcDbDictionary
280
     1
281
     1
  3
ACAD_XREC_ROUNDTRIP
360
98A2
  3
BUMPTILE
360
983D
  3
DIFFUSETILE
360
983C
  3
OPACITYTILE
360
9840
  3
REFLECTIONTILE
360
983F
  3
REFRACTIONTILE
360
9841
  3
SPECULARTILE
360
983E
  0
DICTIONARY
  5
9833
330
9832
100
AcDbDictionary
280
     1
281
     1
  3
ACAD_XREC_ROUNDTRIP
360
98A1
  3
BUMPTILE
360
9835
  3
DIFFUSETILE
360
9834
  3
OPACITYTILE
360
9838
  3
REFLECTIONTILE
360
9837
  3
REFRACTIONTILE
360
9839
  3
SPECULARTILE
360
9836
  0
DICTIONARY
  5
9843
330
9842
100
AcDbDictionary
280
     1
281
     1
  3
ACAD_XREC_ROUNDTRIP
360
98A3
  3
BUMPTILE
360
9845
  3
DIFFUSETILE
360
9844
  3
OPACITYTILE
360
9848
  3
REFLECTIONTILE
360
9847
  3
REFRACTIONTILE
360
9849
  3
SPECULARTILE
360
9846
  0
DICTIONARY
  5
98D6
330
987B
100
AcDbDictionary
280
     1
281
     1
  3
ACAD_XREC_ROUNDTRIP
360
98D7
  0
DICTIONARY
  5
989D
330
9865
100
AcDbDictionary
280
     1
281
     1
  3
ACAD_ROUNDTRIP_2008_TABLESTYLE_CELLSTYLEMAP
360
989E
  3
ACAD_XREC_ROUNDTRIP
360
98D4
  0
DICTIONARY
  5
98AE
330
9850
100
AcDbDictionary
280
     1
281
     1
  3
ACAD_XREC_ROUNDTRIP
360
98AF
  0
DICTIONARY
  5
98AC
330
984F
100
AcDbDictionary
280
     1
281
     1
  3
ACAD_XREC_ROUNDTRIP
360
98AD
  0
DICTIONARY
  5
98BA
330
9856
100
AcDbDictionary
280
     1
281
     1
  3
ACAD_XREC_ROUNDTRIP
360
98BB
  0
DICTIONARY
  5
98C2
330
985A
100
AcDbDictionary
280
     1
281
     1
  3
ACAD_XREC_ROUNDTRIP
360
98C3
  0
DICTIONARY
  5
98B4
330
9853
100
AcDbDictionary
280
     1
281
     1
  3
ACAD_XREC_ROUNDTRIP
360
98B5
  0
DICTIONARY
  5
98B8
330
9855
100
AcDbDictionary
280
     1
281
     1
  3
ACAD_XREC_ROUNDTRIP
360
98B9
  0
DICTIONARY
  5
98D2
330
9862
100
AcDbDictionary
280
     1
281
     1
  3
ACAD_XREC_ROUNDTRIP
360
98D3
  0
DICTIONARY
  5
98C0
330
9859
100
AcDbDictionary
280
     1
281
     1
  3
ACAD_XREC_ROUNDTRIP
360
98C1
  0
DICTIONARY
  5
98A4
330
984B
100
AcDbDictionary
280
     1
281
     1
  3
ACAD_XREC_ROUNDTRIP
360
98A5
  0
DICTIONARY
  5
98A6
330
984C
100
AcDbDictionary
280
     1
281
     1
  3
ACAD_XREC_ROUNDTRIP
360
98A7
  0
DICTIONARY
  5
98A8
330
984D
100
AcDbDictionary
280
     1
281
     1
  3
ACAD_XREC_ROUNDTRIP
360
98A9
  0
DICTIONARY
  5
98AA
330
984E
100
AcDbDictionary
280
     1
281
     1
  3
ACAD_XREC_ROUNDTRIP
360
98AB
  0
DICTIONARY
  5
98B2
330
9852
100
AcDbDictionary
280
     1
281
     1
  3
ACAD_XREC_ROUNDTRIP
360
98B3
  0
DICTIONARY
  5
98CE
330
9860
100
AcDbDictionary
280
     1
281
     1
  3
ACAD_XREC_ROUNDTRIP
360
98CF
  0
DICTIONARY
  5
98BE
330
9858
100
AcDbDictionary
280
     1
281
     1
  3
ACAD_XREC_ROUNDTRIP
360
98BF
  0
DICTIONARY
  5
98D0
330
9861
100
AcDbDictionary
280
     1
281
     1
  3
ACAD_XREC_ROUNDTRIP
360
98D1
  0
DICTIONARY
  5
98B6
330
9854
100
AcDbDictionary
280
     1
281
     1
  3
ACAD_XREC_ROUNDTRIP
360
98B7
  0
DICTIONARY
  5
98CC
330
985F
100
AcDbDictionary
280
     1
281
     1
  3
ACAD_XREC_ROUNDTRIP
360
98CD
  0
DICTIONARY
  5
98CA
330
985E
100
AcDbDictionary
280
     1
281
     1
  3
ACAD_XREC_ROUNDTRIP
360
98CB
  0
DICTIONARY
  5
98C4
330
985B
100
AcDbDictionary
280
     1
281
     1
  3
ACAD_XREC_ROUNDTRIP
360
98C5
  0
DICTIONARY
  5
98C6
330
985C
100
AcDbDictionary
280
     1
281
     1
  3
ACAD_XREC_ROUNDTRIP
360
98C7
  0
DICTIONARY
  5
98BC
330
9857
100
AcDbDictionary
280
     1
281
     1
  3
ACAD_XREC_ROUNDTRIP
360
98BD
  0
DICTIONARY
  5
98B0
330
9851
100
AcDbDictionary
280
     1
281
     1
  3
ACAD_XREC_ROUNDTRIP
360
98B1
  0
DICTIONARY
  5
98C8
330
985D
100
AcDbDictionary
280
     1
281
     1
  3
ACAD_XREC_ROUNDTRIP
360
98C9
  0
XRECORD
  5
98D9
102
{ACAD_REACTORS
330
98D8
102
}
330
98D8
100
AcDbXrecord
280
     1
102
DISPLAYNAME
  1
Imperial24
102
FLAGS
 90
        0
  0
XRECORD
  5
98DB
102
{ACAD_REACTORS
330
98DA
102
}
330
98DA
100
AcDbXrecord
280
     1
102
SHADEPLOT
 70
     0
102
SHADEPLOTRESLEVEL
 70
     2
102
SHADEPLOTCUSTOMDPI
 70
   300
  0
XRECORD
  5
98DD
102
{ACAD_REACTORS
330
98DC
102
}
330
98DC
100
AcDbXrecord
280
     1
102
SHADEPLOT
 70
     0
102
SHADEPLOTRESLEVEL
 70
     2
102
SHADEPLOTCUSTOMDPI
 70
   300
  0
XRECORD
  5
98A2
102
{ACAD_REACTORS
330
983B
102
}
330
983B
100
AcDbXrecord
280
     1
102
MATERIAL
148
0.0
149
0.0
149
0.0
 93
        0
 94
      127
282
     0
 72
     0
 77
     0
171
     0
175
     0
179
     0
273
     0
  0
XRECORD
  5
983D
102
{ACAD_REACTORS
330
983B
102
}
330
983B
100
AcDbXrecord
280
     1
270
     1
271
     1
  0
XRECORD
  5
983C
102
{ACAD_REACTORS
330
983B
102
}
330
983B
100
AcDbXrecord
280
     1
270
     1
271
     1
  0
XRECORD
  5
9840
102
{ACAD_REACTORS
330
983B
102
}
330
983B
100
AcDbXrecord
280
     1
270
     1
271
     1
  0
XRECORD
  5
983F
102
{ACAD_REACTORS
330
983B
102
}
330
983B
100
AcDbXrecord
280
     1
270
     1
271
     1
  0
XRECORD
  5
9841
102
{ACAD_REACTORS
330
983B
102
}
330
983B
100
AcDbXrecord
280
     1
270
     1
271
     1
  0
XRECORD
  5
983E
102
{ACAD_REACTORS
330
983B
102
}
330
983B
100
AcDbXrecord
280
     1
270
     1
271
     1
  0
XRECORD
  5
98A1
102
{ACAD_REACTORS
330
9833
102
}
330
9833
100
AcDbXrecord
280
     1
102
MATERIAL
148
0.0
149
0.0
149
0.0
 93
        0
 94
      127
282
     0
 72
     0
 77
     0
171
     0
175
     0
179
     0
273
     0
  0
XRECORD
  5
9835
102
{ACAD_REACTORS
330
9833
102
}
330
9833
100
AcDbXrecord
280
     1
270
     1
271
     1
  0
XRECORD
  5
9834
102
{ACAD_REACTORS
330
9833
102
}
330
9833
100
AcDbXrecord
280
     1
270
     1
271
     1
  0
XRECORD
  5
9838
102
{ACAD_REACTORS
330
9833
102
}
330
9833
100
AcDbXrecord
280
     1
270
     1
271
     1
  0
XRECORD
  5
9837
102
{ACAD_REACTORS
330
9833
102
}
330
9833
100
AcDbXrecord
280
     1
270
     1
271
     1
  0
XRECORD
  5
9839
102
{ACAD_REACTORS
330
9833
102
}
330
9833
100
AcDbXrecord
280
     1
270
     1
271
     1
  0
XRECORD
  5
9836
102
{ACAD_REACTORS
330
9833
102
}
330
9833
100
AcDbXrecord
280
     1
270
     1
271
     1
  0
XRECORD
  5
98A3
102
{ACAD_REACTORS
330
9843
102
}
330
9843
100
AcDbXrecord
280
     1
102
MATERIAL
148
0.0
149
0.0
149
0.0
 93
        0
 94
      127
282
     0
 72
     0
 77
     0
171
     0
175
     0
179
     0
273
     0
  0
XRECORD
  5
9845
102
{ACAD_REACTORS
330
9843
102
}
330
9843
100
AcDbXrecord
280
     1
270
     1
271
     1
  0
XRECORD
  5
9844
102
{ACAD_REACTORS
330
9843
102
}
330
9843
100
AcDbXrecord
280
     1
270
     1
271
     1
  0
XRECORD
  5
9848
102
{ACAD_REACTORS
330
9843
102
}
330
9843
100
AcDbXrecord
280
     1
270
     1
271
     1
  0
XRECORD
  5
9847
102
{ACAD_REACTORS
330
9843
102
}
330
9843
100
AcDbXrecord
280
     1
270
     1
271
     1
  0
XRECORD
  5
9849
102
{ACAD_REACTORS
330
9843
102
}
330
9843
100
AcDbXrecord
280
     1
270
     1
271
     1
  0
XRECORD
  5
9846
102
{ACAD_REACTORS
330
9843
102
}
330
9843
100
AcDbXrecord
280
     1
270
     1
271
     1
  0
XRECORD
  5
98D7
102
{ACAD_REACTORS
330
98D6
102
}
330
98D6
100
AcDbXrecord
280
     1
102
DISPLAYNAME
  1
Imperial24
102
FLAGS
 90
        0
  0
CELLSTYLEMAP
  5
989E
102
{ACAD_REACTORS
330
989D
102
}
330
989D
100
AcDbCellStyleMap
 90
        3
300
CELLSTYLE
  1
TABLEFORMAT_BEGIN
 90
        5
170
     1
 91
        0
 92
    32768
 62
   257
 93
        1
300
CONTENTFORMAT
  1
CONTENTFORMAT_BEGIN
 90
        0
 91
        0
 92
      512
 93
        0
300

 40
0.0
140
1.0
 94
        5
 62
     0
340
94F5
144
0.25
309
CONTENTFORMAT_END
171
     0
 94
        0
309
TABLEFORMAT_END
  1
CELLSTYLE_BEGIN
 90
        1
 91
        1
300
_TITLE
309
CELLSTYLE_END
300
CELLSTYLE
  1
TABLEFORMAT_BEGIN
 90
        5
170
     1
 91
        0
 92
        0
 62
   257
 93
        1
300
CONTENTFORMAT
  1
CONTENTFORMAT_BEGIN
 90
        0
 91
        0
 92
      512
 93
        0
300

 40
0.0
140
1.0
 94
        5
 62
     0
340
94F5
144
0.18
309
CONTENTFORMAT_END
171
     0
 94
        0
309
TABLEFORMAT_END
  1
CELLSTYLE_BEGIN
 90
        2
 91
        1
300
_HEADER
309
CELLSTYLE_END
300
CELLSTYLE
  1
TABLEFORMAT_BEGIN
 90
        5
170
     1
 91
        0
 92
        0
 62
   257
 93
        1
300
CONTENTFORMAT
  1
CONTENTFORMAT_BEGIN
 90
        0
 91
        0
 92
      512
 93
        0
300

 40
0.0
140
1.0
 94
        2
 62
     0
340
94F5
144
0.18
309
CONTENTFORMAT_END
171
     0
 94
        0
309
TABLEFORMAT_END
  1
CELLSTYLE_BEGIN
 90
        3
 91
        2
300
_DATA
309
CELLSTYLE_END
  0
XRECORD
  5
98D4
102
{ACAD_REACTORS
330
989D
102
}
330
989D
100
AcDbXrecord
280
     1
102
ACAD_ROUNDTRIP_PRE2007_TABLESTYLE
 90
      512
 91
        0
  1

 92
      512
 93
        0
  2

 94
      512
 95
        0
  3

  0
XRECORD
  5
98AF
102
{ACAD_REACTORS
330
98AE
102
}
330
98AE
100
AcDbXrecord
280
     1
102
RTVSPost2010Prop28
280
     1
102
RTVSPost2010PropOp28
 70
     1
102
RTVSPost2010Prop29
280
     1
102
RTVSPost2010PropOp29
 70
     1
102
RTVSPost2010Prop30
280
     0
102
RTVSPost2010PropOp30
 70
     1
102
RTVSPost2010Prop31
280
     0
102
RTVSPost2010PropOp31
 70
     1
102
RTVSPost2010Prop32
280
     0
102
RTVSPost2010PropOp32
 70
     1
102
RTVSPost2010Prop33
280
     0
102
RTVSPost2010PropOp33
 70
     1
102
RTVSPost2010Prop34
280
     0
102
RTVSPost2010PropOp34
 70
     1
102
RTVSPost2010Prop35
280
     0
102
RTVSPost2010PropOp35
 70
     1
102
RTVSPost2010Prop36
280
     0
102
RTVSPost2010PropOp36
 70
     1
102
RTVSPost2010Prop37
 90
       50
102
RTVSPost2010PropOp37
 70
     1
102
RTVSPost2010Prop38
140
0.0
102
RTVSPost2010PropOp38
 70
     1
102
RTVSPost2010Prop39
140
1.0
102
RTVSPost2010PropOp39
 70
     1
102
RTVSPost2010Prop40
 90
        0
102
RTVSPost2010PropOp40
 70
     1
102
RTVSPost2010Prop41ColorIndex
 90
       18
102
RTVSPost2010Prop41ColorRGB
 90
        0
102
RTVSPost2010PropOp41
 70
     1
102
RTVSPost2010Prop42
 90
       50
102
RTVSPost2010PropOp42
 70
     1
102
RTVSPost2010Prop43
 90
        3
102
RTVSPost2010PropOp43
 70
     1
102
RTVSPost2010Prop44ColorIndex
 90
        5
102
RTVSPost2010Prop44ColorRGB
 90
      255
102
RTVSPost2010PropOp44
 70
     1
102
RTVSPost2010Prop45
280
     0
102
RTVSPost2010PropOp45
 70
     1
102
RTVSPost2010Prop46
 90
       50
102
RTVSPost2010PropOp46
 70
     1
102
RTVSPost2010Prop47
 90
       50
102
RTVSPost2010PropOp47
 70
     1
102
RTVSPost2010Prop48
 90
       50
102
RTVSPost2010PropOp48
 70
     1
102
RTVSPost2010Prop49
280
     0
102
RTVSPost2010PropOp49
 70
     1
102
RTVSPost2010Prop50
 90
       50
102
RTVSPost2010PropOp50
 70
     1
102
RTVSPost2010Prop51ColorIndex
 90
      256
102
RTVSPost2010Prop51ColorRGB
 90
-16777216
102
RTVSPost2010PropOp51
 70
     0
102
RTVSPost2010Prop52
140
1.0
102
RTVSPost2010PropOp52
 70
     0
102
RTVSPost2010Prop53
 90
        2
102
RTVSPost2010PropOp53
 70
     1
102
RTVSPost2010Prop54
  1
strokes_ogs.tif
102
RTVSPost2010PropOp54
 70
     1
102
RTVSPost2010Prop55
280
     0
102
RTVSPost2010PropOp55
 70
     1
102
RTVSPost2010Prop56
140
1.0
102
RTVSPost2010PropOp56
 70
     1
102
RTVSPost2010Prop57
140
1.0
102
RTVSPost2010PropOp57
 70
     1
102
RTVSPropertyOp0
 70
     1
102
RTVSPropertyOp1
 70
     1
102
RTVSPropertyOp2
 70
     1
102
RTVSPropertyOp3
 70
     1
102
RTVSPropertyOp4
 70
     1
102
RTVSPropertyOp5
 70
     1
102
RTVSPropertyOp6
 70
     1
102
RTVSPropertyOp7
 70
     1
102
RTVSPropertyOp8
 70
     1
102
RTVSPropertyOp9
 70
     1
102
RTVSPropertyOp10
 70
     1
102
RTVSPropertyOp11
 70
     1
102
RTVSPropertyOp12
 70
     1
102
RTVSPropertyOp13
 70
     1
102
RTVSPropertyOp14
 70
     1
102
RTVSPropertyOp15
 70
     1
102
RTVSPropertyOp16
 70
     1
102
RTVSPropertyOp17
 70
     1
102
RTVSPropertyOp18
 70
     1
102
RTVSPropertyOp19
 70
     1
102
RTVSPropertyOp20
 70
     1
102
RTVSPropertyOp21
 70
     1
102
RTVSPropertyOp22
 70
     1
102
RTVSPropertyOp23
 70
     1
102
RTVSPropertyOp24
 70
     1
102
RTVSPropertyOp25
 70
     1
102
RTVSPropertyOp26
 70
     1
102
RTVSPropertyOp27
 70
     1
102
RTVSPropertyOp28
 70
     1
102
RTVSPropertyOp29
 70
     1
102
RTVSPropertyOp30
 70
     1
102
RTVSPropertyOp31
 70
     1
102
RTVSPropertyOp32
 70
     1
102
RTVSPropertyOp33
 70
     1
102
RTVSPropertyOp34
 70
     1
102
RTVSPropertyOp35
 70
     1
102
RTVSPropertyOp36
 70
     1
102
RTVSPropertyOp37
 70
     1
102
RTVSPropertyOp38
 70
     1
102
RTVSPropertyOp39
 70
     1
102
RTVSPropertyOp40
 70
     1
102
RTVSPropertyOp41
 70
     1
102
RTVSPropertyOp42
 70
     1
102
RTVSPropertyOp43
 70
     1
102
RTVSPropertyOp44
 70
     1
102
RTVSPropertyOp45
 70
     1
102
RTVSPropertyOp46
 70
     1
102
RTVSPropertyOp47
 70
     1
102
RTVSPropertyOp48
 70
     1
102
RTVSPropertyOp49
 70
     1
102
RTVSPropertyOp50
 70
     1
102
RTVSPropertyOp51
 70
     0
102
RTVSPropertyOp52
 70
     0
102
RTVSPropertyOp53
 70
     1
102
RTVSPropertyOp54
 70
     1
102
RTVSPropertyOp55
 70
     1
102
RTVSPropertyOp56
 70
     1
102
RTVSPropertyOp57
 70
     1
102
RTVSPropertyOp58
 70
     1
102
RTVSPropertyOp59
 70
     1
102
RTVSPropertyOp60
 70
     1
102
RTVSPropertyOp61
 70
     1
102
RTVSPropertyOp62
 70
     1
  0
XRECORD
  5
98AD
102
{ACAD_REACTORS
330
98AC
102
}
330
98AC
100
AcDbXrecord
280
     1
102
RTVSPost2010Prop28
280
     0
102
RTVSPost2010PropOp28
 70
     1
102
RTVSPost2010Prop29
280
     1
102
RTVSPost2010PropOp29
 70
     1
102
RTVSPost2010Prop30
280
     1
102
RTVSPost2010PropOp30
 70
     1
102
RTVSPost2010Prop31
280
     0
102
RTVSPost2010PropOp31
 70
     1
102
RTVSPost2010Prop32
280
     0
102
RTVSPost2010PropOp32
 70
     1
102
RTVSPost2010Prop33
280
     0
102
RTVSPost2010PropOp33
 70
     1
102
RTVSPost2010Prop34
280
     0
102
RTVSPost2010PropOp34
 70
     1
102
RTVSPost2010Prop35
280
     0
102
RTVSPost2010PropOp35
 70
     1
102
RTVSPost2010Prop36
280
     0
102
RTVSPost2010PropOp36
 70
     1
102
RTVSPost2010Prop37
 90
       50
102
RTVSPost2010PropOp37
 70
     1
102
RTVSPost2010Prop38
140
0.0
102
RTVSPost2010PropOp38
 70
     1
102
RTVSPost2010Prop39
140
1.0
102
RTVSPost2010PropOp39
 70
     1
102
RTVSPost2010Prop40
 90
        0
102
RTVSPost2010PropOp40
 70
     1
102
RTVSPost2010Prop41ColorIndex
 90
       18
102
RTVSPost2010Prop41ColorRGB
 90
        0
102
RTVSPost2010PropOp41
 70
     1
102
RTVSPost2010Prop42
 90
       50
102
RTVSPost2010PropOp42
 70
     1
102
RTVSPost2010Prop43
 90
        3
102
RTVSPost2010PropOp43
 70
     1
102
RTVSPost2010Prop44ColorIndex
 90
        5
102
RTVSPost2010Prop44ColorRGB
 90
      255
102
RTVSPost2010PropOp44
 70
     1
102
RTVSPost2010Prop45
280
     0
102
RTVSPost2010PropOp45
 70
     1
102
RTVSPost2010Prop46
 90
       50
102
RTVSPost2010PropOp46
 70
     1
102
RTVSPost2010Prop47
 90
       50
102
RTVSPost2010PropOp47
 70
     1
102
RTVSPost2010Prop48
 90
       50
102
RTVSPost2010PropOp48
 70
     1
102
RTVSPost2010Prop49
280
     0
102
RTVSPost2010PropOp49
 70
     1
102
RTVSPost2010Prop50
 90
       50
102
RTVSPost2010PropOp50
 70
     1
102
RTVSPost2010Prop51ColorIndex
 90
      256
102
RTVSPost2010Prop51ColorRGB
 90
-16777216
102
RTVSPost2010PropOp51
 70
     0
102
RTVSPost2010Prop52
140
1.0
102
RTVSPost2010PropOp52
 70
     0
102
RTVSPost2010Prop53
 90
        2
102
RTVSPost2010PropOp53
 70
     1
102
RTVSPost2010Prop54
  1
strokes_ogs.tif
102
RTVSPost2010PropOp54
 70
     1
102
RTVSPost2010Prop55
280
     0
102
RTVSPost2010PropOp55
 70
     1
102
RTVSPost2010Prop56
140
1.0
102
RTVSPost2010PropOp56
 70
     1
102
RTVSPost2010Prop57
140
1.0
102
RTVSPost2010PropOp57
 70
     1
102
RTVSPropertyOp0
 70
     1
102
RTVSPropertyOp1
 70
     1
102
RTVSPropertyOp2
 70
     1
102
RTVSPropertyOp3
 70
     1
102
RTVSPropertyOp4
 70
     1
102
RTVSPropertyOp5
 70
     1
102
RTVSPropertyOp6
 70
     1
102
RTVSPropertyOp7
 70
     1
102
RTVSPropertyOp8
 70
     1
102
RTVSPropertyOp9
 70
     1
102
RTVSPropertyOp10
 70
     1
102
RTVSPropertyOp11
 70
     1
102
RTVSPropertyOp12
 70
     1
102
RTVSPropertyOp13
 70
     1
102
RTVSPropertyOp14
 70
     1
102
RTVSPropertyOp15
 70
     1
102
RTVSPropertyOp16
 70
     1
102
RTVSPropertyOp17
 70
     1
102
RTVSPropertyOp18
 70
     1
102
RTVSPropertyOp19
 70
     1
102
RTVSPropertyOp20
 70
     1
102
RTVSPropertyOp21
 70
     1
102
RTVSPropertyOp22
 70
     1
102
RTVSPropertyOp23
 70
     1
102
RTVSPropertyOp24
 70
     1
102
RTVSPropertyOp25
 70
     1
102
RTVSPropertyOp26
 70
     1
102
RTVSPropertyOp27
 70
     1
102
RTVSPropertyOp28
 70
     1
102
RTVSPropertyOp29
 70
     1
102
RTVSPropertyOp30
 70
     1
102
RTVSPropertyOp31
 70
     1
102
RTVSPropertyOp32
 70
     1
102
RTVSPropertyOp33
 70
     1
102
RTVSPropertyOp34
 70
     1
102
RTVSPropertyOp35
 70
     1
102
RTVSPropertyOp36
 70
     1
102
RTVSPropertyOp37
 70
     1
102
RTVSPropertyOp38
 70
     1
102
RTVSPropertyOp39
 70
     1
102
RTVSPropertyOp40
 70
     1
102
RTVSPropertyOp41
 70
     1
102
RTVSPropertyOp42
 70
     1
102
RTVSPropertyOp43
 70
     1
102
RTVSPropertyOp44
 70
     1
102
RTVSPropertyOp45
 70
     1
102
RTVSPropertyOp46
 70
     1
102
RTVSPropertyOp47
 70
     1
102
RTVSPropertyOp48
 70
     1
102
RTVSPropertyOp49
 70
     1
102
RTVSPropertyOp50
 70
     1
102
RTVSPropertyOp51
 70
     0
102
RTVSPropertyOp52
 70
     0
102
RTVSPropertyOp53
 70
     1
102
RTVSPropertyOp54
 70
     1
102
RTVSPropertyOp55
 70
     1
102
RTVSPropertyOp56
 70
     1
102
RTVSPropertyOp57
 70
     1
102
RTVSPropertyOp58
 70
     1
102
RTVSPropertyOp59
 70
     1
102
RTVSPropertyOp60
 70
     1
102
RTVSPropertyOp61
 70
     1
102
RTVSPropertyOp62
 70
     1
  0
XRECORD
  5
98BB
102
{ACAD_REACTORS
330
98BA
102
}
330
98BA
100
AcDbXrecord
280
     1
102
RTVSPost2010Prop28
280
     0
102
RTVSPost2010PropOp28
 70
     1
102
RTVSPost2010Prop29
280
     1
102
RTVSPost2010PropOp29
 70
     1
102
RTVSPost2010Prop30
280
     1
102
RTVSPost2010PropOp30
 70
     1
102
RTVSPost2010Prop31
280
     0
102
RTVSPost2010PropOp31
 70
     1
102
RTVSPost2010Prop32
280
     0
102
RTVSPost2010PropOp32
 70
     1
102
RTVSPost2010Prop33
280
     0
102
RTVSPost2010PropOp33
 70
     1
102
RTVSPost2010Prop34
280
     0
102
RTVSPost2010PropOp34
 70
     1
102
RTVSPost2010Prop35
280
     0
102
RTVSPost2010PropOp35
 70
     1
102
RTVSPost2010Prop36
280
     0
102
RTVSPost2010PropOp36
 70
     1
102
RTVSPost2010Prop37
 90
       50
102
RTVSPost2010PropOp37
 70
     1
102
RTVSPost2010Prop38
140
0.0
102
RTVSPost2010PropOp38
 70
     1
102
RTVSPost2010Prop39
140
1.0
102
RTVSPost2010PropOp39
 70
     1
102
RTVSPost2010Prop40
 90
        0
102
RTVSPost2010PropOp40
 70
     1
102
RTVSPost2010Prop41ColorIndex
 90
       18
102
RTVSPost2010Prop41ColorRGB
 90
        0
102
RTVSPost2010PropOp41
 70
     1
102
RTVSPost2010Prop42
 90
       50
102
RTVSPost2010PropOp42
 70
     1
102
RTVSPost2010Prop43
 90
        3
102
RTVSPost2010PropOp43
 70
     1
102
RTVSPost2010Prop44ColorIndex
 90
        5
102
RTVSPost2010Prop44ColorRGB
 90
      255
102
RTVSPost2010PropOp44
 70
     1
102
RTVSPost2010Prop45
280
     0
102
RTVSPost2010PropOp45
 70
     1
102
RTVSPost2010Prop46
 90
       50
102
RTVSPost2010PropOp46
 70
     1
102
RTVSPost2010Prop47
 90
       50
102
RTVSPost2010PropOp47
 70
     1
102
RTVSPost2010Prop48
 90
       50
102
RTVSPost2010PropOp48
 70
     1
102
RTVSPost2010Prop49
280
     0
102
RTVSPost2010PropOp49
 70
     1
102
RTVSPost2010Prop50
 90
       50
102
RTVSPost2010PropOp50
 70
     1
102
RTVSPost2010Prop51ColorIndex
 90
      256
102
RTVSPost2010Prop51ColorRGB
 90
-16777216
102
RTVSPost2010PropOp51
 70
     0
102
RTVSPost2010Prop52
140
1.0
102
RTVSPost2010PropOp52
 70
     0
102
RTVSPost2010Prop53
 90
        2
102
RTVSPost2010PropOp53
 70
     1
102
RTVSPost2010Prop54
  1
strokes_ogs.tif
102
RTVSPost2010PropOp54
 70
     1
102
RTVSPost2010Prop55
280
     0
102
RTVSPost2010PropOp55
 70
     1
102
RTVSPost2010Prop56
140
1.0
102
RTVSPost2010PropOp56
 70
     1
102
RTVSPost2010Prop57
140
1.0
102
RTVSPost2010PropOp57
 70
     1
102
RTVSPropertyOp0
 70
     1
102
RTVSPropertyOp1
 70
     1
102
RTVSPropertyOp2
 70
     1
102
RTVSPropertyOp3
 70
     1
102
RTVSPropertyOp4
 70
     1
102
RTVSPropertyOp5
 70
     1
102
RTVSPropertyOp6
 70
     1
102
RTVSPropertyOp7
 70
     1
102
RTVSPropertyOp8
 70
     1
102
RTVSPropertyOp9
 70
     1
102
RTVSPropertyOp10
 70
     1
102
RTVSPropertyOp11
 70
     1
102
RTVSPropertyOp12
 70
     1
102
RTVSPropertyOp13
 70
     1
102
RTVSPropertyOp14
 70
     1
102
RTVSPropertyOp15
 70
     1
102
RTVSPropertyOp16
 70
     1
102
RTVSPropertyOp17
 70
     1
102
RTVSPropertyOp18
 70
     1
102
RTVSPropertyOp19
 70
     1
102
RTVSPropertyOp20
 70
     1
102
RTVSPropertyOp21
 70
     1
102
RTVSPropertyOp22
 70
     1
102
RTVSPropertyOp23
 70
     1
102
RTVSPropertyOp24
 70
     1
102
RTVSPropertyOp25
 70
     1
102
RTVSPropertyOp26
 70
     1
102
RTVSPropertyOp27
 70
     1
102
RTVSPropertyOp28
 70
     1
102
RTVSPropertyOp29
 70
     1
102
RTVSPropertyOp30
 70
     1
102
RTVSPropertyOp31
 70
     1
102
RTVSPropertyOp32
 70
     1
102
RTVSPropertyOp33
 70
     1
102
RTVSPropertyOp34
 70
     1
102
RTVSPropertyOp35
 70
     1
102
RTVSPropertyOp36
 70
     1
102
RTVSPropertyOp37
 70
     1
102
RTVSPropertyOp38
 70
     1
102
RTVSPropertyOp39
 70
     1
102
RTVSPropertyOp40
 70
     1
102
RTVSPropertyOp41
 70
     1
102
RTVSPropertyOp42
 70
     1
102
RTVSPropertyOp43
 70
     1
102
RTVSPropertyOp44
 70
     1
102
RTVSPropertyOp45
 70
     1
102
RTVSPropertyOp46
 70
     1
102
RTVSPropertyOp47
 70
     1
102
RTVSPropertyOp48
 70
     1
102
RTVSPropertyOp49
 70
     1
102
RTVSPropertyOp50
 70
     1
102
RTVSPropertyOp51
 70
     0
102
RTVSPropertyOp52
 70
     0
102
RTVSPropertyOp53
 70
     1
102
RTVSPropertyOp54
 70
     1
102
RTVSPropertyOp55
 70
     1
102
RTVSPropertyOp56
 70
     1
102
RTVSPropertyOp57
 70
     1
102
RTVSPropertyOp58
 70
     1
102
RTVSPropertyOp59
 70
     1
102
RTVSPropertyOp60
 70
     1
102
RTVSPropertyOp61
 70
     1
102
RTVSPropertyOp62
 70
     1
  0
XRECORD
  5
98C3
102
{ACAD_REACTORS
330
98C2
102
}
330
98C2
100
AcDbXrecord
280
     1
102
RTVSPost2010Prop28
280
     0
102
RTVSPost2010PropOp28
 70
     1
102
RTVSPost2010Prop29
280
     1
102
RTVSPost2010PropOp29
 70
     1
102
RTVSPost2010Prop30
280
     1
102
RTVSPost2010PropOp30
 70
     1
102
RTVSPost2010Prop31
280
     0
102
RTVSPost2010PropOp31
 70
     1
102
RTVSPost2010Prop32
280
     0
102
RTVSPost2010PropOp32
 70
     1
102
RTVSPost2010Prop33
280
     0
102
RTVSPost2010PropOp33
 70
     1
102
RTVSPost2010Prop34
280
     0
102
RTVSPost2010PropOp34
 70
     1
102
RTVSPost2010Prop35
280
     0
102
RTVSPost2010PropOp35
 70
     1
102
RTVSPost2010Prop36
280
     0
102
RTVSPost2010PropOp36
 70
     1
102
RTVSPost2010Prop37
 90
       50
102
RTVSPost2010PropOp37
 70
     1
102
RTVSPost2010Prop38
140
0.0
102
RTVSPost2010PropOp38
 70
     1
102
RTVSPost2010Prop39
140
1.0
102
RTVSPost2010PropOp39
 70
     1
102
RTVSPost2010Prop40
 90
        0
102
RTVSPost2010PropOp40
 70
     1
102
RTVSPost2010Prop41ColorIndex
 90
       18
102
RTVSPost2010Prop41ColorRGB
 90
        0
102
RTVSPost2010PropOp41
 70
     1
102
RTVSPost2010Prop42
 90
       50
102
RTVSPost2010PropOp42
 70
     1
102
RTVSPost2010Prop43
 90
        3
102
RTVSPost2010PropOp43
 70
     1
102
RTVSPost2010Prop44ColorIndex
 90
        5
102
RTVSPost2010Prop44ColorRGB
 90
      255
102
RTVSPost2010PropOp44
 70
     1
102
RTVSPost2010Prop45
280
     0
102
RTVSPost2010PropOp45
 70
     1
102
RTVSPost2010Prop46
 90
       50
102
RTVSPost2010PropOp46
 70
     1
102
RTVSPost2010Prop47
 90
       50
102
RTVSPost2010PropOp47
 70
     1
102
RTVSPost2010Prop48
 90
       50
102
RTVSPost2010PropOp48
 70
     1
102
RTVSPost2010Prop49
280
     0
102
RTVSPost2010PropOp49
 70
     1
102
RTVSPost2010Prop50
 90
       50
102
RTVSPost2010PropOp50
 70
     1
102
RTVSPost2010Prop51ColorIndex
 90
      256
102
RTVSPost2010Prop51ColorRGB
 90
-16777216
102
RTVSPost2010PropOp51
 70
     0
102
RTVSPost2010Prop52
140
1.0
102
RTVSPost2010PropOp52
 70
     0
102
RTVSPost2010Prop53
 90
        2
102
RTVSPost2010PropOp53
 70
     1
102
RTVSPost2010Prop54
  1
strokes_ogs.tif
102
RTVSPost2010PropOp54
 70
     1
102
RTVSPost2010Prop55
280
     0
102
RTVSPost2010PropOp55
 70
     1
102
RTVSPost2010Prop56
140
1.0
102
RTVSPost2010PropOp56
 70
     1
102
RTVSPost2010Prop57
140
1.0
102
RTVSPost2010PropOp57
 70
     1
102
RTVSPropertyOp0
 70
     1
102
RTVSPropertyOp1
 70
     1
102
RTVSPropertyOp2
 70
     1
102
RTVSPropertyOp3
 70
     1
102
RTVSPropertyOp4
 70
     1
102
RTVSPropertyOp5
 70
     1
102
RTVSPropertyOp6
 70
     1
102
RTVSPropertyOp7
 70
     1
102
RTVSPropertyOp8
 70
     1
102
RTVSPropertyOp9
 70
     1
102
RTVSPropertyOp10
 70
     1
102
RTVSPropertyOp11
 70
     1
102
RTVSPropertyOp12
 70
     1
102
RTVSPropertyOp13
 70
     1
102
RTVSPropertyOp14
 70
     1
102
RTVSPropertyOp15
 70
     1
102
RTVSPropertyOp16
 70
     1
102
RTVSPropertyOp17
 70
     1
102
RTVSPropertyOp18
 70
     1
102
RTVSPropertyOp19
 70
     1
102
RTVSPropertyOp20
 70
     1
102
RTVSPropertyOp21
 70
     1
102
RTVSPropertyOp22
 70
     1
102
RTVSPropertyOp23
 70
     1
102
RTVSPropertyOp24
 70
     1
102
RTVSPropertyOp25
 70
     1
102
RTVSPropertyOp26
 70
     1
102
RTVSPropertyOp27
 70
     1
102
RTVSPropertyOp28
 70
     1
102
RTVSPropertyOp29
 70
     1
102
RTVSPropertyOp30
 70
     1
102
RTVSPropertyOp31
 70
     1
102
RTVSPropertyOp32
 70
     1
102
RTVSPropertyOp33
 70
     1
102
RTVSPropertyOp34
 70
     1
102
RTVSPropertyOp35
 70
     1
102
RTVSPropertyOp36
 70
     1
102
RTVSPropertyOp37
 70
     1
102
RTVSPropertyOp38
 70
     1
102
RTVSPropertyOp39
 70
     1
102
RTVSPropertyOp40
 70
     1
102
RTVSPropertyOp41
 70
     1
102
RTVSPropertyOp42
 70
     1
102
RTVSPropertyOp43
 70
     1
102
RTVSPropertyOp44
 70
     1
102
RTVSPropertyOp45
 70
     1
102
RTVSPropertyOp46
 70
     1
102
RTVSPropertyOp47
 70
     1
102
RTVSPropertyOp48
 70
     1
102
RTVSPropertyOp49
 70
     1
102
RTVSPropertyOp50
 70
     1
102
RTVSPropertyOp51
 70
     0
102
RTVSPropertyOp52
 70
     0
102
RTVSPropertyOp53
 70
     1
102
RTVSPropertyOp54
 70
     1
102
RTVSPropertyOp55
 70
     1
102
RTVSPropertyOp56
 70
     1
102
RTVSPropertyOp57
 70
     1
102
RTVSPropertyOp58
 70
     1
102
RTVSPropertyOp59
 70
     1
102
RTVSPropertyOp60
 70
     1
102
RTVSPropertyOp61
 70
     1
102
RTVSPropertyOp62
 70
     1
  0
XRECORD
  5
98B5
102
{ACAD_REACTORS
330
98B4
102
}
330
98B4
100
AcDbXrecord
280
     1
102
RTVSPost2010Prop28
280
     0
102
RTVSPost2010PropOp28
 70
     1
102
RTVSPost2010Prop29
280
     1
102
RTVSPost2010PropOp29
 70
     1
102
RTVSPost2010Prop30
280
     1
102
RTVSPost2010PropOp30
 70
     1
102
RTVSPost2010Prop31
280
     0
102
RTVSPost2010PropOp31
 70
     1
102
RTVSPost2010Prop32
280
     0
102
RTVSPost2010PropOp32
 70
     1
102
RTVSPost2010Prop33
280
     0
102
RTVSPost2010PropOp33
 70
     1
102
RTVSPost2010Prop34
280
     0
102
RTVSPost2010PropOp34
 70
     1
102
RTVSPost2010Prop35
280
     0
102
RTVSPost2010PropOp35
 70
     1
102
RTVSPost2010Prop36
280
     0
102
RTVSPost2010PropOp36
 70
     1
102
RTVSPost2010Prop37
 90
       50
102
RTVSPost2010PropOp37
 70
     1
102
RTVSPost2010Prop38
140
0.0
102
RTVSPost2010PropOp38
 70
     1
102
RTVSPost2010Prop39
140
1.0
102
RTVSPost2010PropOp39
 70
     1
102
RTVSPost2010Prop40
 90
        0
102
RTVSPost2010PropOp40
 70
     1
102
RTVSPost2010Prop41ColorIndex
 90
       18
102
RTVSPost2010Prop41ColorRGB
 90
        0
102
RTVSPost2010PropOp41
 70
     1
102
RTVSPost2010Prop42
 90
       50
102
RTVSPost2010PropOp42
 70
     1
102
RTVSPost2010Prop43
 90
        3
102
RTVSPost2010PropOp43
 70
     1
102
RTVSPost2010Prop44ColorIndex
 90
        5
102
RTVSPost2010Prop44ColorRGB
 90
      255
102
RTVSPost2010PropOp44
 70
     1
102
RTVSPost2010Prop45
280
     0
102
RTVSPost2010PropOp45
 70
     1
102
RTVSPost2010Prop46
 90
       50
102
RTVSPost2010PropOp46
 70
     1
102
RTVSPost2010Prop47
 90
       50
102
RTVSPost2010PropOp47
 70
     1
102
RTVSPost2010Prop48
 90
       50
102
RTVSPost2010PropOp48
 70
     1
102
RTVSPost2010Prop49
280
     0
102
RTVSPost2010PropOp49
 70
     1
102
RTVSPost2010Prop50
 90
       50
102
RTVSPost2010PropOp50
 70
     1
102
RTVSPost2010Prop51ColorIndex
 90
      256
102
RTVSPost2010Prop51ColorRGB
 90
-16777216
102
RTVSPost2010PropOp51
 70
     0
102
RTVSPost2010Prop52
140
1.0
102
RTVSPost2010PropOp52
 70
     0
102
RTVSPost2010Prop53
 90
        2
102
RTVSPost2010PropOp53
 70
     1
102
RTVSPost2010Prop54
  1
strokes_ogs.tif
102
RTVSPost2010PropOp54
 70
     1
102
RTVSPost2010Prop55
280
     0
102
RTVSPost2010PropOp55
 70
     1
102
RTVSPost2010Prop56
140
1.0
102
RTVSPost2010PropOp56
 70
     1
102
RTVSPost2010Prop57
140
1.0
102
RTVSPost2010PropOp57
 70
     1
102
RTVSPropertyOp0
 70
     1
102
RTVSPropertyOp1
 70
     1
102
RTVSPropertyOp2
 70
     1
102
RTVSPropertyOp3
 70
     1
102
RTVSPropertyOp4
 70
     1
102
RTVSPropertyOp5
 70
     1
102
RTVSPropertyOp6
 70
     1
102
RTVSPropertyOp7
 70
     1
102
RTVSPropertyOp8
 70
     1
102
RTVSPropertyOp9
 70
     1
102
RTVSPropertyOp10
 70
     1
102
RTVSPropertyOp11
 70
     1
102
RTVSPropertyOp12
 70
     1
102
RTVSPropertyOp13
 70
     1
102
RTVSPropertyOp14
 70
     1
102
RTVSPropertyOp15
 70
     1
102
RTVSPropertyOp16
 70
     1
102
RTVSPropertyOp17
 70
     1
102
RTVSPropertyOp18
 70
     1
102
RTVSPropertyOp19
 70
     1
102
RTVSPropertyOp20
 70
     1
102
RTVSPropertyOp21
 70
     1
102
RTVSPropertyOp22
 70
     1
102
RTVSPropertyOp23
 70
     1
102
RTVSPropertyOp24
 70
     1
102
RTVSPropertyOp25
 70
     1
102
RTVSPropertyOp26
 70
     1
102
RTVSPropertyOp27
 70
     1
102
RTVSPropertyOp28
 70
     1
102
RTVSPropertyOp29
 70
     1
102
RTVSPropertyOp30
 70
     1
102
RTVSPropertyOp31
 70
     1
102
RTVSPropertyOp32
 70
     1
102
RTVSPropertyOp33
 70
     1
102
RTVSPropertyOp34
 70
     1
102
RTVSPropertyOp35
 70
     1
102
RTVSPropertyOp36
 70
     1
102
RTVSPropertyOp37
 70
     1
102
RTVSPropertyOp38
 70
     1
102
RTVSPropertyOp39
 70
     1
102
RTVSPropertyOp40
 70
     1
102
RTVSPropertyOp41
 70
     1
102
RTVSPropertyOp42
 70
     1
102
RTVSPropertyOp43
 70
     1
102
RTVSPropertyOp44
 70
     1
102
RTVSPropertyOp45
 70
     1
102
RTVSPropertyOp46
 70
     1
102
RTVSPropertyOp47
 70
     1
102
RTVSPropertyOp48
 70
     1
102
RTVSPropertyOp49
 70
     1
102
RTVSPropertyOp50
 70
     1
102
RTVSPropertyOp51
 70
     0
102
RTVSPropertyOp52
 70
     0
102
RTVSPropertyOp53
 70
     1
102
RTVSPropertyOp54
 70
     1
102
RTVSPropertyOp55
 70
     1
102
RTVSPropertyOp56
 70
     1
102
RTVSPropertyOp57
 70
     1
102
RTVSPropertyOp58
 70
     1
102
RTVSPropertyOp59
 70
     1
102
RTVSPropertyOp60
 70
     1
102
RTVSPropertyOp61
 70
     1
102
RTVSPropertyOp62
 70
     1
  0
XRECORD
  5
98B9
102
{ACAD_REACTORS
330
98B8
102
}
330
98B8
100
AcDbXrecord
280
     1
102
RTVSPost2010Prop28
280
     0
102
RTVSPost2010PropOp28
 70
     1
102
RTVSPost2010Prop29
280
     1
102
RTVSPost2010PropOp29
 70
     1
102
RTVSPost2010Prop30
280
     1
102
RTVSPost2010PropOp30
 70
     1
102
RTVSPost2010Prop31
280
     0
102
RTVSPost2010PropOp31
 70
     1
102
RTVSPost2010Prop32
280
     0
102
RTVSPost2010PropOp32
 70
     1
102
RTVSPost2010Prop33
280
     0
102
RTVSPost2010PropOp33
 70
     1
102
RTVSPost2010Prop34
280
     0
102
RTVSPost2010PropOp34
 70
     1
102
RTVSPost2010Prop35
280
     0
102
RTVSPost2010PropOp35
 70
     1
102
RTVSPost2010Prop36
280
     0
102
RTVSPost2010PropOp36
 70
     1
102
RTVSPost2010Prop37
 90
       50
102
RTVSPost2010PropOp37
 70
     1
102
RTVSPost2010Prop38
140
0.0
102
RTVSPost2010PropOp38
 70
     1
102
RTVSPost2010Prop39
140
1.0
102
RTVSPost2010PropOp39
 70
     1
102
RTVSPost2010Prop40
 90
        0
102
RTVSPost2010PropOp40
 70
     1
102
RTVSPost2010Prop41ColorIndex
 90
       18
102
RTVSPost2010Prop41ColorRGB
 90
        0
102
RTVSPost2010PropOp41
 70
     1
102
RTVSPost2010Prop42
 90
       50
102
RTVSPost2010PropOp42
 70
     1
102
RTVSPost2010Prop43
 90
        3
102
RTVSPost2010PropOp43
 70
     1
102
RTVSPost2010Prop44ColorIndex
 90
        5
102
RTVSPost2010Prop44ColorRGB
 90
      255
102
RTVSPost2010PropOp44
 70
     1
102
RTVSPost2010Prop45
280
     0
102
RTVSPost2010PropOp45
 70
     1
102
RTVSPost2010Prop46
 90
       50
102
RTVSPost2010PropOp46
 70
     1
102
RTVSPost2010Prop47
 90
       50
102
RTVSPost2010PropOp47
 70
     1
102
RTVSPost2010Prop48
 90
       50
102
RTVSPost2010PropOp48
 70
     1
102
RTVSPost2010Prop49
280
     0
102
RTVSPost2010PropOp49
 70
     1
102
RTVSPost2010Prop50
 90
       50
102
RTVSPost2010PropOp50
 70
     1
102
RTVSPost2010Prop51ColorIndex
 90
      256
102
RTVSPost2010Prop51ColorRGB
 90
-16777216
102
RTVSPost2010PropOp51
 70
     0
102
RTVSPost2010Prop52
140
1.0
102
RTVSPost2010PropOp52
 70
     0
102
RTVSPost2010Prop53
 90
        2
102
RTVSPost2010PropOp53
 70
     1
102
RTVSPost2010Prop54
  1
strokes_ogs.tif
102
RTVSPost2010PropOp54
 70
     1
102
RTVSPost2010Prop55
280
     0
102
RTVSPost2010PropOp55
 70
     1
102
RTVSPost2010Prop56
140
1.0
102
RTVSPost2010PropOp56
 70
     1
102
RTVSPost2010Prop57
140
1.0
102
RTVSPost2010PropOp57
 70
     1
102
RTVSPropertyOp0
 70
     1
102
RTVSPropertyOp1
 70
     1
102
RTVSPropertyOp2
 70
     1
102
RTVSPropertyOp3
 70
     1
102
RTVSPropertyOp4
 70
     1
102
RTVSPropertyOp5
 70
     1
102
RTVSPropertyOp6
 70
     1
102
RTVSPropertyOp7
 70
     1
102
RTVSPropertyOp8
 70
     1
102
RTVSPropertyOp9
 70
     1
102
RTVSPropertyOp10
 70
     1
102
RTVSPropertyOp11
 70
     1
102
RTVSPropertyOp12
 70
     1
102
RTVSPropertyOp13
 70
     1
102
RTVSPropertyOp14
 70
     1
102
RTVSPropertyOp15
 70
     1
102
RTVSPropertyOp16
 70
     1
102
RTVSPropertyOp17
 70
     1
102
RTVSPropertyOp18
 70
     1
102
RTVSPropertyOp19
 70
     1
102
RTVSPropertyOp20
 70
     1
102
RTVSPropertyOp21
 70
     1
102
RTVSPropertyOp22
 70
     1
102
RTVSPropertyOp23
 70
     1
102
RTVSPropertyOp24
 70
     1
102
RTVSPropertyOp25
 70
     1
102
RTVSPropertyOp26
 70
     1
102
RTVSPropertyOp27
 70
     1
102
RTVSPropertyOp28
 70
     1
102
RTVSPropertyOp29
 70
     1
102
RTVSPropertyOp30
 70
     1
102
RTVSPropertyOp31
 70
     1
102
RTVSPropertyOp32
 70
     1
102
RTVSPropertyOp33
 70
     1
102
RTVSPropertyOp34
 70
     1
102
RTVSPropertyOp35
 70
     1
102
RTVSPropertyOp36
 70
     1
102
RTVSPropertyOp37
 70
     1
102
RTVSPropertyOp38
 70
     1
102
RTVSPropertyOp39
 70
     1
102
RTVSPropertyOp40
 70
     1
102
RTVSPropertyOp41
 70
     1
102
RTVSPropertyOp42
 70
     1
102
RTVSPropertyOp43
 70
     1
102
RTVSPropertyOp44
 70
     1
102
RTVSPropertyOp45
 70
     1
102
RTVSPropertyOp46
 70
     1
102
RTVSPropertyOp47
 70
     1
102
RTVSPropertyOp48
 70
     1
102
RTVSPropertyOp49
 70
     1
102
RTVSPropertyOp50
 70
     1
102
RTVSPropertyOp51
 70
     0
102
RTVSPropertyOp52
 70
     0
102
RTVSPropertyOp53
 70
     1
102
RTVSPropertyOp54
 70
     1
102
RTVSPropertyOp55
 70
     1
102
RTVSPropertyOp56
 70
     1
102
RTVSPropertyOp57
 70
     1
102
RTVSPropertyOp58
 70
     1
102
RTVSPropertyOp59
 70
     1
102
RTVSPropertyOp60
 70
     1
102
RTVSPropertyOp61
 70
     1
102
RTVSPropertyOp62
 70
     1
  0
XRECORD
  5
98D3
102
{ACAD_REACTORS
330
98D2
102
}
330
98D2
100
AcDbXrecord
280
     1
102
RTVSPost2010Prop28
280
     0
102
RTVSPost2010PropOp28
 70
     1
102
RTVSPost2010Prop29
280
     1
102
RTVSPost2010PropOp29
 70
     1
102
RTVSPost2010Prop30
280
     1
102
RTVSPost2010PropOp30
 70
     1
102
RTVSPost2010Prop31
280
     0
102
RTVSPost2010PropOp31
 70
     1
102
RTVSPost2010Prop32
280
     0
102
RTVSPost2010PropOp32
 70
     1
102
RTVSPost2010Prop33
280
     0
102
RTVSPost2010PropOp33
 70
     1
102
RTVSPost2010Prop34
280
     0
102
RTVSPost2010PropOp34
 70
     1
102
RTVSPost2010Prop35
280
     0
102
RTVSPost2010PropOp35
 70
     1
102
RTVSPost2010Prop36
280
     0
102
RTVSPost2010PropOp36
 70
     1
102
RTVSPost2010Prop37
 90
       50
102
RTVSPost2010PropOp37
 70
     0
102
RTVSPost2010Prop38
140
0.0
102
RTVSPost2010PropOp38
 70
     0
102
RTVSPost2010Prop39
140
1.0
102
RTVSPost2010PropOp39
 70
     0
102
RTVSPost2010Prop40
 90
        0
102
RTVSPost2010PropOp40
 70
     0
102
RTVSPost2010Prop41ColorIndex
 90
       18
102
RTVSPost2010Prop41ColorRGB
 90
        0
102
RTVSPost2010PropOp41
 70
     0
102
RTVSPost2010Prop42
 90
       50
102
RTVSPost2010PropOp42
 70
     0
102
RTVSPost2010Prop43
 90
        3
102
RTVSPost2010PropOp43
 70
     0
102
RTVSPost2010Prop44ColorIndex
 90
        5
102
RTVSPost2010Prop44ColorRGB
 90
      255
102
RTVSPost2010PropOp44
 70
     0
102
RTVSPost2010Prop45
280
     0
102
RTVSPost2010PropOp45
 70
     1
102
RTVSPost2010Prop46
 90
       50
102
RTVSPost2010PropOp46
 70
     0
102
RTVSPost2010Prop47
 90
       50
102
RTVSPost2010PropOp47
 70
     0
102
RTVSPost2010Prop48
 90
       50
102
RTVSPost2010PropOp48
 70
     0
102
RTVSPost2010Prop49
280
     0
102
RTVSPost2010PropOp49
 70
     1
102
RTVSPost2010Prop50
 90
       50
102
RTVSPost2010PropOp50
 70
     0
102
RTVSPost2010Prop51ColorIndex
 90
      256
102
RTVSPost2010Prop51ColorRGB
 90
-16777216
102
RTVSPost2010PropOp51
 70
     0
102
RTVSPost2010Prop52
140
1.0
102
RTVSPost2010PropOp52
 70
     0
102
RTVSPost2010Prop53
 90
        2
102
RTVSPost2010PropOp53
 70
     0
102
RTVSPost2010Prop54
  1
strokes_ogs.tif
102
RTVSPost2010PropOp54
 70
     0
102
RTVSPost2010Prop55
280
     0
102
RTVSPost2010PropOp55
 70
     1
102
RTVSPost2010Prop56
140
1.0
102
RTVSPost2010PropOp56
 70
     0
102
RTVSPost2010Prop57
140
1.0
102
RTVSPost2010PropOp57
 70
     0
102
RTVSPropertyOp0
 70
     0
102
RTVSPropertyOp1
 70
     0
102
RTVSPropertyOp2
 70
     0
102
RTVSPropertyOp3
 70
     0
102
RTVSPropertyOp4
 70
     0
102
RTVSPropertyOp5
 70
     0
102
RTVSPropertyOp6
 70
     0
102
RTVSPropertyOp7
 70
     0
102
RTVSPropertyOp8
 70
     0
102
RTVSPropertyOp9
 70
     0
102
RTVSPropertyOp10
 70
     0
102
RTVSPropertyOp11
 70
     0
102
RTVSPropertyOp12
 70
     0
102
RTVSPropertyOp13
 70
     0
102
RTVSPropertyOp14
 70
     2
102
RTVSPropertyOp15
 70
     0
102
RTVSPropertyOp16
 70
     0
102
RTVSPropertyOp17
 70
     0
102
RTVSPropertyOp18
 70
     0
102
RTVSPropertyOp19
 70
     0
102
RTVSPropertyOp20
 70
     0
102
RTVSPropertyOp21
 70
     0
102
RTVSPropertyOp22
 70
     0
102
RTVSPropertyOp23
 70
     0
102
RTVSPropertyOp24
 70
     0
102
RTVSPropertyOp25
 70
     0
102
RTVSPropertyOp26
 70
     0
102
RTVSPropertyOp27
 70
     0
102
RTVSPropertyOp28
 70
     1
102
RTVSPropertyOp29
 70
     1
102
RTVSPropertyOp30
 70
     1
102
RTVSPropertyOp31
 70
     1
102
RTVSPropertyOp32
 70
     1
102
RTVSPropertyOp33
 70
     1
102
RTVSPropertyOp34
 70
     1
102
RTVSPropertyOp35
 70
     1
102
RTVSPropertyOp36
 70
     1
102
RTVSPropertyOp37
 70
     0
102
RTVSPropertyOp38
 70
     0
102
RTVSPropertyOp39
 70
     0
102
RTVSPropertyOp40
 70
     0
102
RTVSPropertyOp41
 70
     0
102
RTVSPropertyOp42
 70
     0
102
RTVSPropertyOp43
 70
     0
102
RTVSPropertyOp44
 70
     0
102
RTVSPropertyOp45
 70
     1
102
RTVSPropertyOp46
 70
     0
102
RTVSPropertyOp47
 70
     0
102
RTVSPropertyOp48
 70
     0
102
RTVSPropertyOp49
 70
     1
102
RTVSPropertyOp50
 70
     0
102
RTVSPropertyOp51
 70
     0
102
RTVSPropertyOp52
 70
     0
102
RTVSPropertyOp53
 70
     0
102
RTVSPropertyOp54
 70
     0
102
RTVSPropertyOp55
 70
     1
102
RTVSPropertyOp56
 70
     0
102
RTVSPropertyOp57
 70
     0
102
RTVSPropertyOp58
 70
     0
102
RTVSPropertyOp59
 70
     0
102
RTVSPropertyOp60
 70
     0
102
RTVSPropertyOp61
 70
     0
102
RTVSPropertyOp62
 70
     0
  0
XRECORD
  5
98C1
102
{ACAD_REACTORS
330
98C0
102
}
330
98C0
100
AcDbXrecord
280
     1
102
RTVSPost2010Prop28
280
     0
102
RTVSPost2010PropOp28
 70
     1
102
RTVSPost2010Prop29
280
     1
102
RTVSPost2010PropOp29
 70
     1
102
RTVSPost2010Prop30
280
     1
102
RTVSPost2010PropOp30
 70
     1
102
RTVSPost2010Prop31
280
     0
102
RTVSPost2010PropOp31
 70
     1
102
RTVSPost2010Prop32
280
     0
102
RTVSPost2010PropOp32
 70
     1
102
RTVSPost2010Prop33
280
     0
102
RTVSPost2010PropOp33
 70
     1
102
RTVSPost2010Prop34
280
     0
102
RTVSPost2010PropOp34
 70
     1
102
RTVSPost2010Prop35
280
     0
102
RTVSPost2010PropOp35
 70
     1
102
RTVSPost2010Prop36
280
     0
102
RTVSPost2010PropOp36
 70
     1
102
RTVSPost2010Prop37
 90
       50
102
RTVSPost2010PropOp37
 70
     1
102
RTVSPost2010Prop38
140
0.0
102
RTVSPost2010PropOp38
 70
     1
102
RTVSPost2010Prop39
140
1.0
102
RTVSPost2010PropOp39
 70
     1
102
RTVSPost2010Prop40
 90
        0
102
RTVSPost2010PropOp40
 70
     1
102
RTVSPost2010Prop41ColorIndex
 90
       18
102
RTVSPost2010Prop41ColorRGB
 90
        0
102
RTVSPost2010PropOp41
 70
     1
102
RTVSPost2010Prop42
 90
       50
102
RTVSPost2010PropOp42
 70
     1
102
RTVSPost2010Prop43
 90
        3
102
RTVSPost2010PropOp43
 70
     1
102
RTVSPost2010Prop44ColorIndex
 90
        5
102
RTVSPost2010Prop44ColorRGB
 90
      255
102
RTVSPost2010PropOp44
 70
     1
102
RTVSPost2010Prop45
280
     0
102
RTVSPost2010PropOp45
 70
     1
102
RTVSPost2010Prop46
 90
       50
102
RTVSPost2010PropOp46
 70
     1
102
RTVSPost2010Prop47
 90
       50
102
RTVSPost2010PropOp47
 70
     1
102
RTVSPost2010Prop48
 90
       50
102
RTVSPost2010PropOp48
 70
     1
102
RTVSPost2010Prop49
280
     0
102
RTVSPost2010PropOp49
 70
     1
102
RTVSPost2010Prop50
 90
       50
102
RTVSPost2010PropOp50
 70
     1
102
RTVSPost2010Prop51ColorIndex
 90
      256
102
RTVSPost2010Prop51ColorRGB
 90
-16777216
102
RTVSPost2010PropOp51
 70
     0
102
RTVSPost2010Prop52
140
1.0
102
RTVSPost2010PropOp52
 70
     0
102
RTVSPost2010Prop53
 90
        2
102
RTVSPost2010PropOp53
 70
     1
102
RTVSPost2010Prop54
  1
strokes_ogs.tif
102
RTVSPost2010PropOp54
 70
     1
102
RTVSPost2010Prop55
280
     0
102
RTVSPost2010PropOp55
 70
     1
102
RTVSPost2010Prop56
140
1.0
102
RTVSPost2010PropOp56
 70
     1
102
RTVSPost2010Prop57
140
1.0
102
RTVSPost2010PropOp57
 70
     1
102
RTVSPropertyOp0
 70
     1
102
RTVSPropertyOp1
 70
     1
102
RTVSPropertyOp2
 70
     1
102
RTVSPropertyOp3
 70
     1
102
RTVSPropertyOp4
 70
     1
102
RTVSPropertyOp5
 70
     1
102
RTVSPropertyOp6
 70
     1
102
RTVSPropertyOp7
 70
     1
102
RTVSPropertyOp8
 70
     1
102
RTVSPropertyOp9
 70
     1
102
RTVSPropertyOp10
 70
     1
102
RTVSPropertyOp11
 70
     1
102
RTVSPropertyOp12
 70
     1
102
RTVSPropertyOp13
 70
     1
102
RTVSPropertyOp14
 70
     1
102
RTVSPropertyOp15
 70
     1
102
RTVSPropertyOp16
 70
     1
102
RTVSPropertyOp17
 70
     1
102
RTVSPropertyOp18
 70
     1
102
RTVSPropertyOp19
 70
     1
102
RTVSPropertyOp20
 70
     1
102
RTVSPropertyOp21
 70
     1
102
RTVSPropertyOp22
 70
     1
102
RTVSPropertyOp23
 70
     1
102
RTVSPropertyOp24
 70
     1
102
RTVSPropertyOp25
 70
     1
102
RTVSPropertyOp26
 70
     1
102
RTVSPropertyOp27
 70
     1
102
RTVSPropertyOp28
 70
     1
102
RTVSPropertyOp29
 70
     1
102
RTVSPropertyOp30
 70
     1
102
RTVSPropertyOp31
 70
     1
102
RTVSPropertyOp32
 70
     1
102
RTVSPropertyOp33
 70
     1
102
RTVSPropertyOp34
 70
     1
102
RTVSPropertyOp35
 70
     1
102
RTVSPropertyOp36
 70
     1
102
RTVSPropertyOp37
 70
     1
102
RTVSPropertyOp38
 70
     1
102
RTVSPropertyOp39
 70
     1
102
RTVSPropertyOp40
 70
     1
102
RTVSPropertyOp41
 70
     1
102
RTVSPropertyOp42
 70
     1
102
RTVSPropertyOp43
 70
     1
102
RTVSPropertyOp44
 70
     1
102
RTVSPropertyOp45
 70
     1
102
RTVSPropertyOp46
 70
     1
102
RTVSPropertyOp47
 70
     1
102
RTVSPropertyOp48
 70
     1
102
RTVSPropertyOp49
 70
     1
102
RTVSPropertyOp50
 70
     1
102
RTVSPropertyOp51
 70
     0
102
RTVSPropertyOp52
 70
     0
102
RTVSPropertyOp53
 70
     1
102
RTVSPropertyOp54
 70
     1
102
RTVSPropertyOp55
 70
     1
102
RTVSPropertyOp56
 70
     1
102
RTVSPropertyOp57
 70
     1
102
RTVSPropertyOp58
 70
     1
102
RTVSPropertyOp59
 70
     1
102
RTVSPropertyOp60
 70
     1
102
RTVSPropertyOp61
 70
     1
102
RTVSPropertyOp62
 70
     1
  0
XRECORD
  5
98A5
102
{ACAD_REACTORS
330
98A4
102
}
330
98A4
100
AcDbXrecord
280
     1
102
RTVSPost2010Prop28
280
     0
102
RTVSPost2010PropOp28
 70
     1
102
RTVSPost2010Prop29
280
     1
102
RTVSPost2010PropOp29
 70
     1
102
RTVSPost2010Prop30
280
     1
102
RTVSPost2010PropOp30
 70
     1
102
RTVSPost2010Prop31
280
     0
102
RTVSPost2010PropOp31
 70
     1
102
RTVSPost2010Prop32
280
     0
102
RTVSPost2010PropOp32
 70
     1
102
RTVSPost2010Prop33
280
     0
102
RTVSPost2010PropOp33
 70
     1
102
RTVSPost2010Prop34
280
     0
102
RTVSPost2010PropOp34
 70
     1
102
RTVSPost2010Prop35
280
     0
102
RTVSPost2010PropOp35
 70
     1
102
RTVSPost2010Prop36
280
     0
102
RTVSPost2010PropOp36
 70
     1
102
RTVSPost2010Prop37
 90
       50
102
RTVSPost2010PropOp37
 70
     1
102
RTVSPost2010Prop38
140
0.0
102
RTVSPost2010PropOp38
 70
     1
102
RTVSPost2010Prop39
140
1.0
102
RTVSPost2010PropOp39
 70
     1
102
RTVSPost2010Prop40
 90
        0
102
RTVSPost2010PropOp40
 70
     1
102
RTVSPost2010Prop41ColorIndex
 90
       18
102
RTVSPost2010Prop41ColorRGB
 90
        0
102
RTVSPost2010PropOp41
 70
     1
102
RTVSPost2010Prop42
 90
       50
102
RTVSPost2010PropOp42
 70
     1
102
RTVSPost2010Prop43
 90
        3
102
RTVSPost2010PropOp43
 70
     1
102
RTVSPost2010Prop44ColorIndex
 90
        5
102
RTVSPost2010Prop44ColorRGB
 90
      255
102
RTVSPost2010PropOp44
 70
     1
102
RTVSPost2010Prop45
280
     0
102
RTVSPost2010PropOp45
 70
     1
102
RTVSPost2010Prop46
 90
       50
102
RTVSPost2010PropOp46
 70
     1
102
RTVSPost2010Prop47
 90
       50
102
RTVSPost2010PropOp47
 70
     1
102
RTVSPost2010Prop48
 90
       50
102
RTVSPost2010PropOp48
 70
     1
102
RTVSPost2010Prop49
280
     0
102
RTVSPost2010PropOp49
 70
     1
102
RTVSPost2010Prop50
 90
       50
102
RTVSPost2010PropOp50
 70
     1
102
RTVSPost2010Prop51ColorIndex
 90
      256
102
RTVSPost2010Prop51ColorRGB
 90
-16777216
102
RTVSPost2010PropOp51
 70
     0
102
RTVSPost2010Prop52
140
1.0
102
RTVSPost2010PropOp52
 70
     0
102
RTVSPost2010Prop53
 90
        2
102
RTVSPost2010PropOp53
 70
     1
102
RTVSPost2010Prop54
  1
strokes_ogs.tif
102
RTVSPost2010PropOp54
 70
     1
102
RTVSPost2010Prop55
280
     0
102
RTVSPost2010PropOp55
 70
     1
102
RTVSPost2010Prop56
140
1.0
102
RTVSPost2010PropOp56
 70
     1
102
RTVSPost2010Prop57
140
1.0
102
RTVSPost2010PropOp57
 70
     1
102
RTVSPropertyOp0
 70
     1
102
RTVSPropertyOp1
 70
     1
102
RTVSPropertyOp2
 70
     1
102
RTVSPropertyOp3
 70
     1
102
RTVSPropertyOp4
 70
     1
102
RTVSPropertyOp5
 70
     1
102
RTVSPropertyOp6
 70
     1
102
RTVSPropertyOp7
 70
     1
102
RTVSPropertyOp8
 70
     1
102
RTVSPropertyOp9
 70
     1
102
RTVSPropertyOp10
 70
     1
102
RTVSPropertyOp11
 70
     1
102
RTVSPropertyOp12
 70
     1
102
RTVSPropertyOp13
 70
     1
102
RTVSPropertyOp14
 70
     1
102
RTVSPropertyOp15
 70
     1
102
RTVSPropertyOp16
 70
     1
102
RTVSPropertyOp17
 70
     1
102
RTVSPropertyOp18
 70
     1
102
RTVSPropertyOp19
 70
     1
102
RTVSPropertyOp20
 70
     1
102
RTVSPropertyOp21
 70
     1
102
RTVSPropertyOp22
 70
     1
102
RTVSPropertyOp23
 70
     1
102
RTVSPropertyOp24
 70
     1
102
RTVSPropertyOp25
 70
     1
102
RTVSPropertyOp26
 70
     1
102
RTVSPropertyOp27
 70
     1
102
RTVSPropertyOp28
 70
     1
102
RTVSPropertyOp29
 70
     1
102
RTVSPropertyOp30
 70
     1
102
RTVSPropertyOp31
 70
     1
102
RTVSPropertyOp32
 70
     1
102
RTVSPropertyOp33
 70
     1
102
RTVSPropertyOp34
 70
     1
102
RTVSPropertyOp35
 70
     1
102
RTVSPropertyOp36
 70
     1
102
RTVSPropertyOp37
 70
     1
102
RTVSPropertyOp38
 70
     1
102
RTVSPropertyOp39
 70
     1
102
RTVSPropertyOp40
 70
     1
102
RTVSPropertyOp41
 70
     1
102
RTVSPropertyOp42
 70
     1
102
RTVSPropertyOp43
 70
     1
102
RTVSPropertyOp44
 70
     1
102
RTVSPropertyOp45
 70
     1
102
RTVSPropertyOp46
 70
     1
102
RTVSPropertyOp47
 70
     1
102
RTVSPropertyOp48
 70
     1
102
RTVSPropertyOp49
 70
     1
102
RTVSPropertyOp50
 70
     1
102
RTVSPropertyOp51
 70
     0
102
RTVSPropertyOp52
 70
     0
102
RTVSPropertyOp53
 70
     1
102
RTVSPropertyOp54
 70
     1
102
RTVSPropertyOp55
 70
     1
102
RTVSPropertyOp56
 70
     1
102
RTVSPropertyOp57
 70
     1
102
RTVSPropertyOp58
 70
     1
102
RTVSPropertyOp59
 70
     1
102
RTVSPropertyOp60
 70
     1
102
RTVSPropertyOp61
 70
     1
102
RTVSPropertyOp62
 70
     1
  0
XRECORD
  5
98A7
102
{ACAD_REACTORS
330
98A6
102
}
330
98A6
100
AcDbXrecord
280
     1
102
RTVSPost2010Prop28
280
     0
102
RTVSPost2010PropOp28
 70
     1
102
RTVSPost2010Prop29
280
     1
102
RTVSPost2010PropOp29
 70
     1
102
RTVSPost2010Prop30
280
     1
102
RTVSPost2010PropOp30
 70
     1
102
RTVSPost2010Prop31
280
     0
102
RTVSPost2010PropOp31
 70
     1
102
RTVSPost2010Prop32
280
     0
102
RTVSPost2010PropOp32
 70
     1
102
RTVSPost2010Prop33
280
     0
102
RTVSPost2010PropOp33
 70
     1
102
RTVSPost2010Prop34
280
     0
102
RTVSPost2010PropOp34
 70
     1
102
RTVSPost2010Prop35
280
     0
102
RTVSPost2010PropOp35
 70
     1
102
RTVSPost2010Prop36
280
     0
102
RTVSPost2010PropOp36
 70
     1
102
RTVSPost2010Prop37
 90
       50
102
RTVSPost2010PropOp37
 70
     1
102
RTVSPost2010Prop38
140
0.0
102
RTVSPost2010PropOp38
 70
     1
102
RTVSPost2010Prop39
140
1.0
102
RTVSPost2010PropOp39
 70
     1
102
RTVSPost2010Prop40
 90
        0
102
RTVSPost2010PropOp40
 70
     1
102
RTVSPost2010Prop41ColorIndex
 90
       18
102
RTVSPost2010Prop41ColorRGB
 90
        0
102
RTVSPost2010PropOp41
 70
     1
102
RTVSPost2010Prop42
 90
       50
102
RTVSPost2010PropOp42
 70
     1
102
RTVSPost2010Prop43
 90
        3
102
RTVSPost2010PropOp43
 70
     1
102
RTVSPost2010Prop44ColorIndex
 90
        5
102
RTVSPost2010Prop44ColorRGB
 90
      255
102
RTVSPost2010PropOp44
 70
     1
102
RTVSPost2010Prop45
280
     0
102
RTVSPost2010PropOp45
 70
     1
102
RTVSPost2010Prop46
 90
       50
102
RTVSPost2010PropOp46
 70
     1
102
RTVSPost2010Prop47
 90
       50
102
RTVSPost2010PropOp47
 70
     1
102
RTVSPost2010Prop48
 90
       50
102
RTVSPost2010PropOp48
 70
     1
102
RTVSPost2010Prop49
280
     0
102
RTVSPost2010PropOp49
 70
     1
102
RTVSPost2010Prop50
 90
       50
102
RTVSPost2010PropOp50
 70
     1
102
RTVSPost2010Prop51ColorIndex
 90
      256
102
RTVSPost2010Prop51ColorRGB
 90
-16777216
102
RTVSPost2010PropOp51
 70
     0
102
RTVSPost2010Prop52
140
1.0
102
RTVSPost2010PropOp52
 70
     0
102
RTVSPost2010Prop53
 90
        2
102
RTVSPost2010PropOp53
 70
     1
102
RTVSPost2010Prop54
  1
strokes_ogs.tif
102
RTVSPost2010PropOp54
 70
     1
102
RTVSPost2010Prop55
280
     0
102
RTVSPost2010PropOp55
 70
     1
102
RTVSPost2010Prop56
140
1.0
102
RTVSPost2010PropOp56
 70
     1
102
RTVSPost2010Prop57
140
1.0
102
RTVSPost2010PropOp57
 70
     1
102
RTVSPropertyOp0
 70
     1
102
RTVSPropertyOp1
 70
     1
102
RTVSPropertyOp2
 70
     1
102
RTVSPropertyOp3
 70
     1
102
RTVSPropertyOp4
 70
     1
102
RTVSPropertyOp5
 70
     1
102
RTVSPropertyOp6
 70
     1
102
RTVSPropertyOp7
 70
     1
102
RTVSPropertyOp8
 70
     1
102
RTVSPropertyOp9
 70
     1
102
RTVSPropertyOp10
 70
     1
102
RTVSPropertyOp11
 70
     1
102
RTVSPropertyOp12
 70
     1
102
RTVSPropertyOp13
 70
     1
102
RTVSPropertyOp14
 70
     1
102
RTVSPropertyOp15
 70
     1
102
RTVSPropertyOp16
 70
     1
102
RTVSPropertyOp17
 70
     1
102
RTVSPropertyOp18
 70
     1
102
RTVSPropertyOp19
 70
     1
102
RTVSPropertyOp20
 70
     1
102
RTVSPropertyOp21
 70
     1
102
RTVSPropertyOp22
 70
     1
102
RTVSPropertyOp23
 70
     1
102
RTVSPropertyOp24
 70
     1
102
RTVSPropertyOp25
 70
     1
102
RTVSPropertyOp26
 70
     1
102
RTVSPropertyOp27
 70
     1
102
RTVSPropertyOp28
 70
     1
102
RTVSPropertyOp29
 70
     1
102
RTVSPropertyOp30
 70
     1
102
RTVSPropertyOp31
 70
     1
102
RTVSPropertyOp32
 70
     1
102
RTVSPropertyOp33
 70
     1
102
RTVSPropertyOp34
 70
     1
102
RTVSPropertyOp35
 70
     1
102
RTVSPropertyOp36
 70
     1
102
RTVSPropertyOp37
 70
     1
102
RTVSPropertyOp38
 70
     1
102
RTVSPropertyOp39
 70
     1
102
RTVSPropertyOp40
 70
     1
102
RTVSPropertyOp41
 70
     1
102
RTVSPropertyOp42
 70
     1
102
RTVSPropertyOp43
 70
     1
102
RTVSPropertyOp44
 70
     1
102
RTVSPropertyOp45
 70
     1
102
RTVSPropertyOp46
 70
     1
102
RTVSPropertyOp47
 70
     1
102
RTVSPropertyOp48
 70
     1
102
RTVSPropertyOp49
 70
     1
102
RTVSPropertyOp50
 70
     1
102
RTVSPropertyOp51
 70
     0
102
RTVSPropertyOp52
 70
     0
102
RTVSPropertyOp53
 70
     1
102
RTVSPropertyOp54
 70
     1
102
RTVSPropertyOp55
 70
     1
102
RTVSPropertyOp56
 70
     1
102
RTVSPropertyOp57
 70
     1
102
RTVSPropertyOp58
 70
     1
102
RTVSPropertyOp59
 70
     1
102
RTVSPropertyOp60
 70
     1
102
RTVSPropertyOp61
 70
     1
102
RTVSPropertyOp62
 70
     1
  0
XRECORD
  5
98A9
102
{ACAD_REACTORS
330
98A8
102
}
330
98A8
100
AcDbXrecord
280
     1
102
RTVSPost2010Prop28
280
     0
102
RTVSPost2010PropOp28
 70
     1
102
RTVSPost2010Prop29
280
     1
102
RTVSPost2010PropOp29
 70
     1
102
RTVSPost2010Prop30
280
     1
102
RTVSPost2010PropOp30
 70
     1
102
RTVSPost2010Prop31
280
     0
102
RTVSPost2010PropOp31
 70
     1
102
RTVSPost2010Prop32
280
     0
102
RTVSPost2010PropOp32
 70
     1
102
RTVSPost2010Prop33
280
     0
102
RTVSPost2010PropOp33
 70
     1
102
RTVSPost2010Prop34
280
     0
102
RTVSPost2010PropOp34
 70
     1
102
RTVSPost2010Prop35
280
     0
102
RTVSPost2010PropOp35
 70
     1
102
RTVSPost2010Prop36
280
     0
102
RTVSPost2010PropOp36
 70
     1
102
RTVSPost2010Prop37
 90
       50
102
RTVSPost2010PropOp37
 70
     1
102
RTVSPost2010Prop38
140
0.0
102
RTVSPost2010PropOp38
 70
     1
102
RTVSPost2010Prop39
140
1.0
102
RTVSPost2010PropOp39
 70
     1
102
RTVSPost2010Prop40
 90
        0
102
RTVSPost2010PropOp40
 70
     1
102
RTVSPost2010Prop41ColorIndex
 90
       18
102
RTVSPost2010Prop41ColorRGB
 90
        0
102
RTVSPost2010PropOp41
 70
     1
102
RTVSPost2010Prop42
 90
       50
102
RTVSPost2010PropOp42
 70
     1
102
RTVSPost2010Prop43
 90
        3
102
RTVSPost2010PropOp43
 70
     1
102
RTVSPost2010Prop44ColorIndex
 90
        5
102
RTVSPost2010Prop44ColorRGB
 90
      255
102
RTVSPost2010PropOp44
 70
     1
102
RTVSPost2010Prop45
280
     0
102
RTVSPost2010PropOp45
 70
     1
102
RTVSPost2010Prop46
 90
       50
102
RTVSPost2010PropOp46
 70
     1
102
RTVSPost2010Prop47
 90
       50
102
RTVSPost2010PropOp47
 70
     1
102
RTVSPost2010Prop48
 90
       50
102
RTVSPost2010PropOp48
 70
     1
102
RTVSPost2010Prop49
280
     0
102
RTVSPost2010PropOp49
 70
     1
102
RTVSPost2010Prop50
 90
       50
102
RTVSPost2010PropOp50
 70
     1
102
RTVSPost2010Prop51ColorIndex
 90
      256
102
RTVSPost2010Prop51ColorRGB
 90
-16777216
102
RTVSPost2010PropOp51
 70
     0
102
RTVSPost2010Prop52
140
1.0
102
RTVSPost2010PropOp52
 70
     0
102
RTVSPost2010Prop53
 90
        2
102
RTVSPost2010PropOp53
 70
     1
102
RTVSPost2010Prop54
  1
strokes_ogs.tif
102
RTVSPost2010PropOp54
 70
     1
102
RTVSPost2010Prop55
280
     0
102
RTVSPost2010PropOp55
 70
     1
102
RTVSPost2010Prop56
140
1.0
102
RTVSPost2010PropOp56
 70
     1
102
RTVSPost2010Prop57
140
1.0
102
RTVSPost2010PropOp57
 70
     1
102
RTVSPropertyOp0
 70
     1
102
RTVSPropertyOp1
 70
     1
102
RTVSPropertyOp2
 70
     1
102
RTVSPropertyOp3
 70
     1
102
RTVSPropertyOp4
 70
     1
102
RTVSPropertyOp5
 70
     1
102
RTVSPropertyOp6
 70
     1
102
RTVSPropertyOp7
 70
     1
102
RTVSPropertyOp8
 70
     1
102
RTVSPropertyOp9
 70
     1
102
RTVSPropertyOp10
 70
     1
102
RTVSPropertyOp11
 70
     1
102
RTVSPropertyOp12
 70
     1
102
RTVSPropertyOp13
 70
     1
102
RTVSPropertyOp14
 70
     1
102
RTVSPropertyOp15
 70
     1
102
RTVSPropertyOp16
 70
     1
102
RTVSPropertyOp17
 70
     1
102
RTVSPropertyOp18
 70
     1
102
RTVSPropertyOp19
 70
     1
102
RTVSPropertyOp20
 70
     1
102
RTVSPropertyOp21
 70
     1
102
RTVSPropertyOp22
 70
     1
102
RTVSPropertyOp23
 70
     1
102
RTVSPropertyOp24
 70
     1
102
RTVSPropertyOp25
 70
     1
102
RTVSPropertyOp26
 70
     1
102
RTVSPropertyOp27
 70
     1
102
RTVSPropertyOp28
 70
     1
102
RTVSPropertyOp29
 70
     1
102
RTVSPropertyOp30
 70
     1
102
RTVSPropertyOp31
 70
     1
102
RTVSPropertyOp32
 70
     1
102
RTVSPropertyOp33
 70
     1
102
RTVSPropertyOp34
 70
     1
102
RTVSPropertyOp35
 70
     1
102
RTVSPropertyOp36
 70
     1
102
RTVSPropertyOp37
 70
     1
102
RTVSPropertyOp38
 70
     1
102
RTVSPropertyOp39
 70
     1
102
RTVSPropertyOp40
 70
     1
102
RTVSPropertyOp41
 70
     1
102
RTVSPropertyOp42
 70
     1
102
RTVSPropertyOp43
 70
     1
102
RTVSPropertyOp44
 70
     1
102
RTVSPropertyOp45
 70
     1
102
RTVSPropertyOp46
 70
     1
102
RTVSPropertyOp47
 70
     1
102
RTVSPropertyOp48
 70
     1
102
RTVSPropertyOp49
 70
     1
102
RTVSPropertyOp50
 70
     1
102
RTVSPropertyOp51
 70
     0
102
RTVSPropertyOp52
 70
     0
102
RTVSPropertyOp53
 70
     1
102
RTVSPropertyOp54
 70
     1
102
RTVSPropertyOp55
 70
     1
102
RTVSPropertyOp56
 70
     1
102
RTVSPropertyOp57
 70
     1
102
RTVSPropertyOp58
 70
     1
102
RTVSPropertyOp59
 70
     1
102
RTVSPropertyOp60
 70
     1
102
RTVSPropertyOp61
 70
     1
102
RTVSPropertyOp62
 70
     1
  0
XRECORD
  5
98AB
102
{ACAD_REACTORS
330
98AA
102
}
330
98AA
100
AcDbXrecord
280
     1
102
RTVSPost2010Prop28
280
     0
102
RTVSPost2010PropOp28
 70
     1
102
RTVSPost2010Prop29
280
     1
102
RTVSPost2010PropOp29
 70
     1
102
RTVSPost2010Prop30
280
     1
102
RTVSPost2010PropOp30
 70
     1
102
RTVSPost2010Prop31
280
     0
102
RTVSPost2010PropOp31
 70
     1
102
RTVSPost2010Prop32
280
     0
102
RTVSPost2010PropOp32
 70
     1
102
RTVSPost2010Prop33
280
     0
102
RTVSPost2010PropOp33
 70
     1
102
RTVSPost2010Prop34
280
     0
102
RTVSPost2010PropOp34
 70
     1
102
RTVSPost2010Prop35
280
     0
102
RTVSPost2010PropOp35
 70
     1
102
RTVSPost2010Prop36
280
     0
102
RTVSPost2010PropOp36
 70
     1
102
RTVSPost2010Prop37
 90
       50
102
RTVSPost2010PropOp37
 70
     1
102
RTVSPost2010Prop38
140
0.0
102
RTVSPost2010PropOp38
 70
     1
102
RTVSPost2010Prop39
140
1.0
102
RTVSPost2010PropOp39
 70
     1
102
RTVSPost2010Prop40
 90
        0
102
RTVSPost2010PropOp40
 70
     1
102
RTVSPost2010Prop41ColorIndex
 90
       18
102
RTVSPost2010Prop41ColorRGB
 90
        0
102
RTVSPost2010PropOp41
 70
     1
102
RTVSPost2010Prop42
 90
       50
102
RTVSPost2010PropOp42
 70
     1
102
RTVSPost2010Prop43
 90
        3
102
RTVSPost2010PropOp43
 70
     1
102
RTVSPost2010Prop44ColorIndex
 90
        5
102
RTVSPost2010Prop44ColorRGB
 90
      255
102
RTVSPost2010PropOp44
 70
     1
102
RTVSPost2010Prop45
280
     0
102
RTVSPost2010PropOp45
 70
     1
102
RTVSPost2010Prop46
 90
       50
102
RTVSPost2010PropOp46
 70
     1
102
RTVSPost2010Prop47
 90
       50
102
RTVSPost2010PropOp47
 70
     1
102
RTVSPost2010Prop48
 90
       50
102
RTVSPost2010PropOp48
 70
     1
102
RTVSPost2010Prop49
280
     0
102
RTVSPost2010PropOp49
 70
     1
102
RTVSPost2010Prop50
 90
       50
102
RTVSPost2010PropOp50
 70
     1
102
RTVSPost2010Prop51ColorIndex
 90
      256
102
RTVSPost2010Prop51ColorRGB
 90
-16777216
102
RTVSPost2010PropOp51
 70
     0
102
RTVSPost2010Prop52
140
1.0
102
RTVSPost2010PropOp52
 70
     0
102
RTVSPost2010Prop53
 90
        2
102
RTVSPost2010PropOp53
 70
     1
102
RTVSPost2010Prop54
  1
strokes_ogs.tif
102
RTVSPost2010PropOp54
 70
     1
102
RTVSPost2010Prop55
280
     0
102
RTVSPost2010PropOp55
 70
     1
102
RTVSPost2010Prop56
140
1.0
102
RTVSPost2010PropOp56
 70
     1
102
RTVSPost2010Prop57
140
1.0
102
RTVSPost2010PropOp57
 70
     1
102
RTVSPropertyOp0
 70
     1
102
RTVSPropertyOp1
 70
     1
102
RTVSPropertyOp2
 70
     1
102
RTVSPropertyOp3
 70
     1
102
RTVSPropertyOp4
 70
     1
102
RTVSPropertyOp5
 70
     1
102
RTVSPropertyOp6
 70
     1
102
RTVSPropertyOp7
 70
     1
102
RTVSPropertyOp8
 70
     1
102
RTVSPropertyOp9
 70
     1
102
RTVSPropertyOp10
 70
     1
102
RTVSPropertyOp11
 70
     1
102
RTVSPropertyOp12
 70
     1
102
RTVSPropertyOp13
 70
     1
102
RTVSPropertyOp14
 70
     1
102
RTVSPropertyOp15
 70
     1
102
RTVSPropertyOp16
 70
     1
102
RTVSPropertyOp17
 70
     1
102
RTVSPropertyOp18
 70
     1
102
RTVSPropertyOp19
 70
     1
102
RTVSPropertyOp20
 70
     1
102
RTVSPropertyOp21
 70
     1
102
RTVSPropertyOp22
 70
     1
102
RTVSPropertyOp23
 70
     1
102
RTVSPropertyOp24
 70
     1
102
RTVSPropertyOp25
 70
     1
102
RTVSPropertyOp26
 70
     1
102
RTVSPropertyOp27
 70
     1
102
RTVSPropertyOp28
 70
     1
102
RTVSPropertyOp29
 70
     1
102
RTVSPropertyOp30
 70
     1
102
RTVSPropertyOp31
 70
     1
102
RTVSPropertyOp32
 70
     1
102
RTVSPropertyOp33
 70
     1
102
RTVSPropertyOp34
 70
     1
102
RTVSPropertyOp35
 70
     1
102
RTVSPropertyOp36
 70
     1
102
RTVSPropertyOp37
 70
     1
102
RTVSPropertyOp38
 70
     1
102
RTVSPropertyOp39
 70
     1
102
RTVSPropertyOp40
 70
     1
102
RTVSPropertyOp41
 70
     1
102
RTVSPropertyOp42
 70
     1
102
RTVSPropertyOp43
 70
     1
102
RTVSPropertyOp44
 70
     1
102
RTVSPropertyOp45
 70
     1
102
RTVSPropertyOp46
 70
     1
102
RTVSPropertyOp47
 70
     1
102
RTVSPropertyOp48
 70
     1
102
RTVSPropertyOp49
 70
     1
102
RTVSPropertyOp50
 70
     1
102
RTVSPropertyOp51
 70
     0
102
RTVSPropertyOp52
 70
     0
102
RTVSPropertyOp53
 70
     1
102
RTVSPropertyOp54
 70
     1
102
RTVSPropertyOp55
 70
     1
102
RTVSPropertyOp56
 70
     1
102
RTVSPropertyOp57
 70
     1
102
RTVSPropertyOp58
 70
     1
102
RTVSPropertyOp59
 70
     1
102
RTVSPropertyOp60
 70
     1
102
RTVSPropertyOp61
 70
     1
102
RTVSPropertyOp62
 70
     1
  0
XRECORD
  5
98B3
102
{ACAD_REACTORS
330
98B2
102
}
330
98B2
100
AcDbXrecord
280
     1
102
RTVSPost2010Prop28
280
     0
102
RTVSPost2010PropOp28
 70
     1
102
RTVSPost2010Prop29
280
     1
102
RTVSPost2010PropOp29
 70
     1
102
RTVSPost2010Prop30
280
     1
102
RTVSPost2010PropOp30
 70
     1
102
RTVSPost2010Prop31
280
     0
102
RTVSPost2010PropOp31
 70
     1
102
RTVSPost2010Prop32
280
     0
102
RTVSPost2010PropOp32
 70
     1
102
RTVSPost2010Prop33
280
     0
102
RTVSPost2010PropOp33
 70
     1
102
RTVSPost2010Prop34
280
     0
102
RTVSPost2010PropOp34
 70
     1
102
RTVSPost2010Prop35
280
     0
102
RTVSPost2010PropOp35
 70
     1
102
RTVSPost2010Prop36
280
     0
102
RTVSPost2010PropOp36
 70
     1
102
RTVSPost2010Prop37
 90
       50
102
RTVSPost2010PropOp37
 70
     1
102
RTVSPost2010Prop38
140
0.0
102
RTVSPost2010PropOp38
 70
     1
102
RTVSPost2010Prop39
140
1.0
102
RTVSPost2010PropOp39
 70
     1
102
RTVSPost2010Prop40
 90
        0
102
RTVSPost2010PropOp40
 70
     1
102
RTVSPost2010Prop41ColorIndex
 90
       18
102
RTVSPost2010Prop41ColorRGB
 90
        0
102
RTVSPost2010PropOp41
 70
     1
102
RTVSPost2010Prop42
 90
       50
102
RTVSPost2010PropOp42
 70
     1
102
RTVSPost2010Prop43
 90
        3
102
RTVSPost2010PropOp43
 70
     1
102
RTVSPost2010Prop44ColorIndex
 90
        5
102
RTVSPost2010Prop44ColorRGB
 90
      255
102
RTVSPost2010PropOp44
 70
     1
102
RTVSPost2010Prop45
280
     0
102
RTVSPost2010PropOp45
 70
     1
102
RTVSPost2010Prop46
 90
       50
102
RTVSPost2010PropOp46
 70
     1
102
RTVSPost2010Prop47
 90
       50
102
RTVSPost2010PropOp47
 70
     1
102
RTVSPost2010Prop48
 90
       50
102
RTVSPost2010PropOp48
 70
     1
102
RTVSPost2010Prop49
280
     0
102
RTVSPost2010PropOp49
 70
     1
102
RTVSPost2010Prop50
 90
       50
102
RTVSPost2010PropOp50
 70
     1
102
RTVSPost2010Prop51ColorIndex
 90
      256
102
RTVSPost2010Prop51ColorRGB
 90
-16777216
102
RTVSPost2010PropOp51
 70
     0
102
RTVSPost2010Prop52
140
1.0
102
RTVSPost2010PropOp52
 70
     0
102
RTVSPost2010Prop53
 90
        2
102
RTVSPost2010PropOp53
 70
     1
102
RTVSPost2010Prop54
  1
strokes_ogs.tif
102
RTVSPost2010PropOp54
 70
     1
102
RTVSPost2010Prop55
280
     0
102
RTVSPost2010PropOp55
 70
     1
102
RTVSPost2010Prop56
140
1.0
102
RTVSPost2010PropOp56
 70
     1
102
RTVSPost2010Prop57
140
1.0
102
RTVSPost2010PropOp57
 70
     1
102
RTVSPropertyOp0
 70
     1
102
RTVSPropertyOp1
 70
     1
102
RTVSPropertyOp2
 70
     1
102
RTVSPropertyOp3
 70
     1
102
RTVSPropertyOp4
 70
     1
102
RTVSPropertyOp5
 70
     1
102
RTVSPropertyOp6
 70
     1
102
RTVSPropertyOp7
 70
     1
102
RTVSPropertyOp8
 70
     1
102
RTVSPropertyOp9
 70
     1
102
RTVSPropertyOp10
 70
     1
102
RTVSPropertyOp11
 70
     1
102
RTVSPropertyOp12
 70
     1
102
RTVSPropertyOp13
 70
     1
102
RTVSPropertyOp14
 70
     1
102
RTVSPropertyOp15
 70
     1
102
RTVSPropertyOp16
 70
     1
102
RTVSPropertyOp17
 70
     1
102
RTVSPropertyOp18
 70
     1
102
RTVSPropertyOp19
 70
     1
102
RTVSPropertyOp20
 70
     1
102
RTVSPropertyOp21
 70
     1
102
RTVSPropertyOp22
 70
     1
102
RTVSPropertyOp23
 70
     1
102
RTVSPropertyOp24
 70
     1
102
RTVSPropertyOp25
 70
     1
102
RTVSPropertyOp26
 70
     1
102
RTVSPropertyOp27
 70
     1
102
RTVSPropertyOp28
 70
     1
102
RTVSPropertyOp29
 70
     1
102
RTVSPropertyOp30
 70
     1
102
RTVSPropertyOp31
 70
     1
102
RTVSPropertyOp32
 70
     1
102
RTVSPropertyOp33
 70
     1
102
RTVSPropertyOp34
 70
     1
102
RTVSPropertyOp35
 70
     1
102
RTVSPropertyOp36
 70
     1
102
RTVSPropertyOp37
 70
     1
102
RTVSPropertyOp38
 70
     1
102
RTVSPropertyOp39
 70
     1
102
RTVSPropertyOp40
 70
     1
102
RTVSPropertyOp41
 70
     1
102
RTVSPropertyOp42
 70
     1
102
RTVSPropertyOp43
 70
     1
102
RTVSPropertyOp44
 70
     1
102
RTVSPropertyOp45
 70
     1
102
RTVSPropertyOp46
 70
     1
102
RTVSPropertyOp47
 70
     1
102
RTVSPropertyOp48
 70
     1
102
RTVSPropertyOp49
 70
     1
102
RTVSPropertyOp50
 70
     1
102
RTVSPropertyOp51
 70
     0
102
RTVSPropertyOp52
 70
     0
102
RTVSPropertyOp53
 70
     1
102
RTVSPropertyOp54
 70
     1
102
RTVSPropertyOp55
 70
     1
102
RTVSPropertyOp56
 70
     1
102
RTVSPropertyOp57
 70
     1
102
RTVSPropertyOp58
 70
     1
102
RTVSPropertyOp59
 70
     1
102
RTVSPropertyOp60
 70
     1
102
RTVSPropertyOp61
 70
     1
102
RTVSPropertyOp62
 70
     1
  0
XRECORD
  5
98CF
102
{ACAD_REACTORS
330
98CE
102
}
330
98CE
100
AcDbXrecord
280
     1
102
RTVSPost2010Prop28
280
     0
102
RTVSPost2010PropOp28
 70
     1
102
RTVSPost2010Prop29
280
     1
102
RTVSPost2010PropOp29
 70
     1
102
RTVSPost2010Prop30
280
     1
102
RTVSPost2010PropOp30
 70
     1
102
RTVSPost2010Prop31
280
     0
102
RTVSPost2010PropOp31
 70
     1
102
RTVSPost2010Prop32
280
     0
102
RTVSPost2010PropOp32
 70
     1
102
RTVSPost2010Prop33
280
     0
102
RTVSPost2010PropOp33
 70
     1
102
RTVSPost2010Prop34
280
     0
102
RTVSPost2010PropOp34
 70
     1
102
RTVSPost2010Prop35
280
     0
102
RTVSPost2010PropOp35
 70
     1
102
RTVSPost2010Prop36
280
     0
102
RTVSPost2010PropOp36
 70
     1
102
RTVSPost2010Prop37
 90
       50
102
RTVSPost2010PropOp37
 70
     0
102
RTVSPost2010Prop38
140
0.0
102
RTVSPost2010PropOp38
 70
     0
102
RTVSPost2010Prop39
140
1.0
102
RTVSPost2010PropOp39
 70
     0
102
RTVSPost2010Prop40
 90
        0
102
RTVSPost2010PropOp40
 70
     0
102
RTVSPost2010Prop41ColorIndex
 90
       18
102
RTVSPost2010Prop41ColorRGB
 90
        0
102
RTVSPost2010PropOp41
 70
     0
102
RTVSPost2010Prop42
 90
       50
102
RTVSPost2010PropOp42
 70
     0
102
RTVSPost2010Prop43
 90
        3
102
RTVSPost2010PropOp43
 70
     0
102
RTVSPost2010Prop44ColorIndex
 90
        5
102
RTVSPost2010Prop44ColorRGB
 90
      255
102
RTVSPost2010PropOp44
 70
     0
102
RTVSPost2010Prop45
280
     0
102
RTVSPost2010PropOp45
 70
     1
102
RTVSPost2010Prop46
 90
       50
102
RTVSPost2010PropOp46
 70
     0
102
RTVSPost2010Prop47
 90
       50
102
RTVSPost2010PropOp47
 70
     0
102
RTVSPost2010Prop48
 90
       50
102
RTVSPost2010PropOp48
 70
     0
102
RTVSPost2010Prop49
280
     0
102
RTVSPost2010PropOp49
 70
     1
102
RTVSPost2010Prop50
 90
       50
102
RTVSPost2010PropOp50
 70
     0
102
RTVSPost2010Prop51ColorIndex
 90
      256
102
RTVSPost2010Prop51ColorRGB
 90
-16777216
102
RTVSPost2010PropOp51
 70
     0
102
RTVSPost2010Prop52
140
1.0
102
RTVSPost2010PropOp52
 70
     0
102
RTVSPost2010Prop53
 90
        2
102
RTVSPost2010PropOp53
 70
     0
102
RTVSPost2010Prop54
  1
strokes_ogs.tif
102
RTVSPost2010PropOp54
 70
     0
102
RTVSPost2010Prop55
280
     0
102
RTVSPost2010PropOp55
 70
     1
102
RTVSPost2010Prop56
140
1.0
102
RTVSPost2010PropOp56
 70
     0
102
RTVSPost2010Prop57
140
1.0
102
RTVSPost2010PropOp57
 70
     0
102
RTVSPropertyOp0
 70
     0
102
RTVSPropertyOp1
 70
     0
102
RTVSPropertyOp2
 70
     0
102
RTVSPropertyOp3
 70
     0
102
RTVSPropertyOp4
 70
     0
102
RTVSPropertyOp5
 70
     0
102
RTVSPropertyOp6
 70
     0
102
RTVSPropertyOp7
 70
     0
102
RTVSPropertyOp8
 70
     0
102
RTVSPropertyOp9
 70
     0
102
RTVSPropertyOp10
 70
     0
102
RTVSPropertyOp11
 70
     0
102
RTVSPropertyOp12
 70
     0
102
RTVSPropertyOp13
 70
     0
102
RTVSPropertyOp14
 70
     2
102
RTVSPropertyOp15
 70
     0
102
RTVSPropertyOp16
 70
     0
102
RTVSPropertyOp17
 70
     0
102
RTVSPropertyOp18
 70
     0
102
RTVSPropertyOp19
 70
     0
102
RTVSPropertyOp20
 70
     0
102
RTVSPropertyOp21
 70
     0
102
RTVSPropertyOp22
 70
     0
102
RTVSPropertyOp23
 70
     0
102
RTVSPropertyOp24
 70
     0
102
RTVSPropertyOp25
 70
     0
102
RTVSPropertyOp26
 70
     0
102
RTVSPropertyOp27
 70
     0
102
RTVSPropertyOp28
 70
     1
102
RTVSPropertyOp29
 70
     1
102
RTVSPropertyOp30
 70
     1
102
RTVSPropertyOp31
 70
     1
102
RTVSPropertyOp32
 70
     1
102
RTVSPropertyOp33
 70
     1
102
RTVSPropertyOp34
 70
     1
102
RTVSPropertyOp35
 70
     1
102
RTVSPropertyOp36
 70
     1
102
RTVSPropertyOp37
 70
     0
102
RTVSPropertyOp38
 70
     0
102
RTVSPropertyOp39
 70
     0
102
RTVSPropertyOp40
 70
     0
102
RTVSPropertyOp41
 70
     0
102
RTVSPropertyOp42
 70
     0
102
RTVSPropertyOp43
 70
     0
102
RTVSPropertyOp44
 70
     0
102
RTVSPropertyOp45
 70
     1
102
RTVSPropertyOp46
 70
     0
102
RTVSPropertyOp47
 70
     0
102
RTVSPropertyOp48
 70
     0
102
RTVSPropertyOp49
 70
     1
102
RTVSPropertyOp50
 70
     0
102
RTVSPropertyOp51
 70
     0
102
RTVSPropertyOp52
 70
     0
102
RTVSPropertyOp53
 70
     0
102
RTVSPropertyOp54
 70
     0
102
RTVSPropertyOp55
 70
     1
102
RTVSPropertyOp56
 70
     0
102
RTVSPropertyOp57
 70
     0
102
RTVSPropertyOp58
 70
     0
102
RTVSPropertyOp59
 70
     0
102
RTVSPropertyOp60
 70
     0
102
RTVSPropertyOp61
 70
     0
102
RTVSPropertyOp62
 70
     0
  0
XRECORD
  5
98BF
102
{ACAD_REACTORS
330
98BE
102
}
330
98BE
100
AcDbXrecord
280
     1
102
RTVSPost2010Prop28
280
     0
102
RTVSPost2010PropOp28
 70
     1
102
RTVSPost2010Prop29
280
     1
102
RTVSPost2010PropOp29
 70
     1
102
RTVSPost2010Prop30
280
     1
102
RTVSPost2010PropOp30
 70
     1
102
RTVSPost2010Prop31
280
     0
102
RTVSPost2010PropOp31
 70
     1
102
RTVSPost2010Prop32
280
     0
102
RTVSPost2010PropOp32
 70
     1
102
RTVSPost2010Prop33
280
     0
102
RTVSPost2010PropOp33
 70
     1
102
RTVSPost2010Prop34
280
     0
102
RTVSPost2010PropOp34
 70
     1
102
RTVSPost2010Prop35
280
     0
102
RTVSPost2010PropOp35
 70
     1
102
RTVSPost2010Prop36
280
     0
102
RTVSPost2010PropOp36
 70
     1
102
RTVSPost2010Prop37
 90
       50
102
RTVSPost2010PropOp37
 70
     1
102
RTVSPost2010Prop38
140
0.0
102
RTVSPost2010PropOp38
 70
     1
102
RTVSPost2010Prop39
140
1.0
102
RTVSPost2010PropOp39
 70
     1
102
RTVSPost2010Prop40
 90
        0
102
RTVSPost2010PropOp40
 70
     1
102
RTVSPost2010Prop41ColorIndex
 90
       18
102
RTVSPost2010Prop41ColorRGB
 90
        0
102
RTVSPost2010PropOp41
 70
     1
102
RTVSPost2010Prop42
 90
       50
102
RTVSPost2010PropOp42
 70
     1
102
RTVSPost2010Prop43
 90
        3
102
RTVSPost2010PropOp43
 70
     1
102
RTVSPost2010Prop44ColorIndex
 90
        5
102
RTVSPost2010Prop44ColorRGB
 90
      255
102
RTVSPost2010PropOp44
 70
     1
102
RTVSPost2010Prop45
280
     0
102
RTVSPost2010PropOp45
 70
     1
102
RTVSPost2010Prop46
 90
       50
102
RTVSPost2010PropOp46
 70
     1
102
RTVSPost2010Prop47
 90
       50
102
RTVSPost2010PropOp47
 70
     1
102
RTVSPost2010Prop48
 90
       50
102
RTVSPost2010PropOp48
 70
     1
102
RTVSPost2010Prop49
280
     0
102
RTVSPost2010PropOp49
 70
     1
102
RTVSPost2010Prop50
 90
       50
102
RTVSPost2010PropOp50
 70
     1
102
RTVSPost2010Prop51ColorIndex
 90
      256
102
RTVSPost2010Prop51ColorRGB
 90
-16777216
102
RTVSPost2010PropOp51
 70
     0
102
RTVSPost2010Prop52
140
1.0
102
RTVSPost2010PropOp52
 70
     0
102
RTVSPost2010Prop53
 90
        2
102
RTVSPost2010PropOp53
 70
     1
102
RTVSPost2010Prop54
  1
strokes_ogs.tif
102
RTVSPost2010PropOp54
 70
     1
102
RTVSPost2010Prop55
280
     0
102
RTVSPost2010PropOp55
 70
     1
102
RTVSPost2010Prop56
140
1.0
102
RTVSPost2010PropOp56
 70
     1
102
RTVSPost2010Prop57
140
1.0
102
RTVSPost2010PropOp57
 70
     1
102
RTVSPropertyOp0
 70
     1
102
RTVSPropertyOp1
 70
     1
102
RTVSPropertyOp2
 70
     1
102
RTVSPropertyOp3
 70
     1
102
RTVSPropertyOp4
 70
     1
102
RTVSPropertyOp5
 70
     1
102
RTVSPropertyOp6
 70
     1
102
RTVSPropertyOp7
 70
     1
102
RTVSPropertyOp8
 70
     1
102
RTVSPropertyOp9
 70
     1
102
RTVSPropertyOp10
 70
     1
102
RTVSPropertyOp11
 70
     1
102
RTVSPropertyOp12
 70
     1
102
RTVSPropertyOp13
 70
     1
102
RTVSPropertyOp14
 70
     1
102
RTVSPropertyOp15
 70
     1
102
RTVSPropertyOp16
 70
     1
102
RTVSPropertyOp17
 70
     1
102
RTVSPropertyOp18
 70
     1
102
RTVSPropertyOp19
 70
     1
102
RTVSPropertyOp20
 70
     1
102
RTVSPropertyOp21
 70
     1
102
RTVSPropertyOp22
 70
     1
102
RTVSPropertyOp23
 70
     1
102
RTVSPropertyOp24
 70
     1
102
RTVSPropertyOp25
 70
     1
102
RTVSPropertyOp26
 70
     1
102
RTVSPropertyOp27
 70
     1
102
RTVSPropertyOp28
 70
     1
102
RTVSPropertyOp29
 70
     1
102
RTVSPropertyOp30
 70
     1
102
RTVSPropertyOp31
 70
     1
102
RTVSPropertyOp32
 70
     1
102
RTVSPropertyOp33
 70
     1
102
RTVSPropertyOp34
 70
     1
102
RTVSPropertyOp35
 70
     1
102
RTVSPropertyOp36
 70
     1
102
RTVSPropertyOp37
 70
     1
102
RTVSPropertyOp38
 70
     1
102
RTVSPropertyOp39
 70
     1
102
RTVSPropertyOp40
 70
     1
102
RTVSPropertyOp41
 70
     1
102
RTVSPropertyOp42
 70
     1
102
RTVSPropertyOp43
 70
     1
102
RTVSPropertyOp44
 70
     1
102
RTVSPropertyOp45
 70
     1
102
RTVSPropertyOp46
 70
     1
102
RTVSPropertyOp47
 70
     1
102
RTVSPropertyOp48
 70
     1
102
RTVSPropertyOp49
 70
     1
102
RTVSPropertyOp50
 70
     1
102
RTVSPropertyOp51
 70
     0
102
RTVSPropertyOp52
 70
     0
102
RTVSPropertyOp53
 70
     1
102
RTVSPropertyOp54
 70
     1
102
RTVSPropertyOp55
 70
     1
102
RTVSPropertyOp56
 70
     1
102
RTVSPropertyOp57
 70
     1
102
RTVSPropertyOp58
 70
     1
102
RTVSPropertyOp59
 70
     1
102
RTVSPropertyOp60
 70
     1
102
RTVSPropertyOp61
 70
     1
102
RTVSPropertyOp62
 70
     1
  0
XRECORD
  5
98D1
102
{ACAD_REACTORS
330
98D0
102
}
330
98D0
100
AcDbXrecord
280
     1
102
RTVSPost2010Prop28
280
     0
102
RTVSPost2010PropOp28
 70
     1
102
RTVSPost2010Prop29
280
     1
102
RTVSPost2010PropOp29
 70
     1
102
RTVSPost2010Prop30
280
     1
102
RTVSPost2010PropOp30
 70
     1
102
RTVSPost2010Prop31
280
     0
102
RTVSPost2010PropOp31
 70
     1
102
RTVSPost2010Prop32
280
     0
102
RTVSPost2010PropOp32
 70
     1
102
RTVSPost2010Prop33
280
     0
102
RTVSPost2010PropOp33
 70
     1
102
RTVSPost2010Prop34
280
     0
102
RTVSPost2010PropOp34
 70
     1
102
RTVSPost2010Prop35
280
     0
102
RTVSPost2010PropOp35
 70
     1
102
RTVSPost2010Prop36
280
     0
102
RTVSPost2010PropOp36
 70
     1
102
RTVSPost2010Prop37
 90
       50
102
RTVSPost2010PropOp37
 70
     0
102
RTVSPost2010Prop38
140
0.0
102
RTVSPost2010PropOp38
 70
     0
102
RTVSPost2010Prop39
140
1.0
102
RTVSPost2010PropOp39
 70
     0
102
RTVSPost2010Prop40
 90
        0
102
RTVSPost2010PropOp40
 70
     0
102
RTVSPost2010Prop41ColorIndex
 90
       18
102
RTVSPost2010Prop41ColorRGB
 90
        0
102
RTVSPost2010PropOp41
 70
     0
102
RTVSPost2010Prop42
 90
       50
102
RTVSPost2010PropOp42
 70
     0
102
RTVSPost2010Prop43
 90
        3
102
RTVSPost2010PropOp43
 70
     0
102
RTVSPost2010Prop44ColorIndex
 90
        5
102
RTVSPost2010Prop44ColorRGB
 90
      255
102
RTVSPost2010PropOp44
 70
     0
102
RTVSPost2010Prop45
280
     0
102
RTVSPost2010PropOp45
 70
     1
102
RTVSPost2010Prop46
 90
       50
102
RTVSPost2010PropOp46
 70
     0
102
RTVSPost2010Prop47
 90
       50
102
RTVSPost2010PropOp47
 70
     0
102
RTVSPost2010Prop48
 90
       50
102
RTVSPost2010PropOp48
 70
     0
102
RTVSPost2010Prop49
280
     0
102
RTVSPost2010PropOp49
 70
     1
102
RTVSPost2010Prop50
 90
       50
102
RTVSPost2010PropOp50
 70
     0
102
RTVSPost2010Prop51ColorIndex
 90
      256
102
RTVSPost2010Prop51ColorRGB
 90
-16777216
102
RTVSPost2010PropOp51
 70
     0
102
RTVSPost2010Prop52
140
1.0
102
RTVSPost2010PropOp52
 70
     0
102
RTVSPost2010Prop53
 90
        2
102
RTVSPost2010PropOp53
 70
     0
102
RTVSPost2010Prop54
  1
strokes_ogs.tif
102
RTVSPost2010PropOp54
 70
     0
102
RTVSPost2010Prop55
280
     0
102
RTVSPost2010PropOp55
 70
     1
102
RTVSPost2010Prop56
140
1.0
102
RTVSPost2010PropOp56
 70
     0
102
RTVSPost2010Prop57
140
1.0
102
RTVSPost2010PropOp57
 70
     0
102
RTVSPropertyOp0
 70
     0
102
RTVSPropertyOp1
 70
     0
102
RTVSPropertyOp2
 70
     0
102
RTVSPropertyOp3
 70
     0
102
RTVSPropertyOp4
 70
     0
102
RTVSPropertyOp5
 70
     0
102
RTVSPropertyOp6
 70
     0
102
RTVSPropertyOp7
 70
     0
102
RTVSPropertyOp8
 70
     0
102
RTVSPropertyOp9
 70
     0
102
RTVSPropertyOp10
 70
     0
102
RTVSPropertyOp11
 70
     0
102
RTVSPropertyOp12
 70
     0
102
RTVSPropertyOp13
 70
     0
102
RTVSPropertyOp14
 70
     2
102
RTVSPropertyOp15
 70
     0
102
RTVSPropertyOp16
 70
     0
102
RTVSPropertyOp17
 70
     0
102
RTVSPropertyOp18
 70
     0
102
RTVSPropertyOp19
 70
     0
102
RTVSPropertyOp20
 70
     0
102
RTVSPropertyOp21
 70
     0
102
RTVSPropertyOp22
 70
     0
102
RTVSPropertyOp23
 70
     0
102
RTVSPropertyOp24
 70
     0
102
RTVSPropertyOp25
 70
     0
102
RTVSPropertyOp26
 70
     0
102
RTVSPropertyOp27
 70
     0
102
RTVSPropertyOp28
 70
     1
102
RTVSPropertyOp29
 70
     1
102
RTVSPropertyOp30
 70
     1
102
RTVSPropertyOp31
 70
     1
102
RTVSPropertyOp32
 70
     1
102
RTVSPropertyOp33
 70
     1
102
RTVSPropertyOp34
 70
     1
102
RTVSPropertyOp35
 70
     1
102
RTVSPropertyOp36
 70
     1
102
RTVSPropertyOp37
 70
     0
102
RTVSPropertyOp38
 70
     0
102
RTVSPropertyOp39
 70
     0
102
RTVSPropertyOp40
 70
     0
102
RTVSPropertyOp41
 70
     0
102
RTVSPropertyOp42
 70
     0
102
RTVSPropertyOp43
 70
     0
102
RTVSPropertyOp44
 70
     0
102
RTVSPropertyOp45
 70
     1
102
RTVSPropertyOp46
 70
     0
102
RTVSPropertyOp47
 70
     0
102
RTVSPropertyOp48
 70
     0
102
RTVSPropertyOp49
 70
     1
102
RTVSPropertyOp50
 70
     0
102
RTVSPropertyOp51
 70
     0
102
RTVSPropertyOp52
 70
     0
102
RTVSPropertyOp53
 70
     0
102
RTVSPropertyOp54
 70
     0
102
RTVSPropertyOp55
 70
     1
102
RTVSPropertyOp56
 70
     0
102
RTVSPropertyOp57
 70
     0
102
RTVSPropertyOp58
 70
     0
102
RTVSPropertyOp59
 70
     0
102
RTVSPropertyOp60
 70
     0
102
RTVSPropertyOp61
 70
     0
102
RTVSPropertyOp62
 70
     0
  0
XRECORD
  5
98B7
102
{ACAD_REACTORS
330
98B6
102
}
330
98B6
100
AcDbXrecord
280
     1
102
RTVSPost2010Prop28
280
     0
102
RTVSPost2010PropOp28
 70
     1
102
RTVSPost2010Prop29
280
     1
102
RTVSPost2010PropOp29
 70
     1
102
RTVSPost2010Prop30
280
     1
102
RTVSPost2010PropOp30
 70
     1
102
RTVSPost2010Prop31
280
     0
102
RTVSPost2010PropOp31
 70
     1
102
RTVSPost2010Prop32
280
     0
102
RTVSPost2010PropOp32
 70
     1
102
RTVSPost2010Prop33
280
     0
102
RTVSPost2010PropOp33
 70
     1
102
RTVSPost2010Prop34
280
     0
102
RTVSPost2010PropOp34
 70
     1
102
RTVSPost2010Prop35
280
     0
102
RTVSPost2010PropOp35
 70
     1
102
RTVSPost2010Prop36
280
     0
102
RTVSPost2010PropOp36
 70
     1
102
RTVSPost2010Prop37
 90
       50
102
RTVSPost2010PropOp37
 70
     1
102
RTVSPost2010Prop38
140
0.0
102
RTVSPost2010PropOp38
 70
     1
102
RTVSPost2010Prop39
140
1.0
102
RTVSPost2010PropOp39
 70
     1
102
RTVSPost2010Prop40
 90
        0
102
RTVSPost2010PropOp40
 70
     1
102
RTVSPost2010Prop41ColorIndex
 90
       18
102
RTVSPost2010Prop41ColorRGB
 90
        0
102
RTVSPost2010PropOp41
 70
     1
102
RTVSPost2010Prop42
 90
       50
102
RTVSPost2010PropOp42
 70
     1
102
RTVSPost2010Prop43
 90
        3
102
RTVSPost2010PropOp43
 70
     1
102
RTVSPost2010Prop44ColorIndex
 90
        5
102
RTVSPost2010Prop44ColorRGB
 90
      255
102
RTVSPost2010PropOp44
 70
     1
102
RTVSPost2010Prop45
280
     0
102
RTVSPost2010PropOp45
 70
     1
102
RTVSPost2010Prop46
 90
       50
102
RTVSPost2010PropOp46
 70
     1
102
RTVSPost2010Prop47
 90
       50
102
RTVSPost2010PropOp47
 70
     1
102
RTVSPost2010Prop48
 90
       50
102
RTVSPost2010PropOp48
 70
     1
102
RTVSPost2010Prop49
280
     0
102
RTVSPost2010PropOp49
 70
     1
102
RTVSPost2010Prop50
 90
       50
102
RTVSPost2010PropOp50
 70
     1
102
RTVSPost2010Prop51ColorIndex
 90
      256
102
RTVSPost2010Prop51ColorRGB
 90
-16777216
102
RTVSPost2010PropOp51
 70
     0
102
RTVSPost2010Prop52
140
1.0
102
RTVSPost2010PropOp52
 70
     0
102
RTVSPost2010Prop53
 90
        2
102
RTVSPost2010PropOp53
 70
     1
102
RTVSPost2010Prop54
  1
strokes_ogs.tif
102
RTVSPost2010PropOp54
 70
     1
102
RTVSPost2010Prop55
280
     0
102
RTVSPost2010PropOp55
 70
     1
102
RTVSPost2010Prop56
140
1.0
102
RTVSPost2010PropOp56
 70
     1
102
RTVSPost2010Prop57
140
1.0
102
RTVSPost2010PropOp57
 70
     1
102
RTVSPropertyOp0
 70
     1
102
RTVSPropertyOp1
 70
     1
102
RTVSPropertyOp2
 70
     1
102
RTVSPropertyOp3
 70
     1
102
RTVSPropertyOp4
 70
     1
102
RTVSPropertyOp5
 70
     1
102
RTVSPropertyOp6
 70
     1
102
RTVSPropertyOp7
 70
     1
102
RTVSPropertyOp8
 70
     1
102
RTVSPropertyOp9
 70
     1
102
RTVSPropertyOp10
 70
     1
102
RTVSPropertyOp11
 70
     1
102
RTVSPropertyOp12
 70
     1
102
RTVSPropertyOp13
 70
     1
102
RTVSPropertyOp14
 70
     1
102
RTVSPropertyOp15
 70
     1
102
RTVSPropertyOp16
 70
     1
102
RTVSPropertyOp17
 70
     1
102
RTVSPropertyOp18
 70
     1
102
RTVSPropertyOp19
 70
     1
102
RTVSPropertyOp20
 70
     1
102
RTVSPropertyOp21
 70
     1
102
RTVSPropertyOp22
 70
     1
102
RTVSPropertyOp23
 70
     1
102
RTVSPropertyOp24
 70
     1
102
RTVSPropertyOp25
 70
     1
102
RTVSPropertyOp26
 70
     1
102
RTVSPropertyOp27
 70
     1
102
RTVSPropertyOp28
 70
     1
102
RTVSPropertyOp29
 70
     1
102
RTVSPropertyOp30
 70
     1
102
RTVSPropertyOp31
 70
     1
102
RTVSPropertyOp32
 70
     1
102
RTVSPropertyOp33
 70
     1
102
RTVSPropertyOp34
 70
     1
102
RTVSPropertyOp35
 70
     1
102
RTVSPropertyOp36
 70
     1
102
RTVSPropertyOp37
 70
     1
102
RTVSPropertyOp38
 70
     1
102
RTVSPropertyOp39
 70
     1
102
RTVSPropertyOp40
 70
     1
102
RTVSPropertyOp41
 70
     1
102
RTVSPropertyOp42
 70
     1
102
RTVSPropertyOp43
 70
     1
102
RTVSPropertyOp44
 70
     1
102
RTVSPropertyOp45
 70
     1
102
RTVSPropertyOp46
 70
     1
102
RTVSPropertyOp47
 70
     1
102
RTVSPropertyOp48
 70
     1
102
RTVSPropertyOp49
 70
     1
102
RTVSPropertyOp50
 70
     1
102
RTVSPropertyOp51
 70
     0
102
RTVSPropertyOp52
 70
     0
102
RTVSPropertyOp53
 70
     1
102
RTVSPropertyOp54
 70
     1
102
RTVSPropertyOp55
 70
     1
102
RTVSPropertyOp56
 70
     1
102
RTVSPropertyOp57
 70
     1
102
RTVSPropertyOp58
 70
     1
102
RTVSPropertyOp59
 70
     1
102
RTVSPropertyOp60
 70
     1
102
RTVSPropertyOp61
 70
     1
102
RTVSPropertyOp62
 70
     1
  0
XRECORD
  5
98CD
102
{ACAD_REACTORS
330
98CC
102
}
330
98CC
100
AcDbXrecord
280
     1
102
RTVSPost2010Prop28
280
     0
102
RTVSPost2010PropOp28
 70
     1
102
RTVSPost2010Prop29
280
     1
102
RTVSPost2010PropOp29
 70
     1
102
RTVSPost2010Prop30
280
     1
102
RTVSPost2010PropOp30
 70
     1
102
RTVSPost2010Prop31
280
     0
102
RTVSPost2010PropOp31
 70
     1
102
RTVSPost2010Prop32
280
     0
102
RTVSPost2010PropOp32
 70
     1
102
RTVSPost2010Prop33
280
     0
102
RTVSPost2010PropOp33
 70
     1
102
RTVSPost2010Prop34
280
     0
102
RTVSPost2010PropOp34
 70
     1
102
RTVSPost2010Prop35
280
     0
102
RTVSPost2010PropOp35
 70
     1
102
RTVSPost2010Prop36
280
     0
102
RTVSPost2010PropOp36
 70
     1
102
RTVSPost2010Prop37
 90
       50
102
RTVSPost2010PropOp37
 70
     1
102
RTVSPost2010Prop38
140
0.0
102
RTVSPost2010PropOp38
 70
     1
102
RTVSPost2010Prop39
140
1.0
102
RTVSPost2010PropOp39
 70
     1
102
RTVSPost2010Prop40
 90
        0
102
RTVSPost2010PropOp40
 70
     1
102
RTVSPost2010Prop41ColorIndex
 90
       18
102
RTVSPost2010Prop41ColorRGB
 90
        0
102
RTVSPost2010PropOp41
 70
     1
102
RTVSPost2010Prop42
 90
       50
102
RTVSPost2010PropOp42
 70
     1
102
RTVSPost2010Prop43
 90
        3
102
RTVSPost2010PropOp43
 70
     1
102
RTVSPost2010Prop44ColorIndex
 90
        5
102
RTVSPost2010Prop44ColorRGB
 90
      255
102
RTVSPost2010PropOp44
 70
     1
102
RTVSPost2010Prop45
280
     0
102
RTVSPost2010PropOp45
 70
     1
102
RTVSPost2010Prop46
 90
       50
102
RTVSPost2010PropOp46
 70
     1
102
RTVSPost2010Prop47
 90
       50
102
RTVSPost2010PropOp47
 70
     1
102
RTVSPost2010Prop48
 90
       50
102
RTVSPost2010PropOp48
 70
     1
102
RTVSPost2010Prop49
280
     0
102
RTVSPost2010PropOp49
 70
     1
102
RTVSPost2010Prop50
 90
       50
102
RTVSPost2010PropOp50
 70
     1
102
RTVSPost2010Prop51ColorIndex
 90
      256
102
RTVSPost2010Prop51ColorRGB
 90
-16777216
102
RTVSPost2010PropOp51
 70
     0
102
RTVSPost2010Prop52
140
1.0
102
RTVSPost2010PropOp52
 70
     0
102
RTVSPost2010Prop53
 90
        2
102
RTVSPost2010PropOp53
 70
     1
102
RTVSPost2010Prop54
  1
strokes_ogs.tif
102
RTVSPost2010PropOp54
 70
     1
102
RTVSPost2010Prop55
280
     0
102
RTVSPost2010PropOp55
 70
     1
102
RTVSPost2010Prop56
140
1.0
102
RTVSPost2010PropOp56
 70
     1
102
RTVSPost2010Prop57
140
1.0
102
RTVSPost2010PropOp57
 70
     1
102
RTVSPropertyOp0
 70
     1
102
RTVSPropertyOp1
 70
     1
102
RTVSPropertyOp2
 70
     1
102
RTVSPropertyOp3
 70
     1
102
RTVSPropertyOp4
 70
     1
102
RTVSPropertyOp5
 70
     1
102
RTVSPropertyOp6
 70
     1
102
RTVSPropertyOp7
 70
     1
102
RTVSPropertyOp8
 70
     1
102
RTVSPropertyOp9
 70
     1
102
RTVSPropertyOp10
 70
     1
102
RTVSPropertyOp11
 70
     1
102
RTVSPropertyOp12
 70
     1
102
RTVSPropertyOp13
 70
     1
102
RTVSPropertyOp14
 70
     1
102
RTVSPropertyOp15
 70
     1
102
RTVSPropertyOp16
 70
     1
102
RTVSPropertyOp17
 70
     1
102
RTVSPropertyOp18
 70
     1
102
RTVSPropertyOp19
 70
     1
102
RTVSPropertyOp20
 70
     1
102
RTVSPropertyOp21
 70
     1
102
RTVSPropertyOp22
 70
     1
102
RTVSPropertyOp23
 70
     1
102
RTVSPropertyOp24
 70
     1
102
RTVSPropertyOp25
 70
     1
102
RTVSPropertyOp26
 70
     1
102
RTVSPropertyOp27
 70
     1
102
RTVSPropertyOp28
 70
     1
102
RTVSPropertyOp29
 70
     1
102
RTVSPropertyOp30
 70
     1
102
RTVSPropertyOp31
 70
     1
102
RTVSPropertyOp32
 70
     1
102
RTVSPropertyOp33
 70
     1
102
RTVSPropertyOp34
 70
     1
102
RTVSPropertyOp35
 70
     1
102
RTVSPropertyOp36
 70
     1
102
RTVSPropertyOp37
 70
     1
102
RTVSPropertyOp38
 70
     1
102
RTVSPropertyOp39
 70
     1
102
RTVSPropertyOp40
 70
     1
102
RTVSPropertyOp41
 70
     1
102
RTVSPropertyOp42
 70
     1
102
RTVSPropertyOp43
 70
     1
102
RTVSPropertyOp44
 70
     1
102
RTVSPropertyOp45
 70
     1
102
RTVSPropertyOp46
 70
     1
102
RTVSPropertyOp47
 70
     1
102
RTVSPropertyOp48
 70
     1
102
RTVSPropertyOp49
 70
     1
102
RTVSPropertyOp50
 70
     1
102
RTVSPropertyOp51
 70
     0
102
RTVSPropertyOp52
 70
     0
102
RTVSPropertyOp53
 70
     1
102
RTVSPropertyOp54
 70
     1
102
RTVSPropertyOp55
 70
     1
102
RTVSPropertyOp56
 70
     1
102
RTVSPropertyOp57
 70
     1
102
RTVSPropertyOp58
 70
     1
102
RTVSPropertyOp59
 70
     1
102
RTVSPropertyOp60
 70
     1
102
RTVSPropertyOp61
 70
     1
102
RTVSPropertyOp62
 70
     1
  0
XRECORD
  5
98CB
102
{ACAD_REACTORS
330
98CA
102
}
330
98CA
100
AcDbXrecord
280
     1
102
RTVSPost2010Prop28
280
     0
102
RTVSPost2010PropOp28
 70
     1
102
RTVSPost2010Prop29
280
     1
102
RTVSPost2010PropOp29
 70
     1
102
RTVSPost2010Prop30
280
     1
102
RTVSPost2010PropOp30
 70
     1
102
RTVSPost2010Prop31
280
     0
102
RTVSPost2010PropOp31
 70
     1
102
RTVSPost2010Prop32
280
     0
102
RTVSPost2010PropOp32
 70
     1
102
RTVSPost2010Prop33
280
     0
102
RTVSPost2010PropOp33
 70
     1
102
RTVSPost2010Prop34
280
     0
102
RTVSPost2010PropOp34
 70
     1
102
RTVSPost2010Prop35
280
     0
102
RTVSPost2010PropOp35
 70
     1
102
RTVSPost2010Prop36
280
     0
102
RTVSPost2010PropOp36
 70
     1
102
RTVSPost2010Prop37
 90
       50
102
RTVSPost2010PropOp37
 70
     1
102
RTVSPost2010Prop38
140
0.0
102
RTVSPost2010PropOp38
 70
     1
102
RTVSPost2010Prop39
140
1.0
102
RTVSPost2010PropOp39
 70
     1
102
RTVSPost2010Prop40
 90
        0
102
RTVSPost2010PropOp40
 70
     1
102
RTVSPost2010Prop41ColorIndex
 90
       18
102
RTVSPost2010Prop41ColorRGB
 90
        0
102
RTVSPost2010PropOp41
 70
     1
102
RTVSPost2010Prop42
 90
       50
102
RTVSPost2010PropOp42
 70
     1
102
RTVSPost2010Prop43
 90
        3
102
RTVSPost2010PropOp43
 70
     1
102
RTVSPost2010Prop44ColorIndex
 90
        5
102
RTVSPost2010Prop44ColorRGB
 90
      255
102
RTVSPost2010PropOp44
 70
     1
102
RTVSPost2010Prop45
280
     0
102
RTVSPost2010PropOp45
 70
     1
102
RTVSPost2010Prop46
 90
       50
102
RTVSPost2010PropOp46
 70
     1
102
RTVSPost2010Prop47
 90
       50
102
RTVSPost2010PropOp47
 70
     1
102
RTVSPost2010Prop48
 90
       50
102
RTVSPost2010PropOp48
 70
     1
102
RTVSPost2010Prop49
280
     0
102
RTVSPost2010PropOp49
 70
     1
102
RTVSPost2010Prop50
 90
       50
102
RTVSPost2010PropOp50
 70
     1
102
RTVSPost2010Prop51ColorIndex
 90
      256
102
RTVSPost2010Prop51ColorRGB
 90
-16777216
102
RTVSPost2010PropOp51
 70
     0
102
RTVSPost2010Prop52
140
1.0
102
RTVSPost2010PropOp52
 70
     0
102
RTVSPost2010Prop53
 90
        2
102
RTVSPost2010PropOp53
 70
     1
102
RTVSPost2010Prop54
  1
strokes_ogs.tif
102
RTVSPost2010PropOp54
 70
     1
102
RTVSPost2010Prop55
280
     0
102
RTVSPost2010PropOp55
 70
     1
102
RTVSPost2010Prop56
140
1.0
102
RTVSPost2010PropOp56
 70
     1
102
RTVSPost2010Prop57
140
1.0
102
RTVSPost2010PropOp57
 70
     1
102
RTVSPropertyOp0
 70
     1
102
RTVSPropertyOp1
 70
     1
102
RTVSPropertyOp2
 70
     1
102
RTVSPropertyOp3
 70
     1
102
RTVSPropertyOp4
 70
     1
102
RTVSPropertyOp5
 70
     1
102
RTVSPropertyOp6
 70
     1
102
RTVSPropertyOp7
 70
     1
102
RTVSPropertyOp8
 70
     1
102
RTVSPropertyOp9
 70
     1
102
RTVSPropertyOp10
 70
     1
102
RTVSPropertyOp11
 70
     1
102
RTVSPropertyOp12
 70
     1
102
RTVSPropertyOp13
 70
     1
102
RTVSPropertyOp14
 70
     1
102
RTVSPropertyOp15
 70
     1
102
RTVSPropertyOp16
 70
     1
102
RTVSPropertyOp17
 70
     1
102
RTVSPropertyOp18
 70
     1
102
RTVSPropertyOp19
 70
     1
102
RTVSPropertyOp20
 70
     1
102
RTVSPropertyOp21
 70
     1
102
RTVSPropertyOp22
 70
     1
102
RTVSPropertyOp23
 70
     1
102
RTVSPropertyOp24
 70
     1
102
RTVSPropertyOp25
 70
     1
102
RTVSPropertyOp26
 70
     1
102
RTVSPropertyOp27
 70
     1
102
RTVSPropertyOp28
 70
     1
102
RTVSPropertyOp29
 70
     1
102
RTVSPropertyOp30
 70
     1
102
RTVSPropertyOp31
 70
     1
102
RTVSPropertyOp32
 70
     1
102
RTVSPropertyOp33
 70
     1
102
RTVSPropertyOp34
 70
     1
102
RTVSPropertyOp35
 70
     1
102
RTVSPropertyOp36
 70
     1
102
RTVSPropertyOp37
 70
     1
102
RTVSPropertyOp38
 70
     1
102
RTVSPropertyOp39
 70
     1
102
RTVSPropertyOp40
 70
     1
102
RTVSPropertyOp41
 70
     1
102
RTVSPropertyOp42
 70
     1
102
RTVSPropertyOp43
 70
     1
102
RTVSPropertyOp44
 70
     1
102
RTVSPropertyOp45
 70
     1
102
RTVSPropertyOp46
 70
     1
102
RTVSPropertyOp47
 70
     1
102
RTVSPropertyOp48
 70
     1
102
RTVSPropertyOp49
 70
     1
102
RTVSPropertyOp50
 70
     1
102
RTVSPropertyOp51
 70
     0
102
RTVSPropertyOp52
 70
     0
102
RTVSPropertyOp53
 70
     1
102
RTVSPropertyOp54
 70
     1
102
RTVSPropertyOp55
 70
     1
102
RTVSPropertyOp56
 70
     1
102
RTVSPropertyOp57
 70
     1
102
RTVSPropertyOp58
 70
     1
102
RTVSPropertyOp59
 70
     1
102
RTVSPropertyOp60
 70
     1
102
RTVSPropertyOp61
 70
     1
102
RTVSPropertyOp62
 70
     1
  0
XRECORD
  5
98C5
102
{ACAD_REACTORS
330
98C4
102
}
330
98C4
100
AcDbXrecord
280
     1
102
RTVSPost2010Prop28
280
     0
102
RTVSPost2010PropOp28
 70
     1
102
RTVSPost2010Prop29
280
     1
102
RTVSPost2010PropOp29
 70
     1
102
RTVSPost2010Prop30
280
     1
102
RTVSPost2010PropOp30
 70
     1
102
RTVSPost2010Prop31
280
     0
102
RTVSPost2010PropOp31
 70
     1
102
RTVSPost2010Prop32
280
     0
102
RTVSPost2010PropOp32
 70
     1
102
RTVSPost2010Prop33
280
     0
102
RTVSPost2010PropOp33
 70
     1
102
RTVSPost2010Prop34
280
     0
102
RTVSPost2010PropOp34
 70
     1
102
RTVSPost2010Prop35
280
     0
102
RTVSPost2010PropOp35
 70
     1
102
RTVSPost2010Prop36
280
     0
102
RTVSPost2010PropOp36
 70
     1
102
RTVSPost2010Prop37
 90
       50
102
RTVSPost2010PropOp37
 70
     1
102
RTVSPost2010Prop38
140
0.0
102
RTVSPost2010PropOp38
 70
     1
102
RTVSPost2010Prop39
140
1.0
102
RTVSPost2010PropOp39
 70
     1
102
RTVSPost2010Prop40
 90
        0
102
RTVSPost2010PropOp40
 70
     1
102
RTVSPost2010Prop41ColorIndex
 90
       18
102
RTVSPost2010Prop41ColorRGB
 90
        0
102
RTVSPost2010PropOp41
 70
     1
102
RTVSPost2010Prop42
 90
       50
102
RTVSPost2010PropOp42
 70
     1
102
RTVSPost2010Prop43
 90
        3
102
RTVSPost2010PropOp43
 70
     1
102
RTVSPost2010Prop44ColorIndex
 90
        5
102
RTVSPost2010Prop44ColorRGB
 90
      255
102
RTVSPost2010PropOp44
 70
     1
102
RTVSPost2010Prop45
280
     0
102
RTVSPost2010PropOp45
 70
     1
102
RTVSPost2010Prop46
 90
       50
102
RTVSPost2010PropOp46
 70
     1
102
RTVSPost2010Prop47
 90
       50
102
RTVSPost2010PropOp47
 70
     1
102
RTVSPost2010Prop48
 90
       50
102
RTVSPost2010PropOp48
 70
     1
102
RTVSPost2010Prop49
280
     0
102
RTVSPost2010PropOp49
 70
     1
102
RTVSPost2010Prop50
 90
       50
102
RTVSPost2010PropOp50
 70
     1
102
RTVSPost2010Prop51ColorIndex
 90
      256
102
RTVSPost2010Prop51ColorRGB
 90
-16777216
102
RTVSPost2010PropOp51
 70
     0
102
RTVSPost2010Prop52
140
1.0
102
RTVSPost2010PropOp52
 70
     0
102
RTVSPost2010Prop53
 90
        2
102
RTVSPost2010PropOp53
 70
     1
102
RTVSPost2010Prop54
  1
strokes_ogs.tif
102
RTVSPost2010PropOp54
 70
     1
102
RTVSPost2010Prop55
280
     0
102
RTVSPost2010PropOp55
 70
     1
102
RTVSPost2010Prop56
140
1.0
102
RTVSPost2010PropOp56
 70
     1
102
RTVSPost2010Prop57
140
1.0
102
RTVSPost2010PropOp57
 70
     1
102
RTVSPropertyOp0
 70
     1
102
RTVSPropertyOp1
 70
     1
102
RTVSPropertyOp2
 70
     1
102
RTVSPropertyOp3
 70
     1
102
RTVSPropertyOp4
 70
     1
102
RTVSPropertyOp5
 70
     1
102
RTVSPropertyOp6
 70
     1
102
RTVSPropertyOp7
 70
     1
102
RTVSPropertyOp8
 70
     1
102
RTVSPropertyOp9
 70
     1
102
RTVSPropertyOp10
 70
     1
102
RTVSPropertyOp11
 70
     1
102
RTVSPropertyOp12
 70
     1
102
RTVSPropertyOp13
 70
     1
102
RTVSPropertyOp14
 70
     1
102
RTVSPropertyOp15
 70
     1
102
RTVSPropertyOp16
 70
     1
102
RTVSPropertyOp17
 70
     1
102
RTVSPropertyOp18
 70
     1
102
RTVSPropertyOp19
 70
     1
102
RTVSPropertyOp20
 70
     1
102
RTVSPropertyOp21
 70
     1
102
RTVSPropertyOp22
 70
     1
102
RTVSPropertyOp23
 70
     1
102
RTVSPropertyOp24
 70
     1
102
RTVSPropertyOp25
 70
     1
102
RTVSPropertyOp26
 70
     1
102
RTVSPropertyOp27
 70
     1
102
RTVSPropertyOp28
 70
     1
102
RTVSPropertyOp29
 70
     1
102
RTVSPropertyOp30
 70
     1
102
RTVSPropertyOp31
 70
     1
102
RTVSPropertyOp32
 70
     1
102
RTVSPropertyOp33
 70
     1
102
RTVSPropertyOp34
 70
     1
102
RTVSPropertyOp35
 70
     1
102
RTVSPropertyOp36
 70
     1
102
RTVSPropertyOp37
 70
     1
102
RTVSPropertyOp38
 70
     1
102
RTVSPropertyOp39
 70
     1
102
RTVSPropertyOp40
 70
     1
102
RTVSPropertyOp41
 70
     1
102
RTVSPropertyOp42
 70
     1
102
RTVSPropertyOp43
 70
     1
102
RTVSPropertyOp44
 70
     1
102
RTVSPropertyOp45
 70
     1
102
RTVSPropertyOp46
 70
     1
102
RTVSPropertyOp47
 70
     1
102
RTVSPropertyOp48
 70
     1
102
RTVSPropertyOp49
 70
     1
102
RTVSPropertyOp50
 70
     1
102
RTVSPropertyOp51
 70
     0
102
RTVSPropertyOp52
 70
     0
102
RTVSPropertyOp53
 70
     1
102
RTVSPropertyOp54
 70
     1
102
RTVSPropertyOp55
 70
     1
102
RTVSPropertyOp56
 70
     1
102
RTVSPropertyOp57
 70
     1
102
RTVSPropertyOp58
 70
     1
102
RTVSPropertyOp59
 70
     1
102
RTVSPropertyOp60
 70
     1
102
RTVSPropertyOp61
 70
     1
102
RTVSPropertyOp62
 70
     1
  0
XRECORD
  5
98C7
102
{ACAD_REACTORS
330
98C6
102
}
330
98C6
100
AcDbXrecord
280
     1
102
RTVSPost2010Prop28
280
     0
102
RTVSPost2010PropOp28
 70
     1
102
RTVSPost2010Prop29
280
     1
102
RTVSPost2010PropOp29
 70
     1
102
RTVSPost2010Prop30
280
     1
102
RTVSPost2010PropOp30
 70
     1
102
RTVSPost2010Prop31
280
     0
102
RTVSPost2010PropOp31
 70
     1
102
RTVSPost2010Prop32
280
     0
102
RTVSPost2010PropOp32
 70
     1
102
RTVSPost2010Prop33
280
     0
102
RTVSPost2010PropOp33
 70
     1
102
RTVSPost2010Prop34
280
     0
102
RTVSPost2010PropOp34
 70
     1
102
RTVSPost2010Prop35
280
     0
102
RTVSPost2010PropOp35
 70
     1
102
RTVSPost2010Prop36
280
     0
102
RTVSPost2010PropOp36
 70
     1
102
RTVSPost2010Prop37
 90
       50
102
RTVSPost2010PropOp37
 70
     1
102
RTVSPost2010Prop38
140
0.0
102
RTVSPost2010PropOp38
 70
     1
102
RTVSPost2010Prop39
140
1.0
102
RTVSPost2010PropOp39
 70
     1
102
RTVSPost2010Prop40
 90
        0
102
RTVSPost2010PropOp40
 70
     1
102
RTVSPost2010Prop41ColorIndex
 90
       18
102
RTVSPost2010Prop41ColorRGB
 90
        0
102
RTVSPost2010PropOp41
 70
     1
102
RTVSPost2010Prop42
 90
       50
102
RTVSPost2010PropOp42
 70
     1
102
RTVSPost2010Prop43
 90
        3
102
RTVSPost2010PropOp43
 70
     1
102
RTVSPost2010Prop44ColorIndex
 90
        5
102
RTVSPost2010Prop44ColorRGB
 90
      255
102
RTVSPost2010PropOp44
 70
     1
102
RTVSPost2010Prop45
280
     0
102
RTVSPost2010PropOp45
 70
     1
102
RTVSPost2010Prop46
 90
       50
102
RTVSPost2010PropOp46
 70
     1
102
RTVSPost2010Prop47
 90
       50
102
RTVSPost2010PropOp47
 70
     1
102
RTVSPost2010Prop48
 90
       50
102
RTVSPost2010PropOp48
 70
     1
102
RTVSPost2010Prop49
280
     0
102
RTVSPost2010PropOp49
 70
     1
102
RTVSPost2010Prop50
 90
       50
102
RTVSPost2010PropOp50
 70
     1
102
RTVSPost2010Prop51ColorIndex
 90
      256
102
RTVSPost2010Prop51ColorRGB
 90
-16777216
102
RTVSPost2010PropOp51
 70
     0
102
RTVSPost2010Prop52
140
1.0
102
RTVSPost2010PropOp52
 70
     0
102
RTVSPost2010Prop53
 90
        2
102
RTVSPost2010PropOp53
 70
     1
102
RTVSPost2010Prop54
  1
strokes_ogs.tif
102
RTVSPost2010PropOp54
 70
     1
102
RTVSPost2010Prop55
280
     0
102
RTVSPost2010PropOp55
 70
     1
102
RTVSPost2010Prop56
140
1.0
102
RTVSPost2010PropOp56
 70
     1
102
RTVSPost2010Prop57
140
1.0
102
RTVSPost2010PropOp57
 70
     1
102
RTVSPropertyOp0
 70
     1
102
RTVSPropertyOp1
 70
     1
102
RTVSPropertyOp2
 70
     1
102
RTVSPropertyOp3
 70
     1
102
RTVSPropertyOp4
 70
     1
102
RTVSPropertyOp5
 70
     1
102
RTVSPropertyOp6
 70
     1
102
RTVSPropertyOp7
 70
     1
102
RTVSPropertyOp8
 70
     1
102
RTVSPropertyOp9
 70
     1
102
RTVSPropertyOp10
 70
     1
102
RTVSPropertyOp11
 70
     1
102
RTVSPropertyOp12
 70
     1
102
RTVSPropertyOp13
 70
     1
102
RTVSPropertyOp14
 70
     1
102
RTVSPropertyOp15
 70
     1
102
RTVSPropertyOp16
 70
     1
102
RTVSPropertyOp17
 70
     1
102
RTVSPropertyOp18
 70
     1
102
RTVSPropertyOp19
 70
     1
102
RTVSPropertyOp20
 70
     1
102
RTVSPropertyOp21
 70
     1
102
RTVSPropertyOp22
 70
     1
102
RTVSPropertyOp23
 70
     1
102
RTVSPropertyOp24
 70
     1
102
RTVSPropertyOp25
 70
     1
102
RTVSPropertyOp26
 70
     1
102
RTVSPropertyOp27
 70
     1
102
RTVSPropertyOp28
 70
     1
102
RTVSPropertyOp29
 70
     1
102
RTVSPropertyOp30
 70
     1
102
RTVSPropertyOp31
 70
     1
102
RTVSPropertyOp32
 70
     1
102
RTVSPropertyOp33
 70
     1
102
RTVSPropertyOp34
 70
     1
102
RTVSPropertyOp35
 70
     1
102
RTVSPropertyOp36
 70
     1
102
RTVSPropertyOp37
 70
     1
102
RTVSPropertyOp38
 70
     1
102
RTVSPropertyOp39
 70
     1
102
RTVSPropertyOp40
 70
     1
102
RTVSPropertyOp41
 70
     1
102
RTVSPropertyOp42
 70
     1
102
RTVSPropertyOp43
 70
     1
102
RTVSPropertyOp44
 70
     1
102
RTVSPropertyOp45
 70
     1
102
RTVSPropertyOp46
 70
     1
102
RTVSPropertyOp47
 70
     1
102
RTVSPropertyOp48
 70
     1
102
RTVSPropertyOp49
 70
     1
102
RTVSPropertyOp50
 70
     1
102
RTVSPropertyOp51
 70
     0
102
RTVSPropertyOp52
 70
     0
102
RTVSPropertyOp53
 70
     1
102
RTVSPropertyOp54
 70
     1
102
RTVSPropertyOp55
 70
     1
102
RTVSPropertyOp56
 70
     1
102
RTVSPropertyOp57
 70
     1
102
RTVSPropertyOp58
 70
     1
102
RTVSPropertyOp59
 70
     1
102
RTVSPropertyOp60
 70
     1
102
RTVSPropertyOp61
 70
     1
102
RTVSPropertyOp62
 70
     1
  0
XRECORD
  5
98BD
102
{ACAD_REACTORS
330
98BC
102
}
330
98BC
100
AcDbXrecord
280
     1
102
RTVSPost2010Prop28
280
     0
102
RTVSPost2010PropOp28
 70
     1
102
RTVSPost2010Prop29
280
     1
102
RTVSPost2010PropOp29
 70
     1
102
RTVSPost2010Prop30
280
     1
102
RTVSPost2010PropOp30
 70
     1
102
RTVSPost2010Prop31
280
     0
102
RTVSPost2010PropOp31
 70
     1
102
RTVSPost2010Prop32
280
     0
102
RTVSPost2010PropOp32
 70
     1
102
RTVSPost2010Prop33
280
     0
102
RTVSPost2010PropOp33
 70
     1
102
RTVSPost2010Prop34
280
     0
102
RTVSPost2010PropOp34
 70
     1
102
RTVSPost2010Prop35
280
     0
102
RTVSPost2010PropOp35
 70
     1
102
RTVSPost2010Prop36
280
     0
102
RTVSPost2010PropOp36
 70
     1
102
RTVSPost2010Prop37
 90
       50
102
RTVSPost2010PropOp37
 70
     1
102
RTVSPost2010Prop38
140
0.0
102
RTVSPost2010PropOp38
 70
     1
102
RTVSPost2010Prop39
140
1.0
102
RTVSPost2010PropOp39
 70
     1
102
RTVSPost2010Prop40
 90
        0
102
RTVSPost2010PropOp40
 70
     1
102
RTVSPost2010Prop41ColorIndex
 90
       18
102
RTVSPost2010Prop41ColorRGB
 90
        0
102
RTVSPost2010PropOp41
 70
     1
102
RTVSPost2010Prop42
 90
       50
102
RTVSPost2010PropOp42
 70
     1
102
RTVSPost2010Prop43
 90
        3
102
RTVSPost2010PropOp43
 70
     1
102
RTVSPost2010Prop44ColorIndex
 90
        5
102
RTVSPost2010Prop44ColorRGB
 90
      255
102
RTVSPost2010PropOp44
 70
     1
102
RTVSPost2010Prop45
280
     0
102
RTVSPost2010PropOp45
 70
     1
102
RTVSPost2010Prop46
 90
       50
102
RTVSPost2010PropOp46
 70
     1
102
RTVSPost2010Prop47
 90
       50
102
RTVSPost2010PropOp47
 70
     1
102
RTVSPost2010Prop48
 90
       50
102
RTVSPost2010PropOp48
 70
     1
102
RTVSPost2010Prop49
280
     0
102
RTVSPost2010PropOp49
 70
     1
102
RTVSPost2010Prop50
 90
       50
102
RTVSPost2010PropOp50
 70
     1
102
RTVSPost2010Prop51ColorIndex
 90
      256
102
RTVSPost2010Prop51ColorRGB
 90
-16777216
102
RTVSPost2010PropOp51
 70
     0
102
RTVSPost2010Prop52
140
1.0
102
RTVSPost2010PropOp52
 70
     0
102
RTVSPost2010Prop53
 90
        2
102
RTVSPost2010PropOp53
 70
     1
102
RTVSPost2010Prop54
  1
strokes_ogs.tif
102
RTVSPost2010PropOp54
 70
     1
102
RTVSPost2010Prop55
280
     0
102
RTVSPost2010PropOp55
 70
     1
102
RTVSPost2010Prop56
140
1.0
102
RTVSPost2010PropOp56
 70
     1
102
RTVSPost2010Prop57
140
1.0
102
RTVSPost2010PropOp57
 70
     1
102
RTVSPropertyOp0
 70
     1
102
RTVSPropertyOp1
 70
     1
102
RTVSPropertyOp2
 70
     1
102
RTVSPropertyOp3
 70
     1
102
RTVSPropertyOp4
 70
     1
102
RTVSPropertyOp5
 70
     1
102
RTVSPropertyOp6
 70
     1
102
RTVSPropertyOp7
 70
     1
102
RTVSPropertyOp8
 70
     1
102
RTVSPropertyOp9
 70
     1
102
RTVSPropertyOp10
 70
     1
102
RTVSPropertyOp11
 70
     1
102
RTVSPropertyOp12
 70
     1
102
RTVSPropertyOp13
 70
     1
102
RTVSPropertyOp14
 70
     1
102
RTVSPropertyOp15
 70
     1
102
RTVSPropertyOp16
 70
     1
102
RTVSPropertyOp17
 70
     1
102
RTVSPropertyOp18
 70
     1
102
RTVSPropertyOp19
 70
     1
102
RTVSPropertyOp20
 70
     1
102
RTVSPropertyOp21
 70
     1
102
RTVSPropertyOp22
 70
     1
102
RTVSPropertyOp23
 70
     1
102
RTVSPropertyOp24
 70
     1
102
RTVSPropertyOp25
 70
     1
102
RTVSPropertyOp26
 70
     1
102
RTVSPropertyOp27
 70
     1
102
RTVSPropertyOp28
 70
     1
102
RTVSPropertyOp29
 70
     1
102
RTVSPropertyOp30
 70
     1
102
RTVSPropertyOp31
 70
     1
102
RTVSPropertyOp32
 70
     1
102
RTVSPropertyOp33
 70
     1
102
RTVSPropertyOp34
 70
     1
102
RTVSPropertyOp35
 70
     1
102
RTVSPropertyOp36
 70
     1
102
RTVSPropertyOp37
 70
     1
102
RTVSPropertyOp38
 70
     1
102
RTVSPropertyOp39
 70
     1
102
RTVSPropertyOp40
 70
     1
102
RTVSPropertyOp41
 70
     1
102
RTVSPropertyOp42
 70
     1
102
RTVSPropertyOp43
 70
     1
102
RTVSPropertyOp44
 70
     1
102
RTVSPropertyOp45
 70
     1
102
RTVSPropertyOp46
 70
     1
102
RTVSPropertyOp47
 70
     1
102
RTVSPropertyOp48
 70
     1
102
RTVSPropertyOp49
 70
     1
102
RTVSPropertyOp50
 70
     1
102
RTVSPropertyOp51
 70
     0
102
RTVSPropertyOp52
 70
     0
102
RTVSPropertyOp53
 70
     1
102
RTVSPropertyOp54
 70
     1
102
RTVSPropertyOp55
 70
     1
102
RTVSPropertyOp56
 70
     1
102
RTVSPropertyOp57
 70
     1
102
RTVSPropertyOp58
 70
     1
102
RTVSPropertyOp59
 70
     1
102
RTVSPropertyOp60
 70
     1
102
RTVSPropertyOp61
 70
     1
102
RTVSPropertyOp62
 70
     1
  0
XRECORD
  5
98B1
102
{ACAD_REACTORS
330
98B0
102
}
330
98B0
100
AcDbXrecord
280
     1
102
RTVSPost2010Prop28
280
     0
102
RTVSPost2010PropOp28
 70
     1
102
RTVSPost2010Prop29
280
     1
102
RTVSPost2010PropOp29
 70
     1
102
RTVSPost2010Prop30
280
     1
102
RTVSPost2010PropOp30
 70
     1
102
RTVSPost2010Prop31
280
     0
102
RTVSPost2010PropOp31
 70
     1
102
RTVSPost2010Prop32
280
     0
102
RTVSPost2010PropOp32
 70
     1
102
RTVSPost2010Prop33
280
     0
102
RTVSPost2010PropOp33
 70
     1
102
RTVSPost2010Prop34
280
     0
102
RTVSPost2010PropOp34
 70
     1
102
RTVSPost2010Prop35
280
     0
102
RTVSPost2010PropOp35
 70
     1
102
RTVSPost2010Prop36
280
     0
102
RTVSPost2010PropOp36
 70
     1
102
RTVSPost2010Prop37
 90
       50
102
RTVSPost2010PropOp37
 70
     1
102
RTVSPost2010Prop38
140
0.0
102
RTVSPost2010PropOp38
 70
     1
102
RTVSPost2010Prop39
140
1.0
102
RTVSPost2010PropOp39
 70
     1
102
RTVSPost2010Prop40
 90
        0
102
RTVSPost2010PropOp40
 70
     1
102
RTVSPost2010Prop41ColorIndex
 90
       18
102
RTVSPost2010Prop41ColorRGB
 90
        0
102
RTVSPost2010PropOp41
 70
     1
102
RTVSPost2010Prop42
 90
       50
102
RTVSPost2010PropOp42
 70
     1
102
RTVSPost2010Prop43
 90
        3
102
RTVSPost2010PropOp43
 70
     1
102
RTVSPost2010Prop44ColorIndex
 90
        5
102
RTVSPost2010Prop44ColorRGB
 90
      255
102
RTVSPost2010PropOp44
 70
     1
102
RTVSPost2010Prop45
280
     0
102
RTVSPost2010PropOp45
 70
     1
102
RTVSPost2010Prop46
 90
       50
102
RTVSPost2010PropOp46
 70
     1
102
RTVSPost2010Prop47
 90
       50
102
RTVSPost2010PropOp47
 70
     1
102
RTVSPost2010Prop48
 90
       50
102
RTVSPost2010PropOp48
 70
     1
102
RTVSPost2010Prop49
280
     0
102
RTVSPost2010PropOp49
 70
     1
102
RTVSPost2010Prop50
 90
       50
102
RTVSPost2010PropOp50
 70
     1
102
RTVSPost2010Prop51ColorIndex
 90
      256
102
RTVSPost2010Prop51ColorRGB
 90
-16777216
102
RTVSPost2010PropOp51
 70
     0
102
RTVSPost2010Prop52
140
1.0
102
RTVSPost2010PropOp52
 70
     0
102
RTVSPost2010Prop53
 90
        2
102
RTVSPost2010PropOp53
 70
     1
102
RTVSPost2010Prop54
  1
strokes_ogs.tif
102
RTVSPost2010PropOp54
 70
     1
102
RTVSPost2010Prop55
280
     0
102
RTVSPost2010PropOp55
 70
     1
102
RTVSPost2010Prop56
140
1.0
102
RTVSPost2010PropOp56
 70
     1
102
RTVSPost2010Prop57
140
1.0
102
RTVSPost2010PropOp57
 70
     1
102
RTVSPropertyOp0
 70
     1
102
RTVSPropertyOp1
 70
     1
102
RTVSPropertyOp2
 70
     1
102
RTVSPropertyOp3
 70
     1
102
RTVSPropertyOp4
 70
     1
102
RTVSPropertyOp5
 70
     1
102
RTVSPropertyOp6
 70
     1
102
RTVSPropertyOp7
 70
     1
102
RTVSPropertyOp8
 70
     1
102
RTVSPropertyOp9
 70
     1
102
RTVSPropertyOp10
 70
     1
102
RTVSPropertyOp11
 70
     1
102
RTVSPropertyOp12
 70
     1
102
RTVSPropertyOp13
 70
     1
102
RTVSPropertyOp14
 70
     1
102
RTVSPropertyOp15
 70
     1
102
RTVSPropertyOp16
 70
     1
102
RTVSPropertyOp17
 70
     1
102
RTVSPropertyOp18
 70
     1
102
RTVSPropertyOp19
 70
     1
102
RTVSPropertyOp20
 70
     1
102
RTVSPropertyOp21
 70
     1
102
RTVSPropertyOp22
 70
     1
102
RTVSPropertyOp23
 70
     1
102
RTVSPropertyOp24
 70
     1
102
RTVSPropertyOp25
 70
     1
102
RTVSPropertyOp26
 70
     1
102
RTVSPropertyOp27
 70
     1
102
RTVSPropertyOp28
 70
     1
102
RTVSPropertyOp29
 70
     1
102
RTVSPropertyOp30
 70
     1
102
RTVSPropertyOp31
 70
     1
102
RTVSPropertyOp32
 70
     1
102
RTVSPropertyOp33
 70
     1
102
RTVSPropertyOp34
 70
     1
102
RTVSPropertyOp35
 70
     1
102
RTVSPropertyOp36
 70
     1
102
RTVSPropertyOp37
 70
     1
102
RTVSPropertyOp38
 70
     1
102
RTVSPropertyOp39
 70
     1
102
RTVSPropertyOp40
 70
     1
102
RTVSPropertyOp41
 70
     1
102
RTVSPropertyOp42
 70
     1
102
RTVSPropertyOp43
 70
     1
102
RTVSPropertyOp44
 70
     1
102
RTVSPropertyOp45
 70
     1
102
RTVSPropertyOp46
 70
     1
102
RTVSPropertyOp47
 70
     1
102
RTVSPropertyOp48
 70
     1
102
RTVSPropertyOp49
 70
     1
102
RTVSPropertyOp50
 70
     1
102
RTVSPropertyOp51
 70
     0
102
RTVSPropertyOp52
 70
     0
102
RTVSPropertyOp53
 70
     1
102
RTVSPropertyOp54
 70
     1
102
RTVSPropertyOp55
 70
     1
102
RTVSPropertyOp56
 70
     1
102
RTVSPropertyOp57
 70
     1
102
RTVSPropertyOp58
 70
     1
102
RTVSPropertyOp59
 70
     1
102
RTVSPropertyOp60
 70
     1
102
RTVSPropertyOp61
 70
     1
102
RTVSPropertyOp62
 70
     1
  0
XRECORD
  5
98C9
102
{ACAD_REACTORS
330
98C8
102
}
330
98C8
100
AcDbXrecord
280
     1
102
RTVSPost2010Prop28
280
     0
102
RTVSPost2010PropOp28
 70
     1
102
RTVSPost2010Prop29
280
     1
102
RTVSPost2010PropOp29
 70
     1
102
RTVSPost2010Prop30
280
     1
102
RTVSPost2010PropOp30
 70
     1
102
RTVSPost2010Prop31
280
     0
102
RTVSPost2010PropOp31
 70
     1
102
RTVSPost2010Prop32
280
     0
102
RTVSPost2010PropOp32
 70
     1
102
RTVSPost2010Prop33
280
     0
102
RTVSPost2010PropOp33
 70
     1
102
RTVSPost2010Prop34
280
     0
102
RTVSPost2010PropOp34
 70
     1
102
RTVSPost2010Prop35
280
     0
102
RTVSPost2010PropOp35
 70
     1
102
RTVSPost2010Prop36
280
     0
102
RTVSPost2010PropOp36
 70
     1
102
RTVSPost2010Prop37
 90
       50
102
RTVSPost2010PropOp37
 70
     1
102
RTVSPost2010Prop38
140
0.0
102
RTVSPost2010PropOp38
 70
     1
102
RTVSPost2010Prop39
140
1.0
102
RTVSPost2010PropOp39
 70
     1
102
RTVSPost2010Prop40
 90
        0
102
RTVSPost2010PropOp40
 70
     1
102
RTVSPost2010Prop41ColorIndex
 90
       18
102
RTVSPost2010Prop41ColorRGB
 90
        0
102
RTVSPost2010PropOp41
 70
     1
102
RTVSPost2010Prop42
 90
       50
102
RTVSPost2010PropOp42
 70
     1
102
RTVSPost2010Prop43
 90
        3
102
RTVSPost2010PropOp43
 70
     1
102
RTVSPost2010Prop44ColorIndex
 90
        5
102
RTVSPost2010Prop44ColorRGB
 90
      255
102
RTVSPost2010PropOp44
 70
     1
102
RTVSPost2010Prop45
280
     0
102
RTVSPost2010PropOp45
 70
     1
102
RTVSPost2010Prop46
 90
       50
102
RTVSPost2010PropOp46
 70
     1
102
RTVSPost2010Prop47
 90
       50
102
RTVSPost2010PropOp47
 70
     1
102
RTVSPost2010Prop48
 90
       50
102
RTVSPost2010PropOp48
 70
     1
102
RTVSPost2010Prop49
280
     0
102
RTVSPost2010PropOp49
 70
     1
102
RTVSPost2010Prop50
 90
       50
102
RTVSPost2010PropOp50
 70
     1
102
RTVSPost2010Prop51ColorIndex
 90
      256
102
RTVSPost2010Prop51ColorRGB
 90
-16777216
102
RTVSPost2010PropOp51
 70
     0
102
RTVSPost2010Prop52
140
1.0
102
RTVSPost2010PropOp52
 70
     0
102
RTVSPost2010Prop53
 90
        2
102
RTVSPost2010PropOp53
 70
     1
102
RTVSPost2010Prop54
  1
strokes_ogs.tif
102
RTVSPost2010PropOp54
 70
     1
102
RTVSPost2010Prop55
280
     0
102
RTVSPost2010PropOp55
 70
     1
102
RTVSPost2010Prop56
140
1.0
102
RTVSPost2010PropOp56
 70
     1
102
RTVSPost2010Prop57
140
1.0
102
RTVSPost2010PropOp57
 70
     1
102
RTVSPropertyOp0
 70
     1
102
RTVSPropertyOp1
 70
     1
102
RTVSPropertyOp2
 70
     1
102
RTVSPropertyOp3
 70
     1
102
RTVSPropertyOp4
 70
     1
102
RTVSPropertyOp5
 70
     1
102
RTVSPropertyOp6
 70
     1
102
RTVSPropertyOp7
 70
     1
102
RTVSPropertyOp8
 70
     1
102
RTVSPropertyOp9
 70
     1
102
RTVSPropertyOp10
 70
     1
102
RTVSPropertyOp11
 70
     1
102
RTVSPropertyOp12
 70
     1
102
RTVSPropertyOp13
 70
     1
102
RTVSPropertyOp14
 70
     1
102
RTVSPropertyOp15
 70
     1
102
RTVSPropertyOp16
 70
     1
102
RTVSPropertyOp17
 70
     1
102
RTVSPropertyOp18
 70
     1
102
RTVSPropertyOp19
 70
     1
102
RTVSPropertyOp20
 70
     1
102
RTVSPropertyOp21
 70
     1
102
RTVSPropertyOp22
 70
     1
102
RTVSPropertyOp23
 70
     1
102
RTVSPropertyOp24
 70
     1
102
RTVSPropertyOp25
 70
     1
102
RTVSPropertyOp26
 70
     1
102
RTVSPropertyOp27
 70
     1
102
RTVSPropertyOp28
 70
     1
102
RTVSPropertyOp29
 70
     1
102
RTVSPropertyOp30
 70
     1
102
RTVSPropertyOp31
 70
     1
102
RTVSPropertyOp32
 70
     1
102
RTVSPropertyOp33
 70
     1
102
RTVSPropertyOp34
 70
     1
102
RTVSPropertyOp35
 70
     1
102
RTVSPropertyOp36
 70
     1
102
RTVSPropertyOp37
 70
     1
102
RTVSPropertyOp38
 70
     1
102
RTVSPropertyOp39
 70
     1
102
RTVSPropertyOp40
 70
     1
102
RTVSPropertyOp41
 70
     1
102
RTVSPropertyOp42
 70
     1
102
RTVSPropertyOp43
 70
     1
102
RTVSPropertyOp44
 70
     1
102
RTVSPropertyOp45
 70
     1
102
RTVSPropertyOp46
 70
     1
102
RTVSPropertyOp47
 70
     1
102
RTVSPropertyOp48
 70
     1
102
RTVSPropertyOp49
 70
     1
102
RTVSPropertyOp50
 70
     1
102
RTVSPropertyOp51
 70
     0
102
RTVSPropertyOp52
 70
     0
102
RTVSPropertyOp53
 70
     1
102
RTVSPropertyOp54
 70
     1
102
RTVSPropertyOp55
 70
     1
102
RTVSPropertyOp56
 70
     1
102
RTVSPropertyOp57
 70
     1
102
RTVSPropertyOp58
 70
     1
102
RTVSPropertyOp59
 70
     1
102
RTVSPropertyOp60
 70
     1
102
RTVSPropertyOp61
 70
     1
102
RTVSPropertyOp62
 70
     1
  0
ENDSEC
  0
EOF
