  0
SECTION
  2
HEADER
  9
$ACADVER
  1
AC1015
  9
$ACADMAINTVER
 70
    20
  9
$DWGCODEPAGE
  3
ANSI_932
  9
$INSBASE
 10
0.0
 20
0.0
 30
0.0
  9
$EXTMIN
 10
10.0
 20
9.999999999999998
 30
0.0
  9
$EXTMAX
 10
378.858627
 20
252.6680919999999
 30
0.0
  9
$LIMMIN
 10
0.0
 20
0.0
  9
$LIMMAX
 10
396.0
 20
273.0
  9
$ORTHOMODE
 70
     1
  9
$REGENMODE
 70
     1
  9
$FILLMODE
 70
     1
  9
$QTEXTMODE
 70
     0
  9
$MIRRTEXT
 70
     1
  9
$LTSCALE
 40
20.0
  9
$ATTMODE
 70
     1
  9
$TEXTSIZE
 40
5.0
  9
$TRACEWID
 40
1.0
  9
$TEXTSTYLE
  7
STANDARD
  9
$CLAYER
  8
0
  9
$CELTYPE
  6
BYLAYER
  9
$CECOLOR
 62
   256
  9
$CELTSCALE
 40
1.0
  9
$DISPSILH
 70
     0
  9
$DIMSCALE
 40
1.0
  9
$DIMASZ
 40
3.0
  9
$DIMEXO
 40
1.0
  9
$DIMDLI
 40
10.0
  9
$DIMRND
 40
0.0
  9
$DIMDLE
 40
0.0
  9
$DIMEXE
 40
1.0
  9
$DIMTP
 40
0.0
  9
$DIMTM
 40
0.0
  9
$DIMTXT
 40
3.2
  9
$DIMCEN
 40
0.0
  9
$DIMTSZ
 40
0.0
  9
$DIMTOL
 70
     0
  9
$DIMLIM
 70
     0
  9
$DIMTIH
 70
     0
  9
$DIMTOH
 70
     0
  9
$DIMSE1
 70
     0
  9
$DIMSE2
 70
     0
  9
$DIMTAD
 70
     3
  9
$DIMZIN
 70
     8
  9
$DIMBLK
  1

  9
$DIMASO
 70
     1
  9
$DIMSHO
 70
     1
  9
$DIMPOST
  1

  9
$DIMAPOST
  1

  9
$DIMALT
 70
     0
  9
$DIMALTD
 70
     2
  9
$DIMALTF
 40
25.4
  9
$DIMLFAC
 40
1.0
  9
$DIMTOFL
 70
     1
  9
$DIMTVP
 40
0.0
  9
$DIMTIX
 70
     0
  9
$DIMSOXD
 70
     0
  9
$DIMSAH
 70
     1
  9
$DIMBLK1
  1

  9
$DIMBLK2
  1

  9
$DIMSTYLE
  2
STANDARD
  9
$DIMCLRD
 70
     0
  9
$DIMCLRE
 70
     0
  9
$DIMCLRT
 70
     0
  9
$DIMTFAC
 40
1.0
  9
$DIMGAP
 40
1.0
  9
$DIMJUST
 70
     0
  9
$DIMSD1
 70
     0
  9
$DIMSD2
 70
     0
  9
$DIMTOLJ
 70
     1
  9
$DIMTZIN
 70
     0
  9
$DIMALTZ
 70
     0
  9
$DIMALTTZ
 70
     0
  9
$DIMUPT
 70
     0
  9
$DIMDEC
 70
     4
  9
$DIMTDEC
 70
     4
  9
$DIMALTU
 70
     2
  9
$DIMALTTD
 70
     2
  9
$DIMTXSTY
  7
STANDARD
  9
$DIMAUNIT
 70
     0
  9
$DIMADEC
 70
     0
  9
$DIMALTRND
 40
0.0
  9
$DIMAZIN
 70
     0
  9
$DIMDSEP
 70
    46
  9
$DIMATFIT
 70
     3
  9
$DIMFRAC
 70
     0
  9
$DIMLDRBLK
  1

  9
$DIMLUNIT
 70
     2
  9
$DIMLWD
 70
    -2
  9
$DIMLWE
 70
    -2
  9
$DIMTMOVE
 70
     0
  9
$LUNITS
 70
     2
  9
$LUPREC
 70
     4
  9
$SKETCHINC
 40
1.0
  9
$FILLETRAD
 40
0.0
  9
$AUNITS
 70
     0
  9
$AUPREC
 70
     2
  9
$MENU
  1
.
  9
$ELEVATION
 40
0.0
  9
$PELEVATION
 40
0.0
  9
$THICKNESS
 40
0.0
  9
$LIMCHECK
 70
     0
  9
$CHAMFERA
 40
10.0
  9
$CHAMFERB
 40
10.0
  9
$CHAMFERC
 40
0.0
  9
$CHAMFERD
 40
0.0
  9
$SKPOLY
 70
     0
  9
$TDCREATE
 40
2451066.793715278
  9
$TDUCREATE
 40
2451066.418715278
  9
$TDUPDATE
 40
2457192.598600671
  9
$TDUUPDATE
 40
2457192.223600671
  9
$TDINDWG
 40
0.0000152662
  9
$TDUSRTIMER
 40
0.0000147685
  9
$USRTIMER
 70
     1
  9
$ANGBASE
 50
0.0
  9
$ANGDIR
 70
     0
  9
$PDMODE
 70
     0
  9
$PDSIZE
 40
0.0
  9
$PLINEWID
 40
0.0
  9
$SPLFRAME
 70
     0
  9
$SPLINETYPE
 70
     6
  9
$SPLINESEGS
 70
     8
  9
$HANDSEED
  5
A244
  9
$SURFTAB1
 70
     6
  9
$SURFTAB2
 70
     6
  9
$SURFTYPE
 70
     6
  9
$SURFU
 70
     6
  9
$SURFV
 70
     6
  9
$UCSBASE
  2

  9
$UCSNAME
  2

  9
$UCSORG
 10
0.0
 20
0.0
 30
0.0
  9
$UCSXDIR
 10
1.0
 20
0.0
 30
0.0
  9
$UCSYDIR
 10
0.0
 20
1.0
 30
0.0
  9
$UCSORTHOREF
  2

  9
$UCSORTHOVIEW
 70
     0
  9
$UCSORGTOP
 10
0.0
 20
0.0
 30
0.0
  9
$UCSORGBOTTOM
 10
0.0
 20
0.0
 30
0.0
  9
$UCSORGLEFT
 10
0.0
 20
0.0
 30
0.0
  9
$UCSORGRIGHT
 10
0.0
 20
0.0
 30
0.0
  9
$UCSORGFRONT
 10
0.0
 20
0.0
 30
0.0
  9
$UCSORGBACK
 10
0.0
 20
0.0
 30
0.0
  9
$PUCSBASE
  2

  9
$PUCSNAME
  2

  9
$PUCSORG
 10
0.0
 20
0.0
 30
0.0
  9
$PUCSXDIR
 10
1.0
 20
0.0
 30
0.0
  9
$PUCSYDIR
 10
0.0
 20
1.0
 30
0.0
  9
$PUCSORTHOREF
  2

  9
$PUCSORTHOVIEW
 70
     0
  9
$PUCSORGTOP
 10
0.0
 20
0.0
 30
0.0
  9
$PUCSORGBOTTOM
 10
0.0
 20
0.0
 30
0.0
  9
$PUCSORGLEFT
 10
0.0
 20
0.0
 30
0.0
  9
$PUCSORGRIGHT
 10
0.0
 20
0.0
 30
0.0
  9
$PUCSORGFRONT
 10
0.0
 20
0.0
 30
0.0
  9
$PUCSORGBACK
 10
0.0
 20
0.0
 30
0.0
  9
$USERI1
 70
     0
  9
$USERI2
 70
     0
  9
$USERI3
 70
     0
  9
$USERI4
 70
     0
  9
$USERI5
 70
     0
  9
$USERR1
 40
0.0
  9
$USERR2
 40
0.0
  9
$USERR3
 40
0.0
  9
$USERR4
 40
0.0
  9
$USERR5
 40
0.0
  9
$WORLDVIEW
 70
     1
  9
$SHADEDGE
 70
     3
  9
$SHADEDIF
 70
    70
  9
$TILEMODE
 70
     1
  9
$MAXACTVP
 70
    16
  9
$PINSBASE
 10
0.0
 20
0.0
 30
0.0
  9
$PLIMCHECK
 70
     0
  9
$PEXTMIN
 10
1.000000000000000E+20
 20
1.000000000000000E+20
 30
1.000000000000000E+20
  9
$PEXTMAX
 10
-1.000000000000000E+20
 20
-1.000000000000000E+20
 30
-1.000000000000000E+20
  9
$PLIMMIN
 10
0.0
 20
0.0
  9
$PLIMMAX
 10
420.0
 20
297.0
  9
$UNITMODE
 70
     0
  9
$VISRETAIN
 70
     0
  9
$PLINEGEN
 70
     0
  9
$PSLTSCALE
 70
     0
  9
$TREEDEPTH
 70
  3020
  9
$CMLSTYLE
  2
STANDARD
  9
$CMLJUST
 70
     0
  9
$CMLSCALE
 40
1.0
  9
$PROXYGRAPHICS
 70
     1
  9
$MEASUREMENT
 70
     0
  9
$CELWEIGHT
370
    -1
  9
$ENDCAPS
280
     0
  9
$JOINSTYLE
280
     0
  9
$LWDISPLAY
290
     0
  9
$INSUNITS
 70
     0
  9
$HYPERLINKBASE
  1

  9
$STYLESHEET
  1

  9
$XEDIT
290
     1
  9
$CEPSNTYPE
380
     0
  9
$PSTYLEMODE
290
     1
  9
$FINGERPRINTGUID
  2
{D6871D31-E6AC-49BE-9A2C-95440D906ABF}
  9
$VERSIONGUID
  2
{1D3A4E3F-FDAC-49BE-9559-EA3D1A422E22}
  9
$EXTNAMES
290
     1
  9
$PSVPSCALE
 40
0.0
  9
$OLESTARTUP
290
     0
  0
ENDSEC
  0
SECTION
  2
CLASSES
  0
CLASS
  1
ACDBDICTIONARYWDFLT
  2
AcDbDictionaryWithDefault
  3
ObjectDBX Classes
 90
        0
280
     0
281
     0
  0
CLASS
  1
ACDBPLACEHOLDER
  2
AcDbPlaceHolder
  3
ObjectDBX Classes
 90
        0
280
     0
281
     0
  0
CLASS
  1
LAYOUT
  2
AcDbLayout
  3
ObjectDBX Classes
 90
        0
280
     0
281
     0
  0
CLASS
  1
DICTIONARYVAR
  2
AcDbDictionaryVar
  3
ObjectDBX Classes
 90
        0
280
     0
281
     0
  0
CLASS
  1
MATERIAL
  2
AcDbMaterial
  3
ObjectDBX Classes
 90
     1153
280
     0
281
     0
  0
CLASS
  1
VISUALSTYLE
  2
AcDbVisualStyle
  3
ObjectDBX Classes
 90
     4095
280
     0
281
     0
  0
CLASS
  1
TABLESTYLE
  2
AcDbTableStyle
  3
ObjectDBX Classes
 90
     4095
280
     0
281
     0
  0
CLASS
  1
SCALE
  2
AcDbScale
  3
ObjectDBX Classes
 90
     1153
280
     0
281
     0
  0
CLASS
  1
MLEADERSTYLE
  2
AcDbMLeaderStyle
  3
ACDB_MLEADERSTYLE_CLASS
 90
     4095
280
     0
281
     0
  0
CLASS
  1
ACDBSECTIONVIEWSTYLE
  2
AcDbSectionViewStyle
  3
ObjectDBX Classes
 90
     1025
280
     0
281
     0
  0
CLASS
  1
ACDBDETAILVIEWSTYLE
  2
AcDbDetailViewStyle
  3
ObjectDBX Classes
 90
     1025
280
     0
281
     0
  0
CLASS
  1
CELLSTYLEMAP
  2
AcDbCellStyleMap
  3
ObjectDBX Classes
 90
     1152
280
     0
281
     0
  0
ENDSEC
  0
SECTION
  2
TABLES
  0
TABLE
  2
VPORT
  5
9E48
330
0
100
AcDbSymbolTable
 70
     1
  0
VPORT
  5
A18D
330
9E48
100
AcDbSymbolTableRecord
100
AcDbViewportTableRecord
  2
*ACTIVE
 70
     0
 10
0.0
 20
0.0
 11
1.0
 21
1.0
 12
267.9415818595136
 22
131.3345953561767
 13
0.0
 23
0.0
 14
10.0
 24
10.0
 15
10.0
 25
10.0
 16
0.0
 26
0.0
 36
1.0
 17
0.0
 27
0.0
 37
0.0
 40
245.4050893736154
 41
1.899603698811096
 42
50.0
 43
0.0
 44
0.0
 50
0.0
 51
0.0
 71
     0
 72
   100
 73
     1
 74
     0
 75
     0
 76
     0
 77
     0
 78
     0
281
     0
 65
     1
110
0.0
120
0.0
130
0.0
111
1.0
121
0.0
131
0.0
112
0.0
122
1.0
132
0.0
 79
     0
146
0.0
1001
ACAD_NAV_VCDISPLAY
1070
     3
  0
ENDTAB
  0
TABLE
  2
LTYPE
  5
9E45
330
0
100
AcDbSymbolTable
 70
     4
  0
LTYPE
  5
9E53
330
9E45
100
AcDbSymbolTableRecord
100
AcDbLinetypeTableRecord
  2
BYBLOCK
 70
     0
  3

 72
    65
 73
     0
 40
0.0
  0
LTYPE
  5
9E54
330
9E45
100
AcDbSymbolTableRecord
100
AcDbLinetypeTableRecord
  2
BYLAYER
 70
     0
  3

 72
    65
 73
     0
 40
0.0
  0
LTYPE
  5
9E55
330
9E45
100
AcDbSymbolTableRecord
100
AcDbLinetypeTableRecord
  2
CONTINUOUS
 70
     0
  3
Solid line
 72
    65
 73
     0
 40
0.0
  0
LTYPE
  5
9E63
330
9E45
100
AcDbSymbolTableRecord
100
AcDbLinetypeTableRecord
  2
DASHED
 70
     0
  3
__ __ __ __ __ __ __ __ __ __ __ __ __ __ __ __
 72
    65
 73
     2
 40
0.75
 49
0.5
 74
     0
 49
-0.25
 74
     0
  0
LTYPE
  5
9E64
330
9E45
100
AcDbSymbolTableRecord
100
AcDbLinetypeTableRecord
  2
CENTER
 70
     0
  3
____ _ ____ _ ____ _ ____ _ ____ _ ____ _ ____ 
 72
    65
 73
     4
 40
2.0
 49
1.25
 74
     0
 49
-0.25
 74
     0
 49
0.25
 74
     0
 49
-0.25
 74
     0
  0
LTYPE
  5
9E65
330
9E45
100
AcDbSymbolTableRecord
100
AcDbLinetypeTableRecord
  2
PHANTOM
 70
     0
  3
______  __  __  ______  __  __  ______  __  __ 
 72
    65
 73
     6
 40
2.5
 49
1.25
 74
     0
 49
-0.25
 74
     0
 49
0.25
 74
     0
 49
-0.25
 74
     0
 49
0.25
 74
     0
 49
-0.25
 74
     0
  0
ENDTAB
  0
TABLE
  2
LAYER
  5
9E42
330
0
100
AcDbSymbolTable
 70
     8
  0
LAYER
  5
9E50
102
{ACAD_XDICTIONARY
360
A1E8
102
}
330
9E42
100
AcDbSymbolTableRecord
100
AcDbLayerTableRecord
  2
0
 70
     0
 62
     7
  6
CONTINUOUS
370
    -3
390
A196
  0
LAYER
  5
9E66
102
{ACAD_XDICTIONARY
360
A1EA
102
}
330
9E42
100
AcDbSymbolTableRecord
100
AcDbLayerTableRecord
  2
4
 70
     0
 62
     1
  6
CENTER
370
    -3
390
A196
  0
LAYER
  5
9E67
102
{ACAD_XDICTIONARY
360
A1EC
102
}
330
9E42
100
AcDbSymbolTableRecord
100
AcDbLayerTableRecord
  2
5
 70
     0
 62
     6
  6
PHANTOM
370
    -3
390
A196
  0
LAYER
  5
9E68
102
{ACAD_XDICTIONARY
360
A1EE
102
}
330
9E42
100
AcDbSymbolTableRecord
100
AcDbLayerTableRecord
  2
1
 70
     0
 62
     7
  6
CONTINUOUS
370
    -3
390
A196
  0
LAYER
  5
9E69
102
{ACAD_XDICTIONARY
360
A1F0
102
}
330
9E42
100
AcDbSymbolTableRecord
100
AcDbLayerTableRecord
  2
2
 70
     0
 62
     4
  6
CONTINUOUS
370
    -3
390
A196
  0
LAYER
  5
9E6A
102
{ACAD_XDICTIONARY
360
A1F2
102
}
330
9E42
100
AcDbSymbolTableRecord
100
AcDbLayerTableRecord
  2
3
 70
     0
 62
     2
  6
DASHED
370
    -3
390
A196
  0
LAYER
  5
9E6B
102
{ACAD_XDICTIONARY
360
A1F4
102
}
330
9E42
100
AcDbSymbolTableRecord
100
AcDbLayerTableRecord
  2
6
 70
     0
 62
     5
  6
CONTINUOUS
370
    -3
390
A196
  0
LAYER
  5
9E6C
102
{ACAD_XDICTIONARY
360
A1F6
102
}
330
9E42
100
AcDbSymbolTableRecord
100
AcDbLayerTableRecord
  2
7
 70
     0
 62
     3
  6
CONTINUOUS
370
    -3
390
A196
  0
ENDTAB
  0
TABLE
  2
STYLE
  5
9E43
330
0
100
AcDbSymbolTable
 70
     1
  0
STYLE
  5
9E51
330
9E43
100
AcDbSymbolTableRecord
100
AcDbTextStyleTableRecord
  2
STANDARD
 70
     0
 40
0.0
 41
1.0
 50
0.0
 71
     0
 42
5.0
  3
txt
  4

  0
ENDTAB
  0
TABLE
  2
VIEW
  5
9E46
330
0
100
AcDbSymbolTable
 70
     0
  0
ENDTAB
  0
TABLE
  2
UCS
  5
9E47
330
0
100
AcDbSymbolTable
 70
     0
  0
ENDTAB
  0
TABLE
  2
APPID
  5
9E49
330
0
100
AcDbSymbolTable
 70
     3
  0
APPID
  5
9E52
330
9E49
100
AcDbSymbolTableRecord
100
AcDbRegAppTableRecord
  2
ACAD
 70
     0
  0
APPID
  5
A202
330
9E49
100
AcDbSymbolTableRecord
100
AcDbRegAppTableRecord
  2
ACAD_NAV_VCDISPLAY
 70
     0
  0
APPID
  5
A23B
330
9E49
100
AcDbSymbolTableRecord
100
AcDbRegAppTableRecord
  2
ACAD_MLEADERVER
 70
     0
  0
ENDTAB
  0
TABLE
  2
DIMSTYLE
  5
9E4A
330
0
100
AcDbSymbolTable
 70
     1
100
AcDbDimStyleTable
 71
     0
  0
DIMSTYLE
105
9E6E
330
9E4A
100
AcDbSymbolTableRecord
100
AcDbDimStyleTableRecord
  2
STANDARD
 70
     0
 41
3.0
 42
1.0
 43
10.0
 44
1.0
 73
     0
 74
     0
 77
     3
 78
     8
140
3.2
141
0.0
147
1.0
172
     1
173
     1
284
     8
285
     8
286
     8
340
9E51
  0
ENDTAB
  0
TABLE
  2
BLOCK_RECORD
  5
9E41
330
0
100
AcDbSymbolTable
 70
     0
  0
BLOCK_RECORD
  5
9E5E
102
{ACAD_XDICTIONARY
360
A190
102
}
330
9E41
100
AcDbSymbolTableRecord
100
AcDbBlockTableRecord
  2
*MODEL_SPACE
340
A1E4
  0
BLOCK_RECORD
  5
9E5A
102
{ACAD_XDICTIONARY
360
A18E
102
}
330
9E41
100
AcDbSymbolTableRecord
100
AcDbBlockTableRecord
  2
*PAPER_SPACE
340
A1E5
  0
ENDTAB
  0
ENDSEC
  0
SECTION
  2
BLOCKS
  0
BLOCK
  5
9E5F
330
9E5E
100
AcDbEntity
  8
0
100
AcDbBlockBegin
  2
*MODEL_SPACE
 70
     0
 10
0.0
 20
0.0
 30
0.0
  3
*MODEL_SPACE
  1

  0
ENDBLK
  5
9E60
330
9E5E
100
AcDbEntity
  8
0
100
AcDbBlockEnd
  0
BLOCK
  5
9E5B
330
9E5A
100
AcDbEntity
 67
     1
  8
0
100
AcDbBlockBegin
  2
*PAPER_SPACE
 70
     0
 10
0.0
 20
0.0
 30
0.0
  3
*PAPER_SPACE
  1

  0
ENDBLK
  5
9E5C
330
9E5A
100
AcDbEntity
 67
     1
  8
0
100
AcDbBlockEnd
  0
ENDSEC
  0
SECTION
  2
ENTITIES
  0
TEXT
  5
9E76
330
9E5E
100
AcDbEntity
  8
7
  6
Continuous
100
AcDbText
 10
10.0
 20
18.0
 30
0.0
 40
3.0
  1
TYPE No.TL-11J-1
100
AcDbText
  0
TEXT
  5
9E77
330
9E5E
100
AcDbEntity
  8
7
  6
Continuous
100
AcDbText
 10
10.0
 20
26.0
 30
0.0
 40
3.0
  1
CODE No.1384
100
AcDbText
  0
TEXT
  5
9E78
330
9E5E
100
AcDbEntity
  8
1
  6
Continuous
100
AcDbText
 10
10.0
 20
10.0
 30
0.0
 40
1.399999999999999
  1
LAYER
100
AcDbText
  0
TEXT
  5
9E79
330
9E5E
100
AcDbEntity
  8
1
  6
Continuous
100
AcDbText
 10
17.97951099999998
 20
10.04873699999998
 30
0.0
 40
1.399999999999999
  1
1
100
AcDbText
  0
TEXT
  5
9E7A
330
9E5E
100
AcDbEntity
  8
7
  6
Continuous
100
AcDbText
 10
29.97951099999999
 20
10.04873699999998
 30
0.0
 40
1.399999999999999
  1
7
100
AcDbText
  0
TEXT
  5
9E7B
330
9E5E
100
AcDbEntity
  8
4
  6
CENTER
100
AcDbText
 10
23.97951099999999
 20
10.04873699999998
 30
0.0
 40
1.399999999999999
  1
4
100
AcDbText
  0
TEXT
  5
9E7C
330
9E5E
100
AcDbEntity
  8
3
  6
DASHED
100
AcDbText
 10
21.979511
 20
10.04873699999998
 30
0.0
 40
1.399999999999999
  1
3
100
AcDbText
  0
TEXT
  5
9E7D
330
9E5E
100
AcDbEntity
  8
2
  6
Continuous
100
AcDbText
 10
19.97951099999999
 20
10.04873699999998
 30
0.0
 40
1.399999999999999
  1
2
100
AcDbText
  0
TEXT
  5
9E7E
330
9E5E
100
AcDbEntity
  8
6
  6
Continuous
100
AcDbText
 10
27.979511
 20
10.04873699999998
 30
0.0
 40
1.399999999999999
  1
6
100
AcDbText
  0
TEXT
  5
9E7F
330
9E5E
100
AcDbEntity
  8
5
  6
PHANTOM
100
AcDbText
 10
25.97951099999999
 20
10.04873699999998
 30
0.0
 40
1.399999999999999
  1
5
100
AcDbText
  0
LINE
  5
9E80
330
9E5E
100
AcDbEntity
  8
4
  6
CENTER
100
AcDbLine
 10
32.088487
 20
161.6360919999999
 30
0.0
 11
32.088487
 21
101.4240919999999
 31
0.0
  0
LINE
  5
9E81
330
9E5E
100
AcDbEntity
  8
1
  6
Continuous
100
AcDbLine
 10
36.588487
 20
143.924092
 30
0.0
 11
27.588487
 21
143.924092
 31
0.0
  0
LINE
  5
9E82
330
9E5E
100
AcDbEntity
  8
1
  6
Continuous
100
AcDbLine
 10
37.088487
 20
106.4240919999999
 30
0.0
 11
27.088487
 21
106.4240919999999
 31
0.0
  0
LINE
  5
9E83
330
9E5E
100
AcDbEntity
  8
1
  6
Continuous
100
AcDbLine
 10
41.088487
 20
129.7394339999999
 30
0.0
 11
41.088487
 21
112.9240919999999
 31
0.0
  0
LINE
  5
9E84
330
9E5E
100
AcDbEntity
  8
1
  6
Continuous
100
AcDbLine
 10
36.588487
 20
143.924092
 30
0.0
 11
36.588487
 21
135.9240919999998
 31
0.0
  0
LINE
  5
9E85
330
9E5E
100
AcDbEntity
  8
1
  6
Continuous
100
AcDbLine
 10
40.088487
 20
112.9240919999999
 30
0.0
 11
40.088487
 21
109.4240919999998
 31
0.0
  0
LINE
  5
9E86
330
9E5E
100
AcDbEntity
  8
1
  6
Continuous
100
AcDbLine
 10
41.088487
 20
112.9240919999999
 30
0.0
 11
40.088487
 21
112.9240919999999
 31
0.0
  0
LINE
  5
9E87
330
9E5E
100
AcDbEntity
  8
1
  6
Continuous
100
AcDbLine
 10
22.93848699999999
 20
138.6798419999998
 30
0.0
 11
22.93848699999999
 21
124.4240919999999
 31
0.0
  0
LINE
  5
9E88
330
9E5E
100
AcDbEntity
  8
1
  6
Continuous
100
AcDbLine
 10
27.588487
 20
143.924092
 30
0.0
 11
27.588487
 21
135.9240919999998
 31
0.0
  0
LINE
  5
9E89
330
9E5E
100
AcDbEntity
  8
1
  6
Continuous
100
AcDbLine
 10
24.088487
 20
112.9240919999999
 30
0.0
 11
24.088487
 21
109.4240919999998
 31
0.0
  0
LINE
  5
9E8A
330
9E5E
100
AcDbEntity
  8
1
  6
Continuous
100
AcDbLine
 10
23.08848699999999
 20
112.9240919999999
 30
0.0
 11
24.088487
 21
112.9240919999999
 31
0.0
  0
LINE
  5
9E8B
330
9E5E
100
AcDbEntity
  8
1
  6
Continuous
100
AcDbLine
 10
22.088487
 20
124.4240919999999
 30
0.0
 11
23.08848699999999
 21
124.4240919999999
 31
0.0
  0
LINE
  5
9E8C
330
9E5E
100
AcDbEntity
  8
4
  6
CENTER
100
AcDbLine
 10
39.088487
 20
140.924092
 30
0.0
 11
25.088487
 21
140.924092
 31
0.0
  0
LINE
  5
9E8D
330
9E5E
100
AcDbEntity
  8
4
  6
CENTER
100
AcDbLine
 10
45.738487
 20
126.9240919999998
 30
0.0
 11
18.43848699999998
 21
126.9240919999998
 31
0.0
  0
LINE
  5
9E8E
330
9E5E
100
AcDbEntity
  8
4
  6
CENTER
100
AcDbLine
 10
25.088487
 20
124.4240919999999
 30
0.0
 11
21.088487
 21
124.4240919999999
 31
0.0
  0
LINE
  5
9E8F
330
9E5E
100
AcDbEntity
  8
1
  6
Continuous
100
AcDbLine
 10
155.9864479999999
 20
143.924092
 30
0.0
 11
158.0077259999999
 21
143.924092
 31
0.0
  0
LINE
  5
9E90
330
9E5E
100
AcDbEntity
  8
1
  6
Continuous
100
AcDbLine
 10
155.9864479999999
 20
106.4240919999999
 30
0.0
 11
156.9864479999999
 21
106.4240919999999
 31
0.0
  0
LINE
  5
9E91
330
9E5E
100
AcDbEntity
  8
1
  6
Continuous
100
AcDbLine
 10
155.9864479999999
 20
143.924092
 30
0.0
 11
155.9864479999999
 21
106.4240919999999
 31
0.0
  0
LINE
  5
9E92
330
9E5E
100
AcDbEntity
  8
1
  6
Continuous
100
AcDbLine
 10
157.486448
 20
130.924092
 30
0.0
 11
159.486448
 21
130.924092
 31
0.0
  0
LINE
  5
9E93
330
9E5E
100
AcDbEntity
  8
1
  6
Continuous
100
AcDbLine
 10
156.9864479999999
 20
112.9240919999999
 30
0.0
 11
156.9864479999999
 21
106.4240919999999
 31
0.0
  0
LINE
  5
9E94
330
9E5E
100
AcDbEntity
  8
1
  6
Continuous
100
AcDbLine
 10
155.9864479999999
 20
112.9240919999999
 30
0.0
 11
167.9864479999999
 21
112.9240919999999
 31
0.0
  0
LINE
  5
9E95
330
9E5E
100
AcDbEntity
  8
4
  6
CENTER
100
AcDbLine
 10
157.7364479999999
 20
117.9240919999999
 30
0.0
 11
165.2364479999999
 21
117.9240919999999
 31
0.0
  0
LINE
  5
9E96
330
9E5E
100
AcDbEntity
  8
1
  6
Continuous
100
AcDbLine
 10
158.7364479999999
 20
118.1740919999999
 30
0.0
 11
158.7364479999999
 21
117.6740919999998
 31
0.0
  0
LINE
  5
9E97
330
9E5E
100
AcDbEntity
  8
1
  6
Continuous
100
AcDbLine
 10
164.2364479999999
 20
118.1740919999999
 30
0.0
 11
164.2364479999999
 21
117.6740919999998
 31
0.0
  0
LINE
  5
9E98
330
9E5E
100
AcDbEntity
  8
1
  6
Continuous
100
AcDbLine
 10
157.486448
 20
124.4240919999999
 30
0.0
 11
159.486448
 21
124.4240919999999
 31
0.0
  0
LINE
  5
9E99
330
9E5E
100
AcDbEntity
  8
1
  6
Continuous
100
AcDbLine
 10
159.486448
 20
124.4240919999999
 30
0.0
 11
159.486448
 21
122.6740919999999
 31
0.0
  0
LINE
  5
9E9A
330
9E5E
100
AcDbEntity
  8
1
  6
Continuous
100
AcDbLine
 10
157.486448
 20
124.4240919999999
 30
0.0
 11
157.486448
 21
122.6740919999999
 31
0.0
  0
LINE
  5
9E9B
330
9E5E
100
AcDbEntity
  8
4
  6
CENTER
100
AcDbLine
 10
32.088487
 20
252.6680919999999
 30
0.0
 11
32.088487
 21
230.668092
 31
0.0
  0
LINE
  5
9E9C
330
9E5E
100
AcDbEntity
  8
1
  6
Continuous
100
AcDbLine
 10
24.088487
 20
235.668092
 30
0.0
 11
40.088487
 21
235.668092
 31
0.0
  0
LINE
  5
9E9D
330
9E5E
100
AcDbEntity
  8
1
  6
Continuous
100
AcDbLine
 10
27.588487
 20
246.168092
 30
0.0
 11
27.588487
 21
244.6680919999999
 31
0.0
  0
LINE
  5
9E9E
330
9E5E
100
AcDbEntity
  8
1
  6
Continuous
100
AcDbLine
 10
36.588487
 20
246.168092
 30
0.0
 11
36.588487
 21
244.6680919999999
 31
0.0
  0
LINE
  5
9E9F
330
9E5E
100
AcDbEntity
  8
1
  6
Continuous
100
AcDbLine
 10
35.588487
 20
246.168092
 30
0.0
 11
35.588487
 21
244.6680919999999
 31
0.0
  0
LINE
  5
9EA0
330
9E5E
100
AcDbEntity
  8
1
  6
Continuous
100
AcDbLine
 10
28.588487
 20
246.168092
 30
0.0
 11
28.588487
 21
244.6680919999999
 31
0.0
  0
LINE
  5
9EA1
330
9E5E
100
AcDbEntity
  8
1
  6
Continuous
100
AcDbLine
 10
28.588487
 20
236.6680919999998
 30
0.0
 11
35.588487
 21
236.6680919999998
 31
0.0
  0
LINE
  5
9EA2
330
9E5E
100
AcDbEntity
  8
1
  6
Continuous
100
AcDbLine
 10
25.838487
 20
247.668092
 30
0.0
 11
38.338487
 21
247.668092
 31
0.0
  0
LINE
  5
9EA3
330
9E5E
100
AcDbEntity
  8
1
  6
Continuous
100
AcDbLine
 10
28.688487
 20
237.668092
 30
0.0
 11
30.18848699999999
 21
237.668092
 31
0.0
  0
LINE
  5
9EA4
330
9E5E
100
AcDbEntity
  8
1
  6
Continuous
100
AcDbLine
 10
33.988487
 20
237.668092
 30
0.0
 11
35.488487
 21
237.668092
 31
0.0
  0
LINE
  5
9EA5
330
9E5E
100
AcDbEntity
  8
1
  6
Continuous
100
AcDbLine
 10
167.9864479999999
 20
143.924092
 30
0.0
 11
167.9864479999999
 21
112.9240919999999
 31
0.0
  0
LINE
  5
9EA6
330
9E5E
100
AcDbEntity
  8
4
  6
CENTER
100
AcDbLine
 10
161.486448
 20
121.9240919999998
 30
0.0
 11
161.486448
 21
113.9240919999999
 31
0.0
  0
LINE
  5
9EA7
330
9E5E
100
AcDbEntity
  8
1
  6
Continuous
100
AcDbLine
 10
166.486448
 20
128.924092
 30
0.0
 11
166.486448
 21
114.9240919999999
 31
0.0
  0
LINE
  5
9EA8
330
9E5E
100
AcDbEntity
  8
1
  6
Continuous
100
AcDbLine
 10
157.486448
 20
150.924092
 30
0.0
 11
159.486448
 21
150.924092
 31
0.0
  0
LINE
  5
9EA9
330
9E5E
100
AcDbEntity
  8
1
  6
Continuous
100
AcDbLine
 10
157.486448
 20
147.924092
 30
0.0
 11
159.486448
 21
147.924092
 31
0.0
  0
LINE
  5
9EAA
330
9E5E
100
AcDbEntity
  8
1
  6
Continuous
100
AcDbLine
 10
166.486448
 20
150.924092
 30
0.0
 11
166.486448
 21
147.924092
 31
0.0
  0
LINE
  5
9EAB
330
9E5E
100
AcDbEntity
  8
1
  6
Continuous
100
AcDbLine
 10
157.486448
 20
150.924092
 30
0.0
 11
157.486448
 21
147.924092
 31
0.0
  0
LINE
  5
9EAC
330
9E5E
100
AcDbEntity
  8
1
  6
Continuous
100
AcDbLine
 10
164.486448
 20
147.924092
 30
0.0
 11
166.486448
 21
147.924092
 31
0.0
  0
LINE
  5
9EAD
330
9E5E
100
AcDbEntity
  8
1
  6
Continuous
100
AcDbLine
 10
41.23848699999999
 20
150.924092
 30
0.0
 11
41.23848699999999
 21
147.168675
 31
0.0
  0
LINE
  5
9EAE
330
9E5E
100
AcDbEntity
  8
1
  6
Continuous
100
AcDbLine
 10
42.738487
 20
153.924092
 30
0.0
 11
41.088487
 21
153.924092
 31
0.0
  0
LINE
  5
9EAF
330
9E5E
100
AcDbEntity
  8
1
  6
Continuous
100
AcDbLine
 10
42.738487
 20
123.4240919999999
 30
0.0
 11
41.706076
 21
123.4240919999999
 31
0.0
  0
LINE
  5
9EB0
330
9E5E
100
AcDbEntity
  8
1
  6
Continuous
100
AcDbLine
 10
20.43848699999999
 20
125.7990919999999
 30
0.0
 11
20.43848699999999
 21
128.049092
 31
0.0
  0
LINE
  5
9EB1
330
9E5E
100
AcDbEntity
  8
1
  6
Continuous
100
AcDbLine
 10
43.73848699999999
 20
125.7990919999999
 30
0.0
 11
43.73848699999999
 21
128.049092
 31
0.0
  0
LINE
  5
9EB2
330
9E5E
100
AcDbEntity
  8
1
  6
Continuous
100
AcDbLine
 10
43.73848699999999
 20
128.049092
 30
0.0
 11
42.738487
 21
128.049092
 31
0.0
  0
LINE
  5
9EB3
330
9E5E
100
AcDbEntity
  8
1
  6
Continuous
100
AcDbLine
 10
43.73848699999999
 20
125.7990919999999
 30
0.0
 11
42.738487
 21
125.7990919999999
 31
0.0
  0
LINE
  5
9EB4
330
9E5E
100
AcDbEntity
  8
1
  6
Continuous
100
AcDbLine
 10
21.43848699999999
 20
125.7990919999999
 30
0.0
 11
20.43848699999999
 21
125.7990919999999
 31
0.0
  0
LINE
  5
9EB5
330
9E5E
100
AcDbEntity
  8
1
  6
Continuous
100
AcDbLine
 10
21.43848699999999
 20
128.049092
 30
0.0
 11
20.43848699999999
 21
128.049092
 31
0.0
  0
LINE
  5
9EB6
330
9E5E
100
AcDbEntity
  8
1
  6
Continuous
100
AcDbLine
 10
37.088487
 20
142.424092
 30
0.0
 11
37.088487
 21
139.424092
 31
0.0
  0
LINE
  5
9EB7
330
9E5E
100
AcDbEntity
  8
1
  6
Continuous
100
AcDbLine
 10
27.088487
 20
142.424092
 30
0.0
 11
27.088487
 21
139.424092
 31
0.0
  0
LINE
  5
9EB8
330
9E5E
100
AcDbEntity
  8
1
  6
Continuous
100
AcDbLine
 10
27.088487
 20
142.424092
 30
0.0
 11
27.588487
 21
142.424092
 31
0.0
  0
LINE
  5
9EB9
330
9E5E
100
AcDbEntity
  8
1
  6
Continuous
100
AcDbLine
 10
27.088487
 20
139.424092
 30
0.0
 11
27.588487
 21
139.424092
 31
0.0
  0
LINE
  5
9EBA
330
9E5E
100
AcDbEntity
  8
1
  6
Continuous
100
AcDbLine
 10
42.588487
 20
157.7990919999998
 30
0.0
 11
42.588487
 21
160.049092
 31
0.0
  0
LINE
  5
9EBB
330
9E5E
100
AcDbEntity
  8
1
  6
Continuous
100
AcDbLine
 10
21.588487
 20
157.7990919999998
 30
0.0
 11
21.588487
 21
160.049092
 31
0.0
  0
LINE
  5
9EBC
330
9E5E
100
AcDbEntity
  8
1
  6
Continuous
100
AcDbLine
 10
42.588487
 20
157.7990919999998
 30
0.0
 11
41.588487
 21
157.7990919999998
 31
0.0
  0
LINE
  5
9EBD
330
9E5E
100
AcDbEntity
  8
1
  6
Continuous
100
AcDbLine
 10
42.588487
 20
160.049092
 30
0.0
 11
41.588487
 21
160.049092
 31
0.0
  0
LINE
  5
9EBE
330
9E5E
100
AcDbEntity
  8
1
  6
Continuous
100
AcDbLine
 10
40.088487
 20
154.924092
 30
0.0
 11
40.088487
 21
161.424092
 31
0.0
  0
LINE
  5
9EBF
330
9E5E
100
AcDbEntity
  8
1
  6
Continuous
100
AcDbLine
 10
24.088487
 20
154.924092
 30
0.0
 11
24.088487
 21
161.424092
 31
0.0
  0
LINE
  5
9EC0
330
9E5E
100
AcDbEntity
  8
1
  6
Continuous
100
AcDbLine
 10
22.588487
 20
157.7990919999998
 30
0.0
 11
21.588487
 21
157.7990919999998
 31
0.0
  0
LINE
  5
9EC1
330
9E5E
100
AcDbEntity
  8
1
  6
Continuous
100
AcDbLine
 10
22.588487
 20
160.049092
 30
0.0
 11
21.588487
 21
160.049092
 31
0.0
  0
LINE
  5
9EC2
330
9E5E
100
AcDbEntity
  8
1
  6
Continuous
100
AcDbLine
 10
36.588487
 20
142.424092
 30
0.0
 11
37.088487
 21
142.424092
 31
0.0
  0
LINE
  5
9EC3
330
9E5E
100
AcDbEntity
  8
1
  6
Continuous
100
AcDbLine
 10
36.588487
 20
139.424092
 30
0.0
 11
37.088487
 21
139.424092
 31
0.0
  0
LINE
  5
9EC4
330
9E5E
100
AcDbEntity
  8
1
  6
Continuous
100
AcDbLine
 10
157.486448
 20
134.9240919999998
 30
0.0
 11
166.486448
 21
134.9240919999998
 31
0.0
  0
LINE
  5
9EC5
330
9E5E
100
AcDbEntity
  8
1
  6
Continuous
100
AcDbLine
 10
166.486448
 20
137.9240919999998
 30
0.0
 11
166.486448
 21
134.9240919999998
 31
0.0
  0
LINE
  5
9EC6
330
9E5E
100
AcDbEntity
  8
1
  6
Continuous
100
AcDbLine
 10
157.486448
 20
137.9240919999998
 30
0.0
 11
157.486448
 21
134.9240919999998
 31
0.0
  0
LINE
  5
9EC7
330
9E5E
100
AcDbEntity
  8
1
  6
Continuous
100
AcDbLine
 10
164.486448
 20
155.4240919999998
 30
0.0
 11
164.486448
 21
147.7444649999999
 31
0.0
  0
LINE
  5
9EC8
330
9E5E
100
AcDbEntity
  8
1
  6
Continuous
100
AcDbLine
 10
157.486448
 20
137.9240919999998
 30
0.0
 11
159.486448
 21
137.9240919999998
 31
0.0
  0
LINE
  5
9EC9
330
9E5E
100
AcDbEntity
  8
1
  6
Continuous
100
AcDbLine
 10
164.486448
 20
155.4240919999998
 30
0.0
 11
165.690448
 21
157.7430919999999
 31
0.0
  0
LINE
  5
9ECA
330
9E5E
100
AcDbEntity
  8
1
  6
Continuous
100
AcDbLine
 10
159.486448
 20
155.4240919999998
 30
0.0
 11
161.149448
 21
159.810092
 31
0.0
  0
LINE
  5
9ECB
330
9E5E
100
AcDbEntity
  8
1
  6
Continuous
100
AcDbLine
 10
159.486448
 20
155.4240919999998
 30
0.0
 11
164.486448
 21
155.4240919999998
 31
0.0
  0
LINE
  5
9ECC
330
9E5E
100
AcDbEntity
  8
1
  6
Continuous
100
AcDbLine
 10
42.08848699999999
 20
124.4240919999999
 30
0.0
 11
41.088487
 21
124.4240919999999
 31
0.0
  0
LINE
  5
9ECD
330
9E5E
100
AcDbEntity
  8
4
  6
CENTER
100
AcDbLine
 10
39.088487
 20
124.4240919999999
 30
0.0
 11
43.088487
 21
124.4240919999999
 31
0.0
  0
LINE
  5
9ECE
330
9E5E
100
AcDbEntity
  8
1
  6
Continuous
100
AcDbLine
 10
22.93848699999999
 20
150.924092
 30
0.0
 11
22.93848699999999
 21
147.600517
 31
0.0
  0
LINE
  5
9ECF
330
9E5E
100
AcDbEntity
  8
1
  6
Continuous
100
AcDbLine
 10
21.43848699999999
 20
123.4240919999999
 30
0.0
 11
22.47068699999999
 21
123.4240919999999
 31
0.0
  0
LINE
  5
9ED0
330
9E5E
100
AcDbEntity
  8
1
  6
Continuous
100
AcDbLine
 10
21.43848699999999
 20
134.9240919999998
 30
0.0
 11
19.938487
 21
134.9240919999998
 31
0.0
  0
LINE
  5
9ED1
330
9E5E
100
AcDbEntity
  8
1
  6
Continuous
100
AcDbLine
 10
22.588487
 20
161.424092
 30
0.0
 11
22.588487
 21
155.4240919999998
 31
0.0
  0
LINE
  5
9ED2
330
9E5E
100
AcDbEntity
  8
1
  6
Continuous
100
AcDbLine
 10
21.43848699999999
 20
153.924092
 30
0.0
 11
21.43848699999999
 21
147.3630039999999
 31
0.0
  0
LINE
  5
9ED3
330
9E5E
100
AcDbEntity
  8
1
  6
Continuous
100
AcDbLine
 10
19.938487
 20
154.424092
 30
0.0
 11
19.938487
 21
147.147083
 31
0.0
  0
LINE
  5
9ED4
330
9E5E
100
AcDbEntity
  8
1
  6
Continuous
100
AcDbLine
 10
24.088487
 20
161.424092
 30
0.0
 11
22.588487
 21
161.424092
 31
0.0
  0
LINE
  5
9ED5
330
9E5E
100
AcDbEntity
  8
1
  6
Continuous
100
AcDbLine
 10
23.08848699999999
 20
153.924092
 30
0.0
 11
21.43848699999999
 21
153.924092
 31
0.0
  0
LINE
  5
9ED6
330
9E5E
100
AcDbEntity
  8
1
  6
Continuous
100
AcDbLine
 10
22.588487
 20
155.4240919999998
 30
0.0
 11
20.938487
 21
155.4240919999998
 31
0.0
  0
LINE
  5
9ED7
330
9E5E
100
AcDbEntity
  8
1
  6
Continuous
100
AcDbLine
 10
42.738487
 20
134.9240919999998
 30
0.0
 11
44.23848699999999
 21
134.9240919999998
 31
0.0
  0
LINE
  5
9ED8
330
9E5E
100
AcDbEntity
  8
1
  6
Continuous
100
AcDbLine
 10
41.588487
 20
161.424092
 30
0.0
 11
41.588487
 21
155.4240919999998
 31
0.0
  0
LINE
  5
9ED9
330
9E5E
100
AcDbEntity
  8
1
  6
Continuous
100
AcDbLine
 10
42.738487
 20
153.924092
 30
0.0
 11
42.738487
 21
147.4061879999998
 31
0.0
  0
LINE
  5
9EDA
330
9E5E
100
AcDbEntity
  8
1
  6
Continuous
100
AcDbLine
 10
44.23848699999999
 20
154.424092
 30
0.0
 11
44.23848699999999
 21
147.5561779999999
 31
0.0
  0
LINE
  5
9EDB
330
9E5E
100
AcDbEntity
  8
1
  6
Continuous
100
AcDbLine
 10
40.088487
 20
161.424092
 30
0.0
 11
41.588487
 21
161.424092
 31
0.0
  0
LINE
  5
9EDC
330
9E5E
100
AcDbEntity
  8
1
  6
Continuous
100
AcDbLine
 10
41.588487
 20
155.4240919999998
 30
0.0
 11
43.238487
 21
155.4240919999998
 31
0.0
  0
LINE
  5
9EDD
330
9E5E
100
AcDbEntity
  8
4
  6
CENTER
100
AcDbLine
 10
19.588487
 20
158.9240919999998
 30
0.0
 11
44.58848699999999
 21
158.9240919999998
 31
0.0
  0
LINE
  5
9EDE
330
9E5E
100
AcDbEntity
  8
1
  6
Continuous
100
AcDbLine
 10
164.486448
 20
150.924092
 30
0.0
 11
166.486448
 21
150.924092
 31
0.0
  0
LINE
  5
9EDF
330
9E5E
100
AcDbEntity
  8
1
  6
Continuous
100
AcDbLine
 10
159.486448
 20
134.9240919999998
 30
0.0
 11
159.486448
 21
125.9240919999998
 31
0.0
  0
LINE
  5
9EE0
330
9E5E
100
AcDbEntity
  8
1
  6
Continuous
100
AcDbLine
 10
164.486448
 20
134.9240919999998
 30
0.0
 11
164.486448
 21
125.9240919999998
 31
0.0
  0
LINE
  5
9EE1
330
9E5E
100
AcDbEntity
  8
1
  6
Continuous
100
AcDbLine
 10
166.4368499999999
 20
143.924092
 30
0.0
 11
167.9864479999999
 21
143.924092
 31
0.0
  0
LINE
  5
9EE2
330
9E5E
100
AcDbEntity
  8
1
  6
Continuous
100
AcDbLine
 10
24.088487
 20
241.668092
 30
0.0
 11
40.088487
 21
241.668092
 31
0.0
  0
LINE
  5
9EE3
330
9E5E
100
AcDbEntity
  8
1
  6
Continuous
100
AcDbLine
 10
24.088487
 20
244.6680919999999
 30
0.0
 11
40.088487
 21
244.6680919999999
 31
0.0
  0
LINE
  5
9EE4
330
9E5E
100
AcDbEntity
  8
1
  6
Continuous
100
AcDbLine
 10
22.93848699999999
 20
246.168092
 30
0.0
 11
22.93848699999999
 21
245.668092
 31
0.0
  0
LINE
  5
9EE5
330
9E5E
100
AcDbEntity
  8
1
  6
Continuous
100
AcDbLine
 10
24.088487
 20
246.168092
 30
0.0
 11
24.088487
 21
239.168092
 31
0.0
  0
LINE
  5
9EE6
330
9E5E
100
AcDbEntity
  8
1
  6
Continuous
100
AcDbLine
 10
24.088487
 20
245.668092
 30
0.0
 11
22.588487
 21
245.668092
 31
0.0
  0
LINE
  5
9EE7
330
9E5E
100
AcDbEntity
  8
1
  6
Continuous
100
AcDbLine
 10
22.588487
 20
245.668092
 30
0.0
 11
22.588487
 21
239.168092
 31
0.0
  0
LINE
  5
9EE8
330
9E5E
100
AcDbEntity
  8
1
  6
Continuous
100
AcDbLine
 10
19.938487
 20
246.168092
 30
0.0
 11
19.938487
 21
245.910733
 31
0.0
  0
LINE
  5
9EE9
330
9E5E
100
AcDbEntity
  8
1
  6
Continuous
100
AcDbLine
 10
24.088487
 20
239.168092
 30
0.0
 11
19.938487
 21
239.168092
 31
0.0
  0
LINE
  5
9EEA
330
9E5E
100
AcDbEntity
  8
1
  6
Continuous
100
AcDbLine
 10
22.93848699999999
 20
237.168092
 30
0.0
 11
21.43848699999999
 21
237.168092
 31
0.0
  0
LINE
  5
9EEB
330
9E5E
100
AcDbEntity
  8
1
  6
Continuous
100
AcDbLine
 10
21.43848699999999
 20
237.168092
 30
0.0
 11
19.938487
 21
237.168092
 31
0.0
  0
LINE
  5
9EEC
330
9E5E
100
AcDbEntity
  8
1
  6
Continuous
100
AcDbLine
 10
21.588487
 20
244.293092
 30
0.0
 11
21.588487
 21
242.043092
 31
0.0
  0
LINE
  5
9EED
330
9E5E
100
AcDbEntity
  8
1
  6
Continuous
100
AcDbLine
 10
22.588487
 20
244.293092
 30
0.0
 11
21.588487
 21
244.293092
 31
0.0
  0
LINE
  5
9EEE
330
9E5E
100
AcDbEntity
  8
1
  6
Continuous
100
AcDbLine
 10
22.588487
 20
242.043092
 30
0.0
 11
21.588487
 21
242.043092
 31
0.0
  0
LINE
  5
9EEF
330
9E5E
100
AcDbEntity
  8
4
  6
CENTER
100
AcDbLine
 10
286.858627
 20
140.924092
 30
0.0
 11
299.4586269999999
 21
140.924092
 31
0.0
  0
LINE
  5
9EF0
330
9E5E
100
AcDbEntity
  8
1
  6
Continuous
100
AcDbLine
 10
302.858627
 20
112.9240919999999
 30
0.0
 11
301.858627
 21
112.9240919999999
 31
0.0
  0
LINE
  5
9EF1
330
9E5E
100
AcDbEntity
  8
1
  6
Continuous
100
AcDbLine
 10
284.858627
 20
112.9240919999999
 30
0.0
 11
285.8586269999999
 21
112.9240919999999
 31
0.0
  0
LINE
  5
9EF2
330
9E5E
100
AcDbEntity
  8
4
  6
CENTER
100
AcDbLine
 10
282.858627
 20
117.9240919999999
 30
0.0
 11
286.858627
 21
117.9240919999999
 31
0.0
  0
LINE
  5
9EF3
330
9E5E
100
AcDbEntity
  8
1
  6
Continuous
100
AcDbLine
 10
289.358627
 20
139.424092
 30
0.0
 11
288.858627
 21
139.424092
 31
0.0
  0
LINE
  5
9EF4
330
9E5E
100
AcDbEntity
  8
1
  6
Continuous
100
AcDbLine
 10
288.858627
 20
142.424092
 30
0.0
 11
288.858627
 21
139.424092
 31
0.0
  0
LINE
  5
9EF5
330
9E5E
100
AcDbEntity
  8
1
  6
Continuous
100
AcDbLine
 10
298.858627
 20
142.424092
 30
0.0
 11
298.858627
 21
139.424092
 31
0.0
  0
LINE
  5
9EF6
330
9E5E
100
AcDbEntity
  8
1
  6
Continuous
100
AcDbLine
 10
298.858627
 20
142.424092
 30
0.0
 11
298.3586269999999
 21
142.424092
 31
0.0
  0
LINE
  5
9EF7
330
9E5E
100
AcDbEntity
  8
1
  6
Continuous
100
AcDbLine
 10
298.858627
 20
139.424092
 30
0.0
 11
298.3586269999999
 21
139.424092
 31
0.0
  0
LINE
  5
9EF8
330
9E5E
100
AcDbEntity
  8
1
  6
Continuous
100
AcDbLine
 10
289.358627
 20
142.424092
 30
0.0
 11
288.858627
 21
142.424092
 31
0.0
  0
LINE
  5
9EF9
330
9E5E
100
AcDbEntity
  8
1
  6
Continuous
100
AcDbLine
 10
301.608627
 20
112.9240919999999
 30
0.0
 11
286.108627
 21
112.9240919999999
 31
0.0
  0
LINE
  5
9EFA
330
9E5E
100
AcDbEntity
  8
1
  6
Continuous
100
AcDbLine
 10
301.608627
 20
129.5810919999998
 30
0.0
 11
301.608627
 21
112.9240919999999
 31
0.0
  0
LINE
  5
9EFB
330
9E5E
100
AcDbEntity
  8
1
  6
Continuous
100
AcDbLine
 10
286.108627
 20
129.5810919999998
 30
0.0
 11
286.108627
 21
112.9240919999999
 31
0.0
  0
LINE
  5
9EFC
330
9E5E
100
AcDbEntity
  8
1
  6
Continuous
100
AcDbLine
 10
297.2586269999998
 20
143.924092
 30
0.0
 11
297.2586269999998
 21
135.424092
 31
0.0
  0
LINE
  5
9EFD
330
9E5E
100
AcDbEntity
  8
1
  6
Continuous
100
AcDbLine
 10
290.4586269999999
 20
143.924092
 30
0.0
 11
290.4586269999999
 21
135.424092
 31
0.0
  0
LINE
  5
9EFE
330
9E5E
100
AcDbEntity
  8
4
  6
CENTER
100
AcDbLine
 10
293.858627
 20
161.924092
 30
0.0
 11
293.858627
 21
101.4240919999999
 31
0.0
  0
LINE
  5
9EFF
330
9E5E
100
AcDbEntity
  8
1
  6
Continuous
100
AcDbLine
 10
298.3586269999999
 20
143.924092
 30
0.0
 11
289.358627
 21
143.924092
 31
0.0
  0
LINE
  5
9F00
330
9E5E
100
AcDbEntity
  8
1
  6
Continuous
100
AcDbLine
 10
298.858627
 20
106.4240919999999
 30
0.0
 11
288.858627
 21
106.4240919999999
 31
0.0
  0
LINE
  5
9F01
330
9E5E
100
AcDbEntity
  8
1
  6
Continuous
100
AcDbLine
 10
298.3586269999999
 20
143.924092
 30
0.0
 11
298.3586269999999
 21
135.9240919999998
 31
0.0
  0
LINE
  5
9F02
330
9E5E
100
AcDbEntity
  8
1
  6
Continuous
100
AcDbLine
 10
301.858627
 20
112.9240919999999
 30
0.0
 11
301.858627
 21
109.4240919999998
 31
0.0
  0
LINE
  5
9F03
330
9E5E
100
AcDbEntity
  8
1
  6
Continuous
100
AcDbLine
 10
289.358627
 20
143.924092
 30
0.0
 11
289.358627
 21
135.9240919999998
 31
0.0
  0
LINE
  5
9F04
330
9E5E
100
AcDbEntity
  8
1
  6
Continuous
100
AcDbLine
 10
285.8586269999999
 20
112.9240919999999
 30
0.0
 11
285.8586269999999
 21
109.4240919999998
 31
0.0
  0
LINE
  5
9F05
330
9E5E
100
AcDbEntity
  8
1
  6
Continuous
100
AcDbLine
 10
297.358627
 20
143.924092
 30
0.0
 11
297.358627
 21
135.9240919999998
 31
0.0
  0
LINE
  5
9F06
330
9E5E
100
AcDbEntity
  8
1
  6
Continuous
100
AcDbLine
 10
301.858627
 20
130.1150919999997
 30
0.0
 11
301.858627
 21
112.9240919999999
 31
0.0
  0
LINE
  5
9F07
330
9E5E
100
AcDbEntity
  8
1
  6
Continuous
100
AcDbLine
 10
290.358627
 20
143.924092
 30
0.0
 11
290.358627
 21
135.9240919999998
 31
0.0
  0
LINE
  5
9F08
330
9E5E
100
AcDbEntity
  8
1
  6
Continuous
100
AcDbLine
 10
285.8586269999999
 20
130.1150919999997
 30
0.0
 11
285.8586269999999
 21
112.9240919999999
 31
0.0
  0
LINE
  5
9F09
330
9E5E
100
AcDbEntity
  8
4
  6
CENTER
100
AcDbLine
 10
307.5086269999999
 20
126.9240919999998
 30
0.0
 11
280.2086269999999
 21
126.9240919999998
 31
0.0
  0
LINE
  5
9F0A
330
9E5E
100
AcDbEntity
  8
4
  6
CENTER
100
AcDbLine
 10
32.088487
 20
38.86449199999999
 30
0.0
 11
32.088487
 21
60.864492
 31
0.0
  0
LINE
  5
9F0B
330
9E5E
100
AcDbEntity
  8
1
  6
Continuous
100
AcDbLine
 10
41.088487
 20
45.36449199999998
 30
0.0
 11
41.088487
 21
54.864492
 31
0.0
  0
LINE
  5
9F0C
330
9E5E
100
AcDbEntity
  8
1
  6
Continuous
100
AcDbLine
 10
40.088487
 20
55.864492
 30
0.0
 11
24.088487
 21
55.864492
 31
0.0
  0
LINE
  5
9F0D
330
9E5E
100
AcDbEntity
  8
1
  6
Continuous
100
AcDbLine
 10
41.088487
 20
45.36449199999998
 30
0.0
 11
40.088487
 21
45.36449199999998
 31
0.0
  0
LINE
  5
9F0E
330
9E5E
100
AcDbEntity
  8
1
  6
Continuous
100
AcDbLine
 10
28.588487
 20
51.364492
 30
0.0
 11
28.588487
 21
54.864492
 31
0.0
  0
LINE
  5
9F0F
330
9E5E
100
AcDbEntity
  8
1
  6
Continuous
100
AcDbLine
 10
35.588487
 20
51.364492
 30
0.0
 11
35.588487
 21
54.864492
 31
0.0
  0
LINE
  5
9F10
330
9E5E
100
AcDbEntity
  8
1
  6
Continuous
100
AcDbLine
 10
40.088487
 20
54.864492
 30
0.0
 11
24.088487
 21
54.864492
 31
0.0
  0
LINE
  5
9F11
330
9E5E
100
AcDbEntity
  8
1
  6
Continuous
100
AcDbLine
 10
40.088487
 20
45.36449199999998
 30
0.0
 11
40.088487
 21
55.864492
 31
0.0
  0
LINE
  5
9F12
330
9E5E
100
AcDbEntity
  8
1
  6
Continuous
100
AcDbLine
 10
24.088487
 20
45.36449199999998
 30
0.0
 11
24.088487
 21
55.864492
 31
0.0
  0
LINE
  5
9F13
330
9E5E
100
AcDbEntity
  8
1
  6
Continuous
100
AcDbLine
 10
24.088487
 20
45.36449199999998
 30
0.0
 11
23.08848699999999
 21
45.36449199999998
 31
0.0
  0
LINE
  5
9F14
330
9E5E
100
AcDbEntity
  8
1
  6
Continuous
100
AcDbLine
 10
39.838487
 20
44.864492
 30
0.0
 11
39.838487
 21
54.864492
 31
0.0
  0
LINE
  5
9F15
330
9E5E
100
AcDbEntity
  8
1
  6
Continuous
100
AcDbLine
 10
24.338487
 20
44.864492
 30
0.0
 11
24.338487
 21
54.864492
 31
0.0
  0
LINE
  5
9F16
330
9E5E
100
AcDbEntity
  8
1
  6
Continuous
100
AcDbLine
 10
38.838487
 20
43.864492
 30
0.0
 11
25.338487
 21
43.864492
 31
0.0
  0
LINE
  5
9F17
330
9E5E
100
AcDbEntity
  8
1
  6
Continuous
100
AcDbLine
 10
28.688487
 20
51.364492
 30
0.0
 11
28.688487
 21
53.86449200000001
 31
0.0
  0
LINE
  5
9F18
330
9E5E
100
AcDbEntity
  8
1
  6
Continuous
100
AcDbLine
 10
35.488487
 20
51.364492
 30
0.0
 11
35.488487
 21
53.86449200000001
 31
0.0
  0
LINE
  5
9F19
330
9E5E
100
AcDbEntity
  8
1
  6
Continuous
100
AcDbLine
 10
33.988487
 20
45.36449199999998
 30
0.0
 11
33.988487
 21
48.364492
 31
0.0
  0
LINE
  5
9F1A
330
9E5E
100
AcDbEntity
  8
1
  6
Continuous
100
AcDbLine
 10
30.18848699999999
 20
45.36449199999998
 30
0.0
 11
30.18848699999999
 21
48.364492
 31
0.0
  0
LINE
  5
9F1B
330
9E5E
100
AcDbEntity
  8
1
  6
Continuous
100
AcDbLine
 10
35.488487
 20
53.86449200000001
 30
0.0
 11
33.988487
 21
53.86449200000001
 31
0.0
  0
LINE
  5
9F1C
330
9E5E
100
AcDbEntity
  8
1
  6
Continuous
100
AcDbLine
 10
30.18848699999999
 20
53.86449200000001
 30
0.0
 11
28.688487
 21
53.86449200000001
 31
0.0
  0
LINE
  5
9F1D
330
9E5E
100
AcDbEntity
  8
1
  6
Continuous
100
AcDbLine
 10
25.838487
 20
45.36449199999998
 30
0.0
 11
25.838487
 21
54.864492
 31
0.0
  0
LINE
  5
9F1E
330
9E5E
100
AcDbEntity
  8
1
  6
Continuous
100
AcDbLine
 10
38.338487
 20
45.36449199999998
 30
0.0
 11
38.338487
 21
54.864492
 31
0.0
  0
LINE
  5
9F1F
330
9E5E
100
AcDbEntity
  8
1
  6
Continuous
100
AcDbLine
 10
38.338487
 20
45.36449199999998
 30
0.0
 11
25.838487
 21
45.36449199999998
 31
0.0
  0
LINE
  5
9F20
330
9E5E
100
AcDbEntity
  8
1
  6
Continuous
100
AcDbLine
 10
40.088487
 20
51.364492
 30
0.0
 11
39.838487
 21
51.364492
 31
0.0
  0
LINE
  5
9F21
330
9E5E
100
AcDbEntity
  8
1
  6
Continuous
100
AcDbLine
 10
40.088487
 20
48.364492
 30
0.0
 11
39.838487
 21
48.364492
 31
0.0
  0
LINE
  5
9F22
330
9E5E
100
AcDbEntity
  8
1
  6
Continuous
100
AcDbLine
 10
24.338487
 20
51.364492
 30
0.0
 11
24.088487
 21
51.364492
 31
0.0
  0
LINE
  5
9F23
330
9E5E
100
AcDbEntity
  8
1
  6
Continuous
100
AcDbLine
 10
24.338487
 20
48.364492
 30
0.0
 11
24.088487
 21
48.364492
 31
0.0
  0
LINE
  5
9F24
330
9E5E
100
AcDbEntity
  8
1
  6
Continuous
100
AcDbLine
 10
159.486448
 20
155.4240919999998
 30
0.0
 11
159.486448
 21
147.024728
 31
0.0
  0
LINE
  5
9F25
330
9E5E
100
AcDbEntity
  8
1
  6
Continuous
100
AcDbLine
 10
17.538141
 20
139.3161519999999
 30
0.0
 11
25.139
 21
140.410275
 31
0.0
  0
LINE
  5
9F26
330
9E5E
100
AcDbEntity
  8
1
  6
Continuous
100
AcDbLine
 10
17.737319
 20
137.931832
 30
0.0
 11
25.338319
 21
139.024976
 31
0.0
  0
LINE
  5
9F27
330
9E5E
100
AcDbEntity
  8
1
  6
Continuous
100
AcDbLine
 10
17.737319
 20
139.4268319999999
 30
0.0
 11
25.338319
 21
140.519976
 31
0.0
  0
LINE
  5
9F28
330
9E5E
100
AcDbEntity
  8
1
  6
Continuous
100
AcDbLine
 10
17.538141
 20
140.811152
 30
0.0
 11
25.139
 21
141.9052749999998
 31
0.0
  0
LINE
  5
9F29
330
9E5E
100
AcDbEntity
  8
1
  6
Continuous
100
AcDbLine
 10
17.538141
 20
142.306152
 30
0.0
 11
25.139
 21
143.4002749999999
 31
0.0
  0
LINE
  5
9F2A
330
9E5E
100
AcDbEntity
  8
1
  6
Continuous
100
AcDbLine
 10
17.737319
 20
140.9218319999999
 30
0.0
 11
25.338319
 21
142.0149759999999
 31
0.0
  0
LINE
  5
9F2B
330
9E5E
100
AcDbEntity
  8
1
  6
Continuous
100
AcDbLine
 10
17.735509
 20
142.4165719999998
 30
0.0
 11
25.33967699999999
 21
143.5101709999998
 31
0.0
  0
LINE
  5
9F2C
330
9E5E
100
AcDbEntity
  8
1
  6
Continuous
100
AcDbLine
 10
17.53678199999999
 20
143.797756
 30
0.0
 11
25.140809
 21
144.892336
 31
0.0
  0
LINE
  5
9F2D
330
9E5E
100
AcDbEntity
  8
1
  6
Continuous
100
AcDbLine
 10
17.55307999999999
 20
145.3303019999999
 30
0.0
 11
25.119099
 21
146.419411
 31
0.0
  0
LINE
  5
9F2E
330
9E5E
100
AcDbEntity
  8
1
  6
Continuous
100
AcDbLine
 10
17.75722
 20
143.911494
 30
0.0
 11
25.32337899999999
 21
144.9996269999998
 31
0.0
  0
LINE
  5
9F2F
330
9E5E
100
AcDbEntity
  8
1
  6
Continuous
100
AcDbLine
 10
17.75998699999998
 20
145.442092
 30
0.0
 11
25.359987
 21
146.5350919999998
 31
0.0
  0
LINE
  5
9F30
330
9E5E
100
AcDbEntity
  8
1
  6
Continuous
100
AcDbLine
 10
17.516887
 20
146.8200919999999
 30
0.0
 11
25.116887
 21
147.9140919999998
 31
0.0
  0
LINE
  5
9F31
330
9E5E
100
AcDbEntity
  8
1
  6
Continuous
100
AcDbLine
 10
17.63848699999998
 20
147.924092
 30
0.0
 11
19.938487
 21
147.924092
 31
0.0
  0
LINE
  5
9F32
330
9E5E
100
AcDbEntity
  8
1
  6
Continuous
100
AcDbLine
 10
17.70178699999998
 20
137.9240919999998
 30
0.0
 11
21.43848699999999
 21
137.9240919999998
 31
0.0
  0
LINE
  5
9F33
330
9E5E
100
AcDbEntity
  8
1
  6
Continuous
100
AcDbLine
 10
21.43848699999999
 20
138.4641189999999
 30
0.0
 11
21.43848699999999
 21
123.4240919999999
 31
0.0
  0
LINE
  5
9F34
330
9E5E
100
AcDbEntity
  8
1
  6
Continuous
100
AcDbLine
 10
19.938487
 20
138.2268229999999
 30
0.0
 11
19.938487
 21
134.9240919999998
 31
0.0
  0
LINE
  5
9F35
330
9E5E
100
AcDbEntity
  8
1
  6
Continuous
100
AcDbLine
 10
44.23848699999999
 20
138.6798419999998
 30
0.0
 11
44.23848699999999
 21
134.9240919999998
 31
0.0
  0
LINE
  5
9F36
330
9E5E
100
AcDbEntity
  8
1
  6
Continuous
100
AcDbLine
 10
42.738487
 20
138.4641189999999
 30
0.0
 11
42.738487
 21
123.4240919999999
 31
0.0
  0
LINE
  5
9F37
330
9E5E
100
AcDbEntity
  8
1
  6
Continuous
100
AcDbLine
 10
19.938487
 20
237.425452
 30
0.0
 11
19.938487
 21
237.168092
 31
0.0
  0
LINE
  5
9F38
330
9E5E
100
AcDbEntity
  8
1
  6
Continuous
100
AcDbLine
 10
21.43848699999999
 20
246.168092
 30
0.0
 11
21.43848699999999
 21
244.168092
 31
0.0
  0
LINE
  5
9F39
330
9E5E
100
AcDbEntity
  8
4
  6
CENTER
100
AcDbLine
 10
348.858627
 20
158.9240919999998
 30
0.0
 11
378.858627
 21
158.9240919999998
 31
0.0
  0
LINE
  5
9F3A
330
9E5E
100
AcDbEntity
  8
1
  6
Continuous
100
AcDbLine
 10
97.088087
 20
155.4240919999998
 30
0.0
 11
87.088087
 21
155.4240919999998
 31
0.0
  0
LINE
  5
9F3B
330
9E5E
100
AcDbEntity
  8
1
  6
Continuous
100
AcDbLine
 10
101.088087
 20
162.9240919999998
 30
0.0
 11
83.088087
 21
162.9240919999998
 31
0.0
  0
LINE
  5
9F3C
330
9E5E
100
AcDbEntity
  8
1
  6
Continuous
100
AcDbLine
 10
97.088087
 20
162.1430919999999
 30
0.0
 11
97.088087
 21
155.4240919999998
 31
0.0
  0
LINE
  5
9F3D
330
9E5E
100
AcDbEntity
  8
1
  6
Continuous
100
AcDbLine
 10
87.088087
 20
162.1430919999999
 30
0.0
 11
87.088087
 21
155.4240919999998
 31
0.0
  0
LINE
  5
9F3E
330
9E5E
100
AcDbEntity
  8
1
  6
Continuous
100
AcDbLine
 10
85.38108699999998
 20
157.1310919999999
 30
0.0
 11
83.17508700000002
 21
154.925092
 31
0.0
  0
LINE
  5
9F3F
330
9E5E
100
AcDbEntity
  8
1
  6
Continuous
100
AcDbLine
 10
98.795087
 20
157.1310919999999
 30
0.0
 11
101.0020869999999
 21
154.925092
 31
0.0
  0
LINE
  5
9F40
330
9E5E
100
AcDbEntity
  8
1
  6
Continuous
100
AcDbLine
 10
96.088087
 20
162.1430919999999
 30
0.0
 11
88.088087
 21
162.1430919999999
 31
0.0
  0
LINE
  5
9F41
330
9E5E
100
AcDbEntity
  8
1
  6
Continuous
100
AcDbLine
 10
219.797627
 20
157.424092
 30
0.0
 11
221.797627
 21
157.424092
 31
0.0
  0
LINE
  5
9F42
330
9E5E
100
AcDbEntity
  8
1
  6
Continuous
100
AcDbLine
 10
222.297627
 20
154.925092
 30
0.0
 11
224.297627
 21
154.925092
 31
0.0
  0
LINE
  5
9F43
330
9E5E
100
AcDbEntity
  8
1
  6
Continuous
100
AcDbLine
 10
222.297627
 20
162.9240919999998
 30
0.0
 11
224.297627
 21
162.9240919999998
 31
0.0
  0
LINE
  5
9F44
330
9E5E
100
AcDbEntity
  8
1
  6
Continuous
100
AcDbLine
 10
214.297627
 20
162.1430919999999
 30
0.0
 11
216.138627
 21
162.9240919999998
 31
0.0
  0
LINE
  5
9F45
330
9E5E
100
AcDbEntity
  8
1
  6
Continuous
100
AcDbLine
 10
222.297627
 20
162.9240919999998
 30
0.0
 11
222.297627
 21
154.925092
 31
0.0
  0
LINE
  5
9F46
330
9E5E
100
AcDbEntity
  8
1
  6
Continuous
100
AcDbLine
 10
224.297627
 20
162.9240919999998
 30
0.0
 11
224.297627
 21
154.925092
 31
0.0
  0
LINE
  5
9F47
330
9E5E
100
AcDbEntity
  8
1
  6
Continuous
100
AcDbLine
 10
216.138627
 20
162.9240919999998
 30
0.0
 11
218.4546269999999
 21
158.258092
 31
0.0
  0
LINE
  5
9F48
330
9E5E
100
AcDbEntity
  8
1
  6
Continuous
100
AcDbLine
 10
214.297627
 20
162.1430919999999
 30
0.0
 11
216.661627
 21
157.371092
 31
0.0
  0
LINE
  5
9F49
330
9E5E
100
AcDbEntity
  8
1
  6
Continuous
100
AcDbLine
 10
40.088487
 20
157.424092
 30
0.0
 11
24.088487
 21
157.424092
 31
0.0
  0
LINE
  5
9F4A
330
9E5E
100
AcDbEntity
  8
1
  6
Continuous
100
AcDbLine
 10
40.088487
 20
160.424092
 30
0.0
 11
24.088487
 21
160.424092
 31
0.0
  0
LINE
  5
9F4B
330
9E5E
100
AcDbEntity
  8
1
  6
Continuous
100
AcDbLine
 10
368.858627
 20
155.4240919999998
 30
0.0
 11
358.858627
 21
155.4240919999998
 31
0.0
  0
LINE
  5
9F4C
330
9E5E
100
AcDbEntity
  8
1
  6
Continuous
100
AcDbLine
 10
372.858627
 20
162.9240919999998
 30
0.0
 11
354.858627
 21
162.9240919999998
 31
0.0
  0
LINE
  5
9F4D
330
9E5E
100
AcDbEntity
  8
1
  6
Continuous
100
AcDbLine
 10
357.151627
 20
157.1310919999999
 30
0.0
 11
354.945627
 21
154.925092
 31
0.0
  0
LINE
  5
9F4E
330
9E5E
100
AcDbEntity
  8
1
  6
Continuous
100
AcDbLine
 10
370.5656269999999
 20
157.1310919999999
 30
0.0
 11
372.771627
 21
154.925092
 31
0.0
  0
LINE
  5
9F4F
330
9E5E
100
AcDbEntity
  8
1
  6
Continuous
100
AcDbLine
 10
79.088087
 20
247.668092
 30
0.0
 11
105.088087
 21
247.668092
 31
0.0
  0
LINE
  5
9F50
330
9E5E
100
AcDbEntity
  8
1
  6
Continuous
100
AcDbLine
 10
79.088087
 20
245.668092
 30
0.0
 11
105.088087
 21
245.668092
 31
0.0
  0
LINE
  5
9F51
330
9E5E
100
AcDbEntity
  8
1
  6
Continuous
100
AcDbLine
 10
88.088087
 20
239.5090919999999
 30
0.0
 11
96.088087
 21
239.5090919999999
 31
0.0
  0
LINE
  5
9F52
330
9E5E
100
AcDbEntity
  8
1
  6
Continuous
100
AcDbLine
 10
88.088087
 20
237.668092
 30
0.0
 11
96.088087
 21
237.668092
 31
0.0
  0
LINE
  5
9F53
330
9E5E
100
AcDbEntity
  8
1
  6
Continuous
100
AcDbLine
 10
105.088087
 20
245.668092
 30
0.0
 11
105.088087
 21
247.668092
 31
0.0
  0
LINE
  5
9F54
330
9E5E
100
AcDbEntity
  8
1
  6
Continuous
100
AcDbLine
 10
79.088087
 20
245.668092
 30
0.0
 11
79.088087
 21
247.668092
 31
0.0
  0
LINE
  5
9F55
330
9E5E
100
AcDbEntity
  8
1
  6
Continuous
100
AcDbLine
 10
97.088087
 20
238.6680919999998
 30
0.0
 11
97.088087
 21
245.668092
 31
0.0
  0
LINE
  5
9F56
330
9E5E
100
AcDbEntity
  8
1
  6
Continuous
100
AcDbLine
 10
87.088087
 20
238.6680919999998
 30
0.0
 11
87.088087
 21
245.668092
 31
0.0
  0
LINE
  5
9F57
330
9E5E
100
AcDbEntity
  8
1
  6
Continuous
100
AcDbLine
 10
40.088487
 20
45.86449199999999
 30
0.0
 11
39.838487
 21
45.86449199999999
 31
0.0
  0
LINE
  5
9F58
330
9E5E
100
AcDbEntity
  8
1
  6
Continuous
100
AcDbLine
 10
24.338487
 20
45.86449199999999
 30
0.0
 11
24.088487
 21
45.86449199999999
 31
0.0
  0
LINE
  5
9F59
330
9E5E
100
AcDbEntity
  8
4
  6
CENTER
100
AcDbLine
 10
160.9864479999998
 20
158.9240919999998
 30
0.0
 11
165.9864479999999
 21
158.9240919999998
 31
0.0
  0
LINE
  5
9F5A
330
9E5E
100
AcDbEntity
  8
4
  6
CENTER
100
AcDbLine
 10
163.486448
 20
161.424092
 30
0.0
 11
163.486448
 21
156.424092
 31
0.0
  0
LINE
  5
9F5B
330
9E5E
100
AcDbEntity
  8
4
  6
CENTER
100
AcDbLine
 10
161.9864479999999
 20
129.424092
 30
0.0
 11
161.9864479999999
 21
124.4240919999999
 31
0.0
  0
LINE
  5
9F5C
330
9E5E
100
AcDbEntity
  8
4
  6
CENTER
100
AcDbLine
 10
159.486448
 20
126.9240919999998
 30
0.0
 11
164.486448
 21
126.9240919999998
 31
0.0
  0
LINE
  5
9F5D
330
9E5E
100
AcDbEntity
  8
4
  6
CENTER
100
AcDbLine
 10
158.486448
 20
125.4240919999999
 30
0.0
 11
158.486448
 21
120.9240919999998
 31
0.0
  0
LINE
  5
9F5E
330
9E5E
100
AcDbEntity
  8
4
  6
CENTER
100
AcDbLine
 10
20.58848699999998
 20
243.168092
 30
0.0
 11
43.588487
 21
243.168092
 31
0.0
  0
LINE
  5
9F5F
330
9E5E
100
AcDbEntity
  8
4
  6
CENTER
100
AcDbLine
 10
101.088087
 20
162.9240919999998
 30
0.0
 11
101.088087
 21
154.924092
 31
0.0
  0
LINE
  5
9F60
330
9E5E
100
AcDbEntity
  8
4
  6
CENTER
100
AcDbLine
 10
77.088087
 20
158.9240919999998
 30
0.0
 11
107.088087
 21
158.9240919999998
 31
0.0
  0
LINE
  5
9F61
330
9E5E
100
AcDbEntity
  8
4
  6
CENTER
100
AcDbLine
 10
83.088087
 20
162.9240919999998
 30
0.0
 11
83.088087
 21
154.924092
 31
0.0
  0
LINE
  5
9F62
330
9E5E
100
AcDbEntity
  8
4
  6
CENTER
100
AcDbLine
 10
92.088087
 20
164.9240919999998
 30
0.0
 11
92.088087
 21
153.424092
 31
0.0
  0
LINE
  5
9F63
330
9E5E
100
AcDbEntity
  8
1
  6
Continuous
100
AcDbLine
 10
219.797627
 20
155.4240919999998
 30
0.0
 11
221.797627
 21
155.4240919999998
 31
0.0
  0
LINE
  5
9F64
330
9E5E
100
AcDbEntity
  8
1
  6
Continuous
100
AcDbLine
 10
358.858627
 20
156.424092
 30
0.0
 11
358.858627
 21
155.4240919999998
 31
0.0
  0
LINE
  5
9F65
330
9E5E
100
AcDbEntity
  8
1
  6
Continuous
100
AcDbLine
 10
368.858627
 20
156.424092
 30
0.0
 11
368.858627
 21
155.4240919999998
 31
0.0
  0
LINE
  5
9F66
330
9E5E
100
AcDbEntity
  8
4
  6
CENTER
100
AcDbLine
 10
363.858627
 20
164.9240919999998
 30
0.0
 11
363.858627
 21
153.424092
 31
0.0
  0
LINE
  5
9F67
330
9E5E
100
AcDbEntity
  8
4
  6
CENTER
100
AcDbLine
 10
354.858627
 20
161.424092
 30
0.0
 11
354.858627
 21
156.424092
 31
0.0
  0
LINE
  5
9F68
330
9E5E
100
AcDbEntity
  8
4
  6
CENTER
100
AcDbLine
 10
372.858627
 20
161.424092
 30
0.0
 11
372.858627
 21
156.424092
 31
0.0
  0
LINE
  5
9F69
330
9E5E
100
AcDbEntity
  8
1
  6
Continuous
100
AcDbLine
 10
40.338487
 20
155.4240919999998
 30
0.0
 11
41.338487
 21
155.4240919999998
 31
0.0
  0
LINE
  5
9F6A
330
9E5E
100
AcDbEntity
  8
1
  6
Continuous
100
AcDbLine
 10
22.838487
 20
155.4240919999998
 30
0.0
 11
23.838487
 21
155.4240919999998
 31
0.0
  0
LINE
  5
9F6B
330
9E5E
100
AcDbEntity
  8
1
  6
Continuous
100
AcDbLine
 10
88.088087
 20
243.168092
 30
0.0
 11
96.088087
 21
243.168092
 31
0.0
  0
LINE
  5
9F6C
330
9E5E
100
AcDbEntity
  8
4
  6
CENTER
100
AcDbLine
 10
92.088087
 20
235.668092
 30
0.0
 11
92.088087
 21
249.668092
 31
0.0
  0
LINE
  5
9F6D
330
9E5E
100
AcDbEntity
  8
4
  6
CENTER
100
AcDbLine
 10
101.088087
 20
243.668092
 30
0.0
 11
101.088087
 21
249.668092
 31
0.0
  0
LINE
  5
9F6E
330
9E5E
100
AcDbEntity
  8
4
  6
CENTER
100
AcDbLine
 10
83.088087
 20
243.668092
 30
0.0
 11
83.088087
 21
249.668092
 31
0.0
  0
LINE
  5
9F6F
330
9E5E
100
AcDbEntity
  8
1
  6
Continuous
100
AcDbLine
 10
30.18848699999999
 20
246.168092
 30
0.0
 11
33.988487
 21
246.168092
 31
0.0
  0
LINE
  5
9F70
330
9E5E
100
AcDbEntity
  8
1
  6
Continuous
100
AcDbLine
 10
22.93848699999999
 20
137.9240919999998
 30
0.0
 11
25.238487
 21
137.9240919999998
 31
0.0
  0
LINE
  5
9F71
330
9E5E
100
AcDbEntity
  8
1
  6
Continuous
100
AcDbLine
 10
21.43848699999999
 20
147.924092
 30
0.0
 11
25.238487
 21
147.924092
 31
0.0
  0
LINE
  5
9F72
330
9E5E
100
AcDbEntity
  8
1
  6
Continuous
100
AcDbLine
 10
164.486448
 20
138.823658
 30
0.0
 11
164.486448
 21
137.9240919999998
 31
0.0
  0
LINE
  5
9F73
330
9E5E
100
AcDbEntity
  8
1
  6
Continuous
100
AcDbLine
 10
21.43848699999999
 20
246.168092
 30
0.0
 11
24.088487
 21
246.168092
 31
0.0
  0
LINE
  5
9F74
330
9E5E
100
AcDbEntity
  8
1
  6
Continuous
100
AcDbLine
 10
21.43848699999999
 20
239.168092
 30
0.0
 11
21.43848699999999
 21
237.168092
 31
0.0
  0
LINE
  5
9F75
330
9E5E
100
AcDbEntity
  8
1
  6
Continuous
100
AcDbLine
 10
23.08848699999999
 20
239.168092
 30
0.0
 11
23.08848699999999
 21
239.0436879999998
 31
0.0
  0
LINE
  5
9F76
330
9E5E
100
AcDbEntity
  8
1
  6
Continuous
100
AcDbLine
 10
19.938487
 20
246.168092
 30
0.0
 11
21.43848699999999
 21
246.168092
 31
0.0
  0
LINE
  5
9F77
330
9E5E
100
AcDbEntity
  8
4
  6
CENTER
100
AcDbLine
 10
25.088487
 20
240.6680919999999
 30
0.0
 11
39.088487
 21
240.6680919999999
 31
0.0
  0
LINE
  5
9F78
330
9E5E
100
AcDbEntity
  8
1
  6
Continuous
100
AcDbLine
 10
27.088487
 20
239.168092
 30
0.0
 11
27.588487
 21
239.168092
 31
0.0
  0
LINE
  5
9F79
330
9E5E
100
AcDbEntity
  8
1
  6
Continuous
100
AcDbLine
 10
27.088487
 20
241.668092
 30
0.0
 11
27.088487
 21
239.168092
 31
0.0
  0
LINE
  5
9F7A
330
9E5E
100
AcDbEntity
  8
1
  6
Continuous
100
AcDbLine
 10
37.088487
 20
239.168092
 30
0.0
 11
36.588487
 21
239.168092
 31
0.0
  0
LINE
  5
9F7B
330
9E5E
100
AcDbEntity
  8
1
  6
Continuous
100
AcDbLine
 10
37.088487
 20
241.668092
 30
0.0
 11
37.088487
 21
239.168092
 31
0.0
  0
LINE
  5
9F7C
330
9E5E
100
AcDbEntity
  8
1
  6
Continuous
100
AcDbLine
 10
28.588487
 20
239.168092
 30
0.0
 11
28.688487
 21
239.168092
 31
0.0
  0
LINE
  5
9F7D
330
9E5E
100
AcDbEntity
  8
1
  6
Continuous
100
AcDbLine
 10
28.688487
 20
237.668092
 30
0.0
 11
28.688487
 21
241.668092
 31
0.0
  0
LINE
  5
9F7E
330
9E5E
100
AcDbEntity
  8
1
  6
Continuous
100
AcDbLine
 10
30.18848699999999
 20
237.668092
 30
0.0
 11
30.18848699999999
 21
241.668092
 31
0.0
  0
LINE
  5
9F7F
330
9E5E
100
AcDbEntity
  8
1
  6
Continuous
100
AcDbLine
 10
35.488487
 20
237.668092
 30
0.0
 11
35.488487
 21
241.668092
 31
0.0
  0
LINE
  5
9F80
330
9E5E
100
AcDbEntity
  8
1
  6
Continuous
100
AcDbLine
 10
33.988487
 20
237.668092
 30
0.0
 11
33.988487
 21
241.668092
 31
0.0
  0
LINE
  5
9F81
330
9E5E
100
AcDbEntity
  8
1
  6
Continuous
100
AcDbLine
 10
27.588487
 20
246.168092
 30
0.0
 11
28.588487
 21
246.168092
 31
0.0
  0
LINE
  5
9F82
330
9E5E
100
AcDbEntity
  8
1
  6
Continuous
100
AcDbLine
 10
35.588487
 20
246.168092
 30
0.0
 11
36.588487
 21
246.168092
 31
0.0
  0
LINE
  5
9F83
330
9E5E
100
AcDbEntity
  8
1
  6
Continuous
100
AcDbLine
 10
24.338487
 20
246.168092
 30
0.0
 11
24.338487
 21
245.109022
 31
0.0
  0
LINE
  5
9F84
330
9E5E
100
AcDbEntity
  8
1
  6
Continuous
100
AcDbLine
 10
39.838487
 20
246.168092
 30
0.0
 11
39.838487
 21
245.109022
 31
0.0
  0
LINE
  5
9F85
330
9E5E
100
AcDbEntity
  8
1
  6
Continuous
100
AcDbLine
 10
30.18848699999999
 20
239.168092
 30
0.0
 11
33.988487
 21
239.168092
 31
0.0
  0
LINE
  5
9F86
330
9E5E
100
AcDbEntity
  8
1
  6
Continuous
100
AcDbLine
 10
35.488487
 20
239.168092
 30
0.0
 11
35.588487
 21
239.168092
 31
0.0
  0
LINE
  5
9F87
330
9E5E
100
AcDbEntity
  8
1
  6
Continuous
100
AcDbLine
 10
27.588487
 20
241.668092
 30
0.0
 11
27.588487
 21
236.4180919999999
 31
0.0
  0
LINE
  5
9F88
330
9E5E
100
AcDbEntity
  8
1
  6
Continuous
100
AcDbLine
 10
28.588487
 20
241.668092
 30
0.0
 11
28.588487
 21
236.6680919999998
 31
0.0
  0
LINE
  5
9F89
330
9E5E
100
AcDbEntity
  8
1
  6
Continuous
100
AcDbLine
 10
28.688487
 20
244.6680919999999
 30
0.0
 11
28.688487
 21
246.168092
 31
0.0
  0
LINE
  5
9F8A
330
9E5E
100
AcDbEntity
  8
1
  6
Continuous
100
AcDbLine
 10
30.18848699999999
 20
244.6680919999999
 30
0.0
 11
30.18848699999999
 21
246.168092
 31
0.0
  0
LINE
  5
9F8B
330
9E5E
100
AcDbEntity
  8
1
  6
Continuous
100
AcDbLine
 10
33.988487
 20
244.6680919999999
 30
0.0
 11
33.988487
 21
246.168092
 31
0.0
  0
LINE
  5
9F8C
330
9E5E
100
AcDbEntity
  8
1
  6
Continuous
100
AcDbLine
 10
35.488487
 20
244.6680919999999
 30
0.0
 11
35.488487
 21
246.168092
 31
0.0
  0
LINE
  5
9F8D
330
9E5E
100
AcDbEntity
  8
1
  6
Continuous
100
AcDbLine
 10
35.588487
 20
241.668092
 30
0.0
 11
35.588487
 21
236.6680919999998
 31
0.0
  0
LINE
  5
9F8E
330
9E5E
100
AcDbEntity
  8
1
  6
Continuous
100
AcDbLine
 10
36.588487
 20
241.668092
 30
0.0
 11
36.588487
 21
236.4180919999999
 31
0.0
  0
LINE
  5
9F8F
330
9E5E
100
AcDbEntity
  8
4
  6
CENTER
100
AcDbLine
 10
49.52240399999999
 20
49.864492
 30
0.0
 11
15.184256
 21
49.864492
 31
0.0
  0
LINE
  5
9F90
330
9E5E
100
AcDbEntity
  8
1
  6
Continuous
100
AcDbLine
 10
38.338487
 20
51.364492
 30
0.0
 11
25.838487
 21
51.364492
 31
0.0
  0
LINE
  5
9F91
330
9E5E
100
AcDbEntity
  8
1
  6
Continuous
100
AcDbLine
 10
38.338487
 20
48.364492
 30
0.0
 11
25.838487
 21
48.364492
 31
0.0
  0
LINE
  5
9F92
330
9E5E
100
AcDbEntity
  8
1
  6
Continuous
100
AcDbLine
 10
33.988487
 20
51.364492
 30
0.0
 11
33.988487
 21
53.86449200000001
 31
0.0
  0
LINE
  5
9F93
330
9E5E
100
AcDbEntity
  8
1
  6
Continuous
100
AcDbLine
 10
30.18848699999999
 20
51.364492
 30
0.0
 11
30.18848699999999
 21
53.86449200000001
 31
0.0
  0
LINE
  5
9F94
330
9E5E
100
AcDbEntity
  8
1
  6
Continuous
100
AcDbLine
 10
35.588487
 20
52.364492
 30
0.0
 11
35.488487
 21
52.364492
 31
0.0
  0
LINE
  5
9F95
330
9E5E
100
AcDbEntity
  8
1
  6
Continuous
100
AcDbLine
 10
33.988487
 20
52.364492
 30
0.0
 11
30.18848699999999
 21
52.364492
 31
0.0
  0
LINE
  5
9F96
330
9E5E
100
AcDbEntity
  8
1
  6
Continuous
100
AcDbLine
 10
28.688487
 20
52.364492
 30
0.0
 11
28.588487
 21
52.364492
 31
0.0
  0
LINE
  5
9F97
330
9E5E
100
AcDbEntity
  8
4
  6
CENTER
100
AcDbLine
 10
219.797627
 20
161.424092
 30
0.0
 11
219.797627
 21
156.424092
 31
0.0
  0
LINE
  5
9F98
330
9E5E
100
AcDbEntity
  8
4
  6
CENTER
100
AcDbLine
 10
217.2976269999999
 20
158.9240919999998
 30
0.0
 11
226.297627
 21
158.9240919999998
 31
0.0
  0
ARC
  5
9F99
330
9E5E
100
AcDbEntity
  8
1
  6
Continuous
100
AcDbCircle
 10
41.588487
 20
135.9240919999998
 30
0.0
 40
5.0
100
AcDbArc
 50
180.0
 51
252.0797869999999
  0
ARC
  5
9F9A
330
9E5E
100
AcDbEntity
  8
1
  6
Continuous
100
AcDbCircle
 10
37.088487
 20
109.4240919999998
 30
0.0
 40
3.0
100
AcDbArc
 50
270.0
 51
0.0
  0
ARC
  5
9F9B
330
9E5E
100
AcDbEntity
  8
1
  6
Continuous
100
AcDbCircle
 10
22.588487
 20
135.9240919999998
 30
0.0
 40
5.0
100
AcDbArc
 50
287.9202129999999
 51
0.0
  0
ARC
  5
9F9C
330
9E5E
100
AcDbEntity
  8
1
  6
Continuous
100
AcDbCircle
 10
27.088487
 20
109.4240919999998
 30
0.0
 40
3.0
100
AcDbArc
 50
180.0
 51
270.0
  0
ARC
  5
9F9D
330
9E5E
100
AcDbEntity
  8
1
  6
Continuous
100
AcDbCircle
 10
71.48808699999998
 20
142.7340919999998
 30
0.0
 40
52.6835
100
AcDbArc
 50
200.337
 51
203.2659999999999
  0
ARC
  5
9F9E
330
9E5E
100
AcDbEntity
  8
1
  6
Continuous
100
AcDbCircle
 10
164.486448
 20
128.924092
 30
0.0
 40
2.0
100
AcDbArc
 50
0.0
 51
90.0
  0
ARC
  5
9F9F
330
9E5E
100
AcDbEntity
  8
1
  6
Continuous
100
AcDbCircle
 10
163.486448
 20
140.924092
 30
0.0
 40
3.0
100
AcDbArc
 50
344.085484
 51
24.29076
  0
ARC
  5
9FA0
330
9E5E
100
AcDbEntity
  8
1
  6
Continuous
100
AcDbCircle
 10
157.486448
 20
129.424092
 30
0.0
 40
1.5
100
AcDbArc
 50
90.0
 51
180.0
  0
ARC
  5
9FA1
330
9E5E
100
AcDbEntity
  8
1
  6
Continuous
100
AcDbCircle
 10
164.486448
 20
114.9240919999999
 30
0.0
 40
2.0
100
AcDbArc
 50
270.0
 51
0.0
  0
ARC
  5
9FA2
330
9E5E
100
AcDbEntity
  8
1
  6
Continuous
100
AcDbCircle
 10
161.486448
 20
118.1740919999999
 30
0.0
 40
2.75
100
AcDbArc
 50
0.0
 51
180.0
  0
ARC
  5
9FA3
330
9E5E
100
AcDbEntity
  8
1
  6
Continuous
100
AcDbCircle
 10
161.486448
 20
117.6740919999998
 30
0.0
 40
2.75
100
AcDbArc
 50
180.0
 51
0.0
  0
ARC
  5
9FA4
330
9E5E
100
AcDbEntity
  8
1
  6
Continuous
100
AcDbCircle
 10
158.486448
 20
122.9660919999999
 30
0.0
 40
1.04167
100
AcDbArc
 50
196.26
 51
343.74
  0
ARC
  5
9FA5
330
9E5E
100
AcDbEntity
  8
1
  6
Continuous
100
AcDbCircle
 10
24.088487
 20
236.6680919999998
 30
0.0
 40
1.0
100
AcDbArc
 50
180.0
 51
270.0
  0
ARC
  5
9FA6
330
9E5E
100
AcDbEntity
  8
1
  6
Continuous
100
AcDbCircle
 10
40.088487
 20
236.6680919999998
 30
0.0
 40
1.0
100
AcDbArc
 50
270.0
 51
0.0
  0
ARC
  5
9FA7
330
9E5E
100
AcDbEntity
  8
1
  6
Continuous
100
AcDbCircle
 10
28.338487
 20
236.4180919999999
 30
0.0
 40
0.75
100
AcDbArc
 50
180.0
 51
270.0
  0
ARC
  5
9FA8
330
9E5E
100
AcDbEntity
  8
1
  6
Continuous
100
AcDbCircle
 10
35.838487
 20
236.4180919999999
 30
0.0
 40
0.75
100
AcDbArc
 50
270.0
 51
0.0
  0
ARC
  5
9FA9
330
9E5E
100
AcDbEntity
  8
1
  6
Continuous
100
AcDbCircle
 10
27.588487
 20
246.168092
 30
0.0
 40
6.0
100
AcDbArc
 50
234.3146649999999
 51
238.7307309999999
  0
ARC
  5
9FAA
330
9E5E
100
AcDbEntity
  8
1
  6
Continuous
100
AcDbCircle
 10
161.486448
 20
118.1740919999999
 30
0.0
 40
2.75
100
AcDbArc
 50
0.0
 51
180.0
  0
ARC
  5
9FAB
330
9E5E
100
AcDbEntity
  8
1
  6
Continuous
100
AcDbCircle
 10
161.486448
 20
117.6740919999998
 30
0.0
 40
2.75
100
AcDbArc
 50
180.0
 51
0.0
  0
ARC
  5
9FAC
330
9E5E
100
AcDbEntity
  8
1
  6
Continuous
100
AcDbCircle
 10
161.9864479999999
 20
125.9240919999998
 30
0.0
 40
2.5
100
AcDbArc
 50
180.0
 51
0.0
  0
CIRCLE
  5
9FAD
330
9E5E
100
AcDbEntity
  8
1
  6
Continuous
100
AcDbCircle
 10
163.486448
 20
158.9240919999998
 30
0.0
 40
1.149999999999999
  0
ARC
  5
9FAE
330
9E5E
100
AcDbEntity
  8
1
  6
Continuous
100
AcDbCircle
 10
163.486448
 20
158.9240919999998
 30
0.0
 40
2.5
100
AcDbArc
 50
332.5679999999999
 51
159.244
  0
ARC
  5
9FAF
330
9E5E
100
AcDbEntity
  8
1
  6
Continuous
100
AcDbCircle
 10
-7.311013
 20
142.7340919999998
 30
0.0
 40
52.6835
100
AcDbArc
 50
336.734
 51
339.663
  0
ARC
  5
9FB0
330
9E5E
100
AcDbEntity
  8
1
  6
Continuous
100
AcDbCircle
 10
20.938487
 20
154.424092
 30
0.0
 40
1.0
100
AcDbArc
 50
90.0
 51
180.0
  0
ARC
  5
9FB1
330
9E5E
100
AcDbEntity
  8
1
  6
Continuous
100
AcDbCircle
 10
23.08848699999999
 20
154.924092
 30
0.0
 40
1.0
100
AcDbArc
 50
270.0
 51
0.0
  0
ARC
  5
9FB2
330
9E5E
100
AcDbEntity
  8
1
  6
Continuous
100
AcDbCircle
 10
43.238487
 20
154.424092
 30
0.0
 40
1.0
100
AcDbArc
 50
0.0
 51
90.0
  0
ARC
  5
9FB3
330
9E5E
100
AcDbEntity
  8
1
  6
Continuous
100
AcDbCircle
 10
41.088487
 20
154.924092
 30
0.0
 40
1.0
100
AcDbArc
 50
180.0
 51
270.0
  0
CIRCLE
  5
9FB4
330
9E5E
100
AcDbEntity
  8
1
  6
Continuous
100
AcDbCircle
 10
161.9864479999999
 20
126.9240919999998
 30
0.0
 40
1.125
  0
CIRCLE
  5
9FB5
330
9E5E
100
AcDbEntity
  8
1
  6
Continuous
100
AcDbCircle
 10
161.9864479999999
 20
126.9240919999998
 30
0.0
 40
1.149999999999999
  0
CIRCLE
  5
9FB6
330
9E5E
100
AcDbEntity
  8
1
  6
Continuous
100
AcDbCircle
 10
163.486448
 20
158.9240919999998
 30
0.0
 40
1.125
  0
ARC
  5
9FB7
330
9E5E
100
AcDbEntity
  8
1
  6
Continuous
100
AcDbCircle
 10
303.358627
 20
135.424092
 30
0.0
 40
6.099999999999997
100
AcDbArc
 50
180.0
 51
253.3279999999999
  0
ARC
  5
9FB8
330
9E5E
100
AcDbEntity
  8
1
  6
Continuous
100
AcDbCircle
 10
284.358627
 20
135.424092
 30
0.0
 40
6.099999999999997
100
AcDbArc
 50
286.672
 51
0.0
  0
CIRCLE
  5
9FB9
330
9E5E
100
AcDbEntity
  8
1
  6
Continuous
100
AcDbCircle
 10
293.858627
 20
128.924092
 30
0.0
 40
1.6
  0
CIRCLE
  5
9FBA
330
9E5E
100
AcDbEntity
  8
1
  6
Continuous
100
AcDbCircle
 10
293.858627
 20
116.9240919999999
 30
0.0
 40
1.6
  0
ARC
  5
9FBB
330
9E5E
100
AcDbEntity
  8
1
  6
Continuous
100
AcDbCircle
 10
303.358627
 20
135.9240919999998
 30
0.0
 40
5.0
100
AcDbArc
 50
180.0
 51
252.0797869999999
  0
ARC
  5
9FBC
330
9E5E
100
AcDbEntity
  8
1
  6
Continuous
100
AcDbCircle
 10
298.858627
 20
109.4240919999998
 30
0.0
 40
3.0
100
AcDbArc
 50
270.0
 51
0.0
  0
ARC
  5
9FBD
330
9E5E
100
AcDbEntity
  8
1
  6
Continuous
100
AcDbCircle
 10
284.358627
 20
135.9240919999998
 30
0.0
 40
5.0
100
AcDbArc
 50
287.9202129999999
 51
0.0
  0
ARC
  5
9FBE
330
9E5E
100
AcDbEntity
  8
1
  6
Continuous
100
AcDbCircle
 10
288.858627
 20
109.4240919999998
 30
0.0
 40
3.0
100
AcDbArc
 50
180.0
 51
270.0
  0
ARC
  5
9FBF
330
9E5E
100
AcDbEntity
  8
1
  6
Continuous
100
AcDbCircle
 10
303.358627
 20
135.9240919999998
 30
0.0
 40
6.0
100
AcDbArc
 50
180.0
 51
255.522
  0
ARC
  5
9FC0
330
9E5E
100
AcDbEntity
  8
1
  6
Continuous
100
AcDbCircle
 10
284.358627
 20
135.9240919999998
 30
0.0
 40
6.0
100
AcDbArc
 50
284.478
 51
0.0
  0
ARC
  5
9FC1
330
9E5E
100
AcDbEntity
  8
1
  6
Continuous
100
AcDbCircle
 10
40.088487
 20
54.864492
 30
0.0
 40
1.0
100
AcDbArc
 50
0.0
 51
90.0
  0
ARC
  5
9FC2
330
9E5E
100
AcDbEntity
  8
1
  6
Continuous
100
AcDbCircle
 10
24.088487
 20
54.864492
 30
0.0
 40
1.0
100
AcDbArc
 50
90.0
 51
180.0
  0
ARC
  5
9FC3
330
9E5E
100
AcDbEntity
  8
1
  6
Continuous
100
AcDbCircle
 10
38.838487
 20
44.864492
 30
0.0
 40
1.0
100
AcDbArc
 50
270.0
 51
0.0
  0
ARC
  5
9FC4
330
9E5E
100
AcDbEntity
  8
1
  6
Continuous
100
AcDbCircle
 10
25.338487
 20
44.864492
 30
0.0
 40
1.0
100
AcDbArc
 50
180.0
 51
270.0
  0
ARC
  5
9FC5
330
9E5E
100
AcDbEntity
  8
1
  6
Continuous
100
AcDbCircle
 10
25.238487
 20
147.2240919999999
 30
0.0
 40
0.7
100
AcDbArc
 50
280.0
 51
100.0
  0
ARC
  5
9FC6
330
9E5E
100
AcDbEntity
  8
1
  6
Continuous
100
AcDbCircle
 10
17.63848699999998
 20
146.131092
 30
0.0
 40
0.7
100
AcDbArc
 50
95.6217
 51
280.7845669999999
  0
ARC
  5
9FC7
330
9E5E
100
AcDbEntity
  8
1
  6
Continuous
100
AcDbCircle
 10
25.238487
 20
147.2240919999999
 30
0.0
 40
0.7
100
AcDbArc
 50
280.0
 51
100.0
  0
ARC
  5
9FC8
330
9E5E
100
AcDbEntity
  8
1
  6
Continuous
100
AcDbCircle
 10
86.088087
 20
156.424092
 30
0.0
 40
1.0
100
AcDbArc
 50
0.0
 51
135.0
  0
ARC
  5
9FC9
330
9E5E
100
AcDbEntity
  8
1
  6
Continuous
100
AcDbCircle
 10
96.088087
 20
161.143092
 30
0.0
 40
1.0
100
AcDbArc
 50
0.0
 51
90.0
  0
ARC
  5
9FCA
330
9E5E
100
AcDbEntity
  8
1
  6
Continuous
100
AcDbCircle
 10
101.088087
 20
158.9240919999998
 30
0.0
 40
4.0
100
AcDbArc
 50
268.758
 51
90.0
  0
ARC
  5
9FCB
330
9E5E
100
AcDbEntity
  8
1
  6
Continuous
100
AcDbCircle
 10
98.088087
 20
156.424092
 30
0.0
 40
1.0
100
AcDbArc
 50
45.0
 51
180.0
  0
ARC
  5
9FCC
330
9E5E
100
AcDbEntity
  8
1
  6
Continuous
100
AcDbCircle
 10
96.088087
 20
161.924092
 30
0.0
 40
1.0
100
AcDbArc
 50
0.0
 51
90.0
  0
ARC
  5
9FCD
330
9E5E
100
AcDbEntity
  8
1
  6
Continuous
100
AcDbCircle
 10
83.088087
 20
158.9240919999998
 30
0.0
 40
4.0
100
AcDbArc
 50
90.0
 51
271.242
  0
ARC
  5
9FCE
330
9E5E
100
AcDbEntity
  8
1
  6
Continuous
100
AcDbCircle
 10
88.088087
 20
161.924092
 30
0.0
 40
1.0
100
AcDbArc
 50
90.0
 51
180.0
  0
ARC
  5
9FCF
330
9E5E
100
AcDbEntity
  8
1
  6
Continuous
100
AcDbCircle
 10
88.088087
 20
161.143092
 30
0.0
 40
1.0
100
AcDbArc
 50
90.0
 51
180.0
  0
ARC
  5
9FD0
330
9E5E
100
AcDbEntity
  8
1
  6
Continuous
100
AcDbCircle
 10
83.088087
 20
158.9240919999998
 30
0.0
 40
3.0
100
AcDbArc
 50
327.3159999999998
 51
299.372
  0
ARC
  5
9FD1
330
9E5E
100
AcDbEntity
  8
1
  6
Continuous
100
AcDbCircle
 10
101.088087
 20
158.9240919999998
 30
0.0
 40
3.0
100
AcDbArc
 50
240.6279999999999
 51
212.684
  0
ARC
  5
9FD2
330
9E5E
100
AcDbEntity
  8
1
  6
Continuous
100
AcDbCircle
 10
357.858627
 20
156.424092
 30
0.0
 40
1.0
100
AcDbArc
 50
0.0
 51
135.0
  0
ARC
  5
9FD3
330
9E5E
100
AcDbEntity
  8
1
  6
Continuous
100
AcDbCircle
 10
372.858627
 20
158.9240919999998
 30
0.0
 40
4.0
100
AcDbArc
 50
268.758
 51
90.0
  0
CIRCLE
  5
9FD4
330
9E5E
100
AcDbEntity
  8
1
  6
Continuous
100
AcDbCircle
 10
372.858627
 20
158.9240919999998
 30
0.0
 40
1.6
  0
ARC
  5
9FD5
330
9E5E
100
AcDbEntity
  8
1
  6
Continuous
100
AcDbCircle
 10
369.858627
 20
156.424092
 30
0.0
 40
1.0
100
AcDbArc
 50
45.0
 51
180.0
  0
ARC
  5
9FD6
330
9E5E
100
AcDbEntity
  8
1
  6
Continuous
100
AcDbCircle
 10
354.858627
 20
158.9240919999998
 30
0.0
 40
4.0
100
AcDbArc
 50
90.0
 51
271.242
  0
CIRCLE
  5
9FD7
330
9E5E
100
AcDbEntity
  8
1
  6
Continuous
100
AcDbCircle
 10
354.858627
 20
158.9240919999998
 30
0.0
 40
1.6
  0
CIRCLE
  5
9FD8
330
9E5E
100
AcDbEntity
  8
1
  6
Continuous
100
AcDbCircle
 10
101.088087
 20
158.9240919999998
 30
0.0
 40
1.6
  0
CIRCLE
  5
9FD9
330
9E5E
100
AcDbEntity
  8
1
  6
Continuous
100
AcDbCircle
 10
83.088087
 20
158.9240919999998
 30
0.0
 40
1.6
  0
ARC
  5
9FDA
330
9E5E
100
AcDbEntity
  8
1
  6
Continuous
100
AcDbCircle
 10
219.797627
 20
158.9240919999998
 30
0.0
 40
1.5
100
AcDbArc
 50
206.387
 51
270.0
  0
ARC
  5
9FDB
330
9E5E
100
AcDbEntity
  8
1
  6
Continuous
100
AcDbCircle
 10
219.797627
 20
158.9240919999998
 30
0.0
 40
3.5
100
AcDbArc
 50
206.387
 51
270.0
  0
ARC
  5
9FDC
330
9E5E
100
AcDbEntity
  8
1
  6
Continuous
100
AcDbCircle
 10
221.797627
 20
157.924092
 30
0.0
 40
0.5
100
AcDbArc
 50
270.0
 51
0.0
  0
ARC
  5
9FDD
330
9E5E
100
AcDbEntity
  8
1
  6
Continuous
100
AcDbCircle
 10
221.797627
 20
157.924092
 30
0.0
 40
2.5
100
AcDbArc
 50
270.0
 51
281.5369999999999
  0
ARC
  5
9FDE
330
9E5E
100
AcDbEntity
  8
1
  6
Continuous
100
AcDbCircle
 10
88.088087
 20
238.6680919999998
 30
0.0
 40
1.0
100
AcDbArc
 50
180.0
 51
270.0
  0
ARC
  5
9FDF
330
9E5E
100
AcDbEntity
  8
1
  6
Continuous
100
AcDbCircle
 10
88.088087
 20
240.5090919999999
 30
0.0
 40
1.0
100
AcDbArc
 50
180.0
 51
270.0
  0
ARC
  5
9FE0
330
9E5E
100
AcDbEntity
  8
1
  6
Continuous
100
AcDbCircle
 10
96.088087
 20
238.6680919999998
 30
0.0
 40
1.0
100
AcDbArc
 50
270.0
 51
0.0
  0
ARC
  5
9FE1
330
9E5E
100
AcDbEntity
  8
1
  6
Continuous
100
AcDbCircle
 10
96.088087
 20
240.5090919999999
 30
0.0
 40
1.0
100
AcDbArc
 50
270.0
 51
0.0
  0
ARC
  5
9FE2
330
9E5E
100
AcDbEntity
  8
1
  6
Continuous
100
AcDbCircle
 10
25.238487
 20
138.6240919999999
 30
0.0
 40
0.7
100
AcDbArc
 50
157.4859999999999
 51
51.31649999999999
  0
ARC
  5
9FE3
330
9E5E
100
AcDbEntity
  8
1
  6
Continuous
100
AcDbCircle
 10
17.63848699999998
 20
147.2240919999999
 30
0.0
 40
0.7
100
AcDbArc
 50
337.4509999999999
 51
231.341
  0
ARC
  5
9FE4
330
9E5E
100
AcDbEntity
  8
1
  6
Continuous
100
AcDbCircle
 10
30.18848699999999
 20
246.168092
 30
0.0
 40
1.5
100
AcDbArc
 50
90.0
 51
180.0
  0
ARC
  5
9FE5
330
9E5E
100
AcDbEntity
  8
1
  6
Continuous
100
AcDbCircle
 10
33.988487
 20
246.168092
 30
0.0
 40
1.5
100
AcDbArc
 50
0.0
 51
90.0
  0
ARC
  5
9FE6
330
9E5E
100
AcDbEntity
  8
1
  6
Continuous
100
AcDbCircle
 10
25.838487
 20
246.168092
 30
0.0
 40
1.5
100
AcDbArc
 50
90.0
 51
180.0
  0
ARC
  5
9FE7
330
9E5E
100
AcDbEntity
  8
1
  6
Continuous
100
AcDbCircle
 10
38.338487
 20
246.168092
 30
0.0
 40
1.5
100
AcDbArc
 50
0.0
 51
90.0
  0
ARC
  5
9FE8
330
9E5E
100
AcDbEntity
  8
1
  6
Continuous
100
AcDbCircle
 10
24.588487
 20
129.7394339999999
 30
0.0
 40
1.5
100
AcDbArc
 50
107.9202129999998
 51
180.0
  0
ARC
  5
9FE9
330
9E5E
100
AcDbEntity
  8
1
  6
Continuous
100
AcDbCircle
 10
39.588487
 20
129.7394339999999
 30
0.0
 40
1.5
100
AcDbArc
 50
0.0
 51
72.07978699999998
  0
ARC
  5
9FEA
330
9E5E
100
AcDbEntity
  8
1
  6
Continuous
100
AcDbCircle
 10
286.358627
 20
129.7394339999999
 30
0.0
 40
1.5
100
AcDbArc
 50
107.9202129999998
 51
180.0
  0
ARC
  5
9FEB
330
9E5E
100
AcDbEntity
  8
1
  6
Continuous
100
AcDbCircle
 10
301.358627
 20
129.7394339999999
 30
0.0
 40
1.5
100
AcDbArc
 50
0.0
 51
72.07978699999998
  0
LINE
  5
9FEC
330
9E5E
100
AcDbEntity
  8
1
  6
Continuous
100
AcDbLine
 10
164.486448
 20
137.9240919999998
 30
0.0
 11
166.486448
 21
137.9240919999998
 31
0.0
  0
LINE
  5
9FED
330
9E5E
100
AcDbEntity
  8
4
  6
CENTER
100
AcDbLine
 10
289.858627
 20
116.9240919999999
 30
0.0
 11
297.858627
 21
116.9240919999999
 31
0.0
  0
LINE
  5
9FEE
330
9E5E
100
AcDbEntity
  8
4
  6
CENTER
100
AcDbLine
 10
289.858627
 20
128.924092
 30
0.0
 11
297.858627
 21
128.924092
 31
0.0
  0
CIRCLE
  5
9FEF
330
9E5E
100
AcDbEntity
  8
3
  6
DASHED
100
AcDbCircle
 10
293.858627
 20
128.924092
 30
0.0
 40
3.0
  0
CIRCLE
  5
9FF0
330
9E5E
100
AcDbEntity
  8
3
  6
DASHED
100
AcDbCircle
 10
293.858627
 20
116.9240919999999
 30
0.0
 40
3.0
  0
LINE
  5
9FF1
330
9E5E
100
AcDbEntity
  8
4
  6
CENTER
100
AcDbLine
 10
165.159137
 20
128.924092
 30
0.0
 11
171.024479
 21
128.924092
 31
0.0
  0
LINE
  5
9FF2
330
9E5E
100
AcDbEntity
  8
4
  6
CENTER
100
AcDbLine
 10
165.159137
 20
116.9240919999999
 30
0.0
 11
171.024479
 21
116.9240919999999
 31
0.0
  0
LINE
  5
9FF3
330
9E5E
100
AcDbEntity
  8
4
  6
CENTER
100
AcDbLine
 10
28.088487
 20
128.924092
 30
0.0
 11
36.088487
 21
128.924092
 31
0.0
  0
LINE
  5
9FF4
330
9E5E
100
AcDbEntity
  8
4
  6
CENTER
100
AcDbLine
 10
28.088487
 20
116.9240919999999
 30
0.0
 11
36.088487
 21
116.9240919999999
 31
0.0
  0
LINE
  5
9FF5
330
9E5E
100
AcDbEntity
  8
1
  6
Continuous
100
AcDbLine
 10
21.43848699999999
 20
150.924092
 30
0.0
 11
22.93848699999999
 21
150.924092
 31
0.0
  0
LINE
  5
9FF6
330
9E5E
100
AcDbEntity
  8
1
  6
Continuous
100
AcDbLine
 10
41.23848699999999
 20
150.924092
 30
0.0
 11
42.738487
 21
150.924092
 31
0.0
  0
LINE
  5
9FF7
330
9E5E
100
AcDbEntity
  8
1
  6
Continuous
100
AcDbLine
 10
42.738487
 20
137.9240919999998
 30
0.0
 11
46.538487
 21
137.9240919999998
 31
0.0
  0
LINE
  5
9FF8
330
9E5E
100
AcDbEntity
  8
1
  6
Continuous
100
AcDbLine
 10
302.858627
 20
129.7394339999999
 30
0.0
 11
302.858627
 21
112.9240919999999
 31
0.0
  0
LINE
  5
9FF9
330
9E5E
100
AcDbEntity
  8
1
  6
Continuous
100
AcDbLine
 10
284.858627
 20
129.7394339999999
 30
0.0
 11
284.858627
 21
112.9240919999999
 31
0.0
  0
LINE
  5
9FFA
330
9E5E
100
AcDbEntity
  8
1
  6
Continuous
100
AcDbLine
 10
158.305182
 20
143.911494
 30
0.0
 11
165.871341
 21
144.9996269999998
 31
0.0
  0
LINE
  5
9FFB
330
9E5E
100
AcDbEntity
  8
1
  6
Continuous
100
AcDbLine
 10
158.084744
 20
143.797756
 30
0.0
 11
165.688771
 21
144.892336
 31
0.0
  0
LINE
  5
9FFC
330
9E5E
100
AcDbEntity
  8
1
  6
Continuous
100
AcDbLine
 10
158.283471
 20
142.4165719999998
 30
0.0
 11
165.8876389999998
 21
143.5101709999998
 31
0.0
  0
LINE
  5
9FFD
330
9E5E
100
AcDbEntity
  8
1
  6
Continuous
100
AcDbLine
 10
158.086102
 20
142.306152
 30
0.0
 11
165.686961
 21
143.4002749999999
 31
0.0
  0
LINE
  5
9FFE
330
9E5E
100
AcDbEntity
  8
1
  6
Continuous
100
AcDbLine
 10
158.2852799999998
 20
140.9218319999999
 30
0.0
 11
165.88628
 21
142.0149759999999
 31
0.0
  0
LINE
  5
9FFF
330
9E5E
100
AcDbEntity
  8
1
  6
Continuous
100
AcDbLine
 10
158.2852799999998
 20
139.4268319999999
 30
0.0
 11
165.868436
 21
140.51741
 31
0.0
  0
LINE
  5
A000
330
9E5E
100
AcDbEntity
  8
1
  6
Continuous
100
AcDbLine
 10
158.086102
 20
140.811152
 30
0.0
 11
165.669117
 21
141.902707
 31
0.0
  0
LINE
  5
A001
330
9E5E
100
AcDbEntity
  8
1
  6
Continuous
100
AcDbLine
 10
158.086102
 20
139.3161519999999
 30
0.0
 11
165.686961
 21
140.410275
 31
0.0
  0
LINE
  5
A002
330
9E5E
100
AcDbEntity
  8
1
  6
Continuous
100
AcDbLine
 10
158.2852799999998
 20
137.931832
 30
0.0
 11
165.88628
 21
139.024976
 31
0.0
  0
ARC
  5
A003
330
9E5E
100
AcDbEntity
  8
1
  6
Continuous
100
AcDbCircle
 10
165.786448
 20
138.6240919999999
 30
0.0
 40
0.7
100
AcDbArc
 50
155.0527779999999
 51
51.31649999999999
  0
LINE
  5
A004
330
9E5E
100
AcDbEntity
  8
1
  6
Continuous
100
AcDbLine
 10
158.101042
 20
145.3303019999999
 30
0.0
 11
165.6670599999999
 21
146.419411
 31
0.0
  0
LINE
  5
A005
330
9E5E
100
AcDbEntity
  8
1
  6
Continuous
100
AcDbLine
 10
158.307948
 20
145.442092
 30
0.0
 11
165.907948
 21
146.5350919999998
 31
0.0
  0
ARC
  5
A006
330
9E5E
100
AcDbEntity
  8
1
  6
Continuous
100
AcDbCircle
 10
158.1864479999999
 20
146.131092
 30
0.0
 40
0.7
100
AcDbArc
 50
95.6217
 51
280.7845669999999
  0
LINE
  5
A007
330
9E5E
100
AcDbEntity
  8
1
  6
Continuous
100
AcDbLine
 10
158.064848
 20
146.8200919999999
 30
0.0
 11
165.664848
 21
147.9140919999998
 31
0.0
  0
ARC
  5
A008
330
9E5E
100
AcDbEntity
  8
1
  6
Continuous
100
AcDbCircle
 10
158.1864479999999
 20
147.2240919999999
 30
0.0
 40
0.7
100
AcDbArc
 50
335.0637959999999
 51
231.341
  0
ARC
  5
A009
330
9E5E
100
AcDbEntity
  8
1
  6
Continuous
100
AcDbCircle
 10
165.786448
 20
147.2240919999999
 30
0.0
 40
0.7
100
AcDbArc
 50
280.0
 51
100.0
  0
LINE
  5
A00A
330
9E5E
100
AcDbEntity
  8
1
  6
Continuous
100
AcDbLine
 10
159.486448
 20
137.9240919999998
 30
0.0
 11
159.486448
 21
138.1045789999998
 31
0.0
  0
LINE
  5
A00B
330
9E5E
100
AcDbEntity
  8
1
  6
Continuous
100
AcDbLine
 10
21.588487
 20
244.168092
 30
0.0
 11
19.938487
 21
244.168092
 31
0.0
  0
LINE
  5
A00C
330
9E5E
100
AcDbEntity
  8
1
  6
Continuous
100
AcDbLine
 10
19.938487
 20
244.381024
 30
0.0
 11
19.938487
 21
238.95516
 31
0.0
  0
ARC
  5
A00D
330
9E5E
100
AcDbEntity
  8
1
  6
Continuous
100
AcDbCircle
 10
21.43848699999999
 20
241.668092
 30
0.0
 40
4.5
100
AcDbArc
 50
90.0
 51
270.0
  0
ARC
  5
A00E
330
9E5E
100
AcDbEntity
  8
1
  6
Continuous
100
AcDbCircle
 10
21.43848699999999
 20
241.668092
 30
0.0
 40
3.1
100
AcDbArc
 50
90.0
 51
270.0
  0
ARC
  5
A00F
330
9E5E
100
AcDbEntity
  8
1
  6
Continuous
100
AcDbCircle
 10
21.43848699999999
 20
241.668092
 30
0.0
 40
4.5
100
AcDbArc
 50
289.471221
 51
0.0
  0
ARC
  5
A010
330
9E5E
100
AcDbEntity
  8
1
  6
Continuous
100
AcDbCircle
 10
21.43848699999999
 20
241.668092
 30
0.0
 40
3.1
100
AcDbArc
 50
298.9385279999999
 51
306.2493209999999
  0
ARC
  5
A011
330
9E5E
100
AcDbEntity
  8
1
  6
Continuous
100
AcDbCircle
 10
21.43848699999999
 20
241.668092
 30
0.0
 40
4.5
100
AcDbArc
 50
62.73395600000001
 51
70.528779
  0
ARC
  5
A012
330
9E5E
100
AcDbEntity
  8
1
  6
Continuous
100
AcDbCircle
 10
21.43848699999999
 20
241.668092
 30
0.0
 40
4.5
100
AcDbArc
 50
41.810315
 51
53.92179999999999
  0
ARC
  5
A013
330
9E5E
100
AcDbEntity
  8
1
  6
Continuous
100
AcDbCircle
 10
27.588487
 20
246.168092
 30
0.0
 40
6.0
100
AcDbArc
 50
252.362535
 51
265.22
  0
ARC
  5
A014
330
9E5E
100
AcDbEntity
  8
1
  6
Continuous
100
AcDbCircle
 10
21.43848699999999
 20
241.668092
 30
0.0
 40
3.1
100
AcDbArc
 50
328.7419209999999
 51
0.0
  0
ARC
  5
A015
330
9E5E
100
AcDbEntity
  8
1
  6
Continuous
100
AcDbCircle
 10
36.588487
 20
246.168092
 30
0.0
 40
6.0
100
AcDbArc
 50
274.7799999999999
 51
287.6374649999998
  0
LINE
  5
A016
330
9E5E
100
AcDbEntity
  8
1
  6
Continuous
100
AcDbLine
 10
40.088487
 20
246.168092
 30
0.0
 11
40.088487
 21
239.168092
 31
0.0
  0
ARC
  5
A017
330
9E5E
100
AcDbEntity
  8
1
  6
Continuous
100
AcDbCircle
 10
42.738487
 20
241.668092
 30
0.0
 40
4.5
100
AcDbArc
 50
180.0
 51
250.5287789999999
  0
ARC
  5
A018
330
9E5E
100
AcDbEntity
  8
1
  6
Continuous
100
AcDbCircle
 10
42.738487
 20
241.668092
 30
0.0
 40
3.1
100
AcDbArc
 50
180.0
 51
211.2580789999999
  0
ARC
  5
A019
330
9E5E
100
AcDbEntity
  8
1
  6
Continuous
100
AcDbCircle
 10
42.738487
 20
241.668092
 30
0.0
 40
3.1
100
AcDbArc
 50
270.0
 51
90.0
  0
ARC
  5
A01A
330
9E5E
100
AcDbEntity
  8
1
  6
Continuous
100
AcDbCircle
 10
42.738487
 20
241.668092
 30
0.0
 40
4.5
100
AcDbArc
 50
270.0
 51
90.0
  0
LINE
  5
A01B
330
9E5E
100
AcDbEntity
  8
1
  6
Continuous
100
AcDbLine
 10
44.23848699999999
 20
244.381024
 30
0.0
 11
44.23848699999999
 21
238.95516
 31
0.0
  0
LINE
  5
A01C
330
9E5E
100
AcDbEntity
  8
1
  6
Continuous
100
AcDbLine
 10
41.588487
 20
245.668092
 30
0.0
 11
41.588487
 21
239.168092
 31
0.0
  0
LINE
  5
A01D
330
9E5E
100
AcDbEntity
  8
1
  6
Continuous
100
AcDbLine
 10
42.738487
 20
237.168092
 30
0.0
 11
44.23848699999999
 21
237.168092
 31
0.0
  0
LINE
  5
A01E
330
9E5E
100
AcDbEntity
  8
1
  6
Continuous
100
AcDbLine
 10
40.088487
 20
239.168092
 30
0.0
 11
44.23848699999999
 21
239.168092
 31
0.0
  0
LINE
  5
A01F
330
9E5E
100
AcDbEntity
  8
1
  6
Continuous
100
AcDbLine
 10
44.23848699999999
 20
237.425452
 30
0.0
 11
44.23848699999999
 21
237.168092
 31
0.0
  0
ARC
  5
A020
330
9E5E
100
AcDbEntity
  8
1
  6
Continuous
100
AcDbCircle
 10
42.588487
 20
241.668092
 30
0.0
 40
3.1
100
AcDbArc
 50
233.7506789999999
 51
244.1839129999999
  0
ARC
  5
A021
330
9E5E
100
AcDbEntity
  8
1
  6
Continuous
100
AcDbCircle
 10
36.588487
 20
246.168092
 30
0.0
 40
6.0
100
AcDbArc
 50
301.269269
 51
305.685335
  0
LINE
  5
A022
330
9E5E
100
AcDbEntity
  8
1
  6
Continuous
100
AcDbLine
 10
42.738487
 20
239.168092
 30
0.0
 11
42.738487
 21
237.168092
 31
0.0
  0
LINE
  5
A023
330
9E5E
100
AcDbEntity
  8
1
  6
Continuous
100
AcDbLine
 10
41.23848699999999
 20
237.168092
 30
0.0
 11
42.738487
 21
237.168092
 31
0.0
  0
LINE
  5
A024
330
9E5E
100
AcDbEntity
  8
1
  6
Continuous
100
AcDbLine
 10
42.588487
 20
244.168092
 30
0.0
 11
44.23848699999999
 21
244.168092
 31
0.0
  0
LINE
  5
A025
330
9E5E
100
AcDbEntity
  8
1
  6
Continuous
100
AcDbLine
 10
44.23848699999999
 20
246.168092
 30
0.0
 11
42.738487
 21
246.168092
 31
0.0
  0
LINE
  5
A026
330
9E5E
100
AcDbEntity
  8
1
  6
Continuous
100
AcDbLine
 10
44.23848699999999
 20
246.168092
 30
0.0
 11
44.23848699999999
 21
245.910733
 31
0.0
  0
ARC
  5
A027
330
9E5E
100
AcDbEntity
  8
1
  6
Continuous
100
AcDbCircle
 10
42.738487
 20
241.668092
 30
0.0
 40
4.5
100
AcDbArc
 50
109.4712209999999
 51
117.266044
  0
ARC
  5
A028
330
9E5E
100
AcDbEntity
  8
1
  6
Continuous
100
AcDbCircle
 10
42.738487
 20
241.668092
 30
0.0
 40
4.5
100
AcDbArc
 50
126.0782
 51
138.1896849999999
  0
LINE
  5
A029
330
9E5E
100
AcDbEntity
  8
1
  6
Continuous
100
AcDbLine
 10
42.738487
 20
246.168092
 30
0.0
 11
42.738487
 21
244.168092
 31
0.0
  0
LINE
  5
A02A
330
9E5E
100
AcDbEntity
  8
1
  6
Continuous
100
AcDbLine
 10
40.088487
 20
245.668092
 30
0.0
 11
41.588487
 21
245.668092
 31
0.0
  0
LINE
  5
A02B
330
9E5E
100
AcDbEntity
  8
1
  6
Continuous
100
AcDbLine
 10
42.738487
 20
246.168092
 30
0.0
 11
40.088487
 21
246.168092
 31
0.0
  0
LINE
  5
A02C
330
9E5E
100
AcDbEntity
  8
1
  6
Continuous
100
AcDbLine
 10
41.588487
 20
242.043092
 30
0.0
 11
42.588487
 21
242.043092
 31
0.0
  0
LINE
  5
A02D
330
9E5E
100
AcDbEntity
  8
1
  6
Continuous
100
AcDbLine
 10
41.588487
 20
244.293092
 30
0.0
 11
42.588487
 21
244.293092
 31
0.0
  0
LINE
  5
A02E
330
9E5E
100
AcDbEntity
  8
1
  6
Continuous
100
AcDbLine
 10
42.588487
 20
244.293092
 30
0.0
 11
42.588487
 21
242.043092
 31
0.0
  0
LINE
  5
A02F
330
9E5E
100
AcDbEntity
  8
1
  6
Continuous
100
AcDbLine
 10
41.23848699999999
 20
246.168092
 30
0.0
 11
41.23848699999999
 21
245.668092
 31
0.0
  0
LINE
  5
A030
330
9E5E
100
AcDbEntity
  8
1
  6
Continuous
100
AcDbLine
 10
41.088487
 20
239.168092
 30
0.0
 11
41.088487
 21
238.95516
 31
0.0
  0
ARC
  5
A031
330
9E5E
100
AcDbEntity
  8
1
  6
Continuous
100
AcDbCircle
 10
21.43848699999999
 20
49.864492
 30
0.0
 40
4.5
100
AcDbArc
 50
270.0
 51
291.5101879999999
  0
ARC
  5
A032
330
9E5E
100
AcDbEntity
  8
1
  6
Continuous
100
AcDbCircle
 10
21.43848699999999
 20
49.864492
 30
0.0
 40
3.1
100
AcDbArc
 50
270.0
 51
302.1581499999999
  0
ARC
  5
A033
330
9E5E
100
AcDbEntity
  8
1
  6
Continuous
100
AcDbCircle
 10
21.43848699999999
 20
49.864492
 30
0.0
 40
3.1
100
AcDbArc
 50
75.341098
 51
90.0
  0
ARC
  5
A034
330
9E5E
100
AcDbEntity
  8
1
  6
Continuous
100
AcDbCircle
 10
21.43848699999999
 20
49.864492
 30
0.0
 40
4.5
100
AcDbArc
 50
75.431753
 51
90.0
  0
ARC
  5
A035
330
9E5E
100
AcDbEntity
  8
1
  6
Continuous
100
AcDbCircle
 10
21.43848699999999
 20
49.864492
 30
0.0
 40
4.5
100
AcDbArc
 50
109.4712209999999
 51
250.5287789999999
  0
ARC
  5
A036
330
9E5E
100
AcDbEntity
  8
1
  6
Continuous
100
AcDbCircle
 10
21.43848699999999
 20
49.864492
 30
0.0
 40
3.1
100
AcDbArc
 50
118.938528
 51
241.061472
  0
ARC
  5
A037
330
9E5E
100
AcDbEntity
  8
1
  6
Continuous
100
AcDbCircle
 10
23.08848699999999
 20
53.364492
 30
0.0
 40
1.0
100
AcDbArc
 50
90.0
 51
270.0
  0
LINE
  5
A038
330
9E5E
100
AcDbEntity
  8
1
  6
Continuous
100
AcDbLine
 10
20.288487
 20
50.98949199999999
 30
0.0
 11
20.288487
 21
48.739492
 31
0.0
  0
LINE
  5
A039
330
9E5E
100
AcDbEntity
  8
1
  6
Continuous
100
AcDbLine
 10
20.288487
 20
48.739492
 30
0.0
 11
21.43848699999999
 21
48.739492
 31
0.0
  0
LINE
  5
A03A
330
9E5E
100
AcDbEntity
  8
1
  6
Continuous
100
AcDbLine
 10
20.288487
 20
50.98949199999999
 30
0.0
 11
21.43848699999999
 21
50.98949199999999
 31
0.0
  0
LINE
  5
A03B
330
9E5E
100
AcDbEntity
  8
1
  6
Continuous
100
AcDbLine
 10
21.43848699999999
 20
54.36449200000001
 30
0.0
 11
22.93848699999999
 21
54.36449200000001
 31
0.0
  0
LINE
  5
A03C
330
9E5E
100
AcDbEntity
  8
1
  6
Continuous
100
AcDbLine
 10
21.588487
 20
45.36449199999998
 30
0.0
 11
22.93848699999999
 21
45.36449199999998
 31
0.0
  0
LINE
  5
A03D
330
9E5E
100
AcDbEntity
  8
1
  6
Continuous
100
AcDbLine
 10
19.938487
 20
45.36449199999998
 30
0.0
 11
21.43848699999999
 21
45.36449199999998
 31
0.0
  0
LINE
  5
A03E
330
9E5E
100
AcDbEntity
  8
1
  6
Continuous
100
AcDbLine
 10
19.938487
 20
54.36449200000001
 30
0.0
 11
21.43848699999999
 21
54.36449200000001
 31
0.0
  0
LINE
  5
A03F
330
9E5E
100
AcDbEntity
  8
1
  6
Continuous
100
AcDbLine
 10
21.43848699999999
 20
54.36449200000001
 30
0.0
 11
21.43848699999999
 21
45.36449199999998
 31
0.0
  0
LINE
  5
A040
330
9E5E
100
AcDbEntity
  8
1
  6
Continuous
100
AcDbLine
 10
21.43848699999999
 20
52.364492
 30
0.0
 11
23.08848699999999
 21
52.364492
 31
0.0
  0
LINE
  5
A041
330
9E5E
100
AcDbEntity
  8
1
  6
Continuous
100
AcDbLine
 10
21.43848699999999
 20
47.364492
 30
0.0
 11
22.93848699999999
 21
47.364492
 31
0.0
  0
LINE
  5
A042
330
9E5E
100
AcDbEntity
  8
1
  6
Continuous
100
AcDbLine
 10
19.938487
 20
54.36449200000001
 30
0.0
 11
19.938487
 21
45.36449199999998
 31
0.0
  0
LINE
  5
A043
330
9E5E
100
AcDbEntity
  8
1
  6
Continuous
100
AcDbLine
 10
23.08848699999999
 20
45.36449199999998
 30
0.0
 11
23.08848699999999
 21
54.864492
 31
0.0
  0
LINE
  5
A044
330
9E5E
100
AcDbEntity
  8
1
  6
Continuous
100
AcDbLine
 10
158.148006
 20
143.9019489999998
 30
0.0
 11
158.625952
 21
143.875662
 31
0.0
  0
LINE
  5
A045
330
9E5E
100
AcDbEntity
  8
1
  6
Continuous
100
AcDbLine
 10
165.266025
 20
144.912573
 30
0.0
 11
165.8248899999998
 21
144.8818359999999
 31
0.0
  0
ARC
  5
A046
330
9E5E
100
AcDbEntity
  8
1
  6
Continuous
100
AcDbCircle
 10
158.203157
 20
144.620905
 30
0.0
 40
0.716709
100
AcDbArc
 50
98.19130900000001
 51
278.183923
  0
ARC
  5
A047
330
9E5E
100
AcDbEntity
  8
1
  6
Continuous
100
AcDbCircle
 10
158.184152
 20
143.1071699999999
 30
0.0
 40
0.697704
100
AcDbArc
 50
98.19130900000001
 51
278.183923
  0
ARC
  5
A048
330
9E5E
100
AcDbEntity
  8
1
  6
Continuous
100
AcDbCircle
 10
158.1857359999999
 20
141.613998
 30
0.0
 40
0.6992880000000003
100
AcDbArc
 50
98.19130900000001
 51
278.183923
  0
ARC
  5
A049
330
9E5E
100
AcDbEntity
  8
1
  6
Continuous
100
AcDbCircle
 10
158.1857359999999
 20
140.118998
 30
0.0
 40
0.6992880000000003
100
AcDbArc
 50
98.19130900000001
 51
278.183923
  0
ARC
  5
A04A
330
9E5E
100
AcDbEntity
  8
1
  6
Continuous
100
AcDbCircle
 10
158.1857359999999
 20
138.623998
 30
0.0
 40
0.6992880000000003
100
AcDbArc
 50
98.19130900000001
 51
278.183923
  0
ARC
  5
A04B
330
9E5E
100
AcDbEntity
  8
1
  6
Continuous
100
AcDbCircle
 10
165.7692459999998
 20
145.709526
 30
0.0
 40
0.717202
100
AcDbArc
 50
278.183923
 51
98.19130900000001
  0
ARC
  5
A04C
330
9E5E
100
AcDbEntity
  8
1
  6
Continuous
100
AcDbCircle
 10
165.788249
 20
144.2012599999999
 30
0.0
 40
0.698199
100
AcDbArc
 50
278.183923
 51
98.19130900000001
  0
ARC
  5
A04D
330
9E5E
100
AcDbEntity
  8
1
  6
Continuous
100
AcDbCircle
 10
165.786666
 20
142.7076319999999
 30
0.0
 40
0.6997830000000002
100
AcDbArc
 50
278.183923
 51
98.19130900000001
  0
ARC
  5
A04E
330
9E5E
100
AcDbEntity
  8
1
  6
Continuous
100
AcDbCircle
 10
165.768821
 20
141.210065
 30
0.0
 40
0.699781
100
AcDbArc
 50
278.183923
 51
98.19130900000001
  0
ARC
  5
A04F
330
9E5E
100
AcDbEntity
  8
1
  6
Continuous
100
AcDbCircle
 10
165.786666
 20
139.717632
 30
0.0
 40
0.6997830000000002
100
AcDbArc
 50
278.183923
 51
98.19130900000001
  0
LINE
  5
A050
330
9E5E
100
AcDbEntity
  8
1
  6
Continuous
100
AcDbLine
 10
165.3259139999998
 20
146.451386
 30
0.0
 11
165.8074349999999
 21
146.42571
 31
0.0
  0
LINE
  5
A051
330
9E5E
100
AcDbEntity
  8
1
  6
Continuous
100
AcDbLine
 10
158.146009
 20
145.432261
 30
0.0
 11
158.619146
 21
145.4048819999999
 31
0.0
  0
LINE
  5
A052
330
9E5E
100
AcDbEntity
  8
1
  6
Continuous
100
AcDbLine
 10
165.341578
 20
143.431639
 30
0.0
 11
165.8232
 21
143.40646
 31
0.0
  0
LINE
  5
A053
330
9E5E
100
AcDbEntity
  8
1
  6
Continuous
100
AcDbLine
 10
158.6325239999998
 20
142.3848079999999
 30
0.0
 11
158.147345
 21
142.4104379999999
 31
0.0
  0
LINE
  5
A054
330
9E5E
100
AcDbEntity
  8
1
  6
Continuous
100
AcDbLine
 10
165.3259789999999
 20
141.9343959999999
 30
0.0
 11
165.8059979999999
 21
141.908858
 31
0.0
  0
LINE
  5
A055
330
9E5E
100
AcDbEntity
  8
1
  6
Continuous
100
AcDbLine
 10
158.632933
 20
140.8898669999999
 30
0.0
 11
158.1484939999999
 21
140.915703
 31
0.0
  0
LINE
  5
A056
330
9E5E
100
AcDbEntity
  8
1
  6
Continuous
100
AcDbLine
 10
165.342706
 20
140.441801
 30
0.0
 11
165.8235209999998
 21
140.4164429999999
 31
0.0
  0
LINE
  5
A057
330
9E5E
100
AcDbEntity
  8
1
  6
Continuous
100
AcDbLine
 10
158.1488159999999
 20
139.4206859999999
 30
0.0
 11
158.634072
 21
139.3950309999999
 31
0.0
  0
LINE
  5
A058
330
9E5E
100
AcDbEntity
  8
1
  6
Continuous
100
AcDbLine
 10
164.486448
 20
140.2374649999998
 30
0.0
 11
164.486448
 21
140.318658
 31
0.0
  0
LINE
  5
A059
330
9E5E
100
AcDbEntity
  8
1
  6
Continuous
100
AcDbLine
 10
159.486448
 20
145.611579
 30
0.0
 11
159.486448
 21
145.529728
 31
0.0
  0
LINE
  5
A05A
330
9E5E
100
AcDbEntity
  8
1
  6
Continuous
100
AcDbLine
 10
164.486448
 20
146.2494649999999
 30
0.0
 11
164.486448
 21
146.330658
 31
0.0
  0
LINE
  5
A05B
330
9E5E
100
AcDbEntity
  8
1
  6
Continuous
100
AcDbLine
 10
159.486448
 20
144.0813789999999
 30
0.0
 11
159.486448
 21
143.9995279999999
 31
0.0
  0
LINE
  5
A05C
330
9E5E
100
AcDbEntity
  8
1
  6
Continuous
100
AcDbLine
 10
159.486448
 20
142.589579
 30
0.0
 11
159.486448
 21
142.5077279999999
 31
0.0
  0
LINE
  5
A05D
330
9E5E
100
AcDbEntity
  8
1
  6
Continuous
100
AcDbLine
 10
159.486448
 20
141.094579
 30
0.0
 11
159.486448
 21
141.012728
 31
0.0
  0
LINE
  5
A05E
330
9E5E
100
AcDbEntity
  8
1
  6
Continuous
100
AcDbLine
 10
159.486448
 20
139.599579
 30
0.0
 11
159.486448
 21
139.517728
 31
0.0
  0
LINE
  5
A05F
330
9E5E
100
AcDbEntity
  8
1
  6
Continuous
100
AcDbLine
 10
164.486448
 20
141.7324649999999
 30
0.0
 11
164.486448
 21
141.813658
 31
0.0
  0
LINE
  5
A060
330
9E5E
100
AcDbEntity
  8
1
  6
Continuous
100
AcDbLine
 10
164.486448
 20
143.2274649999999
 30
0.0
 11
164.486448
 21
143.308658
 31
0.0
  0
LINE
  5
A061
330
9E5E
100
AcDbEntity
  8
1
  6
Continuous
100
AcDbLine
 10
164.486448
 20
144.7192649999998
 30
0.0
 11
164.486448
 21
144.8004579999999
 31
0.0
  0
LINE
  5
A062
330
9E5E
100
AcDbEntity
  8
1
  6
Continuous
100
AcDbLine
 10
22.93848699999999
 20
146.1868419999998
 30
0.0
 11
22.93848699999999
 21
146.1055169999999
 31
0.0
  0
LINE
  5
A063
330
9E5E
100
AcDbEntity
  8
1
  6
Continuous
100
AcDbLine
 10
21.43848699999999
 20
145.9711189999999
 30
0.0
 11
21.43848699999999
 21
145.8895959999999
 31
0.0
  0
LINE
  5
A064
330
9E5E
100
AcDbEntity
  8
1
  6
Continuous
100
AcDbLine
 10
19.938487
 20
145.7338229999998
 30
0.0
 11
19.938487
 21
145.652083
 31
0.0
  0
LINE
  5
A065
330
9E5E
100
AcDbEntity
  8
1
  6
Continuous
100
AcDbLine
 10
22.93848699999999
 20
140.1748419999998
 30
0.0
 11
22.93848699999999
 21
140.0935169999999
 31
0.0
  0
LINE
  5
A066
330
9E5E
100
AcDbEntity
  8
1
  6
Continuous
100
AcDbLine
 10
21.43848699999999
 20
139.9591189999999
 30
0.0
 11
21.43848699999999
 21
139.8775959999998
 31
0.0
  0
LINE
  5
A067
330
9E5E
100
AcDbEntity
  8
1
  6
Continuous
100
AcDbLine
 10
19.938487
 20
139.721823
 30
0.0
 11
19.938487
 21
139.640083
 31
0.0
  0
LINE
  5
A068
330
9E5E
100
AcDbEntity
  8
1
  6
Continuous
100
AcDbLine
 10
19.938487
 20
141.2168229999998
 30
0.0
 11
19.938487
 21
141.135083
 31
0.0
  0
LINE
  5
A069
330
9E5E
100
AcDbEntity
  8
1
  6
Continuous
100
AcDbLine
 10
21.43848699999999
 20
141.454119
 30
0.0
 11
21.43848699999999
 21
141.3725959999998
 31
0.0
  0
LINE
  5
A06A
330
9E5E
100
AcDbEntity
  8
1
  6
Continuous
100
AcDbLine
 10
22.93848699999999
 20
141.6698419999999
 30
0.0
 11
22.93848699999999
 21
141.5885169999999
 31
0.0
  0
LINE
  5
A06B
330
9E5E
100
AcDbEntity
  8
1
  6
Continuous
100
AcDbLine
 10
22.93848699999999
 20
143.1648419999999
 30
0.0
 11
22.93848699999999
 21
143.0835169999998
 31
0.0
  0
LINE
  5
A06C
330
9E5E
100
AcDbEntity
  8
1
  6
Continuous
100
AcDbLine
 10
22.93848699999999
 20
144.656642
 30
0.0
 11
22.93848699999999
 21
144.5753169999998
 31
0.0
  0
LINE
  5
A06D
330
9E5E
100
AcDbEntity
  8
1
  6
Continuous
100
AcDbLine
 10
21.43848699999999
 20
144.440919
 30
0.0
 11
21.43848699999999
 21
144.359396
 31
0.0
  0
LINE
  5
A06E
330
9E5E
100
AcDbEntity
  8
1
  6
Continuous
100
AcDbLine
 10
21.43848699999999
 20
142.949119
 30
0.0
 11
21.43848699999999
 21
142.8675959999999
 31
0.0
  0
LINE
  5
A06F
330
9E5E
100
AcDbEntity
  8
1
  6
Continuous
100
AcDbLine
 10
19.938487
 20
142.711823
 30
0.0
 11
19.938487
 21
142.630083
 31
0.0
  0
LINE
  5
A070
330
9E5E
100
AcDbEntity
  8
1
  6
Continuous
100
AcDbLine
 10
19.938487
 20
144.203623
 30
0.0
 11
19.938487
 21
144.1218829999999
 31
0.0
  0
ARC
  5
A071
330
9E5E
100
AcDbEntity
  8
1
  6
Continuous
100
AcDbCircle
 10
17.655196
 20
144.620905
 30
0.0
 40
0.716709
100
AcDbArc
 50
98.19130900000001
 51
278.183923
  0
ARC
  5
A072
330
9E5E
100
AcDbEntity
  8
1
  6
Continuous
100
AcDbCircle
 10
17.63619
 20
143.1071699999999
 30
0.0
 40
0.697704
100
AcDbArc
 50
98.19130900000001
 51
278.183923
  0
ARC
  5
A073
330
9E5E
100
AcDbEntity
  8
1
  6
Continuous
100
AcDbCircle
 10
17.637774
 20
141.613998
 30
0.0
 40
0.6992880000000003
100
AcDbArc
 50
98.19130900000001
 51
278.183923
  0
ARC
  5
A074
330
9E5E
100
AcDbEntity
  8
1
  6
Continuous
100
AcDbCircle
 10
17.637774
 20
140.118998
 30
0.0
 40
0.6992880000000003
100
AcDbArc
 50
98.19130900000001
 51
278.183923
  0
ARC
  5
A075
330
9E5E
100
AcDbEntity
  8
1
  6
Continuous
100
AcDbCircle
 10
17.637774
 20
138.623998
 30
0.0
 40
0.6992880000000003
100
AcDbArc
 50
98.19130900000001
 51
278.183923
  0
ARC
  5
A076
330
9E5E
100
AcDbEntity
  8
1
  6
Continuous
100
AcDbCircle
 10
25.23870399999999
 20
139.717632
 30
0.0
 40
0.6997830000000002
100
AcDbArc
 50
278.183923
 51
98.19130900000001
  0
ARC
  5
A077
330
9E5E
100
AcDbEntity
  8
1
  6
Continuous
100
AcDbCircle
 10
25.23870399999999
 20
141.212632
 30
0.0
 40
0.6997830000000002
100
AcDbArc
 50
278.183923
 51
98.19130900000001
  0
ARC
  5
A078
330
9E5E
100
AcDbEntity
  8
1
  6
Continuous
100
AcDbCircle
 10
25.23870399999999
 20
142.7076319999999
 30
0.0
 40
0.6997830000000002
100
AcDbArc
 50
278.183923
 51
98.19130900000001
  0
ARC
  5
A079
330
9E5E
100
AcDbEntity
  8
1
  6
Continuous
100
AcDbCircle
 10
25.24028799999999
 20
144.2012599999999
 30
0.0
 40
0.698199
100
AcDbArc
 50
278.183923
 51
98.19130900000001
  0
ARC
  5
A07A
330
9E5E
100
AcDbEntity
  8
1
  6
Continuous
100
AcDbCircle
 10
25.221285
 20
145.709526
 30
0.0
 40
0.717202
100
AcDbArc
 50
278.183923
 51
98.19130900000001
  0
LINE
  5
A07B
330
9E5E
100
AcDbEntity
  8
1
  6
Continuous
100
AcDbLine
 10
24.777952
 20
146.451386
 30
0.0
 11
25.25947399999999
 21
146.42571
 31
0.0
  0
LINE
  5
A07C
330
9E5E
100
AcDbEntity
  8
1
  6
Continuous
100
AcDbLine
 10
17.598047
 20
145.432261
 30
0.0
 11
18.07118499999998
 21
145.4048819999999
 31
0.0
  0
LINE
  5
A07D
330
9E5E
100
AcDbEntity
  8
1
  6
Continuous
100
AcDbLine
 10
24.808438
 20
144.9255709999999
 30
0.0
 11
25.280555
 21
144.8982969999998
 31
0.0
  0
LINE
  5
A07E
330
9E5E
100
AcDbEntity
  8
1
  6
Continuous
100
AcDbLine
 10
17.617348
 20
143.905196
 30
0.0
 11
18.104281
 21
143.8794459999998
 31
0.0
  0
LINE
  5
A07F
330
9E5E
100
AcDbEntity
  8
1
  6
Continuous
100
AcDbLine
 10
24.793617
 20
143.431639
 30
0.0
 11
25.275239
 21
143.40646
 31
0.0
  0
LINE
  5
A080
330
9E5E
100
AcDbEntity
  8
1
  6
Continuous
100
AcDbLine
 10
17.599384
 20
142.4104379999999
 30
0.0
 11
18.084562
 21
142.3848079999999
 31
0.0
  0
LINE
  5
A081
330
9E5E
100
AcDbEntity
  8
1
  6
Continuous
100
AcDbLine
 10
24.794745
 20
141.936801
 30
0.0
 11
25.275559
 21
141.911443
 31
0.0
  0
LINE
  5
A082
330
9E5E
100
AcDbEntity
  8
1
  6
Continuous
100
AcDbLine
 10
17.600854
 20
140.9156859999999
 30
0.0
 11
18.086111
 21
140.8900309999999
 31
0.0
  0
LINE
  5
A083
330
9E5E
100
AcDbEntity
  8
1
  6
Continuous
100
AcDbLine
 10
24.794745
 20
140.441801
 30
0.0
 11
25.275559
 21
140.4164429999999
 31
0.0
  0
LINE
  5
A084
330
9E5E
100
AcDbEntity
  8
1
  6
Continuous
100
AcDbLine
 10
17.600854
 20
139.4206859999999
 30
0.0
 11
18.086111
 21
139.3950309999999
 31
0.0
  0
ARC
  5
A085
330
9E5E
100
AcDbEntity
  8
1
  6
Continuous
100
AcDbCircle
 10
46.54028799999998
 20
144.2012599999999
 30
0.0
 40
0.698199
100
AcDbArc
 50
278.183923
 51
98.19130900000001
  0
LINE
  5
A086
330
9E5E
100
AcDbEntity
  8
1
  6
Continuous
100
AcDbLine
 10
46.093617
 20
143.431639
 30
0.0
 11
46.575239
 21
143.40646
 31
0.0
  0
ARC
  5
A087
330
9E5E
100
AcDbEntity
  8
1
  6
Continuous
100
AcDbCircle
 10
46.53870399999997
 20
142.7076319999999
 30
0.0
 40
0.6997830000000002
100
AcDbArc
 50
278.183923
 51
98.19130900000001
  0
LINE
  5
A088
330
9E5E
100
AcDbEntity
  8
1
  6
Continuous
100
AcDbLine
 10
46.094745
 20
141.936801
 30
0.0
 11
46.57555900000001
 21
141.911443
 31
0.0
  0
ARC
  5
A089
330
9E5E
100
AcDbEntity
  8
1
  6
Continuous
100
AcDbCircle
 10
46.53870399999997
 20
139.717632
 30
0.0
 40
0.6997830000000002
100
AcDbArc
 50
278.183923
 51
98.19130900000001
  0
ARC
  5
A08A
330
9E5E
100
AcDbEntity
  8
1
  6
Continuous
100
AcDbCircle
 10
46.53870399999997
 20
141.212632
 30
0.0
 40
0.6997830000000002
100
AcDbArc
 50
278.183923
 51
98.19130900000001
  0
LINE
  5
A08B
330
9E5E
100
AcDbEntity
  8
1
  6
Continuous
100
AcDbLine
 10
46.094745
 20
140.441801
 30
0.0
 11
46.57555900000001
 21
140.4164429999999
 31
0.0
  0
LINE
  5
A08C
330
9E5E
100
AcDbEntity
  8
1
  6
Continuous
100
AcDbLine
 10
46.108438
 20
144.9255709999999
 30
0.0
 11
46.58055499999998
 21
144.8982969999998
 31
0.0
  0
ARC
  5
A08D
330
9E5E
100
AcDbEntity
  8
1
  6
Continuous
100
AcDbCircle
 10
46.52128499999999
 20
145.709526
 30
0.0
 40
0.717202
100
AcDbArc
 50
278.183923
 51
98.19130900000001
  0
LINE
  5
A08E
330
9E5E
100
AcDbEntity
  8
1
  6
Continuous
100
AcDbLine
 10
46.077952
 20
146.451386
 30
0.0
 11
46.559474
 21
146.42571
 31
0.0
  0
ARC
  5
A08F
330
9E5E
100
AcDbEntity
  8
1
  6
Continuous
100
AcDbCircle
 10
46.538487
 20
138.6240919999999
 30
0.0
 40
0.7
100
AcDbArc
 50
157.4859999999999
 51
51.31649999999999
  0
ARC
  5
A090
330
9E5E
100
AcDbEntity
  8
1
  6
Continuous
100
AcDbCircle
 10
46.538487
 20
147.2240919999999
 30
0.0
 40
0.7
100
AcDbArc
 50
280.0
 51
100.0
  0
ARC
  5
A091
330
9E5E
100
AcDbEntity
  8
1
  6
Continuous
100
AcDbCircle
 10
46.538487
 20
147.2240919999999
 30
0.0
 40
0.7
100
AcDbArc
 50
280.0
 51
100.0
  0
ARC
  5
A092
330
9E5E
100
AcDbEntity
  8
1
  6
Continuous
100
AcDbCircle
 10
38.93619000000001
 20
143.1071699999999
 30
0.0
 40
0.697704
100
AcDbArc
 50
98.19130900000001
 51
278.183923
  0
LINE
  5
A093
330
9E5E
100
AcDbEntity
  8
1
  6
Continuous
100
AcDbLine
 10
38.917348
 20
143.905196
 30
0.0
 11
39.404281
 21
143.8794459999998
 31
0.0
  0
ARC
  5
A094
330
9E5E
100
AcDbEntity
  8
1
  6
Continuous
100
AcDbCircle
 10
38.93777399999999
 20
141.613998
 30
0.0
 40
0.6992880000000003
100
AcDbArc
 50
98.19130900000001
 51
278.183923
  0
LINE
  5
A095
330
9E5E
100
AcDbEntity
  8
1
  6
Continuous
100
AcDbLine
 10
38.89938400000001
 20
142.4104379999999
 30
0.0
 11
39.384562
 21
142.3848079999999
 31
0.0
  0
ARC
  5
A096
330
9E5E
100
AcDbEntity
  8
1
  6
Continuous
100
AcDbCircle
 10
38.93777399999999
 20
138.623998
 30
0.0
 40
0.6992880000000003
100
AcDbArc
 50
98.19130900000001
 51
278.183923
  0
ARC
  5
A097
330
9E5E
100
AcDbEntity
  8
1
  6
Continuous
100
AcDbCircle
 10
38.93777399999999
 20
140.118998
 30
0.0
 40
0.6992880000000003
100
AcDbArc
 50
98.19130900000001
 51
278.183923
  0
LINE
  5
A098
330
9E5E
100
AcDbEntity
  8
1
  6
Continuous
100
AcDbLine
 10
38.90085399999998
 20
140.9156859999999
 30
0.0
 11
39.386111
 21
140.8900309999999
 31
0.0
  0
LINE
  5
A099
330
9E5E
100
AcDbEntity
  8
1
  6
Continuous
100
AcDbLine
 10
38.90085399999998
 20
139.4206859999999
 30
0.0
 11
39.386111
 21
139.3950309999999
 31
0.0
  0
ARC
  5
A09A
330
9E5E
100
AcDbEntity
  8
1
  6
Continuous
100
AcDbCircle
 10
38.955196
 20
144.620905
 30
0.0
 40
0.716709
100
AcDbArc
 50
98.19130900000001
 51
278.183923
  0
LINE
  5
A09B
330
9E5E
100
AcDbEntity
  8
1
  6
Continuous
100
AcDbLine
 10
38.898047
 20
145.432261
 30
0.0
 11
39.371185
 21
145.4048819999999
 31
0.0
  0
ARC
  5
A09C
330
9E5E
100
AcDbEntity
  8
1
  6
Continuous
100
AcDbCircle
 10
38.938487
 20
146.131092
 30
0.0
 40
0.7
100
AcDbArc
 50
95.6217
 51
280.7845669999999
  0
ARC
  5
A09D
330
9E5E
100
AcDbEntity
  8
1
  6
Continuous
100
AcDbCircle
 10
38.938487
 20
147.2240919999999
 30
0.0
 40
0.7
100
AcDbArc
 50
337.4509999999999
 51
231.341
  0
LINE
  5
A09E
330
9E5E
100
AcDbEntity
  8
1
  6
Continuous
100
AcDbLine
 10
39.037319
 20
139.4268319999999
 30
0.0
 11
46.638319
 21
140.519976
 31
0.0
  0
LINE
  5
A09F
330
9E5E
100
AcDbEntity
  8
1
  6
Continuous
100
AcDbLine
 10
38.838141
 20
140.811152
 30
0.0
 11
46.43899999999999
 21
141.9052749999998
 31
0.0
  0
LINE
  5
A0A0
330
9E5E
100
AcDbEntity
  8
1
  6
Continuous
100
AcDbLine
 10
39.037319
 20
140.9218319999999
 30
0.0
 11
46.638319
 21
142.0149759999999
 31
0.0
  0
LINE
  5
A0A1
330
9E5E
100
AcDbEntity
  8
1
  6
Continuous
100
AcDbLine
 10
38.838141
 20
142.306152
 30
0.0
 11
46.43899999999999
 21
143.4002749999999
 31
0.0
  0
LINE
  5
A0A2
330
9E5E
100
AcDbEntity
  8
1
  6
Continuous
100
AcDbLine
 10
39.03550899999999
 20
142.4165719999998
 30
0.0
 11
46.63967699999999
 21
143.5101709999998
 31
0.0
  0
LINE
  5
A0A3
330
9E5E
100
AcDbEntity
  8
1
  6
Continuous
100
AcDbLine
 10
38.836782
 20
143.797756
 30
0.0
 11
46.440809
 21
144.892336
 31
0.0
  0
LINE
  5
A0A4
330
9E5E
100
AcDbEntity
  8
1
  6
Continuous
100
AcDbLine
 10
39.05722
 20
143.911494
 30
0.0
 11
46.62337899999999
 21
144.9996269999998
 31
0.0
  0
LINE
  5
A0A5
330
9E5E
100
AcDbEntity
  8
1
  6
Continuous
100
AcDbLine
 10
38.85308
 20
145.3303019999999
 30
0.0
 11
46.41909899999999
 21
146.419411
 31
0.0
  0
LINE
  5
A0A6
330
9E5E
100
AcDbEntity
  8
1
  6
Continuous
100
AcDbLine
 10
39.037319
 20
137.931832
 30
0.0
 11
46.638319
 21
139.024976
 31
0.0
  0
LINE
  5
A0A7
330
9E5E
100
AcDbEntity
  8
1
  6
Continuous
100
AcDbLine
 10
38.838141
 20
139.3161519999999
 30
0.0
 11
46.43899999999999
 21
140.410275
 31
0.0
  0
LINE
  5
A0A8
330
9E5E
100
AcDbEntity
  8
1
  6
Continuous
100
AcDbLine
 10
39.001787
 20
137.9240919999998
 30
0.0
 11
41.23848699999999
 21
137.9240919999998
 31
0.0
  0
LINE
  5
A0A9
330
9E5E
100
AcDbEntity
  8
1
  6
Continuous
100
AcDbLine
 10
38.938487
 20
147.924092
 30
0.0
 11
42.738487
 21
147.924092
 31
0.0
  0
LINE
  5
A0AA
330
9E5E
100
AcDbEntity
  8
1
  6
Continuous
100
AcDbLine
 10
38.816887
 20
146.8200919999999
 30
0.0
 11
46.416887
 21
147.9140919999998
 31
0.0
  0
LINE
  5
A0AB
330
9E5E
100
AcDbEntity
  8
1
  6
Continuous
100
AcDbLine
 10
39.05998699999999
 20
145.442092
 30
0.0
 11
46.659987
 21
146.5350919999998
 31
0.0
  0
LINE
  5
A0AC
330
9E5E
100
AcDbEntity
  8
1
  6
Continuous
100
AcDbLine
 10
44.23848699999999
 20
147.924092
 30
0.0
 11
46.538487
 21
147.924092
 31
0.0
  0
LINE
  5
A0AD
330
9E5E
100
AcDbEntity
  8
1
  6
Continuous
100
AcDbLine
 10
44.23848699999999
 20
146.1868419999998
 30
0.0
 11
44.23848699999999
 21
146.1055169999999
 31
0.0
  0
LINE
  5
A0AE
330
9E5E
100
AcDbEntity
  8
1
  6
Continuous
100
AcDbLine
 10
42.738487
 20
145.9711189999999
 30
0.0
 11
42.738487
 21
145.8895959999999
 31
0.0
  0
LINE
  5
A0AF
330
9E5E
100
AcDbEntity
  8
1
  6
Continuous
100
AcDbLine
 10
41.23848699999999
 20
145.7338229999998
 30
0.0
 11
41.23848699999999
 21
145.652083
 31
0.0
  0
LINE
  5
A0B0
330
9E5E
100
AcDbEntity
  8
1
  6
Continuous
100
AcDbLine
 10
44.23848699999999
 20
144.656642
 30
0.0
 11
44.23848699999999
 21
144.5753169999998
 31
0.0
  0
LINE
  5
A0B1
330
9E5E
100
AcDbEntity
  8
1
  6
Continuous
100
AcDbLine
 10
42.738487
 20
144.440919
 30
0.0
 11
42.738487
 21
144.359396
 31
0.0
  0
LINE
  5
A0B2
330
9E5E
100
AcDbEntity
  8
1
  6
Continuous
100
AcDbLine
 10
41.23848699999999
 20
144.203623
 30
0.0
 11
41.23848699999999
 21
144.1218829999999
 31
0.0
  0
LINE
  5
A0B3
330
9E5E
100
AcDbEntity
  8
1
  6
Continuous
100
AcDbLine
 10
44.23848699999999
 20
143.1648419999999
 30
0.0
 11
44.23848699999999
 21
143.0835169999998
 31
0.0
  0
LINE
  5
A0B4
330
9E5E
100
AcDbEntity
  8
1
  6
Continuous
100
AcDbLine
 10
42.738487
 20
142.949119
 30
0.0
 11
42.738487
 21
142.8675959999999
 31
0.0
  0
LINE
  5
A0B5
330
9E5E
100
AcDbEntity
  8
1
  6
Continuous
100
AcDbLine
 10
41.23848699999999
 20
142.711823
 30
0.0
 11
41.23848699999999
 21
142.630083
 31
0.0
  0
LINE
  5
A0B6
330
9E5E
100
AcDbEntity
  8
1
  6
Continuous
100
AcDbLine
 10
44.23848699999999
 20
141.6698419999999
 30
0.0
 11
44.23848699999999
 21
141.5885169999999
 31
0.0
  0
LINE
  5
A0B7
330
9E5E
100
AcDbEntity
  8
1
  6
Continuous
100
AcDbLine
 10
42.738487
 20
141.454119
 30
0.0
 11
42.738487
 21
141.3725959999998
 31
0.0
  0
LINE
  5
A0B8
330
9E5E
100
AcDbEntity
  8
1
  6
Continuous
100
AcDbLine
 10
41.23848699999999
 20
141.2168229999998
 30
0.0
 11
41.23848699999999
 21
141.135083
 31
0.0
  0
LINE
  5
A0B9
330
9E5E
100
AcDbEntity
  8
1
  6
Continuous
100
AcDbLine
 10
42.738487
 20
139.9591189999999
 30
0.0
 11
42.738487
 21
139.8775959999998
 31
0.0
  0
LINE
  5
A0BA
330
9E5E
100
AcDbEntity
  8
1
  6
Continuous
100
AcDbLine
 10
44.23848699999999
 20
140.1748419999998
 30
0.0
 11
44.23848699999999
 21
140.0935169999999
 31
0.0
  0
LINE
  5
A0BB
330
9E5E
100
AcDbEntity
  8
1
  6
Continuous
100
AcDbLine
 10
41.23848699999999
 20
139.721823
 30
0.0
 11
41.23848699999999
 21
139.640083
 31
0.0
  0
LINE
  5
A0BC
330
9E5E
100
AcDbEntity
  8
1
  6
Continuous
100
AcDbLine
 10
41.23848699999999
 20
138.2483949999999
 30
0.0
 11
41.23848699999999
 21
124.4240919999999
 31
0.0
  0
LINE
  5
A0BD
330
9E5E
100
AcDbEntity
  8
1
  6
Continuous
100
AcDbLine
 10
23.08848699999999
 20
129.7394339999999
 30
0.0
 11
23.08848699999999
 21
112.9240919999999
 31
0.0
  0
LINE
  5
A0BE
330
9E5E
100
AcDbEntity
  8
4
  6
CENTER
100
AcDbLine
 10
281.358627
 20
158.9240919999998
 30
0.0
 11
306.358627
 21
158.9240919999998
 31
0.0
  0
LINE
  5
A0BF
330
9E5E
100
AcDbEntity
  8
1
  6
Continuous
100
AcDbLine
 10
301.858627
 20
157.424092
 30
0.0
 11
285.8586269999999
 21
157.424092
 31
0.0
  0
LINE
  5
A0C0
330
9E5E
100
AcDbEntity
  8
1
  6
Continuous
100
AcDbLine
 10
301.858627
 20
160.424092
 30
0.0
 11
285.8586269999999
 21
160.424092
 31
0.0
  0
LINE
  5
A0C1
330
9E5E
100
AcDbEntity
  8
1
  6
Continuous
100
AcDbLine
 10
281.7086269999999
 20
154.424092
 30
0.0
 11
281.7086269999999
 21
147.147083
 31
0.0
  0
ARC
  5
A0C2
330
9E5E
100
AcDbEntity
  8
1
  6
Continuous
100
AcDbCircle
 10
284.858627
 20
154.924092
 30
0.0
 40
1.0
100
AcDbArc
 50
270.0
 51
0.0
  0
LINE
  5
A0C3
330
9E5E
100
AcDbEntity
  8
1
  6
Continuous
100
AcDbLine
 10
283.2086269999999
 20
134.9240919999998
 30
0.0
 11
281.7086269999999
 21
134.9240919999998
 31
0.0
  0
LINE
  5
A0C4
330
9E5E
100
AcDbEntity
  8
1
  6
Continuous
100
AcDbLine
 10
283.2086269999999
 20
153.924092
 30
0.0
 11
283.2086269999999
 21
147.3630039999999
 31
0.0
  0
LINE
  5
A0C5
330
9E5E
100
AcDbEntity
  8
1
  6
Continuous
100
AcDbLine
 10
284.858627
 20
153.924092
 30
0.0
 11
283.2086269999999
 21
153.924092
 31
0.0
  0
LINE
  5
A0C6
330
9E5E
100
AcDbEntity
  8
1
  6
Continuous
100
AcDbLine
 10
281.7086269999999
 20
138.2268229999999
 30
0.0
 11
281.7086269999999
 21
134.9240919999998
 31
0.0
  0
LINE
  5
A0C7
330
9E5E
100
AcDbEntity
  8
1
  6
Continuous
100
AcDbLine
 10
281.7086269999999
 20
145.7338229999998
 30
0.0
 11
281.7086269999999
 21
145.652083
 31
0.0
  0
LINE
  5
A0C8
330
9E5E
100
AcDbEntity
  8
1
  6
Continuous
100
AcDbLine
 10
281.7086269999999
 20
139.721823
 30
0.0
 11
281.7086269999999
 21
139.640083
 31
0.0
  0
LINE
  5
A0C9
330
9E5E
100
AcDbEntity
  8
1
  6
Continuous
100
AcDbLine
 10
281.7086269999999
 20
141.2168229999998
 30
0.0
 11
281.7086269999999
 21
141.135083
 31
0.0
  0
LINE
  5
A0CA
330
9E5E
100
AcDbEntity
  8
1
  6
Continuous
100
AcDbLine
 10
281.7086269999999
 20
142.711823
 30
0.0
 11
281.7086269999999
 21
142.630083
 31
0.0
  0
LINE
  5
A0CB
330
9E5E
100
AcDbEntity
  8
1
  6
Continuous
100
AcDbLine
 10
281.7086269999999
 20
144.203623
 30
0.0
 11
281.7086269999999
 21
144.1218829999999
 31
0.0
  0
LINE
  5
A0CC
330
9E5E
100
AcDbEntity
  8
1
  6
Continuous
100
AcDbLine
 10
283.2086269999999
 20
150.924092
 30
0.0
 11
284.7086269999999
 21
150.924092
 31
0.0
  0
LINE
  5
A0CD
330
9E5E
100
AcDbEntity
  8
1
  6
Continuous
100
AcDbLine
 10
284.7086269999999
 20
150.924092
 30
0.0
 11
284.7086269999999
 21
147.600517
 31
0.0
  0
LINE
  5
A0CE
330
9E5E
100
AcDbEntity
  8
1
  6
Continuous
100
AcDbLine
 10
279.3709949999998
 20
139.4206859999999
 30
0.0
 11
279.856251
 21
139.3950309999999
 31
0.0
  0
LINE
  5
A0CF
330
9E5E
100
AcDbEntity
  8
1
  6
Continuous
100
AcDbLine
 10
286.5648849999999
 20
140.441801
 30
0.0
 11
287.0457
 21
140.4164429999999
 31
0.0
  0
LINE
  5
A0D0
330
9E5E
100
AcDbEntity
  8
1
  6
Continuous
100
AcDbLine
 10
279.3709949999998
 20
140.9156859999999
 30
0.0
 11
279.856251
 21
140.8900309999999
 31
0.0
  0
LINE
  5
A0D1
330
9E5E
100
AcDbEntity
  8
1
  6
Continuous
100
AcDbLine
 10
286.5648849999999
 20
141.936801
 30
0.0
 11
287.0457
 21
141.911443
 31
0.0
  0
LINE
  5
A0D2
330
9E5E
100
AcDbEntity
  8
1
  6
Continuous
100
AcDbLine
 10
279.369525
 20
142.4104379999999
 30
0.0
 11
279.8547029999999
 21
142.3848079999999
 31
0.0
  0
LINE
  5
A0D3
330
9E5E
100
AcDbEntity
  8
1
  6
Continuous
100
AcDbLine
 10
286.5637579999999
 20
143.431639
 30
0.0
 11
287.045379
 21
143.40646
 31
0.0
  0
LINE
  5
A0D4
330
9E5E
100
AcDbEntity
  8
1
  6
Continuous
100
AcDbLine
 10
279.387489
 20
143.905196
 30
0.0
 11
279.8744209999999
 21
143.8794459999998
 31
0.0
  0
LINE
  5
A0D5
330
9E5E
100
AcDbEntity
  8
1
  6
Continuous
100
AcDbLine
 10
286.5785779999999
 20
144.9255709999999
 30
0.0
 11
287.050696
 21
144.8982969999998
 31
0.0
  0
LINE
  5
A0D6
330
9E5E
100
AcDbEntity
  8
1
  6
Continuous
100
AcDbLine
 10
279.3681879999999
 20
145.432261
 30
0.0
 11
279.8413259999999
 21
145.4048819999999
 31
0.0
  0
LINE
  5
A0D7
330
9E5E
100
AcDbEntity
  8
1
  6
Continuous
100
AcDbLine
 10
286.548093
 20
146.451386
 30
0.0
 11
287.0296149999999
 21
146.42571
 31
0.0
  0
ARC
  5
A0D8
330
9E5E
100
AcDbEntity
  8
1
  6
Continuous
100
AcDbCircle
 10
286.9914249999999
 20
145.709526
 30
0.0
 40
0.717202
100
AcDbArc
 50
278.183923
 51
98.19130900000001
  0
ARC
  5
A0D9
330
9E5E
100
AcDbEntity
  8
1
  6
Continuous
100
AcDbCircle
 10
287.0104279999998
 20
144.2012599999999
 30
0.0
 40
0.698199
100
AcDbArc
 50
278.183923
 51
98.19130900000001
  0
ARC
  5
A0DA
330
9E5E
100
AcDbEntity
  8
1
  6
Continuous
100
AcDbCircle
 10
287.008845
 20
142.7076319999999
 30
0.0
 40
0.6997830000000002
100
AcDbArc
 50
278.183923
 51
98.19130900000001
  0
ARC
  5
A0DB
330
9E5E
100
AcDbEntity
  8
1
  6
Continuous
100
AcDbCircle
 10
287.008845
 20
141.212632
 30
0.0
 40
0.6997830000000002
100
AcDbArc
 50
278.183923
 51
98.19130900000001
  0
ARC
  5
A0DC
330
9E5E
100
AcDbEntity
  8
1
  6
Continuous
100
AcDbCircle
 10
287.008845
 20
139.717632
 30
0.0
 40
0.6997830000000002
100
AcDbArc
 50
278.183923
 51
98.19130900000001
  0
ARC
  5
A0DD
330
9E5E
100
AcDbEntity
  8
1
  6
Continuous
100
AcDbCircle
 10
279.4079149999999
 20
138.623998
 30
0.0
 40
0.6992880000000003
100
AcDbArc
 50
98.19130900000001
 51
278.183923
  0
ARC
  5
A0DE
330
9E5E
100
AcDbEntity
  8
1
  6
Continuous
100
AcDbCircle
 10
279.4079149999999
 20
140.118998
 30
0.0
 40
0.6992880000000003
100
AcDbArc
 50
98.19130900000001
 51
278.183923
  0
ARC
  5
A0DF
330
9E5E
100
AcDbEntity
  8
1
  6
Continuous
100
AcDbCircle
 10
279.4079149999999
 20
141.613998
 30
0.0
 40
0.6992880000000003
100
AcDbArc
 50
98.19130900000001
 51
278.183923
  0
ARC
  5
A0E0
330
9E5E
100
AcDbEntity
  8
1
  6
Continuous
100
AcDbCircle
 10
279.406331
 20
143.1071699999999
 30
0.0
 40
0.697704
100
AcDbArc
 50
98.19130900000001
 51
278.183923
  0
ARC
  5
A0E1
330
9E5E
100
AcDbEntity
  8
1
  6
Continuous
100
AcDbCircle
 10
279.425337
 20
144.620905
 30
0.0
 40
0.716709
100
AcDbArc
 50
98.19130900000001
 51
278.183923
  0
LINE
  5
A0E2
330
9E5E
100
AcDbEntity
  8
1
  6
Continuous
100
AcDbLine
 10
283.2086269999999
 20
142.949119
 30
0.0
 11
283.2086269999999
 21
142.8675959999999
 31
0.0
  0
LINE
  5
A0E3
330
9E5E
100
AcDbEntity
  8
1
  6
Continuous
100
AcDbLine
 10
283.2086269999999
 20
144.440919
 30
0.0
 11
283.2086269999999
 21
144.359396
 31
0.0
  0
LINE
  5
A0E4
330
9E5E
100
AcDbEntity
  8
1
  6
Continuous
100
AcDbLine
 10
284.7086269999999
 20
144.656642
 30
0.0
 11
284.7086269999999
 21
144.5753169999998
 31
0.0
  0
LINE
  5
A0E5
330
9E5E
100
AcDbEntity
  8
1
  6
Continuous
100
AcDbLine
 10
284.7086269999999
 20
143.1648419999999
 30
0.0
 11
284.7086269999999
 21
143.0835169999998
 31
0.0
  0
LINE
  5
A0E6
330
9E5E
100
AcDbEntity
  8
1
  6
Continuous
100
AcDbLine
 10
284.7086269999999
 20
141.6698419999999
 30
0.0
 11
284.7086269999999
 21
141.5885169999999
 31
0.0
  0
LINE
  5
A0E7
330
9E5E
100
AcDbEntity
  8
1
  6
Continuous
100
AcDbLine
 10
283.2086269999999
 20
141.454119
 30
0.0
 11
283.2086269999999
 21
141.3725959999998
 31
0.0
  0
LINE
  5
A0E8
330
9E5E
100
AcDbEntity
  8
1
  6
Continuous
100
AcDbLine
 10
283.2086269999999
 20
139.9591189999999
 30
0.0
 11
283.2086269999999
 21
139.8775959999998
 31
0.0
  0
LINE
  5
A0E9
330
9E5E
100
AcDbEntity
  8
1
  6
Continuous
100
AcDbLine
 10
284.7086269999999
 20
140.1748419999998
 30
0.0
 11
284.7086269999999
 21
140.0935169999999
 31
0.0
  0
LINE
  5
A0EA
330
9E5E
100
AcDbEntity
  8
1
  6
Continuous
100
AcDbLine
 10
283.2086269999999
 20
145.9711189999999
 30
0.0
 11
283.2086269999999
 21
145.8895959999999
 31
0.0
  0
LINE
  5
A0EB
330
9E5E
100
AcDbEntity
  8
1
  6
Continuous
100
AcDbLine
 10
284.7086269999999
 20
146.1868419999998
 30
0.0
 11
284.7086269999999
 21
146.1055169999999
 31
0.0
  0
ARC
  5
A0EC
330
9E5E
100
AcDbEntity
  8
1
  6
Continuous
100
AcDbCircle
 10
279.408627
 20
147.2240919999999
 30
0.0
 40
0.7
100
AcDbArc
 50
337.4509999999999
 51
231.341
  0
ARC
  5
A0ED
330
9E5E
100
AcDbEntity
  8
1
  6
Continuous
100
AcDbCircle
 10
287.0086269999998
 20
138.6240919999999
 30
0.0
 40
0.7
100
AcDbArc
 50
157.4859999999999
 51
51.31649999999999
  0
ARC
  5
A0EE
330
9E5E
100
AcDbEntity
  8
1
  6
Continuous
100
AcDbCircle
 10
287.0086269999998
 20
147.2240919999999
 30
0.0
 40
0.7
100
AcDbArc
 50
280.0
 51
100.0
  0
ARC
  5
A0EF
330
9E5E
100
AcDbEntity
  8
1
  6
Continuous
100
AcDbCircle
 10
279.408627
 20
146.131092
 30
0.0
 40
0.7
100
AcDbArc
 50
95.6217
 51
280.7845669999999
  0
ARC
  5
A0F0
330
9E5E
100
AcDbEntity
  8
1
  6
Continuous
100
AcDbCircle
 10
287.0086269999998
 20
147.2240919999999
 30
0.0
 40
0.7
100
AcDbArc
 50
280.0
 51
100.0
  0
LINE
  5
A0F1
330
9E5E
100
AcDbEntity
  8
1
  6
Continuous
100
AcDbLine
 10
284.7086269999999
 20
137.9240919999998
 30
0.0
 11
287.0086269999998
 21
137.9240919999998
 31
0.0
  0
LINE
  5
A0F2
330
9E5E
100
AcDbEntity
  8
1
  6
Continuous
100
AcDbLine
 10
279.4719269999998
 20
137.9240919999998
 30
0.0
 11
283.2086269999999
 21
137.9240919999998
 31
0.0
  0
LINE
  5
A0F3
330
9E5E
100
AcDbEntity
  8
1
  6
Continuous
100
AcDbLine
 10
279.287027
 20
146.8200919999999
 30
0.0
 11
286.887027
 21
147.9140919999998
 31
0.0
  0
LINE
  5
A0F4
330
9E5E
100
AcDbEntity
  8
1
  6
Continuous
100
AcDbLine
 10
279.5301269999999
 20
145.442092
 30
0.0
 11
287.130127
 21
146.5350919999998
 31
0.0
  0
LINE
  5
A0F5
330
9E5E
100
AcDbEntity
  8
1
  6
Continuous
100
AcDbLine
 10
279.5273609999999
 20
143.911494
 30
0.0
 11
287.09352
 21
144.9996269999998
 31
0.0
  0
LINE
  5
A0F6
330
9E5E
100
AcDbEntity
  8
1
  6
Continuous
100
AcDbLine
 10
279.3232209999998
 20
145.3303019999999
 30
0.0
 11
286.8892389999999
 21
146.419411
 31
0.0
  0
LINE
  5
A0F7
330
9E5E
100
AcDbEntity
  8
1
  6
Continuous
100
AcDbLine
 10
279.3069229999999
 20
143.797756
 30
0.0
 11
286.91095
 21
144.892336
 31
0.0
  0
LINE
  5
A0F8
330
9E5E
100
AcDbEntity
  8
1
  6
Continuous
100
AcDbLine
 10
279.50565
 20
142.4165719999998
 30
0.0
 11
287.109818
 21
143.5101709999998
 31
0.0
  0
LINE
  5
A0F9
330
9E5E
100
AcDbEntity
  8
1
  6
Continuous
100
AcDbLine
 10
279.507459
 20
140.9218319999999
 30
0.0
 11
287.1084599999999
 21
142.0149759999999
 31
0.0
  0
LINE
  5
A0FA
330
9E5E
100
AcDbEntity
  8
1
  6
Continuous
100
AcDbLine
 10
279.308281
 20
142.306152
 30
0.0
 11
286.9091409999999
 21
143.4002749999999
 31
0.0
  0
LINE
  5
A0FB
330
9E5E
100
AcDbEntity
  8
1
  6
Continuous
100
AcDbLine
 10
279.308281
 20
140.811152
 30
0.0
 11
286.9091409999999
 21
141.9052749999998
 31
0.0
  0
LINE
  5
A0FC
330
9E5E
100
AcDbEntity
  8
1
  6
Continuous
100
AcDbLine
 10
279.507459
 20
139.4268319999999
 30
0.0
 11
287.1084599999999
 21
140.519976
 31
0.0
  0
LINE
  5
A0FD
330
9E5E
100
AcDbEntity
  8
1
  6
Continuous
100
AcDbLine
 10
279.507459
 20
137.931832
 30
0.0
 11
287.1084599999999
 21
139.024976
 31
0.0
  0
LINE
  5
A0FE
330
9E5E
100
AcDbEntity
  8
1
  6
Continuous
100
AcDbLine
 10
279.308281
 20
139.3161519999999
 30
0.0
 11
286.9091409999999
 21
140.410275
 31
0.0
  0
LINE
  5
A0FF
330
9E5E
100
AcDbEntity
  8
1
  6
Continuous
100
AcDbLine
 10
283.2086269999999
 20
147.924092
 30
0.0
 11
287.0086269999998
 21
147.924092
 31
0.0
  0
LINE
  5
A100
330
9E5E
100
AcDbEntity
  8
1
  6
Continuous
100
AcDbLine
 10
279.408627
 20
147.924092
 30
0.0
 11
281.7086269999999
 21
147.924092
 31
0.0
  0
LINE
  5
A101
330
9E5E
100
AcDbEntity
  8
1
  6
Continuous
100
AcDbLine
 10
283.3586269999999
 20
157.7990919999998
 30
0.0
 11
283.3586269999999
 21
160.049092
 31
0.0
  0
LINE
  5
A102
330
9E5E
100
AcDbEntity
  8
1
  6
Continuous
100
AcDbLine
 10
285.8586269999999
 20
154.924092
 30
0.0
 11
285.8586269999999
 21
161.424092
 31
0.0
  0
LINE
  5
A103
330
9E5E
100
AcDbEntity
  8
1
  6
Continuous
100
AcDbLine
 10
284.358627
 20
157.7990919999998
 30
0.0
 11
283.3586269999999
 21
157.7990919999998
 31
0.0
  0
LINE
  5
A104
330
9E5E
100
AcDbEntity
  8
1
  6
Continuous
100
AcDbLine
 10
284.358627
 20
160.049092
 30
0.0
 11
283.3586269999999
 21
160.049092
 31
0.0
  0
LINE
  5
A105
330
9E5E
100
AcDbEntity
  8
1
  6
Continuous
100
AcDbLine
 10
284.358627
 20
161.424092
 30
0.0
 11
284.358627
 21
155.4240919999998
 31
0.0
  0
LINE
  5
A106
330
9E5E
100
AcDbEntity
  8
1
  6
Continuous
100
AcDbLine
 10
285.8586269999999
 20
161.424092
 30
0.0
 11
284.358627
 21
161.424092
 31
0.0
  0
LINE
  5
A107
330
9E5E
100
AcDbEntity
  8
1
  6
Continuous
100
AcDbLine
 10
284.358627
 20
155.4240919999998
 30
0.0
 11
282.7086269999999
 21
155.4240919999998
 31
0.0
  0
LINE
  5
A108
330
9E5E
100
AcDbEntity
  8
1
  6
Continuous
100
AcDbLine
 10
284.608627
 20
155.4240919999998
 30
0.0
 11
285.608627
 21
155.4240919999998
 31
0.0
  0
ARC
  5
A109
330
9E5E
100
AcDbEntity
  8
1
  6
Continuous
100
AcDbCircle
 10
282.7086269999999
 20
154.424092
 30
0.0
 40
1.0
100
AcDbArc
 50
90.0
 51
180.0
  0
LINE
  5
A10A
330
9E5E
100
AcDbEntity
  8
1
  6
Continuous
100
AcDbLine
 10
306.0086269999998
 20
154.424092
 30
0.0
 11
306.0086269999998
 21
147.5561779999999
 31
0.0
  0
ARC
  5
A10B
330
9E5E
100
AcDbEntity
  8
1
  6
Continuous
100
AcDbCircle
 10
302.858627
 20
154.924092
 30
0.0
 40
1.0
100
AcDbArc
 50
180.0
 51
270.0
  0
LINE
  5
A10C
330
9E5E
100
AcDbEntity
  8
1
  6
Continuous
100
AcDbLine
 10
300.830127
 20
145.442092
 30
0.0
 11
308.430127
 21
146.5350919999998
 31
0.0
  0
LINE
  5
A10D
330
9E5E
100
AcDbEntity
  8
1
  6
Continuous
100
AcDbLine
 10
300.5870269999999
 20
146.8200919999999
 30
0.0
 11
308.187027
 21
147.9140919999998
 31
0.0
  0
LINE
  5
A10E
330
9E5E
100
AcDbEntity
  8
1
  6
Continuous
100
AcDbLine
 10
300.6082809999999
 20
139.3161519999999
 30
0.0
 11
308.2091409999998
 21
140.410275
 31
0.0
  0
LINE
  5
A10F
330
9E5E
100
AcDbEntity
  8
1
  6
Continuous
100
AcDbLine
 10
300.807459
 20
137.931832
 30
0.0
 11
308.40846
 21
139.024976
 31
0.0
  0
LINE
  5
A110
330
9E5E
100
AcDbEntity
  8
1
  6
Continuous
100
AcDbLine
 10
300.623221
 20
145.3303019999999
 30
0.0
 11
308.189239
 21
146.419411
 31
0.0
  0
LINE
  5
A111
330
9E5E
100
AcDbEntity
  8
1
  6
Continuous
100
AcDbLine
 10
300.8273609999998
 20
143.911494
 30
0.0
 11
308.39352
 21
144.9996269999998
 31
0.0
  0
LINE
  5
A112
330
9E5E
100
AcDbEntity
  8
1
  6
Continuous
100
AcDbLine
 10
300.606923
 20
143.797756
 30
0.0
 11
308.21095
 21
144.892336
 31
0.0
  0
LINE
  5
A113
330
9E5E
100
AcDbEntity
  8
1
  6
Continuous
100
AcDbLine
 10
300.80565
 20
142.4165719999998
 30
0.0
 11
308.4098179999998
 21
143.5101709999998
 31
0.0
  0
LINE
  5
A114
330
9E5E
100
AcDbEntity
  8
1
  6
Continuous
100
AcDbLine
 10
300.6082809999999
 20
142.306152
 30
0.0
 11
308.2091409999998
 21
143.4002749999999
 31
0.0
  0
LINE
  5
A115
330
9E5E
100
AcDbEntity
  8
1
  6
Continuous
100
AcDbLine
 10
300.807459
 20
140.9218319999999
 30
0.0
 11
308.40846
 21
142.0149759999999
 31
0.0
  0
LINE
  5
A116
330
9E5E
100
AcDbEntity
  8
1
  6
Continuous
100
AcDbLine
 10
300.6082809999999
 20
140.811152
 30
0.0
 11
308.2091409999998
 21
141.9052749999998
 31
0.0
  0
LINE
  5
A117
330
9E5E
100
AcDbEntity
  8
1
  6
Continuous
100
AcDbLine
 10
300.807459
 20
139.4268319999999
 30
0.0
 11
308.40846
 21
140.519976
 31
0.0
  0
LINE
  5
A118
330
9E5E
100
AcDbEntity
  8
1
  6
Continuous
100
AcDbLine
 10
304.508627
 20
137.9240919999998
 30
0.0
 11
308.3086269999999
 21
137.9240919999998
 31
0.0
  0
LINE
  5
A119
330
9E5E
100
AcDbEntity
  8
1
  6
Continuous
100
AcDbLine
 10
306.0086269999998
 20
147.924092
 30
0.0
 11
308.3086269999999
 21
147.924092
 31
0.0
  0
LINE
  5
A11A
330
9E5E
100
AcDbEntity
  8
1
  6
Continuous
100
AcDbLine
 10
304.508627
 20
153.924092
 30
0.0
 11
302.858627
 21
153.924092
 31
0.0
  0
LINE
  5
A11B
330
9E5E
100
AcDbEntity
  8
1
  6
Continuous
100
AcDbLine
 10
304.508627
 20
134.9240919999998
 30
0.0
 11
306.0086269999998
 21
134.9240919999998
 31
0.0
  0
LINE
  5
A11C
330
9E5E
100
AcDbEntity
  8
1
  6
Continuous
100
AcDbLine
 10
304.508627
 20
153.924092
 30
0.0
 11
304.508627
 21
147.4061879999998
 31
0.0
  0
LINE
  5
A11D
330
9E5E
100
AcDbEntity
  8
1
  6
Continuous
100
AcDbLine
 10
306.0086269999998
 20
140.1748419999998
 30
0.0
 11
306.0086269999998
 21
140.0935169999999
 31
0.0
  0
LINE
  5
A11E
330
9E5E
100
AcDbEntity
  8
1
  6
Continuous
100
AcDbLine
 10
304.508627
 20
139.9591189999999
 30
0.0
 11
304.508627
 21
139.8775959999998
 31
0.0
  0
LINE
  5
A11F
330
9E5E
100
AcDbEntity
  8
1
  6
Continuous
100
AcDbLine
 10
304.508627
 20
141.454119
 30
0.0
 11
304.508627
 21
141.3725959999998
 31
0.0
  0
LINE
  5
A120
330
9E5E
100
AcDbEntity
  8
1
  6
Continuous
100
AcDbLine
 10
306.0086269999998
 20
141.6698419999999
 30
0.0
 11
306.0086269999998
 21
141.5885169999999
 31
0.0
  0
LINE
  5
A121
330
9E5E
100
AcDbEntity
  8
1
  6
Continuous
100
AcDbLine
 10
304.508627
 20
142.949119
 30
0.0
 11
304.508627
 21
142.8675959999999
 31
0.0
  0
LINE
  5
A122
330
9E5E
100
AcDbEntity
  8
1
  6
Continuous
100
AcDbLine
 10
306.0086269999998
 20
143.1648419999999
 30
0.0
 11
306.0086269999998
 21
143.0835169999998
 31
0.0
  0
LINE
  5
A123
330
9E5E
100
AcDbEntity
  8
1
  6
Continuous
100
AcDbLine
 10
304.508627
 20
144.440919
 30
0.0
 11
304.508627
 21
144.359396
 31
0.0
  0
LINE
  5
A124
330
9E5E
100
AcDbEntity
  8
1
  6
Continuous
100
AcDbLine
 10
306.0086269999998
 20
144.656642
 30
0.0
 11
306.0086269999998
 21
144.5753169999998
 31
0.0
  0
LINE
  5
A125
330
9E5E
100
AcDbEntity
  8
1
  6
Continuous
100
AcDbLine
 10
304.508627
 20
145.9711189999999
 30
0.0
 11
304.508627
 21
145.8895959999999
 31
0.0
  0
LINE
  5
A126
330
9E5E
100
AcDbEntity
  8
1
  6
Continuous
100
AcDbLine
 10
306.0086269999998
 20
146.1868419999998
 30
0.0
 11
306.0086269999998
 21
146.1055169999999
 31
0.0
  0
LINE
  5
A127
330
9E5E
100
AcDbEntity
  8
1
  6
Continuous
100
AcDbLine
 10
300.7719269999999
 20
137.9240919999998
 30
0.0
 11
303.0086269999998
 21
137.9240919999998
 31
0.0
  0
ARC
  5
A128
330
9E5E
100
AcDbEntity
  8
1
  6
Continuous
100
AcDbCircle
 10
300.7086269999998
 20
147.2240919999999
 30
0.0
 40
0.7
100
AcDbArc
 50
337.4509999999999
 51
231.341
  0
ARC
  5
A129
330
9E5E
100
AcDbEntity
  8
1
  6
Continuous
100
AcDbCircle
 10
300.7086269999998
 20
146.131092
 30
0.0
 40
0.7
100
AcDbArc
 50
95.6217
 51
280.7845669999999
  0
LINE
  5
A12A
330
9E5E
100
AcDbEntity
  8
1
  6
Continuous
100
AcDbLine
 10
300.6681879999998
 20
145.432261
 30
0.0
 11
301.1413259999998
 21
145.4048819999999
 31
0.0
  0
ARC
  5
A12B
330
9E5E
100
AcDbEntity
  8
1
  6
Continuous
100
AcDbCircle
 10
300.725337
 20
144.620905
 30
0.0
 40
0.716709
100
AcDbArc
 50
98.19130900000001
 51
278.183923
  0
LINE
  5
A12C
330
9E5E
100
AcDbEntity
  8
1
  6
Continuous
100
AcDbLine
 10
300.670995
 20
139.4206859999999
 30
0.0
 11
301.156251
 21
139.3950309999999
 31
0.0
  0
LINE
  5
A12D
330
9E5E
100
AcDbEntity
  8
1
  6
Continuous
100
AcDbLine
 10
300.670995
 20
140.9156859999999
 30
0.0
 11
301.156251
 21
140.8900309999999
 31
0.0
  0
ARC
  5
A12E
330
9E5E
100
AcDbEntity
  8
1
  6
Continuous
100
AcDbCircle
 10
300.707915
 20
140.118998
 30
0.0
 40
0.6992880000000003
100
AcDbArc
 50
98.19130900000001
 51
278.183923
  0
ARC
  5
A12F
330
9E5E
100
AcDbEntity
  8
1
  6
Continuous
100
AcDbCircle
 10
300.707915
 20
138.623998
 30
0.0
 40
0.6992880000000003
100
AcDbArc
 50
98.19130900000001
 51
278.183923
  0
LINE
  5
A130
330
9E5E
100
AcDbEntity
  8
1
  6
Continuous
100
AcDbLine
 10
300.669525
 20
142.4104379999999
 30
0.0
 11
301.154703
 21
142.3848079999999
 31
0.0
  0
ARC
  5
A131
330
9E5E
100
AcDbEntity
  8
1
  6
Continuous
100
AcDbCircle
 10
300.707915
 20
141.613998
 30
0.0
 40
0.6992880000000003
100
AcDbArc
 50
98.19130900000001
 51
278.183923
  0
LINE
  5
A132
330
9E5E
100
AcDbEntity
  8
1
  6
Continuous
100
AcDbLine
 10
300.6874890000001
 20
143.905196
 30
0.0
 11
301.1744209999998
 21
143.8794459999998
 31
0.0
  0
ARC
  5
A133
330
9E5E
100
AcDbEntity
  8
1
  6
Continuous
100
AcDbCircle
 10
300.7063309999999
 20
143.1071699999999
 30
0.0
 40
0.697704
100
AcDbArc
 50
98.19130900000001
 51
278.183923
  0
LINE
  5
A134
330
9E5E
100
AcDbEntity
  8
1
  6
Continuous
100
AcDbLine
 10
303.0086269999998
 20
150.924092
 30
0.0
 11
303.0086269999998
 21
147.168675
 31
0.0
  0
LINE
  5
A135
330
9E5E
100
AcDbEntity
  8
1
  6
Continuous
100
AcDbLine
 10
303.0086269999998
 20
150.924092
 30
0.0
 11
304.508627
 21
150.924092
 31
0.0
  0
LINE
  5
A136
330
9E5E
100
AcDbEntity
  8
1
  6
Continuous
100
AcDbLine
 10
300.7086269999998
 20
147.924092
 30
0.0
 11
304.508627
 21
147.924092
 31
0.0
  0
LINE
  5
A137
330
9E5E
100
AcDbEntity
  8
1
  6
Continuous
100
AcDbLine
 10
306.0086269999998
 20
138.6798419999998
 30
0.0
 11
306.0086269999998
 21
134.9240919999998
 31
0.0
  0
LINE
  5
A138
330
9E5E
100
AcDbEntity
  8
1
  6
Continuous
100
AcDbLine
 10
303.0086269999998
 20
145.7338229999998
 30
0.0
 11
303.0086269999998
 21
145.652083
 31
0.0
  0
LINE
  5
A139
330
9E5E
100
AcDbEntity
  8
1
  6
Continuous
100
AcDbLine
 10
303.0086269999998
 20
144.203623
 30
0.0
 11
303.0086269999998
 21
144.1218829999999
 31
0.0
  0
LINE
  5
A13A
330
9E5E
100
AcDbEntity
  8
1
  6
Continuous
100
AcDbLine
 10
303.0086269999998
 20
142.711823
 30
0.0
 11
303.0086269999998
 21
142.630083
 31
0.0
  0
LINE
  5
A13B
330
9E5E
100
AcDbEntity
  8
1
  6
Continuous
100
AcDbLine
 10
303.0086269999998
 20
141.2168229999998
 30
0.0
 11
303.0086269999998
 21
141.135083
 31
0.0
  0
LINE
  5
A13C
330
9E5E
100
AcDbEntity
  8
1
  6
Continuous
100
AcDbLine
 10
303.0086269999998
 20
139.721823
 30
0.0
 11
303.0086269999998
 21
139.640083
 31
0.0
  0
ARC
  5
A13D
330
9E5E
100
AcDbEntity
  8
1
  6
Continuous
100
AcDbCircle
 10
308.3086269999999
 20
147.2240919999999
 30
0.0
 40
0.7
100
AcDbArc
 50
280.0
 51
100.0
  0
ARC
  5
A13E
330
9E5E
100
AcDbEntity
  8
1
  6
Continuous
100
AcDbCircle
 10
308.3086269999999
 20
147.2240919999999
 30
0.0
 40
0.7
100
AcDbArc
 50
280.0
 51
100.0
  0
ARC
  5
A13F
330
9E5E
100
AcDbEntity
  8
1
  6
Continuous
100
AcDbCircle
 10
308.3086269999999
 20
138.6240919999999
 30
0.0
 40
0.7
100
AcDbArc
 50
157.4859999999999
 51
51.31649999999999
  0
LINE
  5
A140
330
9E5E
100
AcDbEntity
  8
1
  6
Continuous
100
AcDbLine
 10
307.848093
 20
146.451386
 30
0.0
 11
308.3296149999998
 21
146.42571
 31
0.0
  0
ARC
  5
A141
330
9E5E
100
AcDbEntity
  8
1
  6
Continuous
100
AcDbCircle
 10
308.2914249999999
 20
145.709526
 30
0.0
 40
0.717202
100
AcDbArc
 50
278.183923
 51
98.19130900000001
  0
LINE
  5
A142
330
9E5E
100
AcDbEntity
  8
1
  6
Continuous
100
AcDbLine
 10
307.878578
 20
144.9255709999999
 30
0.0
 11
308.3506959999999
 21
144.8982969999998
 31
0.0
  0
LINE
  5
A143
330
9E5E
100
AcDbEntity
  8
1
  6
Continuous
100
AcDbLine
 10
307.864885
 20
140.441801
 30
0.0
 11
308.3457
 21
140.4164429999999
 31
0.0
  0
ARC
  5
A144
330
9E5E
100
AcDbEntity
  8
1
  6
Continuous
100
AcDbCircle
 10
308.308845
 20
141.212632
 30
0.0
 40
0.6997830000000002
100
AcDbArc
 50
278.183923
 51
98.19130900000001
  0
ARC
  5
A145
330
9E5E
100
AcDbEntity
  8
1
  6
Continuous
100
AcDbCircle
 10
308.308845
 20
139.717632
 30
0.0
 40
0.6997830000000002
100
AcDbArc
 50
278.183923
 51
98.19130900000001
  0
LINE
  5
A146
330
9E5E
100
AcDbEntity
  8
1
  6
Continuous
100
AcDbLine
 10
307.864885
 20
141.936801
 30
0.0
 11
308.3457
 21
141.911443
 31
0.0
  0
ARC
  5
A147
330
9E5E
100
AcDbEntity
  8
1
  6
Continuous
100
AcDbCircle
 10
308.308845
 20
142.7076319999999
 30
0.0
 40
0.6997830000000002
100
AcDbArc
 50
278.183923
 51
98.19130900000001
  0
LINE
  5
A148
330
9E5E
100
AcDbEntity
  8
1
  6
Continuous
100
AcDbLine
 10
307.863758
 20
143.431639
 30
0.0
 11
308.345379
 21
143.40646
 31
0.0
  0
ARC
  5
A149
330
9E5E
100
AcDbEntity
  8
1
  6
Continuous
100
AcDbCircle
 10
308.310428
 20
144.2012599999999
 30
0.0
 40
0.698199
100
AcDbArc
 50
278.183923
 51
98.19130900000001
  0
LINE
  5
A14A
330
9E5E
100
AcDbEntity
  8
1
  6
Continuous
100
AcDbLine
 10
304.358627
 20
157.7990919999998
 30
0.0
 11
304.358627
 21
160.049092
 31
0.0
  0
LINE
  5
A14B
330
9E5E
100
AcDbEntity
  8
1
  6
Continuous
100
AcDbLine
 10
304.358627
 20
157.7990919999998
 30
0.0
 11
303.358627
 21
157.7990919999998
 31
0.0
  0
LINE
  5
A14C
330
9E5E
100
AcDbEntity
  8
1
  6
Continuous
100
AcDbLine
 10
304.358627
 20
160.049092
 30
0.0
 11
303.358627
 21
160.049092
 31
0.0
  0
LINE
  5
A14D
330
9E5E
100
AcDbEntity
  8
1
  6
Continuous
100
AcDbLine
 10
301.858627
 20
154.924092
 30
0.0
 11
301.858627
 21
161.424092
 31
0.0
  0
LINE
  5
A14E
330
9E5E
100
AcDbEntity
  8
1
  6
Continuous
100
AcDbLine
 10
303.358627
 20
161.424092
 30
0.0
 11
303.358627
 21
155.4240919999998
 31
0.0
  0
LINE
  5
A14F
330
9E5E
100
AcDbEntity
  8
1
  6
Continuous
100
AcDbLine
 10
301.858627
 20
161.424092
 30
0.0
 11
303.358627
 21
161.424092
 31
0.0
  0
LINE
  5
A150
330
9E5E
100
AcDbEntity
  8
1
  6
Continuous
100
AcDbLine
 10
303.358627
 20
155.4240919999998
 30
0.0
 11
305.0086269999998
 21
155.4240919999998
 31
0.0
  0
LINE
  5
A151
330
9E5E
100
AcDbEntity
  8
1
  6
Continuous
100
AcDbLine
 10
302.108627
 20
155.4240919999998
 30
0.0
 11
303.108627
 21
155.4240919999998
 31
0.0
  0
ARC
  5
A152
330
9E5E
100
AcDbEntity
  8
1
  6
Continuous
100
AcDbCircle
 10
305.0086269999998
 20
154.424092
 30
0.0
 40
1.0
100
AcDbArc
 50
0.0
 51
90.0
  0
LINE
  5
A153
330
9E5E
100
AcDbEntity
  8
1
  6
Continuous
100
AcDbLine
 10
283.2086269999999
 20
138.4641189999999
 30
0.0
 11
283.2086269999999
 21
123.4240919999999
 31
0.0
  0
LINE
  5
A154
330
9E5E
100
AcDbEntity
  8
1
  6
Continuous
100
AcDbLine
 10
304.508627
 20
138.4641189999999
 30
0.0
 11
304.508627
 21
123.4240919999999
 31
0.0
  0
LINE
  5
A155
330
9E5E
100
AcDbEntity
  8
1
  6
Continuous
100
AcDbLine
 10
303.0086269999998
 20
138.2483949999999
 30
0.0
 11
303.0086269999998
 21
123.4240919999999
 31
0.0
  0
LINE
  5
A156
330
9E5E
100
AcDbEntity
  8
1
  6
Continuous
100
AcDbLine
 10
284.7086269999999
 20
138.6798419999998
 30
0.0
 11
284.7086269999999
 21
123.4240919999999
 31
0.0
  0
LINE
  5
A157
330
9E5E
100
AcDbEntity
  8
1
  6
Continuous
100
AcDbLine
 10
282.2086269999999
 20
125.7990919999999
 30
0.0
 11
282.2086269999999
 21
128.049092
 31
0.0
  0
LINE
  5
A158
330
9E5E
100
AcDbEntity
  8
1
  6
Continuous
100
AcDbLine
 10
283.2086269999999
 20
128.049092
 30
0.0
 11
282.2086269999999
 21
128.049092
 31
0.0
  0
LINE
  5
A159
330
9E5E
100
AcDbEntity
  8
1
  6
Continuous
100
AcDbLine
 10
283.2086269999999
 20
125.7990919999999
 30
0.0
 11
282.2086269999999
 21
125.7990919999999
 31
0.0
  0
LINE
  5
A15A
330
9E5E
100
AcDbEntity
  8
1
  6
Continuous
100
AcDbLine
 10
305.5086269999998
 20
125.7990919999999
 30
0.0
 11
305.5086269999998
 21
128.049092
 31
0.0
  0
LINE
  5
A15B
330
9E5E
100
AcDbEntity
  8
1
  6
Continuous
100
AcDbLine
 10
305.5086269999998
 20
128.049092
 30
0.0
 11
304.508627
 21
128.049092
 31
0.0
  0
LINE
  5
A15C
330
9E5E
100
AcDbEntity
  8
1
  6
Continuous
100
AcDbLine
 10
305.5086269999998
 20
125.7990919999999
 30
0.0
 11
304.508627
 21
125.7990919999999
 31
0.0
  0
LINE
  5
A15D
330
9E5E
100
AcDbEntity
  8
1
  6
Continuous
100
AcDbLine
 10
304.508627
 20
123.4240919999999
 30
0.0
 11
303.0086269999998
 21
123.4240919999999
 31
0.0
  0
LINE
  5
A15E
330
9E5E
100
AcDbEntity
  8
1
  6
Continuous
100
AcDbLine
 10
303.0086269999998
 20
124.4240919999999
 30
0.0
 11
302.858627
 21
124.4240919999999
 31
0.0
  0
LINE
  5
A15F
330
9E5E
100
AcDbEntity
  8
4
  6
CENTER
100
AcDbLine
 10
300.858627
 20
124.4240919999999
 30
0.0
 11
304.858627
 21
124.4240919999999
 31
0.0
  0
ARC
  5
A160
330
9E5E
100
AcDbEntity
  8
1
  6
Continuous
100
AcDbCircle
 10
254.459127
 20
142.7340919999998
 30
0.0
 40
52.6835
100
AcDbArc
 50
336.734
 51
338.498325
  0
LINE
  5
A161
330
9E5E
100
AcDbEntity
  8
1
  6
Continuous
100
AcDbLine
 10
284.7086269999999
 20
124.4240919999999
 30
0.0
 11
284.858627
 21
124.4240919999999
 31
0.0
  0
LINE
  5
A162
330
9E5E
100
AcDbEntity
  8
4
  6
CENTER
100
AcDbLine
 10
286.858627
 20
124.4240919999999
 30
0.0
 11
282.858627
 21
124.4240919999999
 31
0.0
  0
ARC
  5
A163
330
9E5E
100
AcDbEntity
  8
1
  6
Continuous
100
AcDbCircle
 10
333.2582269999999
 20
142.7340919999998
 30
0.0
 40
52.6835
100
AcDbArc
 50
201.501675
 51
203.2659999999999
  0
LINE
  5
A164
330
9E5E
100
AcDbEntity
  8
1
  6
Continuous
100
AcDbLine
 10
283.2086269999999
 20
123.4240919999999
 30
0.0
 11
284.7086269999999
 21
123.4240919999999
 31
0.0
  0
LINE
  5
A165
330
9E5E
100
AcDbEntity
  8
1
  6
Continuous
100
AcDbLine
 10
41.23848699999999
 20
239.168092
 30
0.0
 11
41.23848699999999
 21
237.168092
 31
0.0
  0
LINE
  5
A166
330
9E5E
100
AcDbEntity
  8
1
  6
Continuous
100
AcDbLine
 10
41.088487
 20
237.4815059999999
 30
0.0
 11
41.088487
 21
236.6680919999998
 31
0.0
  0
LINE
  5
A167
330
9E5E
100
AcDbEntity
  8
1
  6
Continuous
100
AcDbLine
 10
22.93848699999999
 20
239.168092
 30
0.0
 11
22.93848699999999
 21
237.168092
 31
0.0
  0
LINE
  5
A168
330
9E5E
100
AcDbEntity
  8
1
  6
Continuous
100
AcDbLine
 10
23.08848699999999
 20
237.4815059999999
 30
0.0
 11
23.08848699999999
 21
236.6680919999998
 31
0.0
  0
LINE
  5
A169
330
9E5E
100
AcDbEntity
  8
1
  6
Continuous
100
AcDbLine
 10
22.93848699999999
 20
45.36449199999998
 30
0.0
 11
22.93848699999999
 21
45.621852
 31
0.0
  0
LINE
  5
A16A
330
9E5E
100
AcDbEntity
  8
1
  6
Continuous
100
AcDbLine
 10
22.93848699999999
 20
52.364492
 30
0.0
 11
22.93848699999999
 21
52.375806
 31
0.0
  0
LINE
  5
A16B
330
9E5E
100
AcDbEntity
  8
1
  6
Continuous
100
AcDbLine
 10
22.93848699999999
 20
54.35317799999999
 30
0.0
 11
22.93848699999999
 21
54.36449200000001
 31
0.0
  0
LINE
  5
A16C
330
9E5E
100
AcDbEntity
  8
1
  6
Continuous
100
AcDbLine
 10
22.93848699999999
 20
47.15155999999999
 30
0.0
 11
22.93848699999999
 21
52.364492
 31
0.0
  0
ARC
  5
A16D
330
9E5E
100
AcDbEntity
  8
1
  6
Continuous
100
AcDbCircle
 10
42.738487
 20
49.864492
 30
0.0
 40
4.5
100
AcDbArc
 50
90.0
 51
104.568247
  0
ARC
  5
A16E
330
9E5E
100
AcDbEntity
  8
1
  6
Continuous
100
AcDbCircle
 10
42.738487
 20
49.864492
 30
0.0
 40
3.1
100
AcDbArc
 50
90.0
 51
104.658902
  0
LINE
  5
A16F
330
9E5E
100
AcDbEntity
  8
1
  6
Continuous
100
AcDbLine
 10
41.23848699999999
 20
47.15155999999999
 30
0.0
 11
41.23848699999999
 21
52.364492
 31
0.0
  0
ARC
  5
A170
330
9E5E
100
AcDbEntity
  8
1
  6
Continuous
100
AcDbCircle
 10
42.738487
 20
49.864492
 30
0.0
 40
4.5
100
AcDbArc
 50
248.4898119999999
 51
270.0
  0
ARC
  5
A171
330
9E5E
100
AcDbEntity
  8
1
  6
Continuous
100
AcDbCircle
 10
42.738487
 20
49.864492
 30
0.0
 40
3.1
100
AcDbArc
 50
237.8418499999999
 51
270.0
  0
LINE
  5
A172
330
9E5E
100
AcDbEntity
  8
1
  6
Continuous
100
AcDbLine
 10
41.23848699999999
 20
45.36449199999998
 30
0.0
 11
41.23848699999999
 21
45.621852
 31
0.0
  0
ARC
  5
A173
330
9E5E
100
AcDbEntity
  8
1
  6
Continuous
100
AcDbCircle
 10
42.738487
 20
49.864492
 30
0.0
 40
4.5
100
AcDbArc
 50
289.471221
 51
70.528779
  0
ARC
  5
A174
330
9E5E
100
AcDbEntity
  8
1
  6
Continuous
100
AcDbCircle
 10
42.738487
 20
49.864492
 30
0.0
 40
3.1
100
AcDbArc
 50
298.9385279999999
 51
61.061472
  0
LINE
  5
A175
330
9E5E
100
AcDbEntity
  8
1
  6
Continuous
100
AcDbLine
 10
41.23848699999999
 20
52.364492
 30
0.0
 11
41.23848699999999
 21
52.375806
 31
0.0
  0
LINE
  5
A176
330
9E5E
100
AcDbEntity
  8
1
  6
Continuous
100
AcDbLine
 10
42.738487
 20
47.364492
 30
0.0
 11
41.23848699999999
 21
47.364492
 31
0.0
  0
LINE
  5
A177
330
9E5E
100
AcDbEntity
  8
1
  6
Continuous
100
AcDbLine
 10
41.23848699999999
 20
54.35317799999999
 30
0.0
 11
41.23848699999999
 21
54.36449200000001
 31
0.0
  0
LINE
  5
A178
330
9E5E
100
AcDbEntity
  8
1
  6
Continuous
100
AcDbLine
 10
42.738487
 20
54.36449200000001
 30
0.0
 11
41.23848699999999
 21
54.36449200000001
 31
0.0
  0
LINE
  5
A179
330
9E5E
100
AcDbEntity
  8
1
  6
Continuous
100
AcDbLine
 10
42.588487
 20
45.36449199999998
 30
0.0
 11
41.23848699999999
 21
45.36449199999998
 31
0.0
  0
LINE
  5
A17A
330
9E5E
100
AcDbEntity
  8
1
  6
Continuous
100
AcDbLine
 10
42.738487
 20
54.36449200000001
 30
0.0
 11
42.738487
 21
45.36449199999998
 31
0.0
  0
LINE
  5
A17B
330
9E5E
100
AcDbEntity
  8
1
  6
Continuous
100
AcDbLine
 10
43.88848699999999
 20
48.739492
 30
0.0
 11
42.738487
 21
48.739492
 31
0.0
  0
LINE
  5
A17C
330
9E5E
100
AcDbEntity
  8
1
  6
Continuous
100
AcDbLine
 10
43.88848699999999
 20
50.98949199999999
 30
0.0
 11
43.88848699999999
 21
48.739492
 31
0.0
  0
LINE
  5
A17D
330
9E5E
100
AcDbEntity
  8
1
  6
Continuous
100
AcDbLine
 10
43.88848699999999
 20
50.98949199999999
 30
0.0
 11
42.738487
 21
50.98949199999999
 31
0.0
  0
LINE
  5
A17E
330
9E5E
100
AcDbEntity
  8
1
  6
Continuous
100
AcDbLine
 10
44.23848699999999
 20
54.36449200000001
 30
0.0
 11
44.23848699999999
 21
45.36449199999998
 31
0.0
  0
LINE
  5
A17F
330
9E5E
100
AcDbEntity
  8
1
  6
Continuous
100
AcDbLine
 10
42.738487
 20
52.364492
 30
0.0
 11
41.088487
 21
52.364492
 31
0.0
  0
LINE
  5
A180
330
9E5E
100
AcDbEntity
  8
1
  6
Continuous
100
AcDbLine
 10
44.23848699999999
 20
54.36449200000001
 30
0.0
 11
42.738487
 21
54.36449200000001
 31
0.0
  0
LINE
  5
A181
330
9E5E
100
AcDbEntity
  8
1
  6
Continuous
100
AcDbLine
 10
44.23848699999999
 20
45.36449199999998
 30
0.0
 11
42.738487
 21
45.36449199999998
 31
0.0
  0
ARC
  5
A182
330
9E5E
100
AcDbEntity
  8
1
  6
Continuous
100
AcDbCircle
 10
41.088487
 20
53.364492
 30
0.0
 40
1.0
100
AcDbArc
 50
270.0
 51
90.0
  0
LINE
  5
A183
330
9E5E
100
AcDbEntity
  8
4
  6
CENTER
100
AcDbLine
 10
43.088487
 20
117.9240919999999
 30
0.0
 11
39.088487
 21
117.9240919999999
 31
0.0
  0
ENDSEC
  0
SECTION
  2
OBJECTS
  0
DICTIONARY
  5
9E4C
330
0
100
AcDbDictionary
281
     1
  3
ACAD_CIP_PREVIOUS_PRODUCT_INFO
350
A1E7
  3
ACAD_COLOR
350
A1C9
  3
ACAD_DETAILVIEWSTYLE
350
A1E2
  3
ACAD_GROUP
350
9E4D
  3
ACAD_LAYOUT
350
9E59
  3
ACAD_MATERIAL
350
A197
  3
ACAD_MLEADERSTYLE
350
A1DE
  3
ACAD_MLINESTYLE
350
9E56
  3
ACAD_PLOTSETTINGS
350
9E58
  3
ACAD_PLOTSTYLENAME
350
A195
  3
ACAD_SCALELIST
350
A1CC
  3
ACAD_SECTIONVIEWSTYLE
350
A1E0
  3
ACAD_TABLESTYLE
350
A1CA
  3
ACAD_VISUALSTYLE
350
A1B0
  3
ACDB_RECOMPOSE_DATA
350
A205
  3
AcDbVariableDictionary
350
A1F8
  3
DWGPROPS
350
A206
  0
DICTIONARY
  5
A1E8
330
9E50
100
AcDbDictionary
280
     1
281
     1
  3
ADSK_XREC_LAYER_RECONCILED
360
A1E9
  0
DICTIONARY
  5
A1EA
330
9E66
100
AcDbDictionary
280
     1
281
     1
  3
ADSK_XREC_LAYER_RECONCILED
360
A1EB
  0
DICTIONARY
  5
A1EC
330
9E67
100
AcDbDictionary
280
     1
281
     1
  3
ADSK_XREC_LAYER_RECONCILED
360
A1ED
  0
DICTIONARY
  5
A1EE
330
9E68
100
AcDbDictionary
280
     1
281
     1
  3
ADSK_XREC_LAYER_RECONCILED
360
A1EF
  0
DICTIONARY
  5
A1F0
330
9E69
100
AcDbDictionary
280
     1
281
     1
  3
ADSK_XREC_LAYER_RECONCILED
360
A1F1
  0
DICTIONARY
  5
A1F2
330
9E6A
100
AcDbDictionary
280
     1
281
     1
  3
ADSK_XREC_LAYER_RECONCILED
360
A1F3
  0
DICTIONARY
  5
A1F4
330
9E6B
100
AcDbDictionary
280
     1
281
     1
  3
ADSK_XREC_LAYER_RECONCILED
360
A1F5
  0
DICTIONARY
  5
A1F6
330
9E6C
100
AcDbDictionary
280
     1
281
     1
  3
ADSK_XREC_LAYER_RECONCILED
360
A1F7
  0
DICTIONARY
  5
A190
330
9E5E
100
AcDbDictionary
281
     1
  3
ACAD_LAYOUTSELFREF
350
A191
  0
DICTIONARY
  5
A18E
330
9E5A
100
AcDbDictionary
281
     1
  3
ACAD_LAYOUTSELFREF
350
A18F
  0
XRECORD
  5
A1E7
102
{ACAD_REACTORS
330
9E4C
102
}
330
9E4C
100
AcDbXrecord
280
     1
300
ACDLT
300
2014
300
ACDLT_F_S
  0
DICTIONARY
  5
A1C9
102
{ACAD_REACTORS
330
9E4C
102
}
330
9E4C
100
AcDbDictionary
281
     1
  0
DICTIONARY
  5
A1E2
102
{ACAD_REACTORS
330
9E4C
102
}
330
9E4C
100
AcDbDictionary
281
     1
  3
Imperial24
350
A1E3
  0
DICTIONARY
  5
9E4D
102
{ACAD_REACTORS
330
9E4C
102
}
330
9E4C
100
AcDbDictionary
281
     1
  0
DICTIONARY
  5
9E59
102
{ACAD_REACTORS
330
9E4C
102
}
330
9E4C
100
AcDbDictionary
281
     1
  3
Model
350
A1E4
  3
レイアウト1
350
A1E5
  0
DICTIONARY
  5
A197
102
{ACAD_REACTORS
330
9E4C
102
}
330
9E4C
100
AcDbDictionary
281
     1
  3
ByBlock
350
A1A0
  3
ByLayer
350
A198
  3
Global
350
A1A8
  0
DICTIONARY
  5
A1DE
102
{ACAD_REACTORS
330
9E4C
102
}
330
9E4C
100
AcDbDictionary
281
     1
  3
Standard
350
A1DF
  0
DICTIONARY
  5
9E56
102
{ACAD_REACTORS
330
9E4C
102
}
330
9E4C
100
AcDbDictionary
281
     1
  3
STANDARD
350
9E57
  0
DICTIONARY
  5
9E58
102
{ACAD_REACTORS
330
9E4C
102
}
330
9E4C
100
AcDbDictionary
281
     1
  0
ACDBDICTIONARYWDFLT
  5
A195
102
{ACAD_REACTORS
330
9E4C
102
}
330
9E4C
100
AcDbDictionary
281
     1
  3
Normal
350
A196
100
AcDbDictionaryWithDefault
340
A196
  0
DICTIONARY
  5
A1CC
102
{ACAD_REACTORS
330
9E4C
102
}
330
9E4C
100
AcDbDictionary
281
     1
  3
A0
350
A1CD
  3
A1
350
A1CE
  3
A2
350
A1CF
  3
A3
350
A1D0
  3
A4
350
A1D1
  3
A5
350
A1D2
  3
A6
350
A1D3
  3
A7
350
A1D4
  3
A8
350
A1D5
  3
A9
350
A1D6
  3
B0
350
A1D7
  3
B1
350
A1D8
  3
B2
350
A1D9
  3
B3
350
A1DA
  3
B4
350
A1DB
  3
B5
350
A1DC
  3
B6
350
A1DD
  0
DICTIONARY
  5
A1E0
102
{ACAD_REACTORS
330
9E4C
102
}
330
9E4C
100
AcDbDictionary
281
     1
  3
Imperial24
350
A1E1
  0
DICTIONARY
  5
A1CA
102
{ACAD_REACTORS
330
9E4C
102
}
330
9E4C
100
AcDbDictionary
281
     1
  3
Standard
350
A1CB
  0
DICTIONARY
  5
A1B0
102
{ACAD_REACTORS
330
9E4C
102
}
330
9E4C
100
AcDbDictionary
281
     1
  3
2dWireframe
350
A1B6
  3
Basic
350
A1B5
  3
Brighten
350
A1BC
  3
ColorChange
350
A1C0
  3
Conceptual
350
A1B9
  3
Dim
350
A1BB
  3
EdgeColorOff
350
A1C8
  3
Facepattern
350
A1BF
  3
Flat
350
A1B1
  3
FlatWithEdges
350
A1B2
  3
Gouraud
350
A1B3
  3
GouraudWithEdges
350
A1B4
  3
Hidden
350
A1B8
  3
JitterOff
350
A1C6
  3
Linepattern
350
A1BE
  3
OverhangOff
350
A1C7
  3
Realistic
350
A1BA
  3
Shaded
350
A1C5
  3
Shaded with edges
350
A1C4
  3
Shades of Gray
350
A1C1
  3
Sketchy
350
A1C2
  3
Thicken
350
A1BD
  3
Wireframe
350
A1B7
  3
X-Ray
350
A1C3
  0
XRECORD
  5
A205
102
{ACAD_REACTORS
330
9E4C
102
}
330
9E4C
100
AcDbXrecord
280
     1
 90
        1
330
A1CB
  0
DICTIONARY
  5
A1F8
102
{ACAD_REACTORS
330
9E4C
102
}
330
9E4C
100
AcDbDictionary
281
     1
  3
CANNOSCALE
350
A1FD
  3
CMLEADERSTYLE
350
A1FA
  3
CTABLESTYLE
350
A1F9
  3
CVIEWDETAILSTYLE
350
A1FB
  3
CVIEWSECTIONSTYLE
350
A1FC
  3
DIMASSOC
350
A200
  3
INDEXCTL
350
A1FF
  3
SORTENTS
350
A1FE
  3
XCLIPFRAME
350
A201
  0
XRECORD
  5
A206
102
{ACAD_REACTORS
330
9E4C
102
}
330
9E4C
100
AcDbXrecord
280
     1
  1
DWGPROPS COOKIE
  2

  3

  4

  6

  7

  8
Yoshitsune
  9

300
=
301
=
302
=
303
=
304
=
305
=
306
=
307
=
308
=
309
=
 40
0.0000145717592593
 41
2451066.793715278
 42
2457192.598600671
  1

 90
        0
  0
XRECORD
  5
A1E9
102
{ACAD_REACTORS
330
A1E8
102
}
330
A1E8
100
AcDbXrecord
280
     1
290
     1
  0
XRECORD
  5
A1EB
102
{ACAD_REACTORS
330
A1EA
102
}
330
A1EA
100
AcDbXrecord
280
     1
290
     1
  0
XRECORD
  5
A1ED
102
{ACAD_REACTORS
330
A1EC
102
}
330
A1EC
100
AcDbXrecord
280
     1
290
     1
  0
XRECORD
  5
A1EF
102
{ACAD_REACTORS
330
A1EE
102
}
330
A1EE
100
AcDbXrecord
280
     1
290
     1
  0
XRECORD
  5
A1F1
102
{ACAD_REACTORS
330
A1F0
102
}
330
A1F0
100
AcDbXrecord
280
     1
290
     1
  0
XRECORD
  5
A1F3
102
{ACAD_REACTORS
330
A1F2
102
}
330
A1F2
100
AcDbXrecord
280
     1
290
     1
  0
XRECORD
  5
A1F5
102
{ACAD_REACTORS
330
A1F4
102
}
330
A1F4
100
AcDbXrecord
280
     1
290
     1
  0
XRECORD
  5
A1F7
102
{ACAD_REACTORS
330
A1F6
102
}
330
A1F6
100
AcDbXrecord
280
     1
290
     1
  0
XRECORD
  5
A191
102
{ACAD_REACTORS
330
A190
102
}
330
A190
100
AcDbXrecord
280
     1
340
9E5E
  0
XRECORD
  5
A18F
102
{ACAD_REACTORS
330
A18E
102
}
330
A18E
100
AcDbXrecord
280
     1
340
9E5A
  0
ACDBDETAILVIEWSTYLE
  5
A1E3
102
{ACAD_XDICTIONARY
360
A23E
102
}
102
{ACAD_REACTORS
330
A1E2
102
}
330
A1E2
100
AcDbModelDocViewStyle
 70
     0
  3
Imperial24
290
     0
100
AcDbDetailViewStyle
 70
     0
 71
     0
 90
        3
 71
     1
340
9E51
 40
0.24
340
0
 40
0.24
300

 40
0.36
280
     3
 71
     2
340
9E55
 90
       25
 71
     3
340
9E51
 40
0.24
 90
        1
 40
0.75
 90
        1
300
%<\AcVar ViewType \f "%tc1">% %<\AcVar ViewDetailId>%\PSCALE %<\AcVar ViewScale \f "%sn">%
 71
     4
340
9E55
 90
       25
340
9E55
 90
       25
280
     0
  0
LAYOUT
  5
A1E4
102
{ACAD_XDICTIONARY
360
A240
102
}
102
{ACAD_REACTORS
330
9E59
102
}
330
9E59
100
AcDbPlotSettings
  1

  2
Canon LBP9100C
  4

  6

 40
0.0
 41
0.0
 42
0.0
 43
0.0
 44
0.0
 45
0.0
 46
0.0
 47
0.0
 48
0.0
 49
0.0
140
0.0
141
0.0
142
1.0
143
1.0
 70
  1712
 72
     0
 73
     0
 74
     0
  7

 75
     0
147
1.0
148
0.0
149
0.0
100
AcDbLayout
  1
Model
 70
     1
 71
     0
 10
0.0
 20
0.0
 11
12.0
 21
9.0
 12
0.0
 22
0.0
 32
0.0
 14
0.0
 24
0.0
 34
0.0
 15
0.0
 25
0.0
 35
0.0
146
0.0
 13
0.0
 23
0.0
 33
0.0
 16
1.0
 26
0.0
 36
0.0
 17
0.0
 27
1.0
 37
0.0
 76
     0
330
9E5E
331
A18D
  0
LAYOUT
  5
A1E5
102
{ACAD_XDICTIONARY
360
A242
102
}
102
{ACAD_REACTORS
330
9E59
102
}
330
9E59
100
AcDbPlotSettings
  1

  2
Canon LBP9100C
  4

  6

 40
0.0
 41
0.0
 42
0.0
 43
0.0
 44
0.0
 45
0.0
 46
0.0
 47
0.0
 48
0.0
 49
0.0
140
0.0
141
0.0
142
1.0
143
1.0
 70
   688
 72
     0
 73
     0
 74
     5
  7

 75
    16
147
1.0
148
0.0
149
0.0
100
AcDbLayout
  1
レイアウト1
 70
     0
 71
     1
 10
0.0
 20
0.0
 11
420.0
 21
297.0
 12
0.0
 22
0.0
 32
0.0
 14
1.000000000000000E+20
 24
1.000000000000000E+20
 34
1.000000000000000E+20
 15
-1.000000000000000E+20
 25
-1.000000000000000E+20
 35
-1.000000000000000E+20
146
0.0
 13
0.0
 23
0.0
 33
0.0
 16
1.0
 26
0.0
 36
0.0
 17
0.0
 27
1.0
 37
0.0
 76
     0
330
9E5A
  0
MATERIAL
  5
A1A0
102
{ACAD_XDICTIONARY
360
A1A1
102
}
102
{ACAD_REACTORS
330
A197
102
}
330
A197
100
AcDbMaterial
  1
ByBlock
 72
     0
 43
0.0208333333333333
 43
0.0
 43
0.0
 43
0.0
 43
0.0
 43
0.0208333333333333
 43
0.0
 43
0.0
 43
0.0
 43
0.0
 43
1.0
 43
0.0
 43
0.0
 43
0.0
 43
0.0
 43
1.0
 77
     0
 47
0.0208333333333333
 47
0.0
 47
0.0
 47
0.0
 47
0.0
 47
0.0208333333333333
 47
0.0
 47
0.0
 47
0.0
 47
0.0
 47
1.0
 47
0.0
 47
0.0
 47
0.0
 47
0.0
 47
1.0
171
     0
 49
0.0208333333333333
 49
0.0
 49
0.0
 49
0.0
 49
0.0
 49
0.0208333333333333
 49
0.0
 49
0.0
 49
0.0
 49
0.0
 49
1.0
 49
0.0
 49
0.0
 49
0.0
 49
0.0
 49
1.0
175
     0
142
0.0208333333333333
142
0.0
142
0.0
142
0.0
142
0.0
142
0.0208333333333333
142
0.0
142
0.0
142
0.0
142
0.0
142
1.0
142
0.0
142
0.0
142
0.0
142
0.0
142
1.0
179
     0
144
0.0208333333333333
144
0.0
144
0.0
144
0.0
144
0.0
144
0.0208333333333333
144
0.0
144
0.0
144
0.0
144
0.0
144
1.0
144
0.0
144
0.0
144
0.0
144
0.0
144
1.0
147
0.0208333333333333
147
0.0
147
0.0
147
0.0
147
0.0
147
0.0208333333333333
147
0.0
147
0.0
147
0.0
147
0.0
147
1.0
147
0.0
147
0.0
147
0.0
147
0.0
147
1.0
  0
MATERIAL
  5
A198
102
{ACAD_XDICTIONARY
360
A199
102
}
102
{ACAD_REACTORS
330
A197
102
}
330
A197
100
AcDbMaterial
  1
ByLayer
 72
     0
 43
0.0208333333333333
 43
0.0
 43
0.0
 43
0.0
 43
0.0
 43
0.0208333333333333
 43
0.0
 43
0.0
 43
0.0
 43
0.0
 43
1.0
 43
0.0
 43
0.0
 43
0.0
 43
0.0
 43
1.0
 77
     0
 47
0.0208333333333333
 47
0.0
 47
0.0
 47
0.0
 47
0.0
 47
0.0208333333333333
 47
0.0
 47
0.0
 47
0.0
 47
0.0
 47
1.0
 47
0.0
 47
0.0
 47
0.0
 47
0.0
 47
1.0
171
     0
 49
0.0208333333333333
 49
0.0
 49
0.0
 49
0.0
 49
0.0
 49
0.0208333333333333
 49
0.0
 49
0.0
 49
0.0
 49
0.0
 49
1.0
 49
0.0
 49
0.0
 49
0.0
 49
0.0
 49
1.0
175
     0
142
0.0208333333333333
142
0.0
142
0.0
142
0.0
142
0.0
142
0.0208333333333333
142
0.0
142
0.0
142
0.0
142
0.0
142
1.0
142
0.0
142
0.0
142
0.0
142
0.0
142
1.0
179
     0
144
0.0208333333333333
144
0.0
144
0.0
144
0.0
144
0.0
144
0.0208333333333333
144
0.0
144
0.0
144
0.0
144
0.0
144
1.0
144
0.0
144
0.0
144
0.0
144
0.0
144
1.0
147
0.0208333333333333
147
0.0
147
0.0
147
0.0
147
0.0
147
0.0208333333333333
147
0.0
147
0.0
147
0.0
147
0.0
147
1.0
147
0.0
147
0.0
147
0.0
147
0.0
147
1.0
  0
MATERIAL
  5
A1A8
102
{ACAD_XDICTIONARY
360
A1A9
102
}
102
{ACAD_REACTORS
330
A197
102
}
330
A197
100
AcDbMaterial
  1
Global
 72
     0
 43
0.0208333333333333
 43
0.0
 43
0.0
 43
0.0
 43
0.0
 43
0.0208333333333333
 43
0.0
 43
0.0
 43
0.0
 43
0.0
 43
1.0
 43
0.0
 43
0.0
 43
0.0
 43
0.0
 43
1.0
 77
     0
 47
0.0208333333333333
 47
0.0
 47
0.0
 47
0.0
 47
0.0
 47
0.0208333333333333
 47
0.0
 47
0.0
 47
0.0
 47
0.0
 47
1.0
 47
0.0
 47
0.0
 47
0.0
 47
0.0
 47
1.0
171
     0
 49
0.0208333333333333
 49
0.0
 49
0.0
 49
0.0
 49
0.0
 49
0.0208333333333333
 49
0.0
 49
0.0
 49
0.0
 49
0.0
 49
1.0
 49
0.0
 49
0.0
 49
0.0
 49
0.0
 49
1.0
175
     0
142
0.0208333333333333
142
0.0
142
0.0
142
0.0
142
0.0
142
0.0208333333333333
142
0.0
142
0.0
142
0.0
142
0.0
142
1.0
142
0.0
142
0.0
142
0.0
142
0.0
142
1.0
179
     0
144
0.0208333333333333
144
0.0
144
0.0
144
0.0
144
0.0
144
0.0208333333333333
144
0.0
144
0.0
144
0.0
144
0.0
144
1.0
144
0.0
144
0.0
144
0.0
144
0.0
144
1.0
147
0.0208333333333333
147
0.0
147
0.0
147
0.0
147
0.0
147
0.0208333333333333
147
0.0
147
0.0
147
0.0
147
0.0
147
1.0
147
0.0
147
0.0
147
0.0
147
0.0
147
1.0
  0
MLEADERSTYLE
  5
A1DF
102
{ACAD_REACTORS
330
A1DE
102
}
330
A1DE
100
AcDbMLeaderStyle
170
     2
171
     1
172
     0
 90
        2
 40
0.0
 41
0.0
173
     1
 91
-1056964608
340
9E53
 92
       -2
290
     1
 42
0.09
291
     1
 43
0.36
  3
Standard
 44
0.18
300

342
9E51
174
     1
178
     6
175
     1
176
     0
 93
-1056964608
 45
0.18
292
     0
297
     0
 46
0.18
 94
-1056964608
 47
1.0
 49
1.0
140
1.0
293
     1
141
0.0
294
     1
177
     0
142
1.0
295
     0
296
     0
143
0.125
1001
ACAD_MLEADERVER
1070
     2
  0
MLINESTYLE
  5
9E57
102
{ACAD_REACTORS
330
9E56
102
}
330
9E56
100
AcDbMlineStyle
  2
STANDARD
 70
     0
  3

 62
   256
 51
90.0
 52
90.0
 71
     2
 49
0.5
 62
   256
  6
BYLAYER
 49
-0.5
 62
   256
  6
BYLAYER
  0
ACDBPLACEHOLDER
  5
A196
102
{ACAD_REACTORS
330
A195
102
}
330
A195
  0
SCALE
  5
A1CD
102
{ACAD_REACTORS
330
A1CC
102
}
330
A1CC
100
AcDbScale
 70
     0
300
1:1
140
1.0
141
1.0
290
     1
  0
SCALE
  5
A1CE
102
{ACAD_REACTORS
330
A1CC
102
}
330
A1CC
100
AcDbScale
 70
     0
300
1/128" = 1'-0"
140
0.0078125
141
12.0
290
     0
  0
SCALE
  5
A1CF
102
{ACAD_REACTORS
330
A1CC
102
}
330
A1CC
100
AcDbScale
 70
     0
300
1/64" = 1'-0"
140
0.015625
141
12.0
290
     0
  0
SCALE
  5
A1D0
102
{ACAD_REACTORS
330
A1CC
102
}
330
A1CC
100
AcDbScale
 70
     0
300
1/32" = 1'-0"
140
0.03125
141
12.0
290
     0
  0
SCALE
  5
A1D1
102
{ACAD_REACTORS
330
A1CC
102
}
330
A1CC
100
AcDbScale
 70
     0
300
1/16" = 1'-0"
140
0.0625
141
12.0
290
     0
  0
SCALE
  5
A1D2
102
{ACAD_REACTORS
330
A1CC
102
}
330
A1CC
100
AcDbScale
 70
     0
300
3/32" = 1'-0"
140
0.09375
141
12.0
290
     0
  0
SCALE
  5
A1D3
102
{ACAD_REACTORS
330
A1CC
102
}
330
A1CC
100
AcDbScale
 70
     0
300
1/8" = 1'-0"
140
0.125
141
12.0
290
     0
  0
SCALE
  5
A1D4
102
{ACAD_REACTORS
330
A1CC
102
}
330
A1CC
100
AcDbScale
 70
     0
300
3/16" = 1'-0"
140
0.1875
141
12.0
290
     0
  0
SCALE
  5
A1D5
102
{ACAD_REACTORS
330
A1CC
102
}
330
A1CC
100
AcDbScale
 70
     0
300
1/4" = 1'-0"
140
0.25
141
12.0
290
     0
  0
SCALE
  5
A1D6
102
{ACAD_REACTORS
330
A1CC
102
}
330
A1CC
100
AcDbScale
 70
     0
300
3/8" = 1'-0"
140
0.375
141
12.0
290
     0
  0
SCALE
  5
A1D7
102
{ACAD_REACTORS
330
A1CC
102
}
330
A1CC
100
AcDbScale
 70
     0
300
1/2" = 1'-0"
140
0.5
141
12.0
290
     0
  0
SCALE
  5
A1D8
102
{ACAD_REACTORS
330
A1CC
102
}
330
A1CC
100
AcDbScale
 70
     0
300
3/4" = 1'-0"
140
0.75
141
12.0
290
     0
  0
SCALE
  5
A1D9
102
{ACAD_REACTORS
330
A1CC
102
}
330
A1CC
100
AcDbScale
 70
     0
300
1" = 1'-0"
140
1.0
141
12.0
290
     0
  0
SCALE
  5
A1DA
102
{ACAD_REACTORS
330
A1CC
102
}
330
A1CC
100
AcDbScale
 70
     0
300
1-1/2" = 1'-0"
140
1.5
141
12.0
290
     0
  0
SCALE
  5
A1DB
102
{ACAD_REACTORS
330
A1CC
102
}
330
A1CC
100
AcDbScale
 70
     0
300
3" = 1'-0"
140
3.0
141
12.0
290
     0
  0
SCALE
  5
A1DC
102
{ACAD_REACTORS
330
A1CC
102
}
330
A1CC
100
AcDbScale
 70
     0
300
6" = 1'-0"
140
6.0
141
12.0
290
     0
  0
SCALE
  5
A1DD
102
{ACAD_REACTORS
330
A1CC
102
}
330
A1CC
100
AcDbScale
 70
     0
300
1'-0" = 1'-0"
140
12.0
141
12.0
290
     0
  0
ACDBSECTIONVIEWSTYLE
  5
A1E1
102
{ACAD_XDICTIONARY
360
A23C
102
}
102
{ACAD_REACTORS
330
A1E0
102
}
330
A1E0
100
AcDbModelDocViewStyle
 70
     0
  3
Imperial24
290
     0
100
AcDbSectionViewStyle
 70
     0
 71
     0
 90
       78
 71
     1
340
9E51
 40
0.24
340
0
340
0
 40
0.24
300
I, O, Q, S, X, Z
 40
0.48
 90
        3
 40
0.18
 90
        1
 71
     2
340
9E55
 90
       25
340
9E55
 90
       50
 40
0.24
 40
0.0
 40
0.24
 71
     3
340
9E51
 40
0.24
 90
        1
 40
0.75
 90
        1
300
%<\AcVar ViewType \f "%tc1">% %<\AcVar ViewSectionStartId>%-%<\AcVar ViewSectionEndId>%\PSCALE %<\AcVar ViewScale \f "%sn">%
 71
     4
300
ANSI31
 40
1.0
 90
        0
290
     0
290
     0
 90
        6
 40
0.0
 40
1.570796326794896
 40
0.2617993877991494
 40
1.308996938995747
 40
-0.2617993877991494
 40
1.832595714594046
  0
TABLESTYLE
  5
A1CB
102
{ACAD_XDICTIONARY
360
A203
102
}
102
{ACAD_REACTORS
330
A1CA
102
}
330
A1CA
100
AcDbTableStyle
  3
Standard
 70
     0
 71
     0
 40
0.06
 41
0.06
280
     0
281
     0
  7
STANDARD
140
0.18
170
     2
 62
     0
 63
     7
283
     0
274
    -2
284
     1
 64
     0
275
    -2
285
     1
 65
     0
276
    -2
286
     1
 66
     0
277
    -2
287
     1
 67
     0
278
    -2
288
     1
 68
     0
279
    -2
289
     1
 69
     0
  7
STANDARD
140
0.25
170
     5
 62
     0
 63
     7
283
     0
274
    -2
284
     1
 64
     0
275
    -2
285
     1
 65
     0
276
    -2
286
     1
 66
     0
277
    -2
287
     1
 67
     0
278
    -2
288
     1
 68
     0
279
    -2
289
     1
 69
     0
  7
STANDARD
140
0.18
170
     5
 62
     0
 63
     7
283
     0
274
    -2
284
     1
 64
     0
275
    -2
285
     1
 65
     0
276
    -2
286
     1
 66
     0
277
    -2
287
     1
 67
     0
278
    -2
288
     1
 68
     0
279
    -2
289
     1
 69
     0
  0
VISUALSTYLE
  5
A1B6
102
{ACAD_XDICTIONARY
360
A214
102
}
102
{ACAD_REACTORS
330
A1B0
102
}
330
A1B0
100
AcDbVisualStyle
  2
2dWireframe
 70
     4
 71
     0
 72
     2
 73
     0
 90
        0
 40
-0.6
 41
-30.0
 62
     5
 63
     7
 74
     1
 91
        4
 64
     7
 65
   257
 75
     1
175
     1
 42
1.0
 92
        0
 66
   257
 43
1.0
 76
     1
 77
     6
 78
     2
 67
     7
 79
     5
170
     0
171
     0
290
     0
174
     0
 93
        1
 44
0.0
173
     0
291
     0
 45
0.0
1001
ACAD
1000
AcDbSavedByObjectVersion
1070
     0
  0
VISUALSTYLE
  5
A1B5
102
{ACAD_XDICTIONARY
360
A212
102
}
102
{ACAD_REACTORS
330
A1B0
102
}
330
A1B0
100
AcDbVisualStyle
  2
Basic
 70
     7
 71
     1
 72
     0
 73
     1
 90
        0
 40
-0.6
 41
-30.0
 62
     5
 63
     7
 74
     0
 91
        4
 64
     7
 65
   257
 75
     1
175
     1
 42
1.0
 92
        8
 66
     7
 43
1.0
 76
     1
 77
     6
 78
     2
 67
     7
 79
     5
170
     0
171
     0
290
     0
174
     0
 93
        1
 44
0.0
173
     0
291
     1
 45
0.0
1001
ACAD
1000
AcDbSavedByObjectVersion
1070
     0
  0
VISUALSTYLE
  5
A1BC
102
{ACAD_XDICTIONARY
360
A220
102
}
102
{ACAD_REACTORS
330
A1B0
102
}
330
A1B0
100
AcDbVisualStyle
  2
Brighten
 70
    12
 71
     2
 72
     2
 73
     0
 90
        0
 40
-0.6
 41
-30.0
 62
     5
 63
     7
 74
     1
 91
        4
 64
     7
 65
   257
 75
     1
175
     1
 42
1.0
 92
        8
 66
     7
 43
1.0
 76
     1
 77
     6
 78
     2
 67
     7
 79
     5
170
     0
171
     0
290
     0
174
     0
 93
        1
 44
50.0
173
     0
291
     1
 45
0.0
1001
ACAD
1000
AcDbSavedByObjectVersion
1070
     0
  0
VISUALSTYLE
  5
A1C0
102
{ACAD_XDICTIONARY
360
A228
102
}
102
{ACAD_REACTORS
330
A1B0
102
}
330
A1B0
100
AcDbVisualStyle
  2
ColorChange
 70
    16
 71
     2
 72
     2
 73
     3
 90
        0
 40
-0.6
 41
-30.0
 62
     5
 63
     8
 74
     1
 91
        4
 64
     7
 65
   257
 75
     1
175
     1
 42
1.0
 92
        8
 66
     8
 43
1.0
 76
     1
 77
     6
 78
     2
 67
     7
 79
     5
170
     0
171
     0
290
     0
174
     0
 93
        1
 44
0.0
173
     0
291
     1
 45
0.0
1001
ACAD
1000
AcDbSavedByObjectVersion
1070
     0
  0
VISUALSTYLE
  5
A1B9
102
{ACAD_XDICTIONARY
360
A21A
102
}
102
{ACAD_REACTORS
330
A1B0
102
}
330
A1B0
100
AcDbVisualStyle
  2
Conceptual
 70
     9
 71
     3
 72
     2
 73
     0
 90
        0
 40
-0.6
 41
-30.0
 62
     5
 63
     7
 74
     2
 91
        2
 64
     7
 65
   257
 75
     1
175
     1
 42
179.0
 92
        8
 66
     7
 43
1.0
 76
     1
 77
     6
 78
     2
 67
     7
 79
     3
170
     0
171
     0
290
     0
174
     0
 93
        1
 44
0.0
173
     0
291
     0
 45
0.0
1001
ACAD
1000
AcDbSavedByObjectVersion
1070
     0
  0
VISUALSTYLE
  5
A1BB
102
{ACAD_XDICTIONARY
360
A21E
102
}
102
{ACAD_REACTORS
330
A1B0
102
}
330
A1B0
100
AcDbVisualStyle
  2
Dim
 70
    11
 71
     2
 72
     2
 73
     0
 90
        0
 40
-0.6
 41
-30.0
 62
     5
 63
     7
 74
     1
 91
        4
 64
     7
 65
   257
 75
     1
175
     1
 42
1.0
 92
        8
 66
     7
 43
1.0
 76
     1
 77
     6
 78
     2
 67
     7
 79
     5
170
     0
171
     0
290
     0
174
     0
 93
        1
 44
-50.0
173
     0
291
     1
 45
0.0
1001
ACAD
1000
AcDbSavedByObjectVersion
1070
     0
  0
VISUALSTYLE
  5
A1C8
102
{ACAD_XDICTIONARY
360
A238
102
}
102
{ACAD_REACTORS
330
A1B0
102
}
330
A1B0
100
AcDbVisualStyle
  2
EdgeColorOff
 70
    22
 71
     2
 72
     2
 73
     0
 90
        0
 40
-0.6
 41
-30.0
 62
     5
 63
     7
 74
     1
 91
        4
 64
     7
 65
   257
 75
     1
175
     1
 42
1.0
 92
        8
 66
     7
 43
1.0
 76
     1
 77
     6
 78
     2
 67
     7
 79
     5
170
     0
171
     0
290
     0
174
     0
 93
        1
 44
0.0
173
     0
291
     1
 45
0.0
1001
ACAD
1000
AcDbSavedByObjectVersion
1070
     0
  0
VISUALSTYLE
  5
A1BF
102
{ACAD_XDICTIONARY
360
A226
102
}
102
{ACAD_REACTORS
330
A1B0
102
}
330
A1B0
100
AcDbVisualStyle
  2
Facepattern
 70
    15
 71
     2
 72
     2
 73
     0
 90
        0
 40
-0.6
 41
-30.0
 62
     5
 63
     7
 74
     1
 91
        4
 64
     7
 65
   257
 75
     1
175
     1
 42
1.0
 92
        8
 66
     7
 43
1.0
 76
     1
 77
     6
 78
     2
 67
     7
 79
     5
170
     0
171
     0
290
     0
174
     0
 93
        1
 44
0.0
173
     0
291
     1
 45
0.0
1001
ACAD
1000
AcDbSavedByObjectVersion
1070
     0
  0
VISUALSTYLE
  5
A1B1
102
{ACAD_XDICTIONARY
360
A20A
102
}
102
{ACAD_REACTORS
330
A1B0
102
}
330
A1B0
100
AcDbVisualStyle
  2
Flat
 70
     0
 71
     2
 72
     1
 73
     1
 90
        2
 40
-0.6
 41
30.0
 62
     5
 63
     7
 74
     0
 91
        0
 64
     7
 65
   257
 75
     1
175
     1
 42
1.0
 92
        8
 66
     7
 43
1.0
 76
     1
 77
     6
 78
     2
 67
     7
 79
     5
170
     0
171
     0
290
     0
174
     0
 93
       13
 44
0.0
173
     0
291
     1
 45
0.0
1001
ACAD
1000
AcDbSavedByObjectVersion
1070
     0
  0
VISUALSTYLE
  5
A1B2
102
{ACAD_XDICTIONARY
360
A20C
102
}
102
{ACAD_REACTORS
330
A1B0
102
}
330
A1B0
100
AcDbVisualStyle
  2
FlatWithEdges
 70
     1
 71
     2
 72
     1
 73
     1
 90
        2
 40
-0.6
 41
30.0
 62
     5
 63
     7
 74
     1
 91
        0
 64
     7
 65
   257
 75
     1
175
     1
 42
1.0
 92
        0
 66
   257
 43
1.0
 76
     1
 77
     6
 78
     2
 67
     7
 79
     5
170
     0
171
     0
290
     0
174
     0
 93
       13
 44
0.0
173
     0
291
     1
 45
0.0
1001
ACAD
1000
AcDbSavedByObjectVersion
1070
     0
  0
VISUALSTYLE
  5
A1B3
102
{ACAD_XDICTIONARY
360
A20E
102
}
102
{ACAD_REACTORS
330
A1B0
102
}
330
A1B0
100
AcDbVisualStyle
  2
Gouraud
 70
     2
 71
     2
 72
     2
 73
     1
 90
        2
 40
-0.6
 41
30.0
 62
     5
 63
     7
 74
     0
 91
        0
 64
     7
 65
   257
 75
     1
175
     1
 42
1.0
 92
        0
 66
     7
 43
1.0
 76
     1
 77
     6
 78
     2
 67
     7
 79
     5
170
     0
171
     0
290
     0
174
     0
 93
       13
 44
0.0
173
     0
291
     1
 45
0.0
1001
ACAD
1000
AcDbSavedByObjectVersion
1070
     0
  0
VISUALSTYLE
  5
A1B4
102
{ACAD_XDICTIONARY
360
A210
102
}
102
{ACAD_REACTORS
330
A1B0
102
}
330
A1B0
100
AcDbVisualStyle
  2
GouraudWithEdges
 70
     3
 71
     2
 72
     2
 73
     1
 90
        2
 40
-0.6
 41
30.0
 62
     5
 63
     7
 74
     1
 91
        0
 64
     7
 65
   257
 75
     1
175
     1
 42
1.0
 92
        0
 66
   257
 43
1.0
 76
     1
 77
     6
 78
     2
 67
     7
 79
     5
170
     0
171
     0
290
     0
174
     0
 93
       13
 44
0.0
173
     0
291
     1
 45
0.0
1001
ACAD
1000
AcDbSavedByObjectVersion
1070
     0
  0
VISUALSTYLE
  5
A1B8
102
{ACAD_XDICTIONARY
360
A218
102
}
102
{ACAD_REACTORS
330
A1B0
102
}
330
A1B0
100
AcDbVisualStyle
  2
Hidden
 70
     6
 71
     1
 72
     2
 73
     2
 90
        0
 40
-0.6
 41
-30.0
 62
     5
 63
     7
 74
     2
 91
        2
 64
     7
 65
   257
 75
     2
175
     1
 42
40.0
 92
        0
 66
   257
 43
1.0
 76
     1
 77
     6
 78
     2
 67
     7
 79
     3
170
     0
171
     0
290
     0
174
     0
 93
        1
 44
0.0
173
     0
291
     0
 45
0.0
1001
ACAD
1000
AcDbSavedByObjectVersion
1070
     0
  0
VISUALSTYLE
  5
A1C6
102
{ACAD_XDICTIONARY
360
A234
102
}
102
{ACAD_REACTORS
330
A1B0
102
}
330
A1B0
100
AcDbVisualStyle
  2
JitterOff
 70
    20
 71
     2
 72
     2
 73
     0
 90
        0
 40
-0.6
 41
-30.0
 62
     5
 63
     7
 74
     1
 91
        4
 64
     7
 65
   257
 75
     1
175
     1
 42
1.0
 92
       10
 66
     7
 43
1.0
 76
     1
 77
     6
 78
     2
 67
     7
 79
     5
170
     0
171
     0
290
     0
174
     0
 93
        1
 44
0.0
173
     0
291
     1
 45
0.0
1001
ACAD
1000
AcDbSavedByObjectVersion
1070
     0
  0
VISUALSTYLE
  5
A1BE
102
{ACAD_XDICTIONARY
360
A224
102
}
102
{ACAD_REACTORS
330
A1B0
102
}
330
A1B0
100
AcDbVisualStyle
  2
Linepattern
 70
    14
 71
     2
 72
     2
 73
     0
 90
        0
 40
-0.6
 41
-30.0
 62
     5
 63
     7
 74
     1
 91
        4
 64
     7
 65
   257
 75
     7
175
     7
 42
1.0
 92
        8
 66
     7
 43
1.0
 76
     1
 77
     6
 78
     2
 67
     7
 79
     5
170
     0
171
     0
290
     0
174
     0
 93
        1
 44
0.0
173
     0
291
     1
 45
0.0
1001
ACAD
1000
AcDbSavedByObjectVersion
1070
     0
  0
VISUALSTYLE
  5
A1C7
102
{ACAD_XDICTIONARY
360
A236
102
}
102
{ACAD_REACTORS
330
A1B0
102
}
330
A1B0
100
AcDbVisualStyle
  2
OverhangOff
 70
    21
 71
     2
 72
     2
 73
     0
 90
        0
 40
-0.6
 41
-30.0
 62
     5
 63
     7
 74
     1
 91
        4
 64
     7
 65
   257
 75
     1
175
     1
 42
1.0
 92
        9
 66
     7
 43
1.0
 76
     1
 77
     6
 78
     2
 67
     7
 79
     5
170
     0
171
     0
290
     0
174
     0
 93
        1
 44
0.0
173
     0
291
     1
 45
0.0
1001
ACAD
1000
AcDbSavedByObjectVersion
1070
     0
  0
VISUALSTYLE
  5
A1BA
102
{ACAD_XDICTIONARY
360
A21C
102
}
102
{ACAD_REACTORS
330
A1B0
102
}
330
A1B0
100
AcDbVisualStyle
  2
Realistic
 70
     8
 71
     2
 72
     3
 73
     0
 90
        2
 40
-0.6
 41
30.0
 62
     5
 63
     7
 74
     0
 91
        0
 64
     7
 65
   257
 75
     1
175
     1
 42
1.0
 92
        8
 66
   257
 43
1.0
 76
     1
 77
     6
 78
     2
 67
     7
 79
     3
170
     0
171
     0
290
     0
174
     0
 93
       13
 44
0.0
173
     0
291
     0
 45
0.0
1001
ACAD
1000
AcDbSavedByObjectVersion
1070
     0
  0
VISUALSTYLE
  5
A1C5
102
{ACAD_XDICTIONARY
360
A232
102
}
102
{ACAD_REACTORS
330
A1B0
102
}
330
A1B0
100
AcDbVisualStyle
  2
Shaded
 70
    27
 71
     2
 72
     2
 73
     1
 90
        2
 40
-0.6
 41
30.0
 62
     5
 63
     7
 74
     0
 91
        4
 64
     7
 65
   257
 75
     1
175
     1
 42
1.0
 92
        8
 66
   257
 43
1.0
 76
     1
 77
     6
 78
     2
 67
     8
 79
     3
170
     0
171
     0
290
     0
174
     0
 93
        5
 44
0.0
173
     0
291
     0
 45
0.0
1001
ACAD
1000
AcDbSavedByObjectVersion
1070
     0
  0
VISUALSTYLE
  5
A1C4
102
{ACAD_XDICTIONARY
360
A230
102
}
102
{ACAD_REACTORS
330
A1B0
102
}
330
A1B0
100
AcDbVisualStyle
  2
Shaded with edges
 70
    26
 71
     2
 72
     2
 73
     1
 90
        2
 40
-0.6
 41
30.0
 62
     5
 63
     7
 74
     1
 91
       10
 64
     7
 65
   257
 75
     2
175
     1
 42
1.0
 92
        8
 66
   257
 43
1.0
 76
     1
 77
     6
 78
     2
 67
     7
 79
     3
170
     0
171
     0
290
     0
174
     0
 93
        5
 44
0.0
173
     0
291
     0
 45
0.0
1001
ACAD
1000
AcDbSavedByObjectVersion
1070
     0
  0
VISUALSTYLE
  5
A1C1
102
{ACAD_XDICTIONARY
360
A22A
102
}
102
{ACAD_REACTORS
330
A1B0
102
}
330
A1B0
100
AcDbVisualStyle
  2
Shades of Gray
 70
    23
 71
     2
 72
     2
 73
     3
 90
        0
 40
-0.6
 41
-30.0
 62
     5
 63
     7
 74
     2
 91
        2
 64
     7
 65
     7
 75
     1
175
     1
 42
40.0
 92
        8
 66
     7
 43
1.0
 76
     1
 77
     6
 78
     2
 67
     7
 79
     3
170
     0
171
     0
290
     0
174
     0
 93
        1
 44
0.0
173
     0
291
     0
 45
0.0
1001
ACAD
1000
AcDbSavedByObjectVersion
1070
     0
  0
VISUALSTYLE
  5
A1C2
102
{ACAD_XDICTIONARY
360
A22C
102
}
102
{ACAD_REACTORS
330
A1B0
102
}
330
A1B0
100
AcDbVisualStyle
  2
Sketchy
 70
    24
 71
     1
 72
     2
 73
     2
 90
        0
 40
-0.6
 41
-30.0
 62
     5
 63
     7
 74
     2
 91
        2
 64
     7
 65
     7
 75
     1
175
     1
 42
40.0
 92
       11
 66
     7
 43
1.0
 76
     1
 77
     6
 78
     2
 67
     7
 79
     6
170
     0
171
     0
290
     0
174
     0
 93
        1
 44
0.0
173
     0
291
     0
 45
0.0
1001
ACAD
1000
AcDbSavedByObjectVersion
1070
     0
  0
VISUALSTYLE
  5
A1BD
102
{ACAD_XDICTIONARY
360
A222
102
}
102
{ACAD_REACTORS
330
A1B0
102
}
330
A1B0
100
AcDbVisualStyle
  2
Thicken
 70
    13
 71
     2
 72
     2
 73
     0
 90
        0
 40
-0.6
 41
-30.0
 62
     5
 63
     7
 74
     1
 91
        4
 64
     7
 65
   257
 75
     1
175
     1
 42
1.0
 92
       12
 66
     7
 43
1.0
 76
     1
 77
     6
 78
     2
 67
     7
 79
     5
170
     0
171
     0
290
     0
174
     0
 93
        1
 44
0.0
173
     0
291
     1
 45
0.0
1001
ACAD
1000
AcDbSavedByObjectVersion
1070
     0
  0
VISUALSTYLE
  5
A1B7
102
{ACAD_XDICTIONARY
360
A216
102
}
102
{ACAD_REACTORS
330
A1B0
102
}
330
A1B0
100
AcDbVisualStyle
  2
Wireframe
 70
     5
 71
     0
 72
     2
 73
     0
 90
        0
 40
-0.6
 41
-30.0
 62
     5
 63
     7
 74
     1
 91
        4
 64
     7
 65
   257
 75
     1
175
     1
 42
1.0
 92
        0
 66
   257
 43
1.0
 76
     1
 77
     6
 78
     2
 67
     7
 79
     3
170
     0
171
     0
290
     0
174
     0
 93
        1
 44
0.0
173
     0
291
     0
 45
0.0
1001
ACAD
1000
AcDbSavedByObjectVersion
1070
     0
  0
VISUALSTYLE
  5
A1C3
102
{ACAD_XDICTIONARY
360
A22E
102
}
102
{ACAD_REACTORS
330
A1B0
102
}
330
A1B0
100
AcDbVisualStyle
  2
X-Ray
 70
    25
 71
     2
 72
     2
 73
     1
 90
        1
 40
0.5
 41
-30.0
 62
     5
 63
     7
 74
     1
 91
        0
 64
     7
 65
   257
 75
     1
175
     1
 42
1.0
 92
        8
 66
     7
 43
1.0
 76
     1
 77
     6
 78
     2
 67
     7
 79
     3
170
     0
171
     0
290
     0
174
     0
 93
       13
 44
0.0
173
     0
291
     0
 45
0.0
1001
ACAD
1000
AcDbSavedByObjectVersion
1070
     0
  0
DICTIONARYVAR
  5
A1FD
102
{ACAD_REACTORS
330
A1F8
102
}
330
A1F8
100
DictionaryVariables
280
     0
  1
1:1
  0
DICTIONARYVAR
  5
A1FA
102
{ACAD_REACTORS
330
A1F8
102
}
330
A1F8
100
DictionaryVariables
280
     0
  1
STANDARD
  0
DICTIONARYVAR
  5
A1F9
102
{ACAD_REACTORS
330
A1F8
102
}
330
A1F8
100
DictionaryVariables
280
     0
  1
STANDARD
  0
DICTIONARYVAR
  5
A1FB
102
{ACAD_REACTORS
330
A1F8
102
}
330
A1F8
100
DictionaryVariables
280
     0
  1
Imperial24
  0
DICTIONARYVAR
  5
A1FC
102
{ACAD_REACTORS
330
A1F8
102
}
330
A1F8
100
DictionaryVariables
280
     0
  1
Imperial24
  0
DICTIONARYVAR
  5
A200
102
{ACAD_REACTORS
330
A1F8
102
}
330
A1F8
100
DictionaryVariables
280
     0
  1
1
  0
DICTIONARYVAR
  5
A1FF
102
{ACAD_REACTORS
330
A1F8
102
}
330
A1F8
100
DictionaryVariables
280
     0
  1
0
  0
DICTIONARYVAR
  5
A1FE
102
{ACAD_REACTORS
330
A1F8
102
}
330
A1F8
100
DictionaryVariables
280
     0
  1
127
  0
DICTIONARYVAR
  5
A201
102
{ACAD_REACTORS
330
A1F8
102
}
330
A1F8
100
DictionaryVariables
280
     0
  1
2
  0
DICTIONARY
  5
A23E
330
A1E3
100
AcDbDictionary
280
     1
281
     1
  3
ACAD_XREC_ROUNDTRIP
360
A23F
  0
DICTIONARY
  5
A240
330
A1E4
100
AcDbDictionary
280
     1
281
     1
  3
ACAD_XREC_ROUNDTRIP
360
A241
  0
DICTIONARY
  5
A242
330
A1E5
100
AcDbDictionary
280
     1
281
     1
  3
ACAD_XREC_ROUNDTRIP
360
A243
  0
DICTIONARY
  5
A1A1
330
A1A0
100
AcDbDictionary
280
     1
281
     1
  3
ACAD_XREC_ROUNDTRIP
360
A208
  3
BUMPTILE
360
A1A3
  3
DIFFUSETILE
360
A1A2
  3
OPACITYTILE
360
A1A6
  3
REFLECTIONTILE
360
A1A5
  3
REFRACTIONTILE
360
A1A7
  3
SPECULARTILE
360
A1A4
  0
DICTIONARY
  5
A199
330
A198
100
AcDbDictionary
280
     1
281
     1
  3
ACAD_XREC_ROUNDTRIP
360
A207
  3
BUMPTILE
360
A19B
  3
DIFFUSETILE
360
A19A
  3
OPACITYTILE
360
A19E
  3
REFLECTIONTILE
360
A19D
  3
REFRACTIONTILE
360
A19F
  3
SPECULARTILE
360
A19C
  0
DICTIONARY
  5
A1A9
330
A1A8
100
AcDbDictionary
280
     1
281
     1
  3
ACAD_XREC_ROUNDTRIP
360
A209
  3
BUMPTILE
360
A1AB
  3
DIFFUSETILE
360
A1AA
  3
OPACITYTILE
360
A1AE
  3
REFLECTIONTILE
360
A1AD
  3
REFRACTIONTILE
360
A1AF
  3
SPECULARTILE
360
A1AC
  0
DICTIONARY
  5
A23C
330
A1E1
100
AcDbDictionary
280
     1
281
     1
  3
ACAD_XREC_ROUNDTRIP
360
A23D
  0
DICTIONARY
  5
A203
330
A1CB
100
AcDbDictionary
280
     1
281
     1
  3
ACAD_ROUNDTRIP_2008_TABLESTYLE_CELLSTYLEMAP
360
A204
  3
ACAD_XREC_ROUNDTRIP
360
A23A
  0
DICTIONARY
  5
A214
330
A1B6
100
AcDbDictionary
280
     1
281
     1
  3
ACAD_XREC_ROUNDTRIP
360
A215
  0
DICTIONARY
  5
A212
330
A1B5
100
AcDbDictionary
280
     1
281
     1
  3
ACAD_XREC_ROUNDTRIP
360
A213
  0
DICTIONARY
  5
A220
330
A1BC
100
AcDbDictionary
280
     1
281
     1
  3
ACAD_XREC_ROUNDTRIP
360
A221
  0
DICTIONARY
  5
A228
330
A1C0
100
AcDbDictionary
280
     1
281
     1
  3
ACAD_XREC_ROUNDTRIP
360
A229
  0
DICTIONARY
  5
A21A
330
A1B9
100
AcDbDictionary
280
     1
281
     1
  3
ACAD_XREC_ROUNDTRIP
360
A21B
  0
DICTIONARY
  5
A21E
330
A1BB
100
AcDbDictionary
280
     1
281
     1
  3
ACAD_XREC_ROUNDTRIP
360
A21F
  0
DICTIONARY
  5
A238
330
A1C8
100
AcDbDictionary
280
     1
281
     1
  3
ACAD_XREC_ROUNDTRIP
360
A239
  0
DICTIONARY
  5
A226
330
A1BF
100
AcDbDictionary
280
     1
281
     1
  3
ACAD_XREC_ROUNDTRIP
360
A227
  0
DICTIONARY
  5
A20A
330
A1B1
100
AcDbDictionary
280
     1
281
     1
  3
ACAD_XREC_ROUNDTRIP
360
A20B
  0
DICTIONARY
  5
A20C
330
A1B2
100
AcDbDictionary
280
     1
281
     1
  3
ACAD_XREC_ROUNDTRIP
360
A20D
  0
DICTIONARY
  5
A20E
330
A1B3
100
AcDbDictionary
280
     1
281
     1
  3
ACAD_XREC_ROUNDTRIP
360
A20F
  0
DICTIONARY
  5
A210
330
A1B4
100
AcDbDictionary
280
     1
281
     1
  3
ACAD_XREC_ROUNDTRIP
360
A211
  0
DICTIONARY
  5
A218
330
A1B8
100
AcDbDictionary
280
     1
281
     1
  3
ACAD_XREC_ROUNDTRIP
360
A219
  0
DICTIONARY
  5
A234
330
A1C6
100
AcDbDictionary
280
     1
281
     1
  3
ACAD_XREC_ROUNDTRIP
360
A235
  0
DICTIONARY
  5
A224
330
A1BE
100
AcDbDictionary
280
     1
281
     1
  3
ACAD_XREC_ROUNDTRIP
360
A225
  0
DICTIONARY
  5
A236
330
A1C7
100
AcDbDictionary
280
     1
281
     1
  3
ACAD_XREC_ROUNDTRIP
360
A237
  0
DICTIONARY
  5
A21C
330
A1BA
100
AcDbDictionary
280
     1
281
     1
  3
ACAD_XREC_ROUNDTRIP
360
A21D
  0
DICTIONARY
  5
A232
330
A1C5
100
AcDbDictionary
280
     1
281
     1
  3
ACAD_XREC_ROUNDTRIP
360
A233
  0
DICTIONARY
  5
A230
330
A1C4
100
AcDbDictionary
280
     1
281
     1
  3
ACAD_XREC_ROUNDTRIP
360
A231
  0
DICTIONARY
  5
A22A
330
A1C1
100
AcDbDictionary
280
     1
281
     1
  3
ACAD_XREC_ROUNDTRIP
360
A22B
  0
DICTIONARY
  5
A22C
330
A1C2
100
AcDbDictionary
280
     1
281
     1
  3
ACAD_XREC_ROUNDTRIP
360
A22D
  0
DICTIONARY
  5
A222
330
A1BD
100
AcDbDictionary
280
     1
281
     1
  3
ACAD_XREC_ROUNDTRIP
360
A223
  0
DICTIONARY
  5
A216
330
A1B7
100
AcDbDictionary
280
     1
281
     1
  3
ACAD_XREC_ROUNDTRIP
360
A217
  0
DICTIONARY
  5
A22E
330
A1C3
100
AcDbDictionary
280
     1
281
     1
  3
ACAD_XREC_ROUNDTRIP
360
A22F
  0
XRECORD
  5
A23F
102
{ACAD_REACTORS
330
A23E
102
}
330
A23E
100
AcDbXrecord
280
     1
102
DISPLAYNAME
  1
Imperial24
102
FLAGS
 90
        0
  0
XRECORD
  5
A241
102
{ACAD_REACTORS
330
A240
102
}
330
A240
100
AcDbXrecord
280
     1
102
SHADEPLOT
 70
     0
102
SHADEPLOTRESLEVEL
 70
     2
102
SHADEPLOTCUSTOMDPI
 70
   300
  0
XRECORD
  5
A243
102
{ACAD_REACTORS
330
A242
102
}
330
A242
100
AcDbXrecord
280
     1
102
SHADEPLOT
 70
     0
102
SHADEPLOTRESLEVEL
 70
     2
102
SHADEPLOTCUSTOMDPI
 70
   300
  0
XRECORD
  5
A208
102
{ACAD_REACTORS
330
A1A1
102
}
330
A1A1
100
AcDbXrecord
280
     1
102
MATERIAL
148
0.0
149
0.0
149
0.0
 93
        0
 94
      127
282
     0
 72
     0
 77
     0
171
     0
175
     0
179
     0
273
     0
  0
XRECORD
  5
A1A3
102
{ACAD_REACTORS
330
A1A1
102
}
330
A1A1
100
AcDbXrecord
280
     1
270
     1
271
     1
  0
XRECORD
  5
A1A2
102
{ACAD_REACTORS
330
A1A1
102
}
330
A1A1
100
AcDbXrecord
280
     1
270
     1
271
     1
  0
XRECORD
  5
A1A6
102
{ACAD_REACTORS
330
A1A1
102
}
330
A1A1
100
AcDbXrecord
280
     1
270
     1
271
     1
  0
XRECORD
  5
A1A5
102
{ACAD_REACTORS
330
A1A1
102
}
330
A1A1
100
AcDbXrecord
280
     1
270
     1
271
     1
  0
XRECORD
  5
A1A7
102
{ACAD_REACTORS
330
A1A1
102
}
330
A1A1
100
AcDbXrecord
280
     1
270
     1
271
     1
  0
XRECORD
  5
A1A4
102
{ACAD_REACTORS
330
A1A1
102
}
330
A1A1
100
AcDbXrecord
280
     1
270
     1
271
     1
  0
XRECORD
  5
A207
102
{ACAD_REACTORS
330
A199
102
}
330
A199
100
AcDbXrecord
280
     1
102
MATERIAL
148
0.0
149
0.0
149
0.0
 93
        0
 94
      127
282
     0
 72
     0
 77
     0
171
     0
175
     0
179
     0
273
     0
  0
XRECORD
  5
A19B
102
{ACAD_REACTORS
330
A199
102
}
330
A199
100
AcDbXrecord
280
     1
270
     1
271
     1
  0
XRECORD
  5
A19A
102
{ACAD_REACTORS
330
A199
102
}
330
A199
100
AcDbXrecord
280
     1
270
     1
271
     1
  0
XRECORD
  5
A19E
102
{ACAD_REACTORS
330
A199
102
}
330
A199
100
AcDbXrecord
280
     1
270
     1
271
     1
  0
XRECORD
  5
A19D
102
{ACAD_REACTORS
330
A199
102
}
330
A199
100
AcDbXrecord
280
     1
270
     1
271
     1
  0
XRECORD
  5
A19F
102
{ACAD_REACTORS
330
A199
102
}
330
A199
100
AcDbXrecord
280
     1
270
     1
271
     1
  0
XRECORD
  5
A19C
102
{ACAD_REACTORS
330
A199
102
}
330
A199
100
AcDbXrecord
280
     1
270
     1
271
     1
  0
XRECORD
  5
A209
102
{ACAD_REACTORS
330
A1A9
102
}
330
A1A9
100
AcDbXrecord
280
     1
102
MATERIAL
148
0.0
149
0.0
149
0.0
 93
        0
 94
      127
282
     0
 72
     0
 77
     0
171
     0
175
     0
179
     0
273
     0
  0
XRECORD
  5
A1AB
102
{ACAD_REACTORS
330
A1A9
102
}
330
A1A9
100
AcDbXrecord
280
     1
270
     1
271
     1
  0
XRECORD
  5
A1AA
102
{ACAD_REACTORS
330
A1A9
102
}
330
A1A9
100
AcDbXrecord
280
     1
270
     1
271
     1
  0
XRECORD
  5
A1AE
102
{ACAD_REACTORS
330
A1A9
102
}
330
A1A9
100
AcDbXrecord
280
     1
270
     1
271
     1
  0
XRECORD
  5
A1AD
102
{ACAD_REACTORS
330
A1A9
102
}
330
A1A9
100
AcDbXrecord
280
     1
270
     1
271
     1
  0
XRECORD
  5
A1AF
102
{ACAD_REACTORS
330
A1A9
102
}
330
A1A9
100
AcDbXrecord
280
     1
270
     1
271
     1
  0
XRECORD
  5
A1AC
102
{ACAD_REACTORS
330
A1A9
102
}
330
A1A9
100
AcDbXrecord
280
     1
270
     1
271
     1
  0
XRECORD
  5
A23D
102
{ACAD_REACTORS
330
A23C
102
}
330
A23C
100
AcDbXrecord
280
     1
102
DISPLAYNAME
  1
Imperial24
102
FLAGS
 90
        0
  0
CELLSTYLEMAP
  5
A204
102
{ACAD_REACTORS
330
A203
102
}
330
A203
100
AcDbCellStyleMap
 90
        3
300
CELLSTYLE
  1
TABLEFORMAT_BEGIN
 90
        5
170
     1
 91
        0
 92
    32768
 62
   257
 93
        1
300
CONTENTFORMAT
  1
CONTENTFORMAT_BEGIN
 90
        0
 91
        0
 92
      512
 93
        0
300

 40
0.0
140
1.0
 94
        5
 62
     0
340
9E51
144
0.25
309
CONTENTFORMAT_END
171
     0
 94
        0
309
TABLEFORMAT_END
  1
CELLSTYLE_BEGIN
 90
        1
 91
        1
300
_TITLE
309
CELLSTYLE_END
300
CELLSTYLE
  1
TABLEFORMAT_BEGIN
 90
        5
170
     1
 91
        0
 92
        0
 62
   257
 93
        1
300
CONTENTFORMAT
  1
CONTENTFORMAT_BEGIN
 90
        0
 91
        0
 92
      512
 93
        0
300

 40
0.0
140
1.0
 94
        5
 62
     0
340
9E51
144
0.18
309
CONTENTFORMAT_END
171
     0
 94
        0
309
TABLEFORMAT_END
  1
CELLSTYLE_BEGIN
 90
        2
 91
        1
300
_HEADER
309
CELLSTYLE_END
300
CELLSTYLE
  1
TABLEFORMAT_BEGIN
 90
        5
170
     1
 91
        0
 92
        0
 62
   257
 93
        1
300
CONTENTFORMAT
  1
CONTENTFORMAT_BEGIN
 90
        0
 91
        0
 92
      512
 93
        0
300

 40
0.0
140
1.0
 94
        2
 62
     0
340
9E51
144
0.18
309
CONTENTFORMAT_END
171
     0
 94
        0
309
TABLEFORMAT_END
  1
CELLSTYLE_BEGIN
 90
        3
 91
        2
300
_DATA
309
CELLSTYLE_END
  0
XRECORD
  5
A23A
102
{ACAD_REACTORS
330
A203
102
}
330
A203
100
AcDbXrecord
280
     1
102
ACAD_ROUNDTRIP_PRE2007_TABLESTYLE
 90
      512
 91
        0
  1

 92
      512
 93
        0
  2

 94
      512
 95
        0
  3

  0
XRECORD
  5
A215
102
{ACAD_REACTORS
330
A214
102
}
330
A214
100
AcDbXrecord
280
     1
102
RTVSPost2010Prop28
280
     1
102
RTVSPost2010PropOp28
 70
     1
102
RTVSPost2010Prop29
280
     1
102
RTVSPost2010PropOp29
 70
     1
102
RTVSPost2010Prop30
280
     0
102
RTVSPost2010PropOp30
 70
     1
102
RTVSPost2010Prop31
280
     0
102
RTVSPost2010PropOp31
 70
     1
102
RTVSPost2010Prop32
280
     0
102
RTVSPost2010PropOp32
 70
     1
102
RTVSPost2010Prop33
280
     0
102
RTVSPost2010PropOp33
 70
     1
102
RTVSPost2010Prop34
280
     0
102
RTVSPost2010PropOp34
 70
     1
102
RTVSPost2010Prop35
280
     0
102
RTVSPost2010PropOp35
 70
     1
102
RTVSPost2010Prop36
280
     0
102
RTVSPost2010PropOp36
 70
     1
102
RTVSPost2010Prop37
 90
       50
102
RTVSPost2010PropOp37
 70
     1
102
RTVSPost2010Prop38
140
0.0
102
RTVSPost2010PropOp38
 70
     1
102
RTVSPost2010Prop39
140
1.0
102
RTVSPost2010PropOp39
 70
     1
102
RTVSPost2010Prop40
 90
        0
102
RTVSPost2010PropOp40
 70
     1
102
RTVSPost2010Prop41ColorIndex
 90
       18
102
RTVSPost2010Prop41ColorRGB
 90
        0
102
RTVSPost2010PropOp41
 70
     1
102
RTVSPost2010Prop42
 90
       50
102
RTVSPost2010PropOp42
 70
     1
102
RTVSPost2010Prop43
 90
        3
102
RTVSPost2010PropOp43
 70
     1
102
RTVSPost2010Prop44ColorIndex
 90
        5
102
RTVSPost2010Prop44ColorRGB
 90
      255
102
RTVSPost2010PropOp44
 70
     1
102
RTVSPost2010Prop45
280
     0
102
RTVSPost2010PropOp45
 70
     1
102
RTVSPost2010Prop46
 90
       50
102
RTVSPost2010PropOp46
 70
     1
102
RTVSPost2010Prop47
 90
       50
102
RTVSPost2010PropOp47
 70
     1
102
RTVSPost2010Prop48
 90
       50
102
RTVSPost2010PropOp48
 70
     1
102
RTVSPost2010Prop49
280
     0
102
RTVSPost2010PropOp49
 70
     1
102
RTVSPost2010Prop50
 90
       50
102
RTVSPost2010PropOp50
 70
     1
102
RTVSPost2010Prop51ColorIndex
 90
      256
102
RTVSPost2010Prop51ColorRGB
 90
-16777216
102
RTVSPost2010PropOp51
 70
     0
102
RTVSPost2010Prop52
140
1.0
102
RTVSPost2010PropOp52
 70
     0
102
RTVSPost2010Prop53
 90
        2
102
RTVSPost2010PropOp53
 70
     1
102
RTVSPost2010Prop54
  1
strokes_ogs.tif
102
RTVSPost2010PropOp54
 70
     1
102
RTVSPost2010Prop55
280
     0
102
RTVSPost2010PropOp55
 70
     1
102
RTVSPost2010Prop56
140
1.0
102
RTVSPost2010PropOp56
 70
     1
102
RTVSPost2010Prop57
140
1.0
102
RTVSPost2010PropOp57
 70
     1
102
RTVSPropertyOp0
 70
     1
102
RTVSPropertyOp1
 70
     1
102
RTVSPropertyOp2
 70
     1
102
RTVSPropertyOp3
 70
     1
102
RTVSPropertyOp4
 70
     1
102
RTVSPropertyOp5
 70
     1
102
RTVSPropertyOp6
 70
     1
102
RTVSPropertyOp7
 70
     1
102
RTVSPropertyOp8
 70
     1
102
RTVSPropertyOp9
 70
     1
102
RTVSPropertyOp10
 70
     1
102
RTVSPropertyOp11
 70
     1
102
RTVSPropertyOp12
 70
     1
102
RTVSPropertyOp13
 70
     1
102
RTVSPropertyOp14
 70
     1
102
RTVSPropertyOp15
 70
     1
102
RTVSPropertyOp16
 70
     1
102
RTVSPropertyOp17
 70
     1
102
RTVSPropertyOp18
 70
     1
102
RTVSPropertyOp19
 70
     1
102
RTVSPropertyOp20
 70
     1
102
RTVSPropertyOp21
 70
     1
102
RTVSPropertyOp22
 70
     1
102
RTVSPropertyOp23
 70
     1
102
RTVSPropertyOp24
 70
     1
102
RTVSPropertyOp25
 70
     1
102
RTVSPropertyOp26
 70
     1
102
RTVSPropertyOp27
 70
     1
102
RTVSPropertyOp28
 70
     1
102
RTVSPropertyOp29
 70
     1
102
RTVSPropertyOp30
 70
     1
102
RTVSPropertyOp31
 70
     1
102
RTVSPropertyOp32
 70
     1
102
RTVSPropertyOp33
 70
     1
102
RTVSPropertyOp34
 70
     1
102
RTVSPropertyOp35
 70
     1
102
RTVSPropertyOp36
 70
     1
102
RTVSPropertyOp37
 70
     1
102
RTVSPropertyOp38
 70
     1
102
RTVSPropertyOp39
 70
     1
102
RTVSPropertyOp40
 70
     1
102
RTVSPropertyOp41
 70
     1
102
RTVSPropertyOp42
 70
     1
102
RTVSPropertyOp43
 70
     1
102
RTVSPropertyOp44
 70
     1
102
RTVSPropertyOp45
 70
     1
102
RTVSPropertyOp46
 70
     1
102
RTVSPropertyOp47
 70
     1
102
RTVSPropertyOp48
 70
     1
102
RTVSPropertyOp49
 70
     1
102
RTVSPropertyOp50
 70
     1
102
RTVSPropertyOp51
 70
     0
102
RTVSPropertyOp52
 70
     0
102
RTVSPropertyOp53
 70
     1
102
RTVSPropertyOp54
 70
     1
102
RTVSPropertyOp55
 70
     1
102
RTVSPropertyOp56
 70
     1
102
RTVSPropertyOp57
 70
     1
102
RTVSPropertyOp58
 70
     1
102
RTVSPropertyOp59
 70
     1
102
RTVSPropertyOp60
 70
     1
102
RTVSPropertyOp61
 70
     1
102
RTVSPropertyOp62
 70
     1
  0
XRECORD
  5
A213
102
{ACAD_REACTORS
330
A212
102
}
330
A212
100
AcDbXrecord
280
     1
102
RTVSPost2010Prop28
280
     0
102
RTVSPost2010PropOp28
 70
     1
102
RTVSPost2010Prop29
280
     1
102
RTVSPost2010PropOp29
 70
     1
102
RTVSPost2010Prop30
280
     1
102
RTVSPost2010PropOp30
 70
     1
102
RTVSPost2010Prop31
280
     0
102
RTVSPost2010PropOp31
 70
     1
102
RTVSPost2010Prop32
280
     0
102
RTVSPost2010PropOp32
 70
     1
102
RTVSPost2010Prop33
280
     0
102
RTVSPost2010PropOp33
 70
     1
102
RTVSPost2010Prop34
280
     0
102
RTVSPost2010PropOp34
 70
     1
102
RTVSPost2010Prop35
280
     0
102
RTVSPost2010PropOp35
 70
     1
102
RTVSPost2010Prop36
280
     0
102
RTVSPost2010PropOp36
 70
     1
102
RTVSPost2010Prop37
 90
       50
102
RTVSPost2010PropOp37
 70
     1
102
RTVSPost2010Prop38
140
0.0
102
RTVSPost2010PropOp38
 70
     1
102
RTVSPost2010Prop39
140
1.0
102
RTVSPost2010PropOp39
 70
     1
102
RTVSPost2010Prop40
 90
        0
102
RTVSPost2010PropOp40
 70
     1
102
RTVSPost2010Prop41ColorIndex
 90
       18
102
RTVSPost2010Prop41ColorRGB
 90
        0
102
RTVSPost2010PropOp41
 70
     1
102
RTVSPost2010Prop42
 90
       50
102
RTVSPost2010PropOp42
 70
     1
102
RTVSPost2010Prop43
 90
        3
102
RTVSPost2010PropOp43
 70
     1
102
RTVSPost2010Prop44ColorIndex
 90
        5
102
RTVSPost2010Prop44ColorRGB
 90
      255
102
RTVSPost2010PropOp44
 70
     1
102
RTVSPost2010Prop45
280
     0
102
RTVSPost2010PropOp45
 70
     1
102
RTVSPost2010Prop46
 90
       50
102
RTVSPost2010PropOp46
 70
     1
102
RTVSPost2010Prop47
 90
       50
102
RTVSPost2010PropOp47
 70
     1
102
RTVSPost2010Prop48
 90
       50
102
RTVSPost2010PropOp48
 70
     1
102
RTVSPost2010Prop49
280
     0
102
RTVSPost2010PropOp49
 70
     1
102
RTVSPost2010Prop50
 90
       50
102
RTVSPost2010PropOp50
 70
     1
102
RTVSPost2010Prop51ColorIndex
 90
      256
102
RTVSPost2010Prop51ColorRGB
 90
-16777216
102
RTVSPost2010PropOp51
 70
     0
102
RTVSPost2010Prop52
140
1.0
102
RTVSPost2010PropOp52
 70
     0
102
RTVSPost2010Prop53
 90
        2
102
RTVSPost2010PropOp53
 70
     1
102
RTVSPost2010Prop54
  1
strokes_ogs.tif
102
RTVSPost2010PropOp54
 70
     1
102
RTVSPost2010Prop55
280
     0
102
RTVSPost2010PropOp55
 70
     1
102
RTVSPost2010Prop56
140
1.0
102
RTVSPost2010PropOp56
 70
     1
102
RTVSPost2010Prop57
140
1.0
102
RTVSPost2010PropOp57
 70
     1
102
RTVSPropertyOp0
 70
     1
102
RTVSPropertyOp1
 70
     1
102
RTVSPropertyOp2
 70
     1
102
RTVSPropertyOp3
 70
     1
102
RTVSPropertyOp4
 70
     1
102
RTVSPropertyOp5
 70
     1
102
RTVSPropertyOp6
 70
     1
102
RTVSPropertyOp7
 70
     1
102
RTVSPropertyOp8
 70
     1
102
RTVSPropertyOp9
 70
     1
102
RTVSPropertyOp10
 70
     1
102
RTVSPropertyOp11
 70
     1
102
RTVSPropertyOp12
 70
     1
102
RTVSPropertyOp13
 70
     1
102
RTVSPropertyOp14
 70
     1
102
RTVSPropertyOp15
 70
     1
102
RTVSPropertyOp16
 70
     1
102
RTVSPropertyOp17
 70
     1
102
RTVSPropertyOp18
 70
     1
102
RTVSPropertyOp19
 70
     1
102
RTVSPropertyOp20
 70
     1
102
RTVSPropertyOp21
 70
     1
102
RTVSPropertyOp22
 70
     1
102
RTVSPropertyOp23
 70
     1
102
RTVSPropertyOp24
 70
     1
102
RTVSPropertyOp25
 70
     1
102
RTVSPropertyOp26
 70
     1
102
RTVSPropertyOp27
 70
     1
102
RTVSPropertyOp28
 70
     1
102
RTVSPropertyOp29
 70
     1
102
RTVSPropertyOp30
 70
     1
102
RTVSPropertyOp31
 70
     1
102
RTVSPropertyOp32
 70
     1
102
RTVSPropertyOp33
 70
     1
102
RTVSPropertyOp34
 70
     1
102
RTVSPropertyOp35
 70
     1
102
RTVSPropertyOp36
 70
     1
102
RTVSPropertyOp37
 70
     1
102
RTVSPropertyOp38
 70
     1
102
RTVSPropertyOp39
 70
     1
102
RTVSPropertyOp40
 70
     1
102
RTVSPropertyOp41
 70
     1
102
RTVSPropertyOp42
 70
     1
102
RTVSPropertyOp43
 70
     1
102
RTVSPropertyOp44
 70
     1
102
RTVSPropertyOp45
 70
     1
102
RTVSPropertyOp46
 70
     1
102
RTVSPropertyOp47
 70
     1
102
RTVSPropertyOp48
 70
     1
102
RTVSPropertyOp49
 70
     1
102
RTVSPropertyOp50
 70
     1
102
RTVSPropertyOp51
 70
     0
102
RTVSPropertyOp52
 70
     0
102
RTVSPropertyOp53
 70
     1
102
RTVSPropertyOp54
 70
     1
102
RTVSPropertyOp55
 70
     1
102
RTVSPropertyOp56
 70
     1
102
RTVSPropertyOp57
 70
     1
102
RTVSPropertyOp58
 70
     1
102
RTVSPropertyOp59
 70
     1
102
RTVSPropertyOp60
 70
     1
102
RTVSPropertyOp61
 70
     1
102
RTVSPropertyOp62
 70
     1
  0
XRECORD
  5
A221
102
{ACAD_REACTORS
330
A220
102
}
330
A220
100
AcDbXrecord
280
     1
102
RTVSPost2010Prop28
280
     0
102
RTVSPost2010PropOp28
 70
     1
102
RTVSPost2010Prop29
280
     1
102
RTVSPost2010PropOp29
 70
     1
102
RTVSPost2010Prop30
280
     1
102
RTVSPost2010PropOp30
 70
     1
102
RTVSPost2010Prop31
280
     0
102
RTVSPost2010PropOp31
 70
     1
102
RTVSPost2010Prop32
280
     0
102
RTVSPost2010PropOp32
 70
     1
102
RTVSPost2010Prop33
280
     0
102
RTVSPost2010PropOp33
 70
     1
102
RTVSPost2010Prop34
280
     0
102
RTVSPost2010PropOp34
 70
     1
102
RTVSPost2010Prop35
280
     0
102
RTVSPost2010PropOp35
 70
     1
102
RTVSPost2010Prop36
280
     0
102
RTVSPost2010PropOp36
 70
     1
102
RTVSPost2010Prop37
 90
       50
102
RTVSPost2010PropOp37
 70
     1
102
RTVSPost2010Prop38
140
0.0
102
RTVSPost2010PropOp38
 70
     1
102
RTVSPost2010Prop39
140
1.0
102
RTVSPost2010PropOp39
 70
     1
102
RTVSPost2010Prop40
 90
        0
102
RTVSPost2010PropOp40
 70
     1
102
RTVSPost2010Prop41ColorIndex
 90
       18
102
RTVSPost2010Prop41ColorRGB
 90
        0
102
RTVSPost2010PropOp41
 70
     1
102
RTVSPost2010Prop42
 90
       50
102
RTVSPost2010PropOp42
 70
     1
102
RTVSPost2010Prop43
 90
        3
102
RTVSPost2010PropOp43
 70
     1
102
RTVSPost2010Prop44ColorIndex
 90
        5
102
RTVSPost2010Prop44ColorRGB
 90
      255
102
RTVSPost2010PropOp44
 70
     1
102
RTVSPost2010Prop45
280
     0
102
RTVSPost2010PropOp45
 70
     1
102
RTVSPost2010Prop46
 90
       50
102
RTVSPost2010PropOp46
 70
     1
102
RTVSPost2010Prop47
 90
       50
102
RTVSPost2010PropOp47
 70
     1
102
RTVSPost2010Prop48
 90
       50
102
RTVSPost2010PropOp48
 70
     1
102
RTVSPost2010Prop49
280
     0
102
RTVSPost2010PropOp49
 70
     1
102
RTVSPost2010Prop50
 90
       50
102
RTVSPost2010PropOp50
 70
     1
102
RTVSPost2010Prop51ColorIndex
 90
      256
102
RTVSPost2010Prop51ColorRGB
 90
-16777216
102
RTVSPost2010PropOp51
 70
     0
102
RTVSPost2010Prop52
140
1.0
102
RTVSPost2010PropOp52
 70
     0
102
RTVSPost2010Prop53
 90
        2
102
RTVSPost2010PropOp53
 70
     1
102
RTVSPost2010Prop54
  1
strokes_ogs.tif
102
RTVSPost2010PropOp54
 70
     1
102
RTVSPost2010Prop55
280
     0
102
RTVSPost2010PropOp55
 70
     1
102
RTVSPost2010Prop56
140
1.0
102
RTVSPost2010PropOp56
 70
     1
102
RTVSPost2010Prop57
140
1.0
102
RTVSPost2010PropOp57
 70
     1
102
RTVSPropertyOp0
 70
     1
102
RTVSPropertyOp1
 70
     1
102
RTVSPropertyOp2
 70
     1
102
RTVSPropertyOp3
 70
     1
102
RTVSPropertyOp4
 70
     1
102
RTVSPropertyOp5
 70
     1
102
RTVSPropertyOp6
 70
     1
102
RTVSPropertyOp7
 70
     1
102
RTVSPropertyOp8
 70
     1
102
RTVSPropertyOp9
 70
     1
102
RTVSPropertyOp10
 70
     1
102
RTVSPropertyOp11
 70
     1
102
RTVSPropertyOp12
 70
     1
102
RTVSPropertyOp13
 70
     1
102
RTVSPropertyOp14
 70
     1
102
RTVSPropertyOp15
 70
     1
102
RTVSPropertyOp16
 70
     1
102
RTVSPropertyOp17
 70
     1
102
RTVSPropertyOp18
 70
     1
102
RTVSPropertyOp19
 70
     1
102
RTVSPropertyOp20
 70
     1
102
RTVSPropertyOp21
 70
     1
102
RTVSPropertyOp22
 70
     1
102
RTVSPropertyOp23
 70
     1
102
RTVSPropertyOp24
 70
     1
102
RTVSPropertyOp25
 70
     1
102
RTVSPropertyOp26
 70
     1
102
RTVSPropertyOp27
 70
     1
102
RTVSPropertyOp28
 70
     1
102
RTVSPropertyOp29
 70
     1
102
RTVSPropertyOp30
 70
     1
102
RTVSPropertyOp31
 70
     1
102
RTVSPropertyOp32
 70
     1
102
RTVSPropertyOp33
 70
     1
102
RTVSPropertyOp34
 70
     1
102
RTVSPropertyOp35
 70
     1
102
RTVSPropertyOp36
 70
     1
102
RTVSPropertyOp37
 70
     1
102
RTVSPropertyOp38
 70
     1
102
RTVSPropertyOp39
 70
     1
102
RTVSPropertyOp40
 70
     1
102
RTVSPropertyOp41
 70
     1
102
RTVSPropertyOp42
 70
     1
102
RTVSPropertyOp43
 70
     1
102
RTVSPropertyOp44
 70
     1
102
RTVSPropertyOp45
 70
     1
102
RTVSPropertyOp46
 70
     1
102
RTVSPropertyOp47
 70
     1
102
RTVSPropertyOp48
 70
     1
102
RTVSPropertyOp49
 70
     1
102
RTVSPropertyOp50
 70
     1
102
RTVSPropertyOp51
 70
     0
102
RTVSPropertyOp52
 70
     0
102
RTVSPropertyOp53
 70
     1
102
RTVSPropertyOp54
 70
     1
102
RTVSPropertyOp55
 70
     1
102
RTVSPropertyOp56
 70
     1
102
RTVSPropertyOp57
 70
     1
102
RTVSPropertyOp58
 70
     1
102
RTVSPropertyOp59
 70
     1
102
RTVSPropertyOp60
 70
     1
102
RTVSPropertyOp61
 70
     1
102
RTVSPropertyOp62
 70
     1
  0
XRECORD
  5
A229
102
{ACAD_REACTORS
330
A228
102
}
330
A228
100
AcDbXrecord
280
     1
102
RTVSPost2010Prop28
280
     0
102
RTVSPost2010PropOp28
 70
     1
102
RTVSPost2010Prop29
280
     1
102
RTVSPost2010PropOp29
 70
     1
102
RTVSPost2010Prop30
280
     1
102
RTVSPost2010PropOp30
 70
     1
102
RTVSPost2010Prop31
280
     0
102
RTVSPost2010PropOp31
 70
     1
102
RTVSPost2010Prop32
280
     0
102
RTVSPost2010PropOp32
 70
     1
102
RTVSPost2010Prop33
280
     0
102
RTVSPost2010PropOp33
 70
     1
102
RTVSPost2010Prop34
280
     0
102
RTVSPost2010PropOp34
 70
     1
102
RTVSPost2010Prop35
280
     0
102
RTVSPost2010PropOp35
 70
     1
102
RTVSPost2010Prop36
280
     0
102
RTVSPost2010PropOp36
 70
     1
102
RTVSPost2010Prop37
 90
       50
102
RTVSPost2010PropOp37
 70
     1
102
RTVSPost2010Prop38
140
0.0
102
RTVSPost2010PropOp38
 70
     1
102
RTVSPost2010Prop39
140
1.0
102
RTVSPost2010PropOp39
 70
     1
102
RTVSPost2010Prop40
 90
        0
102
RTVSPost2010PropOp40
 70
     1
102
RTVSPost2010Prop41ColorIndex
 90
       18
102
RTVSPost2010Prop41ColorRGB
 90
        0
102
RTVSPost2010PropOp41
 70
     1
102
RTVSPost2010Prop42
 90
       50
102
RTVSPost2010PropOp42
 70
     1
102
RTVSPost2010Prop43
 90
        3
102
RTVSPost2010PropOp43
 70
     1
102
RTVSPost2010Prop44ColorIndex
 90
        5
102
RTVSPost2010Prop44ColorRGB
 90
      255
102
RTVSPost2010PropOp44
 70
     1
102
RTVSPost2010Prop45
280
     0
102
RTVSPost2010PropOp45
 70
     1
102
RTVSPost2010Prop46
 90
       50
102
RTVSPost2010PropOp46
 70
     1
102
RTVSPost2010Prop47
 90
       50
102
RTVSPost2010PropOp47
 70
     1
102
RTVSPost2010Prop48
 90
       50
102
RTVSPost2010PropOp48
 70
     1
102
RTVSPost2010Prop49
280
     0
102
RTVSPost2010PropOp49
 70
     1
102
RTVSPost2010Prop50
 90
       50
102
RTVSPost2010PropOp50
 70
     1
102
RTVSPost2010Prop51ColorIndex
 90
      256
102
RTVSPost2010Prop51ColorRGB
 90
-16777216
102
RTVSPost2010PropOp51
 70
     0
102
RTVSPost2010Prop52
140
1.0
102
RTVSPost2010PropOp52
 70
     0
102
RTVSPost2010Prop53
 90
        2
102
RTVSPost2010PropOp53
 70
     1
102
RTVSPost2010Prop54
  1
strokes_ogs.tif
102
RTVSPost2010PropOp54
 70
     1
102
RTVSPost2010Prop55
280
     0
102
RTVSPost2010PropOp55
 70
     1
102
RTVSPost2010Prop56
140
1.0
102
RTVSPost2010PropOp56
 70
     1
102
RTVSPost2010Prop57
140
1.0
102
RTVSPost2010PropOp57
 70
     1
102
RTVSPropertyOp0
 70
     1
102
RTVSPropertyOp1
 70
     1
102
RTVSPropertyOp2
 70
     1
102
RTVSPropertyOp3
 70
     1
102
RTVSPropertyOp4
 70
     1
102
RTVSPropertyOp5
 70
     1
102
RTVSPropertyOp6
 70
     1
102
RTVSPropertyOp7
 70
     1
102
RTVSPropertyOp8
 70
     1
102
RTVSPropertyOp9
 70
     1
102
RTVSPropertyOp10
 70
     1
102
RTVSPropertyOp11
 70
     1
102
RTVSPropertyOp12
 70
     1
102
RTVSPropertyOp13
 70
     1
102
RTVSPropertyOp14
 70
     1
102
RTVSPropertyOp15
 70
     1
102
RTVSPropertyOp16
 70
     1
102
RTVSPropertyOp17
 70
     1
102
RTVSPropertyOp18
 70
     1
102
RTVSPropertyOp19
 70
     1
102
RTVSPropertyOp20
 70
     1
102
RTVSPropertyOp21
 70
     1
102
RTVSPropertyOp22
 70
     1
102
RTVSPropertyOp23
 70
     1
102
RTVSPropertyOp24
 70
     1
102
RTVSPropertyOp25
 70
     1
102
RTVSPropertyOp26
 70
     1
102
RTVSPropertyOp27
 70
     1
102
RTVSPropertyOp28
 70
     1
102
RTVSPropertyOp29
 70
     1
102
RTVSPropertyOp30
 70
     1
102
RTVSPropertyOp31
 70
     1
102
RTVSPropertyOp32
 70
     1
102
RTVSPropertyOp33
 70
     1
102
RTVSPropertyOp34
 70
     1
102
RTVSPropertyOp35
 70
     1
102
RTVSPropertyOp36
 70
     1
102
RTVSPropertyOp37
 70
     1
102
RTVSPropertyOp38
 70
     1
102
RTVSPropertyOp39
 70
     1
102
RTVSPropertyOp40
 70
     1
102
RTVSPropertyOp41
 70
     1
102
RTVSPropertyOp42
 70
     1
102
RTVSPropertyOp43
 70
     1
102
RTVSPropertyOp44
 70
     1
102
RTVSPropertyOp45
 70
     1
102
RTVSPropertyOp46
 70
     1
102
RTVSPropertyOp47
 70
     1
102
RTVSPropertyOp48
 70
     1
102
RTVSPropertyOp49
 70
     1
102
RTVSPropertyOp50
 70
     1
102
RTVSPropertyOp51
 70
     0
102
RTVSPropertyOp52
 70
     0
102
RTVSPropertyOp53
 70
     1
102
RTVSPropertyOp54
 70
     1
102
RTVSPropertyOp55
 70
     1
102
RTVSPropertyOp56
 70
     1
102
RTVSPropertyOp57
 70
     1
102
RTVSPropertyOp58
 70
     1
102
RTVSPropertyOp59
 70
     1
102
RTVSPropertyOp60
 70
     1
102
RTVSPropertyOp61
 70
     1
102
RTVSPropertyOp62
 70
     1
  0
XRECORD
  5
A21B
102
{ACAD_REACTORS
330
A21A
102
}
330
A21A
100
AcDbXrecord
280
     1
102
RTVSPost2010Prop28
280
     0
102
RTVSPost2010PropOp28
 70
     1
102
RTVSPost2010Prop29
280
     1
102
RTVSPost2010PropOp29
 70
     1
102
RTVSPost2010Prop30
280
     1
102
RTVSPost2010PropOp30
 70
     1
102
RTVSPost2010Prop31
280
     0
102
RTVSPost2010PropOp31
 70
     1
102
RTVSPost2010Prop32
280
     0
102
RTVSPost2010PropOp32
 70
     1
102
RTVSPost2010Prop33
280
     0
102
RTVSPost2010PropOp33
 70
     1
102
RTVSPost2010Prop34
280
     0
102
RTVSPost2010PropOp34
 70
     1
102
RTVSPost2010Prop35
280
     0
102
RTVSPost2010PropOp35
 70
     1
102
RTVSPost2010Prop36
280
     0
102
RTVSPost2010PropOp36
 70
     1
102
RTVSPost2010Prop37
 90
       50
102
RTVSPost2010PropOp37
 70
     1
102
RTVSPost2010Prop38
140
0.0
102
RTVSPost2010PropOp38
 70
     1
102
RTVSPost2010Prop39
140
1.0
102
RTVSPost2010PropOp39
 70
     1
102
RTVSPost2010Prop40
 90
        0
102
RTVSPost2010PropOp40
 70
     1
102
RTVSPost2010Prop41ColorIndex
 90
       18
102
RTVSPost2010Prop41ColorRGB
 90
        0
102
RTVSPost2010PropOp41
 70
     1
102
RTVSPost2010Prop42
 90
       50
102
RTVSPost2010PropOp42
 70
     1
102
RTVSPost2010Prop43
 90
        3
102
RTVSPost2010PropOp43
 70
     1
102
RTVSPost2010Prop44ColorIndex
 90
        5
102
RTVSPost2010Prop44ColorRGB
 90
      255
102
RTVSPost2010PropOp44
 70
     1
102
RTVSPost2010Prop45
280
     0
102
RTVSPost2010PropOp45
 70
     1
102
RTVSPost2010Prop46
 90
       50
102
RTVSPost2010PropOp46
 70
     1
102
RTVSPost2010Prop47
 90
       50
102
RTVSPost2010PropOp47
 70
     1
102
RTVSPost2010Prop48
 90
       50
102
RTVSPost2010PropOp48
 70
     1
102
RTVSPost2010Prop49
280
     0
102
RTVSPost2010PropOp49
 70
     1
102
RTVSPost2010Prop50
 90
       50
102
RTVSPost2010PropOp50
 70
     1
102
RTVSPost2010Prop51ColorIndex
 90
      256
102
RTVSPost2010Prop51ColorRGB
 90
-16777216
102
RTVSPost2010PropOp51
 70
     0
102
RTVSPost2010Prop52
140
1.0
102
RTVSPost2010PropOp52
 70
     0
102
RTVSPost2010Prop53
 90
        2
102
RTVSPost2010PropOp53
 70
     1
102
RTVSPost2010Prop54
  1
strokes_ogs.tif
102
RTVSPost2010PropOp54
 70
     1
102
RTVSPost2010Prop55
280
     0
102
RTVSPost2010PropOp55
 70
     1
102
RTVSPost2010Prop56
140
1.0
102
RTVSPost2010PropOp56
 70
     1
102
RTVSPost2010Prop57
140
1.0
102
RTVSPost2010PropOp57
 70
     1
102
RTVSPropertyOp0
 70
     1
102
RTVSPropertyOp1
 70
     1
102
RTVSPropertyOp2
 70
     1
102
RTVSPropertyOp3
 70
     1
102
RTVSPropertyOp4
 70
     1
102
RTVSPropertyOp5
 70
     1
102
RTVSPropertyOp6
 70
     1
102
RTVSPropertyOp7
 70
     1
102
RTVSPropertyOp8
 70
     1
102
RTVSPropertyOp9
 70
     1
102
RTVSPropertyOp10
 70
     1
102
RTVSPropertyOp11
 70
     1
102
RTVSPropertyOp12
 70
     1
102
RTVSPropertyOp13
 70
     1
102
RTVSPropertyOp14
 70
     1
102
RTVSPropertyOp15
 70
     1
102
RTVSPropertyOp16
 70
     1
102
RTVSPropertyOp17
 70
     1
102
RTVSPropertyOp18
 70
     1
102
RTVSPropertyOp19
 70
     1
102
RTVSPropertyOp20
 70
     1
102
RTVSPropertyOp21
 70
     1
102
RTVSPropertyOp22
 70
     1
102
RTVSPropertyOp23
 70
     1
102
RTVSPropertyOp24
 70
     1
102
RTVSPropertyOp25
 70
     1
102
RTVSPropertyOp26
 70
     1
102
RTVSPropertyOp27
 70
     1
102
RTVSPropertyOp28
 70
     1
102
RTVSPropertyOp29
 70
     1
102
RTVSPropertyOp30
 70
     1
102
RTVSPropertyOp31
 70
     1
102
RTVSPropertyOp32
 70
     1
102
RTVSPropertyOp33
 70
     1
102
RTVSPropertyOp34
 70
     1
102
RTVSPropertyOp35
 70
     1
102
RTVSPropertyOp36
 70
     1
102
RTVSPropertyOp37
 70
     1
102
RTVSPropertyOp38
 70
     1
102
RTVSPropertyOp39
 70
     1
102
RTVSPropertyOp40
 70
     1
102
RTVSPropertyOp41
 70
     1
102
RTVSPropertyOp42
 70
     1
102
RTVSPropertyOp43
 70
     1
102
RTVSPropertyOp44
 70
     1
102
RTVSPropertyOp45
 70
     1
102
RTVSPropertyOp46
 70
     1
102
RTVSPropertyOp47
 70
     1
102
RTVSPropertyOp48
 70
     1
102
RTVSPropertyOp49
 70
     1
102
RTVSPropertyOp50
 70
     1
102
RTVSPropertyOp51
 70
     0
102
RTVSPropertyOp52
 70
     0
102
RTVSPropertyOp53
 70
     1
102
RTVSPropertyOp54
 70
     1
102
RTVSPropertyOp55
 70
     1
102
RTVSPropertyOp56
 70
     1
102
RTVSPropertyOp57
 70
     1
102
RTVSPropertyOp58
 70
     1
102
RTVSPropertyOp59
 70
     1
102
RTVSPropertyOp60
 70
     1
102
RTVSPropertyOp61
 70
     1
102
RTVSPropertyOp62
 70
     1
  0
XRECORD
  5
A21F
102
{ACAD_REACTORS
330
A21E
102
}
330
A21E
100
AcDbXrecord
280
     1
102
RTVSPost2010Prop28
280
     0
102
RTVSPost2010PropOp28
 70
     1
102
RTVSPost2010Prop29
280
     1
102
RTVSPost2010PropOp29
 70
     1
102
RTVSPost2010Prop30
280
     1
102
RTVSPost2010PropOp30
 70
     1
102
RTVSPost2010Prop31
280
     0
102
RTVSPost2010PropOp31
 70
     1
102
RTVSPost2010Prop32
280
     0
102
RTVSPost2010PropOp32
 70
     1
102
RTVSPost2010Prop33
280
     0
102
RTVSPost2010PropOp33
 70
     1
102
RTVSPost2010Prop34
280
     0
102
RTVSPost2010PropOp34
 70
     1
102
RTVSPost2010Prop35
280
     0
102
RTVSPost2010PropOp35
 70
     1
102
RTVSPost2010Prop36
280
     0
102
RTVSPost2010PropOp36
 70
     1
102
RTVSPost2010Prop37
 90
       50
102
RTVSPost2010PropOp37
 70
     1
102
RTVSPost2010Prop38
140
0.0
102
RTVSPost2010PropOp38
 70
     1
102
RTVSPost2010Prop39
140
1.0
102
RTVSPost2010PropOp39
 70
     1
102
RTVSPost2010Prop40
 90
        0
102
RTVSPost2010PropOp40
 70
     1
102
RTVSPost2010Prop41ColorIndex
 90
       18
102
RTVSPost2010Prop41ColorRGB
 90
        0
102
RTVSPost2010PropOp41
 70
     1
102
RTVSPost2010Prop42
 90
       50
102
RTVSPost2010PropOp42
 70
     1
102
RTVSPost2010Prop43
 90
        3
102
RTVSPost2010PropOp43
 70
     1
102
RTVSPost2010Prop44ColorIndex
 90
        5
102
RTVSPost2010Prop44ColorRGB
 90
      255
102
RTVSPost2010PropOp44
 70
     1
102
RTVSPost2010Prop45
280
     0
102
RTVSPost2010PropOp45
 70
     1
102
RTVSPost2010Prop46
 90
       50
102
RTVSPost2010PropOp46
 70
     1
102
RTVSPost2010Prop47
 90
       50
102
RTVSPost2010PropOp47
 70
     1
102
RTVSPost2010Prop48
 90
       50
102
RTVSPost2010PropOp48
 70
     1
102
RTVSPost2010Prop49
280
     0
102
RTVSPost2010PropOp49
 70
     1
102
RTVSPost2010Prop50
 90
       50
102
RTVSPost2010PropOp50
 70
     1
102
RTVSPost2010Prop51ColorIndex
 90
      256
102
RTVSPost2010Prop51ColorRGB
 90
-16777216
102
RTVSPost2010PropOp51
 70
     0
102
RTVSPost2010Prop52
140
1.0
102
RTVSPost2010PropOp52
 70
     0
102
RTVSPost2010Prop53
 90
        2
102
RTVSPost2010PropOp53
 70
     1
102
RTVSPost2010Prop54
  1
strokes_ogs.tif
102
RTVSPost2010PropOp54
 70
     1
102
RTVSPost2010Prop55
280
     0
102
RTVSPost2010PropOp55
 70
     1
102
RTVSPost2010Prop56
140
1.0
102
RTVSPost2010PropOp56
 70
     1
102
RTVSPost2010Prop57
140
1.0
102
RTVSPost2010PropOp57
 70
     1
102
RTVSPropertyOp0
 70
     1
102
RTVSPropertyOp1
 70
     1
102
RTVSPropertyOp2
 70
     1
102
RTVSPropertyOp3
 70
     1
102
RTVSPropertyOp4
 70
     1
102
RTVSPropertyOp5
 70
     1
102
RTVSPropertyOp6
 70
     1
102
RTVSPropertyOp7
 70
     1
102
RTVSPropertyOp8
 70
     1
102
RTVSPropertyOp9
 70
     1
102
RTVSPropertyOp10
 70
     1
102
RTVSPropertyOp11
 70
     1
102
RTVSPropertyOp12
 70
     1
102
RTVSPropertyOp13
 70
     1
102
RTVSPropertyOp14
 70
     1
102
RTVSPropertyOp15
 70
     1
102
RTVSPropertyOp16
 70
     1
102
RTVSPropertyOp17
 70
     1
102
RTVSPropertyOp18
 70
     1
102
RTVSPropertyOp19
 70
     1
102
RTVSPropertyOp20
 70
     1
102
RTVSPropertyOp21
 70
     1
102
RTVSPropertyOp22
 70
     1
102
RTVSPropertyOp23
 70
     1
102
RTVSPropertyOp24
 70
     1
102
RTVSPropertyOp25
 70
     1
102
RTVSPropertyOp26
 70
     1
102
RTVSPropertyOp27
 70
     1
102
RTVSPropertyOp28
 70
     1
102
RTVSPropertyOp29
 70
     1
102
RTVSPropertyOp30
 70
     1
102
RTVSPropertyOp31
 70
     1
102
RTVSPropertyOp32
 70
     1
102
RTVSPropertyOp33
 70
     1
102
RTVSPropertyOp34
 70
     1
102
RTVSPropertyOp35
 70
     1
102
RTVSPropertyOp36
 70
     1
102
RTVSPropertyOp37
 70
     1
102
RTVSPropertyOp38
 70
     1
102
RTVSPropertyOp39
 70
     1
102
RTVSPropertyOp40
 70
     1
102
RTVSPropertyOp41
 70
     1
102
RTVSPropertyOp42
 70
     1
102
RTVSPropertyOp43
 70
     1
102
RTVSPropertyOp44
 70
     1
102
RTVSPropertyOp45
 70
     1
102
RTVSPropertyOp46
 70
     1
102
RTVSPropertyOp47
 70
     1
102
RTVSPropertyOp48
 70
     1
102
RTVSPropertyOp49
 70
     1
102
RTVSPropertyOp50
 70
     1
102
RTVSPropertyOp51
 70
     0
102
RTVSPropertyOp52
 70
     0
102
RTVSPropertyOp53
 70
     1
102
RTVSPropertyOp54
 70
     1
102
RTVSPropertyOp55
 70
     1
102
RTVSPropertyOp56
 70
     1
102
RTVSPropertyOp57
 70
     1
102
RTVSPropertyOp58
 70
     1
102
RTVSPropertyOp59
 70
     1
102
RTVSPropertyOp60
 70
     1
102
RTVSPropertyOp61
 70
     1
102
RTVSPropertyOp62
 70
     1
  0
XRECORD
  5
A239
102
{ACAD_REACTORS
330
A238
102
}
330
A238
100
AcDbXrecord
280
     1
102
RTVSPost2010Prop28
280
     0
102
RTVSPost2010PropOp28
 70
     1
102
RTVSPost2010Prop29
280
     1
102
RTVSPost2010PropOp29
 70
     1
102
RTVSPost2010Prop30
280
     1
102
RTVSPost2010PropOp30
 70
     1
102
RTVSPost2010Prop31
280
     0
102
RTVSPost2010PropOp31
 70
     1
102
RTVSPost2010Prop32
280
     0
102
RTVSPost2010PropOp32
 70
     1
102
RTVSPost2010Prop33
280
     0
102
RTVSPost2010PropOp33
 70
     1
102
RTVSPost2010Prop34
280
     0
102
RTVSPost2010PropOp34
 70
     1
102
RTVSPost2010Prop35
280
     0
102
RTVSPost2010PropOp35
 70
     1
102
RTVSPost2010Prop36
280
     0
102
RTVSPost2010PropOp36
 70
     1
102
RTVSPost2010Prop37
 90
       50
102
RTVSPost2010PropOp37
 70
     0
102
RTVSPost2010Prop38
140
0.0
102
RTVSPost2010PropOp38
 70
     0
102
RTVSPost2010Prop39
140
1.0
102
RTVSPost2010PropOp39
 70
     0
102
RTVSPost2010Prop40
 90
        0
102
RTVSPost2010PropOp40
 70
     0
102
RTVSPost2010Prop41ColorIndex
 90
       18
102
RTVSPost2010Prop41ColorRGB
 90
        0
102
RTVSPost2010PropOp41
 70
     0
102
RTVSPost2010Prop42
 90
       50
102
RTVSPost2010PropOp42
 70
     0
102
RTVSPost2010Prop43
 90
        3
102
RTVSPost2010PropOp43
 70
     0
102
RTVSPost2010Prop44ColorIndex
 90
        5
102
RTVSPost2010Prop44ColorRGB
 90
      255
102
RTVSPost2010PropOp44
 70
     0
102
RTVSPost2010Prop45
280
     0
102
RTVSPost2010PropOp45
 70
     1
102
RTVSPost2010Prop46
 90
       50
102
RTVSPost2010PropOp46
 70
     0
102
RTVSPost2010Prop47
 90
       50
102
RTVSPost2010PropOp47
 70
     0
102
RTVSPost2010Prop48
 90
       50
102
RTVSPost2010PropOp48
 70
     0
102
RTVSPost2010Prop49
280
     0
102
RTVSPost2010PropOp49
 70
     1
102
RTVSPost2010Prop50
 90
       50
102
RTVSPost2010PropOp50
 70
     0
102
RTVSPost2010Prop51ColorIndex
 90
      256
102
RTVSPost2010Prop51ColorRGB
 90
-16777216
102
RTVSPost2010PropOp51
 70
     0
102
RTVSPost2010Prop52
140
1.0
102
RTVSPost2010PropOp52
 70
     0
102
RTVSPost2010Prop53
 90
        2
102
RTVSPost2010PropOp53
 70
     0
102
RTVSPost2010Prop54
  1
strokes_ogs.tif
102
RTVSPost2010PropOp54
 70
     0
102
RTVSPost2010Prop55
280
     0
102
RTVSPost2010PropOp55
 70
     1
102
RTVSPost2010Prop56
140
1.0
102
RTVSPost2010PropOp56
 70
     0
102
RTVSPost2010Prop57
140
1.0
102
RTVSPost2010PropOp57
 70
     0
102
RTVSPropertyOp0
 70
     0
102
RTVSPropertyOp1
 70
     0
102
RTVSPropertyOp2
 70
     0
102
RTVSPropertyOp3
 70
     0
102
RTVSPropertyOp4
 70
     0
102
RTVSPropertyOp5
 70
     0
102
RTVSPropertyOp6
 70
     0
102
RTVSPropertyOp7
 70
     0
102
RTVSPropertyOp8
 70
     0
102
RTVSPropertyOp9
 70
     0
102
RTVSPropertyOp10
 70
     0
102
RTVSPropertyOp11
 70
     0
102
RTVSPropertyOp12
 70
     0
102
RTVSPropertyOp13
 70
     0
102
RTVSPropertyOp14
 70
     2
102
RTVSPropertyOp15
 70
     0
102
RTVSPropertyOp16
 70
     0
102
RTVSPropertyOp17
 70
     0
102
RTVSPropertyOp18
 70
     0
102
RTVSPropertyOp19
 70
     0
102
RTVSPropertyOp20
 70
     0
102
RTVSPropertyOp21
 70
     0
102
RTVSPropertyOp22
 70
     0
102
RTVSPropertyOp23
 70
     0
102
RTVSPropertyOp24
 70
     0
102
RTVSPropertyOp25
 70
     0
102
RTVSPropertyOp26
 70
     0
102
RTVSPropertyOp27
 70
     0
102
RTVSPropertyOp28
 70
     1
102
RTVSPropertyOp29
 70
     1
102
RTVSPropertyOp30
 70
     1
102
RTVSPropertyOp31
 70
     1
102
RTVSPropertyOp32
 70
     1
102
RTVSPropertyOp33
 70
     1
102
RTVSPropertyOp34
 70
     1
102
RTVSPropertyOp35
 70
     1
102
RTVSPropertyOp36
 70
     1
102
RTVSPropertyOp37
 70
     0
102
RTVSPropertyOp38
 70
     0
102
RTVSPropertyOp39
 70
     0
102
RTVSPropertyOp40
 70
     0
102
RTVSPropertyOp41
 70
     0
102
RTVSPropertyOp42
 70
     0
102
RTVSPropertyOp43
 70
     0
102
RTVSPropertyOp44
 70
     0
102
RTVSPropertyOp45
 70
     1
102
RTVSPropertyOp46
 70
     0
102
RTVSPropertyOp47
 70
     0
102
RTVSPropertyOp48
 70
     0
102
RTVSPropertyOp49
 70
     1
102
RTVSPropertyOp50
 70
     0
102
RTVSPropertyOp51
 70
     0
102
RTVSPropertyOp52
 70
     0
102
RTVSPropertyOp53
 70
     0
102
RTVSPropertyOp54
 70
     0
102
RTVSPropertyOp55
 70
     1
102
RTVSPropertyOp56
 70
     0
102
RTVSPropertyOp57
 70
     0
102
RTVSPropertyOp58
 70
     0
102
RTVSPropertyOp59
 70
     0
102
RTVSPropertyOp60
 70
     0
102
RTVSPropertyOp61
 70
     0
102
RTVSPropertyOp62
 70
     0
  0
XRECORD
  5
A227
102
{ACAD_REACTORS
330
A226
102
}
330
A226
100
AcDbXrecord
280
     1
102
RTVSPost2010Prop28
280
     0
102
RTVSPost2010PropOp28
 70
     1
102
RTVSPost2010Prop29
280
     1
102
RTVSPost2010PropOp29
 70
     1
102
RTVSPost2010Prop30
280
     1
102
RTVSPost2010PropOp30
 70
     1
102
RTVSPost2010Prop31
280
     0
102
RTVSPost2010PropOp31
 70
     1
102
RTVSPost2010Prop32
280
     0
102
RTVSPost2010PropOp32
 70
     1
102
RTVSPost2010Prop33
280
     0
102
RTVSPost2010PropOp33
 70
     1
102
RTVSPost2010Prop34
280
     0
102
RTVSPost2010PropOp34
 70
     1
102
RTVSPost2010Prop35
280
     0
102
RTVSPost2010PropOp35
 70
     1
102
RTVSPost2010Prop36
280
     0
102
RTVSPost2010PropOp36
 70
     1
102
RTVSPost2010Prop37
 90
       50
102
RTVSPost2010PropOp37
 70
     1
102
RTVSPost2010Prop38
140
0.0
102
RTVSPost2010PropOp38
 70
     1
102
RTVSPost2010Prop39
140
1.0
102
RTVSPost2010PropOp39
 70
     1
102
RTVSPost2010Prop40
 90
        0
102
RTVSPost2010PropOp40
 70
     1
102
RTVSPost2010Prop41ColorIndex
 90
       18
102
RTVSPost2010Prop41ColorRGB
 90
        0
102
RTVSPost2010PropOp41
 70
     1
102
RTVSPost2010Prop42
 90
       50
102
RTVSPost2010PropOp42
 70
     1
102
RTVSPost2010Prop43
 90
        3
102
RTVSPost2010PropOp43
 70
     1
102
RTVSPost2010Prop44ColorIndex
 90
        5
102
RTVSPost2010Prop44ColorRGB
 90
      255
102
RTVSPost2010PropOp44
 70
     1
102
RTVSPost2010Prop45
280
     0
102
RTVSPost2010PropOp45
 70
     1
102
RTVSPost2010Prop46
 90
       50
102
RTVSPost2010PropOp46
 70
     1
102
RTVSPost2010Prop47
 90
       50
102
RTVSPost2010PropOp47
 70
     1
102
RTVSPost2010Prop48
 90
       50
102
RTVSPost2010PropOp48
 70
     1
102
RTVSPost2010Prop49
280
     0
102
RTVSPost2010PropOp49
 70
     1
102
RTVSPost2010Prop50
 90
       50
102
RTVSPost2010PropOp50
 70
     1
102
RTVSPost2010Prop51ColorIndex
 90
      256
102
RTVSPost2010Prop51ColorRGB
 90
-16777216
102
RTVSPost2010PropOp51
 70
     0
102
RTVSPost2010Prop52
140
1.0
102
RTVSPost2010PropOp52
 70
     0
102
RTVSPost2010Prop53
 90
        2
102
RTVSPost2010PropOp53
 70
     1
102
RTVSPost2010Prop54
  1
strokes_ogs.tif
102
RTVSPost2010PropOp54
 70
     1
102
RTVSPost2010Prop55
280
     0
102
RTVSPost2010PropOp55
 70
     1
102
RTVSPost2010Prop56
140
1.0
102
RTVSPost2010PropOp56
 70
     1
102
RTVSPost2010Prop57
140
1.0
102
RTVSPost2010PropOp57
 70
     1
102
RTVSPropertyOp0
 70
     1
102
RTVSPropertyOp1
 70
     1
102
RTVSPropertyOp2
 70
     1
102
RTVSPropertyOp3
 70
     1
102
RTVSPropertyOp4
 70
     1
102
RTVSPropertyOp5
 70
     1
102
RTVSPropertyOp6
 70
     1
102
RTVSPropertyOp7
 70
     1
102
RTVSPropertyOp8
 70
     1
102
RTVSPropertyOp9
 70
     1
102
RTVSPropertyOp10
 70
     1
102
RTVSPropertyOp11
 70
     1
102
RTVSPropertyOp12
 70
     1
102
RTVSPropertyOp13
 70
     1
102
RTVSPropertyOp14
 70
     1
102
RTVSPropertyOp15
 70
     1
102
RTVSPropertyOp16
 70
     1
102
RTVSPropertyOp17
 70
     1
102
RTVSPropertyOp18
 70
     1
102
RTVSPropertyOp19
 70
     1
102
RTVSPropertyOp20
 70
     1
102
RTVSPropertyOp21
 70
     1
102
RTVSPropertyOp22
 70
     1
102
RTVSPropertyOp23
 70
     1
102
RTVSPropertyOp24
 70
     1
102
RTVSPropertyOp25
 70
     1
102
RTVSPropertyOp26
 70
     1
102
RTVSPropertyOp27
 70
     1
102
RTVSPropertyOp28
 70
     1
102
RTVSPropertyOp29
 70
     1
102
RTVSPropertyOp30
 70
     1
102
RTVSPropertyOp31
 70
     1
102
RTVSPropertyOp32
 70
     1
102
RTVSPropertyOp33
 70
     1
102
RTVSPropertyOp34
 70
     1
102
RTVSPropertyOp35
 70
     1
102
RTVSPropertyOp36
 70
     1
102
RTVSPropertyOp37
 70
     1
102
RTVSPropertyOp38
 70
     1
102
RTVSPropertyOp39
 70
     1
102
RTVSPropertyOp40
 70
     1
102
RTVSPropertyOp41
 70
     1
102
RTVSPropertyOp42
 70
     1
102
RTVSPropertyOp43
 70
     1
102
RTVSPropertyOp44
 70
     1
102
RTVSPropertyOp45
 70
     1
102
RTVSPropertyOp46
 70
     1
102
RTVSPropertyOp47
 70
     1
102
RTVSPropertyOp48
 70
     1
102
RTVSPropertyOp49
 70
     1
102
RTVSPropertyOp50
 70
     1
102
RTVSPropertyOp51
 70
     0
102
RTVSPropertyOp52
 70
     0
102
RTVSPropertyOp53
 70
     1
102
RTVSPropertyOp54
 70
     1
102
RTVSPropertyOp55
 70
     1
102
RTVSPropertyOp56
 70
     1
102
RTVSPropertyOp57
 70
     1
102
RTVSPropertyOp58
 70
     1
102
RTVSPropertyOp59
 70
     1
102
RTVSPropertyOp60
 70
     1
102
RTVSPropertyOp61
 70
     1
102
RTVSPropertyOp62
 70
     1
  0
XRECORD
  5
A20B
102
{ACAD_REACTORS
330
A20A
102
}
330
A20A
100
AcDbXrecord
280
     1
102
RTVSPost2010Prop28
280
     0
102
RTVSPost2010PropOp28
 70
     1
102
RTVSPost2010Prop29
280
     1
102
RTVSPost2010PropOp29
 70
     1
102
RTVSPost2010Prop30
280
     1
102
RTVSPost2010PropOp30
 70
     1
102
RTVSPost2010Prop31
280
     0
102
RTVSPost2010PropOp31
 70
     1
102
RTVSPost2010Prop32
280
     0
102
RTVSPost2010PropOp32
 70
     1
102
RTVSPost2010Prop33
280
     0
102
RTVSPost2010PropOp33
 70
     1
102
RTVSPost2010Prop34
280
     0
102
RTVSPost2010PropOp34
 70
     1
102
RTVSPost2010Prop35
280
     0
102
RTVSPost2010PropOp35
 70
     1
102
RTVSPost2010Prop36
280
     0
102
RTVSPost2010PropOp36
 70
     1
102
RTVSPost2010Prop37
 90
       50
102
RTVSPost2010PropOp37
 70
     1
102
RTVSPost2010Prop38
140
0.0
102
RTVSPost2010PropOp38
 70
     1
102
RTVSPost2010Prop39
140
1.0
102
RTVSPost2010PropOp39
 70
     1
102
RTVSPost2010Prop40
 90
        0
102
RTVSPost2010PropOp40
 70
     1
102
RTVSPost2010Prop41ColorIndex
 90
       18
102
RTVSPost2010Prop41ColorRGB
 90
        0
102
RTVSPost2010PropOp41
 70
     1
102
RTVSPost2010Prop42
 90
       50
102
RTVSPost2010PropOp42
 70
     1
102
RTVSPost2010Prop43
 90
        3
102
RTVSPost2010PropOp43
 70
     1
102
RTVSPost2010Prop44ColorIndex
 90
        5
102
RTVSPost2010Prop44ColorRGB
 90
      255
102
RTVSPost2010PropOp44
 70
     1
102
RTVSPost2010Prop45
280
     0
102
RTVSPost2010PropOp45
 70
     1
102
RTVSPost2010Prop46
 90
       50
102
RTVSPost2010PropOp46
 70
     1
102
RTVSPost2010Prop47
 90
       50
102
RTVSPost2010PropOp47
 70
     1
102
RTVSPost2010Prop48
 90
       50
102
RTVSPost2010PropOp48
 70
     1
102
RTVSPost2010Prop49
280
     0
102
RTVSPost2010PropOp49
 70
     1
102
RTVSPost2010Prop50
 90
       50
102
RTVSPost2010PropOp50
 70
     1
102
RTVSPost2010Prop51ColorIndex
 90
      256
102
RTVSPost2010Prop51ColorRGB
 90
-16777216
102
RTVSPost2010PropOp51
 70
     0
102
RTVSPost2010Prop52
140
1.0
102
RTVSPost2010PropOp52
 70
     0
102
RTVSPost2010Prop53
 90
        2
102
RTVSPost2010PropOp53
 70
     1
102
RTVSPost2010Prop54
  1
strokes_ogs.tif
102
RTVSPost2010PropOp54
 70
     1
102
RTVSPost2010Prop55
280
     0
102
RTVSPost2010PropOp55
 70
     1
102
RTVSPost2010Prop56
140
1.0
102
RTVSPost2010PropOp56
 70
     1
102
RTVSPost2010Prop57
140
1.0
102
RTVSPost2010PropOp57
 70
     1
102
RTVSPropertyOp0
 70
     1
102
RTVSPropertyOp1
 70
     1
102
RTVSPropertyOp2
 70
     1
102
RTVSPropertyOp3
 70
     1
102
RTVSPropertyOp4
 70
     1
102
RTVSPropertyOp5
 70
     1
102
RTVSPropertyOp6
 70
     1
102
RTVSPropertyOp7
 70
     1
102
RTVSPropertyOp8
 70
     1
102
RTVSPropertyOp9
 70
     1
102
RTVSPropertyOp10
 70
     1
102
RTVSPropertyOp11
 70
     1
102
RTVSPropertyOp12
 70
     1
102
RTVSPropertyOp13
 70
     1
102
RTVSPropertyOp14
 70
     1
102
RTVSPropertyOp15
 70
     1
102
RTVSPropertyOp16
 70
     1
102
RTVSPropertyOp17
 70
     1
102
RTVSPropertyOp18
 70
     1
102
RTVSPropertyOp19
 70
     1
102
RTVSPropertyOp20
 70
     1
102
RTVSPropertyOp21
 70
     1
102
RTVSPropertyOp22
 70
     1
102
RTVSPropertyOp23
 70
     1
102
RTVSPropertyOp24
 70
     1
102
RTVSPropertyOp25
 70
     1
102
RTVSPropertyOp26
 70
     1
102
RTVSPropertyOp27
 70
     1
102
RTVSPropertyOp28
 70
     1
102
RTVSPropertyOp29
 70
     1
102
RTVSPropertyOp30
 70
     1
102
RTVSPropertyOp31
 70
     1
102
RTVSPropertyOp32
 70
     1
102
RTVSPropertyOp33
 70
     1
102
RTVSPropertyOp34
 70
     1
102
RTVSPropertyOp35
 70
     1
102
RTVSPropertyOp36
 70
     1
102
RTVSPropertyOp37
 70
     1
102
RTVSPropertyOp38
 70
     1
102
RTVSPropertyOp39
 70
     1
102
RTVSPropertyOp40
 70
     1
102
RTVSPropertyOp41
 70
     1
102
RTVSPropertyOp42
 70
     1
102
RTVSPropertyOp43
 70
     1
102
RTVSPropertyOp44
 70
     1
102
RTVSPropertyOp45
 70
     1
102
RTVSPropertyOp46
 70
     1
102
RTVSPropertyOp47
 70
     1
102
RTVSPropertyOp48
 70
     1
102
RTVSPropertyOp49
 70
     1
102
RTVSPropertyOp50
 70
     1
102
RTVSPropertyOp51
 70
     0
102
RTVSPropertyOp52
 70
     0
102
RTVSPropertyOp53
 70
     1
102
RTVSPropertyOp54
 70
     1
102
RTVSPropertyOp55
 70
     1
102
RTVSPropertyOp56
 70
     1
102
RTVSPropertyOp57
 70
     1
102
RTVSPropertyOp58
 70
     1
102
RTVSPropertyOp59
 70
     1
102
RTVSPropertyOp60
 70
     1
102
RTVSPropertyOp61
 70
     1
102
RTVSPropertyOp62
 70
     1
  0
XRECORD
  5
A20D
102
{ACAD_REACTORS
330
A20C
102
}
330
A20C
100
AcDbXrecord
280
     1
102
RTVSPost2010Prop28
280
     0
102
RTVSPost2010PropOp28
 70
     1
102
RTVSPost2010Prop29
280
     1
102
RTVSPost2010PropOp29
 70
     1
102
RTVSPost2010Prop30
280
     1
102
RTVSPost2010PropOp30
 70
     1
102
RTVSPost2010Prop31
280
     0
102
RTVSPost2010PropOp31
 70
     1
102
RTVSPost2010Prop32
280
     0
102
RTVSPost2010PropOp32
 70
     1
102
RTVSPost2010Prop33
280
     0
102
RTVSPost2010PropOp33
 70
     1
102
RTVSPost2010Prop34
280
     0
102
RTVSPost2010PropOp34
 70
     1
102
RTVSPost2010Prop35
280
     0
102
RTVSPost2010PropOp35
 70
     1
102
RTVSPost2010Prop36
280
     0
102
RTVSPost2010PropOp36
 70
     1
102
RTVSPost2010Prop37
 90
       50
102
RTVSPost2010PropOp37
 70
     1
102
RTVSPost2010Prop38
140
0.0
102
RTVSPost2010PropOp38
 70
     1
102
RTVSPost2010Prop39
140
1.0
102
RTVSPost2010PropOp39
 70
     1
102
RTVSPost2010Prop40
 90
        0
102
RTVSPost2010PropOp40
 70
     1
102
RTVSPost2010Prop41ColorIndex
 90
       18
102
RTVSPost2010Prop41ColorRGB
 90
        0
102
RTVSPost2010PropOp41
 70
     1
102
RTVSPost2010Prop42
 90
       50
102
RTVSPost2010PropOp42
 70
     1
102
RTVSPost2010Prop43
 90
        3
102
RTVSPost2010PropOp43
 70
     1
102
RTVSPost2010Prop44ColorIndex
 90
        5
102
RTVSPost2010Prop44ColorRGB
 90
      255
102
RTVSPost2010PropOp44
 70
     1
102
RTVSPost2010Prop45
280
     0
102
RTVSPost2010PropOp45
 70
     1
102
RTVSPost2010Prop46
 90
       50
102
RTVSPost2010PropOp46
 70
     1
102
RTVSPost2010Prop47
 90
       50
102
RTVSPost2010PropOp47
 70
     1
102
RTVSPost2010Prop48
 90
       50
102
RTVSPost2010PropOp48
 70
     1
102
RTVSPost2010Prop49
280
     0
102
RTVSPost2010PropOp49
 70
     1
102
RTVSPost2010Prop50
 90
       50
102
RTVSPost2010PropOp50
 70
     1
102
RTVSPost2010Prop51ColorIndex
 90
      256
102
RTVSPost2010Prop51ColorRGB
 90
-16777216
102
RTVSPost2010PropOp51
 70
     0
102
RTVSPost2010Prop52
140
1.0
102
RTVSPost2010PropOp52
 70
     0
102
RTVSPost2010Prop53
 90
        2
102
RTVSPost2010PropOp53
 70
     1
102
RTVSPost2010Prop54
  1
strokes_ogs.tif
102
RTVSPost2010PropOp54
 70
     1
102
RTVSPost2010Prop55
280
     0
102
RTVSPost2010PropOp55
 70
     1
102
RTVSPost2010Prop56
140
1.0
102
RTVSPost2010PropOp56
 70
     1
102
RTVSPost2010Prop57
140
1.0
102
RTVSPost2010PropOp57
 70
     1
102
RTVSPropertyOp0
 70
     1
102
RTVSPropertyOp1
 70
     1
102
RTVSPropertyOp2
 70
     1
102
RTVSPropertyOp3
 70
     1
102
RTVSPropertyOp4
 70
     1
102
RTVSPropertyOp5
 70
     1
102
RTVSPropertyOp6
 70
     1
102
RTVSPropertyOp7
 70
     1
102
RTVSPropertyOp8
 70
     1
102
RTVSPropertyOp9
 70
     1
102
RTVSPropertyOp10
 70
     1
102
RTVSPropertyOp11
 70
     1
102
RTVSPropertyOp12
 70
     1
102
RTVSPropertyOp13
 70
     1
102
RTVSPropertyOp14
 70
     1
102
RTVSPropertyOp15
 70
     1
102
RTVSPropertyOp16
 70
     1
102
RTVSPropertyOp17
 70
     1
102
RTVSPropertyOp18
 70
     1
102
RTVSPropertyOp19
 70
     1
102
RTVSPropertyOp20
 70
     1
102
RTVSPropertyOp21
 70
     1
102
RTVSPropertyOp22
 70
     1
102
RTVSPropertyOp23
 70
     1
102
RTVSPropertyOp24
 70
     1
102
RTVSPropertyOp25
 70
     1
102
RTVSPropertyOp26
 70
     1
102
RTVSPropertyOp27
 70
     1
102
RTVSPropertyOp28
 70
     1
102
RTVSPropertyOp29
 70
     1
102
RTVSPropertyOp30
 70
     1
102
RTVSPropertyOp31
 70
     1
102
RTVSPropertyOp32
 70
     1
102
RTVSPropertyOp33
 70
     1
102
RTVSPropertyOp34
 70
     1
102
RTVSPropertyOp35
 70
     1
102
RTVSPropertyOp36
 70
     1
102
RTVSPropertyOp37
 70
     1
102
RTVSPropertyOp38
 70
     1
102
RTVSPropertyOp39
 70
     1
102
RTVSPropertyOp40
 70
     1
102
RTVSPropertyOp41
 70
     1
102
RTVSPropertyOp42
 70
     1
102
RTVSPropertyOp43
 70
     1
102
RTVSPropertyOp44
 70
     1
102
RTVSPropertyOp45
 70
     1
102
RTVSPropertyOp46
 70
     1
102
RTVSPropertyOp47
 70
     1
102
RTVSPropertyOp48
 70
     1
102
RTVSPropertyOp49
 70
     1
102
RTVSPropertyOp50
 70
     1
102
RTVSPropertyOp51
 70
     0
102
RTVSPropertyOp52
 70
     0
102
RTVSPropertyOp53
 70
     1
102
RTVSPropertyOp54
 70
     1
102
RTVSPropertyOp55
 70
     1
102
RTVSPropertyOp56
 70
     1
102
RTVSPropertyOp57
 70
     1
102
RTVSPropertyOp58
 70
     1
102
RTVSPropertyOp59
 70
     1
102
RTVSPropertyOp60
 70
     1
102
RTVSPropertyOp61
 70
     1
102
RTVSPropertyOp62
 70
     1
  0
XRECORD
  5
A20F
102
{ACAD_REACTORS
330
A20E
102
}
330
A20E
100
AcDbXrecord
280
     1
102
RTVSPost2010Prop28
280
     0
102
RTVSPost2010PropOp28
 70
     1
102
RTVSPost2010Prop29
280
     1
102
RTVSPost2010PropOp29
 70
     1
102
RTVSPost2010Prop30
280
     1
102
RTVSPost2010PropOp30
 70
     1
102
RTVSPost2010Prop31
280
     0
102
RTVSPost2010PropOp31
 70
     1
102
RTVSPost2010Prop32
280
     0
102
RTVSPost2010PropOp32
 70
     1
102
RTVSPost2010Prop33
280
     0
102
RTVSPost2010PropOp33
 70
     1
102
RTVSPost2010Prop34
280
     0
102
RTVSPost2010PropOp34
 70
     1
102
RTVSPost2010Prop35
280
     0
102
RTVSPost2010PropOp35
 70
     1
102
RTVSPost2010Prop36
280
     0
102
RTVSPost2010PropOp36
 70
     1
102
RTVSPost2010Prop37
 90
       50
102
RTVSPost2010PropOp37
 70
     1
102
RTVSPost2010Prop38
140
0.0
102
RTVSPost2010PropOp38
 70
     1
102
RTVSPost2010Prop39
140
1.0
102
RTVSPost2010PropOp39
 70
     1
102
RTVSPost2010Prop40
 90
        0
102
RTVSPost2010PropOp40
 70
     1
102
RTVSPost2010Prop41ColorIndex
 90
       18
102
RTVSPost2010Prop41ColorRGB
 90
        0
102
RTVSPost2010PropOp41
 70
     1
102
RTVSPost2010Prop42
 90
       50
102
RTVSPost2010PropOp42
 70
     1
102
RTVSPost2010Prop43
 90
        3
102
RTVSPost2010PropOp43
 70
     1
102
RTVSPost2010Prop44ColorIndex
 90
        5
102
RTVSPost2010Prop44ColorRGB
 90
      255
102
RTVSPost2010PropOp44
 70
     1
102
RTVSPost2010Prop45
280
     0
102
RTVSPost2010PropOp45
 70
     1
102
RTVSPost2010Prop46
 90
       50
102
RTVSPost2010PropOp46
 70
     1
102
RTVSPost2010Prop47
 90
       50
102
RTVSPost2010PropOp47
 70
     1
102
RTVSPost2010Prop48
 90
       50
102
RTVSPost2010PropOp48
 70
     1
102
RTVSPost2010Prop49
280
     0
102
RTVSPost2010PropOp49
 70
     1
102
RTVSPost2010Prop50
 90
       50
102
RTVSPost2010PropOp50
 70
     1
102
RTVSPost2010Prop51ColorIndex
 90
      256
102
RTVSPost2010Prop51ColorRGB
 90
-16777216
102
RTVSPost2010PropOp51
 70
     0
102
RTVSPost2010Prop52
140
1.0
102
RTVSPost2010PropOp52
 70
     0
102
RTVSPost2010Prop53
 90
        2
102
RTVSPost2010PropOp53
 70
     1
102
RTVSPost2010Prop54
  1
strokes_ogs.tif
102
RTVSPost2010PropOp54
 70
     1
102
RTVSPost2010Prop55
280
     0
102
RTVSPost2010PropOp55
 70
     1
102
RTVSPost2010Prop56
140
1.0
102
RTVSPost2010PropOp56
 70
     1
102
RTVSPost2010Prop57
140
1.0
102
RTVSPost2010PropOp57
 70
     1
102
RTVSPropertyOp0
 70
     1
102
RTVSPropertyOp1
 70
     1
102
RTVSPropertyOp2
 70
     1
102
RTVSPropertyOp3
 70
     1
102
RTVSPropertyOp4
 70
     1
102
RTVSPropertyOp5
 70
     1
102
RTVSPropertyOp6
 70
     1
102
RTVSPropertyOp7
 70
     1
102
RTVSPropertyOp8
 70
     1
102
RTVSPropertyOp9
 70
     1
102
RTVSPropertyOp10
 70
     1
102
RTVSPropertyOp11
 70
     1
102
RTVSPropertyOp12
 70
     1
102
RTVSPropertyOp13
 70
     1
102
RTVSPropertyOp14
 70
     1
102
RTVSPropertyOp15
 70
     1
102
RTVSPropertyOp16
 70
     1
102
RTVSPropertyOp17
 70
     1
102
RTVSPropertyOp18
 70
     1
102
RTVSPropertyOp19
 70
     1
102
RTVSPropertyOp20
 70
     1
102
RTVSPropertyOp21
 70
     1
102
RTVSPropertyOp22
 70
     1
102
RTVSPropertyOp23
 70
     1
102
RTVSPropertyOp24
 70
     1
102
RTVSPropertyOp25
 70
     1
102
RTVSPropertyOp26
 70
     1
102
RTVSPropertyOp27
 70
     1
102
RTVSPropertyOp28
 70
     1
102
RTVSPropertyOp29
 70
     1
102
RTVSPropertyOp30
 70
     1
102
RTVSPropertyOp31
 70
     1
102
RTVSPropertyOp32
 70
     1
102
RTVSPropertyOp33
 70
     1
102
RTVSPropertyOp34
 70
     1
102
RTVSPropertyOp35
 70
     1
102
RTVSPropertyOp36
 70
     1
102
RTVSPropertyOp37
 70
     1
102
RTVSPropertyOp38
 70
     1
102
RTVSPropertyOp39
 70
     1
102
RTVSPropertyOp40
 70
     1
102
RTVSPropertyOp41
 70
     1
102
RTVSPropertyOp42
 70
     1
102
RTVSPropertyOp43
 70
     1
102
RTVSPropertyOp44
 70
     1
102
RTVSPropertyOp45
 70
     1
102
RTVSPropertyOp46
 70
     1
102
RTVSPropertyOp47
 70
     1
102
RTVSPropertyOp48
 70
     1
102
RTVSPropertyOp49
 70
     1
102
RTVSPropertyOp50
 70
     1
102
RTVSPropertyOp51
 70
     0
102
RTVSPropertyOp52
 70
     0
102
RTVSPropertyOp53
 70
     1
102
RTVSPropertyOp54
 70
     1
102
RTVSPropertyOp55
 70
     1
102
RTVSPropertyOp56
 70
     1
102
RTVSPropertyOp57
 70
     1
102
RTVSPropertyOp58
 70
     1
102
RTVSPropertyOp59
 70
     1
102
RTVSPropertyOp60
 70
     1
102
RTVSPropertyOp61
 70
     1
102
RTVSPropertyOp62
 70
     1
  0
XRECORD
  5
A211
102
{ACAD_REACTORS
330
A210
102
}
330
A210
100
AcDbXrecord
280
     1
102
RTVSPost2010Prop28
280
     0
102
RTVSPost2010PropOp28
 70
     1
102
RTVSPost2010Prop29
280
     1
102
RTVSPost2010PropOp29
 70
     1
102
RTVSPost2010Prop30
280
     1
102
RTVSPost2010PropOp30
 70
     1
102
RTVSPost2010Prop31
280
     0
102
RTVSPost2010PropOp31
 70
     1
102
RTVSPost2010Prop32
280
     0
102
RTVSPost2010PropOp32
 70
     1
102
RTVSPost2010Prop33
280
     0
102
RTVSPost2010PropOp33
 70
     1
102
RTVSPost2010Prop34
280
     0
102
RTVSPost2010PropOp34
 70
     1
102
RTVSPost2010Prop35
280
     0
102
RTVSPost2010PropOp35
 70
     1
102
RTVSPost2010Prop36
280
     0
102
RTVSPost2010PropOp36
 70
     1
102
RTVSPost2010Prop37
 90
       50
102
RTVSPost2010PropOp37
 70
     1
102
RTVSPost2010Prop38
140
0.0
102
RTVSPost2010PropOp38
 70
     1
102
RTVSPost2010Prop39
140
1.0
102
RTVSPost2010PropOp39
 70
     1
102
RTVSPost2010Prop40
 90
        0
102
RTVSPost2010PropOp40
 70
     1
102
RTVSPost2010Prop41ColorIndex
 90
       18
102
RTVSPost2010Prop41ColorRGB
 90
        0
102
RTVSPost2010PropOp41
 70
     1
102
RTVSPost2010Prop42
 90
       50
102
RTVSPost2010PropOp42
 70
     1
102
RTVSPost2010Prop43
 90
        3
102
RTVSPost2010PropOp43
 70
     1
102
RTVSPost2010Prop44ColorIndex
 90
        5
102
RTVSPost2010Prop44ColorRGB
 90
      255
102
RTVSPost2010PropOp44
 70
     1
102
RTVSPost2010Prop45
280
     0
102
RTVSPost2010PropOp45
 70
     1
102
RTVSPost2010Prop46
 90
       50
102
RTVSPost2010PropOp46
 70
     1
102
RTVSPost2010Prop47
 90
       50
102
RTVSPost2010PropOp47
 70
     1
102
RTVSPost2010Prop48
 90
       50
102
RTVSPost2010PropOp48
 70
     1
102
RTVSPost2010Prop49
280
     0
102
RTVSPost2010PropOp49
 70
     1
102
RTVSPost2010Prop50
 90
       50
102
RTVSPost2010PropOp50
 70
     1
102
RTVSPost2010Prop51ColorIndex
 90
      256
102
RTVSPost2010Prop51ColorRGB
 90
-16777216
102
RTVSPost2010PropOp51
 70
     0
102
RTVSPost2010Prop52
140
1.0
102
RTVSPost2010PropOp52
 70
     0
102
RTVSPost2010Prop53
 90
        2
102
RTVSPost2010PropOp53
 70
     1
102
RTVSPost2010Prop54
  1
strokes_ogs.tif
102
RTVSPost2010PropOp54
 70
     1
102
RTVSPost2010Prop55
280
     0
102
RTVSPost2010PropOp55
 70
     1
102
RTVSPost2010Prop56
140
1.0
102
RTVSPost2010PropOp56
 70
     1
102
RTVSPost2010Prop57
140
1.0
102
RTVSPost2010PropOp57
 70
     1
102
RTVSPropertyOp0
 70
     1
102
RTVSPropertyOp1
 70
     1
102
RTVSPropertyOp2
 70
     1
102
RTVSPropertyOp3
 70
     1
102
RTVSPropertyOp4
 70
     1
102
RTVSPropertyOp5
 70
     1
102
RTVSPropertyOp6
 70
     1
102
RTVSPropertyOp7
 70
     1
102
RTVSPropertyOp8
 70
     1
102
RTVSPropertyOp9
 70
     1
102
RTVSPropertyOp10
 70
     1
102
RTVSPropertyOp11
 70
     1
102
RTVSPropertyOp12
 70
     1
102
RTVSPropertyOp13
 70
     1
102
RTVSPropertyOp14
 70
     1
102
RTVSPropertyOp15
 70
     1
102
RTVSPropertyOp16
 70
     1
102
RTVSPropertyOp17
 70
     1
102
RTVSPropertyOp18
 70
     1
102
RTVSPropertyOp19
 70
     1
102
RTVSPropertyOp20
 70
     1
102
RTVSPropertyOp21
 70
     1
102
RTVSPropertyOp22
 70
     1
102
RTVSPropertyOp23
 70
     1
102
RTVSPropertyOp24
 70
     1
102
RTVSPropertyOp25
 70
     1
102
RTVSPropertyOp26
 70
     1
102
RTVSPropertyOp27
 70
     1
102
RTVSPropertyOp28
 70
     1
102
RTVSPropertyOp29
 70
     1
102
RTVSPropertyOp30
 70
     1
102
RTVSPropertyOp31
 70
     1
102
RTVSPropertyOp32
 70
     1
102
RTVSPropertyOp33
 70
     1
102
RTVSPropertyOp34
 70
     1
102
RTVSPropertyOp35
 70
     1
102
RTVSPropertyOp36
 70
     1
102
RTVSPropertyOp37
 70
     1
102
RTVSPropertyOp38
 70
     1
102
RTVSPropertyOp39
 70
     1
102
RTVSPropertyOp40
 70
     1
102
RTVSPropertyOp41
 70
     1
102
RTVSPropertyOp42
 70
     1
102
RTVSPropertyOp43
 70
     1
102
RTVSPropertyOp44
 70
     1
102
RTVSPropertyOp45
 70
     1
102
RTVSPropertyOp46
 70
     1
102
RTVSPropertyOp47
 70
     1
102
RTVSPropertyOp48
 70
     1
102
RTVSPropertyOp49
 70
     1
102
RTVSPropertyOp50
 70
     1
102
RTVSPropertyOp51
 70
     0
102
RTVSPropertyOp52
 70
     0
102
RTVSPropertyOp53
 70
     1
102
RTVSPropertyOp54
 70
     1
102
RTVSPropertyOp55
 70
     1
102
RTVSPropertyOp56
 70
     1
102
RTVSPropertyOp57
 70
     1
102
RTVSPropertyOp58
 70
     1
102
RTVSPropertyOp59
 70
     1
102
RTVSPropertyOp60
 70
     1
102
RTVSPropertyOp61
 70
     1
102
RTVSPropertyOp62
 70
     1
  0
XRECORD
  5
A219
102
{ACAD_REACTORS
330
A218
102
}
330
A218
100
AcDbXrecord
280
     1
102
RTVSPost2010Prop28
280
     0
102
RTVSPost2010PropOp28
 70
     1
102
RTVSPost2010Prop29
280
     1
102
RTVSPost2010PropOp29
 70
     1
102
RTVSPost2010Prop30
280
     1
102
RTVSPost2010PropOp30
 70
     1
102
RTVSPost2010Prop31
280
     0
102
RTVSPost2010PropOp31
 70
     1
102
RTVSPost2010Prop32
280
     0
102
RTVSPost2010PropOp32
 70
     1
102
RTVSPost2010Prop33
280
     0
102
RTVSPost2010PropOp33
 70
     1
102
RTVSPost2010Prop34
280
     0
102
RTVSPost2010PropOp34
 70
     1
102
RTVSPost2010Prop35
280
     0
102
RTVSPost2010PropOp35
 70
     1
102
RTVSPost2010Prop36
280
     0
102
RTVSPost2010PropOp36
 70
     1
102
RTVSPost2010Prop37
 90
       50
102
RTVSPost2010PropOp37
 70
     1
102
RTVSPost2010Prop38
140
0.0
102
RTVSPost2010PropOp38
 70
     1
102
RTVSPost2010Prop39
140
1.0
102
RTVSPost2010PropOp39
 70
     1
102
RTVSPost2010Prop40
 90
        0
102
RTVSPost2010PropOp40
 70
     1
102
RTVSPost2010Prop41ColorIndex
 90
       18
102
RTVSPost2010Prop41ColorRGB
 90
        0
102
RTVSPost2010PropOp41
 70
     1
102
RTVSPost2010Prop42
 90
       50
102
RTVSPost2010PropOp42
 70
     1
102
RTVSPost2010Prop43
 90
        3
102
RTVSPost2010PropOp43
 70
     1
102
RTVSPost2010Prop44ColorIndex
 90
        5
102
RTVSPost2010Prop44ColorRGB
 90
      255
102
RTVSPost2010PropOp44
 70
     1
102
RTVSPost2010Prop45
280
     0
102
RTVSPost2010PropOp45
 70
     1
102
RTVSPost2010Prop46
 90
       50
102
RTVSPost2010PropOp46
 70
     1
102
RTVSPost2010Prop47
 90
       50
102
RTVSPost2010PropOp47
 70
     1
102
RTVSPost2010Prop48
 90
       50
102
RTVSPost2010PropOp48
 70
     1
102
RTVSPost2010Prop49
280
     0
102
RTVSPost2010PropOp49
 70
     1
102
RTVSPost2010Prop50
 90
       50
102
RTVSPost2010PropOp50
 70
     1
102
RTVSPost2010Prop51ColorIndex
 90
      256
102
RTVSPost2010Prop51ColorRGB
 90
-16777216
102
RTVSPost2010PropOp51
 70
     0
102
RTVSPost2010Prop52
140
1.0
102
RTVSPost2010PropOp52
 70
     0
102
RTVSPost2010Prop53
 90
        2
102
RTVSPost2010PropOp53
 70
     1
102
RTVSPost2010Prop54
  1
strokes_ogs.tif
102
RTVSPost2010PropOp54
 70
     1
102
RTVSPost2010Prop55
280
     0
102
RTVSPost2010PropOp55
 70
     1
102
RTVSPost2010Prop56
140
1.0
102
RTVSPost2010PropOp56
 70
     1
102
RTVSPost2010Prop57
140
1.0
102
RTVSPost2010PropOp57
 70
     1
102
RTVSPropertyOp0
 70
     1
102
RTVSPropertyOp1
 70
     1
102
RTVSPropertyOp2
 70
     1
102
RTVSPropertyOp3
 70
     1
102
RTVSPropertyOp4
 70
     1
102
RTVSPropertyOp5
 70
     1
102
RTVSPropertyOp6
 70
     1
102
RTVSPropertyOp7
 70
     1
102
RTVSPropertyOp8
 70
     1
102
RTVSPropertyOp9
 70
     1
102
RTVSPropertyOp10
 70
     1
102
RTVSPropertyOp11
 70
     1
102
RTVSPropertyOp12
 70
     1
102
RTVSPropertyOp13
 70
     1
102
RTVSPropertyOp14
 70
     1
102
RTVSPropertyOp15
 70
     1
102
RTVSPropertyOp16
 70
     1
102
RTVSPropertyOp17
 70
     1
102
RTVSPropertyOp18
 70
     1
102
RTVSPropertyOp19
 70
     1
102
RTVSPropertyOp20
 70
     1
102
RTVSPropertyOp21
 70
     1
102
RTVSPropertyOp22
 70
     1
102
RTVSPropertyOp23
 70
     1
102
RTVSPropertyOp24
 70
     1
102
RTVSPropertyOp25
 70
     1
102
RTVSPropertyOp26
 70
     1
102
RTVSPropertyOp27
 70
     1
102
RTVSPropertyOp28
 70
     1
102
RTVSPropertyOp29
 70
     1
102
RTVSPropertyOp30
 70
     1
102
RTVSPropertyOp31
 70
     1
102
RTVSPropertyOp32
 70
     1
102
RTVSPropertyOp33
 70
     1
102
RTVSPropertyOp34
 70
     1
102
RTVSPropertyOp35
 70
     1
102
RTVSPropertyOp36
 70
     1
102
RTVSPropertyOp37
 70
     1
102
RTVSPropertyOp38
 70
     1
102
RTVSPropertyOp39
 70
     1
102
RTVSPropertyOp40
 70
     1
102
RTVSPropertyOp41
 70
     1
102
RTVSPropertyOp42
 70
     1
102
RTVSPropertyOp43
 70
     1
102
RTVSPropertyOp44
 70
     1
102
RTVSPropertyOp45
 70
     1
102
RTVSPropertyOp46
 70
     1
102
RTVSPropertyOp47
 70
     1
102
RTVSPropertyOp48
 70
     1
102
RTVSPropertyOp49
 70
     1
102
RTVSPropertyOp50
 70
     1
102
RTVSPropertyOp51
 70
     0
102
RTVSPropertyOp52
 70
     0
102
RTVSPropertyOp53
 70
     1
102
RTVSPropertyOp54
 70
     1
102
RTVSPropertyOp55
 70
     1
102
RTVSPropertyOp56
 70
     1
102
RTVSPropertyOp57
 70
     1
102
RTVSPropertyOp58
 70
     1
102
RTVSPropertyOp59
 70
     1
102
RTVSPropertyOp60
 70
     1
102
RTVSPropertyOp61
 70
     1
102
RTVSPropertyOp62
 70
     1
  0
XRECORD
  5
A235
102
{ACAD_REACTORS
330
A234
102
}
330
A234
100
AcDbXrecord
280
     1
102
RTVSPost2010Prop28
280
     0
102
RTVSPost2010PropOp28
 70
     1
102
RTVSPost2010Prop29
280
     1
102
RTVSPost2010PropOp29
 70
     1
102
RTVSPost2010Prop30
280
     1
102
RTVSPost2010PropOp30
 70
     1
102
RTVSPost2010Prop31
280
     0
102
RTVSPost2010PropOp31
 70
     1
102
RTVSPost2010Prop32
280
     0
102
RTVSPost2010PropOp32
 70
     1
102
RTVSPost2010Prop33
280
     0
102
RTVSPost2010PropOp33
 70
     1
102
RTVSPost2010Prop34
280
     0
102
RTVSPost2010PropOp34
 70
     1
102
RTVSPost2010Prop35
280
     0
102
RTVSPost2010PropOp35
 70
     1
102
RTVSPost2010Prop36
280
     0
102
RTVSPost2010PropOp36
 70
     1
102
RTVSPost2010Prop37
 90
       50
102
RTVSPost2010PropOp37
 70
     0
102
RTVSPost2010Prop38
140
0.0
102
RTVSPost2010PropOp38
 70
     0
102
RTVSPost2010Prop39
140
1.0
102
RTVSPost2010PropOp39
 70
     0
102
RTVSPost2010Prop40
 90
        0
102
RTVSPost2010PropOp40
 70
     0
102
RTVSPost2010Prop41ColorIndex
 90
       18
102
RTVSPost2010Prop41ColorRGB
 90
        0
102
RTVSPost2010PropOp41
 70
     0
102
RTVSPost2010Prop42
 90
       50
102
RTVSPost2010PropOp42
 70
     0
102
RTVSPost2010Prop43
 90
        3
102
RTVSPost2010PropOp43
 70
     0
102
RTVSPost2010Prop44ColorIndex
 90
        5
102
RTVSPost2010Prop44ColorRGB
 90
      255
102
RTVSPost2010PropOp44
 70
     0
102
RTVSPost2010Prop45
280
     0
102
RTVSPost2010PropOp45
 70
     1
102
RTVSPost2010Prop46
 90
       50
102
RTVSPost2010PropOp46
 70
     0
102
RTVSPost2010Prop47
 90
       50
102
RTVSPost2010PropOp47
 70
     0
102
RTVSPost2010Prop48
 90
       50
102
RTVSPost2010PropOp48
 70
     0
102
RTVSPost2010Prop49
280
     0
102
RTVSPost2010PropOp49
 70
     1
102
RTVSPost2010Prop50
 90
       50
102
RTVSPost2010PropOp50
 70
     0
102
RTVSPost2010Prop51ColorIndex
 90
      256
102
RTVSPost2010Prop51ColorRGB
 90
-16777216
102
RTVSPost2010PropOp51
 70
     0
102
RTVSPost2010Prop52
140
1.0
102
RTVSPost2010PropOp52
 70
     0
102
RTVSPost2010Prop53
 90
        2
102
RTVSPost2010PropOp53
 70
     0
102
RTVSPost2010Prop54
  1
strokes_ogs.tif
102
RTVSPost2010PropOp54
 70
     0
102
RTVSPost2010Prop55
280
     0
102
RTVSPost2010PropOp55
 70
     1
102
RTVSPost2010Prop56
140
1.0
102
RTVSPost2010PropOp56
 70
     0
102
RTVSPost2010Prop57
140
1.0
102
RTVSPost2010PropOp57
 70
     0
102
RTVSPropertyOp0
 70
     0
102
RTVSPropertyOp1
 70
     0
102
RTVSPropertyOp2
 70
     0
102
RTVSPropertyOp3
 70
     0
102
RTVSPropertyOp4
 70
     0
102
RTVSPropertyOp5
 70
     0
102
RTVSPropertyOp6
 70
     0
102
RTVSPropertyOp7
 70
     0
102
RTVSPropertyOp8
 70
     0
102
RTVSPropertyOp9
 70
     0
102
RTVSPropertyOp10
 70
     0
102
RTVSPropertyOp11
 70
     0
102
RTVSPropertyOp12
 70
     0
102
RTVSPropertyOp13
 70
     0
102
RTVSPropertyOp14
 70
     2
102
RTVSPropertyOp15
 70
     0
102
RTVSPropertyOp16
 70
     0
102
RTVSPropertyOp17
 70
     0
102
RTVSPropertyOp18
 70
     0
102
RTVSPropertyOp19
 70
     0
102
RTVSPropertyOp20
 70
     0
102
RTVSPropertyOp21
 70
     0
102
RTVSPropertyOp22
 70
     0
102
RTVSPropertyOp23
 70
     0
102
RTVSPropertyOp24
 70
     0
102
RTVSPropertyOp25
 70
     0
102
RTVSPropertyOp26
 70
     0
102
RTVSPropertyOp27
 70
     0
102
RTVSPropertyOp28
 70
     1
102
RTVSPropertyOp29
 70
     1
102
RTVSPropertyOp30
 70
     1
102
RTVSPropertyOp31
 70
     1
102
RTVSPropertyOp32
 70
     1
102
RTVSPropertyOp33
 70
     1
102
RTVSPropertyOp34
 70
     1
102
RTVSPropertyOp35
 70
     1
102
RTVSPropertyOp36
 70
     1
102
RTVSPropertyOp37
 70
     0
102
RTVSPropertyOp38
 70
     0
102
RTVSPropertyOp39
 70
     0
102
RTVSPropertyOp40
 70
     0
102
RTVSPropertyOp41
 70
     0
102
RTVSPropertyOp42
 70
     0
102
RTVSPropertyOp43
 70
     0
102
RTVSPropertyOp44
 70
     0
102
RTVSPropertyOp45
 70
     1
102
RTVSPropertyOp46
 70
     0
102
RTVSPropertyOp47
 70
     0
102
RTVSPropertyOp48
 70
     0
102
RTVSPropertyOp49
 70
     1
102
RTVSPropertyOp50
 70
     0
102
RTVSPropertyOp51
 70
     0
102
RTVSPropertyOp52
 70
     0
102
RTVSPropertyOp53
 70
     0
102
RTVSPropertyOp54
 70
     0
102
RTVSPropertyOp55
 70
     1
102
RTVSPropertyOp56
 70
     0
102
RTVSPropertyOp57
 70
     0
102
RTVSPropertyOp58
 70
     0
102
RTVSPropertyOp59
 70
     0
102
RTVSPropertyOp60
 70
     0
102
RTVSPropertyOp61
 70
     0
102
RTVSPropertyOp62
 70
     0
  0
XRECORD
  5
A225
102
{ACAD_REACTORS
330
A224
102
}
330
A224
100
AcDbXrecord
280
     1
102
RTVSPost2010Prop28
280
     0
102
RTVSPost2010PropOp28
 70
     1
102
RTVSPost2010Prop29
280
     1
102
RTVSPost2010PropOp29
 70
     1
102
RTVSPost2010Prop30
280
     1
102
RTVSPost2010PropOp30
 70
     1
102
RTVSPost2010Prop31
280
     0
102
RTVSPost2010PropOp31
 70
     1
102
RTVSPost2010Prop32
280
     0
102
RTVSPost2010PropOp32
 70
     1
102
RTVSPost2010Prop33
280
     0
102
RTVSPost2010PropOp33
 70
     1
102
RTVSPost2010Prop34
280
     0
102
RTVSPost2010PropOp34
 70
     1
102
RTVSPost2010Prop35
280
     0
102
RTVSPost2010PropOp35
 70
     1
102
RTVSPost2010Prop36
280
     0
102
RTVSPost2010PropOp36
 70
     1
102
RTVSPost2010Prop37
 90
       50
102
RTVSPost2010PropOp37
 70
     1
102
RTVSPost2010Prop38
140
0.0
102
RTVSPost2010PropOp38
 70
     1
102
RTVSPost2010Prop39
140
1.0
102
RTVSPost2010PropOp39
 70
     1
102
RTVSPost2010Prop40
 90
        0
102
RTVSPost2010PropOp40
 70
     1
102
RTVSPost2010Prop41ColorIndex
 90
       18
102
RTVSPost2010Prop41ColorRGB
 90
        0
102
RTVSPost2010PropOp41
 70
     1
102
RTVSPost2010Prop42
 90
       50
102
RTVSPost2010PropOp42
 70
     1
102
RTVSPost2010Prop43
 90
        3
102
RTVSPost2010PropOp43
 70
     1
102
RTVSPost2010Prop44ColorIndex
 90
        5
102
RTVSPost2010Prop44ColorRGB
 90
      255
102
RTVSPost2010PropOp44
 70
     1
102
RTVSPost2010Prop45
280
     0
102
RTVSPost2010PropOp45
 70
     1
102
RTVSPost2010Prop46
 90
       50
102
RTVSPost2010PropOp46
 70
     1
102
RTVSPost2010Prop47
 90
       50
102
RTVSPost2010PropOp47
 70
     1
102
RTVSPost2010Prop48
 90
       50
102
RTVSPost2010PropOp48
 70
     1
102
RTVSPost2010Prop49
280
     0
102
RTVSPost2010PropOp49
 70
     1
102
RTVSPost2010Prop50
 90
       50
102
RTVSPost2010PropOp50
 70
     1
102
RTVSPost2010Prop51ColorIndex
 90
      256
102
RTVSPost2010Prop51ColorRGB
 90
-16777216
102
RTVSPost2010PropOp51
 70
     0
102
RTVSPost2010Prop52
140
1.0
102
RTVSPost2010PropOp52
 70
     0
102
RTVSPost2010Prop53
 90
        2
102
RTVSPost2010PropOp53
 70
     1
102
RTVSPost2010Prop54
  1
strokes_ogs.tif
102
RTVSPost2010PropOp54
 70
     1
102
RTVSPost2010Prop55
280
     0
102
RTVSPost2010PropOp55
 70
     1
102
RTVSPost2010Prop56
140
1.0
102
RTVSPost2010PropOp56
 70
     1
102
RTVSPost2010Prop57
140
1.0
102
RTVSPost2010PropOp57
 70
     1
102
RTVSPropertyOp0
 70
     1
102
RTVSPropertyOp1
 70
     1
102
RTVSPropertyOp2
 70
     1
102
RTVSPropertyOp3
 70
     1
102
RTVSPropertyOp4
 70
     1
102
RTVSPropertyOp5
 70
     1
102
RTVSPropertyOp6
 70
     1
102
RTVSPropertyOp7
 70
     1
102
RTVSPropertyOp8
 70
     1
102
RTVSPropertyOp9
 70
     1
102
RTVSPropertyOp10
 70
     1
102
RTVSPropertyOp11
 70
     1
102
RTVSPropertyOp12
 70
     1
102
RTVSPropertyOp13
 70
     1
102
RTVSPropertyOp14
 70
     1
102
RTVSPropertyOp15
 70
     1
102
RTVSPropertyOp16
 70
     1
102
RTVSPropertyOp17
 70
     1
102
RTVSPropertyOp18
 70
     1
102
RTVSPropertyOp19
 70
     1
102
RTVSPropertyOp20
 70
     1
102
RTVSPropertyOp21
 70
     1
102
RTVSPropertyOp22
 70
     1
102
RTVSPropertyOp23
 70
     1
102
RTVSPropertyOp24
 70
     1
102
RTVSPropertyOp25
 70
     1
102
RTVSPropertyOp26
 70
     1
102
RTVSPropertyOp27
 70
     1
102
RTVSPropertyOp28
 70
     1
102
RTVSPropertyOp29
 70
     1
102
RTVSPropertyOp30
 70
     1
102
RTVSPropertyOp31
 70
     1
102
RTVSPropertyOp32
 70
     1
102
RTVSPropertyOp33
 70
     1
102
RTVSPropertyOp34
 70
     1
102
RTVSPropertyOp35
 70
     1
102
RTVSPropertyOp36
 70
     1
102
RTVSPropertyOp37
 70
     1
102
RTVSPropertyOp38
 70
     1
102
RTVSPropertyOp39
 70
     1
102
RTVSPropertyOp40
 70
     1
102
RTVSPropertyOp41
 70
     1
102
RTVSPropertyOp42
 70
     1
102
RTVSPropertyOp43
 70
     1
102
RTVSPropertyOp44
 70
     1
102
RTVSPropertyOp45
 70
     1
102
RTVSPropertyOp46
 70
     1
102
RTVSPropertyOp47
 70
     1
102
RTVSPropertyOp48
 70
     1
102
RTVSPropertyOp49
 70
     1
102
RTVSPropertyOp50
 70
     1
102
RTVSPropertyOp51
 70
     0
102
RTVSPropertyOp52
 70
     0
102
RTVSPropertyOp53
 70
     1
102
RTVSPropertyOp54
 70
     1
102
RTVSPropertyOp55
 70
     1
102
RTVSPropertyOp56
 70
     1
102
RTVSPropertyOp57
 70
     1
102
RTVSPropertyOp58
 70
     1
102
RTVSPropertyOp59
 70
     1
102
RTVSPropertyOp60
 70
     1
102
RTVSPropertyOp61
 70
     1
102
RTVSPropertyOp62
 70
     1
  0
XRECORD
  5
A237
102
{ACAD_REACTORS
330
A236
102
}
330
A236
100
AcDbXrecord
280
     1
102
RTVSPost2010Prop28
280
     0
102
RTVSPost2010PropOp28
 70
     1
102
RTVSPost2010Prop29
280
     1
102
RTVSPost2010PropOp29
 70
     1
102
RTVSPost2010Prop30
280
     1
102
RTVSPost2010PropOp30
 70
     1
102
RTVSPost2010Prop31
280
     0
102
RTVSPost2010PropOp31
 70
     1
102
RTVSPost2010Prop32
280
     0
102
RTVSPost2010PropOp32
 70
     1
102
RTVSPost2010Prop33
280
     0
102
RTVSPost2010PropOp33
 70
     1
102
RTVSPost2010Prop34
280
     0
102
RTVSPost2010PropOp34
 70
     1
102
RTVSPost2010Prop35
280
     0
102
RTVSPost2010PropOp35
 70
     1
102
RTVSPost2010Prop36
280
     0
102
RTVSPost2010PropOp36
 70
     1
102
RTVSPost2010Prop37
 90
       50
102
RTVSPost2010PropOp37
 70
     0
102
RTVSPost2010Prop38
140
0.0
102
RTVSPost2010PropOp38
 70
     0
102
RTVSPost2010Prop39
140
1.0
102
RTVSPost2010PropOp39
 70
     0
102
RTVSPost2010Prop40
 90
        0
102
RTVSPost2010PropOp40
 70
     0
102
RTVSPost2010Prop41ColorIndex
 90
       18
102
RTVSPost2010Prop41ColorRGB
 90
        0
102
RTVSPost2010PropOp41
 70
     0
102
RTVSPost2010Prop42
 90
       50
102
RTVSPost2010PropOp42
 70
     0
102
RTVSPost2010Prop43
 90
        3
102
RTVSPost2010PropOp43
 70
     0
102
RTVSPost2010Prop44ColorIndex
 90
        5
102
RTVSPost2010Prop44ColorRGB
 90
      255
102
RTVSPost2010PropOp44
 70
     0
102
RTVSPost2010Prop45
280
     0
102
RTVSPost2010PropOp45
 70
     1
102
RTVSPost2010Prop46
 90
       50
102
RTVSPost2010PropOp46
 70
     0
102
RTVSPost2010Prop47
 90
       50
102
RTVSPost2010PropOp47
 70
     0
102
RTVSPost2010Prop48
 90
       50
102
RTVSPost2010PropOp48
 70
     0
102
RTVSPost2010Prop49
280
     0
102
RTVSPost2010PropOp49
 70
     1
102
RTVSPost2010Prop50
 90
       50
102
RTVSPost2010PropOp50
 70
     0
102
RTVSPost2010Prop51ColorIndex
 90
      256
102
RTVSPost2010Prop51ColorRGB
 90
-16777216
102
RTVSPost2010PropOp51
 70
     0
102
RTVSPost2010Prop52
140
1.0
102
RTVSPost2010PropOp52
 70
     0
102
RTVSPost2010Prop53
 90
        2
102
RTVSPost2010PropOp53
 70
     0
102
RTVSPost2010Prop54
  1
strokes_ogs.tif
102
RTVSPost2010PropOp54
 70
     0
102
RTVSPost2010Prop55
280
     0
102
RTVSPost2010PropOp55
 70
     1
102
RTVSPost2010Prop56
140
1.0
102
RTVSPost2010PropOp56
 70
     0
102
RTVSPost2010Prop57
140
1.0
102
RTVSPost2010PropOp57
 70
     0
102
RTVSPropertyOp0
 70
     0
102
RTVSPropertyOp1
 70
     0
102
RTVSPropertyOp2
 70
     0
102
RTVSPropertyOp3
 70
     0
102
RTVSPropertyOp4
 70
     0
102
RTVSPropertyOp5
 70
     0
102
RTVSPropertyOp6
 70
     0
102
RTVSPropertyOp7
 70
     0
102
RTVSPropertyOp8
 70
     0
102
RTVSPropertyOp9
 70
     0
102
RTVSPropertyOp10
 70
     0
102
RTVSPropertyOp11
 70
     0
102
RTVSPropertyOp12
 70
     0
102
RTVSPropertyOp13
 70
     0
102
RTVSPropertyOp14
 70
     2
102
RTVSPropertyOp15
 70
     0
102
RTVSPropertyOp16
 70
     0
102
RTVSPropertyOp17
 70
     0
102
RTVSPropertyOp18
 70
     0
102
RTVSPropertyOp19
 70
     0
102
RTVSPropertyOp20
 70
     0
102
RTVSPropertyOp21
 70
     0
102
RTVSPropertyOp22
 70
     0
102
RTVSPropertyOp23
 70
     0
102
RTVSPropertyOp24
 70
     0
102
RTVSPropertyOp25
 70
     0
102
RTVSPropertyOp26
 70
     0
102
RTVSPropertyOp27
 70
     0
102
RTVSPropertyOp28
 70
     1
102
RTVSPropertyOp29
 70
     1
102
RTVSPropertyOp30
 70
     1
102
RTVSPropertyOp31
 70
     1
102
RTVSPropertyOp32
 70
     1
102
RTVSPropertyOp33
 70
     1
102
RTVSPropertyOp34
 70
     1
102
RTVSPropertyOp35
 70
     1
102
RTVSPropertyOp36
 70
     1
102
RTVSPropertyOp37
 70
     0
102
RTVSPropertyOp38
 70
     0
102
RTVSPropertyOp39
 70
     0
102
RTVSPropertyOp40
 70
     0
102
RTVSPropertyOp41
 70
     0
102
RTVSPropertyOp42
 70
     0
102
RTVSPropertyOp43
 70
     0
102
RTVSPropertyOp44
 70
     0
102
RTVSPropertyOp45
 70
     1
102
RTVSPropertyOp46
 70
     0
102
RTVSPropertyOp47
 70
     0
102
RTVSPropertyOp48
 70
     0
102
RTVSPropertyOp49
 70
     1
102
RTVSPropertyOp50
 70
     0
102
RTVSPropertyOp51
 70
     0
102
RTVSPropertyOp52
 70
     0
102
RTVSPropertyOp53
 70
     0
102
RTVSPropertyOp54
 70
     0
102
RTVSPropertyOp55
 70
     1
102
RTVSPropertyOp56
 70
     0
102
RTVSPropertyOp57
 70
     0
102
RTVSPropertyOp58
 70
     0
102
RTVSPropertyOp59
 70
     0
102
RTVSPropertyOp60
 70
     0
102
RTVSPropertyOp61
 70
     0
102
RTVSPropertyOp62
 70
     0
  0
XRECORD
  5
A21D
102
{ACAD_REACTORS
330
A21C
102
}
330
A21C
100
AcDbXrecord
280
     1
102
RTVSPost2010Prop28
280
     0
102
RTVSPost2010PropOp28
 70
     1
102
RTVSPost2010Prop29
280
     1
102
RTVSPost2010PropOp29
 70
     1
102
RTVSPost2010Prop30
280
     1
102
RTVSPost2010PropOp30
 70
     1
102
RTVSPost2010Prop31
280
     0
102
RTVSPost2010PropOp31
 70
     1
102
RTVSPost2010Prop32
280
     0
102
RTVSPost2010PropOp32
 70
     1
102
RTVSPost2010Prop33
280
     0
102
RTVSPost2010PropOp33
 70
     1
102
RTVSPost2010Prop34
280
     0
102
RTVSPost2010PropOp34
 70
     1
102
RTVSPost2010Prop35
280
     0
102
RTVSPost2010PropOp35
 70
     1
102
RTVSPost2010Prop36
280
     0
102
RTVSPost2010PropOp36
 70
     1
102
RTVSPost2010Prop37
 90
       50
102
RTVSPost2010PropOp37
 70
     1
102
RTVSPost2010Prop38
140
0.0
102
RTVSPost2010PropOp38
 70
     1
102
RTVSPost2010Prop39
140
1.0
102
RTVSPost2010PropOp39
 70
     1
102
RTVSPost2010Prop40
 90
        0
102
RTVSPost2010PropOp40
 70
     1
102
RTVSPost2010Prop41ColorIndex
 90
       18
102
RTVSPost2010Prop41ColorRGB
 90
        0
102
RTVSPost2010PropOp41
 70
     1
102
RTVSPost2010Prop42
 90
       50
102
RTVSPost2010PropOp42
 70
     1
102
RTVSPost2010Prop43
 90
        3
102
RTVSPost2010PropOp43
 70
     1
102
RTVSPost2010Prop44ColorIndex
 90
        5
102
RTVSPost2010Prop44ColorRGB
 90
      255
102
RTVSPost2010PropOp44
 70
     1
102
RTVSPost2010Prop45
280
     0
102
RTVSPost2010PropOp45
 70
     1
102
RTVSPost2010Prop46
 90
       50
102
RTVSPost2010PropOp46
 70
     1
102
RTVSPost2010Prop47
 90
       50
102
RTVSPost2010PropOp47
 70
     1
102
RTVSPost2010Prop48
 90
       50
102
RTVSPost2010PropOp48
 70
     1
102
RTVSPost2010Prop49
280
     0
102
RTVSPost2010PropOp49
 70
     1
102
RTVSPost2010Prop50
 90
       50
102
RTVSPost2010PropOp50
 70
     1
102
RTVSPost2010Prop51ColorIndex
 90
      256
102
RTVSPost2010Prop51ColorRGB
 90
-16777216
102
RTVSPost2010PropOp51
 70
     0
102
RTVSPost2010Prop52
140
1.0
102
RTVSPost2010PropOp52
 70
     0
102
RTVSPost2010Prop53
 90
        2
102
RTVSPost2010PropOp53
 70
     1
102
RTVSPost2010Prop54
  1
strokes_ogs.tif
102
RTVSPost2010PropOp54
 70
     1
102
RTVSPost2010Prop55
280
     0
102
RTVSPost2010PropOp55
 70
     1
102
RTVSPost2010Prop56
140
1.0
102
RTVSPost2010PropOp56
 70
     1
102
RTVSPost2010Prop57
140
1.0
102
RTVSPost2010PropOp57
 70
     1
102
RTVSPropertyOp0
 70
     1
102
RTVSPropertyOp1
 70
     1
102
RTVSPropertyOp2
 70
     1
102
RTVSPropertyOp3
 70
     1
102
RTVSPropertyOp4
 70
     1
102
RTVSPropertyOp5
 70
     1
102
RTVSPropertyOp6
 70
     1
102
RTVSPropertyOp7
 70
     1
102
RTVSPropertyOp8
 70
     1
102
RTVSPropertyOp9
 70
     1
102
RTVSPropertyOp10
 70
     1
102
RTVSPropertyOp11
 70
     1
102
RTVSPropertyOp12
 70
     1
102
RTVSPropertyOp13
 70
     1
102
RTVSPropertyOp14
 70
     1
102
RTVSPropertyOp15
 70
     1
102
RTVSPropertyOp16
 70
     1
102
RTVSPropertyOp17
 70
     1
102
RTVSPropertyOp18
 70
     1
102
RTVSPropertyOp19
 70
     1
102
RTVSPropertyOp20
 70
     1
102
RTVSPropertyOp21
 70
     1
102
RTVSPropertyOp22
 70
     1
102
RTVSPropertyOp23
 70
     1
102
RTVSPropertyOp24
 70
     1
102
RTVSPropertyOp25
 70
     1
102
RTVSPropertyOp26
 70
     1
102
RTVSPropertyOp27
 70
     1
102
RTVSPropertyOp28
 70
     1
102
RTVSPropertyOp29
 70
     1
102
RTVSPropertyOp30
 70
     1
102
RTVSPropertyOp31
 70
     1
102
RTVSPropertyOp32
 70
     1
102
RTVSPropertyOp33
 70
     1
102
RTVSPropertyOp34
 70
     1
102
RTVSPropertyOp35
 70
     1
102
RTVSPropertyOp36
 70
     1
102
RTVSPropertyOp37
 70
     1
102
RTVSPropertyOp38
 70
     1
102
RTVSPropertyOp39
 70
     1
102
RTVSPropertyOp40
 70
     1
102
RTVSPropertyOp41
 70
     1
102
RTVSPropertyOp42
 70
     1
102
RTVSPropertyOp43
 70
     1
102
RTVSPropertyOp44
 70
     1
102
RTVSPropertyOp45
 70
     1
102
RTVSPropertyOp46
 70
     1
102
RTVSPropertyOp47
 70
     1
102
RTVSPropertyOp48
 70
     1
102
RTVSPropertyOp49
 70
     1
102
RTVSPropertyOp50
 70
     1
102
RTVSPropertyOp51
 70
     0
102
RTVSPropertyOp52
 70
     0
102
RTVSPropertyOp53
 70
     1
102
RTVSPropertyOp54
 70
     1
102
RTVSPropertyOp55
 70
     1
102
RTVSPropertyOp56
 70
     1
102
RTVSPropertyOp57
 70
     1
102
RTVSPropertyOp58
 70
     1
102
RTVSPropertyOp59
 70
     1
102
RTVSPropertyOp60
 70
     1
102
RTVSPropertyOp61
 70
     1
102
RTVSPropertyOp62
 70
     1
  0
XRECORD
  5
A233
102
{ACAD_REACTORS
330
A232
102
}
330
A232
100
AcDbXrecord
280
     1
102
RTVSPost2010Prop28
280
     0
102
RTVSPost2010PropOp28
 70
     1
102
RTVSPost2010Prop29
280
     1
102
RTVSPost2010PropOp29
 70
     1
102
RTVSPost2010Prop30
280
     1
102
RTVSPost2010PropOp30
 70
     1
102
RTVSPost2010Prop31
280
     0
102
RTVSPost2010PropOp31
 70
     1
102
RTVSPost2010Prop32
280
     0
102
RTVSPost2010PropOp32
 70
     1
102
RTVSPost2010Prop33
280
     0
102
RTVSPost2010PropOp33
 70
     1
102
RTVSPost2010Prop34
280
     0
102
RTVSPost2010PropOp34
 70
     1
102
RTVSPost2010Prop35
280
     0
102
RTVSPost2010PropOp35
 70
     1
102
RTVSPost2010Prop36
280
     0
102
RTVSPost2010PropOp36
 70
     1
102
RTVSPost2010Prop37
 90
       50
102
RTVSPost2010PropOp37
 70
     1
102
RTVSPost2010Prop38
140
0.0
102
RTVSPost2010PropOp38
 70
     1
102
RTVSPost2010Prop39
140
1.0
102
RTVSPost2010PropOp39
 70
     1
102
RTVSPost2010Prop40
 90
        0
102
RTVSPost2010PropOp40
 70
     1
102
RTVSPost2010Prop41ColorIndex
 90
       18
102
RTVSPost2010Prop41ColorRGB
 90
        0
102
RTVSPost2010PropOp41
 70
     1
102
RTVSPost2010Prop42
 90
       50
102
RTVSPost2010PropOp42
 70
     1
102
RTVSPost2010Prop43
 90
        3
102
RTVSPost2010PropOp43
 70
     1
102
RTVSPost2010Prop44ColorIndex
 90
        5
102
RTVSPost2010Prop44ColorRGB
 90
      255
102
RTVSPost2010PropOp44
 70
     1
102
RTVSPost2010Prop45
280
     0
102
RTVSPost2010PropOp45
 70
     1
102
RTVSPost2010Prop46
 90
       50
102
RTVSPost2010PropOp46
 70
     1
102
RTVSPost2010Prop47
 90
       50
102
RTVSPost2010PropOp47
 70
     1
102
RTVSPost2010Prop48
 90
       50
102
RTVSPost2010PropOp48
 70
     1
102
RTVSPost2010Prop49
280
     0
102
RTVSPost2010PropOp49
 70
     1
102
RTVSPost2010Prop50
 90
       50
102
RTVSPost2010PropOp50
 70
     1
102
RTVSPost2010Prop51ColorIndex
 90
      256
102
RTVSPost2010Prop51ColorRGB
 90
-16777216
102
RTVSPost2010PropOp51
 70
     0
102
RTVSPost2010Prop52
140
1.0
102
RTVSPost2010PropOp52
 70
     0
102
RTVSPost2010Prop53
 90
        2
102
RTVSPost2010PropOp53
 70
     1
102
RTVSPost2010Prop54
  1
strokes_ogs.tif
102
RTVSPost2010PropOp54
 70
     1
102
RTVSPost2010Prop55
280
     0
102
RTVSPost2010PropOp55
 70
     1
102
RTVSPost2010Prop56
140
1.0
102
RTVSPost2010PropOp56
 70
     1
102
RTVSPost2010Prop57
140
1.0
102
RTVSPost2010PropOp57
 70
     1
102
RTVSPropertyOp0
 70
     1
102
RTVSPropertyOp1
 70
     1
102
RTVSPropertyOp2
 70
     1
102
RTVSPropertyOp3
 70
     1
102
RTVSPropertyOp4
 70
     1
102
RTVSPropertyOp5
 70
     1
102
RTVSPropertyOp6
 70
     1
102
RTVSPropertyOp7
 70
     1
102
RTVSPropertyOp8
 70
     1
102
RTVSPropertyOp9
 70
     1
102
RTVSPropertyOp10
 70
     1
102
RTVSPropertyOp11
 70
     1
102
RTVSPropertyOp12
 70
     1
102
RTVSPropertyOp13
 70
     1
102
RTVSPropertyOp14
 70
     1
102
RTVSPropertyOp15
 70
     1
102
RTVSPropertyOp16
 70
     1
102
RTVSPropertyOp17
 70
     1
102
RTVSPropertyOp18
 70
     1
102
RTVSPropertyOp19
 70
     1
102
RTVSPropertyOp20
 70
     1
102
RTVSPropertyOp21
 70
     1
102
RTVSPropertyOp22
 70
     1
102
RTVSPropertyOp23
 70
     1
102
RTVSPropertyOp24
 70
     1
102
RTVSPropertyOp25
 70
     1
102
RTVSPropertyOp26
 70
     1
102
RTVSPropertyOp27
 70
     1
102
RTVSPropertyOp28
 70
     1
102
RTVSPropertyOp29
 70
     1
102
RTVSPropertyOp30
 70
     1
102
RTVSPropertyOp31
 70
     1
102
RTVSPropertyOp32
 70
     1
102
RTVSPropertyOp33
 70
     1
102
RTVSPropertyOp34
 70
     1
102
RTVSPropertyOp35
 70
     1
102
RTVSPropertyOp36
 70
     1
102
RTVSPropertyOp37
 70
     1
102
RTVSPropertyOp38
 70
     1
102
RTVSPropertyOp39
 70
     1
102
RTVSPropertyOp40
 70
     1
102
RTVSPropertyOp41
 70
     1
102
RTVSPropertyOp42
 70
     1
102
RTVSPropertyOp43
 70
     1
102
RTVSPropertyOp44
 70
     1
102
RTVSPropertyOp45
 70
     1
102
RTVSPropertyOp46
 70
     1
102
RTVSPropertyOp47
 70
     1
102
RTVSPropertyOp48
 70
     1
102
RTVSPropertyOp49
 70
     1
102
RTVSPropertyOp50
 70
     1
102
RTVSPropertyOp51
 70
     0
102
RTVSPropertyOp52
 70
     0
102
RTVSPropertyOp53
 70
     1
102
RTVSPropertyOp54
 70
     1
102
RTVSPropertyOp55
 70
     1
102
RTVSPropertyOp56
 70
     1
102
RTVSPropertyOp57
 70
     1
102
RTVSPropertyOp58
 70
     1
102
RTVSPropertyOp59
 70
     1
102
RTVSPropertyOp60
 70
     1
102
RTVSPropertyOp61
 70
     1
102
RTVSPropertyOp62
 70
     1
  0
XRECORD
  5
A231
102
{ACAD_REACTORS
330
A230
102
}
330
A230
100
AcDbXrecord
280
     1
102
RTVSPost2010Prop28
280
     0
102
RTVSPost2010PropOp28
 70
     1
102
RTVSPost2010Prop29
280
     1
102
RTVSPost2010PropOp29
 70
     1
102
RTVSPost2010Prop30
280
     1
102
RTVSPost2010PropOp30
 70
     1
102
RTVSPost2010Prop31
280
     0
102
RTVSPost2010PropOp31
 70
     1
102
RTVSPost2010Prop32
280
     0
102
RTVSPost2010PropOp32
 70
     1
102
RTVSPost2010Prop33
280
     0
102
RTVSPost2010PropOp33
 70
     1
102
RTVSPost2010Prop34
280
     0
102
RTVSPost2010PropOp34
 70
     1
102
RTVSPost2010Prop35
280
     0
102
RTVSPost2010PropOp35
 70
     1
102
RTVSPost2010Prop36
280
     0
102
RTVSPost2010PropOp36
 70
     1
102
RTVSPost2010Prop37
 90
       50
102
RTVSPost2010PropOp37
 70
     1
102
RTVSPost2010Prop38
140
0.0
102
RTVSPost2010PropOp38
 70
     1
102
RTVSPost2010Prop39
140
1.0
102
RTVSPost2010PropOp39
 70
     1
102
RTVSPost2010Prop40
 90
        0
102
RTVSPost2010PropOp40
 70
     1
102
RTVSPost2010Prop41ColorIndex
 90
       18
102
RTVSPost2010Prop41ColorRGB
 90
        0
102
RTVSPost2010PropOp41
 70
     1
102
RTVSPost2010Prop42
 90
       50
102
RTVSPost2010PropOp42
 70
     1
102
RTVSPost2010Prop43
 90
        3
102
RTVSPost2010PropOp43
 70
     1
102
RTVSPost2010Prop44ColorIndex
 90
        5
102
RTVSPost2010Prop44ColorRGB
 90
      255
102
RTVSPost2010PropOp44
 70
     1
102
RTVSPost2010Prop45
280
     0
102
RTVSPost2010PropOp45
 70
     1
102
RTVSPost2010Prop46
 90
       50
102
RTVSPost2010PropOp46
 70
     1
102
RTVSPost2010Prop47
 90
       50
102
RTVSPost2010PropOp47
 70
     1
102
RTVSPost2010Prop48
 90
       50
102
RTVSPost2010PropOp48
 70
     1
102
RTVSPost2010Prop49
280
     0
102
RTVSPost2010PropOp49
 70
     1
102
RTVSPost2010Prop50
 90
       50
102
RTVSPost2010PropOp50
 70
     1
102
RTVSPost2010Prop51ColorIndex
 90
      256
102
RTVSPost2010Prop51ColorRGB
 90
-16777216
102
RTVSPost2010PropOp51
 70
     0
102
RTVSPost2010Prop52
140
1.0
102
RTVSPost2010PropOp52
 70
     0
102
RTVSPost2010Prop53
 90
        2
102
RTVSPost2010PropOp53
 70
     1
102
RTVSPost2010Prop54
  1
strokes_ogs.tif
102
RTVSPost2010PropOp54
 70
     1
102
RTVSPost2010Prop55
280
     0
102
RTVSPost2010PropOp55
 70
     1
102
RTVSPost2010Prop56
140
1.0
102
RTVSPost2010PropOp56
 70
     1
102
RTVSPost2010Prop57
140
1.0
102
RTVSPost2010PropOp57
 70
     1
102
RTVSPropertyOp0
 70
     1
102
RTVSPropertyOp1
 70
     1
102
RTVSPropertyOp2
 70
     1
102
RTVSPropertyOp3
 70
     1
102
RTVSPropertyOp4
 70
     1
102
RTVSPropertyOp5
 70
     1
102
RTVSPropertyOp6
 70
     1
102
RTVSPropertyOp7
 70
     1
102
RTVSPropertyOp8
 70
     1
102
RTVSPropertyOp9
 70
     1
102
RTVSPropertyOp10
 70
     1
102
RTVSPropertyOp11
 70
     1
102
RTVSPropertyOp12
 70
     1
102
RTVSPropertyOp13
 70
     1
102
RTVSPropertyOp14
 70
     1
102
RTVSPropertyOp15
 70
     1
102
RTVSPropertyOp16
 70
     1
102
RTVSPropertyOp17
 70
     1
102
RTVSPropertyOp18
 70
     1
102
RTVSPropertyOp19
 70
     1
102
RTVSPropertyOp20
 70
     1
102
RTVSPropertyOp21
 70
     1
102
RTVSPropertyOp22
 70
     1
102
RTVSPropertyOp23
 70
     1
102
RTVSPropertyOp24
 70
     1
102
RTVSPropertyOp25
 70
     1
102
RTVSPropertyOp26
 70
     1
102
RTVSPropertyOp27
 70
     1
102
RTVSPropertyOp28
 70
     1
102
RTVSPropertyOp29
 70
     1
102
RTVSPropertyOp30
 70
     1
102
RTVSPropertyOp31
 70
     1
102
RTVSPropertyOp32
 70
     1
102
RTVSPropertyOp33
 70
     1
102
RTVSPropertyOp34
 70
     1
102
RTVSPropertyOp35
 70
     1
102
RTVSPropertyOp36
 70
     1
102
RTVSPropertyOp37
 70
     1
102
RTVSPropertyOp38
 70
     1
102
RTVSPropertyOp39
 70
     1
102
RTVSPropertyOp40
 70
     1
102
RTVSPropertyOp41
 70
     1
102
RTVSPropertyOp42
 70
     1
102
RTVSPropertyOp43
 70
     1
102
RTVSPropertyOp44
 70
     1
102
RTVSPropertyOp45
 70
     1
102
RTVSPropertyOp46
 70
     1
102
RTVSPropertyOp47
 70
     1
102
RTVSPropertyOp48
 70
     1
102
RTVSPropertyOp49
 70
     1
102
RTVSPropertyOp50
 70
     1
102
RTVSPropertyOp51
 70
     0
102
RTVSPropertyOp52
 70
     0
102
RTVSPropertyOp53
 70
     1
102
RTVSPropertyOp54
 70
     1
102
RTVSPropertyOp55
 70
     1
102
RTVSPropertyOp56
 70
     1
102
RTVSPropertyOp57
 70
     1
102
RTVSPropertyOp58
 70
     1
102
RTVSPropertyOp59
 70
     1
102
RTVSPropertyOp60
 70
     1
102
RTVSPropertyOp61
 70
     1
102
RTVSPropertyOp62
 70
     1
  0
XRECORD
  5
A22B
102
{ACAD_REACTORS
330
A22A
102
}
330
A22A
100
AcDbXrecord
280
     1
102
RTVSPost2010Prop28
280
     0
102
RTVSPost2010PropOp28
 70
     1
102
RTVSPost2010Prop29
280
     1
102
RTVSPost2010PropOp29
 70
     1
102
RTVSPost2010Prop30
280
     1
102
RTVSPost2010PropOp30
 70
     1
102
RTVSPost2010Prop31
280
     0
102
RTVSPost2010PropOp31
 70
     1
102
RTVSPost2010Prop32
280
     0
102
RTVSPost2010PropOp32
 70
     1
102
RTVSPost2010Prop33
280
     0
102
RTVSPost2010PropOp33
 70
     1
102
RTVSPost2010Prop34
280
     0
102
RTVSPost2010PropOp34
 70
     1
102
RTVSPost2010Prop35
280
     0
102
RTVSPost2010PropOp35
 70
     1
102
RTVSPost2010Prop36
280
     0
102
RTVSPost2010PropOp36
 70
     1
102
RTVSPost2010Prop37
 90
       50
102
RTVSPost2010PropOp37
 70
     1
102
RTVSPost2010Prop38
140
0.0
102
RTVSPost2010PropOp38
 70
     1
102
RTVSPost2010Prop39
140
1.0
102
RTVSPost2010PropOp39
 70
     1
102
RTVSPost2010Prop40
 90
        0
102
RTVSPost2010PropOp40
 70
     1
102
RTVSPost2010Prop41ColorIndex
 90
       18
102
RTVSPost2010Prop41ColorRGB
 90
        0
102
RTVSPost2010PropOp41
 70
     1
102
RTVSPost2010Prop42
 90
       50
102
RTVSPost2010PropOp42
 70
     1
102
RTVSPost2010Prop43
 90
        3
102
RTVSPost2010PropOp43
 70
     1
102
RTVSPost2010Prop44ColorIndex
 90
        5
102
RTVSPost2010Prop44ColorRGB
 90
      255
102
RTVSPost2010PropOp44
 70
     1
102
RTVSPost2010Prop45
280
     0
102
RTVSPost2010PropOp45
 70
     1
102
RTVSPost2010Prop46
 90
       50
102
RTVSPost2010PropOp46
 70
     1
102
RTVSPost2010Prop47
 90
       50
102
RTVSPost2010PropOp47
 70
     1
102
RTVSPost2010Prop48
 90
       50
102
RTVSPost2010PropOp48
 70
     1
102
RTVSPost2010Prop49
280
     0
102
RTVSPost2010PropOp49
 70
     1
102
RTVSPost2010Prop50
 90
       50
102
RTVSPost2010PropOp50
 70
     1
102
RTVSPost2010Prop51ColorIndex
 90
      256
102
RTVSPost2010Prop51ColorRGB
 90
-16777216
102
RTVSPost2010PropOp51
 70
     0
102
RTVSPost2010Prop52
140
1.0
102
RTVSPost2010PropOp52
 70
     0
102
RTVSPost2010Prop53
 90
        2
102
RTVSPost2010PropOp53
 70
     1
102
RTVSPost2010Prop54
  1
strokes_ogs.tif
102
RTVSPost2010PropOp54
 70
     1
102
RTVSPost2010Prop55
280
     0
102
RTVSPost2010PropOp55
 70
     1
102
RTVSPost2010Prop56
140
1.0
102
RTVSPost2010PropOp56
 70
     1
102
RTVSPost2010Prop57
140
1.0
102
RTVSPost2010PropOp57
 70
     1
102
RTVSPropertyOp0
 70
     1
102
RTVSPropertyOp1
 70
     1
102
RTVSPropertyOp2
 70
     1
102
RTVSPropertyOp3
 70
     1
102
RTVSPropertyOp4
 70
     1
102
RTVSPropertyOp5
 70
     1
102
RTVSPropertyOp6
 70
     1
102
RTVSPropertyOp7
 70
     1
102
RTVSPropertyOp8
 70
     1
102
RTVSPropertyOp9
 70
     1
102
RTVSPropertyOp10
 70
     1
102
RTVSPropertyOp11
 70
     1
102
RTVSPropertyOp12
 70
     1
102
RTVSPropertyOp13
 70
     1
102
RTVSPropertyOp14
 70
     1
102
RTVSPropertyOp15
 70
     1
102
RTVSPropertyOp16
 70
     1
102
RTVSPropertyOp17
 70
     1
102
RTVSPropertyOp18
 70
     1
102
RTVSPropertyOp19
 70
     1
102
RTVSPropertyOp20
 70
     1
102
RTVSPropertyOp21
 70
     1
102
RTVSPropertyOp22
 70
     1
102
RTVSPropertyOp23
 70
     1
102
RTVSPropertyOp24
 70
     1
102
RTVSPropertyOp25
 70
     1
102
RTVSPropertyOp26
 70
     1
102
RTVSPropertyOp27
 70
     1
102
RTVSPropertyOp28
 70
     1
102
RTVSPropertyOp29
 70
     1
102
RTVSPropertyOp30
 70
     1
102
RTVSPropertyOp31
 70
     1
102
RTVSPropertyOp32
 70
     1
102
RTVSPropertyOp33
 70
     1
102
RTVSPropertyOp34
 70
     1
102
RTVSPropertyOp35
 70
     1
102
RTVSPropertyOp36
 70
     1
102
RTVSPropertyOp37
 70
     1
102
RTVSPropertyOp38
 70
     1
102
RTVSPropertyOp39
 70
     1
102
RTVSPropertyOp40
 70
     1
102
RTVSPropertyOp41
 70
     1
102
RTVSPropertyOp42
 70
     1
102
RTVSPropertyOp43
 70
     1
102
RTVSPropertyOp44
 70
     1
102
RTVSPropertyOp45
 70
     1
102
RTVSPropertyOp46
 70
     1
102
RTVSPropertyOp47
 70
     1
102
RTVSPropertyOp48
 70
     1
102
RTVSPropertyOp49
 70
     1
102
RTVSPropertyOp50
 70
     1
102
RTVSPropertyOp51
 70
     0
102
RTVSPropertyOp52
 70
     0
102
RTVSPropertyOp53
 70
     1
102
RTVSPropertyOp54
 70
     1
102
RTVSPropertyOp55
 70
     1
102
RTVSPropertyOp56
 70
     1
102
RTVSPropertyOp57
 70
     1
102
RTVSPropertyOp58
 70
     1
102
RTVSPropertyOp59
 70
     1
102
RTVSPropertyOp60
 70
     1
102
RTVSPropertyOp61
 70
     1
102
RTVSPropertyOp62
 70
     1
  0
XRECORD
  5
A22D
102
{ACAD_REACTORS
330
A22C
102
}
330
A22C
100
AcDbXrecord
280
     1
102
RTVSPost2010Prop28
280
     0
102
RTVSPost2010PropOp28
 70
     1
102
RTVSPost2010Prop29
280
     1
102
RTVSPost2010PropOp29
 70
     1
102
RTVSPost2010Prop30
280
     1
102
RTVSPost2010PropOp30
 70
     1
102
RTVSPost2010Prop31
280
     0
102
RTVSPost2010PropOp31
 70
     1
102
RTVSPost2010Prop32
280
     0
102
RTVSPost2010PropOp32
 70
     1
102
RTVSPost2010Prop33
280
     0
102
RTVSPost2010PropOp33
 70
     1
102
RTVSPost2010Prop34
280
     0
102
RTVSPost2010PropOp34
 70
     1
102
RTVSPost2010Prop35
280
     0
102
RTVSPost2010PropOp35
 70
     1
102
RTVSPost2010Prop36
280
     0
102
RTVSPost2010PropOp36
 70
     1
102
RTVSPost2010Prop37
 90
       50
102
RTVSPost2010PropOp37
 70
     1
102
RTVSPost2010Prop38
140
0.0
102
RTVSPost2010PropOp38
 70
     1
102
RTVSPost2010Prop39
140
1.0
102
RTVSPost2010PropOp39
 70
     1
102
RTVSPost2010Prop40
 90
        0
102
RTVSPost2010PropOp40
 70
     1
102
RTVSPost2010Prop41ColorIndex
 90
       18
102
RTVSPost2010Prop41ColorRGB
 90
        0
102
RTVSPost2010PropOp41
 70
     1
102
RTVSPost2010Prop42
 90
       50
102
RTVSPost2010PropOp42
 70
     1
102
RTVSPost2010Prop43
 90
        3
102
RTVSPost2010PropOp43
 70
     1
102
RTVSPost2010Prop44ColorIndex
 90
        5
102
RTVSPost2010Prop44ColorRGB
 90
      255
102
RTVSPost2010PropOp44
 70
     1
102
RTVSPost2010Prop45
280
     0
102
RTVSPost2010PropOp45
 70
     1
102
RTVSPost2010Prop46
 90
       50
102
RTVSPost2010PropOp46
 70
     1
102
RTVSPost2010Prop47
 90
       50
102
RTVSPost2010PropOp47
 70
     1
102
RTVSPost2010Prop48
 90
       50
102
RTVSPost2010PropOp48
 70
     1
102
RTVSPost2010Prop49
280
     0
102
RTVSPost2010PropOp49
 70
     1
102
RTVSPost2010Prop50
 90
       50
102
RTVSPost2010PropOp50
 70
     1
102
RTVSPost2010Prop51ColorIndex
 90
      256
102
RTVSPost2010Prop51ColorRGB
 90
-16777216
102
RTVSPost2010PropOp51
 70
     0
102
RTVSPost2010Prop52
140
1.0
102
RTVSPost2010PropOp52
 70
     0
102
RTVSPost2010Prop53
 90
        2
102
RTVSPost2010PropOp53
 70
     1
102
RTVSPost2010Prop54
  1
strokes_ogs.tif
102
RTVSPost2010PropOp54
 70
     1
102
RTVSPost2010Prop55
280
     0
102
RTVSPost2010PropOp55
 70
     1
102
RTVSPost2010Prop56
140
1.0
102
RTVSPost2010PropOp56
 70
     1
102
RTVSPost2010Prop57
140
1.0
102
RTVSPost2010PropOp57
 70
     1
102
RTVSPropertyOp0
 70
     1
102
RTVSPropertyOp1
 70
     1
102
RTVSPropertyOp2
 70
     1
102
RTVSPropertyOp3
 70
     1
102
RTVSPropertyOp4
 70
     1
102
RTVSPropertyOp5
 70
     1
102
RTVSPropertyOp6
 70
     1
102
RTVSPropertyOp7
 70
     1
102
RTVSPropertyOp8
 70
     1
102
RTVSPropertyOp9
 70
     1
102
RTVSPropertyOp10
 70
     1
102
RTVSPropertyOp11
 70
     1
102
RTVSPropertyOp12
 70
     1
102
RTVSPropertyOp13
 70
     1
102
RTVSPropertyOp14
 70
     1
102
RTVSPropertyOp15
 70
     1
102
RTVSPropertyOp16
 70
     1
102
RTVSPropertyOp17
 70
     1
102
RTVSPropertyOp18
 70
     1
102
RTVSPropertyOp19
 70
     1
102
RTVSPropertyOp20
 70
     1
102
RTVSPropertyOp21
 70
     1
102
RTVSPropertyOp22
 70
     1
102
RTVSPropertyOp23
 70
     1
102
RTVSPropertyOp24
 70
     1
102
RTVSPropertyOp25
 70
     1
102
RTVSPropertyOp26
 70
     1
102
RTVSPropertyOp27
 70
     1
102
RTVSPropertyOp28
 70
     1
102
RTVSPropertyOp29
 70
     1
102
RTVSPropertyOp30
 70
     1
102
RTVSPropertyOp31
 70
     1
102
RTVSPropertyOp32
 70
     1
102
RTVSPropertyOp33
 70
     1
102
RTVSPropertyOp34
 70
     1
102
RTVSPropertyOp35
 70
     1
102
RTVSPropertyOp36
 70
     1
102
RTVSPropertyOp37
 70
     1
102
RTVSPropertyOp38
 70
     1
102
RTVSPropertyOp39
 70
     1
102
RTVSPropertyOp40
 70
     1
102
RTVSPropertyOp41
 70
     1
102
RTVSPropertyOp42
 70
     1
102
RTVSPropertyOp43
 70
     1
102
RTVSPropertyOp44
 70
     1
102
RTVSPropertyOp45
 70
     1
102
RTVSPropertyOp46
 70
     1
102
RTVSPropertyOp47
 70
     1
102
RTVSPropertyOp48
 70
     1
102
RTVSPropertyOp49
 70
     1
102
RTVSPropertyOp50
 70
     1
102
RTVSPropertyOp51
 70
     0
102
RTVSPropertyOp52
 70
     0
102
RTVSPropertyOp53
 70
     1
102
RTVSPropertyOp54
 70
     1
102
RTVSPropertyOp55
 70
     1
102
RTVSPropertyOp56
 70
     1
102
RTVSPropertyOp57
 70
     1
102
RTVSPropertyOp58
 70
     1
102
RTVSPropertyOp59
 70
     1
102
RTVSPropertyOp60
 70
     1
102
RTVSPropertyOp61
 70
     1
102
RTVSPropertyOp62
 70
     1
  0
XRECORD
  5
A223
102
{ACAD_REACTORS
330
A222
102
}
330
A222
100
AcDbXrecord
280
     1
102
RTVSPost2010Prop28
280
     0
102
RTVSPost2010PropOp28
 70
     1
102
RTVSPost2010Prop29
280
     1
102
RTVSPost2010PropOp29
 70
     1
102
RTVSPost2010Prop30
280
     1
102
RTVSPost2010PropOp30
 70
     1
102
RTVSPost2010Prop31
280
     0
102
RTVSPost2010PropOp31
 70
     1
102
RTVSPost2010Prop32
280
     0
102
RTVSPost2010PropOp32
 70
     1
102
RTVSPost2010Prop33
280
     0
102
RTVSPost2010PropOp33
 70
     1
102
RTVSPost2010Prop34
280
     0
102
RTVSPost2010PropOp34
 70
     1
102
RTVSPost2010Prop35
280
     0
102
RTVSPost2010PropOp35
 70
     1
102
RTVSPost2010Prop36
280
     0
102
RTVSPost2010PropOp36
 70
     1
102
RTVSPost2010Prop37
 90
       50
102
RTVSPost2010PropOp37
 70
     1
102
RTVSPost2010Prop38
140
0.0
102
RTVSPost2010PropOp38
 70
     1
102
RTVSPost2010Prop39
140
1.0
102
RTVSPost2010PropOp39
 70
     1
102
RTVSPost2010Prop40
 90
        0
102
RTVSPost2010PropOp40
 70
     1
102
RTVSPost2010Prop41ColorIndex
 90
       18
102
RTVSPost2010Prop41ColorRGB
 90
        0
102
RTVSPost2010PropOp41
 70
     1
102
RTVSPost2010Prop42
 90
       50
102
RTVSPost2010PropOp42
 70
     1
102
RTVSPost2010Prop43
 90
        3
102
RTVSPost2010PropOp43
 70
     1
102
RTVSPost2010Prop44ColorIndex
 90
        5
102
RTVSPost2010Prop44ColorRGB
 90
      255
102
RTVSPost2010PropOp44
 70
     1
102
RTVSPost2010Prop45
280
     0
102
RTVSPost2010PropOp45
 70
     1
102
RTVSPost2010Prop46
 90
       50
102
RTVSPost2010PropOp46
 70
     1
102
RTVSPost2010Prop47
 90
       50
102
RTVSPost2010PropOp47
 70
     1
102
RTVSPost2010Prop48
 90
       50
102
RTVSPost2010PropOp48
 70
     1
102
RTVSPost2010Prop49
280
     0
102
RTVSPost2010PropOp49
 70
     1
102
RTVSPost2010Prop50
 90
       50
102
RTVSPost2010PropOp50
 70
     1
102
RTVSPost2010Prop51ColorIndex
 90
      256
102
RTVSPost2010Prop51ColorRGB
 90
-16777216
102
RTVSPost2010PropOp51
 70
     0
102
RTVSPost2010Prop52
140
1.0
102
RTVSPost2010PropOp52
 70
     0
102
RTVSPost2010Prop53
 90
        2
102
RTVSPost2010PropOp53
 70
     1
102
RTVSPost2010Prop54
  1
strokes_ogs.tif
102
RTVSPost2010PropOp54
 70
     1
102
RTVSPost2010Prop55
280
     0
102
RTVSPost2010PropOp55
 70
     1
102
RTVSPost2010Prop56
140
1.0
102
RTVSPost2010PropOp56
 70
     1
102
RTVSPost2010Prop57
140
1.0
102
RTVSPost2010PropOp57
 70
     1
102
RTVSPropertyOp0
 70
     1
102
RTVSPropertyOp1
 70
     1
102
RTVSPropertyOp2
 70
     1
102
RTVSPropertyOp3
 70
     1
102
RTVSPropertyOp4
 70
     1
102
RTVSPropertyOp5
 70
     1
102
RTVSPropertyOp6
 70
     1
102
RTVSPropertyOp7
 70
     1
102
RTVSPropertyOp8
 70
     1
102
RTVSPropertyOp9
 70
     1
102
RTVSPropertyOp10
 70
     1
102
RTVSPropertyOp11
 70
     1
102
RTVSPropertyOp12
 70
     1
102
RTVSPropertyOp13
 70
     1
102
RTVSPropertyOp14
 70
     1
102
RTVSPropertyOp15
 70
     1
102
RTVSPropertyOp16
 70
     1
102
RTVSPropertyOp17
 70
     1
102
RTVSPropertyOp18
 70
     1
102
RTVSPropertyOp19
 70
     1
102
RTVSPropertyOp20
 70
     1
102
RTVSPropertyOp21
 70
     1
102
RTVSPropertyOp22
 70
     1
102
RTVSPropertyOp23
 70
     1
102
RTVSPropertyOp24
 70
     1
102
RTVSPropertyOp25
 70
     1
102
RTVSPropertyOp26
 70
     1
102
RTVSPropertyOp27
 70
     1
102
RTVSPropertyOp28
 70
     1
102
RTVSPropertyOp29
 70
     1
102
RTVSPropertyOp30
 70
     1
102
RTVSPropertyOp31
 70
     1
102
RTVSPropertyOp32
 70
     1
102
RTVSPropertyOp33
 70
     1
102
RTVSPropertyOp34
 70
     1
102
RTVSPropertyOp35
 70
     1
102
RTVSPropertyOp36
 70
     1
102
RTVSPropertyOp37
 70
     1
102
RTVSPropertyOp38
 70
     1
102
RTVSPropertyOp39
 70
     1
102
RTVSPropertyOp40
 70
     1
102
RTVSPropertyOp41
 70
     1
102
RTVSPropertyOp42
 70
     1
102
RTVSPropertyOp43
 70
     1
102
RTVSPropertyOp44
 70
     1
102
RTVSPropertyOp45
 70
     1
102
RTVSPropertyOp46
 70
     1
102
RTVSPropertyOp47
 70
     1
102
RTVSPropertyOp48
 70
     1
102
RTVSPropertyOp49
 70
     1
102
RTVSPropertyOp50
 70
     1
102
RTVSPropertyOp51
 70
     0
102
RTVSPropertyOp52
 70
     0
102
RTVSPropertyOp53
 70
     1
102
RTVSPropertyOp54
 70
     1
102
RTVSPropertyOp55
 70
     1
102
RTVSPropertyOp56
 70
     1
102
RTVSPropertyOp57
 70
     1
102
RTVSPropertyOp58
 70
     1
102
RTVSPropertyOp59
 70
     1
102
RTVSPropertyOp60
 70
     1
102
RTVSPropertyOp61
 70
     1
102
RTVSPropertyOp62
 70
     1
  0
XRECORD
  5
A217
102
{ACAD_REACTORS
330
A216
102
}
330
A216
100
AcDbXrecord
280
     1
102
RTVSPost2010Prop28
280
     0
102
RTVSPost2010PropOp28
 70
     1
102
RTVSPost2010Prop29
280
     1
102
RTVSPost2010PropOp29
 70
     1
102
RTVSPost2010Prop30
280
     1
102
RTVSPost2010PropOp30
 70
     1
102
RTVSPost2010Prop31
280
     0
102
RTVSPost2010PropOp31
 70
     1
102
RTVSPost2010Prop32
280
     0
102
RTVSPost2010PropOp32
 70
     1
102
RTVSPost2010Prop33
280
     0
102
RTVSPost2010PropOp33
 70
     1
102
RTVSPost2010Prop34
280
     0
102
RTVSPost2010PropOp34
 70
     1
102
RTVSPost2010Prop35
280
     0
102
RTVSPost2010PropOp35
 70
     1
102
RTVSPost2010Prop36
280
     0
102
RTVSPost2010PropOp36
 70
     1
102
RTVSPost2010Prop37
 90
       50
102
RTVSPost2010PropOp37
 70
     1
102
RTVSPost2010Prop38
140
0.0
102
RTVSPost2010PropOp38
 70
     1
102
RTVSPost2010Prop39
140
1.0
102
RTVSPost2010PropOp39
 70
     1
102
RTVSPost2010Prop40
 90
        0
102
RTVSPost2010PropOp40
 70
     1
102
RTVSPost2010Prop41ColorIndex
 90
       18
102
RTVSPost2010Prop41ColorRGB
 90
        0
102
RTVSPost2010PropOp41
 70
     1
102
RTVSPost2010Prop42
 90
       50
102
RTVSPost2010PropOp42
 70
     1
102
RTVSPost2010Prop43
 90
        3
102
RTVSPost2010PropOp43
 70
     1
102
RTVSPost2010Prop44ColorIndex
 90
        5
102
RTVSPost2010Prop44ColorRGB
 90
      255
102
RTVSPost2010PropOp44
 70
     1
102
RTVSPost2010Prop45
280
     0
102
RTVSPost2010PropOp45
 70
     1
102
RTVSPost2010Prop46
 90
       50
102
RTVSPost2010PropOp46
 70
     1
102
RTVSPost2010Prop47
 90
       50
102
RTVSPost2010PropOp47
 70
     1
102
RTVSPost2010Prop48
 90
       50
102
RTVSPost2010PropOp48
 70
     1
102
RTVSPost2010Prop49
280
     0
102
RTVSPost2010PropOp49
 70
     1
102
RTVSPost2010Prop50
 90
       50
102
RTVSPost2010PropOp50
 70
     1
102
RTVSPost2010Prop51ColorIndex
 90
      256
102
RTVSPost2010Prop51ColorRGB
 90
-16777216
102
RTVSPost2010PropOp51
 70
     0
102
RTVSPost2010Prop52
140
1.0
102
RTVSPost2010PropOp52
 70
     0
102
RTVSPost2010Prop53
 90
        2
102
RTVSPost2010PropOp53
 70
     1
102
RTVSPost2010Prop54
  1
strokes_ogs.tif
102
RTVSPost2010PropOp54
 70
     1
102
RTVSPost2010Prop55
280
     0
102
RTVSPost2010PropOp55
 70
     1
102
RTVSPost2010Prop56
140
1.0
102
RTVSPost2010PropOp56
 70
     1
102
RTVSPost2010Prop57
140
1.0
102
RTVSPost2010PropOp57
 70
     1
102
RTVSPropertyOp0
 70
     1
102
RTVSPropertyOp1
 70
     1
102
RTVSPropertyOp2
 70
     1
102
RTVSPropertyOp3
 70
     1
102
RTVSPropertyOp4
 70
     1
102
RTVSPropertyOp5
 70
     1
102
RTVSPropertyOp6
 70
     1
102
RTVSPropertyOp7
 70
     1
102
RTVSPropertyOp8
 70
     1
102
RTVSPropertyOp9
 70
     1
102
RTVSPropertyOp10
 70
     1
102
RTVSPropertyOp11
 70
     1
102
RTVSPropertyOp12
 70
     1
102
RTVSPropertyOp13
 70
     1
102
RTVSPropertyOp14
 70
     1
102
RTVSPropertyOp15
 70
     1
102
RTVSPropertyOp16
 70
     1
102
RTVSPropertyOp17
 70
     1
102
RTVSPropertyOp18
 70
     1
102
RTVSPropertyOp19
 70
     1
102
RTVSPropertyOp20
 70
     1
102
RTVSPropertyOp21
 70
     1
102
RTVSPropertyOp22
 70
     1
102
RTVSPropertyOp23
 70
     1
102
RTVSPropertyOp24
 70
     1
102
RTVSPropertyOp25
 70
     1
102
RTVSPropertyOp26
 70
     1
102
RTVSPropertyOp27
 70
     1
102
RTVSPropertyOp28
 70
     1
102
RTVSPropertyOp29
 70
     1
102
RTVSPropertyOp30
 70
     1
102
RTVSPropertyOp31
 70
     1
102
RTVSPropertyOp32
 70
     1
102
RTVSPropertyOp33
 70
     1
102
RTVSPropertyOp34
 70
     1
102
RTVSPropertyOp35
 70
     1
102
RTVSPropertyOp36
 70
     1
102
RTVSPropertyOp37
 70
     1
102
RTVSPropertyOp38
 70
     1
102
RTVSPropertyOp39
 70
     1
102
RTVSPropertyOp40
 70
     1
102
RTVSPropertyOp41
 70
     1
102
RTVSPropertyOp42
 70
     1
102
RTVSPropertyOp43
 70
     1
102
RTVSPropertyOp44
 70
     1
102
RTVSPropertyOp45
 70
     1
102
RTVSPropertyOp46
 70
     1
102
RTVSPropertyOp47
 70
     1
102
RTVSPropertyOp48
 70
     1
102
RTVSPropertyOp49
 70
     1
102
RTVSPropertyOp50
 70
     1
102
RTVSPropertyOp51
 70
     0
102
RTVSPropertyOp52
 70
     0
102
RTVSPropertyOp53
 70
     1
102
RTVSPropertyOp54
 70
     1
102
RTVSPropertyOp55
 70
     1
102
RTVSPropertyOp56
 70
     1
102
RTVSPropertyOp57
 70
     1
102
RTVSPropertyOp58
 70
     1
102
RTVSPropertyOp59
 70
     1
102
RTVSPropertyOp60
 70
     1
102
RTVSPropertyOp61
 70
     1
102
RTVSPropertyOp62
 70
     1
  0
XRECORD
  5
A22F
102
{ACAD_REACTORS
330
A22E
102
}
330
A22E
100
AcDbXrecord
280
     1
102
RTVSPost2010Prop28
280
     0
102
RTVSPost2010PropOp28
 70
     1
102
RTVSPost2010Prop29
280
     1
102
RTVSPost2010PropOp29
 70
     1
102
RTVSPost2010Prop30
280
     1
102
RTVSPost2010PropOp30
 70
     1
102
RTVSPost2010Prop31
280
     0
102
RTVSPost2010PropOp31
 70
     1
102
RTVSPost2010Prop32
280
     0
102
RTVSPost2010PropOp32
 70
     1
102
RTVSPost2010Prop33
280
     0
102
RTVSPost2010PropOp33
 70
     1
102
RTVSPost2010Prop34
280
     0
102
RTVSPost2010PropOp34
 70
     1
102
RTVSPost2010Prop35
280
     0
102
RTVSPost2010PropOp35
 70
     1
102
RTVSPost2010Prop36
280
     0
102
RTVSPost2010PropOp36
 70
     1
102
RTVSPost2010Prop37
 90
       50
102
RTVSPost2010PropOp37
 70
     1
102
RTVSPost2010Prop38
140
0.0
102
RTVSPost2010PropOp38
 70
     1
102
RTVSPost2010Prop39
140
1.0
102
RTVSPost2010PropOp39
 70
     1
102
RTVSPost2010Prop40
 90
        0
102
RTVSPost2010PropOp40
 70
     1
102
RTVSPost2010Prop41ColorIndex
 90
       18
102
RTVSPost2010Prop41ColorRGB
 90
        0
102
RTVSPost2010PropOp41
 70
     1
102
RTVSPost2010Prop42
 90
       50
102
RTVSPost2010PropOp42
 70
     1
102
RTVSPost2010Prop43
 90
        3
102
RTVSPost2010PropOp43
 70
     1
102
RTVSPost2010Prop44ColorIndex
 90
        5
102
RTVSPost2010Prop44ColorRGB
 90
      255
102
RTVSPost2010PropOp44
 70
     1
102
RTVSPost2010Prop45
280
     0
102
RTVSPost2010PropOp45
 70
     1
102
RTVSPost2010Prop46
 90
       50
102
RTVSPost2010PropOp46
 70
     1
102
RTVSPost2010Prop47
 90
       50
102
RTVSPost2010PropOp47
 70
     1
102
RTVSPost2010Prop48
 90
       50
102
RTVSPost2010PropOp48
 70
     1
102
RTVSPost2010Prop49
280
     0
102
RTVSPost2010PropOp49
 70
     1
102
RTVSPost2010Prop50
 90
       50
102
RTVSPost2010PropOp50
 70
     1
102
RTVSPost2010Prop51ColorIndex
 90
      256
102
RTVSPost2010Prop51ColorRGB
 90
-16777216
102
RTVSPost2010PropOp51
 70
     0
102
RTVSPost2010Prop52
140
1.0
102
RTVSPost2010PropOp52
 70
     0
102
RTVSPost2010Prop53
 90
        2
102
RTVSPost2010PropOp53
 70
     1
102
RTVSPost2010Prop54
  1
strokes_ogs.tif
102
RTVSPost2010PropOp54
 70
     1
102
RTVSPost2010Prop55
280
     0
102
RTVSPost2010PropOp55
 70
     1
102
RTVSPost2010Prop56
140
1.0
102
RTVSPost2010PropOp56
 70
     1
102
RTVSPost2010Prop57
140
1.0
102
RTVSPost2010PropOp57
 70
     1
102
RTVSPropertyOp0
 70
     1
102
RTVSPropertyOp1
 70
     1
102
RTVSPropertyOp2
 70
     1
102
RTVSPropertyOp3
 70
     1
102
RTVSPropertyOp4
 70
     1
102
RTVSPropertyOp5
 70
     1
102
RTVSPropertyOp6
 70
     1
102
RTVSPropertyOp7
 70
     1
102
RTVSPropertyOp8
 70
     1
102
RTVSPropertyOp9
 70
     1
102
RTVSPropertyOp10
 70
     1
102
RTVSPropertyOp11
 70
     1
102
RTVSPropertyOp12
 70
     1
102
RTVSPropertyOp13
 70
     1
102
RTVSPropertyOp14
 70
     1
102
RTVSPropertyOp15
 70
     1
102
RTVSPropertyOp16
 70
     1
102
RTVSPropertyOp17
 70
     1
102
RTVSPropertyOp18
 70
     1
102
RTVSPropertyOp19
 70
     1
102
RTVSPropertyOp20
 70
     1
102
RTVSPropertyOp21
 70
     1
102
RTVSPropertyOp22
 70
     1
102
RTVSPropertyOp23
 70
     1
102
RTVSPropertyOp24
 70
     1
102
RTVSPropertyOp25
 70
     1
102
RTVSPropertyOp26
 70
     1
102
RTVSPropertyOp27
 70
     1
102
RTVSPropertyOp28
 70
     1
102
RTVSPropertyOp29
 70
     1
102
RTVSPropertyOp30
 70
     1
102
RTVSPropertyOp31
 70
     1
102
RTVSPropertyOp32
 70
     1
102
RTVSPropertyOp33
 70
     1
102
RTVSPropertyOp34
 70
     1
102
RTVSPropertyOp35
 70
     1
102
RTVSPropertyOp36
 70
     1
102
RTVSPropertyOp37
 70
     1
102
RTVSPropertyOp38
 70
     1
102
RTVSPropertyOp39
 70
     1
102
RTVSPropertyOp40
 70
     1
102
RTVSPropertyOp41
 70
     1
102
RTVSPropertyOp42
 70
     1
102
RTVSPropertyOp43
 70
     1
102
RTVSPropertyOp44
 70
     1
102
RTVSPropertyOp45
 70
     1
102
RTVSPropertyOp46
 70
     1
102
RTVSPropertyOp47
 70
     1
102
RTVSPropertyOp48
 70
     1
102
RTVSPropertyOp49
 70
     1
102
RTVSPropertyOp50
 70
     1
102
RTVSPropertyOp51
 70
     0
102
RTVSPropertyOp52
 70
     0
102
RTVSPropertyOp53
 70
     1
102
RTVSPropertyOp54
 70
     1
102
RTVSPropertyOp55
 70
     1
102
RTVSPropertyOp56
 70
     1
102
RTVSPropertyOp57
 70
     1
102
RTVSPropertyOp58
 70
     1
102
RTVSPropertyOp59
 70
     1
102
RTVSPropertyOp60
 70
     1
102
RTVSPropertyOp61
 70
     1
102
RTVSPropertyOp62
 70
     1
  0
ENDSEC
  0
EOF
