  0
SECTION
  2
HEADER
  9
$ACADVER
  1
AC1015
  9
$ACADMAINTVER
 70
    20
  9
$DWGCODEPAGE
  3
ANSI_932
  9
$INSBASE
 10
0.0
 20
0.0
 30
0.0
  9
$EXTMIN
 10
10.0
 20
9.999999999999998
 30
0.0
  9
$EXTMAX
 10
483.675524
 20
323.3266369999999
 30
0.0
  9
$LIMMIN
 10
0.0
 20
0.0
  9
$LIMMAX
 10
495.0
 20
341.25
  9
$ORTHOMODE
 70
     1
  9
$REGENMODE
 70
     1
  9
$FILLMODE
 70
     1
  9
$QTEXTMODE
 70
     0
  9
$MIRRTEXT
 70
     1
  9
$LTSCALE
 40
20.0
  9
$ATTMODE
 70
     1
  9
$TEXTSIZE
 40
5.0
  9
$TRACEWID
 40
1.0
  9
$TEXTSTYLE
  7
STANDARD
  9
$CLAYER
  8
0
  9
$CELTYPE
  6
BYLAYER
  9
$CECOLOR
 62
   256
  9
$CELTSCALE
 40
1.0
  9
$DISPSILH
 70
     0
  9
$DIMSCALE
 40
1.0
  9
$DIMASZ
 40
3.0
  9
$DIMEXO
 40
1.0
  9
$DIMDLI
 40
10.0
  9
$DIMRND
 40
0.0
  9
$DIMDLE
 40
0.0
  9
$DIMEXE
 40
1.0
  9
$DIMTP
 40
0.0
  9
$DIMTM
 40
0.0
  9
$DIMTXT
 40
3.2
  9
$DIMCEN
 40
0.0
  9
$DIMTSZ
 40
0.0
  9
$DIMTOL
 70
     0
  9
$DIMLIM
 70
     0
  9
$DIMTIH
 70
     0
  9
$DIMTOH
 70
     0
  9
$DIMSE1
 70
     0
  9
$DIMSE2
 70
     0
  9
$DIMTAD
 70
     3
  9
$DIMZIN
 70
     8
  9
$DIMBLK
  1

  9
$DIMASO
 70
     1
  9
$DIMSHO
 70
     1
  9
$DIMPOST
  1

  9
$DIMAPOST
  1

  9
$DIMALT
 70
     0
  9
$DIMALTD
 70
     2
  9
$DIMALTF
 40
25.4
  9
$DIMLFAC
 40
1.0
  9
$DIMTOFL
 70
     1
  9
$DIMTVP
 40
0.0
  9
$DIMTIX
 70
     0
  9
$DIMSOXD
 70
     0
  9
$DIMSAH
 70
     1
  9
$DIMBLK1
  1

  9
$DIMBLK2
  1

  9
$DIMSTYLE
  2
STANDARD
  9
$DIMCLRD
 70
     0
  9
$DIMCLRE
 70
     0
  9
$DIMCLRT
 70
     0
  9
$DIMTFAC
 40
1.0
  9
$DIMGAP
 40
1.0
  9
$DIMJUST
 70
     0
  9
$DIMSD1
 70
     0
  9
$DIMSD2
 70
     0
  9
$DIMTOLJ
 70
     1
  9
$DIMTZIN
 70
     0
  9
$DIMALTZ
 70
     0
  9
$DIMALTTZ
 70
     0
  9
$DIMUPT
 70
     0
  9
$DIMDEC
 70
     4
  9
$DIMTDEC
 70
     4
  9
$DIMALTU
 70
     2
  9
$DIMALTTD
 70
     2
  9
$DIMTXSTY
  7
STANDARD
  9
$DIMAUNIT
 70
     0
  9
$DIMADEC
 70
     0
  9
$DIMALTRND
 40
0.0
  9
$DIMAZIN
 70
     0
  9
$DIMDSEP
 70
    46
  9
$DIMATFIT
 70
     3
  9
$DIMFRAC
 70
     0
  9
$DIMLDRBLK
  1

  9
$DIMLUNIT
 70
     2
  9
$DIMLWD
 70
    -2
  9
$DIMLWE
 70
    -2
  9
$DIMTMOVE
 70
     0
  9
$LUNITS
 70
     2
  9
$LUPREC
 70
     4
  9
$SKETCHINC
 40
1.0
  9
$FILLETRAD
 40
0.0
  9
$AUNITS
 70
     0
  9
$AUPREC
 70
     2
  9
$MENU
  1
.
  9
$ELEVATION
 40
0.0
  9
$PELEVATION
 40
0.0
  9
$THICKNESS
 40
0.0
  9
$LIMCHECK
 70
     0
  9
$CHAMFERA
 40
10.0
  9
$CHAMFERB
 40
10.0
  9
$CHAMFERC
 40
0.0
  9
$CHAMFERD
 40
0.0
  9
$SKPOLY
 70
     0
  9
$TDCREATE
 40
2450980.495910417
  9
$TDUCREATE
 40
2450980.120910417
  9
$TDUPDATE
 40
2457192.598611875
  9
$TDUUPDATE
 40
2457192.223611875
  9
$TDINDWG
 40
0.0000155556
  9
$TDUSRTIMER
 40
0.0000152431
  9
$USRTIMER
 70
     1
  9
$ANGBASE
 50
0.0
  9
$ANGDIR
 70
     0
  9
$PDMODE
 70
     0
  9
$PDSIZE
 40
0.0
  9
$PLINEWID
 40
0.0
  9
$SPLFRAME
 70
     0
  9
$SPLINETYPE
 70
     6
  9
$SPLINESEGS
 70
     8
  9
$HANDSEED
  5
A326
  9
$SURFTAB1
 70
     6
  9
$SURFTAB2
 70
     6
  9
$SURFTYPE
 70
     6
  9
$SURFU
 70
     6
  9
$SURFV
 70
     6
  9
$UCSBASE
  2

  9
$UCSNAME
  2

  9
$UCSORG
 10
0.0
 20
0.0
 30
0.0
  9
$UCSXDIR
 10
1.0
 20
0.0
 30
0.0
  9
$UCSYDIR
 10
0.0
 20
1.0
 30
0.0
  9
$UCSORTHOREF
  2

  9
$UCSORTHOVIEW
 70
     0
  9
$UCSORGTOP
 10
0.0
 20
0.0
 30
0.0
  9
$UCSORGBOTTOM
 10
0.0
 20
0.0
 30
0.0
  9
$UCSORGLEFT
 10
0.0
 20
0.0
 30
0.0
  9
$UCSORGRIGHT
 10
0.0
 20
0.0
 30
0.0
  9
$UCSORGFRONT
 10
0.0
 20
0.0
 30
0.0
  9
$UCSORGBACK
 10
0.0
 20
0.0
 30
0.0
  9
$PUCSBASE
  2

  9
$PUCSNAME
  2

  9
$PUCSORG
 10
0.0
 20
0.0
 30
0.0
  9
$PUCSXDIR
 10
1.0
 20
0.0
 30
0.0
  9
$PUCSYDIR
 10
0.0
 20
1.0
 30
0.0
  9
$PUCSORTHOREF
  2

  9
$PUCSORTHOVIEW
 70
     0
  9
$PUCSORGTOP
 10
0.0
 20
0.0
 30
0.0
  9
$PUCSORGBOTTOM
 10
0.0
 20
0.0
 30
0.0
  9
$PUCSORGLEFT
 10
0.0
 20
0.0
 30
0.0
  9
$PUCSORGRIGHT
 10
0.0
 20
0.0
 30
0.0
  9
$PUCSORGFRONT
 10
0.0
 20
0.0
 30
0.0
  9
$PUCSORGBACK
 10
0.0
 20
0.0
 30
0.0
  9
$USERI1
 70
     0
  9
$USERI2
 70
     0
  9
$USERI3
 70
     0
  9
$USERI4
 70
     0
  9
$USERI5
 70
     0
  9
$USERR1
 40
0.0
  9
$USERR2
 40
0.0
  9
$USERR3
 40
0.0
  9
$USERR4
 40
0.0
  9
$USERR5
 40
0.0
  9
$WORLDVIEW
 70
     1
  9
$SHADEDGE
 70
     3
  9
$SHADEDIF
 70
    70
  9
$TILEMODE
 70
     1
  9
$MAXACTVP
 70
    16
  9
$PINSBASE
 10
0.0
 20
0.0
 30
0.0
  9
$PLIMCHECK
 70
     0
  9
$PEXTMIN
 10
1.000000000000000E+20
 20
1.000000000000000E+20
 30
1.000000000000000E+20
  9
$PEXTMAX
 10
-1.000000000000000E+20
 20
-1.000000000000000E+20
 30
-1.000000000000000E+20
  9
$PLIMMIN
 10
0.0
 20
0.0
  9
$PLIMMAX
 10
420.0
 20
297.0
  9
$UNITMODE
 70
     0
  9
$VISRETAIN
 70
     0
  9
$PLINEGEN
 70
     0
  9
$PSLTSCALE
 70
     0
  9
$TREEDEPTH
 70
  3020
  9
$CMLSTYLE
  2
STANDARD
  9
$CMLJUST
 70
     0
  9
$CMLSCALE
 40
1.0
  9
$PROXYGRAPHICS
 70
     1
  9
$MEASUREMENT
 70
     0
  9
$CELWEIGHT
370
    -1
  9
$ENDCAPS
280
     0
  9
$JOINSTYLE
280
     0
  9
$LWDISPLAY
290
     0
  9
$INSUNITS
 70
     0
  9
$HYPERLINKBASE
  1

  9
$STYLESHEET
  1

  9
$XEDIT
290
     1
  9
$CEPSNTYPE
380
     0
  9
$PSTYLEMODE
290
     1
  9
$FINGERPRINTGUID
  2
{8F69F214-282A-45A7-A2DE-2C6465F85305}
  9
$VERSIONGUID
  2
{92F2F1B2-0363-4637-A3D1-343B15282B97}
  9
$EXTNAMES
290
     1
  9
$PSVPSCALE
 40
0.0
  9
$OLESTARTUP
290
     0
  0
ENDSEC
  0
SECTION
  2
CLASSES
  0
CLASS
  1
ACDBDICTIONARYWDFLT
  2
AcDbDictionaryWithDefault
  3
ObjectDBX Classes
 90
        0
280
     0
281
     0
  0
CLASS
  1
ACDBPLACEHOLDER
  2
AcDbPlaceHolder
  3
ObjectDBX Classes
 90
        0
280
     0
281
     0
  0
CLASS
  1
LAYOUT
  2
AcDbLayout
  3
ObjectDBX Classes
 90
        0
280
     0
281
     0
  0
CLASS
  1
DICTIONARYVAR
  2
AcDbDictionaryVar
  3
ObjectDBX Classes
 90
        0
280
     0
281
     0
  0
CLASS
  1
MATERIAL
  2
AcDbMaterial
  3
ObjectDBX Classes
 90
     1153
280
     0
281
     0
  0
CLASS
  1
VISUALSTYLE
  2
AcDbVisualStyle
  3
ObjectDBX Classes
 90
     4095
280
     0
281
     0
  0
CLASS
  1
TABLESTYLE
  2
AcDbTableStyle
  3
ObjectDBX Classes
 90
     4095
280
     0
281
     0
  0
CLASS
  1
SCALE
  2
AcDbScale
  3
ObjectDBX Classes
 90
     1153
280
     0
281
     0
  0
CLASS
  1
MLEADERSTYLE
  2
AcDbMLeaderStyle
  3
ACDB_MLEADERSTYLE_CLASS
 90
     4095
280
     0
281
     0
  0
CLASS
  1
ACDBSECTIONVIEWSTYLE
  2
AcDbSectionViewStyle
  3
ObjectDBX Classes
 90
     1025
280
     0
281
     0
  0
CLASS
  1
ACDBDETAILVIEWSTYLE
  2
AcDbDetailViewStyle
  3
ObjectDBX Classes
 90
     1025
280
     0
281
     0
  0
CLASS
  1
CELLSTYLEMAP
  2
AcDbCellStyleMap
  3
ObjectDBX Classes
 90
     1152
280
     0
281
     0
  0
ENDSEC
  0
SECTION
  2
TABLES
  0
TABLE
  2
VPORT
  5
9F16
330
0
100
AcDbSymbolTable
 70
     1
  0
VPORT
  5
A26F
330
9F16
100
AcDbSymbolTableRecord
100
AcDbViewportTableRecord
  2
*ACTIVE
 70
     0
 10
0.0
 20
0.0
 11
1.0
 21
1.0
 12
341.7504904768268
 22
166.6676338465681
 13
0.0
 23
0.0
 14
10.0
 24
10.0
 15
10.0
 25
10.0
 16
0.0
 26
0.0
 36
1.0
 17
0.0
 27
0.0
 37
0.0
 40
316.8657371936405
 41
1.899603698811096
 42
50.0
 43
0.0
 44
0.0
 50
0.0
 51
0.0
 71
     0
 72
   100
 73
     1
 74
     0
 75
     0
 76
     0
 77
     0
 78
     0
281
     0
 65
     1
110
0.0
120
0.0
130
0.0
111
1.0
121
0.0
131
0.0
112
0.0
122
1.0
132
0.0
 79
     0
146
0.0
1001
ACAD_NAV_VCDISPLAY
1070
     3
  0
ENDTAB
  0
TABLE
  2
LTYPE
  5
9F13
330
0
100
AcDbSymbolTable
 70
     4
  0
LTYPE
  5
9F21
330
9F13
100
AcDbSymbolTableRecord
100
AcDbLinetypeTableRecord
  2
BYBLOCK
 70
     0
  3

 72
    65
 73
     0
 40
0.0
  0
LTYPE
  5
9F22
330
9F13
100
AcDbSymbolTableRecord
100
AcDbLinetypeTableRecord
  2
BYLAYER
 70
     0
  3

 72
    65
 73
     0
 40
0.0
  0
LTYPE
  5
9F23
330
9F13
100
AcDbSymbolTableRecord
100
AcDbLinetypeTableRecord
  2
CONTINUOUS
 70
     0
  3
Solid line
 72
    65
 73
     0
 40
0.0
  0
LTYPE
  5
9F31
330
9F13
100
AcDbSymbolTableRecord
100
AcDbLinetypeTableRecord
  2
DASHED
 70
     0
  3
__ __ __ __ __ __ __ __ __ __ __ __ __ __ __ __
 72
    65
 73
     2
 40
0.75
 49
0.5
 74
     0
 49
-0.25
 74
     0
  0
LTYPE
  5
9F32
330
9F13
100
AcDbSymbolTableRecord
100
AcDbLinetypeTableRecord
  2
CENTER
 70
     0
  3
____ _ ____ _ ____ _ ____ _ ____ _ ____ _ ____ 
 72
    65
 73
     4
 40
2.0
 49
1.25
 74
     0
 49
-0.25
 74
     0
 49
0.25
 74
     0
 49
-0.25
 74
     0
  0
LTYPE
  5
9F33
330
9F13
100
AcDbSymbolTableRecord
100
AcDbLinetypeTableRecord
  2
PHANTOM
 70
     0
  3
______  __  __  ______  __  __  ______  __  __ 
 72
    65
 73
     6
 40
2.5
 49
1.25
 74
     0
 49
-0.25
 74
     0
 49
0.25
 74
     0
 49
-0.25
 74
     0
 49
0.25
 74
     0
 49
-0.25
 74
     0
  0
ENDTAB
  0
TABLE
  2
LAYER
  5
9F10
330
0
100
AcDbSymbolTable
 70
     8
  0
LAYER
  5
9F1E
102
{ACAD_XDICTIONARY
360
A2CA
102
}
330
9F10
100
AcDbSymbolTableRecord
100
AcDbLayerTableRecord
  2
0
 70
     0
 62
     7
  6
CONTINUOUS
370
    -3
390
A278
  0
LAYER
  5
9F34
102
{ACAD_XDICTIONARY
360
A2CC
102
}
330
9F10
100
AcDbSymbolTableRecord
100
AcDbLayerTableRecord
  2
4
 70
     0
 62
     1
  6
CENTER
370
    -3
390
A278
  0
LAYER
  5
9F35
102
{ACAD_XDICTIONARY
360
A2CE
102
}
330
9F10
100
AcDbSymbolTableRecord
100
AcDbLayerTableRecord
  2
5
 70
     0
 62
     6
  6
PHANTOM
370
    -3
390
A278
  0
LAYER
  5
9F36
102
{ACAD_XDICTIONARY
360
A2D0
102
}
330
9F10
100
AcDbSymbolTableRecord
100
AcDbLayerTableRecord
  2
1
 70
     0
 62
     7
  6
CONTINUOUS
370
    -3
390
A278
  0
LAYER
  5
9F37
102
{ACAD_XDICTIONARY
360
A2D2
102
}
330
9F10
100
AcDbSymbolTableRecord
100
AcDbLayerTableRecord
  2
2
 70
     0
 62
     4
  6
CONTINUOUS
370
    -3
390
A278
  0
LAYER
  5
9F38
102
{ACAD_XDICTIONARY
360
A2D4
102
}
330
9F10
100
AcDbSymbolTableRecord
100
AcDbLayerTableRecord
  2
3
 70
     0
 62
     2
  6
DASHED
370
    -3
390
A278
  0
LAYER
  5
9F39
102
{ACAD_XDICTIONARY
360
A2D6
102
}
330
9F10
100
AcDbSymbolTableRecord
100
AcDbLayerTableRecord
  2
6
 70
     0
 62
     5
  6
CONTINUOUS
370
    -3
390
A278
  0
LAYER
  5
9F3A
102
{ACAD_XDICTIONARY
360
A2D8
102
}
330
9F10
100
AcDbSymbolTableRecord
100
AcDbLayerTableRecord
  2
7
 70
     0
 62
     3
  6
CONTINUOUS
370
    -3
390
A278
  0
ENDTAB
  0
TABLE
  2
STYLE
  5
9F11
330
0
100
AcDbSymbolTable
 70
     1
  0
STYLE
  5
9F1F
330
9F11
100
AcDbSymbolTableRecord
100
AcDbTextStyleTableRecord
  2
STANDARD
 70
     0
 40
0.0
 41
1.0
 50
0.0
 71
     0
 42
5.0
  3
txt
  4

  0
ENDTAB
  0
TABLE
  2
VIEW
  5
9F14
330
0
100
AcDbSymbolTable
 70
     0
  0
ENDTAB
  0
TABLE
  2
UCS
  5
9F15
330
0
100
AcDbSymbolTable
 70
     0
  0
ENDTAB
  0
TABLE
  2
APPID
  5
9F17
330
0
100
AcDbSymbolTable
 70
     3
  0
APPID
  5
9F20
330
9F17
100
AcDbSymbolTableRecord
100
AcDbRegAppTableRecord
  2
ACAD
 70
     0
  0
APPID
  5
A2E4
330
9F17
100
AcDbSymbolTableRecord
100
AcDbRegAppTableRecord
  2
ACAD_NAV_VCDISPLAY
 70
     0
  0
APPID
  5
A31D
330
9F17
100
AcDbSymbolTableRecord
100
AcDbRegAppTableRecord
  2
ACAD_MLEADERVER
 70
     0
  0
ENDTAB
  0
TABLE
  2
DIMSTYLE
  5
9F18
330
0
100
AcDbSymbolTable
 70
     1
100
AcDbDimStyleTable
 71
     0
  0
DIMSTYLE
105
9F3C
330
9F18
100
AcDbSymbolTableRecord
100
AcDbDimStyleTableRecord
  2
STANDARD
 70
     0
 41
3.0
 42
1.0
 43
10.0
 44
1.0
 73
     0
 74
     0
 77
     3
 78
     8
140
3.2
141
0.0
147
1.0
172
     1
173
     1
284
     8
285
     8
286
     8
340
9F1F
  0
ENDTAB
  0
TABLE
  2
BLOCK_RECORD
  5
9F0F
330
0
100
AcDbSymbolTable
 70
     0
  0
BLOCK_RECORD
  5
9F2C
102
{ACAD_XDICTIONARY
360
A272
102
}
330
9F0F
100
AcDbSymbolTableRecord
100
AcDbBlockTableRecord
  2
*MODEL_SPACE
340
A2C6
  0
BLOCK_RECORD
  5
9F28
102
{ACAD_XDICTIONARY
360
A270
102
}
330
9F0F
100
AcDbSymbolTableRecord
100
AcDbBlockTableRecord
  2
*PAPER_SPACE
340
A2C7
  0
ENDTAB
  0
ENDSEC
  0
SECTION
  2
BLOCKS
  0
BLOCK
  5
9F2D
330
9F2C
100
AcDbEntity
  8
0
100
AcDbBlockBegin
  2
*MODEL_SPACE
 70
     0
 10
0.0
 20
0.0
 30
0.0
  3
*MODEL_SPACE
  1

  0
ENDBLK
  5
9F2E
330
9F2C
100
AcDbEntity
  8
0
100
AcDbBlockEnd
  0
BLOCK
  5
9F29
330
9F28
100
AcDbEntity
 67
     1
  8
0
100
AcDbBlockBegin
  2
*PAPER_SPACE
 70
     0
 10
0.0
 20
0.0
 30
0.0
  3
*PAPER_SPACE
  1

  0
ENDBLK
  5
9F2A
330
9F28
100
AcDbEntity
 67
     1
  8
0
100
AcDbBlockEnd
  0
ENDSEC
  0
SECTION
  2
ENTITIES
  0
TEXT
  5
9F44
330
9F2C
100
AcDbEntity
  8
7
  6
Continuous
100
AcDbText
 10
10.0
 20
18.0
 30
0.0
 40
3.0
  1
TYPE No.TL-11J-2
100
AcDbText
  0
TEXT
  5
9F45
330
9F2C
100
AcDbEntity
  8
7
  6
Continuous
100
AcDbText
 10
10.0
 20
26.0
 30
0.0
 40
3.0
  1
CODE No.1385
100
AcDbText
  0
TEXT
  5
9F46
330
9F2C
100
AcDbEntity
  8
1
  6
Continuous
100
AcDbText
 10
10.0
 20
10.0
 30
0.0
 40
1.399999999999999
  1
LAYER
100
AcDbText
  0
TEXT
  5
9F47
330
9F2C
100
AcDbEntity
  8
1
  6
Continuous
100
AcDbText
 10
17.97951099999998
 20
10.04873699999998
 30
0.0
 40
1.399999999999999
  1
1
100
AcDbText
  0
TEXT
  5
9F48
330
9F2C
100
AcDbEntity
  8
7
  6
Continuous
100
AcDbText
 10
29.97951099999999
 20
10.04873699999998
 30
0.0
 40
1.399999999999999
  1
7
100
AcDbText
  0
TEXT
  5
9F49
330
9F2C
100
AcDbEntity
  8
4
  6
CENTER
100
AcDbText
 10
23.97951099999999
 20
10.04873699999998
 30
0.0
 40
1.399999999999999
  1
4
100
AcDbText
  0
TEXT
  5
9F4A
330
9F2C
100
AcDbEntity
  8
3
  6
DASHED
100
AcDbText
 10
21.979511
 20
10.04873699999998
 30
0.0
 40
1.399999999999999
  1
3
100
AcDbText
  0
TEXT
  5
9F4B
330
9F2C
100
AcDbEntity
  8
2
  6
Continuous
100
AcDbText
 10
19.97951099999999
 20
10.04873699999998
 30
0.0
 40
1.399999999999999
  1
2
100
AcDbText
  0
TEXT
  5
9F4C
330
9F2C
100
AcDbEntity
  8
6
  6
Continuous
100
AcDbText
 10
27.979511
 20
10.04873699999998
 30
0.0
 40
1.399999999999999
  1
6
100
AcDbText
  0
TEXT
  5
9F4D
330
9F2C
100
AcDbEntity
  8
5
  6
PHANTOM
100
AcDbText
 10
25.97951099999999
 20
10.04873699999998
 30
0.0
 40
1.399999999999999
  1
5
100
AcDbText
  0
LINE
  5
9F4E
330
9F2C
100
AcDbEntity
  8
1
  6
Continuous
100
AcDbLine
 10
42.984724
 20
175.71215
 30
0.0
 11
42.984724
 21
160.1916369999999
 31
0.0
  0
LINE
  5
9F4F
330
9F2C
100
AcDbEntity
  8
1
  6
Continuous
100
AcDbLine
 10
38.28472399999998
 20
185.4416369999999
 30
0.0
 11
25.184724
 21
185.4416369999999
 31
0.0
  0
LINE
  5
9F50
330
9F2C
100
AcDbEntity
  8
1
  6
Continuous
100
AcDbLine
 10
36.234724
 20
135.4416369999999
 30
0.0
 11
27.234724
 21
135.4416369999999
 31
0.0
  0
LINE
  5
9F51
330
9F2C
100
AcDbEntity
  8
1
  6
Continuous
100
AcDbLine
 10
38.28472399999998
 20
185.4416369999999
 30
0.0
 11
38.28472399999998
 21
174.4416369999999
 31
0.0
  0
LINE
  5
9F52
330
9F2C
100
AcDbEntity
  8
1
  6
Continuous
100
AcDbLine
 10
42.734724
 20
145.4416369999999
 30
0.0
 11
41.23472399999999
 21
145.4416369999999
 31
0.0
  0
LINE
  5
9F53
330
9F2C
100
AcDbEntity
  8
1
  6
Continuous
100
AcDbLine
 10
41.23472399999999
 20
145.4416369999999
 30
0.0
 11
41.23472399999999
 21
140.4416369999999
 31
0.0
  0
LINE
  5
9F54
330
9F2C
100
AcDbEntity
  8
1
  6
Continuous
100
AcDbLine
 10
43.73472399999999
 20
160.1916369999999
 30
0.0
 11
43.73472399999999
 21
157.691637
 31
0.0
  0
LINE
  5
9F55
330
9F2C
100
AcDbEntity
  8
4
  6
CENTER
100
AcDbLine
 10
45.73472399999999
 20
158.9416369999999
 30
0.0
 11
40.73472399999999
 21
158.9416369999999
 31
0.0
  0
LINE
  5
9F56
330
9F2C
100
AcDbEntity
  8
1
  6
Continuous
100
AcDbLine
 10
43.73472399999999
 20
157.691637
 30
0.0
 11
42.734724
 21
157.691637
 31
0.0
  0
LINE
  5
9F57
330
9F2C
100
AcDbEntity
  8
4
  6
CENTER
100
AcDbLine
 10
17.734724
 20
158.9416369999999
 30
0.0
 11
22.734724
 21
158.9416369999999
 31
0.0
  0
LINE
  5
9F58
330
9F2C
100
AcDbEntity
  8
1
  6
Continuous
100
AcDbLine
 10
19.734724
 20
157.691637
 30
0.0
 11
20.73472399999999
 21
157.691637
 31
0.0
  0
LINE
  5
9F59
330
9F2C
100
AcDbEntity
  8
1
  6
Continuous
100
AcDbLine
 10
22.23472399999999
 20
145.4416369999999
 30
0.0
 11
22.23472399999999
 21
140.4416369999999
 31
0.0
  0
LINE
  5
9F5A
330
9F2C
100
AcDbEntity
  8
1
  6
Continuous
100
AcDbLine
 10
19.734724
 20
160.1916369999999
 30
0.0
 11
19.734724
 21
157.691637
 31
0.0
  0
LINE
  5
9F5B
330
9F2C
100
AcDbEntity
  8
1
  6
Continuous
100
AcDbLine
 10
20.73472399999999
 20
145.4416369999999
 30
0.0
 11
22.23472399999999
 21
145.4416369999999
 31
0.0
  0
LINE
  5
9F5C
330
9F2C
100
AcDbEntity
  8
1
  6
Continuous
100
AcDbLine
 10
25.184724
 20
185.4416369999999
 30
0.0
 11
25.184724
 21
174.4416369999999
 31
0.0
  0
LINE
  5
9F5D
330
9F2C
100
AcDbEntity
  8
1
  6
Continuous
100
AcDbLine
 10
20.484724
 20
176.3544719999999
 30
0.0
 11
20.484724
 21
160.1916369999999
 31
0.0
  0
LINE
  5
9F5E
330
9F2C
100
AcDbEntity
  8
1
  6
Continuous
100
AcDbLine
 10
200.2815239999999
 20
185.4416369999999
 30
0.0
 11
203.281524
 21
185.4416369999999
 31
0.0
  0
LINE
  5
9F5F
330
9F2C
100
AcDbEntity
  8
1
  6
Continuous
100
AcDbLine
 10
200.2815239999999
 20
135.4416369999999
 30
0.0
 11
201.781524
 21
135.4416369999999
 31
0.0
  0
LINE
  5
9F60
330
9F2C
100
AcDbEntity
  8
1
  6
Continuous
100
AcDbLine
 10
200.2815239999999
 20
185.4416369999999
 30
0.0
 11
200.2815239999999
 21
135.4416369999999
 31
0.0
  0
LINE
  5
9F61
330
9F2C
100
AcDbEntity
  8
1
  6
Continuous
100
AcDbLine
 10
204.2815239999999
 20
172.4416369999999
 30
0.0
 11
204.2815239999999
 21
168.941637
 31
0.0
  0
LINE
  5
9F62
330
9F2C
100
AcDbEntity
  8
1
  6
Continuous
100
AcDbLine
 10
202.2815239999999
 20
167.4416369999999
 30
0.0
 11
205.531524
 21
167.4416369999999
 31
0.0
  0
LINE
  5
9F63
330
9F2C
100
AcDbEntity
  8
1
  6
Continuous
100
AcDbLine
 10
212.2815239999999
 20
172.4416369999999
 30
0.0
 11
212.2815239999999
 21
150.4416369999999
 31
0.0
  0
LINE
  5
9F64
330
9F2C
100
AcDbEntity
  8
1
  6
Continuous
100
AcDbLine
 10
200.2815239999999
 20
145.4416369999999
 30
0.0
 11
214.281524
 21
145.4416369999999
 31
0.0
  0
LINE
  5
9F65
330
9F2C
100
AcDbEntity
  8
1
  6
Continuous
100
AcDbLine
 10
204.5315239999999
 20
154.1916369999999
 30
0.0
 11
204.5315239999999
 21
150.6916369999999
 31
0.0
  0
LINE
  5
9F66
330
9F2C
100
AcDbEntity
  8
1
  6
Continuous
100
AcDbLine
 10
210.031524
 20
154.1916369999999
 30
0.0
 11
210.031524
 21
150.6916369999999
 31
0.0
  0
LINE
  5
9F67
330
9F2C
100
AcDbEntity
  8
4
  6
CENTER
100
AcDbLine
 10
204.2815239999999
 20
161.4416369999999
 30
0.0
 11
204.2815239999999
 21
156.441637
 31
0.0
  0
LINE
  5
9F68
330
9F2C
100
AcDbEntity
  8
4
  6
CENTER
100
AcDbLine
 10
201.781524
 20
158.9416369999999
 30
0.0
 11
206.7815239999999
 21
158.9416369999999
 31
0.0
  0
LINE
  5
9F69
330
9F2C
100
AcDbEntity
  8
4
  6
CENTER
100
AcDbLine
 10
204.7815239999999
 20
162.4416369999999
 30
0.0
 11
211.781524
 21
162.4416369999999
 31
0.0
  0
LINE
  5
9F6A
330
9F2C
100
AcDbEntity
  8
4
  6
CENTER
100
AcDbLine
 10
208.2815239999999
 20
165.9416369999999
 30
0.0
 11
208.2815239999999
 21
158.9416369999999
 31
0.0
  0
LINE
  5
9F6B
330
9F2C
100
AcDbEntity
  8
4
  6
CENTER
100
AcDbLine
 10
202.5315239999999
 20
152.4416369999999
 30
0.0
 11
212.031524
 21
152.4416369999999
 31
0.0
  0
LINE
  5
9F6C
330
9F2C
100
AcDbEntity
  8
4
  6
CENTER
100
AcDbLine
 10
207.2815239999999
 20
158.9416369999999
 30
0.0
 11
207.2815239999999
 21
145.9416369999999
 31
0.0
  0
LINE
  5
9F6D
330
9F2C
100
AcDbEntity
  8
1
  6
Continuous
100
AcDbLine
 10
201.781524
 20
145.4416369999999
 30
0.0
 11
201.781524
 21
135.4416369999999
 31
0.0
  0
LINE
  5
9F6E
330
9F2C
100
AcDbEntity
  8
1
  6
Continuous
100
AcDbLine
 10
22.23472399999999
 20
304.3266369999999
 30
0.0
 11
41.23472399999999
 21
304.3266369999999
 31
0.0
  0
LINE
  5
9F6F
330
9F2C
100
AcDbEntity
  8
1
  6
Continuous
100
AcDbLine
 10
36.78472399999999
 20
316.326637
 30
0.0
 11
36.78472399999999
 21
315.326637
 31
0.0
  0
LINE
  5
9F70
330
9F2C
100
AcDbEntity
  8
1
  6
Continuous
100
AcDbLine
 10
26.684724
 20
316.326637
 30
0.0
 11
26.684724
 21
315.326637
 31
0.0
  0
LINE
  5
9F71
330
9F2C
100
AcDbEntity
  8
1
  6
Continuous
100
AcDbLine
 10
26.684724
 20
305.826637
 30
0.0
 11
36.78472399999999
 21
305.826637
 31
0.0
  0
LINE
  5
9F72
330
9F2C
100
AcDbEntity
  8
1
  6
Continuous
100
AcDbLine
 10
25.184724
 20
316.326637
 30
0.0
 11
25.184724
 21
315.326637
 31
0.0
  0
LINE
  5
9F73
330
9F2C
100
AcDbEntity
  8
1
  6
Continuous
100
AcDbLine
 10
38.28472399999998
 20
316.326637
 30
0.0
 11
38.28472399999998
 21
315.326637
 31
0.0
  0
LINE
  5
9F74
330
9F2C
100
AcDbEntity
  8
4
  6
CENTER
100
AcDbLine
 10
17.734724
 20
308.326637
 30
0.0
 11
22.734724
 21
308.326637
 31
0.0
  0
LINE
  5
9F75
330
9F2C
100
AcDbEntity
  8
4
  6
CENTER
100
AcDbLine
 10
45.73472399999999
 20
308.326637
 30
0.0
 11
40.73472399999999
 21
308.326637
 31
0.0
  0
LINE
  5
9F76
330
9F2C
100
AcDbEntity
  8
1
  6
Continuous
100
AcDbLine
 10
214.281524
 20
185.4416369999999
 30
0.0
 11
214.281524
 21
145.4416369999999
 31
0.0
  0
LINE
  5
9F77
330
9F2C
100
AcDbEntity
  8
1
  6
Continuous
100
AcDbLine
 10
212.9612569999999
 20
185.4416369999999
 30
0.0
 11
214.281524
 21
185.4416369999999
 31
0.0
  0
LINE
  5
9F78
330
9F2C
100
AcDbEntity
  8
1
  6
Continuous
100
AcDbLine
 10
212.2815239999999
 20
180.2846629999999
 30
0.0
 11
212.2815239999999
 21
180.098431
 31
0.0
  0
LINE
  5
9F79
330
9F2C
100
AcDbEntity
  8
1
  6
Continuous
100
AcDbLine
 10
212.2815239999999
 20
159.4416369999999
 30
0.0
 11
214.281524
 21
159.4416369999999
 31
0.0
  0
LINE
  5
9F7A
330
9F2C
100
AcDbEntity
  8
1
  6
Continuous
100
AcDbLine
 10
38.734724
 20
179.9416369999999
 30
0.0
 11
38.28472399999998
 21
179.9416369999999
 31
0.0
  0
LINE
  5
9F7B
330
9F2C
100
AcDbEntity
  8
1
  6
Continuous
100
AcDbLine
 10
24.734724
 20
318.326637
 30
0.0
 11
38.734724
 21
318.326637
 31
0.0
  0
LINE
  5
9F7C
330
9F2C
100
AcDbEntity
  8
1
  6
Continuous
100
AcDbLine
 10
22.734724
 20
316.326637
 30
0.0
 11
22.734724
 21
315.326637
 31
0.0
  0
LINE
  5
9F7D
330
9F2C
100
AcDbEntity
  8
1
  6
Continuous
100
AcDbLine
 10
40.73472399999999
 20
316.326637
 30
0.0
 11
40.73472399999999
 21
315.326637
 31
0.0
  0
LINE
  5
9F7E
330
9F2C
100
AcDbEntity
  8
1
  6
Continuous
100
AcDbLine
 10
24.734724
 20
316.326637
 30
0.0
 11
26.83472399999999
 21
316.326637
 31
0.0
  0
LINE
  5
9F7F
330
9F2C
100
AcDbEntity
  8
1
  6
Continuous
100
AcDbLine
 10
24.734724
 20
318.326637
 30
0.0
 11
24.734724
 21
315.326637
 31
0.0
  0
LINE
  5
9F80
330
9F2C
100
AcDbEntity
  8
1
  6
Continuous
100
AcDbLine
 10
38.734724
 20
318.326637
 30
0.0
 11
38.734724
 21
315.326637
 31
0.0
  0
LINE
  5
9F81
330
9F2C
100
AcDbEntity
  8
1
  6
Continuous
100
AcDbLine
 10
26.83472399999999
 20
316.326637
 30
0.0
 11
26.83472399999999
 21
315.326637
 31
0.0
  0
LINE
  5
9F82
330
9F2C
100
AcDbEntity
  8
1
  6
Continuous
100
AcDbLine
 10
36.63472399999999
 20
316.326637
 30
0.0
 11
36.63472399999999
 21
315.326637
 31
0.0
  0
LINE
  5
9F83
330
9F2C
100
AcDbEntity
  8
1
  6
Continuous
100
AcDbLine
 10
28.834724
 20
316.326637
 30
0.0
 11
28.834724
 21
315.326637
 31
0.0
  0
LINE
  5
9F84
330
9F2C
100
AcDbEntity
  8
1
  6
Continuous
100
AcDbLine
 10
34.634724
 20
316.326637
 30
0.0
 11
34.634724
 21
315.326637
 31
0.0
  0
LINE
  5
9F85
330
9F2C
100
AcDbEntity
  8
1
  6
Continuous
100
AcDbLine
 10
36.63472399999999
 20
316.326637
 30
0.0
 11
38.734724
 21
316.326637
 31
0.0
  0
LINE
  5
9F86
330
9F2C
100
AcDbEntity
  8
1
  6
Continuous
100
AcDbLine
 10
28.834724
 20
316.326637
 30
0.0
 11
34.634724
 21
316.326637
 31
0.0
  0
LINE
  5
9F87
330
9F2C
100
AcDbEntity
  8
1
  6
Continuous
100
AcDbLine
 10
19.48472399999999
 20
193.4416369999999
 30
0.0
 11
18.484724
 21
193.4416369999999
 31
0.0
  0
LINE
  5
9F88
330
9F2C
100
AcDbEntity
  8
1
  6
Continuous
100
AcDbLine
 10
19.734724
 20
158.9416369999999
 30
0.0
 11
18.484724
 21
158.9416369999999
 31
0.0
  0
LINE
  5
9F89
330
9F2C
100
AcDbEntity
  8
1
  6
Continuous
100
AcDbLine
 10
20.484724
 20
190.4416369999999
 30
0.0
 11
20.484724
 21
187.1701239999999
 31
0.0
  0
LINE
  5
9F8A
330
9F2C
100
AcDbEntity
  8
1
  6
Continuous
100
AcDbLine
 10
203.281524
 20
190.4416369999999
 30
0.0
 11
205.531524
 21
190.4416369999999
 31
0.0
  0
LINE
  5
9F8B
330
9F2C
100
AcDbEntity
  8
1
  6
Continuous
100
AcDbLine
 10
213.2815239999999
 20
190.4416369999999
 30
0.0
 11
213.2815239999999
 21
187.4416369999999
 31
0.0
  0
LINE
  5
9F8C
330
9F2C
100
AcDbEntity
  8
1
  6
Continuous
100
AcDbLine
 10
203.281524
 20
190.4416369999999
 30
0.0
 11
203.281524
 21
187.4416369999999
 31
0.0
  0
LINE
  5
9F8D
330
9F2C
100
AcDbEntity
  8
1
  6
Continuous
100
AcDbLine
 10
203.281524
 20
187.4416369999999
 30
0.0
 11
205.531524
 21
187.4416369999999
 31
0.0
  0
LINE
  5
9F8E
330
9F2C
100
AcDbEntity
  8
1
  6
Continuous
100
AcDbLine
 10
18.484724
 20
203.1916369999999
 30
0.0
 11
20.484724
 21
203.1916369999999
 31
0.0
  0
LINE
  5
9F8F
330
9F2C
100
AcDbEntity
  8
1
  6
Continuous
100
AcDbLine
 10
16.484724
 20
172.4416369999999
 30
0.0
 11
18.484724
 21
172.4416369999999
 31
0.0
  0
LINE
  5
9F90
330
9F2C
100
AcDbEntity
  8
1
  6
Continuous
100
AcDbLine
 10
16.484724
 20
194.4416369999999
 30
0.0
 11
16.484724
 21
186.563487
 31
0.0
  0
LINE
  5
9F91
330
9F2C
100
AcDbEntity
  8
1
  6
Continuous
100
AcDbLine
 10
20.484724
 20
203.1916369999999
 30
0.0
 11
20.484724
 21
194.4416369999999
 31
0.0
  0
LINE
  5
9F92
330
9F2C
100
AcDbEntity
  8
1
  6
Continuous
100
AcDbLine
 10
17.48472399999998
 20
195.4416369999999
 30
0.0
 11
18.484724
 21
195.4416369999999
 31
0.0
  0
LINE
  5
9F93
330
9F2C
100
AcDbEntity
  8
1
  6
Continuous
100
AcDbLine
 10
18.484724
 20
203.1916369999999
 30
0.0
 11
18.484724
 21
195.4416369999999
 31
0.0
  0
LINE
  5
9F94
330
9F2C
100
AcDbEntity
  8
1
  6
Continuous
100
AcDbLine
 10
18.484724
 20
193.4416369999999
 30
0.0
 11
18.484724
 21
186.8489639999999
 31
0.0
  0
LINE
  5
9F95
330
9F2C
100
AcDbEntity
  8
1
  6
Continuous
100
AcDbLine
 10
205.531524
 20
196.018637
 30
0.0
 11
206.5915239999999
 21
201.012637
 31
0.0
  0
LINE
  5
9F96
330
9F2C
100
AcDbEntity
  8
1
  6
Continuous
100
AcDbLine
 10
211.0315239999999
 20
195.4416369999999
 30
0.0
 11
211.971524
 21
199.8706369999999
 31
0.0
  0
LINE
  5
9F97
330
9F2C
100
AcDbEntity
  8
1
  6
Continuous
100
AcDbLine
 10
205.531524
 20
195.4416369999999
 30
0.0
 11
211.0315239999999
 21
195.4416369999999
 31
0.0
  0
LINE
  5
9F98
330
9F2C
100
AcDbEntity
  8
1
  6
Continuous
100
AcDbLine
 10
211.0315239999999
 20
195.4416369999999
 30
0.0
 11
211.0315239999999
 21
187.2414929999999
 31
0.0
  0
LINE
  5
9F99
330
9F2C
100
AcDbEntity
  8
1
  6
Continuous
100
AcDbLine
 10
213.2815239999999
 20
175.4416369999999
 30
0.0
 11
213.2815239999999
 21
172.4416369999999
 31
0.0
  0
LINE
  5
9F9A
330
9F2C
100
AcDbEntity
  8
1
  6
Continuous
100
AcDbLine
 10
203.281524
 20
175.4416369999999
 30
0.0
 11
203.281524
 21
172.4416369999999
 31
0.0
  0
LINE
  5
9F9B
330
9F2C
100
AcDbEntity
  8
1
  6
Continuous
100
AcDbLine
 10
203.281524
 20
175.4416369999999
 30
0.0
 11
205.531524
 21
175.4416369999999
 31
0.0
  0
LINE
  5
9F9C
330
9F2C
100
AcDbEntity
  8
1
  6
Continuous
100
AcDbLine
 10
205.531524
 20
196.018637
 30
0.0
 11
205.531524
 21
186.456434
 31
0.0
  0
LINE
  5
9F9D
330
9F2C
100
AcDbEntity
  8
4
  6
CENTER
100
AcDbLine
 10
47.734724
 20
200.4416369999999
 30
0.0
 11
15.73472399999998
 21
200.4416369999999
 31
0.0
  0
LINE
  5
9F9E
330
9F2C
100
AcDbEntity
  8
1
  6
Continuous
100
AcDbLine
 10
38.734724
 20
179.9416369999999
 30
0.0
 11
38.734724
 21
182.9416369999999
 31
0.0
  0
LINE
  5
9F9F
330
9F2C
100
AcDbEntity
  8
1
  6
Continuous
100
AcDbLine
 10
24.734724
 20
179.9416369999999
 30
0.0
 11
24.734724
 21
182.9416369999999
 31
0.0
  0
LINE
  5
9FA0
330
9F2C
100
AcDbEntity
  8
4
  6
CENTER
100
AcDbLine
 10
391.001524
 20
181.441637
 30
0.0
 11
373.001524
 21
181.441637
 31
0.0
  0
LINE
  5
9FA1
330
9F2C
100
AcDbEntity
  8
1
  6
Continuous
100
AcDbLine
 10
25.184724
 20
179.9416369999999
 30
0.0
 11
24.734724
 21
179.9416369999999
 31
0.0
  0
LINE
  5
9FA2
330
9F2C
100
AcDbEntity
  8
1
  6
Continuous
100
AcDbLine
 10
38.734724
 20
182.9416369999999
 30
0.0
 11
38.28472399999998
 21
182.9416369999999
 31
0.0
  0
LINE
  5
9FA3
330
9F2C
100
AcDbEntity
  8
1
  6
Continuous
100
AcDbLine
 10
25.184724
 20
182.9416369999999
 30
0.0
 11
24.734724
 21
182.9416369999999
 31
0.0
  0
LINE
  5
9FA4
330
9F2C
100
AcDbEntity
  8
1
  6
Continuous
100
AcDbLine
 10
45.73472399999999
 20
164.4416369999999
 30
0.0
 11
45.73472399999999
 21
160.4416369999999
 31
0.0
  0
LINE
  5
9FA5
330
9F2C
100
AcDbEntity
  8
1
  6
Continuous
100
AcDbLine
 10
17.734724
 20
164.4416369999999
 30
0.0
 11
17.734724
 21
160.4416369999999
 31
0.0
  0
LINE
  5
9FA6
330
9F2C
100
AcDbEntity
  8
1
  6
Continuous
100
AcDbLine
 10
45.73472399999999
 20
164.4416369999999
 30
0.0
 11
44.98472399999999
 21
164.4416369999999
 31
0.0
  0
LINE
  5
9FA7
330
9F2C
100
AcDbEntity
  8
1
  6
Continuous
100
AcDbLine
 10
45.73472399999999
 20
160.4416369999999
 30
0.0
 11
44.98472399999999
 21
160.4416369999999
 31
0.0
  0
LINE
  5
9FA8
330
9F2C
100
AcDbEntity
  8
1
  6
Continuous
100
AcDbLine
 10
18.484724
 20
160.4416369999999
 30
0.0
 11
17.734724
 21
160.4416369999999
 31
0.0
  0
LINE
  5
9FA9
330
9F2C
100
AcDbEntity
  8
1
  6
Continuous
100
AcDbLine
 10
18.484724
 20
164.4416369999999
 30
0.0
 11
17.734724
 21
164.4416369999999
 31
0.0
  0
LINE
  5
9FAA
330
9F2C
100
AcDbEntity
  8
1
  6
Continuous
100
AcDbLine
 10
43.73472399999999
 20
158.9416369999999
 30
0.0
 11
44.98472399999999
 21
158.9416369999999
 31
0.0
  0
LINE
  5
9FAB
330
9F2C
100
AcDbEntity
  8
1
  6
Continuous
100
AcDbLine
 10
42.984724
 20
198.4416369999999
 30
0.0
 11
20.484724
 21
198.4416369999999
 31
0.0
  0
LINE
  5
9FAC
330
9F2C
100
AcDbEntity
  8
1
  6
Continuous
100
AcDbLine
 10
42.984724
 20
202.4416369999999
 30
0.0
 11
20.484724
 21
202.4416369999999
 31
0.0
  0
LINE
  5
9FAD
330
9F2C
100
AcDbEntity
  8
4
  6
CENTER
100
AcDbLine
 10
31.734724
 20
323.3266369999999
 30
0.0
 11
31.734724
 21
299.326637
 31
0.0
  0
LINE
  5
9FAE
330
9F2C
100
AcDbEntity
  8
1
  6
Continuous
100
AcDbLine
 10
211.0315239999999
 20
190.4416369999999
 30
0.0
 11
213.2815239999999
 21
190.4416369999999
 31
0.0
  0
LINE
  5
9FAF
330
9F2C
100
AcDbEntity
  8
1
  6
Continuous
100
AcDbLine
 10
203.281524
 20
172.4416369999999
 30
0.0
 11
213.2815239999999
 21
172.4416369999999
 31
0.0
  0
LINE
  5
9FB0
330
9F2C
100
AcDbEntity
  8
4
  6
CENTER
100
AcDbLine
 10
15.73472399999998
 20
313.326637
 30
0.0
 11
47.734724
 21
313.326637
 31
0.0
  0
LINE
  5
9FB1
330
9F2C
100
AcDbEntity
  8
1
  6
Continuous
100
AcDbLine
 10
205.531524
 20
172.4416369999999
 30
0.0
 11
205.531524
 21
161.691637
 31
0.0
  0
LINE
  5
9FB2
330
9F2C
100
AcDbEntity
  8
1
  6
Continuous
100
AcDbLine
 10
211.0315239999999
 20
172.4416369999999
 30
0.0
 11
211.0315239999999
 21
161.691637
 31
0.0
  0
LINE
  5
9FB3
330
9F2C
100
AcDbEntity
  8
1
  6
Continuous
100
AcDbLine
 10
38.28472399999998
 20
310.326637
 30
0.0
 11
40.402148
 21
310.326637
 31
0.0
  0
LINE
  5
9FB4
330
9F2C
100
AcDbEntity
  8
1
  6
Continuous
100
AcDbLine
 10
36.63472399999999
 20
310.326637
 30
0.0
 11
36.78472399999999
 21
310.326637
 31
0.0
  0
LINE
  5
9FB5
330
9F2C
100
AcDbEntity
  8
1
  6
Continuous
100
AcDbLine
 10
28.834724
 20
310.326637
 30
0.0
 11
34.634724
 21
310.326637
 31
0.0
  0
LINE
  5
9FB6
330
9F2C
100
AcDbEntity
  8
1
  6
Continuous
100
AcDbLine
 10
26.684724
 20
310.326637
 30
0.0
 11
26.83472399999999
 21
310.326637
 31
0.0
  0
LINE
  5
9FB7
330
9F2C
100
AcDbEntity
  8
1
  6
Continuous
100
AcDbLine
 10
23.067299
 20
310.326637
 30
0.0
 11
25.184724
 21
310.326637
 31
0.0
  0
LINE
  5
9FB8
330
9F2C
100
AcDbEntity
  8
1
  6
Continuous
100
AcDbLine
 10
388.5515239999999
 20
182.9416369999999
 30
0.0
 11
389.001524
 21
182.9416369999999
 31
0.0
  0
LINE
  5
9FB9
330
9F2C
100
AcDbEntity
  8
1
  6
Continuous
100
AcDbLine
 10
370.001524
 20
158.9416369999999
 30
0.0
 11
370.001524
 21
157.691637
 31
0.0
  0
LINE
  5
9FBA
330
9F2C
100
AcDbEntity
  8
4
  6
CENTER
100
AcDbLine
 10
368.001524
 20
158.9416369999999
 30
0.0
 11
373.001524
 21
158.9416369999999
 31
0.0
  0
LINE
  5
9FBB
330
9F2C
100
AcDbEntity
  8
1
  6
Continuous
100
AcDbLine
 10
370.001524
 20
157.691637
 30
0.0
 11
371.001524
 21
157.691637
 31
0.0
  0
LINE
  5
9FBC
330
9F2C
100
AcDbEntity
  8
1
  6
Continuous
100
AcDbLine
 10
395.251524
 20
160.4416369999999
 30
0.0
 11
396.001524
 21
160.4416369999999
 31
0.0
  0
LINE
  5
9FBD
330
9F2C
100
AcDbEntity
  8
4
  6
CENTER
100
AcDbLine
 10
396.001524
 20
158.9416369999999
 30
0.0
 11
391.001524
 21
158.9416369999999
 31
0.0
  0
LINE
  5
9FBE
330
9F2C
100
AcDbEntity
  8
1
  6
Continuous
100
AcDbLine
 10
394.001524
 20
157.691637
 30
0.0
 11
393.001524
 21
157.691637
 31
0.0
  0
LINE
  5
9FBF
330
9F2C
100
AcDbEntity
  8
1
  6
Continuous
100
AcDbLine
 10
394.001524
 20
158.9416369999999
 30
0.0
 11
394.001524
 21
157.691637
 31
0.0
  0
LINE
  5
9FC0
330
9F2C
100
AcDbEntity
  8
1
  6
Continuous
100
AcDbLine
 10
375.001524
 20
179.9416369999999
 30
0.0
 11
375.4515239999999
 21
179.9416369999999
 31
0.0
  0
LINE
  5
9FC1
330
9F2C
100
AcDbEntity
  8
1
  6
Continuous
100
AcDbLine
 10
396.001524
 20
164.4416369999999
 30
0.0
 11
396.001524
 21
160.4416369999999
 31
0.0
  0
LINE
  5
9FC2
330
9F2C
100
AcDbEntity
  8
1
  6
Continuous
100
AcDbLine
 10
388.5515239999999
 20
179.9416369999999
 30
0.0
 11
389.001524
 21
179.9416369999999
 31
0.0
  0
LINE
  5
9FC3
330
9F2C
100
AcDbEntity
  8
1
  6
Continuous
100
AcDbLine
 10
393.251524
 20
158.9416369999999
 30
0.0
 11
395.251524
 21
158.9416369999999
 31
0.0
  0
LINE
  5
9FC4
330
9F2C
100
AcDbEntity
  8
1
  6
Continuous
100
AcDbLine
 10
389.001524
 20
179.9416369999999
 30
0.0
 11
389.001524
 21
182.9416369999999
 31
0.0
  0
LINE
  5
9FC5
330
9F2C
100
AcDbEntity
  8
1
  6
Continuous
100
AcDbLine
 10
368.001524
 20
164.4416369999999
 30
0.0
 11
368.001524
 21
160.4416369999999
 31
0.0
  0
LINE
  5
9FC6
330
9F2C
100
AcDbEntity
  8
1
  6
Continuous
100
AcDbLine
 10
375.001524
 20
179.9416369999999
 30
0.0
 11
375.001524
 21
182.9416369999999
 31
0.0
  0
LINE
  5
9FC7
330
9F2C
100
AcDbEntity
  8
1
  6
Continuous
100
AcDbLine
 10
375.001524
 20
182.9416369999999
 30
0.0
 11
375.4515239999999
 21
182.9416369999999
 31
0.0
  0
LINE
  5
9FC8
330
9F2C
100
AcDbEntity
  8
1
  6
Continuous
100
AcDbLine
 10
368.001524
 20
160.4416369999999
 30
0.0
 11
368.751524
 21
160.4416369999999
 31
0.0
  0
LINE
  5
9FC9
330
9F2C
100
AcDbEntity
  8
1
  6
Continuous
100
AcDbLine
 10
395.251524
 20
164.4416369999999
 30
0.0
 11
396.001524
 21
164.4416369999999
 31
0.0
  0
LINE
  5
9FCA
330
9F2C
100
AcDbEntity
  8
1
  6
Continuous
100
AcDbLine
 10
368.001524
 20
164.4416369999999
 30
0.0
 11
368.751524
 21
164.4416369999999
 31
0.0
  0
LINE
  5
9FCB
330
9F2C
100
AcDbEntity
  8
1
  6
Continuous
100
AcDbLine
 10
370.751524
 20
158.9416369999999
 30
0.0
 11
368.751524
 21
158.9416369999999
 31
0.0
  0
LINE
  5
9FCC
330
9F2C
100
AcDbEntity
  8
1
  6
Continuous
100
AcDbLine
 10
389.001524
 20
159.4416369999999
 30
0.0
 11
391.001524
 21
159.4416369999999
 31
0.0
  0
LINE
  5
9FCD
330
9F2C
100
AcDbEntity
  8
1
  6
Continuous
100
AcDbLine
 10
386.9015239999998
 20
185.4416369999999
 30
0.0
 11
386.9015239999998
 21
176.441637
 31
0.0
  0
LINE
  5
9FCE
330
9F2C
100
AcDbEntity
  8
1
  6
Continuous
100
AcDbLine
 10
377.101524
 20
185.4416369999999
 30
0.0
 11
377.101524
 21
176.441637
 31
0.0
  0
LINE
  5
9FCF
330
9F2C
100
AcDbEntity
  8
1
  6
Continuous
100
AcDbLine
 10
389.001524
 20
169.4416369999999
 30
0.0
 11
389.001524
 21
159.4416369999999
 31
0.0
  0
LINE
  5
9FD0
330
9F2C
100
AcDbEntity
  8
1
  6
Continuous
100
AcDbLine
 10
375.001524
 20
169.4416369999999
 30
0.0
 11
375.001524
 21
159.4416369999999
 31
0.0
  0
LINE
  5
9FD1
330
9F2C
100
AcDbEntity
  8
1
  6
Continuous
100
AcDbLine
 10
373.001524
 20
159.4416369999999
 30
0.0
 11
375.001524
 21
159.4416369999999
 31
0.0
  0
LINE
  5
9FD2
330
9F2C
100
AcDbEntity
  8
1
  6
Continuous
100
AcDbLine
 10
373.001524
 20
159.4416369999999
 30
0.0
 11
373.001524
 21
145.4416369999999
 31
0.0
  0
LINE
  5
9FD3
330
9F2C
100
AcDbEntity
  8
1
  6
Continuous
100
AcDbLine
 10
391.001524
 20
159.4416369999999
 30
0.0
 11
391.001524
 21
145.4416369999999
 31
0.0
  0
LINE
  5
9FD4
330
9F2C
100
AcDbEntity
  8
1
  6
Continuous
100
AcDbLine
 10
373.001524
 20
145.4416369999999
 30
0.0
 11
391.001524
 21
145.4416369999999
 31
0.0
  0
LINE
  5
9FD5
330
9F2C
100
AcDbEntity
  8
1
  6
Continuous
100
AcDbLine
 10
393.251524
 20
175.71215
 30
0.0
 11
393.251524
 21
158.9416369999999
 31
0.0
  0
LINE
  5
9FD6
330
9F2C
100
AcDbEntity
  8
1
  6
Continuous
100
AcDbLine
 10
388.5515239999999
 20
185.4416369999999
 30
0.0
 11
388.5515239999999
 21
174.4416369999999
 31
0.0
  0
LINE
  5
9FD7
330
9F2C
100
AcDbEntity
  8
1
  6
Continuous
100
AcDbLine
 10
393.001524
 20
145.4416369999999
 30
0.0
 11
391.501524
 21
145.4416369999999
 31
0.0
  0
LINE
  5
9FD8
330
9F2C
100
AcDbEntity
  8
1
  6
Continuous
100
AcDbLine
 10
391.501524
 20
166.3946369999999
 30
0.0
 11
391.501524
 21
140.4416369999999
 31
0.0
  0
LINE
  5
9FD9
330
9F2C
100
AcDbEntity
  8
1
  6
Continuous
100
AcDbLine
 10
387.0515239999999
 20
185.4416369999999
 30
0.0
 11
387.0515239999999
 21
174.4416369999999
 31
0.0
  0
LINE
  5
9FDA
330
9F2C
100
AcDbEntity
  8
1
  6
Continuous
100
AcDbLine
 10
372.501524
 20
166.3946369999999
 30
0.0
 11
372.501524
 21
140.4416369999999
 31
0.0
  0
LINE
  5
9FDB
330
9F2C
100
AcDbEntity
  8
1
  6
Continuous
100
AcDbLine
 10
376.951524
 20
185.4416369999999
 30
0.0
 11
376.951524
 21
174.4416369999999
 31
0.0
  0
LINE
  5
9FDC
330
9F2C
100
AcDbEntity
  8
1
  6
Continuous
100
AcDbLine
 10
371.001524
 20
145.4416369999999
 30
0.0
 11
372.501524
 21
145.4416369999999
 31
0.0
  0
LINE
  5
9FDD
330
9F2C
100
AcDbEntity
  8
1
  6
Continuous
100
AcDbLine
 10
375.4515239999999
 20
185.4416369999999
 30
0.0
 11
375.4515239999999
 21
174.4416369999999
 31
0.0
  0
LINE
  5
9FDE
330
9F2C
100
AcDbEntity
  8
1
  6
Continuous
100
AcDbLine
 10
377.501524
 20
135.4416369999999
 30
0.0
 11
386.501524
 21
135.4416369999999
 31
0.0
  0
LINE
  5
9FDF
330
9F2C
100
AcDbEntity
  8
1
  6
Continuous
100
AcDbLine
 10
375.4515239999999
 20
185.4416369999999
 30
0.0
 11
388.5515239999999
 21
185.4416369999999
 31
0.0
  0
LINE
  5
9FE0
330
9F2C
100
AcDbEntity
  8
1
  6
Continuous
100
AcDbLine
 10
370.751524
 20
176.3544719999999
 30
0.0
 11
370.751524
 21
158.9416369999999
 31
0.0
  0
LINE
  5
9FE1
330
9F2C
100
AcDbEntity
  8
1
  6
Continuous
100
AcDbLine
 10
388.5515239999999
 20
176.441637
 30
0.0
 11
387.0515239999999
 21
176.441637
 31
0.0
  0
LINE
  5
9FE2
330
9F2C
100
AcDbEntity
  8
1
  6
Continuous
100
AcDbLine
 10
376.951524
 20
176.441637
 30
0.0
 11
375.4515239999999
 21
176.441637
 31
0.0
  0
LINE
  5
9FE3
330
9F2C
100
AcDbEntity
  8
1
  6
Continuous
100
AcDbLine
 10
372.501524
 20
164.4416369999999
 30
0.0
 11
375.001524
 21
164.4416369999999
 31
0.0
  0
LINE
  5
9FE4
330
9F2C
100
AcDbEntity
  8
1
  6
Continuous
100
AcDbLine
 10
372.501524
 20
160.4416369999999
 30
0.0
 11
375.001524
 21
160.4416369999999
 31
0.0
  0
LINE
  5
9FE5
330
9F2C
100
AcDbEntity
  8
1
  6
Continuous
100
AcDbLine
 10
391.501524
 20
164.4416369999999
 30
0.0
 11
389.001524
 21
164.4416369999999
 31
0.0
  0
LINE
  5
9FE6
330
9F2C
100
AcDbEntity
  8
1
  6
Continuous
100
AcDbLine
 10
391.501524
 20
160.4416369999999
 30
0.0
 11
389.001524
 21
160.4416369999999
 31
0.0
  0
LINE
  5
9FE7
330
9F2C
100
AcDbEntity
  8
1
  6
Continuous
100
AcDbLine
 10
392.796622
 20
167.151838
 30
0.0
 11
391.501524
 21
166.3946369999999
 31
0.0
  0
LINE
  5
9FE8
330
9F2C
100
AcDbEntity
  8
1
  6
Continuous
100
AcDbLine
 10
372.501524
 20
166.3946369999999
 30
0.0
 11
371.2064259999999
 21
167.151838
 31
0.0
  0
LINE
  5
9FE9
330
9F2C
100
AcDbEntity
  8
1
  6
Continuous
100
AcDbLine
 10
43.73472399999999
 20
160.1916369999999
 30
0.0
 11
42.734724
 21
160.1916369999999
 31
0.0
  0
LINE
  5
9FEA
330
9F2C
100
AcDbEntity
  8
1
  6
Continuous
100
AcDbLine
 10
19.734724
 20
160.1916369999999
 30
0.0
 11
20.73472399999999
 21
160.1916369999999
 31
0.0
  0
LINE
  5
9FEB
330
9F2C
100
AcDbEntity
  8
1
  6
Continuous
100
AcDbLine
 10
41.23472399999999
 20
57.016837
 30
0.0
 11
22.23472399999999
 21
57.016837
 31
0.0
  0
LINE
  5
9FEC
330
9F2C
100
AcDbEntity
  8
1
  6
Continuous
100
AcDbLine
 10
42.734724
 20
45.016837
 30
0.0
 11
41.23472399999999
 21
45.016837
 31
0.0
  0
LINE
  5
9FED
330
9F2C
100
AcDbEntity
  8
4
  6
CENTER
100
AcDbLine
 10
31.734724
 20
38.016837
 30
0.0
 11
31.734724
 21
62.016837
 31
0.0
  0
LINE
  5
9FEE
330
9F2C
100
AcDbEntity
  8
1
  6
Continuous
100
AcDbLine
 10
26.684724
 20
45.016837
 30
0.0
 11
26.684724
 21
47.016837
 31
0.0
  0
LINE
  5
9FEF
330
9F2C
100
AcDbEntity
  8
1
  6
Continuous
100
AcDbLine
 10
36.78472399999999
 20
45.016837
 30
0.0
 11
36.78472399999999
 21
47.016837
 31
0.0
  0
LINE
  5
9FF0
330
9F2C
100
AcDbEntity
  8
1
  6
Continuous
100
AcDbLine
 10
41.23472399999999
 20
55.516837
 30
0.0
 11
22.23472399999999
 21
55.516837
 31
0.0
  0
LINE
  5
9FF1
330
9F2C
100
AcDbEntity
  8
1
  6
Continuous
100
AcDbLine
 10
38.28472399999998
 20
45.016837
 30
0.0
 11
38.28472399999998
 21
47.016837
 31
0.0
  0
LINE
  5
9FF2
330
9F2C
100
AcDbEntity
  8
1
  6
Continuous
100
AcDbLine
 10
25.184724
 20
45.016837
 30
0.0
 11
25.184724
 21
47.016837
 31
0.0
  0
LINE
  5
9FF3
330
9F2C
100
AcDbEntity
  8
1
  6
Continuous
100
AcDbLine
 10
22.23472399999999
 20
45.016837
 30
0.0
 11
20.73472399999999
 21
45.016837
 31
0.0
  0
LINE
  5
9FF4
330
9F2C
100
AcDbEntity
  8
4
  6
CENTER
100
AcDbLine
 10
45.73472399999999
 20
53.016837
 30
0.0
 11
40.73472399999999
 21
53.016837
 31
0.0
  0
LINE
  5
9FF5
330
9F2C
100
AcDbEntity
  8
4
  6
CENTER
100
AcDbLine
 10
17.734724
 20
53.016837
 30
0.0
 11
22.734724
 21
53.016837
 31
0.0
  0
LINE
  5
9FF6
330
9F2C
100
AcDbEntity
  8
1
  6
Continuous
100
AcDbLine
 10
22.23472399999999
 20
57.016837
 30
0.0
 11
22.23472399999999
 21
45.016837
 31
0.0
  0
LINE
  5
9FF7
330
9F2C
100
AcDbEntity
  8
1
  6
Continuous
100
AcDbLine
 10
41.23472399999999
 20
57.016837
 30
0.0
 11
41.23472399999999
 21
45.016837
 31
0.0
  0
LINE
  5
9FF8
330
9F2C
100
AcDbEntity
  8
1
  6
Continuous
100
AcDbLine
 10
38.734724
 20
43.016837
 30
0.0
 11
24.734724
 21
43.016837
 31
0.0
  0
LINE
  5
9FF9
330
9F2C
100
AcDbEntity
  8
1
  6
Continuous
100
AcDbLine
 10
40.73472399999999
 20
45.016837
 30
0.0
 11
40.73472399999999
 21
55.516837
 31
0.0
  0
LINE
  5
9FFA
330
9F2C
100
AcDbEntity
  8
1
  6
Continuous
100
AcDbLine
 10
22.734724
 20
45.016837
 30
0.0
 11
22.734724
 21
55.516837
 31
0.0
  0
LINE
  5
9FFB
330
9F2C
100
AcDbEntity
  8
1
  6
Continuous
100
AcDbLine
 10
38.734724
 20
45.016837
 30
0.0
 11
38.734724
 21
55.516837
 31
0.0
  0
LINE
  5
9FFC
330
9F2C
100
AcDbEntity
  8
1
  6
Continuous
100
AcDbLine
 10
24.734724
 20
45.016837
 30
0.0
 11
24.734724
 21
55.516837
 31
0.0
  0
LINE
  5
9FFD
330
9F2C
100
AcDbEntity
  8
1
  6
Continuous
100
AcDbLine
 10
36.63472399999999
 20
45.016837
 30
0.0
 11
36.63472399999999
 21
47.016837
 31
0.0
  0
LINE
  5
9FFE
330
9F2C
100
AcDbEntity
  8
1
  6
Continuous
100
AcDbLine
 10
26.83472399999999
 20
45.016837
 30
0.0
 11
26.83472399999999
 21
47.016837
 31
0.0
  0
LINE
  5
9FFF
330
9F2C
100
AcDbEntity
  8
1
  6
Continuous
100
AcDbLine
 10
34.634724
 20
45.016837
 30
0.0
 11
34.634724
 21
47.016837
 31
0.0
  0
LINE
  5
A000
330
9F2C
100
AcDbEntity
  8
1
  6
Continuous
100
AcDbLine
 10
28.834724
 20
45.016837
 30
0.0
 11
28.834724
 21
47.016837
 31
0.0
  0
LINE
  5
A001
330
9F2C
100
AcDbEntity
  8
1
  6
Continuous
100
AcDbLine
 10
38.734724
 20
45.016837
 30
0.0
 11
24.734724
 21
45.016837
 31
0.0
  0
LINE
  5
A002
330
9F2C
100
AcDbEntity
  8
1
  6
Continuous
100
AcDbLine
 10
41.23472399999999
 20
51.016837
 30
0.0
 11
40.73472399999999
 21
51.016837
 31
0.0
  0
LINE
  5
A003
330
9F2C
100
AcDbEntity
  8
1
  6
Continuous
100
AcDbLine
 10
41.23472399999999
 20
47.016837
 30
0.0
 11
40.73472399999999
 21
47.016837
 31
0.0
  0
LINE
  5
A004
330
9F2C
100
AcDbEntity
  8
1
  6
Continuous
100
AcDbLine
 10
22.23472399999999
 20
46.016837
 30
0.0
 11
22.734724
 21
46.016837
 31
0.0
  0
LINE
  5
A005
330
9F2C
100
AcDbEntity
  8
1
  6
Continuous
100
AcDbLine
 10
14.42362399999999
 20
175.4536369999999
 30
0.0
 11
22.82362399999999
 21
176.652637
 31
0.0
  0
LINE
  5
A006
330
9F2C
100
AcDbEntity
  8
1
  6
Continuous
100
AcDbLine
 10
14.28472399999999
 20
175.4416369999999
 30
0.0
 11
18.484724
 21
175.4416369999999
 31
0.0
  0
LINE
  5
A007
330
9F2C
100
AcDbEntity
  8
1
  6
Continuous
100
AcDbLine
 10
14.28472399999999
 20
187.4416369999999
 30
0.0
 11
16.484724
 21
187.4416369999999
 31
0.0
  0
LINE
  5
A008
330
9F2C
100
AcDbEntity
  8
1
  6
Continuous
100
AcDbLine
 10
14.145824
 20
186.229637
 30
0.0
 11
22.54582399999998
 21
187.428637
 31
0.0
  0
LINE
  5
A009
330
9F2C
100
AcDbEntity
  8
1
  6
Continuous
100
AcDbLine
 10
14.42362399999999
 20
184.654637
 30
0.0
 11
22.82362399999999
 21
185.8536369999999
 31
0.0
  0
LINE
  5
A00A
330
9F2C
100
AcDbEntity
  8
1
  6
Continuous
100
AcDbLine
 10
14.145824
 20
177.0286369999998
 30
0.0
 11
22.54582399999998
 21
178.2276369999999
 31
0.0
  0
LINE
  5
A00B
330
9F2C
100
AcDbEntity
  8
1
  6
Continuous
100
AcDbLine
 10
14.145824
 20
178.868837
 30
0.0
 11
22.54582399999998
 21
180.0678369999999
 31
0.0
  0
LINE
  5
A00C
330
9F2C
100
AcDbEntity
  8
1
  6
Continuous
100
AcDbLine
 10
14.42362399999999
 20
177.293837
 30
0.0
 11
22.82362399999999
 21
178.492837
 31
0.0
  0
LINE
  5
A00D
330
9F2C
100
AcDbEntity
  8
1
  6
Continuous
100
AcDbLine
 10
14.42362399999999
 20
179.134037
 30
0.0
 11
22.82362399999999
 21
180.3330369999999
 31
0.0
  0
LINE
  5
A00E
330
9F2C
100
AcDbEntity
  8
1
  6
Continuous
100
AcDbLine
 10
14.145824
 20
180.709037
 30
0.0
 11
22.54582399999998
 21
181.908037
 31
0.0
  0
LINE
  5
A00F
330
9F2C
100
AcDbEntity
  8
1
  6
Continuous
100
AcDbLine
 10
14.145824
 20
182.549237
 30
0.0
 11
22.54582399999998
 21
183.748237
 31
0.0
  0
LINE
  5
A010
330
9F2C
100
AcDbEntity
  8
1
  6
Continuous
100
AcDbLine
 10
14.42362399999999
 20
180.974237
 30
0.0
 11
22.82362399999999
 21
182.173237
 31
0.0
  0
LINE
  5
A011
330
9F2C
100
AcDbEntity
  8
1
  6
Continuous
100
AcDbLine
 10
14.41865899999998
 20
182.8137289999999
 30
0.0
 11
22.82362399999999
 21
184.013437
 31
0.0
  0
LINE
  5
A012
330
9F2C
100
AcDbEntity
  8
1
  6
Continuous
100
AcDbLine
 10
14.145824
 20
184.3894369999999
 30
0.0
 11
22.54582399999998
 21
185.588437
 31
0.0
  0
LINE
  5
A013
330
9F2C
100
AcDbEntity
  8
1
  6
Continuous
100
AcDbLine
 10
18.484724
 20
176.0689949999998
 30
0.0
 11
18.484724
 21
158.9416369999999
 31
0.0
  0
LINE
  5
A014
330
9F2C
100
AcDbEntity
  8
1
  6
Continuous
100
AcDbLine
 10
16.484724
 20
175.747835
 30
0.0
 11
16.484724
 21
172.4416369999999
 31
0.0
  0
LINE
  5
A015
330
9F2C
100
AcDbEntity
  8
1
  6
Continuous
100
AcDbLine
 10
44.98472399999999
 20
175.997626
 30
0.0
 11
44.98472399999999
 21
158.9416369999999
 31
0.0
  0
LINE
  5
A016
330
9F2C
100
AcDbEntity
  8
1
  6
Continuous
100
AcDbLine
 10
38.734724
 20
51.016837
 30
0.0
 11
24.734724
 21
51.016837
 31
0.0
  0
LINE
  5
A017
330
9F2C
100
AcDbEntity
  8
1
  6
Continuous
100
AcDbLine
 10
22.734724
 20
51.016837
 30
0.0
 11
22.23472399999999
 21
51.016837
 31
0.0
  0
LINE
  5
A018
330
9F2C
100
AcDbEntity
  8
1
  6
Continuous
100
AcDbLine
 10
38.734724
 20
47.016837
 30
0.0
 11
24.734724
 21
47.016837
 31
0.0
  0
LINE
  5
A019
330
9F2C
100
AcDbEntity
  8
1
  6
Continuous
100
AcDbLine
 10
22.734724
 20
47.016837
 30
0.0
 11
22.23472399999999
 21
47.016837
 31
0.0
  0
LINE
  5
A01A
330
9F2C
100
AcDbEntity
  8
1
  6
Continuous
100
AcDbLine
 10
40.73472399999999
 20
46.016837
 30
0.0
 11
41.23472399999999
 21
46.016837
 31
0.0
  0
LINE
  5
A01B
330
9F2C
100
AcDbEntity
  8
1
  6
Continuous
100
AcDbLine
 10
38.28472399999998
 20
46.016837
 30
0.0
 11
38.734724
 21
46.016837
 31
0.0
  0
LINE
  5
A01C
330
9F2C
100
AcDbEntity
  8
1
  6
Continuous
100
AcDbLine
 10
28.834724
 20
46.016837
 30
0.0
 11
34.634724
 21
46.016837
 31
0.0
  0
LINE
  5
A01D
330
9F2C
100
AcDbEntity
  8
1
  6
Continuous
100
AcDbLine
 10
24.734724
 20
46.016837
 30
0.0
 11
25.184724
 21
46.016837
 31
0.0
  0
LINE
  5
A01E
330
9F2C
100
AcDbEntity
  8
1
  6
Continuous
100
AcDbLine
 10
38.28472399999998
 20
51.016837
 30
0.0
 11
38.28472399999998
 21
52.938337
 31
0.0
  0
LINE
  5
A01F
330
9F2C
100
AcDbEntity
  8
1
  6
Continuous
100
AcDbLine
 10
36.78472399999999
 20
51.016837
 30
0.0
 11
36.78472399999999
 21
55.516837
 31
0.0
  0
LINE
  5
A020
330
9F2C
100
AcDbEntity
  8
1
  6
Continuous
100
AcDbLine
 10
36.63472399999999
 20
51.016837
 30
0.0
 11
36.63472399999999
 21
55.516837
 31
0.0
  0
LINE
  5
A021
330
9F2C
100
AcDbEntity
  8
1
  6
Continuous
100
AcDbLine
 10
34.634724
 20
51.016837
 30
0.0
 11
34.634724
 21
55.516837
 31
0.0
  0
LINE
  5
A022
330
9F2C
100
AcDbEntity
  8
1
  6
Continuous
100
AcDbLine
 10
28.834724
 20
51.016837
 30
0.0
 11
28.834724
 21
55.516837
 31
0.0
  0
LINE
  5
A023
330
9F2C
100
AcDbEntity
  8
1
  6
Continuous
100
AcDbLine
 10
26.83472399999999
 20
51.016837
 30
0.0
 11
26.83472399999999
 21
55.516837
 31
0.0
  0
LINE
  5
A024
330
9F2C
100
AcDbEntity
  8
1
  6
Continuous
100
AcDbLine
 10
26.684724
 20
51.016837
 30
0.0
 11
26.684724
 21
55.516837
 31
0.0
  0
LINE
  5
A025
330
9F2C
100
AcDbEntity
  8
1
  6
Continuous
100
AcDbLine
 10
25.184724
 20
51.016837
 30
0.0
 11
25.184724
 21
52.938337
 31
0.0
  0
LINE
  5
A026
330
9F2C
100
AcDbEntity
  8
1
  6
Continuous
100
AcDbLine
 10
22.734724
 20
309.6927239999998
 30
0.0
 11
22.734724
 21
308.822637
 31
0.0
  0
LINE
  5
A027
330
9F2C
100
AcDbEntity
  8
1
  6
Continuous
100
AcDbLine
 10
24.734724
 20
310.326637
 30
0.0
 11
24.734724
 21
308.364637
 31
0.0
  0
LINE
  5
A028
330
9F2C
100
AcDbEntity
  8
1
  6
Continuous
100
AcDbLine
 10
25.184724
 20
311.326637
 30
0.0
 11
25.184724
 21
305.326637
 31
0.0
  0
LINE
  5
A029
330
9F2C
100
AcDbEntity
  8
1
  6
Continuous
100
AcDbLine
 10
26.684724
 20
311.326637
 30
0.0
 11
26.684724
 21
305.826637
 31
0.0
  0
LINE
  5
A02A
330
9F2C
100
AcDbEntity
  8
1
  6
Continuous
100
AcDbLine
 10
26.83472399999999
 20
311.326637
 30
0.0
 11
26.83472399999999
 21
305.826637
 31
0.0
  0
LINE
  5
A02B
330
9F2C
100
AcDbEntity
  8
1
  6
Continuous
100
AcDbLine
 10
28.834724
 20
311.326637
 30
0.0
 11
28.834724
 21
305.826637
 31
0.0
  0
LINE
  5
A02C
330
9F2C
100
AcDbEntity
  8
1
  6
Continuous
100
AcDbLine
 10
34.634724
 20
311.326637
 30
0.0
 11
34.634724
 21
305.826637
 31
0.0
  0
LINE
  5
A02D
330
9F2C
100
AcDbEntity
  8
1
  6
Continuous
100
AcDbLine
 10
36.63472399999999
 20
311.326637
 30
0.0
 11
36.63472399999999
 21
305.826637
 31
0.0
  0
LINE
  5
A02E
330
9F2C
100
AcDbEntity
  8
1
  6
Continuous
100
AcDbLine
 10
36.78472399999999
 20
311.326637
 30
0.0
 11
36.78472399999999
 21
305.826637
 31
0.0
  0
LINE
  5
A02F
330
9F2C
100
AcDbEntity
  8
1
  6
Continuous
100
AcDbLine
 10
38.28472399999998
 20
311.326637
 30
0.0
 11
38.28472399999998
 21
305.326637
 31
0.0
  0
LINE
  5
A030
330
9F2C
100
AcDbEntity
  8
1
  6
Continuous
100
AcDbLine
 10
38.734724
 20
310.326637
 30
0.0
 11
38.734724
 21
308.364637
 31
0.0
  0
LINE
  5
A031
330
9F2C
100
AcDbEntity
  8
1
  6
Continuous
100
AcDbLine
 10
40.73472399999999
 20
309.6927239999998
 30
0.0
 11
40.73472399999999
 21
308.822637
 31
0.0
  0
LINE
  5
A032
330
9F2C
100
AcDbEntity
  8
4
  6
CENTER
100
AcDbLine
 10
366.001524
 20
162.4416369999999
 30
0.0
 11
398.001524
 21
162.4416369999999
 31
0.0
  0
LINE
  5
A033
330
9F2C
100
AcDbEntity
  8
4
  6
CENTER
100
AcDbLine
 10
47.734724
 20
162.4416369999999
 30
0.0
 11
15.73472399999998
 21
162.4416369999999
 31
0.0
  0
LINE
  5
A034
330
9F2C
100
AcDbEntity
  8
4
  6
CENTER
100
AcDbLine
 10
39.734724
 20
181.441637
 30
0.0
 11
23.734724
 21
181.441637
 31
0.0
  0
LINE
  5
A035
330
9F2C
100
AcDbEntity
  8
4
  6
CENTER
100
AcDbLine
 10
31.734724
 20
204.4416369999999
 30
0.0
 11
31.734724
 21
130.4416369999999
 31
0.0
  0
LINE
  5
A036
330
9F2C
100
AcDbEntity
  8
4
  6
CENTER
100
AcDbLine
 10
382.001524
 20
204.4416369999999
 30
0.0
 11
382.001524
 21
130.4416369999999
 31
0.0
  0
LINE
  5
A037
330
9F2C
100
AcDbEntity
  8
4
  6
CENTER
100
AcDbLine
 10
209.2815239999999
 20
202.9416369999999
 30
0.0
 11
209.2815239999999
 21
197.9416369999999
 31
0.0
  0
LINE
  5
A038
330
9F2C
100
AcDbEntity
  8
4
  6
CENTER
100
AcDbLine
 10
211.7196929999999
 20
200.4416369999999
 30
0.0
 11
206.7815239999999
 21
200.4416369999999
 31
0.0
  0
LINE
  5
A039
330
9F2C
100
AcDbEntity
  8
4
  6
CENTER
100
AcDbLine
 10
46.734724
 20
49.016837
 30
0.0
 11
16.734724
 21
49.016837
 31
0.0
  0
LINE
  5
A03A
330
9F2C
100
AcDbEntity
  8
1
  6
Continuous
100
AcDbLine
 10
18.73472399999998
 20
196.018637
 30
0.0
 11
20.234724
 21
196.018637
 31
0.0
  0
LINE
  5
A03B
330
9F2C
100
AcDbEntity
  8
1
  6
Continuous
100
AcDbLine
 10
211.0315239999999
 20
187.4416369999999
 30
0.0
 11
213.2815239999999
 21
187.4416369999999
 31
0.0
  0
LINE
  5
A03C
330
9F2C
100
AcDbEntity
  8
1
  6
Continuous
100
AcDbLine
 10
18.484724
 20
187.4416369999999
 30
0.0
 11
22.68472399999999
 21
187.4416369999999
 31
0.0
  0
LINE
  5
A03D
330
9F2C
100
AcDbEntity
  8
1
  6
Continuous
100
AcDbLine
 10
20.484724
 20
175.4416369999999
 30
0.0
 11
22.68472399999999
 21
175.4416369999999
 31
0.0
  0
LINE
  5
A03E
330
9F2C
100
AcDbEntity
  8
4
  6
CENTER
100
AcDbLine
 10
101.734524
 20
207.4416369999999
 30
0.0
 11
101.734524
 21
194.4416369999999
 31
0.0
  0
LINE
  5
A03F
330
9F2C
100
AcDbEntity
  8
1
  6
Continuous
100
AcDbLine
 10
112.7345239999998
 20
205.4416369999999
 30
0.0
 11
90.73452399999998
 21
205.4416369999999
 31
0.0
  0
LINE
  5
A040
330
9F2C
100
AcDbEntity
  8
1
  6
Continuous
100
AcDbLine
 10
112.7345239999998
 20
195.4416369999999
 30
0.0
 11
110.7345239999998
 21
195.4416369999999
 31
0.0
  0
LINE
  5
A041
330
9F2C
100
AcDbEntity
  8
1
  6
Continuous
100
AcDbLine
 10
108.7345239999998
 20
204.4416369999999
 30
0.0
 11
108.7345239999998
 21
196.441637
 31
0.0
  0
LINE
  5
A042
330
9F2C
100
AcDbEntity
  8
1
  6
Continuous
100
AcDbLine
 10
90.73452399999998
 20
195.4416369999999
 30
0.0
 11
92.734524
 21
195.4416369999999
 31
0.0
  0
LINE
  5
A043
330
9F2C
100
AcDbEntity
  8
1
  6
Continuous
100
AcDbLine
 10
94.73452399999999
 20
204.4416369999999
 30
0.0
 11
94.73452399999999
 21
196.441637
 31
0.0
  0
LINE
  5
A044
330
9F2C
100
AcDbEntity
  8
1
  6
Continuous
100
AcDbLine
 10
94.73452399999999
 20
196.441637
 30
0.0
 11
108.7345239999998
 21
196.441637
 31
0.0
  0
LINE
  5
A045
330
9F2C
100
AcDbEntity
  8
1
  6
Continuous
100
AcDbLine
 10
108.7345239999998
 20
197.4416369999999
 30
0.0
 11
110.7345239999998
 21
195.4416369999999
 31
0.0
  0
LINE
  5
A046
330
9F2C
100
AcDbEntity
  8
1
  6
Continuous
100
AcDbLine
 10
94.73452399999999
 20
197.4416369999999
 30
0.0
 11
92.734524
 21
195.4416369999999
 31
0.0
  0
LINE
  5
A047
330
9F2C
100
AcDbEntity
  8
1
  6
Continuous
100
AcDbLine
 10
108.7345239999998
 20
309.326637
 30
0.0
 11
108.7345239999998
 21
316.326637
 31
0.0
  0
LINE
  5
A048
330
9F2C
100
AcDbEntity
  8
1
  6
Continuous
100
AcDbLine
 10
117.7345239999998
 20
316.326637
 30
0.0
 11
85.73452399999998
 21
316.326637
 31
0.0
  0
LINE
  5
A049
330
9F2C
100
AcDbEntity
  8
1
  6
Continuous
100
AcDbLine
 10
94.73452399999999
 20
309.326637
 30
0.0
 11
94.73452399999999
 21
316.326637
 31
0.0
  0
LINE
  5
A04A
330
9F2C
100
AcDbEntity
  8
1
  6
Continuous
100
AcDbLine
 10
117.7345239999998
 20
318.326637
 30
0.0
 11
85.73452399999998
 21
318.326637
 31
0.0
  0
LINE
  5
A04B
330
9F2C
100
AcDbEntity
  8
1
  6
Continuous
100
AcDbLine
 10
107.7345239999998
 20
308.326637
 30
0.0
 11
95.73452399999998
 21
308.326637
 31
0.0
  0
LINE
  5
A04C
330
9F2C
100
AcDbEntity
  8
1
  6
Continuous
100
AcDbLine
 10
117.7345239999998
 20
316.326637
 30
0.0
 11
117.7345239999998
 21
318.326637
 31
0.0
  0
LINE
  5
A04D
330
9F2C
100
AcDbEntity
  8
1
  6
Continuous
100
AcDbLine
 10
85.73452399999998
 20
316.326637
 30
0.0
 11
85.73452399999998
 21
318.326637
 31
0.0
  0
LINE
  5
A04E
330
9F2C
100
AcDbEntity
  8
4
  6
CENTER
100
AcDbLine
 10
101.734524
 20
306.326637
 30
0.0
 11
101.734524
 21
320.326637
 31
0.0
  0
LINE
  5
A04F
330
9F2C
100
AcDbEntity
  8
1
  6
Continuous
100
AcDbLine
 10
107.7345239999998
 20
310.293637
 30
0.0
 11
95.73452399999998
 21
310.293637
 31
0.0
  0
LINE
  5
A050
330
9F2C
100
AcDbEntity
  8
4
  6
CENTER
100
AcDbLine
 10
90.73452399999998
 20
314.326637
 30
0.0
 11
90.73452399999998
 21
320.326637
 31
0.0
  0
LINE
  5
A051
330
9F2C
100
AcDbEntity
  8
4
  6
CENTER
100
AcDbLine
 10
112.7345239999998
 20
314.326637
 30
0.0
 11
112.7345239999998
 21
320.326637
 31
0.0
  0
LINE
  5
A052
330
9F2C
100
AcDbEntity
  8
1
  6
Continuous
100
AcDbLine
 10
18.484724
 20
201.8916369999999
 30
0.0
 11
17.48472399999998
 21
201.8916369999999
 31
0.0
  0
LINE
  5
A053
330
9F2C
100
AcDbEntity
  8
1
  6
Continuous
100
AcDbLine
 10
18.484724
 20
198.9916369999999
 30
0.0
 11
17.48472399999998
 21
198.9916369999999
 31
0.0
  0
LINE
  5
A054
330
9F2C
100
AcDbEntity
  8
1
  6
Continuous
100
AcDbLine
 10
17.48472399999998
 20
201.8916369999999
 30
0.0
 11
17.48472399999998
 21
198.9916369999999
 31
0.0
  0
LINE
  5
A055
330
9F2C
100
AcDbEntity
  8
1
  6
Continuous
100
AcDbLine
 10
42.984724
 20
311.326637
 30
0.0
 11
20.484724
 21
311.326637
 31
0.0
  0
LINE
  5
A056
330
9F2C
100
AcDbEntity
  8
1
  6
Continuous
100
AcDbLine
 10
42.984724
 20
315.326637
 30
0.0
 11
20.484724
 21
315.326637
 31
0.0
  0
LINE
  5
A057
330
9F2C
100
AcDbEntity
  8
4
  6
CENTER
100
AcDbLine
 10
90.73452399999998
 20
206.441637
 30
0.0
 11
90.73452399999998
 21
194.4416369999999
 31
0.0
  0
LINE
  5
A058
330
9F2C
100
AcDbEntity
  8
4
  6
CENTER
100
AcDbLine
 10
121.3745239999998
 20
200.4416369999999
 30
0.0
 11
80.988524
 21
200.4416369999999
 31
0.0
  0
LINE
  5
A059
330
9F2C
100
AcDbEntity
  8
4
  6
CENTER
100
AcDbLine
 10
112.7345239999998
 20
206.441637
 30
0.0
 11
112.7345239999998
 21
194.4416369999999
 31
0.0
  0
LINE
  5
A05A
330
9F2C
100
AcDbEntity
  8
4
  6
CENTER
100
AcDbLine
 10
463.651524
 20
207.4416369999999
 30
0.0
 11
463.651524
 21
194.4416369999999
 31
0.0
  0
LINE
  5
A05B
330
9F2C
100
AcDbEntity
  8
1
  6
Continuous
100
AcDbLine
 10
470.6515239999998
 20
197.4416369999999
 30
0.0
 11
470.6515239999998
 21
196.441637
 31
0.0
  0
LINE
  5
A05C
330
9F2C
100
AcDbEntity
  8
1
  6
Continuous
100
AcDbLine
 10
452.651524
 20
205.4416369999999
 30
0.0
 11
474.6515239999998
 21
205.4416369999999
 31
0.0
  0
LINE
  5
A05D
330
9F2C
100
AcDbEntity
  8
1
  6
Continuous
100
AcDbLine
 10
452.651524
 20
195.4416369999999
 30
0.0
 11
454.6515239999997
 21
195.4416369999999
 31
0.0
  0
LINE
  5
A05E
330
9F2C
100
AcDbEntity
  8
1
  6
Continuous
100
AcDbLine
 10
456.651524
 20
197.4416369999999
 30
0.0
 11
456.651524
 21
196.441637
 31
0.0
  0
LINE
  5
A05F
330
9F2C
100
AcDbEntity
  8
4
  6
CENTER
100
AcDbLine
 10
474.6515239999998
 20
206.441637
 30
0.0
 11
474.6515239999998
 21
194.4416369999999
 31
0.0
  0
LINE
  5
A060
330
9F2C
100
AcDbEntity
  8
4
  6
CENTER
100
AcDbLine
 10
444.9645239999998
 20
200.4416369999999
 30
0.0
 11
483.675524
 21
200.4416369999999
 31
0.0
  0
LINE
  5
A061
330
9F2C
100
AcDbEntity
  8
1
  6
Continuous
100
AcDbLine
 10
474.6515239999998
 20
195.4416369999999
 30
0.0
 11
472.651524
 21
195.4416369999999
 31
0.0
  0
LINE
  5
A062
330
9F2C
100
AcDbEntity
  8
4
  6
CENTER
100
AcDbLine
 10
452.651524
 20
206.441637
 30
0.0
 11
452.651524
 21
194.4416369999999
 31
0.0
  0
LINE
  5
A063
330
9F2C
100
AcDbEntity
  8
1
  6
Continuous
100
AcDbLine
 10
470.6515239999998
 20
197.4416369999999
 30
0.0
 11
472.651524
 21
195.4416369999999
 31
0.0
  0
LINE
  5
A064
330
9F2C
100
AcDbEntity
  8
1
  6
Continuous
100
AcDbLine
 10
470.6515239999998
 20
196.441637
 30
0.0
 11
456.651524
 21
196.441637
 31
0.0
  0
LINE
  5
A065
330
9F2C
100
AcDbEntity
  8
1
  6
Continuous
100
AcDbLine
 10
456.651524
 20
197.4416369999999
 30
0.0
 11
454.6515239999997
 21
195.4416369999999
 31
0.0
  0
LINE
  5
A066
330
9F2C
100
AcDbEntity
  8
1
  6
Continuous
100
AcDbLine
 10
274.281524
 20
205.4416369999999
 30
0.0
 11
274.281524
 21
195.4416369999999
 31
0.0
  0
LINE
  5
A067
330
9F2C
100
AcDbEntity
  8
1
  6
Continuous
100
AcDbLine
 10
272.281524
 20
205.4416369999999
 30
0.0
 11
272.281524
 21
195.4416369999999
 31
0.0
  0
LINE
  5
A068
330
9F2C
100
AcDbEntity
  8
1
  6
Continuous
100
AcDbLine
 10
272.281524
 20
205.4416369999999
 30
0.0
 11
274.281524
 21
205.4416369999999
 31
0.0
  0
LINE
  5
A069
330
9F2C
100
AcDbEntity
  8
1
  6
Continuous
100
AcDbLine
 10
272.281524
 20
195.4416369999999
 30
0.0
 11
274.281524
 21
195.4416369999999
 31
0.0
  0
LINE
  5
A06A
330
9F2C
100
AcDbEntity
  8
1
  6
Continuous
100
AcDbLine
 10
269.2815239999999
 20
196.441637
 30
0.0
 11
271.7815239999999
 21
196.441637
 31
0.0
  0
LINE
  5
A06B
330
9F2C
100
AcDbEntity
  8
1
  6
Continuous
100
AcDbLine
 10
269.2815239999999
 20
198.4416369999999
 30
0.0
 11
271.7815239999999
 21
198.4416369999999
 31
0.0
  0
LINE
  5
A06C
330
9F2C
100
AcDbEntity
  8
1
  6
Continuous
100
AcDbLine
 10
264.281524
 20
205.074637
 30
0.0
 11
266.2485239999999
 21
205.4416369999999
 31
0.0
  0
LINE
  5
A06D
330
9F2C
100
AcDbEntity
  8
1
  6
Continuous
100
AcDbLine
 10
264.281524
 20
205.074637
 30
0.0
 11
265.3585239999999
 21
199.660637
 31
0.0
  0
LINE
  5
A06E
330
9F2C
100
AcDbEntity
  8
1
  6
Continuous
100
AcDbLine
 10
266.2485239999999
 20
205.4416369999999
 30
0.0
 11
267.3205239999999
 21
200.050637
 31
0.0
  0
LINE
  5
A06F
330
9F2C
100
AcDbEntity
  8
4
  6
CENTER
100
AcDbLine
 10
276.126524
 20
200.4416369999999
 30
0.0
 11
266.281524
 21
200.4416369999999
 31
0.0
  0
LINE
  5
A070
330
9F2C
100
AcDbEntity
  8
4
  6
CENTER
100
AcDbLine
 10
269.2815239999999
 20
203.4416369999999
 30
0.0
 11
269.2815239999999
 21
197.4416369999999
 31
0.0
  0
LINE
  5
A071
330
9F2C
100
AcDbEntity
  8
4
  6
CENTER
100
AcDbLine
 10
113.8295239999999
 20
313.326637
 30
0.0
 11
89.096524
 21
313.326637
 31
0.0
  0
ARC
  5
A072
330
9F2C
100
AcDbEntity
  8
1
  6
Continuous
100
AcDbCircle
 10
46.28472399999998
 20
174.4416369999999
 30
0.0
 40
8.0
100
AcDbArc
 50
180.0
 51
237.8878
  0
ARC
  5
A073
330
9F2C
100
AcDbEntity
  8
1
  6
Continuous
100
AcDbCircle
 10
36.234724
 20
140.4416369999999
 30
0.0
 40
5.0
100
AcDbArc
 50
270.0
 51
0.0
  0
ARC
  5
A074
330
9F2C
100
AcDbEntity
  8
1
  6
Continuous
100
AcDbCircle
 10
27.234724
 20
140.4416369999999
 30
0.0
 40
5.0
100
AcDbArc
 50
180.0
 51
270.0
  0
ARC
  5
A075
330
9F2C
100
AcDbEntity
  8
1
  6
Continuous
100
AcDbCircle
 10
17.184724
 20
174.4416369999999
 30
0.0
 40
8.0
100
AcDbArc
 50
302.1121999999999
 51
0.0
  0
ARC
  5
A076
330
9F2C
100
AcDbEntity
  8
1
  6
Continuous
100
AcDbCircle
 10
205.781524
 20
168.941637
 30
0.0
 40
1.5
100
AcDbArc
 50
180.0
 51
260.406
  0
ARC
  5
A077
330
9F2C
100
AcDbEntity
  8
1
  6
Continuous
100
AcDbCircle
 10
210.7815239999999
 20
165.9416369999999
 30
0.0
 40
1.5
100
AcDbArc
 50
0.0
 51
80.40589999999998
  0
ARC
  5
A078
330
9F2C
100
AcDbEntity
  8
1
  6
Continuous
100
AcDbCircle
 10
207.2815239999999
 20
150.4416369999999
 30
0.0
 40
5.0
100
AcDbArc
 50
270.0
 51
0.0
  0
ARC
  5
A079
330
9F2C
100
AcDbEntity
  8
1
  6
Continuous
100
AcDbCircle
 10
207.2815239999999
 20
154.1916369999999
 30
0.0
 40
2.75
100
AcDbArc
 50
0.0
 51
180.0
  0
ARC
  5
A07A
330
9F2C
100
AcDbEntity
  8
1
  6
Continuous
100
AcDbCircle
 10
207.2815239999999
 20
150.6916369999999
 30
0.0
 40
2.75
100
AcDbArc
 50
180.0
 51
0.0
  0
CIRCLE
  5
A07B
330
9F2C
100
AcDbEntity
  8
1
  6
Continuous
100
AcDbCircle
 10
204.2815239999999
 20
158.9416369999999
 30
0.0
 40
1.25
  0
ARC
  5
A07C
330
9F2C
100
AcDbEntity
  8
1
  6
Continuous
100
AcDbCircle
 10
26.18472399999999
 20
305.326637
 30
0.0
 40
1.0
100
AcDbArc
 50
180.0
 51
270.0
  0
ARC
  5
A07D
330
9F2C
100
AcDbEntity
  8
1
  6
Continuous
100
AcDbCircle
 10
37.28472399999999
 20
305.326637
 30
0.0
 40
1.0
100
AcDbArc
 50
270.0
 51
0.0
  0
ARC
  5
A07E
330
9F2C
100
AcDbEntity
  8
1
  6
Continuous
100
AcDbCircle
 10
22.23472399999999
 20
305.826637
 30
0.0
 40
1.5
100
AcDbArc
 50
180.0
 51
270.0
  0
ARC
  5
A07F
330
9F2C
100
AcDbEntity
  8
1
  6
Continuous
100
AcDbCircle
 10
41.23472399999999
 20
305.826637
 30
0.0
 40
1.5
100
AcDbArc
 50
270.0
 51
0.0
  0
ARC
  5
A080
330
9F2C
100
AcDbEntity
  8
1
  6
Continuous
100
AcDbCircle
 10
202.2815239999999
 20
165.4416369999999
 30
0.0
 40
2.0
100
AcDbArc
 50
90.0
 51
180.0
  0
ARC
  5
A081
330
9F2C
100
AcDbEntity
  8
1
  6
Continuous
100
AcDbCircle
 10
38.87102399999999
 20
312.362637
 30
0.0
 40
4.0
100
AcDbArc
 50
328.4227879999999
 51
345.0
  0
ARC
  5
A082
330
9F2C
100
AcDbEntity
  8
1
  6
Continuous
100
AcDbCircle
 10
24.59842399999999
 20
312.362637
 30
0.0
 40
4.0
100
AcDbArc
 50
234.8716419999999
 51
278.4279999999999
  0
ARC
  5
A083
330
9F2C
100
AcDbEntity
  8
1
  6
Continuous
100
AcDbCircle
 10
208.2815239999999
 20
161.691637
 30
0.0
 40
2.75
100
AcDbArc
 50
180.0
 51
0.0
  0
ARC
  5
A084
330
9F2C
100
AcDbEntity
  8
1
  6
Continuous
100
AcDbCircle
 10
19.48472399999999
 20
194.4416369999999
 30
0.0
 40
1.0
100
AcDbArc
 50
270.0
 51
0.0
  0
ARC
  5
A085
330
9F2C
100
AcDbEntity
  8
1
  6
Continuous
100
AcDbCircle
 10
17.48472399999998
 20
194.4416369999999
 30
0.0
 40
1.0
100
AcDbArc
 50
90.0
 51
180.0
  0
ARC
  5
A086
330
9F2C
100
AcDbEntity
  8
1
  6
Continuous
100
AcDbCircle
 10
209.2815239999999
 20
200.4416369999999
 30
0.0
 40
2.75
100
AcDbArc
 50
348.017
 51
168.0169999999999
  0
CIRCLE
  5
A087
330
9F2C
100
AcDbEntity
  8
1
  6
Continuous
100
AcDbCircle
 10
208.2815239999999
 20
162.4416369999999
 30
0.0
 40
2.0
  0
ARC
  5
A088
330
9F2C
100
AcDbEntity
  8
1
  6
Continuous
100
AcDbCircle
 10
382.001524
 20
169.4416369999999
 30
0.0
 40
7.0
100
AcDbArc
 50
134.4149999999999
 51
180.0
  0
ARC
  5
A089
330
9F2C
100
AcDbEntity
  8
1
  6
Continuous
100
AcDbCircle
 10
377.101524
 20
175.4416369999999
 30
0.0
 40
1.0
100
AcDbArc
 50
270.0
 51
90.0
  0
ARC
  5
A08A
330
9F2C
100
AcDbEntity
  8
1
  6
Continuous
100
AcDbCircle
 10
382.001524
 20
169.4416369999999
 30
0.0
 40
7.0
100
AcDbArc
 50
0.0
 51
45.58469999999999
  0
ARC
  5
A08B
330
9F2C
100
AcDbEntity
  8
1
  6
Continuous
100
AcDbCircle
 10
386.9015239999998
 20
175.4416369999999
 30
0.0
 40
1.0
100
AcDbArc
 50
90.0
 51
270.0
  0
CIRCLE
  5
A08C
330
9F2C
100
AcDbEntity
  8
1
  6
Continuous
100
AcDbCircle
 10
382.001524
 20
155.441637
 30
0.0
 40
2.2
  0
ARC
  5
A08D
330
9F2C
100
AcDbEntity
  8
1
  6
Continuous
100
AcDbCircle
 10
396.5515239999999
 20
174.4416369999999
 30
0.0
 40
8.0
100
AcDbArc
 50
180.0
 51
237.8878
  0
ARC
  5
A08E
330
9F2C
100
AcDbEntity
  8
1
  6
Continuous
100
AcDbCircle
 10
396.5515239999999
 20
174.4416369999999
 30
0.0
 40
9.5
100
AcDbArc
 50
180.0
 51
180.928
  0
ARC
  5
A08F
330
9F2C
100
AcDbEntity
  8
1
  6
Continuous
100
AcDbCircle
 10
386.501524
 20
140.4416369999999
 30
0.0
 40
5.0
100
AcDbArc
 50
270.0
 51
0.0
  0
ARC
  5
A090
330
9F2C
100
AcDbEntity
  8
1
  6
Continuous
100
AcDbCircle
 10
377.501524
 20
140.4416369999999
 30
0.0
 40
5.0
100
AcDbArc
 50
180.0
 51
270.0
  0
ARC
  5
A091
330
9F2C
100
AcDbEntity
  8
1
  6
Continuous
100
AcDbCircle
 10
367.451524
 20
174.4416369999999
 30
0.0
 40
9.5
100
AcDbArc
 50
302.112
 51
322.63
  0
ARC
  5
A092
330
9F2C
100
AcDbEntity
  8
1
  6
Continuous
100
AcDbCircle
 10
367.451524
 20
174.4416369999999
 30
0.0
 40
8.0
100
AcDbArc
 50
302.1121999999999
 51
0.0
  0
ARC
  5
A093
330
9F2C
100
AcDbEntity
  8
1
  6
Continuous
100
AcDbCircle
 10
396.5515239999999
 20
174.4416369999999
 30
0.0
 40
9.5
100
AcDbArc
 50
217.37
 51
237.888
  0
ARC
  5
A094
330
9F2C
100
AcDbEntity
  8
1
  6
Continuous
100
AcDbCircle
 10
367.451524
 20
174.4416369999999
 30
0.0
 40
9.5
100
AcDbArc
 50
359.072
 51
0.0
  0
ARC
  5
A095
330
9F2C
100
AcDbEntity
  8
1
  6
Continuous
100
AcDbCircle
 10
41.23472399999999
 20
55.516837
 30
0.0
 40
1.5
100
AcDbArc
 50
0.0
 51
90.0
  0
ARC
  5
A096
330
9F2C
100
AcDbEntity
  8
1
  6
Continuous
100
AcDbCircle
 10
22.23472399999999
 20
55.516837
 30
0.0
 40
1.5
100
AcDbArc
 50
90.0
 51
180.0
  0
ARC
  5
A097
330
9F2C
100
AcDbEntity
  8
1
  6
Continuous
100
AcDbCircle
 10
24.59842399999999
 20
48.981537
 30
0.0
 40
4.0
100
AcDbArc
 50
117.7699999999999
 51
126.2229999999999
  0
ARC
  5
A098
330
9F2C
100
AcDbEntity
  8
1
  6
Continuous
100
AcDbCircle
 10
38.87102399999999
 20
48.981537
 30
0.0
 40
4.0
100
AcDbArc
 50
91.95269999999998
 51
121.438
  0
ARC
  5
A099
330
9F2C
100
AcDbEntity
  8
1
  6
Continuous
100
AcDbCircle
 10
24.59842399999999
 20
48.981537
 30
0.0
 40
4.0
100
AcDbArc
 50
58.5621
 51
88.04730000000002
  0
ARC
  5
A09A
330
9F2C
100
AcDbEntity
  8
1
  6
Continuous
100
AcDbCircle
 10
38.87102399999999
 20
48.981537
 30
0.0
 40
4.0
100
AcDbArc
 50
53.77729999999999
 51
62.22979999999999
  0
ARC
  5
A09B
330
9F2C
100
AcDbEntity
  8
1
  6
Continuous
100
AcDbCircle
 10
14.28472399999999
 20
185.4426369999999
 30
0.0
 40
0.8
100
AcDbArc
 50
100.0
 51
280.0
  0
ARC
  5
A09C
330
9F2C
100
AcDbEntity
  8
1
  6
Continuous
100
AcDbCircle
 10
14.28472399999999
 20
176.2416369999999
 30
0.0
 40
0.8
100
AcDbArc
 50
100.0
 51
280.0
  0
ARC
  5
A09D
330
9F2C
100
AcDbEntity
  8
1
  6
Continuous
100
AcDbCircle
 10
22.68472399999999
 20
186.6416369999998
 30
0.0
 40
0.8
100
AcDbArc
 50
280.0
 51
100.0
  0
ARC
  5
A09E
330
9F2C
100
AcDbEntity
  8
1
  6
Continuous
100
AcDbCircle
 10
14.28472399999999
 20
178.081837
 30
0.0
 40
0.8
100
AcDbArc
 50
100.0
 51
280.0
  0
ARC
  5
A09F
330
9F2C
100
AcDbEntity
  8
1
  6
Continuous
100
AcDbCircle
 10
22.68472399999999
 20
179.2808369999999
 30
0.0
 40
0.8
100
AcDbArc
 50
280.0
 51
100.0
  0
ARC
  5
A0A0
330
9F2C
100
AcDbEntity
  8
1
  6
Continuous
100
AcDbCircle
 10
22.68472399999999
 20
181.1210369999998
 30
0.0
 40
0.8
100
AcDbArc
 50
280.0
 51
100.0
  0
ARC
  5
A0A1
330
9F2C
100
AcDbEntity
  8
1
  6
Continuous
100
AcDbCircle
 10
14.28472399999999
 20
179.922037
 30
0.0
 40
0.8
100
AcDbArc
 50
100.0
 51
280.0
  0
ARC
  5
A0A2
330
9F2C
100
AcDbEntity
  8
1
  6
Continuous
100
AcDbCircle
 10
14.28472399999999
 20
181.762237
 30
0.0
 40
0.8
100
AcDbArc
 50
100.0
 51
280.0
  0
ARC
  5
A0A3
330
9F2C
100
AcDbEntity
  8
1
  6
Continuous
100
AcDbCircle
 10
22.68472399999999
 20
182.961237
 30
0.0
 40
0.8
100
AcDbArc
 50
276.6090439999999
 51
101.351516
  0
ARC
  5
A0A4
330
9F2C
100
AcDbEntity
  8
1
  6
Continuous
100
AcDbCircle
 10
22.68472399999999
 20
184.8014369999999
 30
0.0
 40
0.8
100
AcDbArc
 50
280.0
 51
100.0
  0
ARC
  5
A0A5
330
9F2C
100
AcDbEntity
  8
1
  6
Continuous
100
AcDbCircle
 10
14.28472399999999
 20
183.602437
 30
0.0
 40
0.8
100
AcDbArc
 50
94.89532
 51
279.6377919999998
  0
ARC
  5
A0A6
330
9F2C
100
AcDbEntity
  8
1
  6
Continuous
100
AcDbCircle
 10
22.68472399999999
 20
177.440637
 30
0.0
 40
0.8
100
AcDbArc
 50
280.0
 51
100.0
  0
ARC
  5
A0A7
330
9F2C
100
AcDbEntity
  8
1
  6
Continuous
100
AcDbCircle
 10
38.87102399999999
 20
312.362637
 30
0.0
 40
4.0
100
AcDbArc
 50
261.572
 51
305.1283579999998
  0
CIRCLE
  5
A0A8
330
9F2C
100
AcDbEntity
  8
1
  6
Continuous
100
AcDbCircle
 10
382.001524
 20
169.4416369999999
 30
0.0
 40
2.149999999999999
  0
ARC
  5
A0A9
330
9F2C
100
AcDbEntity
  8
1
  6
Continuous
100
AcDbCircle
 10
22.68472399999999
 20
176.2416369999999
 30
0.0
 40
0.8
100
AcDbArc
 50
159.1724609999999
 51
48.5375
  0
ARC
  5
A0AA
330
9F2C
100
AcDbEntity
  8
1
  6
Continuous
100
AcDbCircle
 10
14.28472399999999
 20
186.6416369999998
 30
0.0
 40
0.8
100
AcDbArc
 50
341.575
 51
228.5379999999999
  0
ARC
  5
A0AB
330
9F2C
100
AcDbEntity
  8
1
  6
Continuous
100
AcDbCircle
 10
90.73452399999998
 20
200.4416369999999
 30
0.0
 40
5.0
100
AcDbArc
 50
90.0
 51
270.0
  0
CIRCLE
  5
A0AC
330
9F2C
100
AcDbEntity
  8
1
  6
Continuous
100
AcDbCircle
 10
209.2815239999999
 20
200.4416369999999
 30
0.0
 40
1.45
  0
CIRCLE
  5
A0AD
330
9F2C
100
AcDbEntity
  8
1
  6
Continuous
100
AcDbCircle
 10
209.2815239999999
 20
200.4416369999999
 30
0.0
 40
1.5
  0
ARC
  5
A0AE
330
9F2C
100
AcDbEntity
  8
1
  6
Continuous
100
AcDbCircle
 10
112.7345239999998
 20
200.4416369999999
 30
0.0
 40
5.0
100
AcDbArc
 50
270.0
 51
90.0
  0
ARC
  5
A0AF
330
9F2C
100
AcDbEntity
  8
1
  6
Continuous
100
AcDbCircle
 10
90.73452399999998
 20
200.4416369999999
 30
0.0
 40
5.0
100
AcDbArc
 50
267.134
 51
270.0
  0
CIRCLE
  5
A0B0
330
9F2C
100
AcDbEntity
  8
1
  6
Continuous
100
AcDbCircle
 10
90.73452399999998
 20
200.4416369999999
 30
0.0
 40
2.149999999999999
  0
CIRCLE
  5
A0B1
330
9F2C
100
AcDbEntity
  8
1
  6
Continuous
100
AcDbCircle
 10
90.73452399999998
 20
200.4416369999999
 30
0.0
 40
4.0
  0
CIRCLE
  5
A0B2
330
9F2C
100
AcDbEntity
  8
1
  6
Continuous
100
AcDbCircle
 10
112.7345239999998
 20
200.4416369999999
 30
0.0
 40
2.149999999999999
  0
CIRCLE
  5
A0B3
330
9F2C
100
AcDbEntity
  8
1
  6
Continuous
100
AcDbCircle
 10
112.7345239999998
 20
200.4416369999999
 30
0.0
 40
4.0
  0
ARC
  5
A0B4
330
9F2C
100
AcDbEntity
  8
1
  6
Continuous
100
AcDbCircle
 10
107.7345239999998
 20
204.4416369999999
 30
0.0
 40
1.0
100
AcDbArc
 50
0.0
 51
90.0
  0
ARC
  5
A0B5
330
9F2C
100
AcDbEntity
  8
1
  6
Continuous
100
AcDbCircle
 10
95.73452399999998
 20
204.4416369999999
 30
0.0
 40
1.0
100
AcDbArc
 50
90.0
 51
180.0
  0
CIRCLE
  5
A0B6
330
9F2C
100
AcDbEntity
  8
1
  6
Continuous
100
AcDbCircle
 10
474.6515239999998
 20
200.4416369999999
 30
0.0
 40
2.149999999999999
  0
ARC
  5
A0B7
330
9F2C
100
AcDbEntity
  8
1
  6
Continuous
100
AcDbCircle
 10
474.6515239999998
 20
200.4416369999999
 30
0.0
 40
5.0
100
AcDbArc
 50
270.0
 51
90.0
  0
ARC
  5
A0B8
330
9F2C
100
AcDbEntity
  8
1
  6
Continuous
100
AcDbCircle
 10
452.651524
 20
200.4416369999999
 30
0.0
 40
5.0
100
AcDbArc
 50
90.0
 51
270.0
  0
ARC
  5
A0B9
330
9F2C
100
AcDbEntity
  8
1
  6
Continuous
100
AcDbCircle
 10
474.6515239999998
 20
200.4416369999999
 30
0.0
 40
5.0
100
AcDbArc
 50
270.0
 51
272.866
  0
CIRCLE
  5
A0BA
330
9F2C
100
AcDbEntity
  8
1
  6
Continuous
100
AcDbCircle
 10
452.651524
 20
200.4416369999999
 30
0.0
 40
2.149999999999999
  0
ARC
  5
A0BB
330
9F2C
100
AcDbEntity
  8
1
  6
Continuous
100
AcDbCircle
 10
95.73452399999998
 20
309.326637
 30
0.0
 40
1.0
100
AcDbArc
 50
180.0
 51
270.0
  0
ARC
  5
A0BC
330
9F2C
100
AcDbEntity
  8
1
  6
Continuous
100
AcDbCircle
 10
95.73452399999998
 20
311.2936369999999
 30
0.0
 40
1.0
100
AcDbArc
 50
180.0
 51
270.0
  0
ARC
  5
A0BD
330
9F2C
100
AcDbEntity
  8
1
  6
Continuous
100
AcDbCircle
 10
107.7345239999998
 20
311.2936369999999
 30
0.0
 40
1.0
100
AcDbArc
 50
270.0
 51
0.0
  0
ARC
  5
A0BE
330
9F2C
100
AcDbEntity
  8
1
  6
Continuous
100
AcDbCircle
 10
107.7345239999998
 20
309.326637
 30
0.0
 40
1.0
100
AcDbArc
 50
270.0
 51
0.0
  0
ARC
  5
A0BF
330
9F2C
100
AcDbEntity
  8
1
  6
Continuous
100
AcDbCircle
 10
271.7815239999999
 20
198.9416369999999
 30
0.0
 40
0.5
100
AcDbArc
 50
270.0
 51
0.0
  0
ARC
  5
A0C0
330
9F2C
100
AcDbEntity
  8
1
  6
Continuous
100
AcDbCircle
 10
271.7815239999999
 20
198.9416369999999
 30
0.0
 40
2.5
100
AcDbArc
 50
270.0
 51
281.5369999999999
  0
ARC
  5
A0C1
330
9F2C
100
AcDbEntity
  8
1
  6
Continuous
100
AcDbCircle
 10
269.2815239999999
 20
200.4416369999999
 30
0.0
 40
2.0
100
AcDbArc
 50
191.2509999999999
 51
270.0
  0
ARC
  5
A0C2
330
9F2C
100
AcDbEntity
  8
1
  6
Continuous
100
AcDbCircle
 10
269.2815239999999
 20
200.4416369999999
 30
0.0
 40
4.0
100
AcDbArc
 50
191.249
 51
270.0
  0
LINE
  5
A0C3
330
9F2C
100
AcDbEntity
  8
1
  6
Continuous
100
AcDbLine
 10
20.73472399999999
 20
311.326637
 30
0.0
 11
20.73472399999999
 21
309.777618
 31
0.0
  0
LINE
  5
A0C4
330
9F2C
100
AcDbEntity
  8
1
  6
Continuous
100
AcDbLine
 10
42.734724
 20
307.861494
 30
0.0
 11
42.734724
 21
305.826637
 31
0.0
  0
LINE
  5
A0C5
330
9F2C
100
AcDbEntity
  8
4
  6
CENTER
100
AcDbLine
 10
377.001524
 20
155.441637
 30
0.0
 11
387.001524
 21
155.441637
 31
0.0
  0
CIRCLE
  5
A0C6
330
9F2C
100
AcDbEntity
  8
3
  6
DASHED
100
AcDbCircle
 10
382.001524
 20
155.441637
 30
0.0
 40
4.0
  0
CIRCLE
  5
A0C7
330
9F2C
100
AcDbEntity
  8
3
  6
DASHED
100
AcDbCircle
 10
382.001524
 20
169.4416369999999
 30
0.0
 40
4.0
  0
LINE
  5
A0C8
330
9F2C
100
AcDbEntity
  8
4
  6
CENTER
100
AcDbLine
 10
377.001524
 20
169.4416369999999
 30
0.0
 11
387.001524
 21
169.4416369999999
 31
0.0
  0
LINE
  5
A0C9
330
9F2C
100
AcDbEntity
  8
4
  6
CENTER
100
AcDbLine
 10
210.704881
 20
169.4416369999999
 30
0.0
 11
218.8530509999999
 21
169.4416369999999
 31
0.0
  0
LINE
  5
A0CA
330
9F2C
100
AcDbEntity
  8
4
  6
CENTER
100
AcDbLine
 10
210.704881
 20
155.441637
 30
0.0
 11
218.8530509999999
 21
155.441637
 31
0.0
  0
LINE
  5
A0CB
330
9F2C
100
AcDbEntity
  8
4
  6
CENTER
100
AcDbLine
 10
26.734724
 20
169.4416369999999
 30
0.0
 11
36.734724
 21
169.4416369999999
 31
0.0
  0
LINE
  5
A0CC
330
9F2C
100
AcDbEntity
  8
4
  6
CENTER
100
AcDbLine
 10
26.734724
 20
155.441637
 30
0.0
 11
36.734724
 21
155.441637
 31
0.0
  0
ARC
  5
A0CD
330
9F2C
100
AcDbEntity
  8
1
  6
Continuous
100
AcDbCircle
 10
22.23472399999999
 20
166.3950539999999
 30
0.0
 40
1.5
100
AcDbArc
 50
122.1122
 51
180.0
  0
ARC
  5
A0CE
330
9F2C
100
AcDbEntity
  8
1
  6
Continuous
100
AcDbCircle
 10
41.23472399999999
 20
166.3950539999999
 30
0.0
 40
1.5
100
AcDbArc
 50
0.0
 51
57.8878
  0
ARC
  5
A0CF
330
9F2C
100
AcDbEntity
  8
1
  6
Continuous
100
AcDbCircle
 10
372.501524
 20
166.3950539999999
 30
0.0
 40
1.5
100
AcDbArc
 50
122.1122
 51
180.0
  0
ARC
  5
A0D0
330
9F2C
100
AcDbEntity
  8
1
  6
Continuous
100
AcDbCircle
 10
391.501524
 20
166.3950539999999
 30
0.0
 40
1.5
100
AcDbArc
 50
0.0
 51
57.8878
  0
LINE
  5
A0D1
330
9F2C
100
AcDbEntity
  8
1
  6
Continuous
100
AcDbLine
 10
211.0315229999999
 20
175.4416369999999
 30
0.0
 11
213.2815239999999
 21
175.4416369999999
 31
0.0
  0
ARC
  5
A0D2
330
9F2C
100
AcDbEntity
  8
1
  6
Continuous
100
AcDbCircle
 10
28.834724
 20
316.326637
 30
0.0
 40
2.0
100
AcDbArc
 50
90.0
 51
180.0
  0
ARC
  5
A0D3
330
9F2C
100
AcDbEntity
  8
1
  6
Continuous
100
AcDbCircle
 10
34.634724
 20
316.326637
 30
0.0
 40
2.0
100
AcDbArc
 50
0.0
 51
90.0
  0
ARC
  5
A0D4
330
9F2C
100
AcDbEntity
  8
1
  6
Continuous
100
AcDbCircle
 10
38.734724
 20
316.326637
 30
0.0
 40
2.0
100
AcDbArc
 50
0.0
 51
90.0
  0
ARC
  5
A0D5
330
9F2C
100
AcDbEntity
  8
1
  6
Continuous
100
AcDbCircle
 10
24.734724
 20
316.326637
 30
0.0
 40
2.0
100
AcDbArc
 50
90.0
 51
180.0
  0
ARC
  5
A0D6
330
9F2C
100
AcDbEntity
  8
1
  6
Continuous
100
AcDbCircle
 10
24.734724
 20
45.016837
 30
0.0
 40
2.0
100
AcDbArc
 50
180.0
 51
270.0
  0
ARC
  5
A0D7
330
9F2C
100
AcDbEntity
  8
1
  6
Continuous
100
AcDbCircle
 10
38.734724
 20
45.016837
 30
0.0
 40
2.0
100
AcDbArc
 50
270.0
 51
0.0
  0
LINE
  5
A0D8
330
9F2C
100
AcDbEntity
  8
1
  6
Continuous
100
AcDbLine
 10
18.484724
 20
190.4416369999999
 30
0.0
 11
20.484724
 21
190.4416369999999
 31
0.0
  0
LINE
  5
A0D9
330
9F2C
100
AcDbEntity
  8
1
  6
Continuous
100
AcDbLine
 10
44.98472399999999
 20
203.1916369999999
 30
0.0
 11
44.98472399999999
 21
195.4416369999999
 31
0.0
  0
LINE
  5
A0DA
330
9F2C
100
AcDbEntity
  8
1
  6
Continuous
100
AcDbLine
 10
42.984724
 20
203.1916369999999
 30
0.0
 11
42.984724
 21
194.4416369999999
 31
0.0
  0
ARC
  5
A0DB
330
9F2C
100
AcDbEntity
  8
1
  6
Continuous
100
AcDbCircle
 10
45.984724
 20
194.4416369999999
 30
0.0
 40
1.0
100
AcDbArc
 50
0.0
 51
90.0
  0
ARC
  5
A0DC
330
9F2C
100
AcDbEntity
  8
1
  6
Continuous
100
AcDbCircle
 10
43.984724
 20
194.4416369999999
 30
0.0
 40
1.0
100
AcDbArc
 50
180.0
 51
270.0
  0
LINE
  5
A0DD
330
9F2C
100
AcDbEntity
  8
1
  6
Continuous
100
AcDbLine
 10
44.734724
 20
196.018637
 30
0.0
 11
43.23472399999999
 21
196.018637
 31
0.0
  0
LINE
  5
A0DE
330
9F2C
100
AcDbEntity
  8
1
  6
Continuous
100
AcDbLine
 10
45.984724
 20
195.4416369999999
 30
0.0
 11
44.98472399999999
 21
195.4416369999999
 31
0.0
  0
LINE
  5
A0DF
330
9F2C
100
AcDbEntity
  8
1
  6
Continuous
100
AcDbLine
 10
43.984724
 20
193.4416369999999
 30
0.0
 11
44.98472399999999
 21
193.4416369999999
 31
0.0
  0
LINE
  5
A0E0
330
9F2C
100
AcDbEntity
  8
1
  6
Continuous
100
AcDbLine
 10
45.984724
 20
201.8916369999999
 30
0.0
 11
45.984724
 21
198.9916369999999
 31
0.0
  0
LINE
  5
A0E1
330
9F2C
100
AcDbEntity
  8
1
  6
Continuous
100
AcDbLine
 10
44.98472399999999
 20
198.9916369999999
 30
0.0
 11
45.984724
 21
198.9916369999999
 31
0.0
  0
LINE
  5
A0E2
330
9F2C
100
AcDbEntity
  8
1
  6
Continuous
100
AcDbLine
 10
44.98472399999999
 20
201.8916369999999
 30
0.0
 11
45.984724
 21
201.8916369999999
 31
0.0
  0
LINE
  5
A0E3
330
9F2C
100
AcDbEntity
  8
1
  6
Continuous
100
AcDbLine
 10
44.98472399999999
 20
203.1916369999999
 30
0.0
 11
42.984724
 21
203.1916369999999
 31
0.0
  0
LINE
  5
A0E4
330
9F2C
100
AcDbEntity
  8
1
  6
Continuous
100
AcDbLine
 10
44.98472399999999
 20
190.4416369999999
 30
0.0
 11
42.984724
 21
190.4416369999999
 31
0.0
  0
ARC
  5
A0E5
330
9F2C
100
AcDbEntity
  8
1
  6
Continuous
100
AcDbCircle
 10
40.78472399999998
 20
176.2416369999999
 30
0.0
 40
0.8
100
AcDbArc
 50
100.0
 51
280.0
  0
LINE
  5
A0E6
330
9F2C
100
AcDbEntity
  8
1
  6
Continuous
100
AcDbLine
 10
40.92362399999998
 20
175.4536369999999
 30
0.0
 11
49.323624
 21
176.652637
 31
0.0
  0
ARC
  5
A0E7
330
9F2C
100
AcDbEntity
  8
1
  6
Continuous
100
AcDbCircle
 10
49.18472399999998
 20
176.2416369999999
 30
0.0
 40
0.8
100
AcDbArc
 50
161.588606
 51
48.5375
  0
LINE
  5
A0E8
330
9F2C
100
AcDbEntity
  8
1
  6
Continuous
100
AcDbLine
 10
44.98472399999999
 20
175.4416369999999
 30
0.0
 11
49.18472399999998
 21
175.4416369999999
 31
0.0
  0
LINE
  5
A0E9
330
9F2C
100
AcDbEntity
  8
1
  6
Continuous
100
AcDbLine
 10
46.98472399999999
 20
176.3187869999999
 30
0.0
 11
46.98472399999999
 21
172.4416369999999
 31
0.0
  0
LINE
  5
A0EA
330
9F2C
100
AcDbEntity
  8
1
  6
Continuous
100
AcDbLine
 10
46.98472399999999
 20
172.4416369999999
 30
0.0
 11
44.98472399999999
 21
172.4416369999999
 31
0.0
  0
LINE
  5
A0EB
330
9F2C
100
AcDbEntity
  8
1
  6
Continuous
100
AcDbLine
 10
40.64582399999999
 20
177.0286369999998
 30
0.0
 11
49.04582399999998
 21
178.2276369999999
 31
0.0
  0
LINE
  5
A0EC
330
9F2C
100
AcDbEntity
  8
1
  6
Continuous
100
AcDbLine
 10
40.64582399999999
 20
178.868837
 30
0.0
 11
49.04582399999998
 21
180.0678369999999
 31
0.0
  0
LINE
  5
A0ED
330
9F2C
100
AcDbEntity
  8
1
  6
Continuous
100
AcDbLine
 10
40.92362399999998
 20
177.293837
 30
0.0
 11
49.323624
 21
178.492837
 31
0.0
  0
LINE
  5
A0EE
330
9F2C
100
AcDbEntity
  8
1
  6
Continuous
100
AcDbLine
 10
40.64582399999999
 20
180.709037
 30
0.0
 11
49.04582399999998
 21
181.908037
 31
0.0
  0
LINE
  5
A0EF
330
9F2C
100
AcDbEntity
  8
1
  6
Continuous
100
AcDbLine
 10
40.92362399999998
 20
179.134037
 30
0.0
 11
49.323624
 21
180.3330369999999
 31
0.0
  0
LINE
  5
A0F0
330
9F2C
100
AcDbEntity
  8
1
  6
Continuous
100
AcDbLine
 10
40.64582399999999
 20
182.549237
 30
0.0
 11
49.04582399999998
 21
183.748237
 31
0.0
  0
LINE
  5
A0F1
330
9F2C
100
AcDbEntity
  8
1
  6
Continuous
100
AcDbLine
 10
40.92362399999998
 20
180.974237
 30
0.0
 11
49.323624
 21
182.173237
 31
0.0
  0
LINE
  5
A0F2
330
9F2C
100
AcDbEntity
  8
1
  6
Continuous
100
AcDbLine
 10
40.64582399999999
 20
184.3894369999999
 30
0.0
 11
49.04582399999998
 21
185.588437
 31
0.0
  0
LINE
  5
A0F3
330
9F2C
100
AcDbEntity
  8
1
  6
Continuous
100
AcDbLine
 10
40.92362399999998
 20
182.814437
 30
0.0
 11
49.323624
 21
184.013437
 31
0.0
  0
LINE
  5
A0F4
330
9F2C
100
AcDbEntity
  8
1
  6
Continuous
100
AcDbLine
 10
40.92362399999998
 20
184.654637
 30
0.0
 11
49.323624
 21
185.8536369999999
 31
0.0
  0
LINE
  5
A0F5
330
9F2C
100
AcDbEntity
  8
1
  6
Continuous
100
AcDbLine
 10
40.64582399999999
 20
186.229637
 30
0.0
 11
49.04582399999998
 21
187.428637
 31
0.0
  0
LINE
  5
A0F6
330
9F2C
100
AcDbEntity
  8
1
  6
Continuous
100
AcDbLine
 10
40.78472399999998
 20
187.4416369999999
 30
0.0
 11
44.98472399999999
 21
187.4416369999999
 31
0.0
  0
ARC
  5
A0F7
330
9F2C
100
AcDbEntity
  8
1
  6
Continuous
100
AcDbCircle
 10
40.78472399999998
 20
178.081837
 30
0.0
 40
0.8
100
AcDbArc
 50
100.0
 51
280.0
  0
ARC
  5
A0F8
330
9F2C
100
AcDbEntity
  8
1
  6
Continuous
100
AcDbCircle
 10
40.78472399999998
 20
179.922037
 30
0.0
 40
0.8
100
AcDbArc
 50
100.0
 51
280.0
  0
ARC
  5
A0F9
330
9F2C
100
AcDbEntity
  8
1
  6
Continuous
100
AcDbCircle
 10
40.78472399999998
 20
181.762237
 30
0.0
 40
0.8
100
AcDbArc
 50
100.0
 51
280.0
  0
ARC
  5
A0FA
330
9F2C
100
AcDbEntity
  8
1
  6
Continuous
100
AcDbCircle
 10
40.78472399999998
 20
183.602437
 30
0.0
 40
0.8
100
AcDbArc
 50
100.0
 51
280.0
  0
ARC
  5
A0FB
330
9F2C
100
AcDbEntity
  8
1
  6
Continuous
100
AcDbCircle
 10
40.78472399999998
 20
186.6416369999998
 30
0.0
 40
0.8
100
AcDbArc
 50
339.0914029999998
 51
228.5379999999999
  0
ARC
  5
A0FC
330
9F2C
100
AcDbEntity
  8
1
  6
Continuous
100
AcDbCircle
 10
40.78472399999998
 20
185.4426369999999
 30
0.0
 40
0.8
100
AcDbArc
 50
100.0
 51
280.0
  0
ARC
  5
A0FD
330
9F2C
100
AcDbEntity
  8
1
  6
Continuous
100
AcDbCircle
 10
49.18472399999998
 20
177.440637
 30
0.0
 40
0.8
100
AcDbArc
 50
280.0
 51
100.0
  0
ARC
  5
A0FE
330
9F2C
100
AcDbEntity
  8
1
  6
Continuous
100
AcDbCircle
 10
49.18472399999998
 20
179.2808369999999
 30
0.0
 40
0.8
100
AcDbArc
 50
280.0
 51
100.0
  0
ARC
  5
A0FF
330
9F2C
100
AcDbEntity
  8
1
  6
Continuous
100
AcDbCircle
 10
49.18472399999998
 20
181.1210369999998
 30
0.0
 40
0.8
100
AcDbArc
 50
280.0
 51
100.0
  0
ARC
  5
A100
330
9F2C
100
AcDbEntity
  8
1
  6
Continuous
100
AcDbCircle
 10
49.18472399999998
 20
182.961237
 30
0.0
 40
0.8
100
AcDbArc
 50
280.0
 51
100.0
  0
ARC
  5
A101
330
9F2C
100
AcDbEntity
  8
1
  6
Continuous
100
AcDbCircle
 10
49.18472399999998
 20
184.8014369999999
 30
0.0
 40
0.8
100
AcDbArc
 50
280.0
 51
100.0
  0
ARC
  5
A102
330
9F2C
100
AcDbEntity
  8
1
  6
Continuous
100
AcDbCircle
 10
49.18472399999998
 20
186.6416369999998
 30
0.0
 40
0.8
100
AcDbArc
 50
280.0
 51
100.0
  0
LINE
  5
A103
330
9F2C
100
AcDbEntity
  8
1
  6
Continuous
100
AcDbLine
 10
46.98472399999999
 20
187.4416369999999
 30
0.0
 11
49.18472399999998
 21
187.4416369999999
 31
0.0
  0
LINE
  5
A104
330
9F2C
100
AcDbEntity
  8
1
  6
Continuous
100
AcDbLine
 10
42.984724
 20
190.4416369999999
 30
0.0
 11
42.984724
 21
186.5278029999998
 31
0.0
  0
LINE
  5
A105
330
9F2C
100
AcDbEntity
  8
1
  6
Continuous
100
AcDbLine
 10
44.98472399999999
 20
193.4416369999999
 30
0.0
 11
44.98472399999999
 21
186.8489639999999
 31
0.0
  0
LINE
  5
A106
330
9F2C
100
AcDbEntity
  8
1
  6
Continuous
100
AcDbLine
 10
46.98472399999999
 20
194.4416369999999
 30
0.0
 11
46.98472399999999
 21
187.1344399999999
 31
0.0
  0
LINE
  5
A107
330
9F2C
100
AcDbEntity
  8
1
  6
Continuous
100
AcDbLine
 10
397.251524
 20
176.3187869999999
 30
0.0
 11
397.251524
 21
172.4416369999999
 31
0.0
  0
LINE
  5
A108
330
9F2C
100
AcDbEntity
  8
1
  6
Continuous
100
AcDbLine
 10
368.751524
 20
176.0689949999998
 30
0.0
 11
368.751524
 21
158.9416369999999
 31
0.0
  0
LINE
  5
A109
330
9F2C
100
AcDbEntity
  8
1
  6
Continuous
100
AcDbLine
 10
366.751524
 20
175.747835
 30
0.0
 11
366.751524
 21
172.4416369999999
 31
0.0
  0
LINE
  5
A10A
330
9F2C
100
AcDbEntity
  8
1
  6
Continuous
100
AcDbLine
 10
366.751524
 20
172.4416369999999
 30
0.0
 11
368.751524
 21
172.4416369999999
 31
0.0
  0
LINE
  5
A10B
330
9F2C
100
AcDbEntity
  8
1
  6
Continuous
100
AcDbLine
 10
395.251524
 20
175.997626
 30
0.0
 11
395.251524
 21
158.9416369999999
 31
0.0
  0
LINE
  5
A10C
330
9F2C
100
AcDbEntity
  8
1
  6
Continuous
100
AcDbLine
 10
397.251524
 20
172.4416369999999
 30
0.0
 11
395.251524
 21
172.4416369999999
 31
0.0
  0
LINE
  5
A10D
330
9F2C
100
AcDbEntity
  8
1
  6
Continuous
100
AcDbLine
 10
393.251524
 20
202.4416369999999
 30
0.0
 11
370.751524
 21
202.4416369999999
 31
0.0
  0
LINE
  5
A10E
330
9F2C
100
AcDbEntity
  8
1
  6
Continuous
100
AcDbLine
 10
393.251524
 20
198.4416369999999
 30
0.0
 11
370.751524
 21
198.4416369999999
 31
0.0
  0
LINE
  5
A10F
330
9F2C
100
AcDbEntity
  8
4
  6
CENTER
100
AcDbLine
 10
398.001524
 20
200.4416369999999
 30
0.0
 11
366.001524
 21
200.4416369999999
 31
0.0
  0
LINE
  5
A110
330
9F2C
100
AcDbEntity
  8
1
  6
Continuous
100
AcDbLine
 10
368.751524
 20
203.1916369999999
 30
0.0
 11
368.751524
 21
195.4416369999999
 31
0.0
  0
LINE
  5
A111
330
9F2C
100
AcDbEntity
  8
1
  6
Continuous
100
AcDbLine
 10
370.751524
 20
203.1916369999999
 30
0.0
 11
370.751524
 21
194.4416369999999
 31
0.0
  0
LINE
  5
A112
330
9F2C
100
AcDbEntity
  8
1
  6
Continuous
100
AcDbLine
 10
368.751524
 20
193.4416369999999
 30
0.0
 11
368.751524
 21
186.8489639999999
 31
0.0
  0
LINE
  5
A113
330
9F2C
100
AcDbEntity
  8
1
  6
Continuous
100
AcDbLine
 10
366.751524
 20
194.4416369999999
 30
0.0
 11
366.751524
 21
186.563487
 31
0.0
  0
LINE
  5
A114
330
9F2C
100
AcDbEntity
  8
1
  6
Continuous
100
AcDbLine
 10
368.751524
 20
190.4416369999999
 30
0.0
 11
370.751524
 21
190.4416369999999
 31
0.0
  0
ARC
  5
A115
330
9F2C
100
AcDbEntity
  8
1
  6
Continuous
100
AcDbCircle
 10
367.751524
 20
194.4416369999999
 30
0.0
 40
1.0
100
AcDbArc
 50
90.0
 51
180.0
  0
ARC
  5
A116
330
9F2C
100
AcDbEntity
  8
1
  6
Continuous
100
AcDbCircle
 10
369.751524
 20
194.4416369999999
 30
0.0
 40
1.0
100
AcDbArc
 50
270.0
 51
0.0
  0
LINE
  5
A117
330
9F2C
100
AcDbEntity
  8
1
  6
Continuous
100
AcDbLine
 10
369.001524
 20
196.018637
 30
0.0
 11
370.501524
 21
196.018637
 31
0.0
  0
LINE
  5
A118
330
9F2C
100
AcDbEntity
  8
1
  6
Continuous
100
AcDbLine
 10
367.751524
 20
195.4416369999999
 30
0.0
 11
368.751524
 21
195.4416369999999
 31
0.0
  0
LINE
  5
A119
330
9F2C
100
AcDbEntity
  8
1
  6
Continuous
100
AcDbLine
 10
370.751524
 20
190.4416369999999
 30
0.0
 11
370.751524
 21
187.1701239999999
 31
0.0
  0
LINE
  5
A11A
330
9F2C
100
AcDbEntity
  8
1
  6
Continuous
100
AcDbLine
 10
369.751524
 20
193.4416369999999
 30
0.0
 11
368.751524
 21
193.4416369999999
 31
0.0
  0
LINE
  5
A11B
330
9F2C
100
AcDbEntity
  8
1
  6
Continuous
100
AcDbLine
 10
367.751524
 20
201.8916369999999
 30
0.0
 11
367.751524
 21
198.9916369999999
 31
0.0
  0
LINE
  5
A11C
330
9F2C
100
AcDbEntity
  8
1
  6
Continuous
100
AcDbLine
 10
368.751524
 20
198.9916369999999
 30
0.0
 11
367.751524
 21
198.9916369999999
 31
0.0
  0
LINE
  5
A11D
330
9F2C
100
AcDbEntity
  8
1
  6
Continuous
100
AcDbLine
 10
368.751524
 20
201.8916369999999
 30
0.0
 11
367.751524
 21
201.8916369999999
 31
0.0
  0
LINE
  5
A11E
330
9F2C
100
AcDbEntity
  8
1
  6
Continuous
100
AcDbLine
 10
368.751524
 20
203.1916369999999
 30
0.0
 11
370.751524
 21
203.1916369999999
 31
0.0
  0
LINE
  5
A11F
330
9F2C
100
AcDbEntity
  8
1
  6
Continuous
100
AcDbLine
 10
393.251524
 20
203.1916369999999
 30
0.0
 11
393.251524
 21
194.4416369999999
 31
0.0
  0
LINE
  5
A120
330
9F2C
100
AcDbEntity
  8
1
  6
Continuous
100
AcDbLine
 10
395.251524
 20
203.1916369999999
 30
0.0
 11
395.251524
 21
195.4416369999999
 31
0.0
  0
LINE
  5
A121
330
9F2C
100
AcDbEntity
  8
1
  6
Continuous
100
AcDbLine
 10
395.251524
 20
193.4416369999999
 30
0.0
 11
395.251524
 21
186.8489639999999
 31
0.0
  0
LINE
  5
A122
330
9F2C
100
AcDbEntity
  8
1
  6
Continuous
100
AcDbLine
 10
397.251524
 20
194.4416369999999
 30
0.0
 11
397.251524
 21
187.0652169999999
 31
0.0
  0
LINE
  5
A123
330
9F2C
100
AcDbEntity
  8
1
  6
Continuous
100
AcDbLine
 10
393.251524
 20
190.4416369999999
 30
0.0
 11
393.251524
 21
186.5278029999998
 31
0.0
  0
LINE
  5
A124
330
9F2C
100
AcDbEntity
  8
1
  6
Continuous
100
AcDbLine
 10
395.251524
 20
190.4416369999999
 30
0.0
 11
393.251524
 21
190.4416369999999
 31
0.0
  0
LINE
  5
A125
330
9F2C
100
AcDbEntity
  8
1
  6
Continuous
100
AcDbLine
 10
394.251524
 20
193.4416369999999
 30
0.0
 11
395.251524
 21
193.4416369999999
 31
0.0
  0
LINE
  5
A126
330
9F2C
100
AcDbEntity
  8
1
  6
Continuous
100
AcDbLine
 10
396.251524
 20
195.4416369999999
 30
0.0
 11
395.251524
 21
195.4416369999999
 31
0.0
  0
LINE
  5
A127
330
9F2C
100
AcDbEntity
  8
1
  6
Continuous
100
AcDbLine
 10
395.001524
 20
196.018637
 30
0.0
 11
393.501524
 21
196.018637
 31
0.0
  0
ARC
  5
A128
330
9F2C
100
AcDbEntity
  8
1
  6
Continuous
100
AcDbCircle
 10
394.251524
 20
194.4416369999999
 30
0.0
 40
1.0
100
AcDbArc
 50
180.0
 51
270.0
  0
ARC
  5
A129
330
9F2C
100
AcDbEntity
  8
1
  6
Continuous
100
AcDbCircle
 10
396.251524
 20
194.4416369999999
 30
0.0
 40
1.0
100
AcDbArc
 50
0.0
 51
90.0
  0
LINE
  5
A12A
330
9F2C
100
AcDbEntity
  8
1
  6
Continuous
100
AcDbLine
 10
395.251524
 20
203.1916369999999
 30
0.0
 11
393.251524
 21
203.1916369999999
 31
0.0
  0
LINE
  5
A12B
330
9F2C
100
AcDbEntity
  8
1
  6
Continuous
100
AcDbLine
 10
395.251524
 20
201.8916369999999
 30
0.0
 11
396.251524
 21
201.8916369999999
 31
0.0
  0
LINE
  5
A12C
330
9F2C
100
AcDbEntity
  8
1
  6
Continuous
100
AcDbLine
 10
395.251524
 20
198.9916369999999
 30
0.0
 11
396.251524
 21
198.9916369999999
 31
0.0
  0
LINE
  5
A12D
330
9F2C
100
AcDbEntity
  8
1
  6
Continuous
100
AcDbLine
 10
396.251524
 20
201.8916369999999
 30
0.0
 11
396.251524
 21
198.9916369999999
 31
0.0
  0
ARC
  5
A12E
330
9F2C
100
AcDbEntity
  8
1
  6
Continuous
100
AcDbCircle
 10
204.081524
 20
176.2416369999999
 30
0.0
 40
0.8
100
AcDbArc
 50
100.0
 51
280.0
  0
LINE
  5
A12F
330
9F2C
100
AcDbEntity
  8
1
  6
Continuous
100
AcDbLine
 10
204.220424
 20
175.4536369999999
 30
0.0
 11
212.620424
 21
176.652637
 31
0.0
  0
ARC
  5
A130
330
9F2C
100
AcDbEntity
  8
1
  6
Continuous
100
AcDbCircle
 10
212.481524
 20
176.2416369999999
 30
0.0
 40
0.8
100
AcDbArc
 50
159.1724609999999
 51
48.5375
  0
LINE
  5
A131
330
9F2C
100
AcDbEntity
  8
1
  6
Continuous
100
AcDbLine
 10
212.131524
 20
175.4416369999999
 30
0.0
 11
212.481524
 21
175.4416369999999
 31
0.0
  0
LINE
  5
A132
330
9F2C
100
AcDbEntity
  8
1
  6
Continuous
100
AcDbLine
 10
203.942624
 20
177.0286369999998
 30
0.0
 11
212.342624
 21
178.2276369999999
 31
0.0
  0
LINE
  5
A133
330
9F2C
100
AcDbEntity
  8
1
  6
Continuous
100
AcDbLine
 10
203.942624
 20
178.868837
 30
0.0
 11
212.342624
 21
180.0678369999999
 31
0.0
  0
LINE
  5
A134
330
9F2C
100
AcDbEntity
  8
1
  6
Continuous
100
AcDbLine
 10
204.220424
 20
177.293837
 30
0.0
 11
212.620424
 21
178.492837
 31
0.0
  0
LINE
  5
A135
330
9F2C
100
AcDbEntity
  8
1
  6
Continuous
100
AcDbLine
 10
203.942624
 20
180.709037
 30
0.0
 11
212.342624
 21
181.908037
 31
0.0
  0
LINE
  5
A136
330
9F2C
100
AcDbEntity
  8
1
  6
Continuous
100
AcDbLine
 10
204.220424
 20
179.134037
 30
0.0
 11
212.620424
 21
180.3330369999999
 31
0.0
  0
LINE
  5
A137
330
9F2C
100
AcDbEntity
  8
1
  6
Continuous
100
AcDbLine
 10
203.942624
 20
182.549237
 30
0.0
 11
212.342624
 21
183.748237
 31
0.0
  0
LINE
  5
A138
330
9F2C
100
AcDbEntity
  8
1
  6
Continuous
100
AcDbLine
 10
204.220424
 20
180.974237
 30
0.0
 11
212.620424
 21
182.173237
 31
0.0
  0
LINE
  5
A139
330
9F2C
100
AcDbEntity
  8
1
  6
Continuous
100
AcDbLine
 10
203.942624
 20
184.3894369999999
 30
0.0
 11
212.342624
 21
185.588437
 31
0.0
  0
LINE
  5
A13A
330
9F2C
100
AcDbEntity
  8
1
  6
Continuous
100
AcDbLine
 10
204.220424
 20
182.814437
 30
0.0
 11
212.620424
 21
184.013437
 31
0.0
  0
LINE
  5
A13B
330
9F2C
100
AcDbEntity
  8
1
  6
Continuous
100
AcDbLine
 10
204.2154589999999
 20
184.653929
 30
0.0
 11
212.620424
 21
185.8536369999999
 31
0.0
  0
LINE
  5
A13C
330
9F2C
100
AcDbEntity
  8
1
  6
Continuous
100
AcDbLine
 10
203.942624
 20
186.229637
 30
0.0
 11
212.342624
 21
187.428637
 31
0.0
  0
LINE
  5
A13D
330
9F2C
100
AcDbEntity
  8
1
  6
Continuous
100
AcDbLine
 10
204.881524
 20
190.4416369999999
 30
0.0
 11
205.531524
 21
190.4416369999999
 31
0.0
  0
ARC
  5
A13E
330
9F2C
100
AcDbEntity
  8
1
  6
Continuous
100
AcDbCircle
 10
204.081524
 20
178.081837
 30
0.0
 40
0.8
100
AcDbArc
 50
100.0
 51
280.0
  0
ARC
  5
A13F
330
9F2C
100
AcDbEntity
  8
1
  6
Continuous
100
AcDbCircle
 10
204.081524
 20
179.922037
 30
0.0
 40
0.8
100
AcDbArc
 50
100.0
 51
280.0
  0
ARC
  5
A140
330
9F2C
100
AcDbEntity
  8
1
  6
Continuous
100
AcDbCircle
 10
204.081524
 20
181.762237
 30
0.0
 40
0.8
100
AcDbArc
 50
100.0
 51
280.0
  0
ARC
  5
A141
330
9F2C
100
AcDbEntity
  8
1
  6
Continuous
100
AcDbCircle
 10
204.081524
 20
183.602437
 30
0.0
 40
0.8
100
AcDbArc
 50
100.0
 51
280.0
  0
ARC
  5
A142
330
9F2C
100
AcDbEntity
  8
1
  6
Continuous
100
AcDbCircle
 10
204.081524
 20
186.6416369999998
 30
0.0
 40
0.8
100
AcDbArc
 50
339.0914029999998
 51
228.5379999999999
  0
ARC
  5
A143
330
9F2C
100
AcDbEntity
  8
1
  6
Continuous
100
AcDbCircle
 10
204.081524
 20
185.4426369999999
 30
0.0
 40
0.8
100
AcDbArc
 50
94.89532
 51
279.6377919999998
  0
ARC
  5
A144
330
9F2C
100
AcDbEntity
  8
1
  6
Continuous
100
AcDbCircle
 10
212.481524
 20
177.440637
 30
0.0
 40
0.8
100
AcDbArc
 50
280.0
 51
100.0
  0
ARC
  5
A145
330
9F2C
100
AcDbEntity
  8
1
  6
Continuous
100
AcDbCircle
 10
212.481524
 20
179.2808369999999
 30
0.0
 40
0.8
100
AcDbArc
 50
280.0
 51
100.0
  0
ARC
  5
A146
330
9F2C
100
AcDbEntity
  8
1
  6
Continuous
100
AcDbCircle
 10
212.481524
 20
181.1210369999998
 30
0.0
 40
0.8
100
AcDbArc
 50
280.0
 51
100.0
  0
ARC
  5
A147
330
9F2C
100
AcDbEntity
  8
1
  6
Continuous
100
AcDbCircle
 10
212.481524
 20
182.961237
 30
0.0
 40
0.8
100
AcDbArc
 50
280.0
 51
100.0
  0
ARC
  5
A148
330
9F2C
100
AcDbEntity
  8
1
  6
Continuous
100
AcDbCircle
 10
212.481524
 20
184.8014369999999
 30
0.0
 40
0.8
100
AcDbArc
 50
276.6090439999999
 51
101.351516
  0
ARC
  5
A149
330
9F2C
100
AcDbEntity
  8
1
  6
Continuous
100
AcDbCircle
 10
212.481524
 20
186.6416369999998
 30
0.0
 40
0.8
100
AcDbArc
 50
280.0
 51
100.0
  0
LINE
  5
A14A
330
9F2C
100
AcDbEntity
  8
1
  6
Continuous
100
AcDbLine
 10
211.831524
 20
187.4416369999999
 30
0.0
 11
212.481524
 21
187.4416369999999
 31
0.0
  0
LINE
  5
A14B
330
9F2C
100
AcDbEntity
  8
1
  6
Continuous
100
AcDbLine
 10
211.0315239999999
 20
176.425841
 30
0.0
 11
211.0315239999999
 21
175.4416369999999
 31
0.0
  0
LINE
  5
A14C
330
9F2C
100
AcDbEntity
  8
1
  6
Continuous
100
AcDbLine
 10
212.2815239999999
 20
178.4444629999999
 30
0.0
 11
212.2815239999999
 21
178.258231
 31
0.0
  0
LINE
  5
A14D
330
9F2C
100
AcDbEntity
  8
1
  6
Continuous
100
AcDbLine
 10
205.531524
 20
184.8417809999999
 30
0.0
 11
205.531524
 21
184.616234
 31
0.0
  0
LINE
  5
A14E
330
9F2C
100
AcDbEntity
  8
1
  6
Continuous
100
AcDbLine
 10
211.0315239999999
 20
185.626841
 30
0.0
 11
211.0315239999999
 21
185.4012929999999
 31
0.0
  0
LINE
  5
A14F
330
9F2C
100
AcDbEntity
  8
1
  6
Continuous
100
AcDbLine
 10
211.0315239999999
 20
183.786641
 30
0.0
 11
211.0315239999999
 21
183.5610929999998
 31
0.0
  0
LINE
  5
A150
330
9F2C
100
AcDbEntity
  8
1
  6
Continuous
100
AcDbLine
 10
211.0315239999999
 20
181.9464409999999
 30
0.0
 11
211.0315239999999
 21
181.7208929999999
 31
0.0
  0
LINE
  5
A151
330
9F2C
100
AcDbEntity
  8
1
  6
Continuous
100
AcDbLine
 10
211.0315239999999
 20
180.1062409999999
 30
0.0
 11
211.0315239999999
 21
179.8806929999998
 31
0.0
  0
LINE
  5
A152
330
9F2C
100
AcDbEntity
  8
1
  6
Continuous
100
AcDbLine
 10
211.0315239999999
 20
178.266041
 30
0.0
 11
211.0315239999999
 21
178.0404929999999
 31
0.0
  0
LINE
  5
A153
330
9F2C
100
AcDbEntity
  8
1
  6
Continuous
100
AcDbLine
 10
205.531524
 20
177.480981
 30
0.0
 11
205.531524
 21
177.255434
 31
0.0
  0
LINE
  5
A154
330
9F2C
100
AcDbEntity
  8
1
  6
Continuous
100
AcDbLine
 10
205.531524
 20
179.321181
 30
0.0
 11
205.531524
 21
179.0956339999999
 31
0.0
  0
LINE
  5
A155
330
9F2C
100
AcDbEntity
  8
1
  6
Continuous
100
AcDbLine
 10
205.531524
 20
181.161381
 30
0.0
 11
205.531524
 21
180.9358339999998
 31
0.0
  0
LINE
  5
A156
330
9F2C
100
AcDbEntity
  8
1
  6
Continuous
100
AcDbLine
 10
205.531524
 20
183.0015809999999
 30
0.0
 11
205.531524
 21
182.776034
 31
0.0
  0
ARC
  5
A157
330
9F2C
100
AcDbEntity
  8
1
  6
Continuous
100
AcDbCircle
 10
207.2815239999999
 20
180.441637
 30
0.0
 40
5.0
100
AcDbArc
 50
17.63709
 51
19.190692
  0
LINE
  5
A158
330
9F2C
100
AcDbEntity
  8
1
  6
Continuous
100
AcDbLine
 10
18.484724
 20
185.2343109999999
 30
0.0
 11
18.484724
 21
185.0087639999999
 31
0.0
  0
LINE
  5
A159
330
9F2C
100
AcDbEntity
  8
1
  6
Continuous
100
AcDbLine
 10
16.484724
 20
184.948835
 30
0.0
 11
16.484724
 21
184.723287
 31
0.0
  0
LINE
  5
A15A
330
9F2C
100
AcDbEntity
  8
1
  6
Continuous
100
AcDbLine
 10
20.484724
 20
185.5197869999998
 30
0.0
 11
20.484724
 21
185.29424
 31
0.0
  0
LINE
  5
A15B
330
9F2C
100
AcDbEntity
  8
1
  6
Continuous
100
AcDbLine
 10
20.484724
 20
178.158987
 30
0.0
 11
20.484724
 21
177.9334399999999
 31
0.0
  0
LINE
  5
A15C
330
9F2C
100
AcDbEntity
  8
1
  6
Continuous
100
AcDbLine
 10
18.484724
 20
177.873511
 30
0.0
 11
18.484724
 21
177.6479639999998
 31
0.0
  0
LINE
  5
A15D
330
9F2C
100
AcDbEntity
  8
1
  6
Continuous
100
AcDbLine
 10
16.484724
 20
177.5880349999999
 30
0.0
 11
16.484724
 21
177.3624869999999
 31
0.0
  0
LINE
  5
A15E
330
9F2C
100
AcDbEntity
  8
1
  6
Continuous
100
AcDbLine
 10
20.484724
 20
179.999187
 30
0.0
 11
20.484724
 21
179.7736399999998
 31
0.0
  0
LINE
  5
A15F
330
9F2C
100
AcDbEntity
  8
1
  6
Continuous
100
AcDbLine
 10
18.484724
 20
179.7137109999999
 30
0.0
 11
18.484724
 21
179.4881639999999
 31
0.0
  0
LINE
  5
A160
330
9F2C
100
AcDbEntity
  8
1
  6
Continuous
100
AcDbLine
 10
16.484724
 20
179.428235
 30
0.0
 11
16.484724
 21
179.2026869999999
 31
0.0
  0
LINE
  5
A161
330
9F2C
100
AcDbEntity
  8
1
  6
Continuous
100
AcDbLine
 10
20.484724
 20
181.8393869999999
 30
0.0
 11
20.484724
 21
181.6138399999999
 31
0.0
  0
LINE
  5
A162
330
9F2C
100
AcDbEntity
  8
1
  6
Continuous
100
AcDbLine
 10
18.484724
 20
181.5539109999999
 30
0.0
 11
18.484724
 21
181.3283639999999
 31
0.0
  0
LINE
  5
A163
330
9F2C
100
AcDbEntity
  8
1
  6
Continuous
100
AcDbLine
 10
16.484724
 20
181.2684349999999
 30
0.0
 11
16.484724
 21
181.042887
 31
0.0
  0
LINE
  5
A164
330
9F2C
100
AcDbEntity
  8
1
  6
Continuous
100
AcDbLine
 10
20.484724
 20
183.6795869999999
 30
0.0
 11
20.484724
 21
183.4540399999999
 31
0.0
  0
LINE
  5
A165
330
9F2C
100
AcDbEntity
  8
1
  6
Continuous
100
AcDbLine
 10
18.484724
 20
183.3941109999999
 30
0.0
 11
18.484724
 21
183.168564
 31
0.0
  0
LINE
  5
A166
330
9F2C
100
AcDbEntity
  8
1
  6
Continuous
100
AcDbLine
 10
16.484724
 20
183.1086349999999
 30
0.0
 11
16.484724
 21
182.8830869999999
 31
0.0
  0
LINE
  5
A167
330
9F2C
100
AcDbEntity
  8
1
  6
Continuous
100
AcDbLine
 10
42.984724
 20
183.1086349999999
 30
0.0
 11
42.984724
 21
182.8830869999999
 31
0.0
  0
LINE
  5
A168
330
9F2C
100
AcDbEntity
  8
1
  6
Continuous
100
AcDbLine
 10
44.98472399999999
 20
183.3941109999999
 30
0.0
 11
44.98472399999999
 21
183.168564
 31
0.0
  0
LINE
  5
A169
330
9F2C
100
AcDbEntity
  8
1
  6
Continuous
100
AcDbLine
 10
44.98472399999999
 20
185.2343109999999
 30
0.0
 11
44.98472399999999
 21
185.0087639999999
 31
0.0
  0
LINE
  5
A16A
330
9F2C
100
AcDbEntity
  8
1
  6
Continuous
100
AcDbLine
 10
42.984724
 20
184.948835
 30
0.0
 11
42.984724
 21
184.723287
 31
0.0
  0
LINE
  5
A16B
330
9F2C
100
AcDbEntity
  8
1
  6
Continuous
100
AcDbLine
 10
42.984724
 20
181.2684349999999
 30
0.0
 11
42.984724
 21
181.042887
 31
0.0
  0
LINE
  5
A16C
330
9F2C
100
AcDbEntity
  8
1
  6
Continuous
100
AcDbLine
 10
44.98472399999999
 20
181.5539109999999
 30
0.0
 11
44.98472399999999
 21
181.3283639999999
 31
0.0
  0
LINE
  5
A16D
330
9F2C
100
AcDbEntity
  8
1
  6
Continuous
100
AcDbLine
 10
42.984724
 20
179.428235
 30
0.0
 11
42.984724
 21
179.2026869999999
 31
0.0
  0
LINE
  5
A16E
330
9F2C
100
AcDbEntity
  8
1
  6
Continuous
100
AcDbLine
 10
42.984724
 20
177.5880349999999
 30
0.0
 11
42.984724
 21
177.3624869999999
 31
0.0
  0
LINE
  5
A16F
330
9F2C
100
AcDbEntity
  8
1
  6
Continuous
100
AcDbLine
 10
44.98472399999999
 20
177.873511
 30
0.0
 11
44.98472399999999
 21
177.6479639999998
 31
0.0
  0
LINE
  5
A170
330
9F2C
100
AcDbEntity
  8
1
  6
Continuous
100
AcDbLine
 10
44.98472399999999
 20
179.7137109999999
 30
0.0
 11
44.98472399999999
 21
179.4881639999999
 31
0.0
  0
LINE
  5
A171
330
9F2C
100
AcDbEntity
  8
1
  6
Continuous
100
AcDbLine
 10
46.98472399999999
 20
183.6795869999999
 30
0.0
 11
46.98472399999999
 21
183.4540399999999
 31
0.0
  0
LINE
  5
A172
330
9F2C
100
AcDbEntity
  8
1
  6
Continuous
100
AcDbLine
 10
46.98472399999999
 20
185.5197869999998
 30
0.0
 11
46.98472399999999
 21
185.29424
 31
0.0
  0
LINE
  5
A173
330
9F2C
100
AcDbEntity
  8
1
  6
Continuous
100
AcDbLine
 10
46.98472399999999
 20
181.8393869999999
 30
0.0
 11
46.98472399999999
 21
181.6138399999999
 31
0.0
  0
LINE
  5
A174
330
9F2C
100
AcDbEntity
  8
1
  6
Continuous
100
AcDbLine
 10
46.98472399999999
 20
179.999187
 30
0.0
 11
46.98472399999999
 21
179.7736399999998
 31
0.0
  0
LINE
  5
A175
330
9F2C
100
AcDbEntity
  8
1
  6
Continuous
100
AcDbLine
 10
46.98472399999999
 20
178.158987
 30
0.0
 11
46.98472399999999
 21
177.9334399999999
 31
0.0
  0
LINE
  5
A176
330
9F2C
100
AcDbEntity
  8
1
  6
Continuous
100
AcDbLine
 10
205.531524
 20
175.6407809999998
 30
0.0
 11
205.531524
 21
175.4416369999999
 31
0.0
  0
LINE
  5
A177
330
9F2C
100
AcDbEntity
  8
1
  6
Continuous
100
AcDbLine
 10
364.690424
 20
175.4536369999999
 30
0.0
 11
373.090424
 21
176.652637
 31
0.0
  0
ARC
  5
A178
330
9F2C
100
AcDbEntity
  8
1
  6
Continuous
100
AcDbCircle
 10
364.5515239999999
 20
176.2416369999999
 30
0.0
 40
0.8
100
AcDbArc
 50
100.0
 51
280.0
  0
ARC
  5
A179
330
9F2C
100
AcDbEntity
  8
1
  6
Continuous
100
AcDbCircle
 10
372.951524
 20
176.2416369999999
 30
0.0
 40
0.8
100
AcDbArc
 50
159.1724609999999
 51
48.5375
  0
LINE
  5
A17A
330
9F2C
100
AcDbEntity
  8
1
  6
Continuous
100
AcDbLine
 10
366.751524
 20
172.4416369999999
 30
0.0
 11
368.751524
 21
172.4416369999999
 31
0.0
  0
LINE
  5
A17B
330
9F2C
100
AcDbEntity
  8
1
  6
Continuous
100
AcDbLine
 10
366.751524
 20
175.747835
 30
0.0
 11
366.751524
 21
172.4416369999999
 31
0.0
  0
LINE
  5
A17C
330
9F2C
100
AcDbEntity
  8
1
  6
Continuous
100
AcDbLine
 10
370.751524
 20
175.4416369999999
 30
0.0
 11
372.951524
 21
175.4416369999999
 31
0.0
  0
LINE
  5
A17D
330
9F2C
100
AcDbEntity
  8
1
  6
Continuous
100
AcDbLine
 10
364.5515239999999
 20
175.4416369999999
 30
0.0
 11
368.751524
 21
175.4416369999999
 31
0.0
  0
ARC
  5
A17E
330
9F2C
100
AcDbEntity
  8
1
  6
Continuous
100
AcDbCircle
 10
372.951524
 20
186.6416369999998
 30
0.0
 40
0.8
100
AcDbArc
 50
280.0
 51
100.0
  0
ARC
  5
A17F
330
9F2C
100
AcDbEntity
  8
1
  6
Continuous
100
AcDbCircle
 10
372.951524
 20
179.2808369999999
 30
0.0
 40
0.8
100
AcDbArc
 50
280.0
 51
100.0
  0
ARC
  5
A180
330
9F2C
100
AcDbEntity
  8
1
  6
Continuous
100
AcDbCircle
 10
372.951524
 20
181.1210369999998
 30
0.0
 40
0.8
100
AcDbArc
 50
280.0
 51
100.0
  0
ARC
  5
A181
330
9F2C
100
AcDbEntity
  8
1
  6
Continuous
100
AcDbCircle
 10
372.951524
 20
182.961237
 30
0.0
 40
0.8
100
AcDbArc
 50
280.0
 51
100.0
  0
ARC
  5
A182
330
9F2C
100
AcDbEntity
  8
1
  6
Continuous
100
AcDbCircle
 10
372.951524
 20
184.8014369999999
 30
0.0
 40
0.8
100
AcDbArc
 50
280.0
 51
100.0
  0
ARC
  5
A183
330
9F2C
100
AcDbEntity
  8
1
  6
Continuous
100
AcDbCircle
 10
372.951524
 20
177.440637
 30
0.0
 40
0.8
100
AcDbArc
 50
280.0
 51
100.0
  0
LINE
  5
A184
330
9F2C
100
AcDbEntity
  8
1
  6
Continuous
100
AcDbLine
 10
368.751524
 20
187.4416369999999
 30
0.0
 11
372.951524
 21
187.4416369999999
 31
0.0
  0
LINE
  5
A185
330
9F2C
100
AcDbEntity
  8
1
  6
Continuous
100
AcDbLine
 10
368.751524
 20
185.2343109999999
 30
0.0
 11
368.751524
 21
185.0087639999999
 31
0.0
  0
LINE
  5
A186
330
9F2C
100
AcDbEntity
  8
1
  6
Continuous
100
AcDbLine
 10
366.751524
 20
184.948835
 30
0.0
 11
366.751524
 21
184.723287
 31
0.0
  0
LINE
  5
A187
330
9F2C
100
AcDbEntity
  8
1
  6
Continuous
100
AcDbLine
 10
370.751524
 20
185.5197869999998
 30
0.0
 11
370.751524
 21
185.29424
 31
0.0
  0
LINE
  5
A188
330
9F2C
100
AcDbEntity
  8
1
  6
Continuous
100
AcDbLine
 10
370.751524
 20
178.158987
 30
0.0
 11
370.751524
 21
177.9334399999999
 31
0.0
  0
LINE
  5
A189
330
9F2C
100
AcDbEntity
  8
1
  6
Continuous
100
AcDbLine
 10
368.751524
 20
177.873511
 30
0.0
 11
368.751524
 21
177.6479639999998
 31
0.0
  0
LINE
  5
A18A
330
9F2C
100
AcDbEntity
  8
1
  6
Continuous
100
AcDbLine
 10
366.751524
 20
177.5880349999999
 30
0.0
 11
366.751524
 21
177.3624869999999
 31
0.0
  0
LINE
  5
A18B
330
9F2C
100
AcDbEntity
  8
1
  6
Continuous
100
AcDbLine
 10
370.751524
 20
179.999187
 30
0.0
 11
370.751524
 21
179.7736399999998
 31
0.0
  0
LINE
  5
A18C
330
9F2C
100
AcDbEntity
  8
1
  6
Continuous
100
AcDbLine
 10
368.751524
 20
179.7137109999999
 30
0.0
 11
368.751524
 21
179.4881639999999
 31
0.0
  0
LINE
  5
A18D
330
9F2C
100
AcDbEntity
  8
1
  6
Continuous
100
AcDbLine
 10
366.751524
 20
179.428235
 30
0.0
 11
366.751524
 21
179.2026869999999
 31
0.0
  0
LINE
  5
A18E
330
9F2C
100
AcDbEntity
  8
1
  6
Continuous
100
AcDbLine
 10
370.751524
 20
181.8393869999999
 30
0.0
 11
370.751524
 21
181.6138399999999
 31
0.0
  0
LINE
  5
A18F
330
9F2C
100
AcDbEntity
  8
1
  6
Continuous
100
AcDbLine
 10
368.751524
 20
181.5539109999999
 30
0.0
 11
368.751524
 21
181.3283639999999
 31
0.0
  0
LINE
  5
A190
330
9F2C
100
AcDbEntity
  8
1
  6
Continuous
100
AcDbLine
 10
366.751524
 20
181.2684349999999
 30
0.0
 11
366.751524
 21
181.042887
 31
0.0
  0
LINE
  5
A191
330
9F2C
100
AcDbEntity
  8
1
  6
Continuous
100
AcDbLine
 10
370.751524
 20
183.6795869999999
 30
0.0
 11
370.751524
 21
183.4540399999999
 31
0.0
  0
LINE
  5
A192
330
9F2C
100
AcDbEntity
  8
1
  6
Continuous
100
AcDbLine
 10
368.751524
 20
183.3941109999999
 30
0.0
 11
368.751524
 21
183.168564
 31
0.0
  0
LINE
  5
A193
330
9F2C
100
AcDbEntity
  8
1
  6
Continuous
100
AcDbLine
 10
366.751524
 20
183.1086349999999
 30
0.0
 11
366.751524
 21
182.8830869999999
 31
0.0
  0
ARC
  5
A194
330
9F2C
100
AcDbEntity
  8
1
  6
Continuous
100
AcDbCircle
 10
364.5515239999999
 20
185.4426369999999
 30
0.0
 40
0.8
100
AcDbArc
 50
100.0
 51
280.0
  0
ARC
  5
A195
330
9F2C
100
AcDbEntity
  8
1
  6
Continuous
100
AcDbCircle
 10
364.5515239999999
 20
178.081837
 30
0.0
 40
0.8
100
AcDbArc
 50
100.0
 51
280.0
  0
ARC
  5
A196
330
9F2C
100
AcDbEntity
  8
1
  6
Continuous
100
AcDbCircle
 10
364.5515239999999
 20
179.922037
 30
0.0
 40
0.8
100
AcDbArc
 50
100.0
 51
280.0
  0
ARC
  5
A197
330
9F2C
100
AcDbEntity
  8
1
  6
Continuous
100
AcDbCircle
 10
364.5515239999999
 20
181.762237
 30
0.0
 40
0.8
100
AcDbArc
 50
100.0
 51
280.0
  0
ARC
  5
A198
330
9F2C
100
AcDbEntity
  8
1
  6
Continuous
100
AcDbCircle
 10
364.5515239999999
 20
183.602437
 30
0.0
 40
0.8
100
AcDbArc
 50
100.0
 51
280.0
  0
ARC
  5
A199
330
9F2C
100
AcDbEntity
  8
1
  6
Continuous
100
AcDbCircle
 10
364.5515239999999
 20
186.6416369999998
 30
0.0
 40
0.8
100
AcDbArc
 50
341.575
 51
228.5379999999999
  0
LINE
  5
A19A
330
9F2C
100
AcDbEntity
  8
1
  6
Continuous
100
AcDbLine
 10
364.5515239999999
 20
187.4416369999999
 30
0.0
 11
366.751524
 21
187.4416369999999
 31
0.0
  0
LINE
  5
A19B
330
9F2C
100
AcDbEntity
  8
1
  6
Continuous
100
AcDbLine
 10
364.4126239999998
 20
186.229637
 30
0.0
 11
372.812624
 21
187.428637
 31
0.0
  0
LINE
  5
A19C
330
9F2C
100
AcDbEntity
  8
1
  6
Continuous
100
AcDbLine
 10
364.690424
 20
184.654637
 30
0.0
 11
373.090424
 21
185.8536369999999
 31
0.0
  0
LINE
  5
A19D
330
9F2C
100
AcDbEntity
  8
1
  6
Continuous
100
AcDbLine
 10
364.4126239999998
 20
177.0286369999998
 30
0.0
 11
372.812624
 21
178.2276369999999
 31
0.0
  0
LINE
  5
A19E
330
9F2C
100
AcDbEntity
  8
1
  6
Continuous
100
AcDbLine
 10
364.4126239999998
 20
178.868837
 30
0.0
 11
372.812624
 21
180.0678369999999
 31
0.0
  0
LINE
  5
A19F
330
9F2C
100
AcDbEntity
  8
1
  6
Continuous
100
AcDbLine
 10
364.690424
 20
177.293837
 30
0.0
 11
373.090424
 21
178.492837
 31
0.0
  0
LINE
  5
A1A0
330
9F2C
100
AcDbEntity
  8
1
  6
Continuous
100
AcDbLine
 10
364.690424
 20
179.134037
 30
0.0
 11
373.090424
 21
180.3330369999999
 31
0.0
  0
LINE
  5
A1A1
330
9F2C
100
AcDbEntity
  8
1
  6
Continuous
100
AcDbLine
 10
364.4126239999998
 20
180.709037
 30
0.0
 11
372.812624
 21
181.908037
 31
0.0
  0
LINE
  5
A1A2
330
9F2C
100
AcDbEntity
  8
1
  6
Continuous
100
AcDbLine
 10
364.4126239999998
 20
182.549237
 30
0.0
 11
372.812624
 21
183.748237
 31
0.0
  0
LINE
  5
A1A3
330
9F2C
100
AcDbEntity
  8
1
  6
Continuous
100
AcDbLine
 10
364.690424
 20
180.974237
 30
0.0
 11
373.090424
 21
182.173237
 31
0.0
  0
LINE
  5
A1A4
330
9F2C
100
AcDbEntity
  8
1
  6
Continuous
100
AcDbLine
 10
364.690424
 20
182.814437
 30
0.0
 11
373.090424
 21
184.013437
 31
0.0
  0
LINE
  5
A1A5
330
9F2C
100
AcDbEntity
  8
1
  6
Continuous
100
AcDbLine
 10
364.4126239999998
 20
184.3894369999999
 30
0.0
 11
372.812624
 21
185.588437
 31
0.0
  0
ARC
  5
A1A6
330
9F2C
100
AcDbEntity
  8
1
  6
Continuous
100
AcDbCircle
 10
391.0515239999999
 20
176.2416369999999
 30
0.0
 40
0.8
100
AcDbArc
 50
100.0
 51
280.0
  0
LINE
  5
A1A7
330
9F2C
100
AcDbEntity
  8
1
  6
Continuous
100
AcDbLine
 10
391.190424
 20
175.4536369999999
 30
0.0
 11
399.5904239999999
 21
176.652637
 31
0.0
  0
ARC
  5
A1A8
330
9F2C
100
AcDbEntity
  8
1
  6
Continuous
100
AcDbCircle
 10
399.451524
 20
176.2416369999999
 30
0.0
 40
0.8
100
AcDbArc
 50
161.588606
 51
48.5375
  0
LINE
  5
A1A9
330
9F2C
100
AcDbEntity
  8
1
  6
Continuous
100
AcDbLine
 10
395.251524
 20
175.4416369999999
 30
0.0
 11
399.451524
 21
175.4416369999999
 31
0.0
  0
ARC
  5
A1AA
330
9F2C
100
AcDbEntity
  8
1
  6
Continuous
100
AcDbCircle
 10
399.451524
 20
177.440637
 30
0.0
 40
0.8
100
AcDbArc
 50
280.0
 51
100.0
  0
ARC
  5
A1AB
330
9F2C
100
AcDbEntity
  8
1
  6
Continuous
100
AcDbCircle
 10
399.451524
 20
179.2808369999999
 30
0.0
 40
0.8
100
AcDbArc
 50
280.0
 51
100.0
  0
ARC
  5
A1AC
330
9F2C
100
AcDbEntity
  8
1
  6
Continuous
100
AcDbCircle
 10
399.451524
 20
181.1210369999998
 30
0.0
 40
0.8
100
AcDbArc
 50
280.0
 51
100.0
  0
ARC
  5
A1AD
330
9F2C
100
AcDbEntity
  8
1
  6
Continuous
100
AcDbCircle
 10
399.451524
 20
182.961237
 30
0.0
 40
0.8
100
AcDbArc
 50
280.0
 51
100.0
  0
ARC
  5
A1AE
330
9F2C
100
AcDbEntity
  8
1
  6
Continuous
100
AcDbCircle
 10
399.451524
 20
184.8014369999999
 30
0.0
 40
0.8
100
AcDbArc
 50
280.0
 51
100.0
  0
ARC
  5
A1AF
330
9F2C
100
AcDbEntity
  8
1
  6
Continuous
100
AcDbCircle
 10
399.451524
 20
186.6416369999998
 30
0.0
 40
0.8
100
AcDbArc
 50
280.0
 51
100.0
  0
LINE
  5
A1B0
330
9F2C
100
AcDbEntity
  8
1
  6
Continuous
100
AcDbLine
 10
391.0515239999999
 20
187.4416369999999
 30
0.0
 11
395.251524
 21
187.4416369999999
 31
0.0
  0
ARC
  5
A1B1
330
9F2C
100
AcDbEntity
  8
1
  6
Continuous
100
AcDbCircle
 10
391.0515239999999
 20
178.081837
 30
0.0
 40
0.8
100
AcDbArc
 50
100.0
 51
280.0
  0
ARC
  5
A1B2
330
9F2C
100
AcDbEntity
  8
1
  6
Continuous
100
AcDbCircle
 10
391.0515239999999
 20
179.922037
 30
0.0
 40
0.8
100
AcDbArc
 50
100.0
 51
280.0
  0
ARC
  5
A1B3
330
9F2C
100
AcDbEntity
  8
1
  6
Continuous
100
AcDbCircle
 10
391.0515239999999
 20
181.762237
 30
0.0
 40
0.8
100
AcDbArc
 50
100.0
 51
280.0
  0
ARC
  5
A1B4
330
9F2C
100
AcDbEntity
  8
1
  6
Continuous
100
AcDbCircle
 10
391.0515239999999
 20
183.602437
 30
0.0
 40
0.8
100
AcDbArc
 50
100.0
 51
280.0
  0
ARC
  5
A1B5
330
9F2C
100
AcDbEntity
  8
1
  6
Continuous
100
AcDbCircle
 10
391.0515239999999
 20
186.6416369999998
 30
0.0
 40
0.8
100
AcDbArc
 50
339.0914029999998
 51
228.5379999999999
  0
ARC
  5
A1B6
330
9F2C
100
AcDbEntity
  8
1
  6
Continuous
100
AcDbCircle
 10
391.0515239999999
 20
185.4426369999999
 30
0.0
 40
0.8
100
AcDbArc
 50
100.0
 51
280.0
  0
LINE
  5
A1B7
330
9F2C
100
AcDbEntity
  8
1
  6
Continuous
100
AcDbLine
 10
393.251524
 20
183.1086349999999
 30
0.0
 11
393.251524
 21
182.8830869999999
 31
0.0
  0
LINE
  5
A1B8
330
9F2C
100
AcDbEntity
  8
1
  6
Continuous
100
AcDbLine
 10
395.251524
 20
183.3941109999999
 30
0.0
 11
395.251524
 21
183.168564
 31
0.0
  0
LINE
  5
A1B9
330
9F2C
100
AcDbEntity
  8
1
  6
Continuous
100
AcDbLine
 10
395.251524
 20
185.2343109999999
 30
0.0
 11
395.251524
 21
185.0087639999999
 31
0.0
  0
LINE
  5
A1BA
330
9F2C
100
AcDbEntity
  8
1
  6
Continuous
100
AcDbLine
 10
393.251524
 20
184.948835
 30
0.0
 11
393.251524
 21
184.723287
 31
0.0
  0
LINE
  5
A1BB
330
9F2C
100
AcDbEntity
  8
1
  6
Continuous
100
AcDbLine
 10
393.251524
 20
181.2684349999999
 30
0.0
 11
393.251524
 21
181.042887
 31
0.0
  0
LINE
  5
A1BC
330
9F2C
100
AcDbEntity
  8
1
  6
Continuous
100
AcDbLine
 10
395.251524
 20
181.5539109999999
 30
0.0
 11
395.251524
 21
181.3283639999999
 31
0.0
  0
LINE
  5
A1BD
330
9F2C
100
AcDbEntity
  8
1
  6
Continuous
100
AcDbLine
 10
393.251524
 20
179.428235
 30
0.0
 11
393.251524
 21
179.2026869999999
 31
0.0
  0
LINE
  5
A1BE
330
9F2C
100
AcDbEntity
  8
1
  6
Continuous
100
AcDbLine
 10
393.251524
 20
177.5880349999999
 30
0.0
 11
393.251524
 21
177.3624869999999
 31
0.0
  0
LINE
  5
A1BF
330
9F2C
100
AcDbEntity
  8
1
  6
Continuous
100
AcDbLine
 10
395.251524
 20
177.873511
 30
0.0
 11
395.251524
 21
177.6479639999998
 31
0.0
  0
LINE
  5
A1C0
330
9F2C
100
AcDbEntity
  8
1
  6
Continuous
100
AcDbLine
 10
395.251524
 20
179.7137109999999
 30
0.0
 11
395.251524
 21
179.4881639999999
 31
0.0
  0
LINE
  5
A1C1
330
9F2C
100
AcDbEntity
  8
1
  6
Continuous
100
AcDbLine
 10
397.251524
 20
183.6795869999999
 30
0.0
 11
397.251524
 21
183.4540399999999
 31
0.0
  0
LINE
  5
A1C2
330
9F2C
100
AcDbEntity
  8
1
  6
Continuous
100
AcDbLine
 10
397.251524
 20
185.5197869999998
 30
0.0
 11
397.251524
 21
185.29424
 31
0.0
  0
LINE
  5
A1C3
330
9F2C
100
AcDbEntity
  8
1
  6
Continuous
100
AcDbLine
 10
397.251524
 20
181.8393869999999
 30
0.0
 11
397.251524
 21
181.6138399999999
 31
0.0
  0
LINE
  5
A1C4
330
9F2C
100
AcDbEntity
  8
1
  6
Continuous
100
AcDbLine
 10
397.251524
 20
179.999187
 30
0.0
 11
397.251524
 21
179.7736399999998
 31
0.0
  0
LINE
  5
A1C5
330
9F2C
100
AcDbEntity
  8
1
  6
Continuous
100
AcDbLine
 10
397.251524
 20
178.158987
 30
0.0
 11
397.251524
 21
177.9334399999999
 31
0.0
  0
LINE
  5
A1C6
330
9F2C
100
AcDbEntity
  8
1
  6
Continuous
100
AcDbLine
 10
390.9126239999998
 20
177.0286369999998
 30
0.0
 11
399.312624
 21
178.2276369999999
 31
0.0
  0
LINE
  5
A1C7
330
9F2C
100
AcDbEntity
  8
1
  6
Continuous
100
AcDbLine
 10
390.9126239999998
 20
178.868837
 30
0.0
 11
399.312624
 21
180.0678369999999
 31
0.0
  0
LINE
  5
A1C8
330
9F2C
100
AcDbEntity
  8
1
  6
Continuous
100
AcDbLine
 10
391.190424
 20
177.293837
 30
0.0
 11
399.5904239999999
 21
178.492837
 31
0.0
  0
LINE
  5
A1C9
330
9F2C
100
AcDbEntity
  8
1
  6
Continuous
100
AcDbLine
 10
390.9126239999998
 20
180.709037
 30
0.0
 11
399.312624
 21
181.908037
 31
0.0
  0
LINE
  5
A1CA
330
9F2C
100
AcDbEntity
  8
1
  6
Continuous
100
AcDbLine
 10
391.190424
 20
179.134037
 30
0.0
 11
399.5904239999999
 21
180.3330369999999
 31
0.0
  0
LINE
  5
A1CB
330
9F2C
100
AcDbEntity
  8
1
  6
Continuous
100
AcDbLine
 10
390.9126239999998
 20
182.549237
 30
0.0
 11
399.312624
 21
183.748237
 31
0.0
  0
LINE
  5
A1CC
330
9F2C
100
AcDbEntity
  8
1
  6
Continuous
100
AcDbLine
 10
391.190424
 20
180.974237
 30
0.0
 11
399.5904239999999
 21
182.173237
 31
0.0
  0
LINE
  5
A1CD
330
9F2C
100
AcDbEntity
  8
1
  6
Continuous
100
AcDbLine
 10
390.9126239999998
 20
184.3894369999999
 30
0.0
 11
399.312624
 21
185.588437
 31
0.0
  0
LINE
  5
A1CE
330
9F2C
100
AcDbEntity
  8
1
  6
Continuous
100
AcDbLine
 10
391.190424
 20
182.814437
 30
0.0
 11
399.5904239999999
 21
184.013437
 31
0.0
  0
LINE
  5
A1CF
330
9F2C
100
AcDbEntity
  8
1
  6
Continuous
100
AcDbLine
 10
391.190424
 20
184.654637
 30
0.0
 11
399.5904239999999
 21
185.8536369999999
 31
0.0
  0
LINE
  5
A1D0
330
9F2C
100
AcDbEntity
  8
1
  6
Continuous
100
AcDbLine
 10
390.9126239999998
 20
186.229637
 30
0.0
 11
399.312624
 21
187.428637
 31
0.0
  0
LINE
  5
A1D1
330
9F2C
100
AcDbEntity
  8
1
  6
Continuous
100
AcDbLine
 10
397.251524
 20
187.4416369999999
 30
0.0
 11
399.451524
 21
187.4416369999999
 31
0.0
  0
ARC
  5
A1D2
330
9F2C
100
AcDbEntity
  8
1
  6
Continuous
100
AcDbCircle
 10
44.98472399999999
 20
312.326637
 30
0.0
 40
3.399999999999999
100
AcDbArc
 50
197.104635
 51
233.9681209999999
  0
ARC
  5
A1D3
330
9F2C
100
AcDbEntity
  8
1
  6
Continuous
100
AcDbCircle
 10
44.98472399999999
 20
312.326637
 30
0.0
 40
5.0
100
AcDbArc
 50
191.536959
 51
246.421822
  0
ARC
  5
A1D4
330
9F2C
100
AcDbEntity
  8
1
  6
Continuous
100
AcDbCircle
 10
18.484724
 20
312.326637
 30
0.0
 40
5.0
100
AcDbArc
 50
90.0
 51
270.0
  0
LINE
  5
A1D5
330
9F2C
100
AcDbEntity
  8
1
  6
Continuous
100
AcDbLine
 10
16.484724
 20
307.7440619999998
 30
0.0
 11
16.484724
 21
307.326637
 31
0.0
  0
LINE
  5
A1D6
330
9F2C
100
AcDbEntity
  8
1
  6
Continuous
100
AcDbLine
 10
20.484724
 20
307.326637
 30
0.0
 11
18.484724
 21
307.326637
 31
0.0
  0
LINE
  5
A1D7
330
9F2C
100
AcDbEntity
  8
1
  6
Continuous
100
AcDbLine
 10
18.484724
 20
307.326637
 30
0.0
 11
16.484724
 21
307.326637
 31
0.0
  0
LINE
  5
A1D8
330
9F2C
100
AcDbEntity
  8
1
  6
Continuous
100
AcDbLine
 10
19.734724
 20
307.326637
 30
0.0
 11
19.734724
 21
307.076637
 31
0.0
  0
LINE
  5
A1D9
330
9F2C
100
AcDbEntity
  8
1
  6
Continuous
100
AcDbLine
 10
19.734724
 20
307.076637
 30
0.0
 11
20.73472399999999
 21
307.076637
 31
0.0
  0
ARC
  5
A1DA
330
9F2C
100
AcDbEntity
  8
1
  6
Continuous
100
AcDbCircle
 10
18.484724
 20
312.326637
 30
0.0
 40
3.399999999999999
100
AcDbArc
 50
90.0
 51
270.0
  0
LINE
  5
A1DB
330
9F2C
100
AcDbEntity
  8
1
  6
Continuous
100
AcDbLine
 10
18.484724
 20
315.0766369999999
 30
0.0
 11
16.484724
 21
315.0766369999999
 31
0.0
  0
ARC
  5
A1DC
330
9F2C
100
AcDbEntity
  8
1
  6
Continuous
100
AcDbCircle
 10
24.59842399999999
 20
312.362637
 30
0.0
 40
4.0
100
AcDbArc
 50
195.0
 51
211.577212
  0
LINE
  5
A1DD
330
9F2C
100
AcDbEntity
  8
1
  6
Continuous
100
AcDbLine
 10
18.484724
 20
317.326637
 30
0.0
 11
18.484724
 21
307.326637
 31
0.0
  0
LINE
  5
A1DE
330
9F2C
100
AcDbEntity
  8
1
  6
Continuous
100
AcDbLine
 10
18.484724
 20
311.876637
 30
0.0
 11
17.48472399999998
 21
311.876637
 31
0.0
  0
LINE
  5
A1DF
330
9F2C
100
AcDbEntity
  8
1
  6
Continuous
100
AcDbLine
 10
18.484724
 20
314.7766369999998
 30
0.0
 11
17.48472399999998
 21
314.7766369999998
 31
0.0
  0
LINE
  5
A1E0
330
9F2C
100
AcDbEntity
  8
1
  6
Continuous
100
AcDbLine
 10
17.48472399999998
 20
314.7766369999998
 30
0.0
 11
17.48472399999998
 21
311.876637
 31
0.0
  0
LINE
  5
A1E1
330
9F2C
100
AcDbEntity
  8
1
  6
Continuous
100
AcDbLine
 10
16.484724
 20
315.0766369999999
 30
0.0
 11
16.484724
 21
309.576637
 31
0.0
  0
LINE
  5
A1E2
330
9F2C
100
AcDbEntity
  8
1
  6
Continuous
100
AcDbLine
 10
20.484724
 20
317.326637
 30
0.0
 11
18.484724
 21
317.326637
 31
0.0
  0
LINE
  5
A1E3
330
9F2C
100
AcDbEntity
  8
1
  6
Continuous
100
AcDbLine
 10
20.484724
 20
316.076637
 30
0.0
 11
18.484724
 21
316.076637
 31
0.0
  0
LINE
  5
A1E4
330
9F2C
100
AcDbEntity
  8
1
  6
Continuous
100
AcDbLine
 10
20.484724
 20
309.576637
 30
0.0
 11
16.484724
 21
309.576637
 31
0.0
  0
LINE
  5
A1E5
330
9F2C
100
AcDbEntity
  8
1
  6
Continuous
100
AcDbLine
 10
18.484724
 20
317.326637
 30
0.0
 11
16.484724
 21
317.326637
 31
0.0
  0
LINE
  5
A1E6
330
9F2C
100
AcDbEntity
  8
1
  6
Continuous
100
AcDbLine
 10
20.484724
 20
317.326637
 30
0.0
 11
20.484724
 21
307.326637
 31
0.0
  0
LINE
  5
A1E7
330
9F2C
100
AcDbEntity
  8
1
  6
Continuous
100
AcDbLine
 10
16.484724
 20
317.326637
 30
0.0
 11
16.484724
 21
316.9092129999999
 31
0.0
  0
ARC
  5
A1E8
330
9F2C
100
AcDbEntity
  8
1
  6
Continuous
100
AcDbCircle
 10
18.484724
 20
312.326637
 30
0.0
 40
5.0
100
AcDbArc
 50
293.5781779999999
 51
348.4630409999998
  0
ARC
  5
A1E9
330
9F2C
100
AcDbEntity
  8
1
  6
Continuous
100
AcDbCircle
 10
18.484724
 20
312.326637
 30
0.0
 40
3.399999999999999
100
AcDbArc
 50
306.031879
 51
342.8953649999999
  0
LINE
  5
A1EA
330
9F2C
100
AcDbEntity
  8
1
  6
Continuous
100
AcDbLine
 10
22.23472399999999
 20
316.326637
 30
0.0
 11
21.484724
 21
316.326637
 31
0.0
  0
LINE
  5
A1EB
330
9F2C
100
AcDbEntity
  8
1
  6
Continuous
100
AcDbLine
 10
22.23472399999999
 20
316.326637
 30
0.0
 11
22.23472399999999
 21
315.633826
 31
0.0
  0
ARC
  5
A1EC
330
9F2C
100
AcDbEntity
  8
1
  6
Continuous
100
AcDbCircle
 10
18.484724
 20
312.326637
 30
0.0
 40
5.0
100
AcDbArc
 50
36.869898
 51
66.42182199999999
  0
ARC
  5
A1ED
330
9F2C
100
AcDbEntity
  8
1
  6
Continuous
100
AcDbCircle
 10
18.484724
 20
49.016837
 30
0.0
 40
5.0
100
AcDbArc
 50
270.0
 51
296.7436839999999
  0
ARC
  5
A1EE
330
9F2C
100
AcDbEntity
  8
1
  6
Continuous
100
AcDbCircle
 10
18.484724
 20
49.016837
 30
0.0
 40
5.0
100
AcDbArc
 50
113.578178
 51
246.421822
  0
ARC
  5
A1EF
330
9F2C
100
AcDbEntity
  8
1
  6
Continuous
100
AcDbCircle
 10
18.484724
 20
49.016837
 30
0.0
 40
3.399999999999999
100
AcDbArc
 50
126.031879
 51
233.9681209999999
  0
ARC
  5
A1F0
330
9F2C
100
AcDbEntity
  8
1
  6
Continuous
100
AcDbCircle
 10
18.484724
 20
49.016837
 30
0.0
 40
3.399999999999999
100
AcDbArc
 50
68.429422
 51
70.906508
  0
ARC
  5
A1F1
330
9F2C
100
AcDbEntity
  8
1
  6
Continuous
100
AcDbCircle
 10
18.484724
 20
49.016837
 30
0.0
 40
5.0
100
AcDbArc
 50
75.52248799999998
 51
90.0
  0
LINE
  5
A1F2
330
9F2C
100
AcDbEntity
  8
1
  6
Continuous
100
AcDbLine
 10
19.734724
 20
51.766837
 30
0.0
 11
19.734724
 21
54.266837
 31
0.0
  0
ARC
  5
A1F3
330
9F2C
100
AcDbEntity
  8
1
  6
Continuous
100
AcDbCircle
 10
18.484724
 20
49.016837
 30
0.0
 40
3.399999999999999
100
AcDbArc
 50
270.0
 51
311.4345989999999
  0
ARC
  5
A1F4
330
9F2C
100
AcDbEntity
  8
1
  6
Continuous
100
AcDbCircle
 10
18.484724
 20
49.016837
 30
0.0
 40
3.399999999999999
100
AcDbArc
 50
68.429422
 51
90.0
  0
LINE
  5
A1F5
330
9F2C
100
AcDbEntity
  8
1
  6
Continuous
100
AcDbLine
 10
20.484724
 20
44.016837
 30
0.0
 11
16.484724
 21
44.016837
 31
0.0
  0
LINE
  5
A1F6
330
9F2C
100
AcDbEntity
  8
1
  6
Continuous
100
AcDbLine
 10
19.734724
 20
54.016837
 30
0.0
 11
16.484724
 21
54.016837
 31
0.0
  0
LINE
  5
A1F7
330
9F2C
100
AcDbEntity
  8
1
  6
Continuous
100
AcDbLine
 10
18.484724
 20
54.016837
 30
0.0
 11
18.484724
 21
44.016837
 31
0.0
  0
LINE
  5
A1F8
330
9F2C
100
AcDbEntity
  8
1
  6
Continuous
100
AcDbLine
 10
18.484724
 20
51.766837
 30
0.0
 11
20.73472399999999
 21
51.766837
 31
0.0
  0
LINE
  5
A1F9
330
9F2C
100
AcDbEntity
  8
1
  6
Continuous
100
AcDbLine
 10
18.484724
 20
46.266837
 30
0.0
 11
20.484724
 21
46.266837
 31
0.0
  0
LINE
  5
A1FA
330
9F2C
100
AcDbEntity
  8
1
  6
Continuous
100
AcDbLine
 10
16.484724
 20
54.016837
 30
0.0
 11
16.484724
 21
44.016837
 31
0.0
  0
LINE
  5
A1FB
330
9F2C
100
AcDbEntity
  8
1
  6
Continuous
100
AcDbLine
 10
17.48472399999998
 20
51.016837
 30
0.0
 11
17.48472399999998
 21
47.016837
 31
0.0
  0
LINE
  5
A1FC
330
9F2C
100
AcDbEntity
  8
1
  6
Continuous
100
AcDbLine
 10
17.48472399999998
 20
47.016837
 30
0.0
 11
18.484724
 21
47.016837
 31
0.0
  0
LINE
  5
A1FD
330
9F2C
100
AcDbEntity
  8
1
  6
Continuous
100
AcDbLine
 10
17.48472399999998
 20
51.016837
 30
0.0
 11
18.484724
 21
51.016837
 31
0.0
  0
LINE
  5
A1FE
330
9F2C
100
AcDbEntity
  8
1
  6
Continuous
100
AcDbLine
 10
19.734724
 20
54.266837
 30
0.0
 11
20.73472399999999
 21
54.266837
 31
0.0
  0
LINE
  5
A1FF
330
9F2C
100
AcDbEntity
  8
1
  6
Continuous
100
AcDbLine
 10
20.73472399999999
 20
44.55169399999999
 30
0.0
 11
20.73472399999999
 21
55.516837
 31
0.0
  0
LINE
  5
A200
330
9F2C
100
AcDbEntity
  8
1
  6
Continuous
100
AcDbLine
 10
21.634626
 20
183.8437219999999
 30
0.0
 11
22.74561299999999
 21
183.758917
 31
0.0
  0
LINE
  5
A201
330
9F2C
100
AcDbEntity
  8
1
  6
Continuous
100
AcDbLine
 10
14.223834
 20
182.8047579999999
 30
0.0
 11
15.33938599999999
 21
182.719604
 31
0.0
  0
LINE
  5
A202
330
9F2C
100
AcDbEntity
  8
1
  6
Continuous
100
AcDbLine
 10
21.634626
 20
185.6839219999999
 30
0.0
 11
22.74561299999999
 21
185.5991169999999
 31
0.0
  0
LINE
  5
A203
330
9F2C
100
AcDbEntity
  8
1
  6
Continuous
100
AcDbLine
 10
14.223834
 20
184.6449579999998
 30
0.0
 11
15.33938599999999
 21
184.559804
 31
0.0
  0
LINE
  5
A204
330
9F2C
100
AcDbEntity
  8
1
  6
Continuous
100
AcDbLine
 10
21.634626
 20
180.163322
 30
0.0
 11
22.74561299999999
 21
180.078517
 31
0.0
  0
LINE
  5
A205
330
9F2C
100
AcDbEntity
  8
1
  6
Continuous
100
AcDbLine
 10
21.634626
 20
182.003522
 30
0.0
 11
22.74561299999999
 21
181.918717
 31
0.0
  0
LINE
  5
A206
330
9F2C
100
AcDbEntity
  8
1
  6
Continuous
100
AcDbLine
 10
14.223834
 20
180.964558
 30
0.0
 11
15.33938599999999
 21
180.879404
 31
0.0
  0
LINE
  5
A207
330
9F2C
100
AcDbEntity
  8
1
  6
Continuous
100
AcDbLine
 10
14.223834
 20
179.1243579999998
 30
0.0
 11
15.33938599999999
 21
179.039204
 31
0.0
  0
LINE
  5
A208
330
9F2C
100
AcDbEntity
  8
1
  6
Continuous
100
AcDbLine
 10
21.634626
 20
178.3231219999999
 30
0.0
 11
22.74561299999999
 21
178.2383169999999
 31
0.0
  0
LINE
  5
A209
330
9F2C
100
AcDbEntity
  8
1
  6
Continuous
100
AcDbLine
 10
14.223834
 20
177.2841579999999
 30
0.0
 11
15.33938599999999
 21
177.199004
 31
0.0
  0
LINE
  5
A20A
330
9F2C
100
AcDbEntity
  8
1
  6
Continuous
100
AcDbLine
 10
48.13462600000001
 20
178.3231219999999
 30
0.0
 11
49.245613
 21
178.2383169999999
 31
0.0
  0
LINE
  5
A20B
330
9F2C
100
AcDbEntity
  8
1
  6
Continuous
100
AcDbLine
 10
48.13462600000001
 20
182.003522
 30
0.0
 11
49.245613
 21
181.918717
 31
0.0
  0
LINE
  5
A20C
330
9F2C
100
AcDbEntity
  8
1
  6
Continuous
100
AcDbLine
 10
48.13462600000001
 20
180.163322
 30
0.0
 11
49.245613
 21
180.078517
 31
0.0
  0
LINE
  5
A20D
330
9F2C
100
AcDbEntity
  8
1
  6
Continuous
100
AcDbLine
 10
48.13462600000001
 20
185.6839219999999
 30
0.0
 11
49.245613
 21
185.5991169999999
 31
0.0
  0
LINE
  5
A20E
330
9F2C
100
AcDbEntity
  8
1
  6
Continuous
100
AcDbLine
 10
48.13462600000001
 20
183.8437219999999
 30
0.0
 11
49.245613
 21
183.758917
 31
0.0
  0
LINE
  5
A20F
330
9F2C
100
AcDbEntity
  8
1
  6
Continuous
100
AcDbLine
 10
40.72383399999998
 20
177.2841579999999
 30
0.0
 11
41.839386
 21
177.199004
 31
0.0
  0
LINE
  5
A210
330
9F2C
100
AcDbEntity
  8
1
  6
Continuous
100
AcDbLine
 10
40.72383399999998
 20
179.1243579999998
 30
0.0
 11
41.839386
 21
179.039204
 31
0.0
  0
LINE
  5
A211
330
9F2C
100
AcDbEntity
  8
1
  6
Continuous
100
AcDbLine
 10
40.72383399999998
 20
180.964558
 30
0.0
 11
41.839386
 21
180.879404
 31
0.0
  0
LINE
  5
A212
330
9F2C
100
AcDbEntity
  8
1
  6
Continuous
100
AcDbLine
 10
40.72383399999998
 20
184.6449579999998
 30
0.0
 11
41.839386
 21
184.559804
 31
0.0
  0
LINE
  5
A213
330
9F2C
100
AcDbEntity
  8
1
  6
Continuous
100
AcDbLine
 10
40.72383399999998
 20
182.8047579999999
 30
0.0
 11
41.839386
 21
182.719604
 31
0.0
  0
LINE
  5
A214
330
9F2C
100
AcDbEntity
  8
1
  6
Continuous
100
AcDbLine
 10
371.9014259999998
 20
178.3231219999999
 30
0.0
 11
373.012413
 21
178.2383169999999
 31
0.0
  0
LINE
  5
A215
330
9F2C
100
AcDbEntity
  8
1
  6
Continuous
100
AcDbLine
 10
371.9014259999998
 20
182.003522
 30
0.0
 11
373.012413
 21
181.918717
 31
0.0
  0
LINE
  5
A216
330
9F2C
100
AcDbEntity
  8
1
  6
Continuous
100
AcDbLine
 10
371.9014259999998
 20
180.163322
 30
0.0
 11
373.012413
 21
180.078517
 31
0.0
  0
LINE
  5
A217
330
9F2C
100
AcDbEntity
  8
1
  6
Continuous
100
AcDbLine
 10
371.9014259999998
 20
185.6839219999999
 30
0.0
 11
373.012413
 21
185.5991169999999
 31
0.0
  0
LINE
  5
A218
330
9F2C
100
AcDbEntity
  8
1
  6
Continuous
100
AcDbLine
 10
371.9014259999998
 20
183.8437219999999
 30
0.0
 11
373.012413
 21
183.758917
 31
0.0
  0
LINE
  5
A219
330
9F2C
100
AcDbEntity
  8
1
  6
Continuous
100
AcDbLine
 10
364.4906339999999
 20
177.2841579999999
 30
0.0
 11
365.6061859999998
 21
177.199004
 31
0.0
  0
LINE
  5
A21A
330
9F2C
100
AcDbEntity
  8
1
  6
Continuous
100
AcDbLine
 10
364.4906339999999
 20
179.1243579999998
 30
0.0
 11
365.6061859999998
 21
179.039204
 31
0.0
  0
LINE
  5
A21B
330
9F2C
100
AcDbEntity
  8
1
  6
Continuous
100
AcDbLine
 10
364.4906339999999
 20
180.964558
 30
0.0
 11
365.6061859999998
 21
180.879404
 31
0.0
  0
LINE
  5
A21C
330
9F2C
100
AcDbEntity
  8
1
  6
Continuous
100
AcDbLine
 10
364.4906339999999
 20
184.6449579999998
 30
0.0
 11
365.6061859999998
 21
184.559804
 31
0.0
  0
LINE
  5
A21D
330
9F2C
100
AcDbEntity
  8
1
  6
Continuous
100
AcDbLine
 10
364.4906339999999
 20
182.8047579999999
 30
0.0
 11
365.6061859999998
 21
182.719604
 31
0.0
  0
LINE
  5
A21E
330
9F2C
100
AcDbEntity
  8
1
  6
Continuous
100
AcDbLine
 10
398.4014259999998
 20
183.8437219999999
 30
0.0
 11
399.5124129999999
 21
183.758917
 31
0.0
  0
LINE
  5
A21F
330
9F2C
100
AcDbEntity
  8
1
  6
Continuous
100
AcDbLine
 10
398.4014259999998
 20
185.6839219999999
 30
0.0
 11
399.5124129999999
 21
185.5991169999999
 31
0.0
  0
LINE
  5
A220
330
9F2C
100
AcDbEntity
  8
1
  6
Continuous
100
AcDbLine
 10
398.4014259999998
 20
180.163322
 30
0.0
 11
399.5124129999999
 21
180.078517
 31
0.0
  0
LINE
  5
A221
330
9F2C
100
AcDbEntity
  8
1
  6
Continuous
100
AcDbLine
 10
398.4014259999998
 20
182.003522
 30
0.0
 11
399.5124129999999
 21
181.918717
 31
0.0
  0
LINE
  5
A222
330
9F2C
100
AcDbEntity
  8
1
  6
Continuous
100
AcDbLine
 10
398.4014259999998
 20
178.3231219999999
 30
0.0
 11
399.5124129999999
 21
178.2383169999999
 31
0.0
  0
LINE
  5
A223
330
9F2C
100
AcDbEntity
  8
1
  6
Continuous
100
AcDbLine
 10
390.990634
 20
182.8047579999999
 30
0.0
 11
392.106186
 21
182.719604
 31
0.0
  0
LINE
  5
A224
330
9F2C
100
AcDbEntity
  8
1
  6
Continuous
100
AcDbLine
 10
390.990634
 20
184.6449579999998
 30
0.0
 11
392.106186
 21
184.559804
 31
0.0
  0
LINE
  5
A225
330
9F2C
100
AcDbEntity
  8
1
  6
Continuous
100
AcDbLine
 10
390.990634
 20
180.964558
 30
0.0
 11
392.106186
 21
180.879404
 31
0.0
  0
LINE
  5
A226
330
9F2C
100
AcDbEntity
  8
1
  6
Continuous
100
AcDbLine
 10
390.990634
 20
179.1243579999998
 30
0.0
 11
392.106186
 21
179.039204
 31
0.0
  0
LINE
  5
A227
330
9F2C
100
AcDbEntity
  8
1
  6
Continuous
100
AcDbLine
 10
390.990634
 20
177.2841579999999
 30
0.0
 11
392.106186
 21
177.199004
 31
0.0
  0
LINE
  5
A228
330
9F2C
100
AcDbEntity
  8
1
  6
Continuous
100
AcDbLine
 10
211.431426
 20
185.6839219999999
 30
0.0
 11
212.5424129999999
 21
185.5991169999999
 31
0.0
  0
LINE
  5
A229
330
9F2C
100
AcDbEntity
  8
1
  6
Continuous
100
AcDbLine
 10
204.020634
 20
184.6449579999998
 30
0.0
 11
205.136186
 21
184.559804
 31
0.0
  0
LINE
  5
A22A
330
9F2C
100
AcDbEntity
  8
1
  6
Continuous
100
AcDbLine
 10
211.431426
 20
183.8437219999999
 30
0.0
 11
212.5424129999999
 21
183.758917
 31
0.0
  0
LINE
  5
A22B
330
9F2C
100
AcDbEntity
  8
1
  6
Continuous
100
AcDbLine
 10
204.020634
 20
182.8047579999999
 30
0.0
 11
205.136186
 21
182.719604
 31
0.0
  0
LINE
  5
A22C
330
9F2C
100
AcDbEntity
  8
1
  6
Continuous
100
AcDbLine
 10
204.020634
 20
179.1243579999998
 30
0.0
 11
205.136186
 21
179.039204
 31
0.0
  0
LINE
  5
A22D
330
9F2C
100
AcDbEntity
  8
1
  6
Continuous
100
AcDbLine
 10
204.020634
 20
180.964558
 30
0.0
 11
205.136186
 21
180.879404
 31
0.0
  0
LINE
  5
A22E
330
9F2C
100
AcDbEntity
  8
1
  6
Continuous
100
AcDbLine
 10
211.431426
 20
180.163322
 30
0.0
 11
212.5424129999999
 21
180.078517
 31
0.0
  0
LINE
  5
A22F
330
9F2C
100
AcDbEntity
  8
1
  6
Continuous
100
AcDbLine
 10
211.431426
 20
182.003522
 30
0.0
 11
212.5424129999999
 21
181.918717
 31
0.0
  0
LINE
  5
A230
330
9F2C
100
AcDbEntity
  8
1
  6
Continuous
100
AcDbLine
 10
211.431426
 20
178.3231219999999
 30
0.0
 11
212.5424129999999
 21
178.2383169999999
 31
0.0
  0
LINE
  5
A231
330
9F2C
100
AcDbEntity
  8
1
  6
Continuous
100
AcDbLine
 10
204.020634
 20
177.2841579999999
 30
0.0
 11
205.136186
 21
177.199004
 31
0.0
  0
LINE
  5
A232
330
9F2C
100
AcDbEntity
  8
1
  6
Continuous
100
AcDbLine
 10
205.531524
 20
177.480981
 30
0.0
 11
205.531524
 21
177.255434
 31
0.0
  0
LINE
  5
A233
330
9F2C
100
AcDbEntity
  8
1
  6
Continuous
100
AcDbLine
 10
42.734724
 20
166.3950539999999
 30
0.0
 11
42.734724
 21
145.4416369999999
 31
0.0
  0
LINE
  5
A234
330
9F2C
100
AcDbEntity
  8
1
  6
Continuous
100
AcDbLine
 10
20.73472399999999
 20
166.3950539999999
 30
0.0
 11
20.73472399999999
 21
145.4416369999999
 31
0.0
  0
LINE
  5
A235
330
9F2C
100
AcDbEntity
  8
1
  6
Continuous
100
AcDbLine
 10
371.001524
 20
166.3950539999999
 30
0.0
 11
371.001524
 21
145.4416369999999
 31
0.0
  0
LINE
  5
A236
330
9F2C
100
AcDbEntity
  8
1
  6
Continuous
100
AcDbLine
 10
393.001524
 20
166.3950539999999
 30
0.0
 11
393.001524
 21
145.4416369999999
 31
0.0
  0
LINE
  5
A237
330
9F2C
100
AcDbEntity
  8
1
  6
Continuous
100
AcDbLine
 10
20.73472399999999
 20
307.861494
 30
0.0
 11
20.73472399999999
 21
305.826637
 31
0.0
  0
ARC
  5
A238
330
9F2C
100
AcDbEntity
  8
1
  6
Continuous
100
AcDbCircle
 10
44.98472399999999
 20
312.326637
 30
0.0
 40
5.0
100
AcDbArc
 50
270.0
 51
90.0
  0
LINE
  5
A239
330
9F2C
100
AcDbEntity
  8
1
  6
Continuous
100
AcDbLine
 10
44.98472399999999
 20
317.326637
 30
0.0
 11
44.98472399999999
 21
307.326637
 31
0.0
  0
LINE
  5
A23A
330
9F2C
100
AcDbEntity
  8
1
  6
Continuous
100
AcDbLine
 10
42.984724
 20
317.326637
 30
0.0
 11
42.984724
 21
307.326637
 31
0.0
  0
LINE
  5
A23B
330
9F2C
100
AcDbEntity
  8
1
  6
Continuous
100
AcDbLine
 10
42.984724
 20
307.326637
 30
0.0
 11
44.98472399999999
 21
307.326637
 31
0.0
  0
LINE
  5
A23C
330
9F2C
100
AcDbEntity
  8
1
  6
Continuous
100
AcDbLine
 10
43.73472399999999
 20
307.076637
 30
0.0
 11
42.734724
 21
307.076637
 31
0.0
  0
LINE
  5
A23D
330
9F2C
100
AcDbEntity
  8
1
  6
Continuous
100
AcDbLine
 10
43.73472399999999
 20
307.326637
 30
0.0
 11
43.73472399999999
 21
307.076637
 31
0.0
  0
LINE
  5
A23E
330
9F2C
100
AcDbEntity
  8
1
  6
Continuous
100
AcDbLine
 10
44.98472399999999
 20
307.326637
 30
0.0
 11
46.98472399999999
 21
307.326637
 31
0.0
  0
LINE
  5
A23F
330
9F2C
100
AcDbEntity
  8
1
  6
Continuous
100
AcDbLine
 10
46.98472399999999
 20
307.7440619999998
 30
0.0
 11
46.98472399999999
 21
307.326637
 31
0.0
  0
ARC
  5
A240
330
9F2C
100
AcDbEntity
  8
1
  6
Continuous
100
AcDbCircle
 10
44.98472399999999
 20
312.326637
 30
0.0
 40
3.399999999999999
100
AcDbArc
 50
270.0
 51
90.0
  0
LINE
  5
A241
330
9F2C
100
AcDbEntity
  8
1
  6
Continuous
100
AcDbLine
 10
42.734724
 20
311.326637
 30
0.0
 11
42.734724
 21
309.777618
 31
0.0
  0
LINE
  5
A242
330
9F2C
100
AcDbEntity
  8
1
  6
Continuous
100
AcDbLine
 10
42.984724
 20
309.576637
 30
0.0
 11
46.98472399999999
 21
309.576637
 31
0.0
  0
LINE
  5
A243
330
9F2C
100
AcDbEntity
  8
1
  6
Continuous
100
AcDbLine
 10
42.984724
 20
317.326637
 30
0.0
 11
44.98472399999999
 21
317.326637
 31
0.0
  0
LINE
  5
A244
330
9F2C
100
AcDbEntity
  8
1
  6
Continuous
100
AcDbLine
 10
46.98472399999999
 20
317.326637
 30
0.0
 11
46.98472399999999
 21
316.9092129999999
 31
0.0
  0
LINE
  5
A245
330
9F2C
100
AcDbEntity
  8
1
  6
Continuous
100
AcDbLine
 10
44.98472399999999
 20
317.326637
 30
0.0
 11
46.98472399999999
 21
317.326637
 31
0.0
  0
LINE
  5
A246
330
9F2C
100
AcDbEntity
  8
1
  6
Continuous
100
AcDbLine
 10
42.984724
 20
316.076637
 30
0.0
 11
44.98472399999999
 21
316.076637
 31
0.0
  0
LINE
  5
A247
330
9F2C
100
AcDbEntity
  8
1
  6
Continuous
100
AcDbLine
 10
46.98472399999999
 20
315.0766369999999
 30
0.0
 11
46.98472399999999
 21
309.576637
 31
0.0
  0
LINE
  5
A248
330
9F2C
100
AcDbEntity
  8
1
  6
Continuous
100
AcDbLine
 10
45.984724
 20
314.7766369999998
 30
0.0
 11
45.984724
 21
311.876637
 31
0.0
  0
LINE
  5
A249
330
9F2C
100
AcDbEntity
  8
1
  6
Continuous
100
AcDbLine
 10
44.98472399999999
 20
314.7766369999998
 30
0.0
 11
45.984724
 21
314.7766369999998
 31
0.0
  0
LINE
  5
A24A
330
9F2C
100
AcDbEntity
  8
1
  6
Continuous
100
AcDbLine
 10
44.98472399999999
 20
311.876637
 30
0.0
 11
45.984724
 21
311.876637
 31
0.0
  0
LINE
  5
A24B
330
9F2C
100
AcDbEntity
  8
1
  6
Continuous
100
AcDbLine
 10
44.98472399999999
 20
315.0766369999999
 30
0.0
 11
46.98472399999999
 21
315.0766369999999
 31
0.0
  0
ARC
  5
A24C
330
9F2C
100
AcDbEntity
  8
1
  6
Continuous
100
AcDbCircle
 10
44.98472399999999
 20
312.326637
 30
0.0
 40
5.0
100
AcDbArc
 50
113.578178
 51
143.130102
  0
LINE
  5
A24D
330
9F2C
100
AcDbEntity
  8
1
  6
Continuous
100
AcDbLine
 10
41.23472399999999
 20
316.326637
 30
0.0
 11
41.23472399999999
 21
315.633826
 31
0.0
  0
LINE
  5
A24E
330
9F2C
100
AcDbEntity
  8
1
  6
Continuous
100
AcDbLine
 10
41.23472399999999
 20
316.326637
 30
0.0
 11
41.98472399999999
 21
316.326637
 31
0.0
  0
LINE
  5
A24F
330
9F2C
100
AcDbEntity
  8
1
  6
Continuous
100
AcDbLine
 10
20.484724
 20
44.434262
 30
0.0
 11
20.484724
 21
44.016837
 31
0.0
  0
LINE
  5
A250
330
9F2C
100
AcDbEntity
  8
1
  6
Continuous
100
AcDbLine
 10
20.484724
 20
51.766837
 30
0.0
 11
20.484724
 21
46.266837
 31
0.0
  0
ARC
  5
A251
330
9F2C
100
AcDbEntity
  8
1
  6
Continuous
100
AcDbCircle
 10
44.98472399999999
 20
49.016837
 30
0.0
 40
5.0
100
AcDbArc
 50
243.256316
 51
270.0
  0
ARC
  5
A252
330
9F2C
100
AcDbEntity
  8
1
  6
Continuous
100
AcDbCircle
 10
44.98472399999999
 20
49.016837
 30
0.0
 40
3.399999999999999
100
AcDbArc
 50
306.031879
 51
53.968121
  0
ARC
  5
A253
330
9F2C
100
AcDbEntity
  8
1
  6
Continuous
100
AcDbCircle
 10
44.98472399999999
 20
49.016837
 30
0.0
 40
5.0
100
AcDbArc
 50
293.5781779999999
 51
66.42182199999999
  0
LINE
  5
A254
330
9F2C
100
AcDbEntity
  8
1
  6
Continuous
100
AcDbLine
 10
44.98472399999999
 20
51.766837
 30
0.0
 11
42.734724
 21
51.766837
 31
0.0
  0
ARC
  5
A255
330
9F2C
100
AcDbEntity
  8
1
  6
Continuous
100
AcDbCircle
 10
44.98472399999999
 20
49.016837
 30
0.0
 40
3.399999999999999
100
AcDbArc
 50
90.0
 51
111.570578
  0
ARC
  5
A256
330
9F2C
100
AcDbEntity
  8
1
  6
Continuous
100
AcDbCircle
 10
44.98472399999999
 20
49.016837
 30
0.0
 40
5.0
100
AcDbArc
 50
90.0
 51
104.477512
  0
LINE
  5
A257
330
9F2C
100
AcDbEntity
  8
1
  6
Continuous
100
AcDbLine
 10
42.984724
 20
51.766837
 30
0.0
 11
42.984724
 21
46.266837
 31
0.0
  0
LINE
  5
A258
330
9F2C
100
AcDbEntity
  8
1
  6
Continuous
100
AcDbLine
 10
42.984724
 20
44.434262
 30
0.0
 11
42.984724
 21
44.016837
 31
0.0
  0
LINE
  5
A259
330
9F2C
100
AcDbEntity
  8
1
  6
Continuous
100
AcDbLine
 10
44.98472399999999
 20
54.016837
 30
0.0
 11
44.98472399999999
 21
44.016837
 31
0.0
  0
LINE
  5
A25A
330
9F2C
100
AcDbEntity
  8
1
  6
Continuous
100
AcDbLine
 10
45.984724
 20
51.016837
 30
0.0
 11
44.98472399999999
 21
51.016837
 31
0.0
  0
LINE
  5
A25B
330
9F2C
100
AcDbEntity
  8
1
  6
Continuous
100
AcDbLine
 10
45.984724
 20
51.016837
 30
0.0
 11
45.984724
 21
47.016837
 31
0.0
  0
LINE
  5
A25C
330
9F2C
100
AcDbEntity
  8
1
  6
Continuous
100
AcDbLine
 10
45.984724
 20
47.016837
 30
0.0
 11
44.98472399999999
 21
47.016837
 31
0.0
  0
LINE
  5
A25D
330
9F2C
100
AcDbEntity
  8
1
  6
Continuous
100
AcDbLine
 10
44.98472399999999
 20
46.266837
 30
0.0
 11
42.984724
 21
46.266837
 31
0.0
  0
LINE
  5
A25E
330
9F2C
100
AcDbEntity
  8
1
  6
Continuous
100
AcDbLine
 10
42.984724
 20
44.016837
 30
0.0
 11
46.98472399999999
 21
44.016837
 31
0.0
  0
LINE
  5
A25F
330
9F2C
100
AcDbEntity
  8
1
  6
Continuous
100
AcDbLine
 10
42.734724
 20
44.55169399999999
 30
0.0
 11
42.734724
 21
55.516837
 31
0.0
  0
LINE
  5
A260
330
9F2C
100
AcDbEntity
  8
1
  6
Continuous
100
AcDbLine
 10
43.73472399999999
 20
54.266837
 30
0.0
 11
42.734724
 21
54.266837
 31
0.0
  0
LINE
  5
A261
330
9F2C
100
AcDbEntity
  8
1
  6
Continuous
100
AcDbLine
 10
46.98472399999999
 20
54.016837
 30
0.0
 11
46.98472399999999
 21
44.016837
 31
0.0
  0
LINE
  5
A262
330
9F2C
100
AcDbEntity
  8
1
  6
Continuous
100
AcDbLine
 10
43.73472399999999
 20
54.016837
 30
0.0
 11
46.98472399999999
 21
54.016837
 31
0.0
  0
ARC
  5
A263
330
9F2C
100
AcDbEntity
  8
1
  6
Continuous
100
AcDbCircle
 10
44.98472399999999
 20
49.016837
 30
0.0
 40
3.399999999999999
100
AcDbArc
 50
228.565401
 51
270.0
  0
LINE
  5
A264
330
9F2C
100
AcDbEntity
  8
1
  6
Continuous
100
AcDbLine
 10
43.73472399999999
 20
51.766837
 30
0.0
 11
43.73472399999999
 21
54.266837
 31
0.0
  0
ARC
  5
A265
330
9F2C
100
AcDbEntity
  8
1
  6
Continuous
100
AcDbCircle
 10
44.98472399999999
 20
49.016837
 30
0.0
 40
3.399999999999999
100
AcDbArc
 50
109.093492
 51
111.570578
  0
ENDSEC
  0
SECTION
  2
OBJECTS
  0
DICTIONARY
  5
9F1A
330
0
100
AcDbDictionary
281
     1
  3
ACAD_CIP_PREVIOUS_PRODUCT_INFO
350
A2C9
  3
ACAD_COLOR
350
A2AB
  3
ACAD_DETAILVIEWSTYLE
350
A2C4
  3
ACAD_GROUP
350
9F1B
  3
ACAD_LAYOUT
350
9F27
  3
ACAD_MATERIAL
350
A279
  3
ACAD_MLEADERSTYLE
350
A2C0
  3
ACAD_MLINESTYLE
350
9F24
  3
ACAD_PLOTSETTINGS
350
9F26
  3
ACAD_PLOTSTYLENAME
350
A277
  3
ACAD_SCALELIST
350
A2AE
  3
ACAD_SECTIONVIEWSTYLE
350
A2C2
  3
ACAD_TABLESTYLE
350
A2AC
  3
ACAD_VISUALSTYLE
350
A292
  3
ACDB_RECOMPOSE_DATA
350
A2E7
  3
AcDbVariableDictionary
350
A2DA
  3
DWGPROPS
350
A2E8
  0
DICTIONARY
  5
A2CA
330
9F1E
100
AcDbDictionary
280
     1
281
     1
  3
ADSK_XREC_LAYER_RECONCILED
360
A2CB
  0
DICTIONARY
  5
A2CC
330
9F34
100
AcDbDictionary
280
     1
281
     1
  3
ADSK_XREC_LAYER_RECONCILED
360
A2CD
  0
DICTIONARY
  5
A2CE
330
9F35
100
AcDbDictionary
280
     1
281
     1
  3
ADSK_XREC_LAYER_RECONCILED
360
A2CF
  0
DICTIONARY
  5
A2D0
330
9F36
100
AcDbDictionary
280
     1
281
     1
  3
ADSK_XREC_LAYER_RECONCILED
360
A2D1
  0
DICTIONARY
  5
A2D2
330
9F37
100
AcDbDictionary
280
     1
281
     1
  3
ADSK_XREC_LAYER_RECONCILED
360
A2D3
  0
DICTIONARY
  5
A2D4
330
9F38
100
AcDbDictionary
280
     1
281
     1
  3
ADSK_XREC_LAYER_RECONCILED
360
A2D5
  0
DICTIONARY
  5
A2D6
330
9F39
100
AcDbDictionary
280
     1
281
     1
  3
ADSK_XREC_LAYER_RECONCILED
360
A2D7
  0
DICTIONARY
  5
A2D8
330
9F3A
100
AcDbDictionary
280
     1
281
     1
  3
ADSK_XREC_LAYER_RECONCILED
360
A2D9
  0
DICTIONARY
  5
A272
330
9F2C
100
AcDbDictionary
281
     1
  3
ACAD_LAYOUTSELFREF
350
A273
  0
DICTIONARY
  5
A270
330
9F28
100
AcDbDictionary
281
     1
  3
ACAD_LAYOUTSELFREF
350
A271
  0
XRECORD
  5
A2C9
102
{ACAD_REACTORS
330
9F1A
102
}
330
9F1A
100
AcDbXrecord
280
     1
300
ACDLT
300
2014
300
ACDLT_F_S
  0
DICTIONARY
  5
A2AB
102
{ACAD_REACTORS
330
9F1A
102
}
330
9F1A
100
AcDbDictionary
281
     1
  0
DICTIONARY
  5
A2C4
102
{ACAD_REACTORS
330
9F1A
102
}
330
9F1A
100
AcDbDictionary
281
     1
  3
Imperial24
350
A2C5
  0
DICTIONARY
  5
9F1B
102
{ACAD_REACTORS
330
9F1A
102
}
330
9F1A
100
AcDbDictionary
281
     1
  0
DICTIONARY
  5
9F27
102
{ACAD_REACTORS
330
9F1A
102
}
330
9F1A
100
AcDbDictionary
281
     1
  3
Model
350
A2C6
  3
レイアウト1
350
A2C7
  0
DICTIONARY
  5
A279
102
{ACAD_REACTORS
330
9F1A
102
}
330
9F1A
100
AcDbDictionary
281
     1
  3
ByBlock
350
A282
  3
ByLayer
350
A27A
  3
Global
350
A28A
  0
DICTIONARY
  5
A2C0
102
{ACAD_REACTORS
330
9F1A
102
}
330
9F1A
100
AcDbDictionary
281
     1
  3
Standard
350
A2C1
  0
DICTIONARY
  5
9F24
102
{ACAD_REACTORS
330
9F1A
102
}
330
9F1A
100
AcDbDictionary
281
     1
  3
STANDARD
350
9F25
  0
DICTIONARY
  5
9F26
102
{ACAD_REACTORS
330
9F1A
102
}
330
9F1A
100
AcDbDictionary
281
     1
  0
ACDBDICTIONARYWDFLT
  5
A277
102
{ACAD_REACTORS
330
9F1A
102
}
330
9F1A
100
AcDbDictionary
281
     1
  3
Normal
350
A278
100
AcDbDictionaryWithDefault
340
A278
  0
DICTIONARY
  5
A2AE
102
{ACAD_REACTORS
330
9F1A
102
}
330
9F1A
100
AcDbDictionary
281
     1
  3
A0
350
A2AF
  3
A1
350
A2B0
  3
A2
350
A2B1
  3
A3
350
A2B2
  3
A4
350
A2B3
  3
A5
350
A2B4
  3
A6
350
A2B5
  3
A7
350
A2B6
  3
A8
350
A2B7
  3
A9
350
A2B8
  3
B0
350
A2B9
  3
B1
350
A2BA
  3
B2
350
A2BB
  3
B3
350
A2BC
  3
B4
350
A2BD
  3
B5
350
A2BE
  3
B6
350
A2BF
  0
DICTIONARY
  5
A2C2
102
{ACAD_REACTORS
330
9F1A
102
}
330
9F1A
100
AcDbDictionary
281
     1
  3
Imperial24
350
A2C3
  0
DICTIONARY
  5
A2AC
102
{ACAD_REACTORS
330
9F1A
102
}
330
9F1A
100
AcDbDictionary
281
     1
  3
Standard
350
A2AD
  0
DICTIONARY
  5
A292
102
{ACAD_REACTORS
330
9F1A
102
}
330
9F1A
100
AcDbDictionary
281
     1
  3
2dWireframe
350
A298
  3
Basic
350
A297
  3
Brighten
350
A29E
  3
ColorChange
350
A2A2
  3
Conceptual
350
A29B
  3
Dim
350
A29D
  3
EdgeColorOff
350
A2AA
  3
Facepattern
350
A2A1
  3
Flat
350
A293
  3
FlatWithEdges
350
A294
  3
Gouraud
350
A295
  3
GouraudWithEdges
350
A296
  3
Hidden
350
A29A
  3
JitterOff
350
A2A8
  3
Linepattern
350
A2A0
  3
OverhangOff
350
A2A9
  3
Realistic
350
A29C
  3
Shaded
350
A2A7
  3
Shaded with edges
350
A2A6
  3
Shades of Gray
350
A2A3
  3
Sketchy
350
A2A4
  3
Thicken
350
A29F
  3
Wireframe
350
A299
  3
X-Ray
350
A2A5
  0
XRECORD
  5
A2E7
102
{ACAD_REACTORS
330
9F1A
102
}
330
9F1A
100
AcDbXrecord
280
     1
 90
        1
330
A2AD
  0
DICTIONARY
  5
A2DA
102
{ACAD_REACTORS
330
9F1A
102
}
330
9F1A
100
AcDbDictionary
281
     1
  3
CANNOSCALE
350
A2DF
  3
CMLEADERSTYLE
350
A2DC
  3
CTABLESTYLE
350
A2DB
  3
CVIEWDETAILSTYLE
350
A2DD
  3
CVIEWSECTIONSTYLE
350
A2DE
  3
DIMASSOC
350
A2E2
  3
INDEXCTL
350
A2E1
  3
SORTENTS
350
A2E0
  3
XCLIPFRAME
350
A2E3
  0
XRECORD
  5
A2E8
102
{ACAD_REACTORS
330
9F1A
102
}
330
9F1A
100
AcDbXrecord
280
     1
  1
DWGPROPS COOKIE
  2

  3

  4

  6

  7

  8
Yoshitsune
  9

300
=
301
=
302
=
303
=
304
=
305
=
306
=
307
=
308
=
309
=
 40
0.000014837962963
 41
2450980.495910417
 42
2457192.598611875
  1

 90
        0
  0
XRECORD
  5
A2CB
102
{ACAD_REACTORS
330
A2CA
102
}
330
A2CA
100
AcDbXrecord
280
     1
290
     1
  0
XRECORD
  5
A2CD
102
{ACAD_REACTORS
330
A2CC
102
}
330
A2CC
100
AcDbXrecord
280
     1
290
     1
  0
XRECORD
  5
A2CF
102
{ACAD_REACTORS
330
A2CE
102
}
330
A2CE
100
AcDbXrecord
280
     1
290
     1
  0
XRECORD
  5
A2D1
102
{ACAD_REACTORS
330
A2D0
102
}
330
A2D0
100
AcDbXrecord
280
     1
290
     1
  0
XRECORD
  5
A2D3
102
{ACAD_REACTORS
330
A2D2
102
}
330
A2D2
100
AcDbXrecord
280
     1
290
     1
  0
XRECORD
  5
A2D5
102
{ACAD_REACTORS
330
A2D4
102
}
330
A2D4
100
AcDbXrecord
280
     1
290
     1
  0
XRECORD
  5
A2D7
102
{ACAD_REACTORS
330
A2D6
102
}
330
A2D6
100
AcDbXrecord
280
     1
290
     1
  0
XRECORD
  5
A2D9
102
{ACAD_REACTORS
330
A2D8
102
}
330
A2D8
100
AcDbXrecord
280
     1
290
     1
  0
XRECORD
  5
A273
102
{ACAD_REACTORS
330
A272
102
}
330
A272
100
AcDbXrecord
280
     1
340
9F2C
  0
XRECORD
  5
A271
102
{ACAD_REACTORS
330
A270
102
}
330
A270
100
AcDbXrecord
280
     1
340
9F28
  0
ACDBDETAILVIEWSTYLE
  5
A2C5
102
{ACAD_XDICTIONARY
360
A320
102
}
102
{ACAD_REACTORS
330
A2C4
102
}
330
A2C4
100
AcDbModelDocViewStyle
 70
     0
  3
Imperial24
290
     0
100
AcDbDetailViewStyle
 70
     0
 71
     0
 90
        3
 71
     1
340
9F1F
 40
0.24
340
0
 40
0.24
300

 40
0.36
280
     3
 71
     2
340
9F23
 90
       25
 71
     3
340
9F1F
 40
0.24
 90
        1
 40
0.75
 90
        1
300
%<\AcVar ViewType \f "%tc1">% %<\AcVar ViewDetailId>%\PSCALE %<\AcVar ViewScale \f "%sn">%
 71
     4
340
9F23
 90
       25
340
9F23
 90
       25
280
     0
  0
LAYOUT
  5
A2C6
102
{ACAD_XDICTIONARY
360
A322
102
}
102
{ACAD_REACTORS
330
9F27
102
}
330
9F27
100
AcDbPlotSettings
  1

  2
Canon LBP9100C
  4

  6

 40
0.0
 41
0.0
 42
0.0
 43
0.0
 44
0.0
 45
0.0
 46
0.0
 47
0.0
 48
0.0
 49
0.0
140
0.0
141
0.0
142
1.0
143
1.0
 70
  1712
 72
     0
 73
     0
 74
     0
  7

 75
     0
147
1.0
148
0.0
149
0.0
100
AcDbLayout
  1
Model
 70
     1
 71
     0
 10
0.0
 20
0.0
 11
12.0
 21
9.0
 12
0.0
 22
0.0
 32
0.0
 14
0.0
 24
0.0
 34
0.0
 15
0.0
 25
0.0
 35
0.0
146
0.0
 13
0.0
 23
0.0
 33
0.0
 16
1.0
 26
0.0
 36
0.0
 17
0.0
 27
1.0
 37
0.0
 76
     0
330
9F2C
331
A26F
  0
LAYOUT
  5
A2C7
102
{ACAD_XDICTIONARY
360
A324
102
}
102
{ACAD_REACTORS
330
9F27
102
}
330
9F27
100
AcDbPlotSettings
  1

  2
Canon LBP9100C
  4

  6

 40
0.0
 41
0.0
 42
0.0
 43
0.0
 44
0.0
 45
0.0
 46
0.0
 47
0.0
 48
0.0
 49
0.0
140
0.0
141
0.0
142
1.0
143
1.0
 70
   688
 72
     0
 73
     0
 74
     5
  7

 75
    16
147
1.0
148
0.0
149
0.0
100
AcDbLayout
  1
レイアウト1
 70
     0
 71
     1
 10
0.0
 20
0.0
 11
420.0
 21
297.0
 12
0.0
 22
0.0
 32
0.0
 14
1.000000000000000E+20
 24
1.000000000000000E+20
 34
1.000000000000000E+20
 15
-1.000000000000000E+20
 25
-1.000000000000000E+20
 35
-1.000000000000000E+20
146
0.0
 13
0.0
 23
0.0
 33
0.0
 16
1.0
 26
0.0
 36
0.0
 17
0.0
 27
1.0
 37
0.0
 76
     0
330
9F28
  0
MATERIAL
  5
A282
102
{ACAD_XDICTIONARY
360
A283
102
}
102
{ACAD_REACTORS
330
A279
102
}
330
A279
100
AcDbMaterial
  1
ByBlock
 72
     0
 43
0.0208333333333333
 43
0.0
 43
0.0
 43
0.0
 43
0.0
 43
0.0208333333333333
 43
0.0
 43
0.0
 43
0.0
 43
0.0
 43
1.0
 43
0.0
 43
0.0
 43
0.0
 43
0.0
 43
1.0
 77
     0
 47
0.0208333333333333
 47
0.0
 47
0.0
 47
0.0
 47
0.0
 47
0.0208333333333333
 47
0.0
 47
0.0
 47
0.0
 47
0.0
 47
1.0
 47
0.0
 47
0.0
 47
0.0
 47
0.0
 47
1.0
171
     0
 49
0.0208333333333333
 49
0.0
 49
0.0
 49
0.0
 49
0.0
 49
0.0208333333333333
 49
0.0
 49
0.0
 49
0.0
 49
0.0
 49
1.0
 49
0.0
 49
0.0
 49
0.0
 49
0.0
 49
1.0
175
     0
142
0.0208333333333333
142
0.0
142
0.0
142
0.0
142
0.0
142
0.0208333333333333
142
0.0
142
0.0
142
0.0
142
0.0
142
1.0
142
0.0
142
0.0
142
0.0
142
0.0
142
1.0
179
     0
144
0.0208333333333333
144
0.0
144
0.0
144
0.0
144
0.0
144
0.0208333333333333
144
0.0
144
0.0
144
0.0
144
0.0
144
1.0
144
0.0
144
0.0
144
0.0
144
0.0
144
1.0
147
0.0208333333333333
147
0.0
147
0.0
147
0.0
147
0.0
147
0.0208333333333333
147
0.0
147
0.0
147
0.0
147
0.0
147
1.0
147
0.0
147
0.0
147
0.0
147
0.0
147
1.0
  0
MATERIAL
  5
A27A
102
{ACAD_XDICTIONARY
360
A27B
102
}
102
{ACAD_REACTORS
330
A279
102
}
330
A279
100
AcDbMaterial
  1
ByLayer
 72
     0
 43
0.0208333333333333
 43
0.0
 43
0.0
 43
0.0
 43
0.0
 43
0.0208333333333333
 43
0.0
 43
0.0
 43
0.0
 43
0.0
 43
1.0
 43
0.0
 43
0.0
 43
0.0
 43
0.0
 43
1.0
 77
     0
 47
0.0208333333333333
 47
0.0
 47
0.0
 47
0.0
 47
0.0
 47
0.0208333333333333
 47
0.0
 47
0.0
 47
0.0
 47
0.0
 47
1.0
 47
0.0
 47
0.0
 47
0.0
 47
0.0
 47
1.0
171
     0
 49
0.0208333333333333
 49
0.0
 49
0.0
 49
0.0
 49
0.0
 49
0.0208333333333333
 49
0.0
 49
0.0
 49
0.0
 49
0.0
 49
1.0
 49
0.0
 49
0.0
 49
0.0
 49
0.0
 49
1.0
175
     0
142
0.0208333333333333
142
0.0
142
0.0
142
0.0
142
0.0
142
0.0208333333333333
142
0.0
142
0.0
142
0.0
142
0.0
142
1.0
142
0.0
142
0.0
142
0.0
142
0.0
142
1.0
179
     0
144
0.0208333333333333
144
0.0
144
0.0
144
0.0
144
0.0
144
0.0208333333333333
144
0.0
144
0.0
144
0.0
144
0.0
144
1.0
144
0.0
144
0.0
144
0.0
144
0.0
144
1.0
147
0.0208333333333333
147
0.0
147
0.0
147
0.0
147
0.0
147
0.0208333333333333
147
0.0
147
0.0
147
0.0
147
0.0
147
1.0
147
0.0
147
0.0
147
0.0
147
0.0
147
1.0
  0
MATERIAL
  5
A28A
102
{ACAD_XDICTIONARY
360
A28B
102
}
102
{ACAD_REACTORS
330
A279
102
}
330
A279
100
AcDbMaterial
  1
Global
 72
     0
 43
0.0208333333333333
 43
0.0
 43
0.0
 43
0.0
 43
0.0
 43
0.0208333333333333
 43
0.0
 43
0.0
 43
0.0
 43
0.0
 43
1.0
 43
0.0
 43
0.0
 43
0.0
 43
0.0
 43
1.0
 77
     0
 47
0.0208333333333333
 47
0.0
 47
0.0
 47
0.0
 47
0.0
 47
0.0208333333333333
 47
0.0
 47
0.0
 47
0.0
 47
0.0
 47
1.0
 47
0.0
 47
0.0
 47
0.0
 47
0.0
 47
1.0
171
     0
 49
0.0208333333333333
 49
0.0
 49
0.0
 49
0.0
 49
0.0
 49
0.0208333333333333
 49
0.0
 49
0.0
 49
0.0
 49
0.0
 49
1.0
 49
0.0
 49
0.0
 49
0.0
 49
0.0
 49
1.0
175
     0
142
0.0208333333333333
142
0.0
142
0.0
142
0.0
142
0.0
142
0.0208333333333333
142
0.0
142
0.0
142
0.0
142
0.0
142
1.0
142
0.0
142
0.0
142
0.0
142
0.0
142
1.0
179
     0
144
0.0208333333333333
144
0.0
144
0.0
144
0.0
144
0.0
144
0.0208333333333333
144
0.0
144
0.0
144
0.0
144
0.0
144
1.0
144
0.0
144
0.0
144
0.0
144
0.0
144
1.0
147
0.0208333333333333
147
0.0
147
0.0
147
0.0
147
0.0
147
0.0208333333333333
147
0.0
147
0.0
147
0.0
147
0.0
147
1.0
147
0.0
147
0.0
147
0.0
147
0.0
147
1.0
  0
MLEADERSTYLE
  5
A2C1
102
{ACAD_REACTORS
330
A2C0
102
}
330
A2C0
100
AcDbMLeaderStyle
170
     2
171
     1
172
     0
 90
        2
 40
0.0
 41
0.0
173
     1
 91
-1056964608
340
9F21
 92
       -2
290
     1
 42
0.09
291
     1
 43
0.36
  3
Standard
 44
0.18
300

342
9F1F
174
     1
178
     6
175
     1
176
     0
 93
-1056964608
 45
0.18
292
     0
297
     0
 46
0.18
 94
-1056964608
 47
1.0
 49
1.0
140
1.0
293
     1
141
0.0
294
     1
177
     0
142
1.0
295
     0
296
     0
143
0.125
1001
ACAD_MLEADERVER
1070
     2
  0
MLINESTYLE
  5
9F25
102
{ACAD_REACTORS
330
9F24
102
}
330
9F24
100
AcDbMlineStyle
  2
STANDARD
 70
     0
  3

 62
   256
 51
90.0
 52
90.0
 71
     2
 49
0.5
 62
   256
  6
BYLAYER
 49
-0.5
 62
   256
  6
BYLAYER
  0
ACDBPLACEHOLDER
  5
A278
102
{ACAD_REACTORS
330
A277
102
}
330
A277
  0
SCALE
  5
A2AF
102
{ACAD_REACTORS
330
A2AE
102
}
330
A2AE
100
AcDbScale
 70
     0
300
1:1
140
1.0
141
1.0
290
     1
  0
SCALE
  5
A2B0
102
{ACAD_REACTORS
330
A2AE
102
}
330
A2AE
100
AcDbScale
 70
     0
300
1/128" = 1'-0"
140
0.0078125
141
12.0
290
     0
  0
SCALE
  5
A2B1
102
{ACAD_REACTORS
330
A2AE
102
}
330
A2AE
100
AcDbScale
 70
     0
300
1/64" = 1'-0"
140
0.015625
141
12.0
290
     0
  0
SCALE
  5
A2B2
102
{ACAD_REACTORS
330
A2AE
102
}
330
A2AE
100
AcDbScale
 70
     0
300
1/32" = 1'-0"
140
0.03125
141
12.0
290
     0
  0
SCALE
  5
A2B3
102
{ACAD_REACTORS
330
A2AE
102
}
330
A2AE
100
AcDbScale
 70
     0
300
1/16" = 1'-0"
140
0.0625
141
12.0
290
     0
  0
SCALE
  5
A2B4
102
{ACAD_REACTORS
330
A2AE
102
}
330
A2AE
100
AcDbScale
 70
     0
300
3/32" = 1'-0"
140
0.09375
141
12.0
290
     0
  0
SCALE
  5
A2B5
102
{ACAD_REACTORS
330
A2AE
102
}
330
A2AE
100
AcDbScale
 70
     0
300
1/8" = 1'-0"
140
0.125
141
12.0
290
     0
  0
SCALE
  5
A2B6
102
{ACAD_REACTORS
330
A2AE
102
}
330
A2AE
100
AcDbScale
 70
     0
300
3/16" = 1'-0"
140
0.1875
141
12.0
290
     0
  0
SCALE
  5
A2B7
102
{ACAD_REACTORS
330
A2AE
102
}
330
A2AE
100
AcDbScale
 70
     0
300
1/4" = 1'-0"
140
0.25
141
12.0
290
     0
  0
SCALE
  5
A2B8
102
{ACAD_REACTORS
330
A2AE
102
}
330
A2AE
100
AcDbScale
 70
     0
300
3/8" = 1'-0"
140
0.375
141
12.0
290
     0
  0
SCALE
  5
A2B9
102
{ACAD_REACTORS
330
A2AE
102
}
330
A2AE
100
AcDbScale
 70
     0
300
1/2" = 1'-0"
140
0.5
141
12.0
290
     0
  0
SCALE
  5
A2BA
102
{ACAD_REACTORS
330
A2AE
102
}
330
A2AE
100
AcDbScale
 70
     0
300
3/4" = 1'-0"
140
0.75
141
12.0
290
     0
  0
SCALE
  5
A2BB
102
{ACAD_REACTORS
330
A2AE
102
}
330
A2AE
100
AcDbScale
 70
     0
300
1" = 1'-0"
140
1.0
141
12.0
290
     0
  0
SCALE
  5
A2BC
102
{ACAD_REACTORS
330
A2AE
102
}
330
A2AE
100
AcDbScale
 70
     0
300
1-1/2" = 1'-0"
140
1.5
141
12.0
290
     0
  0
SCALE
  5
A2BD
102
{ACAD_REACTORS
330
A2AE
102
}
330
A2AE
100
AcDbScale
 70
     0
300
3" = 1'-0"
140
3.0
141
12.0
290
     0
  0
SCALE
  5
A2BE
102
{ACAD_REACTORS
330
A2AE
102
}
330
A2AE
100
AcDbScale
 70
     0
300
6" = 1'-0"
140
6.0
141
12.0
290
     0
  0
SCALE
  5
A2BF
102
{ACAD_REACTORS
330
A2AE
102
}
330
A2AE
100
AcDbScale
 70
     0
300
1'-0" = 1'-0"
140
12.0
141
12.0
290
     0
  0
ACDBSECTIONVIEWSTYLE
  5
A2C3
102
{ACAD_XDICTIONARY
360
A31E
102
}
102
{ACAD_REACTORS
330
A2C2
102
}
330
A2C2
100
AcDbModelDocViewStyle
 70
     0
  3
Imperial24
290
     0
100
AcDbSectionViewStyle
 70
     0
 71
     0
 90
       78
 71
     1
340
9F1F
 40
0.24
340
0
340
0
 40
0.24
300
I, O, Q, S, X, Z
 40
0.48
 90
        3
 40
0.18
 90
        1
 71
     2
340
9F23
 90
       25
340
9F23
 90
       50
 40
0.24
 40
0.0
 40
0.24
 71
     3
340
9F1F
 40
0.24
 90
        1
 40
0.75
 90
        1
300
%<\AcVar ViewType \f "%tc1">% %<\AcVar ViewSectionStartId>%-%<\AcVar ViewSectionEndId>%\PSCALE %<\AcVar ViewScale \f "%sn">%
 71
     4
300
ANSI31
 40
1.0
 90
        0
290
     0
290
     0
 90
        6
 40
0.0
 40
1.570796326794896
 40
0.2617993877991494
 40
1.308996938995747
 40
-0.2617993877991494
 40
1.832595714594046
  0
TABLESTYLE
  5
A2AD
102
{ACAD_XDICTIONARY
360
A2E5
102
}
102
{ACAD_REACTORS
330
A2AC
102
}
330
A2AC
100
AcDbTableStyle
  3
Standard
 70
     0
 71
     0
 40
0.06
 41
0.06
280
     0
281
     0
  7
STANDARD
140
0.18
170
     2
 62
     0
 63
     7
283
     0
274
    -2
284
     1
 64
     0
275
    -2
285
     1
 65
     0
276
    -2
286
     1
 66
     0
277
    -2
287
     1
 67
     0
278
    -2
288
     1
 68
     0
279
    -2
289
     1
 69
     0
  7
STANDARD
140
0.25
170
     5
 62
     0
 63
     7
283
     0
274
    -2
284
     1
 64
     0
275
    -2
285
     1
 65
     0
276
    -2
286
     1
 66
     0
277
    -2
287
     1
 67
     0
278
    -2
288
     1
 68
     0
279
    -2
289
     1
 69
     0
  7
STANDARD
140
0.18
170
     5
 62
     0
 63
     7
283
     0
274
    -2
284
     1
 64
     0
275
    -2
285
     1
 65
     0
276
    -2
286
     1
 66
     0
277
    -2
287
     1
 67
     0
278
    -2
288
     1
 68
     0
279
    -2
289
     1
 69
     0
  0
VISUALSTYLE
  5
A298
102
{ACAD_XDICTIONARY
360
A2F6
102
}
102
{ACAD_REACTORS
330
A292
102
}
330
A292
100
AcDbVisualStyle
  2
2dWireframe
 70
     4
 71
     0
 72
     2
 73
     0
 90
        0
 40
-0.6
 41
-30.0
 62
     5
 63
     7
 74
     1
 91
        4
 64
     7
 65
   257
 75
     1
175
     1
 42
1.0
 92
        0
 66
   257
 43
1.0
 76
     1
 77
     6
 78
     2
 67
     7
 79
     5
170
     0
171
     0
290
     0
174
     0
 93
        1
 44
0.0
173
     0
291
     0
 45
0.0
1001
ACAD
1000
AcDbSavedByObjectVersion
1070
     0
  0
VISUALSTYLE
  5
A297
102
{ACAD_XDICTIONARY
360
A2F4
102
}
102
{ACAD_REACTORS
330
A292
102
}
330
A292
100
AcDbVisualStyle
  2
Basic
 70
     7
 71
     1
 72
     0
 73
     1
 90
        0
 40
-0.6
 41
-30.0
 62
     5
 63
     7
 74
     0
 91
        4
 64
     7
 65
   257
 75
     1
175
     1
 42
1.0
 92
        8
 66
     7
 43
1.0
 76
     1
 77
     6
 78
     2
 67
     7
 79
     5
170
     0
171
     0
290
     0
174
     0
 93
        1
 44
0.0
173
     0
291
     1
 45
0.0
1001
ACAD
1000
AcDbSavedByObjectVersion
1070
     0
  0
VISUALSTYLE
  5
A29E
102
{ACAD_XDICTIONARY
360
A302
102
}
102
{ACAD_REACTORS
330
A292
102
}
330
A292
100
AcDbVisualStyle
  2
Brighten
 70
    12
 71
     2
 72
     2
 73
     0
 90
        0
 40
-0.6
 41
-30.0
 62
     5
 63
     7
 74
     1
 91
        4
 64
     7
 65
   257
 75
     1
175
     1
 42
1.0
 92
        8
 66
     7
 43
1.0
 76
     1
 77
     6
 78
     2
 67
     7
 79
     5
170
     0
171
     0
290
     0
174
     0
 93
        1
 44
50.0
173
     0
291
     1
 45
0.0
1001
ACAD
1000
AcDbSavedByObjectVersion
1070
     0
  0
VISUALSTYLE
  5
A2A2
102
{ACAD_XDICTIONARY
360
A30A
102
}
102
{ACAD_REACTORS
330
A292
102
}
330
A292
100
AcDbVisualStyle
  2
ColorChange
 70
    16
 71
     2
 72
     2
 73
     3
 90
        0
 40
-0.6
 41
-30.0
 62
     5
 63
     8
 74
     1
 91
        4
 64
     7
 65
   257
 75
     1
175
     1
 42
1.0
 92
        8
 66
     8
 43
1.0
 76
     1
 77
     6
 78
     2
 67
     7
 79
     5
170
     0
171
     0
290
     0
174
     0
 93
        1
 44
0.0
173
     0
291
     1
 45
0.0
1001
ACAD
1000
AcDbSavedByObjectVersion
1070
     0
  0
VISUALSTYLE
  5
A29B
102
{ACAD_XDICTIONARY
360
A2FC
102
}
102
{ACAD_REACTORS
330
A292
102
}
330
A292
100
AcDbVisualStyle
  2
Conceptual
 70
     9
 71
     3
 72
     2
 73
     0
 90
        0
 40
-0.6
 41
-30.0
 62
     5
 63
     7
 74
     2
 91
        2
 64
     7
 65
   257
 75
     1
175
     1
 42
179.0
 92
        8
 66
     7
 43
1.0
 76
     1
 77
     6
 78
     2
 67
     7
 79
     3
170
     0
171
     0
290
     0
174
     0
 93
        1
 44
0.0
173
     0
291
     0
 45
0.0
1001
ACAD
1000
AcDbSavedByObjectVersion
1070
     0
  0
VISUALSTYLE
  5
A29D
102
{ACAD_XDICTIONARY
360
A300
102
}
102
{ACAD_REACTORS
330
A292
102
}
330
A292
100
AcDbVisualStyle
  2
Dim
 70
    11
 71
     2
 72
     2
 73
     0
 90
        0
 40
-0.6
 41
-30.0
 62
     5
 63
     7
 74
     1
 91
        4
 64
     7
 65
   257
 75
     1
175
     1
 42
1.0
 92
        8
 66
     7
 43
1.0
 76
     1
 77
     6
 78
     2
 67
     7
 79
     5
170
     0
171
     0
290
     0
174
     0
 93
        1
 44
-50.0
173
     0
291
     1
 45
0.0
1001
ACAD
1000
AcDbSavedByObjectVersion
1070
     0
  0
VISUALSTYLE
  5
A2AA
102
{ACAD_XDICTIONARY
360
A31A
102
}
102
{ACAD_REACTORS
330
A292
102
}
330
A292
100
AcDbVisualStyle
  2
EdgeColorOff
 70
    22
 71
     2
 72
     2
 73
     0
 90
        0
 40
-0.6
 41
-30.0
 62
     5
 63
     7
 74
     1
 91
        4
 64
     7
 65
   257
 75
     1
175
     1
 42
1.0
 92
        8
 66
     7
 43
1.0
 76
     1
 77
     6
 78
     2
 67
     7
 79
     5
170
     0
171
     0
290
     0
174
     0
 93
        1
 44
0.0
173
     0
291
     1
 45
0.0
1001
ACAD
1000
AcDbSavedByObjectVersion
1070
     0
  0
VISUALSTYLE
  5
A2A1
102
{ACAD_XDICTIONARY
360
A308
102
}
102
{ACAD_REACTORS
330
A292
102
}
330
A292
100
AcDbVisualStyle
  2
Facepattern
 70
    15
 71
     2
 72
     2
 73
     0
 90
        0
 40
-0.6
 41
-30.0
 62
     5
 63
     7
 74
     1
 91
        4
 64
     7
 65
   257
 75
     1
175
     1
 42
1.0
 92
        8
 66
     7
 43
1.0
 76
     1
 77
     6
 78
     2
 67
     7
 79
     5
170
     0
171
     0
290
     0
174
     0
 93
        1
 44
0.0
173
     0
291
     1
 45
0.0
1001
ACAD
1000
AcDbSavedByObjectVersion
1070
     0
  0
VISUALSTYLE
  5
A293
102
{ACAD_XDICTIONARY
360
A2EC
102
}
102
{ACAD_REACTORS
330
A292
102
}
330
A292
100
AcDbVisualStyle
  2
Flat
 70
     0
 71
     2
 72
     1
 73
     1
 90
        2
 40
-0.6
 41
30.0
 62
     5
 63
     7
 74
     0
 91
        0
 64
     7
 65
   257
 75
     1
175
     1
 42
1.0
 92
        8
 66
     7
 43
1.0
 76
     1
 77
     6
 78
     2
 67
     7
 79
     5
170
     0
171
     0
290
     0
174
     0
 93
       13
 44
0.0
173
     0
291
     1
 45
0.0
1001
ACAD
1000
AcDbSavedByObjectVersion
1070
     0
  0
VISUALSTYLE
  5
A294
102
{ACAD_XDICTIONARY
360
A2EE
102
}
102
{ACAD_REACTORS
330
A292
102
}
330
A292
100
AcDbVisualStyle
  2
FlatWithEdges
 70
     1
 71
     2
 72
     1
 73
     1
 90
        2
 40
-0.6
 41
30.0
 62
     5
 63
     7
 74
     1
 91
        0
 64
     7
 65
   257
 75
     1
175
     1
 42
1.0
 92
        0
 66
   257
 43
1.0
 76
     1
 77
     6
 78
     2
 67
     7
 79
     5
170
     0
171
     0
290
     0
174
     0
 93
       13
 44
0.0
173
     0
291
     1
 45
0.0
1001
ACAD
1000
AcDbSavedByObjectVersion
1070
     0
  0
VISUALSTYLE
  5
A295
102
{ACAD_XDICTIONARY
360
A2F0
102
}
102
{ACAD_REACTORS
330
A292
102
}
330
A292
100
AcDbVisualStyle
  2
Gouraud
 70
     2
 71
     2
 72
     2
 73
     1
 90
        2
 40
-0.6
 41
30.0
 62
     5
 63
     7
 74
     0
 91
        0
 64
     7
 65
   257
 75
     1
175
     1
 42
1.0
 92
        0
 66
     7
 43
1.0
 76
     1
 77
     6
 78
     2
 67
     7
 79
     5
170
     0
171
     0
290
     0
174
     0
 93
       13
 44
0.0
173
     0
291
     1
 45
0.0
1001
ACAD
1000
AcDbSavedByObjectVersion
1070
     0
  0
VISUALSTYLE
  5
A296
102
{ACAD_XDICTIONARY
360
A2F2
102
}
102
{ACAD_REACTORS
330
A292
102
}
330
A292
100
AcDbVisualStyle
  2
GouraudWithEdges
 70
     3
 71
     2
 72
     2
 73
     1
 90
        2
 40
-0.6
 41
30.0
 62
     5
 63
     7
 74
     1
 91
        0
 64
     7
 65
   257
 75
     1
175
     1
 42
1.0
 92
        0
 66
   257
 43
1.0
 76
     1
 77
     6
 78
     2
 67
     7
 79
     5
170
     0
171
     0
290
     0
174
     0
 93
       13
 44
0.0
173
     0
291
     1
 45
0.0
1001
ACAD
1000
AcDbSavedByObjectVersion
1070
     0
  0
VISUALSTYLE
  5
A29A
102
{ACAD_XDICTIONARY
360
A2FA
102
}
102
{ACAD_REACTORS
330
A292
102
}
330
A292
100
AcDbVisualStyle
  2
Hidden
 70
     6
 71
     1
 72
     2
 73
     2
 90
        0
 40
-0.6
 41
-30.0
 62
     5
 63
     7
 74
     2
 91
        2
 64
     7
 65
   257
 75
     2
175
     1
 42
40.0
 92
        0
 66
   257
 43
1.0
 76
     1
 77
     6
 78
     2
 67
     7
 79
     3
170
     0
171
     0
290
     0
174
     0
 93
        1
 44
0.0
173
     0
291
     0
 45
0.0
1001
ACAD
1000
AcDbSavedByObjectVersion
1070
     0
  0
VISUALSTYLE
  5
A2A8
102
{ACAD_XDICTIONARY
360
A316
102
}
102
{ACAD_REACTORS
330
A292
102
}
330
A292
100
AcDbVisualStyle
  2
JitterOff
 70
    20
 71
     2
 72
     2
 73
     0
 90
        0
 40
-0.6
 41
-30.0
 62
     5
 63
     7
 74
     1
 91
        4
 64
     7
 65
   257
 75
     1
175
     1
 42
1.0
 92
       10
 66
     7
 43
1.0
 76
     1
 77
     6
 78
     2
 67
     7
 79
     5
170
     0
171
     0
290
     0
174
     0
 93
        1
 44
0.0
173
     0
291
     1
 45
0.0
1001
ACAD
1000
AcDbSavedByObjectVersion
1070
     0
  0
VISUALSTYLE
  5
A2A0
102
{ACAD_XDICTIONARY
360
A306
102
}
102
{ACAD_REACTORS
330
A292
102
}
330
A292
100
AcDbVisualStyle
  2
Linepattern
 70
    14
 71
     2
 72
     2
 73
     0
 90
        0
 40
-0.6
 41
-30.0
 62
     5
 63
     7
 74
     1
 91
        4
 64
     7
 65
   257
 75
     7
175
     7
 42
1.0
 92
        8
 66
     7
 43
1.0
 76
     1
 77
     6
 78
     2
 67
     7
 79
     5
170
     0
171
     0
290
     0
174
     0
 93
        1
 44
0.0
173
     0
291
     1
 45
0.0
1001
ACAD
1000
AcDbSavedByObjectVersion
1070
     0
  0
VISUALSTYLE
  5
A2A9
102
{ACAD_XDICTIONARY
360
A318
102
}
102
{ACAD_REACTORS
330
A292
102
}
330
A292
100
AcDbVisualStyle
  2
OverhangOff
 70
    21
 71
     2
 72
     2
 73
     0
 90
        0
 40
-0.6
 41
-30.0
 62
     5
 63
     7
 74
     1
 91
        4
 64
     7
 65
   257
 75
     1
175
     1
 42
1.0
 92
        9
 66
     7
 43
1.0
 76
     1
 77
     6
 78
     2
 67
     7
 79
     5
170
     0
171
     0
290
     0
174
     0
 93
        1
 44
0.0
173
     0
291
     1
 45
0.0
1001
ACAD
1000
AcDbSavedByObjectVersion
1070
     0
  0
VISUALSTYLE
  5
A29C
102
{ACAD_XDICTIONARY
360
A2FE
102
}
102
{ACAD_REACTORS
330
A292
102
}
330
A292
100
AcDbVisualStyle
  2
Realistic
 70
     8
 71
     2
 72
     3
 73
     0
 90
        2
 40
-0.6
 41
30.0
 62
     5
 63
     7
 74
     0
 91
        0
 64
     7
 65
   257
 75
     1
175
     1
 42
1.0
 92
        8
 66
   257
 43
1.0
 76
     1
 77
     6
 78
     2
 67
     7
 79
     3
170
     0
171
     0
290
     0
174
     0
 93
       13
 44
0.0
173
     0
291
     0
 45
0.0
1001
ACAD
1000
AcDbSavedByObjectVersion
1070
     0
  0
VISUALSTYLE
  5
A2A7
102
{ACAD_XDICTIONARY
360
A314
102
}
102
{ACAD_REACTORS
330
A292
102
}
330
A292
100
AcDbVisualStyle
  2
Shaded
 70
    27
 71
     2
 72
     2
 73
     1
 90
        2
 40
-0.6
 41
30.0
 62
     5
 63
     7
 74
     0
 91
        4
 64
     7
 65
   257
 75
     1
175
     1
 42
1.0
 92
        8
 66
   257
 43
1.0
 76
     1
 77
     6
 78
     2
 67
     8
 79
     3
170
     0
171
     0
290
     0
174
     0
 93
        5
 44
0.0
173
     0
291
     0
 45
0.0
1001
ACAD
1000
AcDbSavedByObjectVersion
1070
     0
  0
VISUALSTYLE
  5
A2A6
102
{ACAD_XDICTIONARY
360
A312
102
}
102
{ACAD_REACTORS
330
A292
102
}
330
A292
100
AcDbVisualStyle
  2
Shaded with edges
 70
    26
 71
     2
 72
     2
 73
     1
 90
        2
 40
-0.6
 41
30.0
 62
     5
 63
     7
 74
     1
 91
       10
 64
     7
 65
   257
 75
     2
175
     1
 42
1.0
 92
        8
 66
   257
 43
1.0
 76
     1
 77
     6
 78
     2
 67
     7
 79
     3
170
     0
171
     0
290
     0
174
     0
 93
        5
 44
0.0
173
     0
291
     0
 45
0.0
1001
ACAD
1000
AcDbSavedByObjectVersion
1070
     0
  0
VISUALSTYLE
  5
A2A3
102
{ACAD_XDICTIONARY
360
A30C
102
}
102
{ACAD_REACTORS
330
A292
102
}
330
A292
100
AcDbVisualStyle
  2
Shades of Gray
 70
    23
 71
     2
 72
     2
 73
     3
 90
        0
 40
-0.6
 41
-30.0
 62
     5
 63
     7
 74
     2
 91
        2
 64
     7
 65
     7
 75
     1
175
     1
 42
40.0
 92
        8
 66
     7
 43
1.0
 76
     1
 77
     6
 78
     2
 67
     7
 79
     3
170
     0
171
     0
290
     0
174
     0
 93
        1
 44
0.0
173
     0
291
     0
 45
0.0
1001
ACAD
1000
AcDbSavedByObjectVersion
1070
     0
  0
VISUALSTYLE
  5
A2A4
102
{ACAD_XDICTIONARY
360
A30E
102
}
102
{ACAD_REACTORS
330
A292
102
}
330
A292
100
AcDbVisualStyle
  2
Sketchy
 70
    24
 71
     1
 72
     2
 73
     2
 90
        0
 40
-0.6
 41
-30.0
 62
     5
 63
     7
 74
     2
 91
        2
 64
     7
 65
     7
 75
     1
175
     1
 42
40.0
 92
       11
 66
     7
 43
1.0
 76
     1
 77
     6
 78
     2
 67
     7
 79
     6
170
     0
171
     0
290
     0
174
     0
 93
        1
 44
0.0
173
     0
291
     0
 45
0.0
1001
ACAD
1000
AcDbSavedByObjectVersion
1070
     0
  0
VISUALSTYLE
  5
A29F
102
{ACAD_XDICTIONARY
360
A304
102
}
102
{ACAD_REACTORS
330
A292
102
}
330
A292
100
AcDbVisualStyle
  2
Thicken
 70
    13
 71
     2
 72
     2
 73
     0
 90
        0
 40
-0.6
 41
-30.0
 62
     5
 63
     7
 74
     1
 91
        4
 64
     7
 65
   257
 75
     1
175
     1
 42
1.0
 92
       12
 66
     7
 43
1.0
 76
     1
 77
     6
 78
     2
 67
     7
 79
     5
170
     0
171
     0
290
     0
174
     0
 93
        1
 44
0.0
173
     0
291
     1
 45
0.0
1001
ACAD
1000
AcDbSavedByObjectVersion
1070
     0
  0
VISUALSTYLE
  5
A299
102
{ACAD_XDICTIONARY
360
A2F8
102
}
102
{ACAD_REACTORS
330
A292
102
}
330
A292
100
AcDbVisualStyle
  2
Wireframe
 70
     5
 71
     0
 72
     2
 73
     0
 90
        0
 40
-0.6
 41
-30.0
 62
     5
 63
     7
 74
     1
 91
        4
 64
     7
 65
   257
 75
     1
175
     1
 42
1.0
 92
        0
 66
   257
 43
1.0
 76
     1
 77
     6
 78
     2
 67
     7
 79
     3
170
     0
171
     0
290
     0
174
     0
 93
        1
 44
0.0
173
     0
291
     0
 45
0.0
1001
ACAD
1000
AcDbSavedByObjectVersion
1070
     0
  0
VISUALSTYLE
  5
A2A5
102
{ACAD_XDICTIONARY
360
A310
102
}
102
{ACAD_REACTORS
330
A292
102
}
330
A292
100
AcDbVisualStyle
  2
X-Ray
 70
    25
 71
     2
 72
     2
 73
     1
 90
        1
 40
0.5
 41
-30.0
 62
     5
 63
     7
 74
     1
 91
        0
 64
     7
 65
   257
 75
     1
175
     1
 42
1.0
 92
        8
 66
     7
 43
1.0
 76
     1
 77
     6
 78
     2
 67
     7
 79
     3
170
     0
171
     0
290
     0
174
     0
 93
       13
 44
0.0
173
     0
291
     0
 45
0.0
1001
ACAD
1000
AcDbSavedByObjectVersion
1070
     0
  0
DICTIONARYVAR
  5
A2DF
102
{ACAD_REACTORS
330
A2DA
102
}
330
A2DA
100
DictionaryVariables
280
     0
  1
1:1
  0
DICTIONARYVAR
  5
A2DC
102
{ACAD_REACTORS
330
A2DA
102
}
330
A2DA
100
DictionaryVariables
280
     0
  1
STANDARD
  0
DICTIONARYVAR
  5
A2DB
102
{ACAD_REACTORS
330
A2DA
102
}
330
A2DA
100
DictionaryVariables
280
     0
  1
STANDARD
  0
DICTIONARYVAR
  5
A2DD
102
{ACAD_REACTORS
330
A2DA
102
}
330
A2DA
100
DictionaryVariables
280
     0
  1
Imperial24
  0
DICTIONARYVAR
  5
A2DE
102
{ACAD_REACTORS
330
A2DA
102
}
330
A2DA
100
DictionaryVariables
280
     0
  1
Imperial24
  0
DICTIONARYVAR
  5
A2E2
102
{ACAD_REACTORS
330
A2DA
102
}
330
A2DA
100
DictionaryVariables
280
     0
  1
1
  0
DICTIONARYVAR
  5
A2E1
102
{ACAD_REACTORS
330
A2DA
102
}
330
A2DA
100
DictionaryVariables
280
     0
  1
0
  0
DICTIONARYVAR
  5
A2E0
102
{ACAD_REACTORS
330
A2DA
102
}
330
A2DA
100
DictionaryVariables
280
     0
  1
127
  0
DICTIONARYVAR
  5
A2E3
102
{ACAD_REACTORS
330
A2DA
102
}
330
A2DA
100
DictionaryVariables
280
     0
  1
2
  0
DICTIONARY
  5
A320
330
A2C5
100
AcDbDictionary
280
     1
281
     1
  3
ACAD_XREC_ROUNDTRIP
360
A321
  0
DICTIONARY
  5
A322
330
A2C6
100
AcDbDictionary
280
     1
281
     1
  3
ACAD_XREC_ROUNDTRIP
360
A323
  0
DICTIONARY
  5
A324
330
A2C7
100
AcDbDictionary
280
     1
281
     1
  3
ACAD_XREC_ROUNDTRIP
360
A325
  0
DICTIONARY
  5
A283
330
A282
100
AcDbDictionary
280
     1
281
     1
  3
ACAD_XREC_ROUNDTRIP
360
A2EA
  3
BUMPTILE
360
A285
  3
DIFFUSETILE
360
A284
  3
OPACITYTILE
360
A288
  3
REFLECTIONTILE
360
A287
  3
REFRACTIONTILE
360
A289
  3
SPECULARTILE
360
A286
  0
DICTIONARY
  5
A27B
330
A27A
100
AcDbDictionary
280
     1
281
     1
  3
ACAD_XREC_ROUNDTRIP
360
A2E9
  3
BUMPTILE
360
A27D
  3
DIFFUSETILE
360
A27C
  3
OPACITYTILE
360
A280
  3
REFLECTIONTILE
360
A27F
  3
REFRACTIONTILE
360
A281
  3
SPECULARTILE
360
A27E
  0
DICTIONARY
  5
A28B
330
A28A
100
AcDbDictionary
280
     1
281
     1
  3
ACAD_XREC_ROUNDTRIP
360
A2EB
  3
BUMPTILE
360
A28D
  3
DIFFUSETILE
360
A28C
  3
OPACITYTILE
360
A290
  3
REFLECTIONTILE
360
A28F
  3
REFRACTIONTILE
360
A291
  3
SPECULARTILE
360
A28E
  0
DICTIONARY
  5
A31E
330
A2C3
100
AcDbDictionary
280
     1
281
     1
  3
ACAD_XREC_ROUNDTRIP
360
A31F
  0
DICTIONARY
  5
A2E5
330
A2AD
100
AcDbDictionary
280
     1
281
     1
  3
ACAD_ROUNDTRIP_2008_TABLESTYLE_CELLSTYLEMAP
360
A2E6
  3
ACAD_XREC_ROUNDTRIP
360
A31C
  0
DICTIONARY
  5
A2F6
330
A298
100
AcDbDictionary
280
     1
281
     1
  3
ACAD_XREC_ROUNDTRIP
360
A2F7
  0
DICTIONARY
  5
A2F4
330
A297
100
AcDbDictionary
280
     1
281
     1
  3
ACAD_XREC_ROUNDTRIP
360
A2F5
  0
DICTIONARY
  5
A302
330
A29E
100
AcDbDictionary
280
     1
281
     1
  3
ACAD_XREC_ROUNDTRIP
360
A303
  0
DICTIONARY
  5
A30A
330
A2A2
100
AcDbDictionary
280
     1
281
     1
  3
ACAD_XREC_ROUNDTRIP
360
A30B
  0
DICTIONARY
  5
A2FC
330
A29B
100
AcDbDictionary
280
     1
281
     1
  3
ACAD_XREC_ROUNDTRIP
360
A2FD
  0
DICTIONARY
  5
A300
330
A29D
100
AcDbDictionary
280
     1
281
     1
  3
ACAD_XREC_ROUNDTRIP
360
A301
  0
DICTIONARY
  5
A31A
330
A2AA
100
AcDbDictionary
280
     1
281
     1
  3
ACAD_XREC_ROUNDTRIP
360
A31B
  0
DICTIONARY
  5
A308
330
A2A1
100
AcDbDictionary
280
     1
281
     1
  3
ACAD_XREC_ROUNDTRIP
360
A309
  0
DICTIONARY
  5
A2EC
330
A293
100
AcDbDictionary
280
     1
281
     1
  3
ACAD_XREC_ROUNDTRIP
360
A2ED
  0
DICTIONARY
  5
A2EE
330
A294
100
AcDbDictionary
280
     1
281
     1
  3
ACAD_XREC_ROUNDTRIP
360
A2EF
  0
DICTIONARY
  5
A2F0
330
A295
100
AcDbDictionary
280
     1
281
     1
  3
ACAD_XREC_ROUNDTRIP
360
A2F1
  0
DICTIONARY
  5
A2F2
330
A296
100
AcDbDictionary
280
     1
281
     1
  3
ACAD_XREC_ROUNDTRIP
360
A2F3
  0
DICTIONARY
  5
A2FA
330
A29A
100
AcDbDictionary
280
     1
281
     1
  3
ACAD_XREC_ROUNDTRIP
360
A2FB
  0
DICTIONARY
  5
A316
330
A2A8
100
AcDbDictionary
280
     1
281
     1
  3
ACAD_XREC_ROUNDTRIP
360
A317
  0
DICTIONARY
  5
A306
330
A2A0
100
AcDbDictionary
280
     1
281
     1
  3
ACAD_XREC_ROUNDTRIP
360
A307
  0
DICTIONARY
  5
A318
330
A2A9
100
AcDbDictionary
280
     1
281
     1
  3
ACAD_XREC_ROUNDTRIP
360
A319
  0
DICTIONARY
  5
A2FE
330
A29C
100
AcDbDictionary
280
     1
281
     1
  3
ACAD_XREC_ROUNDTRIP
360
A2FF
  0
DICTIONARY
  5
A314
330
A2A7
100
AcDbDictionary
280
     1
281
     1
  3
ACAD_XREC_ROUNDTRIP
360
A315
  0
DICTIONARY
  5
A312
330
A2A6
100
AcDbDictionary
280
     1
281
     1
  3
ACAD_XREC_ROUNDTRIP
360
A313
  0
DICTIONARY
  5
A30C
330
A2A3
100
AcDbDictionary
280
     1
281
     1
  3
ACAD_XREC_ROUNDTRIP
360
A30D
  0
DICTIONARY
  5
A30E
330
A2A4
100
AcDbDictionary
280
     1
281
     1
  3
ACAD_XREC_ROUNDTRIP
360
A30F
  0
DICTIONARY
  5
A304
330
A29F
100
AcDbDictionary
280
     1
281
     1
  3
ACAD_XREC_ROUNDTRIP
360
A305
  0
DICTIONARY
  5
A2F8
330
A299
100
AcDbDictionary
280
     1
281
     1
  3
ACAD_XREC_ROUNDTRIP
360
A2F9
  0
DICTIONARY
  5
A310
330
A2A5
100
AcDbDictionary
280
     1
281
     1
  3
ACAD_XREC_ROUNDTRIP
360
A311
  0
XRECORD
  5
A321
102
{ACAD_REACTORS
330
A320
102
}
330
A320
100
AcDbXrecord
280
     1
102
DISPLAYNAME
  1
Imperial24
102
FLAGS
 90
        0
  0
XRECORD
  5
A323
102
{ACAD_REACTORS
330
A322
102
}
330
A322
100
AcDbXrecord
280
     1
102
SHADEPLOT
 70
     0
102
SHADEPLOTRESLEVEL
 70
     2
102
SHADEPLOTCUSTOMDPI
 70
   300
  0
XRECORD
  5
A325
102
{ACAD_REACTORS
330
A324
102
}
330
A324
100
AcDbXrecord
280
     1
102
SHADEPLOT
 70
     0
102
SHADEPLOTRESLEVEL
 70
     2
102
SHADEPLOTCUSTOMDPI
 70
   300
  0
XRECORD
  5
A2EA
102
{ACAD_REACTORS
330
A283
102
}
330
A283
100
AcDbXrecord
280
     1
102
MATERIAL
148
0.0
149
0.0
149
0.0
 93
        0
 94
      127
282
     0
 72
     0
 77
     0
171
     0
175
     0
179
     0
273
     0
  0
XRECORD
  5
A285
102
{ACAD_REACTORS
330
A283
102
}
330
A283
100
AcDbXrecord
280
     1
270
     1
271
     1
  0
XRECORD
  5
A284
102
{ACAD_REACTORS
330
A283
102
}
330
A283
100
AcDbXrecord
280
     1
270
     1
271
     1
  0
XRECORD
  5
A288
102
{ACAD_REACTORS
330
A283
102
}
330
A283
100
AcDbXrecord
280
     1
270
     1
271
     1
  0
XRECORD
  5
A287
102
{ACAD_REACTORS
330
A283
102
}
330
A283
100
AcDbXrecord
280
     1
270
     1
271
     1
  0
XRECORD
  5
A289
102
{ACAD_REACTORS
330
A283
102
}
330
A283
100
AcDbXrecord
280
     1
270
     1
271
     1
  0
XRECORD
  5
A286
102
{ACAD_REACTORS
330
A283
102
}
330
A283
100
AcDbXrecord
280
     1
270
     1
271
     1
  0
XRECORD
  5
A2E9
102
{ACAD_REACTORS
330
A27B
102
}
330
A27B
100
AcDbXrecord
280
     1
102
MATERIAL
148
0.0
149
0.0
149
0.0
 93
        0
 94
      127
282
     0
 72
     0
 77
     0
171
     0
175
     0
179
     0
273
     0
  0
XRECORD
  5
A27D
102
{ACAD_REACTORS
330
A27B
102
}
330
A27B
100
AcDbXrecord
280
     1
270
     1
271
     1
  0
XRECORD
  5
A27C
102
{ACAD_REACTORS
330
A27B
102
}
330
A27B
100
AcDbXrecord
280
     1
270
     1
271
     1
  0
XRECORD
  5
A280
102
{ACAD_REACTORS
330
A27B
102
}
330
A27B
100
AcDbXrecord
280
     1
270
     1
271
     1
  0
XRECORD
  5
A27F
102
{ACAD_REACTORS
330
A27B
102
}
330
A27B
100
AcDbXrecord
280
     1
270
     1
271
     1
  0
XRECORD
  5
A281
102
{ACAD_REACTORS
330
A27B
102
}
330
A27B
100
AcDbXrecord
280
     1
270
     1
271
     1
  0
XRECORD
  5
A27E
102
{ACAD_REACTORS
330
A27B
102
}
330
A27B
100
AcDbXrecord
280
     1
270
     1
271
     1
  0
XRECORD
  5
A2EB
102
{ACAD_REACTORS
330
A28B
102
}
330
A28B
100
AcDbXrecord
280
     1
102
MATERIAL
148
0.0
149
0.0
149
0.0
 93
        0
 94
      127
282
     0
 72
     0
 77
     0
171
     0
175
     0
179
     0
273
     0
  0
XRECORD
  5
A28D
102
{ACAD_REACTORS
330
A28B
102
}
330
A28B
100
AcDbXrecord
280
     1
270
     1
271
     1
  0
XRECORD
  5
A28C
102
{ACAD_REACTORS
330
A28B
102
}
330
A28B
100
AcDbXrecord
280
     1
270
     1
271
     1
  0
XRECORD
  5
A290
102
{ACAD_REACTORS
330
A28B
102
}
330
A28B
100
AcDbXrecord
280
     1
270
     1
271
     1
  0
XRECORD
  5
A28F
102
{ACAD_REACTORS
330
A28B
102
}
330
A28B
100
AcDbXrecord
280
     1
270
     1
271
     1
  0
XRECORD
  5
A291
102
{ACAD_REACTORS
330
A28B
102
}
330
A28B
100
AcDbXrecord
280
     1
270
     1
271
     1
  0
XRECORD
  5
A28E
102
{ACAD_REACTORS
330
A28B
102
}
330
A28B
100
AcDbXrecord
280
     1
270
     1
271
     1
  0
XRECORD
  5
A31F
102
{ACAD_REACTORS
330
A31E
102
}
330
A31E
100
AcDbXrecord
280
     1
102
DISPLAYNAME
  1
Imperial24
102
FLAGS
 90
        0
  0
CELLSTYLEMAP
  5
A2E6
102
{ACAD_REACTORS
330
A2E5
102
}
330
A2E5
100
AcDbCellStyleMap
 90
        3
300
CELLSTYLE
  1
TABLEFORMAT_BEGIN
 90
        5
170
     1
 91
        0
 92
    32768
 62
   257
 93
        1
300
CONTENTFORMAT
  1
CONTENTFORMAT_BEGIN
 90
        0
 91
        0
 92
      512
 93
        0
300

 40
0.0
140
1.0
 94
        5
 62
     0
340
9F1F
144
0.25
309
CONTENTFORMAT_END
171
     0
 94
        0
309
TABLEFORMAT_END
  1
CELLSTYLE_BEGIN
 90
        1
 91
        1
300
_TITLE
309
CELLSTYLE_END
300
CELLSTYLE
  1
TABLEFORMAT_BEGIN
 90
        5
170
     1
 91
        0
 92
        0
 62
   257
 93
        1
300
CONTENTFORMAT
  1
CONTENTFORMAT_BEGIN
 90
        0
 91
        0
 92
      512
 93
        0
300

 40
0.0
140
1.0
 94
        5
 62
     0
340
9F1F
144
0.18
309
CONTENTFORMAT_END
171
     0
 94
        0
309
TABLEFORMAT_END
  1
CELLSTYLE_BEGIN
 90
        2
 91
        1
300
_HEADER
309
CELLSTYLE_END
300
CELLSTYLE
  1
TABLEFORMAT_BEGIN
 90
        5
170
     1
 91
        0
 92
        0
 62
   257
 93
        1
300
CONTENTFORMAT
  1
CONTENTFORMAT_BEGIN
 90
        0
 91
        0
 92
      512
 93
        0
300

 40
0.0
140
1.0
 94
        2
 62
     0
340
9F1F
144
0.18
309
CONTENTFORMAT_END
171
     0
 94
        0
309
TABLEFORMAT_END
  1
CELLSTYLE_BEGIN
 90
        3
 91
        2
300
_DATA
309
CELLSTYLE_END
  0
XRECORD
  5
A31C
102
{ACAD_REACTORS
330
A2E5
102
}
330
A2E5
100
AcDbXrecord
280
     1
102
ACAD_ROUNDTRIP_PRE2007_TABLESTYLE
 90
      512
 91
        0
  1

 92
      512
 93
        0
  2

 94
      512
 95
        0
  3

  0
XRECORD
  5
A2F7
102
{ACAD_REACTORS
330
A2F6
102
}
330
A2F6
100
AcDbXrecord
280
     1
102
RTVSPost2010Prop28
280
     1
102
RTVSPost2010PropOp28
 70
     1
102
RTVSPost2010Prop29
280
     1
102
RTVSPost2010PropOp29
 70
     1
102
RTVSPost2010Prop30
280
     0
102
RTVSPost2010PropOp30
 70
     1
102
RTVSPost2010Prop31
280
     0
102
RTVSPost2010PropOp31
 70
     1
102
RTVSPost2010Prop32
280
     0
102
RTVSPost2010PropOp32
 70
     1
102
RTVSPost2010Prop33
280
     0
102
RTVSPost2010PropOp33
 70
     1
102
RTVSPost2010Prop34
280
     0
102
RTVSPost2010PropOp34
 70
     1
102
RTVSPost2010Prop35
280
     0
102
RTVSPost2010PropOp35
 70
     1
102
RTVSPost2010Prop36
280
     0
102
RTVSPost2010PropOp36
 70
     1
102
RTVSPost2010Prop37
 90
       50
102
RTVSPost2010PropOp37
 70
     1
102
RTVSPost2010Prop38
140
0.0
102
RTVSPost2010PropOp38
 70
     1
102
RTVSPost2010Prop39
140
1.0
102
RTVSPost2010PropOp39
 70
     1
102
RTVSPost2010Prop40
 90
        0
102
RTVSPost2010PropOp40
 70
     1
102
RTVSPost2010Prop41ColorIndex
 90
       18
102
RTVSPost2010Prop41ColorRGB
 90
        0
102
RTVSPost2010PropOp41
 70
     1
102
RTVSPost2010Prop42
 90
       50
102
RTVSPost2010PropOp42
 70
     1
102
RTVSPost2010Prop43
 90
        3
102
RTVSPost2010PropOp43
 70
     1
102
RTVSPost2010Prop44ColorIndex
 90
        5
102
RTVSPost2010Prop44ColorRGB
 90
      255
102
RTVSPost2010PropOp44
 70
     1
102
RTVSPost2010Prop45
280
     0
102
RTVSPost2010PropOp45
 70
     1
102
RTVSPost2010Prop46
 90
       50
102
RTVSPost2010PropOp46
 70
     1
102
RTVSPost2010Prop47
 90
       50
102
RTVSPost2010PropOp47
 70
     1
102
RTVSPost2010Prop48
 90
       50
102
RTVSPost2010PropOp48
 70
     1
102
RTVSPost2010Prop49
280
     0
102
RTVSPost2010PropOp49
 70
     1
102
RTVSPost2010Prop50
 90
       50
102
RTVSPost2010PropOp50
 70
     1
102
RTVSPost2010Prop51ColorIndex
 90
      256
102
RTVSPost2010Prop51ColorRGB
 90
-16777216
102
RTVSPost2010PropOp51
 70
     0
102
RTVSPost2010Prop52
140
1.0
102
RTVSPost2010PropOp52
 70
     0
102
RTVSPost2010Prop53
 90
        2
102
RTVSPost2010PropOp53
 70
     1
102
RTVSPost2010Prop54
  1
strokes_ogs.tif
102
RTVSPost2010PropOp54
 70
     1
102
RTVSPost2010Prop55
280
     0
102
RTVSPost2010PropOp55
 70
     1
102
RTVSPost2010Prop56
140
1.0
102
RTVSPost2010PropOp56
 70
     1
102
RTVSPost2010Prop57
140
1.0
102
RTVSPost2010PropOp57
 70
     1
102
RTVSPropertyOp0
 70
     1
102
RTVSPropertyOp1
 70
     1
102
RTVSPropertyOp2
 70
     1
102
RTVSPropertyOp3
 70
     1
102
RTVSPropertyOp4
 70
     1
102
RTVSPropertyOp5
 70
     1
102
RTVSPropertyOp6
 70
     1
102
RTVSPropertyOp7
 70
     1
102
RTVSPropertyOp8
 70
     1
102
RTVSPropertyOp9
 70
     1
102
RTVSPropertyOp10
 70
     1
102
RTVSPropertyOp11
 70
     1
102
RTVSPropertyOp12
 70
     1
102
RTVSPropertyOp13
 70
     1
102
RTVSPropertyOp14
 70
     1
102
RTVSPropertyOp15
 70
     1
102
RTVSPropertyOp16
 70
     1
102
RTVSPropertyOp17
 70
     1
102
RTVSPropertyOp18
 70
     1
102
RTVSPropertyOp19
 70
     1
102
RTVSPropertyOp20
 70
     1
102
RTVSPropertyOp21
 70
     1
102
RTVSPropertyOp22
 70
     1
102
RTVSPropertyOp23
 70
     1
102
RTVSPropertyOp24
 70
     1
102
RTVSPropertyOp25
 70
     1
102
RTVSPropertyOp26
 70
     1
102
RTVSPropertyOp27
 70
     1
102
RTVSPropertyOp28
 70
     1
102
RTVSPropertyOp29
 70
     1
102
RTVSPropertyOp30
 70
     1
102
RTVSPropertyOp31
 70
     1
102
RTVSPropertyOp32
 70
     1
102
RTVSPropertyOp33
 70
     1
102
RTVSPropertyOp34
 70
     1
102
RTVSPropertyOp35
 70
     1
102
RTVSPropertyOp36
 70
     1
102
RTVSPropertyOp37
 70
     1
102
RTVSPropertyOp38
 70
     1
102
RTVSPropertyOp39
 70
     1
102
RTVSPropertyOp40
 70
     1
102
RTVSPropertyOp41
 70
     1
102
RTVSPropertyOp42
 70
     1
102
RTVSPropertyOp43
 70
     1
102
RTVSPropertyOp44
 70
     1
102
RTVSPropertyOp45
 70
     1
102
RTVSPropertyOp46
 70
     1
102
RTVSPropertyOp47
 70
     1
102
RTVSPropertyOp48
 70
     1
102
RTVSPropertyOp49
 70
     1
102
RTVSPropertyOp50
 70
     1
102
RTVSPropertyOp51
 70
     0
102
RTVSPropertyOp52
 70
     0
102
RTVSPropertyOp53
 70
     1
102
RTVSPropertyOp54
 70
     1
102
RTVSPropertyOp55
 70
     1
102
RTVSPropertyOp56
 70
     1
102
RTVSPropertyOp57
 70
     1
102
RTVSPropertyOp58
 70
     1
102
RTVSPropertyOp59
 70
     1
102
RTVSPropertyOp60
 70
     1
102
RTVSPropertyOp61
 70
     1
102
RTVSPropertyOp62
 70
     1
  0
XRECORD
  5
A2F5
102
{ACAD_REACTORS
330
A2F4
102
}
330
A2F4
100
AcDbXrecord
280
     1
102
RTVSPost2010Prop28
280
     0
102
RTVSPost2010PropOp28
 70
     1
102
RTVSPost2010Prop29
280
     1
102
RTVSPost2010PropOp29
 70
     1
102
RTVSPost2010Prop30
280
     1
102
RTVSPost2010PropOp30
 70
     1
102
RTVSPost2010Prop31
280
     0
102
RTVSPost2010PropOp31
 70
     1
102
RTVSPost2010Prop32
280
     0
102
RTVSPost2010PropOp32
 70
     1
102
RTVSPost2010Prop33
280
     0
102
RTVSPost2010PropOp33
 70
     1
102
RTVSPost2010Prop34
280
     0
102
RTVSPost2010PropOp34
 70
     1
102
RTVSPost2010Prop35
280
     0
102
RTVSPost2010PropOp35
 70
     1
102
RTVSPost2010Prop36
280
     0
102
RTVSPost2010PropOp36
 70
     1
102
RTVSPost2010Prop37
 90
       50
102
RTVSPost2010PropOp37
 70
     1
102
RTVSPost2010Prop38
140
0.0
102
RTVSPost2010PropOp38
 70
     1
102
RTVSPost2010Prop39
140
1.0
102
RTVSPost2010PropOp39
 70
     1
102
RTVSPost2010Prop40
 90
        0
102
RTVSPost2010PropOp40
 70
     1
102
RTVSPost2010Prop41ColorIndex
 90
       18
102
RTVSPost2010Prop41ColorRGB
 90
        0
102
RTVSPost2010PropOp41
 70
     1
102
RTVSPost2010Prop42
 90
       50
102
RTVSPost2010PropOp42
 70
     1
102
RTVSPost2010Prop43
 90
        3
102
RTVSPost2010PropOp43
 70
     1
102
RTVSPost2010Prop44ColorIndex
 90
        5
102
RTVSPost2010Prop44ColorRGB
 90
      255
102
RTVSPost2010PropOp44
 70
     1
102
RTVSPost2010Prop45
280
     0
102
RTVSPost2010PropOp45
 70
     1
102
RTVSPost2010Prop46
 90
       50
102
RTVSPost2010PropOp46
 70
     1
102
RTVSPost2010Prop47
 90
       50
102
RTVSPost2010PropOp47
 70
     1
102
RTVSPost2010Prop48
 90
       50
102
RTVSPost2010PropOp48
 70
     1
102
RTVSPost2010Prop49
280
     0
102
RTVSPost2010PropOp49
 70
     1
102
RTVSPost2010Prop50
 90
       50
102
RTVSPost2010PropOp50
 70
     1
102
RTVSPost2010Prop51ColorIndex
 90
      256
102
RTVSPost2010Prop51ColorRGB
 90
-16777216
102
RTVSPost2010PropOp51
 70
     0
102
RTVSPost2010Prop52
140
1.0
102
RTVSPost2010PropOp52
 70
     0
102
RTVSPost2010Prop53
 90
        2
102
RTVSPost2010PropOp53
 70
     1
102
RTVSPost2010Prop54
  1
strokes_ogs.tif
102
RTVSPost2010PropOp54
 70
     1
102
RTVSPost2010Prop55
280
     0
102
RTVSPost2010PropOp55
 70
     1
102
RTVSPost2010Prop56
140
1.0
102
RTVSPost2010PropOp56
 70
     1
102
RTVSPost2010Prop57
140
1.0
102
RTVSPost2010PropOp57
 70
     1
102
RTVSPropertyOp0
 70
     1
102
RTVSPropertyOp1
 70
     1
102
RTVSPropertyOp2
 70
     1
102
RTVSPropertyOp3
 70
     1
102
RTVSPropertyOp4
 70
     1
102
RTVSPropertyOp5
 70
     1
102
RTVSPropertyOp6
 70
     1
102
RTVSPropertyOp7
 70
     1
102
RTVSPropertyOp8
 70
     1
102
RTVSPropertyOp9
 70
     1
102
RTVSPropertyOp10
 70
     1
102
RTVSPropertyOp11
 70
     1
102
RTVSPropertyOp12
 70
     1
102
RTVSPropertyOp13
 70
     1
102
RTVSPropertyOp14
 70
     1
102
RTVSPropertyOp15
 70
     1
102
RTVSPropertyOp16
 70
     1
102
RTVSPropertyOp17
 70
     1
102
RTVSPropertyOp18
 70
     1
102
RTVSPropertyOp19
 70
     1
102
RTVSPropertyOp20
 70
     1
102
RTVSPropertyOp21
 70
     1
102
RTVSPropertyOp22
 70
     1
102
RTVSPropertyOp23
 70
     1
102
RTVSPropertyOp24
 70
     1
102
RTVSPropertyOp25
 70
     1
102
RTVSPropertyOp26
 70
     1
102
RTVSPropertyOp27
 70
     1
102
RTVSPropertyOp28
 70
     1
102
RTVSPropertyOp29
 70
     1
102
RTVSPropertyOp30
 70
     1
102
RTVSPropertyOp31
 70
     1
102
RTVSPropertyOp32
 70
     1
102
RTVSPropertyOp33
 70
     1
102
RTVSPropertyOp34
 70
     1
102
RTVSPropertyOp35
 70
     1
102
RTVSPropertyOp36
 70
     1
102
RTVSPropertyOp37
 70
     1
102
RTVSPropertyOp38
 70
     1
102
RTVSPropertyOp39
 70
     1
102
RTVSPropertyOp40
 70
     1
102
RTVSPropertyOp41
 70
     1
102
RTVSPropertyOp42
 70
     1
102
RTVSPropertyOp43
 70
     1
102
RTVSPropertyOp44
 70
     1
102
RTVSPropertyOp45
 70
     1
102
RTVSPropertyOp46
 70
     1
102
RTVSPropertyOp47
 70
     1
102
RTVSPropertyOp48
 70
     1
102
RTVSPropertyOp49
 70
     1
102
RTVSPropertyOp50
 70
     1
102
RTVSPropertyOp51
 70
     0
102
RTVSPropertyOp52
 70
     0
102
RTVSPropertyOp53
 70
     1
102
RTVSPropertyOp54
 70
     1
102
RTVSPropertyOp55
 70
     1
102
RTVSPropertyOp56
 70
     1
102
RTVSPropertyOp57
 70
     1
102
RTVSPropertyOp58
 70
     1
102
RTVSPropertyOp59
 70
     1
102
RTVSPropertyOp60
 70
     1
102
RTVSPropertyOp61
 70
     1
102
RTVSPropertyOp62
 70
     1
  0
XRECORD
  5
A303
102
{ACAD_REACTORS
330
A302
102
}
330
A302
100
AcDbXrecord
280
     1
102
RTVSPost2010Prop28
280
     0
102
RTVSPost2010PropOp28
 70
     1
102
RTVSPost2010Prop29
280
     1
102
RTVSPost2010PropOp29
 70
     1
102
RTVSPost2010Prop30
280
     1
102
RTVSPost2010PropOp30
 70
     1
102
RTVSPost2010Prop31
280
     0
102
RTVSPost2010PropOp31
 70
     1
102
RTVSPost2010Prop32
280
     0
102
RTVSPost2010PropOp32
 70
     1
102
RTVSPost2010Prop33
280
     0
102
RTVSPost2010PropOp33
 70
     1
102
RTVSPost2010Prop34
280
     0
102
RTVSPost2010PropOp34
 70
     1
102
RTVSPost2010Prop35
280
     0
102
RTVSPost2010PropOp35
 70
     1
102
RTVSPost2010Prop36
280
     0
102
RTVSPost2010PropOp36
 70
     1
102
RTVSPost2010Prop37
 90
       50
102
RTVSPost2010PropOp37
 70
     1
102
RTVSPost2010Prop38
140
0.0
102
RTVSPost2010PropOp38
 70
     1
102
RTVSPost2010Prop39
140
1.0
102
RTVSPost2010PropOp39
 70
     1
102
RTVSPost2010Prop40
 90
        0
102
RTVSPost2010PropOp40
 70
     1
102
RTVSPost2010Prop41ColorIndex
 90
       18
102
RTVSPost2010Prop41ColorRGB
 90
        0
102
RTVSPost2010PropOp41
 70
     1
102
RTVSPost2010Prop42
 90
       50
102
RTVSPost2010PropOp42
 70
     1
102
RTVSPost2010Prop43
 90
        3
102
RTVSPost2010PropOp43
 70
     1
102
RTVSPost2010Prop44ColorIndex
 90
        5
102
RTVSPost2010Prop44ColorRGB
 90
      255
102
RTVSPost2010PropOp44
 70
     1
102
RTVSPost2010Prop45
280
     0
102
RTVSPost2010PropOp45
 70
     1
102
RTVSPost2010Prop46
 90
       50
102
RTVSPost2010PropOp46
 70
     1
102
RTVSPost2010Prop47
 90
       50
102
RTVSPost2010PropOp47
 70
     1
102
RTVSPost2010Prop48
 90
       50
102
RTVSPost2010PropOp48
 70
     1
102
RTVSPost2010Prop49
280
     0
102
RTVSPost2010PropOp49
 70
     1
102
RTVSPost2010Prop50
 90
       50
102
RTVSPost2010PropOp50
 70
     1
102
RTVSPost2010Prop51ColorIndex
 90
      256
102
RTVSPost2010Prop51ColorRGB
 90
-16777216
102
RTVSPost2010PropOp51
 70
     0
102
RTVSPost2010Prop52
140
1.0
102
RTVSPost2010PropOp52
 70
     0
102
RTVSPost2010Prop53
 90
        2
102
RTVSPost2010PropOp53
 70
     1
102
RTVSPost2010Prop54
  1
strokes_ogs.tif
102
RTVSPost2010PropOp54
 70
     1
102
RTVSPost2010Prop55
280
     0
102
RTVSPost2010PropOp55
 70
     1
102
RTVSPost2010Prop56
140
1.0
102
RTVSPost2010PropOp56
 70
     1
102
RTVSPost2010Prop57
140
1.0
102
RTVSPost2010PropOp57
 70
     1
102
RTVSPropertyOp0
 70
     1
102
RTVSPropertyOp1
 70
     1
102
RTVSPropertyOp2
 70
     1
102
RTVSPropertyOp3
 70
     1
102
RTVSPropertyOp4
 70
     1
102
RTVSPropertyOp5
 70
     1
102
RTVSPropertyOp6
 70
     1
102
RTVSPropertyOp7
 70
     1
102
RTVSPropertyOp8
 70
     1
102
RTVSPropertyOp9
 70
     1
102
RTVSPropertyOp10
 70
     1
102
RTVSPropertyOp11
 70
     1
102
RTVSPropertyOp12
 70
     1
102
RTVSPropertyOp13
 70
     1
102
RTVSPropertyOp14
 70
     1
102
RTVSPropertyOp15
 70
     1
102
RTVSPropertyOp16
 70
     1
102
RTVSPropertyOp17
 70
     1
102
RTVSPropertyOp18
 70
     1
102
RTVSPropertyOp19
 70
     1
102
RTVSPropertyOp20
 70
     1
102
RTVSPropertyOp21
 70
     1
102
RTVSPropertyOp22
 70
     1
102
RTVSPropertyOp23
 70
     1
102
RTVSPropertyOp24
 70
     1
102
RTVSPropertyOp25
 70
     1
102
RTVSPropertyOp26
 70
     1
102
RTVSPropertyOp27
 70
     1
102
RTVSPropertyOp28
 70
     1
102
RTVSPropertyOp29
 70
     1
102
RTVSPropertyOp30
 70
     1
102
RTVSPropertyOp31
 70
     1
102
RTVSPropertyOp32
 70
     1
102
RTVSPropertyOp33
 70
     1
102
RTVSPropertyOp34
 70
     1
102
RTVSPropertyOp35
 70
     1
102
RTVSPropertyOp36
 70
     1
102
RTVSPropertyOp37
 70
     1
102
RTVSPropertyOp38
 70
     1
102
RTVSPropertyOp39
 70
     1
102
RTVSPropertyOp40
 70
     1
102
RTVSPropertyOp41
 70
     1
102
RTVSPropertyOp42
 70
     1
102
RTVSPropertyOp43
 70
     1
102
RTVSPropertyOp44
 70
     1
102
RTVSPropertyOp45
 70
     1
102
RTVSPropertyOp46
 70
     1
102
RTVSPropertyOp47
 70
     1
102
RTVSPropertyOp48
 70
     1
102
RTVSPropertyOp49
 70
     1
102
RTVSPropertyOp50
 70
     1
102
RTVSPropertyOp51
 70
     0
102
RTVSPropertyOp52
 70
     0
102
RTVSPropertyOp53
 70
     1
102
RTVSPropertyOp54
 70
     1
102
RTVSPropertyOp55
 70
     1
102
RTVSPropertyOp56
 70
     1
102
RTVSPropertyOp57
 70
     1
102
RTVSPropertyOp58
 70
     1
102
RTVSPropertyOp59
 70
     1
102
RTVSPropertyOp60
 70
     1
102
RTVSPropertyOp61
 70
     1
102
RTVSPropertyOp62
 70
     1
  0
XRECORD
  5
A30B
102
{ACAD_REACTORS
330
A30A
102
}
330
A30A
100
AcDbXrecord
280
     1
102
RTVSPost2010Prop28
280
     0
102
RTVSPost2010PropOp28
 70
     1
102
RTVSPost2010Prop29
280
     1
102
RTVSPost2010PropOp29
 70
     1
102
RTVSPost2010Prop30
280
     1
102
RTVSPost2010PropOp30
 70
     1
102
RTVSPost2010Prop31
280
     0
102
RTVSPost2010PropOp31
 70
     1
102
RTVSPost2010Prop32
280
     0
102
RTVSPost2010PropOp32
 70
     1
102
RTVSPost2010Prop33
280
     0
102
RTVSPost2010PropOp33
 70
     1
102
RTVSPost2010Prop34
280
     0
102
RTVSPost2010PropOp34
 70
     1
102
RTVSPost2010Prop35
280
     0
102
RTVSPost2010PropOp35
 70
     1
102
RTVSPost2010Prop36
280
     0
102
RTVSPost2010PropOp36
 70
     1
102
RTVSPost2010Prop37
 90
       50
102
RTVSPost2010PropOp37
 70
     1
102
RTVSPost2010Prop38
140
0.0
102
RTVSPost2010PropOp38
 70
     1
102
RTVSPost2010Prop39
140
1.0
102
RTVSPost2010PropOp39
 70
     1
102
RTVSPost2010Prop40
 90
        0
102
RTVSPost2010PropOp40
 70
     1
102
RTVSPost2010Prop41ColorIndex
 90
       18
102
RTVSPost2010Prop41ColorRGB
 90
        0
102
RTVSPost2010PropOp41
 70
     1
102
RTVSPost2010Prop42
 90
       50
102
RTVSPost2010PropOp42
 70
     1
102
RTVSPost2010Prop43
 90
        3
102
RTVSPost2010PropOp43
 70
     1
102
RTVSPost2010Prop44ColorIndex
 90
        5
102
RTVSPost2010Prop44ColorRGB
 90
      255
102
RTVSPost2010PropOp44
 70
     1
102
RTVSPost2010Prop45
280
     0
102
RTVSPost2010PropOp45
 70
     1
102
RTVSPost2010Prop46
 90
       50
102
RTVSPost2010PropOp46
 70
     1
102
RTVSPost2010Prop47
 90
       50
102
RTVSPost2010PropOp47
 70
     1
102
RTVSPost2010Prop48
 90
       50
102
RTVSPost2010PropOp48
 70
     1
102
RTVSPost2010Prop49
280
     0
102
RTVSPost2010PropOp49
 70
     1
102
RTVSPost2010Prop50
 90
       50
102
RTVSPost2010PropOp50
 70
     1
102
RTVSPost2010Prop51ColorIndex
 90
      256
102
RTVSPost2010Prop51ColorRGB
 90
-16777216
102
RTVSPost2010PropOp51
 70
     0
102
RTVSPost2010Prop52
140
1.0
102
RTVSPost2010PropOp52
 70
     0
102
RTVSPost2010Prop53
 90
        2
102
RTVSPost2010PropOp53
 70
     1
102
RTVSPost2010Prop54
  1
strokes_ogs.tif
102
RTVSPost2010PropOp54
 70
     1
102
RTVSPost2010Prop55
280
     0
102
RTVSPost2010PropOp55
 70
     1
102
RTVSPost2010Prop56
140
1.0
102
RTVSPost2010PropOp56
 70
     1
102
RTVSPost2010Prop57
140
1.0
102
RTVSPost2010PropOp57
 70
     1
102
RTVSPropertyOp0
 70
     1
102
RTVSPropertyOp1
 70
     1
102
RTVSPropertyOp2
 70
     1
102
RTVSPropertyOp3
 70
     1
102
RTVSPropertyOp4
 70
     1
102
RTVSPropertyOp5
 70
     1
102
RTVSPropertyOp6
 70
     1
102
RTVSPropertyOp7
 70
     1
102
RTVSPropertyOp8
 70
     1
102
RTVSPropertyOp9
 70
     1
102
RTVSPropertyOp10
 70
     1
102
RTVSPropertyOp11
 70
     1
102
RTVSPropertyOp12
 70
     1
102
RTVSPropertyOp13
 70
     1
102
RTVSPropertyOp14
 70
     1
102
RTVSPropertyOp15
 70
     1
102
RTVSPropertyOp16
 70
     1
102
RTVSPropertyOp17
 70
     1
102
RTVSPropertyOp18
 70
     1
102
RTVSPropertyOp19
 70
     1
102
RTVSPropertyOp20
 70
     1
102
RTVSPropertyOp21
 70
     1
102
RTVSPropertyOp22
 70
     1
102
RTVSPropertyOp23
 70
     1
102
RTVSPropertyOp24
 70
     1
102
RTVSPropertyOp25
 70
     1
102
RTVSPropertyOp26
 70
     1
102
RTVSPropertyOp27
 70
     1
102
RTVSPropertyOp28
 70
     1
102
RTVSPropertyOp29
 70
     1
102
RTVSPropertyOp30
 70
     1
102
RTVSPropertyOp31
 70
     1
102
RTVSPropertyOp32
 70
     1
102
RTVSPropertyOp33
 70
     1
102
RTVSPropertyOp34
 70
     1
102
RTVSPropertyOp35
 70
     1
102
RTVSPropertyOp36
 70
     1
102
RTVSPropertyOp37
 70
     1
102
RTVSPropertyOp38
 70
     1
102
RTVSPropertyOp39
 70
     1
102
RTVSPropertyOp40
 70
     1
102
RTVSPropertyOp41
 70
     1
102
RTVSPropertyOp42
 70
     1
102
RTVSPropertyOp43
 70
     1
102
RTVSPropertyOp44
 70
     1
102
RTVSPropertyOp45
 70
     1
102
RTVSPropertyOp46
 70
     1
102
RTVSPropertyOp47
 70
     1
102
RTVSPropertyOp48
 70
     1
102
RTVSPropertyOp49
 70
     1
102
RTVSPropertyOp50
 70
     1
102
RTVSPropertyOp51
 70
     0
102
RTVSPropertyOp52
 70
     0
102
RTVSPropertyOp53
 70
     1
102
RTVSPropertyOp54
 70
     1
102
RTVSPropertyOp55
 70
     1
102
RTVSPropertyOp56
 70
     1
102
RTVSPropertyOp57
 70
     1
102
RTVSPropertyOp58
 70
     1
102
RTVSPropertyOp59
 70
     1
102
RTVSPropertyOp60
 70
     1
102
RTVSPropertyOp61
 70
     1
102
RTVSPropertyOp62
 70
     1
  0
XRECORD
  5
A2FD
102
{ACAD_REACTORS
330
A2FC
102
}
330
A2FC
100
AcDbXrecord
280
     1
102
RTVSPost2010Prop28
280
     0
102
RTVSPost2010PropOp28
 70
     1
102
RTVSPost2010Prop29
280
     1
102
RTVSPost2010PropOp29
 70
     1
102
RTVSPost2010Prop30
280
     1
102
RTVSPost2010PropOp30
 70
     1
102
RTVSPost2010Prop31
280
     0
102
RTVSPost2010PropOp31
 70
     1
102
RTVSPost2010Prop32
280
     0
102
RTVSPost2010PropOp32
 70
     1
102
RTVSPost2010Prop33
280
     0
102
RTVSPost2010PropOp33
 70
     1
102
RTVSPost2010Prop34
280
     0
102
RTVSPost2010PropOp34
 70
     1
102
RTVSPost2010Prop35
280
     0
102
RTVSPost2010PropOp35
 70
     1
102
RTVSPost2010Prop36
280
     0
102
RTVSPost2010PropOp36
 70
     1
102
RTVSPost2010Prop37
 90
       50
102
RTVSPost2010PropOp37
 70
     1
102
RTVSPost2010Prop38
140
0.0
102
RTVSPost2010PropOp38
 70
     1
102
RTVSPost2010Prop39
140
1.0
102
RTVSPost2010PropOp39
 70
     1
102
RTVSPost2010Prop40
 90
        0
102
RTVSPost2010PropOp40
 70
     1
102
RTVSPost2010Prop41ColorIndex
 90
       18
102
RTVSPost2010Prop41ColorRGB
 90
        0
102
RTVSPost2010PropOp41
 70
     1
102
RTVSPost2010Prop42
 90
       50
102
RTVSPost2010PropOp42
 70
     1
102
RTVSPost2010Prop43
 90
        3
102
RTVSPost2010PropOp43
 70
     1
102
RTVSPost2010Prop44ColorIndex
 90
        5
102
RTVSPost2010Prop44ColorRGB
 90
      255
102
RTVSPost2010PropOp44
 70
     1
102
RTVSPost2010Prop45
280
     0
102
RTVSPost2010PropOp45
 70
     1
102
RTVSPost2010Prop46
 90
       50
102
RTVSPost2010PropOp46
 70
     1
102
RTVSPost2010Prop47
 90
       50
102
RTVSPost2010PropOp47
 70
     1
102
RTVSPost2010Prop48
 90
       50
102
RTVSPost2010PropOp48
 70
     1
102
RTVSPost2010Prop49
280
     0
102
RTVSPost2010PropOp49
 70
     1
102
RTVSPost2010Prop50
 90
       50
102
RTVSPost2010PropOp50
 70
     1
102
RTVSPost2010Prop51ColorIndex
 90
      256
102
RTVSPost2010Prop51ColorRGB
 90
-16777216
102
RTVSPost2010PropOp51
 70
     0
102
RTVSPost2010Prop52
140
1.0
102
RTVSPost2010PropOp52
 70
     0
102
RTVSPost2010Prop53
 90
        2
102
RTVSPost2010PropOp53
 70
     1
102
RTVSPost2010Prop54
  1
strokes_ogs.tif
102
RTVSPost2010PropOp54
 70
     1
102
RTVSPost2010Prop55
280
     0
102
RTVSPost2010PropOp55
 70
     1
102
RTVSPost2010Prop56
140
1.0
102
RTVSPost2010PropOp56
 70
     1
102
RTVSPost2010Prop57
140
1.0
102
RTVSPost2010PropOp57
 70
     1
102
RTVSPropertyOp0
 70
     1
102
RTVSPropertyOp1
 70
     1
102
RTVSPropertyOp2
 70
     1
102
RTVSPropertyOp3
 70
     1
102
RTVSPropertyOp4
 70
     1
102
RTVSPropertyOp5
 70
     1
102
RTVSPropertyOp6
 70
     1
102
RTVSPropertyOp7
 70
     1
102
RTVSPropertyOp8
 70
     1
102
RTVSPropertyOp9
 70
     1
102
RTVSPropertyOp10
 70
     1
102
RTVSPropertyOp11
 70
     1
102
RTVSPropertyOp12
 70
     1
102
RTVSPropertyOp13
 70
     1
102
RTVSPropertyOp14
 70
     1
102
RTVSPropertyOp15
 70
     1
102
RTVSPropertyOp16
 70
     1
102
RTVSPropertyOp17
 70
     1
102
RTVSPropertyOp18
 70
     1
102
RTVSPropertyOp19
 70
     1
102
RTVSPropertyOp20
 70
     1
102
RTVSPropertyOp21
 70
     1
102
RTVSPropertyOp22
 70
     1
102
RTVSPropertyOp23
 70
     1
102
RTVSPropertyOp24
 70
     1
102
RTVSPropertyOp25
 70
     1
102
RTVSPropertyOp26
 70
     1
102
RTVSPropertyOp27
 70
     1
102
RTVSPropertyOp28
 70
     1
102
RTVSPropertyOp29
 70
     1
102
RTVSPropertyOp30
 70
     1
102
RTVSPropertyOp31
 70
     1
102
RTVSPropertyOp32
 70
     1
102
RTVSPropertyOp33
 70
     1
102
RTVSPropertyOp34
 70
     1
102
RTVSPropertyOp35
 70
     1
102
RTVSPropertyOp36
 70
     1
102
RTVSPropertyOp37
 70
     1
102
RTVSPropertyOp38
 70
     1
102
RTVSPropertyOp39
 70
     1
102
RTVSPropertyOp40
 70
     1
102
RTVSPropertyOp41
 70
     1
102
RTVSPropertyOp42
 70
     1
102
RTVSPropertyOp43
 70
     1
102
RTVSPropertyOp44
 70
     1
102
RTVSPropertyOp45
 70
     1
102
RTVSPropertyOp46
 70
     1
102
RTVSPropertyOp47
 70
     1
102
RTVSPropertyOp48
 70
     1
102
RTVSPropertyOp49
 70
     1
102
RTVSPropertyOp50
 70
     1
102
RTVSPropertyOp51
 70
     0
102
RTVSPropertyOp52
 70
     0
102
RTVSPropertyOp53
 70
     1
102
RTVSPropertyOp54
 70
     1
102
RTVSPropertyOp55
 70
     1
102
RTVSPropertyOp56
 70
     1
102
RTVSPropertyOp57
 70
     1
102
RTVSPropertyOp58
 70
     1
102
RTVSPropertyOp59
 70
     1
102
RTVSPropertyOp60
 70
     1
102
RTVSPropertyOp61
 70
     1
102
RTVSPropertyOp62
 70
     1
  0
XRECORD
  5
A301
102
{ACAD_REACTORS
330
A300
102
}
330
A300
100
AcDbXrecord
280
     1
102
RTVSPost2010Prop28
280
     0
102
RTVSPost2010PropOp28
 70
     1
102
RTVSPost2010Prop29
280
     1
102
RTVSPost2010PropOp29
 70
     1
102
RTVSPost2010Prop30
280
     1
102
RTVSPost2010PropOp30
 70
     1
102
RTVSPost2010Prop31
280
     0
102
RTVSPost2010PropOp31
 70
     1
102
RTVSPost2010Prop32
280
     0
102
RTVSPost2010PropOp32
 70
     1
102
RTVSPost2010Prop33
280
     0
102
RTVSPost2010PropOp33
 70
     1
102
RTVSPost2010Prop34
280
     0
102
RTVSPost2010PropOp34
 70
     1
102
RTVSPost2010Prop35
280
     0
102
RTVSPost2010PropOp35
 70
     1
102
RTVSPost2010Prop36
280
     0
102
RTVSPost2010PropOp36
 70
     1
102
RTVSPost2010Prop37
 90
       50
102
RTVSPost2010PropOp37
 70
     1
102
RTVSPost2010Prop38
140
0.0
102
RTVSPost2010PropOp38
 70
     1
102
RTVSPost2010Prop39
140
1.0
102
RTVSPost2010PropOp39
 70
     1
102
RTVSPost2010Prop40
 90
        0
102
RTVSPost2010PropOp40
 70
     1
102
RTVSPost2010Prop41ColorIndex
 90
       18
102
RTVSPost2010Prop41ColorRGB
 90
        0
102
RTVSPost2010PropOp41
 70
     1
102
RTVSPost2010Prop42
 90
       50
102
RTVSPost2010PropOp42
 70
     1
102
RTVSPost2010Prop43
 90
        3
102
RTVSPost2010PropOp43
 70
     1
102
RTVSPost2010Prop44ColorIndex
 90
        5
102
RTVSPost2010Prop44ColorRGB
 90
      255
102
RTVSPost2010PropOp44
 70
     1
102
RTVSPost2010Prop45
280
     0
102
RTVSPost2010PropOp45
 70
     1
102
RTVSPost2010Prop46
 90
       50
102
RTVSPost2010PropOp46
 70
     1
102
RTVSPost2010Prop47
 90
       50
102
RTVSPost2010PropOp47
 70
     1
102
RTVSPost2010Prop48
 90
       50
102
RTVSPost2010PropOp48
 70
     1
102
RTVSPost2010Prop49
280
     0
102
RTVSPost2010PropOp49
 70
     1
102
RTVSPost2010Prop50
 90
       50
102
RTVSPost2010PropOp50
 70
     1
102
RTVSPost2010Prop51ColorIndex
 90
      256
102
RTVSPost2010Prop51ColorRGB
 90
-16777216
102
RTVSPost2010PropOp51
 70
     0
102
RTVSPost2010Prop52
140
1.0
102
RTVSPost2010PropOp52
 70
     0
102
RTVSPost2010Prop53
 90
        2
102
RTVSPost2010PropOp53
 70
     1
102
RTVSPost2010Prop54
  1
strokes_ogs.tif
102
RTVSPost2010PropOp54
 70
     1
102
RTVSPost2010Prop55
280
     0
102
RTVSPost2010PropOp55
 70
     1
102
RTVSPost2010Prop56
140
1.0
102
RTVSPost2010PropOp56
 70
     1
102
RTVSPost2010Prop57
140
1.0
102
RTVSPost2010PropOp57
 70
     1
102
RTVSPropertyOp0
 70
     1
102
RTVSPropertyOp1
 70
     1
102
RTVSPropertyOp2
 70
     1
102
RTVSPropertyOp3
 70
     1
102
RTVSPropertyOp4
 70
     1
102
RTVSPropertyOp5
 70
     1
102
RTVSPropertyOp6
 70
     1
102
RTVSPropertyOp7
 70
     1
102
RTVSPropertyOp8
 70
     1
102
RTVSPropertyOp9
 70
     1
102
RTVSPropertyOp10
 70
     1
102
RTVSPropertyOp11
 70
     1
102
RTVSPropertyOp12
 70
     1
102
RTVSPropertyOp13
 70
     1
102
RTVSPropertyOp14
 70
     1
102
RTVSPropertyOp15
 70
     1
102
RTVSPropertyOp16
 70
     1
102
RTVSPropertyOp17
 70
     1
102
RTVSPropertyOp18
 70
     1
102
RTVSPropertyOp19
 70
     1
102
RTVSPropertyOp20
 70
     1
102
RTVSPropertyOp21
 70
     1
102
RTVSPropertyOp22
 70
     1
102
RTVSPropertyOp23
 70
     1
102
RTVSPropertyOp24
 70
     1
102
RTVSPropertyOp25
 70
     1
102
RTVSPropertyOp26
 70
     1
102
RTVSPropertyOp27
 70
     1
102
RTVSPropertyOp28
 70
     1
102
RTVSPropertyOp29
 70
     1
102
RTVSPropertyOp30
 70
     1
102
RTVSPropertyOp31
 70
     1
102
RTVSPropertyOp32
 70
     1
102
RTVSPropertyOp33
 70
     1
102
RTVSPropertyOp34
 70
     1
102
RTVSPropertyOp35
 70
     1
102
RTVSPropertyOp36
 70
     1
102
RTVSPropertyOp37
 70
     1
102
RTVSPropertyOp38
 70
     1
102
RTVSPropertyOp39
 70
     1
102
RTVSPropertyOp40
 70
     1
102
RTVSPropertyOp41
 70
     1
102
RTVSPropertyOp42
 70
     1
102
RTVSPropertyOp43
 70
     1
102
RTVSPropertyOp44
 70
     1
102
RTVSPropertyOp45
 70
     1
102
RTVSPropertyOp46
 70
     1
102
RTVSPropertyOp47
 70
     1
102
RTVSPropertyOp48
 70
     1
102
RTVSPropertyOp49
 70
     1
102
RTVSPropertyOp50
 70
     1
102
RTVSPropertyOp51
 70
     0
102
RTVSPropertyOp52
 70
     0
102
RTVSPropertyOp53
 70
     1
102
RTVSPropertyOp54
 70
     1
102
RTVSPropertyOp55
 70
     1
102
RTVSPropertyOp56
 70
     1
102
RTVSPropertyOp57
 70
     1
102
RTVSPropertyOp58
 70
     1
102
RTVSPropertyOp59
 70
     1
102
RTVSPropertyOp60
 70
     1
102
RTVSPropertyOp61
 70
     1
102
RTVSPropertyOp62
 70
     1
  0
XRECORD
  5
A31B
102
{ACAD_REACTORS
330
A31A
102
}
330
A31A
100
AcDbXrecord
280
     1
102
RTVSPost2010Prop28
280
     0
102
RTVSPost2010PropOp28
 70
     1
102
RTVSPost2010Prop29
280
     1
102
RTVSPost2010PropOp29
 70
     1
102
RTVSPost2010Prop30
280
     1
102
RTVSPost2010PropOp30
 70
     1
102
RTVSPost2010Prop31
280
     0
102
RTVSPost2010PropOp31
 70
     1
102
RTVSPost2010Prop32
280
     0
102
RTVSPost2010PropOp32
 70
     1
102
RTVSPost2010Prop33
280
     0
102
RTVSPost2010PropOp33
 70
     1
102
RTVSPost2010Prop34
280
     0
102
RTVSPost2010PropOp34
 70
     1
102
RTVSPost2010Prop35
280
     0
102
RTVSPost2010PropOp35
 70
     1
102
RTVSPost2010Prop36
280
     0
102
RTVSPost2010PropOp36
 70
     1
102
RTVSPost2010Prop37
 90
       50
102
RTVSPost2010PropOp37
 70
     0
102
RTVSPost2010Prop38
140
0.0
102
RTVSPost2010PropOp38
 70
     0
102
RTVSPost2010Prop39
140
1.0
102
RTVSPost2010PropOp39
 70
     0
102
RTVSPost2010Prop40
 90
        0
102
RTVSPost2010PropOp40
 70
     0
102
RTVSPost2010Prop41ColorIndex
 90
       18
102
RTVSPost2010Prop41ColorRGB
 90
        0
102
RTVSPost2010PropOp41
 70
     0
102
RTVSPost2010Prop42
 90
       50
102
RTVSPost2010PropOp42
 70
     0
102
RTVSPost2010Prop43
 90
        3
102
RTVSPost2010PropOp43
 70
     0
102
RTVSPost2010Prop44ColorIndex
 90
        5
102
RTVSPost2010Prop44ColorRGB
 90
      255
102
RTVSPost2010PropOp44
 70
     0
102
RTVSPost2010Prop45
280
     0
102
RTVSPost2010PropOp45
 70
     1
102
RTVSPost2010Prop46
 90
       50
102
RTVSPost2010PropOp46
 70
     0
102
RTVSPost2010Prop47
 90
       50
102
RTVSPost2010PropOp47
 70
     0
102
RTVSPost2010Prop48
 90
       50
102
RTVSPost2010PropOp48
 70
     0
102
RTVSPost2010Prop49
280
     0
102
RTVSPost2010PropOp49
 70
     1
102
RTVSPost2010Prop50
 90
       50
102
RTVSPost2010PropOp50
 70
     0
102
RTVSPost2010Prop51ColorIndex
 90
      256
102
RTVSPost2010Prop51ColorRGB
 90
-16777216
102
RTVSPost2010PropOp51
 70
     0
102
RTVSPost2010Prop52
140
1.0
102
RTVSPost2010PropOp52
 70
     0
102
RTVSPost2010Prop53
 90
        2
102
RTVSPost2010PropOp53
 70
     0
102
RTVSPost2010Prop54
  1
strokes_ogs.tif
102
RTVSPost2010PropOp54
 70
     0
102
RTVSPost2010Prop55
280
     0
102
RTVSPost2010PropOp55
 70
     1
102
RTVSPost2010Prop56
140
1.0
102
RTVSPost2010PropOp56
 70
     0
102
RTVSPost2010Prop57
140
1.0
102
RTVSPost2010PropOp57
 70
     0
102
RTVSPropertyOp0
 70
     0
102
RTVSPropertyOp1
 70
     0
102
RTVSPropertyOp2
 70
     0
102
RTVSPropertyOp3
 70
     0
102
RTVSPropertyOp4
 70
     0
102
RTVSPropertyOp5
 70
     0
102
RTVSPropertyOp6
 70
     0
102
RTVSPropertyOp7
 70
     0
102
RTVSPropertyOp8
 70
     0
102
RTVSPropertyOp9
 70
     0
102
RTVSPropertyOp10
 70
     0
102
RTVSPropertyOp11
 70
     0
102
RTVSPropertyOp12
 70
     0
102
RTVSPropertyOp13
 70
     0
102
RTVSPropertyOp14
 70
     2
102
RTVSPropertyOp15
 70
     0
102
RTVSPropertyOp16
 70
     0
102
RTVSPropertyOp17
 70
     0
102
RTVSPropertyOp18
 70
     0
102
RTVSPropertyOp19
 70
     0
102
RTVSPropertyOp20
 70
     0
102
RTVSPropertyOp21
 70
     0
102
RTVSPropertyOp22
 70
     0
102
RTVSPropertyOp23
 70
     0
102
RTVSPropertyOp24
 70
     0
102
RTVSPropertyOp25
 70
     0
102
RTVSPropertyOp26
 70
     0
102
RTVSPropertyOp27
 70
     0
102
RTVSPropertyOp28
 70
     1
102
RTVSPropertyOp29
 70
     1
102
RTVSPropertyOp30
 70
     1
102
RTVSPropertyOp31
 70
     1
102
RTVSPropertyOp32
 70
     1
102
RTVSPropertyOp33
 70
     1
102
RTVSPropertyOp34
 70
     1
102
RTVSPropertyOp35
 70
     1
102
RTVSPropertyOp36
 70
     1
102
RTVSPropertyOp37
 70
     0
102
RTVSPropertyOp38
 70
     0
102
RTVSPropertyOp39
 70
     0
102
RTVSPropertyOp40
 70
     0
102
RTVSPropertyOp41
 70
     0
102
RTVSPropertyOp42
 70
     0
102
RTVSPropertyOp43
 70
     0
102
RTVSPropertyOp44
 70
     0
102
RTVSPropertyOp45
 70
     1
102
RTVSPropertyOp46
 70
     0
102
RTVSPropertyOp47
 70
     0
102
RTVSPropertyOp48
 70
     0
102
RTVSPropertyOp49
 70
     1
102
RTVSPropertyOp50
 70
     0
102
RTVSPropertyOp51
 70
     0
102
RTVSPropertyOp52
 70
     0
102
RTVSPropertyOp53
 70
     0
102
RTVSPropertyOp54
 70
     0
102
RTVSPropertyOp55
 70
     1
102
RTVSPropertyOp56
 70
     0
102
RTVSPropertyOp57
 70
     0
102
RTVSPropertyOp58
 70
     0
102
RTVSPropertyOp59
 70
     0
102
RTVSPropertyOp60
 70
     0
102
RTVSPropertyOp61
 70
     0
102
RTVSPropertyOp62
 70
     0
  0
XRECORD
  5
A309
102
{ACAD_REACTORS
330
A308
102
}
330
A308
100
AcDbXrecord
280
     1
102
RTVSPost2010Prop28
280
     0
102
RTVSPost2010PropOp28
 70
     1
102
RTVSPost2010Prop29
280
     1
102
RTVSPost2010PropOp29
 70
     1
102
RTVSPost2010Prop30
280
     1
102
RTVSPost2010PropOp30
 70
     1
102
RTVSPost2010Prop31
280
     0
102
RTVSPost2010PropOp31
 70
     1
102
RTVSPost2010Prop32
280
     0
102
RTVSPost2010PropOp32
 70
     1
102
RTVSPost2010Prop33
280
     0
102
RTVSPost2010PropOp33
 70
     1
102
RTVSPost2010Prop34
280
     0
102
RTVSPost2010PropOp34
 70
     1
102
RTVSPost2010Prop35
280
     0
102
RTVSPost2010PropOp35
 70
     1
102
RTVSPost2010Prop36
280
     0
102
RTVSPost2010PropOp36
 70
     1
102
RTVSPost2010Prop37
 90
       50
102
RTVSPost2010PropOp37
 70
     1
102
RTVSPost2010Prop38
140
0.0
102
RTVSPost2010PropOp38
 70
     1
102
RTVSPost2010Prop39
140
1.0
102
RTVSPost2010PropOp39
 70
     1
102
RTVSPost2010Prop40
 90
        0
102
RTVSPost2010PropOp40
 70
     1
102
RTVSPost2010Prop41ColorIndex
 90
       18
102
RTVSPost2010Prop41ColorRGB
 90
        0
102
RTVSPost2010PropOp41
 70
     1
102
RTVSPost2010Prop42
 90
       50
102
RTVSPost2010PropOp42
 70
     1
102
RTVSPost2010Prop43
 90
        3
102
RTVSPost2010PropOp43
 70
     1
102
RTVSPost2010Prop44ColorIndex
 90
        5
102
RTVSPost2010Prop44ColorRGB
 90
      255
102
RTVSPost2010PropOp44
 70
     1
102
RTVSPost2010Prop45
280
     0
102
RTVSPost2010PropOp45
 70
     1
102
RTVSPost2010Prop46
 90
       50
102
RTVSPost2010PropOp46
 70
     1
102
RTVSPost2010Prop47
 90
       50
102
RTVSPost2010PropOp47
 70
     1
102
RTVSPost2010Prop48
 90
       50
102
RTVSPost2010PropOp48
 70
     1
102
RTVSPost2010Prop49
280
     0
102
RTVSPost2010PropOp49
 70
     1
102
RTVSPost2010Prop50
 90
       50
102
RTVSPost2010PropOp50
 70
     1
102
RTVSPost2010Prop51ColorIndex
 90
      256
102
RTVSPost2010Prop51ColorRGB
 90
-16777216
102
RTVSPost2010PropOp51
 70
     0
102
RTVSPost2010Prop52
140
1.0
102
RTVSPost2010PropOp52
 70
     0
102
RTVSPost2010Prop53
 90
        2
102
RTVSPost2010PropOp53
 70
     1
102
RTVSPost2010Prop54
  1
strokes_ogs.tif
102
RTVSPost2010PropOp54
 70
     1
102
RTVSPost2010Prop55
280
     0
102
RTVSPost2010PropOp55
 70
     1
102
RTVSPost2010Prop56
140
1.0
102
RTVSPost2010PropOp56
 70
     1
102
RTVSPost2010Prop57
140
1.0
102
RTVSPost2010PropOp57
 70
     1
102
RTVSPropertyOp0
 70
     1
102
RTVSPropertyOp1
 70
     1
102
RTVSPropertyOp2
 70
     1
102
RTVSPropertyOp3
 70
     1
102
RTVSPropertyOp4
 70
     1
102
RTVSPropertyOp5
 70
     1
102
RTVSPropertyOp6
 70
     1
102
RTVSPropertyOp7
 70
     1
102
RTVSPropertyOp8
 70
     1
102
RTVSPropertyOp9
 70
     1
102
RTVSPropertyOp10
 70
     1
102
RTVSPropertyOp11
 70
     1
102
RTVSPropertyOp12
 70
     1
102
RTVSPropertyOp13
 70
     1
102
RTVSPropertyOp14
 70
     1
102
RTVSPropertyOp15
 70
     1
102
RTVSPropertyOp16
 70
     1
102
RTVSPropertyOp17
 70
     1
102
RTVSPropertyOp18
 70
     1
102
RTVSPropertyOp19
 70
     1
102
RTVSPropertyOp20
 70
     1
102
RTVSPropertyOp21
 70
     1
102
RTVSPropertyOp22
 70
     1
102
RTVSPropertyOp23
 70
     1
102
RTVSPropertyOp24
 70
     1
102
RTVSPropertyOp25
 70
     1
102
RTVSPropertyOp26
 70
     1
102
RTVSPropertyOp27
 70
     1
102
RTVSPropertyOp28
 70
     1
102
RTVSPropertyOp29
 70
     1
102
RTVSPropertyOp30
 70
     1
102
RTVSPropertyOp31
 70
     1
102
RTVSPropertyOp32
 70
     1
102
RTVSPropertyOp33
 70
     1
102
RTVSPropertyOp34
 70
     1
102
RTVSPropertyOp35
 70
     1
102
RTVSPropertyOp36
 70
     1
102
RTVSPropertyOp37
 70
     1
102
RTVSPropertyOp38
 70
     1
102
RTVSPropertyOp39
 70
     1
102
RTVSPropertyOp40
 70
     1
102
RTVSPropertyOp41
 70
     1
102
RTVSPropertyOp42
 70
     1
102
RTVSPropertyOp43
 70
     1
102
RTVSPropertyOp44
 70
     1
102
RTVSPropertyOp45
 70
     1
102
RTVSPropertyOp46
 70
     1
102
RTVSPropertyOp47
 70
     1
102
RTVSPropertyOp48
 70
     1
102
RTVSPropertyOp49
 70
     1
102
RTVSPropertyOp50
 70
     1
102
RTVSPropertyOp51
 70
     0
102
RTVSPropertyOp52
 70
     0
102
RTVSPropertyOp53
 70
     1
102
RTVSPropertyOp54
 70
     1
102
RTVSPropertyOp55
 70
     1
102
RTVSPropertyOp56
 70
     1
102
RTVSPropertyOp57
 70
     1
102
RTVSPropertyOp58
 70
     1
102
RTVSPropertyOp59
 70
     1
102
RTVSPropertyOp60
 70
     1
102
RTVSPropertyOp61
 70
     1
102
RTVSPropertyOp62
 70
     1
  0
XRECORD
  5
A2ED
102
{ACAD_REACTORS
330
A2EC
102
}
330
A2EC
100
AcDbXrecord
280
     1
102
RTVSPost2010Prop28
280
     0
102
RTVSPost2010PropOp28
 70
     1
102
RTVSPost2010Prop29
280
     1
102
RTVSPost2010PropOp29
 70
     1
102
RTVSPost2010Prop30
280
     1
102
RTVSPost2010PropOp30
 70
     1
102
RTVSPost2010Prop31
280
     0
102
RTVSPost2010PropOp31
 70
     1
102
RTVSPost2010Prop32
280
     0
102
RTVSPost2010PropOp32
 70
     1
102
RTVSPost2010Prop33
280
     0
102
RTVSPost2010PropOp33
 70
     1
102
RTVSPost2010Prop34
280
     0
102
RTVSPost2010PropOp34
 70
     1
102
RTVSPost2010Prop35
280
     0
102
RTVSPost2010PropOp35
 70
     1
102
RTVSPost2010Prop36
280
     0
102
RTVSPost2010PropOp36
 70
     1
102
RTVSPost2010Prop37
 90
       50
102
RTVSPost2010PropOp37
 70
     1
102
RTVSPost2010Prop38
140
0.0
102
RTVSPost2010PropOp38
 70
     1
102
RTVSPost2010Prop39
140
1.0
102
RTVSPost2010PropOp39
 70
     1
102
RTVSPost2010Prop40
 90
        0
102
RTVSPost2010PropOp40
 70
     1
102
RTVSPost2010Prop41ColorIndex
 90
       18
102
RTVSPost2010Prop41ColorRGB
 90
        0
102
RTVSPost2010PropOp41
 70
     1
102
RTVSPost2010Prop42
 90
       50
102
RTVSPost2010PropOp42
 70
     1
102
RTVSPost2010Prop43
 90
        3
102
RTVSPost2010PropOp43
 70
     1
102
RTVSPost2010Prop44ColorIndex
 90
        5
102
RTVSPost2010Prop44ColorRGB
 90
      255
102
RTVSPost2010PropOp44
 70
     1
102
RTVSPost2010Prop45
280
     0
102
RTVSPost2010PropOp45
 70
     1
102
RTVSPost2010Prop46
 90
       50
102
RTVSPost2010PropOp46
 70
     1
102
RTVSPost2010Prop47
 90
       50
102
RTVSPost2010PropOp47
 70
     1
102
RTVSPost2010Prop48
 90
       50
102
RTVSPost2010PropOp48
 70
     1
102
RTVSPost2010Prop49
280
     0
102
RTVSPost2010PropOp49
 70
     1
102
RTVSPost2010Prop50
 90
       50
102
RTVSPost2010PropOp50
 70
     1
102
RTVSPost2010Prop51ColorIndex
 90
      256
102
RTVSPost2010Prop51ColorRGB
 90
-16777216
102
RTVSPost2010PropOp51
 70
     0
102
RTVSPost2010Prop52
140
1.0
102
RTVSPost2010PropOp52
 70
     0
102
RTVSPost2010Prop53
 90
        2
102
RTVSPost2010PropOp53
 70
     1
102
RTVSPost2010Prop54
  1
strokes_ogs.tif
102
RTVSPost2010PropOp54
 70
     1
102
RTVSPost2010Prop55
280
     0
102
RTVSPost2010PropOp55
 70
     1
102
RTVSPost2010Prop56
140
1.0
102
RTVSPost2010PropOp56
 70
     1
102
RTVSPost2010Prop57
140
1.0
102
RTVSPost2010PropOp57
 70
     1
102
RTVSPropertyOp0
 70
     1
102
RTVSPropertyOp1
 70
     1
102
RTVSPropertyOp2
 70
     1
102
RTVSPropertyOp3
 70
     1
102
RTVSPropertyOp4
 70
     1
102
RTVSPropertyOp5
 70
     1
102
RTVSPropertyOp6
 70
     1
102
RTVSPropertyOp7
 70
     1
102
RTVSPropertyOp8
 70
     1
102
RTVSPropertyOp9
 70
     1
102
RTVSPropertyOp10
 70
     1
102
RTVSPropertyOp11
 70
     1
102
RTVSPropertyOp12
 70
     1
102
RTVSPropertyOp13
 70
     1
102
RTVSPropertyOp14
 70
     1
102
RTVSPropertyOp15
 70
     1
102
RTVSPropertyOp16
 70
     1
102
RTVSPropertyOp17
 70
     1
102
RTVSPropertyOp18
 70
     1
102
RTVSPropertyOp19
 70
     1
102
RTVSPropertyOp20
 70
     1
102
RTVSPropertyOp21
 70
     1
102
RTVSPropertyOp22
 70
     1
102
RTVSPropertyOp23
 70
     1
102
RTVSPropertyOp24
 70
     1
102
RTVSPropertyOp25
 70
     1
102
RTVSPropertyOp26
 70
     1
102
RTVSPropertyOp27
 70
     1
102
RTVSPropertyOp28
 70
     1
102
RTVSPropertyOp29
 70
     1
102
RTVSPropertyOp30
 70
     1
102
RTVSPropertyOp31
 70
     1
102
RTVSPropertyOp32
 70
     1
102
RTVSPropertyOp33
 70
     1
102
RTVSPropertyOp34
 70
     1
102
RTVSPropertyOp35
 70
     1
102
RTVSPropertyOp36
 70
     1
102
RTVSPropertyOp37
 70
     1
102
RTVSPropertyOp38
 70
     1
102
RTVSPropertyOp39
 70
     1
102
RTVSPropertyOp40
 70
     1
102
RTVSPropertyOp41
 70
     1
102
RTVSPropertyOp42
 70
     1
102
RTVSPropertyOp43
 70
     1
102
RTVSPropertyOp44
 70
     1
102
RTVSPropertyOp45
 70
     1
102
RTVSPropertyOp46
 70
     1
102
RTVSPropertyOp47
 70
     1
102
RTVSPropertyOp48
 70
     1
102
RTVSPropertyOp49
 70
     1
102
RTVSPropertyOp50
 70
     1
102
RTVSPropertyOp51
 70
     0
102
RTVSPropertyOp52
 70
     0
102
RTVSPropertyOp53
 70
     1
102
RTVSPropertyOp54
 70
     1
102
RTVSPropertyOp55
 70
     1
102
RTVSPropertyOp56
 70
     1
102
RTVSPropertyOp57
 70
     1
102
RTVSPropertyOp58
 70
     1
102
RTVSPropertyOp59
 70
     1
102
RTVSPropertyOp60
 70
     1
102
RTVSPropertyOp61
 70
     1
102
RTVSPropertyOp62
 70
     1
  0
XRECORD
  5
A2EF
102
{ACAD_REACTORS
330
A2EE
102
}
330
A2EE
100
AcDbXrecord
280
     1
102
RTVSPost2010Prop28
280
     0
102
RTVSPost2010PropOp28
 70
     1
102
RTVSPost2010Prop29
280
     1
102
RTVSPost2010PropOp29
 70
     1
102
RTVSPost2010Prop30
280
     1
102
RTVSPost2010PropOp30
 70
     1
102
RTVSPost2010Prop31
280
     0
102
RTVSPost2010PropOp31
 70
     1
102
RTVSPost2010Prop32
280
     0
102
RTVSPost2010PropOp32
 70
     1
102
RTVSPost2010Prop33
280
     0
102
RTVSPost2010PropOp33
 70
     1
102
RTVSPost2010Prop34
280
     0
102
RTVSPost2010PropOp34
 70
     1
102
RTVSPost2010Prop35
280
     0
102
RTVSPost2010PropOp35
 70
     1
102
RTVSPost2010Prop36
280
     0
102
RTVSPost2010PropOp36
 70
     1
102
RTVSPost2010Prop37
 90
       50
102
RTVSPost2010PropOp37
 70
     1
102
RTVSPost2010Prop38
140
0.0
102
RTVSPost2010PropOp38
 70
     1
102
RTVSPost2010Prop39
140
1.0
102
RTVSPost2010PropOp39
 70
     1
102
RTVSPost2010Prop40
 90
        0
102
RTVSPost2010PropOp40
 70
     1
102
RTVSPost2010Prop41ColorIndex
 90
       18
102
RTVSPost2010Prop41ColorRGB
 90
        0
102
RTVSPost2010PropOp41
 70
     1
102
RTVSPost2010Prop42
 90
       50
102
RTVSPost2010PropOp42
 70
     1
102
RTVSPost2010Prop43
 90
        3
102
RTVSPost2010PropOp43
 70
     1
102
RTVSPost2010Prop44ColorIndex
 90
        5
102
RTVSPost2010Prop44ColorRGB
 90
      255
102
RTVSPost2010PropOp44
 70
     1
102
RTVSPost2010Prop45
280
     0
102
RTVSPost2010PropOp45
 70
     1
102
RTVSPost2010Prop46
 90
       50
102
RTVSPost2010PropOp46
 70
     1
102
RTVSPost2010Prop47
 90
       50
102
RTVSPost2010PropOp47
 70
     1
102
RTVSPost2010Prop48
 90
       50
102
RTVSPost2010PropOp48
 70
     1
102
RTVSPost2010Prop49
280
     0
102
RTVSPost2010PropOp49
 70
     1
102
RTVSPost2010Prop50
 90
       50
102
RTVSPost2010PropOp50
 70
     1
102
RTVSPost2010Prop51ColorIndex
 90
      256
102
RTVSPost2010Prop51ColorRGB
 90
-16777216
102
RTVSPost2010PropOp51
 70
     0
102
RTVSPost2010Prop52
140
1.0
102
RTVSPost2010PropOp52
 70
     0
102
RTVSPost2010Prop53
 90
        2
102
RTVSPost2010PropOp53
 70
     1
102
RTVSPost2010Prop54
  1
strokes_ogs.tif
102
RTVSPost2010PropOp54
 70
     1
102
RTVSPost2010Prop55
280
     0
102
RTVSPost2010PropOp55
 70
     1
102
RTVSPost2010Prop56
140
1.0
102
RTVSPost2010PropOp56
 70
     1
102
RTVSPost2010Prop57
140
1.0
102
RTVSPost2010PropOp57
 70
     1
102
RTVSPropertyOp0
 70
     1
102
RTVSPropertyOp1
 70
     1
102
RTVSPropertyOp2
 70
     1
102
RTVSPropertyOp3
 70
     1
102
RTVSPropertyOp4
 70
     1
102
RTVSPropertyOp5
 70
     1
102
RTVSPropertyOp6
 70
     1
102
RTVSPropertyOp7
 70
     1
102
RTVSPropertyOp8
 70
     1
102
RTVSPropertyOp9
 70
     1
102
RTVSPropertyOp10
 70
     1
102
RTVSPropertyOp11
 70
     1
102
RTVSPropertyOp12
 70
     1
102
RTVSPropertyOp13
 70
     1
102
RTVSPropertyOp14
 70
     1
102
RTVSPropertyOp15
 70
     1
102
RTVSPropertyOp16
 70
     1
102
RTVSPropertyOp17
 70
     1
102
RTVSPropertyOp18
 70
     1
102
RTVSPropertyOp19
 70
     1
102
RTVSPropertyOp20
 70
     1
102
RTVSPropertyOp21
 70
     1
102
RTVSPropertyOp22
 70
     1
102
RTVSPropertyOp23
 70
     1
102
RTVSPropertyOp24
 70
     1
102
RTVSPropertyOp25
 70
     1
102
RTVSPropertyOp26
 70
     1
102
RTVSPropertyOp27
 70
     1
102
RTVSPropertyOp28
 70
     1
102
RTVSPropertyOp29
 70
     1
102
RTVSPropertyOp30
 70
     1
102
RTVSPropertyOp31
 70
     1
102
RTVSPropertyOp32
 70
     1
102
RTVSPropertyOp33
 70
     1
102
RTVSPropertyOp34
 70
     1
102
RTVSPropertyOp35
 70
     1
102
RTVSPropertyOp36
 70
     1
102
RTVSPropertyOp37
 70
     1
102
RTVSPropertyOp38
 70
     1
102
RTVSPropertyOp39
 70
     1
102
RTVSPropertyOp40
 70
     1
102
RTVSPropertyOp41
 70
     1
102
RTVSPropertyOp42
 70
     1
102
RTVSPropertyOp43
 70
     1
102
RTVSPropertyOp44
 70
     1
102
RTVSPropertyOp45
 70
     1
102
RTVSPropertyOp46
 70
     1
102
RTVSPropertyOp47
 70
     1
102
RTVSPropertyOp48
 70
     1
102
RTVSPropertyOp49
 70
     1
102
RTVSPropertyOp50
 70
     1
102
RTVSPropertyOp51
 70
     0
102
RTVSPropertyOp52
 70
     0
102
RTVSPropertyOp53
 70
     1
102
RTVSPropertyOp54
 70
     1
102
RTVSPropertyOp55
 70
     1
102
RTVSPropertyOp56
 70
     1
102
RTVSPropertyOp57
 70
     1
102
RTVSPropertyOp58
 70
     1
102
RTVSPropertyOp59
 70
     1
102
RTVSPropertyOp60
 70
     1
102
RTVSPropertyOp61
 70
     1
102
RTVSPropertyOp62
 70
     1
  0
XRECORD
  5
A2F1
102
{ACAD_REACTORS
330
A2F0
102
}
330
A2F0
100
AcDbXrecord
280
     1
102
RTVSPost2010Prop28
280
     0
102
RTVSPost2010PropOp28
 70
     1
102
RTVSPost2010Prop29
280
     1
102
RTVSPost2010PropOp29
 70
     1
102
RTVSPost2010Prop30
280
     1
102
RTVSPost2010PropOp30
 70
     1
102
RTVSPost2010Prop31
280
     0
102
RTVSPost2010PropOp31
 70
     1
102
RTVSPost2010Prop32
280
     0
102
RTVSPost2010PropOp32
 70
     1
102
RTVSPost2010Prop33
280
     0
102
RTVSPost2010PropOp33
 70
     1
102
RTVSPost2010Prop34
280
     0
102
RTVSPost2010PropOp34
 70
     1
102
RTVSPost2010Prop35
280
     0
102
RTVSPost2010PropOp35
 70
     1
102
RTVSPost2010Prop36
280
     0
102
RTVSPost2010PropOp36
 70
     1
102
RTVSPost2010Prop37
 90
       50
102
RTVSPost2010PropOp37
 70
     1
102
RTVSPost2010Prop38
140
0.0
102
RTVSPost2010PropOp38
 70
     1
102
RTVSPost2010Prop39
140
1.0
102
RTVSPost2010PropOp39
 70
     1
102
RTVSPost2010Prop40
 90
        0
102
RTVSPost2010PropOp40
 70
     1
102
RTVSPost2010Prop41ColorIndex
 90
       18
102
RTVSPost2010Prop41ColorRGB
 90
        0
102
RTVSPost2010PropOp41
 70
     1
102
RTVSPost2010Prop42
 90
       50
102
RTVSPost2010PropOp42
 70
     1
102
RTVSPost2010Prop43
 90
        3
102
RTVSPost2010PropOp43
 70
     1
102
RTVSPost2010Prop44ColorIndex
 90
        5
102
RTVSPost2010Prop44ColorRGB
 90
      255
102
RTVSPost2010PropOp44
 70
     1
102
RTVSPost2010Prop45
280
     0
102
RTVSPost2010PropOp45
 70
     1
102
RTVSPost2010Prop46
 90
       50
102
RTVSPost2010PropOp46
 70
     1
102
RTVSPost2010Prop47
 90
       50
102
RTVSPost2010PropOp47
 70
     1
102
RTVSPost2010Prop48
 90
       50
102
RTVSPost2010PropOp48
 70
     1
102
RTVSPost2010Prop49
280
     0
102
RTVSPost2010PropOp49
 70
     1
102
RTVSPost2010Prop50
 90
       50
102
RTVSPost2010PropOp50
 70
     1
102
RTVSPost2010Prop51ColorIndex
 90
      256
102
RTVSPost2010Prop51ColorRGB
 90
-16777216
102
RTVSPost2010PropOp51
 70
     0
102
RTVSPost2010Prop52
140
1.0
102
RTVSPost2010PropOp52
 70
     0
102
RTVSPost2010Prop53
 90
        2
102
RTVSPost2010PropOp53
 70
     1
102
RTVSPost2010Prop54
  1
strokes_ogs.tif
102
RTVSPost2010PropOp54
 70
     1
102
RTVSPost2010Prop55
280
     0
102
RTVSPost2010PropOp55
 70
     1
102
RTVSPost2010Prop56
140
1.0
102
RTVSPost2010PropOp56
 70
     1
102
RTVSPost2010Prop57
140
1.0
102
RTVSPost2010PropOp57
 70
     1
102
RTVSPropertyOp0
 70
     1
102
RTVSPropertyOp1
 70
     1
102
RTVSPropertyOp2
 70
     1
102
RTVSPropertyOp3
 70
     1
102
RTVSPropertyOp4
 70
     1
102
RTVSPropertyOp5
 70
     1
102
RTVSPropertyOp6
 70
     1
102
RTVSPropertyOp7
 70
     1
102
RTVSPropertyOp8
 70
     1
102
RTVSPropertyOp9
 70
     1
102
RTVSPropertyOp10
 70
     1
102
RTVSPropertyOp11
 70
     1
102
RTVSPropertyOp12
 70
     1
102
RTVSPropertyOp13
 70
     1
102
RTVSPropertyOp14
 70
     1
102
RTVSPropertyOp15
 70
     1
102
RTVSPropertyOp16
 70
     1
102
RTVSPropertyOp17
 70
     1
102
RTVSPropertyOp18
 70
     1
102
RTVSPropertyOp19
 70
     1
102
RTVSPropertyOp20
 70
     1
102
RTVSPropertyOp21
 70
     1
102
RTVSPropertyOp22
 70
     1
102
RTVSPropertyOp23
 70
     1
102
RTVSPropertyOp24
 70
     1
102
RTVSPropertyOp25
 70
     1
102
RTVSPropertyOp26
 70
     1
102
RTVSPropertyOp27
 70
     1
102
RTVSPropertyOp28
 70
     1
102
RTVSPropertyOp29
 70
     1
102
RTVSPropertyOp30
 70
     1
102
RTVSPropertyOp31
 70
     1
102
RTVSPropertyOp32
 70
     1
102
RTVSPropertyOp33
 70
     1
102
RTVSPropertyOp34
 70
     1
102
RTVSPropertyOp35
 70
     1
102
RTVSPropertyOp36
 70
     1
102
RTVSPropertyOp37
 70
     1
102
RTVSPropertyOp38
 70
     1
102
RTVSPropertyOp39
 70
     1
102
RTVSPropertyOp40
 70
     1
102
RTVSPropertyOp41
 70
     1
102
RTVSPropertyOp42
 70
     1
102
RTVSPropertyOp43
 70
     1
102
RTVSPropertyOp44
 70
     1
102
RTVSPropertyOp45
 70
     1
102
RTVSPropertyOp46
 70
     1
102
RTVSPropertyOp47
 70
     1
102
RTVSPropertyOp48
 70
     1
102
RTVSPropertyOp49
 70
     1
102
RTVSPropertyOp50
 70
     1
102
RTVSPropertyOp51
 70
     0
102
RTVSPropertyOp52
 70
     0
102
RTVSPropertyOp53
 70
     1
102
RTVSPropertyOp54
 70
     1
102
RTVSPropertyOp55
 70
     1
102
RTVSPropertyOp56
 70
     1
102
RTVSPropertyOp57
 70
     1
102
RTVSPropertyOp58
 70
     1
102
RTVSPropertyOp59
 70
     1
102
RTVSPropertyOp60
 70
     1
102
RTVSPropertyOp61
 70
     1
102
RTVSPropertyOp62
 70
     1
  0
XRECORD
  5
A2F3
102
{ACAD_REACTORS
330
A2F2
102
}
330
A2F2
100
AcDbXrecord
280
     1
102
RTVSPost2010Prop28
280
     0
102
RTVSPost2010PropOp28
 70
     1
102
RTVSPost2010Prop29
280
     1
102
RTVSPost2010PropOp29
 70
     1
102
RTVSPost2010Prop30
280
     1
102
RTVSPost2010PropOp30
 70
     1
102
RTVSPost2010Prop31
280
     0
102
RTVSPost2010PropOp31
 70
     1
102
RTVSPost2010Prop32
280
     0
102
RTVSPost2010PropOp32
 70
     1
102
RTVSPost2010Prop33
280
     0
102
RTVSPost2010PropOp33
 70
     1
102
RTVSPost2010Prop34
280
     0
102
RTVSPost2010PropOp34
 70
     1
102
RTVSPost2010Prop35
280
     0
102
RTVSPost2010PropOp35
 70
     1
102
RTVSPost2010Prop36
280
     0
102
RTVSPost2010PropOp36
 70
     1
102
RTVSPost2010Prop37
 90
       50
102
RTVSPost2010PropOp37
 70
     1
102
RTVSPost2010Prop38
140
0.0
102
RTVSPost2010PropOp38
 70
     1
102
RTVSPost2010Prop39
140
1.0
102
RTVSPost2010PropOp39
 70
     1
102
RTVSPost2010Prop40
 90
        0
102
RTVSPost2010PropOp40
 70
     1
102
RTVSPost2010Prop41ColorIndex
 90
       18
102
RTVSPost2010Prop41ColorRGB
 90
        0
102
RTVSPost2010PropOp41
 70
     1
102
RTVSPost2010Prop42
 90
       50
102
RTVSPost2010PropOp42
 70
     1
102
RTVSPost2010Prop43
 90
        3
102
RTVSPost2010PropOp43
 70
     1
102
RTVSPost2010Prop44ColorIndex
 90
        5
102
RTVSPost2010Prop44ColorRGB
 90
      255
102
RTVSPost2010PropOp44
 70
     1
102
RTVSPost2010Prop45
280
     0
102
RTVSPost2010PropOp45
 70
     1
102
RTVSPost2010Prop46
 90
       50
102
RTVSPost2010PropOp46
 70
     1
102
RTVSPost2010Prop47
 90
       50
102
RTVSPost2010PropOp47
 70
     1
102
RTVSPost2010Prop48
 90
       50
102
RTVSPost2010PropOp48
 70
     1
102
RTVSPost2010Prop49
280
     0
102
RTVSPost2010PropOp49
 70
     1
102
RTVSPost2010Prop50
 90
       50
102
RTVSPost2010PropOp50
 70
     1
102
RTVSPost2010Prop51ColorIndex
 90
      256
102
RTVSPost2010Prop51ColorRGB
 90
-16777216
102
RTVSPost2010PropOp51
 70
     0
102
RTVSPost2010Prop52
140
1.0
102
RTVSPost2010PropOp52
 70
     0
102
RTVSPost2010Prop53
 90
        2
102
RTVSPost2010PropOp53
 70
     1
102
RTVSPost2010Prop54
  1
strokes_ogs.tif
102
RTVSPost2010PropOp54
 70
     1
102
RTVSPost2010Prop55
280
     0
102
RTVSPost2010PropOp55
 70
     1
102
RTVSPost2010Prop56
140
1.0
102
RTVSPost2010PropOp56
 70
     1
102
RTVSPost2010Prop57
140
1.0
102
RTVSPost2010PropOp57
 70
     1
102
RTVSPropertyOp0
 70
     1
102
RTVSPropertyOp1
 70
     1
102
RTVSPropertyOp2
 70
     1
102
RTVSPropertyOp3
 70
     1
102
RTVSPropertyOp4
 70
     1
102
RTVSPropertyOp5
 70
     1
102
RTVSPropertyOp6
 70
     1
102
RTVSPropertyOp7
 70
     1
102
RTVSPropertyOp8
 70
     1
102
RTVSPropertyOp9
 70
     1
102
RTVSPropertyOp10
 70
     1
102
RTVSPropertyOp11
 70
     1
102
RTVSPropertyOp12
 70
     1
102
RTVSPropertyOp13
 70
     1
102
RTVSPropertyOp14
 70
     1
102
RTVSPropertyOp15
 70
     1
102
RTVSPropertyOp16
 70
     1
102
RTVSPropertyOp17
 70
     1
102
RTVSPropertyOp18
 70
     1
102
RTVSPropertyOp19
 70
     1
102
RTVSPropertyOp20
 70
     1
102
RTVSPropertyOp21
 70
     1
102
RTVSPropertyOp22
 70
     1
102
RTVSPropertyOp23
 70
     1
102
RTVSPropertyOp24
 70
     1
102
RTVSPropertyOp25
 70
     1
102
RTVSPropertyOp26
 70
     1
102
RTVSPropertyOp27
 70
     1
102
RTVSPropertyOp28
 70
     1
102
RTVSPropertyOp29
 70
     1
102
RTVSPropertyOp30
 70
     1
102
RTVSPropertyOp31
 70
     1
102
RTVSPropertyOp32
 70
     1
102
RTVSPropertyOp33
 70
     1
102
RTVSPropertyOp34
 70
     1
102
RTVSPropertyOp35
 70
     1
102
RTVSPropertyOp36
 70
     1
102
RTVSPropertyOp37
 70
     1
102
RTVSPropertyOp38
 70
     1
102
RTVSPropertyOp39
 70
     1
102
RTVSPropertyOp40
 70
     1
102
RTVSPropertyOp41
 70
     1
102
RTVSPropertyOp42
 70
     1
102
RTVSPropertyOp43
 70
     1
102
RTVSPropertyOp44
 70
     1
102
RTVSPropertyOp45
 70
     1
102
RTVSPropertyOp46
 70
     1
102
RTVSPropertyOp47
 70
     1
102
RTVSPropertyOp48
 70
     1
102
RTVSPropertyOp49
 70
     1
102
RTVSPropertyOp50
 70
     1
102
RTVSPropertyOp51
 70
     0
102
RTVSPropertyOp52
 70
     0
102
RTVSPropertyOp53
 70
     1
102
RTVSPropertyOp54
 70
     1
102
RTVSPropertyOp55
 70
     1
102
RTVSPropertyOp56
 70
     1
102
RTVSPropertyOp57
 70
     1
102
RTVSPropertyOp58
 70
     1
102
RTVSPropertyOp59
 70
     1
102
RTVSPropertyOp60
 70
     1
102
RTVSPropertyOp61
 70
     1
102
RTVSPropertyOp62
 70
     1
  0
XRECORD
  5
A2FB
102
{ACAD_REACTORS
330
A2FA
102
}
330
A2FA
100
AcDbXrecord
280
     1
102
RTVSPost2010Prop28
280
     0
102
RTVSPost2010PropOp28
 70
     1
102
RTVSPost2010Prop29
280
     1
102
RTVSPost2010PropOp29
 70
     1
102
RTVSPost2010Prop30
280
     1
102
RTVSPost2010PropOp30
 70
     1
102
RTVSPost2010Prop31
280
     0
102
RTVSPost2010PropOp31
 70
     1
102
RTVSPost2010Prop32
280
     0
102
RTVSPost2010PropOp32
 70
     1
102
RTVSPost2010Prop33
280
     0
102
RTVSPost2010PropOp33
 70
     1
102
RTVSPost2010Prop34
280
     0
102
RTVSPost2010PropOp34
 70
     1
102
RTVSPost2010Prop35
280
     0
102
RTVSPost2010PropOp35
 70
     1
102
RTVSPost2010Prop36
280
     0
102
RTVSPost2010PropOp36
 70
     1
102
RTVSPost2010Prop37
 90
       50
102
RTVSPost2010PropOp37
 70
     1
102
RTVSPost2010Prop38
140
0.0
102
RTVSPost2010PropOp38
 70
     1
102
RTVSPost2010Prop39
140
1.0
102
RTVSPost2010PropOp39
 70
     1
102
RTVSPost2010Prop40
 90
        0
102
RTVSPost2010PropOp40
 70
     1
102
RTVSPost2010Prop41ColorIndex
 90
       18
102
RTVSPost2010Prop41ColorRGB
 90
        0
102
RTVSPost2010PropOp41
 70
     1
102
RTVSPost2010Prop42
 90
       50
102
RTVSPost2010PropOp42
 70
     1
102
RTVSPost2010Prop43
 90
        3
102
RTVSPost2010PropOp43
 70
     1
102
RTVSPost2010Prop44ColorIndex
 90
        5
102
RTVSPost2010Prop44ColorRGB
 90
      255
102
RTVSPost2010PropOp44
 70
     1
102
RTVSPost2010Prop45
280
     0
102
RTVSPost2010PropOp45
 70
     1
102
RTVSPost2010Prop46
 90
       50
102
RTVSPost2010PropOp46
 70
     1
102
RTVSPost2010Prop47
 90
       50
102
RTVSPost2010PropOp47
 70
     1
102
RTVSPost2010Prop48
 90
       50
102
RTVSPost2010PropOp48
 70
     1
102
RTVSPost2010Prop49
280
     0
102
RTVSPost2010PropOp49
 70
     1
102
RTVSPost2010Prop50
 90
       50
102
RTVSPost2010PropOp50
 70
     1
102
RTVSPost2010Prop51ColorIndex
 90
      256
102
RTVSPost2010Prop51ColorRGB
 90
-16777216
102
RTVSPost2010PropOp51
 70
     0
102
RTVSPost2010Prop52
140
1.0
102
RTVSPost2010PropOp52
 70
     0
102
RTVSPost2010Prop53
 90
        2
102
RTVSPost2010PropOp53
 70
     1
102
RTVSPost2010Prop54
  1
strokes_ogs.tif
102
RTVSPost2010PropOp54
 70
     1
102
RTVSPost2010Prop55
280
     0
102
RTVSPost2010PropOp55
 70
     1
102
RTVSPost2010Prop56
140
1.0
102
RTVSPost2010PropOp56
 70
     1
102
RTVSPost2010Prop57
140
1.0
102
RTVSPost2010PropOp57
 70
     1
102
RTVSPropertyOp0
 70
     1
102
RTVSPropertyOp1
 70
     1
102
RTVSPropertyOp2
 70
     1
102
RTVSPropertyOp3
 70
     1
102
RTVSPropertyOp4
 70
     1
102
RTVSPropertyOp5
 70
     1
102
RTVSPropertyOp6
 70
     1
102
RTVSPropertyOp7
 70
     1
102
RTVSPropertyOp8
 70
     1
102
RTVSPropertyOp9
 70
     1
102
RTVSPropertyOp10
 70
     1
102
RTVSPropertyOp11
 70
     1
102
RTVSPropertyOp12
 70
     1
102
RTVSPropertyOp13
 70
     1
102
RTVSPropertyOp14
 70
     1
102
RTVSPropertyOp15
 70
     1
102
RTVSPropertyOp16
 70
     1
102
RTVSPropertyOp17
 70
     1
102
RTVSPropertyOp18
 70
     1
102
RTVSPropertyOp19
 70
     1
102
RTVSPropertyOp20
 70
     1
102
RTVSPropertyOp21
 70
     1
102
RTVSPropertyOp22
 70
     1
102
RTVSPropertyOp23
 70
     1
102
RTVSPropertyOp24
 70
     1
102
RTVSPropertyOp25
 70
     1
102
RTVSPropertyOp26
 70
     1
102
RTVSPropertyOp27
 70
     1
102
RTVSPropertyOp28
 70
     1
102
RTVSPropertyOp29
 70
     1
102
RTVSPropertyOp30
 70
     1
102
RTVSPropertyOp31
 70
     1
102
RTVSPropertyOp32
 70
     1
102
RTVSPropertyOp33
 70
     1
102
RTVSPropertyOp34
 70
     1
102
RTVSPropertyOp35
 70
     1
102
RTVSPropertyOp36
 70
     1
102
RTVSPropertyOp37
 70
     1
102
RTVSPropertyOp38
 70
     1
102
RTVSPropertyOp39
 70
     1
102
RTVSPropertyOp40
 70
     1
102
RTVSPropertyOp41
 70
     1
102
RTVSPropertyOp42
 70
     1
102
RTVSPropertyOp43
 70
     1
102
RTVSPropertyOp44
 70
     1
102
RTVSPropertyOp45
 70
     1
102
RTVSPropertyOp46
 70
     1
102
RTVSPropertyOp47
 70
     1
102
RTVSPropertyOp48
 70
     1
102
RTVSPropertyOp49
 70
     1
102
RTVSPropertyOp50
 70
     1
102
RTVSPropertyOp51
 70
     0
102
RTVSPropertyOp52
 70
     0
102
RTVSPropertyOp53
 70
     1
102
RTVSPropertyOp54
 70
     1
102
RTVSPropertyOp55
 70
     1
102
RTVSPropertyOp56
 70
     1
102
RTVSPropertyOp57
 70
     1
102
RTVSPropertyOp58
 70
     1
102
RTVSPropertyOp59
 70
     1
102
RTVSPropertyOp60
 70
     1
102
RTVSPropertyOp61
 70
     1
102
RTVSPropertyOp62
 70
     1
  0
XRECORD
  5
A317
102
{ACAD_REACTORS
330
A316
102
}
330
A316
100
AcDbXrecord
280
     1
102
RTVSPost2010Prop28
280
     0
102
RTVSPost2010PropOp28
 70
     1
102
RTVSPost2010Prop29
280
     1
102
RTVSPost2010PropOp29
 70
     1
102
RTVSPost2010Prop30
280
     1
102
RTVSPost2010PropOp30
 70
     1
102
RTVSPost2010Prop31
280
     0
102
RTVSPost2010PropOp31
 70
     1
102
RTVSPost2010Prop32
280
     0
102
RTVSPost2010PropOp32
 70
     1
102
RTVSPost2010Prop33
280
     0
102
RTVSPost2010PropOp33
 70
     1
102
RTVSPost2010Prop34
280
     0
102
RTVSPost2010PropOp34
 70
     1
102
RTVSPost2010Prop35
280
     0
102
RTVSPost2010PropOp35
 70
     1
102
RTVSPost2010Prop36
280
     0
102
RTVSPost2010PropOp36
 70
     1
102
RTVSPost2010Prop37
 90
       50
102
RTVSPost2010PropOp37
 70
     0
102
RTVSPost2010Prop38
140
0.0
102
RTVSPost2010PropOp38
 70
     0
102
RTVSPost2010Prop39
140
1.0
102
RTVSPost2010PropOp39
 70
     0
102
RTVSPost2010Prop40
 90
        0
102
RTVSPost2010PropOp40
 70
     0
102
RTVSPost2010Prop41ColorIndex
 90
       18
102
RTVSPost2010Prop41ColorRGB
 90
        0
102
RTVSPost2010PropOp41
 70
     0
102
RTVSPost2010Prop42
 90
       50
102
RTVSPost2010PropOp42
 70
     0
102
RTVSPost2010Prop43
 90
        3
102
RTVSPost2010PropOp43
 70
     0
102
RTVSPost2010Prop44ColorIndex
 90
        5
102
RTVSPost2010Prop44ColorRGB
 90
      255
102
RTVSPost2010PropOp44
 70
     0
102
RTVSPost2010Prop45
280
     0
102
RTVSPost2010PropOp45
 70
     1
102
RTVSPost2010Prop46
 90
       50
102
RTVSPost2010PropOp46
 70
     0
102
RTVSPost2010Prop47
 90
       50
102
RTVSPost2010PropOp47
 70
     0
102
RTVSPost2010Prop48
 90
       50
102
RTVSPost2010PropOp48
 70
     0
102
RTVSPost2010Prop49
280
     0
102
RTVSPost2010PropOp49
 70
     1
102
RTVSPost2010Prop50
 90
       50
102
RTVSPost2010PropOp50
 70
     0
102
RTVSPost2010Prop51ColorIndex
 90
      256
102
RTVSPost2010Prop51ColorRGB
 90
-16777216
102
RTVSPost2010PropOp51
 70
     0
102
RTVSPost2010Prop52
140
1.0
102
RTVSPost2010PropOp52
 70
     0
102
RTVSPost2010Prop53
 90
        2
102
RTVSPost2010PropOp53
 70
     0
102
RTVSPost2010Prop54
  1
strokes_ogs.tif
102
RTVSPost2010PropOp54
 70
     0
102
RTVSPost2010Prop55
280
     0
102
RTVSPost2010PropOp55
 70
     1
102
RTVSPost2010Prop56
140
1.0
102
RTVSPost2010PropOp56
 70
     0
102
RTVSPost2010Prop57
140
1.0
102
RTVSPost2010PropOp57
 70
     0
102
RTVSPropertyOp0
 70
     0
102
RTVSPropertyOp1
 70
     0
102
RTVSPropertyOp2
 70
     0
102
RTVSPropertyOp3
 70
     0
102
RTVSPropertyOp4
 70
     0
102
RTVSPropertyOp5
 70
     0
102
RTVSPropertyOp6
 70
     0
102
RTVSPropertyOp7
 70
     0
102
RTVSPropertyOp8
 70
     0
102
RTVSPropertyOp9
 70
     0
102
RTVSPropertyOp10
 70
     0
102
RTVSPropertyOp11
 70
     0
102
RTVSPropertyOp12
 70
     0
102
RTVSPropertyOp13
 70
     0
102
RTVSPropertyOp14
 70
     2
102
RTVSPropertyOp15
 70
     0
102
RTVSPropertyOp16
 70
     0
102
RTVSPropertyOp17
 70
     0
102
RTVSPropertyOp18
 70
     0
102
RTVSPropertyOp19
 70
     0
102
RTVSPropertyOp20
 70
     0
102
RTVSPropertyOp21
 70
     0
102
RTVSPropertyOp22
 70
     0
102
RTVSPropertyOp23
 70
     0
102
RTVSPropertyOp24
 70
     0
102
RTVSPropertyOp25
 70
     0
102
RTVSPropertyOp26
 70
     0
102
RTVSPropertyOp27
 70
     0
102
RTVSPropertyOp28
 70
     1
102
RTVSPropertyOp29
 70
     1
102
RTVSPropertyOp30
 70
     1
102
RTVSPropertyOp31
 70
     1
102
RTVSPropertyOp32
 70
     1
102
RTVSPropertyOp33
 70
     1
102
RTVSPropertyOp34
 70
     1
102
RTVSPropertyOp35
 70
     1
102
RTVSPropertyOp36
 70
     1
102
RTVSPropertyOp37
 70
     0
102
RTVSPropertyOp38
 70
     0
102
RTVSPropertyOp39
 70
     0
102
RTVSPropertyOp40
 70
     0
102
RTVSPropertyOp41
 70
     0
102
RTVSPropertyOp42
 70
     0
102
RTVSPropertyOp43
 70
     0
102
RTVSPropertyOp44
 70
     0
102
RTVSPropertyOp45
 70
     1
102
RTVSPropertyOp46
 70
     0
102
RTVSPropertyOp47
 70
     0
102
RTVSPropertyOp48
 70
     0
102
RTVSPropertyOp49
 70
     1
102
RTVSPropertyOp50
 70
     0
102
RTVSPropertyOp51
 70
     0
102
RTVSPropertyOp52
 70
     0
102
RTVSPropertyOp53
 70
     0
102
RTVSPropertyOp54
 70
     0
102
RTVSPropertyOp55
 70
     1
102
RTVSPropertyOp56
 70
     0
102
RTVSPropertyOp57
 70
     0
102
RTVSPropertyOp58
 70
     0
102
RTVSPropertyOp59
 70
     0
102
RTVSPropertyOp60
 70
     0
102
RTVSPropertyOp61
 70
     0
102
RTVSPropertyOp62
 70
     0
  0
XRECORD
  5
A307
102
{ACAD_REACTORS
330
A306
102
}
330
A306
100
AcDbXrecord
280
     1
102
RTVSPost2010Prop28
280
     0
102
RTVSPost2010PropOp28
 70
     1
102
RTVSPost2010Prop29
280
     1
102
RTVSPost2010PropOp29
 70
     1
102
RTVSPost2010Prop30
280
     1
102
RTVSPost2010PropOp30
 70
     1
102
RTVSPost2010Prop31
280
     0
102
RTVSPost2010PropOp31
 70
     1
102
RTVSPost2010Prop32
280
     0
102
RTVSPost2010PropOp32
 70
     1
102
RTVSPost2010Prop33
280
     0
102
RTVSPost2010PropOp33
 70
     1
102
RTVSPost2010Prop34
280
     0
102
RTVSPost2010PropOp34
 70
     1
102
RTVSPost2010Prop35
280
     0
102
RTVSPost2010PropOp35
 70
     1
102
RTVSPost2010Prop36
280
     0
102
RTVSPost2010PropOp36
 70
     1
102
RTVSPost2010Prop37
 90
       50
102
RTVSPost2010PropOp37
 70
     1
102
RTVSPost2010Prop38
140
0.0
102
RTVSPost2010PropOp38
 70
     1
102
RTVSPost2010Prop39
140
1.0
102
RTVSPost2010PropOp39
 70
     1
102
RTVSPost2010Prop40
 90
        0
102
RTVSPost2010PropOp40
 70
     1
102
RTVSPost2010Prop41ColorIndex
 90
       18
102
RTVSPost2010Prop41ColorRGB
 90
        0
102
RTVSPost2010PropOp41
 70
     1
102
RTVSPost2010Prop42
 90
       50
102
RTVSPost2010PropOp42
 70
     1
102
RTVSPost2010Prop43
 90
        3
102
RTVSPost2010PropOp43
 70
     1
102
RTVSPost2010Prop44ColorIndex
 90
        5
102
RTVSPost2010Prop44ColorRGB
 90
      255
102
RTVSPost2010PropOp44
 70
     1
102
RTVSPost2010Prop45
280
     0
102
RTVSPost2010PropOp45
 70
     1
102
RTVSPost2010Prop46
 90
       50
102
RTVSPost2010PropOp46
 70
     1
102
RTVSPost2010Prop47
 90
       50
102
RTVSPost2010PropOp47
 70
     1
102
RTVSPost2010Prop48
 90
       50
102
RTVSPost2010PropOp48
 70
     1
102
RTVSPost2010Prop49
280
     0
102
RTVSPost2010PropOp49
 70
     1
102
RTVSPost2010Prop50
 90
       50
102
RTVSPost2010PropOp50
 70
     1
102
RTVSPost2010Prop51ColorIndex
 90
      256
102
RTVSPost2010Prop51ColorRGB
 90
-16777216
102
RTVSPost2010PropOp51
 70
     0
102
RTVSPost2010Prop52
140
1.0
102
RTVSPost2010PropOp52
 70
     0
102
RTVSPost2010Prop53
 90
        2
102
RTVSPost2010PropOp53
 70
     1
102
RTVSPost2010Prop54
  1
strokes_ogs.tif
102
RTVSPost2010PropOp54
 70
     1
102
RTVSPost2010Prop55
280
     0
102
RTVSPost2010PropOp55
 70
     1
102
RTVSPost2010Prop56
140
1.0
102
RTVSPost2010PropOp56
 70
     1
102
RTVSPost2010Prop57
140
1.0
102
RTVSPost2010PropOp57
 70
     1
102
RTVSPropertyOp0
 70
     1
102
RTVSPropertyOp1
 70
     1
102
RTVSPropertyOp2
 70
     1
102
RTVSPropertyOp3
 70
     1
102
RTVSPropertyOp4
 70
     1
102
RTVSPropertyOp5
 70
     1
102
RTVSPropertyOp6
 70
     1
102
RTVSPropertyOp7
 70
     1
102
RTVSPropertyOp8
 70
     1
102
RTVSPropertyOp9
 70
     1
102
RTVSPropertyOp10
 70
     1
102
RTVSPropertyOp11
 70
     1
102
RTVSPropertyOp12
 70
     1
102
RTVSPropertyOp13
 70
     1
102
RTVSPropertyOp14
 70
     1
102
RTVSPropertyOp15
 70
     1
102
RTVSPropertyOp16
 70
     1
102
RTVSPropertyOp17
 70
     1
102
RTVSPropertyOp18
 70
     1
102
RTVSPropertyOp19
 70
     1
102
RTVSPropertyOp20
 70
     1
102
RTVSPropertyOp21
 70
     1
102
RTVSPropertyOp22
 70
     1
102
RTVSPropertyOp23
 70
     1
102
RTVSPropertyOp24
 70
     1
102
RTVSPropertyOp25
 70
     1
102
RTVSPropertyOp26
 70
     1
102
RTVSPropertyOp27
 70
     1
102
RTVSPropertyOp28
 70
     1
102
RTVSPropertyOp29
 70
     1
102
RTVSPropertyOp30
 70
     1
102
RTVSPropertyOp31
 70
     1
102
RTVSPropertyOp32
 70
     1
102
RTVSPropertyOp33
 70
     1
102
RTVSPropertyOp34
 70
     1
102
RTVSPropertyOp35
 70
     1
102
RTVSPropertyOp36
 70
     1
102
RTVSPropertyOp37
 70
     1
102
RTVSPropertyOp38
 70
     1
102
RTVSPropertyOp39
 70
     1
102
RTVSPropertyOp40
 70
     1
102
RTVSPropertyOp41
 70
     1
102
RTVSPropertyOp42
 70
     1
102
RTVSPropertyOp43
 70
     1
102
RTVSPropertyOp44
 70
     1
102
RTVSPropertyOp45
 70
     1
102
RTVSPropertyOp46
 70
     1
102
RTVSPropertyOp47
 70
     1
102
RTVSPropertyOp48
 70
     1
102
RTVSPropertyOp49
 70
     1
102
RTVSPropertyOp50
 70
     1
102
RTVSPropertyOp51
 70
     0
102
RTVSPropertyOp52
 70
     0
102
RTVSPropertyOp53
 70
     1
102
RTVSPropertyOp54
 70
     1
102
RTVSPropertyOp55
 70
     1
102
RTVSPropertyOp56
 70
     1
102
RTVSPropertyOp57
 70
     1
102
RTVSPropertyOp58
 70
     1
102
RTVSPropertyOp59
 70
     1
102
RTVSPropertyOp60
 70
     1
102
RTVSPropertyOp61
 70
     1
102
RTVSPropertyOp62
 70
     1
  0
XRECORD
  5
A319
102
{ACAD_REACTORS
330
A318
102
}
330
A318
100
AcDbXrecord
280
     1
102
RTVSPost2010Prop28
280
     0
102
RTVSPost2010PropOp28
 70
     1
102
RTVSPost2010Prop29
280
     1
102
RTVSPost2010PropOp29
 70
     1
102
RTVSPost2010Prop30
280
     1
102
RTVSPost2010PropOp30
 70
     1
102
RTVSPost2010Prop31
280
     0
102
RTVSPost2010PropOp31
 70
     1
102
RTVSPost2010Prop32
280
     0
102
RTVSPost2010PropOp32
 70
     1
102
RTVSPost2010Prop33
280
     0
102
RTVSPost2010PropOp33
 70
     1
102
RTVSPost2010Prop34
280
     0
102
RTVSPost2010PropOp34
 70
     1
102
RTVSPost2010Prop35
280
     0
102
RTVSPost2010PropOp35
 70
     1
102
RTVSPost2010Prop36
280
     0
102
RTVSPost2010PropOp36
 70
     1
102
RTVSPost2010Prop37
 90
       50
102
RTVSPost2010PropOp37
 70
     0
102
RTVSPost2010Prop38
140
0.0
102
RTVSPost2010PropOp38
 70
     0
102
RTVSPost2010Prop39
140
1.0
102
RTVSPost2010PropOp39
 70
     0
102
RTVSPost2010Prop40
 90
        0
102
RTVSPost2010PropOp40
 70
     0
102
RTVSPost2010Prop41ColorIndex
 90
       18
102
RTVSPost2010Prop41ColorRGB
 90
        0
102
RTVSPost2010PropOp41
 70
     0
102
RTVSPost2010Prop42
 90
       50
102
RTVSPost2010PropOp42
 70
     0
102
RTVSPost2010Prop43
 90
        3
102
RTVSPost2010PropOp43
 70
     0
102
RTVSPost2010Prop44ColorIndex
 90
        5
102
RTVSPost2010Prop44ColorRGB
 90
      255
102
RTVSPost2010PropOp44
 70
     0
102
RTVSPost2010Prop45
280
     0
102
RTVSPost2010PropOp45
 70
     1
102
RTVSPost2010Prop46
 90
       50
102
RTVSPost2010PropOp46
 70
     0
102
RTVSPost2010Prop47
 90
       50
102
RTVSPost2010PropOp47
 70
     0
102
RTVSPost2010Prop48
 90
       50
102
RTVSPost2010PropOp48
 70
     0
102
RTVSPost2010Prop49
280
     0
102
RTVSPost2010PropOp49
 70
     1
102
RTVSPost2010Prop50
 90
       50
102
RTVSPost2010PropOp50
 70
     0
102
RTVSPost2010Prop51ColorIndex
 90
      256
102
RTVSPost2010Prop51ColorRGB
 90
-16777216
102
RTVSPost2010PropOp51
 70
     0
102
RTVSPost2010Prop52
140
1.0
102
RTVSPost2010PropOp52
 70
     0
102
RTVSPost2010Prop53
 90
        2
102
RTVSPost2010PropOp53
 70
     0
102
RTVSPost2010Prop54
  1
strokes_ogs.tif
102
RTVSPost2010PropOp54
 70
     0
102
RTVSPost2010Prop55
280
     0
102
RTVSPost2010PropOp55
 70
     1
102
RTVSPost2010Prop56
140
1.0
102
RTVSPost2010PropOp56
 70
     0
102
RTVSPost2010Prop57
140
1.0
102
RTVSPost2010PropOp57
 70
     0
102
RTVSPropertyOp0
 70
     0
102
RTVSPropertyOp1
 70
     0
102
RTVSPropertyOp2
 70
     0
102
RTVSPropertyOp3
 70
     0
102
RTVSPropertyOp4
 70
     0
102
RTVSPropertyOp5
 70
     0
102
RTVSPropertyOp6
 70
     0
102
RTVSPropertyOp7
 70
     0
102
RTVSPropertyOp8
 70
     0
102
RTVSPropertyOp9
 70
     0
102
RTVSPropertyOp10
 70
     0
102
RTVSPropertyOp11
 70
     0
102
RTVSPropertyOp12
 70
     0
102
RTVSPropertyOp13
 70
     0
102
RTVSPropertyOp14
 70
     2
102
RTVSPropertyOp15
 70
     0
102
RTVSPropertyOp16
 70
     0
102
RTVSPropertyOp17
 70
     0
102
RTVSPropertyOp18
 70
     0
102
RTVSPropertyOp19
 70
     0
102
RTVSPropertyOp20
 70
     0
102
RTVSPropertyOp21
 70
     0
102
RTVSPropertyOp22
 70
     0
102
RTVSPropertyOp23
 70
     0
102
RTVSPropertyOp24
 70
     0
102
RTVSPropertyOp25
 70
     0
102
RTVSPropertyOp26
 70
     0
102
RTVSPropertyOp27
 70
     0
102
RTVSPropertyOp28
 70
     1
102
RTVSPropertyOp29
 70
     1
102
RTVSPropertyOp30
 70
     1
102
RTVSPropertyOp31
 70
     1
102
RTVSPropertyOp32
 70
     1
102
RTVSPropertyOp33
 70
     1
102
RTVSPropertyOp34
 70
     1
102
RTVSPropertyOp35
 70
     1
102
RTVSPropertyOp36
 70
     1
102
RTVSPropertyOp37
 70
     0
102
RTVSPropertyOp38
 70
     0
102
RTVSPropertyOp39
 70
     0
102
RTVSPropertyOp40
 70
     0
102
RTVSPropertyOp41
 70
     0
102
RTVSPropertyOp42
 70
     0
102
RTVSPropertyOp43
 70
     0
102
RTVSPropertyOp44
 70
     0
102
RTVSPropertyOp45
 70
     1
102
RTVSPropertyOp46
 70
     0
102
RTVSPropertyOp47
 70
     0
102
RTVSPropertyOp48
 70
     0
102
RTVSPropertyOp49
 70
     1
102
RTVSPropertyOp50
 70
     0
102
RTVSPropertyOp51
 70
     0
102
RTVSPropertyOp52
 70
     0
102
RTVSPropertyOp53
 70
     0
102
RTVSPropertyOp54
 70
     0
102
RTVSPropertyOp55
 70
     1
102
RTVSPropertyOp56
 70
     0
102
RTVSPropertyOp57
 70
     0
102
RTVSPropertyOp58
 70
     0
102
RTVSPropertyOp59
 70
     0
102
RTVSPropertyOp60
 70
     0
102
RTVSPropertyOp61
 70
     0
102
RTVSPropertyOp62
 70
     0
  0
XRECORD
  5
A2FF
102
{ACAD_REACTORS
330
A2FE
102
}
330
A2FE
100
AcDbXrecord
280
     1
102
RTVSPost2010Prop28
280
     0
102
RTVSPost2010PropOp28
 70
     1
102
RTVSPost2010Prop29
280
     1
102
RTVSPost2010PropOp29
 70
     1
102
RTVSPost2010Prop30
280
     1
102
RTVSPost2010PropOp30
 70
     1
102
RTVSPost2010Prop31
280
     0
102
RTVSPost2010PropOp31
 70
     1
102
RTVSPost2010Prop32
280
     0
102
RTVSPost2010PropOp32
 70
     1
102
RTVSPost2010Prop33
280
     0
102
RTVSPost2010PropOp33
 70
     1
102
RTVSPost2010Prop34
280
     0
102
RTVSPost2010PropOp34
 70
     1
102
RTVSPost2010Prop35
280
     0
102
RTVSPost2010PropOp35
 70
     1
102
RTVSPost2010Prop36
280
     0
102
RTVSPost2010PropOp36
 70
     1
102
RTVSPost2010Prop37
 90
       50
102
RTVSPost2010PropOp37
 70
     1
102
RTVSPost2010Prop38
140
0.0
102
RTVSPost2010PropOp38
 70
     1
102
RTVSPost2010Prop39
140
1.0
102
RTVSPost2010PropOp39
 70
     1
102
RTVSPost2010Prop40
 90
        0
102
RTVSPost2010PropOp40
 70
     1
102
RTVSPost2010Prop41ColorIndex
 90
       18
102
RTVSPost2010Prop41ColorRGB
 90
        0
102
RTVSPost2010PropOp41
 70
     1
102
RTVSPost2010Prop42
 90
       50
102
RTVSPost2010PropOp42
 70
     1
102
RTVSPost2010Prop43
 90
        3
102
RTVSPost2010PropOp43
 70
     1
102
RTVSPost2010Prop44ColorIndex
 90
        5
102
RTVSPost2010Prop44ColorRGB
 90
      255
102
RTVSPost2010PropOp44
 70
     1
102
RTVSPost2010Prop45
280
     0
102
RTVSPost2010PropOp45
 70
     1
102
RTVSPost2010Prop46
 90
       50
102
RTVSPost2010PropOp46
 70
     1
102
RTVSPost2010Prop47
 90
       50
102
RTVSPost2010PropOp47
 70
     1
102
RTVSPost2010Prop48
 90
       50
102
RTVSPost2010PropOp48
 70
     1
102
RTVSPost2010Prop49
280
     0
102
RTVSPost2010PropOp49
 70
     1
102
RTVSPost2010Prop50
 90
       50
102
RTVSPost2010PropOp50
 70
     1
102
RTVSPost2010Prop51ColorIndex
 90
      256
102
RTVSPost2010Prop51ColorRGB
 90
-16777216
102
RTVSPost2010PropOp51
 70
     0
102
RTVSPost2010Prop52
140
1.0
102
RTVSPost2010PropOp52
 70
     0
102
RTVSPost2010Prop53
 90
        2
102
RTVSPost2010PropOp53
 70
     1
102
RTVSPost2010Prop54
  1
strokes_ogs.tif
102
RTVSPost2010PropOp54
 70
     1
102
RTVSPost2010Prop55
280
     0
102
RTVSPost2010PropOp55
 70
     1
102
RTVSPost2010Prop56
140
1.0
102
RTVSPost2010PropOp56
 70
     1
102
RTVSPost2010Prop57
140
1.0
102
RTVSPost2010PropOp57
 70
     1
102
RTVSPropertyOp0
 70
     1
102
RTVSPropertyOp1
 70
     1
102
RTVSPropertyOp2
 70
     1
102
RTVSPropertyOp3
 70
     1
102
RTVSPropertyOp4
 70
     1
102
RTVSPropertyOp5
 70
     1
102
RTVSPropertyOp6
 70
     1
102
RTVSPropertyOp7
 70
     1
102
RTVSPropertyOp8
 70
     1
102
RTVSPropertyOp9
 70
     1
102
RTVSPropertyOp10
 70
     1
102
RTVSPropertyOp11
 70
     1
102
RTVSPropertyOp12
 70
     1
102
RTVSPropertyOp13
 70
     1
102
RTVSPropertyOp14
 70
     1
102
RTVSPropertyOp15
 70
     1
102
RTVSPropertyOp16
 70
     1
102
RTVSPropertyOp17
 70
     1
102
RTVSPropertyOp18
 70
     1
102
RTVSPropertyOp19
 70
     1
102
RTVSPropertyOp20
 70
     1
102
RTVSPropertyOp21
 70
     1
102
RTVSPropertyOp22
 70
     1
102
RTVSPropertyOp23
 70
     1
102
RTVSPropertyOp24
 70
     1
102
RTVSPropertyOp25
 70
     1
102
RTVSPropertyOp26
 70
     1
102
RTVSPropertyOp27
 70
     1
102
RTVSPropertyOp28
 70
     1
102
RTVSPropertyOp29
 70
     1
102
RTVSPropertyOp30
 70
     1
102
RTVSPropertyOp31
 70
     1
102
RTVSPropertyOp32
 70
     1
102
RTVSPropertyOp33
 70
     1
102
RTVSPropertyOp34
 70
     1
102
RTVSPropertyOp35
 70
     1
102
RTVSPropertyOp36
 70
     1
102
RTVSPropertyOp37
 70
     1
102
RTVSPropertyOp38
 70
     1
102
RTVSPropertyOp39
 70
     1
102
RTVSPropertyOp40
 70
     1
102
RTVSPropertyOp41
 70
     1
102
RTVSPropertyOp42
 70
     1
102
RTVSPropertyOp43
 70
     1
102
RTVSPropertyOp44
 70
     1
102
RTVSPropertyOp45
 70
     1
102
RTVSPropertyOp46
 70
     1
102
RTVSPropertyOp47
 70
     1
102
RTVSPropertyOp48
 70
     1
102
RTVSPropertyOp49
 70
     1
102
RTVSPropertyOp50
 70
     1
102
RTVSPropertyOp51
 70
     0
102
RTVSPropertyOp52
 70
     0
102
RTVSPropertyOp53
 70
     1
102
RTVSPropertyOp54
 70
     1
102
RTVSPropertyOp55
 70
     1
102
RTVSPropertyOp56
 70
     1
102
RTVSPropertyOp57
 70
     1
102
RTVSPropertyOp58
 70
     1
102
RTVSPropertyOp59
 70
     1
102
RTVSPropertyOp60
 70
     1
102
RTVSPropertyOp61
 70
     1
102
RTVSPropertyOp62
 70
     1
  0
XRECORD
  5
A315
102
{ACAD_REACTORS
330
A314
102
}
330
A314
100
AcDbXrecord
280
     1
102
RTVSPost2010Prop28
280
     0
102
RTVSPost2010PropOp28
 70
     1
102
RTVSPost2010Prop29
280
     1
102
RTVSPost2010PropOp29
 70
     1
102
RTVSPost2010Prop30
280
     1
102
RTVSPost2010PropOp30
 70
     1
102
RTVSPost2010Prop31
280
     0
102
RTVSPost2010PropOp31
 70
     1
102
RTVSPost2010Prop32
280
     0
102
RTVSPost2010PropOp32
 70
     1
102
RTVSPost2010Prop33
280
     0
102
RTVSPost2010PropOp33
 70
     1
102
RTVSPost2010Prop34
280
     0
102
RTVSPost2010PropOp34
 70
     1
102
RTVSPost2010Prop35
280
     0
102
RTVSPost2010PropOp35
 70
     1
102
RTVSPost2010Prop36
280
     0
102
RTVSPost2010PropOp36
 70
     1
102
RTVSPost2010Prop37
 90
       50
102
RTVSPost2010PropOp37
 70
     1
102
RTVSPost2010Prop38
140
0.0
102
RTVSPost2010PropOp38
 70
     1
102
RTVSPost2010Prop39
140
1.0
102
RTVSPost2010PropOp39
 70
     1
102
RTVSPost2010Prop40
 90
        0
102
RTVSPost2010PropOp40
 70
     1
102
RTVSPost2010Prop41ColorIndex
 90
       18
102
RTVSPost2010Prop41ColorRGB
 90
        0
102
RTVSPost2010PropOp41
 70
     1
102
RTVSPost2010Prop42
 90
       50
102
RTVSPost2010PropOp42
 70
     1
102
RTVSPost2010Prop43
 90
        3
102
RTVSPost2010PropOp43
 70
     1
102
RTVSPost2010Prop44ColorIndex
 90
        5
102
RTVSPost2010Prop44ColorRGB
 90
      255
102
RTVSPost2010PropOp44
 70
     1
102
RTVSPost2010Prop45
280
     0
102
RTVSPost2010PropOp45
 70
     1
102
RTVSPost2010Prop46
 90
       50
102
RTVSPost2010PropOp46
 70
     1
102
RTVSPost2010Prop47
 90
       50
102
RTVSPost2010PropOp47
 70
     1
102
RTVSPost2010Prop48
 90
       50
102
RTVSPost2010PropOp48
 70
     1
102
RTVSPost2010Prop49
280
     0
102
RTVSPost2010PropOp49
 70
     1
102
RTVSPost2010Prop50
 90
       50
102
RTVSPost2010PropOp50
 70
     1
102
RTVSPost2010Prop51ColorIndex
 90
      256
102
RTVSPost2010Prop51ColorRGB
 90
-16777216
102
RTVSPost2010PropOp51
 70
     0
102
RTVSPost2010Prop52
140
1.0
102
RTVSPost2010PropOp52
 70
     0
102
RTVSPost2010Prop53
 90
        2
102
RTVSPost2010PropOp53
 70
     1
102
RTVSPost2010Prop54
  1
strokes_ogs.tif
102
RTVSPost2010PropOp54
 70
     1
102
RTVSPost2010Prop55
280
     0
102
RTVSPost2010PropOp55
 70
     1
102
RTVSPost2010Prop56
140
1.0
102
RTVSPost2010PropOp56
 70
     1
102
RTVSPost2010Prop57
140
1.0
102
RTVSPost2010PropOp57
 70
     1
102
RTVSPropertyOp0
 70
     1
102
RTVSPropertyOp1
 70
     1
102
RTVSPropertyOp2
 70
     1
102
RTVSPropertyOp3
 70
     1
102
RTVSPropertyOp4
 70
     1
102
RTVSPropertyOp5
 70
     1
102
RTVSPropertyOp6
 70
     1
102
RTVSPropertyOp7
 70
     1
102
RTVSPropertyOp8
 70
     1
102
RTVSPropertyOp9
 70
     1
102
RTVSPropertyOp10
 70
     1
102
RTVSPropertyOp11
 70
     1
102
RTVSPropertyOp12
 70
     1
102
RTVSPropertyOp13
 70
     1
102
RTVSPropertyOp14
 70
     1
102
RTVSPropertyOp15
 70
     1
102
RTVSPropertyOp16
 70
     1
102
RTVSPropertyOp17
 70
     1
102
RTVSPropertyOp18
 70
     1
102
RTVSPropertyOp19
 70
     1
102
RTVSPropertyOp20
 70
     1
102
RTVSPropertyOp21
 70
     1
102
RTVSPropertyOp22
 70
     1
102
RTVSPropertyOp23
 70
     1
102
RTVSPropertyOp24
 70
     1
102
RTVSPropertyOp25
 70
     1
102
RTVSPropertyOp26
 70
     1
102
RTVSPropertyOp27
 70
     1
102
RTVSPropertyOp28
 70
     1
102
RTVSPropertyOp29
 70
     1
102
RTVSPropertyOp30
 70
     1
102
RTVSPropertyOp31
 70
     1
102
RTVSPropertyOp32
 70
     1
102
RTVSPropertyOp33
 70
     1
102
RTVSPropertyOp34
 70
     1
102
RTVSPropertyOp35
 70
     1
102
RTVSPropertyOp36
 70
     1
102
RTVSPropertyOp37
 70
     1
102
RTVSPropertyOp38
 70
     1
102
RTVSPropertyOp39
 70
     1
102
RTVSPropertyOp40
 70
     1
102
RTVSPropertyOp41
 70
     1
102
RTVSPropertyOp42
 70
     1
102
RTVSPropertyOp43
 70
     1
102
RTVSPropertyOp44
 70
     1
102
RTVSPropertyOp45
 70
     1
102
RTVSPropertyOp46
 70
     1
102
RTVSPropertyOp47
 70
     1
102
RTVSPropertyOp48
 70
     1
102
RTVSPropertyOp49
 70
     1
102
RTVSPropertyOp50
 70
     1
102
RTVSPropertyOp51
 70
     0
102
RTVSPropertyOp52
 70
     0
102
RTVSPropertyOp53
 70
     1
102
RTVSPropertyOp54
 70
     1
102
RTVSPropertyOp55
 70
     1
102
RTVSPropertyOp56
 70
     1
102
RTVSPropertyOp57
 70
     1
102
RTVSPropertyOp58
 70
     1
102
RTVSPropertyOp59
 70
     1
102
RTVSPropertyOp60
 70
     1
102
RTVSPropertyOp61
 70
     1
102
RTVSPropertyOp62
 70
     1
  0
XRECORD
  5
A313
102
{ACAD_REACTORS
330
A312
102
}
330
A312
100
AcDbXrecord
280
     1
102
RTVSPost2010Prop28
280
     0
102
RTVSPost2010PropOp28
 70
     1
102
RTVSPost2010Prop29
280
     1
102
RTVSPost2010PropOp29
 70
     1
102
RTVSPost2010Prop30
280
     1
102
RTVSPost2010PropOp30
 70
     1
102
RTVSPost2010Prop31
280
     0
102
RTVSPost2010PropOp31
 70
     1
102
RTVSPost2010Prop32
280
     0
102
RTVSPost2010PropOp32
 70
     1
102
RTVSPost2010Prop33
280
     0
102
RTVSPost2010PropOp33
 70
     1
102
RTVSPost2010Prop34
280
     0
102
RTVSPost2010PropOp34
 70
     1
102
RTVSPost2010Prop35
280
     0
102
RTVSPost2010PropOp35
 70
     1
102
RTVSPost2010Prop36
280
     0
102
RTVSPost2010PropOp36
 70
     1
102
RTVSPost2010Prop37
 90
       50
102
RTVSPost2010PropOp37
 70
     1
102
RTVSPost2010Prop38
140
0.0
102
RTVSPost2010PropOp38
 70
     1
102
RTVSPost2010Prop39
140
1.0
102
RTVSPost2010PropOp39
 70
     1
102
RTVSPost2010Prop40
 90
        0
102
RTVSPost2010PropOp40
 70
     1
102
RTVSPost2010Prop41ColorIndex
 90
       18
102
RTVSPost2010Prop41ColorRGB
 90
        0
102
RTVSPost2010PropOp41
 70
     1
102
RTVSPost2010Prop42
 90
       50
102
RTVSPost2010PropOp42
 70
     1
102
RTVSPost2010Prop43
 90
        3
102
RTVSPost2010PropOp43
 70
     1
102
RTVSPost2010Prop44ColorIndex
 90
        5
102
RTVSPost2010Prop44ColorRGB
 90
      255
102
RTVSPost2010PropOp44
 70
     1
102
RTVSPost2010Prop45
280
     0
102
RTVSPost2010PropOp45
 70
     1
102
RTVSPost2010Prop46
 90
       50
102
RTVSPost2010PropOp46
 70
     1
102
RTVSPost2010Prop47
 90
       50
102
RTVSPost2010PropOp47
 70
     1
102
RTVSPost2010Prop48
 90
       50
102
RTVSPost2010PropOp48
 70
     1
102
RTVSPost2010Prop49
280
     0
102
RTVSPost2010PropOp49
 70
     1
102
RTVSPost2010Prop50
 90
       50
102
RTVSPost2010PropOp50
 70
     1
102
RTVSPost2010Prop51ColorIndex
 90
      256
102
RTVSPost2010Prop51ColorRGB
 90
-16777216
102
RTVSPost2010PropOp51
 70
     0
102
RTVSPost2010Prop52
140
1.0
102
RTVSPost2010PropOp52
 70
     0
102
RTVSPost2010Prop53
 90
        2
102
RTVSPost2010PropOp53
 70
     1
102
RTVSPost2010Prop54
  1
strokes_ogs.tif
102
RTVSPost2010PropOp54
 70
     1
102
RTVSPost2010Prop55
280
     0
102
RTVSPost2010PropOp55
 70
     1
102
RTVSPost2010Prop56
140
1.0
102
RTVSPost2010PropOp56
 70
     1
102
RTVSPost2010Prop57
140
1.0
102
RTVSPost2010PropOp57
 70
     1
102
RTVSPropertyOp0
 70
     1
102
RTVSPropertyOp1
 70
     1
102
RTVSPropertyOp2
 70
     1
102
RTVSPropertyOp3
 70
     1
102
RTVSPropertyOp4
 70
     1
102
RTVSPropertyOp5
 70
     1
102
RTVSPropertyOp6
 70
     1
102
RTVSPropertyOp7
 70
     1
102
RTVSPropertyOp8
 70
     1
102
RTVSPropertyOp9
 70
     1
102
RTVSPropertyOp10
 70
     1
102
RTVSPropertyOp11
 70
     1
102
RTVSPropertyOp12
 70
     1
102
RTVSPropertyOp13
 70
     1
102
RTVSPropertyOp14
 70
     1
102
RTVSPropertyOp15
 70
     1
102
RTVSPropertyOp16
 70
     1
102
RTVSPropertyOp17
 70
     1
102
RTVSPropertyOp18
 70
     1
102
RTVSPropertyOp19
 70
     1
102
RTVSPropertyOp20
 70
     1
102
RTVSPropertyOp21
 70
     1
102
RTVSPropertyOp22
 70
     1
102
RTVSPropertyOp23
 70
     1
102
RTVSPropertyOp24
 70
     1
102
RTVSPropertyOp25
 70
     1
102
RTVSPropertyOp26
 70
     1
102
RTVSPropertyOp27
 70
     1
102
RTVSPropertyOp28
 70
     1
102
RTVSPropertyOp29
 70
     1
102
RTVSPropertyOp30
 70
     1
102
RTVSPropertyOp31
 70
     1
102
RTVSPropertyOp32
 70
     1
102
RTVSPropertyOp33
 70
     1
102
RTVSPropertyOp34
 70
     1
102
RTVSPropertyOp35
 70
     1
102
RTVSPropertyOp36
 70
     1
102
RTVSPropertyOp37
 70
     1
102
RTVSPropertyOp38
 70
     1
102
RTVSPropertyOp39
 70
     1
102
RTVSPropertyOp40
 70
     1
102
RTVSPropertyOp41
 70
     1
102
RTVSPropertyOp42
 70
     1
102
RTVSPropertyOp43
 70
     1
102
RTVSPropertyOp44
 70
     1
102
RTVSPropertyOp45
 70
     1
102
RTVSPropertyOp46
 70
     1
102
RTVSPropertyOp47
 70
     1
102
RTVSPropertyOp48
 70
     1
102
RTVSPropertyOp49
 70
     1
102
RTVSPropertyOp50
 70
     1
102
RTVSPropertyOp51
 70
     0
102
RTVSPropertyOp52
 70
     0
102
RTVSPropertyOp53
 70
     1
102
RTVSPropertyOp54
 70
     1
102
RTVSPropertyOp55
 70
     1
102
RTVSPropertyOp56
 70
     1
102
RTVSPropertyOp57
 70
     1
102
RTVSPropertyOp58
 70
     1
102
RTVSPropertyOp59
 70
     1
102
RTVSPropertyOp60
 70
     1
102
RTVSPropertyOp61
 70
     1
102
RTVSPropertyOp62
 70
     1
  0
XRECORD
  5
A30D
102
{ACAD_REACTORS
330
A30C
102
}
330
A30C
100
AcDbXrecord
280
     1
102
RTVSPost2010Prop28
280
     0
102
RTVSPost2010PropOp28
 70
     1
102
RTVSPost2010Prop29
280
     1
102
RTVSPost2010PropOp29
 70
     1
102
RTVSPost2010Prop30
280
     1
102
RTVSPost2010PropOp30
 70
     1
102
RTVSPost2010Prop31
280
     0
102
RTVSPost2010PropOp31
 70
     1
102
RTVSPost2010Prop32
280
     0
102
RTVSPost2010PropOp32
 70
     1
102
RTVSPost2010Prop33
280
     0
102
RTVSPost2010PropOp33
 70
     1
102
RTVSPost2010Prop34
280
     0
102
RTVSPost2010PropOp34
 70
     1
102
RTVSPost2010Prop35
280
     0
102
RTVSPost2010PropOp35
 70
     1
102
RTVSPost2010Prop36
280
     0
102
RTVSPost2010PropOp36
 70
     1
102
RTVSPost2010Prop37
 90
       50
102
RTVSPost2010PropOp37
 70
     1
102
RTVSPost2010Prop38
140
0.0
102
RTVSPost2010PropOp38
 70
     1
102
RTVSPost2010Prop39
140
1.0
102
RTVSPost2010PropOp39
 70
     1
102
RTVSPost2010Prop40
 90
        0
102
RTVSPost2010PropOp40
 70
     1
102
RTVSPost2010Prop41ColorIndex
 90
       18
102
RTVSPost2010Prop41ColorRGB
 90
        0
102
RTVSPost2010PropOp41
 70
     1
102
RTVSPost2010Prop42
 90
       50
102
RTVSPost2010PropOp42
 70
     1
102
RTVSPost2010Prop43
 90
        3
102
RTVSPost2010PropOp43
 70
     1
102
RTVSPost2010Prop44ColorIndex
 90
        5
102
RTVSPost2010Prop44ColorRGB
 90
      255
102
RTVSPost2010PropOp44
 70
     1
102
RTVSPost2010Prop45
280
     0
102
RTVSPost2010PropOp45
 70
     1
102
RTVSPost2010Prop46
 90
       50
102
RTVSPost2010PropOp46
 70
     1
102
RTVSPost2010Prop47
 90
       50
102
RTVSPost2010PropOp47
 70
     1
102
RTVSPost2010Prop48
 90
       50
102
RTVSPost2010PropOp48
 70
     1
102
RTVSPost2010Prop49
280
     0
102
RTVSPost2010PropOp49
 70
     1
102
RTVSPost2010Prop50
 90
       50
102
RTVSPost2010PropOp50
 70
     1
102
RTVSPost2010Prop51ColorIndex
 90
      256
102
RTVSPost2010Prop51ColorRGB
 90
-16777216
102
RTVSPost2010PropOp51
 70
     0
102
RTVSPost2010Prop52
140
1.0
102
RTVSPost2010PropOp52
 70
     0
102
RTVSPost2010Prop53
 90
        2
102
RTVSPost2010PropOp53
 70
     1
102
RTVSPost2010Prop54
  1
strokes_ogs.tif
102
RTVSPost2010PropOp54
 70
     1
102
RTVSPost2010Prop55
280
     0
102
RTVSPost2010PropOp55
 70
     1
102
RTVSPost2010Prop56
140
1.0
102
RTVSPost2010PropOp56
 70
     1
102
RTVSPost2010Prop57
140
1.0
102
RTVSPost2010PropOp57
 70
     1
102
RTVSPropertyOp0
 70
     1
102
RTVSPropertyOp1
 70
     1
102
RTVSPropertyOp2
 70
     1
102
RTVSPropertyOp3
 70
     1
102
RTVSPropertyOp4
 70
     1
102
RTVSPropertyOp5
 70
     1
102
RTVSPropertyOp6
 70
     1
102
RTVSPropertyOp7
 70
     1
102
RTVSPropertyOp8
 70
     1
102
RTVSPropertyOp9
 70
     1
102
RTVSPropertyOp10
 70
     1
102
RTVSPropertyOp11
 70
     1
102
RTVSPropertyOp12
 70
     1
102
RTVSPropertyOp13
 70
     1
102
RTVSPropertyOp14
 70
     1
102
RTVSPropertyOp15
 70
     1
102
RTVSPropertyOp16
 70
     1
102
RTVSPropertyOp17
 70
     1
102
RTVSPropertyOp18
 70
     1
102
RTVSPropertyOp19
 70
     1
102
RTVSPropertyOp20
 70
     1
102
RTVSPropertyOp21
 70
     1
102
RTVSPropertyOp22
 70
     1
102
RTVSPropertyOp23
 70
     1
102
RTVSPropertyOp24
 70
     1
102
RTVSPropertyOp25
 70
     1
102
RTVSPropertyOp26
 70
     1
102
RTVSPropertyOp27
 70
     1
102
RTVSPropertyOp28
 70
     1
102
RTVSPropertyOp29
 70
     1
102
RTVSPropertyOp30
 70
     1
102
RTVSPropertyOp31
 70
     1
102
RTVSPropertyOp32
 70
     1
102
RTVSPropertyOp33
 70
     1
102
RTVSPropertyOp34
 70
     1
102
RTVSPropertyOp35
 70
     1
102
RTVSPropertyOp36
 70
     1
102
RTVSPropertyOp37
 70
     1
102
RTVSPropertyOp38
 70
     1
102
RTVSPropertyOp39
 70
     1
102
RTVSPropertyOp40
 70
     1
102
RTVSPropertyOp41
 70
     1
102
RTVSPropertyOp42
 70
     1
102
RTVSPropertyOp43
 70
     1
102
RTVSPropertyOp44
 70
     1
102
RTVSPropertyOp45
 70
     1
102
RTVSPropertyOp46
 70
     1
102
RTVSPropertyOp47
 70
     1
102
RTVSPropertyOp48
 70
     1
102
RTVSPropertyOp49
 70
     1
102
RTVSPropertyOp50
 70
     1
102
RTVSPropertyOp51
 70
     0
102
RTVSPropertyOp52
 70
     0
102
RTVSPropertyOp53
 70
     1
102
RTVSPropertyOp54
 70
     1
102
RTVSPropertyOp55
 70
     1
102
RTVSPropertyOp56
 70
     1
102
RTVSPropertyOp57
 70
     1
102
RTVSPropertyOp58
 70
     1
102
RTVSPropertyOp59
 70
     1
102
RTVSPropertyOp60
 70
     1
102
RTVSPropertyOp61
 70
     1
102
RTVSPropertyOp62
 70
     1
  0
XRECORD
  5
A30F
102
{ACAD_REACTORS
330
A30E
102
}
330
A30E
100
AcDbXrecord
280
     1
102
RTVSPost2010Prop28
280
     0
102
RTVSPost2010PropOp28
 70
     1
102
RTVSPost2010Prop29
280
     1
102
RTVSPost2010PropOp29
 70
     1
102
RTVSPost2010Prop30
280
     1
102
RTVSPost2010PropOp30
 70
     1
102
RTVSPost2010Prop31
280
     0
102
RTVSPost2010PropOp31
 70
     1
102
RTVSPost2010Prop32
280
     0
102
RTVSPost2010PropOp32
 70
     1
102
RTVSPost2010Prop33
280
     0
102
RTVSPost2010PropOp33
 70
     1
102
RTVSPost2010Prop34
280
     0
102
RTVSPost2010PropOp34
 70
     1
102
RTVSPost2010Prop35
280
     0
102
RTVSPost2010PropOp35
 70
     1
102
RTVSPost2010Prop36
280
     0
102
RTVSPost2010PropOp36
 70
     1
102
RTVSPost2010Prop37
 90
       50
102
RTVSPost2010PropOp37
 70
     1
102
RTVSPost2010Prop38
140
0.0
102
RTVSPost2010PropOp38
 70
     1
102
RTVSPost2010Prop39
140
1.0
102
RTVSPost2010PropOp39
 70
     1
102
RTVSPost2010Prop40
 90
        0
102
RTVSPost2010PropOp40
 70
     1
102
RTVSPost2010Prop41ColorIndex
 90
       18
102
RTVSPost2010Prop41ColorRGB
 90
        0
102
RTVSPost2010PropOp41
 70
     1
102
RTVSPost2010Prop42
 90
       50
102
RTVSPost2010PropOp42
 70
     1
102
RTVSPost2010Prop43
 90
        3
102
RTVSPost2010PropOp43
 70
     1
102
RTVSPost2010Prop44ColorIndex
 90
        5
102
RTVSPost2010Prop44ColorRGB
 90
      255
102
RTVSPost2010PropOp44
 70
     1
102
RTVSPost2010Prop45
280
     0
102
RTVSPost2010PropOp45
 70
     1
102
RTVSPost2010Prop46
 90
       50
102
RTVSPost2010PropOp46
 70
     1
102
RTVSPost2010Prop47
 90
       50
102
RTVSPost2010PropOp47
 70
     1
102
RTVSPost2010Prop48
 90
       50
102
RTVSPost2010PropOp48
 70
     1
102
RTVSPost2010Prop49
280
     0
102
RTVSPost2010PropOp49
 70
     1
102
RTVSPost2010Prop50
 90
       50
102
RTVSPost2010PropOp50
 70
     1
102
RTVSPost2010Prop51ColorIndex
 90
      256
102
RTVSPost2010Prop51ColorRGB
 90
-16777216
102
RTVSPost2010PropOp51
 70
     0
102
RTVSPost2010Prop52
140
1.0
102
RTVSPost2010PropOp52
 70
     0
102
RTVSPost2010Prop53
 90
        2
102
RTVSPost2010PropOp53
 70
     1
102
RTVSPost2010Prop54
  1
strokes_ogs.tif
102
RTVSPost2010PropOp54
 70
     1
102
RTVSPost2010Prop55
280
     0
102
RTVSPost2010PropOp55
 70
     1
102
RTVSPost2010Prop56
140
1.0
102
RTVSPost2010PropOp56
 70
     1
102
RTVSPost2010Prop57
140
1.0
102
RTVSPost2010PropOp57
 70
     1
102
RTVSPropertyOp0
 70
     1
102
RTVSPropertyOp1
 70
     1
102
RTVSPropertyOp2
 70
     1
102
RTVSPropertyOp3
 70
     1
102
RTVSPropertyOp4
 70
     1
102
RTVSPropertyOp5
 70
     1
102
RTVSPropertyOp6
 70
     1
102
RTVSPropertyOp7
 70
     1
102
RTVSPropertyOp8
 70
     1
102
RTVSPropertyOp9
 70
     1
102
RTVSPropertyOp10
 70
     1
102
RTVSPropertyOp11
 70
     1
102
RTVSPropertyOp12
 70
     1
102
RTVSPropertyOp13
 70
     1
102
RTVSPropertyOp14
 70
     1
102
RTVSPropertyOp15
 70
     1
102
RTVSPropertyOp16
 70
     1
102
RTVSPropertyOp17
 70
     1
102
RTVSPropertyOp18
 70
     1
102
RTVSPropertyOp19
 70
     1
102
RTVSPropertyOp20
 70
     1
102
RTVSPropertyOp21
 70
     1
102
RTVSPropertyOp22
 70
     1
102
RTVSPropertyOp23
 70
     1
102
RTVSPropertyOp24
 70
     1
102
RTVSPropertyOp25
 70
     1
102
RTVSPropertyOp26
 70
     1
102
RTVSPropertyOp27
 70
     1
102
RTVSPropertyOp28
 70
     1
102
RTVSPropertyOp29
 70
     1
102
RTVSPropertyOp30
 70
     1
102
RTVSPropertyOp31
 70
     1
102
RTVSPropertyOp32
 70
     1
102
RTVSPropertyOp33
 70
     1
102
RTVSPropertyOp34
 70
     1
102
RTVSPropertyOp35
 70
     1
102
RTVSPropertyOp36
 70
     1
102
RTVSPropertyOp37
 70
     1
102
RTVSPropertyOp38
 70
     1
102
RTVSPropertyOp39
 70
     1
102
RTVSPropertyOp40
 70
     1
102
RTVSPropertyOp41
 70
     1
102
RTVSPropertyOp42
 70
     1
102
RTVSPropertyOp43
 70
     1
102
RTVSPropertyOp44
 70
     1
102
RTVSPropertyOp45
 70
     1
102
RTVSPropertyOp46
 70
     1
102
RTVSPropertyOp47
 70
     1
102
RTVSPropertyOp48
 70
     1
102
RTVSPropertyOp49
 70
     1
102
RTVSPropertyOp50
 70
     1
102
RTVSPropertyOp51
 70
     0
102
RTVSPropertyOp52
 70
     0
102
RTVSPropertyOp53
 70
     1
102
RTVSPropertyOp54
 70
     1
102
RTVSPropertyOp55
 70
     1
102
RTVSPropertyOp56
 70
     1
102
RTVSPropertyOp57
 70
     1
102
RTVSPropertyOp58
 70
     1
102
RTVSPropertyOp59
 70
     1
102
RTVSPropertyOp60
 70
     1
102
RTVSPropertyOp61
 70
     1
102
RTVSPropertyOp62
 70
     1
  0
XRECORD
  5
A305
102
{ACAD_REACTORS
330
A304
102
}
330
A304
100
AcDbXrecord
280
     1
102
RTVSPost2010Prop28
280
     0
102
RTVSPost2010PropOp28
 70
     1
102
RTVSPost2010Prop29
280
     1
102
RTVSPost2010PropOp29
 70
     1
102
RTVSPost2010Prop30
280
     1
102
RTVSPost2010PropOp30
 70
     1
102
RTVSPost2010Prop31
280
     0
102
RTVSPost2010PropOp31
 70
     1
102
RTVSPost2010Prop32
280
     0
102
RTVSPost2010PropOp32
 70
     1
102
RTVSPost2010Prop33
280
     0
102
RTVSPost2010PropOp33
 70
     1
102
RTVSPost2010Prop34
280
     0
102
RTVSPost2010PropOp34
 70
     1
102
RTVSPost2010Prop35
280
     0
102
RTVSPost2010PropOp35
 70
     1
102
RTVSPost2010Prop36
280
     0
102
RTVSPost2010PropOp36
 70
     1
102
RTVSPost2010Prop37
 90
       50
102
RTVSPost2010PropOp37
 70
     1
102
RTVSPost2010Prop38
140
0.0
102
RTVSPost2010PropOp38
 70
     1
102
RTVSPost2010Prop39
140
1.0
102
RTVSPost2010PropOp39
 70
     1
102
RTVSPost2010Prop40
 90
        0
102
RTVSPost2010PropOp40
 70
     1
102
RTVSPost2010Prop41ColorIndex
 90
       18
102
RTVSPost2010Prop41ColorRGB
 90
        0
102
RTVSPost2010PropOp41
 70
     1
102
RTVSPost2010Prop42
 90
       50
102
RTVSPost2010PropOp42
 70
     1
102
RTVSPost2010Prop43
 90
        3
102
RTVSPost2010PropOp43
 70
     1
102
RTVSPost2010Prop44ColorIndex
 90
        5
102
RTVSPost2010Prop44ColorRGB
 90
      255
102
RTVSPost2010PropOp44
 70
     1
102
RTVSPost2010Prop45
280
     0
102
RTVSPost2010PropOp45
 70
     1
102
RTVSPost2010Prop46
 90
       50
102
RTVSPost2010PropOp46
 70
     1
102
RTVSPost2010Prop47
 90
       50
102
RTVSPost2010PropOp47
 70
     1
102
RTVSPost2010Prop48
 90
       50
102
RTVSPost2010PropOp48
 70
     1
102
RTVSPost2010Prop49
280
     0
102
RTVSPost2010PropOp49
 70
     1
102
RTVSPost2010Prop50
 90
       50
102
RTVSPost2010PropOp50
 70
     1
102
RTVSPost2010Prop51ColorIndex
 90
      256
102
RTVSPost2010Prop51ColorRGB
 90
-16777216
102
RTVSPost2010PropOp51
 70
     0
102
RTVSPost2010Prop52
140
1.0
102
RTVSPost2010PropOp52
 70
     0
102
RTVSPost2010Prop53
 90
        2
102
RTVSPost2010PropOp53
 70
     1
102
RTVSPost2010Prop54
  1
strokes_ogs.tif
102
RTVSPost2010PropOp54
 70
     1
102
RTVSPost2010Prop55
280
     0
102
RTVSPost2010PropOp55
 70
     1
102
RTVSPost2010Prop56
140
1.0
102
RTVSPost2010PropOp56
 70
     1
102
RTVSPost2010Prop57
140
1.0
102
RTVSPost2010PropOp57
 70
     1
102
RTVSPropertyOp0
 70
     1
102
RTVSPropertyOp1
 70
     1
102
RTVSPropertyOp2
 70
     1
102
RTVSPropertyOp3
 70
     1
102
RTVSPropertyOp4
 70
     1
102
RTVSPropertyOp5
 70
     1
102
RTVSPropertyOp6
 70
     1
102
RTVSPropertyOp7
 70
     1
102
RTVSPropertyOp8
 70
     1
102
RTVSPropertyOp9
 70
     1
102
RTVSPropertyOp10
 70
     1
102
RTVSPropertyOp11
 70
     1
102
RTVSPropertyOp12
 70
     1
102
RTVSPropertyOp13
 70
     1
102
RTVSPropertyOp14
 70
     1
102
RTVSPropertyOp15
 70
     1
102
RTVSPropertyOp16
 70
     1
102
RTVSPropertyOp17
 70
     1
102
RTVSPropertyOp18
 70
     1
102
RTVSPropertyOp19
 70
     1
102
RTVSPropertyOp20
 70
     1
102
RTVSPropertyOp21
 70
     1
102
RTVSPropertyOp22
 70
     1
102
RTVSPropertyOp23
 70
     1
102
RTVSPropertyOp24
 70
     1
102
RTVSPropertyOp25
 70
     1
102
RTVSPropertyOp26
 70
     1
102
RTVSPropertyOp27
 70
     1
102
RTVSPropertyOp28
 70
     1
102
RTVSPropertyOp29
 70
     1
102
RTVSPropertyOp30
 70
     1
102
RTVSPropertyOp31
 70
     1
102
RTVSPropertyOp32
 70
     1
102
RTVSPropertyOp33
 70
     1
102
RTVSPropertyOp34
 70
     1
102
RTVSPropertyOp35
 70
     1
102
RTVSPropertyOp36
 70
     1
102
RTVSPropertyOp37
 70
     1
102
RTVSPropertyOp38
 70
     1
102
RTVSPropertyOp39
 70
     1
102
RTVSPropertyOp40
 70
     1
102
RTVSPropertyOp41
 70
     1
102
RTVSPropertyOp42
 70
     1
102
RTVSPropertyOp43
 70
     1
102
RTVSPropertyOp44
 70
     1
102
RTVSPropertyOp45
 70
     1
102
RTVSPropertyOp46
 70
     1
102
RTVSPropertyOp47
 70
     1
102
RTVSPropertyOp48
 70
     1
102
RTVSPropertyOp49
 70
     1
102
RTVSPropertyOp50
 70
     1
102
RTVSPropertyOp51
 70
     0
102
RTVSPropertyOp52
 70
     0
102
RTVSPropertyOp53
 70
     1
102
RTVSPropertyOp54
 70
     1
102
RTVSPropertyOp55
 70
     1
102
RTVSPropertyOp56
 70
     1
102
RTVSPropertyOp57
 70
     1
102
RTVSPropertyOp58
 70
     1
102
RTVSPropertyOp59
 70
     1
102
RTVSPropertyOp60
 70
     1
102
RTVSPropertyOp61
 70
     1
102
RTVSPropertyOp62
 70
     1
  0
XRECORD
  5
A2F9
102
{ACAD_REACTORS
330
A2F8
102
}
330
A2F8
100
AcDbXrecord
280
     1
102
RTVSPost2010Prop28
280
     0
102
RTVSPost2010PropOp28
 70
     1
102
RTVSPost2010Prop29
280
     1
102
RTVSPost2010PropOp29
 70
     1
102
RTVSPost2010Prop30
280
     1
102
RTVSPost2010PropOp30
 70
     1
102
RTVSPost2010Prop31
280
     0
102
RTVSPost2010PropOp31
 70
     1
102
RTVSPost2010Prop32
280
     0
102
RTVSPost2010PropOp32
 70
     1
102
RTVSPost2010Prop33
280
     0
102
RTVSPost2010PropOp33
 70
     1
102
RTVSPost2010Prop34
280
     0
102
RTVSPost2010PropOp34
 70
     1
102
RTVSPost2010Prop35
280
     0
102
RTVSPost2010PropOp35
 70
     1
102
RTVSPost2010Prop36
280
     0
102
RTVSPost2010PropOp36
 70
     1
102
RTVSPost2010Prop37
 90
       50
102
RTVSPost2010PropOp37
 70
     1
102
RTVSPost2010Prop38
140
0.0
102
RTVSPost2010PropOp38
 70
     1
102
RTVSPost2010Prop39
140
1.0
102
RTVSPost2010PropOp39
 70
     1
102
RTVSPost2010Prop40
 90
        0
102
RTVSPost2010PropOp40
 70
     1
102
RTVSPost2010Prop41ColorIndex
 90
       18
102
RTVSPost2010Prop41ColorRGB
 90
        0
102
RTVSPost2010PropOp41
 70
     1
102
RTVSPost2010Prop42
 90
       50
102
RTVSPost2010PropOp42
 70
     1
102
RTVSPost2010Prop43
 90
        3
102
RTVSPost2010PropOp43
 70
     1
102
RTVSPost2010Prop44ColorIndex
 90
        5
102
RTVSPost2010Prop44ColorRGB
 90
      255
102
RTVSPost2010PropOp44
 70
     1
102
RTVSPost2010Prop45
280
     0
102
RTVSPost2010PropOp45
 70
     1
102
RTVSPost2010Prop46
 90
       50
102
RTVSPost2010PropOp46
 70
     1
102
RTVSPost2010Prop47
 90
       50
102
RTVSPost2010PropOp47
 70
     1
102
RTVSPost2010Prop48
 90
       50
102
RTVSPost2010PropOp48
 70
     1
102
RTVSPost2010Prop49
280
     0
102
RTVSPost2010PropOp49
 70
     1
102
RTVSPost2010Prop50
 90
       50
102
RTVSPost2010PropOp50
 70
     1
102
RTVSPost2010Prop51ColorIndex
 90
      256
102
RTVSPost2010Prop51ColorRGB
 90
-16777216
102
RTVSPost2010PropOp51
 70
     0
102
RTVSPost2010Prop52
140
1.0
102
RTVSPost2010PropOp52
 70
     0
102
RTVSPost2010Prop53
 90
        2
102
RTVSPost2010PropOp53
 70
     1
102
RTVSPost2010Prop54
  1
strokes_ogs.tif
102
RTVSPost2010PropOp54
 70
     1
102
RTVSPost2010Prop55
280
     0
102
RTVSPost2010PropOp55
 70
     1
102
RTVSPost2010Prop56
140
1.0
102
RTVSPost2010PropOp56
 70
     1
102
RTVSPost2010Prop57
140
1.0
102
RTVSPost2010PropOp57
 70
     1
102
RTVSPropertyOp0
 70
     1
102
RTVSPropertyOp1
 70
     1
102
RTVSPropertyOp2
 70
     1
102
RTVSPropertyOp3
 70
     1
102
RTVSPropertyOp4
 70
     1
102
RTVSPropertyOp5
 70
     1
102
RTVSPropertyOp6
 70
     1
102
RTVSPropertyOp7
 70
     1
102
RTVSPropertyOp8
 70
     1
102
RTVSPropertyOp9
 70
     1
102
RTVSPropertyOp10
 70
     1
102
RTVSPropertyOp11
 70
     1
102
RTVSPropertyOp12
 70
     1
102
RTVSPropertyOp13
 70
     1
102
RTVSPropertyOp14
 70
     1
102
RTVSPropertyOp15
 70
     1
102
RTVSPropertyOp16
 70
     1
102
RTVSPropertyOp17
 70
     1
102
RTVSPropertyOp18
 70
     1
102
RTVSPropertyOp19
 70
     1
102
RTVSPropertyOp20
 70
     1
102
RTVSPropertyOp21
 70
     1
102
RTVSPropertyOp22
 70
     1
102
RTVSPropertyOp23
 70
     1
102
RTVSPropertyOp24
 70
     1
102
RTVSPropertyOp25
 70
     1
102
RTVSPropertyOp26
 70
     1
102
RTVSPropertyOp27
 70
     1
102
RTVSPropertyOp28
 70
     1
102
RTVSPropertyOp29
 70
     1
102
RTVSPropertyOp30
 70
     1
102
RTVSPropertyOp31
 70
     1
102
RTVSPropertyOp32
 70
     1
102
RTVSPropertyOp33
 70
     1
102
RTVSPropertyOp34
 70
     1
102
RTVSPropertyOp35
 70
     1
102
RTVSPropertyOp36
 70
     1
102
RTVSPropertyOp37
 70
     1
102
RTVSPropertyOp38
 70
     1
102
RTVSPropertyOp39
 70
     1
102
RTVSPropertyOp40
 70
     1
102
RTVSPropertyOp41
 70
     1
102
RTVSPropertyOp42
 70
     1
102
RTVSPropertyOp43
 70
     1
102
RTVSPropertyOp44
 70
     1
102
RTVSPropertyOp45
 70
     1
102
RTVSPropertyOp46
 70
     1
102
RTVSPropertyOp47
 70
     1
102
RTVSPropertyOp48
 70
     1
102
RTVSPropertyOp49
 70
     1
102
RTVSPropertyOp50
 70
     1
102
RTVSPropertyOp51
 70
     0
102
RTVSPropertyOp52
 70
     0
102
RTVSPropertyOp53
 70
     1
102
RTVSPropertyOp54
 70
     1
102
RTVSPropertyOp55
 70
     1
102
RTVSPropertyOp56
 70
     1
102
RTVSPropertyOp57
 70
     1
102
RTVSPropertyOp58
 70
     1
102
RTVSPropertyOp59
 70
     1
102
RTVSPropertyOp60
 70
     1
102
RTVSPropertyOp61
 70
     1
102
RTVSPropertyOp62
 70
     1
  0
XRECORD
  5
A311
102
{ACAD_REACTORS
330
A310
102
}
330
A310
100
AcDbXrecord
280
     1
102
RTVSPost2010Prop28
280
     0
102
RTVSPost2010PropOp28
 70
     1
102
RTVSPost2010Prop29
280
     1
102
RTVSPost2010PropOp29
 70
     1
102
RTVSPost2010Prop30
280
     1
102
RTVSPost2010PropOp30
 70
     1
102
RTVSPost2010Prop31
280
     0
102
RTVSPost2010PropOp31
 70
     1
102
RTVSPost2010Prop32
280
     0
102
RTVSPost2010PropOp32
 70
     1
102
RTVSPost2010Prop33
280
     0
102
RTVSPost2010PropOp33
 70
     1
102
RTVSPost2010Prop34
280
     0
102
RTVSPost2010PropOp34
 70
     1
102
RTVSPost2010Prop35
280
     0
102
RTVSPost2010PropOp35
 70
     1
102
RTVSPost2010Prop36
280
     0
102
RTVSPost2010PropOp36
 70
     1
102
RTVSPost2010Prop37
 90
       50
102
RTVSPost2010PropOp37
 70
     1
102
RTVSPost2010Prop38
140
0.0
102
RTVSPost2010PropOp38
 70
     1
102
RTVSPost2010Prop39
140
1.0
102
RTVSPost2010PropOp39
 70
     1
102
RTVSPost2010Prop40
 90
        0
102
RTVSPost2010PropOp40
 70
     1
102
RTVSPost2010Prop41ColorIndex
 90
       18
102
RTVSPost2010Prop41ColorRGB
 90
        0
102
RTVSPost2010PropOp41
 70
     1
102
RTVSPost2010Prop42
 90
       50
102
RTVSPost2010PropOp42
 70
     1
102
RTVSPost2010Prop43
 90
        3
102
RTVSPost2010PropOp43
 70
     1
102
RTVSPost2010Prop44ColorIndex
 90
        5
102
RTVSPost2010Prop44ColorRGB
 90
      255
102
RTVSPost2010PropOp44
 70
     1
102
RTVSPost2010Prop45
280
     0
102
RTVSPost2010PropOp45
 70
     1
102
RTVSPost2010Prop46
 90
       50
102
RTVSPost2010PropOp46
 70
     1
102
RTVSPost2010Prop47
 90
       50
102
RTVSPost2010PropOp47
 70
     1
102
RTVSPost2010Prop48
 90
       50
102
RTVSPost2010PropOp48
 70
     1
102
RTVSPost2010Prop49
280
     0
102
RTVSPost2010PropOp49
 70
     1
102
RTVSPost2010Prop50
 90
       50
102
RTVSPost2010PropOp50
 70
     1
102
RTVSPost2010Prop51ColorIndex
 90
      256
102
RTVSPost2010Prop51ColorRGB
 90
-16777216
102
RTVSPost2010PropOp51
 70
     0
102
RTVSPost2010Prop52
140
1.0
102
RTVSPost2010PropOp52
 70
     0
102
RTVSPost2010Prop53
 90
        2
102
RTVSPost2010PropOp53
 70
     1
102
RTVSPost2010Prop54
  1
strokes_ogs.tif
102
RTVSPost2010PropOp54
 70
     1
102
RTVSPost2010Prop55
280
     0
102
RTVSPost2010PropOp55
 70
     1
102
RTVSPost2010Prop56
140
1.0
102
RTVSPost2010PropOp56
 70
     1
102
RTVSPost2010Prop57
140
1.0
102
RTVSPost2010PropOp57
 70
     1
102
RTVSPropertyOp0
 70
     1
102
RTVSPropertyOp1
 70
     1
102
RTVSPropertyOp2
 70
     1
102
RTVSPropertyOp3
 70
     1
102
RTVSPropertyOp4
 70
     1
102
RTVSPropertyOp5
 70
     1
102
RTVSPropertyOp6
 70
     1
102
RTVSPropertyOp7
 70
     1
102
RTVSPropertyOp8
 70
     1
102
RTVSPropertyOp9
 70
     1
102
RTVSPropertyOp10
 70
     1
102
RTVSPropertyOp11
 70
     1
102
RTVSPropertyOp12
 70
     1
102
RTVSPropertyOp13
 70
     1
102
RTVSPropertyOp14
 70
     1
102
RTVSPropertyOp15
 70
     1
102
RTVSPropertyOp16
 70
     1
102
RTVSPropertyOp17
 70
     1
102
RTVSPropertyOp18
 70
     1
102
RTVSPropertyOp19
 70
     1
102
RTVSPropertyOp20
 70
     1
102
RTVSPropertyOp21
 70
     1
102
RTVSPropertyOp22
 70
     1
102
RTVSPropertyOp23
 70
     1
102
RTVSPropertyOp24
 70
     1
102
RTVSPropertyOp25
 70
     1
102
RTVSPropertyOp26
 70
     1
102
RTVSPropertyOp27
 70
     1
102
RTVSPropertyOp28
 70
     1
102
RTVSPropertyOp29
 70
     1
102
RTVSPropertyOp30
 70
     1
102
RTVSPropertyOp31
 70
     1
102
RTVSPropertyOp32
 70
     1
102
RTVSPropertyOp33
 70
     1
102
RTVSPropertyOp34
 70
     1
102
RTVSPropertyOp35
 70
     1
102
RTVSPropertyOp36
 70
     1
102
RTVSPropertyOp37
 70
     1
102
RTVSPropertyOp38
 70
     1
102
RTVSPropertyOp39
 70
     1
102
RTVSPropertyOp40
 70
     1
102
RTVSPropertyOp41
 70
     1
102
RTVSPropertyOp42
 70
     1
102
RTVSPropertyOp43
 70
     1
102
RTVSPropertyOp44
 70
     1
102
RTVSPropertyOp45
 70
     1
102
RTVSPropertyOp46
 70
     1
102
RTVSPropertyOp47
 70
     1
102
RTVSPropertyOp48
 70
     1
102
RTVSPropertyOp49
 70
     1
102
RTVSPropertyOp50
 70
     1
102
RTVSPropertyOp51
 70
     0
102
RTVSPropertyOp52
 70
     0
102
RTVSPropertyOp53
 70
     1
102
RTVSPropertyOp54
 70
     1
102
RTVSPropertyOp55
 70
     1
102
RTVSPropertyOp56
 70
     1
102
RTVSPropertyOp57
 70
     1
102
RTVSPropertyOp58
 70
     1
102
RTVSPropertyOp59
 70
     1
102
RTVSPropertyOp60
 70
     1
102
RTVSPropertyOp61
 70
     1
102
RTVSPropertyOp62
 70
     1
  0
ENDSEC
  0
EOF
