  0
SECTION
  2
HEADER
  9
$ACADVER
  1
AC1015
  9
$ACADMAINTVER
 70
    20
  9
$DWGCODEPAGE
  3
ANSI_932
  9
$INSBASE
 10
0.0
 20
0.0
 30
0.0
  9
$EXTMIN
 10
10.0
 20
9.999999999999998
 30
0.0
  9
$EXTMAX
 10
494.6480719999998
 20
325.5828329999999
 30
0.0
  9
$LIMMIN
 10
0.0
 20
0.0
  9
$LIMMAX
 10
495.0
 20
341.25
  9
$ORTHOMODE
 70
     1
  9
$REGENMODE
 70
     1
  9
$FILLMODE
 70
     1
  9
$QTEXTMODE
 70
     0
  9
$MIRRTEXT
 70
     1
  9
$LTSCALE
 40
20.0
  9
$ATTMODE
 70
     1
  9
$TEXTSIZE
 40
5.0
  9
$TRACEWID
 40
1.0
  9
$TEXTSTYLE
  7
STANDARD
  9
$CLAYER
  8
0
  9
$CELTYPE
  6
BYLAYER
  9
$CECOLOR
 62
   256
  9
$CELTSCALE
 40
1.0
  9
$DISPSILH
 70
     0
  9
$DIMSCALE
 40
1.0
  9
$DIMASZ
 40
3.0
  9
$DIMEXO
 40
1.0
  9
$DIMDLI
 40
10.0
  9
$DIMRND
 40
0.0
  9
$DIMDLE
 40
0.0
  9
$DIMEXE
 40
1.0
  9
$DIMTP
 40
0.0
  9
$DIMTM
 40
0.0
  9
$DIMTXT
 40
3.2
  9
$DIMCEN
 40
0.0
  9
$DIMTSZ
 40
0.0
  9
$DIMTOL
 70
     0
  9
$DIMLIM
 70
     0
  9
$DIMTIH
 70
     0
  9
$DIMTOH
 70
     0
  9
$DIMSE1
 70
     0
  9
$DIMSE2
 70
     0
  9
$DIMTAD
 70
     3
  9
$DIMZIN
 70
     8
  9
$DIMBLK
  1

  9
$DIMASO
 70
     1
  9
$DIMSHO
 70
     1
  9
$DIMPOST
  1

  9
$DIMAPOST
  1

  9
$DIMALT
 70
     0
  9
$DIMALTD
 70
     2
  9
$DIMALTF
 40
25.4
  9
$DIMLFAC
 40
1.0
  9
$DIMTOFL
 70
     1
  9
$DIMTVP
 40
0.0
  9
$DIMTIX
 70
     0
  9
$DIMSOXD
 70
     0
  9
$DIMSAH
 70
     1
  9
$DIMBLK1
  1

  9
$DIMBLK2
  1

  9
$DIMSTYLE
  2
STANDARD
  9
$DIMCLRD
 70
     0
  9
$DIMCLRE
 70
     0
  9
$DIMCLRT
 70
     0
  9
$DIMTFAC
 40
1.0
  9
$DIMGAP
 40
1.0
  9
$DIMJUST
 70
     0
  9
$DIMSD1
 70
     0
  9
$DIMSD2
 70
     0
  9
$DIMTOLJ
 70
     1
  9
$DIMTZIN
 70
     0
  9
$DIMALTZ
 70
     0
  9
$DIMALTTZ
 70
     0
  9
$DIMUPT
 70
     0
  9
$DIMDEC
 70
     4
  9
$DIMTDEC
 70
     4
  9
$DIMALTU
 70
     2
  9
$DIMALTTD
 70
     2
  9
$DIMTXSTY
  7
STANDARD
  9
$DIMAUNIT
 70
     0
  9
$DIMADEC
 70
     0
  9
$DIMALTRND
 40
0.0
  9
$DIMAZIN
 70
     0
  9
$DIMDSEP
 70
    46
  9
$DIMATFIT
 70
     3
  9
$DIMFRAC
 70
     0
  9
$DIMLDRBLK
  1

  9
$DIMLUNIT
 70
     2
  9
$DIMLWD
 70
    -2
  9
$DIMLWE
 70
    -2
  9
$DIMTMOVE
 70
     0
  9
$LUNITS
 70
     2
  9
$LUPREC
 70
     4
  9
$SKETCHINC
 40
1.0
  9
$FILLETRAD
 40
0.0
  9
$AUNITS
 70
     0
  9
$AUPREC
 70
     2
  9
$MENU
  1
.
  9
$ELEVATION
 40
0.0
  9
$PELEVATION
 40
0.0
  9
$THICKNESS
 40
0.0
  9
$LIMCHECK
 70
     0
  9
$CHAMFERA
 40
10.0
  9
$CHAMFERB
 40
10.0
  9
$CHAMFERC
 40
0.0
  9
$CHAMFERD
 40
0.0
  9
$SKPOLY
 70
     0
  9
$TDCREATE
 40
2451066.796703704
  9
$TDUCREATE
 40
2451066.421703704
  9
$TDUPDATE
 40
2457192.598621678
  9
$TDUUPDATE
 40
2457192.223621678
  9
$TDINDWG
 40
0.0000157986
  9
$TDUSRTIMER
 40
0.0000151389
  9
$USRTIMER
 70
     1
  9
$ANGBASE
 50
0.0
  9
$ANGDIR
 70
     0
  9
$PDMODE
 70
     0
  9
$PDSIZE
 40
0.0
  9
$PLINEWID
 40
0.0
  9
$SPLFRAME
 70
     0
  9
$SPLINETYPE
 70
     6
  9
$SPLINESEGS
 70
     8
  9
$HANDSEED
  5
A7AE
  9
$SURFTAB1
 70
     6
  9
$SURFTAB2
 70
     6
  9
$SURFTYPE
 70
     6
  9
$SURFU
 70
     6
  9
$SURFV
 70
     6
  9
$UCSBASE
  2

  9
$UCSNAME
  2

  9
$UCSORG
 10
0.0
 20
0.0
 30
0.0
  9
$UCSXDIR
 10
1.0
 20
0.0
 30
0.0
  9
$UCSYDIR
 10
0.0
 20
1.0
 30
0.0
  9
$UCSORTHOREF
  2

  9
$UCSORTHOVIEW
 70
     0
  9
$UCSORGTOP
 10
0.0
 20
0.0
 30
0.0
  9
$UCSORGBOTTOM
 10
0.0
 20
0.0
 30
0.0
  9
$UCSORGLEFT
 10
0.0
 20
0.0
 30
0.0
  9
$UCSORGRIGHT
 10
0.0
 20
0.0
 30
0.0
  9
$UCSORGFRONT
 10
0.0
 20
0.0
 30
0.0
  9
$UCSORGBACK
 10
0.0
 20
0.0
 30
0.0
  9
$PUCSBASE
  2

  9
$PUCSNAME
  2

  9
$PUCSORG
 10
0.0
 20
0.0
 30
0.0
  9
$PUCSXDIR
 10
1.0
 20
0.0
 30
0.0
  9
$PUCSYDIR
 10
0.0
 20
1.0
 30
0.0
  9
$PUCSORTHOREF
  2

  9
$PUCSORTHOVIEW
 70
     0
  9
$PUCSORGTOP
 10
0.0
 20
0.0
 30
0.0
  9
$PUCSORGBOTTOM
 10
0.0
 20
0.0
 30
0.0
  9
$PUCSORGLEFT
 10
0.0
 20
0.0
 30
0.0
  9
$PUCSORGRIGHT
 10
0.0
 20
0.0
 30
0.0
  9
$PUCSORGFRONT
 10
0.0
 20
0.0
 30
0.0
  9
$PUCSORGBACK
 10
0.0
 20
0.0
 30
0.0
  9
$USERI1
 70
     0
  9
$USERI2
 70
     0
  9
$USERI3
 70
     0
  9
$USERI4
 70
     0
  9
$USERI5
 70
     0
  9
$USERR1
 40
0.0
  9
$USERR2
 40
0.0
  9
$USERR3
 40
0.0
  9
$USERR4
 40
0.0
  9
$USERR5
 40
0.0
  9
$WORLDVIEW
 70
     1
  9
$SHADEDGE
 70
     3
  9
$SHADEDIF
 70
    70
  9
$TILEMODE
 70
     1
  9
$MAXACTVP
 70
    16
  9
$PINSBASE
 10
0.0
 20
0.0
 30
0.0
  9
$PLIMCHECK
 70
     0
  9
$PEXTMIN
 10
1.000000000000000E+20
 20
1.000000000000000E+20
 30
1.000000000000000E+20
  9
$PEXTMAX
 10
-1.000000000000000E+20
 20
-1.000000000000000E+20
 30
-1.000000000000000E+20
  9
$PLIMMIN
 10
0.0
 20
0.0
  9
$PLIMMAX
 10
420.0
 20
297.0
  9
$UNITMODE
 70
     0
  9
$VISRETAIN
 70
     0
  9
$PLINEGEN
 70
     0
  9
$PSLTSCALE
 70
     0
  9
$TREEDEPTH
 70
  3020
  9
$CMLSTYLE
  2
STANDARD
  9
$CMLJUST
 70
     0
  9
$CMLSCALE
 40
1.0
  9
$PROXYGRAPHICS
 70
     1
  9
$MEASUREMENT
 70
     0
  9
$CELWEIGHT
370
    -1
  9
$ENDCAPS
280
     0
  9
$JOINSTYLE
280
     0
  9
$LWDISPLAY
290
     0
  9
$INSUNITS
 70
     0
  9
$HYPERLINKBASE
  1

  9
$STYLESHEET
  1

  9
$XEDIT
290
     1
  9
$CEPSNTYPE
380
     0
  9
$PSTYLEMODE
290
     1
  9
$FINGERPRINTGUID
  2
{8CD84361-B7B4-4A8C-AA61-1C12B83A9680}
  9
$VERSIONGUID
  2
{4CC6B32B-C86F-4811-8EEE-E8F330184B15}
  9
$EXTNAMES
290
     1
  9
$PSVPSCALE
 40
0.0
  9
$OLESTARTUP
290
     0
  0
ENDSEC
  0
SECTION
  2
CLASSES
  0
CLASS
  1
ACDBDICTIONARYWDFLT
  2
AcDbDictionaryWithDefault
  3
ObjectDBX Classes
 90
        0
280
     0
281
     0
  0
CLASS
  1
ACDBPLACEHOLDER
  2
AcDbPlaceHolder
  3
ObjectDBX Classes
 90
        0
280
     0
281
     0
  0
CLASS
  1
LAYOUT
  2
AcDbLayout
  3
ObjectDBX Classes
 90
        0
280
     0
281
     0
  0
CLASS
  1
DICTIONARYVAR
  2
AcDbDictionaryVar
  3
ObjectDBX Classes
 90
        0
280
     0
281
     0
  0
CLASS
  1
MATERIAL
  2
AcDbMaterial
  3
ObjectDBX Classes
 90
     1153
280
     0
281
     0
  0
CLASS
  1
VISUALSTYLE
  2
AcDbVisualStyle
  3
ObjectDBX Classes
 90
     4095
280
     0
281
     0
  0
CLASS
  1
TABLESTYLE
  2
AcDbTableStyle
  3
ObjectDBX Classes
 90
     4095
280
     0
281
     0
  0
CLASS
  1
SCALE
  2
AcDbScale
  3
ObjectDBX Classes
 90
     1153
280
     0
281
     0
  0
CLASS
  1
MLEADERSTYLE
  2
AcDbMLeaderStyle
  3
ACDB_MLEADERSTYLE_CLASS
 90
     4095
280
     0
281
     0
  0
CLASS
  1
ACDBSECTIONVIEWSTYLE
  2
AcDbSectionViewStyle
  3
ObjectDBX Classes
 90
     1025
280
     0
281
     0
  0
CLASS
  1
ACDBDETAILVIEWSTYLE
  2
AcDbDetailViewStyle
  3
ObjectDBX Classes
 90
     1025
280
     0
281
     0
  0
CLASS
  1
CELLSTYLEMAP
  2
AcDbCellStyleMap
  3
ObjectDBX Classes
 90
     1152
280
     0
281
     0
  0
ENDSEC
  0
SECTION
  2
TABLES
  0
TABLE
  2
VPORT
  5
A398
330
0
100
AcDbSymbolTable
 70
     1
  0
VPORT
  5
A6F7
330
A398
100
AcDbSymbolTableRecord
100
AcDbViewportTableRecord
  2
*ACTIVE
 70
     0
 10
0.0
 20
0.0
 11
1.0
 21
1.0
 12
347.9235349326915
 22
167.7871521279007
 13
0.0
 23
0.0
 14
10.0
 24
10.0
 15
10.0
 25
10.0
 16
0.0
 26
0.0
 36
1.0
 17
0.0
 27
0.0
 37
0.0
 40
319.1298160764256
 41
1.899603698811096
 42
50.0
 43
0.0
 44
0.0
 50
0.0
 51
0.0
 71
     0
 72
   100
 73
     1
 74
     0
 75
     0
 76
     0
 77
     0
 78
     0
281
     0
 65
     1
110
0.0
120
0.0
130
0.0
111
1.0
121
0.0
131
0.0
112
0.0
122
1.0
132
0.0
 79
     0
146
0.0
1001
ACAD_NAV_VCDISPLAY
1070
     3
  0
ENDTAB
  0
TABLE
  2
LTYPE
  5
A395
330
0
100
AcDbSymbolTable
 70
     4
  0
LTYPE
  5
A3A3
330
A395
100
AcDbSymbolTableRecord
100
AcDbLinetypeTableRecord
  2
BYBLOCK
 70
     0
  3

 72
    65
 73
     0
 40
0.0
  0
LTYPE
  5
A3A4
330
A395
100
AcDbSymbolTableRecord
100
AcDbLinetypeTableRecord
  2
BYLAYER
 70
     0
  3

 72
    65
 73
     0
 40
0.0
  0
LTYPE
  5
A3A5
330
A395
100
AcDbSymbolTableRecord
100
AcDbLinetypeTableRecord
  2
CONTINUOUS
 70
     0
  3
Solid line
 72
    65
 73
     0
 40
0.0
  0
LTYPE
  5
A3B3
330
A395
100
AcDbSymbolTableRecord
100
AcDbLinetypeTableRecord
  2
DASHED
 70
     0
  3
__ __ __ __ __ __ __ __ __ __ __ __ __ __ __ __
 72
    65
 73
     2
 40
0.75
 49
0.5
 74
     0
 49
-0.25
 74
     0
  0
LTYPE
  5
A3B4
330
A395
100
AcDbSymbolTableRecord
100
AcDbLinetypeTableRecord
  2
CENTER
 70
     0
  3
____ _ ____ _ ____ _ ____ _ ____ _ ____ _ ____ 
 72
    65
 73
     4
 40
2.0
 49
1.25
 74
     0
 49
-0.25
 74
     0
 49
0.25
 74
     0
 49
-0.25
 74
     0
  0
LTYPE
  5
A3B5
330
A395
100
AcDbSymbolTableRecord
100
AcDbLinetypeTableRecord
  2
PHANTOM
 70
     0
  3
______  __  __  ______  __  __  ______  __  __ 
 72
    65
 73
     6
 40
2.5
 49
1.25
 74
     0
 49
-0.25
 74
     0
 49
0.25
 74
     0
 49
-0.25
 74
     0
 49
0.25
 74
     0
 49
-0.25
 74
     0
  0
ENDTAB
  0
TABLE
  2
LAYER
  5
A392
330
0
100
AcDbSymbolTable
 70
     8
  0
LAYER
  5
A3A0
102
{ACAD_XDICTIONARY
360
A752
102
}
330
A392
100
AcDbSymbolTableRecord
100
AcDbLayerTableRecord
  2
0
 70
     0
 62
     7
  6
CONTINUOUS
370
    -3
390
A700
  0
LAYER
  5
A3B6
102
{ACAD_XDICTIONARY
360
A754
102
}
330
A392
100
AcDbSymbolTableRecord
100
AcDbLayerTableRecord
  2
4
 70
     0
 62
     1
  6
CENTER
370
    -3
390
A700
  0
LAYER
  5
A3B7
102
{ACAD_XDICTIONARY
360
A756
102
}
330
A392
100
AcDbSymbolTableRecord
100
AcDbLayerTableRecord
  2
5
 70
     0
 62
     6
  6
PHANTOM
370
    -3
390
A700
  0
LAYER
  5
A3B8
102
{ACAD_XDICTIONARY
360
A758
102
}
330
A392
100
AcDbSymbolTableRecord
100
AcDbLayerTableRecord
  2
1
 70
     0
 62
     7
  6
CONTINUOUS
370
    -3
390
A700
  0
LAYER
  5
A3B9
102
{ACAD_XDICTIONARY
360
A75A
102
}
330
A392
100
AcDbSymbolTableRecord
100
AcDbLayerTableRecord
  2
2
 70
     0
 62
     4
  6
CONTINUOUS
370
    -3
390
A700
  0
LAYER
  5
A3BA
102
{ACAD_XDICTIONARY
360
A75C
102
}
330
A392
100
AcDbSymbolTableRecord
100
AcDbLayerTableRecord
  2
3
 70
     0
 62
     2
  6
DASHED
370
    -3
390
A700
  0
LAYER
  5
A3BB
102
{ACAD_XDICTIONARY
360
A75E
102
}
330
A392
100
AcDbSymbolTableRecord
100
AcDbLayerTableRecord
  2
6
 70
     0
 62
     5
  6
CONTINUOUS
370
    -3
390
A700
  0
LAYER
  5
A3BC
102
{ACAD_XDICTIONARY
360
A760
102
}
330
A392
100
AcDbSymbolTableRecord
100
AcDbLayerTableRecord
  2
7
 70
     0
 62
     3
  6
CONTINUOUS
370
    -3
390
A700
  0
ENDTAB
  0
TABLE
  2
STYLE
  5
A393
330
0
100
AcDbSymbolTable
 70
     1
  0
STYLE
  5
A3A1
330
A393
100
AcDbSymbolTableRecord
100
AcDbTextStyleTableRecord
  2
STANDARD
 70
     0
 40
0.0
 41
1.0
 50
0.0
 71
     0
 42
5.0
  3
txt
  4

  0
ENDTAB
  0
TABLE
  2
VIEW
  5
A396
330
0
100
AcDbSymbolTable
 70
     0
  0
ENDTAB
  0
TABLE
  2
UCS
  5
A397
330
0
100
AcDbSymbolTable
 70
     0
  0
ENDTAB
  0
TABLE
  2
APPID
  5
A399
330
0
100
AcDbSymbolTable
 70
     3
  0
APPID
  5
A3A2
330
A399
100
AcDbSymbolTableRecord
100
AcDbRegAppTableRecord
  2
ACAD
 70
     0
  0
APPID
  5
A76C
330
A399
100
AcDbSymbolTableRecord
100
AcDbRegAppTableRecord
  2
ACAD_NAV_VCDISPLAY
 70
     0
  0
APPID
  5
A7A5
330
A399
100
AcDbSymbolTableRecord
100
AcDbRegAppTableRecord
  2
ACAD_MLEADERVER
 70
     0
  0
ENDTAB
  0
TABLE
  2
DIMSTYLE
  5
A39A
330
0
100
AcDbSymbolTable
 70
     1
100
AcDbDimStyleTable
 71
     0
  0
DIMSTYLE
105
A3BE
330
A39A
100
AcDbSymbolTableRecord
100
AcDbDimStyleTableRecord
  2
STANDARD
 70
     0
 41
3.0
 42
1.0
 43
10.0
 44
1.0
 73
     0
 74
     0
 77
     3
 78
     8
140
3.2
141
0.0
147
1.0
172
     1
173
     1
284
     8
285
     8
286
     8
340
A3A1
  0
ENDTAB
  0
TABLE
  2
BLOCK_RECORD
  5
A391
330
0
100
AcDbSymbolTable
 70
     0
  0
BLOCK_RECORD
  5
A3AE
102
{ACAD_XDICTIONARY
360
A6FA
102
}
330
A391
100
AcDbSymbolTableRecord
100
AcDbBlockTableRecord
  2
*MODEL_SPACE
340
A74E
  0
BLOCK_RECORD
  5
A3AA
102
{ACAD_XDICTIONARY
360
A6F8
102
}
330
A391
100
AcDbSymbolTableRecord
100
AcDbBlockTableRecord
  2
*PAPER_SPACE
340
A74F
  0
ENDTAB
  0
ENDSEC
  0
SECTION
  2
BLOCKS
  0
BLOCK
  5
A3AF
330
A3AE
100
AcDbEntity
  8
0
100
AcDbBlockBegin
  2
*MODEL_SPACE
 70
     0
 10
0.0
 20
0.0
 30
0.0
  3
*MODEL_SPACE
  1

  0
ENDBLK
  5
A3B0
330
A3AE
100
AcDbEntity
  8
0
100
AcDbBlockEnd
  0
BLOCK
  5
A3AB
330
A3AA
100
AcDbEntity
 67
     1
  8
0
100
AcDbBlockBegin
  2
*PAPER_SPACE
 70
     0
 10
0.0
 20
0.0
 30
0.0
  3
*PAPER_SPACE
  1

  0
ENDBLK
  5
A3AC
330
A3AA
100
AcDbEntity
 67
     1
  8
0
100
AcDbBlockEnd
  0
ENDSEC
  0
SECTION
  2
ENTITIES
  0
TEXT
  5
A3C6
330
A3AE
100
AcDbEntity
  8
7
  6
Continuous
100
AcDbText
 10
10.0
 20
18.0
 30
0.0
 40
3.0
  1
TYPE No.TL-11J-3
100
AcDbText
  0
TEXT
  5
A3C7
330
A3AE
100
AcDbEntity
  8
7
  6
Continuous
100
AcDbText
 10
10.0
 20
26.0
 30
0.0
 40
3.0
  1
CODE No.1389
100
AcDbText
  0
TEXT
  5
A3C8
330
A3AE
100
AcDbEntity
  8
1
  6
Continuous
100
AcDbText
 10
10.0
 20
10.0
 30
0.0
 40
1.399999999999999
  1
LAYER
100
AcDbText
  0
TEXT
  5
A3C9
330
A3AE
100
AcDbEntity
  8
1
  6
Continuous
100
AcDbText
 10
17.97951099999998
 20
10.04873699999998
 30
0.0
 40
1.399999999999999
  1
1
100
AcDbText
  0
TEXT
  5
A3CA
330
A3AE
100
AcDbEntity
  8
7
  6
Continuous
100
AcDbText
 10
29.97951099999999
 20
10.04873699999998
 30
0.0
 40
1.399999999999999
  1
7
100
AcDbText
  0
TEXT
  5
A3CB
330
A3AE
100
AcDbEntity
  8
4
  6
CENTER
100
AcDbText
 10
23.97951099999999
 20
10.04873699999998
 30
0.0
 40
1.399999999999999
  1
4
100
AcDbText
  0
TEXT
  5
A3CC
330
A3AE
100
AcDbEntity
  8
3
  6
DASHED
100
AcDbText
 10
21.979511
 20
10.04873699999998
 30
0.0
 40
1.399999999999999
  1
3
100
AcDbText
  0
TEXT
  5
A3CD
330
A3AE
100
AcDbEntity
  8
2
  6
Continuous
100
AcDbText
 10
19.97951099999999
 20
10.04873699999998
 30
0.0
 40
1.399999999999999
  1
2
100
AcDbText
  0
TEXT
  5
A3CE
330
A3AE
100
AcDbEntity
  8
6
  6
Continuous
100
AcDbText
 10
27.979511
 20
10.04873699999998
 30
0.0
 40
1.399999999999999
  1
6
100
AcDbText
  0
TEXT
  5
A3CF
330
A3AE
100
AcDbEntity
  8
5
  6
PHANTOM
100
AcDbText
 10
25.97951099999999
 20
10.04873699999998
 30
0.0
 40
1.399999999999999
  1
5
100
AcDbText
  0
LINE
  5
A3D0
330
A3AE
100
AcDbEntity
  8
4
  6
CENTER
100
AcDbLine
 10
38.555972
 20
221.592018
 30
0.0
 11
38.555972
 21
109.4920179999999
 31
0.0
  0
LINE
  5
A3D1
330
A3AE
100
AcDbEntity
  8
1
  6
Continuous
100
AcDbLine
 10
53.956072
 20
167.1624949999998
 30
0.0
 11
53.956072
 21
135.492018
 31
0.0
  0
LINE
  5
A3D2
330
A3AE
100
AcDbEntity
  8
1
  6
Continuous
100
AcDbLine
 10
23.155972
 20
167.1624949999998
 30
0.0
 11
23.155972
 21
135.492018
 31
0.0
  0
LINE
  5
A3D3
330
A3AE
100
AcDbEntity
  8
1
  6
Continuous
100
AcDbLine
 10
47.55597199999999
 20
189.4920179999998
 30
0.0
 11
29.55597199999999
 21
189.4920179999998
 31
0.0
  0
LINE
  5
A3D4
330
A3AE
100
AcDbEntity
  8
1
  6
Continuous
100
AcDbLine
 10
53.956072
 20
135.492018
 30
0.0
 11
51.556072
 21
135.492018
 31
0.0
  0
LINE
  5
A3D5
330
A3AE
100
AcDbEntity
  8
1
  6
Continuous
100
AcDbLine
 10
47.55597199999999
 20
189.4920179999998
 30
0.0
 11
47.55597199999999
 21
176.492018
 31
0.0
  0
LINE
  5
A3D6
330
A3AE
100
AcDbEntity
  8
1
  6
Continuous
100
AcDbLine
 10
29.55597199999999
 20
189.4920179999998
 30
0.0
 11
29.55597199999999
 21
176.492018
 31
0.0
  0
LINE
  5
A3D7
330
A3AE
100
AcDbEntity
  8
1
  6
Continuous
100
AcDbLine
 10
51.556072
 20
135.492018
 30
0.0
 11
51.556072
 21
119.4920179999999
 31
0.0
  0
LINE
  5
A3D8
330
A3AE
100
AcDbEntity
  8
1
  6
Continuous
100
AcDbLine
 10
25.555972
 20
135.492018
 30
0.0
 11
25.555972
 21
119.4920179999999
 31
0.0
  0
LINE
  5
A3D9
330
A3AE
100
AcDbEntity
  8
1
  6
Continuous
100
AcDbLine
 10
46.55597199999998
 20
114.4920179999999
 30
0.0
 11
30.55597199999999
 21
114.4920179999999
 31
0.0
  0
LINE
  5
A3DA
330
A3AE
100
AcDbEntity
  8
1
  6
Continuous
100
AcDbLine
 10
25.555972
 20
135.492018
 30
0.0
 11
23.155972
 21
135.492018
 31
0.0
  0
LINE
  5
A3DB
330
A3AE
100
AcDbEntity
  8
1
  6
Continuous
100
AcDbLine
 10
203.3000719999999
 20
189.4920179999998
 30
0.0
 11
208.9730719999999
 21
189.4920179999998
 31
0.0
  0
LINE
  5
A3DC
330
A3AE
100
AcDbEntity
  8
1
  6
Continuous
100
AcDbLine
 10
203.3000719999999
 20
114.4920179999999
 30
0.0
 11
205.300072
 21
114.4920179999999
 31
0.0
  0
LINE
  5
A3DD
330
A3AE
100
AcDbEntity
  8
1
  6
Continuous
100
AcDbLine
 10
203.3000719999999
 20
189.4920179999998
 30
0.0
 11
203.3000719999999
 21
114.4920179999999
 31
0.0
  0
LINE
  5
A3DE
330
A3AE
100
AcDbEntity
  8
1
  6
Continuous
100
AcDbLine
 10
206.300072
 20
168.4920179999998
 30
0.0
 11
210.900072
 21
168.4920179999998
 31
0.0
  0
LINE
  5
A3DF
330
A3AE
100
AcDbEntity
  8
1
  6
Continuous
100
AcDbLine
 10
203.3000719999999
 20
135.492018
 30
0.0
 11
223.300072
 21
135.492018
 31
0.0
  0
LINE
  5
A3E0
330
A3AE
100
AcDbEntity
  8
1
  6
Continuous
100
AcDbLine
 10
205.300072
 20
135.492018
 30
0.0
 11
205.300072
 21
114.4920179999999
 31
0.0
  0
LINE
  5
A3E1
330
A3AE
100
AcDbEntity
  8
1
  6
Continuous
100
AcDbLine
 10
210.550072
 20
148.242018
 30
0.0
 11
210.550072
 21
142.742018
 31
0.0
  0
LINE
  5
A3E2
330
A3AE
100
AcDbEntity
  8
1
  6
Continuous
100
AcDbLine
 10
217.050072
 20
148.242018
 30
0.0
 11
217.050072
 21
142.742018
 31
0.0
  0
LINE
  5
A3E3
330
A3AE
100
AcDbEntity
  8
1
  6
Continuous
100
AcDbLine
 10
54.956072
 20
154.492018
 30
0.0
 11
53.956072
 21
154.492018
 31
0.0
  0
LINE
  5
A3E4
330
A3AE
100
AcDbEntity
  8
1
  6
Continuous
100
AcDbLine
 10
54.956072
 20
158.492018
 30
0.0
 11
54.956072
 21
154.492018
 31
0.0
  0
LINE
  5
A3E5
330
A3AE
100
AcDbEntity
  8
1
  6
Continuous
100
AcDbLine
 10
22.15597199999999
 20
158.492018
 30
0.0
 11
22.15597199999999
 21
154.492018
 31
0.0
  0
LINE
  5
A3E6
330
A3AE
100
AcDbEntity
  8
1
  6
Continuous
100
AcDbLine
 10
23.155972
 20
154.492018
 30
0.0
 11
22.15597199999999
 21
154.492018
 31
0.0
  0
LINE
  5
A3E7
330
A3AE
100
AcDbEntity
  8
1
  6
Continuous
100
AcDbLine
 10
25.155972
 20
300.5828329999999
 30
0.0
 11
51.956072
 21
300.5828329999999
 31
0.0
  0
LINE
  5
A3E8
330
A3AE
100
AcDbEntity
  8
4
  6
CENTER
100
AcDbLine
 10
38.555972
 20
295.582833
 30
0.0
 11
38.555972
 21
325.5828329999999
 31
0.0
  0
LINE
  5
A3E9
330
A3AE
100
AcDbEntity
  8
1
  6
Continuous
100
AcDbLine
 10
47.55597199999999
 20
302.5828329999999
 30
0.0
 11
47.55597199999999
 21
311.0828329999999
 31
0.0
  0
LINE
  5
A3EA
330
A3AE
100
AcDbEntity
  8
1
  6
Continuous
100
AcDbLine
 10
29.55597199999999
 20
302.5828329999999
 30
0.0
 11
29.55597199999999
 21
311.0828329999999
 31
0.0
  0
LINE
  5
A3EB
330
A3AE
100
AcDbEntity
  8
1
  6
Continuous
100
AcDbLine
 10
45.555972
 20
302.5828329999999
 30
0.0
 11
45.555972
 21
311.0828329999999
 31
0.0
  0
LINE
  5
A3EC
330
A3AE
100
AcDbEntity
  8
1
  6
Continuous
100
AcDbLine
 10
31.55597199999998
 20
302.5828329999999
 30
0.0
 11
31.55597199999998
 21
311.0828329999999
 31
0.0
  0
LINE
  5
A3ED
330
A3AE
100
AcDbEntity
  8
1
  6
Continuous
100
AcDbLine
 10
31.55597199999998
 20
302.5828329999999
 30
0.0
 11
45.555972
 21
302.5828329999999
 31
0.0
  0
LINE
  5
A3EE
330
A3AE
100
AcDbEntity
  8
1
  6
Continuous
100
AcDbLine
 10
54.956072
 20
304.5828329999999
 30
0.0
 11
54.956072
 21
305.0828329999998
 31
0.0
  0
LINE
  5
A3EF
330
A3AE
100
AcDbEntity
  8
1
  6
Continuous
100
AcDbLine
 10
53.956072
 20
304.5828329999999
 30
0.0
 11
54.956072
 21
304.5828329999999
 31
0.0
  0
LINE
  5
A3F0
330
A3AE
100
AcDbEntity
  8
1
  6
Continuous
100
AcDbLine
 10
29.55597199999999
 20
58.224318
 30
0.0
 11
27.80597199999998
 21
58.224318
 31
0.0
  0
LINE
  5
A3F1
330
A3AE
100
AcDbEntity
  8
1
  6
Continuous
100
AcDbLine
 10
29.55597199999999
 20
306.5828329999998
 30
0.0
 11
27.655972
 21
306.5828329999998
 31
0.0
  0
LINE
  5
A3F2
330
A3AE
100
AcDbEntity
  8
1
  6
Continuous
100
AcDbLine
 10
51.956072
 20
64.22431800000001
 30
0.0
 11
25.155972
 21
64.22431800000001
 31
0.0
  0
LINE
  5
A3F3
330
A3AE
100
AcDbEntity
  8
1
  6
Continuous
100
AcDbLine
 10
53.956072
 20
46.724318
 30
0.0
 11
51.956072
 21
46.724318
 31
0.0
  0
LINE
  5
A3F4
330
A3AE
100
AcDbEntity
  8
4
  6
CENTER
100
AcDbLine
 10
38.555972
 20
69.22431800000001
 30
0.0
 11
38.555972
 21
39.224318
 31
0.0
  0
LINE
  5
A3F5
330
A3AE
100
AcDbEntity
  8
1
  6
Continuous
100
AcDbLine
 10
51.956072
 20
62.22431799999998
 30
0.0
 11
25.155972
 21
62.22431799999998
 31
0.0
  0
LINE
  5
A3F6
330
A3AE
100
AcDbEntity
  8
1
  6
Continuous
100
AcDbLine
 10
25.155972
 20
64.22431800000001
 30
0.0
 11
25.155972
 21
46.724318
 31
0.0
  0
LINE
  5
A3F7
330
A3AE
100
AcDbEntity
  8
1
  6
Continuous
100
AcDbLine
 10
51.956072
 20
64.22431800000001
 30
0.0
 11
51.956072
 21
46.724318
 31
0.0
  0
LINE
  5
A3F8
330
A3AE
100
AcDbEntity
  8
1
  6
Continuous
100
AcDbLine
 10
25.155972
 20
46.724318
 30
0.0
 11
23.15587199999999
 21
46.724318
 31
0.0
  0
LINE
  5
A3F9
330
A3AE
100
AcDbEntity
  8
1
  6
Continuous
100
AcDbLine
 10
29.55597199999999
 20
58.224318
 30
0.0
 11
29.55597199999999
 21
55.22431799999999
 31
0.0
  0
LINE
  5
A3FA
330
A3AE
100
AcDbEntity
  8
1
  6
Continuous
100
AcDbLine
 10
47.55597199999999
 20
58.224318
 30
0.0
 11
47.55597199999999
 21
55.22431799999999
 31
0.0
  0
LINE
  5
A3FB
330
A3AE
100
AcDbEntity
  8
1
  6
Continuous
100
AcDbLine
 10
31.55597199999998
 20
62.22431799999998
 30
0.0
 11
31.55597199999998
 21
55.22431799999999
 31
0.0
  0
LINE
  5
A3FC
330
A3AE
100
AcDbEntity
  8
1
  6
Continuous
100
AcDbLine
 10
45.555972
 20
62.22431799999998
 30
0.0
 11
45.555972
 21
55.22431799999999
 31
0.0
  0
LINE
  5
A3FD
330
A3AE
100
AcDbEntity
  8
1
  6
Continuous
100
AcDbLine
 10
47.55597199999999
 20
58.224318
 30
0.0
 11
49.306072
 21
58.224318
 31
0.0
  0
LINE
  5
A3FE
330
A3AE
100
AcDbEntity
  8
1
  6
Continuous
100
AcDbLine
 10
47.55597199999999
 20
306.5828329999998
 30
0.0
 11
49.456072
 21
306.5828329999998
 31
0.0
  0
LINE
  5
A3FF
330
A3AE
100
AcDbEntity
  8
1
  6
Continuous
100
AcDbLine
 10
223.300072
 20
189.4920179999998
 30
0.0
 11
223.300072
 21
135.492018
 31
0.0
  0
LINE
  5
A400
330
A3AE
100
AcDbEntity
  8
1
  6
Continuous
100
AcDbLine
 10
220.800072
 20
155.492018
 30
0.0
 11
223.300072
 21
155.492018
 31
0.0
  0
LINE
  5
A401
330
A3AE
100
AcDbEntity
  8
1
  6
Continuous
100
AcDbLine
 10
220.800072
 20
187.671843
 30
0.0
 11
220.800072
 21
186.4421939999998
 31
0.0
  0
LINE
  5
A402
330
A3AE
100
AcDbEntity
  8
1
  6
Continuous
100
AcDbLine
 10
31.655972
 20
304.082833
 30
0.0
 11
34.155972
 21
304.082833
 31
0.0
  0
LINE
  5
A403
330
A3AE
100
AcDbEntity
  8
1
  6
Continuous
100
AcDbLine
 10
27.80597199999998
 20
320.582833
 30
0.0
 11
49.306072
 21
320.582833
 31
0.0
  0
LINE
  5
A404
330
A3AE
100
AcDbEntity
  8
1
  6
Continuous
100
AcDbLine
 10
27.80597199999998
 20
306.5828329999998
 30
0.0
 11
27.80597199999998
 21
311.0828329999999
 31
0.0
  0
LINE
  5
A405
330
A3AE
100
AcDbEntity
  8
1
  6
Continuous
100
AcDbLine
 10
49.306072
 20
306.5828329999998
 30
0.0
 11
49.306072
 21
311.0828329999999
 31
0.0
  0
LINE
  5
A406
330
A3AE
100
AcDbEntity
  8
1
  6
Continuous
100
AcDbLine
 10
45.45597199999998
 20
304.082833
 30
0.0
 11
45.45597199999998
 21
311.0828329999999
 31
0.0
  0
LINE
  5
A407
330
A3AE
100
AcDbEntity
  8
1
  6
Continuous
100
AcDbLine
 10
31.655972
 20
304.082833
 30
0.0
 11
31.655972
 21
311.0828329999999
 31
0.0
  0
LINE
  5
A408
330
A3AE
100
AcDbEntity
  8
1
  6
Continuous
100
AcDbLine
 10
34.155972
 20
304.082833
 30
0.0
 11
34.155972
 21
311.0828329999999
 31
0.0
  0
LINE
  5
A409
330
A3AE
100
AcDbEntity
  8
1
  6
Continuous
100
AcDbLine
 10
42.95597199999998
 20
304.082833
 30
0.0
 11
42.95597199999998
 21
311.0828329999999
 31
0.0
  0
LINE
  5
A40A
330
A3AE
100
AcDbEntity
  8
1
  6
Continuous
100
AcDbLine
 10
42.95597199999998
 20
304.082833
 30
0.0
 11
45.45597199999998
 21
304.082833
 31
0.0
  0
LINE
  5
A40B
330
A3AE
100
AcDbEntity
  8
1
  6
Continuous
100
AcDbLine
 10
49.306072
 20
46.724318
 30
0.0
 11
27.80597199999998
 21
46.724318
 31
0.0
  0
LINE
  5
A40C
330
A3AE
100
AcDbEntity
  8
1
  6
Continuous
100
AcDbLine
 10
34.155972
 20
60.724318
 30
0.0
 11
34.155972
 21
55.22431799999999
 31
0.0
  0
LINE
  5
A40D
330
A3AE
100
AcDbEntity
  8
1
  6
Continuous
100
AcDbLine
 10
42.95597199999998
 20
60.724318
 30
0.0
 11
42.95597199999998
 21
55.22431799999999
 31
0.0
  0
LINE
  5
A40E
330
A3AE
100
AcDbEntity
  8
1
  6
Continuous
100
AcDbLine
 10
45.45597199999998
 20
60.724318
 30
0.0
 11
45.45597199999998
 21
55.22431799999999
 31
0.0
  0
LINE
  5
A40F
330
A3AE
100
AcDbEntity
  8
1
  6
Continuous
100
AcDbLine
 10
49.306072
 20
62.22431799999998
 30
0.0
 11
49.306072
 21
46.724318
 31
0.0
  0
LINE
  5
A410
330
A3AE
100
AcDbEntity
  8
1
  6
Continuous
100
AcDbLine
 10
31.655972
 20
60.724318
 30
0.0
 11
31.655972
 21
55.22431799999999
 31
0.0
  0
LINE
  5
A411
330
A3AE
100
AcDbEntity
  8
1
  6
Continuous
100
AcDbLine
 10
45.45597199999998
 20
60.724318
 30
0.0
 11
42.95597199999998
 21
60.724318
 31
0.0
  0
LINE
  5
A412
330
A3AE
100
AcDbEntity
  8
1
  6
Continuous
100
AcDbLine
 10
27.80597199999998
 20
62.22431799999998
 30
0.0
 11
27.80597199999998
 21
46.724318
 31
0.0
  0
LINE
  5
A413
330
A3AE
100
AcDbEntity
  8
1
  6
Continuous
100
AcDbLine
 10
34.155972
 20
60.724318
 30
0.0
 11
31.655972
 21
60.724318
 31
0.0
  0
LINE
  5
A414
330
A3AE
100
AcDbEntity
  8
1
  6
Continuous
100
AcDbLine
 10
25.305972
 20
62.22431799999998
 30
0.0
 11
25.305972
 21
46.724318
 31
0.0
  0
LINE
  5
A415
330
A3AE
100
AcDbEntity
  8
1
  6
Continuous
100
AcDbLine
 10
49.306072
 20
44.224318
 30
0.0
 11
27.80597199999998
 21
44.224318
 31
0.0
  0
LINE
  5
A416
330
A3AE
100
AcDbEntity
  8
1
  6
Continuous
100
AcDbLine
 10
51.806072
 20
62.22431799999998
 30
0.0
 11
51.806072
 21
46.724318
 31
0.0
  0
LINE
  5
A417
330
A3AE
100
AcDbEntity
  8
1
  6
Continuous
100
AcDbLine
 10
207.8000719999999
 20
204.492018
 30
0.0
 11
210.900072
 21
204.492018
 31
0.0
  0
LINE
  5
A418
330
A3AE
100
AcDbEntity
  8
1
  6
Continuous
100
AcDbLine
 10
207.8000719999999
 20
200.492018
 30
0.0
 11
210.900072
 21
200.492018
 31
0.0
  0
LINE
  5
A419
330
A3AE
100
AcDbEntity
  8
1
  6
Continuous
100
AcDbLine
 10
207.8000719999999
 20
204.492018
 30
0.0
 11
207.8000719999999
 21
200.492018
 31
0.0
  0
LINE
  5
A41A
330
A3AE
100
AcDbEntity
  8
1
  6
Continuous
100
AcDbLine
 10
221.800072
 20
204.492018
 30
0.0
 11
221.800072
 21
200.492018
 31
0.0
  0
LINE
  5
A41B
330
A3AE
100
AcDbEntity
  8
1
  6
Continuous
100
AcDbLine
 10
218.7000719999999
 20
200.492018
 30
0.0
 11
221.800072
 21
200.492018
 31
0.0
  0
LINE
  5
A41C
330
A3AE
100
AcDbEntity
  8
1
  6
Continuous
100
AcDbLine
 10
56.556072
 20
208.492018
 30
0.0
 11
55.056072
 21
208.492018
 31
0.0
  0
LINE
  5
A41D
330
A3AE
100
AcDbEntity
  8
1
  6
Continuous
100
AcDbLine
 10
56.556072
 20
158.492018
 30
0.0
 11
53.956072
 21
158.492018
 31
0.0
  0
LINE
  5
A41E
330
A3AE
100
AcDbEntity
  8
1
  6
Continuous
100
AcDbLine
 10
54.056072
 20
204.492018
 30
0.0
 11
54.056072
 21
199.6670139999999
 31
0.0
  0
LINE
  5
A41F
330
A3AE
100
AcDbEntity
  8
1
  6
Continuous
100
AcDbLine
 10
20.555972
 20
208.492018
 30
0.0
 11
22.055972
 21
208.492018
 31
0.0
  0
LINE
  5
A420
330
A3AE
100
AcDbEntity
  8
1
  6
Continuous
100
AcDbLine
 10
23.055972
 20
204.492018
 30
0.0
 11
23.055972
 21
200.168297
 31
0.0
  0
LINE
  5
A421
330
A3AE
100
AcDbEntity
  8
1
  6
Continuous
100
AcDbLine
 10
20.555972
 20
158.492018
 30
0.0
 11
23.155972
 21
158.492018
 31
0.0
  0
LINE
  5
A422
330
A3AE
100
AcDbEntity
  8
1
  6
Continuous
100
AcDbLine
 10
218.7000719999999
 20
168.4920179999998
 30
0.0
 11
218.800072
 21
168.4920179999998
 31
0.0
  0
LINE
  5
A423
330
A3AE
100
AcDbEntity
  8
1
  6
Continuous
100
AcDbLine
 10
19.555972
 20
160.492018
 30
0.0
 11
20.555972
 21
160.492018
 31
0.0
  0
LINE
  5
A424
330
A3AE
100
AcDbEntity
  8
1
  6
Continuous
100
AcDbLine
 10
19.555972
 20
164.4920179999998
 30
0.0
 11
20.555972
 21
164.4920179999998
 31
0.0
  0
LINE
  5
A425
330
A3AE
100
AcDbEntity
  8
1
  6
Continuous
100
AcDbLine
 10
57.556072
 20
164.4920179999998
 30
0.0
 11
57.556072
 21
160.492018
 31
0.0
  0
LINE
  5
A426
330
A3AE
100
AcDbEntity
  8
1
  6
Continuous
100
AcDbLine
 10
19.555972
 20
164.4920179999998
 30
0.0
 11
19.555972
 21
160.492018
 31
0.0
  0
LINE
  5
A427
330
A3AE
100
AcDbEntity
  8
1
  6
Continuous
100
AcDbLine
 10
56.556072
 20
164.4920179999998
 30
0.0
 11
57.556072
 21
164.4920179999998
 31
0.0
  0
LINE
  5
A428
330
A3AE
100
AcDbEntity
  8
1
  6
Continuous
100
AcDbLine
 10
56.556072
 20
160.492018
 30
0.0
 11
57.556072
 21
160.492018
 31
0.0
  0
LINE
  5
A429
330
A3AE
100
AcDbEntity
  8
1
  6
Continuous
100
AcDbLine
 10
207.8000719999999
 20
175.492018
 30
0.0
 11
207.8000719999999
 21
179.492018
 31
0.0
  0
LINE
  5
A42A
330
A3AE
100
AcDbEntity
  8
1
  6
Continuous
100
AcDbLine
 10
221.800072
 20
175.492018
 30
0.0
 11
221.800072
 21
179.492018
 31
0.0
  0
LINE
  5
A42B
330
A3AE
100
AcDbEntity
  8
1
  6
Continuous
100
AcDbLine
 10
207.8000719999999
 20
175.492018
 30
0.0
 11
221.800072
 21
175.492018
 31
0.0
  0
LINE
  5
A42C
330
A3AE
100
AcDbEntity
  8
1
  6
Continuous
100
AcDbLine
 10
207.8000719999999
 20
179.492018
 30
0.0
 11
210.900072
 21
179.492018
 31
0.0
  0
LINE
  5
A42D
330
A3AE
100
AcDbEntity
  8
1
  6
Continuous
100
AcDbLine
 10
210.900072
 20
210.992018
 30
0.0
 11
218.7000719999999
 21
210.992018
 31
0.0
  0
LINE
  5
A42E
330
A3AE
100
AcDbEntity
  8
1
  6
Continuous
100
AcDbLine
 10
56.556072
 20
210.992018
 30
0.0
 11
56.556072
 21
221.492018
 31
0.0
  0
LINE
  5
A42F
330
A3AE
100
AcDbEntity
  8
1
  6
Continuous
100
AcDbLine
 10
56.556072
 20
210.992018
 30
0.0
 11
58.056072
 21
210.992018
 31
0.0
  0
LINE
  5
A430
330
A3AE
100
AcDbEntity
  8
1
  6
Continuous
100
AcDbLine
 10
54.056072
 20
209.4920179999999
 30
0.0
 11
54.056072
 21
221.492018
 31
0.0
  0
LINE
  5
A431
330
A3AE
100
AcDbEntity
  8
1
  6
Continuous
100
AcDbLine
 10
59.056072
 20
175.492018
 30
0.0
 11
59.056072
 21
180.3072129999999
 31
0.0
  0
LINE
  5
A432
330
A3AE
100
AcDbEntity
  8
1
  6
Continuous
100
AcDbLine
 10
56.556072
 20
175.492018
 30
0.0
 11
59.056072
 21
175.492018
 31
0.0
  0
LINE
  5
A433
330
A3AE
100
AcDbEntity
  8
1
  6
Continuous
100
AcDbLine
 10
20.555972
 20
210.992018
 30
0.0
 11
20.555972
 21
221.492018
 31
0.0
  0
LINE
  5
A434
330
A3AE
100
AcDbEntity
  8
1
  6
Continuous
100
AcDbLine
 10
20.555972
 20
210.992018
 30
0.0
 11
19.055972
 21
210.992018
 31
0.0
  0
LINE
  5
A435
330
A3AE
100
AcDbEntity
  8
1
  6
Continuous
100
AcDbLine
 10
23.055972
 20
209.4920179999999
 30
0.0
 11
23.055972
 21
221.492018
 31
0.0
  0
LINE
  5
A436
330
A3AE
100
AcDbEntity
  8
1
  6
Continuous
100
AcDbLine
 10
18.055972
 20
175.492018
 30
0.0
 11
18.055972
 21
179.81576
 31
0.0
  0
LINE
  5
A437
330
A3AE
100
AcDbEntity
  8
1
  6
Continuous
100
AcDbLine
 10
210.900072
 20
175.492018
 30
0.0
 11
210.900072
 21
162.492018
 31
0.0
  0
LINE
  5
A438
330
A3AE
100
AcDbEntity
  8
1
  6
Continuous
100
AcDbLine
 10
218.7000719999999
 20
175.492018
 30
0.0
 11
218.7000719999999
 21
162.492018
 31
0.0
  0
LINE
  5
A439
330
A3AE
100
AcDbEntity
  8
1
  6
Continuous
100
AcDbLine
 10
220.800072
 20
175.492018
 30
0.0
 11
220.800072
 21
142.4920179999998
 31
0.0
  0
LINE
  5
A43A
330
A3AE
100
AcDbEntity
  8
1
  6
Continuous
100
AcDbLine
 10
218.7000719999999
 20
204.492018
 30
0.0
 11
221.800072
 21
204.492018
 31
0.0
  0
LINE
  5
A43B
330
A3AE
100
AcDbEntity
  8
1
  6
Continuous
100
AcDbLine
 10
210.900072
 20
210.992018
 30
0.0
 11
212.486072
 21
218.408018
 31
0.0
  0
LINE
  5
A43C
330
A3AE
100
AcDbEntity
  8
1
  6
Continuous
100
AcDbLine
 10
23.055972
 20
221.492018
 30
0.0
 11
20.555972
 21
221.492018
 31
0.0
  0
LINE
  5
A43D
330
A3AE
100
AcDbEntity
  8
1
  6
Continuous
100
AcDbLine
 10
56.556072
 20
221.492018
 30
0.0
 11
54.056072
 21
221.492018
 31
0.0
  0
LINE
  5
A43E
330
A3AE
100
AcDbEntity
  8
1
  6
Continuous
100
AcDbLine
 10
49.55597199999999
 20
200.492018
 30
0.0
 11
56.556072
 21
200.492018
 31
0.0
  0
LINE
  5
A43F
330
A3AE
100
AcDbEntity
  8
1
  6
Continuous
100
AcDbLine
 10
59.056072
 20
200.168297
 30
0.0
 11
59.056072
 21
209.992018
 31
0.0
  0
LINE
  5
A440
330
A3AE
100
AcDbEntity
  8
1
  6
Continuous
100
AcDbLine
 10
56.556072
 20
199.92257
 30
0.0
 11
56.556072
 21
208.492018
 31
0.0
  0
LINE
  5
A441
330
A3AE
100
AcDbEntity
  8
1
  6
Continuous
100
AcDbLine
 10
56.556072
 20
180.051657
 30
0.0
 11
56.556072
 21
158.492018
 31
0.0
  0
LINE
  5
A442
330
A3AE
100
AcDbEntity
  8
1
  6
Continuous
100
AcDbLine
 10
20.555972
 20
175.492018
 30
0.0
 11
18.055972
 21
175.492018
 31
0.0
  0
LINE
  5
A443
330
A3AE
100
AcDbEntity
  8
1
  6
Continuous
100
AcDbLine
 10
20.555972
 20
180.0713159999999
 30
0.0
 11
20.555972
 21
158.492018
 31
0.0
  0
LINE
  5
A444
330
A3AE
100
AcDbEntity
  8
1
  6
Continuous
100
AcDbLine
 10
20.555972
 20
199.92257
 30
0.0
 11
20.555972
 21
208.492018
 31
0.0
  0
LINE
  5
A445
330
A3AE
100
AcDbEntity
  8
1
  6
Continuous
100
AcDbLine
 10
18.055972
 20
199.6768439999999
 30
0.0
 11
18.055972
 21
209.992018
 31
0.0
  0
LINE
  5
A446
330
A3AE
100
AcDbEntity
  8
1
  6
Continuous
100
AcDbLine
 10
218.7000719999999
 20
179.492018
 30
0.0
 11
218.7000719999999
 21
180.4448099999999
 31
0.0
  0
LINE
  5
A447
330
A3AE
100
AcDbEntity
  8
1
  6
Continuous
100
AcDbLine
 10
381.648072
 20
189.4920179999998
 30
0.0
 11
363.648072
 21
189.4920179999998
 31
0.0
  0
LINE
  5
A448
330
A3AE
100
AcDbEntity
  8
1
  6
Continuous
100
AcDbLine
 10
381.648072
 20
189.4920179999998
 30
0.0
 11
381.648072
 21
176.492018
 31
0.0
  0
LINE
  5
A449
330
A3AE
100
AcDbEntity
  8
1
  6
Continuous
100
AcDbLine
 10
363.648072
 20
189.4920179999998
 30
0.0
 11
363.648072
 21
176.492018
 31
0.0
  0
LINE
  5
A44A
330
A3AE
100
AcDbEntity
  8
1
  6
Continuous
100
AcDbLine
 10
385.648072
 20
135.492018
 30
0.0
 11
385.648072
 21
119.4920179999999
 31
0.0
  0
LINE
  5
A44B
330
A3AE
100
AcDbEntity
  8
1
  6
Continuous
100
AcDbLine
 10
359.648072
 20
135.492018
 30
0.0
 11
359.648072
 21
119.4920179999999
 31
0.0
  0
LINE
  5
A44C
330
A3AE
100
AcDbEntity
  8
1
  6
Continuous
100
AcDbLine
 10
380.648072
 20
114.4920179999999
 30
0.0
 11
364.648072
 21
114.4920179999999
 31
0.0
  0
LINE
  5
A44D
330
A3AE
100
AcDbEntity
  8
4
  6
CENTER
100
AcDbLine
 10
372.648072
 20
221.592018
 30
0.0
 11
372.648072
 21
109.4920179999999
 31
0.0
  0
LINE
  5
A44E
330
A3AE
100
AcDbEntity
  8
1
  6
Continuous
100
AcDbLine
 10
359.398072
 20
155.492018
 30
0.0
 11
359.398072
 21
135.492018
 31
0.0
  0
LINE
  5
A44F
330
A3AE
100
AcDbEntity
  8
1
  6
Continuous
100
AcDbLine
 10
385.898072
 20
155.492018
 30
0.0
 11
385.898072
 21
135.492018
 31
0.0
  0
LINE
  5
A450
330
A3AE
100
AcDbEntity
  8
1
  6
Continuous
100
AcDbLine
 10
385.898072
 20
155.492018
 30
0.0
 11
383.3980719999999
 21
155.492018
 31
0.0
  0
LINE
  5
A451
330
A3AE
100
AcDbEntity
  8
1
  6
Continuous
100
AcDbLine
 10
383.3980719999999
 20
171.492018
 30
0.0
 11
383.3980719999999
 21
155.492018
 31
0.0
  0
LINE
  5
A452
330
A3AE
100
AcDbEntity
  8
1
  6
Continuous
100
AcDbLine
 10
361.898072
 20
171.492018
 30
0.0
 11
361.898072
 21
155.492018
 31
0.0
  0
LINE
  5
A453
330
A3AE
100
AcDbEntity
  8
1
  6
Continuous
100
AcDbLine
 10
361.898072
 20
155.492018
 30
0.0
 11
359.398072
 21
155.492018
 31
0.0
  0
LINE
  5
A454
330
A3AE
100
AcDbEntity
  8
1
  6
Continuous
100
AcDbLine
 10
379.548072
 20
189.4920179999998
 30
0.0
 11
379.548072
 21
177.492018
 31
0.0
  0
LINE
  5
A455
330
A3AE
100
AcDbEntity
  8
1
  6
Continuous
100
AcDbLine
 10
365.7480719999999
 20
189.4920179999998
 30
0.0
 11
365.7480719999999
 21
177.492018
 31
0.0
  0
LINE
  5
A456
330
A3AE
100
AcDbEntity
  8
1
  6
Continuous
100
AcDbLine
 10
366.518072
 20
174.159018
 30
0.0
 11
361.898072
 21
171.492018
 31
0.0
  0
LINE
  5
A457
330
A3AE
100
AcDbEntity
  8
1
  6
Continuous
100
AcDbLine
 10
366.8840719999999
 20
175.5250179999999
 30
0.0
 11
365.7480719999999
 21
177.492018
 31
0.0
  0
LINE
  5
A458
330
A3AE
100
AcDbEntity
  8
1
  6
Continuous
100
AcDbLine
 10
378.7790719999999
 20
174.159018
 30
0.0
 11
383.3980719999999
 21
171.492018
 31
0.0
  0
LINE
  5
A459
330
A3AE
100
AcDbEntity
  8
1
  6
Continuous
100
AcDbLine
 10
378.413072
 20
175.5250179999999
 30
0.0
 11
379.548072
 21
177.492018
 31
0.0
  0
LINE
  5
A45A
330
A3AE
100
AcDbEntity
  8
1
  6
Continuous
100
AcDbLine
 10
379.648072
 20
189.4920179999998
 30
0.0
 11
379.648072
 21
176.492018
 31
0.0
  0
LINE
  5
A45B
330
A3AE
100
AcDbEntity
  8
1
  6
Continuous
100
AcDbLine
 10
386.0480719999998
 20
167.1620179999998
 30
0.0
 11
386.0480719999998
 21
135.492018
 31
0.0
  0
LINE
  5
A45C
330
A3AE
100
AcDbEntity
  8
1
  6
Continuous
100
AcDbLine
 10
365.648072
 20
189.4920179999998
 30
0.0
 11
365.648072
 21
176.492018
 31
0.0
  0
LINE
  5
A45D
330
A3AE
100
AcDbEntity
  8
1
  6
Continuous
100
AcDbLine
 10
359.2480719999999
 20
167.1620179999998
 30
0.0
 11
359.2480719999999
 21
135.492018
 31
0.0
  0
LINE
  5
A45E
330
A3AE
100
AcDbEntity
  8
1
  6
Continuous
100
AcDbLine
 10
381.648072
 20
179.492018
 30
0.0
 11
379.648072
 21
179.492018
 31
0.0
  0
LINE
  5
A45F
330
A3AE
100
AcDbEntity
  8
1
  6
Continuous
100
AcDbLine
 10
365.648072
 20
179.492018
 30
0.0
 11
363.648072
 21
179.492018
 31
0.0
  0
LINE
  5
A460
330
A3AE
100
AcDbEntity
  8
1
  6
Continuous
100
AcDbLine
 10
359.2480719999999
 20
167.1620179999998
 30
0.0
 11
357.644771
 21
168.358081
 31
0.0
  0
LINE
  5
A461
330
A3AE
100
AcDbEntity
  8
1
  6
Continuous
100
AcDbLine
 10
387.6513729999999
 20
168.358081
 30
0.0
 11
386.0480719999998
 21
167.1620179999998
 31
0.0
  0
LINE
  5
A462
330
A3AE
100
AcDbEntity
  8
1
  6
Continuous
100
AcDbLine
 10
388.0480719999998
 20
135.492018
 30
0.0
 11
357.2480719999999
 21
135.492018
 31
0.0
  0
LINE
  5
A463
330
A3AE
100
AcDbEntity
  8
1
  6
Continuous
100
AcDbLine
 10
57.556072
 20
215.492018
 30
0.0
 11
56.556072
 21
215.492018
 31
0.0
  0
LINE
  5
A464
330
A3AE
100
AcDbEntity
  8
1
  6
Continuous
100
AcDbLine
 10
57.556072
 20
219.492018
 30
0.0
 11
56.556072
 21
219.492018
 31
0.0
  0
LINE
  5
A465
330
A3AE
100
AcDbEntity
  8
1
  6
Continuous
100
AcDbLine
 10
57.556072
 20
219.492018
 30
0.0
 11
57.556072
 21
215.492018
 31
0.0
  0
LINE
  5
A466
330
A3AE
100
AcDbEntity
  8
1
  6
Continuous
100
AcDbLine
 10
19.555972
 20
219.492018
 30
0.0
 11
19.555972
 21
215.492018
 31
0.0
  0
LINE
  5
A467
330
A3AE
100
AcDbEntity
  8
1
  6
Continuous
100
AcDbLine
 10
54.056072
 20
214.992018
 30
0.0
 11
23.055972
 21
214.992018
 31
0.0
  0
LINE
  5
A468
330
A3AE
100
AcDbEntity
  8
1
  6
Continuous
100
AcDbLine
 10
54.056072
 20
219.992018
 30
0.0
 11
23.055972
 21
219.992018
 31
0.0
  0
LINE
  5
A469
330
A3AE
100
AcDbEntity
  8
1
  6
Continuous
100
AcDbLine
 10
20.555972
 20
219.492018
 30
0.0
 11
19.555972
 21
219.492018
 31
0.0
  0
LINE
  5
A46A
330
A3AE
100
AcDbEntity
  8
1
  6
Continuous
100
AcDbLine
 10
20.555972
 20
215.492018
 30
0.0
 11
19.555972
 21
215.492018
 31
0.0
  0
LINE
  5
A46B
330
A3AE
100
AcDbEntity
  8
1
  6
Continuous
100
AcDbLine
 10
270.3000719999999
 20
223.492018
 30
0.0
 11
270.3000719999999
 21
211.492018
 31
0.0
  0
LINE
  5
A46C
330
A3AE
100
AcDbEntity
  8
1
  6
Continuous
100
AcDbLine
 10
266.3000719999998
 20
211.992018
 30
0.0
 11
269.300072
 21
211.992018
 31
0.0
  0
LINE
  5
A46D
330
A3AE
100
AcDbEntity
  8
1
  6
Continuous
100
AcDbLine
 10
270.3000719999999
 20
223.492018
 30
0.0
 11
273.300072
 21
223.492018
 31
0.0
  0
LINE
  5
A46E
330
A3AE
100
AcDbEntity
  8
1
  6
Continuous
100
AcDbLine
 10
273.300072
 20
223.492018
 30
0.0
 11
273.300072
 21
211.492018
 31
0.0
  0
LINE
  5
A46F
330
A3AE
100
AcDbEntity
  8
1
  6
Continuous
100
AcDbLine
 10
270.3000719999999
 20
211.492018
 30
0.0
 11
273.300072
 21
211.492018
 31
0.0
  0
LINE
  5
A470
330
A3AE
100
AcDbEntity
  8
1
  6
Continuous
100
AcDbLine
 10
258.300072
 20
222.469018
 30
0.0
 11
261.174072
 21
215.503018
 31
0.0
  0
LINE
  5
A471
330
A3AE
100
AcDbEntity
  8
1
  6
Continuous
100
AcDbLine
 10
261.123072
 20
223.492018
 30
0.0
 11
264.0360719999999
 21
216.4330179999998
 31
0.0
  0
LINE
  5
A472
330
A3AE
100
AcDbEntity
  8
1
  6
Continuous
100
AcDbLine
 10
258.300072
 20
222.469018
 30
0.0
 11
261.123072
 21
223.492018
 31
0.0
  0
LINE
  5
A473
330
A3AE
100
AcDbEntity
  8
1
  6
Continuous
100
AcDbLine
 10
218.7000719999999
 20
210.992018
 30
0.0
 11
220.088072
 21
216.6650179999999
 31
0.0
  0
LINE
  5
A474
330
A3AE
100
AcDbEntity
  8
1
  6
Continuous
100
AcDbLine
 10
128.556072
 20
221.492018
 30
0.0
 11
128.556072
 21
211.992018
 31
0.0
  0
LINE
  5
A475
330
A3AE
100
AcDbEntity
  8
1
  6
Continuous
100
AcDbLine
 10
108.5560719999999
 20
221.492018
 30
0.0
 11
108.5560719999999
 21
211.992018
 31
0.0
  0
LINE
  5
A476
330
A3AE
100
AcDbEntity
  8
1
  6
Continuous
100
AcDbLine
 10
128.556072
 20
211.992018
 30
0.0
 11
108.5560719999999
 21
211.992018
 31
0.0
  0
LINE
  5
A477
330
A3AE
100
AcDbEntity
  8
1
  6
Continuous
100
AcDbLine
 10
134.5560719999998
 20
223.492018
 30
0.0
 11
102.556072
 21
223.492018
 31
0.0
  0
LINE
  5
A478
330
A3AE
100
AcDbEntity
  8
1
  6
Continuous
100
AcDbLine
 10
126.556072
 20
222.469018
 30
0.0
 11
110.5560719999999
 21
222.469018
 31
0.0
  0
LINE
  5
A479
330
A3AE
100
AcDbEntity
  8
1
  6
Continuous
100
AcDbLine
 10
460.6480719999998
 20
214.2750179999999
 30
0.0
 11
460.6480719999998
 21
212.092018
 31
0.0
  0
LINE
  5
A47A
330
A3AE
100
AcDbEntity
  8
1
  6
Continuous
100
AcDbLine
 10
480.6480719999998
 20
214.2750179999999
 30
0.0
 11
480.6480719999998
 21
212.092018
 31
0.0
  0
LINE
  5
A47B
330
A3AE
100
AcDbEntity
  8
1
  6
Continuous
100
AcDbLine
 10
460.6480719999998
 20
211.992018
 30
0.0
 11
480.6480719999998
 21
211.992018
 31
0.0
  0
LINE
  5
A47C
330
A3AE
100
AcDbEntity
  8
1
  6
Continuous
100
AcDbLine
 10
454.6480719999998
 20
223.492018
 30
0.0
 11
486.6480719999998
 21
223.492018
 31
0.0
  0
LINE
  5
A47D
330
A3AE
100
AcDbEntity
  8
1
  6
Continuous
100
AcDbLine
 10
54.056072
 20
305.0828329999998
 30
0.0
 11
56.556072
 21
305.0828329999998
 31
0.0
  0
LINE
  5
A47E
330
A3AE
100
AcDbEntity
  8
1
  6
Continuous
100
AcDbLine
 10
59.056072
 20
305.0828329999998
 30
0.0
 11
59.056072
 21
305.5445230000001
 31
0.0
  0
LINE
  5
A47F
330
A3AE
100
AcDbEntity
  8
1
  6
Continuous
100
AcDbLine
 10
54.056072
 20
305.0828329999998
 30
0.0
 11
54.056072
 21
319.0828329999998
 31
0.0
  0
LINE
  5
A480
330
A3AE
100
AcDbEntity
  8
1
  6
Continuous
100
AcDbLine
 10
54.056072
 20
308.182833
 30
0.0
 11
59.056072
 21
308.182833
 31
0.0
  0
LINE
  5
A481
330
A3AE
100
AcDbEntity
  8
1
  6
Continuous
100
AcDbLine
 10
54.056072
 20
317.482833
 30
0.0
 11
56.556072
 21
317.482833
 31
0.0
  0
LINE
  5
A482
330
A3AE
100
AcDbEntity
  8
1
  6
Continuous
100
AcDbLine
 10
56.556072
 20
305.0828329999998
 30
0.0
 11
59.056072
 21
305.0828329999998
 31
0.0
  0
LINE
  5
A483
330
A3AE
100
AcDbEntity
  8
1
  6
Continuous
100
AcDbLine
 10
57.556072
 20
311.5828329999998
 30
0.0
 11
57.556072
 21
315.5828329999998
 31
0.0
  0
LINE
  5
A484
330
A3AE
100
AcDbEntity
  8
1
  6
Continuous
100
AcDbLine
 10
110.5560719999999
 20
305.582833
 30
0.0
 11
126.556072
 21
305.582833
 31
0.0
  0
LINE
  5
A485
330
A3AE
100
AcDbEntity
  8
1
  6
Continuous
100
AcDbLine
 10
110.5560719999999
 20
308.4058329999999
 30
0.0
 11
126.556072
 21
308.4058329999999
 31
0.0
  0
LINE
  5
A486
330
A3AE
100
AcDbEntity
  8
1
  6
Continuous
100
AcDbLine
 10
96.556072
 20
317.5828329999998
 30
0.0
 11
140.5560719999998
 21
317.5828329999998
 31
0.0
  0
LINE
  5
A487
330
A3AE
100
AcDbEntity
  8
1
  6
Continuous
100
AcDbLine
 10
96.556072
 20
320.582833
 30
0.0
 11
140.5560719999998
 21
320.582833
 31
0.0
  0
LINE
  5
A488
330
A3AE
100
AcDbEntity
  8
1
  6
Continuous
100
AcDbLine
 10
140.5560719999998
 20
317.5828329999998
 30
0.0
 11
140.5560719999998
 21
320.582833
 31
0.0
  0
LINE
  5
A489
330
A3AE
100
AcDbEntity
  8
1
  6
Continuous
100
AcDbLine
 10
96.556072
 20
317.5828329999998
 30
0.0
 11
96.556072
 21
320.582833
 31
0.0
  0
LINE
  5
A48A
330
A3AE
100
AcDbEntity
  8
1
  6
Continuous
100
AcDbLine
 10
108.5560719999999
 20
307.582833
 30
0.0
 11
108.5560719999999
 21
317.5828329999998
 31
0.0
  0
LINE
  5
A48B
330
A3AE
100
AcDbEntity
  8
1
  6
Continuous
100
AcDbLine
 10
128.556072
 20
307.582833
 30
0.0
 11
128.556072
 21
317.5828329999998
 31
0.0
  0
LINE
  5
A48C
330
A3AE
100
AcDbEntity
  8
1
  6
Continuous
100
AcDbLine
 10
23.055972
 20
311.0828329999999
 30
0.0
 11
54.056072
 21
311.0828329999999
 31
0.0
  0
LINE
  5
A48D
330
A3AE
100
AcDbEntity
  8
1
  6
Continuous
100
AcDbLine
 10
23.055972
 20
316.082833
 30
0.0
 11
54.056072
 21
316.082833
 31
0.0
  0
LINE
  5
A48E
330
A3AE
100
AcDbEntity
  8
1
  6
Continuous
100
AcDbLine
 10
56.556072
 20
311.5828329999998
 30
0.0
 11
57.556072
 21
311.5828329999998
 31
0.0
  0
LINE
  5
A48F
330
A3AE
100
AcDbEntity
  8
1
  6
Continuous
100
AcDbLine
 10
56.556072
 20
315.5828329999998
 30
0.0
 11
57.556072
 21
315.5828329999998
 31
0.0
  0
LINE
  5
A490
330
A3AE
100
AcDbEntity
  8
1
  6
Continuous
100
AcDbLine
 10
27.80597199999998
 20
316.082833
 30
0.0
 11
27.80597199999998
 21
320.582833
 31
0.0
  0
LINE
  5
A491
330
A3AE
100
AcDbEntity
  8
1
  6
Continuous
100
AcDbLine
 10
49.306072
 20
316.082833
 30
0.0
 11
49.306072
 21
320.582833
 31
0.0
  0
LINE
  5
A492
330
A3AE
100
AcDbEntity
  8
1
  6
Continuous
100
AcDbLine
 10
51.806072
 20
317.224666
 30
0.0
 11
51.806072
 21
318.082833
 31
0.0
  0
LINE
  5
A493
330
A3AE
100
AcDbEntity
  8
1
  6
Continuous
100
AcDbLine
 10
51.956072
 20
317.359283
 30
0.0
 11
51.956072
 21
318.082833
 31
0.0
  0
LINE
  5
A494
330
A3AE
100
AcDbEntity
  8
1
  6
Continuous
100
AcDbLine
 10
59.056072
 20
308.1029459999998
 30
0.0
 11
59.056072
 21
316.06272
 31
0.0
  0
LINE
  5
A495
330
A3AE
100
AcDbEntity
  8
1
  6
Continuous
100
AcDbLine
 10
56.556072
 20
305.0828329999998
 30
0.0
 11
56.556072
 21
319.0828329999998
 31
0.0
  0
LINE
  5
A496
330
A3AE
100
AcDbEntity
  8
1
  6
Continuous
100
AcDbLine
 10
51.956072
 20
50.22431799999999
 30
0.0
 11
51.806072
 21
50.22431799999999
 31
0.0
  0
LINE
  5
A497
330
A3AE
100
AcDbEntity
  8
1
  6
Continuous
100
AcDbLine
 10
51.956072
 20
55.22431799999999
 30
0.0
 11
51.806072
 21
55.22431799999999
 31
0.0
  0
LINE
  5
A498
330
A3AE
100
AcDbEntity
  8
1
  6
Continuous
100
AcDbLine
 10
25.305972
 20
55.22431799999999
 30
0.0
 11
25.155972
 21
55.22431799999999
 31
0.0
  0
LINE
  5
A499
330
A3AE
100
AcDbEntity
  8
1
  6
Continuous
100
AcDbLine
 10
25.305972
 20
50.22431799999999
 30
0.0
 11
25.155972
 21
50.22431799999999
 31
0.0
  0
LINE
  5
A49A
330
A3AE
100
AcDbEntity
  8
1
  6
Continuous
100
AcDbLine
 10
49.306072
 20
55.22431799999999
 30
0.0
 11
27.80597199999998
 21
55.22431799999999
 31
0.0
  0
LINE
  5
A49B
330
A3AE
100
AcDbEntity
  8
1
  6
Continuous
100
AcDbLine
 10
49.306072
 20
50.22431799999999
 30
0.0
 11
27.80597199999998
 21
50.22431799999999
 31
0.0
  0
LINE
  5
A49C
330
A3AE
100
AcDbEntity
  8
1
  6
Continuous
100
AcDbLine
 10
45.45597199999998
 20
50.22431799999999
 30
0.0
 11
45.45597199999998
 21
46.724318
 31
0.0
  0
LINE
  5
A49D
330
A3AE
100
AcDbEntity
  8
1
  6
Continuous
100
AcDbLine
 10
42.95597199999998
 20
50.22431799999999
 30
0.0
 11
42.95597199999998
 21
46.724318
 31
0.0
  0
LINE
  5
A49E
330
A3AE
100
AcDbEntity
  8
1
  6
Continuous
100
AcDbLine
 10
34.155972
 20
50.22431799999999
 30
0.0
 11
34.155972
 21
46.724318
 31
0.0
  0
LINE
  5
A49F
330
A3AE
100
AcDbEntity
  8
1
  6
Continuous
100
AcDbLine
 10
31.655972
 20
50.22431799999999
 30
0.0
 11
31.655972
 21
46.724318
 31
0.0
  0
LINE
  5
A4A0
330
A3AE
100
AcDbEntity
  8
1
  6
Continuous
100
AcDbLine
 10
53.956072
 20
302.5828329999999
 30
0.0
 11
53.956072
 21
305.5835619999998
 31
0.0
  0
LINE
  5
A4A1
330
A3AE
100
AcDbEntity
  8
1
  6
Continuous
100
AcDbLine
 10
25.305972
 20
47.22431799999998
 30
0.0
 11
25.155972
 21
47.22431799999998
 31
0.0
  0
LINE
  5
A4A2
330
A3AE
100
AcDbEntity
  8
1
  6
Continuous
100
AcDbLine
 10
51.956072
 20
47.22431799999998
 30
0.0
 11
51.806072
 21
47.22431799999998
 31
0.0
  0
LINE
  5
A4A3
330
A3AE
100
AcDbEntity
  8
4
  6
CENTER
100
AcDbLine
 10
209.300072
 20
158.992018
 30
0.0
 11
209.300072
 21
153.992018
 31
0.0
  0
LINE
  5
A4A4
330
A3AE
100
AcDbEntity
  8
4
  6
CENTER
100
AcDbLine
 10
206.800072
 20
156.492018
 30
0.0
 11
211.800072
 21
156.492018
 31
0.0
  0
LINE
  5
A4A5
330
A3AE
100
AcDbEntity
  8
4
  6
CENTER
100
AcDbLine
 10
213.800072
 20
152.492018
 30
0.0
 11
213.800072
 21
138.4920179999998
 31
0.0
  0
LINE
  5
A4A6
330
A3AE
100
AcDbEntity
  8
4
  6
CENTER
100
AcDbLine
 10
209.5500719999999
 20
145.492018
 30
0.0
 11
218.050072
 21
145.492018
 31
0.0
  0
LINE
  5
A4A7
330
A3AE
100
AcDbEntity
  8
4
  6
CENTER
100
AcDbLine
 10
59.556072
 20
217.492018
 30
0.0
 11
17.555972
 21
217.492018
 31
0.0
  0
LINE
  5
A4A8
330
A3AE
100
AcDbEntity
  8
4
  6
CENTER
100
AcDbLine
 10
59.556072
 20
162.492018
 30
0.0
 11
17.555972
 21
162.492018
 31
0.0
  0
LINE
  5
A4A9
330
A3AE
100
AcDbEntity
  8
4
  6
CENTER
100
AcDbLine
 10
393.648072
 20
162.492018
 30
0.0
 11
351.648072
 21
162.492018
 31
0.0
  0
LINE
  5
A4AA
330
A3AE
100
AcDbEntity
  8
4
  6
CENTER
100
AcDbLine
 10
58.556072
 20
52.72431799999999
 30
0.0
 11
18.555972
 21
52.72431799999999
 31
0.0
  0
LINE
  5
A4AB
330
A3AE
100
AcDbEntity
  8
4
  6
CENTER
100
AcDbLine
 10
18.555972
 20
313.5828329999998
 30
0.0
 11
58.556072
 21
313.5828329999998
 31
0.0
  0
LINE
  5
A4AC
330
A3AE
100
AcDbEntity
  8
4
  6
CENTER
100
AcDbLine
 10
55.556072
 20
58.224318
 30
0.0
 11
52.956072
 21
58.224318
 31
0.0
  0
LINE
  5
A4AD
330
A3AE
100
AcDbEntity
  8
4
  6
CENTER
100
AcDbLine
 10
20.15597199999999
 20
156.492018
 30
0.0
 11
56.956072
 21
156.492018
 31
0.0
  0
LINE
  5
A4AE
330
A3AE
100
AcDbEntity
  8
4
  6
CENTER
100
AcDbLine
 10
50.556072
 20
184.492018
 30
0.0
 11
26.55597199999998
 21
184.492018
 31
0.0
  0
LINE
  5
A4AF
330
A3AE
100
AcDbEntity
  8
1
  6
Continuous
100
AcDbLine
 10
48.556072
 20
182.492018
 30
0.0
 11
47.55597199999999
 21
182.492018
 31
0.0
  0
LINE
  5
A4B0
330
A3AE
100
AcDbEntity
  8
1
  6
Continuous
100
AcDbLine
 10
48.556072
 20
186.492018
 30
0.0
 11
47.55597199999999
 21
186.492018
 31
0.0
  0
LINE
  5
A4B1
330
A3AE
100
AcDbEntity
  8
1
  6
Continuous
100
AcDbLine
 10
48.556072
 20
186.492018
 30
0.0
 11
48.556072
 21
182.492018
 31
0.0
  0
LINE
  5
A4B2
330
A3AE
100
AcDbEntity
  8
1
  6
Continuous
100
AcDbLine
 10
28.555972
 20
186.492018
 30
0.0
 11
28.555972
 21
182.492018
 31
0.0
  0
LINE
  5
A4B3
330
A3AE
100
AcDbEntity
  8
1
  6
Continuous
100
AcDbLine
 10
29.55597199999999
 20
186.492018
 30
0.0
 11
28.555972
 21
186.492018
 31
0.0
  0
LINE
  5
A4B4
330
A3AE
100
AcDbEntity
  8
1
  6
Continuous
100
AcDbLine
 10
29.55597199999999
 20
182.492018
 30
0.0
 11
28.555972
 21
182.492018
 31
0.0
  0
LINE
  5
A4B5
330
A3AE
100
AcDbEntity
  8
4
  6
CENTER
100
AcDbLine
 10
384.648072
 20
184.492018
 30
0.0
 11
360.648072
 21
184.492018
 31
0.0
  0
LINE
  5
A4B6
330
A3AE
100
AcDbEntity
  8
1
  6
Continuous
100
AcDbLine
 10
382.648072
 20
186.492018
 30
0.0
 11
381.648072
 21
186.492018
 31
0.0
  0
LINE
  5
A4B7
330
A3AE
100
AcDbEntity
  8
1
  6
Continuous
100
AcDbLine
 10
382.648072
 20
182.492018
 30
0.0
 11
381.648072
 21
182.492018
 31
0.0
  0
LINE
  5
A4B8
330
A3AE
100
AcDbEntity
  8
1
  6
Continuous
100
AcDbLine
 10
362.6480719999999
 20
186.492018
 30
0.0
 11
362.6480719999999
 21
182.492018
 31
0.0
  0
LINE
  5
A4B9
330
A3AE
100
AcDbEntity
  8
1
  6
Continuous
100
AcDbLine
 10
382.648072
 20
186.492018
 30
0.0
 11
382.648072
 21
182.492018
 31
0.0
  0
LINE
  5
A4BA
330
A3AE
100
AcDbEntity
  8
1
  6
Continuous
100
AcDbLine
 10
365.7480719999999
 20
186.492018
 30
0.0
 11
365.648072
 21
186.492018
 31
0.0
  0
LINE
  5
A4BB
330
A3AE
100
AcDbEntity
  8
1
  6
Continuous
100
AcDbLine
 10
363.648072
 20
186.492018
 30
0.0
 11
362.6480719999999
 21
186.492018
 31
0.0
  0
LINE
  5
A4BC
330
A3AE
100
AcDbEntity
  8
1
  6
Continuous
100
AcDbLine
 10
363.648072
 20
182.492018
 30
0.0
 11
362.6480719999999
 21
182.492018
 31
0.0
  0
LINE
  5
A4BD
330
A3AE
100
AcDbEntity
  8
1
  6
Continuous
100
AcDbLine
 10
365.7480719999999
 20
182.492018
 30
0.0
 11
365.648072
 21
182.492018
 31
0.0
  0
LINE
  5
A4BE
330
A3AE
100
AcDbEntity
  8
1
  6
Continuous
100
AcDbLine
 10
379.648072
 20
182.492018
 30
0.0
 11
379.548072
 21
182.492018
 31
0.0
  0
LINE
  5
A4BF
330
A3AE
100
AcDbEntity
  8
1
  6
Continuous
100
AcDbLine
 10
379.648072
 20
186.492018
 30
0.0
 11
379.548072
 21
186.492018
 31
0.0
  0
LINE
  5
A4C0
330
A3AE
100
AcDbEntity
  8
4
  6
CENTER
100
AcDbLine
 10
446.6480719999998
 20
217.492018
 30
0.0
 11
494.6480719999998
 21
217.492018
 31
0.0
  0
LINE
  5
A4C1
330
A3AE
100
AcDbEntity
  8
4
  6
CENTER
100
AcDbLine
 10
355.2480719999999
 20
156.492018
 30
0.0
 11
390.048072
 21
156.492018
 31
0.0
  0
LINE
  5
A4C2
330
A3AE
100
AcDbEntity
  8
4
  6
CENTER
100
AcDbLine
 10
217.300072
 20
162.492018
 30
0.0
 11
212.300072
 21
162.492018
 31
0.0
  0
LINE
  5
A4C3
330
A3AE
100
AcDbEntity
  8
4
  6
CENTER
100
AcDbLine
 10
214.800072
 20
164.992018
 30
0.0
 11
214.800072
 21
159.9920179999998
 31
0.0
  0
LINE
  5
A4C4
330
A3AE
100
AcDbEntity
  8
1
  6
Continuous
100
AcDbLine
 10
221.577488
 20
189.4920179999998
 30
0.0
 11
223.300072
 21
189.4920179999998
 31
0.0
  0
LINE
  5
A4C5
330
A3AE
100
AcDbEntity
  8
4
  6
CENTER
100
AcDbLine
 10
118.556072
 20
225.492018
 30
0.0
 11
118.556072
 21
209.992018
 31
0.0
  0
LINE
  5
A4C6
330
A3AE
100
AcDbEntity
  8
4
  6
CENTER
100
AcDbLine
 10
94.55607200000001
 20
217.492018
 30
0.0
 11
142.556072
 21
217.492018
 31
0.0
  0
LINE
  5
A4C7
330
A3AE
100
AcDbEntity
  8
4
  6
CENTER
100
AcDbLine
 10
102.556072
 20
223.492018
 30
0.0
 11
102.556072
 21
211.492018
 31
0.0
  0
LINE
  5
A4C8
330
A3AE
100
AcDbEntity
  8
4
  6
CENTER
100
AcDbLine
 10
134.5560719999998
 20
223.492018
 30
0.0
 11
134.5560719999998
 21
211.492018
 31
0.0
  0
LINE
  5
A4C9
330
A3AE
100
AcDbEntity
  8
1
  6
Continuous
100
AcDbLine
 10
266.3000719999998
 20
214.992018
 30
0.0
 11
269.300072
 21
214.992018
 31
0.0
  0
LINE
  5
A4CA
330
A3AE
100
AcDbEntity
  8
4
  6
CENTER
100
AcDbLine
 10
454.6480719999998
 20
220.9920180000001
 30
0.0
 11
454.6480719999998
 21
213.992018
 31
0.0
  0
LINE
  5
A4CB
330
A3AE
100
AcDbEntity
  8
4
  6
CENTER
100
AcDbLine
 10
486.6480719999998
 20
220.9920180000001
 30
0.0
 11
486.6480719999998
 21
213.992018
 31
0.0
  0
LINE
  5
A4CC
330
A3AE
100
AcDbEntity
  8
4
  6
CENTER
100
AcDbLine
 10
470.648072
 20
225.492018
 30
0.0
 11
470.648072
 21
209.992018
 31
0.0
  0
LINE
  5
A4CD
330
A3AE
100
AcDbEntity
  8
1
  6
Continuous
100
AcDbLine
 10
110.056072
 20
313.5828329999998
 30
0.0
 11
127.0560719999999
 21
313.5828329999998
 31
0.0
  0
LINE
  5
A4CE
330
A3AE
100
AcDbEntity
  8
4
  6
CENTER
100
AcDbLine
 10
118.556072
 20
303.582833
 30
0.0
 11
118.556072
 21
322.582833
 31
0.0
  0
LINE
  5
A4CF
330
A3AE
100
AcDbEntity
  8
1
  6
Continuous
100
AcDbLine
 10
210.900072
 20
179.492018
 30
0.0
 11
210.900072
 21
179.678143
 31
0.0
  0
LINE
  5
A4D0
330
A3AE
100
AcDbEntity
  8
4
  6
CENTER
100
AcDbLine
 10
261.9076709999998
 20
217.492018
 30
0.0
 11
275.300072
 21
217.492018
 31
0.0
  0
LINE
  5
A4D1
330
A3AE
100
AcDbEntity
  8
1
  6
Continuous
100
AcDbLine
 10
27.80597199999998
 20
318.082833
 30
0.0
 11
31.655972
 21
318.082833
 31
0.0
  0
LINE
  5
A4D2
330
A3AE
100
AcDbEntity
  8
1
  6
Continuous
100
AcDbLine
 10
45.45597199999998
 20
318.082833
 30
0.0
 11
49.306072
 21
318.082833
 31
0.0
  0
LINE
  5
A4D3
330
A3AE
100
AcDbEntity
  8
1
  6
Continuous
100
AcDbLine
 10
34.155972
 20
318.082833
 30
0.0
 11
42.95597199999998
 21
318.082833
 31
0.0
  0
LINE
  5
A4D4
330
A3AE
100
AcDbEntity
  8
1
  6
Continuous
100
AcDbLine
 10
51.956072
 20
318.082833
 30
0.0
 11
52.95042099999999
 21
318.082833
 31
0.0
  0
LINE
  5
A4D5
330
A3AE
100
AcDbEntity
  8
4
  6
CENTER
100
AcDbLine
 10
26.55597199999998
 20
309.0828329999999
 30
0.0
 11
50.556072
 21
309.0828329999999
 31
0.0
  0
LINE
  5
A4D6
330
A3AE
100
AcDbEntity
  8
1
  6
Continuous
100
AcDbLine
 10
28.555972
 20
307.0828329999998
 30
0.0
 11
28.555972
 21
311.0828329999999
 31
0.0
  0
LINE
  5
A4D7
330
A3AE
100
AcDbEntity
  8
1
  6
Continuous
100
AcDbLine
 10
28.555972
 20
307.0828329999998
 30
0.0
 11
29.55597199999999
 21
307.0828329999998
 31
0.0
  0
LINE
  5
A4D8
330
A3AE
100
AcDbEntity
  8
1
  6
Continuous
100
AcDbLine
 10
48.556072
 20
307.0828329999998
 30
0.0
 11
47.55597199999999
 21
307.0828329999998
 31
0.0
  0
LINE
  5
A4D9
330
A3AE
100
AcDbEntity
  8
1
  6
Continuous
100
AcDbLine
 10
48.556072
 20
307.0828329999998
 30
0.0
 11
48.556072
 21
311.0828329999999
 31
0.0
  0
LINE
  5
A4DA
330
A3AE
100
AcDbEntity
  8
1
  6
Continuous
100
AcDbLine
 10
54.056072
 20
319.0828329999998
 30
0.0
 11
56.556072
 21
319.0828329999998
 31
0.0
  0
LINE
  5
A4DB
330
A3AE
100
AcDbEntity
  8
1
  6
Continuous
100
AcDbLine
 10
56.556072
 20
319.0828329999998
 30
0.0
 11
59.056072
 21
319.0828329999998
 31
0.0
  0
LINE
  5
A4DC
330
A3AE
100
AcDbEntity
  8
1
  6
Continuous
100
AcDbLine
 10
31.55597199999998
 20
306.5828329999998
 30
0.0
 11
31.655972
 21
306.5828329999998
 31
0.0
  0
LINE
  5
A4DD
330
A3AE
100
AcDbEntity
  8
1
  6
Continuous
100
AcDbLine
 10
34.155972
 20
306.5828329999998
 30
0.0
 11
42.95597199999998
 21
306.5828329999998
 31
0.0
  0
LINE
  5
A4DE
330
A3AE
100
AcDbEntity
  8
1
  6
Continuous
100
AcDbLine
 10
45.45597199999998
 20
306.5828329999998
 30
0.0
 11
45.555972
 21
306.5828329999998
 31
0.0
  0
LINE
  5
A4DF
330
A3AE
100
AcDbEntity
  8
1
  6
Continuous
100
AcDbLine
 10
42.95597199999998
 20
316.082833
 30
0.0
 11
42.95597199999998
 21
318.082833
 31
0.0
  0
LINE
  5
A4E0
330
A3AE
100
AcDbEntity
  8
1
  6
Continuous
100
AcDbLine
 10
45.45597199999998
 20
316.082833
 30
0.0
 11
45.45597199999998
 21
318.082833
 31
0.0
  0
LINE
  5
A4E1
330
A3AE
100
AcDbEntity
  8
1
  6
Continuous
100
AcDbLine
 10
31.655972
 20
316.082833
 30
0.0
 11
31.655972
 21
318.082833
 31
0.0
  0
LINE
  5
A4E2
330
A3AE
100
AcDbEntity
  8
1
  6
Continuous
100
AcDbLine
 10
34.155972
 20
316.082833
 30
0.0
 11
34.155972
 21
318.082833
 31
0.0
  0
LINE
  5
A4E3
330
A3AE
100
AcDbEntity
  8
4
  6
CENTER
100
AcDbLine
 10
50.556072
 20
55.724318
 30
0.0
 11
26.55597199999998
 21
55.724318
 31
0.0
  0
LINE
  5
A4E4
330
A3AE
100
AcDbEntity
  8
1
  6
Continuous
100
AcDbLine
 10
28.555972
 20
57.72431799999999
 30
0.0
 11
28.555972
 21
55.22431799999999
 31
0.0
  0
LINE
  5
A4E5
330
A3AE
100
AcDbEntity
  8
1
  6
Continuous
100
AcDbLine
 10
45.555972
 20
58.224318
 30
0.0
 11
45.45597199999998
 21
58.224318
 31
0.0
  0
LINE
  5
A4E6
330
A3AE
100
AcDbEntity
  8
1
  6
Continuous
100
AcDbLine
 10
31.655972
 20
58.224318
 30
0.0
 11
31.55597199999998
 21
58.224318
 31
0.0
  0
LINE
  5
A4E7
330
A3AE
100
AcDbEntity
  8
1
  6
Continuous
100
AcDbLine
 10
42.95597199999998
 20
58.224318
 30
0.0
 11
34.155972
 21
58.224318
 31
0.0
  0
LINE
  5
A4E8
330
A3AE
100
AcDbEntity
  8
1
  6
Continuous
100
AcDbLine
 10
29.55597199999999
 20
57.72431799999999
 30
0.0
 11
28.555972
 21
57.72431799999999
 31
0.0
  0
LINE
  5
A4E9
330
A3AE
100
AcDbEntity
  8
1
  6
Continuous
100
AcDbLine
 10
47.55597199999999
 20
57.72431799999999
 30
0.0
 11
48.556072
 21
57.72431799999999
 31
0.0
  0
LINE
  5
A4EA
330
A3AE
100
AcDbEntity
  8
1
  6
Continuous
100
AcDbLine
 10
48.556072
 20
57.72431799999999
 30
0.0
 11
48.556072
 21
55.22431799999999
 31
0.0
  0
LINE
  5
A4EB
330
A3AE
100
AcDbEntity
  8
4
  6
CENTER
100
AcDbLine
 10
266.3000719999998
 20
220.9920180000001
 30
0.0
 11
266.3000719999998
 21
213.992018
 31
0.0
  0
LINE
  5
A4EC
330
A3AE
100
AcDbEntity
  8
4
  6
CENTER
100
AcDbLine
 10
216.300072
 20
220.492018
 30
0.0
 11
216.300072
 21
214.492018
 31
0.0
  0
LINE
  5
A4ED
330
A3AE
100
AcDbEntity
  8
4
  6
CENTER
100
AcDbLine
 10
213.300072
 20
217.492018
 30
0.0
 11
219.300072
 21
217.492018
 31
0.0
  0
ARC
  5
A4EE
330
A3AE
100
AcDbEntity
  8
1
  6
Continuous
100
AcDbCircle
 10
55.556072
 20
176.492018
 30
0.0
 40
8.0
100
AcDbArc
 50
180.0
 51
248.8998039999999
  0
ARC
  5
A4EF
330
A3AE
100
AcDbEntity
  8
1
  6
Continuous
100
AcDbCircle
 10
21.555972
 20
176.492018
 30
0.0
 40
8.0
100
AcDbArc
 50
291.1001959999999
 51
0.0
  0
ARC
  5
A4F0
330
A3AE
100
AcDbEntity
  8
1
  6
Continuous
100
AcDbCircle
 10
46.55597199999998
 20
119.4920179999999
 30
0.0
 40
5.0
100
AcDbArc
 50
270.0
 51
0.0
  0
ARC
  5
A4F1
330
A3AE
100
AcDbEntity
  8
1
  6
Continuous
100
AcDbCircle
 10
30.55597199999999
 20
119.4920179999999
 30
0.0
 40
5.0
100
AcDbArc
 50
180.0
 51
270.0
  0
ARC
  5
A4F2
330
A3AE
100
AcDbEntity
  8
1
  6
Continuous
100
AcDbCircle
 10
213.800072
 20
142.4920179999998
 30
0.0
 40
7.0
100
AcDbArc
 50
270.0
 51
0.0
  0
ARC
  5
A4F3
330
A3AE
100
AcDbEntity
  8
1
  6
Continuous
100
AcDbCircle
 10
218.800072
 20
166.492018
 30
0.0
 40
2.0
100
AcDbArc
 50
0.0
 51
90.0
  0
ARC
  5
A4F4
330
A3AE
100
AcDbEntity
  8
1
  6
Continuous
100
AcDbCircle
 10
206.300072
 20
165.4920179999998
 30
0.0
 40
3.0
100
AcDbArc
 50
90.0
 51
180.0
  0
ARC
  5
A4F5
330
A3AE
100
AcDbEntity
  8
1
  6
Continuous
100
AcDbCircle
 10
212.300072
 20
171.492018
 30
0.0
 40
3.0
100
AcDbArc
 50
180.0
 51
242.1819999999999
  0
CIRCLE
  5
A4F6
330
A3AE
100
AcDbEntity
  8
1
  6
Continuous
100
AcDbCircle
 10
209.300072
 20
156.492018
 30
0.0
 40
2.0
  0
ARC
  5
A4F7
330
A3AE
100
AcDbEntity
  8
1
  6
Continuous
100
AcDbCircle
 10
213.800072
 20
148.242018
 30
0.0
 40
3.25
100
AcDbArc
 50
0.0
 51
180.0
  0
ARC
  5
A4F8
330
A3AE
100
AcDbEntity
  8
1
  6
Continuous
100
AcDbCircle
 10
213.800072
 20
142.742018
 30
0.0
 40
3.25
100
AcDbArc
 50
180.0
 51
0.0
  0
ARC
  5
A4F9
330
A3AE
100
AcDbEntity
  8
1
  6
Continuous
100
AcDbCircle
 10
25.155972
 20
302.5828329999999
 30
0.0
 40
2.0
100
AcDbArc
 50
180.0
 51
270.0
  0
ARC
  5
A4FA
330
A3AE
100
AcDbEntity
  8
1
  6
Continuous
100
AcDbCircle
 10
51.956072
 20
302.5828329999999
 30
0.0
 40
2.0
100
AcDbArc
 50
270.0
 51
0.0
  0
ARC
  5
A4FB
330
A3AE
100
AcDbEntity
  8
1
  6
Continuous
100
AcDbCircle
 10
31.55597199999998
 20
302.5828329999999
 30
0.0
 40
2.0
100
AcDbArc
 50
180.0
 51
270.0
  0
ARC
  5
A4FC
330
A3AE
100
AcDbEntity
  8
1
  6
Continuous
100
AcDbCircle
 10
45.555972
 20
302.5828329999999
 30
0.0
 40
2.0
100
AcDbArc
 50
270.0
 51
0.0
  0
ARC
  5
A4FD
330
A3AE
100
AcDbEntity
  8
1
  6
Continuous
100
AcDbCircle
 10
27.655972
 20
55.724318
 30
0.0
 40
2.5
100
AcDbArc
 50
160.0519999999999
 51
180.0
  0
ARC
  5
A4FE
330
A3AE
100
AcDbEntity
  8
1
  6
Continuous
100
AcDbCircle
 10
27.655972
 20
309.0828329999999
 30
0.0
 40
2.5
100
AcDbArc
 50
221.4812509999999
 51
270.0
  0
ARC
  5
A4FF
330
A3AE
100
AcDbEntity
  8
1
  6
Continuous
100
AcDbCircle
 10
51.956072
 20
62.22431799999998
 30
0.0
 40
2.0
100
AcDbArc
 50
0.0
 51
90.0
  0
ARC
  5
A500
330
A3AE
100
AcDbEntity
  8
1
  6
Continuous
100
AcDbCircle
 10
25.155972
 20
62.22431799999998
 30
0.0
 40
2.0
100
AcDbArc
 50
90.0
 51
180.0
  0
ARC
  5
A501
330
A3AE
100
AcDbEntity
  8
1
  6
Continuous
100
AcDbCircle
 10
49.456072
 20
55.724318
 30
0.0
 40
2.5
100
AcDbArc
 50
0.0
 51
19.94839999999999
  0
ARC
  5
A502
330
A3AE
100
AcDbEntity
  8
1
  6
Continuous
100
AcDbCircle
 10
49.456072
 20
309.0828329999999
 30
0.0
 40
2.5
100
AcDbArc
 50
270.0
 51
318.517025
  0
ARC
  5
A503
330
A3AE
100
AcDbEntity
  8
1
  6
Continuous
100
AcDbCircle
 10
214.800072
 20
162.392018
 30
0.0
 40
3.9
100
AcDbArc
 50
180.0
 51
0.0
  0
CIRCLE
  5
A504
330
A3AE
100
AcDbEntity
  8
1
  6
Continuous
100
AcDbCircle
 10
214.800072
 20
162.492018
 30
0.0
 40
2.0
  0
CIRCLE
  5
A505
330
A3AE
100
AcDbEntity
  8
1
  6
Continuous
100
AcDbCircle
 10
216.300072
 20
217.492018
 30
0.0
 40
2.049999999999998
  0
ARC
  5
A506
330
A3AE
100
AcDbEntity
  8
1
  6
Continuous
100
AcDbCircle
 10
55.056072
 20
209.4920179999999
 30
0.0
 40
1.0
100
AcDbArc
 50
180.0
 51
270.0
  0
ARC
  5
A507
330
A3AE
100
AcDbEntity
  8
1
  6
Continuous
100
AcDbCircle
 10
58.056072
 20
209.992018
 30
0.0
 40
1.0
100
AcDbArc
 50
0.0
 51
90.0
  0
ARC
  5
A508
330
A3AE
100
AcDbEntity
  8
1
  6
Continuous
100
AcDbCircle
 10
22.055972
 20
209.4920179999999
 30
0.0
 40
1.0
100
AcDbArc
 50
270.0
 51
0.0
  0
ARC
  5
A509
330
A3AE
100
AcDbEntity
  8
1
  6
Continuous
100
AcDbCircle
 10
19.055972
 20
209.992018
 30
0.0
 40
1.0
100
AcDbArc
 50
90.0
 51
180.0
  0
ARC
  5
A50A
330
A3AE
100
AcDbEntity
  8
1
  6
Continuous
100
AcDbCircle
 10
216.300072
 20
217.592018
 30
0.0
 40
3.9
100
AcDbArc
 50
346.249
 51
167.926
  0
ARC
  5
A50B
330
A3AE
100
AcDbEntity
  8
1
  6
Continuous
100
AcDbCircle
 10
389.6480719999999
 20
176.492018
 30
0.0
 40
8.0
100
AcDbArc
 50
180.0
 51
248.8998039999999
  0
ARC
  5
A50C
330
A3AE
100
AcDbEntity
  8
1
  6
Continuous
100
AcDbCircle
 10
355.648072
 20
176.492018
 30
0.0
 40
8.0
100
AcDbArc
 50
291.1001959999999
 51
0.0
  0
ARC
  5
A50D
330
A3AE
100
AcDbEntity
  8
1
  6
Continuous
100
AcDbCircle
 10
380.648072
 20
119.4920179999999
 30
0.0
 40
5.0
100
AcDbArc
 50
270.0
 51
0.0
  0
ARC
  5
A50E
330
A3AE
100
AcDbEntity
  8
1
  6
Continuous
100
AcDbCircle
 10
364.648072
 20
119.4920179999999
 30
0.0
 40
5.0
100
AcDbArc
 50
180.0
 51
270.0
  0
ARC
  5
A50F
330
A3AE
100
AcDbEntity
  8
1
  6
Continuous
100
AcDbCircle
 10
366.018072
 20
175.0250179999999
 30
0.0
 40
1.0
100
AcDbArc
 50
300.0
 51
30.0
  0
ARC
  5
A510
330
A3AE
100
AcDbEntity
  8
1
  6
Continuous
100
AcDbCircle
 10
379.2790719999999
 20
175.0250179999999
 30
0.0
 40
1.0
100
AcDbArc
 50
150.0
 51
239.9999999999999
  0
CIRCLE
  5
A511
330
A3AE
100
AcDbEntity
  8
1
  6
Continuous
100
AcDbCircle
 10
372.648072
 20
170.492018
 30
0.0
 40
2.149999999999999
  0
CIRCLE
  5
A512
330
A3AE
100
AcDbEntity
  8
1
  6
Continuous
100
AcDbCircle
 10
372.648072
 20
145.492018
 30
0.0
 40
2.149999999999999
  0
ARC
  5
A513
330
A3AE
100
AcDbEntity
  8
1
  6
Continuous
100
AcDbCircle
 10
389.6480719999999
 20
176.492018
 30
0.0
 40
10.0
100
AcDbArc
 50
180.0
 51
198.203
  0
ARC
  5
A514
330
A3AE
100
AcDbEntity
  8
1
  6
Continuous
100
AcDbCircle
 10
355.648072
 20
176.492018
 30
0.0
 40
10.0
100
AcDbArc
 50
291.1000000000001
 51
308.682
  0
ARC
  5
A515
330
A3AE
100
AcDbEntity
  8
1
  6
Continuous
100
AcDbCircle
 10
389.6480719999999
 20
176.492018
 30
0.0
 40
10.0
100
AcDbArc
 50
231.318
 51
248.8999999999998
  0
ARC
  5
A516
330
A3AE
100
AcDbEntity
  8
1
  6
Continuous
100
AcDbCircle
 10
355.648072
 20
176.492018
 30
0.0
 40
10.0
100
AcDbArc
 50
341.7969999999999
 51
0.0
  0
CIRCLE
  5
A517
330
A3AE
100
AcDbEntity
  8
1
  6
Continuous
100
AcDbCircle
 10
216.300072
 20
217.492018
 30
0.0
 40
2.0
  0
ARC
  5
A518
330
A3AE
100
AcDbEntity
  8
1
  6
Continuous
100
AcDbCircle
 10
269.300072
 20
215.992018
 30
0.0
 40
1.0
100
AcDbArc
 50
270.0
 51
0.0
  0
ARC
  5
A519
330
A3AE
100
AcDbEntity
  8
1
  6
Continuous
100
AcDbCircle
 10
266.3000719999998
 20
217.492018
 30
0.0
 40
5.5
100
AcDbArc
 50
200.6279999999999
 51
270.0
  0
ARC
  5
A51A
330
A3AE
100
AcDbEntity
  8
1
  6
Continuous
100
AcDbCircle
 10
269.300072
 20
215.992018
 30
0.0
 40
4.0
100
AcDbArc
 50
270.0
 51
284.478
  0
ARC
  5
A51B
330
A3AE
100
AcDbEntity
  8
1
  6
Continuous
100
AcDbCircle
 10
126.556072
 20
221.492018
 30
0.0
 40
2.0
100
AcDbArc
 50
0.0
 51
90.0
  0
ARC
  5
A51C
330
A3AE
100
AcDbEntity
  8
1
  6
Continuous
100
AcDbCircle
 10
110.5560719999999
 20
221.492018
 30
0.0
 40
2.0
100
AcDbArc
 50
90.0
 51
180.0
  0
ARC
  5
A51D
330
A3AE
100
AcDbEntity
  8
1
  6
Continuous
100
AcDbCircle
 10
102.556072
 20
217.492018
 30
0.0
 40
6.0
100
AcDbArc
 50
90.0
 51
318.35
  0
ARC
  5
A51E
330
A3AE
100
AcDbEntity
  8
1
  6
Continuous
100
AcDbCircle
 10
128.5780719999999
 20
212.1750179999999
 30
0.0
 40
2.0
100
AcDbArc
 50
45.8468
 51
90.63740000000001
  0
ARC
  5
A51F
330
A3AE
100
AcDbEntity
  8
1
  6
Continuous
100
AcDbCircle
 10
108.534072
 20
212.1750179999999
 30
0.0
 40
2.0
100
AcDbArc
 50
89.3626
 51
138.3499999999999
  0
ARC
  5
A520
330
A3AE
100
AcDbEntity
  8
1
  6
Continuous
100
AcDbCircle
 10
126.556072
 20
220.469018
 30
0.0
 40
2.0
100
AcDbArc
 50
0.0
 51
90.0
  0
ARC
  5
A521
330
A3AE
100
AcDbEntity
  8
1
  6
Continuous
100
AcDbCircle
 10
110.5560719999999
 20
220.469018
 30
0.0
 40
2.0
100
AcDbArc
 50
90.0
 51
180.0
  0
ARC
  5
A522
330
A3AE
100
AcDbEntity
  8
1
  6
Continuous
100
AcDbCircle
 10
486.6480719999998
 20
217.492018
 30
0.0
 40
6.0
100
AcDbArc
 50
221.6499999999999
 51
90.0
  0
CIRCLE
  5
A523
330
A3AE
100
AcDbEntity
  8
1
  6
Continuous
100
AcDbCircle
 10
486.6480719999998
 20
217.492018
 30
0.0
 40
2.149999999999999
  0
CIRCLE
  5
A524
330
A3AE
100
AcDbEntity
  8
1
  6
Continuous
100
AcDbCircle
 10
454.6480719999998
 20
217.492018
 30
0.0
 40
2.149999999999999
  0
ARC
  5
A525
330
A3AE
100
AcDbEntity
  8
1
  6
Continuous
100
AcDbCircle
 10
454.6480719999998
 20
217.492018
 30
0.0
 40
6.0
100
AcDbArc
 50
90.0
 51
318.35
  0
ARC
  5
A526
330
A3AE
100
AcDbEntity
  8
1
  6
Continuous
100
AcDbCircle
 10
460.6260719999998
 20
212.1750179999999
 30
0.0
 40
2.0
100
AcDbArc
 50
90.0
 51
138.3499999999999
  0
ARC
  5
A527
330
A3AE
100
AcDbEntity
  8
1
  6
Continuous
100
AcDbCircle
 10
480.6710719999998
 20
212.1750179999999
 30
0.0
 40
2.0
100
AcDbArc
 50
41.65
 51
90.0
  0
ARC
  5
A528
330
A3AE
100
AcDbEntity
  8
1
  6
Continuous
100
AcDbCircle
 10
134.5560719999998
 20
217.492018
 30
0.0
 40
6.0
100
AcDbArc
 50
221.6499999999999
 51
90.0
  0
ARC
  5
A529
330
A3AE
100
AcDbEntity
  8
1
  6
Continuous
100
AcDbCircle
 10
212.300072
 20
172.4920179999998
 30
0.0
 40
3.0
100
AcDbArc
 50
117.818
 51
180.0
  0
CIRCLE
  5
A52A
330
A3AE
100
AcDbEntity
  8
1
  6
Continuous
100
AcDbCircle
 10
102.556072
 20
217.492018
 30
0.0
 40
4.299999999999998
  0
CIRCLE
  5
A52B
330
A3AE
100
AcDbEntity
  8
1
  6
Continuous
100
AcDbCircle
 10
102.556072
 20
217.492018
 30
0.0
 40
2.149999999999999
  0
CIRCLE
  5
A52C
330
A3AE
100
AcDbEntity
  8
1
  6
Continuous
100
AcDbCircle
 10
134.5560719999998
 20
217.492018
 30
0.0
 40
2.149999999999999
  0
CIRCLE
  5
A52D
330
A3AE
100
AcDbEntity
  8
1
  6
Continuous
100
AcDbCircle
 10
134.5560719999998
 20
217.492018
 30
0.0
 40
4.299999999999998
  0
ARC
  5
A52E
330
A3AE
100
AcDbEntity
  8
1
  6
Continuous
100
AcDbCircle
 10
266.3000719999998
 20
217.492018
 30
0.0
 40
2.5
100
AcDbArc
 50
199.763
 51
270.0
  0
ARC
  5
A52F
330
A3AE
100
AcDbEntity
  8
1
  6
Continuous
100
AcDbCircle
 10
110.5560719999999
 20
307.582833
 30
0.0
 40
2.0
100
AcDbArc
 50
180.0
 51
270.0
  0
ARC
  5
A530
330
A3AE
100
AcDbEntity
  8
1
  6
Continuous
100
AcDbCircle
 10
110.5560719999999
 20
310.4058329999999
 30
0.0
 40
2.0
100
AcDbArc
 50
180.0
 51
270.0
  0
ARC
  5
A531
330
A3AE
100
AcDbEntity
  8
1
  6
Continuous
100
AcDbCircle
 10
126.556072
 20
307.582833
 30
0.0
 40
2.0
100
AcDbArc
 50
270.0
 51
0.0
  0
ARC
  5
A532
330
A3AE
100
AcDbEntity
  8
1
  6
Continuous
100
AcDbCircle
 10
126.556072
 20
310.4058329999999
 30
0.0
 40
2.0
100
AcDbArc
 50
270.0
 51
0.0
  0
ARC
  5
A533
330
A3AE
100
AcDbEntity
  8
1
  6
Continuous
100
AcDbCircle
 10
29.55597199999999
 20
56.22431800000001
 30
0.0
 40
2.0
100
AcDbArc
 50
0.0
 51
90.0
  0
ARC
  5
A534
330
A3AE
100
AcDbEntity
  8
1
  6
Continuous
100
AcDbCircle
 10
47.55597199999999
 20
56.22431800000001
 30
0.0
 40
2.0
100
AcDbArc
 50
90.0
 51
180.0
  0
LINE
  5
A535
330
A3AE
100
AcDbEntity
  8
4
  6
CENTER
100
AcDbLine
 10
366.848072
 20
145.492018
 30
0.0
 11
378.448072
 21
145.492018
 31
0.0
  0
CIRCLE
  5
A536
330
A3AE
100
AcDbEntity
  8
3
  6
DASHED
100
AcDbCircle
 10
372.648072
 20
145.492018
 30
0.0
 40
4.299999999999998
  0
LINE
  5
A537
330
A3AE
100
AcDbEntity
  8
4
  6
CENTER
100
AcDbLine
 10
366.848072
 20
170.492018
 30
0.0
 11
378.448072
 21
170.492018
 31
0.0
  0
CIRCLE
  5
A538
330
A3AE
100
AcDbEntity
  8
3
  6
DASHED
100
AcDbCircle
 10
372.648072
 20
170.492018
 30
0.0
 40
4.299999999999998
  0
ARC
  5
A539
330
A3AE
100
AcDbEntity
  8
1
  6
Continuous
100
AcDbCircle
 10
359.2480719999999
 20
167.1624949999998
 30
0.0
 40
2.0
100
AcDbArc
 50
111.100196
 51
180.0
  0
ARC
  5
A53A
330
A3AE
100
AcDbEntity
  8
1
  6
Continuous
100
AcDbCircle
 10
386.0480719999998
 20
167.1624949999998
 30
0.0
 40
2.0
100
AcDbArc
 50
0.0
 51
68.899804
  0
ARC
  5
A53B
330
A3AE
100
AcDbEntity
  8
1
  6
Continuous
100
AcDbCircle
 10
25.155972
 20
167.1624949999998
 30
0.0
 40
2.0
100
AcDbArc
 50
111.100196
 51
180.0
  0
ARC
  5
A53C
330
A3AE
100
AcDbEntity
  8
1
  6
Continuous
100
AcDbCircle
 10
51.956072
 20
167.1624949999998
 30
0.0
 40
2.0
100
AcDbArc
 50
0.0
 51
68.899804
  0
LINE
  5
A53D
330
A3AE
100
AcDbEntity
  8
1
  6
Continuous
100
AcDbLine
 10
218.7000719999999
 20
179.492018
 30
0.0
 11
221.800072
 21
179.492018
 31
0.0
  0
ARC
  5
A53E
330
A3AE
100
AcDbEntity
  8
1
  6
Continuous
100
AcDbCircle
 10
27.80597199999998
 20
46.724318
 30
0.0
 40
2.5
100
AcDbArc
 50
180.0
 51
270.0
  0
ARC
  5
A53F
330
A3AE
100
AcDbEntity
  8
1
  6
Continuous
100
AcDbCircle
 10
49.306072
 20
46.724318
 30
0.0
 40
2.5
100
AcDbArc
 50
270.0
 51
0.0
  0
ARC
  5
A540
330
A3AE
100
AcDbEntity
  8
1
  6
Continuous
100
AcDbCircle
 10
34.155972
 20
318.082833
 30
0.0
 40
2.5
100
AcDbArc
 50
90.0
 51
180.0
  0
ARC
  5
A541
330
A3AE
100
AcDbEntity
  8
1
  6
Continuous
100
AcDbCircle
 10
42.95597199999998
 20
318.082833
 30
0.0
 40
2.5
100
AcDbArc
 50
0.0
 51
90.0
  0
ARC
  5
A542
330
A3AE
100
AcDbEntity
  8
1
  6
Continuous
100
AcDbCircle
 10
49.306072
 20
318.082833
 30
0.0
 40
2.5
100
AcDbArc
 50
0.0
 51
90.0
  0
ARC
  5
A543
330
A3AE
100
AcDbEntity
  8
1
  6
Continuous
100
AcDbCircle
 10
27.80597199999998
 20
318.082833
 30
0.0
 40
2.5
100
AcDbArc
 50
90.0
 51
180.0
  0
LINE
  5
A544
330
A3AE
100
AcDbEntity
  8
4
  6
CENTER
100
AcDbLine
 10
219.288988
 20
170.492018
 30
0.0
 11
228.525297
 21
170.492018
 31
0.0
  0
LINE
  5
A545
330
A3AE
100
AcDbEntity
  8
4
  6
CENTER
100
AcDbLine
 10
219.288988
 20
145.492018
 30
0.0
 11
228.525297
 21
145.492018
 31
0.0
  0
LINE
  5
A546
330
A3AE
100
AcDbEntity
  8
4
  6
CENTER
100
AcDbLine
 10
32.75597199999999
 20
170.492018
 30
0.0
 11
44.35597199999999
 21
170.492018
 31
0.0
  0
LINE
  5
A547
330
A3AE
100
AcDbEntity
  8
4
  6
CENTER
100
AcDbLine
 10
32.75597199999999
 20
145.492018
 30
0.0
 11
44.35597199999999
 21
145.492018
 31
0.0
  0
LINE
  5
A548
330
A3AE
100
AcDbEntity
  8
1
  6
Continuous
100
AcDbLine
 10
209.300072
 20
172.4920179999998
 30
0.0
 11
209.300072
 21
171.492018
 31
0.0
  0
ARC
  5
A549
330
A3AE
100
AcDbEntity
  8
1
  6
Continuous
100
AcDbCircle
 10
208.950072
 20
180.642018
 30
0.0
 40
1.149999999999999
100
AcDbArc
 50
95.61360500000002
 51
275.613605
  0
ARC
  5
A54A
330
A3AE
100
AcDbEntity
  8
1
  6
Continuous
100
AcDbCircle
 10
220.650072
 20
179.492018
 30
0.0
 40
1.149999999999999
100
AcDbArc
 50
0.0
 51
180.0
  0
ARC
  5
A54B
330
A3AE
100
AcDbEntity
  8
1
  6
Continuous
100
AcDbCircle
 10
208.950072
 20
200.492018
 30
0.0
 40
1.149999999999999
100
AcDbArc
 50
180.0
 51
0.0
  0
ARC
  5
A54C
330
A3AE
100
AcDbEntity
  8
1
  6
Continuous
100
AcDbCircle
 10
220.650072
 20
199.342018
 30
0.0
 40
1.149999999999999
100
AcDbArc
 50
275.613605
 51
95.61360500000002
  0
ARC
  5
A54D
330
A3AE
100
AcDbEntity
  8
1
  6
Continuous
100
AcDbCircle
 10
208.950072
 20
198.1920179999999
 30
0.0
 40
1.149999999999999
100
AcDbArc
 50
95.61360500000002
 51
275.613605
  0
ARC
  5
A54E
330
A3AE
100
AcDbEntity
  8
1
  6
Continuous
100
AcDbCircle
 10
220.650072
 20
181.7920179999999
 30
0.0
 40
1.149999999999999
100
AcDbArc
 50
275.613605
 51
95.61360500000002
  0
LINE
  5
A54F
330
A3AE
100
AcDbEntity
  8
1
  6
Continuous
100
AcDbLine
 10
220.53758
 20
182.9365029999999
 30
0.0
 11
208.83758
 21
181.786503
 31
0.0
  0
LINE
  5
A550
330
A3AE
100
AcDbEntity
  8
1
  6
Continuous
100
AcDbLine
 10
220.762564
 20
180.647534
 30
0.0
 11
209.0625639999999
 21
179.497534
 31
0.0
  0
LINE
  5
A551
330
A3AE
100
AcDbEntity
  8
1
  6
Continuous
100
AcDbLine
 10
220.53758
 20
200.4865029999999
 30
0.0
 11
208.83758
 21
199.3365029999999
 31
0.0
  0
LINE
  5
A552
330
A3AE
100
AcDbEntity
  8
1
  6
Continuous
100
AcDbLine
 10
220.762564
 20
198.1975339999999
 30
0.0
 11
209.0625639999999
 21
197.047534
 31
0.0
  0
ARC
  5
A553
330
A3AE
100
AcDbEntity
  8
1
  6
Continuous
100
AcDbCircle
 10
220.650072
 20
195.832018
 30
0.0
 40
1.149999999999999
100
AcDbArc
 50
275.613605
 51
95.61360500000002
  0
ARC
  5
A554
330
A3AE
100
AcDbEntity
  8
1
  6
Continuous
100
AcDbCircle
 10
220.650072
 20
192.3220179999999
 30
0.0
 40
1.149999999999999
100
AcDbArc
 50
275.613605
 51
95.61360500000002
  0
ARC
  5
A555
330
A3AE
100
AcDbEntity
  8
1
  6
Continuous
100
AcDbCircle
 10
220.650072
 20
188.8120179999999
 30
0.0
 40
1.149999999999999
100
AcDbArc
 50
275.613605
 51
95.61360500000002
  0
ARC
  5
A556
330
A3AE
100
AcDbEntity
  8
1
  6
Continuous
100
AcDbCircle
 10
220.650072
 20
185.302018
 30
0.0
 40
1.149999999999999
100
AcDbArc
 50
275.613605
 51
95.61360500000002
  0
ARC
  5
A557
330
A3AE
100
AcDbEntity
  8
1
  6
Continuous
100
AcDbCircle
 10
208.950072
 20
194.6820179999999
 30
0.0
 40
1.149999999999999
100
AcDbArc
 50
95.61360500000002
 51
275.613605
  0
ARC
  5
A558
330
A3AE
100
AcDbEntity
  8
1
  6
Continuous
100
AcDbCircle
 10
208.950072
 20
191.1720179999998
 30
0.0
 40
1.149999999999999
100
AcDbArc
 50
95.61360500000002
 51
275.613605
  0
ARC
  5
A559
330
A3AE
100
AcDbEntity
  8
1
  6
Continuous
100
AcDbCircle
 10
208.950072
 20
187.6620179999999
 30
0.0
 40
1.149999999999999
100
AcDbArc
 50
95.61360500000002
 51
275.613605
  0
ARC
  5
A55A
330
A3AE
100
AcDbEntity
  8
1
  6
Continuous
100
AcDbCircle
 10
208.950072
 20
184.152018
 30
0.0
 40
1.149999999999999
100
AcDbArc
 50
95.61360500000002
 51
275.613605
  0
LINE
  5
A55B
330
A3AE
100
AcDbEntity
  8
1
  6
Continuous
100
AcDbLine
 10
220.53758
 20
196.9765029999998
 30
0.0
 11
208.83758
 21
195.8265029999998
 31
0.0
  0
LINE
  5
A55C
330
A3AE
100
AcDbEntity
  8
1
  6
Continuous
100
AcDbLine
 10
220.762564
 20
194.687534
 30
0.0
 11
209.0625639999999
 21
193.537534
 31
0.0
  0
LINE
  5
A55D
330
A3AE
100
AcDbEntity
  8
1
  6
Continuous
100
AcDbLine
 10
220.53758
 20
193.4665029999999
 30
0.0
 11
208.83758
 21
192.316503
 31
0.0
  0
LINE
  5
A55E
330
A3AE
100
AcDbEntity
  8
1
  6
Continuous
100
AcDbLine
 10
220.762564
 20
191.177534
 30
0.0
 11
209.0625639999999
 21
190.027534
 31
0.0
  0
LINE
  5
A55F
330
A3AE
100
AcDbEntity
  8
1
  6
Continuous
100
AcDbLine
 10
220.53758
 20
189.9565029999999
 30
0.0
 11
208.83758
 21
188.8065029999999
 31
0.0
  0
LINE
  5
A560
330
A3AE
100
AcDbEntity
  8
1
  6
Continuous
100
AcDbLine
 10
220.762564
 20
187.667534
 30
0.0
 11
209.0625639999999
 21
186.517534
 31
0.0
  0
LINE
  5
A561
330
A3AE
100
AcDbEntity
  8
1
  6
Continuous
100
AcDbLine
 10
220.53758
 20
186.446503
 30
0.0
 11
208.83758
 21
185.296503
 31
0.0
  0
LINE
  5
A562
330
A3AE
100
AcDbEntity
  8
1
  6
Continuous
100
AcDbLine
 10
220.762564
 20
184.157534
 30
0.0
 11
209.0625639999999
 21
183.007534
 31
0.0
  0
LINE
  5
A563
330
A3AE
100
AcDbEntity
  8
1
  6
Continuous
100
AcDbLine
 10
218.7000719999999
 20
197.3985129999999
 30
0.0
 11
220.877458
 21
196.9593139999999
 31
0.0
  0
LINE
  5
A564
330
A3AE
100
AcDbEntity
  8
1
  6
Continuous
100
AcDbLine
 10
208.722686
 20
197.0647229999999
 30
0.0
 11
210.900072
 21
196.625524
 31
0.0
  0
LINE
  5
A565
330
A3AE
100
AcDbEntity
  8
1
  6
Continuous
100
AcDbLine
 10
218.7000719999999
 20
193.8885129999999
 30
0.0
 11
220.877458
 21
193.4493139999999
 31
0.0
  0
LINE
  5
A566
330
A3AE
100
AcDbEntity
  8
1
  6
Continuous
100
AcDbLine
 10
208.722686
 20
193.554723
 30
0.0
 11
210.900072
 21
193.115524
 31
0.0
  0
LINE
  5
A567
330
A3AE
100
AcDbEntity
  8
1
  6
Continuous
100
AcDbLine
 10
218.7000719999999
 20
190.3785129999999
 30
0.0
 11
220.877458
 21
189.9393139999999
 31
0.0
  0
LINE
  5
A568
330
A3AE
100
AcDbEntity
  8
1
  6
Continuous
100
AcDbLine
 10
208.722686
 20
190.044723
 30
0.0
 11
210.900072
 21
189.605524
 31
0.0
  0
LINE
  5
A569
330
A3AE
100
AcDbEntity
  8
1
  6
Continuous
100
AcDbLine
 10
218.7000719999999
 20
186.8685129999999
 30
0.0
 11
220.877458
 21
186.4293139999998
 31
0.0
  0
LINE
  5
A56A
330
A3AE
100
AcDbEntity
  8
1
  6
Continuous
100
AcDbLine
 10
208.722686
 20
186.5347229999999
 30
0.0
 11
210.900072
 21
186.095524
 31
0.0
  0
LINE
  5
A56B
330
A3AE
100
AcDbEntity
  8
1
  6
Continuous
100
AcDbLine
 10
218.7000719999999
 20
183.3585129999999
 30
0.0
 11
220.877458
 21
182.9193139999999
 31
0.0
  0
LINE
  5
A56C
330
A3AE
100
AcDbEntity
  8
1
  6
Continuous
100
AcDbLine
 10
208.722686
 20
183.0247229999999
 30
0.0
 11
210.900072
 21
182.5855239999999
 31
0.0
  0
LINE
  5
A56D
330
A3AE
100
AcDbEntity
  8
1
  6
Continuous
100
AcDbLine
 10
218.7000719999999
 20
200.4865029999999
 30
0.0
 11
218.7000719999999
 21
210.992018
 31
0.0
  0
LINE
  5
A56E
330
A3AE
100
AcDbEntity
  8
1
  6
Continuous
100
AcDbLine
 10
210.900072
 20
199.539227
 30
0.0
 11
210.900072
 21
210.992018
 31
0.0
  0
LINE
  5
A56F
330
A3AE
100
AcDbEntity
  8
1
  6
Continuous
100
AcDbLine
 10
210.900072
 20
196.029227
 30
0.0
 11
210.900072
 21
197.2281429999999
 31
0.0
  0
LINE
  5
A570
330
A3AE
100
AcDbEntity
  8
1
  6
Continuous
100
AcDbLine
 10
210.900072
 20
192.519227
 30
0.0
 11
210.900072
 21
193.718143
 31
0.0
  0
LINE
  5
A571
330
A3AE
100
AcDbEntity
  8
1
  6
Continuous
100
AcDbLine
 10
210.900072
 20
189.009227
 30
0.0
 11
210.900072
 21
190.208143
 31
0.0
  0
LINE
  5
A572
330
A3AE
100
AcDbEntity
  8
1
  6
Continuous
100
AcDbLine
 10
210.900072
 20
185.4992269999999
 30
0.0
 11
210.900072
 21
186.6981429999999
 31
0.0
  0
LINE
  5
A573
330
A3AE
100
AcDbEntity
  8
1
  6
Continuous
100
AcDbLine
 10
210.900072
 20
181.989227
 30
0.0
 11
210.900072
 21
183.1881429999999
 31
0.0
  0
LINE
  5
A574
330
A3AE
100
AcDbEntity
  8
1
  6
Continuous
100
AcDbLine
 10
218.7000719999999
 20
182.7558939999999
 30
0.0
 11
218.7000719999999
 21
183.95481
 31
0.0
  0
LINE
  5
A575
330
A3AE
100
AcDbEntity
  8
1
  6
Continuous
100
AcDbLine
 10
218.7000719999999
 20
186.265894
 30
0.0
 11
218.7000719999999
 21
187.4648099999998
 31
0.0
  0
LINE
  5
A576
330
A3AE
100
AcDbEntity
  8
1
  6
Continuous
100
AcDbLine
 10
218.7000719999999
 20
189.7758939999999
 30
0.0
 11
218.7000719999999
 21
190.9748099999999
 31
0.0
  0
LINE
  5
A577
330
A3AE
100
AcDbEntity
  8
1
  6
Continuous
100
AcDbLine
 10
218.7000719999999
 20
193.2858939999999
 30
0.0
 11
218.7000719999999
 21
194.48481
 31
0.0
  0
LINE
  5
A578
330
A3AE
100
AcDbEntity
  8
1
  6
Continuous
100
AcDbLine
 10
218.7000719999999
 20
196.795894
 30
0.0
 11
218.7000719999999
 21
197.99481
 31
0.0
  0
LINE
  5
A579
330
A3AE
100
AcDbEntity
  8
1
  6
Continuous
100
AcDbLine
 10
218.7000719999999
 20
200.3058939999998
 30
0.0
 11
218.7000719999999
 21
200.4865029999999
 31
0.0
  0
LINE
  5
A57A
330
A3AE
100
AcDbEntity
  8
1
  6
Continuous
100
AcDbLine
 10
220.800072
 20
184.157534
 30
0.0
 11
220.800072
 21
182.9321939999999
 31
0.0
  0
LINE
  5
A57B
330
A3AE
100
AcDbEntity
  8
1
  6
Continuous
100
AcDbLine
 10
220.800072
 20
184.161843
 30
0.0
 11
220.800072
 21
184.157534
 31
0.0
  0
LINE
  5
A57C
330
A3AE
100
AcDbEntity
  8
1
  6
Continuous
100
AcDbLine
 10
62.518464
 20
198.1975339999999
 30
0.0
 11
50.81846399999999
 21
197.047534
 31
0.0
  0
ARC
  5
A57D
330
A3AE
100
AcDbEntity
  8
1
  6
Continuous
100
AcDbCircle
 10
50.70597199999999
 20
198.1920179999999
 30
0.0
 40
1.149999999999999
100
AcDbArc
 50
95.61360500000002
 51
275.613605
  0
LINE
  5
A57E
330
A3AE
100
AcDbEntity
  8
1
  6
Continuous
100
AcDbLine
 10
62.29348
 20
182.9365029999999
 30
0.0
 11
50.59347999999999
 21
181.786503
 31
0.0
  0
LINE
  5
A57F
330
A3AE
100
AcDbEntity
  8
1
  6
Continuous
100
AcDbLine
 10
62.518464
 20
180.647534
 30
0.0
 11
50.81846399999999
 21
179.497534
 31
0.0
  0
ARC
  5
A580
330
A3AE
100
AcDbEntity
  8
1
  6
Continuous
100
AcDbCircle
 10
62.40597199999999
 20
179.492018
 30
0.0
 40
1.149999999999999
100
AcDbArc
 50
0.0
 51
103.555623
  0
LINE
  5
A581
330
A3AE
100
AcDbEntity
  8
1
  6
Continuous
100
AcDbLine
 10
62.29348
 20
196.9765029999998
 30
0.0
 11
50.59347999999999
 21
195.8265029999998
 31
0.0
  0
LINE
  5
A582
330
A3AE
100
AcDbEntity
  8
1
  6
Continuous
100
AcDbLine
 10
62.518464
 20
194.687534
 30
0.0
 11
50.81846399999999
 21
193.537534
 31
0.0
  0
LINE
  5
A583
330
A3AE
100
AcDbEntity
  8
1
  6
Continuous
100
AcDbLine
 10
62.29348
 20
193.4665029999999
 30
0.0
 11
50.59347999999999
 21
192.316503
 31
0.0
  0
LINE
  5
A584
330
A3AE
100
AcDbEntity
  8
1
  6
Continuous
100
AcDbLine
 10
62.518464
 20
191.177534
 30
0.0
 11
50.81846399999999
 21
190.027534
 31
0.0
  0
LINE
  5
A585
330
A3AE
100
AcDbEntity
  8
1
  6
Continuous
100
AcDbLine
 10
62.29348
 20
189.9565029999999
 30
0.0
 11
50.59347999999999
 21
188.8065029999999
 31
0.0
  0
LINE
  5
A586
330
A3AE
100
AcDbEntity
  8
1
  6
Continuous
100
AcDbLine
 10
62.518464
 20
187.667534
 30
0.0
 11
50.81846399999999
 21
186.517534
 31
0.0
  0
LINE
  5
A587
330
A3AE
100
AcDbEntity
  8
1
  6
Continuous
100
AcDbLine
 10
62.29348
 20
186.446503
 30
0.0
 11
50.59347999999999
 21
185.296503
 31
0.0
  0
LINE
  5
A588
330
A3AE
100
AcDbEntity
  8
1
  6
Continuous
100
AcDbLine
 10
62.518464
 20
184.157534
 30
0.0
 11
50.81846399999999
 21
183.007534
 31
0.0
  0
LINE
  5
A589
330
A3AE
100
AcDbEntity
  8
1
  6
Continuous
100
AcDbLine
 10
59.056072
 20
197.680886
 30
0.0
 11
62.633358
 21
196.9593139999999
 31
0.0
  0
LINE
  5
A58A
330
A3AE
100
AcDbEntity
  8
1
  6
Continuous
100
AcDbLine
 10
50.478586
 20
197.0647229999999
 30
0.0
 11
54.056072
 21
196.34311
 31
0.0
  0
LINE
  5
A58B
330
A3AE
100
AcDbEntity
  8
1
  6
Continuous
100
AcDbLine
 10
50.478586
 20
193.554723
 30
0.0
 11
54.056072
 21
192.83311
 31
0.0
  0
LINE
  5
A58C
330
A3AE
100
AcDbEntity
  8
1
  6
Continuous
100
AcDbLine
 10
50.478586
 20
190.044723
 30
0.0
 11
54.056072
 21
189.32311
 31
0.0
  0
LINE
  5
A58D
330
A3AE
100
AcDbEntity
  8
1
  6
Continuous
100
AcDbLine
 10
50.478586
 20
186.5347229999999
 30
0.0
 11
54.056072
 21
185.8131099999999
 31
0.0
  0
LINE
  5
A58E
330
A3AE
100
AcDbEntity
  8
1
  6
Continuous
100
AcDbLine
 10
50.478586
 20
183.0247229999999
 30
0.0
 11
54.056072
 21
182.30311
 31
0.0
  0
LINE
  5
A58F
330
A3AE
100
AcDbEntity
  8
1
  6
Continuous
100
AcDbLine
 10
59.056072
 20
183.6408859999999
 30
0.0
 11
62.633358
 21
182.9193139999999
 31
0.0
  0
LINE
  5
A590
330
A3AE
100
AcDbEntity
  8
1
  6
Continuous
100
AcDbLine
 10
59.056072
 20
187.150886
 30
0.0
 11
62.633358
 21
186.4293139999998
 31
0.0
  0
LINE
  5
A591
330
A3AE
100
AcDbEntity
  8
1
  6
Continuous
100
AcDbLine
 10
59.056072
 20
190.660886
 30
0.0
 11
62.633358
 21
189.9393139999999
 31
0.0
  0
LINE
  5
A592
330
A3AE
100
AcDbEntity
  8
1
  6
Continuous
100
AcDbLine
 10
59.056072
 20
194.170886
 30
0.0
 11
62.633358
 21
193.4493139999999
 31
0.0
  0
ARC
  5
A593
330
A3AE
100
AcDbEntity
  8
1
  6
Continuous
100
AcDbCircle
 10
50.70597199999999
 20
194.6820179999999
 30
0.0
 40
1.149999999999999
100
AcDbArc
 50
95.61360500000002
 51
275.613605
  0
ARC
  5
A594
330
A3AE
100
AcDbEntity
  8
1
  6
Continuous
100
AcDbCircle
 10
62.40597199999999
 20
195.832018
 30
0.0
 40
1.149999999999999
100
AcDbArc
 50
275.613605
 51
95.61360500000002
  0
ARC
  5
A595
330
A3AE
100
AcDbEntity
  8
1
  6
Continuous
100
AcDbCircle
 10
50.70597199999999
 20
191.1720179999998
 30
0.0
 40
1.149999999999999
100
AcDbArc
 50
95.61360500000002
 51
275.613605
  0
ARC
  5
A596
330
A3AE
100
AcDbEntity
  8
1
  6
Continuous
100
AcDbCircle
 10
62.40597199999999
 20
192.3220179999999
 30
0.0
 40
1.149999999999999
100
AcDbArc
 50
275.613605
 51
95.61360500000002
  0
ARC
  5
A597
330
A3AE
100
AcDbEntity
  8
1
  6
Continuous
100
AcDbCircle
 10
50.70597199999999
 20
187.6620179999999
 30
0.0
 40
1.149999999999999
100
AcDbArc
 50
95.61360500000002
 51
275.613605
  0
ARC
  5
A598
330
A3AE
100
AcDbEntity
  8
1
  6
Continuous
100
AcDbCircle
 10
62.40597199999999
 20
188.8120179999999
 30
0.0
 40
1.149999999999999
100
AcDbArc
 50
275.613605
 51
95.61360500000002
  0
ARC
  5
A599
330
A3AE
100
AcDbEntity
  8
1
  6
Continuous
100
AcDbCircle
 10
50.70597199999999
 20
184.152018
 30
0.0
 40
1.149999999999999
100
AcDbArc
 50
95.61360500000002
 51
275.613605
  0
ARC
  5
A59A
330
A3AE
100
AcDbEntity
  8
1
  6
Continuous
100
AcDbCircle
 10
62.40597199999999
 20
185.302018
 30
0.0
 40
1.149999999999999
100
AcDbArc
 50
275.613605
 51
95.61360500000002
  0
ARC
  5
A59B
330
A3AE
100
AcDbEntity
  8
1
  6
Continuous
100
AcDbCircle
 10
62.40597199999999
 20
181.7920179999999
 30
0.0
 40
1.149999999999999
100
AcDbArc
 50
275.613605
 51
95.61360500000002
  0
ARC
  5
A59C
330
A3AE
100
AcDbEntity
  8
1
  6
Continuous
100
AcDbCircle
 10
50.70597199999999
 20
180.642018
 30
0.0
 40
1.149999999999999
100
AcDbArc
 50
95.61360500000002
 51
275.613605
  0
LINE
  5
A59D
330
A3AE
100
AcDbEntity
  8
1
  6
Continuous
100
AcDbLine
 10
62.555972
 20
184.161843
 30
0.0
 11
62.555972
 21
184.157534
 31
0.0
  0
LINE
  5
A59E
330
A3AE
100
AcDbEntity
  8
1
  6
Continuous
100
AcDbLine
 10
51.05639
 20
179.492018
 30
0.0
 11
54.056072
 21
179.492018
 31
0.0
  0
LINE
  5
A59F
330
A3AE
100
AcDbEntity
  8
1
  6
Continuous
100
AcDbLine
 10
50.70597199999999
 20
179.492018
 30
0.0
 11
52.655972
 21
179.492018
 31
0.0
  0
LINE
  5
A5A0
330
A3AE
100
AcDbEntity
  8
1
  6
Continuous
100
AcDbLine
 10
62.29348
 20
200.4865029999999
 30
0.0
 11
50.59347999999999
 21
199.3365029999999
 31
0.0
  0
ARC
  5
A5A1
330
A3AE
100
AcDbEntity
  8
1
  6
Continuous
100
AcDbCircle
 10
50.70597199999999
 20
200.492018
 30
0.0
 40
1.149999999999999
100
AcDbArc
 50
180.0
 51
283.555623
  0
ARC
  5
A5A2
330
A3AE
100
AcDbEntity
  8
1
  6
Continuous
100
AcDbCircle
 10
62.40597199999999
 20
199.342018
 30
0.0
 40
1.149999999999999
100
AcDbArc
 50
275.613605
 51
95.61360500000002
  0
LINE
  5
A5A3
330
A3AE
100
AcDbEntity
  8
1
  6
Continuous
100
AcDbLine
 10
20.555972
 20
204.492018
 30
0.0
 11
23.055972
 21
204.492018
 31
0.0
  0
LINE
  5
A5A4
330
A3AE
100
AcDbEntity
  8
1
  6
Continuous
100
AcDbLine
 10
54.056072
 20
204.492018
 30
0.0
 11
56.556072
 21
204.492018
 31
0.0
  0
LINE
  5
A5A5
330
A3AE
100
AcDbEntity
  8
1
  6
Continuous
100
AcDbLine
 10
59.056072
 20
200.492018
 30
0.0
 11
62.40597199999999
 21
200.492018
 31
0.0
  0
LINE
  5
A5A6
330
A3AE
100
AcDbEntity
  8
1
  6
Continuous
100
AcDbLine
 10
56.556072
 20
179.492018
 30
0.0
 11
63.555972
 21
179.492018
 31
0.0
  0
LINE
  5
A5A7
330
A3AE
100
AcDbEntity
  8
1
  6
Continuous
100
AcDbLine
 10
59.056072
 20
197.857213
 30
0.0
 11
59.056072
 21
196.658297
 31
0.0
  0
LINE
  5
A5A8
330
A3AE
100
AcDbEntity
  8
1
  6
Continuous
100
AcDbLine
 10
56.556072
 20
197.611487
 30
0.0
 11
56.556072
 21
196.4125699999999
 31
0.0
  0
LINE
  5
A5A9
330
A3AE
100
AcDbEntity
  8
1
  6
Continuous
100
AcDbLine
 10
54.056072
 20
197.3657599999999
 30
0.0
 11
54.056072
 21
196.166844
 31
0.0
  0
LINE
  5
A5AA
330
A3AE
100
AcDbEntity
  8
1
  6
Continuous
100
AcDbLine
 10
59.056072
 20
194.3472129999999
 30
0.0
 11
59.056072
 21
193.1482969999999
 31
0.0
  0
LINE
  5
A5AB
330
A3AE
100
AcDbEntity
  8
1
  6
Continuous
100
AcDbLine
 10
59.056072
 20
190.837213
 30
0.0
 11
59.056072
 21
189.6382969999999
 31
0.0
  0
LINE
  5
A5AC
330
A3AE
100
AcDbEntity
  8
1
  6
Continuous
100
AcDbLine
 10
59.056072
 20
187.327213
 30
0.0
 11
59.056072
 21
186.1282969999998
 31
0.0
  0
LINE
  5
A5AD
330
A3AE
100
AcDbEntity
  8
1
  6
Continuous
100
AcDbLine
 10
59.056072
 20
183.8172129999999
 30
0.0
 11
59.056072
 21
182.6182969999999
 31
0.0
  0
LINE
  5
A5AE
330
A3AE
100
AcDbEntity
  8
1
  6
Continuous
100
AcDbLine
 10
54.056072
 20
183.3257599999998
 30
0.0
 11
54.056072
 21
182.126844
 31
0.0
  0
LINE
  5
A5AF
330
A3AE
100
AcDbEntity
  8
1
  6
Continuous
100
AcDbLine
 10
54.056072
 20
186.8357599999999
 30
0.0
 11
54.056072
 21
185.6368439999999
 31
0.0
  0
LINE
  5
A5B0
330
A3AE
100
AcDbEntity
  8
1
  6
Continuous
100
AcDbLine
 10
54.056072
 20
190.34576
 30
0.0
 11
54.056072
 21
189.1468439999999
 31
0.0
  0
LINE
  5
A5B1
330
A3AE
100
AcDbEntity
  8
1
  6
Continuous
100
AcDbLine
 10
54.056072
 20
193.85576
 30
0.0
 11
54.056072
 21
192.656844
 31
0.0
  0
LINE
  5
A5B2
330
A3AE
100
AcDbEntity
  8
1
  6
Continuous
100
AcDbLine
 10
56.556072
 20
194.101487
 30
0.0
 11
56.556072
 21
192.90257
 31
0.0
  0
LINE
  5
A5B3
330
A3AE
100
AcDbEntity
  8
1
  6
Continuous
100
AcDbLine
 10
56.556072
 20
190.591487
 30
0.0
 11
56.556072
 21
189.39257
 31
0.0
  0
LINE
  5
A5B4
330
A3AE
100
AcDbEntity
  8
1
  6
Continuous
100
AcDbLine
 10
56.556072
 20
187.081487
 30
0.0
 11
56.556072
 21
185.8825699999999
 31
0.0
  0
LINE
  5
A5B5
330
A3AE
100
AcDbEntity
  8
1
  6
Continuous
100
AcDbLine
 10
56.556072
 20
183.5714869999999
 30
0.0
 11
56.556072
 21
182.3725699999999
 31
0.0
  0
LINE
  5
A5B6
330
A3AE
100
AcDbEntity
  8
1
  6
Continuous
100
AcDbLine
 10
26.518364
 20
198.1975339999999
 30
0.0
 11
14.818364
 21
197.047534
 31
0.0
  0
ARC
  5
A5B7
330
A3AE
100
AcDbEntity
  8
1
  6
Continuous
100
AcDbCircle
 10
14.70587199999999
 20
198.1920179999999
 30
0.0
 40
1.149999999999999
100
AcDbArc
 50
95.61360500000002
 51
275.613605
  0
ARC
  5
A5B8
330
A3AE
100
AcDbEntity
  8
1
  6
Continuous
100
AcDbCircle
 10
26.405872
 20
179.492018
 30
0.0
 40
1.149999999999999
100
AcDbArc
 50
0.0
 51
103.555623
  0
LINE
  5
A5B9
330
A3AE
100
AcDbEntity
  8
1
  6
Continuous
100
AcDbLine
 10
23.055972
 20
197.857213
 30
0.0
 11
23.055972
 21
196.658297
 31
0.0
  0
LINE
  5
A5BA
330
A3AE
100
AcDbEntity
  8
1
  6
Continuous
100
AcDbLine
 10
20.555972
 20
196.4125699999999
 30
0.0
 11
20.555972
 21
197.611487
 31
0.0
  0
LINE
  5
A5BB
330
A3AE
100
AcDbEntity
  8
1
  6
Continuous
100
AcDbLine
 10
18.055972
 20
197.3657599999999
 30
0.0
 11
18.055972
 21
196.166844
 31
0.0
  0
LINE
  5
A5BC
330
A3AE
100
AcDbEntity
  8
1
  6
Continuous
100
AcDbLine
 10
18.055972
 20
193.85576
 30
0.0
 11
18.055972
 21
192.656844
 31
0.0
  0
LINE
  5
A5BD
330
A3AE
100
AcDbEntity
  8
1
  6
Continuous
100
AcDbLine
 10
20.555972
 20
192.90257
 30
0.0
 11
20.555972
 21
194.101487
 31
0.0
  0
LINE
  5
A5BE
330
A3AE
100
AcDbEntity
  8
1
  6
Continuous
100
AcDbLine
 10
23.055972
 20
194.3472129999999
 30
0.0
 11
23.055972
 21
193.1482969999999
 31
0.0
  0
LINE
  5
A5BF
330
A3AE
100
AcDbEntity
  8
1
  6
Continuous
100
AcDbLine
 10
18.055972
 20
190.34576
 30
0.0
 11
18.055972
 21
189.1468439999999
 31
0.0
  0
LINE
  5
A5C0
330
A3AE
100
AcDbEntity
  8
1
  6
Continuous
100
AcDbLine
 10
20.555972
 20
189.39257
 30
0.0
 11
20.555972
 21
190.591487
 31
0.0
  0
LINE
  5
A5C1
330
A3AE
100
AcDbEntity
  8
1
  6
Continuous
100
AcDbLine
 10
22.955972
 20
190.8273839999999
 30
0.0
 11
22.955972
 21
189.628467
 31
0.0
  0
LINE
  5
A5C2
330
A3AE
100
AcDbEntity
  8
1
  6
Continuous
100
AcDbLine
 10
18.055972
 20
186.825931
 30
0.0
 11
18.055972
 21
185.6368439999999
 31
0.0
  0
LINE
  5
A5C3
330
A3AE
100
AcDbEntity
  8
1
  6
Continuous
100
AcDbLine
 10
20.555972
 20
185.8825699999999
 30
0.0
 11
20.555972
 21
187.0716569999999
 31
0.0
  0
LINE
  5
A5C4
330
A3AE
100
AcDbEntity
  8
1
  6
Continuous
100
AcDbLine
 10
23.055972
 20
187.3173839999998
 30
0.0
 11
23.055972
 21
186.1282969999998
 31
0.0
  0
LINE
  5
A5C5
330
A3AE
100
AcDbEntity
  8
1
  6
Continuous
100
AcDbLine
 10
23.055972
 20
183.8172129999999
 30
0.0
 11
23.055972
 21
182.6182969999999
 31
0.0
  0
LINE
  5
A5C6
330
A3AE
100
AcDbEntity
  8
1
  6
Continuous
100
AcDbLine
 10
18.055972
 20
183.3257599999998
 30
0.0
 11
18.055972
 21
182.126844
 31
0.0
  0
LINE
  5
A5C7
330
A3AE
100
AcDbEntity
  8
1
  6
Continuous
100
AcDbLine
 10
20.555972
 20
182.3725699999999
 30
0.0
 11
20.555972
 21
183.5714869999999
 31
0.0
  0
LINE
  5
A5C8
330
A3AE
100
AcDbEntity
  8
1
  6
Continuous
100
AcDbLine
 10
14.47848599999999
 20
183.0247229999999
 30
0.0
 11
18.055972
 21
182.30311
 31
0.0
  0
LINE
  5
A5C9
330
A3AE
100
AcDbEntity
  8
1
  6
Continuous
100
AcDbLine
 10
14.47848599999999
 20
186.5347229999999
 30
0.0
 11
18.055972
 21
185.8131099999999
 31
0.0
  0
LINE
  5
A5CA
330
A3AE
100
AcDbEntity
  8
1
  6
Continuous
100
AcDbLine
 10
14.47848599999999
 20
190.044723
 30
0.0
 11
18.055972
 21
189.32311
 31
0.0
  0
LINE
  5
A5CB
330
A3AE
100
AcDbEntity
  8
1
  6
Continuous
100
AcDbLine
 10
14.47848599999999
 20
193.554723
 30
0.0
 11
18.055972
 21
192.83311
 31
0.0
  0
LINE
  5
A5CC
330
A3AE
100
AcDbEntity
  8
1
  6
Continuous
100
AcDbLine
 10
14.47848599999999
 20
197.0647229999999
 30
0.0
 11
18.055972
 21
196.34311
 31
0.0
  0
LINE
  5
A5CD
330
A3AE
100
AcDbEntity
  8
1
  6
Continuous
100
AcDbLine
 10
23.055972
 20
183.6408859999999
 30
0.0
 11
26.633258
 21
182.9193139999999
 31
0.0
  0
LINE
  5
A5CE
330
A3AE
100
AcDbEntity
  8
1
  6
Continuous
100
AcDbLine
 10
23.055972
 20
187.150886
 30
0.0
 11
26.633258
 21
186.4293139999998
 31
0.0
  0
LINE
  5
A5CF
330
A3AE
100
AcDbEntity
  8
1
  6
Continuous
100
AcDbLine
 10
22.955972
 20
190.681057
 30
0.0
 11
26.633258
 21
189.9393139999999
 31
0.0
  0
LINE
  5
A5D0
330
A3AE
100
AcDbEntity
  8
1
  6
Continuous
100
AcDbLine
 10
23.055972
 20
194.170886
 30
0.0
 11
26.633258
 21
193.4493139999999
 31
0.0
  0
LINE
  5
A5D1
330
A3AE
100
AcDbEntity
  8
1
  6
Continuous
100
AcDbLine
 10
23.055972
 20
197.680886
 30
0.0
 11
26.633258
 21
196.9593139999999
 31
0.0
  0
LINE
  5
A5D2
330
A3AE
100
AcDbEntity
  8
1
  6
Continuous
100
AcDbLine
 10
23.055972
 20
179.492018
 30
0.0
 11
27.55587199999999
 21
179.492018
 31
0.0
  0
LINE
  5
A5D3
330
A3AE
100
AcDbEntity
  8
1
  6
Continuous
100
AcDbLine
 10
15.05628999999998
 20
179.492018
 30
0.0
 11
20.555972
 21
179.492018
 31
0.0
  0
LINE
  5
A5D4
330
A3AE
100
AcDbEntity
  8
1
  6
Continuous
100
AcDbLine
 10
14.70587199999999
 20
179.492018
 30
0.0
 11
16.655872
 21
179.492018
 31
0.0
  0
ARC
  5
A5D5
330
A3AE
100
AcDbEntity
  8
1
  6
Continuous
100
AcDbCircle
 10
26.405872
 20
195.832018
 30
0.0
 40
1.149999999999999
100
AcDbArc
 50
275.613605
 51
95.61360500000002
  0
ARC
  5
A5D6
330
A3AE
100
AcDbEntity
  8
1
  6
Continuous
100
AcDbCircle
 10
26.405872
 20
192.3220179999999
 30
0.0
 40
1.149999999999999
100
AcDbArc
 50
275.613605
 51
95.61360500000002
  0
ARC
  5
A5D7
330
A3AE
100
AcDbEntity
  8
1
  6
Continuous
100
AcDbCircle
 10
26.405872
 20
188.8120179999999
 30
0.0
 40
1.149999999999999
100
AcDbArc
 50
275.613605
 51
95.61360500000002
  0
ARC
  5
A5D8
330
A3AE
100
AcDbEntity
  8
1
  6
Continuous
100
AcDbCircle
 10
26.405872
 20
185.302018
 30
0.0
 40
1.149999999999999
100
AcDbArc
 50
275.613605
 51
95.61360500000002
  0
ARC
  5
A5D9
330
A3AE
100
AcDbEntity
  8
1
  6
Continuous
100
AcDbCircle
 10
26.405872
 20
181.7920179999999
 30
0.0
 40
1.149999999999999
100
AcDbArc
 50
275.613605
 51
95.61360500000002
  0
LINE
  5
A5DA
330
A3AE
100
AcDbEntity
  8
1
  6
Continuous
100
AcDbLine
 10
26.655872
 20
184.161843
 30
0.0
 11
26.655872
 21
184.157534
 31
0.0
  0
ARC
  5
A5DB
330
A3AE
100
AcDbEntity
  8
1
  6
Continuous
100
AcDbCircle
 10
14.70587199999999
 20
194.6820179999999
 30
0.0
 40
1.149999999999999
100
AcDbArc
 50
95.61360500000002
 51
275.613605
  0
ARC
  5
A5DC
330
A3AE
100
AcDbEntity
  8
1
  6
Continuous
100
AcDbCircle
 10
14.70587199999999
 20
191.1720179999998
 30
0.0
 40
1.149999999999999
100
AcDbArc
 50
95.61360500000002
 51
275.613605
  0
ARC
  5
A5DD
330
A3AE
100
AcDbEntity
  8
1
  6
Continuous
100
AcDbCircle
 10
14.70587199999999
 20
187.6620179999999
 30
0.0
 40
1.149999999999999
100
AcDbArc
 50
95.61360500000002
 51
275.613605
  0
ARC
  5
A5DE
330
A3AE
100
AcDbEntity
  8
1
  6
Continuous
100
AcDbCircle
 10
14.70587199999999
 20
184.152018
 30
0.0
 40
1.149999999999999
100
AcDbArc
 50
95.61360500000002
 51
275.613605
  0
ARC
  5
A5DF
330
A3AE
100
AcDbEntity
  8
1
  6
Continuous
100
AcDbCircle
 10
14.70587199999999
 20
180.642018
 30
0.0
 40
1.149999999999999
100
AcDbArc
 50
95.61360500000002
 51
275.613605
  0
LINE
  5
A5E0
330
A3AE
100
AcDbEntity
  8
1
  6
Continuous
100
AcDbLine
 10
26.29338
 20
182.9365029999999
 30
0.0
 11
14.59337999999998
 21
181.786503
 31
0.0
  0
LINE
  5
A5E1
330
A3AE
100
AcDbEntity
  8
1
  6
Continuous
100
AcDbLine
 10
26.518364
 20
180.647534
 30
0.0
 11
14.818364
 21
179.497534
 31
0.0
  0
LINE
  5
A5E2
330
A3AE
100
AcDbEntity
  8
1
  6
Continuous
100
AcDbLine
 10
26.29338
 20
196.9765029999998
 30
0.0
 11
14.59337999999998
 21
195.8265029999998
 31
0.0
  0
LINE
  5
A5E3
330
A3AE
100
AcDbEntity
  8
1
  6
Continuous
100
AcDbLine
 10
26.518364
 20
194.687534
 30
0.0
 11
14.818364
 21
193.537534
 31
0.0
  0
LINE
  5
A5E4
330
A3AE
100
AcDbEntity
  8
1
  6
Continuous
100
AcDbLine
 10
26.29338
 20
193.4665029999999
 30
0.0
 11
14.59337999999998
 21
192.316503
 31
0.0
  0
LINE
  5
A5E5
330
A3AE
100
AcDbEntity
  8
1
  6
Continuous
100
AcDbLine
 10
26.518364
 20
191.177534
 30
0.0
 11
14.818364
 21
190.027534
 31
0.0
  0
LINE
  5
A5E6
330
A3AE
100
AcDbEntity
  8
1
  6
Continuous
100
AcDbLine
 10
26.29338
 20
189.9565029999999
 30
0.0
 11
14.59337999999998
 21
188.8065029999999
 31
0.0
  0
LINE
  5
A5E7
330
A3AE
100
AcDbEntity
  8
1
  6
Continuous
100
AcDbLine
 10
26.618364
 20
187.667534
 30
0.0
 11
14.918364
 21
186.517534
 31
0.0
  0
LINE
  5
A5E8
330
A3AE
100
AcDbEntity
  8
1
  6
Continuous
100
AcDbLine
 10
26.29338
 20
186.446503
 30
0.0
 11
14.59337999999998
 21
185.296503
 31
0.0
  0
LINE
  5
A5E9
330
A3AE
100
AcDbEntity
  8
1
  6
Continuous
100
AcDbLine
 10
26.518364
 20
184.157534
 30
0.0
 11
14.818364
 21
183.007534
 31
0.0
  0
ARC
  5
A5EA
330
A3AE
100
AcDbEntity
  8
1
  6
Continuous
100
AcDbCircle
 10
14.70587199999999
 20
200.492018
 30
0.0
 40
1.149999999999999
100
AcDbArc
 50
180.0
 51
283.555623
  0
LINE
  5
A5EB
330
A3AE
100
AcDbEntity
  8
1
  6
Continuous
100
AcDbLine
 10
13.555872
 20
200.492018
 30
0.0
 11
18.055972
 21
200.492018
 31
0.0
  0
LINE
  5
A5EC
330
A3AE
100
AcDbEntity
  8
1
  6
Continuous
100
AcDbLine
 10
20.555972
 20
200.492018
 30
0.0
 11
26.405872
 21
200.492018
 31
0.0
  0
ARC
  5
A5ED
330
A3AE
100
AcDbEntity
  8
1
  6
Continuous
100
AcDbCircle
 10
26.405872
 20
199.342018
 30
0.0
 40
1.149999999999999
100
AcDbArc
 50
275.613605
 51
95.61360500000002
  0
LINE
  5
A5EE
330
A3AE
100
AcDbEntity
  8
1
  6
Continuous
100
AcDbLine
 10
26.29338
 20
200.4865029999999
 30
0.0
 11
14.59337999999998
 21
199.3365029999999
 31
0.0
  0
LINE
  5
A5EF
330
A3AE
100
AcDbEntity
  8
1
  6
Continuous
100
AcDbLine
 10
59.056072
 20
315.982833
 30
0.0
 11
56.556072
 21
315.982833
 31
0.0
  0
ARC
  5
A5F0
330
A3AE
100
AcDbEntity
  8
1
  6
Continuous
100
AcDbCircle
 10
56.55597199999998
 20
312.082833
 30
0.0
 40
7.0
100
AcDbArc
 50
188.213211
 51
249.0760439999998
  0
ARC
  5
A5F1
330
A3AE
100
AcDbEntity
  8
1
  6
Continuous
100
AcDbCircle
 10
56.55597199999998
 20
312.082833
 30
0.0
 40
4.7
100
AcDbArc
 50
192.284494
 51
237.8665119999999
  0
LINE
  5
A5F2
330
A3AE
100
AcDbEntity
  8
1
  6
Continuous
100
AcDbLine
 10
59.056072
 20
318.621143
 30
0.0
 11
59.056072
 21
319.0828329999998
 31
0.0
  0
ARC
  5
A5F3
330
A3AE
100
AcDbEntity
  8
1
  6
Continuous
100
AcDbCircle
 10
56.55597199999998
 20
312.082833
 30
0.0
 40
7.0
100
AcDbArc
 50
110.923956
 51
145.1500949999999
  0
ARC
  5
A5F4
330
A3AE
100
AcDbEntity
  8
1
  6
Continuous
100
AcDbCircle
 10
56.55597199999998
 20
312.082833
 30
0.0
 40
4.7
100
AcDbArc
 50
270.0012189999999
 51
89.99878100000001
  0
ARC
  5
A5F5
330
A3AE
100
AcDbEntity
  8
1
  6
Continuous
100
AcDbCircle
 10
56.55597199999998
 20
312.082833
 30
0.0
 40
7.0
100
AcDbArc
 50
270.0008189999999
 51
89.99918099999998
  0
ARC
  5
A5F6
330
A3AE
100
AcDbEntity
  8
1
  6
Continuous
100
AcDbCircle
 10
20.555972
 20
312.082833
 30
0.0
 40
7.0
100
AcDbArc
 50
290.9239559999999
 51
351.786789
  0
ARC
  5
A5F7
330
A3AE
100
AcDbEntity
  8
1
  6
Continuous
100
AcDbCircle
 10
20.555972
 20
312.082833
 30
0.0
 40
7.0
100
AcDbArc
 50
34.849905
 51
69.076044
  0
ARC
  5
A5F8
330
A3AE
100
AcDbEntity
  8
1
  6
Continuous
100
AcDbCircle
 10
20.555972
 20
52.72431799999999
 30
0.0
 40
7.0
100
AcDbArc
 50
110.925709
 51
249.0742909999999
  0
ARC
  5
A5F9
330
A3AE
100
AcDbEntity
  8
1
  6
Continuous
100
AcDbCircle
 10
20.555972
 20
52.72431799999999
 30
0.0
 40
7.0
100
AcDbArc
 50
269.999181
 51
301.002719
  0
ARC
  5
A5FA
330
A3AE
100
AcDbEntity
  8
1
  6
Continuous
100
AcDbCircle
 10
20.555972
 20
52.72431799999999
 30
0.0
 40
4.7
100
AcDbArc
 50
122.136368
 51
237.863632
  0
ARC
  5
A5FB
330
A3AE
100
AcDbEntity
  8
1
  6
Continuous
100
AcDbCircle
 10
20.555972
 20
52.72431799999999
 30
0.0
 40
7.0
100
AcDbArc
 50
73.399305
 51
90.00081899999996
  0
ARC
  5
A5FC
330
A3AE
100
AcDbEntity
  8
1
  6
Continuous
100
AcDbCircle
 10
20.555972
 20
52.72431799999999
 30
0.0
 40
4.7
100
AcDbArc
 50
64.81701099999999
 51
90.00081899999996
  0
ARC
  5
A5FD
330
A3AE
100
AcDbEntity
  8
1
  6
Continuous
100
AcDbCircle
 10
20.555972
 20
52.72431799999999
 30
0.0
 40
4.7
100
AcDbArc
 50
269.999181
 51
303.5847759999999
  0
LINE
  5
A5FE
330
A3AE
100
AcDbEntity
  8
4
  6
CENTER
100
AcDbLine
 10
21.555872
 20
58.224318
 30
0.0
 11
24.155872
 21
58.224318
 31
0.0
  0
LINE
  5
A5FF
330
A3AE
100
AcDbEntity
  8
1
  6
Continuous
100
AcDbLine
 10
20.555872
 20
50.724318
 30
0.0
 11
19.455872
 21
50.724318
 31
0.0
  0
LINE
  5
A600
330
A3AE
100
AcDbEntity
  8
1
  6
Continuous
100
AcDbLine
 10
20.555872
 20
54.72431799999998
 30
0.0
 11
19.455872
 21
54.72431799999998
 31
0.0
  0
LINE
  5
A601
330
A3AE
100
AcDbEntity
  8
1
  6
Continuous
100
AcDbLine
 10
19.455872
 20
54.72431799999998
 30
0.0
 11
19.455872
 21
50.724318
 31
0.0
  0
LINE
  5
A602
330
A3AE
100
AcDbEntity
  8
1
  6
Continuous
100
AcDbLine
 10
20.555872
 20
59.72431799999998
 30
0.0
 11
18.055872
 21
59.72431799999998
 31
0.0
  0
LINE
  5
A603
330
A3AE
100
AcDbEntity
  8
1
  6
Continuous
100
AcDbLine
 10
20.555872
 20
45.72431799999999
 30
0.0
 11
18.055872
 21
45.72431799999999
 31
0.0
  0
LINE
  5
A604
330
A3AE
100
AcDbEntity
  8
1
  6
Continuous
100
AcDbLine
 10
22.555872
 20
56.624318
 30
0.0
 11
20.555872
 21
56.624318
 31
0.0
  0
LINE
  5
A605
330
A3AE
100
AcDbEntity
  8
1
  6
Continuous
100
AcDbLine
 10
23.055872
 20
45.72431799999999
 30
0.0
 11
20.65587199999999
 21
45.72431799999999
 31
0.0
  0
LINE
  5
A606
330
A3AE
100
AcDbEntity
  8
1
  6
Continuous
100
AcDbLine
 10
23.055872
 20
48.82431799999999
 30
0.0
 11
20.555872
 21
48.82431799999999
 31
0.0
  0
LINE
  5
A607
330
A3AE
100
AcDbEntity
  8
1
  6
Continuous
100
AcDbLine
 10
18.055872
 20
59.72431799999998
 30
0.0
 11
18.055872
 21
45.72431799999999
 31
0.0
  0
LINE
  5
A608
330
A3AE
100
AcDbEntity
  8
1
  6
Continuous
100
AcDbLine
 10
20.555872
 20
59.72431799999998
 30
0.0
 11
20.555872
 21
45.72431799999999
 31
0.0
  0
LINE
  5
A609
330
A3AE
100
AcDbEntity
  8
1
  6
Continuous
100
AcDbLine
 10
22.555872
 20
59.72431799999998
 30
0.0
 11
20.65587199999999
 21
59.72431799999998
 31
0.0
  0
LINE
  5
A60A
330
A3AE
100
AcDbEntity
  8
1
  6
Continuous
100
AcDbLine
 10
22.555872
 20
60.22431799999999
 30
0.0
 11
22.555872
 21
56.22431800000001
 31
0.0
  0
LINE
  5
A60B
330
A3AE
100
AcDbEntity
  8
1
  6
Continuous
100
AcDbLine
 10
22.555872
 20
56.22431800000001
 30
0.0
 11
23.15587199999999
 21
56.22431800000001
 31
0.0
  0
LINE
  5
A60C
330
A3AE
100
AcDbEntity
  8
1
  6
Continuous
100
AcDbLine
 10
22.555872
 20
60.22431799999999
 30
0.0
 11
23.15587199999999
 21
60.22431799999999
 31
0.0
  0
LINE
  5
A60D
330
A3AE
100
AcDbEntity
  8
1
  6
Continuous
100
AcDbLine
 10
23.15587199999999
 20
62.22431799999998
 30
0.0
 11
23.15587199999999
 21
46.724318
 31
0.0
  0
LINE
  5
A60E
330
A3AE
100
AcDbEntity
  8
1
  6
Continuous
100
AcDbLine
 10
54.056072
 20
179.805931
 30
0.0
 11
54.056072
 21
158.492018
 31
0.0
  0
LINE
  5
A60F
330
A3AE
100
AcDbEntity
  8
1
  6
Continuous
100
AcDbLine
 10
23.055972
 20
180.3170419999999
 30
0.0
 11
23.055972
 21
158.492018
 31
0.0
  0
LINE
  5
A610
330
A3AE
100
AcDbEntity
  8
1
  6
Continuous
100
AcDbLine
 10
388.148172
 20
214.992018
 30
0.0
 11
357.148072
 21
214.992018
 31
0.0
  0
LINE
  5
A611
330
A3AE
100
AcDbEntity
  8
1
  6
Continuous
100
AcDbLine
 10
388.148172
 20
219.992018
 30
0.0
 11
357.148072
 21
219.992018
 31
0.0
  0
LINE
  5
A612
330
A3AE
100
AcDbEntity
  8
4
  6
CENTER
100
AcDbLine
 10
393.6481720000001
 20
217.492018
 30
0.0
 11
351.648072
 21
217.492018
 31
0.0
  0
LINE
  5
A613
330
A3AE
100
AcDbEntity
  8
1
  6
Continuous
100
AcDbLine
 10
354.648072
 20
210.992018
 30
0.0
 11
354.648072
 21
221.492018
 31
0.0
  0
LINE
  5
A614
330
A3AE
100
AcDbEntity
  8
1
  6
Continuous
100
AcDbLine
 10
357.148072
 20
209.4920179999999
 30
0.0
 11
357.148072
 21
221.492018
 31
0.0
  0
LINE
  5
A615
330
A3AE
100
AcDbEntity
  8
1
  6
Continuous
100
AcDbLine
 10
354.648072
 20
208.492018
 30
0.0
 11
356.148072
 21
208.492018
 31
0.0
  0
LINE
  5
A616
330
A3AE
100
AcDbEntity
  8
1
  6
Continuous
100
AcDbLine
 10
354.648072
 20
210.992018
 30
0.0
 11
353.148072
 21
210.992018
 31
0.0
  0
LINE
  5
A617
330
A3AE
100
AcDbEntity
  8
1
  6
Continuous
100
AcDbLine
 10
353.648072
 20
219.492018
 30
0.0
 11
353.648072
 21
215.492018
 31
0.0
  0
LINE
  5
A618
330
A3AE
100
AcDbEntity
  8
1
  6
Continuous
100
AcDbLine
 10
354.648072
 20
219.492018
 30
0.0
 11
353.648072
 21
219.492018
 31
0.0
  0
LINE
  5
A619
330
A3AE
100
AcDbEntity
  8
1
  6
Continuous
100
AcDbLine
 10
354.648072
 20
215.492018
 30
0.0
 11
353.648072
 21
215.492018
 31
0.0
  0
ARC
  5
A61A
330
A3AE
100
AcDbEntity
  8
1
  6
Continuous
100
AcDbCircle
 10
356.148072
 20
209.4920179999999
 30
0.0
 40
1.0
100
AcDbArc
 50
270.0
 51
0.0
  0
ARC
  5
A61B
330
A3AE
100
AcDbEntity
  8
1
  6
Continuous
100
AcDbCircle
 10
353.148072
 20
209.992018
 30
0.0
 40
1.0
100
AcDbArc
 50
90.0
 51
180.0
  0
LINE
  5
A61C
330
A3AE
100
AcDbEntity
  8
1
  6
Continuous
100
AcDbLine
 10
357.148072
 20
221.492018
 30
0.0
 11
354.648072
 21
221.492018
 31
0.0
  0
LINE
  5
A61D
330
A3AE
100
AcDbEntity
  8
1
  6
Continuous
100
AcDbLine
 10
390.648172
 20
210.992018
 30
0.0
 11
390.648172
 21
221.492018
 31
0.0
  0
LINE
  5
A61E
330
A3AE
100
AcDbEntity
  8
1
  6
Continuous
100
AcDbLine
 10
388.148172
 20
209.4920179999999
 30
0.0
 11
388.148172
 21
221.492018
 31
0.0
  0
ARC
  5
A61F
330
A3AE
100
AcDbEntity
  8
1
  6
Continuous
100
AcDbCircle
 10
392.148172
 20
209.992018
 30
0.0
 40
1.0
100
AcDbArc
 50
0.0
 51
90.0
  0
LINE
  5
A620
330
A3AE
100
AcDbEntity
  8
1
  6
Continuous
100
AcDbLine
 10
390.648172
 20
208.492018
 30
0.0
 11
389.1481719999999
 21
208.492018
 31
0.0
  0
LINE
  5
A621
330
A3AE
100
AcDbEntity
  8
1
  6
Continuous
100
AcDbLine
 10
390.648172
 20
210.992018
 30
0.0
 11
392.148172
 21
210.992018
 31
0.0
  0
LINE
  5
A622
330
A3AE
100
AcDbEntity
  8
1
  6
Continuous
100
AcDbLine
 10
391.6481720000001
 20
215.492018
 30
0.0
 11
390.648172
 21
215.492018
 31
0.0
  0
LINE
  5
A623
330
A3AE
100
AcDbEntity
  8
1
  6
Continuous
100
AcDbLine
 10
391.6481720000001
 20
219.492018
 30
0.0
 11
390.648172
 21
219.492018
 31
0.0
  0
LINE
  5
A624
330
A3AE
100
AcDbEntity
  8
1
  6
Continuous
100
AcDbLine
 10
391.6481720000001
 20
219.492018
 30
0.0
 11
391.6481720000001
 21
215.492018
 31
0.0
  0
ARC
  5
A625
330
A3AE
100
AcDbEntity
  8
1
  6
Continuous
100
AcDbCircle
 10
389.1481719999999
 20
209.4920179999999
 30
0.0
 40
1.0
100
AcDbArc
 50
180.0
 51
270.0
  0
LINE
  5
A626
330
A3AE
100
AcDbEntity
  8
1
  6
Continuous
100
AcDbLine
 10
390.648172
 20
221.492018
 30
0.0
 11
388.148172
 21
221.492018
 31
0.0
  0
LINE
  5
A627
330
A3AE
100
AcDbEntity
  8
1
  6
Continuous
100
AcDbLine
 10
360.6104639999998
 20
198.1975339999999
 30
0.0
 11
348.9104639999998
 21
197.047534
 31
0.0
  0
ARC
  5
A628
330
A3AE
100
AcDbEntity
  8
1
  6
Continuous
100
AcDbCircle
 10
348.797972
 20
198.1920179999999
 30
0.0
 40
1.149999999999999
100
AcDbArc
 50
95.61360500000002
 51
275.613605
  0
ARC
  5
A629
330
A3AE
100
AcDbEntity
  8
1
  6
Continuous
100
AcDbCircle
 10
360.497972
 20
195.832018
 30
0.0
 40
1.149999999999999
100
AcDbArc
 50
275.613605
 51
95.61360500000002
  0
LINE
  5
A62A
330
A3AE
100
AcDbEntity
  8
1
  6
Continuous
100
AcDbLine
 10
357.148072
 20
197.680886
 30
0.0
 11
360.725358
 21
196.9593139999999
 31
0.0
  0
LINE
  5
A62B
330
A3AE
100
AcDbEntity
  8
1
  6
Continuous
100
AcDbLine
 10
354.648072
 20
196.4125699999999
 30
0.0
 11
354.648072
 21
197.611487
 31
0.0
  0
LINE
  5
A62C
330
A3AE
100
AcDbEntity
  8
1
  6
Continuous
100
AcDbLine
 10
352.148072
 20
197.3657599999999
 30
0.0
 11
352.148072
 21
196.166844
 31
0.0
  0
LINE
  5
A62D
330
A3AE
100
AcDbEntity
  8
1
  6
Continuous
100
AcDbLine
 10
357.148072
 20
197.857213
 30
0.0
 11
357.148072
 21
196.658297
 31
0.0
  0
LINE
  5
A62E
330
A3AE
100
AcDbEntity
  8
1
  6
Continuous
100
AcDbLine
 10
348.5705859999998
 20
197.0647229999999
 30
0.0
 11
352.148072
 21
196.34311
 31
0.0
  0
LINE
  5
A62F
330
A3AE
100
AcDbEntity
  8
1
  6
Continuous
100
AcDbLine
 10
360.3854799999999
 20
196.9765029999998
 30
0.0
 11
348.6854799999999
 21
195.8265029999998
 31
0.0
  0
ARC
  5
A630
330
A3AE
100
AcDbEntity
  8
1
  6
Continuous
100
AcDbCircle
 10
360.497972
 20
199.342018
 30
0.0
 40
1.149999999999999
100
AcDbArc
 50
275.613605
 51
95.61360500000002
  0
LINE
  5
A631
330
A3AE
100
AcDbEntity
  8
1
  6
Continuous
100
AcDbLine
 10
354.648072
 20
199.92257
 30
0.0
 11
354.648072
 21
208.492018
 31
0.0
  0
LINE
  5
A632
330
A3AE
100
AcDbEntity
  8
1
  6
Continuous
100
AcDbLine
 10
352.148072
 20
199.6768439999999
 30
0.0
 11
352.148072
 21
209.992018
 31
0.0
  0
LINE
  5
A633
330
A3AE
100
AcDbEntity
  8
1
  6
Continuous
100
AcDbLine
 10
354.648072
 20
200.492018
 30
0.0
 11
360.497972
 21
200.492018
 31
0.0
  0
LINE
  5
A634
330
A3AE
100
AcDbEntity
  8
1
  6
Continuous
100
AcDbLine
 10
354.648072
 20
204.492018
 30
0.0
 11
357.148072
 21
204.492018
 31
0.0
  0
LINE
  5
A635
330
A3AE
100
AcDbEntity
  8
1
  6
Continuous
100
AcDbLine
 10
357.148072
 20
204.492018
 30
0.0
 11
357.148072
 21
200.168297
 31
0.0
  0
ARC
  5
A636
330
A3AE
100
AcDbEntity
  8
1
  6
Continuous
100
AcDbCircle
 10
348.797972
 20
200.492018
 30
0.0
 40
1.149999999999999
100
AcDbArc
 50
180.0
 51
283.555623
  0
LINE
  5
A637
330
A3AE
100
AcDbEntity
  8
1
  6
Continuous
100
AcDbLine
 10
347.6479719999999
 20
200.492018
 30
0.0
 11
352.148072
 21
200.492018
 31
0.0
  0
LINE
  5
A638
330
A3AE
100
AcDbEntity
  8
1
  6
Continuous
100
AcDbLine
 10
360.3854799999999
 20
200.4865029999999
 30
0.0
 11
348.6854799999999
 21
199.3365029999999
 31
0.0
  0
ARC
  5
A639
330
A3AE
100
AcDbEntity
  8
1
  6
Continuous
100
AcDbCircle
 10
360.497972
 20
179.492018
 30
0.0
 40
1.149999999999999
100
AcDbArc
 50
0.0
 51
103.555623
  0
ARC
  5
A63A
330
A3AE
100
AcDbEntity
  8
1
  6
Continuous
100
AcDbCircle
 10
360.497972
 20
192.3220179999999
 30
0.0
 40
1.149999999999999
100
AcDbArc
 50
275.613605
 51
95.61360500000002
  0
ARC
  5
A63B
330
A3AE
100
AcDbEntity
  8
1
  6
Continuous
100
AcDbCircle
 10
360.497972
 20
188.8120179999999
 30
0.0
 40
1.149999999999999
100
AcDbArc
 50
275.613605
 51
95.61360500000002
  0
ARC
  5
A63C
330
A3AE
100
AcDbEntity
  8
1
  6
Continuous
100
AcDbCircle
 10
360.497972
 20
185.302018
 30
0.0
 40
1.149999999999999
100
AcDbArc
 50
275.613605
 51
95.61360500000002
  0
ARC
  5
A63D
330
A3AE
100
AcDbEntity
  8
1
  6
Continuous
100
AcDbCircle
 10
360.497972
 20
181.7920179999999
 30
0.0
 40
1.149999999999999
100
AcDbArc
 50
275.613605
 51
95.61360500000002
  0
LINE
  5
A63E
330
A3AE
100
AcDbEntity
  8
1
  6
Continuous
100
AcDbLine
 10
357.148072
 20
194.170886
 30
0.0
 11
360.725358
 21
193.4493139999999
 31
0.0
  0
LINE
  5
A63F
330
A3AE
100
AcDbEntity
  8
1
  6
Continuous
100
AcDbLine
 10
357.0480719999998
 20
190.681057
 30
0.0
 11
360.725358
 21
189.9393139999999
 31
0.0
  0
LINE
  5
A640
330
A3AE
100
AcDbEntity
  8
1
  6
Continuous
100
AcDbLine
 10
357.148072
 20
187.150886
 30
0.0
 11
360.725358
 21
186.4293139999998
 31
0.0
  0
LINE
  5
A641
330
A3AE
100
AcDbEntity
  8
1
  6
Continuous
100
AcDbLine
 10
357.148072
 20
183.6408859999999
 30
0.0
 11
360.725358
 21
182.9193139999999
 31
0.0
  0
LINE
  5
A642
330
A3AE
100
AcDbEntity
  8
1
  6
Continuous
100
AcDbLine
 10
357.148072
 20
179.492018
 30
0.0
 11
361.647972
 21
179.492018
 31
0.0
  0
LINE
  5
A643
330
A3AE
100
AcDbEntity
  8
1
  6
Continuous
100
AcDbLine
 10
360.710464
 20
187.667534
 30
0.0
 11
349.010464
 21
186.517534
 31
0.0
  0
LINE
  5
A644
330
A3AE
100
AcDbEntity
  8
1
  6
Continuous
100
AcDbLine
 10
352.148072
 20
193.85576
 30
0.0
 11
352.148072
 21
192.656844
 31
0.0
  0
LINE
  5
A645
330
A3AE
100
AcDbEntity
  8
1
  6
Continuous
100
AcDbLine
 10
354.648072
 20
192.90257
 30
0.0
 11
354.648072
 21
194.101487
 31
0.0
  0
LINE
  5
A646
330
A3AE
100
AcDbEntity
  8
1
  6
Continuous
100
AcDbLine
 10
352.148072
 20
190.34576
 30
0.0
 11
352.148072
 21
189.1468439999999
 31
0.0
  0
LINE
  5
A647
330
A3AE
100
AcDbEntity
  8
1
  6
Continuous
100
AcDbLine
 10
354.648072
 20
189.39257
 30
0.0
 11
354.648072
 21
190.591487
 31
0.0
  0
LINE
  5
A648
330
A3AE
100
AcDbEntity
  8
1
  6
Continuous
100
AcDbLine
 10
352.148072
 20
186.825931
 30
0.0
 11
352.148072
 21
185.6368439999999
 31
0.0
  0
LINE
  5
A649
330
A3AE
100
AcDbEntity
  8
1
  6
Continuous
100
AcDbLine
 10
354.648072
 20
185.8825699999999
 30
0.0
 11
354.648072
 21
187.0716569999999
 31
0.0
  0
LINE
  5
A64A
330
A3AE
100
AcDbEntity
  8
1
  6
Continuous
100
AcDbLine
 10
352.148072
 20
183.3257599999998
 30
0.0
 11
352.148072
 21
182.126844
 31
0.0
  0
LINE
  5
A64B
330
A3AE
100
AcDbEntity
  8
1
  6
Continuous
100
AcDbLine
 10
354.648072
 20
182.3725699999999
 30
0.0
 11
354.648072
 21
183.5714869999999
 31
0.0
  0
LINE
  5
A64C
330
A3AE
100
AcDbEntity
  8
1
  6
Continuous
100
AcDbLine
 10
357.148072
 20
194.3472129999999
 30
0.0
 11
357.148072
 21
193.1482969999999
 31
0.0
  0
LINE
  5
A64D
330
A3AE
100
AcDbEntity
  8
1
  6
Continuous
100
AcDbLine
 10
357.148072
 20
183.8172129999999
 30
0.0
 11
357.148072
 21
182.6182969999999
 31
0.0
  0
LINE
  5
A64E
330
A3AE
100
AcDbEntity
  8
1
  6
Continuous
100
AcDbLine
 10
357.148072
 20
187.3173839999998
 30
0.0
 11
357.148072
 21
186.1282969999998
 31
0.0
  0
LINE
  5
A64F
330
A3AE
100
AcDbEntity
  8
1
  6
Continuous
100
AcDbLine
 10
357.0480719999998
 20
190.8273839999999
 30
0.0
 11
357.0480719999998
 21
189.628467
 31
0.0
  0
ARC
  5
A650
330
A3AE
100
AcDbEntity
  8
1
  6
Continuous
100
AcDbCircle
 10
348.797972
 20
194.6820179999999
 30
0.0
 40
1.149999999999999
100
AcDbArc
 50
95.61360500000002
 51
275.613605
  0
ARC
  5
A651
330
A3AE
100
AcDbEntity
  8
1
  6
Continuous
100
AcDbCircle
 10
348.797972
 20
191.1720179999998
 30
0.0
 40
1.149999999999999
100
AcDbArc
 50
95.61360500000002
 51
275.613605
  0
ARC
  5
A652
330
A3AE
100
AcDbEntity
  8
1
  6
Continuous
100
AcDbCircle
 10
348.797972
 20
187.6620179999999
 30
0.0
 40
1.149999999999999
100
AcDbArc
 50
95.61360500000002
 51
275.613605
  0
ARC
  5
A653
330
A3AE
100
AcDbEntity
  8
1
  6
Continuous
100
AcDbCircle
 10
348.797972
 20
184.152018
 30
0.0
 40
1.149999999999999
100
AcDbArc
 50
95.61360500000002
 51
275.613605
  0
ARC
  5
A654
330
A3AE
100
AcDbEntity
  8
1
  6
Continuous
100
AcDbCircle
 10
348.797972
 20
180.642018
 30
0.0
 40
1.149999999999999
100
AcDbArc
 50
95.61360500000002
 51
275.613605
  0
LINE
  5
A655
330
A3AE
100
AcDbEntity
  8
1
  6
Continuous
100
AcDbLine
 10
348.5705859999998
 20
183.0247229999999
 30
0.0
 11
352.148072
 21
182.30311
 31
0.0
  0
LINE
  5
A656
330
A3AE
100
AcDbEntity
  8
1
  6
Continuous
100
AcDbLine
 10
348.5705859999998
 20
186.5347229999999
 30
0.0
 11
352.148072
 21
185.8131099999999
 31
0.0
  0
LINE
  5
A657
330
A3AE
100
AcDbEntity
  8
1
  6
Continuous
100
AcDbLine
 10
348.5705859999998
 20
190.044723
 30
0.0
 11
352.148072
 21
189.32311
 31
0.0
  0
LINE
  5
A658
330
A3AE
100
AcDbEntity
  8
1
  6
Continuous
100
AcDbLine
 10
348.5705859999998
 20
193.554723
 30
0.0
 11
352.148072
 21
192.83311
 31
0.0
  0
LINE
  5
A659
330
A3AE
100
AcDbEntity
  8
1
  6
Continuous
100
AcDbLine
 10
348.797972
 20
179.492018
 30
0.0
 11
350.747972
 21
179.492018
 31
0.0
  0
LINE
  5
A65A
330
A3AE
100
AcDbEntity
  8
1
  6
Continuous
100
AcDbLine
 10
360.3854799999999
 20
182.9365029999999
 30
0.0
 11
348.6854799999999
 21
181.786503
 31
0.0
  0
LINE
  5
A65B
330
A3AE
100
AcDbEntity
  8
1
  6
Continuous
100
AcDbLine
 10
360.6104639999998
 20
180.647534
 30
0.0
 11
348.9104639999998
 21
179.497534
 31
0.0
  0
LINE
  5
A65C
330
A3AE
100
AcDbEntity
  8
1
  6
Continuous
100
AcDbLine
 10
360.6104639999998
 20
194.687534
 30
0.0
 11
348.9104639999998
 21
193.537534
 31
0.0
  0
LINE
  5
A65D
330
A3AE
100
AcDbEntity
  8
1
  6
Continuous
100
AcDbLine
 10
360.3854799999999
 20
193.4665029999999
 30
0.0
 11
348.6854799999999
 21
192.316503
 31
0.0
  0
LINE
  5
A65E
330
A3AE
100
AcDbEntity
  8
1
  6
Continuous
100
AcDbLine
 10
360.6104639999998
 20
191.177534
 30
0.0
 11
348.9104639999998
 21
190.027534
 31
0.0
  0
LINE
  5
A65F
330
A3AE
100
AcDbEntity
  8
1
  6
Continuous
100
AcDbLine
 10
360.3854799999999
 20
189.9565029999999
 30
0.0
 11
348.6854799999999
 21
188.8065029999999
 31
0.0
  0
LINE
  5
A660
330
A3AE
100
AcDbEntity
  8
1
  6
Continuous
100
AcDbLine
 10
360.3854799999999
 20
186.446503
 30
0.0
 11
348.6854799999999
 21
185.296503
 31
0.0
  0
LINE
  5
A661
330
A3AE
100
AcDbEntity
  8
1
  6
Continuous
100
AcDbLine
 10
360.6104639999998
 20
184.157534
 30
0.0
 11
348.9104639999998
 21
183.007534
 31
0.0
  0
LINE
  5
A662
330
A3AE
100
AcDbEntity
  8
1
  6
Continuous
100
AcDbLine
 10
349.1483899999999
 20
179.492018
 30
0.0
 11
354.648072
 21
179.492018
 31
0.0
  0
LINE
  5
A663
330
A3AE
100
AcDbEntity
  8
1
  6
Continuous
100
AcDbLine
 10
360.747972
 20
184.161843
 30
0.0
 11
360.747972
 21
184.157534
 31
0.0
  0
LINE
  5
A664
330
A3AE
100
AcDbEntity
  8
1
  6
Continuous
100
AcDbLine
 10
352.148072
 20
175.492018
 30
0.0
 11
352.148072
 21
179.81576
 31
0.0
  0
LINE
  5
A665
330
A3AE
100
AcDbEntity
  8
1
  6
Continuous
100
AcDbLine
 10
357.148072
 20
180.3170419999999
 30
0.0
 11
357.148072
 21
158.492018
 31
0.0
  0
LINE
  5
A666
330
A3AE
100
AcDbEntity
  8
1
  6
Continuous
100
AcDbLine
 10
354.648072
 20
180.0713159999999
 30
0.0
 11
354.648072
 21
158.492018
 31
0.0
  0
LINE
  5
A667
330
A3AE
100
AcDbEntity
  8
1
  6
Continuous
100
AcDbLine
 10
354.648072
 20
175.492018
 30
0.0
 11
352.148072
 21
175.492018
 31
0.0
  0
LINE
  5
A668
330
A3AE
100
AcDbEntity
  8
1
  6
Continuous
100
AcDbLine
 10
356.2480719999999
 20
158.492018
 30
0.0
 11
356.2480719999999
 21
154.492018
 31
0.0
  0
LINE
  5
A669
330
A3AE
100
AcDbEntity
  8
1
  6
Continuous
100
AcDbLine
 10
357.2480719999999
 20
154.492018
 30
0.0
 11
356.2480719999999
 21
154.492018
 31
0.0
  0
LINE
  5
A66A
330
A3AE
100
AcDbEntity
  8
1
  6
Continuous
100
AcDbLine
 10
353.648072
 20
164.4920179999998
 30
0.0
 11
353.648072
 21
160.492018
 31
0.0
  0
LINE
  5
A66B
330
A3AE
100
AcDbEntity
  8
1
  6
Continuous
100
AcDbLine
 10
354.648072
 20
158.492018
 30
0.0
 11
357.2480719999999
 21
158.492018
 31
0.0
  0
LINE
  5
A66C
330
A3AE
100
AcDbEntity
  8
1
  6
Continuous
100
AcDbLine
 10
353.648072
 20
164.4920179999998
 30
0.0
 11
354.648072
 21
164.4920179999998
 31
0.0
  0
LINE
  5
A66D
330
A3AE
100
AcDbEntity
  8
1
  6
Continuous
100
AcDbLine
 10
353.648072
 20
160.492018
 30
0.0
 11
354.648072
 21
160.492018
 31
0.0
  0
LINE
  5
A66E
330
A3AE
100
AcDbEntity
  8
1
  6
Continuous
100
AcDbLine
 10
357.2480719999999
 20
167.1624949999998
 30
0.0
 11
357.2480719999999
 21
135.492018
 31
0.0
  0
LINE
  5
A66F
330
A3AE
100
AcDbEntity
  8
1
  6
Continuous
100
AcDbLine
 10
393.1481719999999
 20
175.492018
 30
0.0
 11
393.1481719999999
 21
180.3072129999999
 31
0.0
  0
LINE
  5
A670
330
A3AE
100
AcDbEntity
  8
1
  6
Continuous
100
AcDbLine
 10
390.648172
 20
175.492018
 30
0.0
 11
393.1481719999999
 21
175.492018
 31
0.0
  0
ARC
  5
A671
330
A3AE
100
AcDbEntity
  8
1
  6
Continuous
100
AcDbCircle
 10
386.048172
 20
167.1624949999998
 30
0.0
 40
2.0
100
AcDbArc
 50
0.0
 51
68.899804
  0
LINE
  5
A672
330
A3AE
100
AcDbEntity
  8
1
  6
Continuous
100
AcDbLine
 10
396.610564
 20
198.1975339999999
 30
0.0
 11
384.910564
 21
197.047534
 31
0.0
  0
ARC
  5
A673
330
A3AE
100
AcDbEntity
  8
1
  6
Continuous
100
AcDbCircle
 10
384.7980719999998
 20
198.1920179999999
 30
0.0
 40
1.149999999999999
100
AcDbArc
 50
95.61360500000002
 51
275.613605
  0
LINE
  5
A674
330
A3AE
100
AcDbEntity
  8
1
  6
Continuous
100
AcDbLine
 10
396.38558
 20
182.9365029999999
 30
0.0
 11
384.6855799999998
 21
181.786503
 31
0.0
  0
LINE
  5
A675
330
A3AE
100
AcDbEntity
  8
1
  6
Continuous
100
AcDbLine
 10
396.610564
 20
180.647534
 30
0.0
 11
384.910564
 21
179.497534
 31
0.0
  0
LINE
  5
A676
330
A3AE
100
AcDbEntity
  8
1
  6
Continuous
100
AcDbLine
 10
396.38558
 20
196.9765029999998
 30
0.0
 11
384.6855799999998
 21
195.8265029999998
 31
0.0
  0
LINE
  5
A677
330
A3AE
100
AcDbEntity
  8
1
  6
Continuous
100
AcDbLine
 10
396.610564
 20
194.687534
 30
0.0
 11
384.910564
 21
193.537534
 31
0.0
  0
LINE
  5
A678
330
A3AE
100
AcDbEntity
  8
1
  6
Continuous
100
AcDbLine
 10
396.38558
 20
193.4665029999999
 30
0.0
 11
384.6855799999998
 21
192.316503
 31
0.0
  0
LINE
  5
A679
330
A3AE
100
AcDbEntity
  8
1
  6
Continuous
100
AcDbLine
 10
396.610564
 20
191.177534
 30
0.0
 11
384.910564
 21
190.027534
 31
0.0
  0
LINE
  5
A67A
330
A3AE
100
AcDbEntity
  8
1
  6
Continuous
100
AcDbLine
 10
396.38558
 20
189.9565029999999
 30
0.0
 11
384.6855799999998
 21
188.8065029999999
 31
0.0
  0
LINE
  5
A67B
330
A3AE
100
AcDbEntity
  8
1
  6
Continuous
100
AcDbLine
 10
396.610564
 20
187.667534
 30
0.0
 11
384.910564
 21
186.517534
 31
0.0
  0
LINE
  5
A67C
330
A3AE
100
AcDbEntity
  8
1
  6
Continuous
100
AcDbLine
 10
396.38558
 20
186.446503
 30
0.0
 11
384.6855799999998
 21
185.296503
 31
0.0
  0
LINE
  5
A67D
330
A3AE
100
AcDbEntity
  8
1
  6
Continuous
100
AcDbLine
 10
396.610564
 20
184.157534
 30
0.0
 11
384.910564
 21
183.007534
 31
0.0
  0
LINE
  5
A67E
330
A3AE
100
AcDbEntity
  8
1
  6
Continuous
100
AcDbLine
 10
390.648172
 20
179.492018
 30
0.0
 11
397.6480719999998
 21
179.492018
 31
0.0
  0
ARC
  5
A67F
330
A3AE
100
AcDbEntity
  8
1
  6
Continuous
100
AcDbCircle
 10
384.7980719999998
 20
194.6820179999999
 30
0.0
 40
1.149999999999999
100
AcDbArc
 50
95.61360500000002
 51
275.613605
  0
ARC
  5
A680
330
A3AE
100
AcDbEntity
  8
1
  6
Continuous
100
AcDbCircle
 10
384.7980719999998
 20
191.1720179999998
 30
0.0
 40
1.149999999999999
100
AcDbArc
 50
95.61360500000002
 51
275.613605
  0
ARC
  5
A681
330
A3AE
100
AcDbEntity
  8
1
  6
Continuous
100
AcDbCircle
 10
384.7980719999998
 20
187.6620179999999
 30
0.0
 40
1.149999999999999
100
AcDbArc
 50
95.61360500000002
 51
275.613605
  0
ARC
  5
A682
330
A3AE
100
AcDbEntity
  8
1
  6
Continuous
100
AcDbCircle
 10
384.7980719999998
 20
184.152018
 30
0.0
 40
1.149999999999999
100
AcDbArc
 50
95.61360500000002
 51
275.613605
  0
ARC
  5
A683
330
A3AE
100
AcDbEntity
  8
1
  6
Continuous
100
AcDbCircle
 10
384.7980719999998
 20
180.642018
 30
0.0
 40
1.149999999999999
100
AcDbArc
 50
95.61360500000002
 51
275.613605
  0
LINE
  5
A684
330
A3AE
100
AcDbEntity
  8
1
  6
Continuous
100
AcDbLine
 10
384.7980719999998
 20
179.492018
 30
0.0
 11
386.7480720000001
 21
179.492018
 31
0.0
  0
LINE
  5
A685
330
A3AE
100
AcDbEntity
  8
1
  6
Continuous
100
AcDbLine
 10
390.648172
 20
197.611487
 30
0.0
 11
390.648172
 21
196.4125699999999
 31
0.0
  0
LINE
  5
A686
330
A3AE
100
AcDbEntity
  8
1
  6
Continuous
100
AcDbLine
 10
390.648172
 20
194.101487
 30
0.0
 11
390.648172
 21
192.90257
 31
0.0
  0
LINE
  5
A687
330
A3AE
100
AcDbEntity
  8
1
  6
Continuous
100
AcDbLine
 10
390.648172
 20
190.591487
 30
0.0
 11
390.648172
 21
189.39257
 31
0.0
  0
LINE
  5
A688
330
A3AE
100
AcDbEntity
  8
1
  6
Continuous
100
AcDbLine
 10
390.648172
 20
187.081487
 30
0.0
 11
390.648172
 21
185.8825699999999
 31
0.0
  0
LINE
  5
A689
330
A3AE
100
AcDbEntity
  8
1
  6
Continuous
100
AcDbLine
 10
390.648172
 20
183.5714869999999
 30
0.0
 11
390.648172
 21
182.3725699999999
 31
0.0
  0
LINE
  5
A68A
330
A3AE
100
AcDbEntity
  8
1
  6
Continuous
100
AcDbLine
 10
384.5706859999999
 20
197.0647229999999
 30
0.0
 11
388.148172
 21
196.34311
 31
0.0
  0
LINE
  5
A68B
330
A3AE
100
AcDbEntity
  8
1
  6
Continuous
100
AcDbLine
 10
388.148172
 20
197.3657599999999
 30
0.0
 11
388.148172
 21
196.166844
 31
0.0
  0
LINE
  5
A68C
330
A3AE
100
AcDbEntity
  8
1
  6
Continuous
100
AcDbLine
 10
384.5706859999999
 20
193.554723
 30
0.0
 11
388.148172
 21
192.83311
 31
0.0
  0
LINE
  5
A68D
330
A3AE
100
AcDbEntity
  8
1
  6
Continuous
100
AcDbLine
 10
384.5706859999999
 20
190.044723
 30
0.0
 11
388.148172
 21
189.32311
 31
0.0
  0
LINE
  5
A68E
330
A3AE
100
AcDbEntity
  8
1
  6
Continuous
100
AcDbLine
 10
388.148172
 20
193.85576
 30
0.0
 11
388.148172
 21
192.656844
 31
0.0
  0
LINE
  5
A68F
330
A3AE
100
AcDbEntity
  8
1
  6
Continuous
100
AcDbLine
 10
388.148172
 20
190.34576
 30
0.0
 11
388.148172
 21
189.1468439999999
 31
0.0
  0
LINE
  5
A690
330
A3AE
100
AcDbEntity
  8
1
  6
Continuous
100
AcDbLine
 10
384.5706859999999
 20
186.5347229999999
 30
0.0
 11
388.148172
 21
185.8131099999999
 31
0.0
  0
LINE
  5
A691
330
A3AE
100
AcDbEntity
  8
1
  6
Continuous
100
AcDbLine
 10
384.5706859999999
 20
183.0247229999999
 30
0.0
 11
388.148172
 21
182.30311
 31
0.0
  0
LINE
  5
A692
330
A3AE
100
AcDbEntity
  8
1
  6
Continuous
100
AcDbLine
 10
388.148172
 20
186.8357599999999
 30
0.0
 11
388.148172
 21
185.6368439999999
 31
0.0
  0
LINE
  5
A693
330
A3AE
100
AcDbEntity
  8
1
  6
Continuous
100
AcDbLine
 10
388.148172
 20
183.3257599999998
 30
0.0
 11
388.148172
 21
182.126844
 31
0.0
  0
LINE
  5
A694
330
A3AE
100
AcDbEntity
  8
1
  6
Continuous
100
AcDbLine
 10
385.1484899999999
 20
179.492018
 30
0.0
 11
388.148172
 21
179.492018
 31
0.0
  0
ARC
  5
A695
330
A3AE
100
AcDbEntity
  8
1
  6
Continuous
100
AcDbCircle
 10
396.4980719999999
 20
179.492018
 30
0.0
 40
1.149999999999999
100
AcDbArc
 50
0.0
 51
103.555623
  0
LINE
  5
A696
330
A3AE
100
AcDbEntity
  8
1
  6
Continuous
100
AcDbLine
 10
393.1481719999999
 20
197.680886
 30
0.0
 11
396.725458
 21
196.9593139999999
 31
0.0
  0
LINE
  5
A697
330
A3AE
100
AcDbEntity
  8
1
  6
Continuous
100
AcDbLine
 10
393.1481719999999
 20
183.6408859999999
 30
0.0
 11
396.725458
 21
182.9193139999999
 31
0.0
  0
LINE
  5
A698
330
A3AE
100
AcDbEntity
  8
1
  6
Continuous
100
AcDbLine
 10
393.1481719999999
 20
187.150886
 30
0.0
 11
396.725458
 21
186.4293139999998
 31
0.0
  0
LINE
  5
A699
330
A3AE
100
AcDbEntity
  8
1
  6
Continuous
100
AcDbLine
 10
393.1481719999999
 20
190.660886
 30
0.0
 11
396.725458
 21
189.9393139999999
 31
0.0
  0
LINE
  5
A69A
330
A3AE
100
AcDbEntity
  8
1
  6
Continuous
100
AcDbLine
 10
393.1481719999999
 20
194.170886
 30
0.0
 11
396.725458
 21
193.4493139999999
 31
0.0
  0
ARC
  5
A69B
330
A3AE
100
AcDbEntity
  8
1
  6
Continuous
100
AcDbCircle
 10
396.4980719999999
 20
195.832018
 30
0.0
 40
1.149999999999999
100
AcDbArc
 50
275.613605
 51
95.61360500000002
  0
ARC
  5
A69C
330
A3AE
100
AcDbEntity
  8
1
  6
Continuous
100
AcDbCircle
 10
396.4980719999999
 20
192.3220179999999
 30
0.0
 40
1.149999999999999
100
AcDbArc
 50
275.613605
 51
95.61360500000002
  0
ARC
  5
A69D
330
A3AE
100
AcDbEntity
  8
1
  6
Continuous
100
AcDbCircle
 10
396.4980719999999
 20
188.8120179999999
 30
0.0
 40
1.149999999999999
100
AcDbArc
 50
275.613605
 51
95.61360500000002
  0
ARC
  5
A69E
330
A3AE
100
AcDbEntity
  8
1
  6
Continuous
100
AcDbCircle
 10
396.4980719999999
 20
185.302018
 30
0.0
 40
1.149999999999999
100
AcDbArc
 50
275.613605
 51
95.61360500000002
  0
ARC
  5
A69F
330
A3AE
100
AcDbEntity
  8
1
  6
Continuous
100
AcDbCircle
 10
396.4980719999999
 20
181.7920179999999
 30
0.0
 40
1.149999999999999
100
AcDbArc
 50
275.613605
 51
95.61360500000002
  0
LINE
  5
A6A0
330
A3AE
100
AcDbEntity
  8
1
  6
Continuous
100
AcDbLine
 10
396.648072
 20
184.161843
 30
0.0
 11
396.648072
 21
184.157534
 31
0.0
  0
LINE
  5
A6A1
330
A3AE
100
AcDbEntity
  8
1
  6
Continuous
100
AcDbLine
 10
393.1481719999999
 20
197.857213
 30
0.0
 11
393.1481719999999
 21
196.658297
 31
0.0
  0
LINE
  5
A6A2
330
A3AE
100
AcDbEntity
  8
1
  6
Continuous
100
AcDbLine
 10
393.1481719999999
 20
194.3472129999999
 30
0.0
 11
393.1481719999999
 21
193.1482969999999
 31
0.0
  0
LINE
  5
A6A3
330
A3AE
100
AcDbEntity
  8
1
  6
Continuous
100
AcDbLine
 10
393.1481719999999
 20
190.837213
 30
0.0
 11
393.1481719999999
 21
189.6382969999999
 31
0.0
  0
LINE
  5
A6A4
330
A3AE
100
AcDbEntity
  8
1
  6
Continuous
100
AcDbLine
 10
393.1481719999999
 20
187.327213
 30
0.0
 11
393.1481719999999
 21
186.1282969999998
 31
0.0
  0
LINE
  5
A6A5
330
A3AE
100
AcDbEntity
  8
1
  6
Continuous
100
AcDbLine
 10
393.1481719999999
 20
183.8172129999999
 30
0.0
 11
393.1481719999999
 21
182.6182969999999
 31
0.0
  0
LINE
  5
A6A6
330
A3AE
100
AcDbEntity
  8
1
  6
Continuous
100
AcDbLine
 10
396.38558
 20
200.4865029999999
 30
0.0
 11
384.6855799999998
 21
199.3365029999999
 31
0.0
  0
LINE
  5
A6A7
330
A3AE
100
AcDbEntity
  8
1
  6
Continuous
100
AcDbLine
 10
383.648072
 20
200.492018
 30
0.0
 11
390.648172
 21
200.492018
 31
0.0
  0
LINE
  5
A6A8
330
A3AE
100
AcDbEntity
  8
1
  6
Continuous
100
AcDbLine
 10
390.648172
 20
199.92257
 30
0.0
 11
390.648172
 21
208.492018
 31
0.0
  0
ARC
  5
A6A9
330
A3AE
100
AcDbEntity
  8
1
  6
Continuous
100
AcDbCircle
 10
384.7980719999998
 20
200.492018
 30
0.0
 40
1.149999999999999
100
AcDbArc
 50
180.0
 51
283.555623
  0
LINE
  5
A6AA
330
A3AE
100
AcDbEntity
  8
1
  6
Continuous
100
AcDbLine
 10
388.148172
 20
204.492018
 30
0.0
 11
390.648172
 21
204.492018
 31
0.0
  0
LINE
  5
A6AB
330
A3AE
100
AcDbEntity
  8
1
  6
Continuous
100
AcDbLine
 10
388.148172
 20
204.492018
 30
0.0
 11
388.148172
 21
199.6670139999999
 31
0.0
  0
LINE
  5
A6AC
330
A3AE
100
AcDbEntity
  8
1
  6
Continuous
100
AcDbLine
 10
393.1481719999999
 20
200.168297
 30
0.0
 11
393.1481719999999
 21
209.992018
 31
0.0
  0
ARC
  5
A6AD
330
A3AE
100
AcDbEntity
  8
1
  6
Continuous
100
AcDbCircle
 10
396.4980719999999
 20
199.342018
 30
0.0
 40
1.149999999999999
100
AcDbArc
 50
275.613605
 51
95.61360500000002
  0
LINE
  5
A6AE
330
A3AE
100
AcDbEntity
  8
1
  6
Continuous
100
AcDbLine
 10
393.1481719999999
 20
200.492018
 30
0.0
 11
396.4980719999999
 21
200.492018
 31
0.0
  0
LINE
  5
A6AF
330
A3AE
100
AcDbEntity
  8
1
  6
Continuous
100
AcDbLine
 10
390.648172
 20
180.051657
 30
0.0
 11
390.648172
 21
158.492018
 31
0.0
  0
LINE
  5
A6B0
330
A3AE
100
AcDbEntity
  8
1
  6
Continuous
100
AcDbLine
 10
388.148172
 20
179.805931
 30
0.0
 11
388.148172
 21
158.492018
 31
0.0
  0
LINE
  5
A6B1
330
A3AE
100
AcDbEntity
  8
1
  6
Continuous
100
AcDbLine
 10
389.048172
 20
154.492018
 30
0.0
 11
388.048172
 21
154.492018
 31
0.0
  0
LINE
  5
A6B2
330
A3AE
100
AcDbEntity
  8
1
  6
Continuous
100
AcDbLine
 10
389.048172
 20
158.492018
 30
0.0
 11
389.048172
 21
154.492018
 31
0.0
  0
LINE
  5
A6B3
330
A3AE
100
AcDbEntity
  8
1
  6
Continuous
100
AcDbLine
 10
391.6481720000001
 20
164.4920179999998
 30
0.0
 11
391.6481720000001
 21
160.492018
 31
0.0
  0
LINE
  5
A6B4
330
A3AE
100
AcDbEntity
  8
1
  6
Continuous
100
AcDbLine
 10
390.648172
 20
164.4920179999998
 30
0.0
 11
391.6481720000001
 21
164.4920179999998
 31
0.0
  0
LINE
  5
A6B5
330
A3AE
100
AcDbEntity
  8
1
  6
Continuous
100
AcDbLine
 10
390.648172
 20
160.492018
 30
0.0
 11
391.6481720000001
 21
160.492018
 31
0.0
  0
LINE
  5
A6B6
330
A3AE
100
AcDbEntity
  8
1
  6
Continuous
100
AcDbLine
 10
390.648172
 20
158.492018
 30
0.0
 11
388.048172
 21
158.492018
 31
0.0
  0
LINE
  5
A6B7
330
A3AE
100
AcDbEntity
  8
1
  6
Continuous
100
AcDbLine
 10
388.048172
 20
167.1624949999998
 30
0.0
 11
388.048172
 21
135.492018
 31
0.0
  0
LINE
  5
A6B8
330
A3AE
100
AcDbEntity
  8
1
  6
Continuous
100
AcDbLine
 10
53.956072
 20
308.167412
 30
0.0
 11
53.956072
 21
311.0828329999999
 31
0.0
  0
ARC
  5
A6B9
330
A3AE
100
AcDbEntity
  8
1
  6
Continuous
100
AcDbCircle
 10
20.555972
 20
312.082833
 30
0.0
 40
4.7
100
AcDbArc
 50
302.1334879999999
 51
347.715506
  0
ARC
  5
A6BA
330
A3AE
100
AcDbEntity
  8
1
  6
Continuous
100
AcDbCircle
 10
20.555972
 20
312.082833
 30
0.0
 40
7.0
100
AcDbArc
 50
90.00081899999996
 51
269.999181
  0
LINE
  5
A6BB
330
A3AE
100
AcDbEntity
  8
1
  6
Continuous
100
AcDbLine
 10
20.555872
 20
305.0828329999998
 30
0.0
 11
20.555872
 21
319.0828329999998
 31
0.0
  0
LINE
  5
A6BC
330
A3AE
100
AcDbEntity
  8
1
  6
Continuous
100
AcDbLine
 10
23.055872
 20
305.0828329999998
 30
0.0
 11
23.055872
 21
319.0828329999998
 31
0.0
  0
ARC
  5
A6BD
330
A3AE
100
AcDbEntity
  8
1
  6
Continuous
100
AcDbCircle
 10
20.555972
 20
312.082833
 30
0.0
 40
4.7
100
AcDbArc
 50
90.00121899999998
 51
269.998781
  0
LINE
  5
A6BE
330
A3AE
100
AcDbEntity
  8
1
  6
Continuous
100
AcDbLine
 10
23.15587199999999
 20
302.5828329999999
 30
0.0
 11
23.15587199999999
 21
305.5835619999998
 31
0.0
  0
LINE
  5
A6BF
330
A3AE
100
AcDbEntity
  8
1
  6
Continuous
100
AcDbLine
 10
23.055872
 20
305.0828329999998
 30
0.0
 11
20.555872
 21
305.0828329999998
 31
0.0
  0
LINE
  5
A6C0
330
A3AE
100
AcDbEntity
  8
1
  6
Continuous
100
AcDbLine
 10
20.555872
 20
305.0828329999998
 30
0.0
 11
18.055872
 21
305.0828329999998
 31
0.0
  0
LINE
  5
A6C1
330
A3AE
100
AcDbEntity
  8
1
  6
Continuous
100
AcDbLine
 10
18.055872
 20
305.0828329999998
 30
0.0
 11
18.055872
 21
305.5445230000001
 31
0.0
  0
LINE
  5
A6C2
330
A3AE
100
AcDbEntity
  8
1
  6
Continuous
100
AcDbLine
 10
23.15587199999999
 20
304.5828329999999
 30
0.0
 11
22.15587199999999
 21
304.5828329999999
 31
0.0
  0
LINE
  5
A6C3
330
A3AE
100
AcDbEntity
  8
1
  6
Continuous
100
AcDbLine
 10
22.15587199999999
 20
304.5828329999999
 30
0.0
 11
22.15587199999999
 21
305.0828329999998
 31
0.0
  0
LINE
  5
A6C4
330
A3AE
100
AcDbEntity
  8
1
  6
Continuous
100
AcDbLine
 10
23.15587199999999
 20
308.167412
 30
0.0
 11
23.15587199999999
 21
311.0828329999999
 31
0.0
  0
LINE
  5
A6C5
330
A3AE
100
AcDbEntity
  8
1
  6
Continuous
100
AcDbLine
 10
23.055872
 20
317.482833
 30
0.0
 11
20.555872
 21
317.482833
 31
0.0
  0
LINE
  5
A6C6
330
A3AE
100
AcDbEntity
  8
1
  6
Continuous
100
AcDbLine
 10
23.055872
 20
319.0828329999998
 30
0.0
 11
20.555872
 21
319.0828329999998
 31
0.0
  0
LINE
  5
A6C7
330
A3AE
100
AcDbEntity
  8
1
  6
Continuous
100
AcDbLine
 10
18.055872
 20
318.621143
 30
0.0
 11
18.055872
 21
319.0828329999998
 31
0.0
  0
LINE
  5
A6C8
330
A3AE
100
AcDbEntity
  8
1
  6
Continuous
100
AcDbLine
 10
18.055872
 20
315.982833
 30
0.0
 11
20.555872
 21
315.982833
 31
0.0
  0
LINE
  5
A6C9
330
A3AE
100
AcDbEntity
  8
1
  6
Continuous
100
AcDbLine
 10
20.555872
 20
319.0828329999998
 30
0.0
 11
18.055872
 21
319.0828329999998
 31
0.0
  0
LINE
  5
A6CA
330
A3AE
100
AcDbEntity
  8
1
  6
Continuous
100
AcDbLine
 10
25.155872
 20
318.082833
 30
0.0
 11
24.161523
 21
318.082833
 31
0.0
  0
LINE
  5
A6CB
330
A3AE
100
AcDbEntity
  8
1
  6
Continuous
100
AcDbLine
 10
18.055872
 20
308.1029459999998
 30
0.0
 11
18.055872
 21
316.06272
 31
0.0
  0
LINE
  5
A6CC
330
A3AE
100
AcDbEntity
  8
1
  6
Continuous
100
AcDbLine
 10
25.155872
 20
317.359283
 30
0.0
 11
25.155872
 21
318.082833
 31
0.0
  0
LINE
  5
A6CD
330
A3AE
100
AcDbEntity
  8
1
  6
Continuous
100
AcDbLine
 10
25.305872
 20
317.224666
 30
0.0
 11
25.305872
 21
318.082833
 31
0.0
  0
LINE
  5
A6CE
330
A3AE
100
AcDbEntity
  8
1
  6
Continuous
100
AcDbLine
 10
20.555872
 20
315.5828329999998
 30
0.0
 11
19.555872
 21
315.5828329999998
 31
0.0
  0
LINE
  5
A6CF
330
A3AE
100
AcDbEntity
  8
1
  6
Continuous
100
AcDbLine
 10
20.555872
 20
311.5828329999998
 30
0.0
 11
19.555872
 21
311.5828329999998
 31
0.0
  0
LINE
  5
A6D0
330
A3AE
100
AcDbEntity
  8
1
  6
Continuous
100
AcDbLine
 10
19.555872
 20
311.5828329999998
 30
0.0
 11
19.555872
 21
315.5828329999998
 31
0.0
  0
LINE
  5
A6D1
330
A3AE
100
AcDbEntity
  8
1
  6
Continuous
100
AcDbLine
 10
23.055872
 20
308.182833
 30
0.0
 11
18.055872
 21
308.182833
 31
0.0
  0
LINE
  5
A6D2
330
A3AE
100
AcDbEntity
  8
1
  6
Continuous
100
AcDbLine
 10
23.055872
 20
56.22431800000001
 30
0.0
 11
23.055872
 21
48.744306
 31
0.0
  0
LINE
  5
A6D3
330
A3AE
100
AcDbEntity
  8
1
  6
Continuous
100
AcDbLine
 10
23.055872
 20
46.185932
 30
0.0
 11
23.055872
 21
45.72431799999999
 31
0.0
  0
ARC
  5
A6D4
330
A3AE
100
AcDbEntity
  8
1
  6
Continuous
100
AcDbCircle
 10
56.55597199999998
 20
52.72431799999999
 30
0.0
 40
4.7
100
AcDbArc
 50
302.136368
 51
57.863632
  0
ARC
  5
A6D5
330
A3AE
100
AcDbEntity
  8
1
  6
Continuous
100
AcDbCircle
 10
56.55597199999998
 20
52.72431799999999
 30
0.0
 40
7.0
100
AcDbArc
 50
290.925709
 51
69.074291
  0
LINE
  5
A6D6
330
A3AE
100
AcDbEntity
  8
1
  6
Continuous
100
AcDbLine
 10
54.056072
 20
48.82431799999999
 30
0.0
 11
56.556072
 21
48.82431799999999
 31
0.0
  0
LINE
  5
A6D7
330
A3AE
100
AcDbEntity
  8
1
  6
Continuous
100
AcDbLine
 10
54.056072
 20
46.185932
 30
0.0
 11
54.056072
 21
45.72431799999999
 31
0.0
  0
LINE
  5
A6D8
330
A3AE
100
AcDbEntity
  8
1
  6
Continuous
100
AcDbLine
 10
54.056072
 20
56.22431800000001
 30
0.0
 11
54.056072
 21
48.744306
 31
0.0
  0
ARC
  5
A6D9
330
A3AE
100
AcDbEntity
  8
1
  6
Continuous
100
AcDbCircle
 10
56.55597199999998
 20
52.72431799999999
 30
0.0
 40
7.0
100
AcDbArc
 50
238.997281
 51
270.0008189999999
  0
LINE
  5
A6DA
330
A3AE
100
AcDbEntity
  8
1
  6
Continuous
100
AcDbLine
 10
54.056072
 20
45.72431799999999
 30
0.0
 11
56.456072
 21
45.72431799999999
 31
0.0
  0
LINE
  5
A6DB
330
A3AE
100
AcDbEntity
  8
1
  6
Continuous
100
AcDbLine
 10
56.556072
 20
50.724318
 30
0.0
 11
57.65607199999998
 21
50.724318
 31
0.0
  0
LINE
  5
A6DC
330
A3AE
100
AcDbEntity
  8
1
  6
Continuous
100
AcDbLine
 10
56.556072
 20
54.72431799999998
 30
0.0
 11
57.65607199999998
 21
54.72431799999998
 31
0.0
  0
LINE
  5
A6DD
330
A3AE
100
AcDbEntity
  8
1
  6
Continuous
100
AcDbLine
 10
57.65607199999998
 20
54.72431799999998
 30
0.0
 11
57.65607199999998
 21
50.724318
 31
0.0
  0
LINE
  5
A6DE
330
A3AE
100
AcDbEntity
  8
1
  6
Continuous
100
AcDbLine
 10
56.556072
 20
59.72431799999998
 30
0.0
 11
56.556072
 21
45.72431799999999
 31
0.0
  0
LINE
  5
A6DF
330
A3AE
100
AcDbEntity
  8
1
  6
Continuous
100
AcDbLine
 10
54.556072
 20
60.22431799999999
 30
0.0
 11
53.956072
 21
60.22431799999999
 31
0.0
  0
LINE
  5
A6E0
330
A3AE
100
AcDbEntity
  8
1
  6
Continuous
100
AcDbLine
 10
54.556072
 20
56.22431800000001
 30
0.0
 11
53.956072
 21
56.22431800000001
 31
0.0
  0
LINE
  5
A6E1
330
A3AE
100
AcDbEntity
  8
1
  6
Continuous
100
AcDbLine
 10
54.556072
 20
60.22431799999999
 30
0.0
 11
54.556072
 21
56.22431800000001
 31
0.0
  0
LINE
  5
A6E2
330
A3AE
100
AcDbEntity
  8
1
  6
Continuous
100
AcDbLine
 10
54.556072
 20
59.72431799999998
 30
0.0
 11
56.456072
 21
59.72431799999998
 31
0.0
  0
LINE
  5
A6E3
330
A3AE
100
AcDbEntity
  8
1
  6
Continuous
100
AcDbLine
 10
59.056072
 20
59.72431799999998
 30
0.0
 11
59.056072
 21
45.72431799999999
 31
0.0
  0
LINE
  5
A6E4
330
A3AE
100
AcDbEntity
  8
1
  6
Continuous
100
AcDbLine
 10
54.556072
 20
56.624318
 30
0.0
 11
56.556072
 21
56.624318
 31
0.0
  0
LINE
  5
A6E5
330
A3AE
100
AcDbEntity
  8
1
  6
Continuous
100
AcDbLine
 10
56.556072
 20
45.72431799999999
 30
0.0
 11
59.056072
 21
45.72431799999999
 31
0.0
  0
LINE
  5
A6E6
330
A3AE
100
AcDbEntity
  8
1
  6
Continuous
100
AcDbLine
 10
56.556072
 20
59.72431799999998
 30
0.0
 11
59.056072
 21
59.72431799999998
 31
0.0
  0
LINE
  5
A6E7
330
A3AE
100
AcDbEntity
  8
4
  6
CENTER
100
AcDbLine
 10
55.556072
 20
58.224318
 30
0.0
 11
52.956072
 21
58.224318
 31
0.0
  0
ARC
  5
A6E8
330
A3AE
100
AcDbEntity
  8
1
  6
Continuous
100
AcDbCircle
 10
56.55597199999998
 20
52.72431799999999
 30
0.0
 40
4.7
100
AcDbArc
 50
236.4152240000001
 51
270.0008189999999
  0
ARC
  5
A6E9
330
A3AE
100
AcDbEntity
  8
1
  6
Continuous
100
AcDbCircle
 10
56.55597199999998
 20
52.72431799999999
 30
0.0
 40
4.7
100
AcDbArc
 50
89.99918099999998
 51
115.1829889999999
  0
ARC
  5
A6EA
330
A3AE
100
AcDbEntity
  8
1
  6
Continuous
100
AcDbCircle
 10
56.55597199999998
 20
52.72431799999999
 30
0.0
 40
7.0
100
AcDbArc
 50
89.99918099999998
 51
106.600695
  0
LINE
  5
A6EB
330
A3AE
100
AcDbEntity
  8
1
  6
Continuous
100
AcDbLine
 10
53.956072
 20
62.22431799999998
 30
0.0
 11
53.956072
 21
46.724318
 31
0.0
  0
LINE
  5
A6EC
330
A3AE
100
AcDbEntity
  8
4
  6
CENTER
100
AcDbLine
 10
134.5560719999998
 20
323.5828329999999
 30
0.0
 11
134.5560719999998
 21
314.582833
 31
0.0
  0
LINE
  5
A6ED
330
A3AE
100
AcDbEntity
  8
4
  6
CENTER
100
AcDbLine
 10
102.556072
 20
323.5828329999999
 30
0.0
 11
102.556072
 21
314.582833
 31
0.0
  0
ENDSEC
  0
SECTION
  2
OBJECTS
  0
DICTIONARY
  5
A39C
330
0
100
AcDbDictionary
281
     1
  3
ACAD_CIP_PREVIOUS_PRODUCT_INFO
350
A751
  3
ACAD_COLOR
350
A733
  3
ACAD_DETAILVIEWSTYLE
350
A74C
  3
ACAD_GROUP
350
A39D
  3
ACAD_LAYOUT
350
A3A9
  3
ACAD_MATERIAL
350
A701
  3
ACAD_MLEADERSTYLE
350
A748
  3
ACAD_MLINESTYLE
350
A3A6
  3
ACAD_PLOTSETTINGS
350
A3A8
  3
ACAD_PLOTSTYLENAME
350
A6FF
  3
ACAD_SCALELIST
350
A736
  3
ACAD_SECTIONVIEWSTYLE
350
A74A
  3
ACAD_TABLESTYLE
350
A734
  3
ACAD_VISUALSTYLE
350
A71A
  3
ACDB_RECOMPOSE_DATA
350
A76F
  3
AcDbVariableDictionary
350
A762
  3
DWGPROPS
350
A770
  0
DICTIONARY
  5
A752
330
A3A0
100
AcDbDictionary
280
     1
281
     1
  3
ADSK_XREC_LAYER_RECONCILED
360
A753
  0
DICTIONARY
  5
A754
330
A3B6
100
AcDbDictionary
280
     1
281
     1
  3
ADSK_XREC_LAYER_RECONCILED
360
A755
  0
DICTIONARY
  5
A756
330
A3B7
100
AcDbDictionary
280
     1
281
     1
  3
ADSK_XREC_LAYER_RECONCILED
360
A757
  0
DICTIONARY
  5
A758
330
A3B8
100
AcDbDictionary
280
     1
281
     1
  3
ADSK_XREC_LAYER_RECONCILED
360
A759
  0
DICTIONARY
  5
A75A
330
A3B9
100
AcDbDictionary
280
     1
281
     1
  3
ADSK_XREC_LAYER_RECONCILED
360
A75B
  0
DICTIONARY
  5
A75C
330
A3BA
100
AcDbDictionary
280
     1
281
     1
  3
ADSK_XREC_LAYER_RECONCILED
360
A75D
  0
DICTIONARY
  5
A75E
330
A3BB
100
AcDbDictionary
280
     1
281
     1
  3
ADSK_XREC_LAYER_RECONCILED
360
A75F
  0
DICTIONARY
  5
A760
330
A3BC
100
AcDbDictionary
280
     1
281
     1
  3
ADSK_XREC_LAYER_RECONCILED
360
A761
  0
DICTIONARY
  5
A6FA
330
A3AE
100
AcDbDictionary
281
     1
  3
ACAD_LAYOUTSELFREF
350
A6FB
  0
DICTIONARY
  5
A6F8
330
A3AA
100
AcDbDictionary
281
     1
  3
ACAD_LAYOUTSELFREF
350
A6F9
  0
XRECORD
  5
A751
102
{ACAD_REACTORS
330
A39C
102
}
330
A39C
100
AcDbXrecord
280
     1
300
ACDLT
300
2014
300
ACDLT_F_S
  0
DICTIONARY
  5
A733
102
{ACAD_REACTORS
330
A39C
102
}
330
A39C
100
AcDbDictionary
281
     1
  0
DICTIONARY
  5
A74C
102
{ACAD_REACTORS
330
A39C
102
}
330
A39C
100
AcDbDictionary
281
     1
  3
Imperial24
350
A74D
  0
DICTIONARY
  5
A39D
102
{ACAD_REACTORS
330
A39C
102
}
330
A39C
100
AcDbDictionary
281
     1
  0
DICTIONARY
  5
A3A9
102
{ACAD_REACTORS
330
A39C
102
}
330
A39C
100
AcDbDictionary
281
     1
  3
Model
350
A74E
  3
レイアウト1
350
A74F
  0
DICTIONARY
  5
A701
102
{ACAD_REACTORS
330
A39C
102
}
330
A39C
100
AcDbDictionary
281
     1
  3
ByBlock
350
A70A
  3
ByLayer
350
A702
  3
Global
350
A712
  0
DICTIONARY
  5
A748
102
{ACAD_REACTORS
330
A39C
102
}
330
A39C
100
AcDbDictionary
281
     1
  3
Standard
350
A749
  0
DICTIONARY
  5
A3A6
102
{ACAD_REACTORS
330
A39C
102
}
330
A39C
100
AcDbDictionary
281
     1
  3
STANDARD
350
A3A7
  0
DICTIONARY
  5
A3A8
102
{ACAD_REACTORS
330
A39C
102
}
330
A39C
100
AcDbDictionary
281
     1
  0
ACDBDICTIONARYWDFLT
  5
A6FF
102
{ACAD_REACTORS
330
A39C
102
}
330
A39C
100
AcDbDictionary
281
     1
  3
Normal
350
A700
100
AcDbDictionaryWithDefault
340
A700
  0
DICTIONARY
  5
A736
102
{ACAD_REACTORS
330
A39C
102
}
330
A39C
100
AcDbDictionary
281
     1
  3
A0
350
A737
  3
A1
350
A738
  3
A2
350
A739
  3
A3
350
A73A
  3
A4
350
A73B
  3
A5
350
A73C
  3
A6
350
A73D
  3
A7
350
A73E
  3
A8
350
A73F
  3
A9
350
A740
  3
B0
350
A741
  3
B1
350
A742
  3
B2
350
A743
  3
B3
350
A744
  3
B4
350
A745
  3
B5
350
A746
  3
B6
350
A747
  0
DICTIONARY
  5
A74A
102
{ACAD_REACTORS
330
A39C
102
}
330
A39C
100
AcDbDictionary
281
     1
  3
Imperial24
350
A74B
  0
DICTIONARY
  5
A734
102
{ACAD_REACTORS
330
A39C
102
}
330
A39C
100
AcDbDictionary
281
     1
  3
Standard
350
A735
  0
DICTIONARY
  5
A71A
102
{ACAD_REACTORS
330
A39C
102
}
330
A39C
100
AcDbDictionary
281
     1
  3
2dWireframe
350
A720
  3
Basic
350
A71F
  3
Brighten
350
A726
  3
ColorChange
350
A72A
  3
Conceptual
350
A723
  3
Dim
350
A725
  3
EdgeColorOff
350
A732
  3
Facepattern
350
A729
  3
Flat
350
A71B
  3
FlatWithEdges
350
A71C
  3
Gouraud
350
A71D
  3
GouraudWithEdges
350
A71E
  3
Hidden
350
A722
  3
JitterOff
350
A730
  3
Linepattern
350
A728
  3
OverhangOff
350
A731
  3
Realistic
350
A724
  3
Shaded
350
A72F
  3
Shaded with edges
350
A72E
  3
Shades of Gray
350
A72B
  3
Sketchy
350
A72C
  3
Thicken
350
A727
  3
Wireframe
350
A721
  3
X-Ray
350
A72D
  0
XRECORD
  5
A76F
102
{ACAD_REACTORS
330
A39C
102
}
330
A39C
100
AcDbXrecord
280
     1
 90
        1
330
A735
  0
DICTIONARY
  5
A762
102
{ACAD_REACTORS
330
A39C
102
}
330
A39C
100
AcDbDictionary
281
     1
  3
CANNOSCALE
350
A767
  3
CMLEADERSTYLE
350
A764
  3
CTABLESTYLE
350
A763
  3
CVIEWDETAILSTYLE
350
A765
  3
CVIEWSECTIONSTYLE
350
A766
  3
DIMASSOC
350
A76A
  3
INDEXCTL
350
A769
  3
SORTENTS
350
A768
  3
XCLIPFRAME
350
A76B
  0
XRECORD
  5
A770
102
{ACAD_REACTORS
330
A39C
102
}
330
A39C
100
AcDbXrecord
280
     1
  1
DWGPROPS COOKIE
  2

  3

  4

  6

  7

  8
Yoshitsune
  9

300
=
301
=
302
=
303
=
304
=
305
=
306
=
307
=
308
=
309
=
 40
0.0000150694444444
 41
2451066.796703704
 42
2457192.598621678
  1

 90
        0
  0
XRECORD
  5
A753
102
{ACAD_REACTORS
330
A752
102
}
330
A752
100
AcDbXrecord
280
     1
290
     1
  0
XRECORD
  5
A755
102
{ACAD_REACTORS
330
A754
102
}
330
A754
100
AcDbXrecord
280
     1
290
     1
  0
XRECORD
  5
A757
102
{ACAD_REACTORS
330
A756
102
}
330
A756
100
AcDbXrecord
280
     1
290
     1
  0
XRECORD
  5
A759
102
{ACAD_REACTORS
330
A758
102
}
330
A758
100
AcDbXrecord
280
     1
290
     1
  0
XRECORD
  5
A75B
102
{ACAD_REACTORS
330
A75A
102
}
330
A75A
100
AcDbXrecord
280
     1
290
     1
  0
XRECORD
  5
A75D
102
{ACAD_REACTORS
330
A75C
102
}
330
A75C
100
AcDbXrecord
280
     1
290
     1
  0
XRECORD
  5
A75F
102
{ACAD_REACTORS
330
A75E
102
}
330
A75E
100
AcDbXrecord
280
     1
290
     1
  0
XRECORD
  5
A761
102
{ACAD_REACTORS
330
A760
102
}
330
A760
100
AcDbXrecord
280
     1
290
     1
  0
XRECORD
  5
A6FB
102
{ACAD_REACTORS
330
A6FA
102
}
330
A6FA
100
AcDbXrecord
280
     1
340
A3AE
  0
XRECORD
  5
A6F9
102
{ACAD_REACTORS
330
A6F8
102
}
330
A6F8
100
AcDbXrecord
280
     1
340
A3AA
  0
ACDBDETAILVIEWSTYLE
  5
A74D
102
{ACAD_XDICTIONARY
360
A7A8
102
}
102
{ACAD_REACTORS
330
A74C
102
}
330
A74C
100
AcDbModelDocViewStyle
 70
     0
  3
Imperial24
290
     0
100
AcDbDetailViewStyle
 70
     0
 71
     0
 90
        3
 71
     1
340
A3A1
 40
0.24
340
0
 40
0.24
300

 40
0.36
280
     3
 71
     2
340
A3A5
 90
       25
 71
     3
340
A3A1
 40
0.24
 90
        1
 40
0.75
 90
        1
300
%<\AcVar ViewType \f "%tc1">% %<\AcVar ViewDetailId>%\PSCALE %<\AcVar ViewScale \f "%sn">%
 71
     4
340
A3A5
 90
       25
340
A3A5
 90
       25
280
     0
  0
LAYOUT
  5
A74E
102
{ACAD_XDICTIONARY
360
A7AA
102
}
102
{ACAD_REACTORS
330
A3A9
102
}
330
A3A9
100
AcDbPlotSettings
  1

  2
Canon LBP9100C
  4

  6

 40
0.0
 41
0.0
 42
0.0
 43
0.0
 44
0.0
 45
0.0
 46
0.0
 47
0.0
 48
0.0
 49
0.0
140
0.0
141
0.0
142
1.0
143
1.0
 70
  1712
 72
     0
 73
     0
 74
     0
  7

 75
     0
147
1.0
148
0.0
149
0.0
100
AcDbLayout
  1
Model
 70
     1
 71
     0
 10
0.0
 20
0.0
 11
12.0
 21
9.0
 12
0.0
 22
0.0
 32
0.0
 14
0.0
 24
0.0
 34
0.0
 15
0.0
 25
0.0
 35
0.0
146
0.0
 13
0.0
 23
0.0
 33
0.0
 16
1.0
 26
0.0
 36
0.0
 17
0.0
 27
1.0
 37
0.0
 76
     0
330
A3AE
331
A6F7
  0
LAYOUT
  5
A74F
102
{ACAD_XDICTIONARY
360
A7AC
102
}
102
{ACAD_REACTORS
330
A3A9
102
}
330
A3A9
100
AcDbPlotSettings
  1

  2
Canon LBP9100C
  4

  6

 40
0.0
 41
0.0
 42
0.0
 43
0.0
 44
0.0
 45
0.0
 46
0.0
 47
0.0
 48
0.0
 49
0.0
140
0.0
141
0.0
142
1.0
143
1.0
 70
   688
 72
     0
 73
     0
 74
     5
  7

 75
    16
147
1.0
148
0.0
149
0.0
100
AcDbLayout
  1
レイアウト1
 70
     0
 71
     1
 10
0.0
 20
0.0
 11
420.0
 21
297.0
 12
0.0
 22
0.0
 32
0.0
 14
1.000000000000000E+20
 24
1.000000000000000E+20
 34
1.000000000000000E+20
 15
-1.000000000000000E+20
 25
-1.000000000000000E+20
 35
-1.000000000000000E+20
146
0.0
 13
0.0
 23
0.0
 33
0.0
 16
1.0
 26
0.0
 36
0.0
 17
0.0
 27
1.0
 37
0.0
 76
     0
330
A3AA
  0
MATERIAL
  5
A70A
102
{ACAD_XDICTIONARY
360
A70B
102
}
102
{ACAD_REACTORS
330
A701
102
}
330
A701
100
AcDbMaterial
  1
ByBlock
 72
     0
 43
0.0208333333333333
 43
0.0
 43
0.0
 43
0.0
 43
0.0
 43
0.0208333333333333
 43
0.0
 43
0.0
 43
0.0
 43
0.0
 43
1.0
 43
0.0
 43
0.0
 43
0.0
 43
0.0
 43
1.0
 77
     0
 47
0.0208333333333333
 47
0.0
 47
0.0
 47
0.0
 47
0.0
 47
0.0208333333333333
 47
0.0
 47
0.0
 47
0.0
 47
0.0
 47
1.0
 47
0.0
 47
0.0
 47
0.0
 47
0.0
 47
1.0
171
     0
 49
0.0208333333333333
 49
0.0
 49
0.0
 49
0.0
 49
0.0
 49
0.0208333333333333
 49
0.0
 49
0.0
 49
0.0
 49
0.0
 49
1.0
 49
0.0
 49
0.0
 49
0.0
 49
0.0
 49
1.0
175
     0
142
0.0208333333333333
142
0.0
142
0.0
142
0.0
142
0.0
142
0.0208333333333333
142
0.0
142
0.0
142
0.0
142
0.0
142
1.0
142
0.0
142
0.0
142
0.0
142
0.0
142
1.0
179
     0
144
0.0208333333333333
144
0.0
144
0.0
144
0.0
144
0.0
144
0.0208333333333333
144
0.0
144
0.0
144
0.0
144
0.0
144
1.0
144
0.0
144
0.0
144
0.0
144
0.0
144
1.0
147
0.0208333333333333
147
0.0
147
0.0
147
0.0
147
0.0
147
0.0208333333333333
147
0.0
147
0.0
147
0.0
147
0.0
147
1.0
147
0.0
147
0.0
147
0.0
147
0.0
147
1.0
  0
MATERIAL
  5
A702
102
{ACAD_XDICTIONARY
360
A703
102
}
102
{ACAD_REACTORS
330
A701
102
}
330
A701
100
AcDbMaterial
  1
ByLayer
 72
     0
 43
0.0208333333333333
 43
0.0
 43
0.0
 43
0.0
 43
0.0
 43
0.0208333333333333
 43
0.0
 43
0.0
 43
0.0
 43
0.0
 43
1.0
 43
0.0
 43
0.0
 43
0.0
 43
0.0
 43
1.0
 77
     0
 47
0.0208333333333333
 47
0.0
 47
0.0
 47
0.0
 47
0.0
 47
0.0208333333333333
 47
0.0
 47
0.0
 47
0.0
 47
0.0
 47
1.0
 47
0.0
 47
0.0
 47
0.0
 47
0.0
 47
1.0
171
     0
 49
0.0208333333333333
 49
0.0
 49
0.0
 49
0.0
 49
0.0
 49
0.0208333333333333
 49
0.0
 49
0.0
 49
0.0
 49
0.0
 49
1.0
 49
0.0
 49
0.0
 49
0.0
 49
0.0
 49
1.0
175
     0
142
0.0208333333333333
142
0.0
142
0.0
142
0.0
142
0.0
142
0.0208333333333333
142
0.0
142
0.0
142
0.0
142
0.0
142
1.0
142
0.0
142
0.0
142
0.0
142
0.0
142
1.0
179
     0
144
0.0208333333333333
144
0.0
144
0.0
144
0.0
144
0.0
144
0.0208333333333333
144
0.0
144
0.0
144
0.0
144
0.0
144
1.0
144
0.0
144
0.0
144
0.0
144
0.0
144
1.0
147
0.0208333333333333
147
0.0
147
0.0
147
0.0
147
0.0
147
0.0208333333333333
147
0.0
147
0.0
147
0.0
147
0.0
147
1.0
147
0.0
147
0.0
147
0.0
147
0.0
147
1.0
  0
MATERIAL
  5
A712
102
{ACAD_XDICTIONARY
360
A713
102
}
102
{ACAD_REACTORS
330
A701
102
}
330
A701
100
AcDbMaterial
  1
Global
 72
     0
 43
0.0208333333333333
 43
0.0
 43
0.0
 43
0.0
 43
0.0
 43
0.0208333333333333
 43
0.0
 43
0.0
 43
0.0
 43
0.0
 43
1.0
 43
0.0
 43
0.0
 43
0.0
 43
0.0
 43
1.0
 77
     0
 47
0.0208333333333333
 47
0.0
 47
0.0
 47
0.0
 47
0.0
 47
0.0208333333333333
 47
0.0
 47
0.0
 47
0.0
 47
0.0
 47
1.0
 47
0.0
 47
0.0
 47
0.0
 47
0.0
 47
1.0
171
     0
 49
0.0208333333333333
 49
0.0
 49
0.0
 49
0.0
 49
0.0
 49
0.0208333333333333
 49
0.0
 49
0.0
 49
0.0
 49
0.0
 49
1.0
 49
0.0
 49
0.0
 49
0.0
 49
0.0
 49
1.0
175
     0
142
0.0208333333333333
142
0.0
142
0.0
142
0.0
142
0.0
142
0.0208333333333333
142
0.0
142
0.0
142
0.0
142
0.0
142
1.0
142
0.0
142
0.0
142
0.0
142
0.0
142
1.0
179
     0
144
0.0208333333333333
144
0.0
144
0.0
144
0.0
144
0.0
144
0.0208333333333333
144
0.0
144
0.0
144
0.0
144
0.0
144
1.0
144
0.0
144
0.0
144
0.0
144
0.0
144
1.0
147
0.0208333333333333
147
0.0
147
0.0
147
0.0
147
0.0
147
0.0208333333333333
147
0.0
147
0.0
147
0.0
147
0.0
147
1.0
147
0.0
147
0.0
147
0.0
147
0.0
147
1.0
  0
MLEADERSTYLE
  5
A749
102
{ACAD_REACTORS
330
A748
102
}
330
A748
100
AcDbMLeaderStyle
170
     2
171
     1
172
     0
 90
        2
 40
0.0
 41
0.0
173
     1
 91
-1056964608
340
A3A3
 92
       -2
290
     1
 42
0.09
291
     1
 43
0.36
  3
Standard
 44
0.18
300

342
A3A1
174
     1
178
     6
175
     1
176
     0
 93
-1056964608
 45
0.18
292
     0
297
     0
 46
0.18
 94
-1056964608
 47
1.0
 49
1.0
140
1.0
293
     1
141
0.0
294
     1
177
     0
142
1.0
295
     0
296
     0
143
0.125
1001
ACAD_MLEADERVER
1070
     2
  0
MLINESTYLE
  5
A3A7
102
{ACAD_REACTORS
330
A3A6
102
}
330
A3A6
100
AcDbMlineStyle
  2
STANDARD
 70
     0
  3

 62
   256
 51
90.0
 52
90.0
 71
     2
 49
0.5
 62
   256
  6
BYLAYER
 49
-0.5
 62
   256
  6
BYLAYER
  0
ACDBPLACEHOLDER
  5
A700
102
{ACAD_REACTORS
330
A6FF
102
}
330
A6FF
  0
SCALE
  5
A737
102
{ACAD_REACTORS
330
A736
102
}
330
A736
100
AcDbScale
 70
     0
300
1:1
140
1.0
141
1.0
290
     1
  0
SCALE
  5
A738
102
{ACAD_REACTORS
330
A736
102
}
330
A736
100
AcDbScale
 70
     0
300
1/128" = 1'-0"
140
0.0078125
141
12.0
290
     0
  0
SCALE
  5
A739
102
{ACAD_REACTORS
330
A736
102
}
330
A736
100
AcDbScale
 70
     0
300
1/64" = 1'-0"
140
0.015625
141
12.0
290
     0
  0
SCALE
  5
A73A
102
{ACAD_REACTORS
330
A736
102
}
330
A736
100
AcDbScale
 70
     0
300
1/32" = 1'-0"
140
0.03125
141
12.0
290
     0
  0
SCALE
  5
A73B
102
{ACAD_REACTORS
330
A736
102
}
330
A736
100
AcDbScale
 70
     0
300
1/16" = 1'-0"
140
0.0625
141
12.0
290
     0
  0
SCALE
  5
A73C
102
{ACAD_REACTORS
330
A736
102
}
330
A736
100
AcDbScale
 70
     0
300
3/32" = 1'-0"
140
0.09375
141
12.0
290
     0
  0
SCALE
  5
A73D
102
{ACAD_REACTORS
330
A736
102
}
330
A736
100
AcDbScale
 70
     0
300
1/8" = 1'-0"
140
0.125
141
12.0
290
     0
  0
SCALE
  5
A73E
102
{ACAD_REACTORS
330
A736
102
}
330
A736
100
AcDbScale
 70
     0
300
3/16" = 1'-0"
140
0.1875
141
12.0
290
     0
  0
SCALE
  5
A73F
102
{ACAD_REACTORS
330
A736
102
}
330
A736
100
AcDbScale
 70
     0
300
1/4" = 1'-0"
140
0.25
141
12.0
290
     0
  0
SCALE
  5
A740
102
{ACAD_REACTORS
330
A736
102
}
330
A736
100
AcDbScale
 70
     0
300
3/8" = 1'-0"
140
0.375
141
12.0
290
     0
  0
SCALE
  5
A741
102
{ACAD_REACTORS
330
A736
102
}
330
A736
100
AcDbScale
 70
     0
300
1/2" = 1'-0"
140
0.5
141
12.0
290
     0
  0
SCALE
  5
A742
102
{ACAD_REACTORS
330
A736
102
}
330
A736
100
AcDbScale
 70
     0
300
3/4" = 1'-0"
140
0.75
141
12.0
290
     0
  0
SCALE
  5
A743
102
{ACAD_REACTORS
330
A736
102
}
330
A736
100
AcDbScale
 70
     0
300
1" = 1'-0"
140
1.0
141
12.0
290
     0
  0
SCALE
  5
A744
102
{ACAD_REACTORS
330
A736
102
}
330
A736
100
AcDbScale
 70
     0
300
1-1/2" = 1'-0"
140
1.5
141
12.0
290
     0
  0
SCALE
  5
A745
102
{ACAD_REACTORS
330
A736
102
}
330
A736
100
AcDbScale
 70
     0
300
3" = 1'-0"
140
3.0
141
12.0
290
     0
  0
SCALE
  5
A746
102
{ACAD_REACTORS
330
A736
102
}
330
A736
100
AcDbScale
 70
     0
300
6" = 1'-0"
140
6.0
141
12.0
290
     0
  0
SCALE
  5
A747
102
{ACAD_REACTORS
330
A736
102
}
330
A736
100
AcDbScale
 70
     0
300
1'-0" = 1'-0"
140
12.0
141
12.0
290
     0
  0
ACDBSECTIONVIEWSTYLE
  5
A74B
102
{ACAD_XDICTIONARY
360
A7A6
102
}
102
{ACAD_REACTORS
330
A74A
102
}
330
A74A
100
AcDbModelDocViewStyle
 70
     0
  3
Imperial24
290
     0
100
AcDbSectionViewStyle
 70
     0
 71
     0
 90
       78
 71
     1
340
A3A1
 40
0.24
340
0
340
0
 40
0.24
300
I, O, Q, S, X, Z
 40
0.48
 90
        3
 40
0.18
 90
        1
 71
     2
340
A3A5
 90
       25
340
A3A5
 90
       50
 40
0.24
 40
0.0
 40
0.24
 71
     3
340
A3A1
 40
0.24
 90
        1
 40
0.75
 90
        1
300
%<\AcVar ViewType \f "%tc1">% %<\AcVar ViewSectionStartId>%-%<\AcVar ViewSectionEndId>%\PSCALE %<\AcVar ViewScale \f "%sn">%
 71
     4
300
ANSI31
 40
1.0
 90
        0
290
     0
290
     0
 90
        6
 40
0.0
 40
1.570796326794896
 40
0.2617993877991494
 40
1.308996938995747
 40
-0.2617993877991494
 40
1.832595714594046
  0
TABLESTYLE
  5
A735
102
{ACAD_XDICTIONARY
360
A76D
102
}
102
{ACAD_REACTORS
330
A734
102
}
330
A734
100
AcDbTableStyle
  3
Standard
 70
     0
 71
     0
 40
0.06
 41
0.06
280
     0
281
     0
  7
STANDARD
140
0.18
170
     2
 62
     0
 63
     7
283
     0
274
    -2
284
     1
 64
     0
275
    -2
285
     1
 65
     0
276
    -2
286
     1
 66
     0
277
    -2
287
     1
 67
     0
278
    -2
288
     1
 68
     0
279
    -2
289
     1
 69
     0
  7
STANDARD
140
0.25
170
     5
 62
     0
 63
     7
283
     0
274
    -2
284
     1
 64
     0
275
    -2
285
     1
 65
     0
276
    -2
286
     1
 66
     0
277
    -2
287
     1
 67
     0
278
    -2
288
     1
 68
     0
279
    -2
289
     1
 69
     0
  7
STANDARD
140
0.18
170
     5
 62
     0
 63
     7
283
     0
274
    -2
284
     1
 64
     0
275
    -2
285
     1
 65
     0
276
    -2
286
     1
 66
     0
277
    -2
287
     1
 67
     0
278
    -2
288
     1
 68
     0
279
    -2
289
     1
 69
     0
  0
VISUALSTYLE
  5
A720
102
{ACAD_XDICTIONARY
360
A77E
102
}
102
{ACAD_REACTORS
330
A71A
102
}
330
A71A
100
AcDbVisualStyle
  2
2dWireframe
 70
     4
 71
     0
 72
     2
 73
     0
 90
        0
 40
-0.6
 41
-30.0
 62
     5
 63
     7
 74
     1
 91
        4
 64
     7
 65
   257
 75
     1
175
     1
 42
1.0
 92
        0
 66
   257
 43
1.0
 76
     1
 77
     6
 78
     2
 67
     7
 79
     5
170
     0
171
     0
290
     0
174
     0
 93
        1
 44
0.0
173
     0
291
     0
 45
0.0
1001
ACAD
1000
AcDbSavedByObjectVersion
1070
     0
  0
VISUALSTYLE
  5
A71F
102
{ACAD_XDICTIONARY
360
A77C
102
}
102
{ACAD_REACTORS
330
A71A
102
}
330
A71A
100
AcDbVisualStyle
  2
Basic
 70
     7
 71
     1
 72
     0
 73
     1
 90
        0
 40
-0.6
 41
-30.0
 62
     5
 63
     7
 74
     0
 91
        4
 64
     7
 65
   257
 75
     1
175
     1
 42
1.0
 92
        8
 66
     7
 43
1.0
 76
     1
 77
     6
 78
     2
 67
     7
 79
     5
170
     0
171
     0
290
     0
174
     0
 93
        1
 44
0.0
173
     0
291
     1
 45
0.0
1001
ACAD
1000
AcDbSavedByObjectVersion
1070
     0
  0
VISUALSTYLE
  5
A726
102
{ACAD_XDICTIONARY
360
A78A
102
}
102
{ACAD_REACTORS
330
A71A
102
}
330
A71A
100
AcDbVisualStyle
  2
Brighten
 70
    12
 71
     2
 72
     2
 73
     0
 90
        0
 40
-0.6
 41
-30.0
 62
     5
 63
     7
 74
     1
 91
        4
 64
     7
 65
   257
 75
     1
175
     1
 42
1.0
 92
        8
 66
     7
 43
1.0
 76
     1
 77
     6
 78
     2
 67
     7
 79
     5
170
     0
171
     0
290
     0
174
     0
 93
        1
 44
50.0
173
     0
291
     1
 45
0.0
1001
ACAD
1000
AcDbSavedByObjectVersion
1070
     0
  0
VISUALSTYLE
  5
A72A
102
{ACAD_XDICTIONARY
360
A792
102
}
102
{ACAD_REACTORS
330
A71A
102
}
330
A71A
100
AcDbVisualStyle
  2
ColorChange
 70
    16
 71
     2
 72
     2
 73
     3
 90
        0
 40
-0.6
 41
-30.0
 62
     5
 63
     8
 74
     1
 91
        4
 64
     7
 65
   257
 75
     1
175
     1
 42
1.0
 92
        8
 66
     8
 43
1.0
 76
     1
 77
     6
 78
     2
 67
     7
 79
     5
170
     0
171
     0
290
     0
174
     0
 93
        1
 44
0.0
173
     0
291
     1
 45
0.0
1001
ACAD
1000
AcDbSavedByObjectVersion
1070
     0
  0
VISUALSTYLE
  5
A723
102
{ACAD_XDICTIONARY
360
A784
102
}
102
{ACAD_REACTORS
330
A71A
102
}
330
A71A
100
AcDbVisualStyle
  2
Conceptual
 70
     9
 71
     3
 72
     2
 73
     0
 90
        0
 40
-0.6
 41
-30.0
 62
     5
 63
     7
 74
     2
 91
        2
 64
     7
 65
   257
 75
     1
175
     1
 42
179.0
 92
        8
 66
     7
 43
1.0
 76
     1
 77
     6
 78
     2
 67
     7
 79
     3
170
     0
171
     0
290
     0
174
     0
 93
        1
 44
0.0
173
     0
291
     0
 45
0.0
1001
ACAD
1000
AcDbSavedByObjectVersion
1070
     0
  0
VISUALSTYLE
  5
A725
102
{ACAD_XDICTIONARY
360
A788
102
}
102
{ACAD_REACTORS
330
A71A
102
}
330
A71A
100
AcDbVisualStyle
  2
Dim
 70
    11
 71
     2
 72
     2
 73
     0
 90
        0
 40
-0.6
 41
-30.0
 62
     5
 63
     7
 74
     1
 91
        4
 64
     7
 65
   257
 75
     1
175
     1
 42
1.0
 92
        8
 66
     7
 43
1.0
 76
     1
 77
     6
 78
     2
 67
     7
 79
     5
170
     0
171
     0
290
     0
174
     0
 93
        1
 44
-50.0
173
     0
291
     1
 45
0.0
1001
ACAD
1000
AcDbSavedByObjectVersion
1070
     0
  0
VISUALSTYLE
  5
A732
102
{ACAD_XDICTIONARY
360
A7A2
102
}
102
{ACAD_REACTORS
330
A71A
102
}
330
A71A
100
AcDbVisualStyle
  2
EdgeColorOff
 70
    22
 71
     2
 72
     2
 73
     0
 90
        0
 40
-0.6
 41
-30.0
 62
     5
 63
     7
 74
     1
 91
        4
 64
     7
 65
   257
 75
     1
175
     1
 42
1.0
 92
        8
 66
     7
 43
1.0
 76
     1
 77
     6
 78
     2
 67
     7
 79
     5
170
     0
171
     0
290
     0
174
     0
 93
        1
 44
0.0
173
     0
291
     1
 45
0.0
1001
ACAD
1000
AcDbSavedByObjectVersion
1070
     0
  0
VISUALSTYLE
  5
A729
102
{ACAD_XDICTIONARY
360
A790
102
}
102
{ACAD_REACTORS
330
A71A
102
}
330
A71A
100
AcDbVisualStyle
  2
Facepattern
 70
    15
 71
     2
 72
     2
 73
     0
 90
        0
 40
-0.6
 41
-30.0
 62
     5
 63
     7
 74
     1
 91
        4
 64
     7
 65
   257
 75
     1
175
     1
 42
1.0
 92
        8
 66
     7
 43
1.0
 76
     1
 77
     6
 78
     2
 67
     7
 79
     5
170
     0
171
     0
290
     0
174
     0
 93
        1
 44
0.0
173
     0
291
     1
 45
0.0
1001
ACAD
1000
AcDbSavedByObjectVersion
1070
     0
  0
VISUALSTYLE
  5
A71B
102
{ACAD_XDICTIONARY
360
A774
102
}
102
{ACAD_REACTORS
330
A71A
102
}
330
A71A
100
AcDbVisualStyle
  2
Flat
 70
     0
 71
     2
 72
     1
 73
     1
 90
        2
 40
-0.6
 41
30.0
 62
     5
 63
     7
 74
     0
 91
        0
 64
     7
 65
   257
 75
     1
175
     1
 42
1.0
 92
        8
 66
     7
 43
1.0
 76
     1
 77
     6
 78
     2
 67
     7
 79
     5
170
     0
171
     0
290
     0
174
     0
 93
       13
 44
0.0
173
     0
291
     1
 45
0.0
1001
ACAD
1000
AcDbSavedByObjectVersion
1070
     0
  0
VISUALSTYLE
  5
A71C
102
{ACAD_XDICTIONARY
360
A776
102
}
102
{ACAD_REACTORS
330
A71A
102
}
330
A71A
100
AcDbVisualStyle
  2
FlatWithEdges
 70
     1
 71
     2
 72
     1
 73
     1
 90
        2
 40
-0.6
 41
30.0
 62
     5
 63
     7
 74
     1
 91
        0
 64
     7
 65
   257
 75
     1
175
     1
 42
1.0
 92
        0
 66
   257
 43
1.0
 76
     1
 77
     6
 78
     2
 67
     7
 79
     5
170
     0
171
     0
290
     0
174
     0
 93
       13
 44
0.0
173
     0
291
     1
 45
0.0
1001
ACAD
1000
AcDbSavedByObjectVersion
1070
     0
  0
VISUALSTYLE
  5
A71D
102
{ACAD_XDICTIONARY
360
A778
102
}
102
{ACAD_REACTORS
330
A71A
102
}
330
A71A
100
AcDbVisualStyle
  2
Gouraud
 70
     2
 71
     2
 72
     2
 73
     1
 90
        2
 40
-0.6
 41
30.0
 62
     5
 63
     7
 74
     0
 91
        0
 64
     7
 65
   257
 75
     1
175
     1
 42
1.0
 92
        0
 66
     7
 43
1.0
 76
     1
 77
     6
 78
     2
 67
     7
 79
     5
170
     0
171
     0
290
     0
174
     0
 93
       13
 44
0.0
173
     0
291
     1
 45
0.0
1001
ACAD
1000
AcDbSavedByObjectVersion
1070
     0
  0
VISUALSTYLE
  5
A71E
102
{ACAD_XDICTIONARY
360
A77A
102
}
102
{ACAD_REACTORS
330
A71A
102
}
330
A71A
100
AcDbVisualStyle
  2
GouraudWithEdges
 70
     3
 71
     2
 72
     2
 73
     1
 90
        2
 40
-0.6
 41
30.0
 62
     5
 63
     7
 74
     1
 91
        0
 64
     7
 65
   257
 75
     1
175
     1
 42
1.0
 92
        0
 66
   257
 43
1.0
 76
     1
 77
     6
 78
     2
 67
     7
 79
     5
170
     0
171
     0
290
     0
174
     0
 93
       13
 44
0.0
173
     0
291
     1
 45
0.0
1001
ACAD
1000
AcDbSavedByObjectVersion
1070
     0
  0
VISUALSTYLE
  5
A722
102
{ACAD_XDICTIONARY
360
A782
102
}
102
{ACAD_REACTORS
330
A71A
102
}
330
A71A
100
AcDbVisualStyle
  2
Hidden
 70
     6
 71
     1
 72
     2
 73
     2
 90
        0
 40
-0.6
 41
-30.0
 62
     5
 63
     7
 74
     2
 91
        2
 64
     7
 65
   257
 75
     2
175
     1
 42
40.0
 92
        0
 66
   257
 43
1.0
 76
     1
 77
     6
 78
     2
 67
     7
 79
     3
170
     0
171
     0
290
     0
174
     0
 93
        1
 44
0.0
173
     0
291
     0
 45
0.0
1001
ACAD
1000
AcDbSavedByObjectVersion
1070
     0
  0
VISUALSTYLE
  5
A730
102
{ACAD_XDICTIONARY
360
A79E
102
}
102
{ACAD_REACTORS
330
A71A
102
}
330
A71A
100
AcDbVisualStyle
  2
JitterOff
 70
    20
 71
     2
 72
     2
 73
     0
 90
        0
 40
-0.6
 41
-30.0
 62
     5
 63
     7
 74
     1
 91
        4
 64
     7
 65
   257
 75
     1
175
     1
 42
1.0
 92
       10
 66
     7
 43
1.0
 76
     1
 77
     6
 78
     2
 67
     7
 79
     5
170
     0
171
     0
290
     0
174
     0
 93
        1
 44
0.0
173
     0
291
     1
 45
0.0
1001
ACAD
1000
AcDbSavedByObjectVersion
1070
     0
  0
VISUALSTYLE
  5
A728
102
{ACAD_XDICTIONARY
360
A78E
102
}
102
{ACAD_REACTORS
330
A71A
102
}
330
A71A
100
AcDbVisualStyle
  2
Linepattern
 70
    14
 71
     2
 72
     2
 73
     0
 90
        0
 40
-0.6
 41
-30.0
 62
     5
 63
     7
 74
     1
 91
        4
 64
     7
 65
   257
 75
     7
175
     7
 42
1.0
 92
        8
 66
     7
 43
1.0
 76
     1
 77
     6
 78
     2
 67
     7
 79
     5
170
     0
171
     0
290
     0
174
     0
 93
        1
 44
0.0
173
     0
291
     1
 45
0.0
1001
ACAD
1000
AcDbSavedByObjectVersion
1070
     0
  0
VISUALSTYLE
  5
A731
102
{ACAD_XDICTIONARY
360
A7A0
102
}
102
{ACAD_REACTORS
330
A71A
102
}
330
A71A
100
AcDbVisualStyle
  2
OverhangOff
 70
    21
 71
     2
 72
     2
 73
     0
 90
        0
 40
-0.6
 41
-30.0
 62
     5
 63
     7
 74
     1
 91
        4
 64
     7
 65
   257
 75
     1
175
     1
 42
1.0
 92
        9
 66
     7
 43
1.0
 76
     1
 77
     6
 78
     2
 67
     7
 79
     5
170
     0
171
     0
290
     0
174
     0
 93
        1
 44
0.0
173
     0
291
     1
 45
0.0
1001
ACAD
1000
AcDbSavedByObjectVersion
1070
     0
  0
VISUALSTYLE
  5
A724
102
{ACAD_XDICTIONARY
360
A786
102
}
102
{ACAD_REACTORS
330
A71A
102
}
330
A71A
100
AcDbVisualStyle
  2
Realistic
 70
     8
 71
     2
 72
     3
 73
     0
 90
        2
 40
-0.6
 41
30.0
 62
     5
 63
     7
 74
     0
 91
        0
 64
     7
 65
   257
 75
     1
175
     1
 42
1.0
 92
        8
 66
   257
 43
1.0
 76
     1
 77
     6
 78
     2
 67
     7
 79
     3
170
     0
171
     0
290
     0
174
     0
 93
       13
 44
0.0
173
     0
291
     0
 45
0.0
1001
ACAD
1000
AcDbSavedByObjectVersion
1070
     0
  0
VISUALSTYLE
  5
A72F
102
{ACAD_XDICTIONARY
360
A79C
102
}
102
{ACAD_REACTORS
330
A71A
102
}
330
A71A
100
AcDbVisualStyle
  2
Shaded
 70
    27
 71
     2
 72
     2
 73
     1
 90
        2
 40
-0.6
 41
30.0
 62
     5
 63
     7
 74
     0
 91
        4
 64
     7
 65
   257
 75
     1
175
     1
 42
1.0
 92
        8
 66
   257
 43
1.0
 76
     1
 77
     6
 78
     2
 67
     8
 79
     3
170
     0
171
     0
290
     0
174
     0
 93
        5
 44
0.0
173
     0
291
     0
 45
0.0
1001
ACAD
1000
AcDbSavedByObjectVersion
1070
     0
  0
VISUALSTYLE
  5
A72E
102
{ACAD_XDICTIONARY
360
A79A
102
}
102
{ACAD_REACTORS
330
A71A
102
}
330
A71A
100
AcDbVisualStyle
  2
Shaded with edges
 70
    26
 71
     2
 72
     2
 73
     1
 90
        2
 40
-0.6
 41
30.0
 62
     5
 63
     7
 74
     1
 91
       10
 64
     7
 65
   257
 75
     2
175
     1
 42
1.0
 92
        8
 66
   257
 43
1.0
 76
     1
 77
     6
 78
     2
 67
     7
 79
     3
170
     0
171
     0
290
     0
174
     0
 93
        5
 44
0.0
173
     0
291
     0
 45
0.0
1001
ACAD
1000
AcDbSavedByObjectVersion
1070
     0
  0
VISUALSTYLE
  5
A72B
102
{ACAD_XDICTIONARY
360
A794
102
}
102
{ACAD_REACTORS
330
A71A
102
}
330
A71A
100
AcDbVisualStyle
  2
Shades of Gray
 70
    23
 71
     2
 72
     2
 73
     3
 90
        0
 40
-0.6
 41
-30.0
 62
     5
 63
     7
 74
     2
 91
        2
 64
     7
 65
     7
 75
     1
175
     1
 42
40.0
 92
        8
 66
     7
 43
1.0
 76
     1
 77
     6
 78
     2
 67
     7
 79
     3
170
     0
171
     0
290
     0
174
     0
 93
        1
 44
0.0
173
     0
291
     0
 45
0.0
1001
ACAD
1000
AcDbSavedByObjectVersion
1070
     0
  0
VISUALSTYLE
  5
A72C
102
{ACAD_XDICTIONARY
360
A796
102
}
102
{ACAD_REACTORS
330
A71A
102
}
330
A71A
100
AcDbVisualStyle
  2
Sketchy
 70
    24
 71
     1
 72
     2
 73
     2
 90
        0
 40
-0.6
 41
-30.0
 62
     5
 63
     7
 74
     2
 91
        2
 64
     7
 65
     7
 75
     1
175
     1
 42
40.0
 92
       11
 66
     7
 43
1.0
 76
     1
 77
     6
 78
     2
 67
     7
 79
     6
170
     0
171
     0
290
     0
174
     0
 93
        1
 44
0.0
173
     0
291
     0
 45
0.0
1001
ACAD
1000
AcDbSavedByObjectVersion
1070
     0
  0
VISUALSTYLE
  5
A727
102
{ACAD_XDICTIONARY
360
A78C
102
}
102
{ACAD_REACTORS
330
A71A
102
}
330
A71A
100
AcDbVisualStyle
  2
Thicken
 70
    13
 71
     2
 72
     2
 73
     0
 90
        0
 40
-0.6
 41
-30.0
 62
     5
 63
     7
 74
     1
 91
        4
 64
     7
 65
   257
 75
     1
175
     1
 42
1.0
 92
       12
 66
     7
 43
1.0
 76
     1
 77
     6
 78
     2
 67
     7
 79
     5
170
     0
171
     0
290
     0
174
     0
 93
        1
 44
0.0
173
     0
291
     1
 45
0.0
1001
ACAD
1000
AcDbSavedByObjectVersion
1070
     0
  0
VISUALSTYLE
  5
A721
102
{ACAD_XDICTIONARY
360
A780
102
}
102
{ACAD_REACTORS
330
A71A
102
}
330
A71A
100
AcDbVisualStyle
  2
Wireframe
 70
     5
 71
     0
 72
     2
 73
     0
 90
        0
 40
-0.6
 41
-30.0
 62
     5
 63
     7
 74
     1
 91
        4
 64
     7
 65
   257
 75
     1
175
     1
 42
1.0
 92
        0
 66
   257
 43
1.0
 76
     1
 77
     6
 78
     2
 67
     7
 79
     3
170
     0
171
     0
290
     0
174
     0
 93
        1
 44
0.0
173
     0
291
     0
 45
0.0
1001
ACAD
1000
AcDbSavedByObjectVersion
1070
     0
  0
VISUALSTYLE
  5
A72D
102
{ACAD_XDICTIONARY
360
A798
102
}
102
{ACAD_REACTORS
330
A71A
102
}
330
A71A
100
AcDbVisualStyle
  2
X-Ray
 70
    25
 71
     2
 72
     2
 73
     1
 90
        1
 40
0.5
 41
-30.0
 62
     5
 63
     7
 74
     1
 91
        0
 64
     7
 65
   257
 75
     1
175
     1
 42
1.0
 92
        8
 66
     7
 43
1.0
 76
     1
 77
     6
 78
     2
 67
     7
 79
     3
170
     0
171
     0
290
     0
174
     0
 93
       13
 44
0.0
173
     0
291
     0
 45
0.0
1001
ACAD
1000
AcDbSavedByObjectVersion
1070
     0
  0
DICTIONARYVAR
  5
A767
102
{ACAD_REACTORS
330
A762
102
}
330
A762
100
DictionaryVariables
280
     0
  1
1:1
  0
DICTIONARYVAR
  5
A764
102
{ACAD_REACTORS
330
A762
102
}
330
A762
100
DictionaryVariables
280
     0
  1
STANDARD
  0
DICTIONARYVAR
  5
A763
102
{ACAD_REACTORS
330
A762
102
}
330
A762
100
DictionaryVariables
280
     0
  1
STANDARD
  0
DICTIONARYVAR
  5
A765
102
{ACAD_REACTORS
330
A762
102
}
330
A762
100
DictionaryVariables
280
     0
  1
Imperial24
  0
DICTIONARYVAR
  5
A766
102
{ACAD_REACTORS
330
A762
102
}
330
A762
100
DictionaryVariables
280
     0
  1
Imperial24
  0
DICTIONARYVAR
  5
A76A
102
{ACAD_REACTORS
330
A762
102
}
330
A762
100
DictionaryVariables
280
     0
  1
1
  0
DICTIONARYVAR
  5
A769
102
{ACAD_REACTORS
330
A762
102
}
330
A762
100
DictionaryVariables
280
     0
  1
0
  0
DICTIONARYVAR
  5
A768
102
{ACAD_REACTORS
330
A762
102
}
330
A762
100
DictionaryVariables
280
     0
  1
127
  0
DICTIONARYVAR
  5
A76B
102
{ACAD_REACTORS
330
A762
102
}
330
A762
100
DictionaryVariables
280
     0
  1
2
  0
DICTIONARY
  5
A7A8
330
A74D
100
AcDbDictionary
280
     1
281
     1
  3
ACAD_XREC_ROUNDTRIP
360
A7A9
  0
DICTIONARY
  5
A7AA
330
A74E
100
AcDbDictionary
280
     1
281
     1
  3
ACAD_XREC_ROUNDTRIP
360
A7AB
  0
DICTIONARY
  5
A7AC
330
A74F
100
AcDbDictionary
280
     1
281
     1
  3
ACAD_XREC_ROUNDTRIP
360
A7AD
  0
DICTIONARY
  5
A70B
330
A70A
100
AcDbDictionary
280
     1
281
     1
  3
ACAD_XREC_ROUNDTRIP
360
A772
  3
BUMPTILE
360
A70D
  3
DIFFUSETILE
360
A70C
  3
OPACITYTILE
360
A710
  3
REFLECTIONTILE
360
A70F
  3
REFRACTIONTILE
360
A711
  3
SPECULARTILE
360
A70E
  0
DICTIONARY
  5
A703
330
A702
100
AcDbDictionary
280
     1
281
     1
  3
ACAD_XREC_ROUNDTRIP
360
A771
  3
BUMPTILE
360
A705
  3
DIFFUSETILE
360
A704
  3
OPACITYTILE
360
A708
  3
REFLECTIONTILE
360
A707
  3
REFRACTIONTILE
360
A709
  3
SPECULARTILE
360
A706
  0
DICTIONARY
  5
A713
330
A712
100
AcDbDictionary
280
     1
281
     1
  3
ACAD_XREC_ROUNDTRIP
360
A773
  3
BUMPTILE
360
A715
  3
DIFFUSETILE
360
A714
  3
OPACITYTILE
360
A718
  3
REFLECTIONTILE
360
A717
  3
REFRACTIONTILE
360
A719
  3
SPECULARTILE
360
A716
  0
DICTIONARY
  5
A7A6
330
A74B
100
AcDbDictionary
280
     1
281
     1
  3
ACAD_XREC_ROUNDTRIP
360
A7A7
  0
DICTIONARY
  5
A76D
330
A735
100
AcDbDictionary
280
     1
281
     1
  3
ACAD_ROUNDTRIP_2008_TABLESTYLE_CELLSTYLEMAP
360
A76E
  3
ACAD_XREC_ROUNDTRIP
360
A7A4
  0
DICTIONARY
  5
A77E
330
A720
100
AcDbDictionary
280
     1
281
     1
  3
ACAD_XREC_ROUNDTRIP
360
A77F
  0
DICTIONARY
  5
A77C
330
A71F
100
AcDbDictionary
280
     1
281
     1
  3
ACAD_XREC_ROUNDTRIP
360
A77D
  0
DICTIONARY
  5
A78A
330
A726
100
AcDbDictionary
280
     1
281
     1
  3
ACAD_XREC_ROUNDTRIP
360
A78B
  0
DICTIONARY
  5
A792
330
A72A
100
AcDbDictionary
280
     1
281
     1
  3
ACAD_XREC_ROUNDTRIP
360
A793
  0
DICTIONARY
  5
A784
330
A723
100
AcDbDictionary
280
     1
281
     1
  3
ACAD_XREC_ROUNDTRIP
360
A785
  0
DICTIONARY
  5
A788
330
A725
100
AcDbDictionary
280
     1
281
     1
  3
ACAD_XREC_ROUNDTRIP
360
A789
  0
DICTIONARY
  5
A7A2
330
A732
100
AcDbDictionary
280
     1
281
     1
  3
ACAD_XREC_ROUNDTRIP
360
A7A3
  0
DICTIONARY
  5
A790
330
A729
100
AcDbDictionary
280
     1
281
     1
  3
ACAD_XREC_ROUNDTRIP
360
A791
  0
DICTIONARY
  5
A774
330
A71B
100
AcDbDictionary
280
     1
281
     1
  3
ACAD_XREC_ROUNDTRIP
360
A775
  0
DICTIONARY
  5
A776
330
A71C
100
AcDbDictionary
280
     1
281
     1
  3
ACAD_XREC_ROUNDTRIP
360
A777
  0
DICTIONARY
  5
A778
330
A71D
100
AcDbDictionary
280
     1
281
     1
  3
ACAD_XREC_ROUNDTRIP
360
A779
  0
DICTIONARY
  5
A77A
330
A71E
100
AcDbDictionary
280
     1
281
     1
  3
ACAD_XREC_ROUNDTRIP
360
A77B
  0
DICTIONARY
  5
A782
330
A722
100
AcDbDictionary
280
     1
281
     1
  3
ACAD_XREC_ROUNDTRIP
360
A783
  0
DICTIONARY
  5
A79E
330
A730
100
AcDbDictionary
280
     1
281
     1
  3
ACAD_XREC_ROUNDTRIP
360
A79F
  0
DICTIONARY
  5
A78E
330
A728
100
AcDbDictionary
280
     1
281
     1
  3
ACAD_XREC_ROUNDTRIP
360
A78F
  0
DICTIONARY
  5
A7A0
330
A731
100
AcDbDictionary
280
     1
281
     1
  3
ACAD_XREC_ROUNDTRIP
360
A7A1
  0
DICTIONARY
  5
A786
330
A724
100
AcDbDictionary
280
     1
281
     1
  3
ACAD_XREC_ROUNDTRIP
360
A787
  0
DICTIONARY
  5
A79C
330
A72F
100
AcDbDictionary
280
     1
281
     1
  3
ACAD_XREC_ROUNDTRIP
360
A79D
  0
DICTIONARY
  5
A79A
330
A72E
100
AcDbDictionary
280
     1
281
     1
  3
ACAD_XREC_ROUNDTRIP
360
A79B
  0
DICTIONARY
  5
A794
330
A72B
100
AcDbDictionary
280
     1
281
     1
  3
ACAD_XREC_ROUNDTRIP
360
A795
  0
DICTIONARY
  5
A796
330
A72C
100
AcDbDictionary
280
     1
281
     1
  3
ACAD_XREC_ROUNDTRIP
360
A797
  0
DICTIONARY
  5
A78C
330
A727
100
AcDbDictionary
280
     1
281
     1
  3
ACAD_XREC_ROUNDTRIP
360
A78D
  0
DICTIONARY
  5
A780
330
A721
100
AcDbDictionary
280
     1
281
     1
  3
ACAD_XREC_ROUNDTRIP
360
A781
  0
DICTIONARY
  5
A798
330
A72D
100
AcDbDictionary
280
     1
281
     1
  3
ACAD_XREC_ROUNDTRIP
360
A799
  0
XRECORD
  5
A7A9
102
{ACAD_REACTORS
330
A7A8
102
}
330
A7A8
100
AcDbXrecord
280
     1
102
DISPLAYNAME
  1
Imperial24
102
FLAGS
 90
        0
  0
XRECORD
  5
A7AB
102
{ACAD_REACTORS
330
A7AA
102
}
330
A7AA
100
AcDbXrecord
280
     1
102
SHADEPLOT
 70
     0
102
SHADEPLOTRESLEVEL
 70
     2
102
SHADEPLOTCUSTOMDPI
 70
   300
  0
XRECORD
  5
A7AD
102
{ACAD_REACTORS
330
A7AC
102
}
330
A7AC
100
AcDbXrecord
280
     1
102
SHADEPLOT
 70
     0
102
SHADEPLOTRESLEVEL
 70
     2
102
SHADEPLOTCUSTOMDPI
 70
   300
  0
XRECORD
  5
A772
102
{ACAD_REACTORS
330
A70B
102
}
330
A70B
100
AcDbXrecord
280
     1
102
MATERIAL
148
0.0
149
0.0
149
0.0
 93
        0
 94
      127
282
     0
 72
     0
 77
     0
171
     0
175
     0
179
     0
273
     0
  0
XRECORD
  5
A70D
102
{ACAD_REACTORS
330
A70B
102
}
330
A70B
100
AcDbXrecord
280
     1
270
     1
271
     1
  0
XRECORD
  5
A70C
102
{ACAD_REACTORS
330
A70B
102
}
330
A70B
100
AcDbXrecord
280
     1
270
     1
271
     1
  0
XRECORD
  5
A710
102
{ACAD_REACTORS
330
A70B
102
}
330
A70B
100
AcDbXrecord
280
     1
270
     1
271
     1
  0
XRECORD
  5
A70F
102
{ACAD_REACTORS
330
A70B
102
}
330
A70B
100
AcDbXrecord
280
     1
270
     1
271
     1
  0
XRECORD
  5
A711
102
{ACAD_REACTORS
330
A70B
102
}
330
A70B
100
AcDbXrecord
280
     1
270
     1
271
     1
  0
XRECORD
  5
A70E
102
{ACAD_REACTORS
330
A70B
102
}
330
A70B
100
AcDbXrecord
280
     1
270
     1
271
     1
  0
XRECORD
  5
A771
102
{ACAD_REACTORS
330
A703
102
}
330
A703
100
AcDbXrecord
280
     1
102
MATERIAL
148
0.0
149
0.0
149
0.0
 93
        0
 94
      127
282
     0
 72
     0
 77
     0
171
     0
175
     0
179
     0
273
     0
  0
XRECORD
  5
A705
102
{ACAD_REACTORS
330
A703
102
}
330
A703
100
AcDbXrecord
280
     1
270
     1
271
     1
  0
XRECORD
  5
A704
102
{ACAD_REACTORS
330
A703
102
}
330
A703
100
AcDbXrecord
280
     1
270
     1
271
     1
  0
XRECORD
  5
A708
102
{ACAD_REACTORS
330
A703
102
}
330
A703
100
AcDbXrecord
280
     1
270
     1
271
     1
  0
XRECORD
  5
A707
102
{ACAD_REACTORS
330
A703
102
}
330
A703
100
AcDbXrecord
280
     1
270
     1
271
     1
  0
XRECORD
  5
A709
102
{ACAD_REACTORS
330
A703
102
}
330
A703
100
AcDbXrecord
280
     1
270
     1
271
     1
  0
XRECORD
  5
A706
102
{ACAD_REACTORS
330
A703
102
}
330
A703
100
AcDbXrecord
280
     1
270
     1
271
     1
  0
XRECORD
  5
A773
102
{ACAD_REACTORS
330
A713
102
}
330
A713
100
AcDbXrecord
280
     1
102
MATERIAL
148
0.0
149
0.0
149
0.0
 93
        0
 94
      127
282
     0
 72
     0
 77
     0
171
     0
175
     0
179
     0
273
     0
  0
XRECORD
  5
A715
102
{ACAD_REACTORS
330
A713
102
}
330
A713
100
AcDbXrecord
280
     1
270
     1
271
     1
  0
XRECORD
  5
A714
102
{ACAD_REACTORS
330
A713
102
}
330
A713
100
AcDbXrecord
280
     1
270
     1
271
     1
  0
XRECORD
  5
A718
102
{ACAD_REACTORS
330
A713
102
}
330
A713
100
AcDbXrecord
280
     1
270
     1
271
     1
  0
XRECORD
  5
A717
102
{ACAD_REACTORS
330
A713
102
}
330
A713
100
AcDbXrecord
280
     1
270
     1
271
     1
  0
XRECORD
  5
A719
102
{ACAD_REACTORS
330
A713
102
}
330
A713
100
AcDbXrecord
280
     1
270
     1
271
     1
  0
XRECORD
  5
A716
102
{ACAD_REACTORS
330
A713
102
}
330
A713
100
AcDbXrecord
280
     1
270
     1
271
     1
  0
XRECORD
  5
A7A7
102
{ACAD_REACTORS
330
A7A6
102
}
330
A7A6
100
AcDbXrecord
280
     1
102
DISPLAYNAME
  1
Imperial24
102
FLAGS
 90
        0
  0
CELLSTYLEMAP
  5
A76E
102
{ACAD_REACTORS
330
A76D
102
}
330
A76D
100
AcDbCellStyleMap
 90
        3
300
CELLSTYLE
  1
TABLEFORMAT_BEGIN
 90
        5
170
     1
 91
        0
 92
    32768
 62
   257
 93
        1
300
CONTENTFORMAT
  1
CONTENTFORMAT_BEGIN
 90
        0
 91
        0
 92
      512
 93
        0
300

 40
0.0
140
1.0
 94
        5
 62
     0
340
A3A1
144
0.25
309
CONTENTFORMAT_END
171
     0
 94
        0
309
TABLEFORMAT_END
  1
CELLSTYLE_BEGIN
 90
        1
 91
        1
300
_TITLE
309
CELLSTYLE_END
300
CELLSTYLE
  1
TABLEFORMAT_BEGIN
 90
        5
170
     1
 91
        0
 92
        0
 62
   257
 93
        1
300
CONTENTFORMAT
  1
CONTENTFORMAT_BEGIN
 90
        0
 91
        0
 92
      512
 93
        0
300

 40
0.0
140
1.0
 94
        5
 62
     0
340
A3A1
144
0.18
309
CONTENTFORMAT_END
171
     0
 94
        0
309
TABLEFORMAT_END
  1
CELLSTYLE_BEGIN
 90
        2
 91
        1
300
_HEADER
309
CELLSTYLE_END
300
CELLSTYLE
  1
TABLEFORMAT_BEGIN
 90
        5
170
     1
 91
        0
 92
        0
 62
   257
 93
        1
300
CONTENTFORMAT
  1
CONTENTFORMAT_BEGIN
 90
        0
 91
        0
 92
      512
 93
        0
300

 40
0.0
140
1.0
 94
        2
 62
     0
340
A3A1
144
0.18
309
CONTENTFORMAT_END
171
     0
 94
        0
309
TABLEFORMAT_END
  1
CELLSTYLE_BEGIN
 90
        3
 91
        2
300
_DATA
309
CELLSTYLE_END
  0
XRECORD
  5
A7A4
102
{ACAD_REACTORS
330
A76D
102
}
330
A76D
100
AcDbXrecord
280
     1
102
ACAD_ROUNDTRIP_PRE2007_TABLESTYLE
 90
      512
 91
        0
  1

 92
      512
 93
        0
  2

 94
      512
 95
        0
  3

  0
XRECORD
  5
A77F
102
{ACAD_REACTORS
330
A77E
102
}
330
A77E
100
AcDbXrecord
280
     1
102
RTVSPost2010Prop28
280
     1
102
RTVSPost2010PropOp28
 70
     1
102
RTVSPost2010Prop29
280
     1
102
RTVSPost2010PropOp29
 70
     1
102
RTVSPost2010Prop30
280
     0
102
RTVSPost2010PropOp30
 70
     1
102
RTVSPost2010Prop31
280
     0
102
RTVSPost2010PropOp31
 70
     1
102
RTVSPost2010Prop32
280
     0
102
RTVSPost2010PropOp32
 70
     1
102
RTVSPost2010Prop33
280
     0
102
RTVSPost2010PropOp33
 70
     1
102
RTVSPost2010Prop34
280
     0
102
RTVSPost2010PropOp34
 70
     1
102
RTVSPost2010Prop35
280
     0
102
RTVSPost2010PropOp35
 70
     1
102
RTVSPost2010Prop36
280
     0
102
RTVSPost2010PropOp36
 70
     1
102
RTVSPost2010Prop37
 90
       50
102
RTVSPost2010PropOp37
 70
     1
102
RTVSPost2010Prop38
140
0.0
102
RTVSPost2010PropOp38
 70
     1
102
RTVSPost2010Prop39
140
1.0
102
RTVSPost2010PropOp39
 70
     1
102
RTVSPost2010Prop40
 90
        0
102
RTVSPost2010PropOp40
 70
     1
102
RTVSPost2010Prop41ColorIndex
 90
       18
102
RTVSPost2010Prop41ColorRGB
 90
        0
102
RTVSPost2010PropOp41
 70
     1
102
RTVSPost2010Prop42
 90
       50
102
RTVSPost2010PropOp42
 70
     1
102
RTVSPost2010Prop43
 90
        3
102
RTVSPost2010PropOp43
 70
     1
102
RTVSPost2010Prop44ColorIndex
 90
        5
102
RTVSPost2010Prop44ColorRGB
 90
      255
102
RTVSPost2010PropOp44
 70
     1
102
RTVSPost2010Prop45
280
     0
102
RTVSPost2010PropOp45
 70
     1
102
RTVSPost2010Prop46
 90
       50
102
RTVSPost2010PropOp46
 70
     1
102
RTVSPost2010Prop47
 90
       50
102
RTVSPost2010PropOp47
 70
     1
102
RTVSPost2010Prop48
 90
       50
102
RTVSPost2010PropOp48
 70
     1
102
RTVSPost2010Prop49
280
     0
102
RTVSPost2010PropOp49
 70
     1
102
RTVSPost2010Prop50
 90
       50
102
RTVSPost2010PropOp50
 70
     1
102
RTVSPost2010Prop51ColorIndex
 90
      256
102
RTVSPost2010Prop51ColorRGB
 90
-16777216
102
RTVSPost2010PropOp51
 70
     0
102
RTVSPost2010Prop52
140
1.0
102
RTVSPost2010PropOp52
 70
     0
102
RTVSPost2010Prop53
 90
        2
102
RTVSPost2010PropOp53
 70
     1
102
RTVSPost2010Prop54
  1
strokes_ogs.tif
102
RTVSPost2010PropOp54
 70
     1
102
RTVSPost2010Prop55
280
     0
102
RTVSPost2010PropOp55
 70
     1
102
RTVSPost2010Prop56
140
1.0
102
RTVSPost2010PropOp56
 70
     1
102
RTVSPost2010Prop57
140
1.0
102
RTVSPost2010PropOp57
 70
     1
102
RTVSPropertyOp0
 70
     1
102
RTVSPropertyOp1
 70
     1
102
RTVSPropertyOp2
 70
     1
102
RTVSPropertyOp3
 70
     1
102
RTVSPropertyOp4
 70
     1
102
RTVSPropertyOp5
 70
     1
102
RTVSPropertyOp6
 70
     1
102
RTVSPropertyOp7
 70
     1
102
RTVSPropertyOp8
 70
     1
102
RTVSPropertyOp9
 70
     1
102
RTVSPropertyOp10
 70
     1
102
RTVSPropertyOp11
 70
     1
102
RTVSPropertyOp12
 70
     1
102
RTVSPropertyOp13
 70
     1
102
RTVSPropertyOp14
 70
     1
102
RTVSPropertyOp15
 70
     1
102
RTVSPropertyOp16
 70
     1
102
RTVSPropertyOp17
 70
     1
102
RTVSPropertyOp18
 70
     1
102
RTVSPropertyOp19
 70
     1
102
RTVSPropertyOp20
 70
     1
102
RTVSPropertyOp21
 70
     1
102
RTVSPropertyOp22
 70
     1
102
RTVSPropertyOp23
 70
     1
102
RTVSPropertyOp24
 70
     1
102
RTVSPropertyOp25
 70
     1
102
RTVSPropertyOp26
 70
     1
102
RTVSPropertyOp27
 70
     1
102
RTVSPropertyOp28
 70
     1
102
RTVSPropertyOp29
 70
     1
102
RTVSPropertyOp30
 70
     1
102
RTVSPropertyOp31
 70
     1
102
RTVSPropertyOp32
 70
     1
102
RTVSPropertyOp33
 70
     1
102
RTVSPropertyOp34
 70
     1
102
RTVSPropertyOp35
 70
     1
102
RTVSPropertyOp36
 70
     1
102
RTVSPropertyOp37
 70
     1
102
RTVSPropertyOp38
 70
     1
102
RTVSPropertyOp39
 70
     1
102
RTVSPropertyOp40
 70
     1
102
RTVSPropertyOp41
 70
     1
102
RTVSPropertyOp42
 70
     1
102
RTVSPropertyOp43
 70
     1
102
RTVSPropertyOp44
 70
     1
102
RTVSPropertyOp45
 70
     1
102
RTVSPropertyOp46
 70
     1
102
RTVSPropertyOp47
 70
     1
102
RTVSPropertyOp48
 70
     1
102
RTVSPropertyOp49
 70
     1
102
RTVSPropertyOp50
 70
     1
102
RTVSPropertyOp51
 70
     0
102
RTVSPropertyOp52
 70
     0
102
RTVSPropertyOp53
 70
     1
102
RTVSPropertyOp54
 70
     1
102
RTVSPropertyOp55
 70
     1
102
RTVSPropertyOp56
 70
     1
102
RTVSPropertyOp57
 70
     1
102
RTVSPropertyOp58
 70
     1
102
RTVSPropertyOp59
 70
     1
102
RTVSPropertyOp60
 70
     1
102
RTVSPropertyOp61
 70
     1
102
RTVSPropertyOp62
 70
     1
  0
XRECORD
  5
A77D
102
{ACAD_REACTORS
330
A77C
102
}
330
A77C
100
AcDbXrecord
280
     1
102
RTVSPost2010Prop28
280
     0
102
RTVSPost2010PropOp28
 70
     1
102
RTVSPost2010Prop29
280
     1
102
RTVSPost2010PropOp29
 70
     1
102
RTVSPost2010Prop30
280
     1
102
RTVSPost2010PropOp30
 70
     1
102
RTVSPost2010Prop31
280
     0
102
RTVSPost2010PropOp31
 70
     1
102
RTVSPost2010Prop32
280
     0
102
RTVSPost2010PropOp32
 70
     1
102
RTVSPost2010Prop33
280
     0
102
RTVSPost2010PropOp33
 70
     1
102
RTVSPost2010Prop34
280
     0
102
RTVSPost2010PropOp34
 70
     1
102
RTVSPost2010Prop35
280
     0
102
RTVSPost2010PropOp35
 70
     1
102
RTVSPost2010Prop36
280
     0
102
RTVSPost2010PropOp36
 70
     1
102
RTVSPost2010Prop37
 90
       50
102
RTVSPost2010PropOp37
 70
     1
102
RTVSPost2010Prop38
140
0.0
102
RTVSPost2010PropOp38
 70
     1
102
RTVSPost2010Prop39
140
1.0
102
RTVSPost2010PropOp39
 70
     1
102
RTVSPost2010Prop40
 90
        0
102
RTVSPost2010PropOp40
 70
     1
102
RTVSPost2010Prop41ColorIndex
 90
       18
102
RTVSPost2010Prop41ColorRGB
 90
        0
102
RTVSPost2010PropOp41
 70
     1
102
RTVSPost2010Prop42
 90
       50
102
RTVSPost2010PropOp42
 70
     1
102
RTVSPost2010Prop43
 90
        3
102
RTVSPost2010PropOp43
 70
     1
102
RTVSPost2010Prop44ColorIndex
 90
        5
102
RTVSPost2010Prop44ColorRGB
 90
      255
102
RTVSPost2010PropOp44
 70
     1
102
RTVSPost2010Prop45
280
     0
102
RTVSPost2010PropOp45
 70
     1
102
RTVSPost2010Prop46
 90
       50
102
RTVSPost2010PropOp46
 70
     1
102
RTVSPost2010Prop47
 90
       50
102
RTVSPost2010PropOp47
 70
     1
102
RTVSPost2010Prop48
 90
       50
102
RTVSPost2010PropOp48
 70
     1
102
RTVSPost2010Prop49
280
     0
102
RTVSPost2010PropOp49
 70
     1
102
RTVSPost2010Prop50
 90
       50
102
RTVSPost2010PropOp50
 70
     1
102
RTVSPost2010Prop51ColorIndex
 90
      256
102
RTVSPost2010Prop51ColorRGB
 90
-16777216
102
RTVSPost2010PropOp51
 70
     0
102
RTVSPost2010Prop52
140
1.0
102
RTVSPost2010PropOp52
 70
     0
102
RTVSPost2010Prop53
 90
        2
102
RTVSPost2010PropOp53
 70
     1
102
RTVSPost2010Prop54
  1
strokes_ogs.tif
102
RTVSPost2010PropOp54
 70
     1
102
RTVSPost2010Prop55
280
     0
102
RTVSPost2010PropOp55
 70
     1
102
RTVSPost2010Prop56
140
1.0
102
RTVSPost2010PropOp56
 70
     1
102
RTVSPost2010Prop57
140
1.0
102
RTVSPost2010PropOp57
 70
     1
102
RTVSPropertyOp0
 70
     1
102
RTVSPropertyOp1
 70
     1
102
RTVSPropertyOp2
 70
     1
102
RTVSPropertyOp3
 70
     1
102
RTVSPropertyOp4
 70
     1
102
RTVSPropertyOp5
 70
     1
102
RTVSPropertyOp6
 70
     1
102
RTVSPropertyOp7
 70
     1
102
RTVSPropertyOp8
 70
     1
102
RTVSPropertyOp9
 70
     1
102
RTVSPropertyOp10
 70
     1
102
RTVSPropertyOp11
 70
     1
102
RTVSPropertyOp12
 70
     1
102
RTVSPropertyOp13
 70
     1
102
RTVSPropertyOp14
 70
     1
102
RTVSPropertyOp15
 70
     1
102
RTVSPropertyOp16
 70
     1
102
RTVSPropertyOp17
 70
     1
102
RTVSPropertyOp18
 70
     1
102
RTVSPropertyOp19
 70
     1
102
RTVSPropertyOp20
 70
     1
102
RTVSPropertyOp21
 70
     1
102
RTVSPropertyOp22
 70
     1
102
RTVSPropertyOp23
 70
     1
102
RTVSPropertyOp24
 70
     1
102
RTVSPropertyOp25
 70
     1
102
RTVSPropertyOp26
 70
     1
102
RTVSPropertyOp27
 70
     1
102
RTVSPropertyOp28
 70
     1
102
RTVSPropertyOp29
 70
     1
102
RTVSPropertyOp30
 70
     1
102
RTVSPropertyOp31
 70
     1
102
RTVSPropertyOp32
 70
     1
102
RTVSPropertyOp33
 70
     1
102
RTVSPropertyOp34
 70
     1
102
RTVSPropertyOp35
 70
     1
102
RTVSPropertyOp36
 70
     1
102
RTVSPropertyOp37
 70
     1
102
RTVSPropertyOp38
 70
     1
102
RTVSPropertyOp39
 70
     1
102
RTVSPropertyOp40
 70
     1
102
RTVSPropertyOp41
 70
     1
102
RTVSPropertyOp42
 70
     1
102
RTVSPropertyOp43
 70
     1
102
RTVSPropertyOp44
 70
     1
102
RTVSPropertyOp45
 70
     1
102
RTVSPropertyOp46
 70
     1
102
RTVSPropertyOp47
 70
     1
102
RTVSPropertyOp48
 70
     1
102
RTVSPropertyOp49
 70
     1
102
RTVSPropertyOp50
 70
     1
102
RTVSPropertyOp51
 70
     0
102
RTVSPropertyOp52
 70
     0
102
RTVSPropertyOp53
 70
     1
102
RTVSPropertyOp54
 70
     1
102
RTVSPropertyOp55
 70
     1
102
RTVSPropertyOp56
 70
     1
102
RTVSPropertyOp57
 70
     1
102
RTVSPropertyOp58
 70
     1
102
RTVSPropertyOp59
 70
     1
102
RTVSPropertyOp60
 70
     1
102
RTVSPropertyOp61
 70
     1
102
RTVSPropertyOp62
 70
     1
  0
XRECORD
  5
A78B
102
{ACAD_REACTORS
330
A78A
102
}
330
A78A
100
AcDbXrecord
280
     1
102
RTVSPost2010Prop28
280
     0
102
RTVSPost2010PropOp28
 70
     1
102
RTVSPost2010Prop29
280
     1
102
RTVSPost2010PropOp29
 70
     1
102
RTVSPost2010Prop30
280
     1
102
RTVSPost2010PropOp30
 70
     1
102
RTVSPost2010Prop31
280
     0
102
RTVSPost2010PropOp31
 70
     1
102
RTVSPost2010Prop32
280
     0
102
RTVSPost2010PropOp32
 70
     1
102
RTVSPost2010Prop33
280
     0
102
RTVSPost2010PropOp33
 70
     1
102
RTVSPost2010Prop34
280
     0
102
RTVSPost2010PropOp34
 70
     1
102
RTVSPost2010Prop35
280
     0
102
RTVSPost2010PropOp35
 70
     1
102
RTVSPost2010Prop36
280
     0
102
RTVSPost2010PropOp36
 70
     1
102
RTVSPost2010Prop37
 90
       50
102
RTVSPost2010PropOp37
 70
     1
102
RTVSPost2010Prop38
140
0.0
102
RTVSPost2010PropOp38
 70
     1
102
RTVSPost2010Prop39
140
1.0
102
RTVSPost2010PropOp39
 70
     1
102
RTVSPost2010Prop40
 90
        0
102
RTVSPost2010PropOp40
 70
     1
102
RTVSPost2010Prop41ColorIndex
 90
       18
102
RTVSPost2010Prop41ColorRGB
 90
        0
102
RTVSPost2010PropOp41
 70
     1
102
RTVSPost2010Prop42
 90
       50
102
RTVSPost2010PropOp42
 70
     1
102
RTVSPost2010Prop43
 90
        3
102
RTVSPost2010PropOp43
 70
     1
102
RTVSPost2010Prop44ColorIndex
 90
        5
102
RTVSPost2010Prop44ColorRGB
 90
      255
102
RTVSPost2010PropOp44
 70
     1
102
RTVSPost2010Prop45
280
     0
102
RTVSPost2010PropOp45
 70
     1
102
RTVSPost2010Prop46
 90
       50
102
RTVSPost2010PropOp46
 70
     1
102
RTVSPost2010Prop47
 90
       50
102
RTVSPost2010PropOp47
 70
     1
102
RTVSPost2010Prop48
 90
       50
102
RTVSPost2010PropOp48
 70
     1
102
RTVSPost2010Prop49
280
     0
102
RTVSPost2010PropOp49
 70
     1
102
RTVSPost2010Prop50
 90
       50
102
RTVSPost2010PropOp50
 70
     1
102
RTVSPost2010Prop51ColorIndex
 90
      256
102
RTVSPost2010Prop51ColorRGB
 90
-16777216
102
RTVSPost2010PropOp51
 70
     0
102
RTVSPost2010Prop52
140
1.0
102
RTVSPost2010PropOp52
 70
     0
102
RTVSPost2010Prop53
 90
        2
102
RTVSPost2010PropOp53
 70
     1
102
RTVSPost2010Prop54
  1
strokes_ogs.tif
102
RTVSPost2010PropOp54
 70
     1
102
RTVSPost2010Prop55
280
     0
102
RTVSPost2010PropOp55
 70
     1
102
RTVSPost2010Prop56
140
1.0
102
RTVSPost2010PropOp56
 70
     1
102
RTVSPost2010Prop57
140
1.0
102
RTVSPost2010PropOp57
 70
     1
102
RTVSPropertyOp0
 70
     1
102
RTVSPropertyOp1
 70
     1
102
RTVSPropertyOp2
 70
     1
102
RTVSPropertyOp3
 70
     1
102
RTVSPropertyOp4
 70
     1
102
RTVSPropertyOp5
 70
     1
102
RTVSPropertyOp6
 70
     1
102
RTVSPropertyOp7
 70
     1
102
RTVSPropertyOp8
 70
     1
102
RTVSPropertyOp9
 70
     1
102
RTVSPropertyOp10
 70
     1
102
RTVSPropertyOp11
 70
     1
102
RTVSPropertyOp12
 70
     1
102
RTVSPropertyOp13
 70
     1
102
RTVSPropertyOp14
 70
     1
102
RTVSPropertyOp15
 70
     1
102
RTVSPropertyOp16
 70
     1
102
RTVSPropertyOp17
 70
     1
102
RTVSPropertyOp18
 70
     1
102
RTVSPropertyOp19
 70
     1
102
RTVSPropertyOp20
 70
     1
102
RTVSPropertyOp21
 70
     1
102
RTVSPropertyOp22
 70
     1
102
RTVSPropertyOp23
 70
     1
102
RTVSPropertyOp24
 70
     1
102
RTVSPropertyOp25
 70
     1
102
RTVSPropertyOp26
 70
     1
102
RTVSPropertyOp27
 70
     1
102
RTVSPropertyOp28
 70
     1
102
RTVSPropertyOp29
 70
     1
102
RTVSPropertyOp30
 70
     1
102
RTVSPropertyOp31
 70
     1
102
RTVSPropertyOp32
 70
     1
102
RTVSPropertyOp33
 70
     1
102
RTVSPropertyOp34
 70
     1
102
RTVSPropertyOp35
 70
     1
102
RTVSPropertyOp36
 70
     1
102
RTVSPropertyOp37
 70
     1
102
RTVSPropertyOp38
 70
     1
102
RTVSPropertyOp39
 70
     1
102
RTVSPropertyOp40
 70
     1
102
RTVSPropertyOp41
 70
     1
102
RTVSPropertyOp42
 70
     1
102
RTVSPropertyOp43
 70
     1
102
RTVSPropertyOp44
 70
     1
102
RTVSPropertyOp45
 70
     1
102
RTVSPropertyOp46
 70
     1
102
RTVSPropertyOp47
 70
     1
102
RTVSPropertyOp48
 70
     1
102
RTVSPropertyOp49
 70
     1
102
RTVSPropertyOp50
 70
     1
102
RTVSPropertyOp51
 70
     0
102
RTVSPropertyOp52
 70
     0
102
RTVSPropertyOp53
 70
     1
102
RTVSPropertyOp54
 70
     1
102
RTVSPropertyOp55
 70
     1
102
RTVSPropertyOp56
 70
     1
102
RTVSPropertyOp57
 70
     1
102
RTVSPropertyOp58
 70
     1
102
RTVSPropertyOp59
 70
     1
102
RTVSPropertyOp60
 70
     1
102
RTVSPropertyOp61
 70
     1
102
RTVSPropertyOp62
 70
     1
  0
XRECORD
  5
A793
102
{ACAD_REACTORS
330
A792
102
}
330
A792
100
AcDbXrecord
280
     1
102
RTVSPost2010Prop28
280
     0
102
RTVSPost2010PropOp28
 70
     1
102
RTVSPost2010Prop29
280
     1
102
RTVSPost2010PropOp29
 70
     1
102
RTVSPost2010Prop30
280
     1
102
RTVSPost2010PropOp30
 70
     1
102
RTVSPost2010Prop31
280
     0
102
RTVSPost2010PropOp31
 70
     1
102
RTVSPost2010Prop32
280
     0
102
RTVSPost2010PropOp32
 70
     1
102
RTVSPost2010Prop33
280
     0
102
RTVSPost2010PropOp33
 70
     1
102
RTVSPost2010Prop34
280
     0
102
RTVSPost2010PropOp34
 70
     1
102
RTVSPost2010Prop35
280
     0
102
RTVSPost2010PropOp35
 70
     1
102
RTVSPost2010Prop36
280
     0
102
RTVSPost2010PropOp36
 70
     1
102
RTVSPost2010Prop37
 90
       50
102
RTVSPost2010PropOp37
 70
     1
102
RTVSPost2010Prop38
140
0.0
102
RTVSPost2010PropOp38
 70
     1
102
RTVSPost2010Prop39
140
1.0
102
RTVSPost2010PropOp39
 70
     1
102
RTVSPost2010Prop40
 90
        0
102
RTVSPost2010PropOp40
 70
     1
102
RTVSPost2010Prop41ColorIndex
 90
       18
102
RTVSPost2010Prop41ColorRGB
 90
        0
102
RTVSPost2010PropOp41
 70
     1
102
RTVSPost2010Prop42
 90
       50
102
RTVSPost2010PropOp42
 70
     1
102
RTVSPost2010Prop43
 90
        3
102
RTVSPost2010PropOp43
 70
     1
102
RTVSPost2010Prop44ColorIndex
 90
        5
102
RTVSPost2010Prop44ColorRGB
 90
      255
102
RTVSPost2010PropOp44
 70
     1
102
RTVSPost2010Prop45
280
     0
102
RTVSPost2010PropOp45
 70
     1
102
RTVSPost2010Prop46
 90
       50
102
RTVSPost2010PropOp46
 70
     1
102
RTVSPost2010Prop47
 90
       50
102
RTVSPost2010PropOp47
 70
     1
102
RTVSPost2010Prop48
 90
       50
102
RTVSPost2010PropOp48
 70
     1
102
RTVSPost2010Prop49
280
     0
102
RTVSPost2010PropOp49
 70
     1
102
RTVSPost2010Prop50
 90
       50
102
RTVSPost2010PropOp50
 70
     1
102
RTVSPost2010Prop51ColorIndex
 90
      256
102
RTVSPost2010Prop51ColorRGB
 90
-16777216
102
RTVSPost2010PropOp51
 70
     0
102
RTVSPost2010Prop52
140
1.0
102
RTVSPost2010PropOp52
 70
     0
102
RTVSPost2010Prop53
 90
        2
102
RTVSPost2010PropOp53
 70
     1
102
RTVSPost2010Prop54
  1
strokes_ogs.tif
102
RTVSPost2010PropOp54
 70
     1
102
RTVSPost2010Prop55
280
     0
102
RTVSPost2010PropOp55
 70
     1
102
RTVSPost2010Prop56
140
1.0
102
RTVSPost2010PropOp56
 70
     1
102
RTVSPost2010Prop57
140
1.0
102
RTVSPost2010PropOp57
 70
     1
102
RTVSPropertyOp0
 70
     1
102
RTVSPropertyOp1
 70
     1
102
RTVSPropertyOp2
 70
     1
102
RTVSPropertyOp3
 70
     1
102
RTVSPropertyOp4
 70
     1
102
RTVSPropertyOp5
 70
     1
102
RTVSPropertyOp6
 70
     1
102
RTVSPropertyOp7
 70
     1
102
RTVSPropertyOp8
 70
     1
102
RTVSPropertyOp9
 70
     1
102
RTVSPropertyOp10
 70
     1
102
RTVSPropertyOp11
 70
     1
102
RTVSPropertyOp12
 70
     1
102
RTVSPropertyOp13
 70
     1
102
RTVSPropertyOp14
 70
     1
102
RTVSPropertyOp15
 70
     1
102
RTVSPropertyOp16
 70
     1
102
RTVSPropertyOp17
 70
     1
102
RTVSPropertyOp18
 70
     1
102
RTVSPropertyOp19
 70
     1
102
RTVSPropertyOp20
 70
     1
102
RTVSPropertyOp21
 70
     1
102
RTVSPropertyOp22
 70
     1
102
RTVSPropertyOp23
 70
     1
102
RTVSPropertyOp24
 70
     1
102
RTVSPropertyOp25
 70
     1
102
RTVSPropertyOp26
 70
     1
102
RTVSPropertyOp27
 70
     1
102
RTVSPropertyOp28
 70
     1
102
RTVSPropertyOp29
 70
     1
102
RTVSPropertyOp30
 70
     1
102
RTVSPropertyOp31
 70
     1
102
RTVSPropertyOp32
 70
     1
102
RTVSPropertyOp33
 70
     1
102
RTVSPropertyOp34
 70
     1
102
RTVSPropertyOp35
 70
     1
102
RTVSPropertyOp36
 70
     1
102
RTVSPropertyOp37
 70
     1
102
RTVSPropertyOp38
 70
     1
102
RTVSPropertyOp39
 70
     1
102
RTVSPropertyOp40
 70
     1
102
RTVSPropertyOp41
 70
     1
102
RTVSPropertyOp42
 70
     1
102
RTVSPropertyOp43
 70
     1
102
RTVSPropertyOp44
 70
     1
102
RTVSPropertyOp45
 70
     1
102
RTVSPropertyOp46
 70
     1
102
RTVSPropertyOp47
 70
     1
102
RTVSPropertyOp48
 70
     1
102
RTVSPropertyOp49
 70
     1
102
RTVSPropertyOp50
 70
     1
102
RTVSPropertyOp51
 70
     0
102
RTVSPropertyOp52
 70
     0
102
RTVSPropertyOp53
 70
     1
102
RTVSPropertyOp54
 70
     1
102
RTVSPropertyOp55
 70
     1
102
RTVSPropertyOp56
 70
     1
102
RTVSPropertyOp57
 70
     1
102
RTVSPropertyOp58
 70
     1
102
RTVSPropertyOp59
 70
     1
102
RTVSPropertyOp60
 70
     1
102
RTVSPropertyOp61
 70
     1
102
RTVSPropertyOp62
 70
     1
  0
XRECORD
  5
A785
102
{ACAD_REACTORS
330
A784
102
}
330
A784
100
AcDbXrecord
280
     1
102
RTVSPost2010Prop28
280
     0
102
RTVSPost2010PropOp28
 70
     1
102
RTVSPost2010Prop29
280
     1
102
RTVSPost2010PropOp29
 70
     1
102
RTVSPost2010Prop30
280
     1
102
RTVSPost2010PropOp30
 70
     1
102
RTVSPost2010Prop31
280
     0
102
RTVSPost2010PropOp31
 70
     1
102
RTVSPost2010Prop32
280
     0
102
RTVSPost2010PropOp32
 70
     1
102
RTVSPost2010Prop33
280
     0
102
RTVSPost2010PropOp33
 70
     1
102
RTVSPost2010Prop34
280
     0
102
RTVSPost2010PropOp34
 70
     1
102
RTVSPost2010Prop35
280
     0
102
RTVSPost2010PropOp35
 70
     1
102
RTVSPost2010Prop36
280
     0
102
RTVSPost2010PropOp36
 70
     1
102
RTVSPost2010Prop37
 90
       50
102
RTVSPost2010PropOp37
 70
     1
102
RTVSPost2010Prop38
140
0.0
102
RTVSPost2010PropOp38
 70
     1
102
RTVSPost2010Prop39
140
1.0
102
RTVSPost2010PropOp39
 70
     1
102
RTVSPost2010Prop40
 90
        0
102
RTVSPost2010PropOp40
 70
     1
102
RTVSPost2010Prop41ColorIndex
 90
       18
102
RTVSPost2010Prop41ColorRGB
 90
        0
102
RTVSPost2010PropOp41
 70
     1
102
RTVSPost2010Prop42
 90
       50
102
RTVSPost2010PropOp42
 70
     1
102
RTVSPost2010Prop43
 90
        3
102
RTVSPost2010PropOp43
 70
     1
102
RTVSPost2010Prop44ColorIndex
 90
        5
102
RTVSPost2010Prop44ColorRGB
 90
      255
102
RTVSPost2010PropOp44
 70
     1
102
RTVSPost2010Prop45
280
     0
102
RTVSPost2010PropOp45
 70
     1
102
RTVSPost2010Prop46
 90
       50
102
RTVSPost2010PropOp46
 70
     1
102
RTVSPost2010Prop47
 90
       50
102
RTVSPost2010PropOp47
 70
     1
102
RTVSPost2010Prop48
 90
       50
102
RTVSPost2010PropOp48
 70
     1
102
RTVSPost2010Prop49
280
     0
102
RTVSPost2010PropOp49
 70
     1
102
RTVSPost2010Prop50
 90
       50
102
RTVSPost2010PropOp50
 70
     1
102
RTVSPost2010Prop51ColorIndex
 90
      256
102
RTVSPost2010Prop51ColorRGB
 90
-16777216
102
RTVSPost2010PropOp51
 70
     0
102
RTVSPost2010Prop52
140
1.0
102
RTVSPost2010PropOp52
 70
     0
102
RTVSPost2010Prop53
 90
        2
102
RTVSPost2010PropOp53
 70
     1
102
RTVSPost2010Prop54
  1
strokes_ogs.tif
102
RTVSPost2010PropOp54
 70
     1
102
RTVSPost2010Prop55
280
     0
102
RTVSPost2010PropOp55
 70
     1
102
RTVSPost2010Prop56
140
1.0
102
RTVSPost2010PropOp56
 70
     1
102
RTVSPost2010Prop57
140
1.0
102
RTVSPost2010PropOp57
 70
     1
102
RTVSPropertyOp0
 70
     1
102
RTVSPropertyOp1
 70
     1
102
RTVSPropertyOp2
 70
     1
102
RTVSPropertyOp3
 70
     1
102
RTVSPropertyOp4
 70
     1
102
RTVSPropertyOp5
 70
     1
102
RTVSPropertyOp6
 70
     1
102
RTVSPropertyOp7
 70
     1
102
RTVSPropertyOp8
 70
     1
102
RTVSPropertyOp9
 70
     1
102
RTVSPropertyOp10
 70
     1
102
RTVSPropertyOp11
 70
     1
102
RTVSPropertyOp12
 70
     1
102
RTVSPropertyOp13
 70
     1
102
RTVSPropertyOp14
 70
     1
102
RTVSPropertyOp15
 70
     1
102
RTVSPropertyOp16
 70
     1
102
RTVSPropertyOp17
 70
     1
102
RTVSPropertyOp18
 70
     1
102
RTVSPropertyOp19
 70
     1
102
RTVSPropertyOp20
 70
     1
102
RTVSPropertyOp21
 70
     1
102
RTVSPropertyOp22
 70
     1
102
RTVSPropertyOp23
 70
     1
102
RTVSPropertyOp24
 70
     1
102
RTVSPropertyOp25
 70
     1
102
RTVSPropertyOp26
 70
     1
102
RTVSPropertyOp27
 70
     1
102
RTVSPropertyOp28
 70
     1
102
RTVSPropertyOp29
 70
     1
102
RTVSPropertyOp30
 70
     1
102
RTVSPropertyOp31
 70
     1
102
RTVSPropertyOp32
 70
     1
102
RTVSPropertyOp33
 70
     1
102
RTVSPropertyOp34
 70
     1
102
RTVSPropertyOp35
 70
     1
102
RTVSPropertyOp36
 70
     1
102
RTVSPropertyOp37
 70
     1
102
RTVSPropertyOp38
 70
     1
102
RTVSPropertyOp39
 70
     1
102
RTVSPropertyOp40
 70
     1
102
RTVSPropertyOp41
 70
     1
102
RTVSPropertyOp42
 70
     1
102
RTVSPropertyOp43
 70
     1
102
RTVSPropertyOp44
 70
     1
102
RTVSPropertyOp45
 70
     1
102
RTVSPropertyOp46
 70
     1
102
RTVSPropertyOp47
 70
     1
102
RTVSPropertyOp48
 70
     1
102
RTVSPropertyOp49
 70
     1
102
RTVSPropertyOp50
 70
     1
102
RTVSPropertyOp51
 70
     0
102
RTVSPropertyOp52
 70
     0
102
RTVSPropertyOp53
 70
     1
102
RTVSPropertyOp54
 70
     1
102
RTVSPropertyOp55
 70
     1
102
RTVSPropertyOp56
 70
     1
102
RTVSPropertyOp57
 70
     1
102
RTVSPropertyOp58
 70
     1
102
RTVSPropertyOp59
 70
     1
102
RTVSPropertyOp60
 70
     1
102
RTVSPropertyOp61
 70
     1
102
RTVSPropertyOp62
 70
     1
  0
XRECORD
  5
A789
102
{ACAD_REACTORS
330
A788
102
}
330
A788
100
AcDbXrecord
280
     1
102
RTVSPost2010Prop28
280
     0
102
RTVSPost2010PropOp28
 70
     1
102
RTVSPost2010Prop29
280
     1
102
RTVSPost2010PropOp29
 70
     1
102
RTVSPost2010Prop30
280
     1
102
RTVSPost2010PropOp30
 70
     1
102
RTVSPost2010Prop31
280
     0
102
RTVSPost2010PropOp31
 70
     1
102
RTVSPost2010Prop32
280
     0
102
RTVSPost2010PropOp32
 70
     1
102
RTVSPost2010Prop33
280
     0
102
RTVSPost2010PropOp33
 70
     1
102
RTVSPost2010Prop34
280
     0
102
RTVSPost2010PropOp34
 70
     1
102
RTVSPost2010Prop35
280
     0
102
RTVSPost2010PropOp35
 70
     1
102
RTVSPost2010Prop36
280
     0
102
RTVSPost2010PropOp36
 70
     1
102
RTVSPost2010Prop37
 90
       50
102
RTVSPost2010PropOp37
 70
     1
102
RTVSPost2010Prop38
140
0.0
102
RTVSPost2010PropOp38
 70
     1
102
RTVSPost2010Prop39
140
1.0
102
RTVSPost2010PropOp39
 70
     1
102
RTVSPost2010Prop40
 90
        0
102
RTVSPost2010PropOp40
 70
     1
102
RTVSPost2010Prop41ColorIndex
 90
       18
102
RTVSPost2010Prop41ColorRGB
 90
        0
102
RTVSPost2010PropOp41
 70
     1
102
RTVSPost2010Prop42
 90
       50
102
RTVSPost2010PropOp42
 70
     1
102
RTVSPost2010Prop43
 90
        3
102
RTVSPost2010PropOp43
 70
     1
102
RTVSPost2010Prop44ColorIndex
 90
        5
102
RTVSPost2010Prop44ColorRGB
 90
      255
102
RTVSPost2010PropOp44
 70
     1
102
RTVSPost2010Prop45
280
     0
102
RTVSPost2010PropOp45
 70
     1
102
RTVSPost2010Prop46
 90
       50
102
RTVSPost2010PropOp46
 70
     1
102
RTVSPost2010Prop47
 90
       50
102
RTVSPost2010PropOp47
 70
     1
102
RTVSPost2010Prop48
 90
       50
102
RTVSPost2010PropOp48
 70
     1
102
RTVSPost2010Prop49
280
     0
102
RTVSPost2010PropOp49
 70
     1
102
RTVSPost2010Prop50
 90
       50
102
RTVSPost2010PropOp50
 70
     1
102
RTVSPost2010Prop51ColorIndex
 90
      256
102
RTVSPost2010Prop51ColorRGB
 90
-16777216
102
RTVSPost2010PropOp51
 70
     0
102
RTVSPost2010Prop52
140
1.0
102
RTVSPost2010PropOp52
 70
     0
102
RTVSPost2010Prop53
 90
        2
102
RTVSPost2010PropOp53
 70
     1
102
RTVSPost2010Prop54
  1
strokes_ogs.tif
102
RTVSPost2010PropOp54
 70
     1
102
RTVSPost2010Prop55
280
     0
102
RTVSPost2010PropOp55
 70
     1
102
RTVSPost2010Prop56
140
1.0
102
RTVSPost2010PropOp56
 70
     1
102
RTVSPost2010Prop57
140
1.0
102
RTVSPost2010PropOp57
 70
     1
102
RTVSPropertyOp0
 70
     1
102
RTVSPropertyOp1
 70
     1
102
RTVSPropertyOp2
 70
     1
102
RTVSPropertyOp3
 70
     1
102
RTVSPropertyOp4
 70
     1
102
RTVSPropertyOp5
 70
     1
102
RTVSPropertyOp6
 70
     1
102
RTVSPropertyOp7
 70
     1
102
RTVSPropertyOp8
 70
     1
102
RTVSPropertyOp9
 70
     1
102
RTVSPropertyOp10
 70
     1
102
RTVSPropertyOp11
 70
     1
102
RTVSPropertyOp12
 70
     1
102
RTVSPropertyOp13
 70
     1
102
RTVSPropertyOp14
 70
     1
102
RTVSPropertyOp15
 70
     1
102
RTVSPropertyOp16
 70
     1
102
RTVSPropertyOp17
 70
     1
102
RTVSPropertyOp18
 70
     1
102
RTVSPropertyOp19
 70
     1
102
RTVSPropertyOp20
 70
     1
102
RTVSPropertyOp21
 70
     1
102
RTVSPropertyOp22
 70
     1
102
RTVSPropertyOp23
 70
     1
102
RTVSPropertyOp24
 70
     1
102
RTVSPropertyOp25
 70
     1
102
RTVSPropertyOp26
 70
     1
102
RTVSPropertyOp27
 70
     1
102
RTVSPropertyOp28
 70
     1
102
RTVSPropertyOp29
 70
     1
102
RTVSPropertyOp30
 70
     1
102
RTVSPropertyOp31
 70
     1
102
RTVSPropertyOp32
 70
     1
102
RTVSPropertyOp33
 70
     1
102
RTVSPropertyOp34
 70
     1
102
RTVSPropertyOp35
 70
     1
102
RTVSPropertyOp36
 70
     1
102
RTVSPropertyOp37
 70
     1
102
RTVSPropertyOp38
 70
     1
102
RTVSPropertyOp39
 70
     1
102
RTVSPropertyOp40
 70
     1
102
RTVSPropertyOp41
 70
     1
102
RTVSPropertyOp42
 70
     1
102
RTVSPropertyOp43
 70
     1
102
RTVSPropertyOp44
 70
     1
102
RTVSPropertyOp45
 70
     1
102
RTVSPropertyOp46
 70
     1
102
RTVSPropertyOp47
 70
     1
102
RTVSPropertyOp48
 70
     1
102
RTVSPropertyOp49
 70
     1
102
RTVSPropertyOp50
 70
     1
102
RTVSPropertyOp51
 70
     0
102
RTVSPropertyOp52
 70
     0
102
RTVSPropertyOp53
 70
     1
102
RTVSPropertyOp54
 70
     1
102
RTVSPropertyOp55
 70
     1
102
RTVSPropertyOp56
 70
     1
102
RTVSPropertyOp57
 70
     1
102
RTVSPropertyOp58
 70
     1
102
RTVSPropertyOp59
 70
     1
102
RTVSPropertyOp60
 70
     1
102
RTVSPropertyOp61
 70
     1
102
RTVSPropertyOp62
 70
     1
  0
XRECORD
  5
A7A3
102
{ACAD_REACTORS
330
A7A2
102
}
330
A7A2
100
AcDbXrecord
280
     1
102
RTVSPost2010Prop28
280
     0
102
RTVSPost2010PropOp28
 70
     1
102
RTVSPost2010Prop29
280
     1
102
RTVSPost2010PropOp29
 70
     1
102
RTVSPost2010Prop30
280
     1
102
RTVSPost2010PropOp30
 70
     1
102
RTVSPost2010Prop31
280
     0
102
RTVSPost2010PropOp31
 70
     1
102
RTVSPost2010Prop32
280
     0
102
RTVSPost2010PropOp32
 70
     1
102
RTVSPost2010Prop33
280
     0
102
RTVSPost2010PropOp33
 70
     1
102
RTVSPost2010Prop34
280
     0
102
RTVSPost2010PropOp34
 70
     1
102
RTVSPost2010Prop35
280
     0
102
RTVSPost2010PropOp35
 70
     1
102
RTVSPost2010Prop36
280
     0
102
RTVSPost2010PropOp36
 70
     1
102
RTVSPost2010Prop37
 90
       50
102
RTVSPost2010PropOp37
 70
     0
102
RTVSPost2010Prop38
140
0.0
102
RTVSPost2010PropOp38
 70
     0
102
RTVSPost2010Prop39
140
1.0
102
RTVSPost2010PropOp39
 70
     0
102
RTVSPost2010Prop40
 90
        0
102
RTVSPost2010PropOp40
 70
     0
102
RTVSPost2010Prop41ColorIndex
 90
       18
102
RTVSPost2010Prop41ColorRGB
 90
        0
102
RTVSPost2010PropOp41
 70
     0
102
RTVSPost2010Prop42
 90
       50
102
RTVSPost2010PropOp42
 70
     0
102
RTVSPost2010Prop43
 90
        3
102
RTVSPost2010PropOp43
 70
     0
102
RTVSPost2010Prop44ColorIndex
 90
        5
102
RTVSPost2010Prop44ColorRGB
 90
      255
102
RTVSPost2010PropOp44
 70
     0
102
RTVSPost2010Prop45
280
     0
102
RTVSPost2010PropOp45
 70
     1
102
RTVSPost2010Prop46
 90
       50
102
RTVSPost2010PropOp46
 70
     0
102
RTVSPost2010Prop47
 90
       50
102
RTVSPost2010PropOp47
 70
     0
102
RTVSPost2010Prop48
 90
       50
102
RTVSPost2010PropOp48
 70
     0
102
RTVSPost2010Prop49
280
     0
102
RTVSPost2010PropOp49
 70
     1
102
RTVSPost2010Prop50
 90
       50
102
RTVSPost2010PropOp50
 70
     0
102
RTVSPost2010Prop51ColorIndex
 90
      256
102
RTVSPost2010Prop51ColorRGB
 90
-16777216
102
RTVSPost2010PropOp51
 70
     0
102
RTVSPost2010Prop52
140
1.0
102
RTVSPost2010PropOp52
 70
     0
102
RTVSPost2010Prop53
 90
        2
102
RTVSPost2010PropOp53
 70
     0
102
RTVSPost2010Prop54
  1
strokes_ogs.tif
102
RTVSPost2010PropOp54
 70
     0
102
RTVSPost2010Prop55
280
     0
102
RTVSPost2010PropOp55
 70
     1
102
RTVSPost2010Prop56
140
1.0
102
RTVSPost2010PropOp56
 70
     0
102
RTVSPost2010Prop57
140
1.0
102
RTVSPost2010PropOp57
 70
     0
102
RTVSPropertyOp0
 70
     0
102
RTVSPropertyOp1
 70
     0
102
RTVSPropertyOp2
 70
     0
102
RTVSPropertyOp3
 70
     0
102
RTVSPropertyOp4
 70
     0
102
RTVSPropertyOp5
 70
     0
102
RTVSPropertyOp6
 70
     0
102
RTVSPropertyOp7
 70
     0
102
RTVSPropertyOp8
 70
     0
102
RTVSPropertyOp9
 70
     0
102
RTVSPropertyOp10
 70
     0
102
RTVSPropertyOp11
 70
     0
102
RTVSPropertyOp12
 70
     0
102
RTVSPropertyOp13
 70
     0
102
RTVSPropertyOp14
 70
     2
102
RTVSPropertyOp15
 70
     0
102
RTVSPropertyOp16
 70
     0
102
RTVSPropertyOp17
 70
     0
102
RTVSPropertyOp18
 70
     0
102
RTVSPropertyOp19
 70
     0
102
RTVSPropertyOp20
 70
     0
102
RTVSPropertyOp21
 70
     0
102
RTVSPropertyOp22
 70
     0
102
RTVSPropertyOp23
 70
     0
102
RTVSPropertyOp24
 70
     0
102
RTVSPropertyOp25
 70
     0
102
RTVSPropertyOp26
 70
     0
102
RTVSPropertyOp27
 70
     0
102
RTVSPropertyOp28
 70
     1
102
RTVSPropertyOp29
 70
     1
102
RTVSPropertyOp30
 70
     1
102
RTVSPropertyOp31
 70
     1
102
RTVSPropertyOp32
 70
     1
102
RTVSPropertyOp33
 70
     1
102
RTVSPropertyOp34
 70
     1
102
RTVSPropertyOp35
 70
     1
102
RTVSPropertyOp36
 70
     1
102
RTVSPropertyOp37
 70
     0
102
RTVSPropertyOp38
 70
     0
102
RTVSPropertyOp39
 70
     0
102
RTVSPropertyOp40
 70
     0
102
RTVSPropertyOp41
 70
     0
102
RTVSPropertyOp42
 70
     0
102
RTVSPropertyOp43
 70
     0
102
RTVSPropertyOp44
 70
     0
102
RTVSPropertyOp45
 70
     1
102
RTVSPropertyOp46
 70
     0
102
RTVSPropertyOp47
 70
     0
102
RTVSPropertyOp48
 70
     0
102
RTVSPropertyOp49
 70
     1
102
RTVSPropertyOp50
 70
     0
102
RTVSPropertyOp51
 70
     0
102
RTVSPropertyOp52
 70
     0
102
RTVSPropertyOp53
 70
     0
102
RTVSPropertyOp54
 70
     0
102
RTVSPropertyOp55
 70
     1
102
RTVSPropertyOp56
 70
     0
102
RTVSPropertyOp57
 70
     0
102
RTVSPropertyOp58
 70
     0
102
RTVSPropertyOp59
 70
     0
102
RTVSPropertyOp60
 70
     0
102
RTVSPropertyOp61
 70
     0
102
RTVSPropertyOp62
 70
     0
  0
XRECORD
  5
A791
102
{ACAD_REACTORS
330
A790
102
}
330
A790
100
AcDbXrecord
280
     1
102
RTVSPost2010Prop28
280
     0
102
RTVSPost2010PropOp28
 70
     1
102
RTVSPost2010Prop29
280
     1
102
RTVSPost2010PropOp29
 70
     1
102
RTVSPost2010Prop30
280
     1
102
RTVSPost2010PropOp30
 70
     1
102
RTVSPost2010Prop31
280
     0
102
RTVSPost2010PropOp31
 70
     1
102
RTVSPost2010Prop32
280
     0
102
RTVSPost2010PropOp32
 70
     1
102
RTVSPost2010Prop33
280
     0
102
RTVSPost2010PropOp33
 70
     1
102
RTVSPost2010Prop34
280
     0
102
RTVSPost2010PropOp34
 70
     1
102
RTVSPost2010Prop35
280
     0
102
RTVSPost2010PropOp35
 70
     1
102
RTVSPost2010Prop36
280
     0
102
RTVSPost2010PropOp36
 70
     1
102
RTVSPost2010Prop37
 90
       50
102
RTVSPost2010PropOp37
 70
     1
102
RTVSPost2010Prop38
140
0.0
102
RTVSPost2010PropOp38
 70
     1
102
RTVSPost2010Prop39
140
1.0
102
RTVSPost2010PropOp39
 70
     1
102
RTVSPost2010Prop40
 90
        0
102
RTVSPost2010PropOp40
 70
     1
102
RTVSPost2010Prop41ColorIndex
 90
       18
102
RTVSPost2010Prop41ColorRGB
 90
        0
102
RTVSPost2010PropOp41
 70
     1
102
RTVSPost2010Prop42
 90
       50
102
RTVSPost2010PropOp42
 70
     1
102
RTVSPost2010Prop43
 90
        3
102
RTVSPost2010PropOp43
 70
     1
102
RTVSPost2010Prop44ColorIndex
 90
        5
102
RTVSPost2010Prop44ColorRGB
 90
      255
102
RTVSPost2010PropOp44
 70
     1
102
RTVSPost2010Prop45
280
     0
102
RTVSPost2010PropOp45
 70
     1
102
RTVSPost2010Prop46
 90
       50
102
RTVSPost2010PropOp46
 70
     1
102
RTVSPost2010Prop47
 90
       50
102
RTVSPost2010PropOp47
 70
     1
102
RTVSPost2010Prop48
 90
       50
102
RTVSPost2010PropOp48
 70
     1
102
RTVSPost2010Prop49
280
     0
102
RTVSPost2010PropOp49
 70
     1
102
RTVSPost2010Prop50
 90
       50
102
RTVSPost2010PropOp50
 70
     1
102
RTVSPost2010Prop51ColorIndex
 90
      256
102
RTVSPost2010Prop51ColorRGB
 90
-16777216
102
RTVSPost2010PropOp51
 70
     0
102
RTVSPost2010Prop52
140
1.0
102
RTVSPost2010PropOp52
 70
     0
102
RTVSPost2010Prop53
 90
        2
102
RTVSPost2010PropOp53
 70
     1
102
RTVSPost2010Prop54
  1
strokes_ogs.tif
102
RTVSPost2010PropOp54
 70
     1
102
RTVSPost2010Prop55
280
     0
102
RTVSPost2010PropOp55
 70
     1
102
RTVSPost2010Prop56
140
1.0
102
RTVSPost2010PropOp56
 70
     1
102
RTVSPost2010Prop57
140
1.0
102
RTVSPost2010PropOp57
 70
     1
102
RTVSPropertyOp0
 70
     1
102
RTVSPropertyOp1
 70
     1
102
RTVSPropertyOp2
 70
     1
102
RTVSPropertyOp3
 70
     1
102
RTVSPropertyOp4
 70
     1
102
RTVSPropertyOp5
 70
     1
102
RTVSPropertyOp6
 70
     1
102
RTVSPropertyOp7
 70
     1
102
RTVSPropertyOp8
 70
     1
102
RTVSPropertyOp9
 70
     1
102
RTVSPropertyOp10
 70
     1
102
RTVSPropertyOp11
 70
     1
102
RTVSPropertyOp12
 70
     1
102
RTVSPropertyOp13
 70
     1
102
RTVSPropertyOp14
 70
     1
102
RTVSPropertyOp15
 70
     1
102
RTVSPropertyOp16
 70
     1
102
RTVSPropertyOp17
 70
     1
102
RTVSPropertyOp18
 70
     1
102
RTVSPropertyOp19
 70
     1
102
RTVSPropertyOp20
 70
     1
102
RTVSPropertyOp21
 70
     1
102
RTVSPropertyOp22
 70
     1
102
RTVSPropertyOp23
 70
     1
102
RTVSPropertyOp24
 70
     1
102
RTVSPropertyOp25
 70
     1
102
RTVSPropertyOp26
 70
     1
102
RTVSPropertyOp27
 70
     1
102
RTVSPropertyOp28
 70
     1
102
RTVSPropertyOp29
 70
     1
102
RTVSPropertyOp30
 70
     1
102
RTVSPropertyOp31
 70
     1
102
RTVSPropertyOp32
 70
     1
102
RTVSPropertyOp33
 70
     1
102
RTVSPropertyOp34
 70
     1
102
RTVSPropertyOp35
 70
     1
102
RTVSPropertyOp36
 70
     1
102
RTVSPropertyOp37
 70
     1
102
RTVSPropertyOp38
 70
     1
102
RTVSPropertyOp39
 70
     1
102
RTVSPropertyOp40
 70
     1
102
RTVSPropertyOp41
 70
     1
102
RTVSPropertyOp42
 70
     1
102
RTVSPropertyOp43
 70
     1
102
RTVSPropertyOp44
 70
     1
102
RTVSPropertyOp45
 70
     1
102
RTVSPropertyOp46
 70
     1
102
RTVSPropertyOp47
 70
     1
102
RTVSPropertyOp48
 70
     1
102
RTVSPropertyOp49
 70
     1
102
RTVSPropertyOp50
 70
     1
102
RTVSPropertyOp51
 70
     0
102
RTVSPropertyOp52
 70
     0
102
RTVSPropertyOp53
 70
     1
102
RTVSPropertyOp54
 70
     1
102
RTVSPropertyOp55
 70
     1
102
RTVSPropertyOp56
 70
     1
102
RTVSPropertyOp57
 70
     1
102
RTVSPropertyOp58
 70
     1
102
RTVSPropertyOp59
 70
     1
102
RTVSPropertyOp60
 70
     1
102
RTVSPropertyOp61
 70
     1
102
RTVSPropertyOp62
 70
     1
  0
XRECORD
  5
A775
102
{ACAD_REACTORS
330
A774
102
}
330
A774
100
AcDbXrecord
280
     1
102
RTVSPost2010Prop28
280
     0
102
RTVSPost2010PropOp28
 70
     1
102
RTVSPost2010Prop29
280
     1
102
RTVSPost2010PropOp29
 70
     1
102
RTVSPost2010Prop30
280
     1
102
RTVSPost2010PropOp30
 70
     1
102
RTVSPost2010Prop31
280
     0
102
RTVSPost2010PropOp31
 70
     1
102
RTVSPost2010Prop32
280
     0
102
RTVSPost2010PropOp32
 70
     1
102
RTVSPost2010Prop33
280
     0
102
RTVSPost2010PropOp33
 70
     1
102
RTVSPost2010Prop34
280
     0
102
RTVSPost2010PropOp34
 70
     1
102
RTVSPost2010Prop35
280
     0
102
RTVSPost2010PropOp35
 70
     1
102
RTVSPost2010Prop36
280
     0
102
RTVSPost2010PropOp36
 70
     1
102
RTVSPost2010Prop37
 90
       50
102
RTVSPost2010PropOp37
 70
     1
102
RTVSPost2010Prop38
140
0.0
102
RTVSPost2010PropOp38
 70
     1
102
RTVSPost2010Prop39
140
1.0
102
RTVSPost2010PropOp39
 70
     1
102
RTVSPost2010Prop40
 90
        0
102
RTVSPost2010PropOp40
 70
     1
102
RTVSPost2010Prop41ColorIndex
 90
       18
102
RTVSPost2010Prop41ColorRGB
 90
        0
102
RTVSPost2010PropOp41
 70
     1
102
RTVSPost2010Prop42
 90
       50
102
RTVSPost2010PropOp42
 70
     1
102
RTVSPost2010Prop43
 90
        3
102
RTVSPost2010PropOp43
 70
     1
102
RTVSPost2010Prop44ColorIndex
 90
        5
102
RTVSPost2010Prop44ColorRGB
 90
      255
102
RTVSPost2010PropOp44
 70
     1
102
RTVSPost2010Prop45
280
     0
102
RTVSPost2010PropOp45
 70
     1
102
RTVSPost2010Prop46
 90
       50
102
RTVSPost2010PropOp46
 70
     1
102
RTVSPost2010Prop47
 90
       50
102
RTVSPost2010PropOp47
 70
     1
102
RTVSPost2010Prop48
 90
       50
102
RTVSPost2010PropOp48
 70
     1
102
RTVSPost2010Prop49
280
     0
102
RTVSPost2010PropOp49
 70
     1
102
RTVSPost2010Prop50
 90
       50
102
RTVSPost2010PropOp50
 70
     1
102
RTVSPost2010Prop51ColorIndex
 90
      256
102
RTVSPost2010Prop51ColorRGB
 90
-16777216
102
RTVSPost2010PropOp51
 70
     0
102
RTVSPost2010Prop52
140
1.0
102
RTVSPost2010PropOp52
 70
     0
102
RTVSPost2010Prop53
 90
        2
102
RTVSPost2010PropOp53
 70
     1
102
RTVSPost2010Prop54
  1
strokes_ogs.tif
102
RTVSPost2010PropOp54
 70
     1
102
RTVSPost2010Prop55
280
     0
102
RTVSPost2010PropOp55
 70
     1
102
RTVSPost2010Prop56
140
1.0
102
RTVSPost2010PropOp56
 70
     1
102
RTVSPost2010Prop57
140
1.0
102
RTVSPost2010PropOp57
 70
     1
102
RTVSPropertyOp0
 70
     1
102
RTVSPropertyOp1
 70
     1
102
RTVSPropertyOp2
 70
     1
102
RTVSPropertyOp3
 70
     1
102
RTVSPropertyOp4
 70
     1
102
RTVSPropertyOp5
 70
     1
102
RTVSPropertyOp6
 70
     1
102
RTVSPropertyOp7
 70
     1
102
RTVSPropertyOp8
 70
     1
102
RTVSPropertyOp9
 70
     1
102
RTVSPropertyOp10
 70
     1
102
RTVSPropertyOp11
 70
     1
102
RTVSPropertyOp12
 70
     1
102
RTVSPropertyOp13
 70
     1
102
RTVSPropertyOp14
 70
     1
102
RTVSPropertyOp15
 70
     1
102
RTVSPropertyOp16
 70
     1
102
RTVSPropertyOp17
 70
     1
102
RTVSPropertyOp18
 70
     1
102
RTVSPropertyOp19
 70
     1
102
RTVSPropertyOp20
 70
     1
102
RTVSPropertyOp21
 70
     1
102
RTVSPropertyOp22
 70
     1
102
RTVSPropertyOp23
 70
     1
102
RTVSPropertyOp24
 70
     1
102
RTVSPropertyOp25
 70
     1
102
RTVSPropertyOp26
 70
     1
102
RTVSPropertyOp27
 70
     1
102
RTVSPropertyOp28
 70
     1
102
RTVSPropertyOp29
 70
     1
102
RTVSPropertyOp30
 70
     1
102
RTVSPropertyOp31
 70
     1
102
RTVSPropertyOp32
 70
     1
102
RTVSPropertyOp33
 70
     1
102
RTVSPropertyOp34
 70
     1
102
RTVSPropertyOp35
 70
     1
102
RTVSPropertyOp36
 70
     1
102
RTVSPropertyOp37
 70
     1
102
RTVSPropertyOp38
 70
     1
102
RTVSPropertyOp39
 70
     1
102
RTVSPropertyOp40
 70
     1
102
RTVSPropertyOp41
 70
     1
102
RTVSPropertyOp42
 70
     1
102
RTVSPropertyOp43
 70
     1
102
RTVSPropertyOp44
 70
     1
102
RTVSPropertyOp45
 70
     1
102
RTVSPropertyOp46
 70
     1
102
RTVSPropertyOp47
 70
     1
102
RTVSPropertyOp48
 70
     1
102
RTVSPropertyOp49
 70
     1
102
RTVSPropertyOp50
 70
     1
102
RTVSPropertyOp51
 70
     0
102
RTVSPropertyOp52
 70
     0
102
RTVSPropertyOp53
 70
     1
102
RTVSPropertyOp54
 70
     1
102
RTVSPropertyOp55
 70
     1
102
RTVSPropertyOp56
 70
     1
102
RTVSPropertyOp57
 70
     1
102
RTVSPropertyOp58
 70
     1
102
RTVSPropertyOp59
 70
     1
102
RTVSPropertyOp60
 70
     1
102
RTVSPropertyOp61
 70
     1
102
RTVSPropertyOp62
 70
     1
  0
XRECORD
  5
A777
102
{ACAD_REACTORS
330
A776
102
}
330
A776
100
AcDbXrecord
280
     1
102
RTVSPost2010Prop28
280
     0
102
RTVSPost2010PropOp28
 70
     1
102
RTVSPost2010Prop29
280
     1
102
RTVSPost2010PropOp29
 70
     1
102
RTVSPost2010Prop30
280
     1
102
RTVSPost2010PropOp30
 70
     1
102
RTVSPost2010Prop31
280
     0
102
RTVSPost2010PropOp31
 70
     1
102
RTVSPost2010Prop32
280
     0
102
RTVSPost2010PropOp32
 70
     1
102
RTVSPost2010Prop33
280
     0
102
RTVSPost2010PropOp33
 70
     1
102
RTVSPost2010Prop34
280
     0
102
RTVSPost2010PropOp34
 70
     1
102
RTVSPost2010Prop35
280
     0
102
RTVSPost2010PropOp35
 70
     1
102
RTVSPost2010Prop36
280
     0
102
RTVSPost2010PropOp36
 70
     1
102
RTVSPost2010Prop37
 90
       50
102
RTVSPost2010PropOp37
 70
     1
102
RTVSPost2010Prop38
140
0.0
102
RTVSPost2010PropOp38
 70
     1
102
RTVSPost2010Prop39
140
1.0
102
RTVSPost2010PropOp39
 70
     1
102
RTVSPost2010Prop40
 90
        0
102
RTVSPost2010PropOp40
 70
     1
102
RTVSPost2010Prop41ColorIndex
 90
       18
102
RTVSPost2010Prop41ColorRGB
 90
        0
102
RTVSPost2010PropOp41
 70
     1
102
RTVSPost2010Prop42
 90
       50
102
RTVSPost2010PropOp42
 70
     1
102
RTVSPost2010Prop43
 90
        3
102
RTVSPost2010PropOp43
 70
     1
102
RTVSPost2010Prop44ColorIndex
 90
        5
102
RTVSPost2010Prop44ColorRGB
 90
      255
102
RTVSPost2010PropOp44
 70
     1
102
RTVSPost2010Prop45
280
     0
102
RTVSPost2010PropOp45
 70
     1
102
RTVSPost2010Prop46
 90
       50
102
RTVSPost2010PropOp46
 70
     1
102
RTVSPost2010Prop47
 90
       50
102
RTVSPost2010PropOp47
 70
     1
102
RTVSPost2010Prop48
 90
       50
102
RTVSPost2010PropOp48
 70
     1
102
RTVSPost2010Prop49
280
     0
102
RTVSPost2010PropOp49
 70
     1
102
RTVSPost2010Prop50
 90
       50
102
RTVSPost2010PropOp50
 70
     1
102
RTVSPost2010Prop51ColorIndex
 90
      256
102
RTVSPost2010Prop51ColorRGB
 90
-16777216
102
RTVSPost2010PropOp51
 70
     0
102
RTVSPost2010Prop52
140
1.0
102
RTVSPost2010PropOp52
 70
     0
102
RTVSPost2010Prop53
 90
        2
102
RTVSPost2010PropOp53
 70
     1
102
RTVSPost2010Prop54
  1
strokes_ogs.tif
102
RTVSPost2010PropOp54
 70
     1
102
RTVSPost2010Prop55
280
     0
102
RTVSPost2010PropOp55
 70
     1
102
RTVSPost2010Prop56
140
1.0
102
RTVSPost2010PropOp56
 70
     1
102
RTVSPost2010Prop57
140
1.0
102
RTVSPost2010PropOp57
 70
     1
102
RTVSPropertyOp0
 70
     1
102
RTVSPropertyOp1
 70
     1
102
RTVSPropertyOp2
 70
     1
102
RTVSPropertyOp3
 70
     1
102
RTVSPropertyOp4
 70
     1
102
RTVSPropertyOp5
 70
     1
102
RTVSPropertyOp6
 70
     1
102
RTVSPropertyOp7
 70
     1
102
RTVSPropertyOp8
 70
     1
102
RTVSPropertyOp9
 70
     1
102
RTVSPropertyOp10
 70
     1
102
RTVSPropertyOp11
 70
     1
102
RTVSPropertyOp12
 70
     1
102
RTVSPropertyOp13
 70
     1
102
RTVSPropertyOp14
 70
     1
102
RTVSPropertyOp15
 70
     1
102
RTVSPropertyOp16
 70
     1
102
RTVSPropertyOp17
 70
     1
102
RTVSPropertyOp18
 70
     1
102
RTVSPropertyOp19
 70
     1
102
RTVSPropertyOp20
 70
     1
102
RTVSPropertyOp21
 70
     1
102
RTVSPropertyOp22
 70
     1
102
RTVSPropertyOp23
 70
     1
102
RTVSPropertyOp24
 70
     1
102
RTVSPropertyOp25
 70
     1
102
RTVSPropertyOp26
 70
     1
102
RTVSPropertyOp27
 70
     1
102
RTVSPropertyOp28
 70
     1
102
RTVSPropertyOp29
 70
     1
102
RTVSPropertyOp30
 70
     1
102
RTVSPropertyOp31
 70
     1
102
RTVSPropertyOp32
 70
     1
102
RTVSPropertyOp33
 70
     1
102
RTVSPropertyOp34
 70
     1
102
RTVSPropertyOp35
 70
     1
102
RTVSPropertyOp36
 70
     1
102
RTVSPropertyOp37
 70
     1
102
RTVSPropertyOp38
 70
     1
102
RTVSPropertyOp39
 70
     1
102
RTVSPropertyOp40
 70
     1
102
RTVSPropertyOp41
 70
     1
102
RTVSPropertyOp42
 70
     1
102
RTVSPropertyOp43
 70
     1
102
RTVSPropertyOp44
 70
     1
102
RTVSPropertyOp45
 70
     1
102
RTVSPropertyOp46
 70
     1
102
RTVSPropertyOp47
 70
     1
102
RTVSPropertyOp48
 70
     1
102
RTVSPropertyOp49
 70
     1
102
RTVSPropertyOp50
 70
     1
102
RTVSPropertyOp51
 70
     0
102
RTVSPropertyOp52
 70
     0
102
RTVSPropertyOp53
 70
     1
102
RTVSPropertyOp54
 70
     1
102
RTVSPropertyOp55
 70
     1
102
RTVSPropertyOp56
 70
     1
102
RTVSPropertyOp57
 70
     1
102
RTVSPropertyOp58
 70
     1
102
RTVSPropertyOp59
 70
     1
102
RTVSPropertyOp60
 70
     1
102
RTVSPropertyOp61
 70
     1
102
RTVSPropertyOp62
 70
     1
  0
XRECORD
  5
A779
102
{ACAD_REACTORS
330
A778
102
}
330
A778
100
AcDbXrecord
280
     1
102
RTVSPost2010Prop28
280
     0
102
RTVSPost2010PropOp28
 70
     1
102
RTVSPost2010Prop29
280
     1
102
RTVSPost2010PropOp29
 70
     1
102
RTVSPost2010Prop30
280
     1
102
RTVSPost2010PropOp30
 70
     1
102
RTVSPost2010Prop31
280
     0
102
RTVSPost2010PropOp31
 70
     1
102
RTVSPost2010Prop32
280
     0
102
RTVSPost2010PropOp32
 70
     1
102
RTVSPost2010Prop33
280
     0
102
RTVSPost2010PropOp33
 70
     1
102
RTVSPost2010Prop34
280
     0
102
RTVSPost2010PropOp34
 70
     1
102
RTVSPost2010Prop35
280
     0
102
RTVSPost2010PropOp35
 70
     1
102
RTVSPost2010Prop36
280
     0
102
RTVSPost2010PropOp36
 70
     1
102
RTVSPost2010Prop37
 90
       50
102
RTVSPost2010PropOp37
 70
     1
102
RTVSPost2010Prop38
140
0.0
102
RTVSPost2010PropOp38
 70
     1
102
RTVSPost2010Prop39
140
1.0
102
RTVSPost2010PropOp39
 70
     1
102
RTVSPost2010Prop40
 90
        0
102
RTVSPost2010PropOp40
 70
     1
102
RTVSPost2010Prop41ColorIndex
 90
       18
102
RTVSPost2010Prop41ColorRGB
 90
        0
102
RTVSPost2010PropOp41
 70
     1
102
RTVSPost2010Prop42
 90
       50
102
RTVSPost2010PropOp42
 70
     1
102
RTVSPost2010Prop43
 90
        3
102
RTVSPost2010PropOp43
 70
     1
102
RTVSPost2010Prop44ColorIndex
 90
        5
102
RTVSPost2010Prop44ColorRGB
 90
      255
102
RTVSPost2010PropOp44
 70
     1
102
RTVSPost2010Prop45
280
     0
102
RTVSPost2010PropOp45
 70
     1
102
RTVSPost2010Prop46
 90
       50
102
RTVSPost2010PropOp46
 70
     1
102
RTVSPost2010Prop47
 90
       50
102
RTVSPost2010PropOp47
 70
     1
102
RTVSPost2010Prop48
 90
       50
102
RTVSPost2010PropOp48
 70
     1
102
RTVSPost2010Prop49
280
     0
102
RTVSPost2010PropOp49
 70
     1
102
RTVSPost2010Prop50
 90
       50
102
RTVSPost2010PropOp50
 70
     1
102
RTVSPost2010Prop51ColorIndex
 90
      256
102
RTVSPost2010Prop51ColorRGB
 90
-16777216
102
RTVSPost2010PropOp51
 70
     0
102
RTVSPost2010Prop52
140
1.0
102
RTVSPost2010PropOp52
 70
     0
102
RTVSPost2010Prop53
 90
        2
102
RTVSPost2010PropOp53
 70
     1
102
RTVSPost2010Prop54
  1
strokes_ogs.tif
102
RTVSPost2010PropOp54
 70
     1
102
RTVSPost2010Prop55
280
     0
102
RTVSPost2010PropOp55
 70
     1
102
RTVSPost2010Prop56
140
1.0
102
RTVSPost2010PropOp56
 70
     1
102
RTVSPost2010Prop57
140
1.0
102
RTVSPost2010PropOp57
 70
     1
102
RTVSPropertyOp0
 70
     1
102
RTVSPropertyOp1
 70
     1
102
RTVSPropertyOp2
 70
     1
102
RTVSPropertyOp3
 70
     1
102
RTVSPropertyOp4
 70
     1
102
RTVSPropertyOp5
 70
     1
102
RTVSPropertyOp6
 70
     1
102
RTVSPropertyOp7
 70
     1
102
RTVSPropertyOp8
 70
     1
102
RTVSPropertyOp9
 70
     1
102
RTVSPropertyOp10
 70
     1
102
RTVSPropertyOp11
 70
     1
102
RTVSPropertyOp12
 70
     1
102
RTVSPropertyOp13
 70
     1
102
RTVSPropertyOp14
 70
     1
102
RTVSPropertyOp15
 70
     1
102
RTVSPropertyOp16
 70
     1
102
RTVSPropertyOp17
 70
     1
102
RTVSPropertyOp18
 70
     1
102
RTVSPropertyOp19
 70
     1
102
RTVSPropertyOp20
 70
     1
102
RTVSPropertyOp21
 70
     1
102
RTVSPropertyOp22
 70
     1
102
RTVSPropertyOp23
 70
     1
102
RTVSPropertyOp24
 70
     1
102
RTVSPropertyOp25
 70
     1
102
RTVSPropertyOp26
 70
     1
102
RTVSPropertyOp27
 70
     1
102
RTVSPropertyOp28
 70
     1
102
RTVSPropertyOp29
 70
     1
102
RTVSPropertyOp30
 70
     1
102
RTVSPropertyOp31
 70
     1
102
RTVSPropertyOp32
 70
     1
102
RTVSPropertyOp33
 70
     1
102
RTVSPropertyOp34
 70
     1
102
RTVSPropertyOp35
 70
     1
102
RTVSPropertyOp36
 70
     1
102
RTVSPropertyOp37
 70
     1
102
RTVSPropertyOp38
 70
     1
102
RTVSPropertyOp39
 70
     1
102
RTVSPropertyOp40
 70
     1
102
RTVSPropertyOp41
 70
     1
102
RTVSPropertyOp42
 70
     1
102
RTVSPropertyOp43
 70
     1
102
RTVSPropertyOp44
 70
     1
102
RTVSPropertyOp45
 70
     1
102
RTVSPropertyOp46
 70
     1
102
RTVSPropertyOp47
 70
     1
102
RTVSPropertyOp48
 70
     1
102
RTVSPropertyOp49
 70
     1
102
RTVSPropertyOp50
 70
     1
102
RTVSPropertyOp51
 70
     0
102
RTVSPropertyOp52
 70
     0
102
RTVSPropertyOp53
 70
     1
102
RTVSPropertyOp54
 70
     1
102
RTVSPropertyOp55
 70
     1
102
RTVSPropertyOp56
 70
     1
102
RTVSPropertyOp57
 70
     1
102
RTVSPropertyOp58
 70
     1
102
RTVSPropertyOp59
 70
     1
102
RTVSPropertyOp60
 70
     1
102
RTVSPropertyOp61
 70
     1
102
RTVSPropertyOp62
 70
     1
  0
XRECORD
  5
A77B
102
{ACAD_REACTORS
330
A77A
102
}
330
A77A
100
AcDbXrecord
280
     1
102
RTVSPost2010Prop28
280
     0
102
RTVSPost2010PropOp28
 70
     1
102
RTVSPost2010Prop29
280
     1
102
RTVSPost2010PropOp29
 70
     1
102
RTVSPost2010Prop30
280
     1
102
RTVSPost2010PropOp30
 70
     1
102
RTVSPost2010Prop31
280
     0
102
RTVSPost2010PropOp31
 70
     1
102
RTVSPost2010Prop32
280
     0
102
RTVSPost2010PropOp32
 70
     1
102
RTVSPost2010Prop33
280
     0
102
RTVSPost2010PropOp33
 70
     1
102
RTVSPost2010Prop34
280
     0
102
RTVSPost2010PropOp34
 70
     1
102
RTVSPost2010Prop35
280
     0
102
RTVSPost2010PropOp35
 70
     1
102
RTVSPost2010Prop36
280
     0
102
RTVSPost2010PropOp36
 70
     1
102
RTVSPost2010Prop37
 90
       50
102
RTVSPost2010PropOp37
 70
     1
102
RTVSPost2010Prop38
140
0.0
102
RTVSPost2010PropOp38
 70
     1
102
RTVSPost2010Prop39
140
1.0
102
RTVSPost2010PropOp39
 70
     1
102
RTVSPost2010Prop40
 90
        0
102
RTVSPost2010PropOp40
 70
     1
102
RTVSPost2010Prop41ColorIndex
 90
       18
102
RTVSPost2010Prop41ColorRGB
 90
        0
102
RTVSPost2010PropOp41
 70
     1
102
RTVSPost2010Prop42
 90
       50
102
RTVSPost2010PropOp42
 70
     1
102
RTVSPost2010Prop43
 90
        3
102
RTVSPost2010PropOp43
 70
     1
102
RTVSPost2010Prop44ColorIndex
 90
        5
102
RTVSPost2010Prop44ColorRGB
 90
      255
102
RTVSPost2010PropOp44
 70
     1
102
RTVSPost2010Prop45
280
     0
102
RTVSPost2010PropOp45
 70
     1
102
RTVSPost2010Prop46
 90
       50
102
RTVSPost2010PropOp46
 70
     1
102
RTVSPost2010Prop47
 90
       50
102
RTVSPost2010PropOp47
 70
     1
102
RTVSPost2010Prop48
 90
       50
102
RTVSPost2010PropOp48
 70
     1
102
RTVSPost2010Prop49
280
     0
102
RTVSPost2010PropOp49
 70
     1
102
RTVSPost2010Prop50
 90
       50
102
RTVSPost2010PropOp50
 70
     1
102
RTVSPost2010Prop51ColorIndex
 90
      256
102
RTVSPost2010Prop51ColorRGB
 90
-16777216
102
RTVSPost2010PropOp51
 70
     0
102
RTVSPost2010Prop52
140
1.0
102
RTVSPost2010PropOp52
 70
     0
102
RTVSPost2010Prop53
 90
        2
102
RTVSPost2010PropOp53
 70
     1
102
RTVSPost2010Prop54
  1
strokes_ogs.tif
102
RTVSPost2010PropOp54
 70
     1
102
RTVSPost2010Prop55
280
     0
102
RTVSPost2010PropOp55
 70
     1
102
RTVSPost2010Prop56
140
1.0
102
RTVSPost2010PropOp56
 70
     1
102
RTVSPost2010Prop57
140
1.0
102
RTVSPost2010PropOp57
 70
     1
102
RTVSPropertyOp0
 70
     1
102
RTVSPropertyOp1
 70
     1
102
RTVSPropertyOp2
 70
     1
102
RTVSPropertyOp3
 70
     1
102
RTVSPropertyOp4
 70
     1
102
RTVSPropertyOp5
 70
     1
102
RTVSPropertyOp6
 70
     1
102
RTVSPropertyOp7
 70
     1
102
RTVSPropertyOp8
 70
     1
102
RTVSPropertyOp9
 70
     1
102
RTVSPropertyOp10
 70
     1
102
RTVSPropertyOp11
 70
     1
102
RTVSPropertyOp12
 70
     1
102
RTVSPropertyOp13
 70
     1
102
RTVSPropertyOp14
 70
     1
102
RTVSPropertyOp15
 70
     1
102
RTVSPropertyOp16
 70
     1
102
RTVSPropertyOp17
 70
     1
102
RTVSPropertyOp18
 70
     1
102
RTVSPropertyOp19
 70
     1
102
RTVSPropertyOp20
 70
     1
102
RTVSPropertyOp21
 70
     1
102
RTVSPropertyOp22
 70
     1
102
RTVSPropertyOp23
 70
     1
102
RTVSPropertyOp24
 70
     1
102
RTVSPropertyOp25
 70
     1
102
RTVSPropertyOp26
 70
     1
102
RTVSPropertyOp27
 70
     1
102
RTVSPropertyOp28
 70
     1
102
RTVSPropertyOp29
 70
     1
102
RTVSPropertyOp30
 70
     1
102
RTVSPropertyOp31
 70
     1
102
RTVSPropertyOp32
 70
     1
102
RTVSPropertyOp33
 70
     1
102
RTVSPropertyOp34
 70
     1
102
RTVSPropertyOp35
 70
     1
102
RTVSPropertyOp36
 70
     1
102
RTVSPropertyOp37
 70
     1
102
RTVSPropertyOp38
 70
     1
102
RTVSPropertyOp39
 70
     1
102
RTVSPropertyOp40
 70
     1
102
RTVSPropertyOp41
 70
     1
102
RTVSPropertyOp42
 70
     1
102
RTVSPropertyOp43
 70
     1
102
RTVSPropertyOp44
 70
     1
102
RTVSPropertyOp45
 70
     1
102
RTVSPropertyOp46
 70
     1
102
RTVSPropertyOp47
 70
     1
102
RTVSPropertyOp48
 70
     1
102
RTVSPropertyOp49
 70
     1
102
RTVSPropertyOp50
 70
     1
102
RTVSPropertyOp51
 70
     0
102
RTVSPropertyOp52
 70
     0
102
RTVSPropertyOp53
 70
     1
102
RTVSPropertyOp54
 70
     1
102
RTVSPropertyOp55
 70
     1
102
RTVSPropertyOp56
 70
     1
102
RTVSPropertyOp57
 70
     1
102
RTVSPropertyOp58
 70
     1
102
RTVSPropertyOp59
 70
     1
102
RTVSPropertyOp60
 70
     1
102
RTVSPropertyOp61
 70
     1
102
RTVSPropertyOp62
 70
     1
  0
XRECORD
  5
A783
102
{ACAD_REACTORS
330
A782
102
}
330
A782
100
AcDbXrecord
280
     1
102
RTVSPost2010Prop28
280
     0
102
RTVSPost2010PropOp28
 70
     1
102
RTVSPost2010Prop29
280
     1
102
RTVSPost2010PropOp29
 70
     1
102
RTVSPost2010Prop30
280
     1
102
RTVSPost2010PropOp30
 70
     1
102
RTVSPost2010Prop31
280
     0
102
RTVSPost2010PropOp31
 70
     1
102
RTVSPost2010Prop32
280
     0
102
RTVSPost2010PropOp32
 70
     1
102
RTVSPost2010Prop33
280
     0
102
RTVSPost2010PropOp33
 70
     1
102
RTVSPost2010Prop34
280
     0
102
RTVSPost2010PropOp34
 70
     1
102
RTVSPost2010Prop35
280
     0
102
RTVSPost2010PropOp35
 70
     1
102
RTVSPost2010Prop36
280
     0
102
RTVSPost2010PropOp36
 70
     1
102
RTVSPost2010Prop37
 90
       50
102
RTVSPost2010PropOp37
 70
     1
102
RTVSPost2010Prop38
140
0.0
102
RTVSPost2010PropOp38
 70
     1
102
RTVSPost2010Prop39
140
1.0
102
RTVSPost2010PropOp39
 70
     1
102
RTVSPost2010Prop40
 90
        0
102
RTVSPost2010PropOp40
 70
     1
102
RTVSPost2010Prop41ColorIndex
 90
       18
102
RTVSPost2010Prop41ColorRGB
 90
        0
102
RTVSPost2010PropOp41
 70
     1
102
RTVSPost2010Prop42
 90
       50
102
RTVSPost2010PropOp42
 70
     1
102
RTVSPost2010Prop43
 90
        3
102
RTVSPost2010PropOp43
 70
     1
102
RTVSPost2010Prop44ColorIndex
 90
        5
102
RTVSPost2010Prop44ColorRGB
 90
      255
102
RTVSPost2010PropOp44
 70
     1
102
RTVSPost2010Prop45
280
     0
102
RTVSPost2010PropOp45
 70
     1
102
RTVSPost2010Prop46
 90
       50
102
RTVSPost2010PropOp46
 70
     1
102
RTVSPost2010Prop47
 90
       50
102
RTVSPost2010PropOp47
 70
     1
102
RTVSPost2010Prop48
 90
       50
102
RTVSPost2010PropOp48
 70
     1
102
RTVSPost2010Prop49
280
     0
102
RTVSPost2010PropOp49
 70
     1
102
RTVSPost2010Prop50
 90
       50
102
RTVSPost2010PropOp50
 70
     1
102
RTVSPost2010Prop51ColorIndex
 90
      256
102
RTVSPost2010Prop51ColorRGB
 90
-16777216
102
RTVSPost2010PropOp51
 70
     0
102
RTVSPost2010Prop52
140
1.0
102
RTVSPost2010PropOp52
 70
     0
102
RTVSPost2010Prop53
 90
        2
102
RTVSPost2010PropOp53
 70
     1
102
RTVSPost2010Prop54
  1
strokes_ogs.tif
102
RTVSPost2010PropOp54
 70
     1
102
RTVSPost2010Prop55
280
     0
102
RTVSPost2010PropOp55
 70
     1
102
RTVSPost2010Prop56
140
1.0
102
RTVSPost2010PropOp56
 70
     1
102
RTVSPost2010Prop57
140
1.0
102
RTVSPost2010PropOp57
 70
     1
102
RTVSPropertyOp0
 70
     1
102
RTVSPropertyOp1
 70
     1
102
RTVSPropertyOp2
 70
     1
102
RTVSPropertyOp3
 70
     1
102
RTVSPropertyOp4
 70
     1
102
RTVSPropertyOp5
 70
     1
102
RTVSPropertyOp6
 70
     1
102
RTVSPropertyOp7
 70
     1
102
RTVSPropertyOp8
 70
     1
102
RTVSPropertyOp9
 70
     1
102
RTVSPropertyOp10
 70
     1
102
RTVSPropertyOp11
 70
     1
102
RTVSPropertyOp12
 70
     1
102
RTVSPropertyOp13
 70
     1
102
RTVSPropertyOp14
 70
     1
102
RTVSPropertyOp15
 70
     1
102
RTVSPropertyOp16
 70
     1
102
RTVSPropertyOp17
 70
     1
102
RTVSPropertyOp18
 70
     1
102
RTVSPropertyOp19
 70
     1
102
RTVSPropertyOp20
 70
     1
102
RTVSPropertyOp21
 70
     1
102
RTVSPropertyOp22
 70
     1
102
RTVSPropertyOp23
 70
     1
102
RTVSPropertyOp24
 70
     1
102
RTVSPropertyOp25
 70
     1
102
RTVSPropertyOp26
 70
     1
102
RTVSPropertyOp27
 70
     1
102
RTVSPropertyOp28
 70
     1
102
RTVSPropertyOp29
 70
     1
102
RTVSPropertyOp30
 70
     1
102
RTVSPropertyOp31
 70
     1
102
RTVSPropertyOp32
 70
     1
102
RTVSPropertyOp33
 70
     1
102
RTVSPropertyOp34
 70
     1
102
RTVSPropertyOp35
 70
     1
102
RTVSPropertyOp36
 70
     1
102
RTVSPropertyOp37
 70
     1
102
RTVSPropertyOp38
 70
     1
102
RTVSPropertyOp39
 70
     1
102
RTVSPropertyOp40
 70
     1
102
RTVSPropertyOp41
 70
     1
102
RTVSPropertyOp42
 70
     1
102
RTVSPropertyOp43
 70
     1
102
RTVSPropertyOp44
 70
     1
102
RTVSPropertyOp45
 70
     1
102
RTVSPropertyOp46
 70
     1
102
RTVSPropertyOp47
 70
     1
102
RTVSPropertyOp48
 70
     1
102
RTVSPropertyOp49
 70
     1
102
RTVSPropertyOp50
 70
     1
102
RTVSPropertyOp51
 70
     0
102
RTVSPropertyOp52
 70
     0
102
RTVSPropertyOp53
 70
     1
102
RTVSPropertyOp54
 70
     1
102
RTVSPropertyOp55
 70
     1
102
RTVSPropertyOp56
 70
     1
102
RTVSPropertyOp57
 70
     1
102
RTVSPropertyOp58
 70
     1
102
RTVSPropertyOp59
 70
     1
102
RTVSPropertyOp60
 70
     1
102
RTVSPropertyOp61
 70
     1
102
RTVSPropertyOp62
 70
     1
  0
XRECORD
  5
A79F
102
{ACAD_REACTORS
330
A79E
102
}
330
A79E
100
AcDbXrecord
280
     1
102
RTVSPost2010Prop28
280
     0
102
RTVSPost2010PropOp28
 70
     1
102
RTVSPost2010Prop29
280
     1
102
RTVSPost2010PropOp29
 70
     1
102
RTVSPost2010Prop30
280
     1
102
RTVSPost2010PropOp30
 70
     1
102
RTVSPost2010Prop31
280
     0
102
RTVSPost2010PropOp31
 70
     1
102
RTVSPost2010Prop32
280
     0
102
RTVSPost2010PropOp32
 70
     1
102
RTVSPost2010Prop33
280
     0
102
RTVSPost2010PropOp33
 70
     1
102
RTVSPost2010Prop34
280
     0
102
RTVSPost2010PropOp34
 70
     1
102
RTVSPost2010Prop35
280
     0
102
RTVSPost2010PropOp35
 70
     1
102
RTVSPost2010Prop36
280
     0
102
RTVSPost2010PropOp36
 70
     1
102
RTVSPost2010Prop37
 90
       50
102
RTVSPost2010PropOp37
 70
     0
102
RTVSPost2010Prop38
140
0.0
102
RTVSPost2010PropOp38
 70
     0
102
RTVSPost2010Prop39
140
1.0
102
RTVSPost2010PropOp39
 70
     0
102
RTVSPost2010Prop40
 90
        0
102
RTVSPost2010PropOp40
 70
     0
102
RTVSPost2010Prop41ColorIndex
 90
       18
102
RTVSPost2010Prop41ColorRGB
 90
        0
102
RTVSPost2010PropOp41
 70
     0
102
RTVSPost2010Prop42
 90
       50
102
RTVSPost2010PropOp42
 70
     0
102
RTVSPost2010Prop43
 90
        3
102
RTVSPost2010PropOp43
 70
     0
102
RTVSPost2010Prop44ColorIndex
 90
        5
102
RTVSPost2010Prop44ColorRGB
 90
      255
102
RTVSPost2010PropOp44
 70
     0
102
RTVSPost2010Prop45
280
     0
102
RTVSPost2010PropOp45
 70
     1
102
RTVSPost2010Prop46
 90
       50
102
RTVSPost2010PropOp46
 70
     0
102
RTVSPost2010Prop47
 90
       50
102
RTVSPost2010PropOp47
 70
     0
102
RTVSPost2010Prop48
 90
       50
102
RTVSPost2010PropOp48
 70
     0
102
RTVSPost2010Prop49
280
     0
102
RTVSPost2010PropOp49
 70
     1
102
RTVSPost2010Prop50
 90
       50
102
RTVSPost2010PropOp50
 70
     0
102
RTVSPost2010Prop51ColorIndex
 90
      256
102
RTVSPost2010Prop51ColorRGB
 90
-16777216
102
RTVSPost2010PropOp51
 70
     0
102
RTVSPost2010Prop52
140
1.0
102
RTVSPost2010PropOp52
 70
     0
102
RTVSPost2010Prop53
 90
        2
102
RTVSPost2010PropOp53
 70
     0
102
RTVSPost2010Prop54
  1
strokes_ogs.tif
102
RTVSPost2010PropOp54
 70
     0
102
RTVSPost2010Prop55
280
     0
102
RTVSPost2010PropOp55
 70
     1
102
RTVSPost2010Prop56
140
1.0
102
RTVSPost2010PropOp56
 70
     0
102
RTVSPost2010Prop57
140
1.0
102
RTVSPost2010PropOp57
 70
     0
102
RTVSPropertyOp0
 70
     0
102
RTVSPropertyOp1
 70
     0
102
RTVSPropertyOp2
 70
     0
102
RTVSPropertyOp3
 70
     0
102
RTVSPropertyOp4
 70
     0
102
RTVSPropertyOp5
 70
     0
102
RTVSPropertyOp6
 70
     0
102
RTVSPropertyOp7
 70
     0
102
RTVSPropertyOp8
 70
     0
102
RTVSPropertyOp9
 70
     0
102
RTVSPropertyOp10
 70
     0
102
RTVSPropertyOp11
 70
     0
102
RTVSPropertyOp12
 70
     0
102
RTVSPropertyOp13
 70
     0
102
RTVSPropertyOp14
 70
     2
102
RTVSPropertyOp15
 70
     0
102
RTVSPropertyOp16
 70
     0
102
RTVSPropertyOp17
 70
     0
102
RTVSPropertyOp18
 70
     0
102
RTVSPropertyOp19
 70
     0
102
RTVSPropertyOp20
 70
     0
102
RTVSPropertyOp21
 70
     0
102
RTVSPropertyOp22
 70
     0
102
RTVSPropertyOp23
 70
     0
102
RTVSPropertyOp24
 70
     0
102
RTVSPropertyOp25
 70
     0
102
RTVSPropertyOp26
 70
     0
102
RTVSPropertyOp27
 70
     0
102
RTVSPropertyOp28
 70
     1
102
RTVSPropertyOp29
 70
     1
102
RTVSPropertyOp30
 70
     1
102
RTVSPropertyOp31
 70
     1
102
RTVSPropertyOp32
 70
     1
102
RTVSPropertyOp33
 70
     1
102
RTVSPropertyOp34
 70
     1
102
RTVSPropertyOp35
 70
     1
102
RTVSPropertyOp36
 70
     1
102
RTVSPropertyOp37
 70
     0
102
RTVSPropertyOp38
 70
     0
102
RTVSPropertyOp39
 70
     0
102
RTVSPropertyOp40
 70
     0
102
RTVSPropertyOp41
 70
     0
102
RTVSPropertyOp42
 70
     0
102
RTVSPropertyOp43
 70
     0
102
RTVSPropertyOp44
 70
     0
102
RTVSPropertyOp45
 70
     1
102
RTVSPropertyOp46
 70
     0
102
RTVSPropertyOp47
 70
     0
102
RTVSPropertyOp48
 70
     0
102
RTVSPropertyOp49
 70
     1
102
RTVSPropertyOp50
 70
     0
102
RTVSPropertyOp51
 70
     0
102
RTVSPropertyOp52
 70
     0
102
RTVSPropertyOp53
 70
     0
102
RTVSPropertyOp54
 70
     0
102
RTVSPropertyOp55
 70
     1
102
RTVSPropertyOp56
 70
     0
102
RTVSPropertyOp57
 70
     0
102
RTVSPropertyOp58
 70
     0
102
RTVSPropertyOp59
 70
     0
102
RTVSPropertyOp60
 70
     0
102
RTVSPropertyOp61
 70
     0
102
RTVSPropertyOp62
 70
     0
  0
XRECORD
  5
A78F
102
{ACAD_REACTORS
330
A78E
102
}
330
A78E
100
AcDbXrecord
280
     1
102
RTVSPost2010Prop28
280
     0
102
RTVSPost2010PropOp28
 70
     1
102
RTVSPost2010Prop29
280
     1
102
RTVSPost2010PropOp29
 70
     1
102
RTVSPost2010Prop30
280
     1
102
RTVSPost2010PropOp30
 70
     1
102
RTVSPost2010Prop31
280
     0
102
RTVSPost2010PropOp31
 70
     1
102
RTVSPost2010Prop32
280
     0
102
RTVSPost2010PropOp32
 70
     1
102
RTVSPost2010Prop33
280
     0
102
RTVSPost2010PropOp33
 70
     1
102
RTVSPost2010Prop34
280
     0
102
RTVSPost2010PropOp34
 70
     1
102
RTVSPost2010Prop35
280
     0
102
RTVSPost2010PropOp35
 70
     1
102
RTVSPost2010Prop36
280
     0
102
RTVSPost2010PropOp36
 70
     1
102
RTVSPost2010Prop37
 90
       50
102
RTVSPost2010PropOp37
 70
     1
102
RTVSPost2010Prop38
140
0.0
102
RTVSPost2010PropOp38
 70
     1
102
RTVSPost2010Prop39
140
1.0
102
RTVSPost2010PropOp39
 70
     1
102
RTVSPost2010Prop40
 90
        0
102
RTVSPost2010PropOp40
 70
     1
102
RTVSPost2010Prop41ColorIndex
 90
       18
102
RTVSPost2010Prop41ColorRGB
 90
        0
102
RTVSPost2010PropOp41
 70
     1
102
RTVSPost2010Prop42
 90
       50
102
RTVSPost2010PropOp42
 70
     1
102
RTVSPost2010Prop43
 90
        3
102
RTVSPost2010PropOp43
 70
     1
102
RTVSPost2010Prop44ColorIndex
 90
        5
102
RTVSPost2010Prop44ColorRGB
 90
      255
102
RTVSPost2010PropOp44
 70
     1
102
RTVSPost2010Prop45
280
     0
102
RTVSPost2010PropOp45
 70
     1
102
RTVSPost2010Prop46
 90
       50
102
RTVSPost2010PropOp46
 70
     1
102
RTVSPost2010Prop47
 90
       50
102
RTVSPost2010PropOp47
 70
     1
102
RTVSPost2010Prop48
 90
       50
102
RTVSPost2010PropOp48
 70
     1
102
RTVSPost2010Prop49
280
     0
102
RTVSPost2010PropOp49
 70
     1
102
RTVSPost2010Prop50
 90
       50
102
RTVSPost2010PropOp50
 70
     1
102
RTVSPost2010Prop51ColorIndex
 90
      256
102
RTVSPost2010Prop51ColorRGB
 90
-16777216
102
RTVSPost2010PropOp51
 70
     0
102
RTVSPost2010Prop52
140
1.0
102
RTVSPost2010PropOp52
 70
     0
102
RTVSPost2010Prop53
 90
        2
102
RTVSPost2010PropOp53
 70
     1
102
RTVSPost2010Prop54
  1
strokes_ogs.tif
102
RTVSPost2010PropOp54
 70
     1
102
RTVSPost2010Prop55
280
     0
102
RTVSPost2010PropOp55
 70
     1
102
RTVSPost2010Prop56
140
1.0
102
RTVSPost2010PropOp56
 70
     1
102
RTVSPost2010Prop57
140
1.0
102
RTVSPost2010PropOp57
 70
     1
102
RTVSPropertyOp0
 70
     1
102
RTVSPropertyOp1
 70
     1
102
RTVSPropertyOp2
 70
     1
102
RTVSPropertyOp3
 70
     1
102
RTVSPropertyOp4
 70
     1
102
RTVSPropertyOp5
 70
     1
102
RTVSPropertyOp6
 70
     1
102
RTVSPropertyOp7
 70
     1
102
RTVSPropertyOp8
 70
     1
102
RTVSPropertyOp9
 70
     1
102
RTVSPropertyOp10
 70
     1
102
RTVSPropertyOp11
 70
     1
102
RTVSPropertyOp12
 70
     1
102
RTVSPropertyOp13
 70
     1
102
RTVSPropertyOp14
 70
     1
102
RTVSPropertyOp15
 70
     1
102
RTVSPropertyOp16
 70
     1
102
RTVSPropertyOp17
 70
     1
102
RTVSPropertyOp18
 70
     1
102
RTVSPropertyOp19
 70
     1
102
RTVSPropertyOp20
 70
     1
102
RTVSPropertyOp21
 70
     1
102
RTVSPropertyOp22
 70
     1
102
RTVSPropertyOp23
 70
     1
102
RTVSPropertyOp24
 70
     1
102
RTVSPropertyOp25
 70
     1
102
RTVSPropertyOp26
 70
     1
102
RTVSPropertyOp27
 70
     1
102
RTVSPropertyOp28
 70
     1
102
RTVSPropertyOp29
 70
     1
102
RTVSPropertyOp30
 70
     1
102
RTVSPropertyOp31
 70
     1
102
RTVSPropertyOp32
 70
     1
102
RTVSPropertyOp33
 70
     1
102
RTVSPropertyOp34
 70
     1
102
RTVSPropertyOp35
 70
     1
102
RTVSPropertyOp36
 70
     1
102
RTVSPropertyOp37
 70
     1
102
RTVSPropertyOp38
 70
     1
102
RTVSPropertyOp39
 70
     1
102
RTVSPropertyOp40
 70
     1
102
RTVSPropertyOp41
 70
     1
102
RTVSPropertyOp42
 70
     1
102
RTVSPropertyOp43
 70
     1
102
RTVSPropertyOp44
 70
     1
102
RTVSPropertyOp45
 70
     1
102
RTVSPropertyOp46
 70
     1
102
RTVSPropertyOp47
 70
     1
102
RTVSPropertyOp48
 70
     1
102
RTVSPropertyOp49
 70
     1
102
RTVSPropertyOp50
 70
     1
102
RTVSPropertyOp51
 70
     0
102
RTVSPropertyOp52
 70
     0
102
RTVSPropertyOp53
 70
     1
102
RTVSPropertyOp54
 70
     1
102
RTVSPropertyOp55
 70
     1
102
RTVSPropertyOp56
 70
     1
102
RTVSPropertyOp57
 70
     1
102
RTVSPropertyOp58
 70
     1
102
RTVSPropertyOp59
 70
     1
102
RTVSPropertyOp60
 70
     1
102
RTVSPropertyOp61
 70
     1
102
RTVSPropertyOp62
 70
     1
  0
XRECORD
  5
A7A1
102
{ACAD_REACTORS
330
A7A0
102
}
330
A7A0
100
AcDbXrecord
280
     1
102
RTVSPost2010Prop28
280
     0
102
RTVSPost2010PropOp28
 70
     1
102
RTVSPost2010Prop29
280
     1
102
RTVSPost2010PropOp29
 70
     1
102
RTVSPost2010Prop30
280
     1
102
RTVSPost2010PropOp30
 70
     1
102
RTVSPost2010Prop31
280
     0
102
RTVSPost2010PropOp31
 70
     1
102
RTVSPost2010Prop32
280
     0
102
RTVSPost2010PropOp32
 70
     1
102
RTVSPost2010Prop33
280
     0
102
RTVSPost2010PropOp33
 70
     1
102
RTVSPost2010Prop34
280
     0
102
RTVSPost2010PropOp34
 70
     1
102
RTVSPost2010Prop35
280
     0
102
RTVSPost2010PropOp35
 70
     1
102
RTVSPost2010Prop36
280
     0
102
RTVSPost2010PropOp36
 70
     1
102
RTVSPost2010Prop37
 90
       50
102
RTVSPost2010PropOp37
 70
     0
102
RTVSPost2010Prop38
140
0.0
102
RTVSPost2010PropOp38
 70
     0
102
RTVSPost2010Prop39
140
1.0
102
RTVSPost2010PropOp39
 70
     0
102
RTVSPost2010Prop40
 90
        0
102
RTVSPost2010PropOp40
 70
     0
102
RTVSPost2010Prop41ColorIndex
 90
       18
102
RTVSPost2010Prop41ColorRGB
 90
        0
102
RTVSPost2010PropOp41
 70
     0
102
RTVSPost2010Prop42
 90
       50
102
RTVSPost2010PropOp42
 70
     0
102
RTVSPost2010Prop43
 90
        3
102
RTVSPost2010PropOp43
 70
     0
102
RTVSPost2010Prop44ColorIndex
 90
        5
102
RTVSPost2010Prop44ColorRGB
 90
      255
102
RTVSPost2010PropOp44
 70
     0
102
RTVSPost2010Prop45
280
     0
102
RTVSPost2010PropOp45
 70
     1
102
RTVSPost2010Prop46
 90
       50
102
RTVSPost2010PropOp46
 70
     0
102
RTVSPost2010Prop47
 90
       50
102
RTVSPost2010PropOp47
 70
     0
102
RTVSPost2010Prop48
 90
       50
102
RTVSPost2010PropOp48
 70
     0
102
RTVSPost2010Prop49
280
     0
102
RTVSPost2010PropOp49
 70
     1
102
RTVSPost2010Prop50
 90
       50
102
RTVSPost2010PropOp50
 70
     0
102
RTVSPost2010Prop51ColorIndex
 90
      256
102
RTVSPost2010Prop51ColorRGB
 90
-16777216
102
RTVSPost2010PropOp51
 70
     0
102
RTVSPost2010Prop52
140
1.0
102
RTVSPost2010PropOp52
 70
     0
102
RTVSPost2010Prop53
 90
        2
102
RTVSPost2010PropOp53
 70
     0
102
RTVSPost2010Prop54
  1
strokes_ogs.tif
102
RTVSPost2010PropOp54
 70
     0
102
RTVSPost2010Prop55
280
     0
102
RTVSPost2010PropOp55
 70
     1
102
RTVSPost2010Prop56
140
1.0
102
RTVSPost2010PropOp56
 70
     0
102
RTVSPost2010Prop57
140
1.0
102
RTVSPost2010PropOp57
 70
     0
102
RTVSPropertyOp0
 70
     0
102
RTVSPropertyOp1
 70
     0
102
RTVSPropertyOp2
 70
     0
102
RTVSPropertyOp3
 70
     0
102
RTVSPropertyOp4
 70
     0
102
RTVSPropertyOp5
 70
     0
102
RTVSPropertyOp6
 70
     0
102
RTVSPropertyOp7
 70
     0
102
RTVSPropertyOp8
 70
     0
102
RTVSPropertyOp9
 70
     0
102
RTVSPropertyOp10
 70
     0
102
RTVSPropertyOp11
 70
     0
102
RTVSPropertyOp12
 70
     0
102
RTVSPropertyOp13
 70
     0
102
RTVSPropertyOp14
 70
     2
102
RTVSPropertyOp15
 70
     0
102
RTVSPropertyOp16
 70
     0
102
RTVSPropertyOp17
 70
     0
102
RTVSPropertyOp18
 70
     0
102
RTVSPropertyOp19
 70
     0
102
RTVSPropertyOp20
 70
     0
102
RTVSPropertyOp21
 70
     0
102
RTVSPropertyOp22
 70
     0
102
RTVSPropertyOp23
 70
     0
102
RTVSPropertyOp24
 70
     0
102
RTVSPropertyOp25
 70
     0
102
RTVSPropertyOp26
 70
     0
102
RTVSPropertyOp27
 70
     0
102
RTVSPropertyOp28
 70
     1
102
RTVSPropertyOp29
 70
     1
102
RTVSPropertyOp30
 70
     1
102
RTVSPropertyOp31
 70
     1
102
RTVSPropertyOp32
 70
     1
102
RTVSPropertyOp33
 70
     1
102
RTVSPropertyOp34
 70
     1
102
RTVSPropertyOp35
 70
     1
102
RTVSPropertyOp36
 70
     1
102
RTVSPropertyOp37
 70
     0
102
RTVSPropertyOp38
 70
     0
102
RTVSPropertyOp39
 70
     0
102
RTVSPropertyOp40
 70
     0
102
RTVSPropertyOp41
 70
     0
102
RTVSPropertyOp42
 70
     0
102
RTVSPropertyOp43
 70
     0
102
RTVSPropertyOp44
 70
     0
102
RTVSPropertyOp45
 70
     1
102
RTVSPropertyOp46
 70
     0
102
RTVSPropertyOp47
 70
     0
102
RTVSPropertyOp48
 70
     0
102
RTVSPropertyOp49
 70
     1
102
RTVSPropertyOp50
 70
     0
102
RTVSPropertyOp51
 70
     0
102
RTVSPropertyOp52
 70
     0
102
RTVSPropertyOp53
 70
     0
102
RTVSPropertyOp54
 70
     0
102
RTVSPropertyOp55
 70
     1
102
RTVSPropertyOp56
 70
     0
102
RTVSPropertyOp57
 70
     0
102
RTVSPropertyOp58
 70
     0
102
RTVSPropertyOp59
 70
     0
102
RTVSPropertyOp60
 70
     0
102
RTVSPropertyOp61
 70
     0
102
RTVSPropertyOp62
 70
     0
  0
XRECORD
  5
A787
102
{ACAD_REACTORS
330
A786
102
}
330
A786
100
AcDbXrecord
280
     1
102
RTVSPost2010Prop28
280
     0
102
RTVSPost2010PropOp28
 70
     1
102
RTVSPost2010Prop29
280
     1
102
RTVSPost2010PropOp29
 70
     1
102
RTVSPost2010Prop30
280
     1
102
RTVSPost2010PropOp30
 70
     1
102
RTVSPost2010Prop31
280
     0
102
RTVSPost2010PropOp31
 70
     1
102
RTVSPost2010Prop32
280
     0
102
RTVSPost2010PropOp32
 70
     1
102
RTVSPost2010Prop33
280
     0
102
RTVSPost2010PropOp33
 70
     1
102
RTVSPost2010Prop34
280
     0
102
RTVSPost2010PropOp34
 70
     1
102
RTVSPost2010Prop35
280
     0
102
RTVSPost2010PropOp35
 70
     1
102
RTVSPost2010Prop36
280
     0
102
RTVSPost2010PropOp36
 70
     1
102
RTVSPost2010Prop37
 90
       50
102
RTVSPost2010PropOp37
 70
     1
102
RTVSPost2010Prop38
140
0.0
102
RTVSPost2010PropOp38
 70
     1
102
RTVSPost2010Prop39
140
1.0
102
RTVSPost2010PropOp39
 70
     1
102
RTVSPost2010Prop40
 90
        0
102
RTVSPost2010PropOp40
 70
     1
102
RTVSPost2010Prop41ColorIndex
 90
       18
102
RTVSPost2010Prop41ColorRGB
 90
        0
102
RTVSPost2010PropOp41
 70
     1
102
RTVSPost2010Prop42
 90
       50
102
RTVSPost2010PropOp42
 70
     1
102
RTVSPost2010Prop43
 90
        3
102
RTVSPost2010PropOp43
 70
     1
102
RTVSPost2010Prop44ColorIndex
 90
        5
102
RTVSPost2010Prop44ColorRGB
 90
      255
102
RTVSPost2010PropOp44
 70
     1
102
RTVSPost2010Prop45
280
     0
102
RTVSPost2010PropOp45
 70
     1
102
RTVSPost2010Prop46
 90
       50
102
RTVSPost2010PropOp46
 70
     1
102
RTVSPost2010Prop47
 90
       50
102
RTVSPost2010PropOp47
 70
     1
102
RTVSPost2010Prop48
 90
       50
102
RTVSPost2010PropOp48
 70
     1
102
RTVSPost2010Prop49
280
     0
102
RTVSPost2010PropOp49
 70
     1
102
RTVSPost2010Prop50
 90
       50
102
RTVSPost2010PropOp50
 70
     1
102
RTVSPost2010Prop51ColorIndex
 90
      256
102
RTVSPost2010Prop51ColorRGB
 90
-16777216
102
RTVSPost2010PropOp51
 70
     0
102
RTVSPost2010Prop52
140
1.0
102
RTVSPost2010PropOp52
 70
     0
102
RTVSPost2010Prop53
 90
        2
102
RTVSPost2010PropOp53
 70
     1
102
RTVSPost2010Prop54
  1
strokes_ogs.tif
102
RTVSPost2010PropOp54
 70
     1
102
RTVSPost2010Prop55
280
     0
102
RTVSPost2010PropOp55
 70
     1
102
RTVSPost2010Prop56
140
1.0
102
RTVSPost2010PropOp56
 70
     1
102
RTVSPost2010Prop57
140
1.0
102
RTVSPost2010PropOp57
 70
     1
102
RTVSPropertyOp0
 70
     1
102
RTVSPropertyOp1
 70
     1
102
RTVSPropertyOp2
 70
     1
102
RTVSPropertyOp3
 70
     1
102
RTVSPropertyOp4
 70
     1
102
RTVSPropertyOp5
 70
     1
102
RTVSPropertyOp6
 70
     1
102
RTVSPropertyOp7
 70
     1
102
RTVSPropertyOp8
 70
     1
102
RTVSPropertyOp9
 70
     1
102
RTVSPropertyOp10
 70
     1
102
RTVSPropertyOp11
 70
     1
102
RTVSPropertyOp12
 70
     1
102
RTVSPropertyOp13
 70
     1
102
RTVSPropertyOp14
 70
     1
102
RTVSPropertyOp15
 70
     1
102
RTVSPropertyOp16
 70
     1
102
RTVSPropertyOp17
 70
     1
102
RTVSPropertyOp18
 70
     1
102
RTVSPropertyOp19
 70
     1
102
RTVSPropertyOp20
 70
     1
102
RTVSPropertyOp21
 70
     1
102
RTVSPropertyOp22
 70
     1
102
RTVSPropertyOp23
 70
     1
102
RTVSPropertyOp24
 70
     1
102
RTVSPropertyOp25
 70
     1
102
RTVSPropertyOp26
 70
     1
102
RTVSPropertyOp27
 70
     1
102
RTVSPropertyOp28
 70
     1
102
RTVSPropertyOp29
 70
     1
102
RTVSPropertyOp30
 70
     1
102
RTVSPropertyOp31
 70
     1
102
RTVSPropertyOp32
 70
     1
102
RTVSPropertyOp33
 70
     1
102
RTVSPropertyOp34
 70
     1
102
RTVSPropertyOp35
 70
     1
102
RTVSPropertyOp36
 70
     1
102
RTVSPropertyOp37
 70
     1
102
RTVSPropertyOp38
 70
     1
102
RTVSPropertyOp39
 70
     1
102
RTVSPropertyOp40
 70
     1
102
RTVSPropertyOp41
 70
     1
102
RTVSPropertyOp42
 70
     1
102
RTVSPropertyOp43
 70
     1
102
RTVSPropertyOp44
 70
     1
102
RTVSPropertyOp45
 70
     1
102
RTVSPropertyOp46
 70
     1
102
RTVSPropertyOp47
 70
     1
102
RTVSPropertyOp48
 70
     1
102
RTVSPropertyOp49
 70
     1
102
RTVSPropertyOp50
 70
     1
102
RTVSPropertyOp51
 70
     0
102
RTVSPropertyOp52
 70
     0
102
RTVSPropertyOp53
 70
     1
102
RTVSPropertyOp54
 70
     1
102
RTVSPropertyOp55
 70
     1
102
RTVSPropertyOp56
 70
     1
102
RTVSPropertyOp57
 70
     1
102
RTVSPropertyOp58
 70
     1
102
RTVSPropertyOp59
 70
     1
102
RTVSPropertyOp60
 70
     1
102
RTVSPropertyOp61
 70
     1
102
RTVSPropertyOp62
 70
     1
  0
XRECORD
  5
A79D
102
{ACAD_REACTORS
330
A79C
102
}
330
A79C
100
AcDbXrecord
280
     1
102
RTVSPost2010Prop28
280
     0
102
RTVSPost2010PropOp28
 70
     1
102
RTVSPost2010Prop29
280
     1
102
RTVSPost2010PropOp29
 70
     1
102
RTVSPost2010Prop30
280
     1
102
RTVSPost2010PropOp30
 70
     1
102
RTVSPost2010Prop31
280
     0
102
RTVSPost2010PropOp31
 70
     1
102
RTVSPost2010Prop32
280
     0
102
RTVSPost2010PropOp32
 70
     1
102
RTVSPost2010Prop33
280
     0
102
RTVSPost2010PropOp33
 70
     1
102
RTVSPost2010Prop34
280
     0
102
RTVSPost2010PropOp34
 70
     1
102
RTVSPost2010Prop35
280
     0
102
RTVSPost2010PropOp35
 70
     1
102
RTVSPost2010Prop36
280
     0
102
RTVSPost2010PropOp36
 70
     1
102
RTVSPost2010Prop37
 90
       50
102
RTVSPost2010PropOp37
 70
     1
102
RTVSPost2010Prop38
140
0.0
102
RTVSPost2010PropOp38
 70
     1
102
RTVSPost2010Prop39
140
1.0
102
RTVSPost2010PropOp39
 70
     1
102
RTVSPost2010Prop40
 90
        0
102
RTVSPost2010PropOp40
 70
     1
102
RTVSPost2010Prop41ColorIndex
 90
       18
102
RTVSPost2010Prop41ColorRGB
 90
        0
102
RTVSPost2010PropOp41
 70
     1
102
RTVSPost2010Prop42
 90
       50
102
RTVSPost2010PropOp42
 70
     1
102
RTVSPost2010Prop43
 90
        3
102
RTVSPost2010PropOp43
 70
     1
102
RTVSPost2010Prop44ColorIndex
 90
        5
102
RTVSPost2010Prop44ColorRGB
 90
      255
102
RTVSPost2010PropOp44
 70
     1
102
RTVSPost2010Prop45
280
     0
102
RTVSPost2010PropOp45
 70
     1
102
RTVSPost2010Prop46
 90
       50
102
RTVSPost2010PropOp46
 70
     1
102
RTVSPost2010Prop47
 90
       50
102
RTVSPost2010PropOp47
 70
     1
102
RTVSPost2010Prop48
 90
       50
102
RTVSPost2010PropOp48
 70
     1
102
RTVSPost2010Prop49
280
     0
102
RTVSPost2010PropOp49
 70
     1
102
RTVSPost2010Prop50
 90
       50
102
RTVSPost2010PropOp50
 70
     1
102
RTVSPost2010Prop51ColorIndex
 90
      256
102
RTVSPost2010Prop51ColorRGB
 90
-16777216
102
RTVSPost2010PropOp51
 70
     0
102
RTVSPost2010Prop52
140
1.0
102
RTVSPost2010PropOp52
 70
     0
102
RTVSPost2010Prop53
 90
        2
102
RTVSPost2010PropOp53
 70
     1
102
RTVSPost2010Prop54
  1
strokes_ogs.tif
102
RTVSPost2010PropOp54
 70
     1
102
RTVSPost2010Prop55
280
     0
102
RTVSPost2010PropOp55
 70
     1
102
RTVSPost2010Prop56
140
1.0
102
RTVSPost2010PropOp56
 70
     1
102
RTVSPost2010Prop57
140
1.0
102
RTVSPost2010PropOp57
 70
     1
102
RTVSPropertyOp0
 70
     1
102
RTVSPropertyOp1
 70
     1
102
RTVSPropertyOp2
 70
     1
102
RTVSPropertyOp3
 70
     1
102
RTVSPropertyOp4
 70
     1
102
RTVSPropertyOp5
 70
     1
102
RTVSPropertyOp6
 70
     1
102
RTVSPropertyOp7
 70
     1
102
RTVSPropertyOp8
 70
     1
102
RTVSPropertyOp9
 70
     1
102
RTVSPropertyOp10
 70
     1
102
RTVSPropertyOp11
 70
     1
102
RTVSPropertyOp12
 70
     1
102
RTVSPropertyOp13
 70
     1
102
RTVSPropertyOp14
 70
     1
102
RTVSPropertyOp15
 70
     1
102
RTVSPropertyOp16
 70
     1
102
RTVSPropertyOp17
 70
     1
102
RTVSPropertyOp18
 70
     1
102
RTVSPropertyOp19
 70
     1
102
RTVSPropertyOp20
 70
     1
102
RTVSPropertyOp21
 70
     1
102
RTVSPropertyOp22
 70
     1
102
RTVSPropertyOp23
 70
     1
102
RTVSPropertyOp24
 70
     1
102
RTVSPropertyOp25
 70
     1
102
RTVSPropertyOp26
 70
     1
102
RTVSPropertyOp27
 70
     1
102
RTVSPropertyOp28
 70
     1
102
RTVSPropertyOp29
 70
     1
102
RTVSPropertyOp30
 70
     1
102
RTVSPropertyOp31
 70
     1
102
RTVSPropertyOp32
 70
     1
102
RTVSPropertyOp33
 70
     1
102
RTVSPropertyOp34
 70
     1
102
RTVSPropertyOp35
 70
     1
102
RTVSPropertyOp36
 70
     1
102
RTVSPropertyOp37
 70
     1
102
RTVSPropertyOp38
 70
     1
102
RTVSPropertyOp39
 70
     1
102
RTVSPropertyOp40
 70
     1
102
RTVSPropertyOp41
 70
     1
102
RTVSPropertyOp42
 70
     1
102
RTVSPropertyOp43
 70
     1
102
RTVSPropertyOp44
 70
     1
102
RTVSPropertyOp45
 70
     1
102
RTVSPropertyOp46
 70
     1
102
RTVSPropertyOp47
 70
     1
102
RTVSPropertyOp48
 70
     1
102
RTVSPropertyOp49
 70
     1
102
RTVSPropertyOp50
 70
     1
102
RTVSPropertyOp51
 70
     0
102
RTVSPropertyOp52
 70
     0
102
RTVSPropertyOp53
 70
     1
102
RTVSPropertyOp54
 70
     1
102
RTVSPropertyOp55
 70
     1
102
RTVSPropertyOp56
 70
     1
102
RTVSPropertyOp57
 70
     1
102
RTVSPropertyOp58
 70
     1
102
RTVSPropertyOp59
 70
     1
102
RTVSPropertyOp60
 70
     1
102
RTVSPropertyOp61
 70
     1
102
RTVSPropertyOp62
 70
     1
  0
XRECORD
  5
A79B
102
{ACAD_REACTORS
330
A79A
102
}
330
A79A
100
AcDbXrecord
280
     1
102
RTVSPost2010Prop28
280
     0
102
RTVSPost2010PropOp28
 70
     1
102
RTVSPost2010Prop29
280
     1
102
RTVSPost2010PropOp29
 70
     1
102
RTVSPost2010Prop30
280
     1
102
RTVSPost2010PropOp30
 70
     1
102
RTVSPost2010Prop31
280
     0
102
RTVSPost2010PropOp31
 70
     1
102
RTVSPost2010Prop32
280
     0
102
RTVSPost2010PropOp32
 70
     1
102
RTVSPost2010Prop33
280
     0
102
RTVSPost2010PropOp33
 70
     1
102
RTVSPost2010Prop34
280
     0
102
RTVSPost2010PropOp34
 70
     1
102
RTVSPost2010Prop35
280
     0
102
RTVSPost2010PropOp35
 70
     1
102
RTVSPost2010Prop36
280
     0
102
RTVSPost2010PropOp36
 70
     1
102
RTVSPost2010Prop37
 90
       50
102
RTVSPost2010PropOp37
 70
     1
102
RTVSPost2010Prop38
140
0.0
102
RTVSPost2010PropOp38
 70
     1
102
RTVSPost2010Prop39
140
1.0
102
RTVSPost2010PropOp39
 70
     1
102
RTVSPost2010Prop40
 90
        0
102
RTVSPost2010PropOp40
 70
     1
102
RTVSPost2010Prop41ColorIndex
 90
       18
102
RTVSPost2010Prop41ColorRGB
 90
        0
102
RTVSPost2010PropOp41
 70
     1
102
RTVSPost2010Prop42
 90
       50
102
RTVSPost2010PropOp42
 70
     1
102
RTVSPost2010Prop43
 90
        3
102
RTVSPost2010PropOp43
 70
     1
102
RTVSPost2010Prop44ColorIndex
 90
        5
102
RTVSPost2010Prop44ColorRGB
 90
      255
102
RTVSPost2010PropOp44
 70
     1
102
RTVSPost2010Prop45
280
     0
102
RTVSPost2010PropOp45
 70
     1
102
RTVSPost2010Prop46
 90
       50
102
RTVSPost2010PropOp46
 70
     1
102
RTVSPost2010Prop47
 90
       50
102
RTVSPost2010PropOp47
 70
     1
102
RTVSPost2010Prop48
 90
       50
102
RTVSPost2010PropOp48
 70
     1
102
RTVSPost2010Prop49
280
     0
102
RTVSPost2010PropOp49
 70
     1
102
RTVSPost2010Prop50
 90
       50
102
RTVSPost2010PropOp50
 70
     1
102
RTVSPost2010Prop51ColorIndex
 90
      256
102
RTVSPost2010Prop51ColorRGB
 90
-16777216
102
RTVSPost2010PropOp51
 70
     0
102
RTVSPost2010Prop52
140
1.0
102
RTVSPost2010PropOp52
 70
     0
102
RTVSPost2010Prop53
 90
        2
102
RTVSPost2010PropOp53
 70
     1
102
RTVSPost2010Prop54
  1
strokes_ogs.tif
102
RTVSPost2010PropOp54
 70
     1
102
RTVSPost2010Prop55
280
     0
102
RTVSPost2010PropOp55
 70
     1
102
RTVSPost2010Prop56
140
1.0
102
RTVSPost2010PropOp56
 70
     1
102
RTVSPost2010Prop57
140
1.0
102
RTVSPost2010PropOp57
 70
     1
102
RTVSPropertyOp0
 70
     1
102
RTVSPropertyOp1
 70
     1
102
RTVSPropertyOp2
 70
     1
102
RTVSPropertyOp3
 70
     1
102
RTVSPropertyOp4
 70
     1
102
RTVSPropertyOp5
 70
     1
102
RTVSPropertyOp6
 70
     1
102
RTVSPropertyOp7
 70
     1
102
RTVSPropertyOp8
 70
     1
102
RTVSPropertyOp9
 70
     1
102
RTVSPropertyOp10
 70
     1
102
RTVSPropertyOp11
 70
     1
102
RTVSPropertyOp12
 70
     1
102
RTVSPropertyOp13
 70
     1
102
RTVSPropertyOp14
 70
     1
102
RTVSPropertyOp15
 70
     1
102
RTVSPropertyOp16
 70
     1
102
RTVSPropertyOp17
 70
     1
102
RTVSPropertyOp18
 70
     1
102
RTVSPropertyOp19
 70
     1
102
RTVSPropertyOp20
 70
     1
102
RTVSPropertyOp21
 70
     1
102
RTVSPropertyOp22
 70
     1
102
RTVSPropertyOp23
 70
     1
102
RTVSPropertyOp24
 70
     1
102
RTVSPropertyOp25
 70
     1
102
RTVSPropertyOp26
 70
     1
102
RTVSPropertyOp27
 70
     1
102
RTVSPropertyOp28
 70
     1
102
RTVSPropertyOp29
 70
     1
102
RTVSPropertyOp30
 70
     1
102
RTVSPropertyOp31
 70
     1
102
RTVSPropertyOp32
 70
     1
102
RTVSPropertyOp33
 70
     1
102
RTVSPropertyOp34
 70
     1
102
RTVSPropertyOp35
 70
     1
102
RTVSPropertyOp36
 70
     1
102
RTVSPropertyOp37
 70
     1
102
RTVSPropertyOp38
 70
     1
102
RTVSPropertyOp39
 70
     1
102
RTVSPropertyOp40
 70
     1
102
RTVSPropertyOp41
 70
     1
102
RTVSPropertyOp42
 70
     1
102
RTVSPropertyOp43
 70
     1
102
RTVSPropertyOp44
 70
     1
102
RTVSPropertyOp45
 70
     1
102
RTVSPropertyOp46
 70
     1
102
RTVSPropertyOp47
 70
     1
102
RTVSPropertyOp48
 70
     1
102
RTVSPropertyOp49
 70
     1
102
RTVSPropertyOp50
 70
     1
102
RTVSPropertyOp51
 70
     0
102
RTVSPropertyOp52
 70
     0
102
RTVSPropertyOp53
 70
     1
102
RTVSPropertyOp54
 70
     1
102
RTVSPropertyOp55
 70
     1
102
RTVSPropertyOp56
 70
     1
102
RTVSPropertyOp57
 70
     1
102
RTVSPropertyOp58
 70
     1
102
RTVSPropertyOp59
 70
     1
102
RTVSPropertyOp60
 70
     1
102
RTVSPropertyOp61
 70
     1
102
RTVSPropertyOp62
 70
     1
  0
XRECORD
  5
A795
102
{ACAD_REACTORS
330
A794
102
}
330
A794
100
AcDbXrecord
280
     1
102
RTVSPost2010Prop28
280
     0
102
RTVSPost2010PropOp28
 70
     1
102
RTVSPost2010Prop29
280
     1
102
RTVSPost2010PropOp29
 70
     1
102
RTVSPost2010Prop30
280
     1
102
RTVSPost2010PropOp30
 70
     1
102
RTVSPost2010Prop31
280
     0
102
RTVSPost2010PropOp31
 70
     1
102
RTVSPost2010Prop32
280
     0
102
RTVSPost2010PropOp32
 70
     1
102
RTVSPost2010Prop33
280
     0
102
RTVSPost2010PropOp33
 70
     1
102
RTVSPost2010Prop34
280
     0
102
RTVSPost2010PropOp34
 70
     1
102
RTVSPost2010Prop35
280
     0
102
RTVSPost2010PropOp35
 70
     1
102
RTVSPost2010Prop36
280
     0
102
RTVSPost2010PropOp36
 70
     1
102
RTVSPost2010Prop37
 90
       50
102
RTVSPost2010PropOp37
 70
     1
102
RTVSPost2010Prop38
140
0.0
102
RTVSPost2010PropOp38
 70
     1
102
RTVSPost2010Prop39
140
1.0
102
RTVSPost2010PropOp39
 70
     1
102
RTVSPost2010Prop40
 90
        0
102
RTVSPost2010PropOp40
 70
     1
102
RTVSPost2010Prop41ColorIndex
 90
       18
102
RTVSPost2010Prop41ColorRGB
 90
        0
102
RTVSPost2010PropOp41
 70
     1
102
RTVSPost2010Prop42
 90
       50
102
RTVSPost2010PropOp42
 70
     1
102
RTVSPost2010Prop43
 90
        3
102
RTVSPost2010PropOp43
 70
     1
102
RTVSPost2010Prop44ColorIndex
 90
        5
102
RTVSPost2010Prop44ColorRGB
 90
      255
102
RTVSPost2010PropOp44
 70
     1
102
RTVSPost2010Prop45
280
     0
102
RTVSPost2010PropOp45
 70
     1
102
RTVSPost2010Prop46
 90
       50
102
RTVSPost2010PropOp46
 70
     1
102
RTVSPost2010Prop47
 90
       50
102
RTVSPost2010PropOp47
 70
     1
102
RTVSPost2010Prop48
 90
       50
102
RTVSPost2010PropOp48
 70
     1
102
RTVSPost2010Prop49
280
     0
102
RTVSPost2010PropOp49
 70
     1
102
RTVSPost2010Prop50
 90
       50
102
RTVSPost2010PropOp50
 70
     1
102
RTVSPost2010Prop51ColorIndex
 90
      256
102
RTVSPost2010Prop51ColorRGB
 90
-16777216
102
RTVSPost2010PropOp51
 70
     0
102
RTVSPost2010Prop52
140
1.0
102
RTVSPost2010PropOp52
 70
     0
102
RTVSPost2010Prop53
 90
        2
102
RTVSPost2010PropOp53
 70
     1
102
RTVSPost2010Prop54
  1
strokes_ogs.tif
102
RTVSPost2010PropOp54
 70
     1
102
RTVSPost2010Prop55
280
     0
102
RTVSPost2010PropOp55
 70
     1
102
RTVSPost2010Prop56
140
1.0
102
RTVSPost2010PropOp56
 70
     1
102
RTVSPost2010Prop57
140
1.0
102
RTVSPost2010PropOp57
 70
     1
102
RTVSPropertyOp0
 70
     1
102
RTVSPropertyOp1
 70
     1
102
RTVSPropertyOp2
 70
     1
102
RTVSPropertyOp3
 70
     1
102
RTVSPropertyOp4
 70
     1
102
RTVSPropertyOp5
 70
     1
102
RTVSPropertyOp6
 70
     1
102
RTVSPropertyOp7
 70
     1
102
RTVSPropertyOp8
 70
     1
102
RTVSPropertyOp9
 70
     1
102
RTVSPropertyOp10
 70
     1
102
RTVSPropertyOp11
 70
     1
102
RTVSPropertyOp12
 70
     1
102
RTVSPropertyOp13
 70
     1
102
RTVSPropertyOp14
 70
     1
102
RTVSPropertyOp15
 70
     1
102
RTVSPropertyOp16
 70
     1
102
RTVSPropertyOp17
 70
     1
102
RTVSPropertyOp18
 70
     1
102
RTVSPropertyOp19
 70
     1
102
RTVSPropertyOp20
 70
     1
102
RTVSPropertyOp21
 70
     1
102
RTVSPropertyOp22
 70
     1
102
RTVSPropertyOp23
 70
     1
102
RTVSPropertyOp24
 70
     1
102
RTVSPropertyOp25
 70
     1
102
RTVSPropertyOp26
 70
     1
102
RTVSPropertyOp27
 70
     1
102
RTVSPropertyOp28
 70
     1
102
RTVSPropertyOp29
 70
     1
102
RTVSPropertyOp30
 70
     1
102
RTVSPropertyOp31
 70
     1
102
RTVSPropertyOp32
 70
     1
102
RTVSPropertyOp33
 70
     1
102
RTVSPropertyOp34
 70
     1
102
RTVSPropertyOp35
 70
     1
102
RTVSPropertyOp36
 70
     1
102
RTVSPropertyOp37
 70
     1
102
RTVSPropertyOp38
 70
     1
102
RTVSPropertyOp39
 70
     1
102
RTVSPropertyOp40
 70
     1
102
RTVSPropertyOp41
 70
     1
102
RTVSPropertyOp42
 70
     1
102
RTVSPropertyOp43
 70
     1
102
RTVSPropertyOp44
 70
     1
102
RTVSPropertyOp45
 70
     1
102
RTVSPropertyOp46
 70
     1
102
RTVSPropertyOp47
 70
     1
102
RTVSPropertyOp48
 70
     1
102
RTVSPropertyOp49
 70
     1
102
RTVSPropertyOp50
 70
     1
102
RTVSPropertyOp51
 70
     0
102
RTVSPropertyOp52
 70
     0
102
RTVSPropertyOp53
 70
     1
102
RTVSPropertyOp54
 70
     1
102
RTVSPropertyOp55
 70
     1
102
RTVSPropertyOp56
 70
     1
102
RTVSPropertyOp57
 70
     1
102
RTVSPropertyOp58
 70
     1
102
RTVSPropertyOp59
 70
     1
102
RTVSPropertyOp60
 70
     1
102
RTVSPropertyOp61
 70
     1
102
RTVSPropertyOp62
 70
     1
  0
XRECORD
  5
A797
102
{ACAD_REACTORS
330
A796
102
}
330
A796
100
AcDbXrecord
280
     1
102
RTVSPost2010Prop28
280
     0
102
RTVSPost2010PropOp28
 70
     1
102
RTVSPost2010Prop29
280
     1
102
RTVSPost2010PropOp29
 70
     1
102
RTVSPost2010Prop30
280
     1
102
RTVSPost2010PropOp30
 70
     1
102
RTVSPost2010Prop31
280
     0
102
RTVSPost2010PropOp31
 70
     1
102
RTVSPost2010Prop32
280
     0
102
RTVSPost2010PropOp32
 70
     1
102
RTVSPost2010Prop33
280
     0
102
RTVSPost2010PropOp33
 70
     1
102
RTVSPost2010Prop34
280
     0
102
RTVSPost2010PropOp34
 70
     1
102
RTVSPost2010Prop35
280
     0
102
RTVSPost2010PropOp35
 70
     1
102
RTVSPost2010Prop36
280
     0
102
RTVSPost2010PropOp36
 70
     1
102
RTVSPost2010Prop37
 90
       50
102
RTVSPost2010PropOp37
 70
     1
102
RTVSPost2010Prop38
140
0.0
102
RTVSPost2010PropOp38
 70
     1
102
RTVSPost2010Prop39
140
1.0
102
RTVSPost2010PropOp39
 70
     1
102
RTVSPost2010Prop40
 90
        0
102
RTVSPost2010PropOp40
 70
     1
102
RTVSPost2010Prop41ColorIndex
 90
       18
102
RTVSPost2010Prop41ColorRGB
 90
        0
102
RTVSPost2010PropOp41
 70
     1
102
RTVSPost2010Prop42
 90
       50
102
RTVSPost2010PropOp42
 70
     1
102
RTVSPost2010Prop43
 90
        3
102
RTVSPost2010PropOp43
 70
     1
102
RTVSPost2010Prop44ColorIndex
 90
        5
102
RTVSPost2010Prop44ColorRGB
 90
      255
102
RTVSPost2010PropOp44
 70
     1
102
RTVSPost2010Prop45
280
     0
102
RTVSPost2010PropOp45
 70
     1
102
RTVSPost2010Prop46
 90
       50
102
RTVSPost2010PropOp46
 70
     1
102
RTVSPost2010Prop47
 90
       50
102
RTVSPost2010PropOp47
 70
     1
102
RTVSPost2010Prop48
 90
       50
102
RTVSPost2010PropOp48
 70
     1
102
RTVSPost2010Prop49
280
     0
102
RTVSPost2010PropOp49
 70
     1
102
RTVSPost2010Prop50
 90
       50
102
RTVSPost2010PropOp50
 70
     1
102
RTVSPost2010Prop51ColorIndex
 90
      256
102
RTVSPost2010Prop51ColorRGB
 90
-16777216
102
RTVSPost2010PropOp51
 70
     0
102
RTVSPost2010Prop52
140
1.0
102
RTVSPost2010PropOp52
 70
     0
102
RTVSPost2010Prop53
 90
        2
102
RTVSPost2010PropOp53
 70
     1
102
RTVSPost2010Prop54
  1
strokes_ogs.tif
102
RTVSPost2010PropOp54
 70
     1
102
RTVSPost2010Prop55
280
     0
102
RTVSPost2010PropOp55
 70
     1
102
RTVSPost2010Prop56
140
1.0
102
RTVSPost2010PropOp56
 70
     1
102
RTVSPost2010Prop57
140
1.0
102
RTVSPost2010PropOp57
 70
     1
102
RTVSPropertyOp0
 70
     1
102
RTVSPropertyOp1
 70
     1
102
RTVSPropertyOp2
 70
     1
102
RTVSPropertyOp3
 70
     1
102
RTVSPropertyOp4
 70
     1
102
RTVSPropertyOp5
 70
     1
102
RTVSPropertyOp6
 70
     1
102
RTVSPropertyOp7
 70
     1
102
RTVSPropertyOp8
 70
     1
102
RTVSPropertyOp9
 70
     1
102
RTVSPropertyOp10
 70
     1
102
RTVSPropertyOp11
 70
     1
102
RTVSPropertyOp12
 70
     1
102
RTVSPropertyOp13
 70
     1
102
RTVSPropertyOp14
 70
     1
102
RTVSPropertyOp15
 70
     1
102
RTVSPropertyOp16
 70
     1
102
RTVSPropertyOp17
 70
     1
102
RTVSPropertyOp18
 70
     1
102
RTVSPropertyOp19
 70
     1
102
RTVSPropertyOp20
 70
     1
102
RTVSPropertyOp21
 70
     1
102
RTVSPropertyOp22
 70
     1
102
RTVSPropertyOp23
 70
     1
102
RTVSPropertyOp24
 70
     1
102
RTVSPropertyOp25
 70
     1
102
RTVSPropertyOp26
 70
     1
102
RTVSPropertyOp27
 70
     1
102
RTVSPropertyOp28
 70
     1
102
RTVSPropertyOp29
 70
     1
102
RTVSPropertyOp30
 70
     1
102
RTVSPropertyOp31
 70
     1
102
RTVSPropertyOp32
 70
     1
102
RTVSPropertyOp33
 70
     1
102
RTVSPropertyOp34
 70
     1
102
RTVSPropertyOp35
 70
     1
102
RTVSPropertyOp36
 70
     1
102
RTVSPropertyOp37
 70
     1
102
RTVSPropertyOp38
 70
     1
102
RTVSPropertyOp39
 70
     1
102
RTVSPropertyOp40
 70
     1
102
RTVSPropertyOp41
 70
     1
102
RTVSPropertyOp42
 70
     1
102
RTVSPropertyOp43
 70
     1
102
RTVSPropertyOp44
 70
     1
102
RTVSPropertyOp45
 70
     1
102
RTVSPropertyOp46
 70
     1
102
RTVSPropertyOp47
 70
     1
102
RTVSPropertyOp48
 70
     1
102
RTVSPropertyOp49
 70
     1
102
RTVSPropertyOp50
 70
     1
102
RTVSPropertyOp51
 70
     0
102
RTVSPropertyOp52
 70
     0
102
RTVSPropertyOp53
 70
     1
102
RTVSPropertyOp54
 70
     1
102
RTVSPropertyOp55
 70
     1
102
RTVSPropertyOp56
 70
     1
102
RTVSPropertyOp57
 70
     1
102
RTVSPropertyOp58
 70
     1
102
RTVSPropertyOp59
 70
     1
102
RTVSPropertyOp60
 70
     1
102
RTVSPropertyOp61
 70
     1
102
RTVSPropertyOp62
 70
     1
  0
XRECORD
  5
A78D
102
{ACAD_REACTORS
330
A78C
102
}
330
A78C
100
AcDbXrecord
280
     1
102
RTVSPost2010Prop28
280
     0
102
RTVSPost2010PropOp28
 70
     1
102
RTVSPost2010Prop29
280
     1
102
RTVSPost2010PropOp29
 70
     1
102
RTVSPost2010Prop30
280
     1
102
RTVSPost2010PropOp30
 70
     1
102
RTVSPost2010Prop31
280
     0
102
RTVSPost2010PropOp31
 70
     1
102
RTVSPost2010Prop32
280
     0
102
RTVSPost2010PropOp32
 70
     1
102
RTVSPost2010Prop33
280
     0
102
RTVSPost2010PropOp33
 70
     1
102
RTVSPost2010Prop34
280
     0
102
RTVSPost2010PropOp34
 70
     1
102
RTVSPost2010Prop35
280
     0
102
RTVSPost2010PropOp35
 70
     1
102
RTVSPost2010Prop36
280
     0
102
RTVSPost2010PropOp36
 70
     1
102
RTVSPost2010Prop37
 90
       50
102
RTVSPost2010PropOp37
 70
     1
102
RTVSPost2010Prop38
140
0.0
102
RTVSPost2010PropOp38
 70
     1
102
RTVSPost2010Prop39
140
1.0
102
RTVSPost2010PropOp39
 70
     1
102
RTVSPost2010Prop40
 90
        0
102
RTVSPost2010PropOp40
 70
     1
102
RTVSPost2010Prop41ColorIndex
 90
       18
102
RTVSPost2010Prop41ColorRGB
 90
        0
102
RTVSPost2010PropOp41
 70
     1
102
RTVSPost2010Prop42
 90
       50
102
RTVSPost2010PropOp42
 70
     1
102
RTVSPost2010Prop43
 90
        3
102
RTVSPost2010PropOp43
 70
     1
102
RTVSPost2010Prop44ColorIndex
 90
        5
102
RTVSPost2010Prop44ColorRGB
 90
      255
102
RTVSPost2010PropOp44
 70
     1
102
RTVSPost2010Prop45
280
     0
102
RTVSPost2010PropOp45
 70
     1
102
RTVSPost2010Prop46
 90
       50
102
RTVSPost2010PropOp46
 70
     1
102
RTVSPost2010Prop47
 90
       50
102
RTVSPost2010PropOp47
 70
     1
102
RTVSPost2010Prop48
 90
       50
102
RTVSPost2010PropOp48
 70
     1
102
RTVSPost2010Prop49
280
     0
102
RTVSPost2010PropOp49
 70
     1
102
RTVSPost2010Prop50
 90
       50
102
RTVSPost2010PropOp50
 70
     1
102
RTVSPost2010Prop51ColorIndex
 90
      256
102
RTVSPost2010Prop51ColorRGB
 90
-16777216
102
RTVSPost2010PropOp51
 70
     0
102
RTVSPost2010Prop52
140
1.0
102
RTVSPost2010PropOp52
 70
     0
102
RTVSPost2010Prop53
 90
        2
102
RTVSPost2010PropOp53
 70
     1
102
RTVSPost2010Prop54
  1
strokes_ogs.tif
102
RTVSPost2010PropOp54
 70
     1
102
RTVSPost2010Prop55
280
     0
102
RTVSPost2010PropOp55
 70
     1
102
RTVSPost2010Prop56
140
1.0
102
RTVSPost2010PropOp56
 70
     1
102
RTVSPost2010Prop57
140
1.0
102
RTVSPost2010PropOp57
 70
     1
102
RTVSPropertyOp0
 70
     1
102
RTVSPropertyOp1
 70
     1
102
RTVSPropertyOp2
 70
     1
102
RTVSPropertyOp3
 70
     1
102
RTVSPropertyOp4
 70
     1
102
RTVSPropertyOp5
 70
     1
102
RTVSPropertyOp6
 70
     1
102
RTVSPropertyOp7
 70
     1
102
RTVSPropertyOp8
 70
     1
102
RTVSPropertyOp9
 70
     1
102
RTVSPropertyOp10
 70
     1
102
RTVSPropertyOp11
 70
     1
102
RTVSPropertyOp12
 70
     1
102
RTVSPropertyOp13
 70
     1
102
RTVSPropertyOp14
 70
     1
102
RTVSPropertyOp15
 70
     1
102
RTVSPropertyOp16
 70
     1
102
RTVSPropertyOp17
 70
     1
102
RTVSPropertyOp18
 70
     1
102
RTVSPropertyOp19
 70
     1
102
RTVSPropertyOp20
 70
     1
102
RTVSPropertyOp21
 70
     1
102
RTVSPropertyOp22
 70
     1
102
RTVSPropertyOp23
 70
     1
102
RTVSPropertyOp24
 70
     1
102
RTVSPropertyOp25
 70
     1
102
RTVSPropertyOp26
 70
     1
102
RTVSPropertyOp27
 70
     1
102
RTVSPropertyOp28
 70
     1
102
RTVSPropertyOp29
 70
     1
102
RTVSPropertyOp30
 70
     1
102
RTVSPropertyOp31
 70
     1
102
RTVSPropertyOp32
 70
     1
102
RTVSPropertyOp33
 70
     1
102
RTVSPropertyOp34
 70
     1
102
RTVSPropertyOp35
 70
     1
102
RTVSPropertyOp36
 70
     1
102
RTVSPropertyOp37
 70
     1
102
RTVSPropertyOp38
 70
     1
102
RTVSPropertyOp39
 70
     1
102
RTVSPropertyOp40
 70
     1
102
RTVSPropertyOp41
 70
     1
102
RTVSPropertyOp42
 70
     1
102
RTVSPropertyOp43
 70
     1
102
RTVSPropertyOp44
 70
     1
102
RTVSPropertyOp45
 70
     1
102
RTVSPropertyOp46
 70
     1
102
RTVSPropertyOp47
 70
     1
102
RTVSPropertyOp48
 70
     1
102
RTVSPropertyOp49
 70
     1
102
RTVSPropertyOp50
 70
     1
102
RTVSPropertyOp51
 70
     0
102
RTVSPropertyOp52
 70
     0
102
RTVSPropertyOp53
 70
     1
102
RTVSPropertyOp54
 70
     1
102
RTVSPropertyOp55
 70
     1
102
RTVSPropertyOp56
 70
     1
102
RTVSPropertyOp57
 70
     1
102
RTVSPropertyOp58
 70
     1
102
RTVSPropertyOp59
 70
     1
102
RTVSPropertyOp60
 70
     1
102
RTVSPropertyOp61
 70
     1
102
RTVSPropertyOp62
 70
     1
  0
XRECORD
  5
A781
102
{ACAD_REACTORS
330
A780
102
}
330
A780
100
AcDbXrecord
280
     1
102
RTVSPost2010Prop28
280
     0
102
RTVSPost2010PropOp28
 70
     1
102
RTVSPost2010Prop29
280
     1
102
RTVSPost2010PropOp29
 70
     1
102
RTVSPost2010Prop30
280
     1
102
RTVSPost2010PropOp30
 70
     1
102
RTVSPost2010Prop31
280
     0
102
RTVSPost2010PropOp31
 70
     1
102
RTVSPost2010Prop32
280
     0
102
RTVSPost2010PropOp32
 70
     1
102
RTVSPost2010Prop33
280
     0
102
RTVSPost2010PropOp33
 70
     1
102
RTVSPost2010Prop34
280
     0
102
RTVSPost2010PropOp34
 70
     1
102
RTVSPost2010Prop35
280
     0
102
RTVSPost2010PropOp35
 70
     1
102
RTVSPost2010Prop36
280
     0
102
RTVSPost2010PropOp36
 70
     1
102
RTVSPost2010Prop37
 90
       50
102
RTVSPost2010PropOp37
 70
     1
102
RTVSPost2010Prop38
140
0.0
102
RTVSPost2010PropOp38
 70
     1
102
RTVSPost2010Prop39
140
1.0
102
RTVSPost2010PropOp39
 70
     1
102
RTVSPost2010Prop40
 90
        0
102
RTVSPost2010PropOp40
 70
     1
102
RTVSPost2010Prop41ColorIndex
 90
       18
102
RTVSPost2010Prop41ColorRGB
 90
        0
102
RTVSPost2010PropOp41
 70
     1
102
RTVSPost2010Prop42
 90
       50
102
RTVSPost2010PropOp42
 70
     1
102
RTVSPost2010Prop43
 90
        3
102
RTVSPost2010PropOp43
 70
     1
102
RTVSPost2010Prop44ColorIndex
 90
        5
102
RTVSPost2010Prop44ColorRGB
 90
      255
102
RTVSPost2010PropOp44
 70
     1
102
RTVSPost2010Prop45
280
     0
102
RTVSPost2010PropOp45
 70
     1
102
RTVSPost2010Prop46
 90
       50
102
RTVSPost2010PropOp46
 70
     1
102
RTVSPost2010Prop47
 90
       50
102
RTVSPost2010PropOp47
 70
     1
102
RTVSPost2010Prop48
 90
       50
102
RTVSPost2010PropOp48
 70
     1
102
RTVSPost2010Prop49
280
     0
102
RTVSPost2010PropOp49
 70
     1
102
RTVSPost2010Prop50
 90
       50
102
RTVSPost2010PropOp50
 70
     1
102
RTVSPost2010Prop51ColorIndex
 90
      256
102
RTVSPost2010Prop51ColorRGB
 90
-16777216
102
RTVSPost2010PropOp51
 70
     0
102
RTVSPost2010Prop52
140
1.0
102
RTVSPost2010PropOp52
 70
     0
102
RTVSPost2010Prop53
 90
        2
102
RTVSPost2010PropOp53
 70
     1
102
RTVSPost2010Prop54
  1
strokes_ogs.tif
102
RTVSPost2010PropOp54
 70
     1
102
RTVSPost2010Prop55
280
     0
102
RTVSPost2010PropOp55
 70
     1
102
RTVSPost2010Prop56
140
1.0
102
RTVSPost2010PropOp56
 70
     1
102
RTVSPost2010Prop57
140
1.0
102
RTVSPost2010PropOp57
 70
     1
102
RTVSPropertyOp0
 70
     1
102
RTVSPropertyOp1
 70
     1
102
RTVSPropertyOp2
 70
     1
102
RTVSPropertyOp3
 70
     1
102
RTVSPropertyOp4
 70
     1
102
RTVSPropertyOp5
 70
     1
102
RTVSPropertyOp6
 70
     1
102
RTVSPropertyOp7
 70
     1
102
RTVSPropertyOp8
 70
     1
102
RTVSPropertyOp9
 70
     1
102
RTVSPropertyOp10
 70
     1
102
RTVSPropertyOp11
 70
     1
102
RTVSPropertyOp12
 70
     1
102
RTVSPropertyOp13
 70
     1
102
RTVSPropertyOp14
 70
     1
102
RTVSPropertyOp15
 70
     1
102
RTVSPropertyOp16
 70
     1
102
RTVSPropertyOp17
 70
     1
102
RTVSPropertyOp18
 70
     1
102
RTVSPropertyOp19
 70
     1
102
RTVSPropertyOp20
 70
     1
102
RTVSPropertyOp21
 70
     1
102
RTVSPropertyOp22
 70
     1
102
RTVSPropertyOp23
 70
     1
102
RTVSPropertyOp24
 70
     1
102
RTVSPropertyOp25
 70
     1
102
RTVSPropertyOp26
 70
     1
102
RTVSPropertyOp27
 70
     1
102
RTVSPropertyOp28
 70
     1
102
RTVSPropertyOp29
 70
     1
102
RTVSPropertyOp30
 70
     1
102
RTVSPropertyOp31
 70
     1
102
RTVSPropertyOp32
 70
     1
102
RTVSPropertyOp33
 70
     1
102
RTVSPropertyOp34
 70
     1
102
RTVSPropertyOp35
 70
     1
102
RTVSPropertyOp36
 70
     1
102
RTVSPropertyOp37
 70
     1
102
RTVSPropertyOp38
 70
     1
102
RTVSPropertyOp39
 70
     1
102
RTVSPropertyOp40
 70
     1
102
RTVSPropertyOp41
 70
     1
102
RTVSPropertyOp42
 70
     1
102
RTVSPropertyOp43
 70
     1
102
RTVSPropertyOp44
 70
     1
102
RTVSPropertyOp45
 70
     1
102
RTVSPropertyOp46
 70
     1
102
RTVSPropertyOp47
 70
     1
102
RTVSPropertyOp48
 70
     1
102
RTVSPropertyOp49
 70
     1
102
RTVSPropertyOp50
 70
     1
102
RTVSPropertyOp51
 70
     0
102
RTVSPropertyOp52
 70
     0
102
RTVSPropertyOp53
 70
     1
102
RTVSPropertyOp54
 70
     1
102
RTVSPropertyOp55
 70
     1
102
RTVSPropertyOp56
 70
     1
102
RTVSPropertyOp57
 70
     1
102
RTVSPropertyOp58
 70
     1
102
RTVSPropertyOp59
 70
     1
102
RTVSPropertyOp60
 70
     1
102
RTVSPropertyOp61
 70
     1
102
RTVSPropertyOp62
 70
     1
  0
XRECORD
  5
A799
102
{ACAD_REACTORS
330
A798
102
}
330
A798
100
AcDbXrecord
280
     1
102
RTVSPost2010Prop28
280
     0
102
RTVSPost2010PropOp28
 70
     1
102
RTVSPost2010Prop29
280
     1
102
RTVSPost2010PropOp29
 70
     1
102
RTVSPost2010Prop30
280
     1
102
RTVSPost2010PropOp30
 70
     1
102
RTVSPost2010Prop31
280
     0
102
RTVSPost2010PropOp31
 70
     1
102
RTVSPost2010Prop32
280
     0
102
RTVSPost2010PropOp32
 70
     1
102
RTVSPost2010Prop33
280
     0
102
RTVSPost2010PropOp33
 70
     1
102
RTVSPost2010Prop34
280
     0
102
RTVSPost2010PropOp34
 70
     1
102
RTVSPost2010Prop35
280
     0
102
RTVSPost2010PropOp35
 70
     1
102
RTVSPost2010Prop36
280
     0
102
RTVSPost2010PropOp36
 70
     1
102
RTVSPost2010Prop37
 90
       50
102
RTVSPost2010PropOp37
 70
     1
102
RTVSPost2010Prop38
140
0.0
102
RTVSPost2010PropOp38
 70
     1
102
RTVSPost2010Prop39
140
1.0
102
RTVSPost2010PropOp39
 70
     1
102
RTVSPost2010Prop40
 90
        0
102
RTVSPost2010PropOp40
 70
     1
102
RTVSPost2010Prop41ColorIndex
 90
       18
102
RTVSPost2010Prop41ColorRGB
 90
        0
102
RTVSPost2010PropOp41
 70
     1
102
RTVSPost2010Prop42
 90
       50
102
RTVSPost2010PropOp42
 70
     1
102
RTVSPost2010Prop43
 90
        3
102
RTVSPost2010PropOp43
 70
     1
102
RTVSPost2010Prop44ColorIndex
 90
        5
102
RTVSPost2010Prop44ColorRGB
 90
      255
102
RTVSPost2010PropOp44
 70
     1
102
RTVSPost2010Prop45
280
     0
102
RTVSPost2010PropOp45
 70
     1
102
RTVSPost2010Prop46
 90
       50
102
RTVSPost2010PropOp46
 70
     1
102
RTVSPost2010Prop47
 90
       50
102
RTVSPost2010PropOp47
 70
     1
102
RTVSPost2010Prop48
 90
       50
102
RTVSPost2010PropOp48
 70
     1
102
RTVSPost2010Prop49
280
     0
102
RTVSPost2010PropOp49
 70
     1
102
RTVSPost2010Prop50
 90
       50
102
RTVSPost2010PropOp50
 70
     1
102
RTVSPost2010Prop51ColorIndex
 90
      256
102
RTVSPost2010Prop51ColorRGB
 90
-16777216
102
RTVSPost2010PropOp51
 70
     0
102
RTVSPost2010Prop52
140
1.0
102
RTVSPost2010PropOp52
 70
     0
102
RTVSPost2010Prop53
 90
        2
102
RTVSPost2010PropOp53
 70
     1
102
RTVSPost2010Prop54
  1
strokes_ogs.tif
102
RTVSPost2010PropOp54
 70
     1
102
RTVSPost2010Prop55
280
     0
102
RTVSPost2010PropOp55
 70
     1
102
RTVSPost2010Prop56
140
1.0
102
RTVSPost2010PropOp56
 70
     1
102
RTVSPost2010Prop57
140
1.0
102
RTVSPost2010PropOp57
 70
     1
102
RTVSPropertyOp0
 70
     1
102
RTVSPropertyOp1
 70
     1
102
RTVSPropertyOp2
 70
     1
102
RTVSPropertyOp3
 70
     1
102
RTVSPropertyOp4
 70
     1
102
RTVSPropertyOp5
 70
     1
102
RTVSPropertyOp6
 70
     1
102
RTVSPropertyOp7
 70
     1
102
RTVSPropertyOp8
 70
     1
102
RTVSPropertyOp9
 70
     1
102
RTVSPropertyOp10
 70
     1
102
RTVSPropertyOp11
 70
     1
102
RTVSPropertyOp12
 70
     1
102
RTVSPropertyOp13
 70
     1
102
RTVSPropertyOp14
 70
     1
102
RTVSPropertyOp15
 70
     1
102
RTVSPropertyOp16
 70
     1
102
RTVSPropertyOp17
 70
     1
102
RTVSPropertyOp18
 70
     1
102
RTVSPropertyOp19
 70
     1
102
RTVSPropertyOp20
 70
     1
102
RTVSPropertyOp21
 70
     1
102
RTVSPropertyOp22
 70
     1
102
RTVSPropertyOp23
 70
     1
102
RTVSPropertyOp24
 70
     1
102
RTVSPropertyOp25
 70
     1
102
RTVSPropertyOp26
 70
     1
102
RTVSPropertyOp27
 70
     1
102
RTVSPropertyOp28
 70
     1
102
RTVSPropertyOp29
 70
     1
102
RTVSPropertyOp30
 70
     1
102
RTVSPropertyOp31
 70
     1
102
RTVSPropertyOp32
 70
     1
102
RTVSPropertyOp33
 70
     1
102
RTVSPropertyOp34
 70
     1
102
RTVSPropertyOp35
 70
     1
102
RTVSPropertyOp36
 70
     1
102
RTVSPropertyOp37
 70
     1
102
RTVSPropertyOp38
 70
     1
102
RTVSPropertyOp39
 70
     1
102
RTVSPropertyOp40
 70
     1
102
RTVSPropertyOp41
 70
     1
102
RTVSPropertyOp42
 70
     1
102
RTVSPropertyOp43
 70
     1
102
RTVSPropertyOp44
 70
     1
102
RTVSPropertyOp45
 70
     1
102
RTVSPropertyOp46
 70
     1
102
RTVSPropertyOp47
 70
     1
102
RTVSPropertyOp48
 70
     1
102
RTVSPropertyOp49
 70
     1
102
RTVSPropertyOp50
 70
     1
102
RTVSPropertyOp51
 70
     0
102
RTVSPropertyOp52
 70
     0
102
RTVSPropertyOp53
 70
     1
102
RTVSPropertyOp54
 70
     1
102
RTVSPropertyOp55
 70
     1
102
RTVSPropertyOp56
 70
     1
102
RTVSPropertyOp57
 70
     1
102
RTVSPropertyOp58
 70
     1
102
RTVSPropertyOp59
 70
     1
102
RTVSPropertyOp60
 70
     1
102
RTVSPropertyOp61
 70
     1
102
RTVSPropertyOp62
 70
     1
  0
ENDSEC
  0
EOF
