ISO-10303-21;
HEADER;
/****************************************************************
 * Generated by software with PDE/Lib inside                    *
 * PDElib Version 4.4.1-0003, patched  Thursday August 19 11:58 *
 * International Technegroup Inc. (www.iti-oh.com)              *
 ****************************************************************/
FILE_DESCRIPTION((''),'2;1');
FILE_NAME('','2005-07-15T14:02:45',(''),(''),'','CADfix','');
FILE_SCHEMA(('AUTOMOTIVE_DESIGN'));
ENDSEC;
DATA;
#5=APPLICATION_CONTEXT('automotive design');
#6=APPLICATION_PROTOCOL_DEFINITION('Draft International Standard','automotive_design',1998,#5);
#7=PRODUCT_CONTEXT('None',#5,'mechanical');
#8=PRODUCT('cam','','None',(#7));
#9=PRODUCT_RELATED_PRODUCT_CATEGORY('part','description',(#8));
#10=PRODUCT_DEFINITION_FORMATION('None','None',#8);
#11=PRODUCT_DEFINITION_CONTEXT('part definition',#5,'design');
#12=PRODUCT_DEFINITION('None','None',#10,#11);
#18=(NAMED_UNIT(*)PLANE_ANGLE_UNIT()SI_UNIT($,.RADIAN.));
#19=DIMENSIONAL_EXPONENTS(0.0,0.0,0.0,0.0,0.0,0.0,0.0);
#20=PLANE_ANGLE_MEASURE_WITH_UNIT(PLANE_ANGLE_MEASURE(0.017453292500000),#18);
#24=(CONVERSION_BASED_UNIT('DEGREE',#20)NAMED_UNIT(#19)PLANE_ANGLE_UNIT());
#28=(NAMED_UNIT(*)SI_UNIT($,.STERADIAN.)SOLID_ANGLE_UNIT());
#32=(LENGTH_UNIT()NAMED_UNIT(*)SI_UNIT(.MILLI.,.METRE.));
#34=UNCERTAINTY_MEASURE_WITH_UNIT(LENGTH_MEASURE(0.001000000000000),#32,'DISTANCE_ACCURACY_VALUE','');
#36=(GEOMETRIC_REPRESENTATION_CONTEXT(3)GLOBAL_UNCERTAINTY_ASSIGNED_CONTEXT((#34))GLOBAL_UNIT_ASSIGNED_CONTEXT((#24,#28,#32))REPRESENTATION_CONTEXT('None','None'));
#37=AXIS2_PLACEMENT_3D('',#38,#39,#40);
#38=CARTESIAN_POINT('',(0.0,0.0,0.0));
#39=DIRECTION('',(0.0,0.0,1.0));
#40=DIRECTION('',(1.0,0.0,0.0));
#41=ADVANCED_BREP_SHAPE_REPRESENTATION('',(#37,#413),#36);
#42=PRODUCT_DEFINITION_SHAPE('','',#12);
#43=SHAPE_DEFINITION_REPRESENTATION(#42,#41);
#44=CARTESIAN_POINT('',(19.340168913213791,-3.713689748210752,3.050000000000000));
#45=CARTESIAN_POINT('',(19.340168913213791,3.713689989708883,3.050000000000000));
#46=CARTESIAN_POINT('',(22.859862374251371,-3.713689748210752,3.050000000000000));
#47=CARTESIAN_POINT('',(22.859862374251371,3.713689989708883,3.050000000000000));
#48=B_SPLINE_SURFACE_WITH_KNOTS('',1,1,((#44,#46),(#45,#47)),.UNSPECIFIED.,.F.,.F.,.U.,(2,2),(2,2),(0.0,7.427379737919635),(0.0,3.519693461037580),.UNSPECIFIED.);
#49=CARTESIAN_POINT('',(19.500009000000048,3.376388603226825,3.050000000000000));
#50=VERTEX_POINT('',#49);
#51=CARTESIAN_POINT('',(19.500008999999999,-3.376388603226825,3.050000000000000));
#52=VERTEX_POINT('',#51);
#53=CARTESIAN_POINT('',(19.500009000000048,3.376388603226825,3.050000000000000));
#54=CARTESIAN_POINT('',(19.500008999999999,-3.376388603226825,3.050000000000000));
#55=QUASI_UNIFORM_CURVE('',1,(#53,#54),.UNSPECIFIED.,.F.,.U.);
#56=EDGE_CURVE('',#50,#52,#55,.T.);
#57=ORIENTED_EDGE('',*,*,#56,.F.);
#58=CARTESIAN_POINT('',(22.700021000000000,3.376388603226825,3.050000000000000));
#59=VERTEX_POINT('',#58);
#60=CARTESIAN_POINT('',(22.700021000000000,3.376388603226825,3.050000000000000));
#61=CARTESIAN_POINT('',(19.500009000000048,3.376388603226825,3.050000000000000));
#62=QUASI_UNIFORM_CURVE('',1,(#60,#61),.UNSPECIFIED.,.F.,.U.);
#63=EDGE_CURVE('',#59,#50,#62,.T.);
#64=ORIENTED_EDGE('',*,*,#63,.F.);
#65=CARTESIAN_POINT('',(22.700021000000000,-3.376388603226825,3.050000000000000));
#66=VERTEX_POINT('',#65);
#67=CARTESIAN_POINT('',(22.700021000000000,3.376388603226825,3.050000000000000));
#68=CARTESIAN_POINT('',(22.700021000000000,-3.376388603226825,3.050000000000000));
#69=QUASI_UNIFORM_CURVE('',1,(#67,#68),.UNSPECIFIED.,.F.,.U.);
#70=EDGE_CURVE('',#59,#66,#69,.T.);
#71=ORIENTED_EDGE('',*,*,#70,.T.);
#72=CARTESIAN_POINT('',(22.700021000000000,-3.376388603226825,3.050000000000000));
#73=CARTESIAN_POINT('',(19.500008999999999,-3.376388603226825,3.050000000000000));
#74=QUASI_UNIFORM_CURVE('',1,(#72,#73),.UNSPECIFIED.,.F.,.U.);
#75=EDGE_CURVE('',#66,#52,#74,.T.);
#76=ORIENTED_EDGE('',*,*,#75,.T.);
#77=EDGE_LOOP('',(#57,#64,#71,#76));
#78=FACE_OUTER_BOUND('',#77,.T.);
#79=ADVANCED_FACE('',(#78),#48,.T.);
#80=CARTESIAN_POINT('',(22.780021300000001,3.295391906840669,-3.137338391109415));
#81=CARTESIAN_POINT('',(19.418008692500049,3.295391906840669,-3.137338391109415));
#82=CARTESIAN_POINT('',(22.780021299999994,6.378445757251673,0.101034216636506));
#83=CARTESIAN_POINT('',(19.418008692500045,6.378445757251673,0.101034216636506));
#84=CARTESIAN_POINT('',(22.780021300000001,3.194373078204727,3.240135897958734));
#85=CARTESIAN_POINT('',(19.418008692500049,3.194373078204727,3.240135897958734));
#93=(BOUNDED_SURFACE()B_SPLINE_SURFACE(1,2,((#80,#82,#84),(#81,#83,#85)),.UNSPECIFIED.,.F.,.F.,.U.)B_SPLINE_SURFACE_WITH_KNOTS((2,2),(3,3),(0.0,3.362012607499957),(0.0,7.445816585984316),.UNSPECIFIED.)GEOMETRIC_REPRESENTATION_ITEM()RATIONAL_B_SPLINE_SURFACE(((1.0,0.713250449154182,1.0),(1.0,0.713250449154182,1.0)))REPRESENTATION_ITEM('')SURFACE());
#94=CARTESIAN_POINT('',(19.500009000000048,3.376388603226825,-3.050000000000000));
#95=VERTEX_POINT('',#94);
#96=CARTESIAN_POINT('',(19.500009000000048,3.376388603226825,-3.050000000000002));
#97=CARTESIAN_POINT('',(19.500009000000048,6.131551320903806,-2.602085E-015));
#98=CARTESIAN_POINT('',(19.500009000000048,3.376388603226828,3.049999999999999));
#106=(BOUNDED_CURVE()B_SPLINE_CURVE(2,(#96,#97,#98),.UNSPECIFIED.,.F.,.U.)CURVE()GEOMETRIC_REPRESENTATION_ITEM()QUASI_UNIFORM_CURVE()RATIONAL_B_SPLINE_CURVE((1.0,0.742063429280621,1.0))REPRESENTATION_ITEM(''));
#107=EDGE_CURVE('',#95,#50,#106,.T.);
#108=ORIENTED_EDGE('',*,*,#107,.F.);
#109=CARTESIAN_POINT('',(22.700021000000000,3.376388603226825,-3.050000000000000));
#110=VERTEX_POINT('',#109);
#111=CARTESIAN_POINT('',(22.700021000000000,3.376388603226825,-3.050000000000000));
#112=CARTESIAN_POINT('',(19.500009000000048,3.376388603226825,-3.050000000000000));
#113=QUASI_UNIFORM_CURVE('',1,(#111,#112),.UNSPECIFIED.,.F.,.U.);
#114=EDGE_CURVE('',#110,#95,#113,.T.);
#115=ORIENTED_EDGE('',*,*,#114,.F.);
#116=CARTESIAN_POINT('',(22.700021000000000,3.376388603226825,-3.050000000000002));
#117=CARTESIAN_POINT('',(22.700021000000010,6.131551320903806,-2.602085E-015));
#118=CARTESIAN_POINT('',(22.700021000000000,3.376388603226828,3.049999999999999));
#126=(BOUNDED_CURVE()B_SPLINE_CURVE(2,(#116,#117,#118),.UNSPECIFIED.,.F.,.U.)CURVE()GEOMETRIC_REPRESENTATION_ITEM()QUASI_UNIFORM_CURVE()RATIONAL_B_SPLINE_CURVE((1.0,0.742063429280621,1.0))REPRESENTATION_ITEM(''));
#127=EDGE_CURVE('',#110,#59,#126,.T.);
#128=ORIENTED_EDGE('',*,*,#127,.T.);
#129=ORIENTED_EDGE('',*,*,#63,.T.);
#130=EDGE_LOOP('',(#108,#115,#128,#129));
#131=FACE_OUTER_BOUND('',#130,.T.);
#132=ADVANCED_FACE('',(#131),#93,.F.);
#133=CARTESIAN_POINT('',(19.340168913213841,3.713689748210752,-3.050000000000000));
#134=CARTESIAN_POINT('',(19.340168913213841,-3.713689989708883,-3.050000000000000));
#135=CARTESIAN_POINT('',(22.859862374251371,3.713689748210752,-3.050000000000000));
#136=CARTESIAN_POINT('',(22.859862374251371,-3.713689989708883,-3.050000000000000));
#137=B_SPLINE_SURFACE_WITH_KNOTS('',1,1,((#133,#135),(#134,#136)),.UNSPECIFIED.,.F.,.F.,.U.,(2,2),(2,2),(0.0,7.427379737919635),(0.0,3.519693461037530),.UNSPECIFIED.);
#138=CARTESIAN_POINT('',(19.500009000000048,-3.376388603226825,-3.050000000000000));
#139=VERTEX_POINT('',#138);
#140=CARTESIAN_POINT('',(19.500009000000048,-3.376388603226825,-3.050000000000000));
#141=CARTESIAN_POINT('',(19.500009000000048,3.376388603226825,-3.050000000000000));
#142=QUASI_UNIFORM_CURVE('',1,(#140,#141),.UNSPECIFIED.,.F.,.U.);
#143=EDGE_CURVE('',#139,#95,#142,.T.);
#144=ORIENTED_EDGE('',*,*,#143,.F.);
#145=CARTESIAN_POINT('',(22.700021000000000,-3.376388603226825,-3.050000000000000));
#146=VERTEX_POINT('',#145);
#147=CARTESIAN_POINT('',(22.700021000000000,-3.376388603226825,-3.050000000000000));
#148=CARTESIAN_POINT('',(19.500009000000048,-3.376388603226825,-3.050000000000000));
#149=QUASI_UNIFORM_CURVE('',1,(#147,#148),.UNSPECIFIED.,.F.,.U.);
#150=EDGE_CURVE('',#146,#139,#149,.T.);
#151=ORIENTED_EDGE('',*,*,#150,.F.);
#152=CARTESIAN_POINT('',(22.700021000000000,-3.376388603226825,-3.050000000000000));
#153=CARTESIAN_POINT('',(22.700021000000000,3.376388603226825,-3.050000000000000));
#154=QUASI_UNIFORM_CURVE('',1,(#152,#153),.UNSPECIFIED.,.F.,.U.);
#155=EDGE_CURVE('',#146,#110,#154,.T.);
#156=ORIENTED_EDGE('',*,*,#155,.T.);
#157=ORIENTED_EDGE('',*,*,#114,.T.);
#158=EDGE_LOOP('',(#144,#151,#156,#157));
#159=FACE_OUTER_BOUND('',#158,.T.);
#160=ADVANCED_FACE('',(#159),#137,.T.);
#161=CARTESIAN_POINT('',(22.780021300000001,-3.295391906840669,3.137338391109415));
#162=CARTESIAN_POINT('',(19.418008692499999,-3.295391906840669,3.137338391109415));
#163=CARTESIAN_POINT('',(22.780021299999994,-6.378445757251673,-0.101034216636506));
#164=CARTESIAN_POINT('',(19.418008692500006,-6.378445757251673,-0.101034216636506));
#165=CARTESIAN_POINT('',(22.780021300000001,-3.194373078204727,-3.240135897958734));
#166=CARTESIAN_POINT('',(19.418008692499999,-3.194373078204727,-3.240135897958734));
#174=(BOUNDED_SURFACE()B_SPLINE_SURFACE(1,2,((#161,#163,#165),(#162,#164,#166)),.UNSPECIFIED.,.F.,.F.,.U.)B_SPLINE_SURFACE_WITH_KNOTS((2,2),(3,3),(0.0,3.362012607500002),(0.0,7.445816585984316),.UNSPECIFIED.)GEOMETRIC_REPRESENTATION_ITEM()RATIONAL_B_SPLINE_SURFACE(((1.0,0.713250449154182,1.0),(1.0,0.713250449154182,1.0)))REPRESENTATION_ITEM('')SURFACE());
#175=CARTESIAN_POINT('',(19.500008999999999,-3.376388603226825,3.050000000000000));
#176=CARTESIAN_POINT('',(19.500009000000052,-6.131551320903805,-8.673617E-016));
#177=CARTESIAN_POINT('',(19.500009000000048,-3.376388603226825,-3.050000000000001));
#185=(BOUNDED_CURVE()B_SPLINE_CURVE(2,(#175,#176,#177),.UNSPECIFIED.,.F.,.U.)CURVE()GEOMETRIC_REPRESENTATION_ITEM()QUASI_UNIFORM_CURVE()RATIONAL_B_SPLINE_CURVE((1.0,0.742063429280621,1.0))REPRESENTATION_ITEM(''));
#186=EDGE_CURVE('',#52,#139,#185,.T.);
#187=ORIENTED_EDGE('',*,*,#186,.F.);
#188=ORIENTED_EDGE('',*,*,#75,.F.);
#189=CARTESIAN_POINT('',(22.700021000000000,-3.376388603226827,3.050000000000000));
#190=CARTESIAN_POINT('',(22.700021000000000,-6.131551320903805,-8.673617E-016));
#191=CARTESIAN_POINT('',(22.700021000000000,-3.376388603226825,-3.050000000000001));
#199=(BOUNDED_CURVE()B_SPLINE_CURVE(2,(#189,#190,#191),.UNSPECIFIED.,.F.,.U.)CURVE()GEOMETRIC_REPRESENTATION_ITEM()QUASI_UNIFORM_CURVE()RATIONAL_B_SPLINE_CURVE((1.0,0.742063429280621,1.0))REPRESENTATION_ITEM(''));
#200=EDGE_CURVE('',#66,#146,#199,.T.);
#201=ORIENTED_EDGE('',*,*,#200,.T.);
#202=ORIENTED_EDGE('',*,*,#150,.T.);
#203=EDGE_LOOP('',(#187,#188,#201,#202));
#204=FACE_OUTER_BOUND('',#203,.T.);
#205=ADVANCED_FACE('',(#204),#174,.F.);
#206=CARTESIAN_POINT('',(22.780021300000001,-2.229850833941982,9.666382911246188));
#207=CARTESIAN_POINT('',(19.418008692500049,-2.229850833941982,9.666382911246188));
#208=CARTESIAN_POINT('',(22.780021300000008,-17.699297177741606,-0.303462489086348));
#209=CARTESIAN_POINT('',(19.418008692500042,-17.699297177741606,-0.303462489086348));
#210=CARTESIAN_POINT('',(22.780021300000001,-1.957100555476046,-9.836816200984284));
#211=CARTESIAN_POINT('',(19.418008692500049,-1.957100555476046,-9.836816200984284));
#219=(BOUNDED_SURFACE()B_SPLINE_SURFACE(1,2,((#206,#208,#210),(#207,#209,#211)),.UNSPECIFIED.,.F.,.F.,.U.)B_SPLINE_SURFACE_WITH_KNOTS((2,2),(3,3),(0.0,3.362012607499956),(0.0,25.498216366827361),.UNSPECIFIED.)GEOMETRIC_REPRESENTATION_ITEM()RATIONAL_B_SPLINE_SURFACE(((1.0,0.529919264233205,1.0),(1.0,0.529919264233205,1.0)))REPRESENTATION_ITEM('')SURFACE());
#220=CARTESIAN_POINT('',(19.500009000000048,-2.480752425447045,9.499992000000001));
#221=VERTEX_POINT('',#220);
#222=CARTESIAN_POINT('',(19.500009000000048,-2.480740698407570,-9.500000000000199));
#223=VERTEX_POINT('',#222);
#224=CARTESIAN_POINT('',(19.500009000000048,-2.480752425447045,9.499992000000001));
#225=CARTESIAN_POINT('',(19.500009000000045,-7.500003750146698,6.075933832742968));
#226=CARTESIAN_POINT('',(19.500009000000048,-7.499999999997809,-0.000007097947909));
#227=CARTESIAN_POINT('',(19.500009000000045,-7.499996249848919,-6.075948028638786));
#228=CARTESIAN_POINT('',(19.500009000000048,-2.480740698407570,-9.500000000000197));
#236=(BOUNDED_CURVE()B_SPLINE_CURVE(2,(#224,#225,#226,#227,#228),.UNSPECIFIED.,.F.,.U.)B_SPLINE_CURVE_WITH_KNOTS((3,2,3),(0.0,0.500000000000000,1.0),.UNSPECIFIED.)CURVE()GEOMETRIC_REPRESENTATION_ITEM()RATIONAL_B_SPLINE_CURVE((1.0,0.884178482914545,1.0,0.884178482914545,1.0))REPRESENTATION_ITEM(''));
#237=EDGE_CURVE('',#221,#223,#236,.T.);
#238=ORIENTED_EDGE('',*,*,#237,.T.);
#239=CARTESIAN_POINT('',(22.700021000000000,-2.480740698407570,-9.500000000000199));
#240=VERTEX_POINT('',#239);
#241=CARTESIAN_POINT('',(22.700021000000000,-2.480740698407570,-9.500000000000199));
#242=CARTESIAN_POINT('',(19.500009000000048,-2.480740698407570,-9.500000000000199));
#243=QUASI_UNIFORM_CURVE('',1,(#241,#242),.UNSPECIFIED.,.F.,.U.);
#244=EDGE_CURVE('',#240,#223,#243,.T.);
#245=ORIENTED_EDGE('',*,*,#244,.F.);
#246=CARTESIAN_POINT('',(22.700021000000000,-2.480752425447045,9.499992000000001));
#247=VERTEX_POINT('',#246);
#248=CARTESIAN_POINT('',(22.700021000000000,-2.480752425447045,9.499992000000001));
#249=CARTESIAN_POINT('',(22.700021000000003,-7.500003750146698,6.075933832742968));
#250=CARTESIAN_POINT('',(22.700021000000000,-7.499999999997809,-0.000007097947909));
#251=CARTESIAN_POINT('',(22.700021000000003,-7.499996249848919,-6.075948028638786));
#252=CARTESIAN_POINT('',(22.700021000000000,-2.480740698407570,-9.500000000000197));
#260=(BOUNDED_CURVE()B_SPLINE_CURVE(2,(#248,#249,#250,#251,#252),.UNSPECIFIED.,.F.,.U.)B_SPLINE_CURVE_WITH_KNOTS((3,2,3),(0.0,0.500000000000000,1.0),.UNSPECIFIED.)CURVE()GEOMETRIC_REPRESENTATION_ITEM()RATIONAL_B_SPLINE_CURVE((1.0,0.884178482914545,1.0,0.884178482914545,1.0))REPRESENTATION_ITEM(''));
#261=EDGE_CURVE('',#247,#240,#260,.T.);
#262=ORIENTED_EDGE('',*,*,#261,.F.);
#263=CARTESIAN_POINT('',(22.700021000000000,-2.480752425447045,9.499992000000001));
#264=CARTESIAN_POINT('',(19.500009000000048,-2.480752425447045,9.499992000000001));
#265=QUASI_UNIFORM_CURVE('',1,(#263,#264),.UNSPECIFIED.,.F.,.U.);
#266=EDGE_CURVE('',#247,#221,#265,.T.);
#267=ORIENTED_EDGE('',*,*,#266,.T.);
#268=EDGE_LOOP('',(#238,#245,#262,#267));
#269=FACE_OUTER_BOUND('',#268,.T.);
#270=ADVANCED_FACE('',(#269),#219,.T.);
#271=CARTESIAN_POINT('',(19.340168913213841,-4.102191935986999,-9.500000000000199));
#272=CARTESIAN_POINT('',(19.340168913213841,31.602192516443509,-9.500000000000199));
#273=CARTESIAN_POINT('',(22.859862374251371,-4.102191935986999,-9.500000000000199));
#274=CARTESIAN_POINT('',(22.859862374251371,31.602192516443509,-9.500000000000199));
#275=B_SPLINE_SURFACE_WITH_KNOTS('',1,1,((#271,#273),(#272,#274)),.UNSPECIFIED.,.F.,.F.,.U.,(2,2),(2,2),(0.0,35.704384452430503),(0.0,3.519693461037530),.UNSPECIFIED.);
#276=CARTESIAN_POINT('',(19.500009000000048,29.980740698407551,-9.500000000000199));
#277=VERTEX_POINT('',#276);
#278=CARTESIAN_POINT('',(19.500009000000048,29.980740698407551,-9.500000000000199));
#279=CARTESIAN_POINT('',(19.500009000000048,-2.480740698407570,-9.500000000000199));
#280=QUASI_UNIFORM_CURVE('',1,(#278,#279),.UNSPECIFIED.,.F.,.U.);
#281=EDGE_CURVE('',#277,#223,#280,.T.);
#282=ORIENTED_EDGE('',*,*,#281,.F.);
#283=CARTESIAN_POINT('',(22.700021000000000,29.980740698407551,-9.500000000000199));
#284=VERTEX_POINT('',#283);
#285=CARTESIAN_POINT('',(22.700021000000000,29.980740698407551,-9.500000000000199));
#286=CARTESIAN_POINT('',(19.500009000000048,29.980740698407551,-9.500000000000199));
#287=QUASI_UNIFORM_CURVE('',1,(#285,#286),.UNSPECIFIED.,.F.,.U.);
#288=EDGE_CURVE('',#284,#277,#287,.T.);
#289=ORIENTED_EDGE('',*,*,#288,.F.);
#290=CARTESIAN_POINT('',(22.700021000000000,29.980740698407551,-9.500000000000199));
#291=CARTESIAN_POINT('',(22.700021000000000,-2.480740698407570,-9.500000000000199));
#292=QUASI_UNIFORM_CURVE('',1,(#290,#291),.UNSPECIFIED.,.F.,.U.);
#293=EDGE_CURVE('',#284,#240,#292,.T.);
#294=ORIENTED_EDGE('',*,*,#293,.T.);
#295=ORIENTED_EDGE('',*,*,#244,.T.);
#296=EDGE_LOOP('',(#282,#289,#294,#295));
#297=FACE_OUTER_BOUND('',#296,.T.);
#298=ADVANCED_FACE('',(#297),#275,.T.);
#299=CARTESIAN_POINT('',(22.780021300000001,29.729838901505499,-9.666390601526953));
#300=CARTESIAN_POINT('',(19.418008692500049,29.729838901505499,-9.666390601526953));
#301=CARTESIAN_POINT('',(22.780021300000008,45.199297552326982,0.303435702915469));
#302=CARTESIAN_POINT('',(19.418008692500042,45.199297552326982,0.303435702915469));
#303=CARTESIAN_POINT('',(22.780021300000001,29.457112698290469,9.836808847378617));
#304=CARTESIAN_POINT('',(19.418008692500049,29.457112698290469,9.836808847378617));
#312=(BOUNDED_SURFACE()B_SPLINE_SURFACE(1,2,((#299,#301,#303),(#300,#302,#304)),.UNSPECIFIED.,.F.,.F.,.U.)B_SPLINE_SURFACE_WITH_KNOTS((2,2),(3,3),(0.0,3.362012607499953),(0.0,25.498216366827361),.UNSPECIFIED.)GEOMETRIC_REPRESENTATION_ITEM()RATIONAL_B_SPLINE_SURFACE(((1.0,0.529919264233205,1.0),(1.0,0.529919264233205,1.0)))REPRESENTATION_ITEM('')SURFACE());
#313=CARTESIAN_POINT('',(19.500009000000048,29.980752425447051,9.499992000000001));
#314=VERTEX_POINT('',#313);
#315=CARTESIAN_POINT('',(19.500009000000048,29.980740698407551,-9.500000000000210));
#316=CARTESIAN_POINT('',(19.500009000000052,34.999996249848927,-6.075948028638805));
#317=CARTESIAN_POINT('',(19.500009000000048,34.999999999997812,-0.000007097947915));
#318=CARTESIAN_POINT('',(19.500009000000052,35.000003750146703,6.075933832742964));
#319=CARTESIAN_POINT('',(19.500009000000048,29.980752425447051,9.499992000000001));
#327=(BOUNDED_CURVE()B_SPLINE_CURVE(2,(#315,#316,#317,#318,#319),.UNSPECIFIED.,.F.,.U.)B_SPLINE_CURVE_WITH_KNOTS((3,2,3),(0.0,0.500000000000000,1.0),.UNSPECIFIED.)CURVE()GEOMETRIC_REPRESENTATION_ITEM()RATIONAL_B_SPLINE_CURVE((1.0,0.884178482914544,1.0,0.884178482914544,1.0))REPRESENTATION_ITEM(''));
#328=EDGE_CURVE('',#277,#314,#327,.T.);
#329=ORIENTED_EDGE('',*,*,#328,.T.);
#330=CARTESIAN_POINT('',(22.700021000000000,29.980752425447051,9.499992000000001));
#331=VERTEX_POINT('',#330);
#332=CARTESIAN_POINT('',(22.700021000000000,29.980752425447051,9.499992000000001));
#333=CARTESIAN_POINT('',(19.500009000000048,29.980752425447051,9.499992000000001));
#334=QUASI_UNIFORM_CURVE('',1,(#332,#333),.UNSPECIFIED.,.F.,.U.);
#335=EDGE_CURVE('',#331,#314,#334,.T.);
#336=ORIENTED_EDGE('',*,*,#335,.F.);
#337=CARTESIAN_POINT('',(22.700021000000000,29.980740698407551,-9.500000000000210));
#338=CARTESIAN_POINT('',(22.700021000000000,34.999996249848927,-6.075948028638805));
#339=CARTESIAN_POINT('',(22.700021000000000,34.999999999997812,-0.000007097947915));
#340=CARTESIAN_POINT('',(22.700021000000000,35.000003750146703,6.075933832742964));
#341=CARTESIAN_POINT('',(22.700021000000000,29.980752425447051,9.499992000000001));
#349=(BOUNDED_CURVE()B_SPLINE_CURVE(2,(#337,#338,#339,#340,#341),.UNSPECIFIED.,.F.,.U.)B_SPLINE_CURVE_WITH_KNOTS((3,2,3),(0.0,0.500000000000000,1.0),.UNSPECIFIED.)CURVE()GEOMETRIC_REPRESENTATION_ITEM()RATIONAL_B_SPLINE_CURVE((1.0,0.884178482914544,1.0,0.884178482914544,1.0))REPRESENTATION_ITEM(''));
#350=EDGE_CURVE('',#284,#331,#349,.T.);
#351=ORIENTED_EDGE('',*,*,#350,.F.);
#352=ORIENTED_EDGE('',*,*,#288,.T.);
#353=EDGE_LOOP('',(#329,#336,#351,#352));
#354=FACE_OUTER_BOUND('',#353,.T.);
#355=ADVANCED_FACE('',(#354),#312,.T.);
#356=CARTESIAN_POINT('',(19.340168913213841,31.602205139283281,9.499992000000001));
#357=CARTESIAN_POINT('',(19.340168913213841,-4.102205429511742,9.499992000000001));
#358=CARTESIAN_POINT('',(22.859862374251371,31.602205139283281,9.499992000000001));
#359=CARTESIAN_POINT('',(22.859862374251371,-4.102205429511742,9.499992000000001));
#360=B_SPLINE_SURFACE_WITH_KNOTS('',1,1,((#356,#358),(#357,#359)),.UNSPECIFIED.,.F.,.F.,.U.,(2,2),(2,2),(0.0,35.704410568795019),(0.0,3.519693461037530),.UNSPECIFIED.);
#361=CARTESIAN_POINT('',(19.500009000000048,-2.480752425447045,9.499992000000001));
#362=CARTESIAN_POINT('',(19.500009000000048,29.980752425447051,9.499992000000001));
#363=QUASI_UNIFORM_CURVE('',1,(#361,#362),.UNSPECIFIED.,.F.,.U.);
#364=EDGE_CURVE('',#221,#314,#363,.T.);
#365=ORIENTED_EDGE('',*,*,#364,.F.);
#366=ORIENTED_EDGE('',*,*,#266,.F.);
#367=CARTESIAN_POINT('',(22.700021000000000,-2.480752425447045,9.499992000000001));
#368=CARTESIAN_POINT('',(22.700021000000000,29.980752425447051,9.499992000000001));
#369=QUASI_UNIFORM_CURVE('',1,(#367,#368),.UNSPECIFIED.,.F.,.U.);
#370=EDGE_CURVE('',#247,#331,#369,.T.);
#371=ORIENTED_EDGE('',*,*,#370,.T.);
#372=ORIENTED_EDGE('',*,*,#335,.T.);
#373=EDGE_LOOP('',(#365,#366,#371,#372));
#374=FACE_OUTER_BOUND('',#373,.T.);
#375=ADVANCED_FACE('',(#374),#360,.T.);
#376=CARTESIAN_POINT('',(19.500008999999999,-9.622874917624163,10.449042098649331));
#377=CARTESIAN_POINT('',(19.500008999999999,37.122876057563353,10.449042098649331));
#378=CARTESIAN_POINT('',(19.500008999999999,-9.622874917624163,-10.449050098649529));
#379=CARTESIAN_POINT('',(19.500008999999999,37.122876057563353,-10.449050098649529));
#380=B_SPLINE_SURFACE_WITH_KNOTS('',1,1,((#376,#378),(#377,#379)),.UNSPECIFIED.,.F.,.F.,.U.,(2,2),(2,2),(0.0,46.745750975187512),(0.0,20.898092197298869),.UNSPECIFIED.);
#381=ORIENTED_EDGE('',*,*,#364,.T.);
#382=ORIENTED_EDGE('',*,*,#328,.F.);
#383=ORIENTED_EDGE('',*,*,#281,.T.);
#384=ORIENTED_EDGE('',*,*,#237,.F.);
#385=EDGE_LOOP('',(#381,#382,#383,#384));
#386=FACE_OUTER_BOUND('',#385,.T.);
#387=ORIENTED_EDGE('',*,*,#186,.T.);
#388=ORIENTED_EDGE('',*,*,#143,.T.);
#389=ORIENTED_EDGE('',*,*,#107,.T.);
#390=ORIENTED_EDGE('',*,*,#56,.T.);
#391=EDGE_LOOP('',(#387,#388,#389,#390));
#392=FACE_BOUND('',#391,.T.);
#393=ADVANCED_FACE('',(#386,#392),#380,.T.);
#394=CARTESIAN_POINT('',(22.700021000000000,-9.622874917624346,10.449042098649331));
#395=CARTESIAN_POINT('',(22.700021000000000,37.122876057563182,10.449042098649331));
#396=CARTESIAN_POINT('',(22.700021000000000,-9.622874917624346,-10.449050098649529));
#397=CARTESIAN_POINT('',(22.700021000000000,37.122876057563182,-10.449050098649529));
#398=B_SPLINE_SURFACE_WITH_KNOTS('',1,1,((#394,#396),(#395,#397)),.UNSPECIFIED.,.F.,.F.,.U.,(2,2),(2,2),(0.0,46.745750975187534),(0.0,20.898092197298869),.UNSPECIFIED.);
#399=ORIENTED_EDGE('',*,*,#370,.F.);
#400=ORIENTED_EDGE('',*,*,#261,.T.);
#401=ORIENTED_EDGE('',*,*,#293,.F.);
#402=ORIENTED_EDGE('',*,*,#350,.T.);
#403=EDGE_LOOP('',(#399,#400,#401,#402));
#404=FACE_OUTER_BOUND('',#403,.T.);
#405=ORIENTED_EDGE('',*,*,#155,.F.);
#406=ORIENTED_EDGE('',*,*,#200,.F.);
#407=ORIENTED_EDGE('',*,*,#70,.F.);
#408=ORIENTED_EDGE('',*,*,#127,.F.);
#409=EDGE_LOOP('',(#405,#406,#407,#408));
#410=FACE_BOUND('',#409,.T.);
#411=ADVANCED_FACE('',(#404,#410),#398,.F.);
#412=CLOSED_SHELL('',(#79,#132,#160,#205,#270,#298,#355,#375,#393,#411));
#413=MANIFOLD_SOLID_BREP('cam',#412);
#419=(NAMED_UNIT(*)PLANE_ANGLE_UNIT()SI_UNIT($,.RADIAN.));
#420=DIMENSIONAL_EXPONENTS(0.0,0.0,0.0,0.0,0.0,0.0,0.0);
#421=PLANE_ANGLE_MEASURE_WITH_UNIT(PLANE_ANGLE_MEASURE(0.017453292500000),#419);
#425=(CONVERSION_BASED_UNIT('DEGREE',#421)NAMED_UNIT(#420)PLANE_ANGLE_UNIT());
#429=(NAMED_UNIT(*)SI_UNIT($,.STERADIAN.)SOLID_ANGLE_UNIT());
#433=(LENGTH_UNIT()NAMED_UNIT(*)SI_UNIT(.MILLI.,.METRE.));
#435=UNCERTAINTY_MEASURE_WITH_UNIT(LENGTH_MEASURE(0.001000000000000),#433,'DISTANCE_ACCURACY_VALUE','');
#437=(GEOMETRIC_REPRESENTATION_CONTEXT(3)GLOBAL_UNCERTAINTY_ASSIGNED_CONTEXT((#435))GLOBAL_UNIT_ASSIGNED_CONTEXT((#425,#429,#433))REPRESENTATION_CONTEXT('','3D'));
ENDSEC;
END-ISO-10303-21;
