  0
SECTION
  2
HEADER
  9
$ACADVER
  1
AC1015
  9
$ACADMAINTVER
 70
    20
  9
$DWGCODEPAGE
  3
ANSI_932
  9
$INSBASE
 10
0.0
 20
0.0
 30
0.0
  9
$EXTMIN
 10
10.0
 20
9.999999999999998
 30
0.0
  9
$EXTMAX
 10
367.2826845275325
 20
185.3483669999999
 30
0.0
  9
$LIMMIN
 10
0.0
 20
0.0
  9
$LIMMAX
 10
396.0
 20
273.0
  9
$ORTHOMODE
 70
     1
  9
$REGENMODE
 70
     1
  9
$FILLMODE
 70
     1
  9
$QTEXTMODE
 70
     0
  9
$MIRRTEXT
 70
     1
  9
$LTSCALE
 40
20.0
  9
$ATTMODE
 70
     1
  9
$TEXTSIZE
 40
5.0
  9
$TRACEWID
 40
1.0
  9
$TEXTSTYLE
  7
STANDARD
  9
$CLAYER
  8
0
  9
$CELTYPE
  6
BYLAYER
  9
$CECOLOR
 62
   256
  9
$CELTSCALE
 40
1.0
  9
$DISPSILH
 70
     0
  9
$DIMSCALE
 40
1.0
  9
$DIMASZ
 40
3.0
  9
$DIMEXO
 40
1.0
  9
$DIMDLI
 40
10.0
  9
$DIMRND
 40
0.0
  9
$DIMDLE
 40
0.0
  9
$DIMEXE
 40
1.0
  9
$DIMTP
 40
0.0
  9
$DIMTM
 40
0.0
  9
$DIMTXT
 40
3.2
  9
$DIMCEN
 40
0.0
  9
$DIMTSZ
 40
0.0
  9
$DIMTOL
 70
     0
  9
$DIMLIM
 70
     0
  9
$DIMTIH
 70
     0
  9
$DIMTOH
 70
     0
  9
$DIMSE1
 70
     0
  9
$DIMSE2
 70
     0
  9
$DIMTAD
 70
     3
  9
$DIMZIN
 70
     8
  9
$DIMBLK
  1

  9
$DIMASO
 70
     1
  9
$DIMSHO
 70
     1
  9
$DIMPOST
  1

  9
$DIMAPOST
  1

  9
$DIMALT
 70
     0
  9
$DIMALTD
 70
     2
  9
$DIMALTF
 40
25.4
  9
$DIMLFAC
 40
1.0
  9
$DIMTOFL
 70
     1
  9
$DIMTVP
 40
0.0
  9
$DIMTIX
 70
     0
  9
$DIMSOXD
 70
     0
  9
$DIMSAH
 70
     1
  9
$DIMBLK1
  1

  9
$DIMBLK2
  1

  9
$DIMSTYLE
  2
STANDARD
  9
$DIMCLRD
 70
     0
  9
$DIMCLRE
 70
     0
  9
$DIMCLRT
 70
     0
  9
$DIMTFAC
 40
1.0
  9
$DIMGAP
 40
1.0
  9
$DIMJUST
 70
     0
  9
$DIMSD1
 70
     0
  9
$DIMSD2
 70
     0
  9
$DIMTOLJ
 70
     1
  9
$DIMTZIN
 70
     0
  9
$DIMALTZ
 70
     0
  9
$DIMALTTZ
 70
     0
  9
$DIMUPT
 70
     0
  9
$DIMDEC
 70
     4
  9
$DIMTDEC
 70
     4
  9
$DIMALTU
 70
     2
  9
$DIMALTTD
 70
     2
  9
$DIMTXSTY
  7
STANDARD
  9
$DIMAUNIT
 70
     0
  9
$DIMADEC
 70
     0
  9
$DIMALTRND
 40
0.0
  9
$DIMAZIN
 70
     0
  9
$DIMDSEP
 70
    46
  9
$DIMATFIT
 70
     3
  9
$DIMFRAC
 70
     0
  9
$DIMLDRBLK
  1

  9
$DIMLUNIT
 70
     2
  9
$DIMLWD
 70
    -2
  9
$DIMLWE
 70
    -2
  9
$DIMTMOVE
 70
     0
  9
$LUNITS
 70
     2
  9
$LUPREC
 70
     4
  9
$SKETCHINC
 40
1.0
  9
$FILLETRAD
 40
2.5
  9
$AUNITS
 70
     0
  9
$AUPREC
 70
     2
  9
$MENU
  1
.
  9
$ELEVATION
 40
0.0
  9
$PELEVATION
 40
0.0
  9
$THICKNESS
 40
0.0
  9
$LIMCHECK
 70
     0
  9
$CHAMFERA
 40
10.0
  9
$CHAMFERB
 40
10.0
  9
$CHAMFERC
 40
0.0
  9
$CHAMFERD
 40
0.0
  9
$SKPOLY
 70
     0
  9
$TDCREATE
 40
2451073.618280440
  9
$TDUCREATE
 40
2451073.243280440
  9
$TDUPDATE
 40
2457192.598914294
  9
$TDUUPDATE
 40
2457192.223914294
  9
$TDINDWG
 40
0.0084202778
  9
$TDUSRTIMER
 40
0.0084200463
  9
$USRTIMER
 70
     1
  9
$ANGBASE
 50
0.0
  9
$ANGDIR
 70
     0
  9
$PDMODE
 70
     0
  9
$PDSIZE
 40
0.0
  9
$PLINEWID
 40
0.0
  9
$SPLFRAME
 70
     0
  9
$SPLINETYPE
 70
     6
  9
$SPLINESEGS
 70
     8
  9
$HANDSEED
  5
9D1A
  9
$SURFTAB1
 70
     6
  9
$SURFTAB2
 70
     6
  9
$SURFTYPE
 70
     6
  9
$SURFU
 70
     6
  9
$SURFV
 70
     6
  9
$UCSBASE
  2

  9
$UCSNAME
  2

  9
$UCSORG
 10
0.0
 20
0.0
 30
0.0
  9
$UCSXDIR
 10
1.0
 20
0.0
 30
0.0
  9
$UCSYDIR
 10
0.0
 20
1.0
 30
0.0
  9
$UCSORTHOREF
  2

  9
$UCSORTHOVIEW
 70
     0
  9
$UCSORGTOP
 10
0.0
 20
0.0
 30
0.0
  9
$UCSORGBOTTOM
 10
0.0
 20
0.0
 30
0.0
  9
$UCSORGLEFT
 10
0.0
 20
0.0
 30
0.0
  9
$UCSORGRIGHT
 10
0.0
 20
0.0
 30
0.0
  9
$UCSORGFRONT
 10
0.0
 20
0.0
 30
0.0
  9
$UCSORGBACK
 10
0.0
 20
0.0
 30
0.0
  9
$PUCSBASE
  2

  9
$PUCSNAME
  2

  9
$PUCSORG
 10
0.0
 20
0.0
 30
0.0
  9
$PUCSXDIR
 10
1.0
 20
0.0
 30
0.0
  9
$PUCSYDIR
 10
0.0
 20
1.0
 30
0.0
  9
$PUCSORTHOREF
  2

  9
$PUCSORTHOVIEW
 70
     0
  9
$PUCSORGTOP
 10
0.0
 20
0.0
 30
0.0
  9
$PUCSORGBOTTOM
 10
0.0
 20
0.0
 30
0.0
  9
$PUCSORGLEFT
 10
0.0
 20
0.0
 30
0.0
  9
$PUCSORGRIGHT
 10
0.0
 20
0.0
 30
0.0
  9
$PUCSORGFRONT
 10
0.0
 20
0.0
 30
0.0
  9
$PUCSORGBACK
 10
0.0
 20
0.0
 30
0.0
  9
$USERI1
 70
     0
  9
$USERI2
 70
     0
  9
$USERI3
 70
     0
  9
$USERI4
 70
     0
  9
$USERI5
 70
     0
  9
$USERR1
 40
0.0
  9
$USERR2
 40
0.0
  9
$USERR3
 40
0.0
  9
$USERR4
 40
0.0
  9
$USERR5
 40
0.0
  9
$WORLDVIEW
 70
     1
  9
$SHADEDGE
 70
     3
  9
$SHADEDIF
 70
    70
  9
$TILEMODE
 70
     1
  9
$MAXACTVP
 70
    16
  9
$PINSBASE
 10
0.0
 20
0.0
 30
0.0
  9
$PLIMCHECK
 70
     0
  9
$PEXTMIN
 10
1.000000000000000E+20
 20
1.000000000000000E+20
 30
1.000000000000000E+20
  9
$PEXTMAX
 10
-1.000000000000000E+20
 20
-1.000000000000000E+20
 30
-1.000000000000000E+20
  9
$PLIMMIN
 10
0.0
 20
0.0
  9
$PLIMMAX
 10
420.0
 20
297.0
  9
$UNITMODE
 70
     0
  9
$VISRETAIN
 70
     0
  9
$PLINEGEN
 70
     0
  9
$PSLTSCALE
 70
     0
  9
$TREEDEPTH
 70
  3020
  9
$CMLSTYLE
  2
STANDARD
  9
$CMLJUST
 70
     0
  9
$CMLSCALE
 40
1.0
  9
$PROXYGRAPHICS
 70
     1
  9
$MEASUREMENT
 70
     0
  9
$CELWEIGHT
370
    -1
  9
$ENDCAPS
280
     0
  9
$JOINSTYLE
280
     0
  9
$LWDISPLAY
290
     0
  9
$INSUNITS
 70
     0
  9
$HYPERLINKBASE
  1

  9
$STYLESHEET
  1

  9
$XEDIT
290
     1
  9
$CEPSNTYPE
380
     0
  9
$PSTYLEMODE
290
     1
  9
$FINGERPRINTGUID
  2
{49CAD579-4A68-4C9C-BC8D-262842A0C2FE}
  9
$VERSIONGUID
  2
{EC46ECEA-0977-4776-9270-001CC068F428}
  9
$EXTNAMES
290
     1
  9
$PSVPSCALE
 40
0.0
  9
$OLESTARTUP
290
     0
  0
ENDSEC
  0
SECTION
  2
CLASSES
  0
CLASS
  1
ACDBDICTIONARYWDFLT
  2
AcDbDictionaryWithDefault
  3
ObjectDBX Classes
 90
        0
280
     0
281
     0
  0
CLASS
  1
ACDBPLACEHOLDER
  2
AcDbPlaceHolder
  3
ObjectDBX Classes
 90
        0
280
     0
281
     0
  0
CLASS
  1
LAYOUT
  2
AcDbLayout
  3
ObjectDBX Classes
 90
        0
280
     0
281
     0
  0
CLASS
  1
DICTIONARYVAR
  2
AcDbDictionaryVar
  3
ObjectDBX Classes
 90
        0
280
     0
281
     0
  0
CLASS
  1
MATERIAL
  2
AcDbMaterial
  3
ObjectDBX Classes
 90
     1153
280
     0
281
     0
  0
CLASS
  1
VISUALSTYLE
  2
AcDbVisualStyle
  3
ObjectDBX Classes
 90
     4095
280
     0
281
     0
  0
CLASS
  1
TABLESTYLE
  2
AcDbTableStyle
  3
ObjectDBX Classes
 90
     4095
280
     0
281
     0
  0
CLASS
  1
SCALE
  2
AcDbScale
  3
ObjectDBX Classes
 90
     1153
280
     0
281
     0
  0
CLASS
  1
MLEADERSTYLE
  2
AcDbMLeaderStyle
  3
ACDB_MLEADERSTYLE_CLASS
 90
     4095
280
     0
281
     0
  0
CLASS
  1
ACDBSECTIONVIEWSTYLE
  2
AcDbSectionViewStyle
  3
ObjectDBX Classes
 90
     1025
280
     0
281
     0
  0
CLASS
  1
ACDBDETAILVIEWSTYLE
  2
AcDbDetailViewStyle
  3
ObjectDBX Classes
 90
     1025
280
     0
281
     0
  0
CLASS
  1
CELLSTYLEMAP
  2
AcDbCellStyleMap
  3
ObjectDBX Classes
 90
     1152
280
     0
281
     0
  0
ENDSEC
  0
SECTION
  2
TABLES
  0
TABLE
  2
VPORT
  5
9601
330
0
100
AcDbSymbolTable
 70
     1
  0
VPORT
  5
9C63
330
9601
100
AcDbSymbolTableRecord
100
AcDbViewportTableRecord
  2
*ACTIVE
 70
     0
 10
0.0
 20
0.0
 11
1.0
 21
1.0
 12
250.170625690849
 22
97.67614805136815
 13
0.0
 23
0.0
 14
10.0
 24
10.0
 15
10.0
 25
10.0
 16
0.0
 26
0.0
 36
1.0
 17
0.0
 27
0.0
 37
0.0
 40
205.3917136304081
 41
1.899603698811096
 42
50.0
 43
0.0
 44
0.0
 50
0.0
 51
0.0
 71
     0
 72
   100
 73
     1
 74
     0
 75
     0
 76
     0
 77
     0
 78
     0
281
     0
 65
     1
110
0.0
120
0.0
130
0.0
111
1.0
121
0.0
131
0.0
112
0.0
122
1.0
132
0.0
 79
     0
146
0.0
1001
ACAD_NAV_VCDISPLAY
1070
     3
  0
ENDTAB
  0
TABLE
  2
LTYPE
  5
95FE
330
0
100
AcDbSymbolTable
 70
     4
  0
LTYPE
  5
960C
330
95FE
100
AcDbSymbolTableRecord
100
AcDbLinetypeTableRecord
  2
BYBLOCK
 70
     0
  3

 72
    65
 73
     0
 40
0.0
  0
LTYPE
  5
960D
330
95FE
100
AcDbSymbolTableRecord
100
AcDbLinetypeTableRecord
  2
BYLAYER
 70
     0
  3

 72
    65
 73
     0
 40
0.0
  0
LTYPE
  5
960E
330
95FE
100
AcDbSymbolTableRecord
100
AcDbLinetypeTableRecord
  2
CONTINUOUS
 70
     0
  3
Solid line
 72
    65
 73
     0
 40
0.0
  0
LTYPE
  5
961C
330
95FE
100
AcDbSymbolTableRecord
100
AcDbLinetypeTableRecord
  2
DASHED
 70
     0
  3
__ __ __ __ __ __ __ __ __ __ __ __ __ __ __ __
 72
    65
 73
     2
 40
0.75
 49
0.5
 74
     0
 49
-0.25
 74
     0
  0
LTYPE
  5
961D
330
95FE
100
AcDbSymbolTableRecord
100
AcDbLinetypeTableRecord
  2
CENTER
 70
     0
  3
____ _ ____ _ ____ _ ____ _ ____ _ ____ _ ____ 
 72
    65
 73
     4
 40
2.0
 49
1.25
 74
     0
 49
-0.25
 74
     0
 49
0.25
 74
     0
 49
-0.25
 74
     0
  0
LTYPE
  5
961E
330
95FE
100
AcDbSymbolTableRecord
100
AcDbLinetypeTableRecord
  2
PHANTOM
 70
     0
  3
______  __  __  ______  __  __  ______  __  __ 
 72
    65
 73
     6
 40
2.5
 49
1.25
 74
     0
 49
-0.25
 74
     0
 49
0.25
 74
     0
 49
-0.25
 74
     0
 49
0.25
 74
     0
 49
-0.25
 74
     0
  0
ENDTAB
  0
TABLE
  2
LAYER
  5
95FB
330
0
100
AcDbSymbolTable
 70
     8
  0
LAYER
  5
9609
102
{ACAD_XDICTIONARY
360
9CBE
102
}
330
95FB
100
AcDbSymbolTableRecord
100
AcDbLayerTableRecord
  2
0
 70
     0
 62
     7
  6
CONTINUOUS
370
    -3
390
9C6C
  0
LAYER
  5
961F
102
{ACAD_XDICTIONARY
360
9CC0
102
}
330
95FB
100
AcDbSymbolTableRecord
100
AcDbLayerTableRecord
  2
4
 70
     0
 62
     1
  6
CENTER
370
    -3
390
9C6C
  0
LAYER
  5
9620
102
{ACAD_XDICTIONARY
360
9CC2
102
}
330
95FB
100
AcDbSymbolTableRecord
100
AcDbLayerTableRecord
  2
5
 70
     0
 62
     6
  6
PHANTOM
370
    -3
390
9C6C
  0
LAYER
  5
9621
102
{ACAD_XDICTIONARY
360
9CC4
102
}
330
95FB
100
AcDbSymbolTableRecord
100
AcDbLayerTableRecord
  2
1
 70
     0
 62
     7
  6
CONTINUOUS
370
    -3
390
9C6C
  0
LAYER
  5
9622
102
{ACAD_XDICTIONARY
360
9CC6
102
}
330
95FB
100
AcDbSymbolTableRecord
100
AcDbLayerTableRecord
  2
2
 70
     0
 62
     4
  6
CONTINUOUS
370
    -3
390
9C6C
  0
LAYER
  5
9623
102
{ACAD_XDICTIONARY
360
9CC8
102
}
330
95FB
100
AcDbSymbolTableRecord
100
AcDbLayerTableRecord
  2
3
 70
     0
 62
     2
  6
DASHED
370
    -3
390
9C6C
  0
LAYER
  5
9624
102
{ACAD_XDICTIONARY
360
9CCA
102
}
330
95FB
100
AcDbSymbolTableRecord
100
AcDbLayerTableRecord
  2
6
 70
     0
 62
     5
  6
CONTINUOUS
370
    -3
390
9C6C
  0
LAYER
  5
9625
102
{ACAD_XDICTIONARY
360
9CCC
102
}
330
95FB
100
AcDbSymbolTableRecord
100
AcDbLayerTableRecord
  2
7
 70
     0
 62
     3
  6
CONTINUOUS
370
    -3
390
9C6C
  0
ENDTAB
  0
TABLE
  2
STYLE
  5
95FC
330
0
100
AcDbSymbolTable
 70
     1
  0
STYLE
  5
960A
330
95FC
100
AcDbSymbolTableRecord
100
AcDbTextStyleTableRecord
  2
STANDARD
 70
     0
 40
0.0
 41
1.0
 50
0.0
 71
     0
 42
5.0
  3
txt
  4

  0
ENDTAB
  0
TABLE
  2
VIEW
  5
95FF
330
0
100
AcDbSymbolTable
 70
     0
  0
ENDTAB
  0
TABLE
  2
UCS
  5
9600
330
0
100
AcDbSymbolTable
 70
     0
  0
ENDTAB
  0
TABLE
  2
APPID
  5
9602
330
0
100
AcDbSymbolTable
 70
     3
  0
APPID
  5
960B
330
9602
100
AcDbSymbolTableRecord
100
AcDbRegAppTableRecord
  2
ACAD
 70
     0
  0
APPID
  5
9CD8
330
9602
100
AcDbSymbolTableRecord
100
AcDbRegAppTableRecord
  2
ACAD_NAV_VCDISPLAY
 70
     0
  0
APPID
  5
9D11
330
9602
100
AcDbSymbolTableRecord
100
AcDbRegAppTableRecord
  2
ACAD_MLEADERVER
 70
     0
  0
ENDTAB
  0
TABLE
  2
DIMSTYLE
  5
9603
330
0
100
AcDbSymbolTable
 70
     1
100
AcDbDimStyleTable
 71
     0
  0
DIMSTYLE
105
9627
330
9603
100
AcDbSymbolTableRecord
100
AcDbDimStyleTableRecord
  2
STANDARD
 70
     0
 41
3.0
 42
1.0
 43
10.0
 44
1.0
 73
     0
 74
     0
 77
     3
 78
     8
140
3.2
141
0.0
147
1.0
172
     1
173
     1
284
     8
285
     8
286
     8
340
960A
  0
ENDTAB
  0
TABLE
  2
BLOCK_RECORD
  5
95FA
330
0
100
AcDbSymbolTable
 70
     0
  0
BLOCK_RECORD
  5
9617
102
{ACAD_XDICTIONARY
360
9C66
102
}
330
95FA
100
AcDbSymbolTableRecord
100
AcDbBlockTableRecord
  2
*MODEL_SPACE
340
9CBA
  0
BLOCK_RECORD
  5
9613
102
{ACAD_XDICTIONARY
360
9C64
102
}
330
95FA
100
AcDbSymbolTableRecord
100
AcDbBlockTableRecord
  2
*PAPER_SPACE
340
9CBB
  0
ENDTAB
  0
ENDSEC
  0
SECTION
  2
BLOCKS
  0
BLOCK
  5
9618
330
9617
100
AcDbEntity
  8
0
100
AcDbBlockBegin
  2
*MODEL_SPACE
 70
     0
 10
0.0
 20
0.0
 30
0.0
  3
*MODEL_SPACE
  1

  0
ENDBLK
  5
9619
330
9617
100
AcDbEntity
  8
0
100
AcDbBlockEnd
  0
BLOCK
  5
9614
330
9613
100
AcDbEntity
 67
     1
  8
0
100
AcDbBlockBegin
  2
*PAPER_SPACE
 70
     0
 10
0.0
 20
0.0
 30
0.0
  3
*PAPER_SPACE
  1

  0
ENDBLK
  5
9615
330
9613
100
AcDbEntity
 67
     1
  8
0
100
AcDbBlockEnd
  0
ENDSEC
  0
SECTION
  2
ENTITIES
  0
TEXT
  5
962F
330
9617
100
AcDbEntity
  8
7
  6
Continuous
100
AcDbText
 10
10.0
 20
18.0
 30
0.0
 40
3.0
  1
TYPE No.TL-135
100
AcDbText
  0
TEXT
  5
9630
330
9617
100
AcDbEntity
  8
7
  6
Continuous
100
AcDbText
 10
10.0
 20
26.0
 30
0.0
 40
3.0
  1
CODE No.1508
100
AcDbText
  0
TEXT
  5
9631
330
9617
100
AcDbEntity
  8
1
  6
Continuous
100
AcDbText
 10
10.0
 20
10.0
 30
0.0
 40
1.399999999999999
  1
LAYER
100
AcDbText
  0
TEXT
  5
9632
330
9617
100
AcDbEntity
  8
1
  6
Continuous
100
AcDbText
 10
17.97951099999998
 20
10.04873699999998
 30
0.0
 40
1.399999999999999
  1
1
100
AcDbText
  0
TEXT
  5
9633
330
9617
100
AcDbEntity
  8
7
  6
Continuous
100
AcDbText
 10
29.97951099999999
 20
10.04873699999998
 30
0.0
 40
1.399999999999999
  1
7
100
AcDbText
  0
TEXT
  5
9634
330
9617
100
AcDbEntity
  8
4
  6
CENTER
100
AcDbText
 10
23.97951099999999
 20
10.04873699999998
 30
0.0
 40
1.399999999999999
  1
4
100
AcDbText
  0
TEXT
  5
9635
330
9617
100
AcDbEntity
  8
3
  6
DASHED
100
AcDbText
 10
21.979511
 20
10.04873699999998
 30
0.0
 40
1.399999999999999
  1
3
100
AcDbText
  0
TEXT
  5
9636
330
9617
100
AcDbEntity
  8
2
  6
Continuous
100
AcDbText
 10
19.97951099999999
 20
10.04873699999998
 30
0.0
 40
1.399999999999999
  1
2
100
AcDbText
  0
TEXT
  5
9637
330
9617
100
AcDbEntity
  8
6
  6
Continuous
100
AcDbText
 10
27.979511
 20
10.04873699999998
 30
0.0
 40
1.399999999999999
  1
6
100
AcDbText
  0
TEXT
  5
9638
330
9617
100
AcDbEntity
  8
5
  6
PHANTOM
100
AcDbText
 10
25.97951099999999
 20
10.04873699999998
 30
0.0
 40
1.399999999999999
  1
5
100
AcDbText
  0
LINE
  5
9639
330
9617
100
AcDbEntity
  8
1
  6
Continuous
100
AcDbLine
 10
135.4874668891246
 20
180.348367
 30
0.0
 11
164.4874668891247
 21
180.348367
 31
0.0
  0
LINE
  5
963A
330
9617
100
AcDbEntity
  8
1
  6
Continuous
100
AcDbLine
 10
135.4874668891246
 20
163.848367
 30
0.0
 11
165.4874668891246
 21
163.848367
 31
0.0
  0
LINE
  5
963B
330
9617
100
AcDbEntity
  8
1
  6
Continuous
100
AcDbLine
 10
135.4874668891246
 20
163.848367
 30
0.0
 11
135.4874668891246
 21
180.348367
 31
0.0
  0
LINE
  5
963C
330
9617
100
AcDbEntity
  8
1
  6
Continuous
100
AcDbLine
 10
165.4874668891246
 20
163.848367
 30
0.0
 11
165.4874668891246
 21
179.348367
 31
0.0
  0
LINE
  5
963D
330
9617
100
AcDbEntity
  8
1
  6
Continuous
100
AcDbLine
 10
151.5374698891246
 20
170.5505696025098
 30
0.0
 11
151.5374698891246
 21
174.8483669999999
 31
0.0
  0
LINE
  5
963E
330
9617
100
AcDbEntity
  8
1
  6
Continuous
100
AcDbLine
 10
149.4374638891246
 20
170.5505696025097
 30
0.0
 11
149.4374638891246
 21
174.8483669999999
 31
0.0
  0
LINE
  5
963F
330
9617
100
AcDbEntity
  8
4
  6
CENTER
100
AcDbLine
 10
148.4374638891246
 20
174.8483669999999
 30
0.0
 11
152.5374698891246
 21
174.8483669999999
 31
0.0
  0
LINE
  5
9640
330
9617
100
AcDbEntity
  8
1
  6
Continuous
100
AcDbLine
 10
27.68323632610611
 20
52.80754999999999
 30
0.0
 11
27.68323632610611
 21
44.80754999999999
 31
0.0
  0
LINE
  5
9641
330
9617
100
AcDbEntity
  8
1
  6
Continuous
100
AcDbLine
 10
44.18323632610611
 20
42.80754999999999
 30
0.0
 11
43.88949332610612
 21
42.80754999999999
 31
0.0
  0
LINE
  5
9642
330
9617
100
AcDbEntity
  8
1
  6
Continuous
100
AcDbLine
 10
44.18323632610611
 20
54.80754999999999
 30
0.0
 11
43.86230932610613
 21
54.80754999999999
 31
0.0
  0
LINE
  5
9643
330
9617
100
AcDbEntity
  8
1
  6
Continuous
100
AcDbLine
 10
44.18323632610611
 20
44.80754999999999
 30
0.0
 11
28.48323532610612
 21
44.80754999999999
 31
0.0
  0
LINE
  5
9644
330
9617
100
AcDbEntity
  8
1
  6
Continuous
100
AcDbLine
 10
44.18323632610611
 20
52.80754999999999
 30
0.0
 11
28.48323532610612
 21
52.80754999999999
 31
0.0
  0
LINE
  5
9645
330
9617
100
AcDbEntity
  8
1
  6
Continuous
100
AcDbLine
 10
44.18323632610611
 20
44.00755499999998
 30
0.0
 11
28.48323532610612
 21
44.00755499999998
 31
0.0
  0
LINE
  5
9646
330
9617
100
AcDbEntity
  8
1
  6
Continuous
100
AcDbLine
 10
44.18323632610611
 20
53.60755300000001
 30
0.0
 11
28.48323532610612
 21
53.60755300000001
 31
0.0
  0
LINE
  5
9647
330
9617
100
AcDbEntity
  8
1
  6
Continuous
100
AcDbLine
 10
28.48323532610612
 20
54.80754999999999
 30
0.0
 11
28.48323532610612
 21
53.60755300000001
 31
0.0
  0
LINE
  5
9648
330
9617
100
AcDbEntity
  8
1
  6
Continuous
100
AcDbLine
 10
28.48323532610612
 20
52.80754999999999
 30
0.0
 11
28.48323532610612
 21
44.80754999999999
 31
0.0
  0
LINE
  5
9649
330
9617
100
AcDbEntity
  8
1
  6
Continuous
100
AcDbLine
 10
28.48323532610612
 20
44.00755499999998
 30
0.0
 11
28.48323532610612
 21
42.80754999999999
 31
0.0
  0
LINE
  5
964A
330
9617
100
AcDbEntity
  8
1
  6
Continuous
100
AcDbLine
 10
145.4874668891247
 20
179.548364
 30
0.0
 11
155.4874668891246
 21
179.548364
 31
0.0
  0
LINE
  5
964B
330
9617
100
AcDbEntity
  8
1
  6
Continuous
100
AcDbLine
 10
144.4374638891247
 20
54.80754999999999
 30
0.0
 11
154.5374698891246
 21
54.80754999999999
 31
0.0
  0
LINE
  5
964C
330
9617
100
AcDbEntity
  8
4
  6
CENTER
100
AcDbLine
 10
127.4874668891246
 20
48.80754999999999
 30
0.0
 11
166.4874668891247
 21
48.80754999999999
 31
0.0
  0
LINE
  5
964D
330
9617
100
AcDbEntity
  8
1
  6
Continuous
100
AcDbLine
 10
154.4874668891246
 20
52.80754999999999
 30
0.0
 11
164.4874668891247
 21
52.80754999999999
 31
0.0
  0
LINE
  5
964E
330
9617
100
AcDbEntity
  8
1
  6
Continuous
100
AcDbLine
 10
134.4874668891246
 20
44.80754999999999
 30
0.0
 11
144.4874668891247
 21
44.80754999999999
 31
0.0
  0
LINE
  5
964F
330
9617
100
AcDbEntity
  8
1
  6
Continuous
100
AcDbLine
 10
155.3374728891246
 20
53.60755300000001
 30
0.0
 11
164.4874668891247
 21
53.60755300000001
 31
0.0
  0
LINE
  5
9650
330
9617
100
AcDbEntity
  8
1
  6
Continuous
100
AcDbLine
 10
134.4874668891246
 20
44.00755499999997
 30
0.0
 11
143.6374758891247
 21
44.00755499999997
 31
0.0
  0
LINE
  5
9651
330
9617
100
AcDbEntity
  8
1
  6
Continuous
100
AcDbLine
 10
155.3374728891246
 20
54.00755500000002
 30
0.0
 11
155.3374728891246
 21
53.60755300000001
 31
0.0
  0
LINE
  5
9652
330
9617
100
AcDbEntity
  8
1
  6
Continuous
100
AcDbLine
 10
144.4374638891247
 20
54.00755500000002
 30
0.0
 11
154.5374698891246
 21
54.00755500000002
 31
0.0
  0
LINE
  5
9653
330
9617
100
AcDbEntity
  8
1
  6
Continuous
100
AcDbLine
 10
154.5374698891246
 20
54.00755500000002
 30
0.0
 11
154.5374698891246
 21
53.60755300000001
 31
0.0
  0
LINE
  5
9654
330
9617
100
AcDbEntity
  8
1
  6
Continuous
100
AcDbLine
 10
143.6374758891247
 20
54.00755500000002
 30
0.0
 11
143.6374758891247
 21
53.60755300000001
 31
0.0
  0
LINE
  5
9655
330
9617
100
AcDbEntity
  8
1
  6
Continuous
100
AcDbLine
 10
144.4374638891247
 20
54.00755500000002
 30
0.0
 11
144.4374638891247
 21
53.60755300000001
 31
0.0
  0
LINE
  5
9656
330
9617
100
AcDbEntity
  8
1
  6
Continuous
100
AcDbLine
 10
144.4874668891247
 20
52.80754999999999
 30
0.0
 11
134.4874668891246
 21
52.80754999999999
 31
0.0
  0
LINE
  5
9657
330
9617
100
AcDbEntity
  8
1
  6
Continuous
100
AcDbLine
 10
143.6374758891247
 20
53.60755300000001
 30
0.0
 11
134.4874668891246
 21
53.60755300000001
 31
0.0
  0
LINE
  5
9658
330
9617
100
AcDbEntity
  8
1
  6
Continuous
100
AcDbLine
 10
144.4374638891247
 20
42.80754999999999
 30
0.0
 11
154.5374698891246
 21
42.80754999999999
 31
0.0
  0
LINE
  5
9659
330
9617
100
AcDbEntity
  8
1
  6
Continuous
100
AcDbLine
 10
155.3374728891246
 20
43.607553
 30
0.0
 11
155.3374728891246
 21
44.00755499999997
 31
0.0
  0
LINE
  5
965A
330
9617
100
AcDbEntity
  8
1
  6
Continuous
100
AcDbLine
 10
154.5374698891246
 20
43.607553
 30
0.0
 11
154.5374698891246
 21
44.00755499999997
 31
0.0
  0
LINE
  5
965B
330
9617
100
AcDbEntity
  8
1
  6
Continuous
100
AcDbLine
 10
143.6374758891247
 20
43.607553
 30
0.0
 11
143.6374758891247
 21
44.00755499999997
 31
0.0
  0
LINE
  5
965C
330
9617
100
AcDbEntity
  8
1
  6
Continuous
100
AcDbLine
 10
144.4374638891247
 20
43.607553
 30
0.0
 11
154.5374698891246
 21
43.607553
 31
0.0
  0
LINE
  5
965D
330
9617
100
AcDbEntity
  8
1
  6
Continuous
100
AcDbLine
 10
144.4374638891247
 20
43.607553
 30
0.0
 11
144.4374638891247
 21
44.00755499999997
 31
0.0
  0
LINE
  5
965E
330
9617
100
AcDbEntity
  8
1
  6
Continuous
100
AcDbLine
 10
154.4874668891246
 20
44.80754999999999
 30
0.0
 11
164.4874668891247
 21
44.80754999999999
 31
0.0
  0
LINE
  5
965F
330
9617
100
AcDbEntity
  8
1
  6
Continuous
100
AcDbLine
 10
155.3374728891246
 20
44.00755499999997
 30
0.0
 11
164.4874668891247
 21
44.00755499999997
 31
0.0
  0
LINE
  5
9660
330
9617
100
AcDbEntity
  8
1
  6
Continuous
100
AcDbLine
 10
144.3790838891247
 20
44.30754999999999
 30
0.0
 11
144.4874668891247
 21
44.30754999999999
 31
0.0
  0
LINE
  5
9661
330
9617
100
AcDbEntity
  8
1
  6
Continuous
100
AcDbLine
 10
144.3790838891247
 20
53.30754999999999
 30
0.0
 11
144.4874668891247
 21
53.30754999999999
 31
0.0
  0
LINE
  5
9662
330
9617
100
AcDbEntity
  8
1
  6
Continuous
100
AcDbLine
 10
144.6374758891247
 20
163.848367
 30
0.0
 11
144.6374758891247
 21
179.548364
 31
0.0
  0
LINE
  5
9663
330
9617
100
AcDbEntity
  8
1
  6
Continuous
100
AcDbLine
 10
156.3374728891246
 20
163.848367
 30
0.0
 11
156.3374728891246
 21
179.548364
 31
0.0
  0
LINE
  5
9664
330
9617
100
AcDbEntity
  8
4
  6
CENTER
100
AcDbLine
 10
149.4874668891247
 20
58.05754999999999
 30
0.0
 11
149.4874668891247
 21
39.55754999999999
 31
0.0
  0
LINE
  5
9665
330
9617
100
AcDbEntity
  8
1
  6
Continuous
100
AcDbLine
 10
164.4874668891247
 20
53.60755300000001
 30
0.0
 11
164.4874668891247
 21
44.00755499999997
 31
0.0
  0
LINE
  5
9666
330
9617
100
AcDbEntity
  8
1
  6
Continuous
100
AcDbLine
 10
134.4874668891246
 20
53.60755300000001
 30
0.0
 11
134.4874668891246
 21
44.00755499999997
 31
0.0
  0
LINE
  5
9667
330
9617
100
AcDbEntity
  8
4
  6
CENTER
100
AcDbLine
 10
160.4874668891246
 20
51.30754999999999
 30
0.0
 11
160.4874668891246
 21
46.30754999999999
 31
0.0
  0
LINE
  5
9668
330
9617
100
AcDbEntity
  8
4
  6
CENTER
100
AcDbLine
 10
138.4874668891247
 20
51.30754999999999
 30
0.0
 11
138.4874668891247
 21
46.30754999999999
 31
0.0
  0
LINE
  5
9669
330
9617
100
AcDbEntity
  8
4
  6
CENTER
100
AcDbLine
 10
150.4874668891247
 20
143.8483669999999
 30
0.0
 11
150.4874668891247
 21
185.3483669999999
 31
0.0
  0
LINE
  5
966A
330
9617
100
AcDbEntity
  8
1
  6
Continuous
100
AcDbLine
 10
146.4874668891247
 20
148.8483669999999
 30
0.0
 11
154.4874668891246
 21
148.8483669999999
 31
0.0
  0
LINE
  5
966B
330
9617
100
AcDbEntity
  8
1
  6
Continuous
100
AcDbLine
 10
145.4874668891247
 20
149.8483669999999
 30
0.0
 11
145.4874668891247
 21
163.848367
 31
0.0
  0
LINE
  5
966C
330
9617
100
AcDbEntity
  8
1
  6
Continuous
100
AcDbLine
 10
155.4874668891246
 20
149.8483669999999
 30
0.0
 11
155.4874668891246
 21
163.848367
 31
0.0
  0
LINE
  5
966D
330
9617
100
AcDbEntity
  8
1
  6
Continuous
100
AcDbLine
 10
58.18323632610613
 20
53.90755600000001
 30
0.0
 11
44.18323632610611
 21
53.90755600000001
 31
0.0
  0
LINE
  5
966E
330
9617
100
AcDbEntity
  8
1
  6
Continuous
100
AcDbLine
 10
59.18323632610611
 20
52.907556
 30
0.0
 11
59.18323632610611
 21
44.70755199999999
 31
0.0
  0
LINE
  5
966F
330
9617
100
AcDbEntity
  8
4
  6
CENTER
100
AcDbLine
 10
61.18323632610611
 20
48.80754999999999
 30
0.0
 11
25.68323632610612
 21
48.80754999999999
 31
0.0
  0
LINE
  5
9670
330
9617
100
AcDbEntity
  8
1
  6
Continuous
100
AcDbLine
 10
58.18323632610613
 20
43.70755199999999
 30
0.0
 11
44.18323632610611
 21
43.70755199999999
 31
0.0
  0
LINE
  5
9671
330
9617
100
AcDbEntity
  8
1
  6
Continuous
100
AcDbLine
 10
49.68323632610612
 20
52.907556
 30
0.0
 11
49.68323632610612
 21
44.70755199999999
 31
0.0
  0
LINE
  5
9672
330
9617
100
AcDbEntity
  8
1
  6
Continuous
100
AcDbLine
 10
58.18323632610613
 20
52.907556
 30
0.0
 11
44.18323632610611
 21
52.907556
 31
0.0
  0
LINE
  5
9673
330
9617
100
AcDbEntity
  8
1
  6
Continuous
100
AcDbLine
 10
58.18323632610613
 20
44.70755199999999
 30
0.0
 11
44.18323632610611
 21
44.70755199999999
 31
0.0
  0
LINE
  5
9684
330
9617
100
AcDbEntity
  8
1
  6
Continuous
100
AcDbLine
 10
130.4874668891247
 20
167.848367
 30
0.0
 11
135.4874668891246
 21
167.848367
 31
0.0
  0
LINE
  5
9685
330
9617
100
AcDbEntity
  8
1
  6
Continuous
100
AcDbLine
 10
130.4874668891247
 20
167.848367
 30
0.0
 11
130.4874668891247
 21
169.8483669999999
 31
0.0
  0
LINE
  5
9686
330
9617
100
AcDbEntity
  8
1
  6
Continuous
100
AcDbLine
 10
130.4874668891247
 20
169.848352
 30
0.0
 11
135.4874668891246
 21
179.348367
 31
0.0
  0
LINE
  5
9687
330
9617
100
AcDbEntity
  8
1
  6
Continuous
100
AcDbLine
 10
144.4874668891247
 20
53.90755600000001
 30
0.0
 11
144.4874668891247
 21
43.70755200000002
 31
0.0
  0
LINE
  5
9688
330
9617
100
AcDbEntity
  8
1
  6
Continuous
100
AcDbLine
 10
154.4874668891246
 20
53.90755600000001
 30
0.0
 11
154.4874668891246
 21
43.70755200000002
 31
0.0
  0
LINE
  5
9689
330
9617
100
AcDbEntity
  8
1
  6
Continuous
100
AcDbLine
 10
144.4874668891247
 20
53.90755600000001
 30
0.0
 11
154.4874668891246
 21
53.90755600000001
 31
0.0
  0
LINE
  5
968A
330
9617
100
AcDbEntity
  8
1
  6
Continuous
100
AcDbLine
 10
144.4874668891247
 20
43.70755200000002
 30
0.0
 11
154.4874668891246
 21
43.70755200000002
 31
0.0
  0
LINE
  5
968B
330
9617
100
AcDbEntity
  8
1
  6
Continuous
100
AcDbLine
 10
129.4874668891247
 20
52.65755600000001
 30
0.0
 11
129.4874668891247
 21
44.95755200000002
 31
0.0
  0
LINE
  5
968C
330
9617
100
AcDbEntity
  8
1
  6
Continuous
100
AcDbLine
 10
129.4874668891247
 20
44.95755200000002
 30
0.0
 11
134.4874668891246
 21
44.95755200000002
 31
0.0
  0
LINE
  5
968D
330
9617
100
AcDbEntity
  8
1
  6
Continuous
100
AcDbLine
 10
129.4874668891247
 20
52.65755600000001
 30
0.0
 11
134.4874668891246
 21
52.65755600000001
 31
0.0
  0
LINE
  5
968E
330
9617
100
AcDbEntity
  8
1
  6
Continuous
100
AcDbLine
 10
28.68323632610612
 20
52.65755600000001
 30
0.0
 11
28.68323632610612
 21
44.95755199999999
 31
0.0
  0
LINE
  5
968F
330
9617
100
AcDbEntity
  8
1
  6
Continuous
100
AcDbLine
 10
40.18323632610612
 20
52.65755600000001
 30
0.0
 11
28.68323632610612
 21
52.65755600000001
 31
0.0
  0
LINE
  5
9690
330
9617
100
AcDbEntity
  8
1
  6
Continuous
100
AcDbLine
 10
40.18323632610612
 20
44.95755199999999
 30
0.0
 11
28.68323632610612
 21
44.95755199999999
 31
0.0
  0
LINE
  5
9691
330
9617
100
AcDbEntity
  8
1
  6
Continuous
100
AcDbLine
 10
40.18323632610612
 20
52.80754999999999
 30
0.0
 11
40.18323632610612
 21
44.80754999999999
 31
0.0
  0
LINE
  5
9692
330
9617
100
AcDbEntity
  8
1
  6
Continuous
100
AcDbLine
 10
265.8864127373906
 20
52.80754999999999
 30
0.0
 11
265.8864127373906
 21
44.80754999999999
 31
0.0
  0
LINE
  5
9693
330
9617
100
AcDbEntity
  8
1
  6
Continuous
100
AcDbLine
 10
249.3864127373906
 20
42.80754999999999
 30
0.0
 11
249.6976007373906
 21
42.80754999999999
 31
0.0
  0
LINE
  5
9694
330
9617
100
AcDbEntity
  8
1
  6
Continuous
100
AcDbLine
 10
249.3864127373906
 20
54.80754999999999
 30
0.0
 11
249.7073357373906
 21
54.80754999999999
 31
0.0
  0
LINE
  5
9695
330
9617
100
AcDbEntity
  8
1
  6
Continuous
100
AcDbLine
 10
265.0863947373906
 20
54.80754999999999
 30
0.0
 11
265.0863947373906
 21
53.60755300000001
 31
0.0
  0
LINE
  5
9696
330
9617
100
AcDbEntity
  8
1
  6
Continuous
100
AcDbLine
 10
249.3864127373906
 20
44.80754999999999
 30
0.0
 11
265.0863947373906
 21
44.80754999999999
 31
0.0
  0
LINE
  5
9697
330
9617
100
AcDbEntity
  8
1
  6
Continuous
100
AcDbLine
 10
249.3864127373906
 20
52.80754999999999
 30
0.0
 11
265.0863947373906
 21
52.80754999999999
 31
0.0
  0
LINE
  5
9698
330
9617
100
AcDbEntity
  8
1
  6
Continuous
100
AcDbLine
 10
249.3864127373906
 20
44.00755499999997
 30
0.0
 11
265.0863947373906
 21
44.00755499999997
 31
0.0
  0
LINE
  5
9699
330
9617
100
AcDbEntity
  8
1
  6
Continuous
100
AcDbLine
 10
249.3864127373906
 20
53.60755300000001
 30
0.0
 11
265.0863947373906
 21
53.60755300000001
 31
0.0
  0
LINE
  5
969A
330
9617
100
AcDbEntity
  8
1
  6
Continuous
100
AcDbLine
 10
265.0863947373906
 20
44.00755499999997
 30
0.0
 11
265.0863947373906
 21
42.80754999999999
 31
0.0
  0
LINE
  5
969B
330
9617
100
AcDbEntity
  8
1
  6
Continuous
100
AcDbLine
 10
235.3864127373906
 20
44.70755200000001
 30
0.0
 11
249.3864127373906
 21
44.70755200000001
 31
0.0
  0
LINE
  5
969C
330
9617
100
AcDbEntity
  8
1
  6
Continuous
100
AcDbLine
 10
235.3864127373906
 20
43.70755200000002
 30
0.0
 11
249.3864127373906
 21
43.70755200000002
 31
0.0
  0
LINE
  5
969D
330
9617
100
AcDbEntity
  8
4
  6
CENTER
100
AcDbLine
 10
232.3864127373906
 20
48.80754999999999
 30
0.0
 11
267.8864127373906
 21
48.80754999999999
 31
0.0
  0
LINE
  5
969E
330
9617
100
AcDbEntity
  8
1
  6
Continuous
100
AcDbLine
 10
235.3864127373906
 20
53.90755600000001
 30
0.0
 11
249.3864127373906
 21
53.90755600000001
 31
0.0
  0
LINE
  5
969F
330
9617
100
AcDbEntity
  8
1
  6
Continuous
100
AcDbLine
 10
234.3864127373906
 20
52.907556
 30
0.0
 11
234.3864127373906
 21
44.70755200000001
 31
0.0
  0
LINE
  5
96A0
330
9617
100
AcDbEntity
  8
1
  6
Continuous
100
AcDbLine
 10
235.3864127373906
 20
52.907556
 30
0.0
 11
249.3864127373906
 21
52.907556
 31
0.0
  0
LINE
  5
96A1
330
9617
100
AcDbEntity
  8
1
  6
Continuous
100
AcDbLine
 10
243.8864127373907
 20
52.907556
 30
0.0
 11
243.8864127373907
 21
44.70755200000001
 31
0.0
  0
LINE
  5
96A2
330
9617
100
AcDbEntity
  8
1
  6
Continuous
100
AcDbLine
 10
253.3864127373906
 20
52.80754999999999
 30
0.0
 11
253.3864127373906
 21
44.80754999999999
 31
0.0
  0
LINE
  5
96A3
330
9617
100
AcDbEntity
  8
1
  6
Continuous
100
AcDbLine
 10
38.18323632610612
 20
52.80754999999999
 30
0.0
 11
38.18323632610612
 21
44.80754999999999
 31
0.0
  0
LINE
  5
96A4
330
9617
100
AcDbEntity
  8
1
  6
Continuous
100
AcDbLine
 10
154.4874668891246
 20
53.30754999999999
 30
0.0
 11
154.5958498891247
 21
53.30754999999999
 31
0.0
  0
LINE
  5
96A5
330
9617
100
AcDbEntity
  8
1
  6
Continuous
100
AcDbLine
 10
154.4874668891246
 20
44.30754999999999
 30
0.0
 11
154.5958498891247
 21
44.30754999999999
 31
0.0
  0
LINE
  5
96A8
330
9617
100
AcDbEntity
  8
1
  6
Continuous
100
AcDbLine
 10
148.4874668891247
 20
43.607553
 30
0.0
 11
148.4874668891247
 21
43.70755200000002
 31
0.0
  0
LINE
  5
96A9
330
9617
100
AcDbEntity
  8
1
  6
Continuous
100
AcDbLine
 10
150.4874668891247
 20
43.607553
 30
0.0
 11
150.4874668891247
 21
43.70755200000002
 31
0.0
  0
LINE
  5
96AA
330
9617
100
AcDbEntity
  8
4
  6
CENTER
100
AcDbLine
 10
251.3864127373906
 20
40.80754999999999
 30
0.0
 11
251.3864127373906
 21
46.80754999999999
 31
0.0
  0
LINE
  5
96AB
330
9617
100
AcDbEntity
  8
4
  6
CENTER
100
AcDbLine
 10
251.3864127373906
 20
56.80754999999999
 30
0.0
 11
251.3864127373906
 21
50.80754999999999
 31
0.0
  0
LINE
  5
96AC
330
9617
100
AcDbEntity
  8
1
  6
Continuous
100
AcDbLine
 10
253.4864187373905
 20
52.80754999999999
 30
0.0
 11
253.4864187373905
 21
44.80754999999999
 31
0.0
  0
LINE
  5
96AD
330
9617
100
AcDbEntity
  8
4
  6
CENTER
100
AcDbLine
 10
259.3864127373905
 20
45.30754999999999
 30
0.0
 11
259.3864127373905
 21
52.30754999999999
 31
0.0
  0
LINE
  5
96AE
330
9617
100
AcDbEntity
  8
4
  6
CENTER
100
AcDbLine
 10
42.18323632610611
 20
44.80754999999999
 30
0.0
 11
42.18323632610611
 21
40.80754999999999
 31
0.0
  0
LINE
  5
96C7
330
9617
100
AcDbEntity
  8
4
  6
CENTER
100
AcDbLine
 10
39.18323632610612
 20
57.61656100070723
 30
0.0
 11
39.18323632610612
 21
39.99853899929274
 31
0.0
  0
LINE
  5
96CC
330
9617
100
AcDbEntity
  8
4
  6
CENTER
100
AcDbLine
 10
146.9874668891246
 20
168.848367
 30
0.0
 11
153.9874668891246
 21
168.848367
 31
0.0
  0
LINE
  5
96F4
330
9617
100
AcDbEntity
  8
1
  6
Continuous
100
AcDbLine
 10
339.4326785275325
 20
43.607553
 30
0.0
 11
339.4326785275325
 21
44.00755499999997
 31
0.0
  0
LINE
  5
96F5
330
9617
100
AcDbEntity
  8
4
  6
CENTER
100
AcDbLine
 10
345.2826845275325
 20
58.05754999999999
 30
0.0
 11
345.2826845275325
 21
39.55754999999999
 31
0.0
  0
LINE
  5
96F6
330
9617
100
AcDbEntity
  8
1
  6
Continuous
100
AcDbLine
 10
351.1326905275325
 20
43.607553
 30
0.0
 11
351.1326905275325
 21
44.00755499999997
 31
0.0
  0
LINE
  5
96F7
330
9617
100
AcDbEntity
  8
1
  6
Continuous
100
AcDbLine
 10
350.3326725275325
 20
42.80754999999999
 30
0.0
 11
340.2326665275325
 21
42.80754999999999
 31
0.0
  0
LINE
  5
96F8
330
9617
100
AcDbEntity
  8
1
  6
Continuous
100
AcDbLine
 10
360.2826845275325
 20
53.60755300000001
 30
0.0
 11
360.2826845275325
 21
44.00755499999997
 31
0.0
  0
LINE
  5
96F9
330
9617
100
AcDbEntity
  8
1
  6
Continuous
100
AcDbLine
 10
330.2826845275325
 20
53.60755300000001
 30
0.0
 11
339.4326785275325
 21
53.60755300000001
 31
0.0
  0
LINE
  5
96FA
330
9617
100
AcDbEntity
  8
1
  6
Continuous
100
AcDbLine
 10
365.2826845275325
 20
52.65755600000001
 30
0.0
 11
365.2826845275325
 21
44.95755200000002
 31
0.0
  0
LINE
  5
96FB
330
9617
100
AcDbEntity
  8
1
  6
Continuous
100
AcDbLine
 10
350.3326725275325
 20
54.80754999999999
 30
0.0
 11
340.2326665275325
 21
54.80754999999999
 31
0.0
  0
LINE
  5
96FC
330
9617
100
AcDbEntity
  8
4
  6
CENTER
100
AcDbLine
 10
367.2826845275325
 20
48.80754999999999
 30
0.0
 11
328.2826845275323
 21
48.80754999999999
 31
0.0
  0
LINE
  5
96FD
330
9617
100
AcDbEntity
  8
1
  6
Continuous
100
AcDbLine
 10
360.2826845275325
 20
44.00755499999997
 30
0.0
 11
351.1326905275325
 21
44.00755499999997
 31
0.0
  0
LINE
  5
96FE
330
9617
100
AcDbEntity
  8
1
  6
Continuous
100
AcDbLine
 10
339.4326785275325
 20
54.00755500000002
 30
0.0
 11
339.4326785275325
 21
53.60755300000001
 31
0.0
  0
LINE
  5
96FF
330
9617
100
AcDbEntity
  8
1
  6
Continuous
100
AcDbLine
 10
351.1326905275325
 20
54.00755500000002
 30
0.0
 11
351.1326905275325
 21
53.60755300000001
 31
0.0
  0
LINE
  5
9700
330
9617
100
AcDbEntity
  8
1
  6
Continuous
100
AcDbLine
 10
330.2826845275325
 20
53.60755300000001
 30
0.0
 11
330.2826845275325
 21
44.00755499999997
 31
0.0
  0
LINE
  5
9711
330
9617
100
AcDbEntity
  8
1
  6
Continuous
100
AcDbLine
 10
365.2826845275325
 20
44.95755200000002
 30
0.0
 11
360.2826845275325
 21
44.95755200000002
 31
0.0
  0
LINE
  5
9712
330
9617
100
AcDbEntity
  8
1
  6
Continuous
100
AcDbLine
 10
365.2826845275325
 20
52.65755600000001
 30
0.0
 11
360.2826845275325
 21
52.65755600000001
 31
0.0
  0
LINE
  5
9714
330
9617
100
AcDbEntity
  8
1
  6
Continuous
100
AcDbLine
 10
344.2826845275325
 20
53.90755600000001
 30
0.0
 11
344.2826845275325
 21
54.00755500000002
 31
0.0
  0
LINE
  5
9715
330
9617
100
AcDbEntity
  8
1
  6
Continuous
100
AcDbLine
 10
346.2826845275325
 20
53.90755600000001
 30
0.0
 11
346.2826845275325
 21
54.00755500000002
 31
0.0
  0
LINE
  5
971D
330
9617
100
AcDbEntity
  8
1
  6
Continuous
100
AcDbLine
 10
148.4874668891247
 20
53.90755600000001
 30
0.0
 11
148.4874668891247
 21
54.00755500000002
 31
0.0
  0
LINE
  5
971E
330
9617
100
AcDbEntity
  8
1
  6
Continuous
100
AcDbLine
 10
150.4874668891247
 20
53.90755600000001
 30
0.0
 11
150.4874668891247
 21
54.00755500000002
 31
0.0
  0
LINE
  5
972B
330
9617
100
AcDbEntity
  8
1
  6
Continuous
100
AcDbLine
 10
350.3326725275325
 20
54.00755500000002
 30
0.0
 11
340.2326665275325
 21
54.00755500000002
 31
0.0
  0
LINE
  5
972C
330
9617
100
AcDbEntity
  8
1
  6
Continuous
100
AcDbLine
 10
350.3326725275325
 20
54.00755500000002
 30
0.0
 11
350.3326725275325
 21
53.60755300000001
 31
0.0
  0
LINE
  5
972D
330
9617
100
AcDbEntity
  8
1
  6
Continuous
100
AcDbLine
 10
340.2326665275325
 20
54.00755500000002
 30
0.0
 11
340.2326665275325
 21
53.60755300000001
 31
0.0
  0
LINE
  5
972E
330
9617
100
AcDbEntity
  8
1
  6
Continuous
100
AcDbLine
 10
350.3326725275325
 20
43.607553
 30
0.0
 11
340.2326665275325
 21
43.607553
 31
0.0
  0
LINE
  5
972F
330
9617
100
AcDbEntity
  8
1
  6
Continuous
100
AcDbLine
 10
350.3326725275325
 20
43.607553
 30
0.0
 11
350.3326725275325
 21
44.00755499999997
 31
0.0
  0
LINE
  5
9730
330
9617
100
AcDbEntity
  8
1
  6
Continuous
100
AcDbLine
 10
340.2326665275325
 20
43.607553
 30
0.0
 11
340.2326665275325
 21
44.00755499999997
 31
0.0
  0
LINE
  5
9731
330
9617
100
AcDbEntity
  8
1
  6
Continuous
100
AcDbLine
 10
340.2326665275325
 20
53.60755300000001
 30
0.0
 11
350.3326725275325
 21
53.60755300000001
 31
0.0
  0
LINE
  5
9732
330
9617
100
AcDbEntity
  8
1
  6
Continuous
100
AcDbLine
 10
351.1326905275325
 20
53.60755300000001
 30
0.0
 11
360.2826845275325
 21
53.60755300000001
 31
0.0
  0
LINE
  5
9733
330
9617
100
AcDbEntity
  8
1
  6
Continuous
100
AcDbLine
 10
339.4326785275325
 20
44.00755499999997
 30
0.0
 11
330.2826845275325
 21
44.00755499999997
 31
0.0
  0
LINE
  5
9734
330
9617
100
AcDbEntity
  8
1
  6
Continuous
100
AcDbLine
 10
350.3326725275325
 20
44.00755499999997
 30
0.0
 11
340.2326665275325
 21
44.00755499999997
 31
0.0
  0
LINE
  5
973B
330
9617
100
AcDbEntity
  8
1
  6
Continuous
100
AcDbLine
 10
350.2826845275325
 20
53.90755600000001
 30
0.0
 11
340.2826845275325
 21
53.90755600000001
 31
0.0
  0
LINE
  5
973C
330
9617
100
AcDbEntity
  8
1
  6
Continuous
100
AcDbLine
 10
340.2826845275325
 20
53.90755600000001
 30
0.0
 11
340.2826845275325
 21
53.60755300000001
 31
0.0
  0
LINE
  5
973D
330
9617
100
AcDbEntity
  8
1
  6
Continuous
100
AcDbLine
 10
350.2826845275325
 20
53.90755600000001
 30
0.0
 11
350.2826845275325
 21
53.60755300000001
 31
0.0
  0
LINE
  5
9740
330
9617
100
AcDbEntity
  8
1
  6
Continuous
100
AcDbLine
 10
344.2826845275325
 20
43.70755200000002
 30
0.0
 11
344.2826845275325
 21
43.607553
 31
0.0
  0
LINE
  5
9741
330
9617
100
AcDbEntity
  8
1
  6
Continuous
100
AcDbLine
 10
346.2826845275325
 20
43.70755200000002
 30
0.0
 11
346.2826845275325
 21
43.607553
 31
0.0
  0
LINE
  5
9742
330
9617
100
AcDbEntity
  8
1
  6
Continuous
100
AcDbLine
 10
350.2826845275325
 20
43.70755200000002
 30
0.0
 11
350.2826845275325
 21
44.00755499999997
 31
0.0
  0
LINE
  5
9743
330
9617
100
AcDbEntity
  8
1
  6
Continuous
100
AcDbLine
 10
340.2826845275325
 20
43.70755200000002
 30
0.0
 11
340.2826845275325
 21
44.00755499999997
 31
0.0
  0
LINE
  5
9744
330
9617
100
AcDbEntity
  8
1
  6
Continuous
100
AcDbLine
 10
350.2826845275325
 20
43.70755200000002
 30
0.0
 11
340.2826845275325
 21
43.70755200000002
 31
0.0
  0
LINE
  5
9745
330
9617
100
AcDbEntity
  8
1
  6
Continuous
100
AcDbLine
 10
162.2374978891246
 20
54.10755299999999
 30
0.0
 11
158.7374978891246
 21
54.10755299999999
 31
0.0
  0
LINE
  5
9746
330
9617
100
AcDbEntity
  8
1
  6
Continuous
100
AcDbLine
 10
158.7894378891246
 20
54.70141799999999
 30
0.0
 11
158.7374818891246
 21
54.10755299999999
 31
0.0
  0
LINE
  5
9747
330
9617
100
AcDbEntity
  8
1
  6
Continuous
100
AcDbLine
 10
162.1855258891246
 20
54.70143300000001
 30
0.0
 11
162.2374818891247
 21
54.10756800000001
 31
0.0
  0
LINE
  5
9748
330
9617
100
AcDbEntity
  8
1
  6
Continuous
100
AcDbLine
 10
139.9166658891246
 20
166.277567
 30
0.0
 11
140.3559358891247
 21
166.0819789999998
 31
0.0
  0
LINE
  5
9749
330
9617
100
AcDbEntity
  8
1
  6
Continuous
100
AcDbLine
 10
140.5631808891247
 20
166.078363
 30
0.0
 11
140.3559508891246
 21
166.081995
 31
0.0
  0
LINE
  5
974A
330
9617
100
AcDbEntity
  8
1
  6
Continuous
100
AcDbLine
 10
140.5631658891246
 20
165.618372
 30
0.0
 11
140.3559508891246
 21
165.614755
 31
0.0
  0
LINE
  5
974B
330
9617
100
AcDbEntity
  8
1
  6
Continuous
100
AcDbLine
 10
139.9166968891246
 20
165.4191679999998
 30
0.0
 11
140.3559668891246
 21
165.6147399999998
 31
0.0
  0
LINE
  5
974C
330
9617
100
AcDbEntity
  8
1
  6
Continuous
100
AcDbLine
 10
139.9166808891247
 20
165.4191989999999
 30
0.0
 11
139.7210938891246
 21
164.9798979999999
 31
0.0
  0
LINE
  5
974D
330
9617
100
AcDbEntity
  8
1
  6
Continuous
100
AcDbLine
 10
139.7174928891246
 20
164.7726839999999
 30
0.0
 11
139.7211098891247
 21
164.9799129999999
 31
0.0
  0
LINE
  5
974E
330
9617
100
AcDbEntity
  8
1
  6
Continuous
100
AcDbLine
 10
139.2574868891246
 20
164.7726839999999
 30
0.0
 11
139.2538698891246
 21
164.9799129999999
 31
0.0
  0
LINE
  5
974F
330
9617
100
AcDbEntity
  8
1
  6
Continuous
100
AcDbLine
 10
139.0582978891247
 20
165.419183
 30
0.0
 11
139.2538698891246
 21
164.9798979999999
 31
0.0
  0
LINE
  5
9750
330
9617
100
AcDbEntity
  8
1
  6
Continuous
100
AcDbLine
 10
139.0582828891247
 20
165.419183
 30
0.0
 11
138.6190128891246
 21
165.614755
 31
0.0
  0
LINE
  5
9751
330
9617
100
AcDbEntity
  8
1
  6
Continuous
100
AcDbLine
 10
138.4117988891246
 20
165.618387
 30
0.0
 11
138.6190278891247
 21
165.614755
 31
0.0
  0
LINE
  5
9752
330
9617
100
AcDbEntity
  8
1
  6
Continuous
100
AcDbLine
 10
138.4117988891246
 20
166.0783779999999
 30
0.0
 11
138.6190128891246
 21
166.081995
 31
0.0
  0
LINE
  5
9753
330
9617
100
AcDbEntity
  8
1
  6
Continuous
100
AcDbLine
 10
139.0583138891246
 20
166.277567
 30
0.0
 11
138.6190278891247
 21
166.0819789999998
 31
0.0
  0
LINE
  5
9754
330
9617
100
AcDbEntity
  8
1
  6
Continuous
100
AcDbLine
 10
139.0582828891247
 20
166.277582
 30
0.0
 11
139.2538548891247
 21
166.7168369999999
 31
0.0
  0
LINE
  5
9755
330
9617
100
AcDbEntity
  8
1
  6
Continuous
100
AcDbLine
 10
139.2574868891246
 20
166.9240509999999
 30
0.0
 11
139.2538698891246
 21
166.7168209999998
 31
0.0
  0
LINE
  5
9756
330
9617
100
AcDbEntity
  8
1
  6
Continuous
100
AcDbLine
 10
139.7174778891247
 20
166.9240659999998
 30
0.0
 11
139.7210938891246
 21
166.7168369999999
 31
0.0
  0
LINE
  5
9757
330
9617
100
AcDbEntity
  8
1
  6
Continuous
100
AcDbLine
 10
139.9166808891247
 20
166.2775509999999
 30
0.0
 11
139.7211098891247
 21
166.7168209999998
 31
0.0
  0
LINE
  5
9758
330
9617
100
AcDbEntity
  8
4
  6
CENTER
100
AcDbLine
 10
136.9874668891247
 20
165.848367
 30
0.0
 11
141.9874668891246
 21
165.848367
 31
0.0
  0
LINE
  5
9759
330
9617
100
AcDbEntity
  8
4
  6
CENTER
100
AcDbLine
 10
139.4874818891247
 20
163.348352
 30
0.0
 11
139.4874818891247
 21
168.348352
 31
0.0
  0
LINE
  5
975A
330
9617
100
AcDbEntity
  8
4
  6
CENTER
100
AcDbLine
 10
160.4874818891246
 20
56.60756800000001
 30
0.0
 11
160.4874818891246
 21
52.60755299999999
 31
0.0
  0
LINE
  5
975B
330
9617
100
AcDbEntity
  8
1
  6
Continuous
100
AcDbLine
 10
160.7034858891247
 20
54.10753799999998
 30
0.0
 11
160.8374578891246
 21
53.60755300000001
 31
0.0
  0
LINE
  5
975C
330
9617
100
AcDbEntity
  8
1
  6
Continuous
100
AcDbLine
 10
160.0034888891246
 20
54.107576
 30
0.0
 11
160.1374758891246
 21
53.60755300000001
 31
0.0
  0
LINE
  5
975D
330
9617
100
AcDbEntity
  8
1
  6
Continuous
100
AcDbLine
 10
161.9166658891247
 20
166.277567
 30
0.0
 11
162.3559358891247
 21
166.081995
 31
0.0
  0
LINE
  5
975E
330
9617
100
AcDbEntity
  8
1
  6
Continuous
100
AcDbLine
 10
162.5631808891247
 20
166.0783779999999
 30
0.0
 11
162.3559508891246
 21
166.081995
 31
0.0
  0
LINE
  5
975F
330
9617
100
AcDbEntity
  8
1
  6
Continuous
100
AcDbLine
 10
162.5631658891246
 20
165.618372
 30
0.0
 11
162.3559668891246
 21
165.614755
 31
0.0
  0
LINE
  5
9760
330
9617
100
AcDbEntity
  8
1
  6
Continuous
100
AcDbLine
 10
161.9166808891247
 20
165.4191679999998
 30
0.0
 11
162.3559818891247
 21
165.614755
 31
0.0
  0
LINE
  5
9761
330
9617
100
AcDbEntity
  8
1
  6
Continuous
100
AcDbLine
 10
161.9166658891247
 20
165.4191679999998
 30
0.0
 11
161.7210938891247
 21
164.9799129999999
 31
0.0
  0
LINE
  5
9762
330
9617
100
AcDbEntity
  8
1
  6
Continuous
100
AcDbLine
 10
161.7174928891246
 20
164.7726839999999
 30
0.0
 11
161.7211098891246
 21
164.9799129999999
 31
0.0
  0
LINE
  5
9763
330
9617
100
AcDbEntity
  8
1
  6
Continuous
100
AcDbLine
 10
161.2575018891247
 20
164.7726839999999
 30
0.0
 11
161.2538848891247
 21
164.9799129999999
 31
0.0
  0
LINE
  5
9764
330
9617
100
AcDbEntity
  8
1
  6
Continuous
100
AcDbLine
 10
161.0582828891247
 20
165.419183
 30
0.0
 11
161.2538698891246
 21
164.9798979999999
 31
0.0
  0
LINE
  5
9765
330
9617
100
AcDbEntity
  8
1
  6
Continuous
100
AcDbLine
 10
161.0582828891247
 20
165.419183
 30
0.0
 11
160.6190128891246
 21
165.6147709999999
 31
0.0
  0
LINE
  5
9766
330
9617
100
AcDbEntity
  8
1
  6
Continuous
100
AcDbLine
 10
160.4118138891246
 20
165.618372
 30
0.0
 11
160.6190278891246
 21
165.614755
 31
0.0
  0
LINE
  5
9767
330
9617
100
AcDbEntity
  8
1
  6
Continuous
100
AcDbLine
 10
160.4118138891246
 20
166.0783779999999
 30
0.0
 11
160.6190278891246
 21
166.081995
 31
0.0
  0
LINE
  5
9768
330
9617
100
AcDbEntity
  8
1
  6
Continuous
100
AcDbLine
 10
161.0582978891246
 20
166.277567
 30
0.0
 11
160.6190438891246
 21
166.081995
 31
0.0
  0
LINE
  5
9769
330
9617
100
AcDbEntity
  8
1
  6
Continuous
100
AcDbLine
 10
161.0582828891247
 20
166.277582
 30
0.0
 11
161.2538548891247
 21
166.7168519999998
 31
0.0
  0
LINE
  5
976A
330
9617
100
AcDbEntity
  8
1
  6
Continuous
100
AcDbLine
 10
161.2574868891246
 20
166.9240659999998
 30
0.0
 11
161.2538698891246
 21
166.7168369999999
 31
0.0
  0
LINE
  5
976B
330
9617
100
AcDbEntity
  8
1
  6
Continuous
100
AcDbLine
 10
161.7174928891246
 20
166.9240659999998
 30
0.0
 11
161.7211098891246
 21
166.7168369999999
 31
0.0
  0
LINE
  5
976C
330
9617
100
AcDbEntity
  8
1
  6
Continuous
100
AcDbLine
 10
161.9166968891246
 20
166.277567
 30
0.0
 11
161.7211248891246
 21
166.7168209999998
 31
0.0
  0
LINE
  5
976D
330
9617
100
AcDbEntity
  8
4
  6
CENTER
100
AcDbLine
 10
158.9874668891247
 20
165.848367
 30
0.0
 11
163.9874668891247
 21
165.848367
 31
0.0
  0
LINE
  5
976E
330
9617
100
AcDbEntity
  8
4
  6
CENTER
100
AcDbLine
 10
161.4874818891246
 20
163.348352
 30
0.0
 11
161.4874818891246
 21
168.348352
 31
0.0
  0
LINE
  5
976F
330
9617
100
AcDbEntity
  8
4
  6
CENTER
100
AcDbLine
 10
42.18323632610611
 20
52.80754999999999
 30
0.0
 11
42.18323632610611
 21
56.80754999999999
 31
0.0
  0
LINE
  5
9770
330
9617
100
AcDbEntity
  8
4
  6
CENTER
100
AcDbLine
 10
356.2826845275325
 20
56.60756800000001
 30
0.0
 11
356.2826845275325
 21
52.60755299999999
 31
0.0
  0
LINE
  5
9771
330
9617
100
AcDbEntity
  8
1
  6
Continuous
100
AcDbLine
 10
136.7894378891246
 20
54.70141799999999
 30
0.0
 11
136.7374818891246
 21
54.10755299999999
 31
0.0
  0
LINE
  5
9772
330
9617
100
AcDbEntity
  8
1
  6
Continuous
100
AcDbLine
 10
140.1855408891246
 20
54.70143300000001
 30
0.0
 11
140.2374978891247
 21
54.10756800000001
 31
0.0
  0
LINE
  5
9773
330
9617
100
AcDbEntity
  8
1
  6
Continuous
100
AcDbLine
 10
138.7570748891247
 20
54.10755299999999
 30
0.0
 11
138.8910468891247
 21
53.60755300000001
 31
0.0
  0
LINE
  5
9774
330
9617
100
AcDbEntity
  8
1
  6
Continuous
100
AcDbLine
 10
138.0570928891247
 20
54.10755299999999
 30
0.0
 11
138.1910648891246
 21
53.60753799999997
 31
0.0
  0
LINE
  5
9775
330
9617
100
AcDbEntity
  8
4
  6
CENTER
100
AcDbLine
 10
160.4874818891246
 20
41.00753899999999
 30
0.0
 11
160.4874818891246
 21
45.00755499999995
 31
0.0
  0
LINE
  5
9776
330
9617
100
AcDbEntity
  8
4
  6
CENTER
100
AcDbLine
 10
138.4874518891247
 20
56.60756800000001
 30
0.0
 11
138.4874518891247
 21
52.60755299999999
 31
0.0
  0
LINE
  5
9777
330
9617
100
AcDbEntity
  8
4
  6
CENTER
100
AcDbLine
 10
138.4874518891247
 20
41.00753899999999
 30
0.0
 11
138.4874518891247
 21
45.00755499999995
 31
0.0
  0
LINE
  5
9778
330
9617
100
AcDbEntity
  8
4
  6
CENTER
100
AcDbLine
 10
356.2826845275325
 20
41.00753899999999
 30
0.0
 11
356.2826845275325
 21
45.00755499999995
 31
0.0
  0
LINE
  5
9779
330
9617
100
AcDbEntity
  8
4
  6
CENTER
100
AcDbLine
 10
334.2826845275325
 20
56.60756800000001
 30
0.0
 11
334.2826845275325
 21
52.60755299999999
 31
0.0
  0
LINE
  5
977A
330
9617
100
AcDbEntity
  8
4
  6
CENTER
100
AcDbLine
 10
334.2826845275325
 20
41.00753899999999
 30
0.0
 11
334.2826845275325
 21
45.00755499999995
 31
0.0
  0
LINE
  5
977B
330
9617
100
AcDbEntity
  8
1
  6
Continuous
100
AcDbLine
 10
44.18323632610611
 20
54.80754999999999
 30
0.0
 11
44.18323632610611
 21
42.80754999999999
 31
0.0
  0
LINE
  5
977C
330
9617
100
AcDbEntity
  8
1
  6
Continuous
100
AcDbLine
 10
40.50423932610613
 20
54.80754999999999
 30
0.0
 11
28.48323532610612
 21
54.80754999999999
 31
0.0
  0
LINE
  5
977D
330
9617
100
AcDbEntity
  8
1
  6
Continuous
100
AcDbLine
 10
40.50423932610613
 20
42.80754999999999
 30
0.0
 11
28.48323532610612
 21
42.80754999999999
 31
0.0
  0
LINE
  5
977E
330
9617
100
AcDbEntity
  8
1
  6
Continuous
100
AcDbLine
 10
249.3864127373906
 20
54.80754999999999
 30
0.0
 11
249.3864127373906
 21
42.80754999999999
 31
0.0
  0
LINE
  5
977F
330
9617
100
AcDbEntity
  8
1
  6
Continuous
100
AcDbLine
 10
253.0653987373907
 20
54.80754999999999
 30
0.0
 11
265.0863947373906
 21
54.80754999999999
 31
0.0
  0
LINE
  5
9780
330
9617
100
AcDbEntity
  8
1
  6
Continuous
100
AcDbLine
 10
253.0653987373907
 20
42.80754999999999
 30
0.0
 11
265.0863947373906
 21
42.80754999999999
 31
0.0
  0
LINE
  5
9781
330
9617
100
AcDbEntity
  8
1
  6
Continuous
100
AcDbLine
 10
136.4874518891247
 20
54.10755299999999
 30
0.0
 11
140.4874518891246
 21
54.10755299999999
 31
0.0
  0
LINE
  5
9782
330
9617
100
AcDbEntity
  8
1
  6
Continuous
100
AcDbLine
 10
140.4874518891246
 20
54.10755299999999
 30
0.0
 11
140.4874518891246
 21
53.60755300000001
 31
0.0
  0
LINE
  5
9783
330
9617
100
AcDbEntity
  8
1
  6
Continuous
100
AcDbLine
 10
136.4874518891247
 20
54.10755299999999
 30
0.0
 11
136.4874518891247
 21
53.60755300000001
 31
0.0
  0
LINE
  5
9784
330
9617
100
AcDbEntity
  8
1
  6
Continuous
100
AcDbLine
 10
158.4874818891246
 20
54.10755299999999
 30
0.0
 11
162.4874818891246
 21
54.10755299999999
 31
0.0
  0
LINE
  5
9785
330
9617
100
AcDbEntity
  8
1
  6
Continuous
100
AcDbLine
 10
162.4874818891246
 20
54.10755299999999
 30
0.0
 11
162.4874818891246
 21
53.60755300000001
 31
0.0
  0
LINE
  5
9786
330
9617
100
AcDbEntity
  8
1
  6
Continuous
100
AcDbLine
 10
158.4874818891246
 20
54.10755299999999
 30
0.0
 11
158.4874818891246
 21
53.60755300000001
 31
0.0
  0
LINE
  5
9787
330
9617
100
AcDbEntity
  8
1
  6
Continuous
100
AcDbLine
 10
162.2374978891246
 20
43.50755499999997
 30
0.0
 11
158.7374978891246
 21
43.50755499999997
 31
0.0
  0
LINE
  5
9788
330
9617
100
AcDbEntity
  8
1
  6
Continuous
100
AcDbLine
 10
158.7894378891246
 20
42.91368999999996
 30
0.0
 11
158.7374818891246
 21
43.50754699999998
 31
0.0
  0
LINE
  5
9789
330
9617
100
AcDbEntity
  8
1
  6
Continuous
100
AcDbLine
 10
162.1855258891246
 20
42.91367500000001
 30
0.0
 11
162.2374818891247
 21
43.50753199999997
 31
0.0
  0
LINE
  5
978A
330
9617
100
AcDbEntity
  8
1
  6
Continuous
100
AcDbLine
 10
160.2714938891247
 20
43.50756999999997
 30
0.0
 11
160.1375218891246
 21
44.00755499999997
 31
0.0
  0
LINE
  5
978B
330
9617
100
AcDbEntity
  8
1
  6
Continuous
100
AcDbLine
 10
160.9714908891246
 20
43.50752399999999
 30
0.0
 11
160.8375038891247
 21
44.00755499999997
 31
0.0
  0
LINE
  5
978C
330
9617
100
AcDbEntity
  8
1
  6
Continuous
100
AcDbLine
 10
136.7894378891246
 20
42.91368999999996
 30
0.0
 11
136.7374818891246
 21
43.50755499999997
 31
0.0
  0
LINE
  5
978D
330
9617
100
AcDbEntity
  8
1
  6
Continuous
100
AcDbLine
 10
140.1855408891246
 20
42.91366699999996
 30
0.0
 11
140.2374978891247
 21
43.50753199999997
 31
0.0
  0
LINE
  5
978E
330
9617
100
AcDbEntity
  8
1
  6
Continuous
100
AcDbLine
 10
138.2178438891246
 20
43.50754699999998
 30
0.0
 11
138.0838568891247
 21
44.00755499999997
 31
0.0
  0
LINE
  5
978F
330
9617
100
AcDbEntity
  8
1
  6
Continuous
100
AcDbLine
 10
138.9178258891246
 20
43.50755499999997
 30
0.0
 11
138.7838378891246
 21
44.00756999999997
 31
0.0
  0
LINE
  5
9790
330
9617
100
AcDbEntity
  8
1
  6
Continuous
100
AcDbLine
 10
136.4874518891247
 20
43.50755499999997
 30
0.0
 11
136.4874518891247
 21
44.00755499999997
 31
0.0
  0
LINE
  5
9791
330
9617
100
AcDbEntity
  8
1
  6
Continuous
100
AcDbLine
 10
140.4874518891246
 20
43.50755499999997
 30
0.0
 11
140.4874518891246
 21
44.00755499999997
 31
0.0
  0
LINE
  5
9792
330
9617
100
AcDbEntity
  8
1
  6
Continuous
100
AcDbLine
 10
136.4874518891247
 20
43.50755499999997
 30
0.0
 11
140.4874518891246
 21
43.50755499999997
 31
0.0
  0
LINE
  5
9793
330
9617
100
AcDbEntity
  8
1
  6
Continuous
100
AcDbLine
 10
158.4874818891246
 20
43.50755499999997
 30
0.0
 11
162.4874818891246
 21
43.50755499999997
 31
0.0
  0
LINE
  5
9794
330
9617
100
AcDbEntity
  8
1
  6
Continuous
100
AcDbLine
 10
162.4874818891246
 20
43.50755499999997
 30
0.0
 11
162.4874818891246
 21
44.00755499999997
 31
0.0
  0
LINE
  5
9795
330
9617
100
AcDbEntity
  8
1
  6
Continuous
100
AcDbLine
 10
158.4874818891246
 20
43.50755499999997
 30
0.0
 11
158.4874818891246
 21
44.00755499999997
 31
0.0
  0
LINE
  5
9796
330
9617
100
AcDbEntity
  8
1
  6
Continuous
100
AcDbLine
 10
40.48522232610611
 20
54.70141799999999
 30
0.0
 11
40.43326632610612
 21
54.10755299999999
 31
0.0
  0
LINE
  5
9797
330
9617
100
AcDbEntity
  8
1
  6
Continuous
100
AcDbLine
 10
43.88131832610612
 20
54.70143300000001
 30
0.0
 11
43.93327432610613
 21
54.10756800000001
 31
0.0
  0
LINE
  5
9798
330
9617
100
AcDbEntity
  8
1
  6
Continuous
100
AcDbLine
 10
42.45284732610612
 20
54.10755299999999
 30
0.0
 11
42.58681932610612
 21
53.60755300000001
 31
0.0
  0
LINE
  5
9799
330
9617
100
AcDbEntity
  8
1
  6
Continuous
100
AcDbLine
 10
41.75286532610613
 20
54.107546
 30
0.0
 11
41.88684132610612
 21
53.60753800000001
 31
0.0
  0
LINE
  5
979A
330
9617
100
AcDbEntity
  8
1
  6
Continuous
100
AcDbLine
 10
40.18323632610612
 20
54.10755299999999
 30
0.0
 11
40.18323632610612
 21
53.60755300000001
 31
0.0
  0
LINE
  5
979B
330
9617
100
AcDbEntity
  8
1
  6
Continuous
100
AcDbLine
 10
40.18323632610612
 20
54.10755299999999
 30
0.0
 11
44.18323632610611
 21
54.10755299999999
 31
0.0
  0
LINE
  5
979C
330
9617
100
AcDbEntity
  8
1
  6
Continuous
100
AcDbLine
 10
40.18323632610612
 20
43.50755499999999
 30
0.0
 11
44.18323632610611
 21
43.50755499999999
 31
0.0
  0
LINE
  5
979D
330
9617
100
AcDbEntity
  8
1
  6
Continuous
100
AcDbLine
 10
43.88131832610612
 20
42.91367499999998
 30
0.0
 11
43.93327432610613
 21
43.50753199999998
 31
0.0
  0
LINE
  5
979E
330
9617
100
AcDbEntity
  8
1
  6
Continuous
100
AcDbLine
 10
42.61361032610611
 20
43.50755499999999
 30
0.0
 11
42.47963032610613
 21
44.00757
 31
0.0
  0
LINE
  5
979F
330
9617
100
AcDbEntity
  8
1
  6
Continuous
100
AcDbLine
 10
41.91362832610612
 20
43.50755499999999
 30
0.0
 11
41.77965232610612
 21
44.00755499999998
 31
0.0
  0
LINE
  5
97A0
330
9617
100
AcDbEntity
  8
1
  6
Continuous
100
AcDbLine
 10
40.48522232610611
 20
42.91369
 30
0.0
 11
40.43326632610612
 21
43.50754699999998
 31
0.0
  0
LINE
  5
97A1
330
9617
100
AcDbEntity
  8
1
  6
Continuous
100
AcDbLine
 10
40.18323632610612
 20
43.50755499999999
 30
0.0
 11
40.18323632610612
 21
44.00755499999998
 31
0.0
  0
LINE
  5
97A2
330
9617
100
AcDbEntity
  8
1
  6
Continuous
100
AcDbLine
 10
253.3864127373906
 20
54.10755299999999
 30
0.0
 11
249.3864127373906
 21
54.10755299999999
 31
0.0
  0
LINE
  5
97A3
330
9617
100
AcDbEntity
  8
1
  6
Continuous
100
AcDbLine
 10
249.6883227373905
 20
54.70143300000001
 30
0.0
 11
249.6363517373905
 21
54.10756800000001
 31
0.0
  0
LINE
  5
97A4
330
9617
100
AcDbEntity
  8
1
  6
Continuous
100
AcDbLine
 10
250.9560537373906
 20
54.10755299999999
 30
0.0
 11
251.0900257373906
 21
53.60753799999997
 31
0.0
  0
LINE
  5
97A5
330
9617
100
AcDbEntity
  8
1
  6
Continuous
100
AcDbLine
 10
251.6560357373906
 20
54.10756099999996
 30
0.0
 11
251.7900077373905
 21
53.60756099999997
 31
0.0
  0
LINE
  5
97A6
330
9617
100
AcDbEntity
  8
1
  6
Continuous
100
AcDbLine
 10
253.0844417373905
 20
54.70141799999999
 30
0.0
 11
253.1363817373907
 21
54.10756099999996
 31
0.0
  0
LINE
  5
97A7
330
9617
100
AcDbEntity
  8
1
  6
Continuous
100
AcDbLine
 10
253.3864127373906
 20
54.10755299999999
 30
0.0
 11
253.3864127373906
 21
53.60755300000001
 31
0.0
  0
LINE
  5
97A8
330
9617
100
AcDbEntity
  8
1
  6
Continuous
100
AcDbLine
 10
251.1167897373906
 20
43.50755499999997
 30
0.0
 11
250.9828177373906
 21
44.00755499999997
 31
0.0
  0
LINE
  5
97A9
330
9617
100
AcDbEntity
  8
1
  6
Continuous
100
AcDbLine
 10
253.3864127373906
 20
43.50755499999997
 30
0.0
 11
253.3864127373906
 21
44.00755499999997
 31
0.0
  0
LINE
  5
97AA
330
9617
100
AcDbEntity
  8
1
  6
Continuous
100
AcDbLine
 10
253.0844107373906
 20
42.91368299999999
 30
0.0
 11
253.1363817373907
 21
43.50754699999998
 31
0.0
  0
LINE
  5
97AB
330
9617
100
AcDbEntity
  8
1
  6
Continuous
100
AcDbLine
 10
251.8167717373906
 20
43.50754699999998
 30
0.0
 11
251.6827997373905
 21
44.007562
 31
0.0
  0
LINE
  5
97AC
330
9617
100
AcDbEntity
  8
1
  6
Continuous
100
AcDbLine
 10
249.6883227373905
 20
42.91366699999996
 30
0.0
 11
249.6363517373905
 21
43.50753199999997
 31
0.0
  0
LINE
  5
97AD
330
9617
100
AcDbEntity
  8
1
  6
Continuous
100
AcDbLine
 10
253.3864127373906
 20
43.50755499999997
 30
0.0
 11
249.3864127373906
 21
43.50755499999997
 31
0.0
  0
LINE
  5
97AE
330
9617
100
AcDbEntity
  8
4
  6
CENTER
100
AcDbLine
 10
247.8175347373907
 20
58.05754999999999
 30
0.0
 11
247.8175347373907
 21
39.55754999999999
 31
0.0
  0
LINE
  5
97AF
330
9617
100
AcDbEntity
  8
1
  6
Continuous
100
AcDbLine
 10
332.5326545275324
 20
54.10755299999999
 30
0.0
 11
336.0326545275324
 21
54.10755299999999
 31
0.0
  0
LINE
  5
97B0
330
9617
100
AcDbEntity
  8
1
  6
Continuous
100
AcDbLine
 10
335.9806825275325
 20
54.70141799999999
 30
0.0
 11
336.0326545275324
 21
54.10755299999999
 31
0.0
  0
LINE
  5
97B1
330
9617
100
AcDbEntity
  8
1
  6
Continuous
100
AcDbLine
 10
332.5846255275326
 20
54.70143999999999
 30
0.0
 11
332.5326545275324
 21
54.107576
 31
0.0
  0
LINE
  5
97B2
330
9617
100
AcDbEntity
  8
1
  6
Continuous
100
AcDbLine
 10
332.2826545275324
 20
43.50755499999997
 30
0.0
 11
332.2826545275324
 21
44.00755499999997
 31
0.0
  0
LINE
  5
97B3
330
9617
100
AcDbEntity
  8
1
  6
Continuous
100
AcDbLine
 10
334.4986885275325
 20
54.10753799999998
 30
0.0
 11
334.6326605275324
 21
53.60755300000001
 31
0.0
  0
LINE
  5
97B4
330
9617
100
AcDbEntity
  8
1
  6
Continuous
100
AcDbLine
 10
333.7987065275324
 20
54.107576
 30
0.0
 11
333.9326785275325
 21
53.60755300000001
 31
0.0
  0
LINE
  5
97B5
330
9617
100
AcDbEntity
  8
1
  6
Continuous
100
AcDbLine
 10
336.2826545275324
 20
43.50755499999997
 30
0.0
 11
332.2826545275324
 21
43.50755499999997
 31
0.0
  0
LINE
  5
97B6
330
9617
100
AcDbEntity
  8
1
  6
Continuous
100
AcDbLine
 10
358.2826845275325
 20
43.50755499999997
 30
0.0
 11
354.2826845275325
 21
43.50755499999997
 31
0.0
  0
LINE
  5
97B7
330
9617
100
AcDbEntity
  8
1
  6
Continuous
100
AcDbLine
 10
354.2826845275325
 20
43.50755499999997
 30
0.0
 11
354.2826845275325
 21
44.00755499999997
 31
0.0
  0
LINE
  5
97B8
330
9617
100
AcDbEntity
  8
1
  6
Continuous
100
AcDbLine
 10
358.2826845275325
 20
43.50755499999997
 30
0.0
 11
358.2826845275325
 21
44.00755499999997
 31
0.0
  0
LINE
  5
97B9
330
9617
100
AcDbEntity
  8
1
  6
Continuous
100
AcDbLine
 10
356.7130435275327
 20
43.50755499999997
 30
0.0
 11
356.5790715275325
 21
44.00756999999997
 31
0.0
  0
LINE
  5
97BA
330
9617
100
AcDbEntity
  8
1
  6
Continuous
100
AcDbLine
 10
356.0130315275325
 20
43.50754699999998
 30
0.0
 11
355.8790595275326
 21
44.00754699999999
 31
0.0
  0
LINE
  5
97BB
330
9617
100
AcDbEntity
  8
1
  6
Continuous
100
AcDbLine
 10
354.5846255275325
 20
42.91367500000001
 30
0.0
 11
354.5326845275325
 21
43.50753199999997
 31
0.0
  0
LINE
  5
97BC
330
9617
100
AcDbEntity
  8
1
  6
Continuous
100
AcDbLine
 10
357.9807135275327
 20
42.91368999999996
 30
0.0
 11
358.0326545275324
 21
43.50755499999997
 31
0.0
  0
LINE
  5
97BD
330
9617
100
AcDbEntity
  8
1
  6
Continuous
100
AcDbLine
 10
357.9807135275327
 20
54.70141799999999
 30
0.0
 11
358.0326545275324
 21
54.10755299999999
 31
0.0
  0
LINE
  5
97BE
330
9617
100
AcDbEntity
  8
1
  6
Continuous
100
AcDbLine
 10
354.5846255275325
 20
54.70143300000001
 30
0.0
 11
354.5326545275324
 21
54.10756800000001
 31
0.0
  0
LINE
  5
97BF
330
9617
100
AcDbEntity
  8
1
  6
Continuous
100
AcDbLine
 10
356.5522775275325
 20
54.10755299999999
 30
0.0
 11
356.6862495275326
 21
53.60755300000001
 31
0.0
  0
LINE
  5
97C0
330
9617
100
AcDbEntity
  8
1
  6
Continuous
100
AcDbLine
 10
355.8522955275325
 20
54.107546
 30
0.0
 11
355.9862675275325
 21
53.60753799999997
 31
0.0
  0
LINE
  5
97C1
330
9617
100
AcDbEntity
  8
1
  6
Continuous
100
AcDbLine
 10
334.7666935275325
 20
43.50753199999997
 30
0.0
 11
334.6327215275325
 21
44.00755499999997
 31
0.0
  0
LINE
  5
97C2
330
9617
100
AcDbEntity
  8
1
  6
Continuous
100
AcDbLine
 10
334.0666815275325
 20
43.50756999999997
 30
0.0
 11
333.9327095275326
 21
44.00754699999999
 31
0.0
  0
LINE
  5
97C3
330
9617
100
AcDbEntity
  8
1
  6
Continuous
100
AcDbLine
 10
332.5846255275326
 20
42.91367500000001
 30
0.0
 11
332.5326545275324
 21
43.50753199999997
 31
0.0
  0
LINE
  5
97C4
330
9617
100
AcDbEntity
  8
1
  6
Continuous
100
AcDbLine
 10
335.9806825275325
 20
42.91368299999999
 30
0.0
 11
336.0326545275324
 21
43.50754699999998
 31
0.0
  0
LINE
  5
97C5
330
9617
100
AcDbEntity
  8
1
  6
Continuous
100
AcDbLine
 10
332.5326545275324
 20
43.50755499999997
 30
0.0
 11
336.0326545275324
 21
43.50755499999997
 31
0.0
  0
LINE
  5
97C6
330
9617
100
AcDbEntity
  8
1
  6
Continuous
100
AcDbLine
 10
358.2826845275325
 20
54.10755299999999
 30
0.0
 11
358.2826845275325
 21
53.60755300000001
 31
0.0
  0
LINE
  5
97C7
330
9617
100
AcDbEntity
  8
1
  6
Continuous
100
AcDbLine
 10
354.2826845275325
 20
54.10755299999999
 30
0.0
 11
354.2826845275325
 21
53.60755300000001
 31
0.0
  0
LINE
  5
97C8
330
9617
100
AcDbEntity
  8
1
  6
Continuous
100
AcDbLine
 10
358.2826845275325
 20
54.10755299999999
 30
0.0
 11
354.2826845275325
 21
54.10755299999999
 31
0.0
  0
LINE
  5
97C9
330
9617
100
AcDbEntity
  8
1
  6
Continuous
100
AcDbLine
 10
336.2826545275324
 20
43.50755499999997
 30
0.0
 11
336.2826545275324
 21
44.00755499999997
 31
0.0
  0
LINE
  5
97CA
330
9617
100
AcDbEntity
  8
1
  6
Continuous
100
AcDbLine
 10
336.2826545275324
 20
54.10755299999999
 30
0.0
 11
332.2826545275324
 21
54.10755299999999
 31
0.0
  0
LINE
  5
97CB
330
9617
100
AcDbEntity
  8
1
  6
Continuous
100
AcDbLine
 10
332.2826545275324
 20
54.10755299999999
 30
0.0
 11
332.2826545275324
 21
53.60755300000001
 31
0.0
  0
LINE
  5
97CC
330
9617
100
AcDbEntity
  8
1
  6
Continuous
100
AcDbLine
 10
336.2826545275324
 20
54.10755299999999
 30
0.0
 11
336.2826545275324
 21
53.60755300000001
 31
0.0
  0
ARC
  5
97CE
330
9617
100
AcDbEntity
  8
1
  6
Continuous
100
AcDbCircle
 10
150.4874668891247
 20
174.8483669999999
 30
0.0
 40
1.05
100
AcDbArc
 50
0.0
 51
180.000005
  0
ARC
  5
97CF
330
9617
100
AcDbEntity
  8
1
  6
Continuous
100
AcDbCircle
 10
28.48323532610612
 20
44.80754999999999
 30
0.0
 40
0.8
100
AcDbArc
 50
179.9999909999999
 51
270.000001
  0
ARC
  5
97D0
330
9617
100
AcDbEntity
  8
1
  6
Continuous
100
AcDbCircle
 10
28.48323532610612
 20
52.80754999999999
 30
0.0
 40
0.8
100
AcDbArc
 50
90.00000300000001
 51
180.000005
  0
ARC
  5
97D1
330
9617
100
AcDbEntity
  8
1
  6
Continuous
100
AcDbCircle
 10
154.5374698891246
 20
54.00755500000002
 30
0.0
 40
0.8
100
AcDbArc
 50
0.0
 51
90.00000300000001
  0
ARC
  5
97D2
330
9617
100
AcDbEntity
  8
1
  6
Continuous
100
AcDbCircle
 10
155.3374728891246
 20
53.60755300000001
 30
0.0
 40
0.8
100
AcDbArc
 50
179.9999909999999
 51
270.000001
  0
ARC
  5
97D3
330
9617
100
AcDbEntity
  8
1
  6
Continuous
100
AcDbCircle
 10
143.6374758891247
 20
53.60755300000001
 30
0.0
 40
0.8
100
AcDbArc
 50
269.9999969999999
 51
0.0
  0
ARC
  5
97D4
330
9617
100
AcDbEntity
  8
1
  6
Continuous
100
AcDbCircle
 10
144.4374638891247
 20
54.00755500000002
 30
0.0
 40
0.8
100
AcDbArc
 50
90.00000300000001
 51
180.000005
  0
ARC
  5
97D5
330
9617
100
AcDbEntity
  8
1
  6
Continuous
100
AcDbCircle
 10
144.4374638891247
 20
43.607553
 30
0.0
 40
0.8
100
AcDbArc
 50
179.9999909999999
 51
270.000001
  0
ARC
  5
97D6
330
9617
100
AcDbEntity
  8
1
  6
Continuous
100
AcDbCircle
 10
143.6374758891247
 20
44.00755499999997
 30
0.0
 40
0.8
100
AcDbArc
 50
0.0
 51
90.00000300000001
  0
ARC
  5
97D7
330
9617
100
AcDbEntity
  8
1
  6
Continuous
100
AcDbCircle
 10
155.3374728891246
 20
44.00755499999997
 30
0.0
 40
0.8
100
AcDbArc
 50
90.00000300000001
 51
180.000005
  0
ARC
  5
97D8
330
9617
100
AcDbEntity
  8
1
  6
Continuous
100
AcDbCircle
 10
154.5374698891246
 20
43.607553
 30
0.0
 40
0.8
100
AcDbArc
 50
269.9999969999999
 51
0.0
  0
CIRCLE
  5
97D9
330
9617
100
AcDbEntity
  8
2
  6
Continuous
100
AcDbCircle
 10
160.4874668891246
 20
48.80754999999999
 30
0.0
 40
1.5
  0
CIRCLE
  5
97DA
330
9617
100
AcDbEntity
  8
1
  6
Continuous
100
AcDbCircle
 10
160.4874668891246
 20
48.80754999999999
 30
0.0
 40
1.2295
  0
CIRCLE
  5
97DB
330
9617
100
AcDbEntity
  8
1
  6
Continuous
100
AcDbCircle
 10
138.4874668891247
 20
48.80754999999999
 30
0.0
 40
1.2295
  0
CIRCLE
  5
97DC
330
9617
100
AcDbEntity
  8
2
  6
Continuous
100
AcDbCircle
 10
138.4874668891247
 20
48.80754999999999
 30
0.0
 40
1.5
  0
ARC
  5
97DD
330
9617
100
AcDbEntity
  8
1
  6
Continuous
100
AcDbCircle
 10
146.4874668891247
 20
149.8483669999999
 30
0.0
 40
1.0
100
AcDbArc
 50
179.9999909999999
 51
270.000001
  0
ARC
  5
97DE
330
9617
100
AcDbEntity
  8
1
  6
Continuous
100
AcDbCircle
 10
154.4874668891246
 20
149.8483669999999
 30
0.0
 40
1.0
100
AcDbArc
 50
269.9999969999999
 51
0.0
  0
ARC
  5
97DF
330
9617
100
AcDbEntity
  8
1
  6
Continuous
100
AcDbCircle
 10
58.18323632610613
 20
44.70755199999999
 30
0.0
 40
1.0
100
AcDbArc
 50
269.9999969999999
 51
0.0
  0
ARC
  5
97E0
330
9617
100
AcDbEntity
  8
1
  6
Continuous
100
AcDbCircle
 10
58.18323632610613
 20
52.907556
 30
0.0
 40
1.0
100
AcDbArc
 50
0.0
 51
90.00000300000001
  0
ARC
  5
97E1
330
9617
100
AcDbEntity
  8
1
  6
Continuous
100
AcDbCircle
 10
265.0863947373906
 20
44.80754999999999
 30
0.0
 40
0.8
100
AcDbArc
 50
269.9999969999999
 51
0.0
  0
ARC
  5
97E2
330
9617
100
AcDbEntity
  8
1
  6
Continuous
100
AcDbCircle
 10
265.0863947373906
 20
52.80754999999999
 30
0.0
 40
0.8
100
AcDbArc
 50
0.0
 51
90.00000300000001
  0
ARC
  5
97E3
330
9617
100
AcDbEntity
  8
1
  6
Continuous
100
AcDbCircle
 10
235.3864127373906
 20
44.70755200000001
 30
0.0
 40
1.0
100
AcDbArc
 50
179.9999909999999
 51
270.000001
  0
ARC
  5
97E4
330
9617
100
AcDbEntity
  8
1
  6
Continuous
100
AcDbCircle
 10
235.3864127373906
 20
52.907556
 30
0.0
 40
1.0
100
AcDbArc
 50
90.00000300000001
 51
180.000005
  0
CIRCLE
  5
97E5
330
9617
100
AcDbEntity
  8
1
  6
Continuous
100
AcDbCircle
 10
259.3864127373905
 20
48.80754999999999
 30
0.0
 40
1.7
  0
ARC
  5
97E7
330
9617
100
AcDbEntity
  8
1
  6
Continuous
100
AcDbCircle
 10
164.4874668891247
 20
179.348367
 30
0.0
 40
1.0
100
AcDbArc
 50
0.0
 51
90.00000300000001
  0
ARC
  5
97F1
330
9617
100
AcDbEntity
  8
1
  6
Continuous
100
AcDbCircle
 10
350.3326725275325
 20
43.607553
 30
0.0
 40
0.8
100
AcDbArc
 50
269.9999969999999
 51
0.0
  0
ARC
  5
97F2
330
9617
100
AcDbEntity
  8
1
  6
Continuous
100
AcDbCircle
 10
340.2326665275325
 20
43.607553
 30
0.0
 40
0.8
100
AcDbArc
 50
179.9999909999999
 51
270.000001
  0
ARC
  5
97F3
330
9617
100
AcDbEntity
  8
1
  6
Continuous
100
AcDbCircle
 10
350.3326725275325
 20
54.00755500000002
 30
0.0
 40
0.8
100
AcDbArc
 50
0.0
 51
90.00000300000001
  0
ARC
  5
97F4
330
9617
100
AcDbEntity
  8
1
  6
Continuous
100
AcDbCircle
 10
340.2326665275325
 20
54.00755500000002
 30
0.0
 40
0.8
100
AcDbArc
 50
90.00000300000001
 51
180.000005
  0
ARC
  5
97F6
330
9617
100
AcDbEntity
  8
1
  6
Continuous
100
AcDbCircle
 10
159.3871708891246
 20
54.649133
 30
0.0
 40
0.6
100
AcDbArc
 50
106.3876409999998
 51
174.999938
  0
ARC
  5
97F7
330
9617
100
AcDbEntity
  8
1
  6
Continuous
100
AcDbCircle
 10
160.4874978891246
 20
50.90757100000002
 30
0.0
 40
4.5
100
AcDbArc
 50
73.61234300000003
 51
106.387662
  0
ARC
  5
97F8
330
9617
100
AcDbEntity
  8
1
  6
Continuous
100
AcDbCircle
 10
161.5878238891246
 20
54.649133
 30
0.0
 40
0.6
100
AcDbArc
 50
5.000048999999997
 51
73.61234300000003
  0
ARC
  5
97F9
330
9617
100
AcDbEntity
  8
1
  6
Continuous
100
AcDbCircle
 10
139.4874818891247
 20
165.848367
 30
0.0
 40
1.1
100
AcDbArc
 50
347.9309169999999
 51
12.069083
  0
ARC
  5
97FA
330
9617
100
AcDbEntity
  8
1
  6
Continuous
100
AcDbCircle
 10
139.4874818891247
 20
165.848367
 30
0.0
 40
1.1
100
AcDbArc
 50
257.9309169999999
 51
282.0690849999999
  0
ARC
  5
97FB
330
9617
100
AcDbEntity
  8
1
  6
Continuous
100
AcDbCircle
 10
139.4874818891247
 20
165.848367
 30
0.0
 40
1.1
100
AcDbArc
 50
167.93091
 51
192.0690719999998
  0
ARC
  5
97FC
330
9617
100
AcDbEntity
  8
1
  6
Continuous
100
AcDbCircle
 10
139.4874818891247
 20
165.848367
 30
0.0
 40
1.1
100
AcDbArc
 50
77.930915
 51
102.069083
  0
CIRCLE
  5
97FD
330
9617
100
AcDbEntity
  8
1
  6
Continuous
100
AcDbCircle
 10
139.4874668891247
 20
165.848367
 30
0.0
 40
1.75
  0
ARC
  5
97FE
330
9617
100
AcDbEntity
  8
1
  6
Continuous
100
AcDbCircle
 10
161.4874818891246
 20
165.848367
 30
0.0
 40
1.1
100
AcDbArc
 50
347.9309169999999
 51
12.069083
  0
ARC
  5
97FF
330
9617
100
AcDbEntity
  8
1
  6
Continuous
100
AcDbCircle
 10
161.4874818891246
 20
165.848367
 30
0.0
 40
1.1
100
AcDbArc
 50
257.9309169999999
 51
282.0690849999999
  0
ARC
  5
9800
330
9617
100
AcDbEntity
  8
1
  6
Continuous
100
AcDbCircle
 10
161.4874818891246
 20
165.848367
 30
0.0
 40
1.1
100
AcDbArc
 50
167.93091
 51
192.0690719999998
  0
ARC
  5
9801
330
9617
100
AcDbEntity
  8
1
  6
Continuous
100
AcDbCircle
 10
161.4874818891246
 20
165.848367
 30
0.0
 40
1.1
100
AcDbArc
 50
77.930915
 51
102.069083
  0
CIRCLE
  5
9802
330
9617
100
AcDbEntity
  8
1
  6
Continuous
100
AcDbCircle
 10
161.4874668891246
 20
165.848367
 30
0.0
 40
1.75
  0
ARC
  5
9803
330
9617
100
AcDbEntity
  8
1
  6
Continuous
100
AcDbCircle
 10
137.3871708891246
 20
54.649133
 30
0.0
 40
0.6
100
AcDbArc
 50
106.3876409999998
 51
174.999938
  0
ARC
  5
9804
330
9617
100
AcDbEntity
  8
1
  6
Continuous
100
AcDbCircle
 10
138.4874978891246
 20
50.90757100000002
 30
0.0
 40
4.5
100
AcDbArc
 50
73.61234300000003
 51
106.387662
  0
ARC
  5
9805
330
9617
100
AcDbEntity
  8
1
  6
Continuous
100
AcDbCircle
 10
139.5878238891247
 20
54.649133
 30
0.0
 40
0.6
100
AcDbArc
 50
5.000048999999997
 51
73.61234300000003
  0
ARC
  5
9806
330
9617
100
AcDbEntity
  8
1
  6
Continuous
100
AcDbCircle
 10
159.3871708891246
 20
42.96597399999996
 30
0.0
 40
0.6
100
AcDbArc
 50
185.0000619999999
 51
253.6123589999999
  0
ARC
  5
9807
330
9617
100
AcDbEntity
  8
1
  6
Continuous
100
AcDbCircle
 10
160.4874978891246
 20
46.707536
 30
0.0
 40
4.5
100
AcDbArc
 50
253.6123379999999
 51
286.387657
  0
ARC
  5
9808
330
9617
100
AcDbEntity
  8
1
  6
Continuous
100
AcDbCircle
 10
161.5878238891246
 20
42.96597399999996
 30
0.0
 40
0.6
100
AcDbArc
 50
286.387657
 51
354.9999509999998
  0
ARC
  5
9809
330
9617
100
AcDbEntity
  8
1
  6
Continuous
100
AcDbCircle
 10
137.3871708891246
 20
42.96597399999996
 30
0.0
 40
0.6
100
AcDbArc
 50
185.0000619999999
 51
253.6123589999999
  0
ARC
  5
980A
330
9617
100
AcDbEntity
  8
1
  6
Continuous
100
AcDbCircle
 10
138.4874978891246
 20
46.707536
 30
0.0
 40
4.5
100
AcDbArc
 50
253.6123379999999
 51
286.387657
  0
ARC
  5
980B
330
9617
100
AcDbEntity
  8
1
  6
Continuous
100
AcDbCircle
 10
139.5878238891247
 20
42.96597399999996
 30
0.0
 40
0.6
100
AcDbArc
 50
286.387657
 51
354.9999509999998
  0
ARC
  5
980C
330
9617
100
AcDbEntity
  8
1
  6
Continuous
100
AcDbCircle
 10
41.08294732610612
 20
54.649133
 30
0.0
 40
0.6
100
AcDbArc
 50
106.3876409999998
 51
174.999938
  0
ARC
  5
980D
330
9617
100
AcDbEntity
  8
1
  6
Continuous
100
AcDbCircle
 10
42.18327432610613
 20
50.90757100000002
 30
0.0
 40
4.5
100
AcDbArc
 50
73.61234300000003
 51
106.387662
  0
ARC
  5
980E
330
9617
100
AcDbEntity
  8
1
  6
Continuous
100
AcDbCircle
 10
43.28360032610611
 20
54.649133
 30
0.0
 40
0.6
100
AcDbArc
 50
5.000048999999997
 51
73.61234300000003
  0
ARC
  5
980F
330
9617
100
AcDbEntity
  8
1
  6
Continuous
100
AcDbCircle
 10
43.28360032610611
 20
42.96597399999998
 30
0.0
 40
0.6
100
AcDbArc
 50
286.387657
 51
354.9999509999998
  0
ARC
  5
9810
330
9617
100
AcDbEntity
  8
1
  6
Continuous
100
AcDbCircle
 10
42.18327432610613
 20
46.707536
 30
0.0
 40
4.5
100
AcDbArc
 50
253.6123379999999
 51
286.387657
  0
ARC
  5
9811
330
9617
100
AcDbEntity
  8
1
  6
Continuous
100
AcDbCircle
 10
41.08294732610612
 20
42.96597399999998
 30
0.0
 40
0.6
100
AcDbArc
 50
185.0000619999999
 51
253.6123589999999
  0
ARC
  5
9812
330
9617
100
AcDbEntity
  8
1
  6
Continuous
100
AcDbCircle
 10
250.2860407373907
 20
54.649133
 30
0.0
 40
0.6
100
AcDbArc
 50
106.387655
 51
174.999951
  0
ARC
  5
9813
330
9617
100
AcDbEntity
  8
1
  6
Continuous
100
AcDbCircle
 10
251.3863817373906
 20
50.90757100000002
 30
0.0
 40
4.5
100
AcDbArc
 50
73.612336
 51
106.387655
  0
ARC
  5
9814
330
9617
100
AcDbEntity
  8
1
  6
Continuous
100
AcDbCircle
 10
252.4866937373906
 20
54.649133
 30
0.0
 40
0.6
100
AcDbArc
 50
5.000062999999999
 51
73.61235699999999
  0
ARC
  5
9815
330
9617
100
AcDbEntity
  8
1
  6
Continuous
100
AcDbCircle
 10
250.2860407373907
 20
42.96597399999996
 30
0.0
 40
0.6
100
AcDbArc
 50
185.000049
 51
253.6123449999998
  0
ARC
  5
9816
330
9617
100
AcDbEntity
  8
1
  6
Continuous
100
AcDbCircle
 10
252.4866937373906
 20
42.96597399999996
 30
0.0
 40
0.6
100
AcDbArc
 50
286.387643
 51
354.999937
  0
ARC
  5
9817
330
9617
100
AcDbEntity
  8
1
  6
Continuous
100
AcDbCircle
 10
251.3863817373906
 20
46.707536
 30
0.0
 40
4.5
100
AcDbArc
 50
253.6123449999998
 51
286.3876639999999
  0
ARC
  5
9818
330
9617
100
AcDbEntity
  8
1
  6
Continuous
100
AcDbCircle
 10
335.3829965275326
 20
54.649133
 30
0.0
 40
0.6
100
AcDbArc
 50
5.000062999999999
 51
73.61235699999999
  0
ARC
  5
9819
330
9617
100
AcDbEntity
  8
1
  6
Continuous
100
AcDbCircle
 10
334.2826545275324
 20
50.90757100000002
 30
0.0
 40
4.5
100
AcDbArc
 50
73.612336
 51
106.387655
  0
ARC
  5
981A
330
9617
100
AcDbEntity
  8
1
  6
Continuous
100
AcDbCircle
 10
333.1823435275325
 20
54.649133
 30
0.0
 40
0.6
100
AcDbArc
 50
106.387655
 51
174.999951
  0
ARC
  5
981B
330
9617
100
AcDbEntity
  8
1
  6
Continuous
100
AcDbCircle
 10
355.1823435275325
 20
42.96597399999996
 30
0.0
 40
0.6
100
AcDbArc
 50
185.000049
 51
253.6123449999998
  0
ARC
  5
981C
330
9617
100
AcDbEntity
  8
1
  6
Continuous
100
AcDbCircle
 10
356.2826545275324
 20
46.707536
 30
0.0
 40
4.5
100
AcDbArc
 50
253.6123449999998
 51
286.3876639999999
  0
ARC
  5
981D
330
9617
100
AcDbEntity
  8
1
  6
Continuous
100
AcDbCircle
 10
357.3829965275327
 20
42.96597399999996
 30
0.0
 40
0.6
100
AcDbArc
 50
286.387643
 51
354.999937
  0
ARC
  5
981E
330
9617
100
AcDbEntity
  8
1
  6
Continuous
100
AcDbCircle
 10
357.3829965275327
 20
54.649133
 30
0.0
 40
0.6
100
AcDbArc
 50
5.000062999999999
 51
73.61235699999999
  0
ARC
  5
981F
330
9617
100
AcDbEntity
  8
1
  6
Continuous
100
AcDbCircle
 10
356.2826545275324
 20
50.90757100000002
 30
0.0
 40
4.5
100
AcDbArc
 50
73.612336
 51
106.387655
  0
ARC
  5
9820
330
9617
100
AcDbEntity
  8
1
  6
Continuous
100
AcDbCircle
 10
355.1823435275325
 20
54.649133
 30
0.0
 40
0.6
100
AcDbArc
 50
106.387655
 51
174.999951
  0
ARC
  5
9821
330
9617
100
AcDbEntity
  8
1
  6
Continuous
100
AcDbCircle
 10
333.1823435275325
 20
42.96597399999996
 30
0.0
 40
0.6
100
AcDbArc
 50
185.000049
 51
253.6123449999998
  0
ARC
  5
9822
330
9617
100
AcDbEntity
  8
1
  6
Continuous
100
AcDbCircle
 10
334.2826545275324
 20
46.707536
 30
0.0
 40
4.5
100
AcDbArc
 50
253.6123449999998
 51
286.3876639999999
  0
ARC
  5
9823
330
9617
100
AcDbEntity
  8
1
  6
Continuous
100
AcDbCircle
 10
335.3829965275326
 20
42.96597399999996
 30
0.0
 40
0.6
100
AcDbArc
 50
286.387643
 51
354.999937
  0
LINE
  5
9824
330
9617
100
AcDbEntity
  8
1
  6
Continuous
100
AcDbLine
 10
149.4374638891246
 20
172.348367
 30
0.0
 11
151.5374698891246
 21
172.348367
 31
0.0
  0
LINE
  5
9825
330
9617
100
AcDbEntity
  8
4
  6
CENTER
100
AcDbLine
 10
45.75211432610611
 20
58.05754999999999
 30
0.0
 11
45.75211432610611
 21
39.55754999999999
 31
0.0
  0
ARC
  5
99AA
330
9617
100
AcDbEntity
  8
1
  6
Continuous
100
AcDbCircle
 10
37.53323632610612
 20
55.45755000001562
 30
0.0
 40
0.3500000000000317
100
AcDbArc
 50
89.99999999999998
 51
270.0
  0
ARC
  5
99AB
330
9617
100
AcDbEntity
  8
1
  6
Continuous
100
AcDbCircle
 10
40.83323632610613
 20
55.45755000001562
 30
0.0
 40
0.3500000000000317
100
AcDbArc
 50
330.3347057881926
 51
89.99999999999998
  0
LINE
  5
99AD
330
9617
100
AcDbEntity
  8
1
  6
Continuous
100
AcDbLine
 10
37.53323632610654
 20
55.80755000001925
 30
0.0
 11
40.83323632610652
 21
55.80755000001559
 31
0.0
  0
LINE
  5
99B7
330
9617
100
AcDbEntity
  8
1
  6
Continuous
100
AcDbLine
 10
37.53323632610572
 20
55.10755000001927
 30
0.0
 11
40.69582506339773
 21
55.10755000001576
 31
0.0
  0
LINE
  5
99B8
330
9617
100
AcDbEntity
  8
1
  6
Continuous
100
AcDbLine
 10
38.18323632610612
 20
55.10755000001854
 30
0.0
 11
38.18323632610612
 21
54.80754999999999
 31
0.0
  0
LINE
  5
99BD
330
9617
100
AcDbEntity
  8
1
  6
Continuous
100
AcDbLine
 10
40.18323632610612
 20
55.10755000001629
 30
0.0
 11
40.18323632610612
 21
54.80754999999999
 31
0.0
  0
LINE
  5
99DC
330
9617
100
AcDbEntity
  8
1
  6
Continuous
100
AcDbLine
 10
40.19260050388732
 20
42.21010354139115
 30
0.0
 11
39.76169940451254
 21
41.86010354139988
 31
0.0
  0
LINE
  5
99DE
330
9617
100
AcDbEntity
  8
1
  6
Continuous
100
AcDbLine
 10
39.90823632610622
 20
41.86010354139653
 30
0.0
 11
40.51445410875534
 21
42.21010354139656
 31
0.0
  0
LINE
  5
99DF
330
9617
100
AcDbEntity
  8
1
  6
Continuous
100
AcDbLine
 10
41.43323632610612
 20
42.21010354139671
 30
0.0
 11
36.93323632610433
 21
42.21010354139631
 31
0.0
  0
LINE
  5
99E0
330
9617
100
AcDbEntity
  8
1
  6
Continuous
100
AcDbLine
 10
40.76029443606713
 20
42.46010354139665
 30
0.0
 11
36.93323632610422
 21
42.4601035413963
 31
0.0
  0
LINE
  5
99E1
330
9617
100
AcDbEntity
  8
1
  6
Continuous
100
AcDbLine
 10
38.58323632610613
 20
41.86010354139642
 30
0.0
 11
38.58323632610613
 21
41.10755000001852
 31
0.0
  0
LINE
  5
99E2
330
9617
100
AcDbEntity
  8
1
  6
Continuous
100
AcDbLine
 10
39.78323632610612
 20
41.86010354139653
 30
0.0
 11
39.78323632610612
 21
41.10755000001852
 31
0.0
  0
LINE
  5
99E3
330
9617
100
AcDbEntity
  8
1
  6
Continuous
100
AcDbLine
 10
39.90823632610622
 20
41.86010354139656
 30
0.0
 11
39.76169940450854
 21
41.86010354139653
 31
0.0
  0
LINE
  5
99E4
330
9617
100
AcDbEntity
  8
1
  6
Continuous
100
AcDbLine
 10
39.62027804827383
 20
41.86010354139653
 30
0.0
 11
39.28323632610911
 21
41.8601035413965
 31
0.0
  0
LINE
  5
99E5
330
9617
100
AcDbEntity
  8
1
  6
Continuous
100
AcDbLine
 10
39.72617360880622
 20
41.94611735347728
 30
0.0
 11
39.76169940451254
 21
41.86010354139992
 31
0.0
  0
LINE
  5
99E6
330
9617
100
AcDbEntity
  8
1
  6
Continuous
100
AcDbLine
 10
40.05117914763433
 20
42.21010354139115
 30
0.0
 11
39.62027804827371
 21
41.86010354139646
 31
0.0
  0
LINE
  5
99EA
330
9617
100
AcDbEntity
  8
1
  6
Continuous
100
AcDbLine
 10
39.08323632609804
 20
41.86010354139647
 30
0.0
 11
38.74619460393842
 21
41.86010354139646
 31
0.0
  0
LINE
  5
99EB
330
9617
100
AcDbEntity
  8
1
  6
Continuous
100
AcDbLine
 10
38.60477324769971
 20
41.86010354139642
 30
0.0
 11
38.45823632610603
 21
41.86010354139642
 31
0.0
  0
LINE
  5
99EC
330
9617
100
AcDbEntity
  8
1
  6
Continuous
100
AcDbLine
 10
38.64029904340593
 20
41.94611735347728
 30
0.0
 11
38.60477324769962
 21
41.86010354139992
 31
0.0
  0
LINE
  5
99ED
330
9617
100
AcDbEntity
  8
1
  6
Continuous
100
AcDbLine
 10
38.17387214832493
 20
42.21010354139115
 30
0.0
 11
38.60477324769962
 21
41.86010354139988
 31
0.0
  0
LINE
  5
99EE
330
9617
100
AcDbEntity
  8
1
  6
Continuous
100
AcDbLine
 10
38.31529350457792
 20
42.21010354139115
 30
0.0
 11
38.74619460393854
 21
41.86010354139646
 31
0.0
  0
LINE
  5
99EF
330
9617
100
AcDbEntity
  8
1
  6
Continuous
100
AcDbLine
 10
39.08323632609804
 20
41.86010354139647
 30
0.0
 11
39.08323632609762
 21
42.21010354139844
 31
0.0
  0
LINE
  5
99F0
330
9617
100
AcDbEntity
  8
1
  6
Continuous
100
AcDbLine
 10
39.28323632610903
 20
41.86010354139647
 30
0.0
 11
39.28323632610922
 21
42.2101035413984
 31
0.0
  0
LINE
  5
99F1
330
9617
100
AcDbEntity
  8
1
  6
Continuous
100
AcDbLine
 10
38.45823632610613
 20
41.86010354139653
 30
0.0
 11
37.85201854345703
 21
42.21010354139656
 31
0.0
  0
LINE
  5
99F2
330
9617
100
AcDbEntity
  8
1
  6
Continuous
100
AcDbLine
 10
36.93323632610612
 20
42.21010354139631
 30
0.0
 11
36.93323632610612
 21
42.4601035413967
 31
0.0
  0
LINE
  5
99F3
330
9617
100
AcDbEntity
  8
1
  6
Continuous
100
AcDbLine
 10
38.18323632610612
 20
42.80754999999999
 30
0.0
 11
38.18323632610612
 21
42.46010354139642
 31
0.0
  0
LINE
  5
99F4
330
9617
100
AcDbEntity
  8
1
  6
Continuous
100
AcDbLine
 10
39.78323632610612
 20
41.10755000001852
 30
0.0
 11
38.58323632610613
 21
41.10755000001852
 31
0.0
  0
LINE
  5
99F5
330
9617
100
AcDbEntity
  8
1
  6
Continuous
100
AcDbLine
 10
38.58323632610613
 20
41.10755000001852
 30
0.0
 11
38.88323632610612
 21
40.80755000001852
 31
0.0
  0
LINE
  5
99F6
330
9617
100
AcDbEntity
  8
1
  6
Continuous
100
AcDbLine
 10
39.78323632610612
 20
41.10755000001847
 30
0.0
 11
39.48323632610612
 21
40.80755000001852
 31
0.0
  0
LINE
  5
99F7
330
9617
100
AcDbEntity
  8
1
  6
Continuous
100
AcDbLine
 10
39.48323632610612
 20
40.80755000001852
 30
0.0
 11
38.88323632610612
 21
40.80755000001852
 31
0.0
  0
LINE
  5
99F9
330
9617
100
AcDbEntity
  8
1
  6
Continuous
100
AcDbLine
 10
41.43323632610612
 20
42.21010354139671
 30
0.0
 11
41.43323632610612
 21
42.27049016265718
 31
0.0
  0
LINE
  5
99FA
330
9617
100
AcDbEntity
  8
1
  6
Continuous
100
AcDbLine
 10
40.18323632610612
 20
42.80754999999999
 30
0.0
 11
40.18323632610612
 21
42.46010354139658
 31
0.0
  0
LINE
  5
9A7D
330
9617
100
AcDbEntity
  8
1
  6
Continuous
100
AcDbLine
 10
150.2124668891248
 20
41.8601035413875
 30
0.0
 11
150.8186846717739
 21
42.21010354138752
 31
0.0
  0
LINE
  5
9A7E
330
9617
100
AcDbEntity
  8
1
  6
Continuous
100
AcDbLine
 10
151.7374668891248
 20
42.21010354138758
 30
0.0
 11
147.237466889123
 21
42.21010354138718
 31
0.0
  0
LINE
  5
9A7F
330
9617
100
AcDbEntity
  8
1
  6
Continuous
100
AcDbLine
 10
151.7374668891247
 20
42.46010354138757
 30
0.0
 11
147.2374668891229
 21
42.46010354138718
 31
0.0
  0
LINE
  5
9A80
330
9617
100
AcDbEntity
  8
1
  6
Continuous
100
AcDbLine
 10
147.8374668891251
 20
55.80755000001921
 30
0.0
 11
151.1374668891251
 21
55.80755000001556
 31
0.0
  0
LINE
  5
9A81
330
9617
100
AcDbEntity
  8
1
  6
Continuous
100
AcDbLine
 10
147.8374668891243
 20
55.10755000001916
 30
0.0
 11
151.1374668891243
 21
55.10755000001553
 31
0.0
  0
LINE
  5
9AAC
330
9617
100
AcDbEntity
  8
1
  6
Continuous
100
AcDbLine
 10
148.4781027113435
 20
42.210103541382
 30
0.0
 11
148.9090038107183
 21
41.86010354139067
 31
0.0
  0
LINE
  5
9AAE
330
9617
100
AcDbEntity
  8
1
  6
Continuous
100
AcDbLine
 10
148.7624668891247
 20
41.86010354138743
 30
0.0
 11
148.1562491064756
 21
42.2101035413874
 31
0.0
  0
LINE
  5
9AB0
330
9617
100
AcDbEntity
  8
1
  6
Continuous
100
AcDbLine
 10
147.2374668891248
 20
42.21010354138718
 30
0.0
 11
147.2374668891248
 21
42.46010354138757
 31
0.0
  0
LINE
  5
9AB1
330
9617
100
AcDbEntity
  8
1
  6
Continuous
100
AcDbLine
 10
148.4874668891248
 20
42.80754999999088
 30
0.0
 11
148.4874668891248
 21
42.46010354138729
 31
0.0
  0
LINE
  5
9AB3
330
9617
100
AcDbEntity
  8
1
  6
Continuous
100
AcDbLine
 10
150.212466889125
 20
41.8601035413875
 30
0.0
 11
150.0659299675272
 21
41.8601035413875
 31
0.0
  0
LINE
  5
9AB4
330
9617
100
AcDbEntity
  8
1
  6
Continuous
100
AcDbLine
 10
149.9245086112925
 20
41.8601035413875
 30
0.0
 11
149.5874668891278
 21
41.86010354138743
 31
0.0
  0
LINE
  5
9AB5
330
9617
100
AcDbEntity
  8
1
  6
Continuous
100
AcDbLine
 10
150.0304041718249
 20
41.94611735346819
 30
0.0
 11
150.0659299675312
 21
41.86010354139067
 31
0.0
  0
LINE
  5
9AB6
330
9617
100
AcDbEntity
  8
1
  6
Continuous
100
AcDbLine
 10
150.4968310669059
 20
42.21010354138207
 30
0.0
 11
150.0659299675312
 21
41.86010354139079
 31
0.0
  0
LINE
  5
9AB7
330
9617
100
AcDbEntity
  8
1
  6
Continuous
100
AcDbLine
 10
150.355409710653
 20
42.210103541382
 30
0.0
 11
149.9245086112924
 21
41.86010354138743
 31
0.0
  0
LINE
  5
9AB9
330
9617
100
AcDbEntity
  8
1
  6
Continuous
100
AcDbLine
 10
148.8874668891248
 20
41.86010354138743
 30
0.0
 11
148.8874668891248
 21
41.10755000000938
 31
0.0
  0
LINE
  5
9ABB
330
9617
100
AcDbEntity
  8
1
  6
Continuous
100
AcDbLine
 10
150.0874668891248
 20
41.8601035413875
 30
0.0
 11
150.0874668891248
 21
41.10755000000949
 31
0.0
  0
LINE
  5
9ABD
330
9617
100
AcDbEntity
  8
1
  6
Continuous
100
AcDbLine
 10
149.3874668891167
 20
41.86010354138743
 30
0.0
 11
149.0504251669572
 21
41.86010354138743
 31
0.0
  0
LINE
  5
9ABE
330
9617
100
AcDbEntity
  8
1
  6
Continuous
100
AcDbLine
 10
148.9090038107184
 20
41.86010354138743
 30
0.0
 11
148.7624668891248
 21
41.86010354138733
 31
0.0
  0
LINE
  5
9ABF
330
9617
100
AcDbEntity
  8
1
  6
Continuous
100
AcDbLine
 10
148.9445296064246
 20
41.94611735346819
 30
0.0
 11
148.9090038107183
 21
41.86010354139079
 31
0.0
  0
LINE
  5
9AC0
330
9617
100
AcDbEntity
  8
1
  6
Continuous
100
AcDbLine
 10
148.6195240675966
 20
42.210103541382
 30
0.0
 11
149.0504251669572
 21
41.86010354138733
 31
0.0
  0
LINE
  5
9AC1
330
9617
100
AcDbEntity
  8
1
  6
Continuous
100
AcDbLine
 10
149.3874668891167
 20
41.86010354138743
 30
0.0
 11
149.3874668891163
 21
42.21010354138946
 31
0.0
  0
LINE
  5
9AC2
330
9617
100
AcDbEntity
  8
1
  6
Continuous
100
AcDbLine
 10
149.5874668891278
 20
41.86010354138743
 30
0.0
 11
149.5874668891279
 21
42.21010354138934
 31
0.0
  0
LINE
  5
9AC3
330
9617
100
AcDbEntity
  8
1
  6
Continuous
100
AcDbLine
 10
150.0874668891248
 20
41.10755000000938
 30
0.0
 11
148.8874668891248
 21
41.10755000000938
 31
0.0
  0
LINE
  5
9AC4
330
9617
100
AcDbEntity
  8
1
  6
Continuous
100
AcDbLine
 10
148.8874668891248
 20
41.10755000000938
 30
0.0
 11
149.1874668891248
 21
40.80755000000944
 31
0.0
  0
LINE
  5
9AC5
330
9617
100
AcDbEntity
  8
1
  6
Continuous
100
AcDbLine
 10
150.0874668891248
 20
41.10755000000938
 30
0.0
 11
149.7874668891248
 21
40.80755000000944
 31
0.0
  0
LINE
  5
9AC6
330
9617
100
AcDbEntity
  8
1
  6
Continuous
100
AcDbLine
 10
149.7874668891248
 20
40.80755000000944
 30
0.0
 11
149.1874668891247
 21
40.80755000000944
 31
0.0
  0
LINE
  5
9AC7
330
9617
100
AcDbEntity
  8
1
  6
Continuous
100
AcDbLine
 10
150.4874668891248
 20
42.80754999999088
 30
0.0
 11
150.4874668891248
 21
42.46010354138753
 31
0.0
  0
ARC
  5
9ACE
330
9617
100
AcDbEntity
  8
1
  6
Continuous
100
AcDbCircle
 10
147.8374668891246
 20
55.4575500000156
 30
0.0
 40
0.3500000000000317
100
AcDbArc
 50
90.0
 51
270.0
  0
LINE
  5
9AD0
330
9617
100
AcDbEntity
  8
1
  6
Continuous
100
AcDbLine
 10
148.4874668891247
 20
55.10755000001847
 30
0.0
 11
148.4874668891247
 21
54.8075500000059
 31
0.0
  0
LINE
  5
9AD2
330
9617
100
AcDbEntity
  8
1
  6
Continuous
100
AcDbLine
 10
150.4874668891247
 20
55.10755000001632
 30
0.0
 11
150.4874668891247
 21
54.8075500000059
 31
0.0
  0
LINE
  5
9AE0
330
9617
100
AcDbEntity
  8
1
  6
Continuous
100
AcDbLine
 10
151.7374668891248
 20
42.21010354138758
 30
0.0
 11
151.7374668891248
 21
42.46010354138757
 31
0.0
  0
ARC
  5
9AE7
330
9617
100
AcDbEntity
  8
1
  6
Continuous
100
AcDbCircle
 10
151.1374668891247
 20
55.4575500000156
 30
0.0
 40
0.3500000000000317
100
AcDbArc
 50
270.0
 51
90.0
  0
CIRCLE
  5
9B18
330
9617
100
AcDbEntity
  8
1
  6
Continuous
100
AcDbCircle
 10
150.4874668891247
 20
168.848367
 30
0.0
 40
2.0
  0
LINE
  5
9B19
330
9617
100
AcDbEntity
  8
4
  6
CENTER
100
AcDbLine
 10
254.3864127373907
 20
57.61656100070723
 30
0.0
 11
254.3864127373907
 21
39.99853899929274
 31
0.0
  0
LINE
  5
9B2C
330
9617
100
AcDbEntity
  8
1
  6
Continuous
100
AcDbLine
 10
253.6614127373905
 20
41.86010354139653
 30
0.0
 11
253.0551949547414
 21
42.21010354139656
 31
0.0
  0
LINE
  5
9B2D
330
9617
100
AcDbEntity
  8
1
  6
Continuous
100
AcDbLine
 10
252.8093546274296
 20
42.46010354139666
 30
0.0
 11
256.6364127373926
 21
42.46010354139627
 31
0.0
  0
LINE
  5
9B2E
330
9617
100
AcDbEntity
  8
1
  6
Continuous
100
AcDbLine
 10
252.1364127373906
 20
42.21010354139667
 30
0.0
 11
256.6364127373925
 21
42.21010354139628
 31
0.0
  0
LINE
  5
9B31
330
9617
100
AcDbEntity
  8
1
  6
Continuous
100
AcDbLine
 10
254.9864127373907
 20
41.86010354139642
 30
0.0
 11
254.9864127373907
 21
41.10755000001852
 31
0.0
  0
LINE
  5
9B32
330
9617
100
AcDbEntity
  8
1
  6
Continuous
100
AcDbLine
 10
253.7864127373906
 20
41.86010354139653
 30
0.0
 11
253.7864127373906
 21
41.10755000001852
 31
0.0
  0
LINE
  5
9B33
330
9617
100
AcDbEntity
  8
1
  6
Continuous
100
AcDbLine
 10
256.6364127373907
 20
42.21010354139628
 30
0.0
 11
256.6364127373907
 21
42.46010354139666
 31
0.0
  0
LINE
  5
9B34
330
9617
100
AcDbEntity
  8
1
  6
Continuous
100
AcDbLine
 10
253.7864127373906
 20
41.10755000001852
 30
0.0
 11
254.9864127373907
 21
41.10755000001852
 31
0.0
  0
LINE
  5
9B35
330
9617
100
AcDbEntity
  8
1
  6
Continuous
100
AcDbLine
 10
254.9864127373907
 20
41.10755000001852
 30
0.0
 11
254.6864127373906
 21
40.80755000001852
 31
0.0
  0
LINE
  5
9B36
330
9617
100
AcDbEntity
  8
1
  6
Continuous
100
AcDbLine
 10
253.7864127373906
 20
41.10755000001847
 30
0.0
 11
254.0864127373906
 21
40.80755000001852
 31
0.0
  0
LINE
  5
9B37
330
9617
100
AcDbEntity
  8
1
  6
Continuous
100
AcDbLine
 10
254.0864127373906
 20
40.80755000001852
 30
0.0
 11
254.6864127373906
 21
40.80755000001852
 31
0.0
  0
LINE
  5
9B38
330
9617
100
AcDbEntity
  8
1
  6
Continuous
100
AcDbLine
 10
253.3770485596094
 20
42.21010354139115
 30
0.0
 11
253.8079496589842
 21
41.86010354139988
 31
0.0
  0
LINE
  5
9B39
330
9617
100
AcDbEntity
  8
1
  6
Continuous
100
AcDbLine
 10
253.6614127373905
 20
41.86010354139653
 30
0.0
 11
253.8079496589882
 21
41.86010354139653
 31
0.0
  0
LINE
  5
9B3A
330
9617
100
AcDbEntity
  8
1
  6
Continuous
100
AcDbLine
 10
253.949371015223
 20
41.86010354139653
 30
0.0
 11
254.2864127373877
 21
41.86010354139647
 31
0.0
  0
LINE
  5
9B3B
330
9617
100
AcDbEntity
  8
1
  6
Continuous
100
AcDbLine
 10
253.8434754546905
 20
41.94611735347728
 30
0.0
 11
253.8079496589842
 21
41.86010354139988
 31
0.0
  0
LINE
  5
9B3C
330
9617
100
AcDbEntity
  8
1
  6
Continuous
100
AcDbLine
 10
253.5184699158624
 20
42.21010354139115
 30
0.0
 11
253.9493710152231
 21
41.86010354139647
 31
0.0
  0
LINE
  5
9B3D
330
9617
100
AcDbEntity
  8
1
  6
Continuous
100
AcDbLine
 10
254.4864127373987
 20
41.86010354139647
 30
0.0
 11
254.8234544595583
 21
41.86010354139647
 31
0.0
  0
LINE
  5
9B3E
330
9617
100
AcDbEntity
  8
1
  6
Continuous
100
AcDbLine
 10
254.964875815797
 20
41.86010354139642
 30
0.0
 11
255.1114127373907
 21
41.86010354139642
 31
0.0
  0
LINE
  5
9B3F
330
9617
100
AcDbEntity
  8
1
  6
Continuous
100
AcDbLine
 10
254.9293500200909
 20
41.94611735347728
 30
0.0
 11
254.9648758157971
 21
41.86010354139988
 31
0.0
  0
LINE
  5
9B40
330
9617
100
AcDbEntity
  8
1
  6
Continuous
100
AcDbLine
 10
255.3957769151718
 20
42.21010354139115
 30
0.0
 11
254.9648758157971
 21
41.86010354139988
 31
0.0
  0
LINE
  5
9B41
330
9617
100
AcDbEntity
  8
1
  6
Continuous
100
AcDbLine
 10
255.2543555589189
 20
42.21010354139115
 30
0.0
 11
254.8234544595582
 21
41.86010354139647
 31
0.0
  0
LINE
  5
9B42
330
9617
100
AcDbEntity
  8
1
  6
Continuous
100
AcDbLine
 10
254.4864127373987
 20
41.86010354139647
 30
0.0
 11
254.4864127373991
 21
42.21010354139844
 31
0.0
  0
LINE
  5
9B43
330
9617
100
AcDbEntity
  8
1
  6
Continuous
100
AcDbLine
 10
254.2864127373878
 20
41.86010354139647
 30
0.0
 11
254.2864127373876
 21
42.21010354139844
 31
0.0
  0
LINE
  5
9B44
330
9617
100
AcDbEntity
  8
1
  6
Continuous
100
AcDbLine
 10
255.1114127373907
 20
41.86010354139653
 30
0.0
 11
255.7176305200397
 21
42.21010354139656
 31
0.0
  0
LINE
  5
9B45
330
9617
100
AcDbEntity
  8
1
  6
Continuous
100
AcDbLine
 10
255.3864127373906
 20
42.80754999999999
 30
0.0
 11
255.3864127373906
 21
42.46010354139638
 31
0.0
  0
LINE
  5
9B46
330
9617
100
AcDbEntity
  8
1
  6
Continuous
100
AcDbLine
 10
253.3864127373906
 20
42.80754999999999
 30
0.0
 11
253.3864127373906
 21
42.46010354139662
 31
0.0
  0
LINE
  5
9B48
330
9617
100
AcDbEntity
  8
1
  6
Continuous
100
AcDbLine
 10
252.1364127373906
 20
42.21010354139667
 30
0.0
 11
252.1364127373906
 21
42.27049016265715
 31
0.0
  0
LINE
  5
9B5B
330
9617
100
AcDbEntity
  8
1
  6
Continuous
100
AcDbLine
 10
256.0364127373911
 20
55.10755000001927
 30
0.0
 11
252.873824000099
 21
55.10755000001576
 31
0.0
  0
LINE
  5
9B5C
330
9617
100
AcDbEntity
  8
1
  6
Continuous
100
AcDbLine
 10
256.0364127373901
 20
55.80755000001925
 30
0.0
 11
252.7364127373902
 21
55.80755000001563
 31
0.0
  0
LINE
  5
9B5F
330
9617
100
AcDbEntity
  8
1
  6
Continuous
100
AcDbLine
 10
253.3864127373906
 20
55.10755000001632
 30
0.0
 11
253.3864127373906
 21
54.80754999999999
 31
0.0
  0
ARC
  5
9B60
330
9617
100
AcDbEntity
  8
1
  6
Continuous
100
AcDbCircle
 10
256.0364127373906
 20
55.4575500000156
 30
0.0
 40
0.3500000000000317
100
AcDbArc
 50
270.0
 51
90.00000000000005
  0
LINE
  5
9B61
330
9617
100
AcDbEntity
  8
1
  6
Continuous
100
AcDbLine
 10
255.3864127373906
 20
55.10755000001854
 30
0.0
 11
255.3864127373906
 21
54.80754999999999
 31
0.0
  0
ARC
  5
9B63
330
9617
100
AcDbEntity
  8
1
  6
Continuous
100
AcDbCircle
 10
252.7364127373906
 20
55.4575500000156
 30
0.0
 40
0.3500000000000317
100
AcDbArc
 50
90.00000000000005
 51
209.6652942118073
  0
LINE
  5
9B78
330
9617
100
AcDbEntity
  8
1
  6
Continuous
100
AcDbLine
 10
343.0326845275324
 20
42.21010354138758
 30
0.0
 11
347.5326845275342
 21
42.21010354138718
 31
0.0
  0
LINE
  5
9B79
330
9617
100
AcDbEntity
  8
1
  6
Continuous
100
AcDbLine
 10
343.0326845275325
 20
42.46010354138757
 30
0.0
 11
347.5326845275343
 21
42.46010354138718
 31
0.0
  0
LINE
  5
9B8D
330
9617
100
AcDbEntity
  8
1
  6
Continuous
100
AcDbLine
 10
347.5326845275323
 20
42.21010354138718
 30
0.0
 11
347.5326845275323
 21
42.46010354138757
 31
0.0
  0
LINE
  5
9B90
330
9617
100
AcDbEntity
  8
1
  6
Continuous
100
AcDbLine
 10
344.2826845275324
 20
42.80754999999088
 30
0.0
 11
344.2826845275324
 21
42.46010354138753
 31
0.0
  0
LINE
  5
9B91
330
9617
100
AcDbEntity
  8
1
  6
Continuous
100
AcDbLine
 10
344.5576845275323
 20
41.8601035413875
 30
0.0
 11
344.7042214491299
 21
41.8601035413875
 31
0.0
  0
LINE
  5
9B92
330
9617
100
AcDbEntity
  8
1
  6
Continuous
100
AcDbLine
 10
344.8456428053646
 20
41.8601035413875
 30
0.0
 11
345.1826845275294
 21
41.86010354138743
 31
0.0
  0
LINE
  5
9B93
330
9617
100
AcDbEntity
  8
1
  6
Continuous
100
AcDbLine
 10
344.6826845275325
 20
41.8601035413875
 30
0.0
 11
344.6826845275325
 21
41.10755000000949
 31
0.0
  0
LINE
  5
9B94
330
9617
100
AcDbEntity
  8
1
  6
Continuous
100
AcDbLine
 10
345.3826845275405
 20
41.86010354138743
 30
0.0
 11
345.7197262497
 21
41.86010354138743
 31
0.0
  0
LINE
  5
9B95
330
9617
100
AcDbEntity
  8
1
  6
Continuous
100
AcDbLine
 10
344.6826845275325
 20
41.10755000000938
 30
0.0
 11
344.9826845275323
 21
40.80755000000944
 31
0.0
  0
LINE
  5
9B96
330
9617
100
AcDbEntity
  8
1
  6
Continuous
100
AcDbLine
 10
344.9826845275323
 20
40.80755000000944
 30
0.0
 11
345.5826845275325
 21
40.80755000000944
 31
0.0
  0
LINE
  5
9B97
330
9617
100
AcDbEntity
  8
1
  6
Continuous
100
AcDbLine
 10
344.5576845275325
 20
41.8601035413875
 30
0.0
 11
343.9514667448833
 21
42.21010354138752
 31
0.0
  0
LINE
  5
9B98
330
9617
100
AcDbEntity
  8
1
  6
Continuous
100
AcDbLine
 10
344.7397472448323
 20
41.94611735346819
 30
0.0
 11
344.704221449126
 21
41.86010354139067
 31
0.0
  0
LINE
  5
9B99
330
9617
100
AcDbEntity
  8
1
  6
Continuous
100
AcDbLine
 10
344.2733203497513
 20
42.21010354138207
 30
0.0
 11
344.704221449126
 21
41.86010354139079
 31
0.0
  0
LINE
  5
9B9A
330
9617
100
AcDbEntity
  8
1
  6
Continuous
100
AcDbLine
 10
344.4147417060042
 20
42.210103541382
 30
0.0
 11
344.8456428053648
 21
41.86010354138743
 31
0.0
  0
LINE
  5
9B9B
330
9617
100
AcDbEntity
  8
1
  6
Continuous
100
AcDbLine
 10
345.3826845275405
 20
41.86010354138743
 30
0.0
 11
345.3826845275409
 21
42.21010354138946
 31
0.0
  0
LINE
  5
9B9C
330
9617
100
AcDbEntity
  8
1
  6
Continuous
100
AcDbLine
 10
345.1826845275294
 20
41.86010354138743
 30
0.0
 11
345.1826845275293
 21
42.21010354138934
 31
0.0
  0
LINE
  5
9B9D
330
9617
100
AcDbEntity
  8
1
  6
Continuous
100
AcDbLine
 10
346.2826845275324
 20
42.80754999999088
 30
0.0
 11
346.2826845275324
 21
42.46010354138729
 31
0.0
  0
LINE
  5
9B9E
330
9617
100
AcDbEntity
  8
1
  6
Continuous
100
AcDbLine
 10
345.8826845275324
 20
41.86010354138743
 30
0.0
 11
345.8826845275324
 21
41.10755000000938
 31
0.0
  0
LINE
  5
9B9F
330
9617
100
AcDbEntity
  8
1
  6
Continuous
100
AcDbLine
 10
345.8611476059388
 20
41.86010354138743
 30
0.0
 11
346.0076845275324
 21
41.86010354138733
 31
0.0
  0
LINE
  5
9BA0
330
9617
100
AcDbEntity
  8
1
  6
Continuous
100
AcDbLine
 10
346.2920487053137
 20
42.210103541382
 30
0.0
 11
345.861147605939
 21
41.86010354139067
 31
0.0
  0
LINE
  5
9BA1
330
9617
100
AcDbEntity
  8
1
  6
Continuous
100
AcDbLine
 10
346.0076845275325
 20
41.86010354138743
 30
0.0
 11
346.6139023101816
 21
42.2101035413874
 31
0.0
  0
LINE
  5
9BA2
330
9617
100
AcDbEntity
  8
1
  6
Continuous
100
AcDbLine
 10
345.8256218102326
 20
41.94611735346819
 30
0.0
 11
345.861147605939
 21
41.86010354139079
 31
0.0
  0
LINE
  5
9BA3
330
9617
100
AcDbEntity
  8
1
  6
Continuous
100
AcDbLine
 10
346.1506273490606
 20
42.210103541382
 30
0.0
 11
345.7197262497
 21
41.86010354138733
 31
0.0
  0
LINE
  5
9BA4
330
9617
100
AcDbEntity
  8
1
  6
Continuous
100
AcDbLine
 10
344.6826845275325
 20
41.10755000000938
 30
0.0
 11
345.8826845275324
 21
41.10755000000938
 31
0.0
  0
LINE
  5
9BA5
330
9617
100
AcDbEntity
  8
1
  6
Continuous
100
AcDbLine
 10
345.8826845275324
 20
41.10755000000938
 30
0.0
 11
345.5826845275324
 21
40.80755000000944
 31
0.0
  0
LINE
  5
9BB0
330
9617
100
AcDbEntity
  8
1
  6
Continuous
100
AcDbLine
 10
343.0326845275324
 20
42.21010354138758
 30
0.0
 11
343.0326845275324
 21
42.46010354138757
 31
0.0
  0
ARC
  5
9BD2
330
9617
100
AcDbEntity
  8
1
  6
Continuous
100
AcDbCircle
 10
346.9326845275325
 20
55.4575500000156
 30
0.0
 40
0.3500000000000317
100
AcDbArc
 50
270.0
 51
90.0
  0
LINE
  5
9BD5
330
9617
100
AcDbEntity
  8
1
  6
Continuous
100
AcDbLine
 10
344.2826845275325
 20
55.10755000001632
 30
0.0
 11
344.2826845275325
 21
54.8075500000059
 31
0.0
  0
ARC
  5
9BD6
330
9617
100
AcDbEntity
  8
1
  6
Continuous
100
AcDbCircle
 10
343.6326845275325
 20
55.4575500000156
 30
0.0
 40
0.3500000000000317
100
AcDbArc
 50
90.0
 51
270.0
  0
LINE
  5
9BD7
330
9617
100
AcDbEntity
  8
1
  6
Continuous
100
AcDbLine
 10
346.2826845275325
 20
55.10755000001847
 30
0.0
 11
346.2826845275325
 21
54.8075500000059
 31
0.0
  0
LINE
  5
9BD8
330
9617
100
AcDbEntity
  8
1
  6
Continuous
100
AcDbLine
 10
346.9326845275321
 20
55.80755000001921
 30
0.0
 11
343.6326845275321
 21
55.80755000001556
 31
0.0
  0
LINE
  5
9BD9
330
9617
100
AcDbEntity
  8
1
  6
Continuous
100
AcDbLine
 10
346.9326845275329
 20
55.10755000001916
 30
0.0
 11
343.6326845275329
 21
55.10755000001553
 31
0.0
  0
ENDSEC
  0
SECTION
  2
OBJECTS
  0
DICTIONARY
  5
9605
330
0
100
AcDbDictionary
281
     1
  3
ACAD_CIP_PREVIOUS_PRODUCT_INFO
350
9CBD
  3
ACAD_COLOR
350
9C9F
  3
ACAD_DETAILVIEWSTYLE
350
9CB8
  3
ACAD_GROUP
350
9606
  3
ACAD_LAYOUT
350
9612
  3
ACAD_MATERIAL
350
9C6D
  3
ACAD_MLEADERSTYLE
350
9CB4
  3
ACAD_MLINESTYLE
350
960F
  3
ACAD_PLOTSETTINGS
350
9611
  3
ACAD_PLOTSTYLENAME
350
9C6B
  3
ACAD_SCALELIST
350
9CA2
  3
ACAD_SECTIONVIEWSTYLE
350
9CB6
  3
ACAD_TABLESTYLE
350
9CA0
  3
ACAD_VISUALSTYLE
350
9C86
  3
ACDB_RECOMPOSE_DATA
350
9CDB
  3
AcDbVariableDictionary
350
9CCE
  3
DWGPROPS
350
9CDC
  0
DICTIONARY
  5
9CBE
330
9609
100
AcDbDictionary
280
     1
281
     1
  3
ADSK_XREC_LAYER_RECONCILED
360
9CBF
  0
DICTIONARY
  5
9CC0
330
961F
100
AcDbDictionary
280
     1
281
     1
  3
ADSK_XREC_LAYER_RECONCILED
360
9CC1
  0
DICTIONARY
  5
9CC2
330
9620
100
AcDbDictionary
280
     1
281
     1
  3
ADSK_XREC_LAYER_RECONCILED
360
9CC3
  0
DICTIONARY
  5
9CC4
330
9621
100
AcDbDictionary
280
     1
281
     1
  3
ADSK_XREC_LAYER_RECONCILED
360
9CC5
  0
DICTIONARY
  5
9CC6
330
9622
100
AcDbDictionary
280
     1
281
     1
  3
ADSK_XREC_LAYER_RECONCILED
360
9CC7
  0
DICTIONARY
  5
9CC8
330
9623
100
AcDbDictionary
280
     1
281
     1
  3
ADSK_XREC_LAYER_RECONCILED
360
9CC9
  0
DICTIONARY
  5
9CCA
330
9624
100
AcDbDictionary
280
     1
281
     1
  3
ADSK_XREC_LAYER_RECONCILED
360
9CCB
  0
DICTIONARY
  5
9CCC
330
9625
100
AcDbDictionary
280
     1
281
     1
  3
ADSK_XREC_LAYER_RECONCILED
360
9CCD
  0
DICTIONARY
  5
9C66
330
9617
100
AcDbDictionary
281
     1
  3
ACAD_LAYOUTSELFREF
350
9C67
  0
DICTIONARY
  5
9C64
330
9613
100
AcDbDictionary
281
     1
  3
ACAD_LAYOUTSELFREF
350
9C65
  0
XRECORD
  5
9CBD
102
{ACAD_REACTORS
330
9605
102
}
330
9605
100
AcDbXrecord
280
     1
300
ACDLT
300
2014
300
ACDLT_F_S
  0
DICTIONARY
  5
9C9F
102
{ACAD_REACTORS
330
9605
102
}
330
9605
100
AcDbDictionary
281
     1
  0
DICTIONARY
  5
9CB8
102
{ACAD_REACTORS
330
9605
102
}
330
9605
100
AcDbDictionary
281
     1
  3
Imperial24
350
9CB9
  0
DICTIONARY
  5
9606
102
{ACAD_REACTORS
330
9605
102
}
330
9605
100
AcDbDictionary
281
     1
  0
DICTIONARY
  5
9612
102
{ACAD_REACTORS
330
9605
102
}
330
9605
100
AcDbDictionary
281
     1
  3
Model
350
9CBA
  3
レイアウト1
350
9CBB
  0
DICTIONARY
  5
9C6D
102
{ACAD_REACTORS
330
9605
102
}
330
9605
100
AcDbDictionary
281
     1
  3
ByBlock
350
9C76
  3
ByLayer
350
9C6E
  3
Global
350
9C7E
  0
DICTIONARY
  5
9CB4
102
{ACAD_REACTORS
330
9605
102
}
330
9605
100
AcDbDictionary
281
     1
  3
Standard
350
9CB5
  0
DICTIONARY
  5
960F
102
{ACAD_REACTORS
330
9605
102
}
330
9605
100
AcDbDictionary
281
     1
  3
STANDARD
350
9610
  0
DICTIONARY
  5
9611
102
{ACAD_REACTORS
330
9605
102
}
330
9605
100
AcDbDictionary
281
     1
  0
ACDBDICTIONARYWDFLT
  5
9C6B
102
{ACAD_REACTORS
330
9605
102
}
330
9605
100
AcDbDictionary
281
     1
  3
Normal
350
9C6C
100
AcDbDictionaryWithDefault
340
9C6C
  0
DICTIONARY
  5
9CA2
102
{ACAD_REACTORS
330
9605
102
}
330
9605
100
AcDbDictionary
281
     1
  3
A0
350
9CA3
  3
A1
350
9CA4
  3
A2
350
9CA5
  3
A3
350
9CA6
  3
A4
350
9CA7
  3
A5
350
9CA8
  3
A6
350
9CA9
  3
A7
350
9CAA
  3
A8
350
9CAB
  3
A9
350
9CAC
  3
B0
350
9CAD
  3
B1
350
9CAE
  3
B2
350
9CAF
  3
B3
350
9CB0
  3
B4
350
9CB1
  3
B5
350
9CB2
  3
B6
350
9CB3
  0
DICTIONARY
  5
9CB6
102
{ACAD_REACTORS
330
9605
102
}
330
9605
100
AcDbDictionary
281
     1
  3
Imperial24
350
9CB7
  0
DICTIONARY
  5
9CA0
102
{ACAD_REACTORS
330
9605
102
}
330
9605
100
AcDbDictionary
281
     1
  3
Standard
350
9CA1
  0
DICTIONARY
  5
9C86
102
{ACAD_REACTORS
330
9605
102
}
330
9605
100
AcDbDictionary
281
     1
  3
2dWireframe
350
9C8C
  3
Basic
350
9C8B
  3
Brighten
350
9C92
  3
ColorChange
350
9C96
  3
Conceptual
350
9C8F
  3
Dim
350
9C91
  3
EdgeColorOff
350
9C9E
  3
Facepattern
350
9C95
  3
Flat
350
9C87
  3
FlatWithEdges
350
9C88
  3
Gouraud
350
9C89
  3
GouraudWithEdges
350
9C8A
  3
Hidden
350
9C8E
  3
JitterOff
350
9C9C
  3
Linepattern
350
9C94
  3
OverhangOff
350
9C9D
  3
Realistic
350
9C90
  3
Shaded
350
9C9B
  3
Shaded with edges
350
9C9A
  3
Shades of Gray
350
9C97
  3
Sketchy
350
9C98
  3
Thicken
350
9C93
  3
Wireframe
350
9C8D
  3
X-Ray
350
9C99
  0
XRECORD
  5
9CDB
102
{ACAD_REACTORS
330
9605
102
}
330
9605
100
AcDbXrecord
280
     1
 90
        1
330
9CA1
  0
DICTIONARY
  5
9CCE
102
{ACAD_REACTORS
330
9605
102
}
330
9605
100
AcDbDictionary
281
     1
  3
CANNOSCALE
350
9CD3
  3
CMLEADERSTYLE
350
9CD0
  3
CTABLESTYLE
350
9CCF
  3
CVIEWDETAILSTYLE
350
9CD1
  3
CVIEWSECTIONSTYLE
350
9CD2
  3
DIMASSOC
350
9CD6
  3
INDEXCTL
350
9CD5
  3
SORTENTS
350
9CD4
  3
XCLIPFRAME
350
9CD7
  0
XRECORD
  5
9CDC
102
{ACAD_REACTORS
330
9605
102
}
330
9605
100
AcDbXrecord
280
     1
  1
DWGPROPS COOKIE
  2

  3

  4

  6

  7

  8
Yoshitsune
  9

300
=
301
=
302
=
303
=
304
=
305
=
306
=
307
=
308
=
309
=
 40
0.0084195486111111
 41
2451073.61828044
 42
2457192.598914294
  1

 90
        0
  0
XRECORD
  5
9CBF
102
{ACAD_REACTORS
330
9CBE
102
}
330
9CBE
100
AcDbXrecord
280
     1
290
     1
  0
XRECORD
  5
9CC1
102
{ACAD_REACTORS
330
9CC0
102
}
330
9CC0
100
AcDbXrecord
280
     1
290
     1
  0
XRECORD
  5
9CC3
102
{ACAD_REACTORS
330
9CC2
102
}
330
9CC2
100
AcDbXrecord
280
     1
290
     1
  0
XRECORD
  5
9CC5
102
{ACAD_REACTORS
330
9CC4
102
}
330
9CC4
100
AcDbXrecord
280
     1
290
     1
  0
XRECORD
  5
9CC7
102
{ACAD_REACTORS
330
9CC6
102
}
330
9CC6
100
AcDbXrecord
280
     1
290
     1
  0
XRECORD
  5
9CC9
102
{ACAD_REACTORS
330
9CC8
102
}
330
9CC8
100
AcDbXrecord
280
     1
290
     1
  0
XRECORD
  5
9CCB
102
{ACAD_REACTORS
330
9CCA
102
}
330
9CCA
100
AcDbXrecord
280
     1
290
     1
  0
XRECORD
  5
9CCD
102
{ACAD_REACTORS
330
9CCC
102
}
330
9CCC
100
AcDbXrecord
280
     1
290
     1
  0
XRECORD
  5
9C67
102
{ACAD_REACTORS
330
9C66
102
}
330
9C66
100
AcDbXrecord
280
     1
340
9617
  0
XRECORD
  5
9C65
102
{ACAD_REACTORS
330
9C64
102
}
330
9C64
100
AcDbXrecord
280
     1
340
9613
  0
ACDBDETAILVIEWSTYLE
  5
9CB9
102
{ACAD_XDICTIONARY
360
9D14
102
}
102
{ACAD_REACTORS
330
9CB8
102
}
330
9CB8
100
AcDbModelDocViewStyle
 70
     0
  3
Imperial24
290
     0
100
AcDbDetailViewStyle
 70
     0
 71
     0
 90
        3
 71
     1
340
960A
 40
0.24
340
0
 40
0.24
300

 40
0.36
280
     3
 71
     2
340
960E
 90
       25
 71
     3
340
960A
 40
0.24
 90
        1
 40
0.75
 90
        1
300
%<\AcVar ViewType \f "%tc1">% %<\AcVar ViewDetailId>%\PSCALE %<\AcVar ViewScale \f "%sn">%
 71
     4
340
960E
 90
       25
340
960E
 90
       25
280
     0
  0
LAYOUT
  5
9CBA
102
{ACAD_XDICTIONARY
360
9D16
102
}
102
{ACAD_REACTORS
330
9612
102
}
330
9612
100
AcDbPlotSettings
  1

  2
Canon LBP9100C
  4

  6

 40
0.0
 41
0.0
 42
0.0
 43
0.0
 44
0.0
 45
0.0
 46
0.0
 47
0.0
 48
0.0
 49
0.0
140
0.0
141
0.0
142
1.0
143
1.0
 70
  1712
 72
     0
 73
     0
 74
     0
  7

 75
     0
147
1.0
148
0.0
149
0.0
100
AcDbLayout
  1
Model
 70
     1
 71
     0
 10
0.0
 20
0.0
 11
12.0
 21
9.0
 12
0.0
 22
0.0
 32
0.0
 14
0.0
 24
0.0
 34
0.0
 15
0.0
 25
0.0
 35
0.0
146
0.0
 13
0.0
 23
0.0
 33
0.0
 16
1.0
 26
0.0
 36
0.0
 17
0.0
 27
1.0
 37
0.0
 76
     0
330
9617
331
9C63
  0
LAYOUT
  5
9CBB
102
{ACAD_XDICTIONARY
360
9D18
102
}
102
{ACAD_REACTORS
330
9612
102
}
330
9612
100
AcDbPlotSettings
  1

  2
Canon LBP9100C
  4

  6

 40
0.0
 41
0.0
 42
0.0
 43
0.0
 44
0.0
 45
0.0
 46
0.0
 47
0.0
 48
0.0
 49
0.0
140
0.0
141
0.0
142
1.0
143
1.0
 70
   688
 72
     0
 73
     0
 74
     5
  7

 75
    16
147
1.0
148
0.0
149
0.0
100
AcDbLayout
  1
レイアウト1
 70
     0
 71
     1
 10
0.0
 20
0.0
 11
420.0
 21
297.0
 12
0.0
 22
0.0
 32
0.0
 14
1.000000000000000E+20
 24
1.000000000000000E+20
 34
1.000000000000000E+20
 15
-1.000000000000000E+20
 25
-1.000000000000000E+20
 35
-1.000000000000000E+20
146
0.0
 13
0.0
 23
0.0
 33
0.0
 16
1.0
 26
0.0
 36
0.0
 17
0.0
 27
1.0
 37
0.0
 76
     0
330
9613
  0
MATERIAL
  5
9C76
102
{ACAD_XDICTIONARY
360
9C77
102
}
102
{ACAD_REACTORS
330
9C6D
102
}
330
9C6D
100
AcDbMaterial
  1
ByBlock
 72
     0
 43
0.0208333333333333
 43
0.0
 43
0.0
 43
0.0
 43
0.0
 43
0.0208333333333333
 43
0.0
 43
0.0
 43
0.0
 43
0.0
 43
1.0
 43
0.0
 43
0.0
 43
0.0
 43
0.0
 43
1.0
 77
     0
 47
0.0208333333333333
 47
0.0
 47
0.0
 47
0.0
 47
0.0
 47
0.0208333333333333
 47
0.0
 47
0.0
 47
0.0
 47
0.0
 47
1.0
 47
0.0
 47
0.0
 47
0.0
 47
0.0
 47
1.0
171
     0
 49
0.0208333333333333
 49
0.0
 49
0.0
 49
0.0
 49
0.0
 49
0.0208333333333333
 49
0.0
 49
0.0
 49
0.0
 49
0.0
 49
1.0
 49
0.0
 49
0.0
 49
0.0
 49
0.0
 49
1.0
175
     0
142
0.0208333333333333
142
0.0
142
0.0
142
0.0
142
0.0
142
0.0208333333333333
142
0.0
142
0.0
142
0.0
142
0.0
142
1.0
142
0.0
142
0.0
142
0.0
142
0.0
142
1.0
179
     0
144
0.0208333333333333
144
0.0
144
0.0
144
0.0
144
0.0
144
0.0208333333333333
144
0.0
144
0.0
144
0.0
144
0.0
144
1.0
144
0.0
144
0.0
144
0.0
144
0.0
144
1.0
147
0.0208333333333333
147
0.0
147
0.0
147
0.0
147
0.0
147
0.0208333333333333
147
0.0
147
0.0
147
0.0
147
0.0
147
1.0
147
0.0
147
0.0
147
0.0
147
0.0
147
1.0
  0
MATERIAL
  5
9C6E
102
{ACAD_XDICTIONARY
360
9C6F
102
}
102
{ACAD_REACTORS
330
9C6D
102
}
330
9C6D
100
AcDbMaterial
  1
ByLayer
 72
     0
 43
0.0208333333333333
 43
0.0
 43
0.0
 43
0.0
 43
0.0
 43
0.0208333333333333
 43
0.0
 43
0.0
 43
0.0
 43
0.0
 43
1.0
 43
0.0
 43
0.0
 43
0.0
 43
0.0
 43
1.0
 77
     0
 47
0.0208333333333333
 47
0.0
 47
0.0
 47
0.0
 47
0.0
 47
0.0208333333333333
 47
0.0
 47
0.0
 47
0.0
 47
0.0
 47
1.0
 47
0.0
 47
0.0
 47
0.0
 47
0.0
 47
1.0
171
     0
 49
0.0208333333333333
 49
0.0
 49
0.0
 49
0.0
 49
0.0
 49
0.0208333333333333
 49
0.0
 49
0.0
 49
0.0
 49
0.0
 49
1.0
 49
0.0
 49
0.0
 49
0.0
 49
0.0
 49
1.0
175
     0
142
0.0208333333333333
142
0.0
142
0.0
142
0.0
142
0.0
142
0.0208333333333333
142
0.0
142
0.0
142
0.0
142
0.0
142
1.0
142
0.0
142
0.0
142
0.0
142
0.0
142
1.0
179
     0
144
0.0208333333333333
144
0.0
144
0.0
144
0.0
144
0.0
144
0.0208333333333333
144
0.0
144
0.0
144
0.0
144
0.0
144
1.0
144
0.0
144
0.0
144
0.0
144
0.0
144
1.0
147
0.0208333333333333
147
0.0
147
0.0
147
0.0
147
0.0
147
0.0208333333333333
147
0.0
147
0.0
147
0.0
147
0.0
147
1.0
147
0.0
147
0.0
147
0.0
147
0.0
147
1.0
  0
MATERIAL
  5
9C7E
102
{ACAD_XDICTIONARY
360
9C7F
102
}
102
{ACAD_REACTORS
330
9C6D
102
}
330
9C6D
100
AcDbMaterial
  1
Global
 72
     0
 43
0.0208333333333333
 43
0.0
 43
0.0
 43
0.0
 43
0.0
 43
0.0208333333333333
 43
0.0
 43
0.0
 43
0.0
 43
0.0
 43
1.0
 43
0.0
 43
0.0
 43
0.0
 43
0.0
 43
1.0
 77
     0
 47
0.0208333333333333
 47
0.0
 47
0.0
 47
0.0
 47
0.0
 47
0.0208333333333333
 47
0.0
 47
0.0
 47
0.0
 47
0.0
 47
1.0
 47
0.0
 47
0.0
 47
0.0
 47
0.0
 47
1.0
171
     0
 49
0.0208333333333333
 49
0.0
 49
0.0
 49
0.0
 49
0.0
 49
0.0208333333333333
 49
0.0
 49
0.0
 49
0.0
 49
0.0
 49
1.0
 49
0.0
 49
0.0
 49
0.0
 49
0.0
 49
1.0
175
     0
142
0.0208333333333333
142
0.0
142
0.0
142
0.0
142
0.0
142
0.0208333333333333
142
0.0
142
0.0
142
0.0
142
0.0
142
1.0
142
0.0
142
0.0
142
0.0
142
0.0
142
1.0
179
     0
144
0.0208333333333333
144
0.0
144
0.0
144
0.0
144
0.0
144
0.0208333333333333
144
0.0
144
0.0
144
0.0
144
0.0
144
1.0
144
0.0
144
0.0
144
0.0
144
0.0
144
1.0
147
0.0208333333333333
147
0.0
147
0.0
147
0.0
147
0.0
147
0.0208333333333333
147
0.0
147
0.0
147
0.0
147
0.0
147
1.0
147
0.0
147
0.0
147
0.0
147
0.0
147
1.0
  0
MLEADERSTYLE
  5
9CB5
102
{ACAD_REACTORS
330
9CB4
102
}
330
9CB4
100
AcDbMLeaderStyle
170
     2
171
     1
172
     0
 90
        2
 40
0.0
 41
0.0
173
     1
 91
-1056964608
340
960C
 92
       -2
290
     1
 42
0.09
291
     1
 43
0.36
  3
Standard
 44
0.18
300

342
960A
174
     1
178
     6
175
     1
176
     0
 93
-1056964608
 45
0.18
292
     0
297
     0
 46
0.18
 94
-1056964608
 47
1.0
 49
1.0
140
1.0
293
     1
141
0.0
294
     1
177
     0
142
1.0
295
     0
296
     0
143
0.125
1001
ACAD_MLEADERVER
1070
     2
  0
MLINESTYLE
  5
9610
102
{ACAD_REACTORS
330
960F
102
}
330
960F
100
AcDbMlineStyle
  2
STANDARD
 70
     0
  3

 62
   256
 51
90.0
 52
90.0
 71
     2
 49
0.5
 62
   256
  6
BYLAYER
 49
-0.5
 62
   256
  6
BYLAYER
  0
ACDBPLACEHOLDER
  5
9C6C
102
{ACAD_REACTORS
330
9C6B
102
}
330
9C6B
  0
SCALE
  5
9CA3
102
{ACAD_REACTORS
330
9CA2
102
}
330
9CA2
100
AcDbScale
 70
     0
300
1:1
140
1.0
141
1.0
290
     1
  0
SCALE
  5
9CA4
102
{ACAD_REACTORS
330
9CA2
102
}
330
9CA2
100
AcDbScale
 70
     0
300
1/128" = 1'-0"
140
0.0078125
141
12.0
290
     0
  0
SCALE
  5
9CA5
102
{ACAD_REACTORS
330
9CA2
102
}
330
9CA2
100
AcDbScale
 70
     0
300
1/64" = 1'-0"
140
0.015625
141
12.0
290
     0
  0
SCALE
  5
9CA6
102
{ACAD_REACTORS
330
9CA2
102
}
330
9CA2
100
AcDbScale
 70
     0
300
1/32" = 1'-0"
140
0.03125
141
12.0
290
     0
  0
SCALE
  5
9CA7
102
{ACAD_REACTORS
330
9CA2
102
}
330
9CA2
100
AcDbScale
 70
     0
300
1/16" = 1'-0"
140
0.0625
141
12.0
290
     0
  0
SCALE
  5
9CA8
102
{ACAD_REACTORS
330
9CA2
102
}
330
9CA2
100
AcDbScale
 70
     0
300
3/32" = 1'-0"
140
0.09375
141
12.0
290
     0
  0
SCALE
  5
9CA9
102
{ACAD_REACTORS
330
9CA2
102
}
330
9CA2
100
AcDbScale
 70
     0
300
1/8" = 1'-0"
140
0.125
141
12.0
290
     0
  0
SCALE
  5
9CAA
102
{ACAD_REACTORS
330
9CA2
102
}
330
9CA2
100
AcDbScale
 70
     0
300
3/16" = 1'-0"
140
0.1875
141
12.0
290
     0
  0
SCALE
  5
9CAB
102
{ACAD_REACTORS
330
9CA2
102
}
330
9CA2
100
AcDbScale
 70
     0
300
1/4" = 1'-0"
140
0.25
141
12.0
290
     0
  0
SCALE
  5
9CAC
102
{ACAD_REACTORS
330
9CA2
102
}
330
9CA2
100
AcDbScale
 70
     0
300
3/8" = 1'-0"
140
0.375
141
12.0
290
     0
  0
SCALE
  5
9CAD
102
{ACAD_REACTORS
330
9CA2
102
}
330
9CA2
100
AcDbScale
 70
     0
300
1/2" = 1'-0"
140
0.5
141
12.0
290
     0
  0
SCALE
  5
9CAE
102
{ACAD_REACTORS
330
9CA2
102
}
330
9CA2
100
AcDbScale
 70
     0
300
3/4" = 1'-0"
140
0.75
141
12.0
290
     0
  0
SCALE
  5
9CAF
102
{ACAD_REACTORS
330
9CA2
102
}
330
9CA2
100
AcDbScale
 70
     0
300
1" = 1'-0"
140
1.0
141
12.0
290
     0
  0
SCALE
  5
9CB0
102
{ACAD_REACTORS
330
9CA2
102
}
330
9CA2
100
AcDbScale
 70
     0
300
1-1/2" = 1'-0"
140
1.5
141
12.0
290
     0
  0
SCALE
  5
9CB1
102
{ACAD_REACTORS
330
9CA2
102
}
330
9CA2
100
AcDbScale
 70
     0
300
3" = 1'-0"
140
3.0
141
12.0
290
     0
  0
SCALE
  5
9CB2
102
{ACAD_REACTORS
330
9CA2
102
}
330
9CA2
100
AcDbScale
 70
     0
300
6" = 1'-0"
140
6.0
141
12.0
290
     0
  0
SCALE
  5
9CB3
102
{ACAD_REACTORS
330
9CA2
102
}
330
9CA2
100
AcDbScale
 70
     0
300
1'-0" = 1'-0"
140
12.0
141
12.0
290
     0
  0
ACDBSECTIONVIEWSTYLE
  5
9CB7
102
{ACAD_XDICTIONARY
360
9D12
102
}
102
{ACAD_REACTORS
330
9CB6
102
}
330
9CB6
100
AcDbModelDocViewStyle
 70
     0
  3
Imperial24
290
     0
100
AcDbSectionViewStyle
 70
     0
 71
     0
 90
       78
 71
     1
340
960A
 40
0.24
340
0
340
0
 40
0.24
300
I, O, Q, S, X, Z
 40
0.48
 90
        3
 40
0.18
 90
        1
 71
     2
340
960E
 90
       25
340
960E
 90
       50
 40
0.24
 40
0.0
 40
0.24
 71
     3
340
960A
 40
0.24
 90
        1
 40
0.75
 90
        1
300
%<\AcVar ViewType \f "%tc1">% %<\AcVar ViewSectionStartId>%-%<\AcVar ViewSectionEndId>%\PSCALE %<\AcVar ViewScale \f "%sn">%
 71
     4
300
ANSI31
 40
1.0
 90
        0
290
     0
290
     0
 90
        6
 40
0.0
 40
1.570796326794896
 40
0.2617993877991494
 40
1.308996938995747
 40
-0.2617993877991494
 40
1.832595714594046
  0
TABLESTYLE
  5
9CA1
102
{ACAD_XDICTIONARY
360
9CD9
102
}
102
{ACAD_REACTORS
330
9CA0
102
}
330
9CA0
100
AcDbTableStyle
  3
Standard
 70
     0
 71
     0
 40
0.06
 41
0.06
280
     0
281
     0
  7
STANDARD
140
0.18
170
     2
 62
     0
 63
     7
283
     0
274
    -2
284
     1
 64
     0
275
    -2
285
     1
 65
     0
276
    -2
286
     1
 66
     0
277
    -2
287
     1
 67
     0
278
    -2
288
     1
 68
     0
279
    -2
289
     1
 69
     0
  7
STANDARD
140
0.25
170
     5
 62
     0
 63
     7
283
     0
274
    -2
284
     1
 64
     0
275
    -2
285
     1
 65
     0
276
    -2
286
     1
 66
     0
277
    -2
287
     1
 67
     0
278
    -2
288
     1
 68
     0
279
    -2
289
     1
 69
     0
  7
STANDARD
140
0.18
170
     5
 62
     0
 63
     7
283
     0
274
    -2
284
     1
 64
     0
275
    -2
285
     1
 65
     0
276
    -2
286
     1
 66
     0
277
    -2
287
     1
 67
     0
278
    -2
288
     1
 68
     0
279
    -2
289
     1
 69
     0
  0
VISUALSTYLE
  5
9C8C
102
{ACAD_XDICTIONARY
360
9CEA
102
}
102
{ACAD_REACTORS
330
9C86
102
}
330
9C86
100
AcDbVisualStyle
  2
2dWireframe
 70
     4
 71
     0
 72
     2
 73
     0
 90
        0
 40
-0.6
 41
-30.0
 62
     5
 63
     7
 74
     1
 91
        4
 64
     7
 65
   257
 75
     1
175
     1
 42
1.0
 92
        0
 66
   257
 43
1.0
 76
     1
 77
     6
 78
     2
 67
     7
 79
     5
170
     0
171
     0
290
     0
174
     0
 93
        1
 44
0.0
173
     0
291
     0
 45
0.0
1001
ACAD
1000
AcDbSavedByObjectVersion
1070
     0
  0
VISUALSTYLE
  5
9C8B
102
{ACAD_XDICTIONARY
360
9CE8
102
}
102
{ACAD_REACTORS
330
9C86
102
}
330
9C86
100
AcDbVisualStyle
  2
Basic
 70
     7
 71
     1
 72
     0
 73
     1
 90
        0
 40
-0.6
 41
-30.0
 62
     5
 63
     7
 74
     0
 91
        4
 64
     7
 65
   257
 75
     1
175
     1
 42
1.0
 92
        8
 66
     7
 43
1.0
 76
     1
 77
     6
 78
     2
 67
     7
 79
     5
170
     0
171
     0
290
     0
174
     0
 93
        1
 44
0.0
173
     0
291
     1
 45
0.0
1001
ACAD
1000
AcDbSavedByObjectVersion
1070
     0
  0
VISUALSTYLE
  5
9C92
102
{ACAD_XDICTIONARY
360
9CF6
102
}
102
{ACAD_REACTORS
330
9C86
102
}
330
9C86
100
AcDbVisualStyle
  2
Brighten
 70
    12
 71
     2
 72
     2
 73
     0
 90
        0
 40
-0.6
 41
-30.0
 62
     5
 63
     7
 74
     1
 91
        4
 64
     7
 65
   257
 75
     1
175
     1
 42
1.0
 92
        8
 66
     7
 43
1.0
 76
     1
 77
     6
 78
     2
 67
     7
 79
     5
170
     0
171
     0
290
     0
174
     0
 93
        1
 44
50.0
173
     0
291
     1
 45
0.0
1001
ACAD
1000
AcDbSavedByObjectVersion
1070
     0
  0
VISUALSTYLE
  5
9C96
102
{ACAD_XDICTIONARY
360
9CFE
102
}
102
{ACAD_REACTORS
330
9C86
102
}
330
9C86
100
AcDbVisualStyle
  2
ColorChange
 70
    16
 71
     2
 72
     2
 73
     3
 90
        0
 40
-0.6
 41
-30.0
 62
     5
 63
     8
 74
     1
 91
        4
 64
     7
 65
   257
 75
     1
175
     1
 42
1.0
 92
        8
 66
     8
 43
1.0
 76
     1
 77
     6
 78
     2
 67
     7
 79
     5
170
     0
171
     0
290
     0
174
     0
 93
        1
 44
0.0
173
     0
291
     1
 45
0.0
1001
ACAD
1000
AcDbSavedByObjectVersion
1070
     0
  0
VISUALSTYLE
  5
9C8F
102
{ACAD_XDICTIONARY
360
9CF0
102
}
102
{ACAD_REACTORS
330
9C86
102
}
330
9C86
100
AcDbVisualStyle
  2
Conceptual
 70
     9
 71
     3
 72
     2
 73
     0
 90
        0
 40
-0.6
 41
-30.0
 62
     5
 63
     7
 74
     2
 91
        2
 64
     7
 65
   257
 75
     1
175
     1
 42
179.0
 92
        8
 66
     7
 43
1.0
 76
     1
 77
     6
 78
     2
 67
     7
 79
     3
170
     0
171
     0
290
     0
174
     0
 93
        1
 44
0.0
173
     0
291
     0
 45
0.0
1001
ACAD
1000
AcDbSavedByObjectVersion
1070
     0
  0
VISUALSTYLE
  5
9C91
102
{ACAD_XDICTIONARY
360
9CF4
102
}
102
{ACAD_REACTORS
330
9C86
102
}
330
9C86
100
AcDbVisualStyle
  2
Dim
 70
    11
 71
     2
 72
     2
 73
     0
 90
        0
 40
-0.6
 41
-30.0
 62
     5
 63
     7
 74
     1
 91
        4
 64
     7
 65
   257
 75
     1
175
     1
 42
1.0
 92
        8
 66
     7
 43
1.0
 76
     1
 77
     6
 78
     2
 67
     7
 79
     5
170
     0
171
     0
290
     0
174
     0
 93
        1
 44
-50.0
173
     0
291
     1
 45
0.0
1001
ACAD
1000
AcDbSavedByObjectVersion
1070
     0
  0
VISUALSTYLE
  5
9C9E
102
{ACAD_XDICTIONARY
360
9D0E
102
}
102
{ACAD_REACTORS
330
9C86
102
}
330
9C86
100
AcDbVisualStyle
  2
EdgeColorOff
 70
    22
 71
     2
 72
     2
 73
     0
 90
        0
 40
-0.6
 41
-30.0
 62
     5
 63
     7
 74
     1
 91
        4
 64
     7
 65
   257
 75
     1
175
     1
 42
1.0
 92
        8
 66
     7
 43
1.0
 76
     1
 77
     6
 78
     2
 67
     7
 79
     5
170
     0
171
     0
290
     0
174
     0
 93
        1
 44
0.0
173
     0
291
     1
 45
0.0
1001
ACAD
1000
AcDbSavedByObjectVersion
1070
     0
  0
VISUALSTYLE
  5
9C95
102
{ACAD_XDICTIONARY
360
9CFC
102
}
102
{ACAD_REACTORS
330
9C86
102
}
330
9C86
100
AcDbVisualStyle
  2
Facepattern
 70
    15
 71
     2
 72
     2
 73
     0
 90
        0
 40
-0.6
 41
-30.0
 62
     5
 63
     7
 74
     1
 91
        4
 64
     7
 65
   257
 75
     1
175
     1
 42
1.0
 92
        8
 66
     7
 43
1.0
 76
     1
 77
     6
 78
     2
 67
     7
 79
     5
170
     0
171
     0
290
     0
174
     0
 93
        1
 44
0.0
173
     0
291
     1
 45
0.0
1001
ACAD
1000
AcDbSavedByObjectVersion
1070
     0
  0
VISUALSTYLE
  5
9C87
102
{ACAD_XDICTIONARY
360
9CE0
102
}
102
{ACAD_REACTORS
330
9C86
102
}
330
9C86
100
AcDbVisualStyle
  2
Flat
 70
     0
 71
     2
 72
     1
 73
     1
 90
        2
 40
-0.6
 41
30.0
 62
     5
 63
     7
 74
     0
 91
        0
 64
     7
 65
   257
 75
     1
175
     1
 42
1.0
 92
        8
 66
     7
 43
1.0
 76
     1
 77
     6
 78
     2
 67
     7
 79
     5
170
     0
171
     0
290
     0
174
     0
 93
       13
 44
0.0
173
     0
291
     1
 45
0.0
1001
ACAD
1000
AcDbSavedByObjectVersion
1070
     0
  0
VISUALSTYLE
  5
9C88
102
{ACAD_XDICTIONARY
360
9CE2
102
}
102
{ACAD_REACTORS
330
9C86
102
}
330
9C86
100
AcDbVisualStyle
  2
FlatWithEdges
 70
     1
 71
     2
 72
     1
 73
     1
 90
        2
 40
-0.6
 41
30.0
 62
     5
 63
     7
 74
     1
 91
        0
 64
     7
 65
   257
 75
     1
175
     1
 42
1.0
 92
        0
 66
   257
 43
1.0
 76
     1
 77
     6
 78
     2
 67
     7
 79
     5
170
     0
171
     0
290
     0
174
     0
 93
       13
 44
0.0
173
     0
291
     1
 45
0.0
1001
ACAD
1000
AcDbSavedByObjectVersion
1070
     0
  0
VISUALSTYLE
  5
9C89
102
{ACAD_XDICTIONARY
360
9CE4
102
}
102
{ACAD_REACTORS
330
9C86
102
}
330
9C86
100
AcDbVisualStyle
  2
Gouraud
 70
     2
 71
     2
 72
     2
 73
     1
 90
        2
 40
-0.6
 41
30.0
 62
     5
 63
     7
 74
     0
 91
        0
 64
     7
 65
   257
 75
     1
175
     1
 42
1.0
 92
        0
 66
     7
 43
1.0
 76
     1
 77
     6
 78
     2
 67
     7
 79
     5
170
     0
171
     0
290
     0
174
     0
 93
       13
 44
0.0
173
     0
291
     1
 45
0.0
1001
ACAD
1000
AcDbSavedByObjectVersion
1070
     0
  0
VISUALSTYLE
  5
9C8A
102
{ACAD_XDICTIONARY
360
9CE6
102
}
102
{ACAD_REACTORS
330
9C86
102
}
330
9C86
100
AcDbVisualStyle
  2
GouraudWithEdges
 70
     3
 71
     2
 72
     2
 73
     1
 90
        2
 40
-0.6
 41
30.0
 62
     5
 63
     7
 74
     1
 91
        0
 64
     7
 65
   257
 75
     1
175
     1
 42
1.0
 92
        0
 66
   257
 43
1.0
 76
     1
 77
     6
 78
     2
 67
     7
 79
     5
170
     0
171
     0
290
     0
174
     0
 93
       13
 44
0.0
173
     0
291
     1
 45
0.0
1001
ACAD
1000
AcDbSavedByObjectVersion
1070
     0
  0
VISUALSTYLE
  5
9C8E
102
{ACAD_XDICTIONARY
360
9CEE
102
}
102
{ACAD_REACTORS
330
9C86
102
}
330
9C86
100
AcDbVisualStyle
  2
Hidden
 70
     6
 71
     1
 72
     2
 73
     2
 90
        0
 40
-0.6
 41
-30.0
 62
     5
 63
     7
 74
     2
 91
        2
 64
     7
 65
   257
 75
     2
175
     1
 42
40.0
 92
        0
 66
   257
 43
1.0
 76
     1
 77
     6
 78
     2
 67
     7
 79
     3
170
     0
171
     0
290
     0
174
     0
 93
        1
 44
0.0
173
     0
291
     0
 45
0.0
1001
ACAD
1000
AcDbSavedByObjectVersion
1070
     0
  0
VISUALSTYLE
  5
9C9C
102
{ACAD_XDICTIONARY
360
9D0A
102
}
102
{ACAD_REACTORS
330
9C86
102
}
330
9C86
100
AcDbVisualStyle
  2
JitterOff
 70
    20
 71
     2
 72
     2
 73
     0
 90
        0
 40
-0.6
 41
-30.0
 62
     5
 63
     7
 74
     1
 91
        4
 64
     7
 65
   257
 75
     1
175
     1
 42
1.0
 92
       10
 66
     7
 43
1.0
 76
     1
 77
     6
 78
     2
 67
     7
 79
     5
170
     0
171
     0
290
     0
174
     0
 93
        1
 44
0.0
173
     0
291
     1
 45
0.0
1001
ACAD
1000
AcDbSavedByObjectVersion
1070
     0
  0
VISUALSTYLE
  5
9C94
102
{ACAD_XDICTIONARY
360
9CFA
102
}
102
{ACAD_REACTORS
330
9C86
102
}
330
9C86
100
AcDbVisualStyle
  2
Linepattern
 70
    14
 71
     2
 72
     2
 73
     0
 90
        0
 40
-0.6
 41
-30.0
 62
     5
 63
     7
 74
     1
 91
        4
 64
     7
 65
   257
 75
     7
175
     7
 42
1.0
 92
        8
 66
     7
 43
1.0
 76
     1
 77
     6
 78
     2
 67
     7
 79
     5
170
     0
171
     0
290
     0
174
     0
 93
        1
 44
0.0
173
     0
291
     1
 45
0.0
1001
ACAD
1000
AcDbSavedByObjectVersion
1070
     0
  0
VISUALSTYLE
  5
9C9D
102
{ACAD_XDICTIONARY
360
9D0C
102
}
102
{ACAD_REACTORS
330
9C86
102
}
330
9C86
100
AcDbVisualStyle
  2
OverhangOff
 70
    21
 71
     2
 72
     2
 73
     0
 90
        0
 40
-0.6
 41
-30.0
 62
     5
 63
     7
 74
     1
 91
        4
 64
     7
 65
   257
 75
     1
175
     1
 42
1.0
 92
        9
 66
     7
 43
1.0
 76
     1
 77
     6
 78
     2
 67
     7
 79
     5
170
     0
171
     0
290
     0
174
     0
 93
        1
 44
0.0
173
     0
291
     1
 45
0.0
1001
ACAD
1000
AcDbSavedByObjectVersion
1070
     0
  0
VISUALSTYLE
  5
9C90
102
{ACAD_XDICTIONARY
360
9CF2
102
}
102
{ACAD_REACTORS
330
9C86
102
}
330
9C86
100
AcDbVisualStyle
  2
Realistic
 70
     8
 71
     2
 72
     3
 73
     0
 90
        2
 40
-0.6
 41
30.0
 62
     5
 63
     7
 74
     0
 91
        0
 64
     7
 65
   257
 75
     1
175
     1
 42
1.0
 92
        8
 66
   257
 43
1.0
 76
     1
 77
     6
 78
     2
 67
     7
 79
     3
170
     0
171
     0
290
     0
174
     0
 93
       13
 44
0.0
173
     0
291
     0
 45
0.0
1001
ACAD
1000
AcDbSavedByObjectVersion
1070
     0
  0
VISUALSTYLE
  5
9C9B
102
{ACAD_XDICTIONARY
360
9D08
102
}
102
{ACAD_REACTORS
330
9C86
102
}
330
9C86
100
AcDbVisualStyle
  2
Shaded
 70
    27
 71
     2
 72
     2
 73
     1
 90
        2
 40
-0.6
 41
30.0
 62
     5
 63
     7
 74
     0
 91
        4
 64
     7
 65
   257
 75
     1
175
     1
 42
1.0
 92
        8
 66
   257
 43
1.0
 76
     1
 77
     6
 78
     2
 67
     8
 79
     3
170
     0
171
     0
290
     0
174
     0
 93
        5
 44
0.0
173
     0
291
     0
 45
0.0
1001
ACAD
1000
AcDbSavedByObjectVersion
1070
     0
  0
VISUALSTYLE
  5
9C9A
102
{ACAD_XDICTIONARY
360
9D06
102
}
102
{ACAD_REACTORS
330
9C86
102
}
330
9C86
100
AcDbVisualStyle
  2
Shaded with edges
 70
    26
 71
     2
 72
     2
 73
     1
 90
        2
 40
-0.6
 41
30.0
 62
     5
 63
     7
 74
     1
 91
       10
 64
     7
 65
   257
 75
     2
175
     1
 42
1.0
 92
        8
 66
   257
 43
1.0
 76
     1
 77
     6
 78
     2
 67
     7
 79
     3
170
     0
171
     0
290
     0
174
     0
 93
        5
 44
0.0
173
     0
291
     0
 45
0.0
1001
ACAD
1000
AcDbSavedByObjectVersion
1070
     0
  0
VISUALSTYLE
  5
9C97
102
{ACAD_XDICTIONARY
360
9D00
102
}
102
{ACAD_REACTORS
330
9C86
102
}
330
9C86
100
AcDbVisualStyle
  2
Shades of Gray
 70
    23
 71
     2
 72
     2
 73
     3
 90
        0
 40
-0.6
 41
-30.0
 62
     5
 63
     7
 74
     2
 91
        2
 64
     7
 65
     7
 75
     1
175
     1
 42
40.0
 92
        8
 66
     7
 43
1.0
 76
     1
 77
     6
 78
     2
 67
     7
 79
     3
170
     0
171
     0
290
     0
174
     0
 93
        1
 44
0.0
173
     0
291
     0
 45
0.0
1001
ACAD
1000
AcDbSavedByObjectVersion
1070
     0
  0
VISUALSTYLE
  5
9C98
102
{ACAD_XDICTIONARY
360
9D02
102
}
102
{ACAD_REACTORS
330
9C86
102
}
330
9C86
100
AcDbVisualStyle
  2
Sketchy
 70
    24
 71
     1
 72
     2
 73
     2
 90
        0
 40
-0.6
 41
-30.0
 62
     5
 63
     7
 74
     2
 91
        2
 64
     7
 65
     7
 75
     1
175
     1
 42
40.0
 92
       11
 66
     7
 43
1.0
 76
     1
 77
     6
 78
     2
 67
     7
 79
     6
170
     0
171
     0
290
     0
174
     0
 93
        1
 44
0.0
173
     0
291
     0
 45
0.0
1001
ACAD
1000
AcDbSavedByObjectVersion
1070
     0
  0
VISUALSTYLE
  5
9C93
102
{ACAD_XDICTIONARY
360
9CF8
102
}
102
{ACAD_REACTORS
330
9C86
102
}
330
9C86
100
AcDbVisualStyle
  2
Thicken
 70
    13
 71
     2
 72
     2
 73
     0
 90
        0
 40
-0.6
 41
-30.0
 62
     5
 63
     7
 74
     1
 91
        4
 64
     7
 65
   257
 75
     1
175
     1
 42
1.0
 92
       12
 66
     7
 43
1.0
 76
     1
 77
     6
 78
     2
 67
     7
 79
     5
170
     0
171
     0
290
     0
174
     0
 93
        1
 44
0.0
173
     0
291
     1
 45
0.0
1001
ACAD
1000
AcDbSavedByObjectVersion
1070
     0
  0
VISUALSTYLE
  5
9C8D
102
{ACAD_XDICTIONARY
360
9CEC
102
}
102
{ACAD_REACTORS
330
9C86
102
}
330
9C86
100
AcDbVisualStyle
  2
Wireframe
 70
     5
 71
     0
 72
     2
 73
     0
 90
        0
 40
-0.6
 41
-30.0
 62
     5
 63
     7
 74
     1
 91
        4
 64
     7
 65
   257
 75
     1
175
     1
 42
1.0
 92
        0
 66
   257
 43
1.0
 76
     1
 77
     6
 78
     2
 67
     7
 79
     3
170
     0
171
     0
290
     0
174
     0
 93
        1
 44
0.0
173
     0
291
     0
 45
0.0
1001
ACAD
1000
AcDbSavedByObjectVersion
1070
     0
  0
VISUALSTYLE
  5
9C99
102
{ACAD_XDICTIONARY
360
9D04
102
}
102
{ACAD_REACTORS
330
9C86
102
}
330
9C86
100
AcDbVisualStyle
  2
X-Ray
 70
    25
 71
     2
 72
     2
 73
     1
 90
        1
 40
0.5
 41
-30.0
 62
     5
 63
     7
 74
     1
 91
        0
 64
     7
 65
   257
 75
     1
175
     1
 42
1.0
 92
        8
 66
     7
 43
1.0
 76
     1
 77
     6
 78
     2
 67
     7
 79
     3
170
     0
171
     0
290
     0
174
     0
 93
       13
 44
0.0
173
     0
291
     0
 45
0.0
1001
ACAD
1000
AcDbSavedByObjectVersion
1070
     0
  0
DICTIONARYVAR
  5
9CD3
102
{ACAD_REACTORS
330
9CCE
102
}
330
9CCE
100
DictionaryVariables
280
     0
  1
1:1
  0
DICTIONARYVAR
  5
9CD0
102
{ACAD_REACTORS
330
9CCE
102
}
330
9CCE
100
DictionaryVariables
280
     0
  1
STANDARD
  0
DICTIONARYVAR
  5
9CCF
102
{ACAD_REACTORS
330
9CCE
102
}
330
9CCE
100
DictionaryVariables
280
     0
  1
STANDARD
  0
DICTIONARYVAR
  5
9CD1
102
{ACAD_REACTORS
330
9CCE
102
}
330
9CCE
100
DictionaryVariables
280
     0
  1
Imperial24
  0
DICTIONARYVAR
  5
9CD2
102
{ACAD_REACTORS
330
9CCE
102
}
330
9CCE
100
DictionaryVariables
280
     0
  1
Imperial24
  0
DICTIONARYVAR
  5
9CD6
102
{ACAD_REACTORS
330
9CCE
102
}
330
9CCE
100
DictionaryVariables
280
     0
  1
1
  0
DICTIONARYVAR
  5
9CD5
102
{ACAD_REACTORS
330
9CCE
102
}
330
9CCE
100
DictionaryVariables
280
     0
  1
0
  0
DICTIONARYVAR
  5
9CD4
102
{ACAD_REACTORS
330
9CCE
102
}
330
9CCE
100
DictionaryVariables
280
     0
  1
127
  0
DICTIONARYVAR
  5
9CD7
102
{ACAD_REACTORS
330
9CCE
102
}
330
9CCE
100
DictionaryVariables
280
     0
  1
2
  0
DICTIONARY
  5
9D14
330
9CB9
100
AcDbDictionary
280
     1
281
     1
  3
ACAD_XREC_ROUNDTRIP
360
9D15
  0
DICTIONARY
  5
9D16
330
9CBA
100
AcDbDictionary
280
     1
281
     1
  3
ACAD_XREC_ROUNDTRIP
360
9D17
  0
DICTIONARY
  5
9D18
330
9CBB
100
AcDbDictionary
280
     1
281
     1
  3
ACAD_XREC_ROUNDTRIP
360
9D19
  0
DICTIONARY
  5
9C77
330
9C76
100
AcDbDictionary
280
     1
281
     1
  3
ACAD_XREC_ROUNDTRIP
360
9CDE
  3
BUMPTILE
360
9C79
  3
DIFFUSETILE
360
9C78
  3
OPACITYTILE
360
9C7C
  3
REFLECTIONTILE
360
9C7B
  3
REFRACTIONTILE
360
9C7D
  3
SPECULARTILE
360
9C7A
  0
DICTIONARY
  5
9C6F
330
9C6E
100
AcDbDictionary
280
     1
281
     1
  3
ACAD_XREC_ROUNDTRIP
360
9CDD
  3
BUMPTILE
360
9C71
  3
DIFFUSETILE
360
9C70
  3
OPACITYTILE
360
9C74
  3
REFLECTIONTILE
360
9C73
  3
REFRACTIONTILE
360
9C75
  3
SPECULARTILE
360
9C72
  0
DICTIONARY
  5
9C7F
330
9C7E
100
AcDbDictionary
280
     1
281
     1
  3
ACAD_XREC_ROUNDTRIP
360
9CDF
  3
BUMPTILE
360
9C81
  3
DIFFUSETILE
360
9C80
  3
OPACITYTILE
360
9C84
  3
REFLECTIONTILE
360
9C83
  3
REFRACTIONTILE
360
9C85
  3
SPECULARTILE
360
9C82
  0
DICTIONARY
  5
9D12
330
9CB7
100
AcDbDictionary
280
     1
281
     1
  3
ACAD_XREC_ROUNDTRIP
360
9D13
  0
DICTIONARY
  5
9CD9
330
9CA1
100
AcDbDictionary
280
     1
281
     1
  3
ACAD_ROUNDTRIP_2008_TABLESTYLE_CELLSTYLEMAP
360
9CDA
  3
ACAD_XREC_ROUNDTRIP
360
9D10
  0
DICTIONARY
  5
9CEA
330
9C8C
100
AcDbDictionary
280
     1
281
     1
  3
ACAD_XREC_ROUNDTRIP
360
9CEB
  0
DICTIONARY
  5
9CE8
330
9C8B
100
AcDbDictionary
280
     1
281
     1
  3
ACAD_XREC_ROUNDTRIP
360
9CE9
  0
DICTIONARY
  5
9CF6
330
9C92
100
AcDbDictionary
280
     1
281
     1
  3
ACAD_XREC_ROUNDTRIP
360
9CF7
  0
DICTIONARY
  5
9CFE
330
9C96
100
AcDbDictionary
280
     1
281
     1
  3
ACAD_XREC_ROUNDTRIP
360
9CFF
  0
DICTIONARY
  5
9CF0
330
9C8F
100
AcDbDictionary
280
     1
281
     1
  3
ACAD_XREC_ROUNDTRIP
360
9CF1
  0
DICTIONARY
  5
9CF4
330
9C91
100
AcDbDictionary
280
     1
281
     1
  3
ACAD_XREC_ROUNDTRIP
360
9CF5
  0
DICTIONARY
  5
9D0E
330
9C9E
100
AcDbDictionary
280
     1
281
     1
  3
ACAD_XREC_ROUNDTRIP
360
9D0F
  0
DICTIONARY
  5
9CFC
330
9C95
100
AcDbDictionary
280
     1
281
     1
  3
ACAD_XREC_ROUNDTRIP
360
9CFD
  0
DICTIONARY
  5
9CE0
330
9C87
100
AcDbDictionary
280
     1
281
     1
  3
ACAD_XREC_ROUNDTRIP
360
9CE1
  0
DICTIONARY
  5
9CE2
330
9C88
100
AcDbDictionary
280
     1
281
     1
  3
ACAD_XREC_ROUNDTRIP
360
9CE3
  0
DICTIONARY
  5
9CE4
330
9C89
100
AcDbDictionary
280
     1
281
     1
  3
ACAD_XREC_ROUNDTRIP
360
9CE5
  0
DICTIONARY
  5
9CE6
330
9C8A
100
AcDbDictionary
280
     1
281
     1
  3
ACAD_XREC_ROUNDTRIP
360
9CE7
  0
DICTIONARY
  5
9CEE
330
9C8E
100
AcDbDictionary
280
     1
281
     1
  3
ACAD_XREC_ROUNDTRIP
360
9CEF
  0
DICTIONARY
  5
9D0A
330
9C9C
100
AcDbDictionary
280
     1
281
     1
  3
ACAD_XREC_ROUNDTRIP
360
9D0B
  0
DICTIONARY
  5
9CFA
330
9C94
100
AcDbDictionary
280
     1
281
     1
  3
ACAD_XREC_ROUNDTRIP
360
9CFB
  0
DICTIONARY
  5
9D0C
330
9C9D
100
AcDbDictionary
280
     1
281
     1
  3
ACAD_XREC_ROUNDTRIP
360
9D0D
  0
DICTIONARY
  5
9CF2
330
9C90
100
AcDbDictionary
280
     1
281
     1
  3
ACAD_XREC_ROUNDTRIP
360
9CF3
  0
DICTIONARY
  5
9D08
330
9C9B
100
AcDbDictionary
280
     1
281
     1
  3
ACAD_XREC_ROUNDTRIP
360
9D09
  0
DICTIONARY
  5
9D06
330
9C9A
100
AcDbDictionary
280
     1
281
     1
  3
ACAD_XREC_ROUNDTRIP
360
9D07
  0
DICTIONARY
  5
9D00
330
9C97
100
AcDbDictionary
280
     1
281
     1
  3
ACAD_XREC_ROUNDTRIP
360
9D01
  0
DICTIONARY
  5
9D02
330
9C98
100
AcDbDictionary
280
     1
281
     1
  3
ACAD_XREC_ROUNDTRIP
360
9D03
  0
DICTIONARY
  5
9CF8
330
9C93
100
AcDbDictionary
280
     1
281
     1
  3
ACAD_XREC_ROUNDTRIP
360
9CF9
  0
DICTIONARY
  5
9CEC
330
9C8D
100
AcDbDictionary
280
     1
281
     1
  3
ACAD_XREC_ROUNDTRIP
360
9CED
  0
DICTIONARY
  5
9D04
330
9C99
100
AcDbDictionary
280
     1
281
     1
  3
ACAD_XREC_ROUNDTRIP
360
9D05
  0
XRECORD
  5
9D15
102
{ACAD_REACTORS
330
9D14
102
}
330
9D14
100
AcDbXrecord
280
     1
102
DISPLAYNAME
  1
Imperial24
102
FLAGS
 90
        0
  0
XRECORD
  5
9D17
102
{ACAD_REACTORS
330
9D16
102
}
330
9D16
100
AcDbXrecord
280
     1
102
SHADEPLOT
 70
     0
102
SHADEPLOTRESLEVEL
 70
     2
102
SHADEPLOTCUSTOMDPI
 70
   300
  0
XRECORD
  5
9D19
102
{ACAD_REACTORS
330
9D18
102
}
330
9D18
100
AcDbXrecord
280
     1
102
SHADEPLOT
 70
     0
102
SHADEPLOTRESLEVEL
 70
     2
102
SHADEPLOTCUSTOMDPI
 70
   300
  0
XRECORD
  5
9CDE
102
{ACAD_REACTORS
330
9C77
102
}
330
9C77
100
AcDbXrecord
280
     1
102
MATERIAL
148
0.0
149
0.0
149
0.0
 93
        0
 94
      127
282
     0
 72
     0
 77
     0
171
     0
175
     0
179
     0
273
     0
  0
XRECORD
  5
9C79
102
{ACAD_REACTORS
330
9C77
102
}
330
9C77
100
AcDbXrecord
280
     1
270
     1
271
     1
  0
XRECORD
  5
9C78
102
{ACAD_REACTORS
330
9C77
102
}
330
9C77
100
AcDbXrecord
280
     1
270
     1
271
     1
  0
XRECORD
  5
9C7C
102
{ACAD_REACTORS
330
9C77
102
}
330
9C77
100
AcDbXrecord
280
     1
270
     1
271
     1
  0
XRECORD
  5
9C7B
102
{ACAD_REACTORS
330
9C77
102
}
330
9C77
100
AcDbXrecord
280
     1
270
     1
271
     1
  0
XRECORD
  5
9C7D
102
{ACAD_REACTORS
330
9C77
102
}
330
9C77
100
AcDbXrecord
280
     1
270
     1
271
     1
  0
XRECORD
  5
9C7A
102
{ACAD_REACTORS
330
9C77
102
}
330
9C77
100
AcDbXrecord
280
     1
270
     1
271
     1
  0
XRECORD
  5
9CDD
102
{ACAD_REACTORS
330
9C6F
102
}
330
9C6F
100
AcDbXrecord
280
     1
102
MATERIAL
148
0.0
149
0.0
149
0.0
 93
        0
 94
      127
282
     0
 72
     0
 77
     0
171
     0
175
     0
179
     0
273
     0
  0
XRECORD
  5
9C71
102
{ACAD_REACTORS
330
9C6F
102
}
330
9C6F
100
AcDbXrecord
280
     1
270
     1
271
     1
  0
XRECORD
  5
9C70
102
{ACAD_REACTORS
330
9C6F
102
}
330
9C6F
100
AcDbXrecord
280
     1
270
     1
271
     1
  0
XRECORD
  5
9C74
102
{ACAD_REACTORS
330
9C6F
102
}
330
9C6F
100
AcDbXrecord
280
     1
270
     1
271
     1
  0
XRECORD
  5
9C73
102
{ACAD_REACTORS
330
9C6F
102
}
330
9C6F
100
AcDbXrecord
280
     1
270
     1
271
     1
  0
XRECORD
  5
9C75
102
{ACAD_REACTORS
330
9C6F
102
}
330
9C6F
100
AcDbXrecord
280
     1
270
     1
271
     1
  0
XRECORD
  5
9C72
102
{ACAD_REACTORS
330
9C6F
102
}
330
9C6F
100
AcDbXrecord
280
     1
270
     1
271
     1
  0
XRECORD
  5
9CDF
102
{ACAD_REACTORS
330
9C7F
102
}
330
9C7F
100
AcDbXrecord
280
     1
102
MATERIAL
148
0.0
149
0.0
149
0.0
 93
        0
 94
      127
282
     0
 72
     0
 77
     0
171
     0
175
     0
179
     0
273
     0
  0
XRECORD
  5
9C81
102
{ACAD_REACTORS
330
9C7F
102
}
330
9C7F
100
AcDbXrecord
280
     1
270
     1
271
     1
  0
XRECORD
  5
9C80
102
{ACAD_REACTORS
330
9C7F
102
}
330
9C7F
100
AcDbXrecord
280
     1
270
     1
271
     1
  0
XRECORD
  5
9C84
102
{ACAD_REACTORS
330
9C7F
102
}
330
9C7F
100
AcDbXrecord
280
     1
270
     1
271
     1
  0
XRECORD
  5
9C83
102
{ACAD_REACTORS
330
9C7F
102
}
330
9C7F
100
AcDbXrecord
280
     1
270
     1
271
     1
  0
XRECORD
  5
9C85
102
{ACAD_REACTORS
330
9C7F
102
}
330
9C7F
100
AcDbXrecord
280
     1
270
     1
271
     1
  0
XRECORD
  5
9C82
102
{ACAD_REACTORS
330
9C7F
102
}
330
9C7F
100
AcDbXrecord
280
     1
270
     1
271
     1
  0
XRECORD
  5
9D13
102
{ACAD_REACTORS
330
9D12
102
}
330
9D12
100
AcDbXrecord
280
     1
102
DISPLAYNAME
  1
Imperial24
102
FLAGS
 90
        0
  0
CELLSTYLEMAP
  5
9CDA
102
{ACAD_REACTORS
330
9CD9
102
}
330
9CD9
100
AcDbCellStyleMap
 90
        3
300
CELLSTYLE
  1
TABLEFORMAT_BEGIN
 90
        5
170
     1
 91
        0
 92
    32768
 62
   257
 93
        1
300
CONTENTFORMAT
  1
CONTENTFORMAT_BEGIN
 90
        0
 91
        0
 92
      512
 93
        0
300

 40
0.0
140
1.0
 94
        5
 62
     0
340
960A
144
0.25
309
CONTENTFORMAT_END
171
     0
 94
        0
309
TABLEFORMAT_END
  1
CELLSTYLE_BEGIN
 90
        1
 91
        1
300
_TITLE
309
CELLSTYLE_END
300
CELLSTYLE
  1
TABLEFORMAT_BEGIN
 90
        5
170
     1
 91
        0
 92
        0
 62
   257
 93
        1
300
CONTENTFORMAT
  1
CONTENTFORMAT_BEGIN
 90
        0
 91
        0
 92
      512
 93
        0
300

 40
0.0
140
1.0
 94
        5
 62
     0
340
960A
144
0.18
309
CONTENTFORMAT_END
171
     0
 94
        0
309
TABLEFORMAT_END
  1
CELLSTYLE_BEGIN
 90
        2
 91
        1
300
_HEADER
309
CELLSTYLE_END
300
CELLSTYLE
  1
TABLEFORMAT_BEGIN
 90
        5
170
     1
 91
        0
 92
        0
 62
   257
 93
        1
300
CONTENTFORMAT
  1
CONTENTFORMAT_BEGIN
 90
        0
 91
        0
 92
      512
 93
        0
300

 40
0.0
140
1.0
 94
        2
 62
     0
340
960A
144
0.18
309
CONTENTFORMAT_END
171
     0
 94
        0
309
TABLEFORMAT_END
  1
CELLSTYLE_BEGIN
 90
        3
 91
        2
300
_DATA
309
CELLSTYLE_END
  0
XRECORD
  5
9D10
102
{ACAD_REACTORS
330
9CD9
102
}
330
9CD9
100
AcDbXrecord
280
     1
102
ACAD_ROUNDTRIP_PRE2007_TABLESTYLE
 90
      512
 91
        0
  1

 92
      512
 93
        0
  2

 94
      512
 95
        0
  3

  0
XRECORD
  5
9CEB
102
{ACAD_REACTORS
330
9CEA
102
}
330
9CEA
100
AcDbXrecord
280
     1
102
RTVSPost2010Prop28
280
     1
102
RTVSPost2010PropOp28
 70
     1
102
RTVSPost2010Prop29
280
     1
102
RTVSPost2010PropOp29
 70
     1
102
RTVSPost2010Prop30
280
     0
102
RTVSPost2010PropOp30
 70
     1
102
RTVSPost2010Prop31
280
     0
102
RTVSPost2010PropOp31
 70
     1
102
RTVSPost2010Prop32
280
     0
102
RTVSPost2010PropOp32
 70
     1
102
RTVSPost2010Prop33
280
     0
102
RTVSPost2010PropOp33
 70
     1
102
RTVSPost2010Prop34
280
     0
102
RTVSPost2010PropOp34
 70
     1
102
RTVSPost2010Prop35
280
     0
102
RTVSPost2010PropOp35
 70
     1
102
RTVSPost2010Prop36
280
     0
102
RTVSPost2010PropOp36
 70
     1
102
RTVSPost2010Prop37
 90
       50
102
RTVSPost2010PropOp37
 70
     1
102
RTVSPost2010Prop38
140
0.0
102
RTVSPost2010PropOp38
 70
     1
102
RTVSPost2010Prop39
140
1.0
102
RTVSPost2010PropOp39
 70
     1
102
RTVSPost2010Prop40
 90
        0
102
RTVSPost2010PropOp40
 70
     1
102
RTVSPost2010Prop41ColorIndex
 90
       18
102
RTVSPost2010Prop41ColorRGB
 90
        0
102
RTVSPost2010PropOp41
 70
     1
102
RTVSPost2010Prop42
 90
       50
102
RTVSPost2010PropOp42
 70
     1
102
RTVSPost2010Prop43
 90
        3
102
RTVSPost2010PropOp43
 70
     1
102
RTVSPost2010Prop44ColorIndex
 90
        5
102
RTVSPost2010Prop44ColorRGB
 90
      255
102
RTVSPost2010PropOp44
 70
     1
102
RTVSPost2010Prop45
280
     0
102
RTVSPost2010PropOp45
 70
     1
102
RTVSPost2010Prop46
 90
       50
102
RTVSPost2010PropOp46
 70
     1
102
RTVSPost2010Prop47
 90
       50
102
RTVSPost2010PropOp47
 70
     1
102
RTVSPost2010Prop48
 90
       50
102
RTVSPost2010PropOp48
 70
     1
102
RTVSPost2010Prop49
280
     0
102
RTVSPost2010PropOp49
 70
     1
102
RTVSPost2010Prop50
 90
       50
102
RTVSPost2010PropOp50
 70
     1
102
RTVSPost2010Prop51ColorIndex
 90
      256
102
RTVSPost2010Prop51ColorRGB
 90
-16777216
102
RTVSPost2010PropOp51
 70
     0
102
RTVSPost2010Prop52
140
1.0
102
RTVSPost2010PropOp52
 70
     0
102
RTVSPost2010Prop53
 90
        2
102
RTVSPost2010PropOp53
 70
     1
102
RTVSPost2010Prop54
  1
strokes_ogs.tif
102
RTVSPost2010PropOp54
 70
     1
102
RTVSPost2010Prop55
280
     0
102
RTVSPost2010PropOp55
 70
     1
102
RTVSPost2010Prop56
140
1.0
102
RTVSPost2010PropOp56
 70
     1
102
RTVSPost2010Prop57
140
1.0
102
RTVSPost2010PropOp57
 70
     1
102
RTVSPropertyOp0
 70
     1
102
RTVSPropertyOp1
 70
     1
102
RTVSPropertyOp2
 70
     1
102
RTVSPropertyOp3
 70
     1
102
RTVSPropertyOp4
 70
     1
102
RTVSPropertyOp5
 70
     1
102
RTVSPropertyOp6
 70
     1
102
RTVSPropertyOp7
 70
     1
102
RTVSPropertyOp8
 70
     1
102
RTVSPropertyOp9
 70
     1
102
RTVSPropertyOp10
 70
     1
102
RTVSPropertyOp11
 70
     1
102
RTVSPropertyOp12
 70
     1
102
RTVSPropertyOp13
 70
     1
102
RTVSPropertyOp14
 70
     1
102
RTVSPropertyOp15
 70
     1
102
RTVSPropertyOp16
 70
     1
102
RTVSPropertyOp17
 70
     1
102
RTVSPropertyOp18
 70
     1
102
RTVSPropertyOp19
 70
     1
102
RTVSPropertyOp20
 70
     1
102
RTVSPropertyOp21
 70
     1
102
RTVSPropertyOp22
 70
     1
102
RTVSPropertyOp23
 70
     1
102
RTVSPropertyOp24
 70
     1
102
RTVSPropertyOp25
 70
     1
102
RTVSPropertyOp26
 70
     1
102
RTVSPropertyOp27
 70
     1
102
RTVSPropertyOp28
 70
     1
102
RTVSPropertyOp29
 70
     1
102
RTVSPropertyOp30
 70
     1
102
RTVSPropertyOp31
 70
     1
102
RTVSPropertyOp32
 70
     1
102
RTVSPropertyOp33
 70
     1
102
RTVSPropertyOp34
 70
     1
102
RTVSPropertyOp35
 70
     1
102
RTVSPropertyOp36
 70
     1
102
RTVSPropertyOp37
 70
     1
102
RTVSPropertyOp38
 70
     1
102
RTVSPropertyOp39
 70
     1
102
RTVSPropertyOp40
 70
     1
102
RTVSPropertyOp41
 70
     1
102
RTVSPropertyOp42
 70
     1
102
RTVSPropertyOp43
 70
     1
102
RTVSPropertyOp44
 70
     1
102
RTVSPropertyOp45
 70
     1
102
RTVSPropertyOp46
 70
     1
102
RTVSPropertyOp47
 70
     1
102
RTVSPropertyOp48
 70
     1
102
RTVSPropertyOp49
 70
     1
102
RTVSPropertyOp50
 70
     1
102
RTVSPropertyOp51
 70
     0
102
RTVSPropertyOp52
 70
     0
102
RTVSPropertyOp53
 70
     1
102
RTVSPropertyOp54
 70
     1
102
RTVSPropertyOp55
 70
     1
102
RTVSPropertyOp56
 70
     1
102
RTVSPropertyOp57
 70
     1
102
RTVSPropertyOp58
 70
     1
102
RTVSPropertyOp59
 70
     1
102
RTVSPropertyOp60
 70
     1
102
RTVSPropertyOp61
 70
     1
102
RTVSPropertyOp62
 70
     1
  0
XRECORD
  5
9CE9
102
{ACAD_REACTORS
330
9CE8
102
}
330
9CE8
100
AcDbXrecord
280
     1
102
RTVSPost2010Prop28
280
     0
102
RTVSPost2010PropOp28
 70
     1
102
RTVSPost2010Prop29
280
     1
102
RTVSPost2010PropOp29
 70
     1
102
RTVSPost2010Prop30
280
     1
102
RTVSPost2010PropOp30
 70
     1
102
RTVSPost2010Prop31
280
     0
102
RTVSPost2010PropOp31
 70
     1
102
RTVSPost2010Prop32
280
     0
102
RTVSPost2010PropOp32
 70
     1
102
RTVSPost2010Prop33
280
     0
102
RTVSPost2010PropOp33
 70
     1
102
RTVSPost2010Prop34
280
     0
102
RTVSPost2010PropOp34
 70
     1
102
RTVSPost2010Prop35
280
     0
102
RTVSPost2010PropOp35
 70
     1
102
RTVSPost2010Prop36
280
     0
102
RTVSPost2010PropOp36
 70
     1
102
RTVSPost2010Prop37
 90
       50
102
RTVSPost2010PropOp37
 70
     1
102
RTVSPost2010Prop38
140
0.0
102
RTVSPost2010PropOp38
 70
     1
102
RTVSPost2010Prop39
140
1.0
102
RTVSPost2010PropOp39
 70
     1
102
RTVSPost2010Prop40
 90
        0
102
RTVSPost2010PropOp40
 70
     1
102
RTVSPost2010Prop41ColorIndex
 90
       18
102
RTVSPost2010Prop41ColorRGB
 90
        0
102
RTVSPost2010PropOp41
 70
     1
102
RTVSPost2010Prop42
 90
       50
102
RTVSPost2010PropOp42
 70
     1
102
RTVSPost2010Prop43
 90
        3
102
RTVSPost2010PropOp43
 70
     1
102
RTVSPost2010Prop44ColorIndex
 90
        5
102
RTVSPost2010Prop44ColorRGB
 90
      255
102
RTVSPost2010PropOp44
 70
     1
102
RTVSPost2010Prop45
280
     0
102
RTVSPost2010PropOp45
 70
     1
102
RTVSPost2010Prop46
 90
       50
102
RTVSPost2010PropOp46
 70
     1
102
RTVSPost2010Prop47
 90
       50
102
RTVSPost2010PropOp47
 70
     1
102
RTVSPost2010Prop48
 90
       50
102
RTVSPost2010PropOp48
 70
     1
102
RTVSPost2010Prop49
280
     0
102
RTVSPost2010PropOp49
 70
     1
102
RTVSPost2010Prop50
 90
       50
102
RTVSPost2010PropOp50
 70
     1
102
RTVSPost2010Prop51ColorIndex
 90
      256
102
RTVSPost2010Prop51ColorRGB
 90
-16777216
102
RTVSPost2010PropOp51
 70
     0
102
RTVSPost2010Prop52
140
1.0
102
RTVSPost2010PropOp52
 70
     0
102
RTVSPost2010Prop53
 90
        2
102
RTVSPost2010PropOp53
 70
     1
102
RTVSPost2010Prop54
  1
strokes_ogs.tif
102
RTVSPost2010PropOp54
 70
     1
102
RTVSPost2010Prop55
280
     0
102
RTVSPost2010PropOp55
 70
     1
102
RTVSPost2010Prop56
140
1.0
102
RTVSPost2010PropOp56
 70
     1
102
RTVSPost2010Prop57
140
1.0
102
RTVSPost2010PropOp57
 70
     1
102
RTVSPropertyOp0
 70
     1
102
RTVSPropertyOp1
 70
     1
102
RTVSPropertyOp2
 70
     1
102
RTVSPropertyOp3
 70
     1
102
RTVSPropertyOp4
 70
     1
102
RTVSPropertyOp5
 70
     1
102
RTVSPropertyOp6
 70
     1
102
RTVSPropertyOp7
 70
     1
102
RTVSPropertyOp8
 70
     1
102
RTVSPropertyOp9
 70
     1
102
RTVSPropertyOp10
 70
     1
102
RTVSPropertyOp11
 70
     1
102
RTVSPropertyOp12
 70
     1
102
RTVSPropertyOp13
 70
     1
102
RTVSPropertyOp14
 70
     1
102
RTVSPropertyOp15
 70
     1
102
RTVSPropertyOp16
 70
     1
102
RTVSPropertyOp17
 70
     1
102
RTVSPropertyOp18
 70
     1
102
RTVSPropertyOp19
 70
     1
102
RTVSPropertyOp20
 70
     1
102
RTVSPropertyOp21
 70
     1
102
RTVSPropertyOp22
 70
     1
102
RTVSPropertyOp23
 70
     1
102
RTVSPropertyOp24
 70
     1
102
RTVSPropertyOp25
 70
     1
102
RTVSPropertyOp26
 70
     1
102
RTVSPropertyOp27
 70
     1
102
RTVSPropertyOp28
 70
     1
102
RTVSPropertyOp29
 70
     1
102
RTVSPropertyOp30
 70
     1
102
RTVSPropertyOp31
 70
     1
102
RTVSPropertyOp32
 70
     1
102
RTVSPropertyOp33
 70
     1
102
RTVSPropertyOp34
 70
     1
102
RTVSPropertyOp35
 70
     1
102
RTVSPropertyOp36
 70
     1
102
RTVSPropertyOp37
 70
     1
102
RTVSPropertyOp38
 70
     1
102
RTVSPropertyOp39
 70
     1
102
RTVSPropertyOp40
 70
     1
102
RTVSPropertyOp41
 70
     1
102
RTVSPropertyOp42
 70
     1
102
RTVSPropertyOp43
 70
     1
102
RTVSPropertyOp44
 70
     1
102
RTVSPropertyOp45
 70
     1
102
RTVSPropertyOp46
 70
     1
102
RTVSPropertyOp47
 70
     1
102
RTVSPropertyOp48
 70
     1
102
RTVSPropertyOp49
 70
     1
102
RTVSPropertyOp50
 70
     1
102
RTVSPropertyOp51
 70
     0
102
RTVSPropertyOp52
 70
     0
102
RTVSPropertyOp53
 70
     1
102
RTVSPropertyOp54
 70
     1
102
RTVSPropertyOp55
 70
     1
102
RTVSPropertyOp56
 70
     1
102
RTVSPropertyOp57
 70
     1
102
RTVSPropertyOp58
 70
     1
102
RTVSPropertyOp59
 70
     1
102
RTVSPropertyOp60
 70
     1
102
RTVSPropertyOp61
 70
     1
102
RTVSPropertyOp62
 70
     1
  0
XRECORD
  5
9CF7
102
{ACAD_REACTORS
330
9CF6
102
}
330
9CF6
100
AcDbXrecord
280
     1
102
RTVSPost2010Prop28
280
     0
102
RTVSPost2010PropOp28
 70
     1
102
RTVSPost2010Prop29
280
     1
102
RTVSPost2010PropOp29
 70
     1
102
RTVSPost2010Prop30
280
     1
102
RTVSPost2010PropOp30
 70
     1
102
RTVSPost2010Prop31
280
     0
102
RTVSPost2010PropOp31
 70
     1
102
RTVSPost2010Prop32
280
     0
102
RTVSPost2010PropOp32
 70
     1
102
RTVSPost2010Prop33
280
     0
102
RTVSPost2010PropOp33
 70
     1
102
RTVSPost2010Prop34
280
     0
102
RTVSPost2010PropOp34
 70
     1
102
RTVSPost2010Prop35
280
     0
102
RTVSPost2010PropOp35
 70
     1
102
RTVSPost2010Prop36
280
     0
102
RTVSPost2010PropOp36
 70
     1
102
RTVSPost2010Prop37
 90
       50
102
RTVSPost2010PropOp37
 70
     1
102
RTVSPost2010Prop38
140
0.0
102
RTVSPost2010PropOp38
 70
     1
102
RTVSPost2010Prop39
140
1.0
102
RTVSPost2010PropOp39
 70
     1
102
RTVSPost2010Prop40
 90
        0
102
RTVSPost2010PropOp40
 70
     1
102
RTVSPost2010Prop41ColorIndex
 90
       18
102
RTVSPost2010Prop41ColorRGB
 90
        0
102
RTVSPost2010PropOp41
 70
     1
102
RTVSPost2010Prop42
 90
       50
102
RTVSPost2010PropOp42
 70
     1
102
RTVSPost2010Prop43
 90
        3
102
RTVSPost2010PropOp43
 70
     1
102
RTVSPost2010Prop44ColorIndex
 90
        5
102
RTVSPost2010Prop44ColorRGB
 90
      255
102
RTVSPost2010PropOp44
 70
     1
102
RTVSPost2010Prop45
280
     0
102
RTVSPost2010PropOp45
 70
     1
102
RTVSPost2010Prop46
 90
       50
102
RTVSPost2010PropOp46
 70
     1
102
RTVSPost2010Prop47
 90
       50
102
RTVSPost2010PropOp47
 70
     1
102
RTVSPost2010Prop48
 90
       50
102
RTVSPost2010PropOp48
 70
     1
102
RTVSPost2010Prop49
280
     0
102
RTVSPost2010PropOp49
 70
     1
102
RTVSPost2010Prop50
 90
       50
102
RTVSPost2010PropOp50
 70
     1
102
RTVSPost2010Prop51ColorIndex
 90
      256
102
RTVSPost2010Prop51ColorRGB
 90
-16777216
102
RTVSPost2010PropOp51
 70
     0
102
RTVSPost2010Prop52
140
1.0
102
RTVSPost2010PropOp52
 70
     0
102
RTVSPost2010Prop53
 90
        2
102
RTVSPost2010PropOp53
 70
     1
102
RTVSPost2010Prop54
  1
strokes_ogs.tif
102
RTVSPost2010PropOp54
 70
     1
102
RTVSPost2010Prop55
280
     0
102
RTVSPost2010PropOp55
 70
     1
102
RTVSPost2010Prop56
140
1.0
102
RTVSPost2010PropOp56
 70
     1
102
RTVSPost2010Prop57
140
1.0
102
RTVSPost2010PropOp57
 70
     1
102
RTVSPropertyOp0
 70
     1
102
RTVSPropertyOp1
 70
     1
102
RTVSPropertyOp2
 70
     1
102
RTVSPropertyOp3
 70
     1
102
RTVSPropertyOp4
 70
     1
102
RTVSPropertyOp5
 70
     1
102
RTVSPropertyOp6
 70
     1
102
RTVSPropertyOp7
 70
     1
102
RTVSPropertyOp8
 70
     1
102
RTVSPropertyOp9
 70
     1
102
RTVSPropertyOp10
 70
     1
102
RTVSPropertyOp11
 70
     1
102
RTVSPropertyOp12
 70
     1
102
RTVSPropertyOp13
 70
     1
102
RTVSPropertyOp14
 70
     1
102
RTVSPropertyOp15
 70
     1
102
RTVSPropertyOp16
 70
     1
102
RTVSPropertyOp17
 70
     1
102
RTVSPropertyOp18
 70
     1
102
RTVSPropertyOp19
 70
     1
102
RTVSPropertyOp20
 70
     1
102
RTVSPropertyOp21
 70
     1
102
RTVSPropertyOp22
 70
     1
102
RTVSPropertyOp23
 70
     1
102
RTVSPropertyOp24
 70
     1
102
RTVSPropertyOp25
 70
     1
102
RTVSPropertyOp26
 70
     1
102
RTVSPropertyOp27
 70
     1
102
RTVSPropertyOp28
 70
     1
102
RTVSPropertyOp29
 70
     1
102
RTVSPropertyOp30
 70
     1
102
RTVSPropertyOp31
 70
     1
102
RTVSPropertyOp32
 70
     1
102
RTVSPropertyOp33
 70
     1
102
RTVSPropertyOp34
 70
     1
102
RTVSPropertyOp35
 70
     1
102
RTVSPropertyOp36
 70
     1
102
RTVSPropertyOp37
 70
     1
102
RTVSPropertyOp38
 70
     1
102
RTVSPropertyOp39
 70
     1
102
RTVSPropertyOp40
 70
     1
102
RTVSPropertyOp41
 70
     1
102
RTVSPropertyOp42
 70
     1
102
RTVSPropertyOp43
 70
     1
102
RTVSPropertyOp44
 70
     1
102
RTVSPropertyOp45
 70
     1
102
RTVSPropertyOp46
 70
     1
102
RTVSPropertyOp47
 70
     1
102
RTVSPropertyOp48
 70
     1
102
RTVSPropertyOp49
 70
     1
102
RTVSPropertyOp50
 70
     1
102
RTVSPropertyOp51
 70
     0
102
RTVSPropertyOp52
 70
     0
102
RTVSPropertyOp53
 70
     1
102
RTVSPropertyOp54
 70
     1
102
RTVSPropertyOp55
 70
     1
102
RTVSPropertyOp56
 70
     1
102
RTVSPropertyOp57
 70
     1
102
RTVSPropertyOp58
 70
     1
102
RTVSPropertyOp59
 70
     1
102
RTVSPropertyOp60
 70
     1
102
RTVSPropertyOp61
 70
     1
102
RTVSPropertyOp62
 70
     1
  0
XRECORD
  5
9CFF
102
{ACAD_REACTORS
330
9CFE
102
}
330
9CFE
100
AcDbXrecord
280
     1
102
RTVSPost2010Prop28
280
     0
102
RTVSPost2010PropOp28
 70
     1
102
RTVSPost2010Prop29
280
     1
102
RTVSPost2010PropOp29
 70
     1
102
RTVSPost2010Prop30
280
     1
102
RTVSPost2010PropOp30
 70
     1
102
RTVSPost2010Prop31
280
     0
102
RTVSPost2010PropOp31
 70
     1
102
RTVSPost2010Prop32
280
     0
102
RTVSPost2010PropOp32
 70
     1
102
RTVSPost2010Prop33
280
     0
102
RTVSPost2010PropOp33
 70
     1
102
RTVSPost2010Prop34
280
     0
102
RTVSPost2010PropOp34
 70
     1
102
RTVSPost2010Prop35
280
     0
102
RTVSPost2010PropOp35
 70
     1
102
RTVSPost2010Prop36
280
     0
102
RTVSPost2010PropOp36
 70
     1
102
RTVSPost2010Prop37
 90
       50
102
RTVSPost2010PropOp37
 70
     1
102
RTVSPost2010Prop38
140
0.0
102
RTVSPost2010PropOp38
 70
     1
102
RTVSPost2010Prop39
140
1.0
102
RTVSPost2010PropOp39
 70
     1
102
RTVSPost2010Prop40
 90
        0
102
RTVSPost2010PropOp40
 70
     1
102
RTVSPost2010Prop41ColorIndex
 90
       18
102
RTVSPost2010Prop41ColorRGB
 90
        0
102
RTVSPost2010PropOp41
 70
     1
102
RTVSPost2010Prop42
 90
       50
102
RTVSPost2010PropOp42
 70
     1
102
RTVSPost2010Prop43
 90
        3
102
RTVSPost2010PropOp43
 70
     1
102
RTVSPost2010Prop44ColorIndex
 90
        5
102
RTVSPost2010Prop44ColorRGB
 90
      255
102
RTVSPost2010PropOp44
 70
     1
102
RTVSPost2010Prop45
280
     0
102
RTVSPost2010PropOp45
 70
     1
102
RTVSPost2010Prop46
 90
       50
102
RTVSPost2010PropOp46
 70
     1
102
RTVSPost2010Prop47
 90
       50
102
RTVSPost2010PropOp47
 70
     1
102
RTVSPost2010Prop48
 90
       50
102
RTVSPost2010PropOp48
 70
     1
102
RTVSPost2010Prop49
280
     0
102
RTVSPost2010PropOp49
 70
     1
102
RTVSPost2010Prop50
 90
       50
102
RTVSPost2010PropOp50
 70
     1
102
RTVSPost2010Prop51ColorIndex
 90
      256
102
RTVSPost2010Prop51ColorRGB
 90
-16777216
102
RTVSPost2010PropOp51
 70
     0
102
RTVSPost2010Prop52
140
1.0
102
RTVSPost2010PropOp52
 70
     0
102
RTVSPost2010Prop53
 90
        2
102
RTVSPost2010PropOp53
 70
     1
102
RTVSPost2010Prop54
  1
strokes_ogs.tif
102
RTVSPost2010PropOp54
 70
     1
102
RTVSPost2010Prop55
280
     0
102
RTVSPost2010PropOp55
 70
     1
102
RTVSPost2010Prop56
140
1.0
102
RTVSPost2010PropOp56
 70
     1
102
RTVSPost2010Prop57
140
1.0
102
RTVSPost2010PropOp57
 70
     1
102
RTVSPropertyOp0
 70
     1
102
RTVSPropertyOp1
 70
     1
102
RTVSPropertyOp2
 70
     1
102
RTVSPropertyOp3
 70
     1
102
RTVSPropertyOp4
 70
     1
102
RTVSPropertyOp5
 70
     1
102
RTVSPropertyOp6
 70
     1
102
RTVSPropertyOp7
 70
     1
102
RTVSPropertyOp8
 70
     1
102
RTVSPropertyOp9
 70
     1
102
RTVSPropertyOp10
 70
     1
102
RTVSPropertyOp11
 70
     1
102
RTVSPropertyOp12
 70
     1
102
RTVSPropertyOp13
 70
     1
102
RTVSPropertyOp14
 70
     1
102
RTVSPropertyOp15
 70
     1
102
RTVSPropertyOp16
 70
     1
102
RTVSPropertyOp17
 70
     1
102
RTVSPropertyOp18
 70
     1
102
RTVSPropertyOp19
 70
     1
102
RTVSPropertyOp20
 70
     1
102
RTVSPropertyOp21
 70
     1
102
RTVSPropertyOp22
 70
     1
102
RTVSPropertyOp23
 70
     1
102
RTVSPropertyOp24
 70
     1
102
RTVSPropertyOp25
 70
     1
102
RTVSPropertyOp26
 70
     1
102
RTVSPropertyOp27
 70
     1
102
RTVSPropertyOp28
 70
     1
102
RTVSPropertyOp29
 70
     1
102
RTVSPropertyOp30
 70
     1
102
RTVSPropertyOp31
 70
     1
102
RTVSPropertyOp32
 70
     1
102
RTVSPropertyOp33
 70
     1
102
RTVSPropertyOp34
 70
     1
102
RTVSPropertyOp35
 70
     1
102
RTVSPropertyOp36
 70
     1
102
RTVSPropertyOp37
 70
     1
102
RTVSPropertyOp38
 70
     1
102
RTVSPropertyOp39
 70
     1
102
RTVSPropertyOp40
 70
     1
102
RTVSPropertyOp41
 70
     1
102
RTVSPropertyOp42
 70
     1
102
RTVSPropertyOp43
 70
     1
102
RTVSPropertyOp44
 70
     1
102
RTVSPropertyOp45
 70
     1
102
RTVSPropertyOp46
 70
     1
102
RTVSPropertyOp47
 70
     1
102
RTVSPropertyOp48
 70
     1
102
RTVSPropertyOp49
 70
     1
102
RTVSPropertyOp50
 70
     1
102
RTVSPropertyOp51
 70
     0
102
RTVSPropertyOp52
 70
     0
102
RTVSPropertyOp53
 70
     1
102
RTVSPropertyOp54
 70
     1
102
RTVSPropertyOp55
 70
     1
102
RTVSPropertyOp56
 70
     1
102
RTVSPropertyOp57
 70
     1
102
RTVSPropertyOp58
 70
     1
102
RTVSPropertyOp59
 70
     1
102
RTVSPropertyOp60
 70
     1
102
RTVSPropertyOp61
 70
     1
102
RTVSPropertyOp62
 70
     1
  0
XRECORD
  5
9CF1
102
{ACAD_REACTORS
330
9CF0
102
}
330
9CF0
100
AcDbXrecord
280
     1
102
RTVSPost2010Prop28
280
     0
102
RTVSPost2010PropOp28
 70
     1
102
RTVSPost2010Prop29
280
     1
102
RTVSPost2010PropOp29
 70
     1
102
RTVSPost2010Prop30
280
     1
102
RTVSPost2010PropOp30
 70
     1
102
RTVSPost2010Prop31
280
     0
102
RTVSPost2010PropOp31
 70
     1
102
RTVSPost2010Prop32
280
     0
102
RTVSPost2010PropOp32
 70
     1
102
RTVSPost2010Prop33
280
     0
102
RTVSPost2010PropOp33
 70
     1
102
RTVSPost2010Prop34
280
     0
102
RTVSPost2010PropOp34
 70
     1
102
RTVSPost2010Prop35
280
     0
102
RTVSPost2010PropOp35
 70
     1
102
RTVSPost2010Prop36
280
     0
102
RTVSPost2010PropOp36
 70
     1
102
RTVSPost2010Prop37
 90
       50
102
RTVSPost2010PropOp37
 70
     1
102
RTVSPost2010Prop38
140
0.0
102
RTVSPost2010PropOp38
 70
     1
102
RTVSPost2010Prop39
140
1.0
102
RTVSPost2010PropOp39
 70
     1
102
RTVSPost2010Prop40
 90
        0
102
RTVSPost2010PropOp40
 70
     1
102
RTVSPost2010Prop41ColorIndex
 90
       18
102
RTVSPost2010Prop41ColorRGB
 90
        0
102
RTVSPost2010PropOp41
 70
     1
102
RTVSPost2010Prop42
 90
       50
102
RTVSPost2010PropOp42
 70
     1
102
RTVSPost2010Prop43
 90
        3
102
RTVSPost2010PropOp43
 70
     1
102
RTVSPost2010Prop44ColorIndex
 90
        5
102
RTVSPost2010Prop44ColorRGB
 90
      255
102
RTVSPost2010PropOp44
 70
     1
102
RTVSPost2010Prop45
280
     0
102
RTVSPost2010PropOp45
 70
     1
102
RTVSPost2010Prop46
 90
       50
102
RTVSPost2010PropOp46
 70
     1
102
RTVSPost2010Prop47
 90
       50
102
RTVSPost2010PropOp47
 70
     1
102
RTVSPost2010Prop48
 90
       50
102
RTVSPost2010PropOp48
 70
     1
102
RTVSPost2010Prop49
280
     0
102
RTVSPost2010PropOp49
 70
     1
102
RTVSPost2010Prop50
 90
       50
102
RTVSPost2010PropOp50
 70
     1
102
RTVSPost2010Prop51ColorIndex
 90
      256
102
RTVSPost2010Prop51ColorRGB
 90
-16777216
102
RTVSPost2010PropOp51
 70
     0
102
RTVSPost2010Prop52
140
1.0
102
RTVSPost2010PropOp52
 70
     0
102
RTVSPost2010Prop53
 90
        2
102
RTVSPost2010PropOp53
 70
     1
102
RTVSPost2010Prop54
  1
strokes_ogs.tif
102
RTVSPost2010PropOp54
 70
     1
102
RTVSPost2010Prop55
280
     0
102
RTVSPost2010PropOp55
 70
     1
102
RTVSPost2010Prop56
140
1.0
102
RTVSPost2010PropOp56
 70
     1
102
RTVSPost2010Prop57
140
1.0
102
RTVSPost2010PropOp57
 70
     1
102
RTVSPropertyOp0
 70
     1
102
RTVSPropertyOp1
 70
     1
102
RTVSPropertyOp2
 70
     1
102
RTVSPropertyOp3
 70
     1
102
RTVSPropertyOp4
 70
     1
102
RTVSPropertyOp5
 70
     1
102
RTVSPropertyOp6
 70
     1
102
RTVSPropertyOp7
 70
     1
102
RTVSPropertyOp8
 70
     1
102
RTVSPropertyOp9
 70
     1
102
RTVSPropertyOp10
 70
     1
102
RTVSPropertyOp11
 70
     1
102
RTVSPropertyOp12
 70
     1
102
RTVSPropertyOp13
 70
     1
102
RTVSPropertyOp14
 70
     1
102
RTVSPropertyOp15
 70
     1
102
RTVSPropertyOp16
 70
     1
102
RTVSPropertyOp17
 70
     1
102
RTVSPropertyOp18
 70
     1
102
RTVSPropertyOp19
 70
     1
102
RTVSPropertyOp20
 70
     1
102
RTVSPropertyOp21
 70
     1
102
RTVSPropertyOp22
 70
     1
102
RTVSPropertyOp23
 70
     1
102
RTVSPropertyOp24
 70
     1
102
RTVSPropertyOp25
 70
     1
102
RTVSPropertyOp26
 70
     1
102
RTVSPropertyOp27
 70
     1
102
RTVSPropertyOp28
 70
     1
102
RTVSPropertyOp29
 70
     1
102
RTVSPropertyOp30
 70
     1
102
RTVSPropertyOp31
 70
     1
102
RTVSPropertyOp32
 70
     1
102
RTVSPropertyOp33
 70
     1
102
RTVSPropertyOp34
 70
     1
102
RTVSPropertyOp35
 70
     1
102
RTVSPropertyOp36
 70
     1
102
RTVSPropertyOp37
 70
     1
102
RTVSPropertyOp38
 70
     1
102
RTVSPropertyOp39
 70
     1
102
RTVSPropertyOp40
 70
     1
102
RTVSPropertyOp41
 70
     1
102
RTVSPropertyOp42
 70
     1
102
RTVSPropertyOp43
 70
     1
102
RTVSPropertyOp44
 70
     1
102
RTVSPropertyOp45
 70
     1
102
RTVSPropertyOp46
 70
     1
102
RTVSPropertyOp47
 70
     1
102
RTVSPropertyOp48
 70
     1
102
RTVSPropertyOp49
 70
     1
102
RTVSPropertyOp50
 70
     1
102
RTVSPropertyOp51
 70
     0
102
RTVSPropertyOp52
 70
     0
102
RTVSPropertyOp53
 70
     1
102
RTVSPropertyOp54
 70
     1
102
RTVSPropertyOp55
 70
     1
102
RTVSPropertyOp56
 70
     1
102
RTVSPropertyOp57
 70
     1
102
RTVSPropertyOp58
 70
     1
102
RTVSPropertyOp59
 70
     1
102
RTVSPropertyOp60
 70
     1
102
RTVSPropertyOp61
 70
     1
102
RTVSPropertyOp62
 70
     1
  0
XRECORD
  5
9CF5
102
{ACAD_REACTORS
330
9CF4
102
}
330
9CF4
100
AcDbXrecord
280
     1
102
RTVSPost2010Prop28
280
     0
102
RTVSPost2010PropOp28
 70
     1
102
RTVSPost2010Prop29
280
     1
102
RTVSPost2010PropOp29
 70
     1
102
RTVSPost2010Prop30
280
     1
102
RTVSPost2010PropOp30
 70
     1
102
RTVSPost2010Prop31
280
     0
102
RTVSPost2010PropOp31
 70
     1
102
RTVSPost2010Prop32
280
     0
102
RTVSPost2010PropOp32
 70
     1
102
RTVSPost2010Prop33
280
     0
102
RTVSPost2010PropOp33
 70
     1
102
RTVSPost2010Prop34
280
     0
102
RTVSPost2010PropOp34
 70
     1
102
RTVSPost2010Prop35
280
     0
102
RTVSPost2010PropOp35
 70
     1
102
RTVSPost2010Prop36
280
     0
102
RTVSPost2010PropOp36
 70
     1
102
RTVSPost2010Prop37
 90
       50
102
RTVSPost2010PropOp37
 70
     1
102
RTVSPost2010Prop38
140
0.0
102
RTVSPost2010PropOp38
 70
     1
102
RTVSPost2010Prop39
140
1.0
102
RTVSPost2010PropOp39
 70
     1
102
RTVSPost2010Prop40
 90
        0
102
RTVSPost2010PropOp40
 70
     1
102
RTVSPost2010Prop41ColorIndex
 90
       18
102
RTVSPost2010Prop41ColorRGB
 90
        0
102
RTVSPost2010PropOp41
 70
     1
102
RTVSPost2010Prop42
 90
       50
102
RTVSPost2010PropOp42
 70
     1
102
RTVSPost2010Prop43
 90
        3
102
RTVSPost2010PropOp43
 70
     1
102
RTVSPost2010Prop44ColorIndex
 90
        5
102
RTVSPost2010Prop44ColorRGB
 90
      255
102
RTVSPost2010PropOp44
 70
     1
102
RTVSPost2010Prop45
280
     0
102
RTVSPost2010PropOp45
 70
     1
102
RTVSPost2010Prop46
 90
       50
102
RTVSPost2010PropOp46
 70
     1
102
RTVSPost2010Prop47
 90
       50
102
RTVSPost2010PropOp47
 70
     1
102
RTVSPost2010Prop48
 90
       50
102
RTVSPost2010PropOp48
 70
     1
102
RTVSPost2010Prop49
280
     0
102
RTVSPost2010PropOp49
 70
     1
102
RTVSPost2010Prop50
 90
       50
102
RTVSPost2010PropOp50
 70
     1
102
RTVSPost2010Prop51ColorIndex
 90
      256
102
RTVSPost2010Prop51ColorRGB
 90
-16777216
102
RTVSPost2010PropOp51
 70
     0
102
RTVSPost2010Prop52
140
1.0
102
RTVSPost2010PropOp52
 70
     0
102
RTVSPost2010Prop53
 90
        2
102
RTVSPost2010PropOp53
 70
     1
102
RTVSPost2010Prop54
  1
strokes_ogs.tif
102
RTVSPost2010PropOp54
 70
     1
102
RTVSPost2010Prop55
280
     0
102
RTVSPost2010PropOp55
 70
     1
102
RTVSPost2010Prop56
140
1.0
102
RTVSPost2010PropOp56
 70
     1
102
RTVSPost2010Prop57
140
1.0
102
RTVSPost2010PropOp57
 70
     1
102
RTVSPropertyOp0
 70
     1
102
RTVSPropertyOp1
 70
     1
102
RTVSPropertyOp2
 70
     1
102
RTVSPropertyOp3
 70
     1
102
RTVSPropertyOp4
 70
     1
102
RTVSPropertyOp5
 70
     1
102
RTVSPropertyOp6
 70
     1
102
RTVSPropertyOp7
 70
     1
102
RTVSPropertyOp8
 70
     1
102
RTVSPropertyOp9
 70
     1
102
RTVSPropertyOp10
 70
     1
102
RTVSPropertyOp11
 70
     1
102
RTVSPropertyOp12
 70
     1
102
RTVSPropertyOp13
 70
     1
102
RTVSPropertyOp14
 70
     1
102
RTVSPropertyOp15
 70
     1
102
RTVSPropertyOp16
 70
     1
102
RTVSPropertyOp17
 70
     1
102
RTVSPropertyOp18
 70
     1
102
RTVSPropertyOp19
 70
     1
102
RTVSPropertyOp20
 70
     1
102
RTVSPropertyOp21
 70
     1
102
RTVSPropertyOp22
 70
     1
102
RTVSPropertyOp23
 70
     1
102
RTVSPropertyOp24
 70
     1
102
RTVSPropertyOp25
 70
     1
102
RTVSPropertyOp26
 70
     1
102
RTVSPropertyOp27
 70
     1
102
RTVSPropertyOp28
 70
     1
102
RTVSPropertyOp29
 70
     1
102
RTVSPropertyOp30
 70
     1
102
RTVSPropertyOp31
 70
     1
102
RTVSPropertyOp32
 70
     1
102
RTVSPropertyOp33
 70
     1
102
RTVSPropertyOp34
 70
     1
102
RTVSPropertyOp35
 70
     1
102
RTVSPropertyOp36
 70
     1
102
RTVSPropertyOp37
 70
     1
102
RTVSPropertyOp38
 70
     1
102
RTVSPropertyOp39
 70
     1
102
RTVSPropertyOp40
 70
     1
102
RTVSPropertyOp41
 70
     1
102
RTVSPropertyOp42
 70
     1
102
RTVSPropertyOp43
 70
     1
102
RTVSPropertyOp44
 70
     1
102
RTVSPropertyOp45
 70
     1
102
RTVSPropertyOp46
 70
     1
102
RTVSPropertyOp47
 70
     1
102
RTVSPropertyOp48
 70
     1
102
RTVSPropertyOp49
 70
     1
102
RTVSPropertyOp50
 70
     1
102
RTVSPropertyOp51
 70
     0
102
RTVSPropertyOp52
 70
     0
102
RTVSPropertyOp53
 70
     1
102
RTVSPropertyOp54
 70
     1
102
RTVSPropertyOp55
 70
     1
102
RTVSPropertyOp56
 70
     1
102
RTVSPropertyOp57
 70
     1
102
RTVSPropertyOp58
 70
     1
102
RTVSPropertyOp59
 70
     1
102
RTVSPropertyOp60
 70
     1
102
RTVSPropertyOp61
 70
     1
102
RTVSPropertyOp62
 70
     1
  0
XRECORD
  5
9D0F
102
{ACAD_REACTORS
330
9D0E
102
}
330
9D0E
100
AcDbXrecord
280
     1
102
RTVSPost2010Prop28
280
     0
102
RTVSPost2010PropOp28
 70
     1
102
RTVSPost2010Prop29
280
     1
102
RTVSPost2010PropOp29
 70
     1
102
RTVSPost2010Prop30
280
     1
102
RTVSPost2010PropOp30
 70
     1
102
RTVSPost2010Prop31
280
     0
102
RTVSPost2010PropOp31
 70
     1
102
RTVSPost2010Prop32
280
     0
102
RTVSPost2010PropOp32
 70
     1
102
RTVSPost2010Prop33
280
     0
102
RTVSPost2010PropOp33
 70
     1
102
RTVSPost2010Prop34
280
     0
102
RTVSPost2010PropOp34
 70
     1
102
RTVSPost2010Prop35
280
     0
102
RTVSPost2010PropOp35
 70
     1
102
RTVSPost2010Prop36
280
     0
102
RTVSPost2010PropOp36
 70
     1
102
RTVSPost2010Prop37
 90
       50
102
RTVSPost2010PropOp37
 70
     0
102
RTVSPost2010Prop38
140
0.0
102
RTVSPost2010PropOp38
 70
     0
102
RTVSPost2010Prop39
140
1.0
102
RTVSPost2010PropOp39
 70
     0
102
RTVSPost2010Prop40
 90
        0
102
RTVSPost2010PropOp40
 70
     0
102
RTVSPost2010Prop41ColorIndex
 90
       18
102
RTVSPost2010Prop41ColorRGB
 90
        0
102
RTVSPost2010PropOp41
 70
     0
102
RTVSPost2010Prop42
 90
       50
102
RTVSPost2010PropOp42
 70
     0
102
RTVSPost2010Prop43
 90
        3
102
RTVSPost2010PropOp43
 70
     0
102
RTVSPost2010Prop44ColorIndex
 90
        5
102
RTVSPost2010Prop44ColorRGB
 90
      255
102
RTVSPost2010PropOp44
 70
     0
102
RTVSPost2010Prop45
280
     0
102
RTVSPost2010PropOp45
 70
     1
102
RTVSPost2010Prop46
 90
       50
102
RTVSPost2010PropOp46
 70
     0
102
RTVSPost2010Prop47
 90
       50
102
RTVSPost2010PropOp47
 70
     0
102
RTVSPost2010Prop48
 90
       50
102
RTVSPost2010PropOp48
 70
     0
102
RTVSPost2010Prop49
280
     0
102
RTVSPost2010PropOp49
 70
     1
102
RTVSPost2010Prop50
 90
       50
102
RTVSPost2010PropOp50
 70
     0
102
RTVSPost2010Prop51ColorIndex
 90
      256
102
RTVSPost2010Prop51ColorRGB
 90
-16777216
102
RTVSPost2010PropOp51
 70
     0
102
RTVSPost2010Prop52
140
1.0
102
RTVSPost2010PropOp52
 70
     0
102
RTVSPost2010Prop53
 90
        2
102
RTVSPost2010PropOp53
 70
     0
102
RTVSPost2010Prop54
  1
strokes_ogs.tif
102
RTVSPost2010PropOp54
 70
     0
102
RTVSPost2010Prop55
280
     0
102
RTVSPost2010PropOp55
 70
     1
102
RTVSPost2010Prop56
140
1.0
102
RTVSPost2010PropOp56
 70
     0
102
RTVSPost2010Prop57
140
1.0
102
RTVSPost2010PropOp57
 70
     0
102
RTVSPropertyOp0
 70
     0
102
RTVSPropertyOp1
 70
     0
102
RTVSPropertyOp2
 70
     0
102
RTVSPropertyOp3
 70
     0
102
RTVSPropertyOp4
 70
     0
102
RTVSPropertyOp5
 70
     0
102
RTVSPropertyOp6
 70
     0
102
RTVSPropertyOp7
 70
     0
102
RTVSPropertyOp8
 70
     0
102
RTVSPropertyOp9
 70
     0
102
RTVSPropertyOp10
 70
     0
102
RTVSPropertyOp11
 70
     0
102
RTVSPropertyOp12
 70
     0
102
RTVSPropertyOp13
 70
     0
102
RTVSPropertyOp14
 70
     2
102
RTVSPropertyOp15
 70
     0
102
RTVSPropertyOp16
 70
     0
102
RTVSPropertyOp17
 70
     0
102
RTVSPropertyOp18
 70
     0
102
RTVSPropertyOp19
 70
     0
102
RTVSPropertyOp20
 70
     0
102
RTVSPropertyOp21
 70
     0
102
RTVSPropertyOp22
 70
     0
102
RTVSPropertyOp23
 70
     0
102
RTVSPropertyOp24
 70
     0
102
RTVSPropertyOp25
 70
     0
102
RTVSPropertyOp26
 70
     0
102
RTVSPropertyOp27
 70
     0
102
RTVSPropertyOp28
 70
     1
102
RTVSPropertyOp29
 70
     1
102
RTVSPropertyOp30
 70
     1
102
RTVSPropertyOp31
 70
     1
102
RTVSPropertyOp32
 70
     1
102
RTVSPropertyOp33
 70
     1
102
RTVSPropertyOp34
 70
     1
102
RTVSPropertyOp35
 70
     1
102
RTVSPropertyOp36
 70
     1
102
RTVSPropertyOp37
 70
     0
102
RTVSPropertyOp38
 70
     0
102
RTVSPropertyOp39
 70
     0
102
RTVSPropertyOp40
 70
     0
102
RTVSPropertyOp41
 70
     0
102
RTVSPropertyOp42
 70
     0
102
RTVSPropertyOp43
 70
     0
102
RTVSPropertyOp44
 70
     0
102
RTVSPropertyOp45
 70
     1
102
RTVSPropertyOp46
 70
     0
102
RTVSPropertyOp47
 70
     0
102
RTVSPropertyOp48
 70
     0
102
RTVSPropertyOp49
 70
     1
102
RTVSPropertyOp50
 70
     0
102
RTVSPropertyOp51
 70
     0
102
RTVSPropertyOp52
 70
     0
102
RTVSPropertyOp53
 70
     0
102
RTVSPropertyOp54
 70
     0
102
RTVSPropertyOp55
 70
     1
102
RTVSPropertyOp56
 70
     0
102
RTVSPropertyOp57
 70
     0
102
RTVSPropertyOp58
 70
     0
102
RTVSPropertyOp59
 70
     0
102
RTVSPropertyOp60
 70
     0
102
RTVSPropertyOp61
 70
     0
102
RTVSPropertyOp62
 70
     0
  0
XRECORD
  5
9CFD
102
{ACAD_REACTORS
330
9CFC
102
}
330
9CFC
100
AcDbXrecord
280
     1
102
RTVSPost2010Prop28
280
     0
102
RTVSPost2010PropOp28
 70
     1
102
RTVSPost2010Prop29
280
     1
102
RTVSPost2010PropOp29
 70
     1
102
RTVSPost2010Prop30
280
     1
102
RTVSPost2010PropOp30
 70
     1
102
RTVSPost2010Prop31
280
     0
102
RTVSPost2010PropOp31
 70
     1
102
RTVSPost2010Prop32
280
     0
102
RTVSPost2010PropOp32
 70
     1
102
RTVSPost2010Prop33
280
     0
102
RTVSPost2010PropOp33
 70
     1
102
RTVSPost2010Prop34
280
     0
102
RTVSPost2010PropOp34
 70
     1
102
RTVSPost2010Prop35
280
     0
102
RTVSPost2010PropOp35
 70
     1
102
RTVSPost2010Prop36
280
     0
102
RTVSPost2010PropOp36
 70
     1
102
RTVSPost2010Prop37
 90
       50
102
RTVSPost2010PropOp37
 70
     1
102
RTVSPost2010Prop38
140
0.0
102
RTVSPost2010PropOp38
 70
     1
102
RTVSPost2010Prop39
140
1.0
102
RTVSPost2010PropOp39
 70
     1
102
RTVSPost2010Prop40
 90
        0
102
RTVSPost2010PropOp40
 70
     1
102
RTVSPost2010Prop41ColorIndex
 90
       18
102
RTVSPost2010Prop41ColorRGB
 90
        0
102
RTVSPost2010PropOp41
 70
     1
102
RTVSPost2010Prop42
 90
       50
102
RTVSPost2010PropOp42
 70
     1
102
RTVSPost2010Prop43
 90
        3
102
RTVSPost2010PropOp43
 70
     1
102
RTVSPost2010Prop44ColorIndex
 90
        5
102
RTVSPost2010Prop44ColorRGB
 90
      255
102
RTVSPost2010PropOp44
 70
     1
102
RTVSPost2010Prop45
280
     0
102
RTVSPost2010PropOp45
 70
     1
102
RTVSPost2010Prop46
 90
       50
102
RTVSPost2010PropOp46
 70
     1
102
RTVSPost2010Prop47
 90
       50
102
RTVSPost2010PropOp47
 70
     1
102
RTVSPost2010Prop48
 90
       50
102
RTVSPost2010PropOp48
 70
     1
102
RTVSPost2010Prop49
280
     0
102
RTVSPost2010PropOp49
 70
     1
102
RTVSPost2010Prop50
 90
       50
102
RTVSPost2010PropOp50
 70
     1
102
RTVSPost2010Prop51ColorIndex
 90
      256
102
RTVSPost2010Prop51ColorRGB
 90
-16777216
102
RTVSPost2010PropOp51
 70
     0
102
RTVSPost2010Prop52
140
1.0
102
RTVSPost2010PropOp52
 70
     0
102
RTVSPost2010Prop53
 90
        2
102
RTVSPost2010PropOp53
 70
     1
102
RTVSPost2010Prop54
  1
strokes_ogs.tif
102
RTVSPost2010PropOp54
 70
     1
102
RTVSPost2010Prop55
280
     0
102
RTVSPost2010PropOp55
 70
     1
102
RTVSPost2010Prop56
140
1.0
102
RTVSPost2010PropOp56
 70
     1
102
RTVSPost2010Prop57
140
1.0
102
RTVSPost2010PropOp57
 70
     1
102
RTVSPropertyOp0
 70
     1
102
RTVSPropertyOp1
 70
     1
102
RTVSPropertyOp2
 70
     1
102
RTVSPropertyOp3
 70
     1
102
RTVSPropertyOp4
 70
     1
102
RTVSPropertyOp5
 70
     1
102
RTVSPropertyOp6
 70
     1
102
RTVSPropertyOp7
 70
     1
102
RTVSPropertyOp8
 70
     1
102
RTVSPropertyOp9
 70
     1
102
RTVSPropertyOp10
 70
     1
102
RTVSPropertyOp11
 70
     1
102
RTVSPropertyOp12
 70
     1
102
RTVSPropertyOp13
 70
     1
102
RTVSPropertyOp14
 70
     1
102
RTVSPropertyOp15
 70
     1
102
RTVSPropertyOp16
 70
     1
102
RTVSPropertyOp17
 70
     1
102
RTVSPropertyOp18
 70
     1
102
RTVSPropertyOp19
 70
     1
102
RTVSPropertyOp20
 70
     1
102
RTVSPropertyOp21
 70
     1
102
RTVSPropertyOp22
 70
     1
102
RTVSPropertyOp23
 70
     1
102
RTVSPropertyOp24
 70
     1
102
RTVSPropertyOp25
 70
     1
102
RTVSPropertyOp26
 70
     1
102
RTVSPropertyOp27
 70
     1
102
RTVSPropertyOp28
 70
     1
102
RTVSPropertyOp29
 70
     1
102
RTVSPropertyOp30
 70
     1
102
RTVSPropertyOp31
 70
     1
102
RTVSPropertyOp32
 70
     1
102
RTVSPropertyOp33
 70
     1
102
RTVSPropertyOp34
 70
     1
102
RTVSPropertyOp35
 70
     1
102
RTVSPropertyOp36
 70
     1
102
RTVSPropertyOp37
 70
     1
102
RTVSPropertyOp38
 70
     1
102
RTVSPropertyOp39
 70
     1
102
RTVSPropertyOp40
 70
     1
102
RTVSPropertyOp41
 70
     1
102
RTVSPropertyOp42
 70
     1
102
RTVSPropertyOp43
 70
     1
102
RTVSPropertyOp44
 70
     1
102
RTVSPropertyOp45
 70
     1
102
RTVSPropertyOp46
 70
     1
102
RTVSPropertyOp47
 70
     1
102
RTVSPropertyOp48
 70
     1
102
RTVSPropertyOp49
 70
     1
102
RTVSPropertyOp50
 70
     1
102
RTVSPropertyOp51
 70
     0
102
RTVSPropertyOp52
 70
     0
102
RTVSPropertyOp53
 70
     1
102
RTVSPropertyOp54
 70
     1
102
RTVSPropertyOp55
 70
     1
102
RTVSPropertyOp56
 70
     1
102
RTVSPropertyOp57
 70
     1
102
RTVSPropertyOp58
 70
     1
102
RTVSPropertyOp59
 70
     1
102
RTVSPropertyOp60
 70
     1
102
RTVSPropertyOp61
 70
     1
102
RTVSPropertyOp62
 70
     1
  0
XRECORD
  5
9CE1
102
{ACAD_REACTORS
330
9CE0
102
}
330
9CE0
100
AcDbXrecord
280
     1
102
RTVSPost2010Prop28
280
     0
102
RTVSPost2010PropOp28
 70
     1
102
RTVSPost2010Prop29
280
     1
102
RTVSPost2010PropOp29
 70
     1
102
RTVSPost2010Prop30
280
     1
102
RTVSPost2010PropOp30
 70
     1
102
RTVSPost2010Prop31
280
     0
102
RTVSPost2010PropOp31
 70
     1
102
RTVSPost2010Prop32
280
     0
102
RTVSPost2010PropOp32
 70
     1
102
RTVSPost2010Prop33
280
     0
102
RTVSPost2010PropOp33
 70
     1
102
RTVSPost2010Prop34
280
     0
102
RTVSPost2010PropOp34
 70
     1
102
RTVSPost2010Prop35
280
     0
102
RTVSPost2010PropOp35
 70
     1
102
RTVSPost2010Prop36
280
     0
102
RTVSPost2010PropOp36
 70
     1
102
RTVSPost2010Prop37
 90
       50
102
RTVSPost2010PropOp37
 70
     1
102
RTVSPost2010Prop38
140
0.0
102
RTVSPost2010PropOp38
 70
     1
102
RTVSPost2010Prop39
140
1.0
102
RTVSPost2010PropOp39
 70
     1
102
RTVSPost2010Prop40
 90
        0
102
RTVSPost2010PropOp40
 70
     1
102
RTVSPost2010Prop41ColorIndex
 90
       18
102
RTVSPost2010Prop41ColorRGB
 90
        0
102
RTVSPost2010PropOp41
 70
     1
102
RTVSPost2010Prop42
 90
       50
102
RTVSPost2010PropOp42
 70
     1
102
RTVSPost2010Prop43
 90
        3
102
RTVSPost2010PropOp43
 70
     1
102
RTVSPost2010Prop44ColorIndex
 90
        5
102
RTVSPost2010Prop44ColorRGB
 90
      255
102
RTVSPost2010PropOp44
 70
     1
102
RTVSPost2010Prop45
280
     0
102
RTVSPost2010PropOp45
 70
     1
102
RTVSPost2010Prop46
 90
       50
102
RTVSPost2010PropOp46
 70
     1
102
RTVSPost2010Prop47
 90
       50
102
RTVSPost2010PropOp47
 70
     1
102
RTVSPost2010Prop48
 90
       50
102
RTVSPost2010PropOp48
 70
     1
102
RTVSPost2010Prop49
280
     0
102
RTVSPost2010PropOp49
 70
     1
102
RTVSPost2010Prop50
 90
       50
102
RTVSPost2010PropOp50
 70
     1
102
RTVSPost2010Prop51ColorIndex
 90
      256
102
RTVSPost2010Prop51ColorRGB
 90
-16777216
102
RTVSPost2010PropOp51
 70
     0
102
RTVSPost2010Prop52
140
1.0
102
RTVSPost2010PropOp52
 70
     0
102
RTVSPost2010Prop53
 90
        2
102
RTVSPost2010PropOp53
 70
     1
102
RTVSPost2010Prop54
  1
strokes_ogs.tif
102
RTVSPost2010PropOp54
 70
     1
102
RTVSPost2010Prop55
280
     0
102
RTVSPost2010PropOp55
 70
     1
102
RTVSPost2010Prop56
140
1.0
102
RTVSPost2010PropOp56
 70
     1
102
RTVSPost2010Prop57
140
1.0
102
RTVSPost2010PropOp57
 70
     1
102
RTVSPropertyOp0
 70
     1
102
RTVSPropertyOp1
 70
     1
102
RTVSPropertyOp2
 70
     1
102
RTVSPropertyOp3
 70
     1
102
RTVSPropertyOp4
 70
     1
102
RTVSPropertyOp5
 70
     1
102
RTVSPropertyOp6
 70
     1
102
RTVSPropertyOp7
 70
     1
102
RTVSPropertyOp8
 70
     1
102
RTVSPropertyOp9
 70
     1
102
RTVSPropertyOp10
 70
     1
102
RTVSPropertyOp11
 70
     1
102
RTVSPropertyOp12
 70
     1
102
RTVSPropertyOp13
 70
     1
102
RTVSPropertyOp14
 70
     1
102
RTVSPropertyOp15
 70
     1
102
RTVSPropertyOp16
 70
     1
102
RTVSPropertyOp17
 70
     1
102
RTVSPropertyOp18
 70
     1
102
RTVSPropertyOp19
 70
     1
102
RTVSPropertyOp20
 70
     1
102
RTVSPropertyOp21
 70
     1
102
RTVSPropertyOp22
 70
     1
102
RTVSPropertyOp23
 70
     1
102
RTVSPropertyOp24
 70
     1
102
RTVSPropertyOp25
 70
     1
102
RTVSPropertyOp26
 70
     1
102
RTVSPropertyOp27
 70
     1
102
RTVSPropertyOp28
 70
     1
102
RTVSPropertyOp29
 70
     1
102
RTVSPropertyOp30
 70
     1
102
RTVSPropertyOp31
 70
     1
102
RTVSPropertyOp32
 70
     1
102
RTVSPropertyOp33
 70
     1
102
RTVSPropertyOp34
 70
     1
102
RTVSPropertyOp35
 70
     1
102
RTVSPropertyOp36
 70
     1
102
RTVSPropertyOp37
 70
     1
102
RTVSPropertyOp38
 70
     1
102
RTVSPropertyOp39
 70
     1
102
RTVSPropertyOp40
 70
     1
102
RTVSPropertyOp41
 70
     1
102
RTVSPropertyOp42
 70
     1
102
RTVSPropertyOp43
 70
     1
102
RTVSPropertyOp44
 70
     1
102
RTVSPropertyOp45
 70
     1
102
RTVSPropertyOp46
 70
     1
102
RTVSPropertyOp47
 70
     1
102
RTVSPropertyOp48
 70
     1
102
RTVSPropertyOp49
 70
     1
102
RTVSPropertyOp50
 70
     1
102
RTVSPropertyOp51
 70
     0
102
RTVSPropertyOp52
 70
     0
102
RTVSPropertyOp53
 70
     1
102
RTVSPropertyOp54
 70
     1
102
RTVSPropertyOp55
 70
     1
102
RTVSPropertyOp56
 70
     1
102
RTVSPropertyOp57
 70
     1
102
RTVSPropertyOp58
 70
     1
102
RTVSPropertyOp59
 70
     1
102
RTVSPropertyOp60
 70
     1
102
RTVSPropertyOp61
 70
     1
102
RTVSPropertyOp62
 70
     1
  0
XRECORD
  5
9CE3
102
{ACAD_REACTORS
330
9CE2
102
}
330
9CE2
100
AcDbXrecord
280
     1
102
RTVSPost2010Prop28
280
     0
102
RTVSPost2010PropOp28
 70
     1
102
RTVSPost2010Prop29
280
     1
102
RTVSPost2010PropOp29
 70
     1
102
RTVSPost2010Prop30
280
     1
102
RTVSPost2010PropOp30
 70
     1
102
RTVSPost2010Prop31
280
     0
102
RTVSPost2010PropOp31
 70
     1
102
RTVSPost2010Prop32
280
     0
102
RTVSPost2010PropOp32
 70
     1
102
RTVSPost2010Prop33
280
     0
102
RTVSPost2010PropOp33
 70
     1
102
RTVSPost2010Prop34
280
     0
102
RTVSPost2010PropOp34
 70
     1
102
RTVSPost2010Prop35
280
     0
102
RTVSPost2010PropOp35
 70
     1
102
RTVSPost2010Prop36
280
     0
102
RTVSPost2010PropOp36
 70
     1
102
RTVSPost2010Prop37
 90
       50
102
RTVSPost2010PropOp37
 70
     1
102
RTVSPost2010Prop38
140
0.0
102
RTVSPost2010PropOp38
 70
     1
102
RTVSPost2010Prop39
140
1.0
102
RTVSPost2010PropOp39
 70
     1
102
RTVSPost2010Prop40
 90
        0
102
RTVSPost2010PropOp40
 70
     1
102
RTVSPost2010Prop41ColorIndex
 90
       18
102
RTVSPost2010Prop41ColorRGB
 90
        0
102
RTVSPost2010PropOp41
 70
     1
102
RTVSPost2010Prop42
 90
       50
102
RTVSPost2010PropOp42
 70
     1
102
RTVSPost2010Prop43
 90
        3
102
RTVSPost2010PropOp43
 70
     1
102
RTVSPost2010Prop44ColorIndex
 90
        5
102
RTVSPost2010Prop44ColorRGB
 90
      255
102
RTVSPost2010PropOp44
 70
     1
102
RTVSPost2010Prop45
280
     0
102
RTVSPost2010PropOp45
 70
     1
102
RTVSPost2010Prop46
 90
       50
102
RTVSPost2010PropOp46
 70
     1
102
RTVSPost2010Prop47
 90
       50
102
RTVSPost2010PropOp47
 70
     1
102
RTVSPost2010Prop48
 90
       50
102
RTVSPost2010PropOp48
 70
     1
102
RTVSPost2010Prop49
280
     0
102
RTVSPost2010PropOp49
 70
     1
102
RTVSPost2010Prop50
 90
       50
102
RTVSPost2010PropOp50
 70
     1
102
RTVSPost2010Prop51ColorIndex
 90
      256
102
RTVSPost2010Prop51ColorRGB
 90
-16777216
102
RTVSPost2010PropOp51
 70
     0
102
RTVSPost2010Prop52
140
1.0
102
RTVSPost2010PropOp52
 70
     0
102
RTVSPost2010Prop53
 90
        2
102
RTVSPost2010PropOp53
 70
     1
102
RTVSPost2010Prop54
  1
strokes_ogs.tif
102
RTVSPost2010PropOp54
 70
     1
102
RTVSPost2010Prop55
280
     0
102
RTVSPost2010PropOp55
 70
     1
102
RTVSPost2010Prop56
140
1.0
102
RTVSPost2010PropOp56
 70
     1
102
RTVSPost2010Prop57
140
1.0
102
RTVSPost2010PropOp57
 70
     1
102
RTVSPropertyOp0
 70
     1
102
RTVSPropertyOp1
 70
     1
102
RTVSPropertyOp2
 70
     1
102
RTVSPropertyOp3
 70
     1
102
RTVSPropertyOp4
 70
     1
102
RTVSPropertyOp5
 70
     1
102
RTVSPropertyOp6
 70
     1
102
RTVSPropertyOp7
 70
     1
102
RTVSPropertyOp8
 70
     1
102
RTVSPropertyOp9
 70
     1
102
RTVSPropertyOp10
 70
     1
102
RTVSPropertyOp11
 70
     1
102
RTVSPropertyOp12
 70
     1
102
RTVSPropertyOp13
 70
     1
102
RTVSPropertyOp14
 70
     1
102
RTVSPropertyOp15
 70
     1
102
RTVSPropertyOp16
 70
     1
102
RTVSPropertyOp17
 70
     1
102
RTVSPropertyOp18
 70
     1
102
RTVSPropertyOp19
 70
     1
102
RTVSPropertyOp20
 70
     1
102
RTVSPropertyOp21
 70
     1
102
RTVSPropertyOp22
 70
     1
102
RTVSPropertyOp23
 70
     1
102
RTVSPropertyOp24
 70
     1
102
RTVSPropertyOp25
 70
     1
102
RTVSPropertyOp26
 70
     1
102
RTVSPropertyOp27
 70
     1
102
RTVSPropertyOp28
 70
     1
102
RTVSPropertyOp29
 70
     1
102
RTVSPropertyOp30
 70
     1
102
RTVSPropertyOp31
 70
     1
102
RTVSPropertyOp32
 70
     1
102
RTVSPropertyOp33
 70
     1
102
RTVSPropertyOp34
 70
     1
102
RTVSPropertyOp35
 70
     1
102
RTVSPropertyOp36
 70
     1
102
RTVSPropertyOp37
 70
     1
102
RTVSPropertyOp38
 70
     1
102
RTVSPropertyOp39
 70
     1
102
RTVSPropertyOp40
 70
     1
102
RTVSPropertyOp41
 70
     1
102
RTVSPropertyOp42
 70
     1
102
RTVSPropertyOp43
 70
     1
102
RTVSPropertyOp44
 70
     1
102
RTVSPropertyOp45
 70
     1
102
RTVSPropertyOp46
 70
     1
102
RTVSPropertyOp47
 70
     1
102
RTVSPropertyOp48
 70
     1
102
RTVSPropertyOp49
 70
     1
102
RTVSPropertyOp50
 70
     1
102
RTVSPropertyOp51
 70
     0
102
RTVSPropertyOp52
 70
     0
102
RTVSPropertyOp53
 70
     1
102
RTVSPropertyOp54
 70
     1
102
RTVSPropertyOp55
 70
     1
102
RTVSPropertyOp56
 70
     1
102
RTVSPropertyOp57
 70
     1
102
RTVSPropertyOp58
 70
     1
102
RTVSPropertyOp59
 70
     1
102
RTVSPropertyOp60
 70
     1
102
RTVSPropertyOp61
 70
     1
102
RTVSPropertyOp62
 70
     1
  0
XRECORD
  5
9CE5
102
{ACAD_REACTORS
330
9CE4
102
}
330
9CE4
100
AcDbXrecord
280
     1
102
RTVSPost2010Prop28
280
     0
102
RTVSPost2010PropOp28
 70
     1
102
RTVSPost2010Prop29
280
     1
102
RTVSPost2010PropOp29
 70
     1
102
RTVSPost2010Prop30
280
     1
102
RTVSPost2010PropOp30
 70
     1
102
RTVSPost2010Prop31
280
     0
102
RTVSPost2010PropOp31
 70
     1
102
RTVSPost2010Prop32
280
     0
102
RTVSPost2010PropOp32
 70
     1
102
RTVSPost2010Prop33
280
     0
102
RTVSPost2010PropOp33
 70
     1
102
RTVSPost2010Prop34
280
     0
102
RTVSPost2010PropOp34
 70
     1
102
RTVSPost2010Prop35
280
     0
102
RTVSPost2010PropOp35
 70
     1
102
RTVSPost2010Prop36
280
     0
102
RTVSPost2010PropOp36
 70
     1
102
RTVSPost2010Prop37
 90
       50
102
RTVSPost2010PropOp37
 70
     1
102
RTVSPost2010Prop38
140
0.0
102
RTVSPost2010PropOp38
 70
     1
102
RTVSPost2010Prop39
140
1.0
102
RTVSPost2010PropOp39
 70
     1
102
RTVSPost2010Prop40
 90
        0
102
RTVSPost2010PropOp40
 70
     1
102
RTVSPost2010Prop41ColorIndex
 90
       18
102
RTVSPost2010Prop41ColorRGB
 90
        0
102
RTVSPost2010PropOp41
 70
     1
102
RTVSPost2010Prop42
 90
       50
102
RTVSPost2010PropOp42
 70
     1
102
RTVSPost2010Prop43
 90
        3
102
RTVSPost2010PropOp43
 70
     1
102
RTVSPost2010Prop44ColorIndex
 90
        5
102
RTVSPost2010Prop44ColorRGB
 90
      255
102
RTVSPost2010PropOp44
 70
     1
102
RTVSPost2010Prop45
280
     0
102
RTVSPost2010PropOp45
 70
     1
102
RTVSPost2010Prop46
 90
       50
102
RTVSPost2010PropOp46
 70
     1
102
RTVSPost2010Prop47
 90
       50
102
RTVSPost2010PropOp47
 70
     1
102
RTVSPost2010Prop48
 90
       50
102
RTVSPost2010PropOp48
 70
     1
102
RTVSPost2010Prop49
280
     0
102
RTVSPost2010PropOp49
 70
     1
102
RTVSPost2010Prop50
 90
       50
102
RTVSPost2010PropOp50
 70
     1
102
RTVSPost2010Prop51ColorIndex
 90
      256
102
RTVSPost2010Prop51ColorRGB
 90
-16777216
102
RTVSPost2010PropOp51
 70
     0
102
RTVSPost2010Prop52
140
1.0
102
RTVSPost2010PropOp52
 70
     0
102
RTVSPost2010Prop53
 90
        2
102
RTVSPost2010PropOp53
 70
     1
102
RTVSPost2010Prop54
  1
strokes_ogs.tif
102
RTVSPost2010PropOp54
 70
     1
102
RTVSPost2010Prop55
280
     0
102
RTVSPost2010PropOp55
 70
     1
102
RTVSPost2010Prop56
140
1.0
102
RTVSPost2010PropOp56
 70
     1
102
RTVSPost2010Prop57
140
1.0
102
RTVSPost2010PropOp57
 70
     1
102
RTVSPropertyOp0
 70
     1
102
RTVSPropertyOp1
 70
     1
102
RTVSPropertyOp2
 70
     1
102
RTVSPropertyOp3
 70
     1
102
RTVSPropertyOp4
 70
     1
102
RTVSPropertyOp5
 70
     1
102
RTVSPropertyOp6
 70
     1
102
RTVSPropertyOp7
 70
     1
102
RTVSPropertyOp8
 70
     1
102
RTVSPropertyOp9
 70
     1
102
RTVSPropertyOp10
 70
     1
102
RTVSPropertyOp11
 70
     1
102
RTVSPropertyOp12
 70
     1
102
RTVSPropertyOp13
 70
     1
102
RTVSPropertyOp14
 70
     1
102
RTVSPropertyOp15
 70
     1
102
RTVSPropertyOp16
 70
     1
102
RTVSPropertyOp17
 70
     1
102
RTVSPropertyOp18
 70
     1
102
RTVSPropertyOp19
 70
     1
102
RTVSPropertyOp20
 70
     1
102
RTVSPropertyOp21
 70
     1
102
RTVSPropertyOp22
 70
     1
102
RTVSPropertyOp23
 70
     1
102
RTVSPropertyOp24
 70
     1
102
RTVSPropertyOp25
 70
     1
102
RTVSPropertyOp26
 70
     1
102
RTVSPropertyOp27
 70
     1
102
RTVSPropertyOp28
 70
     1
102
RTVSPropertyOp29
 70
     1
102
RTVSPropertyOp30
 70
     1
102
RTVSPropertyOp31
 70
     1
102
RTVSPropertyOp32
 70
     1
102
RTVSPropertyOp33
 70
     1
102
RTVSPropertyOp34
 70
     1
102
RTVSPropertyOp35
 70
     1
102
RTVSPropertyOp36
 70
     1
102
RTVSPropertyOp37
 70
     1
102
RTVSPropertyOp38
 70
     1
102
RTVSPropertyOp39
 70
     1
102
RTVSPropertyOp40
 70
     1
102
RTVSPropertyOp41
 70
     1
102
RTVSPropertyOp42
 70
     1
102
RTVSPropertyOp43
 70
     1
102
RTVSPropertyOp44
 70
     1
102
RTVSPropertyOp45
 70
     1
102
RTVSPropertyOp46
 70
     1
102
RTVSPropertyOp47
 70
     1
102
RTVSPropertyOp48
 70
     1
102
RTVSPropertyOp49
 70
     1
102
RTVSPropertyOp50
 70
     1
102
RTVSPropertyOp51
 70
     0
102
RTVSPropertyOp52
 70
     0
102
RTVSPropertyOp53
 70
     1
102
RTVSPropertyOp54
 70
     1
102
RTVSPropertyOp55
 70
     1
102
RTVSPropertyOp56
 70
     1
102
RTVSPropertyOp57
 70
     1
102
RTVSPropertyOp58
 70
     1
102
RTVSPropertyOp59
 70
     1
102
RTVSPropertyOp60
 70
     1
102
RTVSPropertyOp61
 70
     1
102
RTVSPropertyOp62
 70
     1
  0
XRECORD
  5
9CE7
102
{ACAD_REACTORS
330
9CE6
102
}
330
9CE6
100
AcDbXrecord
280
     1
102
RTVSPost2010Prop28
280
     0
102
RTVSPost2010PropOp28
 70
     1
102
RTVSPost2010Prop29
280
     1
102
RTVSPost2010PropOp29
 70
     1
102
RTVSPost2010Prop30
280
     1
102
RTVSPost2010PropOp30
 70
     1
102
RTVSPost2010Prop31
280
     0
102
RTVSPost2010PropOp31
 70
     1
102
RTVSPost2010Prop32
280
     0
102
RTVSPost2010PropOp32
 70
     1
102
RTVSPost2010Prop33
280
     0
102
RTVSPost2010PropOp33
 70
     1
102
RTVSPost2010Prop34
280
     0
102
RTVSPost2010PropOp34
 70
     1
102
RTVSPost2010Prop35
280
     0
102
RTVSPost2010PropOp35
 70
     1
102
RTVSPost2010Prop36
280
     0
102
RTVSPost2010PropOp36
 70
     1
102
RTVSPost2010Prop37
 90
       50
102
RTVSPost2010PropOp37
 70
     1
102
RTVSPost2010Prop38
140
0.0
102
RTVSPost2010PropOp38
 70
     1
102
RTVSPost2010Prop39
140
1.0
102
RTVSPost2010PropOp39
 70
     1
102
RTVSPost2010Prop40
 90
        0
102
RTVSPost2010PropOp40
 70
     1
102
RTVSPost2010Prop41ColorIndex
 90
       18
102
RTVSPost2010Prop41ColorRGB
 90
        0
102
RTVSPost2010PropOp41
 70
     1
102
RTVSPost2010Prop42
 90
       50
102
RTVSPost2010PropOp42
 70
     1
102
RTVSPost2010Prop43
 90
        3
102
RTVSPost2010PropOp43
 70
     1
102
RTVSPost2010Prop44ColorIndex
 90
        5
102
RTVSPost2010Prop44ColorRGB
 90
      255
102
RTVSPost2010PropOp44
 70
     1
102
RTVSPost2010Prop45
280
     0
102
RTVSPost2010PropOp45
 70
     1
102
RTVSPost2010Prop46
 90
       50
102
RTVSPost2010PropOp46
 70
     1
102
RTVSPost2010Prop47
 90
       50
102
RTVSPost2010PropOp47
 70
     1
102
RTVSPost2010Prop48
 90
       50
102
RTVSPost2010PropOp48
 70
     1
102
RTVSPost2010Prop49
280
     0
102
RTVSPost2010PropOp49
 70
     1
102
RTVSPost2010Prop50
 90
       50
102
RTVSPost2010PropOp50
 70
     1
102
RTVSPost2010Prop51ColorIndex
 90
      256
102
RTVSPost2010Prop51ColorRGB
 90
-16777216
102
RTVSPost2010PropOp51
 70
     0
102
RTVSPost2010Prop52
140
1.0
102
RTVSPost2010PropOp52
 70
     0
102
RTVSPost2010Prop53
 90
        2
102
RTVSPost2010PropOp53
 70
     1
102
RTVSPost2010Prop54
  1
strokes_ogs.tif
102
RTVSPost2010PropOp54
 70
     1
102
RTVSPost2010Prop55
280
     0
102
RTVSPost2010PropOp55
 70
     1
102
RTVSPost2010Prop56
140
1.0
102
RTVSPost2010PropOp56
 70
     1
102
RTVSPost2010Prop57
140
1.0
102
RTVSPost2010PropOp57
 70
     1
102
RTVSPropertyOp0
 70
     1
102
RTVSPropertyOp1
 70
     1
102
RTVSPropertyOp2
 70
     1
102
RTVSPropertyOp3
 70
     1
102
RTVSPropertyOp4
 70
     1
102
RTVSPropertyOp5
 70
     1
102
RTVSPropertyOp6
 70
     1
102
RTVSPropertyOp7
 70
     1
102
RTVSPropertyOp8
 70
     1
102
RTVSPropertyOp9
 70
     1
102
RTVSPropertyOp10
 70
     1
102
RTVSPropertyOp11
 70
     1
102
RTVSPropertyOp12
 70
     1
102
RTVSPropertyOp13
 70
     1
102
RTVSPropertyOp14
 70
     1
102
RTVSPropertyOp15
 70
     1
102
RTVSPropertyOp16
 70
     1
102
RTVSPropertyOp17
 70
     1
102
RTVSPropertyOp18
 70
     1
102
RTVSPropertyOp19
 70
     1
102
RTVSPropertyOp20
 70
     1
102
RTVSPropertyOp21
 70
     1
102
RTVSPropertyOp22
 70
     1
102
RTVSPropertyOp23
 70
     1
102
RTVSPropertyOp24
 70
     1
102
RTVSPropertyOp25
 70
     1
102
RTVSPropertyOp26
 70
     1
102
RTVSPropertyOp27
 70
     1
102
RTVSPropertyOp28
 70
     1
102
RTVSPropertyOp29
 70
     1
102
RTVSPropertyOp30
 70
     1
102
RTVSPropertyOp31
 70
     1
102
RTVSPropertyOp32
 70
     1
102
RTVSPropertyOp33
 70
     1
102
RTVSPropertyOp34
 70
     1
102
RTVSPropertyOp35
 70
     1
102
RTVSPropertyOp36
 70
     1
102
RTVSPropertyOp37
 70
     1
102
RTVSPropertyOp38
 70
     1
102
RTVSPropertyOp39
 70
     1
102
RTVSPropertyOp40
 70
     1
102
RTVSPropertyOp41
 70
     1
102
RTVSPropertyOp42
 70
     1
102
RTVSPropertyOp43
 70
     1
102
RTVSPropertyOp44
 70
     1
102
RTVSPropertyOp45
 70
     1
102
RTVSPropertyOp46
 70
     1
102
RTVSPropertyOp47
 70
     1
102
RTVSPropertyOp48
 70
     1
102
RTVSPropertyOp49
 70
     1
102
RTVSPropertyOp50
 70
     1
102
RTVSPropertyOp51
 70
     0
102
RTVSPropertyOp52
 70
     0
102
RTVSPropertyOp53
 70
     1
102
RTVSPropertyOp54
 70
     1
102
RTVSPropertyOp55
 70
     1
102
RTVSPropertyOp56
 70
     1
102
RTVSPropertyOp57
 70
     1
102
RTVSPropertyOp58
 70
     1
102
RTVSPropertyOp59
 70
     1
102
RTVSPropertyOp60
 70
     1
102
RTVSPropertyOp61
 70
     1
102
RTVSPropertyOp62
 70
     1
  0
XRECORD
  5
9CEF
102
{ACAD_REACTORS
330
9CEE
102
}
330
9CEE
100
AcDbXrecord
280
     1
102
RTVSPost2010Prop28
280
     0
102
RTVSPost2010PropOp28
 70
     1
102
RTVSPost2010Prop29
280
     1
102
RTVSPost2010PropOp29
 70
     1
102
RTVSPost2010Prop30
280
     1
102
RTVSPost2010PropOp30
 70
     1
102
RTVSPost2010Prop31
280
     0
102
RTVSPost2010PropOp31
 70
     1
102
RTVSPost2010Prop32
280
     0
102
RTVSPost2010PropOp32
 70
     1
102
RTVSPost2010Prop33
280
     0
102
RTVSPost2010PropOp33
 70
     1
102
RTVSPost2010Prop34
280
     0
102
RTVSPost2010PropOp34
 70
     1
102
RTVSPost2010Prop35
280
     0
102
RTVSPost2010PropOp35
 70
     1
102
RTVSPost2010Prop36
280
     0
102
RTVSPost2010PropOp36
 70
     1
102
RTVSPost2010Prop37
 90
       50
102
RTVSPost2010PropOp37
 70
     1
102
RTVSPost2010Prop38
140
0.0
102
RTVSPost2010PropOp38
 70
     1
102
RTVSPost2010Prop39
140
1.0
102
RTVSPost2010PropOp39
 70
     1
102
RTVSPost2010Prop40
 90
        0
102
RTVSPost2010PropOp40
 70
     1
102
RTVSPost2010Prop41ColorIndex
 90
       18
102
RTVSPost2010Prop41ColorRGB
 90
        0
102
RTVSPost2010PropOp41
 70
     1
102
RTVSPost2010Prop42
 90
       50
102
RTVSPost2010PropOp42
 70
     1
102
RTVSPost2010Prop43
 90
        3
102
RTVSPost2010PropOp43
 70
     1
102
RTVSPost2010Prop44ColorIndex
 90
        5
102
RTVSPost2010Prop44ColorRGB
 90
      255
102
RTVSPost2010PropOp44
 70
     1
102
RTVSPost2010Prop45
280
     0
102
RTVSPost2010PropOp45
 70
     1
102
RTVSPost2010Prop46
 90
       50
102
RTVSPost2010PropOp46
 70
     1
102
RTVSPost2010Prop47
 90
       50
102
RTVSPost2010PropOp47
 70
     1
102
RTVSPost2010Prop48
 90
       50
102
RTVSPost2010PropOp48
 70
     1
102
RTVSPost2010Prop49
280
     0
102
RTVSPost2010PropOp49
 70
     1
102
RTVSPost2010Prop50
 90
       50
102
RTVSPost2010PropOp50
 70
     1
102
RTVSPost2010Prop51ColorIndex
 90
      256
102
RTVSPost2010Prop51ColorRGB
 90
-16777216
102
RTVSPost2010PropOp51
 70
     0
102
RTVSPost2010Prop52
140
1.0
102
RTVSPost2010PropOp52
 70
     0
102
RTVSPost2010Prop53
 90
        2
102
RTVSPost2010PropOp53
 70
     1
102
RTVSPost2010Prop54
  1
strokes_ogs.tif
102
RTVSPost2010PropOp54
 70
     1
102
RTVSPost2010Prop55
280
     0
102
RTVSPost2010PropOp55
 70
     1
102
RTVSPost2010Prop56
140
1.0
102
RTVSPost2010PropOp56
 70
     1
102
RTVSPost2010Prop57
140
1.0
102
RTVSPost2010PropOp57
 70
     1
102
RTVSPropertyOp0
 70
     1
102
RTVSPropertyOp1
 70
     1
102
RTVSPropertyOp2
 70
     1
102
RTVSPropertyOp3
 70
     1
102
RTVSPropertyOp4
 70
     1
102
RTVSPropertyOp5
 70
     1
102
RTVSPropertyOp6
 70
     1
102
RTVSPropertyOp7
 70
     1
102
RTVSPropertyOp8
 70
     1
102
RTVSPropertyOp9
 70
     1
102
RTVSPropertyOp10
 70
     1
102
RTVSPropertyOp11
 70
     1
102
RTVSPropertyOp12
 70
     1
102
RTVSPropertyOp13
 70
     1
102
RTVSPropertyOp14
 70
     1
102
RTVSPropertyOp15
 70
     1
102
RTVSPropertyOp16
 70
     1
102
RTVSPropertyOp17
 70
     1
102
RTVSPropertyOp18
 70
     1
102
RTVSPropertyOp19
 70
     1
102
RTVSPropertyOp20
 70
     1
102
RTVSPropertyOp21
 70
     1
102
RTVSPropertyOp22
 70
     1
102
RTVSPropertyOp23
 70
     1
102
RTVSPropertyOp24
 70
     1
102
RTVSPropertyOp25
 70
     1
102
RTVSPropertyOp26
 70
     1
102
RTVSPropertyOp27
 70
     1
102
RTVSPropertyOp28
 70
     1
102
RTVSPropertyOp29
 70
     1
102
RTVSPropertyOp30
 70
     1
102
RTVSPropertyOp31
 70
     1
102
RTVSPropertyOp32
 70
     1
102
RTVSPropertyOp33
 70
     1
102
RTVSPropertyOp34
 70
     1
102
RTVSPropertyOp35
 70
     1
102
RTVSPropertyOp36
 70
     1
102
RTVSPropertyOp37
 70
     1
102
RTVSPropertyOp38
 70
     1
102
RTVSPropertyOp39
 70
     1
102
RTVSPropertyOp40
 70
     1
102
RTVSPropertyOp41
 70
     1
102
RTVSPropertyOp42
 70
     1
102
RTVSPropertyOp43
 70
     1
102
RTVSPropertyOp44
 70
     1
102
RTVSPropertyOp45
 70
     1
102
RTVSPropertyOp46
 70
     1
102
RTVSPropertyOp47
 70
     1
102
RTVSPropertyOp48
 70
     1
102
RTVSPropertyOp49
 70
     1
102
RTVSPropertyOp50
 70
     1
102
RTVSPropertyOp51
 70
     0
102
RTVSPropertyOp52
 70
     0
102
RTVSPropertyOp53
 70
     1
102
RTVSPropertyOp54
 70
     1
102
RTVSPropertyOp55
 70
     1
102
RTVSPropertyOp56
 70
     1
102
RTVSPropertyOp57
 70
     1
102
RTVSPropertyOp58
 70
     1
102
RTVSPropertyOp59
 70
     1
102
RTVSPropertyOp60
 70
     1
102
RTVSPropertyOp61
 70
     1
102
RTVSPropertyOp62
 70
     1
  0
XRECORD
  5
9D0B
102
{ACAD_REACTORS
330
9D0A
102
}
330
9D0A
100
AcDbXrecord
280
     1
102
RTVSPost2010Prop28
280
     0
102
RTVSPost2010PropOp28
 70
     1
102
RTVSPost2010Prop29
280
     1
102
RTVSPost2010PropOp29
 70
     1
102
RTVSPost2010Prop30
280
     1
102
RTVSPost2010PropOp30
 70
     1
102
RTVSPost2010Prop31
280
     0
102
RTVSPost2010PropOp31
 70
     1
102
RTVSPost2010Prop32
280
     0
102
RTVSPost2010PropOp32
 70
     1
102
RTVSPost2010Prop33
280
     0
102
RTVSPost2010PropOp33
 70
     1
102
RTVSPost2010Prop34
280
     0
102
RTVSPost2010PropOp34
 70
     1
102
RTVSPost2010Prop35
280
     0
102
RTVSPost2010PropOp35
 70
     1
102
RTVSPost2010Prop36
280
     0
102
RTVSPost2010PropOp36
 70
     1
102
RTVSPost2010Prop37
 90
       50
102
RTVSPost2010PropOp37
 70
     0
102
RTVSPost2010Prop38
140
0.0
102
RTVSPost2010PropOp38
 70
     0
102
RTVSPost2010Prop39
140
1.0
102
RTVSPost2010PropOp39
 70
     0
102
RTVSPost2010Prop40
 90
        0
102
RTVSPost2010PropOp40
 70
     0
102
RTVSPost2010Prop41ColorIndex
 90
       18
102
RTVSPost2010Prop41ColorRGB
 90
        0
102
RTVSPost2010PropOp41
 70
     0
102
RTVSPost2010Prop42
 90
       50
102
RTVSPost2010PropOp42
 70
     0
102
RTVSPost2010Prop43
 90
        3
102
RTVSPost2010PropOp43
 70
     0
102
RTVSPost2010Prop44ColorIndex
 90
        5
102
RTVSPost2010Prop44ColorRGB
 90
      255
102
RTVSPost2010PropOp44
 70
     0
102
RTVSPost2010Prop45
280
     0
102
RTVSPost2010PropOp45
 70
     1
102
RTVSPost2010Prop46
 90
       50
102
RTVSPost2010PropOp46
 70
     0
102
RTVSPost2010Prop47
 90
       50
102
RTVSPost2010PropOp47
 70
     0
102
RTVSPost2010Prop48
 90
       50
102
RTVSPost2010PropOp48
 70
     0
102
RTVSPost2010Prop49
280
     0
102
RTVSPost2010PropOp49
 70
     1
102
RTVSPost2010Prop50
 90
       50
102
RTVSPost2010PropOp50
 70
     0
102
RTVSPost2010Prop51ColorIndex
 90
      256
102
RTVSPost2010Prop51ColorRGB
 90
-16777216
102
RTVSPost2010PropOp51
 70
     0
102
RTVSPost2010Prop52
140
1.0
102
RTVSPost2010PropOp52
 70
     0
102
RTVSPost2010Prop53
 90
        2
102
RTVSPost2010PropOp53
 70
     0
102
RTVSPost2010Prop54
  1
strokes_ogs.tif
102
RTVSPost2010PropOp54
 70
     0
102
RTVSPost2010Prop55
280
     0
102
RTVSPost2010PropOp55
 70
     1
102
RTVSPost2010Prop56
140
1.0
102
RTVSPost2010PropOp56
 70
     0
102
RTVSPost2010Prop57
140
1.0
102
RTVSPost2010PropOp57
 70
     0
102
RTVSPropertyOp0
 70
     0
102
RTVSPropertyOp1
 70
     0
102
RTVSPropertyOp2
 70
     0
102
RTVSPropertyOp3
 70
     0
102
RTVSPropertyOp4
 70
     0
102
RTVSPropertyOp5
 70
     0
102
RTVSPropertyOp6
 70
     0
102
RTVSPropertyOp7
 70
     0
102
RTVSPropertyOp8
 70
     0
102
RTVSPropertyOp9
 70
     0
102
RTVSPropertyOp10
 70
     0
102
RTVSPropertyOp11
 70
     0
102
RTVSPropertyOp12
 70
     0
102
RTVSPropertyOp13
 70
     0
102
RTVSPropertyOp14
 70
     2
102
RTVSPropertyOp15
 70
     0
102
RTVSPropertyOp16
 70
     0
102
RTVSPropertyOp17
 70
     0
102
RTVSPropertyOp18
 70
     0
102
RTVSPropertyOp19
 70
     0
102
RTVSPropertyOp20
 70
     0
102
RTVSPropertyOp21
 70
     0
102
RTVSPropertyOp22
 70
     0
102
RTVSPropertyOp23
 70
     0
102
RTVSPropertyOp24
 70
     0
102
RTVSPropertyOp25
 70
     0
102
RTVSPropertyOp26
 70
     0
102
RTVSPropertyOp27
 70
     0
102
RTVSPropertyOp28
 70
     1
102
RTVSPropertyOp29
 70
     1
102
RTVSPropertyOp30
 70
     1
102
RTVSPropertyOp31
 70
     1
102
RTVSPropertyOp32
 70
     1
102
RTVSPropertyOp33
 70
     1
102
RTVSPropertyOp34
 70
     1
102
RTVSPropertyOp35
 70
     1
102
RTVSPropertyOp36
 70
     1
102
RTVSPropertyOp37
 70
     0
102
RTVSPropertyOp38
 70
     0
102
RTVSPropertyOp39
 70
     0
102
RTVSPropertyOp40
 70
     0
102
RTVSPropertyOp41
 70
     0
102
RTVSPropertyOp42
 70
     0
102
RTVSPropertyOp43
 70
     0
102
RTVSPropertyOp44
 70
     0
102
RTVSPropertyOp45
 70
     1
102
RTVSPropertyOp46
 70
     0
102
RTVSPropertyOp47
 70
     0
102
RTVSPropertyOp48
 70
     0
102
RTVSPropertyOp49
 70
     1
102
RTVSPropertyOp50
 70
     0
102
RTVSPropertyOp51
 70
     0
102
RTVSPropertyOp52
 70
     0
102
RTVSPropertyOp53
 70
     0
102
RTVSPropertyOp54
 70
     0
102
RTVSPropertyOp55
 70
     1
102
RTVSPropertyOp56
 70
     0
102
RTVSPropertyOp57
 70
     0
102
RTVSPropertyOp58
 70
     0
102
RTVSPropertyOp59
 70
     0
102
RTVSPropertyOp60
 70
     0
102
RTVSPropertyOp61
 70
     0
102
RTVSPropertyOp62
 70
     0
  0
XRECORD
  5
9CFB
102
{ACAD_REACTORS
330
9CFA
102
}
330
9CFA
100
AcDbXrecord
280
     1
102
RTVSPost2010Prop28
280
     0
102
RTVSPost2010PropOp28
 70
     1
102
RTVSPost2010Prop29
280
     1
102
RTVSPost2010PropOp29
 70
     1
102
RTVSPost2010Prop30
280
     1
102
RTVSPost2010PropOp30
 70
     1
102
RTVSPost2010Prop31
280
     0
102
RTVSPost2010PropOp31
 70
     1
102
RTVSPost2010Prop32
280
     0
102
RTVSPost2010PropOp32
 70
     1
102
RTVSPost2010Prop33
280
     0
102
RTVSPost2010PropOp33
 70
     1
102
RTVSPost2010Prop34
280
     0
102
RTVSPost2010PropOp34
 70
     1
102
RTVSPost2010Prop35
280
     0
102
RTVSPost2010PropOp35
 70
     1
102
RTVSPost2010Prop36
280
     0
102
RTVSPost2010PropOp36
 70
     1
102
RTVSPost2010Prop37
 90
       50
102
RTVSPost2010PropOp37
 70
     1
102
RTVSPost2010Prop38
140
0.0
102
RTVSPost2010PropOp38
 70
     1
102
RTVSPost2010Prop39
140
1.0
102
RTVSPost2010PropOp39
 70
     1
102
RTVSPost2010Prop40
 90
        0
102
RTVSPost2010PropOp40
 70
     1
102
RTVSPost2010Prop41ColorIndex
 90
       18
102
RTVSPost2010Prop41ColorRGB
 90
        0
102
RTVSPost2010PropOp41
 70
     1
102
RTVSPost2010Prop42
 90
       50
102
RTVSPost2010PropOp42
 70
     1
102
RTVSPost2010Prop43
 90
        3
102
RTVSPost2010PropOp43
 70
     1
102
RTVSPost2010Prop44ColorIndex
 90
        5
102
RTVSPost2010Prop44ColorRGB
 90
      255
102
RTVSPost2010PropOp44
 70
     1
102
RTVSPost2010Prop45
280
     0
102
RTVSPost2010PropOp45
 70
     1
102
RTVSPost2010Prop46
 90
       50
102
RTVSPost2010PropOp46
 70
     1
102
RTVSPost2010Prop47
 90
       50
102
RTVSPost2010PropOp47
 70
     1
102
RTVSPost2010Prop48
 90
       50
102
RTVSPost2010PropOp48
 70
     1
102
RTVSPost2010Prop49
280
     0
102
RTVSPost2010PropOp49
 70
     1
102
RTVSPost2010Prop50
 90
       50
102
RTVSPost2010PropOp50
 70
     1
102
RTVSPost2010Prop51ColorIndex
 90
      256
102
RTVSPost2010Prop51ColorRGB
 90
-16777216
102
RTVSPost2010PropOp51
 70
     0
102
RTVSPost2010Prop52
140
1.0
102
RTVSPost2010PropOp52
 70
     0
102
RTVSPost2010Prop53
 90
        2
102
RTVSPost2010PropOp53
 70
     1
102
RTVSPost2010Prop54
  1
strokes_ogs.tif
102
RTVSPost2010PropOp54
 70
     1
102
RTVSPost2010Prop55
280
     0
102
RTVSPost2010PropOp55
 70
     1
102
RTVSPost2010Prop56
140
1.0
102
RTVSPost2010PropOp56
 70
     1
102
RTVSPost2010Prop57
140
1.0
102
RTVSPost2010PropOp57
 70
     1
102
RTVSPropertyOp0
 70
     1
102
RTVSPropertyOp1
 70
     1
102
RTVSPropertyOp2
 70
     1
102
RTVSPropertyOp3
 70
     1
102
RTVSPropertyOp4
 70
     1
102
RTVSPropertyOp5
 70
     1
102
RTVSPropertyOp6
 70
     1
102
RTVSPropertyOp7
 70
     1
102
RTVSPropertyOp8
 70
     1
102
RTVSPropertyOp9
 70
     1
102
RTVSPropertyOp10
 70
     1
102
RTVSPropertyOp11
 70
     1
102
RTVSPropertyOp12
 70
     1
102
RTVSPropertyOp13
 70
     1
102
RTVSPropertyOp14
 70
     1
102
RTVSPropertyOp15
 70
     1
102
RTVSPropertyOp16
 70
     1
102
RTVSPropertyOp17
 70
     1
102
RTVSPropertyOp18
 70
     1
102
RTVSPropertyOp19
 70
     1
102
RTVSPropertyOp20
 70
     1
102
RTVSPropertyOp21
 70
     1
102
RTVSPropertyOp22
 70
     1
102
RTVSPropertyOp23
 70
     1
102
RTVSPropertyOp24
 70
     1
102
RTVSPropertyOp25
 70
     1
102
RTVSPropertyOp26
 70
     1
102
RTVSPropertyOp27
 70
     1
102
RTVSPropertyOp28
 70
     1
102
RTVSPropertyOp29
 70
     1
102
RTVSPropertyOp30
 70
     1
102
RTVSPropertyOp31
 70
     1
102
RTVSPropertyOp32
 70
     1
102
RTVSPropertyOp33
 70
     1
102
RTVSPropertyOp34
 70
     1
102
RTVSPropertyOp35
 70
     1
102
RTVSPropertyOp36
 70
     1
102
RTVSPropertyOp37
 70
     1
102
RTVSPropertyOp38
 70
     1
102
RTVSPropertyOp39
 70
     1
102
RTVSPropertyOp40
 70
     1
102
RTVSPropertyOp41
 70
     1
102
RTVSPropertyOp42
 70
     1
102
RTVSPropertyOp43
 70
     1
102
RTVSPropertyOp44
 70
     1
102
RTVSPropertyOp45
 70
     1
102
RTVSPropertyOp46
 70
     1
102
RTVSPropertyOp47
 70
     1
102
RTVSPropertyOp48
 70
     1
102
RTVSPropertyOp49
 70
     1
102
RTVSPropertyOp50
 70
     1
102
RTVSPropertyOp51
 70
     0
102
RTVSPropertyOp52
 70
     0
102
RTVSPropertyOp53
 70
     1
102
RTVSPropertyOp54
 70
     1
102
RTVSPropertyOp55
 70
     1
102
RTVSPropertyOp56
 70
     1
102
RTVSPropertyOp57
 70
     1
102
RTVSPropertyOp58
 70
     1
102
RTVSPropertyOp59
 70
     1
102
RTVSPropertyOp60
 70
     1
102
RTVSPropertyOp61
 70
     1
102
RTVSPropertyOp62
 70
     1
  0
XRECORD
  5
9D0D
102
{ACAD_REACTORS
330
9D0C
102
}
330
9D0C
100
AcDbXrecord
280
     1
102
RTVSPost2010Prop28
280
     0
102
RTVSPost2010PropOp28
 70
     1
102
RTVSPost2010Prop29
280
     1
102
RTVSPost2010PropOp29
 70
     1
102
RTVSPost2010Prop30
280
     1
102
RTVSPost2010PropOp30
 70
     1
102
RTVSPost2010Prop31
280
     0
102
RTVSPost2010PropOp31
 70
     1
102
RTVSPost2010Prop32
280
     0
102
RTVSPost2010PropOp32
 70
     1
102
RTVSPost2010Prop33
280
     0
102
RTVSPost2010PropOp33
 70
     1
102
RTVSPost2010Prop34
280
     0
102
RTVSPost2010PropOp34
 70
     1
102
RTVSPost2010Prop35
280
     0
102
RTVSPost2010PropOp35
 70
     1
102
RTVSPost2010Prop36
280
     0
102
RTVSPost2010PropOp36
 70
     1
102
RTVSPost2010Prop37
 90
       50
102
RTVSPost2010PropOp37
 70
     0
102
RTVSPost2010Prop38
140
0.0
102
RTVSPost2010PropOp38
 70
     0
102
RTVSPost2010Prop39
140
1.0
102
RTVSPost2010PropOp39
 70
     0
102
RTVSPost2010Prop40
 90
        0
102
RTVSPost2010PropOp40
 70
     0
102
RTVSPost2010Prop41ColorIndex
 90
       18
102
RTVSPost2010Prop41ColorRGB
 90
        0
102
RTVSPost2010PropOp41
 70
     0
102
RTVSPost2010Prop42
 90
       50
102
RTVSPost2010PropOp42
 70
     0
102
RTVSPost2010Prop43
 90
        3
102
RTVSPost2010PropOp43
 70
     0
102
RTVSPost2010Prop44ColorIndex
 90
        5
102
RTVSPost2010Prop44ColorRGB
 90
      255
102
RTVSPost2010PropOp44
 70
     0
102
RTVSPost2010Prop45
280
     0
102
RTVSPost2010PropOp45
 70
     1
102
RTVSPost2010Prop46
 90
       50
102
RTVSPost2010PropOp46
 70
     0
102
RTVSPost2010Prop47
 90
       50
102
RTVSPost2010PropOp47
 70
     0
102
RTVSPost2010Prop48
 90
       50
102
RTVSPost2010PropOp48
 70
     0
102
RTVSPost2010Prop49
280
     0
102
RTVSPost2010PropOp49
 70
     1
102
RTVSPost2010Prop50
 90
       50
102
RTVSPost2010PropOp50
 70
     0
102
RTVSPost2010Prop51ColorIndex
 90
      256
102
RTVSPost2010Prop51ColorRGB
 90
-16777216
102
RTVSPost2010PropOp51
 70
     0
102
RTVSPost2010Prop52
140
1.0
102
RTVSPost2010PropOp52
 70
     0
102
RTVSPost2010Prop53
 90
        2
102
RTVSPost2010PropOp53
 70
     0
102
RTVSPost2010Prop54
  1
strokes_ogs.tif
102
RTVSPost2010PropOp54
 70
     0
102
RTVSPost2010Prop55
280
     0
102
RTVSPost2010PropOp55
 70
     1
102
RTVSPost2010Prop56
140
1.0
102
RTVSPost2010PropOp56
 70
     0
102
RTVSPost2010Prop57
140
1.0
102
RTVSPost2010PropOp57
 70
     0
102
RTVSPropertyOp0
 70
     0
102
RTVSPropertyOp1
 70
     0
102
RTVSPropertyOp2
 70
     0
102
RTVSPropertyOp3
 70
     0
102
RTVSPropertyOp4
 70
     0
102
RTVSPropertyOp5
 70
     0
102
RTVSPropertyOp6
 70
     0
102
RTVSPropertyOp7
 70
     0
102
RTVSPropertyOp8
 70
     0
102
RTVSPropertyOp9
 70
     0
102
RTVSPropertyOp10
 70
     0
102
RTVSPropertyOp11
 70
     0
102
RTVSPropertyOp12
 70
     0
102
RTVSPropertyOp13
 70
     0
102
RTVSPropertyOp14
 70
     2
102
RTVSPropertyOp15
 70
     0
102
RTVSPropertyOp16
 70
     0
102
RTVSPropertyOp17
 70
     0
102
RTVSPropertyOp18
 70
     0
102
RTVSPropertyOp19
 70
     0
102
RTVSPropertyOp20
 70
     0
102
RTVSPropertyOp21
 70
     0
102
RTVSPropertyOp22
 70
     0
102
RTVSPropertyOp23
 70
     0
102
RTVSPropertyOp24
 70
     0
102
RTVSPropertyOp25
 70
     0
102
RTVSPropertyOp26
 70
     0
102
RTVSPropertyOp27
 70
     0
102
RTVSPropertyOp28
 70
     1
102
RTVSPropertyOp29
 70
     1
102
RTVSPropertyOp30
 70
     1
102
RTVSPropertyOp31
 70
     1
102
RTVSPropertyOp32
 70
     1
102
RTVSPropertyOp33
 70
     1
102
RTVSPropertyOp34
 70
     1
102
RTVSPropertyOp35
 70
     1
102
RTVSPropertyOp36
 70
     1
102
RTVSPropertyOp37
 70
     0
102
RTVSPropertyOp38
 70
     0
102
RTVSPropertyOp39
 70
     0
102
RTVSPropertyOp40
 70
     0
102
RTVSPropertyOp41
 70
     0
102
RTVSPropertyOp42
 70
     0
102
RTVSPropertyOp43
 70
     0
102
RTVSPropertyOp44
 70
     0
102
RTVSPropertyOp45
 70
     1
102
RTVSPropertyOp46
 70
     0
102
RTVSPropertyOp47
 70
     0
102
RTVSPropertyOp48
 70
     0
102
RTVSPropertyOp49
 70
     1
102
RTVSPropertyOp50
 70
     0
102
RTVSPropertyOp51
 70
     0
102
RTVSPropertyOp52
 70
     0
102
RTVSPropertyOp53
 70
     0
102
RTVSPropertyOp54
 70
     0
102
RTVSPropertyOp55
 70
     1
102
RTVSPropertyOp56
 70
     0
102
RTVSPropertyOp57
 70
     0
102
RTVSPropertyOp58
 70
     0
102
RTVSPropertyOp59
 70
     0
102
RTVSPropertyOp60
 70
     0
102
RTVSPropertyOp61
 70
     0
102
RTVSPropertyOp62
 70
     0
  0
XRECORD
  5
9CF3
102
{ACAD_REACTORS
330
9CF2
102
}
330
9CF2
100
AcDbXrecord
280
     1
102
RTVSPost2010Prop28
280
     0
102
RTVSPost2010PropOp28
 70
     1
102
RTVSPost2010Prop29
280
     1
102
RTVSPost2010PropOp29
 70
     1
102
RTVSPost2010Prop30
280
     1
102
RTVSPost2010PropOp30
 70
     1
102
RTVSPost2010Prop31
280
     0
102
RTVSPost2010PropOp31
 70
     1
102
RTVSPost2010Prop32
280
     0
102
RTVSPost2010PropOp32
 70
     1
102
RTVSPost2010Prop33
280
     0
102
RTVSPost2010PropOp33
 70
     1
102
RTVSPost2010Prop34
280
     0
102
RTVSPost2010PropOp34
 70
     1
102
RTVSPost2010Prop35
280
     0
102
RTVSPost2010PropOp35
 70
     1
102
RTVSPost2010Prop36
280
     0
102
RTVSPost2010PropOp36
 70
     1
102
RTVSPost2010Prop37
 90
       50
102
RTVSPost2010PropOp37
 70
     1
102
RTVSPost2010Prop38
140
0.0
102
RTVSPost2010PropOp38
 70
     1
102
RTVSPost2010Prop39
140
1.0
102
RTVSPost2010PropOp39
 70
     1
102
RTVSPost2010Prop40
 90
        0
102
RTVSPost2010PropOp40
 70
     1
102
RTVSPost2010Prop41ColorIndex
 90
       18
102
RTVSPost2010Prop41ColorRGB
 90
        0
102
RTVSPost2010PropOp41
 70
     1
102
RTVSPost2010Prop42
 90
       50
102
RTVSPost2010PropOp42
 70
     1
102
RTVSPost2010Prop43
 90
        3
102
RTVSPost2010PropOp43
 70
     1
102
RTVSPost2010Prop44ColorIndex
 90
        5
102
RTVSPost2010Prop44ColorRGB
 90
      255
102
RTVSPost2010PropOp44
 70
     1
102
RTVSPost2010Prop45
280
     0
102
RTVSPost2010PropOp45
 70
     1
102
RTVSPost2010Prop46
 90
       50
102
RTVSPost2010PropOp46
 70
     1
102
RTVSPost2010Prop47
 90
       50
102
RTVSPost2010PropOp47
 70
     1
102
RTVSPost2010Prop48
 90
       50
102
RTVSPost2010PropOp48
 70
     1
102
RTVSPost2010Prop49
280
     0
102
RTVSPost2010PropOp49
 70
     1
102
RTVSPost2010Prop50
 90
       50
102
RTVSPost2010PropOp50
 70
     1
102
RTVSPost2010Prop51ColorIndex
 90
      256
102
RTVSPost2010Prop51ColorRGB
 90
-16777216
102
RTVSPost2010PropOp51
 70
     0
102
RTVSPost2010Prop52
140
1.0
102
RTVSPost2010PropOp52
 70
     0
102
RTVSPost2010Prop53
 90
        2
102
RTVSPost2010PropOp53
 70
     1
102
RTVSPost2010Prop54
  1
strokes_ogs.tif
102
RTVSPost2010PropOp54
 70
     1
102
RTVSPost2010Prop55
280
     0
102
RTVSPost2010PropOp55
 70
     1
102
RTVSPost2010Prop56
140
1.0
102
RTVSPost2010PropOp56
 70
     1
102
RTVSPost2010Prop57
140
1.0
102
RTVSPost2010PropOp57
 70
     1
102
RTVSPropertyOp0
 70
     1
102
RTVSPropertyOp1
 70
     1
102
RTVSPropertyOp2
 70
     1
102
RTVSPropertyOp3
 70
     1
102
RTVSPropertyOp4
 70
     1
102
RTVSPropertyOp5
 70
     1
102
RTVSPropertyOp6
 70
     1
102
RTVSPropertyOp7
 70
     1
102
RTVSPropertyOp8
 70
     1
102
RTVSPropertyOp9
 70
     1
102
RTVSPropertyOp10
 70
     1
102
RTVSPropertyOp11
 70
     1
102
RTVSPropertyOp12
 70
     1
102
RTVSPropertyOp13
 70
     1
102
RTVSPropertyOp14
 70
     1
102
RTVSPropertyOp15
 70
     1
102
RTVSPropertyOp16
 70
     1
102
RTVSPropertyOp17
 70
     1
102
RTVSPropertyOp18
 70
     1
102
RTVSPropertyOp19
 70
     1
102
RTVSPropertyOp20
 70
     1
102
RTVSPropertyOp21
 70
     1
102
RTVSPropertyOp22
 70
     1
102
RTVSPropertyOp23
 70
     1
102
RTVSPropertyOp24
 70
     1
102
RTVSPropertyOp25
 70
     1
102
RTVSPropertyOp26
 70
     1
102
RTVSPropertyOp27
 70
     1
102
RTVSPropertyOp28
 70
     1
102
RTVSPropertyOp29
 70
     1
102
RTVSPropertyOp30
 70
     1
102
RTVSPropertyOp31
 70
     1
102
RTVSPropertyOp32
 70
     1
102
RTVSPropertyOp33
 70
     1
102
RTVSPropertyOp34
 70
     1
102
RTVSPropertyOp35
 70
     1
102
RTVSPropertyOp36
 70
     1
102
RTVSPropertyOp37
 70
     1
102
RTVSPropertyOp38
 70
     1
102
RTVSPropertyOp39
 70
     1
102
RTVSPropertyOp40
 70
     1
102
RTVSPropertyOp41
 70
     1
102
RTVSPropertyOp42
 70
     1
102
RTVSPropertyOp43
 70
     1
102
RTVSPropertyOp44
 70
     1
102
RTVSPropertyOp45
 70
     1
102
RTVSPropertyOp46
 70
     1
102
RTVSPropertyOp47
 70
     1
102
RTVSPropertyOp48
 70
     1
102
RTVSPropertyOp49
 70
     1
102
RTVSPropertyOp50
 70
     1
102
RTVSPropertyOp51
 70
     0
102
RTVSPropertyOp52
 70
     0
102
RTVSPropertyOp53
 70
     1
102
RTVSPropertyOp54
 70
     1
102
RTVSPropertyOp55
 70
     1
102
RTVSPropertyOp56
 70
     1
102
RTVSPropertyOp57
 70
     1
102
RTVSPropertyOp58
 70
     1
102
RTVSPropertyOp59
 70
     1
102
RTVSPropertyOp60
 70
     1
102
RTVSPropertyOp61
 70
     1
102
RTVSPropertyOp62
 70
     1
  0
XRECORD
  5
9D09
102
{ACAD_REACTORS
330
9D08
102
}
330
9D08
100
AcDbXrecord
280
     1
102
RTVSPost2010Prop28
280
     0
102
RTVSPost2010PropOp28
 70
     1
102
RTVSPost2010Prop29
280
     1
102
RTVSPost2010PropOp29
 70
     1
102
RTVSPost2010Prop30
280
     1
102
RTVSPost2010PropOp30
 70
     1
102
RTVSPost2010Prop31
280
     0
102
RTVSPost2010PropOp31
 70
     1
102
RTVSPost2010Prop32
280
     0
102
RTVSPost2010PropOp32
 70
     1
102
RTVSPost2010Prop33
280
     0
102
RTVSPost2010PropOp33
 70
     1
102
RTVSPost2010Prop34
280
     0
102
RTVSPost2010PropOp34
 70
     1
102
RTVSPost2010Prop35
280
     0
102
RTVSPost2010PropOp35
 70
     1
102
RTVSPost2010Prop36
280
     0
102
RTVSPost2010PropOp36
 70
     1
102
RTVSPost2010Prop37
 90
       50
102
RTVSPost2010PropOp37
 70
     1
102
RTVSPost2010Prop38
140
0.0
102
RTVSPost2010PropOp38
 70
     1
102
RTVSPost2010Prop39
140
1.0
102
RTVSPost2010PropOp39
 70
     1
102
RTVSPost2010Prop40
 90
        0
102
RTVSPost2010PropOp40
 70
     1
102
RTVSPost2010Prop41ColorIndex
 90
       18
102
RTVSPost2010Prop41ColorRGB
 90
        0
102
RTVSPost2010PropOp41
 70
     1
102
RTVSPost2010Prop42
 90
       50
102
RTVSPost2010PropOp42
 70
     1
102
RTVSPost2010Prop43
 90
        3
102
RTVSPost2010PropOp43
 70
     1
102
RTVSPost2010Prop44ColorIndex
 90
        5
102
RTVSPost2010Prop44ColorRGB
 90
      255
102
RTVSPost2010PropOp44
 70
     1
102
RTVSPost2010Prop45
280
     0
102
RTVSPost2010PropOp45
 70
     1
102
RTVSPost2010Prop46
 90
       50
102
RTVSPost2010PropOp46
 70
     1
102
RTVSPost2010Prop47
 90
       50
102
RTVSPost2010PropOp47
 70
     1
102
RTVSPost2010Prop48
 90
       50
102
RTVSPost2010PropOp48
 70
     1
102
RTVSPost2010Prop49
280
     0
102
RTVSPost2010PropOp49
 70
     1
102
RTVSPost2010Prop50
 90
       50
102
RTVSPost2010PropOp50
 70
     1
102
RTVSPost2010Prop51ColorIndex
 90
      256
102
RTVSPost2010Prop51ColorRGB
 90
-16777216
102
RTVSPost2010PropOp51
 70
     0
102
RTVSPost2010Prop52
140
1.0
102
RTVSPost2010PropOp52
 70
     0
102
RTVSPost2010Prop53
 90
        2
102
RTVSPost2010PropOp53
 70
     1
102
RTVSPost2010Prop54
  1
strokes_ogs.tif
102
RTVSPost2010PropOp54
 70
     1
102
RTVSPost2010Prop55
280
     0
102
RTVSPost2010PropOp55
 70
     1
102
RTVSPost2010Prop56
140
1.0
102
RTVSPost2010PropOp56
 70
     1
102
RTVSPost2010Prop57
140
1.0
102
RTVSPost2010PropOp57
 70
     1
102
RTVSPropertyOp0
 70
     1
102
RTVSPropertyOp1
 70
     1
102
RTVSPropertyOp2
 70
     1
102
RTVSPropertyOp3
 70
     1
102
RTVSPropertyOp4
 70
     1
102
RTVSPropertyOp5
 70
     1
102
RTVSPropertyOp6
 70
     1
102
RTVSPropertyOp7
 70
     1
102
RTVSPropertyOp8
 70
     1
102
RTVSPropertyOp9
 70
     1
102
RTVSPropertyOp10
 70
     1
102
RTVSPropertyOp11
 70
     1
102
RTVSPropertyOp12
 70
     1
102
RTVSPropertyOp13
 70
     1
102
RTVSPropertyOp14
 70
     1
102
RTVSPropertyOp15
 70
     1
102
RTVSPropertyOp16
 70
     1
102
RTVSPropertyOp17
 70
     1
102
RTVSPropertyOp18
 70
     1
102
RTVSPropertyOp19
 70
     1
102
RTVSPropertyOp20
 70
     1
102
RTVSPropertyOp21
 70
     1
102
RTVSPropertyOp22
 70
     1
102
RTVSPropertyOp23
 70
     1
102
RTVSPropertyOp24
 70
     1
102
RTVSPropertyOp25
 70
     1
102
RTVSPropertyOp26
 70
     1
102
RTVSPropertyOp27
 70
     1
102
RTVSPropertyOp28
 70
     1
102
RTVSPropertyOp29
 70
     1
102
RTVSPropertyOp30
 70
     1
102
RTVSPropertyOp31
 70
     1
102
RTVSPropertyOp32
 70
     1
102
RTVSPropertyOp33
 70
     1
102
RTVSPropertyOp34
 70
     1
102
RTVSPropertyOp35
 70
     1
102
RTVSPropertyOp36
 70
     1
102
RTVSPropertyOp37
 70
     1
102
RTVSPropertyOp38
 70
     1
102
RTVSPropertyOp39
 70
     1
102
RTVSPropertyOp40
 70
     1
102
RTVSPropertyOp41
 70
     1
102
RTVSPropertyOp42
 70
     1
102
RTVSPropertyOp43
 70
     1
102
RTVSPropertyOp44
 70
     1
102
RTVSPropertyOp45
 70
     1
102
RTVSPropertyOp46
 70
     1
102
RTVSPropertyOp47
 70
     1
102
RTVSPropertyOp48
 70
     1
102
RTVSPropertyOp49
 70
     1
102
RTVSPropertyOp50
 70
     1
102
RTVSPropertyOp51
 70
     0
102
RTVSPropertyOp52
 70
     0
102
RTVSPropertyOp53
 70
     1
102
RTVSPropertyOp54
 70
     1
102
RTVSPropertyOp55
 70
     1
102
RTVSPropertyOp56
 70
     1
102
RTVSPropertyOp57
 70
     1
102
RTVSPropertyOp58
 70
     1
102
RTVSPropertyOp59
 70
     1
102
RTVSPropertyOp60
 70
     1
102
RTVSPropertyOp61
 70
     1
102
RTVSPropertyOp62
 70
     1
  0
XRECORD
  5
9D07
102
{ACAD_REACTORS
330
9D06
102
}
330
9D06
100
AcDbXrecord
280
     1
102
RTVSPost2010Prop28
280
     0
102
RTVSPost2010PropOp28
 70
     1
102
RTVSPost2010Prop29
280
     1
102
RTVSPost2010PropOp29
 70
     1
102
RTVSPost2010Prop30
280
     1
102
RTVSPost2010PropOp30
 70
     1
102
RTVSPost2010Prop31
280
     0
102
RTVSPost2010PropOp31
 70
     1
102
RTVSPost2010Prop32
280
     0
102
RTVSPost2010PropOp32
 70
     1
102
RTVSPost2010Prop33
280
     0
102
RTVSPost2010PropOp33
 70
     1
102
RTVSPost2010Prop34
280
     0
102
RTVSPost2010PropOp34
 70
     1
102
RTVSPost2010Prop35
280
     0
102
RTVSPost2010PropOp35
 70
     1
102
RTVSPost2010Prop36
280
     0
102
RTVSPost2010PropOp36
 70
     1
102
RTVSPost2010Prop37
 90
       50
102
RTVSPost2010PropOp37
 70
     1
102
RTVSPost2010Prop38
140
0.0
102
RTVSPost2010PropOp38
 70
     1
102
RTVSPost2010Prop39
140
1.0
102
RTVSPost2010PropOp39
 70
     1
102
RTVSPost2010Prop40
 90
        0
102
RTVSPost2010PropOp40
 70
     1
102
RTVSPost2010Prop41ColorIndex
 90
       18
102
RTVSPost2010Prop41ColorRGB
 90
        0
102
RTVSPost2010PropOp41
 70
     1
102
RTVSPost2010Prop42
 90
       50
102
RTVSPost2010PropOp42
 70
     1
102
RTVSPost2010Prop43
 90
        3
102
RTVSPost2010PropOp43
 70
     1
102
RTVSPost2010Prop44ColorIndex
 90
        5
102
RTVSPost2010Prop44ColorRGB
 90
      255
102
RTVSPost2010PropOp44
 70
     1
102
RTVSPost2010Prop45
280
     0
102
RTVSPost2010PropOp45
 70
     1
102
RTVSPost2010Prop46
 90
       50
102
RTVSPost2010PropOp46
 70
     1
102
RTVSPost2010Prop47
 90
       50
102
RTVSPost2010PropOp47
 70
     1
102
RTVSPost2010Prop48
 90
       50
102
RTVSPost2010PropOp48
 70
     1
102
RTVSPost2010Prop49
280
     0
102
RTVSPost2010PropOp49
 70
     1
102
RTVSPost2010Prop50
 90
       50
102
RTVSPost2010PropOp50
 70
     1
102
RTVSPost2010Prop51ColorIndex
 90
      256
102
RTVSPost2010Prop51ColorRGB
 90
-16777216
102
RTVSPost2010PropOp51
 70
     0
102
RTVSPost2010Prop52
140
1.0
102
RTVSPost2010PropOp52
 70
     0
102
RTVSPost2010Prop53
 90
        2
102
RTVSPost2010PropOp53
 70
     1
102
RTVSPost2010Prop54
  1
strokes_ogs.tif
102
RTVSPost2010PropOp54
 70
     1
102
RTVSPost2010Prop55
280
     0
102
RTVSPost2010PropOp55
 70
     1
102
RTVSPost2010Prop56
140
1.0
102
RTVSPost2010PropOp56
 70
     1
102
RTVSPost2010Prop57
140
1.0
102
RTVSPost2010PropOp57
 70
     1
102
RTVSPropertyOp0
 70
     1
102
RTVSPropertyOp1
 70
     1
102
RTVSPropertyOp2
 70
     1
102
RTVSPropertyOp3
 70
     1
102
RTVSPropertyOp4
 70
     1
102
RTVSPropertyOp5
 70
     1
102
RTVSPropertyOp6
 70
     1
102
RTVSPropertyOp7
 70
     1
102
RTVSPropertyOp8
 70
     1
102
RTVSPropertyOp9
 70
     1
102
RTVSPropertyOp10
 70
     1
102
RTVSPropertyOp11
 70
     1
102
RTVSPropertyOp12
 70
     1
102
RTVSPropertyOp13
 70
     1
102
RTVSPropertyOp14
 70
     1
102
RTVSPropertyOp15
 70
     1
102
RTVSPropertyOp16
 70
     1
102
RTVSPropertyOp17
 70
     1
102
RTVSPropertyOp18
 70
     1
102
RTVSPropertyOp19
 70
     1
102
RTVSPropertyOp20
 70
     1
102
RTVSPropertyOp21
 70
     1
102
RTVSPropertyOp22
 70
     1
102
RTVSPropertyOp23
 70
     1
102
RTVSPropertyOp24
 70
     1
102
RTVSPropertyOp25
 70
     1
102
RTVSPropertyOp26
 70
     1
102
RTVSPropertyOp27
 70
     1
102
RTVSPropertyOp28
 70
     1
102
RTVSPropertyOp29
 70
     1
102
RTVSPropertyOp30
 70
     1
102
RTVSPropertyOp31
 70
     1
102
RTVSPropertyOp32
 70
     1
102
RTVSPropertyOp33
 70
     1
102
RTVSPropertyOp34
 70
     1
102
RTVSPropertyOp35
 70
     1
102
RTVSPropertyOp36
 70
     1
102
RTVSPropertyOp37
 70
     1
102
RTVSPropertyOp38
 70
     1
102
RTVSPropertyOp39
 70
     1
102
RTVSPropertyOp40
 70
     1
102
RTVSPropertyOp41
 70
     1
102
RTVSPropertyOp42
 70
     1
102
RTVSPropertyOp43
 70
     1
102
RTVSPropertyOp44
 70
     1
102
RTVSPropertyOp45
 70
     1
102
RTVSPropertyOp46
 70
     1
102
RTVSPropertyOp47
 70
     1
102
RTVSPropertyOp48
 70
     1
102
RTVSPropertyOp49
 70
     1
102
RTVSPropertyOp50
 70
     1
102
RTVSPropertyOp51
 70
     0
102
RTVSPropertyOp52
 70
     0
102
RTVSPropertyOp53
 70
     1
102
RTVSPropertyOp54
 70
     1
102
RTVSPropertyOp55
 70
     1
102
RTVSPropertyOp56
 70
     1
102
RTVSPropertyOp57
 70
     1
102
RTVSPropertyOp58
 70
     1
102
RTVSPropertyOp59
 70
     1
102
RTVSPropertyOp60
 70
     1
102
RTVSPropertyOp61
 70
     1
102
RTVSPropertyOp62
 70
     1
  0
XRECORD
  5
9D01
102
{ACAD_REACTORS
330
9D00
102
}
330
9D00
100
AcDbXrecord
280
     1
102
RTVSPost2010Prop28
280
     0
102
RTVSPost2010PropOp28
 70
     1
102
RTVSPost2010Prop29
280
     1
102
RTVSPost2010PropOp29
 70
     1
102
RTVSPost2010Prop30
280
     1
102
RTVSPost2010PropOp30
 70
     1
102
RTVSPost2010Prop31
280
     0
102
RTVSPost2010PropOp31
 70
     1
102
RTVSPost2010Prop32
280
     0
102
RTVSPost2010PropOp32
 70
     1
102
RTVSPost2010Prop33
280
     0
102
RTVSPost2010PropOp33
 70
     1
102
RTVSPost2010Prop34
280
     0
102
RTVSPost2010PropOp34
 70
     1
102
RTVSPost2010Prop35
280
     0
102
RTVSPost2010PropOp35
 70
     1
102
RTVSPost2010Prop36
280
     0
102
RTVSPost2010PropOp36
 70
     1
102
RTVSPost2010Prop37
 90
       50
102
RTVSPost2010PropOp37
 70
     1
102
RTVSPost2010Prop38
140
0.0
102
RTVSPost2010PropOp38
 70
     1
102
RTVSPost2010Prop39
140
1.0
102
RTVSPost2010PropOp39
 70
     1
102
RTVSPost2010Prop40
 90
        0
102
RTVSPost2010PropOp40
 70
     1
102
RTVSPost2010Prop41ColorIndex
 90
       18
102
RTVSPost2010Prop41ColorRGB
 90
        0
102
RTVSPost2010PropOp41
 70
     1
102
RTVSPost2010Prop42
 90
       50
102
RTVSPost2010PropOp42
 70
     1
102
RTVSPost2010Prop43
 90
        3
102
RTVSPost2010PropOp43
 70
     1
102
RTVSPost2010Prop44ColorIndex
 90
        5
102
RTVSPost2010Prop44ColorRGB
 90
      255
102
RTVSPost2010PropOp44
 70
     1
102
RTVSPost2010Prop45
280
     0
102
RTVSPost2010PropOp45
 70
     1
102
RTVSPost2010Prop46
 90
       50
102
RTVSPost2010PropOp46
 70
     1
102
RTVSPost2010Prop47
 90
       50
102
RTVSPost2010PropOp47
 70
     1
102
RTVSPost2010Prop48
 90
       50
102
RTVSPost2010PropOp48
 70
     1
102
RTVSPost2010Prop49
280
     0
102
RTVSPost2010PropOp49
 70
     1
102
RTVSPost2010Prop50
 90
       50
102
RTVSPost2010PropOp50
 70
     1
102
RTVSPost2010Prop51ColorIndex
 90
      256
102
RTVSPost2010Prop51ColorRGB
 90
-16777216
102
RTVSPost2010PropOp51
 70
     0
102
RTVSPost2010Prop52
140
1.0
102
RTVSPost2010PropOp52
 70
     0
102
RTVSPost2010Prop53
 90
        2
102
RTVSPost2010PropOp53
 70
     1
102
RTVSPost2010Prop54
  1
strokes_ogs.tif
102
RTVSPost2010PropOp54
 70
     1
102
RTVSPost2010Prop55
280
     0
102
RTVSPost2010PropOp55
 70
     1
102
RTVSPost2010Prop56
140
1.0
102
RTVSPost2010PropOp56
 70
     1
102
RTVSPost2010Prop57
140
1.0
102
RTVSPost2010PropOp57
 70
     1
102
RTVSPropertyOp0
 70
     1
102
RTVSPropertyOp1
 70
     1
102
RTVSPropertyOp2
 70
     1
102
RTVSPropertyOp3
 70
     1
102
RTVSPropertyOp4
 70
     1
102
RTVSPropertyOp5
 70
     1
102
RTVSPropertyOp6
 70
     1
102
RTVSPropertyOp7
 70
     1
102
RTVSPropertyOp8
 70
     1
102
RTVSPropertyOp9
 70
     1
102
RTVSPropertyOp10
 70
     1
102
RTVSPropertyOp11
 70
     1
102
RTVSPropertyOp12
 70
     1
102
RTVSPropertyOp13
 70
     1
102
RTVSPropertyOp14
 70
     1
102
RTVSPropertyOp15
 70
     1
102
RTVSPropertyOp16
 70
     1
102
RTVSPropertyOp17
 70
     1
102
RTVSPropertyOp18
 70
     1
102
RTVSPropertyOp19
 70
     1
102
RTVSPropertyOp20
 70
     1
102
RTVSPropertyOp21
 70
     1
102
RTVSPropertyOp22
 70
     1
102
RTVSPropertyOp23
 70
     1
102
RTVSPropertyOp24
 70
     1
102
RTVSPropertyOp25
 70
     1
102
RTVSPropertyOp26
 70
     1
102
RTVSPropertyOp27
 70
     1
102
RTVSPropertyOp28
 70
     1
102
RTVSPropertyOp29
 70
     1
102
RTVSPropertyOp30
 70
     1
102
RTVSPropertyOp31
 70
     1
102
RTVSPropertyOp32
 70
     1
102
RTVSPropertyOp33
 70
     1
102
RTVSPropertyOp34
 70
     1
102
RTVSPropertyOp35
 70
     1
102
RTVSPropertyOp36
 70
     1
102
RTVSPropertyOp37
 70
     1
102
RTVSPropertyOp38
 70
     1
102
RTVSPropertyOp39
 70
     1
102
RTVSPropertyOp40
 70
     1
102
RTVSPropertyOp41
 70
     1
102
RTVSPropertyOp42
 70
     1
102
RTVSPropertyOp43
 70
     1
102
RTVSPropertyOp44
 70
     1
102
RTVSPropertyOp45
 70
     1
102
RTVSPropertyOp46
 70
     1
102
RTVSPropertyOp47
 70
     1
102
RTVSPropertyOp48
 70
     1
102
RTVSPropertyOp49
 70
     1
102
RTVSPropertyOp50
 70
     1
102
RTVSPropertyOp51
 70
     0
102
RTVSPropertyOp52
 70
     0
102
RTVSPropertyOp53
 70
     1
102
RTVSPropertyOp54
 70
     1
102
RTVSPropertyOp55
 70
     1
102
RTVSPropertyOp56
 70
     1
102
RTVSPropertyOp57
 70
     1
102
RTVSPropertyOp58
 70
     1
102
RTVSPropertyOp59
 70
     1
102
RTVSPropertyOp60
 70
     1
102
RTVSPropertyOp61
 70
     1
102
RTVSPropertyOp62
 70
     1
  0
XRECORD
  5
9D03
102
{ACAD_REACTORS
330
9D02
102
}
330
9D02
100
AcDbXrecord
280
     1
102
RTVSPost2010Prop28
280
     0
102
RTVSPost2010PropOp28
 70
     1
102
RTVSPost2010Prop29
280
     1
102
RTVSPost2010PropOp29
 70
     1
102
RTVSPost2010Prop30
280
     1
102
RTVSPost2010PropOp30
 70
     1
102
RTVSPost2010Prop31
280
     0
102
RTVSPost2010PropOp31
 70
     1
102
RTVSPost2010Prop32
280
     0
102
RTVSPost2010PropOp32
 70
     1
102
RTVSPost2010Prop33
280
     0
102
RTVSPost2010PropOp33
 70
     1
102
RTVSPost2010Prop34
280
     0
102
RTVSPost2010PropOp34
 70
     1
102
RTVSPost2010Prop35
280
     0
102
RTVSPost2010PropOp35
 70
     1
102
RTVSPost2010Prop36
280
     0
102
RTVSPost2010PropOp36
 70
     1
102
RTVSPost2010Prop37
 90
       50
102
RTVSPost2010PropOp37
 70
     1
102
RTVSPost2010Prop38
140
0.0
102
RTVSPost2010PropOp38
 70
     1
102
RTVSPost2010Prop39
140
1.0
102
RTVSPost2010PropOp39
 70
     1
102
RTVSPost2010Prop40
 90
        0
102
RTVSPost2010PropOp40
 70
     1
102
RTVSPost2010Prop41ColorIndex
 90
       18
102
RTVSPost2010Prop41ColorRGB
 90
        0
102
RTVSPost2010PropOp41
 70
     1
102
RTVSPost2010Prop42
 90
       50
102
RTVSPost2010PropOp42
 70
     1
102
RTVSPost2010Prop43
 90
        3
102
RTVSPost2010PropOp43
 70
     1
102
RTVSPost2010Prop44ColorIndex
 90
        5
102
RTVSPost2010Prop44ColorRGB
 90
      255
102
RTVSPost2010PropOp44
 70
     1
102
RTVSPost2010Prop45
280
     0
102
RTVSPost2010PropOp45
 70
     1
102
RTVSPost2010Prop46
 90
       50
102
RTVSPost2010PropOp46
 70
     1
102
RTVSPost2010Prop47
 90
       50
102
RTVSPost2010PropOp47
 70
     1
102
RTVSPost2010Prop48
 90
       50
102
RTVSPost2010PropOp48
 70
     1
102
RTVSPost2010Prop49
280
     0
102
RTVSPost2010PropOp49
 70
     1
102
RTVSPost2010Prop50
 90
       50
102
RTVSPost2010PropOp50
 70
     1
102
RTVSPost2010Prop51ColorIndex
 90
      256
102
RTVSPost2010Prop51ColorRGB
 90
-16777216
102
RTVSPost2010PropOp51
 70
     0
102
RTVSPost2010Prop52
140
1.0
102
RTVSPost2010PropOp52
 70
     0
102
RTVSPost2010Prop53
 90
        2
102
RTVSPost2010PropOp53
 70
     1
102
RTVSPost2010Prop54
  1
strokes_ogs.tif
102
RTVSPost2010PropOp54
 70
     1
102
RTVSPost2010Prop55
280
     0
102
RTVSPost2010PropOp55
 70
     1
102
RTVSPost2010Prop56
140
1.0
102
RTVSPost2010PropOp56
 70
     1
102
RTVSPost2010Prop57
140
1.0
102
RTVSPost2010PropOp57
 70
     1
102
RTVSPropertyOp0
 70
     1
102
RTVSPropertyOp1
 70
     1
102
RTVSPropertyOp2
 70
     1
102
RTVSPropertyOp3
 70
     1
102
RTVSPropertyOp4
 70
     1
102
RTVSPropertyOp5
 70
     1
102
RTVSPropertyOp6
 70
     1
102
RTVSPropertyOp7
 70
     1
102
RTVSPropertyOp8
 70
     1
102
RTVSPropertyOp9
 70
     1
102
RTVSPropertyOp10
 70
     1
102
RTVSPropertyOp11
 70
     1
102
RTVSPropertyOp12
 70
     1
102
RTVSPropertyOp13
 70
     1
102
RTVSPropertyOp14
 70
     1
102
RTVSPropertyOp15
 70
     1
102
RTVSPropertyOp16
 70
     1
102
RTVSPropertyOp17
 70
     1
102
RTVSPropertyOp18
 70
     1
102
RTVSPropertyOp19
 70
     1
102
RTVSPropertyOp20
 70
     1
102
RTVSPropertyOp21
 70
     1
102
RTVSPropertyOp22
 70
     1
102
RTVSPropertyOp23
 70
     1
102
RTVSPropertyOp24
 70
     1
102
RTVSPropertyOp25
 70
     1
102
RTVSPropertyOp26
 70
     1
102
RTVSPropertyOp27
 70
     1
102
RTVSPropertyOp28
 70
     1
102
RTVSPropertyOp29
 70
     1
102
RTVSPropertyOp30
 70
     1
102
RTVSPropertyOp31
 70
     1
102
RTVSPropertyOp32
 70
     1
102
RTVSPropertyOp33
 70
     1
102
RTVSPropertyOp34
 70
     1
102
RTVSPropertyOp35
 70
     1
102
RTVSPropertyOp36
 70
     1
102
RTVSPropertyOp37
 70
     1
102
RTVSPropertyOp38
 70
     1
102
RTVSPropertyOp39
 70
     1
102
RTVSPropertyOp40
 70
     1
102
RTVSPropertyOp41
 70
     1
102
RTVSPropertyOp42
 70
     1
102
RTVSPropertyOp43
 70
     1
102
RTVSPropertyOp44
 70
     1
102
RTVSPropertyOp45
 70
     1
102
RTVSPropertyOp46
 70
     1
102
RTVSPropertyOp47
 70
     1
102
RTVSPropertyOp48
 70
     1
102
RTVSPropertyOp49
 70
     1
102
RTVSPropertyOp50
 70
     1
102
RTVSPropertyOp51
 70
     0
102
RTVSPropertyOp52
 70
     0
102
RTVSPropertyOp53
 70
     1
102
RTVSPropertyOp54
 70
     1
102
RTVSPropertyOp55
 70
     1
102
RTVSPropertyOp56
 70
     1
102
RTVSPropertyOp57
 70
     1
102
RTVSPropertyOp58
 70
     1
102
RTVSPropertyOp59
 70
     1
102
RTVSPropertyOp60
 70
     1
102
RTVSPropertyOp61
 70
     1
102
RTVSPropertyOp62
 70
     1
  0
XRECORD
  5
9CF9
102
{ACAD_REACTORS
330
9CF8
102
}
330
9CF8
100
AcDbXrecord
280
     1
102
RTVSPost2010Prop28
280
     0
102
RTVSPost2010PropOp28
 70
     1
102
RTVSPost2010Prop29
280
     1
102
RTVSPost2010PropOp29
 70
     1
102
RTVSPost2010Prop30
280
     1
102
RTVSPost2010PropOp30
 70
     1
102
RTVSPost2010Prop31
280
     0
102
RTVSPost2010PropOp31
 70
     1
102
RTVSPost2010Prop32
280
     0
102
RTVSPost2010PropOp32
 70
     1
102
RTVSPost2010Prop33
280
     0
102
RTVSPost2010PropOp33
 70
     1
102
RTVSPost2010Prop34
280
     0
102
RTVSPost2010PropOp34
 70
     1
102
RTVSPost2010Prop35
280
     0
102
RTVSPost2010PropOp35
 70
     1
102
RTVSPost2010Prop36
280
     0
102
RTVSPost2010PropOp36
 70
     1
102
RTVSPost2010Prop37
 90
       50
102
RTVSPost2010PropOp37
 70
     1
102
RTVSPost2010Prop38
140
0.0
102
RTVSPost2010PropOp38
 70
     1
102
RTVSPost2010Prop39
140
1.0
102
RTVSPost2010PropOp39
 70
     1
102
RTVSPost2010Prop40
 90
        0
102
RTVSPost2010PropOp40
 70
     1
102
RTVSPost2010Prop41ColorIndex
 90
       18
102
RTVSPost2010Prop41ColorRGB
 90
        0
102
RTVSPost2010PropOp41
 70
     1
102
RTVSPost2010Prop42
 90
       50
102
RTVSPost2010PropOp42
 70
     1
102
RTVSPost2010Prop43
 90
        3
102
RTVSPost2010PropOp43
 70
     1
102
RTVSPost2010Prop44ColorIndex
 90
        5
102
RTVSPost2010Prop44ColorRGB
 90
      255
102
RTVSPost2010PropOp44
 70
     1
102
RTVSPost2010Prop45
280
     0
102
RTVSPost2010PropOp45
 70
     1
102
RTVSPost2010Prop46
 90
       50
102
RTVSPost2010PropOp46
 70
     1
102
RTVSPost2010Prop47
 90
       50
102
RTVSPost2010PropOp47
 70
     1
102
RTVSPost2010Prop48
 90
       50
102
RTVSPost2010PropOp48
 70
     1
102
RTVSPost2010Prop49
280
     0
102
RTVSPost2010PropOp49
 70
     1
102
RTVSPost2010Prop50
 90
       50
102
RTVSPost2010PropOp50
 70
     1
102
RTVSPost2010Prop51ColorIndex
 90
      256
102
RTVSPost2010Prop51ColorRGB
 90
-16777216
102
RTVSPost2010PropOp51
 70
     0
102
RTVSPost2010Prop52
140
1.0
102
RTVSPost2010PropOp52
 70
     0
102
RTVSPost2010Prop53
 90
        2
102
RTVSPost2010PropOp53
 70
     1
102
RTVSPost2010Prop54
  1
strokes_ogs.tif
102
RTVSPost2010PropOp54
 70
     1
102
RTVSPost2010Prop55
280
     0
102
RTVSPost2010PropOp55
 70
     1
102
RTVSPost2010Prop56
140
1.0
102
RTVSPost2010PropOp56
 70
     1
102
RTVSPost2010Prop57
140
1.0
102
RTVSPost2010PropOp57
 70
     1
102
RTVSPropertyOp0
 70
     1
102
RTVSPropertyOp1
 70
     1
102
RTVSPropertyOp2
 70
     1
102
RTVSPropertyOp3
 70
     1
102
RTVSPropertyOp4
 70
     1
102
RTVSPropertyOp5
 70
     1
102
RTVSPropertyOp6
 70
     1
102
RTVSPropertyOp7
 70
     1
102
RTVSPropertyOp8
 70
     1
102
RTVSPropertyOp9
 70
     1
102
RTVSPropertyOp10
 70
     1
102
RTVSPropertyOp11
 70
     1
102
RTVSPropertyOp12
 70
     1
102
RTVSPropertyOp13
 70
     1
102
RTVSPropertyOp14
 70
     1
102
RTVSPropertyOp15
 70
     1
102
RTVSPropertyOp16
 70
     1
102
RTVSPropertyOp17
 70
     1
102
RTVSPropertyOp18
 70
     1
102
RTVSPropertyOp19
 70
     1
102
RTVSPropertyOp20
 70
     1
102
RTVSPropertyOp21
 70
     1
102
RTVSPropertyOp22
 70
     1
102
RTVSPropertyOp23
 70
     1
102
RTVSPropertyOp24
 70
     1
102
RTVSPropertyOp25
 70
     1
102
RTVSPropertyOp26
 70
     1
102
RTVSPropertyOp27
 70
     1
102
RTVSPropertyOp28
 70
     1
102
RTVSPropertyOp29
 70
     1
102
RTVSPropertyOp30
 70
     1
102
RTVSPropertyOp31
 70
     1
102
RTVSPropertyOp32
 70
     1
102
RTVSPropertyOp33
 70
     1
102
RTVSPropertyOp34
 70
     1
102
RTVSPropertyOp35
 70
     1
102
RTVSPropertyOp36
 70
     1
102
RTVSPropertyOp37
 70
     1
102
RTVSPropertyOp38
 70
     1
102
RTVSPropertyOp39
 70
     1
102
RTVSPropertyOp40
 70
     1
102
RTVSPropertyOp41
 70
     1
102
RTVSPropertyOp42
 70
     1
102
RTVSPropertyOp43
 70
     1
102
RTVSPropertyOp44
 70
     1
102
RTVSPropertyOp45
 70
     1
102
RTVSPropertyOp46
 70
     1
102
RTVSPropertyOp47
 70
     1
102
RTVSPropertyOp48
 70
     1
102
RTVSPropertyOp49
 70
     1
102
RTVSPropertyOp50
 70
     1
102
RTVSPropertyOp51
 70
     0
102
RTVSPropertyOp52
 70
     0
102
RTVSPropertyOp53
 70
     1
102
RTVSPropertyOp54
 70
     1
102
RTVSPropertyOp55
 70
     1
102
RTVSPropertyOp56
 70
     1
102
RTVSPropertyOp57
 70
     1
102
RTVSPropertyOp58
 70
     1
102
RTVSPropertyOp59
 70
     1
102
RTVSPropertyOp60
 70
     1
102
RTVSPropertyOp61
 70
     1
102
RTVSPropertyOp62
 70
     1
  0
XRECORD
  5
9CED
102
{ACAD_REACTORS
330
9CEC
102
}
330
9CEC
100
AcDbXrecord
280
     1
102
RTVSPost2010Prop28
280
     0
102
RTVSPost2010PropOp28
 70
     1
102
RTVSPost2010Prop29
280
     1
102
RTVSPost2010PropOp29
 70
     1
102
RTVSPost2010Prop30
280
     1
102
RTVSPost2010PropOp30
 70
     1
102
RTVSPost2010Prop31
280
     0
102
RTVSPost2010PropOp31
 70
     1
102
RTVSPost2010Prop32
280
     0
102
RTVSPost2010PropOp32
 70
     1
102
RTVSPost2010Prop33
280
     0
102
RTVSPost2010PropOp33
 70
     1
102
RTVSPost2010Prop34
280
     0
102
RTVSPost2010PropOp34
 70
     1
102
RTVSPost2010Prop35
280
     0
102
RTVSPost2010PropOp35
 70
     1
102
RTVSPost2010Prop36
280
     0
102
RTVSPost2010PropOp36
 70
     1
102
RTVSPost2010Prop37
 90
       50
102
RTVSPost2010PropOp37
 70
     1
102
RTVSPost2010Prop38
140
0.0
102
RTVSPost2010PropOp38
 70
     1
102
RTVSPost2010Prop39
140
1.0
102
RTVSPost2010PropOp39
 70
     1
102
RTVSPost2010Prop40
 90
        0
102
RTVSPost2010PropOp40
 70
     1
102
RTVSPost2010Prop41ColorIndex
 90
       18
102
RTVSPost2010Prop41ColorRGB
 90
        0
102
RTVSPost2010PropOp41
 70
     1
102
RTVSPost2010Prop42
 90
       50
102
RTVSPost2010PropOp42
 70
     1
102
RTVSPost2010Prop43
 90
        3
102
RTVSPost2010PropOp43
 70
     1
102
RTVSPost2010Prop44ColorIndex
 90
        5
102
RTVSPost2010Prop44ColorRGB
 90
      255
102
RTVSPost2010PropOp44
 70
     1
102
RTVSPost2010Prop45
280
     0
102
RTVSPost2010PropOp45
 70
     1
102
RTVSPost2010Prop46
 90
       50
102
RTVSPost2010PropOp46
 70
     1
102
RTVSPost2010Prop47
 90
       50
102
RTVSPost2010PropOp47
 70
     1
102
RTVSPost2010Prop48
 90
       50
102
RTVSPost2010PropOp48
 70
     1
102
RTVSPost2010Prop49
280
     0
102
RTVSPost2010PropOp49
 70
     1
102
RTVSPost2010Prop50
 90
       50
102
RTVSPost2010PropOp50
 70
     1
102
RTVSPost2010Prop51ColorIndex
 90
      256
102
RTVSPost2010Prop51ColorRGB
 90
-16777216
102
RTVSPost2010PropOp51
 70
     0
102
RTVSPost2010Prop52
140
1.0
102
RTVSPost2010PropOp52
 70
     0
102
RTVSPost2010Prop53
 90
        2
102
RTVSPost2010PropOp53
 70
     1
102
RTVSPost2010Prop54
  1
strokes_ogs.tif
102
RTVSPost2010PropOp54
 70
     1
102
RTVSPost2010Prop55
280
     0
102
RTVSPost2010PropOp55
 70
     1
102
RTVSPost2010Prop56
140
1.0
102
RTVSPost2010PropOp56
 70
     1
102
RTVSPost2010Prop57
140
1.0
102
RTVSPost2010PropOp57
 70
     1
102
RTVSPropertyOp0
 70
     1
102
RTVSPropertyOp1
 70
     1
102
RTVSPropertyOp2
 70
     1
102
RTVSPropertyOp3
 70
     1
102
RTVSPropertyOp4
 70
     1
102
RTVSPropertyOp5
 70
     1
102
RTVSPropertyOp6
 70
     1
102
RTVSPropertyOp7
 70
     1
102
RTVSPropertyOp8
 70
     1
102
RTVSPropertyOp9
 70
     1
102
RTVSPropertyOp10
 70
     1
102
RTVSPropertyOp11
 70
     1
102
RTVSPropertyOp12
 70
     1
102
RTVSPropertyOp13
 70
     1
102
RTVSPropertyOp14
 70
     1
102
RTVSPropertyOp15
 70
     1
102
RTVSPropertyOp16
 70
     1
102
RTVSPropertyOp17
 70
     1
102
RTVSPropertyOp18
 70
     1
102
RTVSPropertyOp19
 70
     1
102
RTVSPropertyOp20
 70
     1
102
RTVSPropertyOp21
 70
     1
102
RTVSPropertyOp22
 70
     1
102
RTVSPropertyOp23
 70
     1
102
RTVSPropertyOp24
 70
     1
102
RTVSPropertyOp25
 70
     1
102
RTVSPropertyOp26
 70
     1
102
RTVSPropertyOp27
 70
     1
102
RTVSPropertyOp28
 70
     1
102
RTVSPropertyOp29
 70
     1
102
RTVSPropertyOp30
 70
     1
102
RTVSPropertyOp31
 70
     1
102
RTVSPropertyOp32
 70
     1
102
RTVSPropertyOp33
 70
     1
102
RTVSPropertyOp34
 70
     1
102
RTVSPropertyOp35
 70
     1
102
RTVSPropertyOp36
 70
     1
102
RTVSPropertyOp37
 70
     1
102
RTVSPropertyOp38
 70
     1
102
RTVSPropertyOp39
 70
     1
102
RTVSPropertyOp40
 70
     1
102
RTVSPropertyOp41
 70
     1
102
RTVSPropertyOp42
 70
     1
102
RTVSPropertyOp43
 70
     1
102
RTVSPropertyOp44
 70
     1
102
RTVSPropertyOp45
 70
     1
102
RTVSPropertyOp46
 70
     1
102
RTVSPropertyOp47
 70
     1
102
RTVSPropertyOp48
 70
     1
102
RTVSPropertyOp49
 70
     1
102
RTVSPropertyOp50
 70
     1
102
RTVSPropertyOp51
 70
     0
102
RTVSPropertyOp52
 70
     0
102
RTVSPropertyOp53
 70
     1
102
RTVSPropertyOp54
 70
     1
102
RTVSPropertyOp55
 70
     1
102
RTVSPropertyOp56
 70
     1
102
RTVSPropertyOp57
 70
     1
102
RTVSPropertyOp58
 70
     1
102
RTVSPropertyOp59
 70
     1
102
RTVSPropertyOp60
 70
     1
102
RTVSPropertyOp61
 70
     1
102
RTVSPropertyOp62
 70
     1
  0
XRECORD
  5
9D05
102
{ACAD_REACTORS
330
9D04
102
}
330
9D04
100
AcDbXrecord
280
     1
102
RTVSPost2010Prop28
280
     0
102
RTVSPost2010PropOp28
 70
     1
102
RTVSPost2010Prop29
280
     1
102
RTVSPost2010PropOp29
 70
     1
102
RTVSPost2010Prop30
280
     1
102
RTVSPost2010PropOp30
 70
     1
102
RTVSPost2010Prop31
280
     0
102
RTVSPost2010PropOp31
 70
     1
102
RTVSPost2010Prop32
280
     0
102
RTVSPost2010PropOp32
 70
     1
102
RTVSPost2010Prop33
280
     0
102
RTVSPost2010PropOp33
 70
     1
102
RTVSPost2010Prop34
280
     0
102
RTVSPost2010PropOp34
 70
     1
102
RTVSPost2010Prop35
280
     0
102
RTVSPost2010PropOp35
 70
     1
102
RTVSPost2010Prop36
280
     0
102
RTVSPost2010PropOp36
 70
     1
102
RTVSPost2010Prop37
 90
       50
102
RTVSPost2010PropOp37
 70
     1
102
RTVSPost2010Prop38
140
0.0
102
RTVSPost2010PropOp38
 70
     1
102
RTVSPost2010Prop39
140
1.0
102
RTVSPost2010PropOp39
 70
     1
102
RTVSPost2010Prop40
 90
        0
102
RTVSPost2010PropOp40
 70
     1
102
RTVSPost2010Prop41ColorIndex
 90
       18
102
RTVSPost2010Prop41ColorRGB
 90
        0
102
RTVSPost2010PropOp41
 70
     1
102
RTVSPost2010Prop42
 90
       50
102
RTVSPost2010PropOp42
 70
     1
102
RTVSPost2010Prop43
 90
        3
102
RTVSPost2010PropOp43
 70
     1
102
RTVSPost2010Prop44ColorIndex
 90
        5
102
RTVSPost2010Prop44ColorRGB
 90
      255
102
RTVSPost2010PropOp44
 70
     1
102
RTVSPost2010Prop45
280
     0
102
RTVSPost2010PropOp45
 70
     1
102
RTVSPost2010Prop46
 90
       50
102
RTVSPost2010PropOp46
 70
     1
102
RTVSPost2010Prop47
 90
       50
102
RTVSPost2010PropOp47
 70
     1
102
RTVSPost2010Prop48
 90
       50
102
RTVSPost2010PropOp48
 70
     1
102
RTVSPost2010Prop49
280
     0
102
RTVSPost2010PropOp49
 70
     1
102
RTVSPost2010Prop50
 90
       50
102
RTVSPost2010PropOp50
 70
     1
102
RTVSPost2010Prop51ColorIndex
 90
      256
102
RTVSPost2010Prop51ColorRGB
 90
-16777216
102
RTVSPost2010PropOp51
 70
     0
102
RTVSPost2010Prop52
140
1.0
102
RTVSPost2010PropOp52
 70
     0
102
RTVSPost2010Prop53
 90
        2
102
RTVSPost2010PropOp53
 70
     1
102
RTVSPost2010Prop54
  1
strokes_ogs.tif
102
RTVSPost2010PropOp54
 70
     1
102
RTVSPost2010Prop55
280
     0
102
RTVSPost2010PropOp55
 70
     1
102
RTVSPost2010Prop56
140
1.0
102
RTVSPost2010PropOp56
 70
     1
102
RTVSPost2010Prop57
140
1.0
102
RTVSPost2010PropOp57
 70
     1
102
RTVSPropertyOp0
 70
     1
102
RTVSPropertyOp1
 70
     1
102
RTVSPropertyOp2
 70
     1
102
RTVSPropertyOp3
 70
     1
102
RTVSPropertyOp4
 70
     1
102
RTVSPropertyOp5
 70
     1
102
RTVSPropertyOp6
 70
     1
102
RTVSPropertyOp7
 70
     1
102
RTVSPropertyOp8
 70
     1
102
RTVSPropertyOp9
 70
     1
102
RTVSPropertyOp10
 70
     1
102
RTVSPropertyOp11
 70
     1
102
RTVSPropertyOp12
 70
     1
102
RTVSPropertyOp13
 70
     1
102
RTVSPropertyOp14
 70
     1
102
RTVSPropertyOp15
 70
     1
102
RTVSPropertyOp16
 70
     1
102
RTVSPropertyOp17
 70
     1
102
RTVSPropertyOp18
 70
     1
102
RTVSPropertyOp19
 70
     1
102
RTVSPropertyOp20
 70
     1
102
RTVSPropertyOp21
 70
     1
102
RTVSPropertyOp22
 70
     1
102
RTVSPropertyOp23
 70
     1
102
RTVSPropertyOp24
 70
     1
102
RTVSPropertyOp25
 70
     1
102
RTVSPropertyOp26
 70
     1
102
RTVSPropertyOp27
 70
     1
102
RTVSPropertyOp28
 70
     1
102
RTVSPropertyOp29
 70
     1
102
RTVSPropertyOp30
 70
     1
102
RTVSPropertyOp31
 70
     1
102
RTVSPropertyOp32
 70
     1
102
RTVSPropertyOp33
 70
     1
102
RTVSPropertyOp34
 70
     1
102
RTVSPropertyOp35
 70
     1
102
RTVSPropertyOp36
 70
     1
102
RTVSPropertyOp37
 70
     1
102
RTVSPropertyOp38
 70
     1
102
RTVSPropertyOp39
 70
     1
102
RTVSPropertyOp40
 70
     1
102
RTVSPropertyOp41
 70
     1
102
RTVSPropertyOp42
 70
     1
102
RTVSPropertyOp43
 70
     1
102
RTVSPropertyOp44
 70
     1
102
RTVSPropertyOp45
 70
     1
102
RTVSPropertyOp46
 70
     1
102
RTVSPropertyOp47
 70
     1
102
RTVSPropertyOp48
 70
     1
102
RTVSPropertyOp49
 70
     1
102
RTVSPropertyOp50
 70
     1
102
RTVSPropertyOp51
 70
     0
102
RTVSPropertyOp52
 70
     0
102
RTVSPropertyOp53
 70
     1
102
RTVSPropertyOp54
 70
     1
102
RTVSPropertyOp55
 70
     1
102
RTVSPropertyOp56
 70
     1
102
RTVSPropertyOp57
 70
     1
102
RTVSPropertyOp58
 70
     1
102
RTVSPropertyOp59
 70
     1
102
RTVSPropertyOp60
 70
     1
102
RTVSPropertyOp61
 70
     1
102
RTVSPropertyOp62
 70
     1
  0
ENDSEC
  0
EOF
