  0
SECTION
  2
HEADER
  9
$ACADVER
  1
AC1015
  9
$ACADMAINTVER
 70
    20
  9
$DWGCODEPAGE
  3
ANSI_932
  9
$INSBASE
 10
0.0
 20
0.0
 30
0.0
  9
$EXTMIN
 10
9.9999975266385
 20
10.0
 30
0.0
  9
$EXTMAX
 10
327.4449276235153
 20
217.6478520338016
 30
0.0
  9
$LIMMIN
 10
0.0000015376081137
 20
-0.0000001931532552
  9
$LIMMAX
 10
396.0000015376081
 20
272.9999998068464
  9
$ORTHOMODE
 70
     1
  9
$REGENMODE
 70
     1
  9
$FILLMODE
 70
     1
  9
$QTEXTMODE
 70
     0
  9
$MIRRTEXT
 70
     1
  9
$LTSCALE
 40
1.0
  9
$ATTMODE
 70
     1
  9
$TEXTSIZE
 40
2.5
  9
$TRACEWID
 40
1.0
  9
$TEXTSTYLE
  7
STANDARD
  9
$CLAYER
  8
0
  9
$CELTYPE
  6
BYLAYER
  9
$CECOLOR
 62
   256
  9
$CELTSCALE
 40
1.0
  9
$DISPSILH
 70
     0
  9
$DIMSCALE
 40
1.0
  9
$DIMASZ
 40
3.0
  9
$DIMEXO
 40
1.0
  9
$DIMDLI
 40
10.0
  9
$DIMRND
 40
0.0
  9
$DIMDLE
 40
0.0
  9
$DIMEXE
 40
1.0
  9
$DIMTP
 40
0.0
  9
$DIMTM
 40
0.0
  9
$DIMTXT
 40
3.2
  9
$DIMCEN
 40
0.0
  9
$DIMTSZ
 40
0.0
  9
$DIMTOL
 70
     0
  9
$DIMLIM
 70
     0
  9
$DIMTIH
 70
     0
  9
$DIMTOH
 70
     0
  9
$DIMSE1
 70
     0
  9
$DIMSE2
 70
     0
  9
$DIMTAD
 70
     3
  9
$DIMZIN
 70
     8
  9
$DIMBLK
  1

  9
$DIMASO
 70
     1
  9
$DIMSHO
 70
     1
  9
$DIMPOST
  1

  9
$DIMAPOST
  1

  9
$DIMALT
 70
     0
  9
$DIMALTD
 70
     2
  9
$DIMALTF
 40
25.4
  9
$DIMLFAC
 40
1.0
  9
$DIMTOFL
 70
     1
  9
$DIMTVP
 40
0.0
  9
$DIMTIX
 70
     0
  9
$DIMSOXD
 70
     0
  9
$DIMSAH
 70
     1
  9
$DIMBLK1
  1
OPEN
  9
$DIMBLK2
  1
OPEN
  9
$DIMSTYLE
  2
STANDARD
  9
$DIMCLRD
 70
     0
  9
$DIMCLRE
 70
     0
  9
$DIMCLRT
 70
     0
  9
$DIMTFAC
 40
1.0
  9
$DIMGAP
 40
1.0
  9
$DIMJUST
 70
     0
  9
$DIMSD1
 70
     0
  9
$DIMSD2
 70
     0
  9
$DIMTOLJ
 70
     1
  9
$DIMTZIN
 70
     0
  9
$DIMALTZ
 70
     0
  9
$DIMALTTZ
 70
     0
  9
$DIMUPT
 70
     0
  9
$DIMDEC
 70
     4
  9
$DIMTDEC
 70
     4
  9
$DIMALTU
 70
     2
  9
$DIMALTTD
 70
     2
  9
$DIMTXSTY
  7
STANDARD
  9
$DIMAUNIT
 70
     0
  9
$DIMADEC
 70
     0
  9
$DIMALTRND
 40
0.0
  9
$DIMAZIN
 70
     0
  9
$DIMDSEP
 70
    46
  9
$DIMATFIT
 70
     3
  9
$DIMFRAC
 70
     0
  9
$DIMLDRBLK
  1
OPEN
  9
$DIMLUNIT
 70
     2
  9
$DIMLWD
 70
    -2
  9
$DIMLWE
 70
    -2
  9
$DIMTMOVE
 70
     0
  9
$LUNITS
 70
     2
  9
$LUPREC
 70
     4
  9
$SKETCHINC
 40
1.0
  9
$FILLETRAD
 40
0.8
  9
$AUNITS
 70
     0
  9
$AUPREC
 70
     0
  9
$MENU
  1
.
  9
$ELEVATION
 40
0.0
  9
$PELEVATION
 40
0.0
  9
$THICKNESS
 40
0.0
  9
$LIMCHECK
 70
     0
  9
$CHAMFERA
 40
10.0
  9
$CHAMFERB
 40
10.0
  9
$CHAMFERC
 40
0.0
  9
$CHAMFERD
 40
0.0
  9
$SKPOLY
 70
     0
  9
$TDCREATE
 40
2452245.686460139
  9
$TDUCREATE
 40
2452245.311460139
  9
$TDUPDATE
 40
2457192.598924132
  9
$TDUUPDATE
 40
2457192.223924132
  9
$TDINDWG
 40
0.1254344792
  9
$TDUSRTIMER
 40
0.1254343634
  9
$USRTIMER
 70
     1
  9
$ANGBASE
 50
0.0
  9
$ANGDIR
 70
     0
  9
$PDMODE
 70
     0
  9
$PDSIZE
 40
0.0
  9
$PLINEWID
 40
0.0
  9
$SPLFRAME
 70
     0
  9
$SPLINETYPE
 70
     6
  9
$SPLINESEGS
 70
     8
  9
$HANDSEED
  5
1B4A
  9
$SURFTAB1
 70
     6
  9
$SURFTAB2
 70
     6
  9
$SURFTYPE
 70
     6
  9
$SURFU
 70
     6
  9
$SURFV
 70
     6
  9
$UCSBASE
  2

  9
$UCSNAME
  2

  9
$UCSORG
 10
0.0
 20
0.0
 30
0.0
  9
$UCSXDIR
 10
1.0
 20
0.0
 30
0.0
  9
$UCSYDIR
 10
0.0
 20
1.0
 30
0.0
  9
$UCSORTHOREF
  2

  9
$UCSORTHOVIEW
 70
     0
  9
$UCSORGTOP
 10
0.0
 20
0.0
 30
0.0
  9
$UCSORGBOTTOM
 10
0.0
 20
0.0
 30
0.0
  9
$UCSORGLEFT
 10
0.0
 20
0.0
 30
0.0
  9
$UCSORGRIGHT
 10
0.0
 20
0.0
 30
0.0
  9
$UCSORGFRONT
 10
0.0
 20
0.0
 30
0.0
  9
$UCSORGBACK
 10
0.0
 20
0.0
 30
0.0
  9
$PUCSBASE
  2

  9
$PUCSNAME
  2

  9
$PUCSORG
 10
0.0
 20
0.0
 30
0.0
  9
$PUCSXDIR
 10
1.0
 20
0.0
 30
0.0
  9
$PUCSYDIR
 10
0.0
 20
1.0
 30
0.0
  9
$PUCSORTHOREF
  2

  9
$PUCSORTHOVIEW
 70
     0
  9
$PUCSORGTOP
 10
0.0
 20
0.0
 30
0.0
  9
$PUCSORGBOTTOM
 10
0.0
 20
0.0
 30
0.0
  9
$PUCSORGLEFT
 10
0.0
 20
0.0
 30
0.0
  9
$PUCSORGRIGHT
 10
0.0
 20
0.0
 30
0.0
  9
$PUCSORGFRONT
 10
0.0
 20
0.0
 30
0.0
  9
$PUCSORGBACK
 10
0.0
 20
0.0
 30
0.0
  9
$USERI1
 70
     0
  9
$USERI2
 70
     0
  9
$USERI3
 70
     0
  9
$USERI4
 70
     0
  9
$USERI5
 70
     0
  9
$USERR1
 40
0.0
  9
$USERR2
 40
0.0
  9
$USERR3
 40
0.0
  9
$USERR4
 40
0.0
  9
$USERR5
 40
0.0
  9
$WORLDVIEW
 70
     1
  9
$SHADEDGE
 70
     3
  9
$SHADEDIF
 70
    70
  9
$TILEMODE
 70
     1
  9
$MAXACTVP
 70
    48
  9
$PINSBASE
 10
0.0
 20
0.0
 30
0.0
  9
$PLIMCHECK
 70
     0
  9
$PEXTMIN
 10
1.000000000000000E+20
 20
1.000000000000000E+20
 30
1.000000000000000E+20
  9
$PEXTMAX
 10
-1.000000000000000E+20
 20
-1.000000000000000E+20
 30
-1.000000000000000E+20
  9
$PLIMMIN
 10
0.0
 20
0.0
  9
$PLIMMAX
 10
420.0
 20
297.0
  9
$UNITMODE
 70
     0
  9
$VISRETAIN
 70
     1
  9
$PLINEGEN
 70
     0
  9
$PSLTSCALE
 70
     1
  9
$TREEDEPTH
 70
  3020
  9
$CMLSTYLE
  2
STANDARD
  9
$CMLJUST
 70
     0
  9
$CMLSCALE
 40
1.0
  9
$PROXYGRAPHICS
 70
     1
  9
$MEASUREMENT
 70
     0
  9
$CELWEIGHT
370
    -1
  9
$ENDCAPS
280
     0
  9
$JOINSTYLE
280
     0
  9
$LWDISPLAY
290
     0
  9
$INSUNITS
 70
     0
  9
$HYPERLINKBASE
  1

  9
$STYLESHEET
  1

  9
$XEDIT
290
     1
  9
$CEPSNTYPE
380
     0
  9
$PSTYLEMODE
290
     1
  9
$FINGERPRINTGUID
  2
{6364B45E-D985-4F7A-A95B-5FFCAAE1ED42}
  9
$VERSIONGUID
  2
{6B1C8AA1-0DD8-4E7F-B91E-B0135A1F676E}
  9
$EXTNAMES
290
     1
  9
$PSVPSCALE
 40
0.0
  9
$OLESTARTUP
290
     0
  0
ENDSEC
  0
SECTION
  2
CLASSES
  0
CLASS
  1
ACDBDICTIONARYWDFLT
  2
AcDbDictionaryWithDefault
  3
ObjectDBX Classes
 90
        0
280
     0
281
     0
  0
CLASS
  1
ACDBPLACEHOLDER
  2
AcDbPlaceHolder
  3
ObjectDBX Classes
 90
        0
280
     0
281
     0
  0
CLASS
  1
LAYOUT
  2
AcDbLayout
  3
ObjectDBX Classes
 90
        0
280
     0
281
     0
  0
CLASS
  1
DICTIONARYVAR
  2
AcDbDictionaryVar
  3
ObjectDBX Classes
 90
        0
280
     0
281
     0
  0
CLASS
  1
MATERIAL
  2
AcDbMaterial
  3
ObjectDBX Classes
 90
     1153
280
     0
281
     0
  0
CLASS
  1
VISUALSTYLE
  2
AcDbVisualStyle
  3
ObjectDBX Classes
 90
     4095
280
     0
281
     0
  0
CLASS
  1
TABLESTYLE
  2
AcDbTableStyle
  3
ObjectDBX Classes
 90
     4095
280
     0
281
     0
  0
CLASS
  1
SCALE
  2
AcDbScale
  3
ObjectDBX Classes
 90
     1153
280
     0
281
     0
  0
CLASS
  1
MLEADERSTYLE
  2
AcDbMLeaderStyle
  3
ACDB_MLEADERSTYLE_CLASS
 90
     4095
280
     0
281
     0
  0
CLASS
  1
ACDBSECTIONVIEWSTYLE
  2
AcDbSectionViewStyle
  3
ObjectDBX Classes
 90
     1025
280
     0
281
     0
  0
CLASS
  1
ACDBDETAILVIEWSTYLE
  2
AcDbDetailViewStyle
  3
ObjectDBX Classes
 90
     1025
280
     0
281
     0
  0
CLASS
  1
CELLSTYLEMAP
  2
AcDbCellStyleMap
  3
ObjectDBX Classes
 90
     1152
280
     0
281
     0
  0
ENDSEC
  0
SECTION
  2
TABLES
  0
TABLE
  2
VPORT
  5
13FB
330
0
100
AcDbSymbolTable
 70
     1
  0
VPORT
  5
1A94
330
13FB
100
AcDbSymbolTableRecord
100
AcDbViewportTableRecord
  2
*ACTIVE
 70
     0
 10
0.0
 20
0.0
 11
1.0
 21
1.0
 12
231.6262401099026
 22
113.8284534800458
 13
0.0
 23
0.0
 14
10.0
 24
10.0
 15
10.0
 25
10.0
 16
0.0
 26
0.0
 36
1.0
 17
0.0
 27
0.0
 37
0.0
 40
210.0012140065306
 41
1.899603698811096
 42
50.0
 43
0.0
 44
0.0
 50
0.0
 51
0.0
 71
     0
 72
   100
 73
     1
 74
     0
 75
     0
 76
     0
 77
     0
 78
     0
281
     0
 65
     1
110
0.0
120
0.0
130
0.0
111
1.0
121
0.0
131
0.0
112
0.0
122
1.0
132
0.0
 79
     0
146
0.0
1001
ACAD_NAV_VCDISPLAY
1070
     3
  0
ENDTAB
  0
TABLE
  2
LTYPE
  5
13F8
330
0
100
AcDbSymbolTable
 70
     4
  0
LTYPE
  5
1406
330
13F8
100
AcDbSymbolTableRecord
100
AcDbLinetypeTableRecord
  2
BYBLOCK
 70
     0
  3

 72
    65
 73
     0
 40
0.0
  0
LTYPE
  5
1407
330
13F8
100
AcDbSymbolTableRecord
100
AcDbLinetypeTableRecord
  2
BYLAYER
 70
     0
  3

 72
    65
 73
     0
 40
0.0
  0
LTYPE
  5
1408
330
13F8
100
AcDbSymbolTableRecord
100
AcDbLinetypeTableRecord
  2
CONTINUOUS
 70
     0
  3
Solid line
 72
    65
 73
     0
 40
0.0
  0
LTYPE
  5
1416
330
13F8
100
AcDbSymbolTableRecord
100
AcDbLinetypeTableRecord
  2
DASHED
 70
     0
  3
Dashed __ __ __ __ __ __ __ __ __ __ __ __ __ _
 72
    65
 73
     2
 40
19.04999999999997
 49
12.7
 74
     0
 49
-6.349999999999997
 74
     0
  0
LTYPE
  5
1417
330
13F8
100
AcDbSymbolTableRecord
100
AcDbLinetypeTableRecord
  2
CENTER
 70
     0
  3
Center ____ _ ____ _ ____ _ ____ _ ____ _ ____
 72
    65
 73
     4
 40
50.8
 49
31.75
 74
     0
 49
-6.349999999999997
 74
     0
 49
6.349999999999997
 74
     0
 49
-6.349999999999997
 74
     0
  0
LTYPE
  5
1418
330
13F8
100
AcDbSymbolTableRecord
100
AcDbLinetypeTableRecord
  2
PHANTOM
 70
     0
  3
Phantom ______  __  __  ______  __  __  ______
 72
    65
 73
     6
 40
63.5
 49
31.75
 74
     0
 49
-6.349999999999997
 74
     0
 49
6.349999999999997
 74
     0
 49
-6.349999999999997
 74
     0
 49
6.349999999999997
 74
     0
 49
-6.349999999999997
 74
     0
  0
ENDTAB
  0
TABLE
  2
LAYER
  5
13F5
330
0
100
AcDbSymbolTable
 70
     8
  0
LAYER
  5
1403
102
{ACAD_XDICTIONARY
360
1AEE
102
}
330
13F5
100
AcDbSymbolTableRecord
100
AcDbLayerTableRecord
  2
0
 70
     0
 62
     7
  6
CONTINUOUS
370
    -3
390
1A9D
  0
LAYER
  5
1419
102
{ACAD_XDICTIONARY
360
1AF0
102
}
330
13F5
100
AcDbSymbolTableRecord
100
AcDbLayerTableRecord
  2
4
 70
     0
 62
     1
  6
CENTER
370
    -3
390
1A9D
  0
LAYER
  5
141A
102
{ACAD_XDICTIONARY
360
1AF2
102
}
330
13F5
100
AcDbSymbolTableRecord
100
AcDbLayerTableRecord
  2
5
 70
     0
 62
     6
  6
PHANTOM
370
    -3
390
1A9D
  0
LAYER
  5
141B
102
{ACAD_XDICTIONARY
360
1AF4
102
}
330
13F5
100
AcDbSymbolTableRecord
100
AcDbLayerTableRecord
  2
1
 70
     0
 62
     7
  6
CONTINUOUS
370
    -3
390
1A9D
  0
LAYER
  5
141C
102
{ACAD_XDICTIONARY
360
1AF6
102
}
330
13F5
100
AcDbSymbolTableRecord
100
AcDbLayerTableRecord
  2
2
 70
     0
 62
     4
  6
CONTINUOUS
370
    -3
390
1A9D
  0
LAYER
  5
141D
102
{ACAD_XDICTIONARY
360
1AF8
102
}
330
13F5
100
AcDbSymbolTableRecord
100
AcDbLayerTableRecord
  2
3
 70
     0
 62
     2
  6
DASHED
370
    -3
390
1A9D
  0
LAYER
  5
141E
102
{ACAD_XDICTIONARY
360
1AFA
102
}
330
13F5
100
AcDbSymbolTableRecord
100
AcDbLayerTableRecord
  2
6
 70
     0
 62
     5
  6
CONTINUOUS
370
    -3
390
1A9D
  0
LAYER
  5
141F
102
{ACAD_XDICTIONARY
360
1AFC
102
}
330
13F5
100
AcDbSymbolTableRecord
100
AcDbLayerTableRecord
  2
7
 70
     0
 62
     3
  6
CONTINUOUS
370
    -3
390
1A9D
  0
ENDTAB
  0
TABLE
  2
STYLE
  5
13F6
330
0
100
AcDbSymbolTable
 70
     1
  0
STYLE
  5
1404
330
13F6
100
AcDbSymbolTableRecord
100
AcDbTextStyleTableRecord
  2
STANDARD
 70
     0
 40
0.0
 41
1.0
 50
0.0
 71
     0
 42
2.5
  3
simplex.shx
  4

  0
ENDTAB
  0
TABLE
  2
VIEW
  5
13F9
330
0
100
AcDbSymbolTable
 70
     0
  0
ENDTAB
  0
TABLE
  2
UCS
  5
13FA
330
0
100
AcDbSymbolTable
 70
     0
  0
ENDTAB
  0
TABLE
  2
APPID
  5
13FC
330
0
100
AcDbSymbolTable
 70
     7
  0
APPID
  5
1405
330
13FC
100
AcDbSymbolTableRecord
100
AcDbRegAppTableRecord
  2
ACAD
 70
     0
  0
APPID
  5
1420
330
13FC
100
AcDbSymbolTableRecord
100
AcDbRegAppTableRecord
  2
CONTENTTABDATA
 70
     0
  0
APPID
  5
1421
330
13FC
100
AcDbSymbolTableRecord
100
AcDbRegAppTableRecord
  2
CONTENTCURRENTTAB
 70
     0
  0
APPID
  5
1422
330
13FC
100
AcDbSymbolTableRecord
100
AcDbRegAppTableRecord
  2
CONTENTBLOCKICON
 70
     0
  0
APPID
  5
1423
330
13FC
100
AcDbSymbolTableRecord
100
AcDbRegAppTableRecord
  2
CONTENTBLOCKDESCRIPTION
 70
     0
  0
APPID
  5
1B08
330
13FC
100
AcDbSymbolTableRecord
100
AcDbRegAppTableRecord
  2
ACAD_NAV_VCDISPLAY
 70
     0
  0
APPID
  5
1B41
330
13FC
100
AcDbSymbolTableRecord
100
AcDbRegAppTableRecord
  2
ACAD_MLEADERVER
 70
     0
  0
ENDTAB
  0
TABLE
  2
DIMSTYLE
  5
13FD
330
0
100
AcDbSymbolTable
 70
     1
100
AcDbDimStyleTable
 71
     0
  0
DIMSTYLE
105
1424
330
13FD
100
AcDbSymbolTableRecord
100
AcDbDimStyleTableRecord
  2
STANDARD
 70
     0
 41
3.0
 42
1.0
 43
10.0
 44
1.0
 73
     0
 74
     0
 77
     3
 78
     8
140
3.2
141
0.0
147
1.0
172
     1
173
     1
284
     8
285
     8
286
     8
340
1404
  0
ENDTAB
  0
TABLE
  2
BLOCK_RECORD
  5
13F4
330
0
100
AcDbSymbolTable
 70
     1
  0
BLOCK_RECORD
  5
1411
102
{ACAD_XDICTIONARY
360
1A97
102
}
330
13F4
100
AcDbSymbolTableRecord
100
AcDbBlockTableRecord
  2
*MODEL_SPACE
340
1AEB
  0
BLOCK_RECORD
  5
140D
102
{ACAD_XDICTIONARY
360
1A95
102
}
330
13F4
100
AcDbSymbolTableRecord
100
AcDbBlockTableRecord
  2
*PAPER_SPACE
340
1AEC
  0
BLOCK_RECORD
  5
142C
330
13F4
100
AcDbSymbolTableRecord
100
AcDbBlockTableRecord
  2
_OPEN
340
0
  0
ENDTAB
  0
ENDSEC
  0
SECTION
  2
BLOCKS
  0
BLOCK
  5
1412
330
1411
100
AcDbEntity
  8
0
100
AcDbBlockBegin
  2
*MODEL_SPACE
 70
     0
 10
0.0
 20
0.0
 30
0.0
  3
*MODEL_SPACE
  1

  0
ENDBLK
  5
1413
330
1411
100
AcDbEntity
  8
0
100
AcDbBlockEnd
  0
BLOCK
  5
140E
330
140D
100
AcDbEntity
 67
     1
  8
0
100
AcDbBlockBegin
  2
*PAPER_SPACE
 70
     0
 10
0.0
 20
0.0
 30
0.0
  3
*PAPER_SPACE
  1

  0
ENDBLK
  5
140F
330
140D
100
AcDbEntity
 67
     1
  8
0
100
AcDbBlockEnd
  0
BLOCK
  5
142D
330
142C
100
AcDbEntity
  8
0
100
AcDbBlockBegin
  2
_OPEN
 70
     0
 10
0.0
 20
0.0
 30
0.0
  3
_OPEN
  1

  0
LINE
  5
142E
330
142C
100
AcDbEntity
  8
0
  6
ByBlock
 62
     0
100
AcDbLine
 10
-1.0
 20
0.1666666666666666
 30
0.0
 11
0.0
 21
0.0
 31
0.0
  0
LINE
  5
142F
330
142C
100
AcDbEntity
  8
0
  6
ByBlock
 62
     0
100
AcDbLine
 10
0.0
 20
0.0
 30
0.0
 11
-1.0
 21
-0.1666666666666666
 31
0.0
  0
LINE
  5
1430
330
142C
100
AcDbEntity
  8
0
  6
ByBlock
 62
     0
100
AcDbLine
 10
0.0
 20
0.0
 30
0.0
 11
-1.0
 21
0.0
 31
0.0
  0
ENDBLK
  5
1431
330
142C
100
AcDbEntity
  8
0
100
AcDbBlockEnd
  0
ENDSEC
  0
SECTION
  2
ENTITIES
  0
TEXT
  5
1432
330
1411
100
AcDbEntity
  8
4
  6
CENTER
100
AcDbText
 10
23.97950852663849
 20
10.0
 30
0.0
 40
1.399999999999999
  1
4
100
AcDbText
  0
TEXT
  5
1433
330
1411
100
AcDbEntity
  8
7
  6
Continuous
100
AcDbText
 10
9.999997526638502
 20
26.00000076076889
 30
0.0
 40
3.0
  1
CODE No.1532
100
AcDbText
  0
TEXT
  5
1434
330
1411
100
AcDbEntity
  8
7
  6
Continuous
100
AcDbText
 10
9.999997526638502
 20
18.00000076076889
 30
0.0
 40
3.0
  1
TYPE No.TL-135L
100
AcDbText
  0
TEXT
  5
1435
330
1411
100
AcDbEntity
  8
1
  6
Continuous
100
AcDbText
 10
9.999997526638502
 20
10.00000076076889
 30
0.0
 40
1.399999999999999
  1
LAYER
100
AcDbText
  0
TEXT
  5
1436
330
1411
100
AcDbEntity
  8
2
  6
Continuous
100
AcDbText
 10
19.9795085266385
 20
10.0
 30
0.0
 40
1.399999999999999
  1
2
100
AcDbText
  0
TEXT
  5
1437
330
1411
100
AcDbEntity
  8
3
  6
DASHED
100
AcDbText
 10
21.97950852663848
 20
10.0
 30
0.0
 40
1.399999999999999
  1
3
100
AcDbText
  0
TEXT
  5
1438
330
1411
100
AcDbEntity
  8
1
  6
Continuous
100
AcDbText
 10
17.9795085266385
 20
10.0
 30
0.0
 40
1.399999999999999
  1
1
100
AcDbText
  0
TEXT
  5
1439
330
1411
100
AcDbEntity
  8
5
  6
PHANTOM
100
AcDbText
 10
25.97950852663849
 20
10.0
 30
0.0
 40
1.399999999999999
  1
5
100
AcDbText
  0
TEXT
  5
143A
330
1411
100
AcDbEntity
  8
6
  6
Continuous
100
AcDbText
 10
27.97950852663849
 20
10.0
 30
0.0
 40
1.399999999999999
  1
6
100
AcDbText
  0
TEXT
  5
143B
330
1411
100
AcDbEntity
  8
7
  6
Continuous
100
AcDbText
 10
29.9795085266385
 20
10.0
 30
0.0
 40
1.399999999999999
  1
7
100
AcDbText
  0
LINE
  5
143C
330
1411
100
AcDbEntity
  8
1
  6
Continuous
100
AcDbLine
 10
110.4621073695017
 20
204.8978520337916
 30
0.0
 11
120.4621073694739
 21
204.8978520337898
 31
0.0
  0
LINE
  5
143D
330
1411
100
AcDbEntity
  8
1
  6
Continuous
100
AcDbLine
 10
110.4621073695017
 20
212.8978520337916
 30
0.0
 11
120.4621073694739
 21
212.8978520337899
 31
0.0
  0
LINE
  5
143E
330
1411
100
AcDbEntity
  8
4
  6
CENTER
100
AcDbLine
 10
101.1707168694323
 20
208.8978520338081
 30
0.0
 11
143.4621073695363
 21
208.8978520337846
 31
0.0
  0
LINE
  5
143F
330
1411
100
AcDbEntity
  8
1
  6
Continuous
100
AcDbLine
 10
110.4621073695257
 20
204.0978520338199
 30
0.0
 11
119.6121073694786
 21
204.0978520338097
 31
0.0
  0
LINE
  5
1440
330
1411
100
AcDbEntity
  8
1
  6
Continuous
100
AcDbLine
 10
110.4621073695364
 20
213.6978520338199
 30
0.0
 11
119.6121073694894
 21
213.6978520338099
 31
0.0
  0
LINE
  5
1441
330
1411
100
AcDbEntity
  8
1
  6
Continuous
100
AcDbLine
 10
104.1707168694324
 20
205.0478520338066
 30
0.0
 11
104.1707168694324
 21
212.7478520338064
 31
0.0
  0
LINE
  5
1442
330
1411
100
AcDbEntity
  8
4
  6
CENTER
100
AcDbLine
 10
114.4621073694912
 20
200.7978520337978
 30
0.0
 11
114.4621073694912
 21
216.9978520337911
 31
0.0
  0
LINE
  5
1443
330
1411
100
AcDbEntity
  8
1
  6
Continuous
100
AcDbLine
 10
110.4621073695362
 20
204.0978520338199
 30
0.0
 11
110.4621073695362
 21
213.6978520338199
 31
0.0
  0
CIRCLE
  5
1444
330
1411
100
AcDbEntity
  8
2
  6
Continuous
100
AcDbCircle
 10
114.4621073694893
 20
208.8978520338032
 30
0.0
 40
1.5
  0
CIRCLE
  5
1445
330
1411
100
AcDbEntity
  8
1
  6
Continuous
100
AcDbCircle
 10
114.4621073694893
 20
208.8978520338032
 30
0.0
 40
1.229
  0
LINE
  5
1446
330
1411
100
AcDbEntity
  8
1
  6
Continuous
100
AcDbLine
 10
104.1707168694324
 20
205.0478520338066
 30
0.0
 11
110.4621073695362
 21
205.047852033803
 31
0.0
  0
LINE
  5
1447
330
1411
100
AcDbEntity
  8
1
  6
Continuous
100
AcDbLine
 10
116.462107369491
 20
203.5978520337957
 30
0.0
 11
116.462107369491
 21
204.0978520338132
 31
0.0
  0
LINE
  5
1448
330
1411
100
AcDbEntity
  8
1
  6
Continuous
100
AcDbLine
 10
112.4621073694912
 20
203.5978520337999
 30
0.0
 11
112.4621073694912
 21
204.0978520338177
 31
0.0
  0
LINE
  5
1449
330
1411
100
AcDbEntity
  8
1
  6
Continuous
100
AcDbLine
 10
112.4621073694912
 20
203.5978520337999
 30
0.0
 11
116.462107369491
 21
203.5978520337957
 31
0.0
  0
ARC
  5
144A
330
1411
100
AcDbEntity
  8
1
  6
Continuous
100
AcDbCircle
 10
115.5624350146797
 20
203.056290986168
 30
0.0
 40
0.6
100
AcDbArc
 50
286.3876871302784
 51
354.9999999999362
  0
ARC
  5
144B
330
1411
100
AcDbEntity
  8
1
  6
Continuous
100
AcDbCircle
 10
113.3617797242912
 20
203.056290986177
 30
0.0
 40
0.6
100
AcDbArc
 50
184.9999999999364
 51
253.6123128695942
  0
LINE
  5
144C
330
1411
100
AcDbEntity
  8
1
  6
Continuous
100
AcDbLine
 10
112.7121073694852
 20
203.5978520337996
 30
0.0
 11
112.7640629054305
 21
203.0039975405195
 31
0.0
  0
LINE
  5
144D
330
1411
100
AcDbEntity
  8
1
  6
Continuous
100
AcDbLine
 10
116.2121073694853
 20
203.5978520337959
 30
0.0
 11
116.1601518335374
 21
203.0039975405006
 31
0.0
  0
ARC
  5
144E
330
1411
100
AcDbEntity
  8
1
  6
Continuous
100
AcDbCircle
 10
114.4621073694887
 20
206.7978520337979
 30
0.0
 40
4.5
100
AcDbArc
 50
253.6123128695942
 51
286.3876871302784
  0
LINE
  5
144F
330
1411
100
AcDbEntity
  8
1
  6
Continuous
100
AcDbLine
 10
104.1707168694324
 20
212.7478520338064
 30
0.0
 11
110.4621073695362
 21
212.7478520338029
 31
0.0
  0
ARC
  5
1450
330
1411
100
AcDbEntity
  8
1
  6
Continuous
100
AcDbCircle
 10
114.4621073694912
 20
210.9978520338033
 30
0.0
 40
4.5
100
AcDbArc
 50
73.61231286965791
 51
106.3876871303421
  0
LINE
  5
1451
330
1411
100
AcDbEntity
  8
1
  6
Continuous
100
AcDbLine
 10
112.4621073694912
 20
214.1978520338033
 30
0.0
 11
116.462107369491
 21
214.1978520338033
 31
0.0
  0
LINE
  5
1452
330
1411
100
AcDbEntity
  8
1
  6
Continuous
100
AcDbLine
 10
112.4621073694912
 20
213.6978520338177
 30
0.0
 11
112.4621073694912
 21
214.1978520338033
 31
0.0
  0
ARC
  5
1453
330
1411
100
AcDbEntity
  8
1
  6
Continuous
100
AcDbCircle
 10
115.5624350146862
 20
214.7394130814317
 30
0.0
 40
0.6
100
AcDbArc
 50
5.0
 51
73.61231286965791
  0
ARC
  5
1454
330
1411
100
AcDbEntity
  8
1
  6
Continuous
100
AcDbCircle
 10
113.3617797242976
 20
214.7394130814253
 30
0.0
 40
0.6
100
AcDbArc
 50
106.3876871303421
 51
175.0
  0
LINE
  5
1455
330
1411
100
AcDbEntity
  8
1
  6
Continuous
100
AcDbLine
 10
112.712107369491
 20
214.1978520338033
 30
0.0
 11
112.7640629054369
 21
214.7917065270832
 31
0.0
  0
LINE
  5
1456
330
1411
100
AcDbEntity
  8
1
  6
Continuous
100
AcDbLine
 10
116.2121073694911
 20
214.1978520338033
 30
0.0
 11
116.1601518335439
 21
214.7917065270986
 31
0.0
  0
LINE
  5
1457
330
1411
100
AcDbEntity
  8
1
  6
Continuous
100
AcDbLine
 10
116.462107369491
 20
213.6978520338132
 30
0.0
 11
116.462107369491
 21
214.1978520338033
 31
0.0
  0
LINE
  5
1458
330
1411
100
AcDbEntity
  8
1
  6
Continuous
100
AcDbLine
 10
130.4621073694741
 20
204.8978520337882
 30
0.0
 11
140.4621073695363
 21
204.8978520337866
 31
0.0
  0
LINE
  5
1459
330
1411
100
AcDbEntity
  8
1
  6
Continuous
100
AcDbLine
 10
130.4621073694739
 20
212.8978520337883
 30
0.0
 11
140.4621073695363
 21
212.8978520337867
 31
0.0
  0
LINE
  5
145A
330
1411
100
AcDbEntity
  8
1
  6
Continuous
100
AcDbLine
 10
131.3121073694785
 20
204.0978520337968
 30
0.0
 11
140.4621073695257
 21
204.0978520337866
 31
0.0
  0
LINE
  5
145B
330
1411
100
AcDbEntity
  8
1
  6
Continuous
100
AcDbLine
 10
131.3121073694894
 20
213.6978520337969
 30
0.0
 11
140.4621073695363
 21
213.6978520337866
 31
0.0
  0
LINE
  5
145C
330
1411
100
AcDbEntity
  8
4
  6
CENTER
100
AcDbLine
 10
125.4621073694889
 20
200.1478520338015
 30
0.0
 11
125.4621073694889
 21
217.6478520338016
 31
0.0
  0
LINE
  5
145D
330
1411
100
AcDbEntity
  8
1
  6
Continuous
100
AcDbLine
 10
130.4621073694739
 20
213.9978520337807
 30
0.0
 11
130.4621073694739
 21
203.7978520337806
 31
0.0
  0
LINE
  5
145E
330
1411
100
AcDbEntity
  8
1
  6
Continuous
100
AcDbLine
 10
120.4621073694739
 20
213.9978520337807
 30
0.0
 11
120.4621073694739
 21
203.7978520337806
 31
0.0
  0
LINE
  5
1464
330
1411
100
AcDbEntity
  8
1
  6
Continuous
100
AcDbLine
 10
120.4621073694739
 20
203.7978520337806
 30
0.0
 11
130.4621073694739
 21
203.7978520337806
 31
0.0
  0
LINE
  5
1465
330
1411
100
AcDbEntity
  8
1
  6
Continuous
100
AcDbLine
 10
120.4121073694778
 20
203.6978520338172
 30
0.0
 11
130.5121073694778
 21
203.6978520337949
 31
0.0
  0
LINE
  5
1466
330
1411
100
AcDbEntity
  8
1
  6
Continuous
100
AcDbLine
 10
120.4121073694759
 20
202.8978520338171
 30
0.0
 11
130.5121073694759
 21
202.8978520337949
 31
0.0
  0
LINE
  5
1467
330
1411
100
AcDbEntity
  8
1
  6
Continuous
100
AcDbLine
 10
119.6121073694786
 20
204.0978520338097
 30
0.0
 11
119.6121073694778
 21
203.697852033819
 31
0.0
  0
LINE
  5
1468
330
1411
100
AcDbEntity
  8
1
  6
Continuous
100
AcDbLine
 10
120.4121073694894
 20
203.6978520338005
 30
0.0
 11
120.4121073694894
 21
204.0978520338099
 31
0.0
  0
ARC
  5
1469
330
1411
100
AcDbEntity
  8
1
  6
Continuous
100
AcDbCircle
 10
120.4121073694778
 20
203.6978520338172
 30
0.0
 40
0.8
100
AcDbArc
 50
179.999999999873
 51
269.999999999873
  0
LINE
  5
146D
330
1411
100
AcDbEntity
  8
1
  6
Continuous
100
AcDbLine
 10
124.4621073694889
 20
203.7978520337806
 30
0.0
 11
124.4621073694889
 21
203.6978520338082
 31
0.0
  0
LINE
  5
1470
330
1411
100
AcDbEntity
  8
1
  6
Continuous
100
AcDbLine
 10
120.3049276925173
 20
204.497852033809
 30
0.0
 11
120.4621073694739
 21
204.4978520338087
 31
0.0
  0
ARC
  5
1471
330
1411
100
AcDbEntity
  8
1
  6
Continuous
100
AcDbCircle
 10
119.6121073694893
 20
204.0978520338099
 30
0.0
 40
0.8
100
AcDbArc
 50
0.0
 51
90.0
  0
LINE
  5
1472
330
1411
100
AcDbEntity
  8
1
  6
Continuous
100
AcDbLine
 10
131.3121073694785
 20
204.0978520337968
 30
0.0
 11
131.3121073694778
 21
203.6978520337931
 31
0.0
  0
LINE
  5
1473
330
1411
100
AcDbEntity
  8
1
  6
Continuous
100
AcDbLine
 10
130.5121073694893
 20
203.6978520338005
 30
0.0
 11
130.5121073694893
 21
204.0978520337969
 31
0.0
  0
LINE
  5
1477
330
1411
100
AcDbEntity
  8
1
  6
Continuous
100
AcDbLine
 10
126.4621073694889
 20
203.7978520337806
 30
0.0
 11
126.4621073694889
 21
203.6978520338038
 31
0.0
  0
ARC
  5
147A
330
1411
100
AcDbEntity
  8
1
  6
Continuous
100
AcDbCircle
 10
130.5121073694778
 20
203.6978520337949
 30
0.0
 40
0.8
100
AcDbArc
 50
269.999999999873
 51
359.9999999998729
  0
LINE
  5
147B
330
1411
100
AcDbEntity
  8
1
  6
Continuous
100
AcDbLine
 10
130.4621073694739
 20
204.4978520337976
 30
0.0
 11
130.619287046462
 21
204.4978520337975
 31
0.0
  0
ARC
  5
147C
330
1411
100
AcDbEntity
  8
1
  6
Continuous
100
AcDbCircle
 10
131.3121073694893
 20
204.0978520337969
 30
0.0
 40
0.8
100
AcDbArc
 50
90.0
 51
180.0
  0
LINE
  5
1482
330
1411
100
AcDbEntity
  8
1
  6
Continuous
100
AcDbLine
 10
120.4621073694739
 20
213.9978520337807
 30
0.0
 11
130.4621073694739
 21
213.9978520337807
 31
0.0
  0
LINE
  5
1483
330
1411
100
AcDbEntity
  8
1
  6
Continuous
100
AcDbLine
 10
120.4121073694894
 20
214.0978520338005
 30
0.0
 11
130.5121073694893
 21
214.0978520338005
 31
0.0
  0
LINE
  5
1484
330
1411
100
AcDbEntity
  8
1
  6
Continuous
100
AcDbLine
 10
120.4121073694894
 20
214.8978520338006
 30
0.0
 11
130.5121073694893
 21
214.8978520338006
 31
0.0
  0
LINE
  5
1486
330
1411
100
AcDbEntity
  8
1
  6
Continuous
100
AcDbLine
 10
120.3049276925162
 20
213.297852033809
 30
0.0
 11
120.4621073694739
 21
213.2978520338087
 31
0.0
  0
ARC
  5
1487
330
1411
100
AcDbEntity
  8
1
  6
Continuous
100
AcDbCircle
 10
120.4121073694894
 20
214.0978520338005
 30
0.0
 40
0.8
100
AcDbArc
 50
90.0
 51
180.0
  0
LINE
  5
1488
330
1411
100
AcDbEntity
  8
1
  6
Continuous
100
AcDbLine
 10
119.6121073694893
 20
213.6978520338099
 30
0.0
 11
119.6121073694893
 21
214.0978520338005
 31
0.0
  0
LINE
  5
1489
330
1411
100
AcDbEntity
  8
1
  6
Continuous
100
AcDbLine
 10
120.4121073694894
 20
213.6978520338099
 30
0.0
 11
120.4121073694894
 21
214.0978520338005
 31
0.0
  0
ARC
  5
148A
330
1411
100
AcDbEntity
  8
1
  6
Continuous
100
AcDbCircle
 10
119.6121073694893
 20
213.6978520338099
 30
0.0
 40
0.8
100
AcDbArc
 50
270.0
 51
0.0
  0
LINE
  5
148D
330
1411
100
AcDbEntity
  8
1
  6
Continuous
100
AcDbLine
 10
124.4621073694889
 20
214.0978520338005
 30
0.0
 11
124.4621073694889
 21
213.9978520337807
 31
0.0
  0
LINE
  5
1493
330
1411
100
AcDbEntity
  8
1
  6
Continuous
100
AcDbLine
 10
126.4621073694889
 20
214.0978520338005
 30
0.0
 11
126.4621073694889
 21
213.9978520337807
 31
0.0
  0
LINE
  5
1494
330
1411
100
AcDbEntity
  8
1
  6
Continuous
100
AcDbLine
 10
130.4621073694739
 20
213.2978520337976
 30
0.0
 11
130.6192870464613
 21
213.2978520337975
 31
0.0
  0
ARC
  5
1495
330
1411
100
AcDbEntity
  8
1
  6
Continuous
100
AcDbCircle
 10
130.5121073694893
 20
214.0978520338005
 30
0.0
 40
0.8
100
AcDbArc
 50
0.0
 51
90.0
  0
LINE
  5
1496
330
1411
100
AcDbEntity
  8
1
  6
Continuous
100
AcDbLine
 10
131.3121073694893
 20
213.6978520337969
 30
0.0
 11
131.3121073694893
 21
214.0978520338005
 31
0.0
  0
LINE
  5
1497
330
1411
100
AcDbEntity
  8
1
  6
Continuous
100
AcDbLine
 10
130.5121073694893
 20
213.6978520337969
 30
0.0
 11
130.5121073694893
 21
214.0978520338005
 31
0.0
  0
ARC
  5
1498
330
1411
100
AcDbEntity
  8
1
  6
Continuous
100
AcDbCircle
 10
131.3121073694893
 20
213.6978520337969
 30
0.0
 40
0.8
100
AcDbArc
 50
180.0
 51
270.0
  0
LINE
  5
149B
330
1411
100
AcDbEntity
  8
4
  6
CENTER
100
AcDbLine
 10
136.4621073694912
 20
200.7978520337978
 30
0.0
 11
136.4621073694912
 21
216.9978520337911
 31
0.0
  0
LINE
  5
149C
330
1411
100
AcDbEntity
  8
1
  6
Continuous
100
AcDbLine
 10
140.4621073695363
 20
204.0978520337866
 30
0.0
 11
140.4621073695363
 21
213.6978520337866
 31
0.0
  0
CIRCLE
  5
149D
330
1411
100
AcDbEntity
  8
2
  6
Continuous
100
AcDbCircle
 10
136.4621073694894
 20
208.8978520338032
 30
0.0
 40
1.5
  0
CIRCLE
  5
149E
330
1411
100
AcDbEntity
  8
1
  6
Continuous
100
AcDbCircle
 10
136.4621073694894
 20
208.8978520338032
 30
0.0
 40
1.229
  0
LINE
  5
149F
330
1411
100
AcDbEntity
  8
1
  6
Continuous
100
AcDbLine
 10
138.4621073694912
 20
203.5978520337999
 30
0.0
 11
138.4621073694912
 21
204.0978520337887
 31
0.0
  0
LINE
  5
14A0
330
1411
100
AcDbEntity
  8
1
  6
Continuous
100
AcDbLine
 10
134.4621073694912
 20
203.5978520337955
 30
0.0
 11
134.4621073694912
 21
204.0978520337931
 31
0.0
  0
LINE
  5
14A1
330
1411
100
AcDbEntity
  8
1
  6
Continuous
100
AcDbLine
 10
138.4621073694912
 20
203.5978520337999
 30
0.0
 11
134.4621073694912
 21
203.5978520337955
 31
0.0
  0
ARC
  5
14A2
330
1411
100
AcDbEntity
  8
1
  6
Continuous
100
AcDbCircle
 10
136.4621073694894
 20
206.7978520337979
 30
0.0
 40
4.5
100
AcDbArc
 50
253.6123128697215
 51
286.3876871304057
  0
ARC
  5
14A3
330
1411
100
AcDbEntity
  8
1
  6
Continuous
100
AcDbCircle
 10
135.3617797242984
 20
203.056290986168
 30
0.0
 40
0.6
100
AcDbArc
 50
185.0000000000633
 51
253.6123128697215
  0
LINE
  5
14A4
330
1411
100
AcDbEntity
  8
1
  6
Continuous
100
AcDbLine
 10
134.7121073694931
 20
203.5978520337959
 30
0.0
 11
134.764062905441
 21
203.0039975405006
 31
0.0
  0
ARC
  5
14A5
330
1411
100
AcDbEntity
  8
1
  6
Continuous
100
AcDbCircle
 10
137.5624350146871
 20
203.056290986177
 30
0.0
 40
0.6
100
AcDbArc
 50
286.3876871304057
 51
355.0000000000636
  0
LINE
  5
14A6
330
1411
100
AcDbEntity
  8
1
  6
Continuous
100
AcDbLine
 10
138.2121073694931
 20
203.5978520337996
 30
0.0
 11
138.1601518335478
 21
203.0039975405195
 31
0.0
  0
ARC
  5
14A7
330
1411
100
AcDbEntity
  8
1
  6
Continuous
100
AcDbCircle
 10
136.4621073694912
 20
210.997852033791
 30
0.0
 40
4.5
100
AcDbArc
 50
73.61231286965791
 51
106.3876871303421
  0
LINE
  5
14A8
330
1411
100
AcDbEntity
  8
1
  6
Continuous
100
AcDbLine
 10
134.4621073694912
 20
214.1978520337911
 30
0.0
 11
138.4621073694912
 21
214.1978520337911
 31
0.0
  0
ARC
  5
14A9
330
1411
100
AcDbEntity
  8
1
  6
Continuous
100
AcDbCircle
 10
135.3617797242976
 20
214.7394130814131
 30
0.0
 40
0.6
100
AcDbArc
 50
106.3876871303421
 51
175.0
  0
LINE
  5
14AA
330
1411
100
AcDbEntity
  8
1
  6
Continuous
100
AcDbLine
 10
134.7121073694912
 20
214.1978520337911
 30
0.0
 11
134.7640629054369
 21
214.7917065270712
 31
0.0
  0
LINE
  5
14AB
330
1411
100
AcDbEntity
  8
1
  6
Continuous
100
AcDbLine
 10
134.4621073694912
 20
213.6978520337932
 30
0.0
 11
134.4621073694912
 21
214.1978520337911
 31
0.0
  0
ARC
  5
14AC
330
1411
100
AcDbEntity
  8
1
  6
Continuous
100
AcDbCircle
 10
137.5624350146862
 20
214.7394130814196
 30
0.0
 40
0.6
100
AcDbArc
 50
5.0
 51
73.61231286965791
  0
LINE
  5
14AD
330
1411
100
AcDbEntity
  8
1
  6
Continuous
100
AcDbLine
 10
138.2121073694912
 20
214.1978520337911
 30
0.0
 11
138.1601518335438
 21
214.7917065270866
 31
0.0
  0
LINE
  5
14AE
330
1411
100
AcDbEntity
  8
1
  6
Continuous
100
AcDbLine
 10
138.4621073694912
 20
213.697852033789
 30
0.0
 11
138.4621073694912
 21
214.1978520337911
 31
0.0
  0
LINE
  5
14AF
330
1411
100
AcDbEntity
  8
4
  6
CENTER
100
AcDbLine
 10
125.4621073694413
 20
110.9495943572124
 30
0.0
 11
125.4621073694712
 21
148.4495943572125
 31
0.0
  0
LINE
  5
14B0
330
1411
100
AcDbEntity
  8
1
  6
Continuous
100
AcDbLine
 10
110.4621073694822
 20
113.9495943572123
 30
0.0
 11
140.4621073694822
 21
113.9495943572123
 31
0.0
  0
LINE
  5
14B1
330
1411
100
AcDbEntity
  8
4
  6
CENTER
100
AcDbLine
 10
117.9621073694675
 20
128.4495943571901
 30
0.0
 11
110.9621073694674
 21
128.4495943571901
 31
0.0
  0
LINE
  5
14B2
330
1411
100
AcDbEntity
  8
1
  6
Continuous
100
AcDbLine
 10
110.462107369482
 20
130.4495943572125
 30
0.0
 11
140.4621073694823
 21
130.4495943572122
 31
0.0
  0
LINE
  5
14B3
330
1411
100
AcDbEntity
  8
1
  6
Continuous
100
AcDbLine
 10
110.4621073694822
 20
113.9495943572123
 30
0.0
 11
110.462107369482
 21
130.4495943572125
 31
0.0
  0
LINE
  5
14B4
330
1411
100
AcDbEntity
  8
1
  6
Continuous
100
AcDbLine
 10
104.1707168693845
 20
124.4495943572135
 30
0.0
 11
110.4621073694822
 21
115.254485164763
 31
0.0
  0
LINE
  5
14B5
330
1411
100
AcDbEntity
  8
1
  6
Continuous
100
AcDbLine
 10
104.1707168693845
 20
126.4495943572123
 30
0.0
 11
110.462107369482
 21
126.4495943572123
 31
0.0
  0
LINE
  5
14B6
330
1411
100
AcDbEntity
  8
1
  6
Continuous
100
AcDbLine
 10
104.1707168693845
 20
126.4495943572135
 30
0.0
 11
104.1707168693845
 21
124.4495943572135
 31
0.0
  0
CIRCLE
  5
14B7
330
1411
100
AcDbEntity
  8
1
  6
Continuous
100
AcDbCircle
 10
114.4621073694675
 20
128.4495943571901
 30
0.0
 40
2.0
  0
LINE
  5
14B8
330
1411
100
AcDbEntity
  8
1
  6
Continuous
100
AcDbLine
 10
114.7847681977434
 20
129.0975243048116
 30
0.0
 11
114.7776843995429
 21
129.5033548319133
 31
0.0
  0
LINE
  5
14B9
330
1411
100
AcDbEntity
  8
1
  6
Continuous
100
AcDbLine
 10
114.1394465411916
 20
129.0975243048116
 30
0.0
 11
114.1465303393919
 21
129.5033548319133
 31
0.0
  0
CIRCLE
  5
14BA
330
1411
100
AcDbEntity
  8
1
  6
Continuous
100
AcDbCircle
 10
114.4621073694675
 20
128.4495943571901
 30
0.0
 40
1.75
  0
LINE
  5
14BB
330
1411
100
AcDbEntity
  8
4
  6
CENTER
100
AcDbLine
 10
114.4621073694675
 20
131.9495943571901
 30
0.0
 11
114.4621073694675
 21
124.94959435719
 31
0.0
  0
ARC
  5
14BC
330
1411
100
AcDbEntity
  8
1
  6
Continuous
100
AcDbCircle
 10
114.4621073694675
 20
128.4495943571901
 30
0.0
 40
1.1
100
AcDbArc
 50
163.3282509640185
 51
196.6717490359761
  0
ARC
  5
14BD
330
1411
100
AcDbEntity
  8
1
  6
Continuous
100
AcDbCircle
 10
114.4621073694675
 20
128.4495943571901
 30
0.0
 40
1.1
100
AcDbArc
 50
253.3282509640077
 51
286.6717490359732
  0
ARC
  5
14BE
330
1411
100
AcDbEntity
  8
1
  6
Continuous
100
AcDbCircle
 10
114.4621073694675
 20
128.4495943571901
 30
0.0
 40
1.1
100
AcDbArc
 50
343.3282509640041
 51
16.6717490359751
  0
LINE
  5
14BF
330
1411
100
AcDbEntity
  8
1
  6
Continuous
100
AcDbLine
 10
113.8141774218455
 20
128.1269335289144
 30
0.0
 11
113.408346894744
 21
128.1340173271148
 31
0.0
  0
LINE
  5
14C0
330
1411
100
AcDbEntity
  8
1
  6
Continuous
100
AcDbLine
 10
114.039241539831
 20
128.0267285275538
 30
0.0
 11
113.8141774218455
 21
128.1269335289144
 31
0.0
  0
LINE
  5
14C1
330
1411
100
AcDbEntity
  8
1
  6
Continuous
100
AcDbLine
 10
114.039241539831
 20
128.0267285275536
 30
0.0
 11
114.1394465411916
 21
127.8016644095686
 31
0.0
  0
LINE
  5
14C2
330
1411
100
AcDbEntity
  8
1
  6
Continuous
100
AcDbLine
 10
114.1394465411917
 20
127.8016644095686
 30
0.0
 11
114.1465303393919
 21
127.3958338824668
 31
0.0
  0
LINE
  5
14C3
330
1411
100
AcDbEntity
  8
1
  6
Continuous
100
AcDbLine
 10
114.7847681977431
 20
127.8016644095683
 30
0.0
 11
114.7776843995427
 21
127.3958338824668
 31
0.0
  0
LINE
  5
14C4
330
1411
100
AcDbEntity
  8
1
  6
Continuous
100
AcDbLine
 10
114.8849731991039
 20
128.0267285275536
 30
0.0
 11
114.7847681977432
 21
127.8016644095683
 31
0.0
  0
LINE
  5
14C5
330
1411
100
AcDbEntity
  8
1
  6
Continuous
100
AcDbLine
 10
114.8849731991039
 20
128.0267285275536
 30
0.0
 11
115.1100373170889
 21
128.1269335289139
 31
0.0
  0
LINE
  5
14C6
330
1411
100
AcDbEntity
  8
1
  6
Continuous
100
AcDbLine
 10
115.1100373170889
 20
128.1269335289142
 30
0.0
 11
115.5158678441905
 21
128.1340173271145
 31
0.0
  0
LINE
  5
14C7
330
1411
100
AcDbEntity
  8
1
  6
Continuous
100
AcDbLine
 10
115.110037317089
 20
128.7722551854658
 30
0.0
 11
115.5158678441905
 21
128.7651713872655
 31
0.0
  0
LINE
  5
14C8
330
1411
100
AcDbEntity
  8
1
  6
Continuous
100
AcDbLine
 10
114.8849731991039
 20
128.8724601868266
 30
0.0
 11
115.110037317089
 21
128.7722551854658
 31
0.0
  0
LINE
  5
14C9
330
1411
100
AcDbEntity
  8
1
  6
Continuous
100
AcDbLine
 10
114.8849731991039
 20
128.8724601868266
 30
0.0
 11
114.7847681977433
 21
129.0975243048116
 31
0.0
  0
LINE
  5
14CA
330
1411
100
AcDbEntity
  8
1
  6
Continuous
100
AcDbLine
 10
113.8141774218454
 20
128.7722551854658
 30
0.0
 11
113.408346894744
 21
128.7651713872653
 31
0.0
  0
LINE
  5
14CB
330
1411
100
AcDbEntity
  8
1
  6
Continuous
100
AcDbLine
 10
114.039241539831
 20
128.8724601868266
 30
0.0
 11
113.8141774218455
 21
128.7722551854658
 31
0.0
  0
LINE
  5
14CC
330
1411
100
AcDbEntity
  8
1
  6
Continuous
100
AcDbLine
 10
114.039241539831
 20
128.8724601868266
 30
0.0
 11
114.1394465411916
 21
129.0975243048116
 31
0.0
  0
ARC
  5
14CD
330
1411
100
AcDbEntity
  8
1
  6
Continuous
100
AcDbCircle
 10
114.4621073694675
 20
128.4495943571901
 30
0.0
 40
1.1
100
AcDbArc
 50
73.32825096401451
 51
106.6717490359855
  0
LINE
  5
14CE
330
1411
100
AcDbEntity
  8
1
  6
Continuous
100
AcDbLine
 10
140.4621073694822
 20
113.9495943572123
 30
0.0
 11
140.4621073694822
 21
130.4495943572122
 31
0.0
  0
LINE
  5
14CF
330
1411
100
AcDbEntity
  8
1
  6
Continuous
100
AcDbLine
 10
131.3121073694363
 20
130.4495943572122
 30
0.0
 11
131.3121073694424
 21
114.7495943572124
 31
0.0
  0
LINE
  5
14D0
330
1411
100
AcDbEntity
  8
1
  6
Continuous
100
AcDbLine
 10
126.5121073694389
 20
123.4596194829969
 30
0.0
 11
126.5121073694406
 21
119.4495943572128
 31
0.0
  0
LINE
  5
14D1
330
1411
100
AcDbEntity
  8
1
  6
Continuous
100
AcDbLine
 10
124.412107369439
 20
123.4596194830012
 30
0.0
 11
124.4121073694405
 21
119.449594357212
 31
0.0
  0
LINE
  5
14D2
330
1411
100
AcDbEntity
  8
1
  6
Continuous
100
AcDbLine
 10
119.6121073694363
 20
130.4495943572122
 30
0.0
 11
119.6121073694424
 21
114.7495943572124
 31
0.0
  0
LINE
  5
14D3
330
1411
100
AcDbEntity
  8
1
  6
Continuous
100
AcDbLine
 10
124.4121073694395
 20
121.9495943572125
 30
0.0
 11
126.5121073694396
 21
121.9495943572125
 31
0.0
  0
ARC
  5
14D4
330
1411
100
AcDbEntity
  8
1
  6
Continuous
100
AcDbCircle
 10
125.4621073694405
 20
119.4495943572123
 30
0.0
 40
1.049999999999996
100
AcDbArc
 50
180.0
 51
0.0
  0
LINE
  5
14D5
330
1411
100
AcDbEntity
  8
1
  6
Continuous
100
AcDbLine
 10
120.4121073694424
 20
114.7495943572124
 30
0.0
 11
130.5121073694424
 21
114.7495943572124
 31
0.0
  0
LINE
  5
14D6
330
1411
100
AcDbEntity
  8
4
  6
CENTER
100
AcDbLine
 10
139.9621073694675
 20
128.4495943572023
 30
0.0
 11
132.9621073694674
 21
128.4495943572023
 31
0.0
  0
LINE
  5
14D7
330
1411
100
AcDbEntity
  8
1
  6
Continuous
100
AcDbLine
 10
130.462107369454
 20
144.4495943572125
 30
0.0
 11
130.462107369454
 21
130.4495943572122
 31
0.0
  0
LINE
  5
14D8
330
1411
100
AcDbEntity
  8
1
  6
Continuous
100
AcDbLine
 10
120.4621073694539
 20
144.4495943572125
 30
0.0
 11
120.4621073694539
 21
130.4495943572125
 31
0.0
  0
LINE
  5
14DD
330
1411
100
AcDbEntity
  8
4
  6
CENTER
100
AcDbLine
 10
128.4969566487949
 20
125.4495943572123
 30
0.0
 11
122.5194231894797
 21
125.4495943572123
 31
0.0
  0
LINE
  5
14ED
330
1411
100
AcDbEntity
  8
1
  6
Continuous
100
AcDbLine
 10
121.4621073694539
 20
145.4495943572124
 30
0.0
 11
129.462107369454
 21
145.4495943572124
 31
0.0
  0
LINE
  5
14EE
330
1411
100
AcDbEntity
  8
5
  6
PHANTOM
100
AcDbLine
 10
121.4621073694539
 20
139.9495943572125
 30
0.0
 11
129.462107369454
 21
139.9495943572125
 31
0.0
  0
ARC
  5
14EF
330
1411
100
AcDbEntity
  8
5
  6
PHANTOM
100
AcDbCircle
 10
121.4621073694539
 20
138.9495943572125
 30
0.0
 40
1.0
100
AcDbArc
 50
90.0
 51
180.0
  0
ARC
  5
14F0
330
1411
100
AcDbEntity
  8
1
  6
Continuous
100
AcDbCircle
 10
121.4621073694539
 20
144.4495943572125
 30
0.0
 40
1.0
100
AcDbArc
 50
90.0
 51
180.0
  0
ARC
  5
14F1
330
1411
100
AcDbEntity
  8
5
  6
PHANTOM
100
AcDbCircle
 10
129.462107369454
 20
138.9495943572125
 30
0.0
 40
1.0
100
AcDbArc
 50
0.0
 51
90.0
  0
ARC
  5
14F2
330
1411
100
AcDbEntity
  8
1
  6
Continuous
100
AcDbCircle
 10
129.462107369454
 20
144.4495943572125
 30
0.0
 40
1.0
100
AcDbArc
 50
0.0
 51
90.0
  0
CIRCLE
  5
14F3
330
1411
100
AcDbEntity
  8
1
  6
Continuous
100
AcDbCircle
 10
136.4621073694675
 20
128.4495943572023
 30
0.0
 40
2.0
  0
LINE
  5
14F4
330
1411
100
AcDbEntity
  8
1
  6
Continuous
100
AcDbLine
 10
136.7847681977434
 20
129.0975243048238
 30
0.0
 11
136.7776843995427
 21
129.5033548319256
 31
0.0
  0
LINE
  5
14F5
330
1411
100
AcDbEntity
  8
1
  6
Continuous
100
AcDbLine
 10
136.1394465411916
 20
129.0975243048235
 30
0.0
 11
136.146530339392
 21
129.5033548319256
 31
0.0
  0
CIRCLE
  5
14F6
330
1411
100
AcDbEntity
  8
1
  6
Continuous
100
AcDbCircle
 10
136.4621073694675
 20
128.4495943572023
 30
0.0
 40
1.75
  0
LINE
  5
14F7
330
1411
100
AcDbEntity
  8
4
  6
CENTER
100
AcDbLine
 10
136.4621073694675
 20
131.9495943572023
 30
0.0
 11
136.4621073694675
 21
124.9495943572022
 31
0.0
  0
LINE
  5
14F8
330
1411
100
AcDbEntity
  8
1
  6
Continuous
100
AcDbLine
 10
137.1100373170889
 20
128.1269335289264
 30
0.0
 11
137.5158678441906
 21
128.1340173271269
 31
0.0
  0
LINE
  5
14F9
330
1411
100
AcDbEntity
  8
1
  6
Continuous
100
AcDbLine
 10
137.1100373170893
 20
128.7722551854779
 30
0.0
 11
137.5158678441906
 21
128.7651713872775
 31
0.0
  0
ARC
  5
14FA
330
1411
100
AcDbEntity
  8
1
  6
Continuous
100
AcDbCircle
 10
136.4621073694675
 20
128.4495943572023
 30
0.0
 40
1.1
100
AcDbArc
 50
163.3282509640185
 51
196.6717490359761
  0
ARC
  5
14FB
330
1411
100
AcDbEntity
  8
1
  6
Continuous
100
AcDbCircle
 10
136.4621073694675
 20
128.4495943572023
 30
0.0
 40
1.1
100
AcDbArc
 50
253.3282509640077
 51
286.6717490359732
  0
LINE
  5
14FC
330
1411
100
AcDbEntity
  8
1
  6
Continuous
100
AcDbLine
 10
135.8141774218455
 20
128.1269335289266
 30
0.0
 11
135.4083468947441
 21
128.1340173271269
 31
0.0
  0
LINE
  5
14FD
330
1411
100
AcDbEntity
  8
1
  6
Continuous
100
AcDbLine
 10
136.039241539831
 20
128.026728527566
 30
0.0
 11
135.8141774218455
 21
128.1269335289266
 31
0.0
  0
LINE
  5
14FE
330
1411
100
AcDbEntity
  8
1
  6
Continuous
100
AcDbLine
 10
136.039241539831
 20
128.0267285275658
 30
0.0
 11
136.1394465411916
 21
127.8016644095808
 31
0.0
  0
LINE
  5
14FF
330
1411
100
AcDbEntity
  8
1
  6
Continuous
100
AcDbLine
 10
136.1394465411916
 20
127.8016644095808
 30
0.0
 11
136.146530339392
 21
127.3958338824791
 31
0.0
  0
LINE
  5
1500
330
1411
100
AcDbEntity
  8
1
  6
Continuous
100
AcDbLine
 10
136.784768197743
 20
127.8016644095804
 30
0.0
 11
136.7776843995426
 21
127.3958338824791
 31
0.0
  0
LINE
  5
1501
330
1411
100
AcDbEntity
  8
1
  6
Continuous
100
AcDbLine
 10
136.8849731991039
 20
128.0267285275656
 30
0.0
 11
136.7847681977432
 21
127.8016644095804
 31
0.0
  0
LINE
  5
1502
330
1411
100
AcDbEntity
  8
1
  6
Continuous
100
AcDbLine
 10
136.8849731991039
 20
128.0267285275656
 30
0.0
 11
137.1100373170889
 21
128.1269335289264
 31
0.0
  0
LINE
  5
1503
330
1411
100
AcDbEntity
  8
1
  6
Continuous
100
AcDbLine
 10
136.8849731991039
 20
128.8724601868386
 30
0.0
 11
137.1100373170891
 21
128.7722551854779
 31
0.0
  0
LINE
  5
1504
330
1411
100
AcDbEntity
  8
1
  6
Continuous
100
AcDbLine
 10
136.8849731991039
 20
128.8724601868386
 30
0.0
 11
136.7847681977433
 21
129.0975243048238
 31
0.0
  0
LINE
  5
1505
330
1411
100
AcDbEntity
  8
1
  6
Continuous
100
AcDbLine
 10
135.8141774218454
 20
128.7722551854779
 30
0.0
 11
135.4083468947441
 21
128.7651713872775
 31
0.0
  0
LINE
  5
1506
330
1411
100
AcDbEntity
  8
1
  6
Continuous
100
AcDbLine
 10
136.039241539831
 20
128.8724601868386
 30
0.0
 11
135.8141774218455
 21
128.7722551854779
 31
0.0
  0
LINE
  5
1507
330
1411
100
AcDbEntity
  8
1
  6
Continuous
100
AcDbLine
 10
136.039241539831
 20
128.8724601868386
 30
0.0
 11
136.1394465411916
 21
129.0975243048235
 31
0.0
  0
ARC
  5
1508
330
1411
100
AcDbEntity
  8
1
  6
Continuous
100
AcDbCircle
 10
136.4621073694675
 20
128.4495943572023
 30
0.0
 40
1.1
100
AcDbArc
 50
343.3282509640041
 51
16.6717490359751
  0
ARC
  5
1509
330
1411
100
AcDbEntity
  8
1
  6
Continuous
100
AcDbCircle
 10
136.4621073694675
 20
128.4495943572023
 30
0.0
 40
1.1
100
AcDbArc
 50
73.32825096401451
 51
106.6717490359855
  0
LINE
  5
150A
330
1411
100
AcDbEntity
  8
4
  6
CENTER
100
AcDbLine
 10
35.11639249247912
 20
110.9495943572124
 30
0.0
 11
35.11639249247912
 21
148.4495943572125
 31
0.0
  0
LINE
  5
150B
330
1411
100
AcDbEntity
  8
4
  6
CENTER
100
AcDbLine
 10
45.36639249247803
 20
125.4495943572125
 30
0.0
 11
24.86639249247803
 21
125.4495943572125
 31
0.0
  0
LINE
  5
150C
330
1411
100
AcDbEntity
  8
4
  6
CENTER
100
AcDbLine
 10
44.71639249249685
 20
128.4495943572122
 30
0.0
 11
38.36639249247914
 21
128.4495943572122
 31
0.0
  0
LINE
  5
150D
330
1411
100
AcDbEntity
  8
1
  6
Continuous
100
AcDbLine
 10
41.11639249247914
 20
126.7705637671653
 30
0.0
 11
41.11639249247914
 21
114.7495943572124
 31
0.0
  0
LINE
  5
150E
330
1411
100
AcDbEntity
  8
1
  6
Continuous
100
AcDbLine
 10
29.11639249247912
 20
126.7705637671653
 30
0.0
 11
29.11639249247912
 21
114.7495943572124
 31
0.0
  0
LINE
  5
150F
330
1411
100
AcDbEntity
  8
1
  6
Continuous
100
AcDbLine
 10
38.96639249247913
 20
114.9495943572123
 30
0.0
 11
38.96639249247913
 21
126.4495943572123
 31
0.0
  0
LINE
  5
1510
330
1411
100
AcDbEntity
  8
1
  6
Continuous
100
AcDbLine
 10
31.26639249247915
 20
114.9495943572123
 30
0.0
 11
31.26639249247915
 21
126.4495943572123
 31
0.0
  0
LINE
  5
1511
330
1411
100
AcDbEntity
  8
1
  6
Continuous
100
AcDbLine
 10
30.31639249247919
 20
130.4495943572122
 30
0.0
 11
30.31639249247919
 21
114.7495943572124
 31
0.0
  0
LINE
  5
1512
330
1411
100
AcDbEntity
  8
1
  6
Continuous
100
AcDbLine
 10
39.91639249247914
 20
130.4495943572122
 30
0.0
 11
39.91639249247914
 21
114.7495943572124
 31
0.0
  0
LINE
  5
1513
330
1411
100
AcDbEntity
  8
1
  6
Continuous
100
AcDbLine
 10
39.11639249247914
 20
130.4495943572122
 30
0.0
 11
39.11639249247914
 21
114.7495943572124
 31
0.0
  0
LINE
  5
1514
330
1411
100
AcDbEntity
  8
1
  6
Continuous
100
AcDbLine
 10
31.11639249247912
 20
130.4495943572122
 30
0.0
 11
31.11639249247912
 21
114.7495943572124
 31
0.0
  0
LINE
  5
1515
330
1411
100
AcDbEntity
  8
1
  6
Continuous
100
AcDbLine
 10
31.26639249247915
 20
114.9495943572123
 30
0.0
 11
38.96639249247913
 21
114.9495943572123
 31
0.0
  0
LINE
  5
1516
330
1411
100
AcDbEntity
  8
1
  6
Continuous
100
AcDbLine
 10
39.11639249247914
 20
114.7495943572124
 30
0.0
 11
31.11639249247912
 21
114.7495943572124
 31
0.0
  0
LINE
  5
1517
330
1411
100
AcDbEntity
  8
1
  6
Continuous
100
AcDbLine
 10
39.11639249247914
 20
113.9495943572123
 30
0.0
 11
31.11639249247912
 21
113.9495943572123
 31
0.0
  0
ARC
  5
1518
330
1411
100
AcDbEntity
  8
1
  6
Continuous
100
AcDbCircle
 10
31.11639249247912
 20
114.7495943572124
 30
0.0
 40
0.8
100
AcDbArc
 50
180.0
 51
270.0
  0
LINE
  5
1519
330
1411
100
AcDbEntity
  8
1
  6
Continuous
100
AcDbLine
 10
30.31639249247919
 20
114.7495943572124
 30
0.0
 11
29.11639249247912
 21
114.7495943572124
 31
0.0
  0
ARC
  5
151A
330
1411
100
AcDbEntity
  8
1
  6
Continuous
100
AcDbCircle
 10
39.11639249247914
 20
114.7495943572124
 30
0.0
 40
0.8
100
AcDbArc
 50
270.0
 51
0.0
  0
LINE
  5
151B
330
1411
100
AcDbEntity
  8
1
  6
Continuous
100
AcDbLine
 10
41.11639249247914
 20
114.7495943572124
 30
0.0
 11
39.91639249247914
 21
114.7495943572124
 31
0.0
  0
LINE
  5
151C
330
1411
100
AcDbEntity
  8
4
  6
CENTER
100
AcDbLine
 10
31.86639249247912
 20
128.4495943572122
 30
0.0
 11
25.51639249246145
 21
128.4495943572122
 31
0.0
  0
LINE
  5
151D
330
1411
100
AcDbEntity
  8
1
  6
Continuous
100
AcDbLine
 10
39.21639249247911
 20
144.4495943572125
 30
0.0
 11
39.21639249247911
 21
130.4495943572122
 31
0.0
  0
LINE
  5
151E
330
1411
100
AcDbEntity
  8
1
  6
Continuous
100
AcDbLine
 10
31.01639249247913
 20
144.4495943572125
 30
0.0
 11
31.01639249247913
 21
130.4495943572122
 31
0.0
  0
LINE
  5
151F
330
1411
100
AcDbEntity
  8
1
  6
Continuous
100
AcDbLine
 10
40.2163924924791
 20
144.4495943572125
 30
0.0
 11
40.2163924924791
 21
130.4495943572122
 31
0.0
  0
LINE
  5
1520
330
1411
100
AcDbEntity
  8
1
  6
Continuous
100
AcDbLine
 10
30.01639249247912
 20
144.4495943572125
 30
0.0
 11
30.01639249247912
 21
130.4495943572122
 31
0.0
  0
LINE
  5
1521
330
1411
100
AcDbEntity
  8
1
  6
Continuous
100
AcDbLine
 10
38.86639249247913
 20
130.4495943572122
 30
0.0
 11
38.86639249247913
 21
135.9495943572031
 31
0.0
  0
LINE
  5
1522
330
1411
100
AcDbEntity
  8
1
  6
Continuous
100
AcDbLine
 10
31.36639249247912
 20
130.4495943572122
 30
0.0
 11
31.36639249247912
 21
135.9495943572055
 31
0.0
  0
LINE
  5
1523
330
1411
100
AcDbEntity
  8
1
  6
Continuous
100
AcDbLine
 10
31.11639249247912
 20
126.4495943572123
 30
0.0
 11
39.11639249247917
 21
126.4495943572123
 31
0.0
  0
LINE
  5
1524
330
1411
100
AcDbEntity
  8
1
  6
Continuous
100
AcDbLine
 10
29.11639249247912
 20
130.4495943572122
 30
0.0
 11
41.11639249247914
 21
130.4495943572122
 31
0.0
  0
LINE
  5
1525
330
1411
100
AcDbEntity
  8
1
  6
Continuous
100
AcDbLine
 10
38.96639249247913
 20
124.4495943572123
 30
0.0
 11
31.26639249247915
 21
124.4495943572123
 31
0.0
  0
LINE
  5
1526
330
1411
100
AcDbEntity
  8
1
  6
Continuous
100
AcDbLine
 10
29.8163924924637
 20
126.4495943572123
 30
0.0
 11
29.81639249245927
 21
130.4495943572122
 31
0.0
  0
ARC
  5
1527
330
1411
100
AcDbEntity
  8
1
  6
Continuous
100
AcDbCircle
 10
33.01639249246145
 20
128.4495943572101
 30
0.0
 40
4.5
100
AcDbArc
 50
163.6123128697215
 51
196.3876871304057
  0
LINE
  5
1537
330
1411
100
AcDbEntity
  8
1
  6
Continuous
100
AcDbLine
 10
30.31639249247921
 20
126.4495943572123
 30
0.0
 11
29.81639249246373
 21
126.4495943572123
 31
0.0
  0
ARC
  5
1538
330
1411
100
AcDbEntity
  8
1
  6
Continuous
100
AcDbCircle
 10
29.27483144484054
 20
127.3492667120123
 30
0.0
 40
0.6
100
AcDbArc
 50
196.3876871304057
 51
265.0000000000636
  0
LINE
  5
1539
330
1411
100
AcDbEntity
  8
1
  6
Continuous
100
AcDbLine
 10
29.81639249246336
 20
126.6995943572063
 30
0.0
 11
29.2225379991833
 21
126.7515498931517
 31
0.0
  0
LINE
  5
153A
330
1411
100
AcDbEntity
  8
1
  6
Continuous
100
AcDbLine
 10
31.26639249247918
 20
124.4495943572102
 30
0.0
 11
31.1163924924796
 21
124.4495943572102
 31
0.0
  0
LINE
  5
153B
330
1411
100
AcDbEntity
  8
1
  6
Continuous
100
AcDbLine
 10
29.11639249247912
 20
130.4495943572122
 30
0.0
 11
29.11639249247912
 21
130.1286249472505
 31
0.0
  0
ARC
  5
153C
330
1411
100
AcDbEntity
  8
1
  6
Continuous
100
AcDbCircle
 10
29.2748314448317
 20
129.549922002401
 30
0.0
 40
0.6
100
AcDbArc
 50
95.00000000006359
 51
163.6123128697215
  0
LINE
  5
153D
330
1411
100
AcDbEntity
  8
1
  6
Continuous
100
AcDbLine
 10
29.81639249245953
 20
130.1995943572066
 30
0.0
 11
29.22253799916422
 21
130.1476388212586
 31
0.0
  0
LINE
  5
153E
330
1411
100
AcDbEntity
  8
1
  6
Continuous
100
AcDbLine
 10
40.41639249249459
 20
126.4495943572123
 30
0.0
 11
40.41639249249903
 21
130.4495943572122
 31
0.0
  0
ARC
  5
153F
330
1411
100
AcDbEntity
  8
1
  6
Continuous
100
AcDbCircle
 10
37.21639249249685
 20
128.4495943572101
 30
0.0
 40
4.5
100
AcDbArc
 50
343.6123128695943
 51
16.38768713027841
  0
LINE
  5
1541
330
1411
100
AcDbEntity
  8
1
  6
Continuous
100
AcDbLine
 10
39.11639249247917
 20
124.449594357212
 30
0.0
 11
38.96639249247916
 21
124.449594357212
 31
0.0
  0
LINE
  5
1550
330
1411
100
AcDbEntity
  8
1
  6
Continuous
100
AcDbLine
 10
40.41639249249459
 20
126.4495943572123
 30
0.0
 11
39.91639249247914
 21
126.4495943572123
 31
0.0
  0
ARC
  5
1551
330
1411
100
AcDbEntity
  8
1
  6
Continuous
100
AcDbCircle
 10
40.95795354011769
 20
127.3492667120123
 30
0.0
 40
0.6
100
AcDbArc
 50
274.9999999999364
 51
343.6123128695943
  0
LINE
  5
1552
330
1411
100
AcDbEntity
  8
1
  6
Continuous
100
AcDbLine
 10
40.41639249249498
 20
126.6995943572063
 30
0.0
 11
41.01024698577503
 21
126.7515498931517
 31
0.0
  0
LINE
  5
1553
330
1411
100
AcDbEntity
  8
1
  6
Continuous
100
AcDbLine
 10
41.11639249247914
 20
130.4495943572122
 30
0.0
 11
41.11639249247914
 21
130.1286249472505
 31
0.0
  0
ARC
  5
1554
330
1411
100
AcDbEntity
  8
1
  6
Continuous
100
AcDbCircle
 10
40.95795354012659
 20
129.549922002401
 30
0.0
 40
0.6
100
AcDbArc
 50
16.38768713027846
 51
84.99999999993633
  0
LINE
  5
1555
330
1411
100
AcDbEntity
  8
1
  6
Continuous
100
AcDbLine
 10
40.41639249249874
 20
130.1995943572066
 30
0.0
 11
41.01024698579407
 21
130.1476388212585
 31
0.0
  0
LINE
  5
1556
330
1411
100
AcDbEntity
  8
1
  6
Continuous
100
AcDbLine
 10
31.01639249247909
 20
135.9495943572056
 30
0.0
 11
39.21639249247803
 21
135.949594357203
 31
0.0
  0
LINE
  5
1557
330
1411
100
AcDbEntity
  8
1
  6
Continuous
100
AcDbLine
 10
31.01639249247913
 20
145.4495943572124
 30
0.0
 11
39.21639249247911
 21
145.4495943572124
 31
0.0
  0
ARC
  5
1558
330
1411
100
AcDbEntity
  8
1
  6
Continuous
100
AcDbCircle
 10
31.01639249247913
 20
144.4495943572125
 30
0.0
 40
1.0
100
AcDbArc
 50
90.0
 51
180.0
  0
ARC
  5
1559
330
1411
100
AcDbEntity
  8
1
  6
Continuous
100
AcDbCircle
 10
39.21639249247911
 20
144.4495943572125
 30
0.0
 40
1.0
100
AcDbArc
 50
0.0
 51
90.0
  0
LINE
  5
155A
330
1411
100
AcDbEntity
  8
1
  6
Continuous
100
AcDbLine
 10
114.4621073694912
 20
213.6978520338156
 30
0.0
 11
113.9621073695034
 21
214.1978520338033
 31
0.0
  0
LINE
  5
155B
330
1411
100
AcDbEntity
  8
1
  6
Continuous
100
AcDbLine
 10
136.4621073694912
 20
213.6978520337911
 30
0.0
 11
135.9621073694911
 21
214.1978520337911
 31
0.0
  0
LINE
  5
155C
330
1411
100
AcDbEntity
  8
1
  6
Continuous
100
AcDbLine
 10
136.9621073694839
 20
203.5978520337982
 30
0.0
 11
136.4621073694912
 21
204.0978520337911
 31
0.0
  0
LINE
  5
155D
330
1411
100
AcDbEntity
  8
1
  6
Continuous
100
AcDbLine
 10
136.4621073694912
 20
203.5978520337979
 30
0.0
 11
135.9621073694974
 21
204.0978520337917
 31
0.0
  0
LINE
  5
155E
330
1411
100
AcDbEntity
  8
1
  6
Continuous
100
AcDbLine
 10
114.9621073695094
 20
203.5978520337974
 30
0.0
 11
114.4621073694912
 21
204.0978520338156
 31
0.0
  0
LINE
  5
155F
330
1411
100
AcDbEntity
  8
1
  6
Continuous
100
AcDbLine
 10
114.4621073694912
 20
203.5978520337979
 30
0.0
 11
113.962107369473
 21
204.097852033816
 31
0.0
  0
LINE
  5
1560
330
1411
100
AcDbEntity
  8
1
  6
Continuous
100
AcDbLine
 10
114.9621073694794
 20
213.6978520338151
 30
0.0
 11
114.4621073694912
 21
214.1978520338033
 31
0.0
  0
LINE
  5
1561
330
1411
100
AcDbEntity
  8
1
  6
Continuous
100
AcDbLine
 10
136.4621073694912
 20
214.1978520337911
 30
0.0
 11
136.9621073694918
 21
213.6978520337904
 31
0.0
  0
LINE
  5
1562
330
1411
100
AcDbEntity
  8
1
  6
Continuous
100
AcDbLine
 10
40.41639249249681
 20
128.4495943572122
 30
0.0
 11
39.91639249247914
 21
127.9495943571947
 31
0.0
  0
LINE
  5
1563
330
1411
100
AcDbEntity
  8
1
  6
Continuous
100
AcDbLine
 10
40.41639249249735
 20
128.9495943572305
 30
0.0
 11
39.91639249247914
 21
128.4495943572122
 31
0.0
  0
LINE
  5
1564
330
1411
100
AcDbEntity
  8
1
  6
Continuous
100
AcDbLine
 10
30.31639249247919
 20
128.4495943572122
 30
0.0
 11
29.81639249246203
 21
127.949594357195
 31
0.0
  0
LINE
  5
1565
330
1411
100
AcDbEntity
  8
1
  6
Continuous
100
AcDbLine
 10
30.31639249247919
 20
128.94959435723
 30
0.0
 11
29.81639249246148
 21
128.4495943572122
 31
0.0
  0
LINE
  5
1566
330
1411
100
AcDbEntity
  8
4
  6
CENTER
100
AcDbLine
 10
101.1707168694323
 20
50.50133668061675
 30
0.0
 11
143.4621073695363
 21
50.50133668064026
 31
0.0
  0
LINE
  5
1567
330
1411
100
AcDbEntity
  8
1
  6
Continuous
100
AcDbLine
 10
140.4621073695363
 20
55.30133668063823
 30
0.0
 11
140.4621073695363
 21
45.70133668063824
 31
0.0
  0
LINE
  5
1568
330
1411
100
AcDbEntity
  8
4
  6
CENTER
100
AcDbLine
 10
136.4621073694912
 20
58.60133668062712
 30
0.0
 11
136.4621073694912
 21
42.40133668063372
 31
0.0
  0
LINE
  5
1569
330
1411
100
AcDbEntity
  8
4
  6
CENTER
100
AcDbLine
 10
125.4621073694889
 20
59.25133668062325
 30
0.0
 11
125.4621073694889
 21
41.75133668062324
 31
0.0
  0
LINE
  5
156A
330
1411
100
AcDbEntity
  8
1
  6
Continuous
100
AcDbLine
 10
110.4621073695362
 20
55.30133668060493
 30
0.0
 11
110.4621073695362
 21
45.70133668060492
 31
0.0
  0
LINE
  5
156B
330
1411
100
AcDbEntity
  8
4
  6
CENTER
100
AcDbLine
 10
114.4621073694912
 20
58.60133668062712
 30
0.0
 11
114.4621073694912
 21
42.40133668063372
 31
0.0
  0
LINE
  5
156C
330
1411
100
AcDbEntity
  8
1
  6
Continuous
100
AcDbLine
 10
104.1707168694324
 20
54.3513366806184
 30
0.0
 11
104.1707168694324
 21
46.65133668061854
 31
0.0
  0
LINE
  5
156D
330
1411
100
AcDbEntity
  8
1
  6
Continuous
100
AcDbLine
 10
110.4621073695257
 20
55.30133668060493
 30
0.0
 11
119.6121073694786
 21
55.30133668061512
 31
0.0
  0
LINE
  5
156E
330
1411
100
AcDbEntity
  8
1
  6
Continuous
100
AcDbLine
 10
104.1707168694324
 20
54.3513366806184
 30
0.0
 11
110.4621073695362
 21
54.35133668062196
 31
0.0
  0
LINE
  5
156F
330
1411
100
AcDbEntity
  8
1
  6
Continuous
100
AcDbLine
 10
120.4121073694759
 20
56.50133668060764
 30
0.0
 11
130.5121073694759
 21
56.50133668063006
 31
0.0
  0
ARC
  5
1570
330
1411
100
AcDbEntity
  8
1
  6
Continuous
100
AcDbCircle
 10
120.4121073694778
 20
55.70133668060762
 30
0.0
 40
0.8
100
AcDbArc
 50
90.00000000012699
 51
180.0000000001269
  0
LINE
  5
1571
330
1411
100
AcDbEntity
  8
1
  6
Continuous
100
AcDbLine
 10
119.6121073694795
 20
54.90133668064125
 30
0.0
 11
119.6121073694778
 21
55.70133668060583
 31
0.0
  0
LINE
  5
1572
330
1411
100
AcDbEntity
  8
1
  6
Continuous
100
AcDbLine
 10
116.2121073694853
 20
55.80133668062902
 30
0.0
 11
116.1601518335374
 21
56.39519117392431
 31
0.0
  0
ARC
  5
1573
330
1411
100
AcDbEntity
  8
1
  6
Continuous
100
AcDbCircle
 10
115.5624350146797
 20
56.34289772825685
 30
0.0
 40
0.6
100
AcDbArc
 50
5.000000000063619
 51
73.61231286972158
  0
LINE
  5
1574
330
1411
100
AcDbEntity
  8
1
  6
Continuous
100
AcDbLine
 10
116.462107369491
 20
55.80133668062918
 30
0.0
 11
116.462107369491
 21
55.30133668061163
 31
0.0
  0
ARC
  5
1575
330
1411
100
AcDbEntity
  8
1
  6
Continuous
100
AcDbCircle
 10
113.3617797242912
 20
56.34289772824796
 30
0.0
 40
0.6
100
AcDbArc
 50
106.3876871304056
 51
175.0000000000634
  0
LINE
  5
1576
330
1411
100
AcDbEntity
  8
1
  6
Continuous
100
AcDbLine
 10
112.7121073694852
 20
55.80133668062515
 30
0.0
 11
112.7640629054305
 21
56.39519117390523
 31
0.0
  0
LINE
  5
1577
330
1411
100
AcDbEntity
  8
1
  6
Continuous
100
AcDbLine
 10
112.4621073694912
 20
55.80133668062485
 30
0.0
 11
112.4621073694912
 21
55.30133668060712
 31
0.0
  0
LINE
  5
1578
330
1411
100
AcDbEntity
  8
1
  6
Continuous
100
AcDbLine
 10
114.4621073694912
 20
55.80133668062703
 30
0.0
 11
114.9621073695094
 21
55.30133668060881
 31
0.0
  0
LINE
  5
1579
330
1411
100
AcDbEntity
  8
1
  6
Continuous
100
AcDbLine
 10
112.4621073694912
 20
55.80133668062485
 30
0.0
 11
116.462107369491
 21
55.80133668062918
 31
0.0
  0
LINE
  5
157A
330
1411
100
AcDbEntity
  8
1
  6
Continuous
100
AcDbLine
 10
113.962107369473
 20
55.80133668062758
 30
0.0
 11
114.4621073694912
 21
55.30133668060938
 31
0.0
  0
ARC
  5
157B
330
1411
100
AcDbEntity
  8
1
  6
Continuous
100
AcDbCircle
 10
114.4621073694887
 20
52.60133668062714
 30
0.0
 40
4.5
100
AcDbArc
 50
73.61231286972158
 51
106.3876871304056
  0
ARC
  5
158B
330
1411
100
AcDbEntity
  8
1
  6
Continuous
100
AcDbCircle
 10
136.4621073694894
 20
52.60133668062714
 30
0.0
 40
4.5
100
AcDbArc
 50
73.61231286959426
 51
106.3876871302784
  0
LINE
  5
158C
330
1411
100
AcDbEntity
  8
1
  6
Continuous
100
AcDbLine
 10
138.4621073694912
 20
55.80133668062485
 30
0.0
 11
134.4621073694912
 21
55.80133668062932
 31
0.0
  0
LINE
  5
158D
330
1411
100
AcDbEntity
  8
1
  6
Continuous
100
AcDbLine
 10
131.3121073694785
 20
55.30133668062815
 30
0.0
 11
140.4621073695257
 21
55.30133668063823
 31
0.0
  0
LINE
  5
158E
330
1411
100
AcDbEntity
  8
1
  6
Continuous
100
AcDbLine
 10
134.7121073694931
 20
55.80133668062893
 30
0.0
 11
134.764062905441
 21
56.39519117392431
 31
0.0
  0
ARC
  5
158F
330
1411
100
AcDbEntity
  8
1
  6
Continuous
100
AcDbCircle
 10
135.3617797242984
 20
56.34289772825685
 30
0.0
 40
0.6
100
AcDbArc
 50
106.3876871302784
 51
174.9999999999364
  0
LINE
  5
1590
330
1411
100
AcDbEntity
  8
1
  6
Continuous
100
AcDbLine
 10
134.4621073694912
 20
55.80133668062932
 30
0.0
 11
134.4621073694912
 21
55.30133668063164
 31
0.0
  0
ARC
  5
1591
330
1411
100
AcDbEntity
  8
1
  6
Continuous
100
AcDbCircle
 10
130.5121073694778
 20
55.7013366806299
 30
0.0
 40
0.8
100
AcDbArc
 50
0.0000000001270327
 51
90.00000000012699
  0
LINE
  5
1592
330
1411
100
AcDbEntity
  8
1
  6
Continuous
100
AcDbLine
 10
131.3121073694796
 20
54.90133668063275
 30
0.0
 11
131.3121073694778
 21
55.70133668063175
 31
0.0
  0
LINE
  5
1593
330
1411
100
AcDbEntity
  8
1
  6
Continuous
100
AcDbLine
 10
138.2121073694931
 20
55.80133668062515
 30
0.0
 11
138.1601518335478
 21
56.39519117390523
 31
0.0
  0
LINE
  5
1594
330
1411
100
AcDbEntity
  8
1
  6
Continuous
100
AcDbLine
 10
138.4621073694912
 20
55.80133668062485
 30
0.0
 11
138.4621073694912
 21
55.30133668063607
 31
0.0
  0
LINE
  5
1595
330
1411
100
AcDbEntity
  8
1
  6
Continuous
100
AcDbLine
 10
136.4621073694912
 20
55.80133668062707
 30
0.0
 11
136.9621073694849
 21
55.30133668063328
 31
0.0
  0
LINE
  5
1596
330
1411
100
AcDbEntity
  8
1
  6
Continuous
100
AcDbLine
 10
135.9621073694985
 20
55.80133668062649
 30
0.0
 11
136.4621073694912
 21
55.30133668063385
 31
0.0
  0
ARC
  5
1597
330
1411
100
AcDbEntity
  8
1
  6
Continuous
100
AcDbCircle
 10
137.5624350146871
 20
56.34289772824796
 30
0.0
 40
0.6
100
AcDbArc
 50
4.999999999936394
 51
73.61231286959426
  0
LINE
  5
1598
330
1411
100
AcDbEntity
  8
1
  6
Continuous
100
AcDbLine
 10
110.4621073695364
 20
45.70133668060492
 30
0.0
 11
119.6121073694894
 21
45.70133668061504
 31
0.0
  0
LINE
  5
1599
330
1411
100
AcDbEntity
  8
1
  6
Continuous
100
AcDbLine
 10
104.1707168694324
 20
46.65133668061844
 30
0.0
 11
110.4621073695362
 21
46.65133668062193
 31
0.0
  0
LINE
  5
159A
330
1411
100
AcDbEntity
  8
1
  6
Continuous
100
AcDbLine
 10
120.4121073694894
 20
44.50133668062433
 30
0.0
 11
130.5121073694893
 21
44.50133668062433
 31
0.0
  0
ARC
  5
159B
330
1411
100
AcDbEntity
  8
1
  6
Continuous
100
AcDbCircle
 10
120.4121073694894
 20
45.30133668062434
 30
0.0
 40
0.8
100
AcDbArc
 50
180.0
 51
270.0
  0
LINE
  5
159C
330
1411
100
AcDbEntity
  8
1
  6
Continuous
100
AcDbLine
 10
119.6121073694893
 20
46.10133668061926
 30
0.0
 11
119.6121073694893
 21
45.30133668062434
 31
0.0
  0
LINE
  5
159D
330
1411
100
AcDbEntity
  8
1
  6
Continuous
100
AcDbLine
 10
116.462107369491
 20
45.70133668061163
 30
0.0
 11
116.462107369491
 21
45.20133668062154
 31
0.0
  0
LINE
  5
159E
330
1411
100
AcDbEntity
  8
1
  6
Continuous
100
AcDbLine
 10
116.2121073694911
 20
45.20133668062154
 30
0.0
 11
116.1601518335439
 21
44.60748218732614
 31
0.0
  0
ARC
  5
159F
330
1411
100
AcDbEntity
  8
1
  6
Continuous
100
AcDbCircle
 10
115.5624350146862
 20
44.65977563299303
 30
0.0
 40
0.6
100
AcDbArc
 50
286.387687130342
 51
355.0
  0
ARC
  5
15A0
330
1411
100
AcDbEntity
  8
1
  6
Continuous
100
AcDbCircle
 10
113.3617797242976
 20
44.65977563299941
 30
0.0
 40
0.6
100
AcDbArc
 50
185.0
 51
253.6123128696578
  0
LINE
  5
15A1
330
1411
100
AcDbEntity
  8
1
  6
Continuous
100
AcDbLine
 10
112.712107369491
 20
45.20133668062154
 30
0.0
 11
112.7640629054369
 21
44.60748218734154
 31
0.0
  0
LINE
  5
15A2
330
1411
100
AcDbEntity
  8
1
  6
Continuous
100
AcDbLine
 10
112.4621073694912
 20
45.70133668060713
 30
0.0
 11
112.4621073694912
 21
45.20133668062154
 31
0.0
  0
LINE
  5
15A3
330
1411
100
AcDbEntity
  8
1
  6
Continuous
100
AcDbLine
 10
114.4621073694912
 20
45.70133668060935
 30
0.0
 11
114.962107369479
 21
45.20133668062154
 31
0.0
  0
LINE
  5
15A4
330
1411
100
AcDbEntity
  8
1
  6
Continuous
100
AcDbLine
 10
112.4621073694912
 20
45.20133668062154
 30
0.0
 11
116.462107369491
 21
45.20133668062154
 31
0.0
  0
LINE
  5
15A5
330
1411
100
AcDbEntity
  8
1
  6
Continuous
100
AcDbLine
 10
113.9621073695026
 20
45.70133668060988
 30
0.0
 11
114.4621073694912
 21
45.20133668062154
 31
0.0
  0
ARC
  5
15A6
330
1411
100
AcDbEntity
  8
1
  6
Continuous
100
AcDbCircle
 10
114.4621073694912
 20
48.40133668062157
 30
0.0
 40
4.5
100
AcDbArc
 50
253.6123128696578
 51
286.387687130342
  0
ARC
  5
15B6
330
1411
100
AcDbEntity
  8
1
  6
Continuous
100
AcDbCircle
 10
136.4621073694912
 20
48.40133668063373
 30
0.0
 40
4.5
100
AcDbArc
 50
253.6123128696578
 51
286.387687130342
  0
LINE
  5
15B7
330
1411
100
AcDbEntity
  8
1
  6
Continuous
100
AcDbLine
 10
134.4621073694912
 20
45.20133668063372
 30
0.0
 11
138.4621073694912
 21
45.20133668063372
 31
0.0
  0
LINE
  5
15B8
330
1411
100
AcDbEntity
  8
1
  6
Continuous
100
AcDbLine
 10
131.3121073694894
 20
45.70133668062804
 30
0.0
 11
140.4621073695363
 21
45.70133668063824
 31
0.0
  0
LINE
  5
15B9
330
1411
100
AcDbEntity
  8
1
  6
Continuous
100
AcDbLine
 10
134.4621073694912
 20
45.70133668063156
 30
0.0
 11
134.4621073694912
 21
45.20133668063372
 31
0.0
  0
LINE
  5
15BA
330
1411
100
AcDbEntity
  8
1
  6
Continuous
100
AcDbLine
 10
134.7121073694912
 20
45.20133668063372
 30
0.0
 11
134.7640629054369
 21
44.60748218735375
 31
0.0
  0
ARC
  5
15BB
330
1411
100
AcDbEntity
  8
1
  6
Continuous
100
AcDbCircle
 10
135.3617797242976
 20
44.65977563301165
 30
0.0
 40
0.6
100
AcDbArc
 50
185.0
 51
253.6123128696578
  0
LINE
  5
15BC
330
1411
100
AcDbEntity
  8
1
  6
Continuous
100
AcDbLine
 10
131.3121073694893
 20
46.10133668062775
 30
0.0
 11
131.3121073694893
 21
45.30133668062434
 31
0.0
  0
ARC
  5
15BD
330
1411
100
AcDbEntity
  8
1
  6
Continuous
100
AcDbCircle
 10
130.5121073694893
 20
45.30133668062434
 30
0.0
 40
0.8
100
AcDbArc
 50
270.0
 51
0.0
  0
LINE
  5
15BE
330
1411
100
AcDbEntity
  8
1
  6
Continuous
100
AcDbLine
 10
138.4621073694912
 20
45.70133668063593
 30
0.0
 11
138.4621073694912
 21
45.20133668063372
 31
0.0
  0
LINE
  5
15BF
330
1411
100
AcDbEntity
  8
1
  6
Continuous
100
AcDbLine
 10
138.2121073694912
 20
45.20133668063372
 30
0.0
 11
138.1601518335438
 21
44.60748218733828
 31
0.0
  0
LINE
  5
15C0
330
1411
100
AcDbEntity
  8
1
  6
Continuous
100
AcDbLine
 10
136.4621073694912
 20
45.70133668063377
 30
0.0
 11
136.9621073694912
 21
45.20133668063372
 31
0.0
  0
LINE
  5
15C1
330
1411
100
AcDbEntity
  8
1
  6
Continuous
100
AcDbLine
 10
136.4621073694912
 20
45.20133668063372
 30
0.0
 11
135.9621073694905
 21
45.70133668063435
 31
0.0
  0
ARC
  5
15C2
330
1411
100
AcDbEntity
  8
1
  6
Continuous
100
AcDbCircle
 10
137.5624350146862
 20
44.65977563300522
 30
0.0
 40
0.6
100
AcDbArc
 50
286.387687130342
 51
355.0
  0
LINE
  5
15CD
330
1411
100
AcDbEntity
  8
4
  6
CENTER
100
AcDbLine
 10
215.8078222464498
 20
110.9495943572124
 30
0.0
 11
215.8078222464498
 21
148.4495943572125
 31
0.0
  0
LINE
  5
15CE
330
1411
100
AcDbEntity
  8
1
  6
Continuous
100
AcDbLine
 10
209.8078222464498
 20
126.7705637671653
 30
0.0
 11
209.8078222464498
 21
114.7495943572124
 31
0.0
  0
LINE
  5
15CF
330
1411
100
AcDbEntity
  8
1
  6
Continuous
100
AcDbLine
 10
211.0078222464497
 20
130.4495943572122
 30
0.0
 11
211.0078222464497
 21
114.7495943572124
 31
0.0
  0
LINE
  5
15D0
330
1411
100
AcDbEntity
  8
1
  6
Continuous
100
AcDbLine
 10
211.8078222464498
 20
130.4495943572122
 30
0.0
 11
211.8078222464498
 21
114.7495943572124
 31
0.0
  0
LINE
  5
15D1
330
1411
100
AcDbEntity
  8
1
  6
Continuous
100
AcDbLine
 10
221.8078222464498
 20
126.7705637671653
 30
0.0
 11
221.8078222464498
 21
114.7495943572124
 31
0.0
  0
LINE
  5
15D2
330
1411
100
AcDbEntity
  8
1
  6
Continuous
100
AcDbLine
 10
220.6078222464499
 20
130.4495943572122
 30
0.0
 11
220.6078222464499
 21
114.7495943572124
 31
0.0
  0
LINE
  5
15D3
330
1411
100
AcDbEntity
  8
1
  6
Continuous
100
AcDbLine
 10
219.8078222464499
 20
130.4495943572122
 30
0.0
 11
219.8078222464499
 21
114.7495943572124
 31
0.0
  0
LINE
  5
15D4
330
1411
100
AcDbEntity
  8
1
  6
Continuous
100
AcDbLine
 10
219.6578222464498
 20
126.3495943572122
 30
0.0
 11
219.6578222464498
 21
126.4495943572123
 31
0.0
  0
LINE
  5
15D5
330
1411
100
AcDbEntity
  8
1
  6
Continuous
100
AcDbLine
 10
211.9578222464499
 20
126.3495943572122
 30
0.0
 11
211.9578222464499
 21
126.4495943572123
 31
0.0
  0
LINE
  5
15D6
330
1411
100
AcDbEntity
  8
4
  6
CENTER
100
AcDbLine
 10
205.557822246451
 20
125.4495943572125
 30
0.0
 11
226.057822246451
 21
125.4495943572125
 31
0.0
  0
LINE
  5
15D7
330
1411
100
AcDbEntity
  8
1
  6
Continuous
100
AcDbLine
 10
211.8078222464498
 20
113.9495943572123
 30
0.0
 11
219.8078222464499
 21
113.9495943572123
 31
0.0
  0
ARC
  5
15D8
330
1411
100
AcDbEntity
  8
1
  6
Continuous
100
AcDbCircle
 10
219.8078222464499
 20
114.7495943572124
 30
0.0
 40
0.8
100
AcDbArc
 50
270.0
 51
0.000000000000007
  0
LINE
  5
15D9
330
1411
100
AcDbEntity
  8
1
  6
Continuous
100
AcDbLine
 10
220.6078222464499
 20
114.7495943572124
 30
0.0
 11
221.8078222464498
 21
114.7495943572124
 31
0.0
  0
ARC
  5
15E1
330
1411
100
AcDbEntity
  8
1
  6
Continuous
100
AcDbCircle
 10
211.8078222464498
 20
114.7495943572124
 30
0.0
 40
0.8
100
AcDbArc
 50
180.0
 51
270.0
  0
LINE
  5
15E2
330
1411
100
AcDbEntity
  8
1
  6
Continuous
100
AcDbLine
 10
209.8078222464498
 20
114.7495943572124
 30
0.0
 11
211.0078222464497
 21
114.7495943572124
 31
0.0
  0
LINE
  5
15EA
330
1411
100
AcDbEntity
  8
1
  6
Continuous
100
AcDbLine
 10
219.9078222464498
 20
145.4495943572124
 30
0.0
 11
211.7078222464499
 21
145.4495943572124
 31
0.0
  0
LINE
  5
15EB
330
1411
100
AcDbEntity
  8
1
  6
Continuous
100
AcDbLine
 10
219.8078222464499
 20
126.4495943572123
 30
0.0
 11
211.8078222464498
 21
126.4495943572123
 31
0.0
  0
LINE
  5
15EC
330
1411
100
AcDbEntity
  8
1
  6
Continuous
100
AcDbLine
 10
221.8078222464498
 20
130.4495943572122
 30
0.0
 11
209.8078222464498
 21
130.4495943572122
 31
0.0
  0
LINE
  5
15ED
330
1411
100
AcDbEntity
  8
1
  6
Continuous
100
AcDbLine
 10
219.9078222464498
 20
135.9495943572056
 30
0.0
 11
211.707822246451
 21
135.949594357203
 31
0.0
  0
LINE
  5
15EE
330
1411
100
AcDbEntity
  8
1
  6
Continuous
100
AcDbLine
 10
219.9078222464498
 20
144.4495943572125
 30
0.0
 11
219.9078222464498
 21
130.4495943572122
 31
0.0
  0
LINE
  5
15EF
330
1411
100
AcDbEntity
  8
1
  6
Continuous
100
AcDbLine
 10
220.90782224645
 20
144.4495943572125
 30
0.0
 11
220.90782224645
 21
130.4495943572122
 31
0.0
  0
LINE
  5
15F0
330
1411
100
AcDbEntity
  8
4
  6
CENTER
100
AcDbLine
 10
219.0578222464498
 20
128.4495943572122
 30
0.0
 11
225.4078222464674
 21
128.4495943572122
 31
0.0
  0
LINE
  5
15F1
330
1411
100
AcDbEntity
  8
1
  6
Continuous
100
AcDbLine
 10
221.1078222464653
 20
126.4495943572123
 30
0.0
 11
221.1078222464696
 21
130.4495943572122
 31
0.0
  0
ARC
  5
15F2
330
1411
100
AcDbEntity
  8
1
  6
Continuous
100
AcDbCircle
 10
221.6493832940884
 20
127.3492667120123
 30
0.0
 40
0.6
100
AcDbArc
 50
274.9999999999364
 51
343.6123128695943
  0
LINE
  5
15F5
330
1411
100
AcDbEntity
  8
1
  6
Continuous
100
AcDbLine
 10
220.6078222464498
 20
126.4495943572123
 30
0.0
 11
221.1078222464653
 21
126.4495943572123
 31
0.0
  0
ARC
  5
15F6
330
1411
100
AcDbEntity
  8
1
  6
Continuous
100
AcDbCircle
 10
217.9078222464676
 20
128.4495943572101
 30
0.0
 40
4.5
100
AcDbArc
 50
343.6123128695943
 51
16.38768713027848
  0
LINE
  5
15F8
330
1411
100
AcDbEntity
  8
1
  6
Continuous
100
AcDbLine
 10
221.1078222464656
 20
126.6995943572063
 30
0.0
 11
221.7016767397456
 21
126.7515498931517
 31
0.0
  0
LINE
  5
15F9
330
1411
100
AcDbEntity
  8
1
  6
Continuous
100
AcDbLine
 10
221.8078222464498
 20
130.4495943572122
 30
0.0
 11
221.8078222464498
 21
130.1286249472505
 31
0.0
  0
ARC
  5
15FA
330
1411
100
AcDbEntity
  8
1
  6
Continuous
100
AcDbCircle
 10
221.6493832940973
 20
129.549922002401
 30
0.0
 40
0.6
100
AcDbArc
 50
16.38768713027848
 51
84.99999999993642
  0
LINE
  5
15FB
330
1411
100
AcDbEntity
  8
1
  6
Continuous
100
AcDbLine
 10
221.1078222464696
 20
130.1995943572066
 30
0.0
 11
221.7016767397648
 21
130.1476388212586
 31
0.0
  0
LINE
  5
15FC
330
1411
100
AcDbEntity
  8
1
  6
Continuous
100
AcDbLine
 10
220.6078222464499
 20
128.4495943572122
 30
0.0
 11
221.1078222464669
 21
128.9495943572295
 31
0.0
  0
LINE
  5
15FD
330
1411
100
AcDbEntity
  8
1
  6
Continuous
100
AcDbLine
 10
220.6078222464499
 20
127.9495943571945
 30
0.0
 11
221.1078222464674
 21
128.4495943572122
 31
0.0
  0
LINE
  5
15FE
330
1411
100
AcDbEntity
  8
1
  6
Continuous
100
AcDbLine
 10
219.5578222464499
 20
130.4495943572122
 30
0.0
 11
219.5578222464499
 21
135.9495943572055
 31
0.0
  0
ARC
  5
15FF
330
1411
100
AcDbEntity
  8
1
  6
Continuous
100
AcDbCircle
 10
219.9078222464498
 20
144.4495943572125
 30
0.0
 40
1.0
100
AcDbArc
 50
0.000000000000007
 51
90.0
  0
LINE
  5
1600
330
1411
100
AcDbEntity
  8
1
  6
Continuous
100
AcDbLine
 10
211.7078222464499
 20
144.4495943572125
 30
0.0
 11
211.7078222464499
 21
130.4495943572122
 31
0.0
  0
LINE
  5
1601
330
1411
100
AcDbEntity
  8
1
  6
Continuous
100
AcDbLine
 10
210.7078222464497
 20
144.4495943572125
 30
0.0
 11
210.7078222464497
 21
130.4495943572122
 31
0.0
  0
LINE
  5
1602
330
1411
100
AcDbEntity
  8
4
  6
CENTER
100
AcDbLine
 10
206.207822246432
 20
128.4495943572122
 30
0.0
 11
212.5578222464497
 21
128.4495943572122
 31
0.0
  0
LINE
  5
1603
330
1411
100
AcDbEntity
  8
1
  6
Continuous
100
AcDbLine
 10
210.5078222464344
 20
126.4495943572123
 30
0.0
 11
210.50782224643
 21
130.4495943572122
 31
0.0
  0
ARC
  5
1604
330
1411
100
AcDbEntity
  8
1
  6
Continuous
100
AcDbCircle
 10
209.9662611988112
 20
127.3492667120123
 30
0.0
 40
0.6
100
AcDbArc
 50
196.3876871304055
 51
265.0000000000636
  0
LINE
  5
1607
330
1411
100
AcDbEntity
  8
1
  6
Continuous
100
AcDbLine
 10
210.5078222464344
 20
126.4495943572123
 30
0.0
 11
211.0078222464497
 21
126.4495943572123
 31
0.0
  0
ARC
  5
1608
330
1411
100
AcDbEntity
  8
1
  6
Continuous
100
AcDbCircle
 10
213.707822246432
 20
128.4495943572101
 30
0.0
 40
4.5
100
AcDbArc
 50
163.6123128697215
 51
196.3876871304055
  0
LINE
  5
160A
330
1411
100
AcDbEntity
  8
1
  6
Continuous
100
AcDbLine
 10
209.8078222464498
 20
130.4495943572122
 30
0.0
 11
209.8078222464498
 21
130.1286249472505
 31
0.0
  0
ARC
  5
160B
330
1411
100
AcDbEntity
  8
1
  6
Continuous
100
AcDbCircle
 10
209.9662611988025
 20
129.549922002401
 30
0.0
 40
0.6
100
AcDbArc
 50
95.00000000006364
 51
163.6123128697215
  0
LINE
  5
160C
330
1411
100
AcDbEntity
  8
1
  6
Continuous
100
AcDbLine
 10
210.507822246432
 20
128.4495943572122
 30
0.0
 11
211.0078222464497
 21
128.94959435723
 31
0.0
  0
LINE
  5
160D
330
1411
100
AcDbEntity
  8
1
  6
Continuous
100
AcDbLine
 10
210.5078222464314
 20
127.9495943571942
 30
0.0
 11
211.0078222464497
 21
128.4495943572122
 31
0.0
  0
LINE
  5
160E
330
1411
100
AcDbEntity
  8
1
  6
Continuous
100
AcDbLine
 10
210.507822246434
 20
126.6995943572063
 30
0.0
 11
209.9139677531538
 21
126.7515498931517
 31
0.0
  0
LINE
  5
160F
330
1411
100
AcDbEntity
  8
1
  6
Continuous
100
AcDbLine
 10
210.5078222464302
 20
130.1995943572066
 30
0.0
 11
209.9139677531349
 21
130.1476388212585
 31
0.0
  0
LINE
  5
1610
330
1411
100
AcDbEntity
  8
1
  6
Continuous
100
AcDbLine
 10
212.0578222464498
 20
130.4495943572122
 30
0.0
 11
212.0578222464498
 21
135.9495943572031
 31
0.0
  0
ARC
  5
1611
330
1411
100
AcDbEntity
  8
1
  6
Continuous
100
AcDbCircle
 10
211.7078222464499
 20
144.4495943572125
 30
0.0
 40
1.0
100
AcDbArc
 50
90.0
 51
180.0
  0
LINE
  5
1612
330
1411
100
AcDbEntity
  8
4
  6
CENTER
100
AcDbLine
 10
295.1535371234322
 20
131.9495943572023
 30
0.0
 11
295.1535371234322
 21
124.9495943572022
 31
0.0
  0
LINE
  5
161B
330
1411
100
AcDbEntity
  8
4
  6
CENTER
100
AcDbLine
 10
317.1535371234322
 20
131.9495943571901
 30
0.0
 11
317.1535371234322
 21
124.94959435719
 31
0.0
  0
LINE
  5
161C
330
1411
100
AcDbEntity
  8
1
  6
Continuous
100
AcDbLine
 10
327.4449276235153
 20
126.4495943572135
 30
0.0
 11
327.4449276235153
 21
124.4495943572135
 31
0.0
  0
LINE
  5
161D
330
1411
100
AcDbEntity
  8
1
  6
Continuous
100
AcDbLine
 10
321.1535371234177
 20
113.9495943572123
 30
0.0
 11
321.1535371234177
 21
130.4495943572125
 31
0.0
  0
LINE
  5
161E
330
1411
100
AcDbEntity
  8
1
  6
Continuous
100
AcDbLine
 10
312.0035371234636
 20
130.4495943572122
 30
0.0
 11
312.0035371234574
 21
114.7495943572124
 31
0.0
  0
LINE
  5
161F
330
1411
100
AcDbEntity
  8
4
  6
CENTER
100
AcDbLine
 10
306.1535371234585
 20
110.9495943572124
 30
0.0
 11
306.1535371234285
 21
148.4495943572125
 31
0.0
  0
LINE
  5
1620
330
1411
100
AcDbEntity
  8
1
  6
Continuous
100
AcDbLine
 10
300.3035371234636
 20
130.4495943572122
 30
0.0
 11
300.3035371234573
 21
114.7495943572124
 31
0.0
  0
LINE
  5
1621
330
1411
100
AcDbEntity
  8
1
  6
Continuous
100
AcDbLine
 10
291.1535371234177
 20
113.9495943572123
 30
0.0
 11
291.1535371234177
 21
130.4495943572122
 31
0.0
  0
LINE
  5
1622
330
1411
100
AcDbEntity
  8
1
  6
Continuous
100
AcDbLine
 10
321.1535371234177
 20
113.9495943572123
 30
0.0
 11
291.1535371234177
 21
113.9495943572123
 31
0.0
  0
LINE
  5
1623
330
1411
100
AcDbEntity
  8
1
  6
Continuous
100
AcDbLine
 10
327.4449276235153
 20
124.4495943572135
 30
0.0
 11
321.1535371234177
 21
115.254485164763
 31
0.0
  0
LINE
  5
1624
330
1411
100
AcDbEntity
  8
4
  6
CENTER
100
AcDbLine
 10
303.1186878441049
 20
125.4495943572123
 30
0.0
 11
309.0962213034198
 21
125.4495943572123
 31
0.0
  0
LINE
  5
1625
330
1411
100
AcDbEntity
  8
1
  6
Continuous
100
AcDbLine
 10
311.2035371234572
 20
114.7495943572124
 30
0.0
 11
301.1035371234572
 21
114.7495943572124
 31
0.0
  0
ARC
  5
162F
330
1411
100
AcDbEntity
  8
1
  6
Continuous
100
AcDbCircle
 10
306.1535371234592
 20
119.4495943572123
 30
0.0
 40
1.049999999999996
100
AcDbArc
 50
180.0
 51
0.000000000000007
  0
LINE
  5
1630
330
1411
100
AcDbEntity
  8
1
  6
Continuous
100
AcDbLine
 10
307.2035371234603
 20
121.9495943572125
 30
0.0
 11
305.1035371234602
 21
121.9495943572125
 31
0.0
  0
LINE
  5
1631
330
1411
100
AcDbEntity
  8
1
  6
Continuous
100
AcDbLine
 10
307.2035371234608
 20
123.7473899041661
 30
0.0
 11
307.2035371234592
 21
119.449594357212
 31
0.0
  0
LINE
  5
1632
330
1411
100
AcDbEntity
  8
1
  6
Continuous
100
AcDbLine
 10
305.1035371234612
 20
123.7473899041488
 30
0.0
 11
305.1035371234592
 21
119.4495943572128
 31
0.0
  0
LINE
  5
1633
330
1411
100
AcDbEntity
  8
1
  6
Continuous
100
AcDbLine
 10
321.1535371234177
 20
130.4495943572125
 30
0.0
 11
291.1535371234176
 21
130.4495943572122
 31
0.0
  0
LINE
  5
1634
330
1411
100
AcDbEntity
  8
4
  6
CENTER
100
AcDbLine
 10
313.6535371234324
 20
128.4495943571901
 30
0.0
 11
320.6535371234322
 21
128.4495943571901
 31
0.0
  0
LINE
  5
1635
330
1411
100
AcDbEntity
  8
1
  6
Continuous
100
AcDbLine
 10
327.4449276235153
 20
126.4495943572123
 30
0.0
 11
321.1535371234177
 21
126.4495943572123
 31
0.0
  0
LINE
  5
1636
330
1411
100
AcDbEntity
  8
1
  6
Continuous
100
AcDbLine
 10
310.1535371234459
 20
145.4495943572124
 30
0.0
 11
302.1535371234459
 21
145.4495943572124
 31
0.0
  0
LINE
  5
1637
330
1411
100
AcDbEntity
  8
1
  6
Continuous
100
AcDbLine
 10
311.153537123446
 20
144.4495943572125
 30
0.0
 11
311.153537123446
 21
130.4495943572125
 31
0.0
  0
CIRCLE
  5
1638
330
1411
100
AcDbEntity
  8
1
  6
Continuous
100
AcDbCircle
 10
317.1535371234322
 20
128.4495943571901
 30
0.0
 40
1.75
  0
ARC
  5
1639
330
1411
100
AcDbEntity
  8
1
  6
Continuous
100
AcDbCircle
 10
317.1535371234322
 20
128.4495943571901
 30
0.0
 40
1.1
100
AcDbArc
 50
73.32825096401449
 51
106.6717490359854
  0
ARC
  5
163A
330
1411
100
AcDbEntity
  8
1
  6
Continuous
100
AcDbCircle
 10
317.1535371234322
 20
128.4495943571901
 30
0.0
 40
1.1
100
AcDbArc
 50
253.3282509640264
 51
286.6717490359921
  0
CIRCLE
  5
163B
330
1411
100
AcDbEntity
  8
1
  6
Continuous
100
AcDbCircle
 10
317.1535371234322
 20
128.4495943571901
 30
0.0
 40
2.0
  0
LINE
  5
163C
330
1411
100
AcDbEntity
  8
1
  6
Continuous
100
AcDbLine
 10
317.5764029530688
 20
128.8724601868266
 30
0.0
 11
317.4761979517081
 21
129.0975243048116
 31
0.0
  0
LINE
  5
163D
330
1411
100
AcDbEntity
  8
1
  6
Continuous
100
AcDbLine
 10
317.5764029530688
 20
128.8724601868266
 30
0.0
 11
317.8014670710542
 21
128.7722551854658
 31
0.0
  0
LINE
  5
163E
330
1411
100
AcDbEntity
  8
1
  6
Continuous
100
AcDbLine
 10
317.8014670710542
 20
128.7722551854658
 30
0.0
 11
318.2072975981556
 21
128.7651713872653
 31
0.0
  0
LINE
  5
163F
330
1411
100
AcDbEntity
  8
1
  6
Continuous
100
AcDbLine
 10
317.476197951708
 20
127.8016644095686
 30
0.0
 11
317.4691141535078
 21
127.3958338824668
 31
0.0
  0
LINE
  5
1640
330
1411
100
AcDbEntity
  8
1
  6
Continuous
100
AcDbLine
 10
317.5764029530689
 20
128.0267285275536
 30
0.0
 11
317.4761979517081
 21
127.8016644095686
 31
0.0
  0
LINE
  5
1641
330
1411
100
AcDbEntity
  8
1
  6
Continuous
100
AcDbLine
 10
317.5764029530688
 20
128.0267285275538
 30
0.0
 11
317.8014670710542
 21
128.1269335289144
 31
0.0
  0
LINE
  5
1642
330
1411
100
AcDbEntity
  8
1
  6
Continuous
100
AcDbLine
 10
317.8014670710542
 20
128.1269335289144
 30
0.0
 11
318.2072975981556
 21
128.1340173271148
 31
0.0
  0
ARC
  5
1643
330
1411
100
AcDbEntity
  8
1
  6
Continuous
100
AcDbCircle
 10
317.1535371234322
 20
128.4495943571901
 30
0.0
 40
1.1
100
AcDbArc
 50
343.3282509640235
 51
16.6717490359815
  0
LINE
  5
1644
330
1411
100
AcDbEntity
  8
1
  6
Continuous
100
AcDbLine
 10
317.4761979517081
 20
129.0975243048116
 30
0.0
 11
317.4691141535078
 21
129.5033548319133
 31
0.0
  0
LINE
  5
1645
330
1411
100
AcDbEntity
  8
1
  6
Continuous
100
AcDbLine
 10
316.7306712937959
 20
128.8724601868266
 30
0.0
 11
316.8308762951566
 21
129.0975243048116
 31
0.0
  0
LINE
  5
1646
330
1411
100
AcDbEntity
  8
1
  6
Continuous
100
AcDbLine
 10
316.7306712937959
 20
128.8724601868266
 30
0.0
 11
316.5056071758107
 21
128.7722551854658
 31
0.0
  0
LINE
  5
1647
330
1411
100
AcDbEntity
  8
1
  6
Continuous
100
AcDbLine
 10
316.5056071758107
 20
128.7722551854658
 30
0.0
 11
316.0997766487091
 21
128.7651713872655
 31
0.0
  0
LINE
  5
1648
330
1411
100
AcDbEntity
  8
1
  6
Continuous
100
AcDbLine
 10
316.5056071758109
 20
128.1269335289142
 30
0.0
 11
316.0997766487091
 21
128.1340173271145
 31
0.0
  0
LINE
  5
1649
330
1411
100
AcDbEntity
  8
1
  6
Continuous
100
AcDbLine
 10
316.7306712937959
 20
128.0267285275536
 30
0.0
 11
316.5056071758109
 21
128.1269335289139
 31
0.0
  0
LINE
  5
164A
330
1411
100
AcDbEntity
  8
1
  6
Continuous
100
AcDbLine
 10
316.7306712937959
 20
128.0267285275536
 30
0.0
 11
316.8308762951566
 21
127.8016644095683
 31
0.0
  0
LINE
  5
164B
330
1411
100
AcDbEntity
  8
1
  6
Continuous
100
AcDbLine
 10
316.8308762951568
 20
127.8016644095683
 30
0.0
 11
316.8379600933572
 21
127.3958338824668
 31
0.0
  0
ARC
  5
164C
330
1411
100
AcDbEntity
  8
1
  6
Continuous
100
AcDbCircle
 10
317.1535371234322
 20
128.4495943571901
 30
0.0
 40
1.1
100
AcDbArc
 50
163.3282509640249
 51
196.6717490359956
  0
LINE
  5
164D
330
1411
100
AcDbEntity
  8
1
  6
Continuous
100
AcDbLine
 10
316.8308762951563
 20
129.0975243048116
 30
0.0
 11
316.837960093357
 21
129.5033548319133
 31
0.0
  0
ARC
  5
1650
330
1411
100
AcDbEntity
  8
1
  6
Continuous
100
AcDbCircle
 10
310.1535371234459
 20
144.4495943572125
 30
0.0
 40
1.0
100
AcDbArc
 50
0.000000000000007
 51
90.0
  0
LINE
  5
1651
330
1411
100
AcDbEntity
  8
1
  6
Continuous
100
AcDbLine
 10
301.1535371234459
 20
144.4495943572125
 30
0.0
 11
301.1535371234459
 21
130.4495943572122
 31
0.0
  0
CIRCLE
  5
1652
330
1411
100
AcDbEntity
  8
1
  6
Continuous
100
AcDbCircle
 10
295.1535371234322
 20
128.4495943572023
 30
0.0
 40
1.75
  0
LINE
  5
1653
330
1411
100
AcDbEntity
  8
4
  6
CENTER
100
AcDbLine
 10
291.6535371234322
 20
128.4495943572023
 30
0.0
 11
298.6535371234324
 21
128.4495943572023
 31
0.0
  0
CIRCLE
  5
1654
330
1411
100
AcDbEntity
  8
1
  6
Continuous
100
AcDbCircle
 10
295.1535371234322
 20
128.4495943572023
 30
0.0
 40
2.0
  0
ARC
  5
1655
330
1411
100
AcDbEntity
  8
1
  6
Continuous
100
AcDbCircle
 10
295.1535371234322
 20
128.4495943572023
 30
0.0
 40
1.1
100
AcDbArc
 50
73.32825096401449
 51
106.6717490359854
  0
ARC
  5
1656
330
1411
100
AcDbEntity
  8
1
  6
Continuous
100
AcDbCircle
 10
295.1535371234322
 20
128.4495943572023
 30
0.0
 40
1.1
100
AcDbArc
 50
253.3282509640264
 51
286.6717490359921
  0
LINE
  5
1657
330
1411
100
AcDbEntity
  8
1
  6
Continuous
100
AcDbLine
 10
295.5764029530687
 20
128.8724601868386
 30
0.0
 11
295.4761979517079
 21
129.0975243048235
 31
0.0
  0
LINE
  5
1658
330
1411
100
AcDbEntity
  8
1
  6
Continuous
100
AcDbLine
 10
295.5764029530687
 20
128.8724601868386
 30
0.0
 11
295.8014670710543
 21
128.7722551854779
 31
0.0
  0
LINE
  5
1659
330
1411
100
AcDbEntity
  8
1
  6
Continuous
100
AcDbLine
 10
295.8014670710543
 20
128.7722551854779
 30
0.0
 11
296.2072975981556
 21
128.7651713872775
 31
0.0
  0
LINE
  5
165A
330
1411
100
AcDbEntity
  8
1
  6
Continuous
100
AcDbLine
 10
295.4761979517081
 20
127.8016644095808
 30
0.0
 11
295.4691141535078
 21
127.3958338824791
 31
0.0
  0
LINE
  5
165B
330
1411
100
AcDbEntity
  8
1
  6
Continuous
100
AcDbLine
 10
295.5764029530689
 20
128.0267285275658
 30
0.0
 11
295.4761979517081
 21
127.8016644095808
 31
0.0
  0
LINE
  5
165C
330
1411
100
AcDbEntity
  8
1
  6
Continuous
100
AcDbLine
 10
295.5764029530687
 20
128.026728527566
 30
0.0
 11
295.8014670710543
 21
128.1269335289266
 31
0.0
  0
LINE
  5
165D
330
1411
100
AcDbEntity
  8
1
  6
Continuous
100
AcDbLine
 10
295.8014670710543
 20
128.1269335289266
 30
0.0
 11
296.2072975981556
 21
128.1340173271269
 31
0.0
  0
ARC
  5
165E
330
1411
100
AcDbEntity
  8
1
  6
Continuous
100
AcDbCircle
 10
295.1535371234322
 20
128.4495943572023
 30
0.0
 40
1.1
100
AcDbArc
 50
343.3282509640235
 51
16.6717490359815
  0
LINE
  5
165F
330
1411
100
AcDbEntity
  8
1
  6
Continuous
100
AcDbLine
 10
295.4761979517079
 20
129.0975243048235
 30
0.0
 11
295.4691141535078
 21
129.5033548319256
 31
0.0
  0
ARC
  5
1660
330
1411
100
AcDbEntity
  8
1
  6
Continuous
100
AcDbCircle
 10
295.1535371234322
 20
128.4495943572023
 30
0.0
 40
1.1
100
AcDbArc
 50
163.3282509640249
 51
196.6717490359956
  0
LINE
  5
1661
330
1411
100
AcDbEntity
  8
1
  6
Continuous
100
AcDbLine
 10
294.730671293796
 20
128.8724601868386
 30
0.0
 11
294.8308762951565
 21
129.0975243048238
 31
0.0
  0
LINE
  5
1662
330
1411
100
AcDbEntity
  8
1
  6
Continuous
100
AcDbLine
 10
294.730671293796
 20
128.8724601868386
 30
0.0
 11
294.5056071758107
 21
128.7722551854779
 31
0.0
  0
LINE
  5
1663
330
1411
100
AcDbEntity
  8
1
  6
Continuous
100
AcDbLine
 10
294.730671293796
 20
128.0267285275656
 30
0.0
 11
294.505607175811
 21
128.1269335289264
 31
0.0
  0
LINE
  5
1664
330
1411
100
AcDbEntity
  8
1
  6
Continuous
100
AcDbLine
 10
294.730671293796
 20
128.0267285275656
 30
0.0
 11
294.8308762951567
 21
127.8016644095804
 31
0.0
  0
LINE
  5
1665
330
1411
100
AcDbEntity
  8
1
  6
Continuous
100
AcDbLine
 10
294.8308762951569
 20
127.8016644095804
 30
0.0
 11
294.837960093357
 21
127.3958338824791
 31
0.0
  0
LINE
  5
1666
330
1411
100
AcDbEntity
  8
1
  6
Continuous
100
AcDbLine
 10
294.5056071758106
 20
128.7722551854779
 30
0.0
 11
294.0997766487091
 21
128.7651713872775
 31
0.0
  0
LINE
  5
1667
330
1411
100
AcDbEntity
  8
1
  6
Continuous
100
AcDbLine
 10
294.505607175811
 20
128.1269335289264
 30
0.0
 11
294.0997766487091
 21
128.1340173271269
 31
0.0
  0
LINE
  5
1668
330
1411
100
AcDbEntity
  8
1
  6
Continuous
100
AcDbLine
 10
294.8308762951563
 20
129.0975243048238
 30
0.0
 11
294.837960093357
 21
129.5033548319256
 31
0.0
  0
ARC
  5
1669
330
1411
100
AcDbEntity
  8
1
  6
Continuous
100
AcDbCircle
 10
302.1535371234459
 20
144.4495943572125
 30
0.0
 40
1.0
100
AcDbArc
 50
90.0
 51
180.0
  0
LINE
  5
166A
330
1411
100
AcDbEntity
  8
1
  6
Continuous
100
AcDbLine
 10
120.4121073694894
 20
55.30133668064546
 30
0.0
 11
120.4121073694894
 21
55.70133668063616
 31
0.0
  0
ARC
  5
166B
330
1411
100
AcDbEntity
  8
1
  6
Continuous
100
AcDbCircle
 10
119.6121073694893
 20
55.30133668064546
 30
0.0
 40
0.8
100
AcDbArc
 50
329.9999999996089
 51
0.0
  0
LINE
  5
166C
330
1411
100
AcDbEntity
  8
1
  6
Continuous
100
AcDbLine
 10
120.4121073694894
 20
55.70133668063616
 30
0.0
 11
130.5121073694893
 21
55.70133668063616
 31
0.0
  0
ARC
  5
166D
330
1411
100
AcDbEntity
  8
1
  6
Continuous
100
AcDbCircle
 10
131.3121073694893
 20
55.30133668063244
 30
0.0
 40
0.8
100
AcDbArc
 50
180.0
 51
209.9999999999318
  0
LINE
  5
166E
330
1411
100
AcDbEntity
  8
1
  6
Continuous
100
AcDbLine
 10
130.5121073694893
 20
55.30133668063244
 30
0.0
 11
130.5121073694893
 21
55.70133668063616
 31
0.0
  0
LINE
  5
166F
330
1411
100
AcDbEntity
  8
1
  6
Continuous
100
AcDbLine
 10
119.6121073694795
 20
54.90133668064125
 30
0.0
 11
131.3121073694796
 21
54.90133668063275
 31
0.0
  0
LINE
  5
1670
330
1411
100
AcDbEntity
  8
1
  6
Continuous
100
AcDbLine
 10
120.4621073694739
 20
55.60133668061638
 30
0.0
 11
130.4621073694739
 21
55.60133668061638
 31
0.0
  0
LINE
  5
1671
330
1411
100
AcDbEntity
  8
1
  6
Continuous
100
AcDbLine
 10
120.4621073694739
 20
55.60133668061638
 30
0.0
 11
120.4621073694739
 21
54.90133668064062
 31
0.0
  0
LINE
  5
1672
330
1411
100
AcDbEntity
  8
1
  6
Continuous
100
AcDbLine
 10
130.4621073694739
 20
55.60133668061638
 30
0.0
 11
130.4621073694739
 21
54.90133668063339
 31
0.0
  0
LINE
  5
1673
330
1411
100
AcDbEntity
  8
1
  6
Continuous
100
AcDbLine
 10
120.4621073694739
 20
45.40133668064412
 30
0.0
 11
130.4621073694739
 21
45.40133668064412
 31
0.0
  0
LINE
  5
1674
330
1411
100
AcDbEntity
  8
1
  6
Continuous
100
AcDbLine
 10
119.6121073694795
 20
46.10133668061926
 30
0.0
 11
131.3121073694796
 21
46.10133668062775
 31
0.0
  0
LINE
  5
1675
330
1411
100
AcDbEntity
  8
1
  6
Continuous
100
AcDbLine
 10
120.4121073694894
 20
45.30133668062434
 30
0.0
 11
130.5121073694893
 21
45.30133668062434
 31
0.0
  0
LINE
  5
1676
330
1411
100
AcDbEntity
  8
1
  6
Continuous
100
AcDbLine
 10
120.4621073694739
 20
45.40133668064412
 30
0.0
 11
120.4621073694739
 21
46.10133668061986
 31
0.0
  0
ARC
  5
1677
330
1411
100
AcDbEntity
  8
1
  6
Continuous
100
AcDbCircle
 10
119.6121073694893
 20
45.70133668061504
 30
0.0
 40
0.8
100
AcDbArc
 50
0.0
 51
30.00000000039086
  0
LINE
  5
1678
330
1411
100
AcDbEntity
  8
1
  6
Continuous
100
AcDbLine
 10
120.4121073694894
 20
45.70133668061504
 30
0.0
 11
120.4121073694894
 21
45.30133668062434
 31
0.0
  0
LINE
  5
1679
330
1411
100
AcDbEntity
  8
1
  6
Continuous
100
AcDbLine
 10
130.4621073694739
 20
45.40133668064412
 30
0.0
 11
130.4621073694739
 21
46.10133668062711
 31
0.0
  0
LINE
  5
167A
330
1411
100
AcDbEntity
  8
1
  6
Continuous
100
AcDbLine
 10
130.5121073694893
 20
45.70133668062804
 30
0.0
 11
130.5121073694893
 21
45.30133668062434
 31
0.0
  0
ARC
  5
167B
330
1411
100
AcDbEntity
  8
1
  6
Continuous
100
AcDbCircle
 10
131.3121073694893
 20
45.70133668062804
 30
0.0
 40
0.8
100
AcDbArc
 50
150.0000000000679
 51
180.0
  0
LINE
  5
167C
330
1411
100
AcDbEntity
  8
1
  6
Continuous
100
AcDbLine
 10
219.8078222464499
 20
126.3495943572122
 30
0.0
 11
211.8078222464498
 21
126.3495943572122
 31
0.0
  0
ARC
  5
167D
330
1411
100
AcDbEntity
  8
1
  6
Continuous
100
AcDbCircle
 10
215.8078222464498
 20
120.4495943572123
 30
0.0
 40
1.298525240590709
100
AcDbArc
 50
58.35779744377401
 51
121.6422025562267
  0
LINE
  5
167E
330
1411
100
AcDbEntity
  8
4
  6
CENTER
100
AcDbLine
 10
213.0092970058591
 20
120.4495943572123
 30
0.0
 11
218.6063474870405
 21
120.4495943572123
 31
0.0
  0
ARC
  5
167F
330
1411
100
AcDbEntity
  8
1
  6
Continuous
100
AcDbCircle
 10
215.8078222464498
 20
120.4495943572123
 30
0.0
 40
1.298525240590709
100
AcDbArc
 50
238.3577974437719
 51
301.6422025562267
  0
ARC
  5
1680
330
1411
100
AcDbEntity
  8
1
  6
Continuous
100
AcDbCircle
 10
215.8078222464498
 20
120.4495943572123
 30
0.0
 40
1.298525240590709
100
AcDbArc
 50
148.3577974437731
 51
211.642202556226
  0
ARC
  5
1681
330
1411
100
AcDbEntity
  8
1
  6
Continuous
100
AcDbCircle
 10
215.8078222464498
 20
120.4495943572123
 30
0.0
 40
1.298525240590709
100
AcDbArc
 50
328.3577974437731
 51
31.64220255622813
  0
ARC
  5
17FF
330
1411
100
AcDbEntity
  8
1
  6
Continuous
100
AcDbCircle
 10
28.4663924924635
 20
123.7995943572125
 30
0.0
 40
0.3500000000000317
100
AcDbArc
 50
180.0
 51
0.0
  0
ARC
  5
1800
330
1411
100
AcDbEntity
  8
1
  6
Continuous
100
AcDbCircle
 10
28.4663924924635
 20
127.0995943572125
 30
0.0
 40
0.3500000000000317
100
AcDbArc
 50
60.33470578819269
 51
180.0
  0
LINE
  5
1802
330
1411
100
AcDbEntity
  8
1
  6
Continuous
100
AcDbLine
 10
28.11639249245985
 20
123.7995943572129
 30
0.0
 11
28.11639249246352
 21
127.0995943572129
 31
0.0
  0
LINE
  5
180C
330
1411
100
AcDbEntity
  8
1
  6
Continuous
100
AcDbLine
 10
28.81639249245987
 20
123.7995943572121
 30
0.0
 11
28.81639249246336
 21
126.9621830945041
 31
0.0
  0
LINE
  5
180D
330
1411
100
AcDbEntity
  8
1
  6
Continuous
100
AcDbLine
 10
28.81639249246058
 20
124.4495943572125
 30
0.0
 11
29.11639249247912
 21
124.4495943572125
 31
0.0
  0
LINE
  5
1812
330
1411
100
AcDbEntity
  8
1
  6
Continuous
100
AcDbLine
 10
28.81639249246282
 20
126.4495943572125
 30
0.0
 11
29.11639249247912
 21
126.4495943572125
 31
0.0
  0
LINE
  5
1831
330
1411
100
AcDbEntity
  8
1
  6
Continuous
100
AcDbLine
 10
41.71383895108795
 20
126.4589585349937
 30
0.0
 11
42.06383895107925
 21
126.0280574356189
 31
0.0
  0
LINE
  5
1833
330
1411
100
AcDbEntity
  8
1
  6
Continuous
100
AcDbLine
 10
42.0638389510826
 20
126.1745943572125
 30
0.0
 11
41.71383895108258
 21
126.7808121398617
 31
0.0
  0
LINE
  5
1834
330
1411
100
AcDbEntity
  8
1
  6
Continuous
100
AcDbLine
 10
41.71383895108244
 20
127.6995943572124
 30
0.0
 11
41.71383895108284
 21
123.1995943572107
 31
0.0
  0
LINE
  5
1835
330
1411
100
AcDbEntity
  8
1
  6
Continuous
100
AcDbLine
 10
41.46383895108246
 20
127.0266524671735
 30
0.0
 11
41.46383895108282
 21
123.1995943572105
 31
0.0
  0
LINE
  5
1836
330
1411
100
AcDbEntity
  8
1
  6
Continuous
100
AcDbLine
 10
42.06383895108269
 20
124.8495943572125
 30
0.0
 11
42.81639249246061
 21
124.8495943572125
 31
0.0
  0
LINE
  5
1837
330
1411
100
AcDbEntity
  8
1
  6
Continuous
100
AcDbLine
 10
42.06383895108256
 20
126.0495943572125
 30
0.0
 11
42.81639249246061
 21
126.0495943572125
 31
0.0
  0
LINE
  5
1838
330
1411
100
AcDbEntity
  8
1
  6
Continuous
100
AcDbLine
 10
42.06383895108256
 20
126.1745943572125
 30
0.0
 11
42.06383895108256
 21
126.0280574356149
 31
0.0
  0
LINE
  5
1839
330
1411
100
AcDbEntity
  8
1
  6
Continuous
100
AcDbLine
 10
42.0638389510826
 20
125.8866360793801
 30
0.0
 11
42.06383895108261
 21
125.5495943572154
 31
0.0
  0
LINE
  5
183A
330
1411
100
AcDbEntity
  8
1
  6
Continuous
100
AcDbLine
 10
41.97782513900185
 20
125.9925316399126
 30
0.0
 11
42.06383895107921
 21
126.0280574356189
 31
0.0
  0
LINE
  5
183B
330
1411
100
AcDbEntity
  8
1
  6
Continuous
100
AcDbLine
 10
41.71383895108795
 20
126.3175371787407
 30
0.0
 11
42.06383895108265
 21
125.88663607938
 31
0.0
  0
LINE
  5
183F
330
1411
100
AcDbEntity
  8
1
  6
Continuous
100
AcDbLine
 10
42.06383895108261
 20
125.3495943572044
 30
0.0
 11
42.06383895108265
 21
125.0125526350448
 31
0.0
  0
LINE
  5
1840
330
1411
100
AcDbEntity
  8
1
  6
Continuous
100
AcDbLine
 10
42.06383895108269
 20
124.8711312788061
 30
0.0
 11
42.06383895108269
 21
124.7245943572124
 31
0.0
  0
LINE
  5
1841
330
1411
100
AcDbEntity
  8
1
  6
Continuous
100
AcDbLine
 10
41.97782513900185
 20
124.9066570745123
 30
0.0
 11
42.06383895107921
 21
124.871131278806
 31
0.0
  0
LINE
  5
1842
330
1411
100
AcDbEntity
  8
1
  6
Continuous
100
AcDbLine
 10
41.71383895108795
 20
124.4402301794312
 30
0.0
 11
42.06383895107925
 21
124.871131278806
 31
0.0
  0
LINE
  5
1843
330
1411
100
AcDbEntity
  8
1
  6
Continuous
100
AcDbLine
 10
41.71383895108795
 20
124.5816515356843
 30
0.0
 11
42.06383895108265
 21
125.0125526350449
 31
0.0
  0
LINE
  5
1844
330
1411
100
AcDbEntity
  8
1
  6
Continuous
100
AcDbLine
 10
42.06383895108261
 20
125.3495943572044
 30
0.0
 11
41.71383895108067
 21
125.349594357204
 31
0.0
  0
LINE
  5
1845
330
1411
100
AcDbEntity
  8
1
  6
Continuous
100
AcDbLine
 10
42.06383895108261
 20
125.5495943572153
 30
0.0
 11
41.7138389510807
 21
125.5495943572155
 31
0.0
  0
LINE
  5
1846
330
1411
100
AcDbEntity
  8
1
  6
Continuous
100
AcDbLine
 10
42.0638389510826
 20
124.7245943572125
 30
0.0
 11
41.71383895108258
 21
124.1183765745633
 31
0.0
  0
LINE
  5
1847
330
1411
100
AcDbEntity
  8
1
  6
Continuous
100
AcDbLine
 10
41.71383895108284
 20
123.1995943572125
 30
0.0
 11
41.46383895108242
 21
123.1995943572125
 31
0.0
  0
LINE
  5
1848
330
1411
100
AcDbEntity
  8
1
  6
Continuous
100
AcDbLine
 10
41.11639249247912
 20
124.4495943572125
 30
0.0
 11
41.46383895108272
 21
124.4495943572125
 31
0.0
  0
LINE
  5
1849
330
1411
100
AcDbEntity
  8
1
  6
Continuous
100
AcDbLine
 10
42.81639249246061
 20
126.0495943572125
 30
0.0
 11
42.81639249246061
 21
124.8495943572125
 31
0.0
  0
LINE
  5
184A
330
1411
100
AcDbEntity
  8
1
  6
Continuous
100
AcDbLine
 10
42.81639249246061
 20
124.8495943572125
 30
0.0
 11
43.11639249246058
 21
125.1495943572124
 31
0.0
  0
LINE
  5
184B
330
1411
100
AcDbEntity
  8
1
  6
Continuous
100
AcDbLine
 10
42.81639249246063
 20
126.0495943572125
 30
0.0
 11
43.11639249246058
 21
125.7495943572125
 31
0.0
  0
LINE
  5
184C
330
1411
100
AcDbEntity
  8
1
  6
Continuous
100
AcDbLine
 10
43.11639249246058
 20
125.7495943572125
 30
0.0
 11
43.11639249246058
 21
125.1495943572124
 31
0.0
  0
LINE
  5
184E
330
1411
100
AcDbEntity
  8
1
  6
Continuous
100
AcDbLine
 10
41.71383895108244
 20
127.6995943572124
 30
0.0
 11
41.65345232982196
 21
127.6995943572124
 31
0.0
  0
LINE
  5
184F
330
1411
100
AcDbEntity
  8
1
  6
Continuous
100
AcDbLine
 10
41.11639249247912
 20
126.4495943572125
 30
0.0
 11
41.46383895108252
 21
126.4495943572125
 31
0.0
  0
LINE
  5
185B
330
1411
100
AcDbEntity
  8
1
  6
Continuous
100
AcDbLine
 10
126.053715347753
 20
125.5495943572124
 30
0.0
 11
126.7895638790287
 21
125.5495943572124
 31
0.0
  0
LINE
  5
185C
330
1411
100
AcDbEntity
  8
1
  6
Continuous
100
AcDbLine
 10
126.053715347753
 20
125.3495943572125
 30
0.0
 11
126.7895638790287
 21
125.3495943572125
 31
0.0
  0
CIRCLE
  5
185D
330
1411
100
AcDbEntity
  8
1
  6
Continuous
100
AcDbCircle
 10
125.462107369443
 20
125.4495943572123
 30
0.0
 40
2.25
  0
CIRCLE
  5
185E
330
1411
100
AcDbEntity
  8
1
  6
Continuous
100
AcDbCircle
 10
125.462107369443
 20
125.4495943572123
 30
0.0
 40
1.331217782649205
  0
ARC
  5
1884
330
1411
100
AcDbEntity
  8
1
  6
Continuous
100
AcDbCircle
 10
125.4621073694528
 20
125.4495943572123
 30
0.0
 40
1.0
100
AcDbArc
 50
84.2608295223354
 51
95.73917047686917
  0
LINE
  5
1886
330
1411
100
AcDbEntity
  8
1
  6
Continuous
100
AcDbLine
 10
125.1144880342946
 20
125.938635048598
 30
0.0
 11
124.5941645479034
 21
126.4589585349893
 31
0.0
  0
LINE
  5
1887
330
1411
100
AcDbEntity
  8
1
  6
Continuous
100
AcDbLine
 10
125.362107369443
 20
126.0412023355224
 30
0.0
 11
125.362107369443
 21
126.7770508667981
 31
0.0
  0
LINE
  5
1888
330
1411
100
AcDbEntity
  8
1
  6
Continuous
100
AcDbLine
 10
125.562107369443
 20
126.0412023355224
 30
0.0
 11
125.562107369443
 21
126.7770508667981
 31
0.0
  0
LINE
  5
1889
330
1411
100
AcDbEntity
  8
1
  6
Continuous
100
AcDbLine
 10
125.8097267045914
 20
125.9386350485982
 30
0.0
 11
126.3300501909826
 21
126.4589585349893
 31
0.0
  0
LINE
  5
188C
330
1411
100
AcDbEntity
  8
1
  6
Continuous
100
AcDbLine
 10
124.9730666780574
 20
125.1019750220639
 30
0.0
 11
124.4527431916661
 21
124.5816515356727
 31
0.0
  0
LINE
  5
188D
330
1411
100
AcDbEntity
  8
1
  6
Continuous
100
AcDbLine
 10
124.8704993911331
 20
125.3495943572124
 30
0.0
 11
124.1346508598573
 21
125.3495943572124
 31
0.0
  0
LINE
  5
188E
330
1411
100
AcDbEntity
  8
1
  6
Continuous
100
AcDbLine
 10
124.8704993911331
 20
125.5495943572124
 30
0.0
 11
124.1346508598573
 21
125.5495943572124
 31
0.0
  0
LINE
  5
188F
330
1411
100
AcDbEntity
  8
1
  6
Continuous
100
AcDbLine
 10
124.9730666780573
 20
125.7972136923608
 30
0.0
 11
124.4527431916661
 21
126.317537178752
 31
0.0
  0
ARC
  5
1891
330
1411
100
AcDbEntity
  8
1
  6
Continuous
100
AcDbCircle
 10
125.4621073694528
 20
125.4495943572123
 30
0.0
 40
1.0
100
AcDbArc
 50
174.2608295223358
 51
185.7391704768687
  0
ARC
  5
1892
330
1411
100
AcDbEntity
  8
1
  6
Continuous
100
AcDbCircle
 10
125.4621073694528
 20
125.4495943572123
 30
0.0
 40
1.0
100
AcDbArc
 50
264.2608295223353
 51
275.7391704768691
  0
ARC
  5
1894
330
1411
100
AcDbEntity
  8
1
  6
Continuous
100
AcDbCircle
 10
125.4621073694528
 20
125.4495943572123
 30
0.0
 40
1.0
100
AcDbArc
 50
219.2608295223356
 51
230.7391704768688
  0
ARC
  5
1895
330
1411
100
AcDbEntity
  8
1
  6
Continuous
100
AcDbCircle
 10
125.4621073694528
 20
125.4495943572123
 30
0.0
 40
1.0
100
AcDbArc
 50
129.2608295223356
 51
140.7391704768692
  0
ARC
  5
1896
330
1411
100
AcDbEntity
  8
1
  6
Continuous
100
AcDbCircle
 10
125.4621073694528
 20
125.4495943572123
 30
0.0
 40
1.0
100
AcDbArc
 50
39.26082952233569
 51
50.73917047686868
  0
ARC
  5
1898
330
1411
100
AcDbEntity
  8
1
  6
Continuous
100
AcDbCircle
 10
125.4621073694528
 20
125.4495943572123
 30
0.0
 40
1.0
100
AcDbArc
 50
354.2608295223341
 51
5.739170476868747
  0
ARC
  5
189A
330
1411
100
AcDbEntity
  8
1
  6
Continuous
100
AcDbCircle
 10
125.4621073694528
 20
125.4495943572123
 30
0.0
 40
1.0
100
AcDbArc
 50
309.2608295223356
 51
320.7391704768692
  0
ARC
  5
189C
330
1411
100
AcDbEntity
  8
1
  6
Continuous
100
AcDbCircle
 10
125.462107369443
 20
125.4495943572123
 30
0.0
 40
0.7250000000000796
100
AcDbArc
 50
277.9281417662009
 51
307.0718582337987
  0
ARC
  5
189D
330
1411
100
AcDbEntity
  8
1
  6
Continuous
100
AcDbCircle
 10
125.462107369443
 20
125.4495943572123
 30
0.0
 40
0.7250000000000796
100
AcDbArc
 50
232.9281417662036
 51
262.0718582337992
  0
ARC
  5
189E
330
1411
100
AcDbEntity
  8
1
  6
Continuous
100
AcDbCircle
 10
125.462107369443
 20
125.4495943572123
 30
0.0
 40
0.7250000000000796
100
AcDbArc
 50
187.9281417662039
 51
217.0718582338015
  0
ARC
  5
189F
330
1411
100
AcDbEntity
  8
1
  6
Continuous
100
AcDbCircle
 10
125.462107369443
 20
125.4495943572123
 30
0.0
 40
0.7250000000000796
100
AcDbArc
 50
142.9281417662043
 51
172.0718582338009
  0
ARC
  5
18A0
330
1411
100
AcDbEntity
  8
1
  6
Continuous
100
AcDbCircle
 10
125.462107369443
 20
125.4495943572123
 30
0.0
 40
0.7250000000000796
100
AcDbArc
 50
97.9281417662032
 51
127.0718582338018
  0
ARC
  5
18A1
330
1411
100
AcDbEntity
  8
1
  6
Continuous
100
AcDbCircle
 10
125.462107369443
 20
125.4495943572123
 30
0.0
 40
0.7250000000000796
100
AcDbArc
 50
52.9281417662063
 51
82.07185823379919
  0
ARC
  5
18A2
330
1411
100
AcDbEntity
  8
1
  6
Continuous
100
AcDbCircle
 10
125.462107369443
 20
125.4495943572123
 30
0.0
 40
0.7250000000000796
100
AcDbArc
 50
7.928141766204033
 51
37.07185823379998
  0
ARC
  5
18A3
330
1411
100
AcDbEntity
  8
1
  6
Continuous
100
AcDbCircle
 10
125.462107369443
 20
125.4495943572123
 30
0.0
 40
0.7250000000000796
100
AcDbArc
 50
322.9281417662023
 51
352.0718582337992
  0
LINE
  5
18A4
330
1411
100
AcDbEntity
  8
1
  6
Continuous
100
AcDbLine
 10
125.362107369443
 20
124.8579863789025
 30
0.0
 11
125.362107369443
 21
124.1221378476268
 31
0.0
  0
LINE
  5
18A5
330
1411
100
AcDbEntity
  8
1
  6
Continuous
100
AcDbLine
 10
125.1144880342946
 20
124.9605536658267
 30
0.0
 11
124.5941645479034
 21
124.4402301794355
 31
0.0
  0
LINE
  5
18A6
330
1411
100
AcDbEntity
  8
1
  6
Continuous
100
AcDbLine
 10
125.9511480608287
 20
125.7972136923608
 30
0.0
 11
126.4714715472199
 21
126.3175371787521
 31
0.0
  0
LINE
  5
18A7
330
1411
100
AcDbEntity
  8
1
  6
Continuous
100
AcDbLine
 10
125.9511480608287
 20
125.1019750220641
 30
0.0
 11
126.47147154722
 21
124.5816515356727
 31
0.0
  0
CIRCLE
  5
18A8
330
1411
100
AcDbEntity
  8
1
  6
Continuous
100
AcDbCircle
 10
125.462107369443
 20
125.4495943572123
 30
0.0
 40
0.5999999999999944
  0
LINE
  5
18A9
330
1411
100
AcDbEntity
  8
1
  6
Continuous
100
AcDbLine
 10
125.8097267045914
 20
124.9605536658268
 30
0.0
 11
126.3300501909827
 21
124.4402301794355
 31
0.0
  0
LINE
  5
18AA
330
1411
100
AcDbEntity
  8
1
  6
Continuous
100
AcDbLine
 10
125.562107369443
 20
124.8579863789025
 30
0.0
 11
125.562107369443
 21
124.1221378476267
 31
0.0
  0
CIRCLE
  5
18AB
330
1411
100
AcDbEntity
  8
1
  6
Continuous
100
AcDbCircle
 10
125.462107369443
 20
125.4495943572123
 30
0.0
 40
0.3000000000000398
  0
LINE
  5
18D2
330
1411
100
AcDbEntity
  8
1
  6
Continuous
100
AcDbLine
 10
126.187107369489
 20
201.9504055751821
 30
0.0
 11
126.7933251521382
 21
202.3004055751821
 31
0.0
  0
LINE
  5
18D3
330
1411
100
AcDbEntity
  8
1
  6
Continuous
100
AcDbLine
 10
127.7121073694891
 20
202.3004055751822
 30
0.0
 11
123.2121073694873
 21
202.3004055751818
 31
0.0
  0
LINE
  5
18D4
330
1411
100
AcDbEntity
  8
1
  6
Continuous
100
AcDbLine
 10
127.7121073694889
 20
202.5504055751822
 30
0.0
 11
123.2121073694872
 21
202.5504055751818
 31
0.0
  0
LINE
  5
18D5
330
1411
100
AcDbEntity
  8
1
  6
Continuous
100
AcDbLine
 10
123.8121073694894
 20
215.8978520338138
 30
0.0
 11
127.1121073694894
 21
215.8978520338102
 31
0.0
  0
LINE
  5
18D6
330
1411
100
AcDbEntity
  8
1
  6
Continuous
100
AcDbLine
 10
123.8121073694886
 20
215.1978520338138
 30
0.0
 11
127.1121073694885
 21
215.1978520338101
 31
0.0
  0
LINE
  5
1901
330
1411
100
AcDbEntity
  8
1
  6
Continuous
100
AcDbLine
 10
124.4527431917078
 20
202.3004055751767
 30
0.0
 11
124.8836442910825
 21
201.9504055751853
 31
0.0
  0
LINE
  5
1903
330
1411
100
AcDbEntity
  8
1
  6
Continuous
100
AcDbLine
 10
124.7371073694889
 20
201.9504055751821
 30
0.0
 11
124.1308895868399
 21
202.3004055751821
 31
0.0
  0
LINE
  5
1905
330
1411
100
AcDbEntity
  8
1
  6
Continuous
100
AcDbLine
 10
123.2121073694891
 20
202.3004055751818
 30
0.0
 11
123.2121073694891
 21
202.5504055751822
 31
0.0
  0
LINE
  5
1906
330
1411
100
AcDbEntity
  8
1
  6
Continuous
100
AcDbLine
 10
124.4621073694891
 20
202.8978520337855
 30
0.0
 11
124.4621073694891
 21
202.5504055751819
 31
0.0
  0
LINE
  5
1908
330
1411
100
AcDbEntity
  8
1
  6
Continuous
100
AcDbLine
 10
126.1871073694892
 20
201.9504055751821
 30
0.0
 11
126.0405704478914
 21
201.9504055751821
 31
0.0
  0
LINE
  5
1909
330
1411
100
AcDbEntity
  8
1
  6
Continuous
100
AcDbLine
 10
125.8991490916568
 20
201.9504055751821
 30
0.0
 11
125.562107369492
 21
201.9504055751821
 31
0.0
  0
LINE
  5
190A
330
1411
100
AcDbEntity
  8
1
  6
Continuous
100
AcDbLine
 10
126.0050446521892
 20
202.0364193872628
 30
0.0
 11
126.0405704478955
 21
201.9504055751853
 31
0.0
  0
LINE
  5
190B
330
1411
100
AcDbEntity
  8
1
  6
Continuous
100
AcDbLine
 10
126.4714715472702
 20
202.3004055751767
 30
0.0
 11
126.0405704478955
 21
201.9504055751855
 31
0.0
  0
LINE
  5
190C
330
1411
100
AcDbEntity
  8
1
  6
Continuous
100
AcDbLine
 10
126.3300501910173
 20
202.3004055751767
 30
0.0
 11
125.8991490916567
 21
201.9504055751821
 31
0.0
  0
LINE
  5
190E
330
1411
100
AcDbEntity
  8
1
  6
Continuous
100
AcDbLine
 10
124.862107369489
 20
201.9504055751821
 30
0.0
 11
124.862107369489
 21
201.197852033804
 31
0.0
  0
LINE
  5
1910
330
1411
100
AcDbEntity
  8
1
  6
Continuous
100
AcDbLine
 10
126.062107369489
 20
201.9504055751821
 30
0.0
 11
126.062107369489
 21
201.1978520338042
 31
0.0
  0
LINE
  5
1912
330
1411
100
AcDbEntity
  8
1
  6
Continuous
100
AcDbLine
 10
125.362107369481
 20
201.9504055751821
 30
0.0
 11
125.0250656473215
 21
201.9504055751821
 31
0.0
  0
LINE
  5
1913
330
1411
100
AcDbEntity
  8
1
  6
Continuous
100
AcDbLine
 10
124.8836442910826
 20
201.9504055751821
 30
0.0
 11
124.737107369489
 21
201.950405575182
 31
0.0
  0
LINE
  5
1914
330
1411
100
AcDbEntity
  8
1
  6
Continuous
100
AcDbLine
 10
124.9191700867889
 20
202.0364193872628
 30
0.0
 11
124.8836442910825
 21
201.9504055751855
 31
0.0
  0
LINE
  5
1915
330
1411
100
AcDbEntity
  8
1
  6
Continuous
100
AcDbLine
 10
124.5941645479609
 20
202.3004055751767
 30
0.0
 11
125.0250656473215
 21
201.950405575182
 31
0.0
  0
LINE
  5
1916
330
1411
100
AcDbEntity
  8
1
  6
Continuous
100
AcDbLine
 10
125.362107369481
 20
201.9504055751821
 30
0.0
 11
125.3621073694806
 21
202.3004055751841
 31
0.0
  0
LINE
  5
1917
330
1411
100
AcDbEntity
  8
1
  6
Continuous
100
AcDbLine
 10
125.562107369492
 20
201.9504055751821
 30
0.0
 11
125.5621073694922
 21
202.3004055751839
 31
0.0
  0
LINE
  5
1918
330
1411
100
AcDbEntity
  8
1
  6
Continuous
100
AcDbLine
 10
126.062107369489
 20
201.197852033804
 30
0.0
 11
124.862107369489
 21
201.197852033804
 31
0.0
  0
LINE
  5
1919
330
1411
100
AcDbEntity
  8
1
  6
Continuous
100
AcDbLine
 10
124.862107369489
 20
201.197852033804
 30
0.0
 11
125.162107369489
 21
200.897852033804
 31
0.0
  0
LINE
  5
191A
330
1411
100
AcDbEntity
  8
1
  6
Continuous
100
AcDbLine
 10
126.062107369489
 20
201.197852033804
 30
0.0
 11
125.7621073694891
 21
200.897852033804
 31
0.0
  0
LINE
  5
191B
330
1411
100
AcDbEntity
  8
1
  6
Continuous
100
AcDbLine
 10
125.7621073694891
 20
200.897852033804
 30
0.0
 11
125.1621073694889
 21
200.897852033804
 31
0.0
  0
LINE
  5
191C
330
1411
100
AcDbEntity
  8
1
  6
Continuous
100
AcDbLine
 10
126.4621073694891
 20
202.8978520337855
 30
0.0
 11
126.4621073694891
 21
202.5504055751821
 31
0.0
  0
ARC
  5
1923
330
1411
100
AcDbEntity
  8
1
  6
Continuous
100
AcDbCircle
 10
123.812107369489
 20
215.5478520338103
 30
0.0
 40
0.3500000000000317
100
AcDbArc
 50
90.0
 51
270.0
  0
LINE
  5
1925
330
1411
100
AcDbEntity
  8
1
  6
Continuous
100
AcDbLine
 10
124.4621073694889
 20
215.1978520338131
 30
0.0
 11
124.4621073694889
 21
214.8978520338005
 31
0.0
  0
LINE
  5
1927
330
1411
100
AcDbEntity
  8
1
  6
Continuous
100
AcDbLine
 10
126.4621073694889
 20
215.1978520338109
 30
0.0
 11
126.4621073694889
 21
214.8978520338005
 31
0.0
  0
LINE
  5
1935
330
1411
100
AcDbEntity
  8
1
  6
Continuous
100
AcDbLine
 10
127.7121073694891
 20
202.3004055751822
 30
0.0
 11
127.7121073694891
 21
202.5504055751822
 31
0.0
  0
ARC
  5
193C
330
1411
100
AcDbEntity
  8
1
  6
Continuous
100
AcDbCircle
 10
127.1121073694889
 20
215.5478520338103
 30
0.0
 40
0.3500000000000317
100
AcDbArc
 50
270.0
 51
90.0
  0
LINE
  5
1996
330
1411
100
AcDbEntity
  8
1
  6
Continuous
100
AcDbLine
 10
222.107822246469
 20
123.7995943572121
 30
0.0
 11
222.1078222464655
 21
126.9621830945041
 31
0.0
  0
LINE
  5
1997
330
1411
100
AcDbEntity
  8
1
  6
Continuous
100
AcDbLine
 10
222.807822246469
 20
123.7995943572129
 30
0.0
 11
222.8078222464654
 21
127.0995943572129
 31
0.0
  0
ARC
  5
1998
330
1411
100
AcDbEntity
  8
1
  6
Continuous
100
AcDbCircle
 10
222.4578222464653
 20
123.7995943572125
 30
0.0
 40
0.3500000000000317
100
AcDbArc
 50
180.0
 51
0.000000000000007
  0
LINE
  5
1999
330
1411
100
AcDbEntity
  8
1
  6
Continuous
100
AcDbLine
 10
222.1078222464683
 20
124.4495943572125
 30
0.0
 11
221.8078222464498
 21
124.4495943572125
 31
0.0
  0
ARC
  5
199B
330
1411
100
AcDbEntity
  8
1
  6
Continuous
100
AcDbCircle
 10
222.4578222464653
 20
127.0995943572125
 30
0.0
 40
0.3500000000000317
100
AcDbArc
 50
0.000000000000007
 51
119.6652942118073
  0
LINE
  5
19A4
330
1411
100
AcDbEntity
  8
1
  6
Continuous
100
AcDbLine
 10
222.107822246466
 20
126.4495943572125
 30
0.0
 11
221.8078222464498
 21
126.4495943572125
 31
0.0
  0
LINE
  5
19A9
330
1411
100
AcDbEntity
  8
1
  6
Continuous
100
AcDbLine
 10
208.8603757878463
 20
125.3495943572044
 30
0.0
 11
208.8603757878462
 21
125.0125526350448
 31
0.0
  0
LINE
  5
19AA
330
1411
100
AcDbEntity
  8
1
  6
Continuous
100
AcDbLine
 10
208.1078222464683
 20
126.0495943572125
 30
0.0
 11
208.1078222464683
 21
124.8495943572125
 31
0.0
  0
LINE
  5
19AB
330
1411
100
AcDbEntity
  8
1
  6
Continuous
100
AcDbLine
 10
207.8078222464683
 20
125.7495943572125
 30
0.0
 11
207.8078222464683
 21
125.1495943572124
 31
0.0
  0
LINE
  5
19AC
330
1411
100
AcDbEntity
  8
1
  6
Continuous
100
AcDbLine
 10
209.4603757878464
 20
127.0266524671735
 30
0.0
 11
209.4603757878461
 21
123.1995943572105
 31
0.0
  0
LINE
  5
19AD
330
1411
100
AcDbEntity
  8
1
  6
Continuous
100
AcDbLine
 10
209.2103757878464
 20
127.6995943572124
 30
0.0
 11
209.2103757878461
 21
123.1995943572107
 31
0.0
  0
LINE
  5
19AE
330
1411
100
AcDbEntity
  8
1
  6
Continuous
100
AcDbLine
 10
209.8078222464498
 20
124.4495943572125
 30
0.0
 11
209.4603757878461
 21
124.4495943572125
 31
0.0
  0
LINE
  5
19AF
330
1411
100
AcDbEntity
  8
1
  6
Continuous
100
AcDbLine
 10
208.8603757878462
 20
124.8495943572125
 30
0.0
 11
208.1078222464683
 21
124.8495943572125
 31
0.0
  0
LINE
  5
19B0
330
1411
100
AcDbEntity
  8
1
  6
Continuous
100
AcDbLine
 10
208.8603757878462
 20
124.8711312788061
 30
0.0
 11
208.8603757878462
 21
124.7245943572124
 31
0.0
  0
LINE
  5
19B1
330
1411
100
AcDbEntity
  8
1
  6
Continuous
100
AcDbLine
 10
208.946389599927
 20
124.9066570745123
 30
0.0
 11
208.8603757878497
 21
124.871131278806
 31
0.0
  0
LINE
  5
19B2
330
1411
100
AcDbEntity
  8
1
  6
Continuous
100
AcDbLine
 10
209.2103757878409
 20
124.4402301794312
 30
0.0
 11
208.8603757878496
 21
124.871131278806
 31
0.0
  0
LINE
  5
19B3
330
1411
100
AcDbEntity
  8
1
  6
Continuous
100
AcDbLine
 10
209.2103757878409
 20
124.5816515356843
 30
0.0
 11
208.8603757878462
 21
125.0125526350449
 31
0.0
  0
LINE
  5
19B4
330
1411
100
AcDbEntity
  8
1
  6
Continuous
100
AcDbLine
 10
208.8603757878463
 20
124.7245943572125
 30
0.0
 11
209.2103757878463
 21
124.1183765745633
 31
0.0
  0
LINE
  5
19B5
330
1411
100
AcDbEntity
  8
1
  6
Continuous
100
AcDbLine
 10
208.1078222464683
 20
124.8495943572125
 30
0.0
 11
207.8078222464683
 21
125.1495943572124
 31
0.0
  0
LINE
  5
19B6
330
1411
100
AcDbEntity
  8
1
  6
Continuous
100
AcDbLine
 10
209.2103757878461
 20
123.1995943572125
 30
0.0
 11
209.4603757878465
 21
123.1995943572125
 31
0.0
  0
LINE
  5
19B7
330
1411
100
AcDbEntity
  8
1
  6
Continuous
100
AcDbLine
 10
209.2103757878464
 20
127.6995943572124
 30
0.0
 11
209.2707624091069
 21
127.6995943572124
 31
0.0
  0
LINE
  5
19BE
330
1411
100
AcDbEntity
  8
1
  6
Continuous
100
AcDbLine
 10
209.8078222464498
 20
126.4495943572125
 30
0.0
 11
209.4603757878464
 21
126.4495943572125
 31
0.0
  0
LINE
  5
19BF
330
1411
100
AcDbEntity
  8
1
  6
Continuous
100
AcDbLine
 10
208.8603757878463
 20
125.8866360793801
 30
0.0
 11
208.8603757878463
 21
125.5495943572154
 31
0.0
  0
LINE
  5
19C0
330
1411
100
AcDbEntity
  8
1
  6
Continuous
100
AcDbLine
 10
208.8603757878463
 20
125.3495943572044
 30
0.0
 11
209.2103757878482
 21
125.349594357204
 31
0.0
  0
LINE
  5
19C1
330
1411
100
AcDbEntity
  8
1
  6
Continuous
100
AcDbLine
 10
208.8603757878463
 20
125.5495943572153
 30
0.0
 11
209.2103757878482
 21
125.5495943572155
 31
0.0
  0
LINE
  5
19C2
330
1411
100
AcDbEntity
  8
1
  6
Continuous
100
AcDbLine
 10
208.1078222464682
 20
126.0495943572125
 30
0.0
 11
207.8078222464683
 21
125.7495943572125
 31
0.0
  0
LINE
  5
19C3
330
1411
100
AcDbEntity
  8
1
  6
Continuous
100
AcDbLine
 10
209.2103757878409
 20
126.4589585349937
 30
0.0
 11
208.8603757878496
 21
126.0280574356189
 31
0.0
  0
LINE
  5
19C4
330
1411
100
AcDbEntity
  8
1
  6
Continuous
100
AcDbLine
 10
208.8603757878463
 20
126.0495943572125
 30
0.0
 11
208.1078222464683
 21
126.0495943572125
 31
0.0
  0
LINE
  5
19C5
330
1411
100
AcDbEntity
  8
1
  6
Continuous
100
AcDbLine
 10
208.8603757878463
 20
126.1745943572125
 30
0.0
 11
208.8603757878463
 21
126.0280574356149
 31
0.0
  0
LINE
  5
19C6
330
1411
100
AcDbEntity
  8
1
  6
Continuous
100
AcDbLine
 10
208.946389599927
 20
125.9925316399126
 30
0.0
 11
208.8603757878497
 21
126.0280574356189
 31
0.0
  0
LINE
  5
19C7
330
1411
100
AcDbEntity
  8
1
  6
Continuous
100
AcDbLine
 10
209.2103757878409
 20
126.3175371787407
 30
0.0
 11
208.8603757878462
 21
125.88663607938
 31
0.0
  0
LINE
  5
19C8
330
1411
100
AcDbEntity
  8
1
  6
Continuous
100
AcDbLine
 10
208.8603757878463
 20
126.1745943572125
 30
0.0
 11
209.2103757878463
 21
126.7808121398617
 31
0.0
  0
LINE
  5
1A0A
330
1411
100
AcDbEntity
  8
1
  6
Continuous
100
AcDbLine
 10
125.8991490916568
 20
57.44878313924278
 30
0.0
 11
125.562107369492
 21
57.44878313924278
 31
0.0
  0
LINE
  5
1A0B
330
1411
100
AcDbEntity
  8
1
  6
Continuous
100
AcDbLine
 10
126.062107369489
 20
58.20133668062084
 30
0.0
 11
124.862107369489
 21
58.20133668062084
 31
0.0
  0
LINE
  5
1A0C
330
1411
100
AcDbEntity
  8
1
  6
Continuous
100
AcDbLine
 10
127.7121073694891
 20
57.09878313924264
 30
0.0
 11
123.2121073694873
 21
57.09878313924304
 31
0.0
  0
LINE
  5
1A0D
330
1411
100
AcDbEntity
  8
1
  6
Continuous
100
AcDbLine
 10
127.7121073694889
 20
56.84878313924264
 30
0.0
 11
123.2121073694872
 21
56.84878313924304
 31
0.0
  0
LINE
  5
1A0E
330
1411
100
AcDbEntity
  8
1
  6
Continuous
100
AcDbLine
 10
125.7621073694891
 20
58.50133668062085
 30
0.0
 11
125.1621073694889
 21
58.50133668062085
 31
0.0
  0
LINE
  5
1A0F
330
1411
100
AcDbEntity
  8
1
  6
Continuous
100
AcDbLine
 10
125.362107369481
 20
57.44878313924278
 30
0.0
 11
125.0250656473215
 21
57.44878313924278
 31
0.0
  0
LINE
  5
1A10
330
1411
100
AcDbEntity
  8
1
  6
Continuous
100
AcDbLine
 10
124.8836442910826
 20
57.44878313924278
 30
0.0
 11
124.737107369489
 21
57.44878313924289
 31
0.0
  0
LINE
  5
1A11
330
1411
100
AcDbEntity
  8
1
  6
Continuous
100
AcDbLine
 10
124.9191700867889
 20
57.36276932716203
 30
0.0
 11
124.8836442910825
 21
57.44878313923942
 31
0.0
  0
LINE
  5
1A12
330
1411
100
AcDbEntity
  8
1
  6
Continuous
100
AcDbLine
 10
124.5941645479609
 20
57.09878313924821
 30
0.0
 11
125.0250656473215
 21
57.44878313924289
 31
0.0
  0
LINE
  5
1A13
330
1411
100
AcDbEntity
  8
1
  6
Continuous
100
AcDbLine
 10
125.362107369481
 20
57.44878313924278
 30
0.0
 11
125.3621073694806
 21
57.09878313924082
 31
0.0
  0
LINE
  5
1A14
330
1411
100
AcDbEntity
  8
1
  6
Continuous
100
AcDbLine
 10
125.562107369492
 20
57.44878313924278
 30
0.0
 11
125.5621073694922
 21
57.09878313924093
 31
0.0
  0
LINE
  5
1A15
330
1411
100
AcDbEntity
  8
1
  6
Continuous
100
AcDbLine
 10
124.862107369489
 20
57.44878313924278
 30
0.0
 11
124.862107369489
 21
58.20133668062084
 31
0.0
  0
LINE
  5
1A16
330
1411
100
AcDbEntity
  8
1
  6
Continuous
100
AcDbLine
 10
123.2121073694891
 20
57.09878313924304
 30
0.0
 11
123.2121073694891
 21
56.84878313924264
 31
0.0
  0
LINE
  5
1A17
330
1411
100
AcDbEntity
  8
1
  6
Continuous
100
AcDbLine
 10
124.4621073694891
 20
56.50133668063933
 30
0.0
 11
124.4621073694891
 21
56.84878313924293
 31
0.0
  0
LINE
  5
1A19
330
1411
100
AcDbEntity
  8
1
  6
Continuous
100
AcDbLine
 10
124.4527431917078
 20
57.09878313924821
 30
0.0
 11
124.8836442910825
 21
57.44878313923954
 31
0.0
  0
LINE
  5
1A1A
330
1411
100
AcDbEntity
  8
1
  6
Continuous
100
AcDbLine
 10
124.7371073694889
 20
57.44878313924278
 30
0.0
 11
124.1308895868399
 21
57.09878313924281
 31
0.0
  0
LINE
  5
1A1B
330
1411
100
AcDbEntity
  8
1
  6
Continuous
100
AcDbLine
 10
124.862107369489
 20
58.20133668062084
 30
0.0
 11
125.162107369489
 21
58.50133668062085
 31
0.0
  0
LINE
  5
1A1C
330
1411
100
AcDbEntity
  8
1
  6
Continuous
100
AcDbLine
 10
127.7121073694891
 20
57.09878313924264
 30
0.0
 11
127.7121073694891
 21
56.84878313924264
 31
0.0
  0
LINE
  5
1A1D
330
1411
100
AcDbEntity
  8
1
  6
Continuous
100
AcDbLine
 10
126.1871073694892
 20
57.44878313924278
 30
0.0
 11
126.0405704478914
 21
57.44878313924278
 31
0.0
  0
LINE
  5
1A1E
330
1411
100
AcDbEntity
  8
1
  6
Continuous
100
AcDbLine
 10
126.0050446521892
 20
57.36276932716203
 30
0.0
 11
126.0405704478955
 21
57.44878313923954
 31
0.0
  0
LINE
  5
1A1F
330
1411
100
AcDbEntity
  8
1
  6
Continuous
100
AcDbLine
 10
126.4714715472702
 20
57.09878313924815
 30
0.0
 11
126.0405704478955
 21
57.44878313923942
 31
0.0
  0
LINE
  5
1A20
330
1411
100
AcDbEntity
  8
1
  6
Continuous
100
AcDbLine
 10
126.3300501910173
 20
57.09878313924821
 30
0.0
 11
125.8991490916567
 21
57.44878313924278
 31
0.0
  0
LINE
  5
1A21
330
1411
100
AcDbEntity
  8
1
  6
Continuous
100
AcDbLine
 10
126.4621073694891
 20
56.50133668063933
 30
0.0
 11
126.4621073694891
 21
56.84878313924276
 31
0.0
  0
LINE
  5
1A22
330
1411
100
AcDbEntity
  8
1
  6
Continuous
100
AcDbLine
 10
126.187107369489
 20
57.44878313924278
 30
0.0
 11
126.7933251521382
 21
57.09878313924275
 31
0.0
  0
LINE
  5
1A23
330
1411
100
AcDbEntity
  8
1
  6
Continuous
100
AcDbLine
 10
126.062107369489
 20
57.44878313924278
 30
0.0
 11
126.062107369489
 21
58.20133668062073
 31
0.0
  0
LINE
  5
1A25
330
1411
100
AcDbEntity
  8
1
  6
Continuous
100
AcDbLine
 10
126.062107369489
 20
58.20133668062084
 30
0.0
 11
125.7621073694891
 21
58.50133668062085
 31
0.0
  0
LINE
  5
1A30
330
1411
100
AcDbEntity
  8
1
  6
Continuous
100
AcDbLine
 10
123.8121073694894
 20
43.50133668061107
 30
0.0
 11
127.1121073694894
 21
43.50133668061465
 31
0.0
  0
LINE
  5
1A31
330
1411
100
AcDbEntity
  8
1
  6
Continuous
100
AcDbLine
 10
123.8121073694886
 20
44.20133668061106
 30
0.0
 11
127.1121073694885
 21
44.20133668061476
 31
0.0
  0
ARC
  5
1A32
330
1411
100
AcDbEntity
  8
1
  6
Continuous
100
AcDbCircle
 10
123.812107369489
 20
43.85133668061461
 30
0.0
 40
0.3500000000000317
100
AcDbArc
 50
90.00000000000005
 51
270.0
  0
LINE
  5
1A33
330
1411
100
AcDbEntity
  8
1
  6
Continuous
100
AcDbLine
 10
124.4621073694889
 20
44.20133668061175
 30
0.0
 11
124.4621073694889
 21
44.50133668062437
 31
0.0
  0
ARC
  5
1A35
330
1411
100
AcDbEntity
  8
1
  6
Continuous
100
AcDbCircle
 10
127.1121073694889
 20
43.85133668061461
 30
0.0
 40
0.3500000000000317
100
AcDbArc
 50
270.0
 51
90.00000000000005
  0
LINE
  5
1A36
330
1411
100
AcDbEntity
  8
1
  6
Continuous
100
AcDbLine
 10
126.4621073694889
 20
44.20133668061395
 30
0.0
 11
126.4621073694889
 21
44.50133668062437
 31
0.0
  0
CIRCLE
  5
1A4B
330
1411
100
AcDbEntity
  8
1
  6
Continuous
100
AcDbCircle
 10
306.1535371234469
 20
125.4495943572123
 30
0.0
 40
1.999999999999829
  0
ENDSEC
  0
SECTION
  2
OBJECTS
  0
DICTIONARY
  5
13FF
330
0
100
AcDbDictionary
281
     1
  3
ACAD_CIP_PREVIOUS_PRODUCT_INFO
350
1AED
  3
ACAD_COLOR
350
1AD0
  3
ACAD_DETAILVIEWSTYLE
350
1AE9
  3
ACAD_GROUP
350
1400
  3
ACAD_LAYOUT
350
140C
  3
ACAD_MATERIAL
350
1A9E
  3
ACAD_MLEADERSTYLE
350
1AE5
  3
ACAD_MLINESTYLE
350
1409
  3
ACAD_PLOTSETTINGS
350
140B
  3
ACAD_PLOTSTYLENAME
350
1A9C
  3
ACAD_SCALELIST
350
1AD3
  3
ACAD_SECTIONVIEWSTYLE
350
1AE7
  3
ACAD_TABLESTYLE
350
1AD1
  3
ACAD_VISUALSTYLE
350
1AB7
  3
ACDB_RECOMPOSE_DATA
350
1B0B
  3
AcDbVariableDictionary
350
1AFE
  3
DWGPROPS
350
1B0C
  0
DICTIONARY
  5
1AEE
330
1403
100
AcDbDictionary
280
     1
281
     1
  3
ADSK_XREC_LAYER_RECONCILED
360
1AEF
  0
DICTIONARY
  5
1AF0
330
1419
100
AcDbDictionary
280
     1
281
     1
  3
ADSK_XREC_LAYER_RECONCILED
360
1AF1
  0
DICTIONARY
  5
1AF2
330
141A
100
AcDbDictionary
280
     1
281
     1
  3
ADSK_XREC_LAYER_RECONCILED
360
1AF3
  0
DICTIONARY
  5
1AF4
330
141B
100
AcDbDictionary
280
     1
281
     1
  3
ADSK_XREC_LAYER_RECONCILED
360
1AF5
  0
DICTIONARY
  5
1AF6
330
141C
100
AcDbDictionary
280
     1
281
     1
  3
ADSK_XREC_LAYER_RECONCILED
360
1AF7
  0
DICTIONARY
  5
1AF8
330
141D
100
AcDbDictionary
280
     1
281
     1
  3
ADSK_XREC_LAYER_RECONCILED
360
1AF9
  0
DICTIONARY
  5
1AFA
330
141E
100
AcDbDictionary
280
     1
281
     1
  3
ADSK_XREC_LAYER_RECONCILED
360
1AFB
  0
DICTIONARY
  5
1AFC
330
141F
100
AcDbDictionary
280
     1
281
     1
  3
ADSK_XREC_LAYER_RECONCILED
360
1AFD
  0
DICTIONARY
  5
1A97
330
1411
100
AcDbDictionary
281
     1
  3
ACAD_LAYOUTSELFREF
350
1A98
  0
DICTIONARY
  5
1A95
330
140D
100
AcDbDictionary
281
     1
  3
ACAD_LAYOUTSELFREF
350
1A96
  0
XRECORD
  5
1AED
102
{ACAD_REACTORS
330
13FF
102
}
330
13FF
100
AcDbXrecord
280
     1
300
ACDLT
300
2014
300
ACDLT_F_S
  0
DICTIONARY
  5
1AD0
102
{ACAD_REACTORS
330
13FF
102
}
330
13FF
100
AcDbDictionary
281
     1
  0
DICTIONARY
  5
1AE9
102
{ACAD_REACTORS
330
13FF
102
}
330
13FF
100
AcDbDictionary
281
     1
  3
Imperial24
350
1AEA
  0
DICTIONARY
  5
1400
102
{ACAD_REACTORS
330
13FF
102
}
330
13FF
100
AcDbDictionary
281
     1
  0
DICTIONARY
  5
140C
102
{ACAD_REACTORS
330
13FF
102
}
330
13FF
100
AcDbDictionary
281
     1
  3
Model
350
1AEB
  3
レイアウト1
350
1AEC
  0
DICTIONARY
  5
1A9E
102
{ACAD_REACTORS
330
13FF
102
}
330
13FF
100
AcDbDictionary
281
     1
  3
ByBlock
350
1AA7
  3
ByLayer
350
1A9F
  3
Global
350
1AAF
  0
DICTIONARY
  5
1AE5
102
{ACAD_REACTORS
330
13FF
102
}
330
13FF
100
AcDbDictionary
281
     1
  3
Standard
350
1AE6
  0
DICTIONARY
  5
1409
102
{ACAD_REACTORS
330
13FF
102
}
330
13FF
100
AcDbDictionary
281
     1
  3
STANDARD
350
140A
  0
DICTIONARY
  5
140B
102
{ACAD_REACTORS
330
13FF
102
}
330
13FF
100
AcDbDictionary
281
     1
  0
ACDBDICTIONARYWDFLT
  5
1A9C
102
{ACAD_REACTORS
330
13FF
102
}
330
13FF
100
AcDbDictionary
281
     1
  3
Normal
350
1A9D
100
AcDbDictionaryWithDefault
340
1A9D
  0
DICTIONARY
  5
1AD3
102
{ACAD_REACTORS
330
13FF
102
}
330
13FF
100
AcDbDictionary
281
     1
  3
A0
350
1AD4
  3
A1
350
1AD5
  3
A2
350
1AD6
  3
A3
350
1AD7
  3
A4
350
1AD8
  3
A5
350
1AD9
  3
A6
350
1ADA
  3
A7
350
1ADB
  3
A8
350
1ADC
  3
A9
350
1ADD
  3
B0
350
1ADE
  3
B1
350
1ADF
  3
B2
350
1AE0
  3
B3
350
1AE1
  3
B4
350
1AE2
  3
B5
350
1AE3
  3
B6
350
1AE4
  0
DICTIONARY
  5
1AE7
102
{ACAD_REACTORS
330
13FF
102
}
330
13FF
100
AcDbDictionary
281
     1
  3
Imperial24
350
1AE8
  0
DICTIONARY
  5
1AD1
102
{ACAD_REACTORS
330
13FF
102
}
330
13FF
100
AcDbDictionary
281
     1
  3
Standard
350
1AD2
  0
DICTIONARY
  5
1AB7
102
{ACAD_REACTORS
330
13FF
102
}
330
13FF
100
AcDbDictionary
281
     1
  3
2dWireframe
350
1ABD
  3
Basic
350
1ABC
  3
Brighten
350
1AC3
  3
ColorChange
350
1AC7
  3
Conceptual
350
1AC0
  3
Dim
350
1AC2
  3
EdgeColorOff
350
1ACF
  3
Facepattern
350
1AC6
  3
Flat
350
1AB8
  3
FlatWithEdges
350
1AB9
  3
Gouraud
350
1ABA
  3
GouraudWithEdges
350
1ABB
  3
Hidden
350
1ABF
  3
JitterOff
350
1ACD
  3
Linepattern
350
1AC5
  3
OverhangOff
350
1ACE
  3
Realistic
350
1AC1
  3
Shaded
350
1ACC
  3
Shaded with edges
350
1ACB
  3
Shades of Gray
350
1AC8
  3
Sketchy
350
1AC9
  3
Thicken
350
1AC4
  3
Wireframe
350
1ABE
  3
X-Ray
350
1ACA
  0
XRECORD
  5
1B0B
102
{ACAD_REACTORS
330
13FF
102
}
330
13FF
100
AcDbXrecord
280
     1
 90
        1
330
1AD2
  0
DICTIONARY
  5
1AFE
102
{ACAD_REACTORS
330
13FF
102
}
330
13FF
100
AcDbDictionary
281
     1
  3
CANNOSCALE
350
1B03
  3
CMLEADERSTYLE
350
1B00
  3
CTABLESTYLE
350
1AFF
  3
CVIEWDETAILSTYLE
350
1B01
  3
CVIEWSECTIONSTYLE
350
1B02
  3
DIMASSOC
350
1B06
  3
INDEXCTL
350
1B05
  3
SORTENTS
350
1B04
  3
XCLIPFRAME
350
1B07
  0
XRECORD
  5
1B0C
102
{ACAD_REACTORS
330
13FF
102
}
330
13FF
100
AcDbXrecord
280
     1
  1
DWGPROPS COOKIE
  2

  3

  4

  6

  7

  8
Yoshitsune
  9

300
=
301
=
302
=
303
=
304
=
305
=
306
=
307
=
308
=
309
=
 40
0.1254337615740741
 41
2452245.686460139
 42
2457192.598924132
  1

 90
        0
  0
XRECORD
  5
1AEF
102
{ACAD_REACTORS
330
1AEE
102
}
330
1AEE
100
AcDbXrecord
280
     1
290
     1
  0
XRECORD
  5
1AF1
102
{ACAD_REACTORS
330
1AF0
102
}
330
1AF0
100
AcDbXrecord
280
     1
290
     1
  0
XRECORD
  5
1AF3
102
{ACAD_REACTORS
330
1AF2
102
}
330
1AF2
100
AcDbXrecord
280
     1
290
     1
  0
XRECORD
  5
1AF5
102
{ACAD_REACTORS
330
1AF4
102
}
330
1AF4
100
AcDbXrecord
280
     1
290
     1
  0
XRECORD
  5
1AF7
102
{ACAD_REACTORS
330
1AF6
102
}
330
1AF6
100
AcDbXrecord
280
     1
290
     1
  0
XRECORD
  5
1AF9
102
{ACAD_REACTORS
330
1AF8
102
}
330
1AF8
100
AcDbXrecord
280
     1
290
     1
  0
XRECORD
  5
1AFB
102
{ACAD_REACTORS
330
1AFA
102
}
330
1AFA
100
AcDbXrecord
280
     1
290
     1
  0
XRECORD
  5
1AFD
102
{ACAD_REACTORS
330
1AFC
102
}
330
1AFC
100
AcDbXrecord
280
     1
290
     1
  0
XRECORD
  5
1A98
102
{ACAD_REACTORS
330
1A97
102
}
330
1A97
100
AcDbXrecord
280
     1
340
1411
  0
XRECORD
  5
1A96
102
{ACAD_REACTORS
330
1A95
102
}
330
1A95
100
AcDbXrecord
280
     1
340
140D
  0
ACDBDETAILVIEWSTYLE
  5
1AEA
102
{ACAD_XDICTIONARY
360
1B44
102
}
102
{ACAD_REACTORS
330
1AE9
102
}
330
1AE9
100
AcDbModelDocViewStyle
 70
     0
  3
Imperial24
290
     0
100
AcDbDetailViewStyle
 70
     0
 71
     0
 90
        3
 71
     1
340
1404
 40
0.24
340
0
 40
0.24
300

 40
0.36
280
     3
 71
     2
340
1408
 90
       25
 71
     3
340
1404
 40
0.24
 90
        1
 40
0.75
 90
        1
300
%<\AcVar ViewType \f "%tc1">% %<\AcVar ViewDetailId>%\PSCALE %<\AcVar ViewScale \f "%sn">%
 71
     4
340
1408
 90
       25
340
1408
 90
       25
280
     0
  0
LAYOUT
  5
1AEB
102
{ACAD_XDICTIONARY
360
1B46
102
}
102
{ACAD_REACTORS
330
140C
102
}
330
140C
100
AcDbPlotSettings
  1

  2
Canon LBP9100C
  4

  6

 40
0.0
 41
0.0
 42
0.0
 43
0.0
 44
0.0
 45
0.0
 46
0.0
 47
0.0
 48
0.0
 49
0.0
140
0.0
141
0.0
142
1.0
143
1.0
 70
  1712
 72
     0
 73
     0
 74
     0
  7

 75
     0
147
1.0
148
0.0
149
0.0
100
AcDbLayout
  1
Model
 70
     1
 71
     0
 10
0.0
 20
0.0
 11
12.0
 21
9.0
 12
0.0
 22
0.0
 32
0.0
 14
0.0
 24
0.0
 34
0.0
 15
0.0
 25
0.0
 35
0.0
146
0.0
 13
0.0
 23
0.0
 33
0.0
 16
1.0
 26
0.0
 36
0.0
 17
0.0
 27
1.0
 37
0.0
 76
     0
330
1411
331
1A94
  0
LAYOUT
  5
1AEC
102
{ACAD_XDICTIONARY
360
1B48
102
}
102
{ACAD_REACTORS
330
140C
102
}
330
140C
100
AcDbPlotSettings
  1

  2
Canon LBP9100C
  4

  6

 40
0.0
 41
0.0
 42
0.0
 43
0.0
 44
0.0
 45
0.0
 46
0.0
 47
0.0
 48
0.0
 49
0.0
140
0.0
141
0.0
142
1.0
143
1.0
 70
   688
 72
     0
 73
     0
 74
     5
  7

 75
    16
147
1.0
148
0.0
149
0.0
100
AcDbLayout
  1
レイアウト1
 70
     1
 71
     1
 10
0.0
 20
0.0
 11
420.0
 21
297.0
 12
0.0
 22
0.0
 32
0.0
 14
1.000000000000000E+20
 24
1.000000000000000E+20
 34
1.000000000000000E+20
 15
-1.000000000000000E+20
 25
-1.000000000000000E+20
 35
-1.000000000000000E+20
146
0.0
 13
0.0
 23
0.0
 33
0.0
 16
1.0
 26
0.0
 36
0.0
 17
0.0
 27
1.0
 37
0.0
 76
     0
330
140D
  0
MATERIAL
  5
1AA7
102
{ACAD_XDICTIONARY
360
1AA8
102
}
102
{ACAD_REACTORS
330
1A9E
102
}
330
1A9E
100
AcDbMaterial
  1
ByBlock
 72
     0
 43
0.0208333333333333
 43
0.0
 43
0.0
 43
0.0
 43
0.0
 43
0.0208333333333333
 43
0.0
 43
0.0
 43
0.0
 43
0.0
 43
1.0
 43
0.0
 43
0.0
 43
0.0
 43
0.0
 43
1.0
 77
     0
 47
0.0208333333333333
 47
0.0
 47
0.0
 47
0.0
 47
0.0
 47
0.0208333333333333
 47
0.0
 47
0.0
 47
0.0
 47
0.0
 47
1.0
 47
0.0
 47
0.0
 47
0.0
 47
0.0
 47
1.0
171
     0
 49
0.0208333333333333
 49
0.0
 49
0.0
 49
0.0
 49
0.0
 49
0.0208333333333333
 49
0.0
 49
0.0
 49
0.0
 49
0.0
 49
1.0
 49
0.0
 49
0.0
 49
0.0
 49
0.0
 49
1.0
175
     0
142
0.0208333333333333
142
0.0
142
0.0
142
0.0
142
0.0
142
0.0208333333333333
142
0.0
142
0.0
142
0.0
142
0.0
142
1.0
142
0.0
142
0.0
142
0.0
142
0.0
142
1.0
179
     0
144
0.0208333333333333
144
0.0
144
0.0
144
0.0
144
0.0
144
0.0208333333333333
144
0.0
144
0.0
144
0.0
144
0.0
144
1.0
144
0.0
144
0.0
144
0.0
144
0.0
144
1.0
147
0.0208333333333333
147
0.0
147
0.0
147
0.0
147
0.0
147
0.0208333333333333
147
0.0
147
0.0
147
0.0
147
0.0
147
1.0
147
0.0
147
0.0
147
0.0
147
0.0
147
1.0
  0
MATERIAL
  5
1A9F
102
{ACAD_XDICTIONARY
360
1AA0
102
}
102
{ACAD_REACTORS
330
1A9E
102
}
330
1A9E
100
AcDbMaterial
  1
ByLayer
 72
     0
 43
0.0208333333333333
 43
0.0
 43
0.0
 43
0.0
 43
0.0
 43
0.0208333333333333
 43
0.0
 43
0.0
 43
0.0
 43
0.0
 43
1.0
 43
0.0
 43
0.0
 43
0.0
 43
0.0
 43
1.0
 77
     0
 47
0.0208333333333333
 47
0.0
 47
0.0
 47
0.0
 47
0.0
 47
0.0208333333333333
 47
0.0
 47
0.0
 47
0.0
 47
0.0
 47
1.0
 47
0.0
 47
0.0
 47
0.0
 47
0.0
 47
1.0
171
     0
 49
0.0208333333333333
 49
0.0
 49
0.0
 49
0.0
 49
0.0
 49
0.0208333333333333
 49
0.0
 49
0.0
 49
0.0
 49
0.0
 49
1.0
 49
0.0
 49
0.0
 49
0.0
 49
0.0
 49
1.0
175
     0
142
0.0208333333333333
142
0.0
142
0.0
142
0.0
142
0.0
142
0.0208333333333333
142
0.0
142
0.0
142
0.0
142
0.0
142
1.0
142
0.0
142
0.0
142
0.0
142
0.0
142
1.0
179
     0
144
0.0208333333333333
144
0.0
144
0.0
144
0.0
144
0.0
144
0.0208333333333333
144
0.0
144
0.0
144
0.0
144
0.0
144
1.0
144
0.0
144
0.0
144
0.0
144
0.0
144
1.0
147
0.0208333333333333
147
0.0
147
0.0
147
0.0
147
0.0
147
0.0208333333333333
147
0.0
147
0.0
147
0.0
147
0.0
147
1.0
147
0.0
147
0.0
147
0.0
147
0.0
147
1.0
  0
MATERIAL
  5
1AAF
102
{ACAD_XDICTIONARY
360
1AB0
102
}
102
{ACAD_REACTORS
330
1A9E
102
}
330
1A9E
100
AcDbMaterial
  1
Global
 72
     0
 43
0.0208333333333333
 43
0.0
 43
0.0
 43
0.0
 43
0.0
 43
0.0208333333333333
 43
0.0
 43
0.0
 43
0.0
 43
0.0
 43
1.0
 43
0.0
 43
0.0
 43
0.0
 43
0.0
 43
1.0
 77
     0
 47
0.0208333333333333
 47
0.0
 47
0.0
 47
0.0
 47
0.0
 47
0.0208333333333333
 47
0.0
 47
0.0
 47
0.0
 47
0.0
 47
1.0
 47
0.0
 47
0.0
 47
0.0
 47
0.0
 47
1.0
171
     0
 49
0.0208333333333333
 49
0.0
 49
0.0
 49
0.0
 49
0.0
 49
0.0208333333333333
 49
0.0
 49
0.0
 49
0.0
 49
0.0
 49
1.0
 49
0.0
 49
0.0
 49
0.0
 49
0.0
 49
1.0
175
     0
142
0.0208333333333333
142
0.0
142
0.0
142
0.0
142
0.0
142
0.0208333333333333
142
0.0
142
0.0
142
0.0
142
0.0
142
1.0
142
0.0
142
0.0
142
0.0
142
0.0
142
1.0
179
     0
144
0.0208333333333333
144
0.0
144
0.0
144
0.0
144
0.0
144
0.0208333333333333
144
0.0
144
0.0
144
0.0
144
0.0
144
1.0
144
0.0
144
0.0
144
0.0
144
0.0
144
1.0
147
0.0208333333333333
147
0.0
147
0.0
147
0.0
147
0.0
147
0.0208333333333333
147
0.0
147
0.0
147
0.0
147
0.0
147
1.0
147
0.0
147
0.0
147
0.0
147
0.0
147
1.0
  0
MLEADERSTYLE
  5
1AE6
102
{ACAD_REACTORS
330
1AE5
102
}
330
1AE5
100
AcDbMLeaderStyle
170
     2
171
     1
172
     0
 90
        2
 40
0.0
 41
0.0
173
     1
 91
-1056964608
340
1406
 92
       -2
290
     1
 42
0.09
291
     1
 43
0.36
  3
Standard
 44
0.18
300

342
1404
174
     1
178
     6
175
     1
176
     0
 93
-1056964608
 45
0.18
292
     0
297
     0
 46
0.18
 94
-1056964608
 47
1.0
 49
1.0
140
1.0
293
     1
141
0.0
294
     1
177
     0
142
1.0
295
     0
296
     0
143
0.125
1001
ACAD_MLEADERVER
1070
     2
  0
MLINESTYLE
  5
140A
102
{ACAD_REACTORS
330
1409
102
}
330
1409
100
AcDbMlineStyle
  2
STANDARD
 70
     0
  3

 62
   256
 51
90.0
 52
90.0
 71
     2
 49
0.5
 62
   256
  6
BYLAYER
 49
-0.5
 62
   256
  6
BYLAYER
  0
ACDBPLACEHOLDER
  5
1A9D
102
{ACAD_REACTORS
330
1A9C
102
}
330
1A9C
  0
SCALE
  5
1AD4
102
{ACAD_REACTORS
330
1AD3
102
}
330
1AD3
100
AcDbScale
 70
     0
300
1:1
140
1.0
141
1.0
290
     1
  0
SCALE
  5
1AD5
102
{ACAD_REACTORS
330
1AD3
102
}
330
1AD3
100
AcDbScale
 70
     0
300
1/128" = 1'-0"
140
0.0078125
141
12.0
290
     0
  0
SCALE
  5
1AD6
102
{ACAD_REACTORS
330
1AD3
102
}
330
1AD3
100
AcDbScale
 70
     0
300
1/64" = 1'-0"
140
0.015625
141
12.0
290
     0
  0
SCALE
  5
1AD7
102
{ACAD_REACTORS
330
1AD3
102
}
330
1AD3
100
AcDbScale
 70
     0
300
1/32" = 1'-0"
140
0.03125
141
12.0
290
     0
  0
SCALE
  5
1AD8
102
{ACAD_REACTORS
330
1AD3
102
}
330
1AD3
100
AcDbScale
 70
     0
300
1/16" = 1'-0"
140
0.0625
141
12.0
290
     0
  0
SCALE
  5
1AD9
102
{ACAD_REACTORS
330
1AD3
102
}
330
1AD3
100
AcDbScale
 70
     0
300
3/32" = 1'-0"
140
0.09375
141
12.0
290
     0
  0
SCALE
  5
1ADA
102
{ACAD_REACTORS
330
1AD3
102
}
330
1AD3
100
AcDbScale
 70
     0
300
1/8" = 1'-0"
140
0.125
141
12.0
290
     0
  0
SCALE
  5
1ADB
102
{ACAD_REACTORS
330
1AD3
102
}
330
1AD3
100
AcDbScale
 70
     0
300
3/16" = 1'-0"
140
0.1875
141
12.0
290
     0
  0
SCALE
  5
1ADC
102
{ACAD_REACTORS
330
1AD3
102
}
330
1AD3
100
AcDbScale
 70
     0
300
1/4" = 1'-0"
140
0.25
141
12.0
290
     0
  0
SCALE
  5
1ADD
102
{ACAD_REACTORS
330
1AD3
102
}
330
1AD3
100
AcDbScale
 70
     0
300
3/8" = 1'-0"
140
0.375
141
12.0
290
     0
  0
SCALE
  5
1ADE
102
{ACAD_REACTORS
330
1AD3
102
}
330
1AD3
100
AcDbScale
 70
     0
300
1/2" = 1'-0"
140
0.5
141
12.0
290
     0
  0
SCALE
  5
1ADF
102
{ACAD_REACTORS
330
1AD3
102
}
330
1AD3
100
AcDbScale
 70
     0
300
3/4" = 1'-0"
140
0.75
141
12.0
290
     0
  0
SCALE
  5
1AE0
102
{ACAD_REACTORS
330
1AD3
102
}
330
1AD3
100
AcDbScale
 70
     0
300
1" = 1'-0"
140
1.0
141
12.0
290
     0
  0
SCALE
  5
1AE1
102
{ACAD_REACTORS
330
1AD3
102
}
330
1AD3
100
AcDbScale
 70
     0
300
1-1/2" = 1'-0"
140
1.5
141
12.0
290
     0
  0
SCALE
  5
1AE2
102
{ACAD_REACTORS
330
1AD3
102
}
330
1AD3
100
AcDbScale
 70
     0
300
3" = 1'-0"
140
3.0
141
12.0
290
     0
  0
SCALE
  5
1AE3
102
{ACAD_REACTORS
330
1AD3
102
}
330
1AD3
100
AcDbScale
 70
     0
300
6" = 1'-0"
140
6.0
141
12.0
290
     0
  0
SCALE
  5
1AE4
102
{ACAD_REACTORS
330
1AD3
102
}
330
1AD3
100
AcDbScale
 70
     0
300
1'-0" = 1'-0"
140
12.0
141
12.0
290
     0
  0
ACDBSECTIONVIEWSTYLE
  5
1AE8
102
{ACAD_XDICTIONARY
360
1B42
102
}
102
{ACAD_REACTORS
330
1AE7
102
}
330
1AE7
100
AcDbModelDocViewStyle
 70
     0
  3
Imperial24
290
     0
100
AcDbSectionViewStyle
 70
     0
 71
     0
 90
       78
 71
     1
340
1404
 40
0.24
340
0
340
0
 40
0.24
300
I, O, Q, S, X, Z
 40
0.48
 90
        3
 40
0.18
 90
        1
 71
     2
340
1408
 90
       25
340
1408
 90
       50
 40
0.24
 40
0.0
 40
0.24
 71
     3
340
1404
 40
0.24
 90
        1
 40
0.75
 90
        1
300
%<\AcVar ViewType \f "%tc1">% %<\AcVar ViewSectionStartId>%-%<\AcVar ViewSectionEndId>%\PSCALE %<\AcVar ViewScale \f "%sn">%
 71
     4
300
ANSI31
 40
1.0
 90
        0
290
     0
290
     0
 90
        6
 40
0.0
 40
1.570796326794896
 40
0.2617993877991494
 40
1.308996938995747
 40
-0.2617993877991494
 40
1.832595714594046
  0
TABLESTYLE
  5
1AD2
102
{ACAD_XDICTIONARY
360
1B09
102
}
102
{ACAD_REACTORS
330
1AD1
102
}
330
1AD1
100
AcDbTableStyle
  3
Standard
 70
     0
 71
     0
 40
0.06
 41
0.06
280
     0
281
     0
  7
STANDARD
140
0.18
170
     2
 62
     0
 63
     7
283
     0
274
    -2
284
     1
 64
     0
275
    -2
285
     1
 65
     0
276
    -2
286
     1
 66
     0
277
    -2
287
     1
 67
     0
278
    -2
288
     1
 68
     0
279
    -2
289
     1
 69
     0
  7
STANDARD
140
0.25
170
     5
 62
     0
 63
     7
283
     0
274
    -2
284
     1
 64
     0
275
    -2
285
     1
 65
     0
276
    -2
286
     1
 66
     0
277
    -2
287
     1
 67
     0
278
    -2
288
     1
 68
     0
279
    -2
289
     1
 69
     0
  7
STANDARD
140
0.18
170
     5
 62
     0
 63
     7
283
     0
274
    -2
284
     1
 64
     0
275
    -2
285
     1
 65
     0
276
    -2
286
     1
 66
     0
277
    -2
287
     1
 67
     0
278
    -2
288
     1
 68
     0
279
    -2
289
     1
 69
     0
  0
VISUALSTYLE
  5
1ABD
102
{ACAD_XDICTIONARY
360
1B1A
102
}
102
{ACAD_REACTORS
330
1AB7
102
}
330
1AB7
100
AcDbVisualStyle
  2
2dWireframe
 70
     4
 71
     0
 72
     2
 73
     0
 90
        0
 40
-0.6
 41
-30.0
 62
     5
 63
     7
 74
     1
 91
        4
 64
     7
 65
   257
 75
     1
175
     1
 42
1.0
 92
        0
 66
   257
 43
1.0
 76
     1
 77
     6
 78
     2
 67
     7
 79
     5
170
     0
171
     0
290
     0
174
     0
 93
        1
 44
0.0
173
     0
291
     0
 45
0.0
1001
ACAD
1000
AcDbSavedByObjectVersion
1070
     0
  0
VISUALSTYLE
  5
1ABC
102
{ACAD_XDICTIONARY
360
1B18
102
}
102
{ACAD_REACTORS
330
1AB7
102
}
330
1AB7
100
AcDbVisualStyle
  2
Basic
 70
     7
 71
     1
 72
     0
 73
     1
 90
        0
 40
-0.6
 41
-30.0
 62
     5
 63
     7
 74
     0
 91
        4
 64
     7
 65
   257
 75
     1
175
     1
 42
1.0
 92
        8
 66
     7
 43
1.0
 76
     1
 77
     6
 78
     2
 67
     7
 79
     5
170
     0
171
     0
290
     0
174
     0
 93
        1
 44
0.0
173
     0
291
     1
 45
0.0
1001
ACAD
1000
AcDbSavedByObjectVersion
1070
     0
  0
VISUALSTYLE
  5
1AC3
102
{ACAD_XDICTIONARY
360
1B26
102
}
102
{ACAD_REACTORS
330
1AB7
102
}
330
1AB7
100
AcDbVisualStyle
  2
Brighten
 70
    12
 71
     2
 72
     2
 73
     0
 90
        0
 40
-0.6
 41
-30.0
 62
     5
 63
     7
 74
     1
 91
        4
 64
     7
 65
   257
 75
     1
175
     1
 42
1.0
 92
        8
 66
     7
 43
1.0
 76
     1
 77
     6
 78
     2
 67
     7
 79
     5
170
     0
171
     0
290
     0
174
     0
 93
        1
 44
50.0
173
     0
291
     1
 45
0.0
1001
ACAD
1000
AcDbSavedByObjectVersion
1070
     0
  0
VISUALSTYLE
  5
1AC7
102
{ACAD_XDICTIONARY
360
1B2E
102
}
102
{ACAD_REACTORS
330
1AB7
102
}
330
1AB7
100
AcDbVisualStyle
  2
ColorChange
 70
    16
 71
     2
 72
     2
 73
     3
 90
        0
 40
-0.6
 41
-30.0
 62
     5
 63
     8
 74
     1
 91
        4
 64
     7
 65
   257
 75
     1
175
     1
 42
1.0
 92
        8
 66
     8
 43
1.0
 76
     1
 77
     6
 78
     2
 67
     7
 79
     5
170
     0
171
     0
290
     0
174
     0
 93
        1
 44
0.0
173
     0
291
     1
 45
0.0
1001
ACAD
1000
AcDbSavedByObjectVersion
1070
     0
  0
VISUALSTYLE
  5
1AC0
102
{ACAD_XDICTIONARY
360
1B20
102
}
102
{ACAD_REACTORS
330
1AB7
102
}
330
1AB7
100
AcDbVisualStyle
  2
Conceptual
 70
     9
 71
     3
 72
     2
 73
     0
 90
        0
 40
-0.6
 41
-30.0
 62
     5
 63
     7
 74
     2
 91
        2
 64
     7
 65
   257
 75
     1
175
     1
 42
179.0
 92
        8
 66
     7
 43
1.0
 76
     1
 77
     6
 78
     2
 67
     7
 79
     3
170
     0
171
     0
290
     0
174
     0
 93
        1
 44
0.0
173
     0
291
     0
 45
0.0
1001
ACAD
1000
AcDbSavedByObjectVersion
1070
     0
  0
VISUALSTYLE
  5
1AC2
102
{ACAD_XDICTIONARY
360
1B24
102
}
102
{ACAD_REACTORS
330
1AB7
102
}
330
1AB7
100
AcDbVisualStyle
  2
Dim
 70
    11
 71
     2
 72
     2
 73
     0
 90
        0
 40
-0.6
 41
-30.0
 62
     5
 63
     7
 74
     1
 91
        4
 64
     7
 65
   257
 75
     1
175
     1
 42
1.0
 92
        8
 66
     7
 43
1.0
 76
     1
 77
     6
 78
     2
 67
     7
 79
     5
170
     0
171
     0
290
     0
174
     0
 93
        1
 44
-50.0
173
     0
291
     1
 45
0.0
1001
ACAD
1000
AcDbSavedByObjectVersion
1070
     0
  0
VISUALSTYLE
  5
1ACF
102
{ACAD_XDICTIONARY
360
1B3E
102
}
102
{ACAD_REACTORS
330
1AB7
102
}
330
1AB7
100
AcDbVisualStyle
  2
EdgeColorOff
 70
    22
 71
     2
 72
     2
 73
     0
 90
        0
 40
-0.6
 41
-30.0
 62
     5
 63
     7
 74
     1
 91
        4
 64
     7
 65
   257
 75
     1
175
     1
 42
1.0
 92
        8
 66
     7
 43
1.0
 76
     1
 77
     6
 78
     2
 67
     7
 79
     5
170
     0
171
     0
290
     0
174
     0
 93
        1
 44
0.0
173
     0
291
     1
 45
0.0
1001
ACAD
1000
AcDbSavedByObjectVersion
1070
     0
  0
VISUALSTYLE
  5
1AC6
102
{ACAD_XDICTIONARY
360
1B2C
102
}
102
{ACAD_REACTORS
330
1AB7
102
}
330
1AB7
100
AcDbVisualStyle
  2
Facepattern
 70
    15
 71
     2
 72
     2
 73
     0
 90
        0
 40
-0.6
 41
-30.0
 62
     5
 63
     7
 74
     1
 91
        4
 64
     7
 65
   257
 75
     1
175
     1
 42
1.0
 92
        8
 66
     7
 43
1.0
 76
     1
 77
     6
 78
     2
 67
     7
 79
     5
170
     0
171
     0
290
     0
174
     0
 93
        1
 44
0.0
173
     0
291
     1
 45
0.0
1001
ACAD
1000
AcDbSavedByObjectVersion
1070
     0
  0
VISUALSTYLE
  5
1AB8
102
{ACAD_XDICTIONARY
360
1B10
102
}
102
{ACAD_REACTORS
330
1AB7
102
}
330
1AB7
100
AcDbVisualStyle
  2
Flat
 70
     0
 71
     2
 72
     1
 73
     1
 90
        2
 40
-0.6
 41
30.0
 62
     5
 63
     7
 74
     0
 91
        0
 64
     7
 65
   257
 75
     1
175
     1
 42
1.0
 92
        8
 66
     7
 43
1.0
 76
     1
 77
     6
 78
     2
 67
     7
 79
     5
170
     0
171
     0
290
     0
174
     0
 93
       13
 44
0.0
173
     0
291
     1
 45
0.0
1001
ACAD
1000
AcDbSavedByObjectVersion
1070
     0
  0
VISUALSTYLE
  5
1AB9
102
{ACAD_XDICTIONARY
360
1B12
102
}
102
{ACAD_REACTORS
330
1AB7
102
}
330
1AB7
100
AcDbVisualStyle
  2
FlatWithEdges
 70
     1
 71
     2
 72
     1
 73
     1
 90
        2
 40
-0.6
 41
30.0
 62
     5
 63
     7
 74
     1
 91
        0
 64
     7
 65
   257
 75
     1
175
     1
 42
1.0
 92
        0
 66
   257
 43
1.0
 76
     1
 77
     6
 78
     2
 67
     7
 79
     5
170
     0
171
     0
290
     0
174
     0
 93
       13
 44
0.0
173
     0
291
     1
 45
0.0
1001
ACAD
1000
AcDbSavedByObjectVersion
1070
     0
  0
VISUALSTYLE
  5
1ABA
102
{ACAD_XDICTIONARY
360
1B14
102
}
102
{ACAD_REACTORS
330
1AB7
102
}
330
1AB7
100
AcDbVisualStyle
  2
Gouraud
 70
     2
 71
     2
 72
     2
 73
     1
 90
        2
 40
-0.6
 41
30.0
 62
     5
 63
     7
 74
     0
 91
        0
 64
     7
 65
   257
 75
     1
175
     1
 42
1.0
 92
        0
 66
     7
 43
1.0
 76
     1
 77
     6
 78
     2
 67
     7
 79
     5
170
     0
171
     0
290
     0
174
     0
 93
       13
 44
0.0
173
     0
291
     1
 45
0.0
1001
ACAD
1000
AcDbSavedByObjectVersion
1070
     0
  0
VISUALSTYLE
  5
1ABB
102
{ACAD_XDICTIONARY
360
1B16
102
}
102
{ACAD_REACTORS
330
1AB7
102
}
330
1AB7
100
AcDbVisualStyle
  2
GouraudWithEdges
 70
     3
 71
     2
 72
     2
 73
     1
 90
        2
 40
-0.6
 41
30.0
 62
     5
 63
     7
 74
     1
 91
        0
 64
     7
 65
   257
 75
     1
175
     1
 42
1.0
 92
        0
 66
   257
 43
1.0
 76
     1
 77
     6
 78
     2
 67
     7
 79
     5
170
     0
171
     0
290
     0
174
     0
 93
       13
 44
0.0
173
     0
291
     1
 45
0.0
1001
ACAD
1000
AcDbSavedByObjectVersion
1070
     0
  0
VISUALSTYLE
  5
1ABF
102
{ACAD_XDICTIONARY
360
1B1E
102
}
102
{ACAD_REACTORS
330
1AB7
102
}
330
1AB7
100
AcDbVisualStyle
  2
Hidden
 70
     6
 71
     1
 72
     2
 73
     2
 90
        0
 40
-0.6
 41
-30.0
 62
     5
 63
     7
 74
     2
 91
        2
 64
     7
 65
   257
 75
     2
175
     1
 42
40.0
 92
        0
 66
   257
 43
1.0
 76
     1
 77
     6
 78
     2
 67
     7
 79
     3
170
     0
171
     0
290
     0
174
     0
 93
        1
 44
0.0
173
     0
291
     0
 45
0.0
1001
ACAD
1000
AcDbSavedByObjectVersion
1070
     0
  0
VISUALSTYLE
  5
1ACD
102
{ACAD_XDICTIONARY
360
1B3A
102
}
102
{ACAD_REACTORS
330
1AB7
102
}
330
1AB7
100
AcDbVisualStyle
  2
JitterOff
 70
    20
 71
     2
 72
     2
 73
     0
 90
        0
 40
-0.6
 41
-30.0
 62
     5
 63
     7
 74
     1
 91
        4
 64
     7
 65
   257
 75
     1
175
     1
 42
1.0
 92
       10
 66
     7
 43
1.0
 76
     1
 77
     6
 78
     2
 67
     7
 79
     5
170
     0
171
     0
290
     0
174
     0
 93
        1
 44
0.0
173
     0
291
     1
 45
0.0
1001
ACAD
1000
AcDbSavedByObjectVersion
1070
     0
  0
VISUALSTYLE
  5
1AC5
102
{ACAD_XDICTIONARY
360
1B2A
102
}
102
{ACAD_REACTORS
330
1AB7
102
}
330
1AB7
100
AcDbVisualStyle
  2
Linepattern
 70
    14
 71
     2
 72
     2
 73
     0
 90
        0
 40
-0.6
 41
-30.0
 62
     5
 63
     7
 74
     1
 91
        4
 64
     7
 65
   257
 75
     7
175
     7
 42
1.0
 92
        8
 66
     7
 43
1.0
 76
     1
 77
     6
 78
     2
 67
     7
 79
     5
170
     0
171
     0
290
     0
174
     0
 93
        1
 44
0.0
173
     0
291
     1
 45
0.0
1001
ACAD
1000
AcDbSavedByObjectVersion
1070
     0
  0
VISUALSTYLE
  5
1ACE
102
{ACAD_XDICTIONARY
360
1B3C
102
}
102
{ACAD_REACTORS
330
1AB7
102
}
330
1AB7
100
AcDbVisualStyle
  2
OverhangOff
 70
    21
 71
     2
 72
     2
 73
     0
 90
        0
 40
-0.6
 41
-30.0
 62
     5
 63
     7
 74
     1
 91
        4
 64
     7
 65
   257
 75
     1
175
     1
 42
1.0
 92
        9
 66
     7
 43
1.0
 76
     1
 77
     6
 78
     2
 67
     7
 79
     5
170
     0
171
     0
290
     0
174
     0
 93
        1
 44
0.0
173
     0
291
     1
 45
0.0
1001
ACAD
1000
AcDbSavedByObjectVersion
1070
     0
  0
VISUALSTYLE
  5
1AC1
102
{ACAD_XDICTIONARY
360
1B22
102
}
102
{ACAD_REACTORS
330
1AB7
102
}
330
1AB7
100
AcDbVisualStyle
  2
Realistic
 70
     8
 71
     2
 72
     3
 73
     0
 90
        2
 40
-0.6
 41
30.0
 62
     5
 63
     7
 74
     0
 91
        0
 64
     7
 65
   257
 75
     1
175
     1
 42
1.0
 92
        8
 66
   257
 43
1.0
 76
     1
 77
     6
 78
     2
 67
     7
 79
     3
170
     0
171
     0
290
     0
174
     0
 93
       13
 44
0.0
173
     0
291
     0
 45
0.0
1001
ACAD
1000
AcDbSavedByObjectVersion
1070
     0
  0
VISUALSTYLE
  5
1ACC
102
{ACAD_XDICTIONARY
360
1B38
102
}
102
{ACAD_REACTORS
330
1AB7
102
}
330
1AB7
100
AcDbVisualStyle
  2
Shaded
 70
    27
 71
     2
 72
     2
 73
     1
 90
        2
 40
-0.6
 41
30.0
 62
     5
 63
     7
 74
     0
 91
        4
 64
     7
 65
   257
 75
     1
175
     1
 42
1.0
 92
        8
 66
   257
 43
1.0
 76
     1
 77
     6
 78
     2
 67
     8
 79
     3
170
     0
171
     0
290
     0
174
     0
 93
        5
 44
0.0
173
     0
291
     0
 45
0.0
1001
ACAD
1000
AcDbSavedByObjectVersion
1070
     0
  0
VISUALSTYLE
  5
1ACB
102
{ACAD_XDICTIONARY
360
1B36
102
}
102
{ACAD_REACTORS
330
1AB7
102
}
330
1AB7
100
AcDbVisualStyle
  2
Shaded with edges
 70
    26
 71
     2
 72
     2
 73
     1
 90
        2
 40
-0.6
 41
30.0
 62
     5
 63
     7
 74
     1
 91
       10
 64
     7
 65
   257
 75
     2
175
     1
 42
1.0
 92
        8
 66
   257
 43
1.0
 76
     1
 77
     6
 78
     2
 67
     7
 79
     3
170
     0
171
     0
290
     0
174
     0
 93
        5
 44
0.0
173
     0
291
     0
 45
0.0
1001
ACAD
1000
AcDbSavedByObjectVersion
1070
     0
  0
VISUALSTYLE
  5
1AC8
102
{ACAD_XDICTIONARY
360
1B30
102
}
102
{ACAD_REACTORS
330
1AB7
102
}
330
1AB7
100
AcDbVisualStyle
  2
Shades of Gray
 70
    23
 71
     2
 72
     2
 73
     3
 90
        0
 40
-0.6
 41
-30.0
 62
     5
 63
     7
 74
     2
 91
        2
 64
     7
 65
     7
 75
     1
175
     1
 42
40.0
 92
        8
 66
     7
 43
1.0
 76
     1
 77
     6
 78
     2
 67
     7
 79
     3
170
     0
171
     0
290
     0
174
     0
 93
        1
 44
0.0
173
     0
291
     0
 45
0.0
1001
ACAD
1000
AcDbSavedByObjectVersion
1070
     0
  0
VISUALSTYLE
  5
1AC9
102
{ACAD_XDICTIONARY
360
1B32
102
}
102
{ACAD_REACTORS
330
1AB7
102
}
330
1AB7
100
AcDbVisualStyle
  2
Sketchy
 70
    24
 71
     1
 72
     2
 73
     2
 90
        0
 40
-0.6
 41
-30.0
 62
     5
 63
     7
 74
     2
 91
        2
 64
     7
 65
     7
 75
     1
175
     1
 42
40.0
 92
       11
 66
     7
 43
1.0
 76
     1
 77
     6
 78
     2
 67
     7
 79
     6
170
     0
171
     0
290
     0
174
     0
 93
        1
 44
0.0
173
     0
291
     0
 45
0.0
1001
ACAD
1000
AcDbSavedByObjectVersion
1070
     0
  0
VISUALSTYLE
  5
1AC4
102
{ACAD_XDICTIONARY
360
1B28
102
}
102
{ACAD_REACTORS
330
1AB7
102
}
330
1AB7
100
AcDbVisualStyle
  2
Thicken
 70
    13
 71
     2
 72
     2
 73
     0
 90
        0
 40
-0.6
 41
-30.0
 62
     5
 63
     7
 74
     1
 91
        4
 64
     7
 65
   257
 75
     1
175
     1
 42
1.0
 92
       12
 66
     7
 43
1.0
 76
     1
 77
     6
 78
     2
 67
     7
 79
     5
170
     0
171
     0
290
     0
174
     0
 93
        1
 44
0.0
173
     0
291
     1
 45
0.0
1001
ACAD
1000
AcDbSavedByObjectVersion
1070
     0
  0
VISUALSTYLE
  5
1ABE
102
{ACAD_XDICTIONARY
360
1B1C
102
}
102
{ACAD_REACTORS
330
1AB7
102
}
330
1AB7
100
AcDbVisualStyle
  2
Wireframe
 70
     5
 71
     0
 72
     2
 73
     0
 90
        0
 40
-0.6
 41
-30.0
 62
     5
 63
     7
 74
     1
 91
        4
 64
     7
 65
   257
 75
     1
175
     1
 42
1.0
 92
        0
 66
   257
 43
1.0
 76
     1
 77
     6
 78
     2
 67
     7
 79
     3
170
     0
171
     0
290
     0
174
     0
 93
        1
 44
0.0
173
     0
291
     0
 45
0.0
1001
ACAD
1000
AcDbSavedByObjectVersion
1070
     0
  0
VISUALSTYLE
  5
1ACA
102
{ACAD_XDICTIONARY
360
1B34
102
}
102
{ACAD_REACTORS
330
1AB7
102
}
330
1AB7
100
AcDbVisualStyle
  2
X-Ray
 70
    25
 71
     2
 72
     2
 73
     1
 90
        1
 40
0.5
 41
-30.0
 62
     5
 63
     7
 74
     1
 91
        0
 64
     7
 65
   257
 75
     1
175
     1
 42
1.0
 92
        8
 66
     7
 43
1.0
 76
     1
 77
     6
 78
     2
 67
     7
 79
     3
170
     0
171
     0
290
     0
174
     0
 93
       13
 44
0.0
173
     0
291
     0
 45
0.0
1001
ACAD
1000
AcDbSavedByObjectVersion
1070
     0
  0
DICTIONARYVAR
  5
1B03
102
{ACAD_REACTORS
330
1AFE
102
}
330
1AFE
100
DictionaryVariables
280
     0
  1
1:1
  0
DICTIONARYVAR
  5
1B00
102
{ACAD_REACTORS
330
1AFE
102
}
330
1AFE
100
DictionaryVariables
280
     0
  1
STANDARD
  0
DICTIONARYVAR
  5
1AFF
102
{ACAD_REACTORS
330
1AFE
102
}
330
1AFE
100
DictionaryVariables
280
     0
  1
STANDARD
  0
DICTIONARYVAR
  5
1B01
102
{ACAD_REACTORS
330
1AFE
102
}
330
1AFE
100
DictionaryVariables
280
     0
  1
Imperial24
  0
DICTIONARYVAR
  5
1B02
102
{ACAD_REACTORS
330
1AFE
102
}
330
1AFE
100
DictionaryVariables
280
     0
  1
Imperial24
  0
DICTIONARYVAR
  5
1B06
102
{ACAD_REACTORS
330
1AFE
102
}
330
1AFE
100
DictionaryVariables
280
     0
  1
1
  0
DICTIONARYVAR
  5
1B05
102
{ACAD_REACTORS
330
1AFE
102
}
330
1AFE
100
DictionaryVariables
280
     0
  1
0
  0
DICTIONARYVAR
  5
1B04
102
{ACAD_REACTORS
330
1AFE
102
}
330
1AFE
100
DictionaryVariables
280
     0
  1
127
  0
DICTIONARYVAR
  5
1B07
102
{ACAD_REACTORS
330
1AFE
102
}
330
1AFE
100
DictionaryVariables
280
     0
  1
2
  0
DICTIONARY
  5
1B44
330
1AEA
100
AcDbDictionary
280
     1
281
     1
  3
ACAD_XREC_ROUNDTRIP
360
1B45
  0
DICTIONARY
  5
1B46
330
1AEB
100
AcDbDictionary
280
     1
281
     1
  3
ACAD_XREC_ROUNDTRIP
360
1B47
  0
DICTIONARY
  5
1B48
330
1AEC
100
AcDbDictionary
280
     1
281
     1
  3
ACAD_XREC_ROUNDTRIP
360
1B49
  0
DICTIONARY
  5
1AA8
330
1AA7
100
AcDbDictionary
280
     1
281
     1
  3
ACAD_XREC_ROUNDTRIP
360
1B0E
  3
BUMPTILE
360
1AAA
  3
DIFFUSETILE
360
1AA9
  3
OPACITYTILE
360
1AAD
  3
REFLECTIONTILE
360
1AAC
  3
REFRACTIONTILE
360
1AAE
  3
SPECULARTILE
360
1AAB
  0
DICTIONARY
  5
1AA0
330
1A9F
100
AcDbDictionary
280
     1
281
     1
  3
ACAD_XREC_ROUNDTRIP
360
1B0D
  3
BUMPTILE
360
1AA2
  3
DIFFUSETILE
360
1AA1
  3
OPACITYTILE
360
1AA5
  3
REFLECTIONTILE
360
1AA4
  3
REFRACTIONTILE
360
1AA6
  3
SPECULARTILE
360
1AA3
  0
DICTIONARY
  5
1AB0
330
1AAF
100
AcDbDictionary
280
     1
281
     1
  3
ACAD_XREC_ROUNDTRIP
360
1B0F
  3
BUMPTILE
360
1AB2
  3
DIFFUSETILE
360
1AB1
  3
OPACITYTILE
360
1AB5
  3
REFLECTIONTILE
360
1AB4
  3
REFRACTIONTILE
360
1AB6
  3
SPECULARTILE
360
1AB3
  0
DICTIONARY
  5
1B42
330
1AE8
100
AcDbDictionary
280
     1
281
     1
  3
ACAD_XREC_ROUNDTRIP
360
1B43
  0
DICTIONARY
  5
1B09
330
1AD2
100
AcDbDictionary
280
     1
281
     1
  3
ACAD_ROUNDTRIP_2008_TABLESTYLE_CELLSTYLEMAP
360
1B0A
  3
ACAD_XREC_ROUNDTRIP
360
1B40
  0
DICTIONARY
  5
1B1A
330
1ABD
100
AcDbDictionary
280
     1
281
     1
  3
ACAD_XREC_ROUNDTRIP
360
1B1B
  0
DICTIONARY
  5
1B18
330
1ABC
100
AcDbDictionary
280
     1
281
     1
  3
ACAD_XREC_ROUNDTRIP
360
1B19
  0
DICTIONARY
  5
1B26
330
1AC3
100
AcDbDictionary
280
     1
281
     1
  3
ACAD_XREC_ROUNDTRIP
360
1B27
  0
DICTIONARY
  5
1B2E
330
1AC7
100
AcDbDictionary
280
     1
281
     1
  3
ACAD_XREC_ROUNDTRIP
360
1B2F
  0
DICTIONARY
  5
1B20
330
1AC0
100
AcDbDictionary
280
     1
281
     1
  3
ACAD_XREC_ROUNDTRIP
360
1B21
  0
DICTIONARY
  5
1B24
330
1AC2
100
AcDbDictionary
280
     1
281
     1
  3
ACAD_XREC_ROUNDTRIP
360
1B25
  0
DICTIONARY
  5
1B3E
330
1ACF
100
AcDbDictionary
280
     1
281
     1
  3
ACAD_XREC_ROUNDTRIP
360
1B3F
  0
DICTIONARY
  5
1B2C
330
1AC6
100
AcDbDictionary
280
     1
281
     1
  3
ACAD_XREC_ROUNDTRIP
360
1B2D
  0
DICTIONARY
  5
1B10
330
1AB8
100
AcDbDictionary
280
     1
281
     1
  3
ACAD_XREC_ROUNDTRIP
360
1B11
  0
DICTIONARY
  5
1B12
330
1AB9
100
AcDbDictionary
280
     1
281
     1
  3
ACAD_XREC_ROUNDTRIP
360
1B13
  0
DICTIONARY
  5
1B14
330
1ABA
100
AcDbDictionary
280
     1
281
     1
  3
ACAD_XREC_ROUNDTRIP
360
1B15
  0
DICTIONARY
  5
1B16
330
1ABB
100
AcDbDictionary
280
     1
281
     1
  3
ACAD_XREC_ROUNDTRIP
360
1B17
  0
DICTIONARY
  5
1B1E
330
1ABF
100
AcDbDictionary
280
     1
281
     1
  3
ACAD_XREC_ROUNDTRIP
360
1B1F
  0
DICTIONARY
  5
1B3A
330
1ACD
100
AcDbDictionary
280
     1
281
     1
  3
ACAD_XREC_ROUNDTRIP
360
1B3B
  0
DICTIONARY
  5
1B2A
330
1AC5
100
AcDbDictionary
280
     1
281
     1
  3
ACAD_XREC_ROUNDTRIP
360
1B2B
  0
DICTIONARY
  5
1B3C
330
1ACE
100
AcDbDictionary
280
     1
281
     1
  3
ACAD_XREC_ROUNDTRIP
360
1B3D
  0
DICTIONARY
  5
1B22
330
1AC1
100
AcDbDictionary
280
     1
281
     1
  3
ACAD_XREC_ROUNDTRIP
360
1B23
  0
DICTIONARY
  5
1B38
330
1ACC
100
AcDbDictionary
280
     1
281
     1
  3
ACAD_XREC_ROUNDTRIP
360
1B39
  0
DICTIONARY
  5
1B36
330
1ACB
100
AcDbDictionary
280
     1
281
     1
  3
ACAD_XREC_ROUNDTRIP
360
1B37
  0
DICTIONARY
  5
1B30
330
1AC8
100
AcDbDictionary
280
     1
281
     1
  3
ACAD_XREC_ROUNDTRIP
360
1B31
  0
DICTIONARY
  5
1B32
330
1AC9
100
AcDbDictionary
280
     1
281
     1
  3
ACAD_XREC_ROUNDTRIP
360
1B33
  0
DICTIONARY
  5
1B28
330
1AC4
100
AcDbDictionary
280
     1
281
     1
  3
ACAD_XREC_ROUNDTRIP
360
1B29
  0
DICTIONARY
  5
1B1C
330
1ABE
100
AcDbDictionary
280
     1
281
     1
  3
ACAD_XREC_ROUNDTRIP
360
1B1D
  0
DICTIONARY
  5
1B34
330
1ACA
100
AcDbDictionary
280
     1
281
     1
  3
ACAD_XREC_ROUNDTRIP
360
1B35
  0
XRECORD
  5
1B45
102
{ACAD_REACTORS
330
1B44
102
}
330
1B44
100
AcDbXrecord
280
     1
102
DISPLAYNAME
  1
Imperial24
102
FLAGS
 90
        0
  0
XRECORD
  5
1B47
102
{ACAD_REACTORS
330
1B46
102
}
330
1B46
100
AcDbXrecord
280
     1
102
SHADEPLOT
 70
     0
102
SHADEPLOTRESLEVEL
 70
     2
102
SHADEPLOTCUSTOMDPI
 70
   300
  0
XRECORD
  5
1B49
102
{ACAD_REACTORS
330
1B48
102
}
330
1B48
100
AcDbXrecord
280
     1
102
SHADEPLOT
 70
     0
102
SHADEPLOTRESLEVEL
 70
     2
102
SHADEPLOTCUSTOMDPI
 70
   300
  0
XRECORD
  5
1B0E
102
{ACAD_REACTORS
330
1AA8
102
}
330
1AA8
100
AcDbXrecord
280
     1
102
MATERIAL
148
0.0
149
0.0
149
0.0
 93
        0
 94
      127
282
     0
 72
     0
 77
     0
171
     0
175
     0
179
     0
273
     0
  0
XRECORD
  5
1AAA
102
{ACAD_REACTORS
330
1AA8
102
}
330
1AA8
100
AcDbXrecord
280
     1
270
     1
271
     1
  0
XRECORD
  5
1AA9
102
{ACAD_REACTORS
330
1AA8
102
}
330
1AA8
100
AcDbXrecord
280
     1
270
     1
271
     1
  0
XRECORD
  5
1AAD
102
{ACAD_REACTORS
330
1AA8
102
}
330
1AA8
100
AcDbXrecord
280
     1
270
     1
271
     1
  0
XRECORD
  5
1AAC
102
{ACAD_REACTORS
330
1AA8
102
}
330
1AA8
100
AcDbXrecord
280
     1
270
     1
271
     1
  0
XRECORD
  5
1AAE
102
{ACAD_REACTORS
330
1AA8
102
}
330
1AA8
100
AcDbXrecord
280
     1
270
     1
271
     1
  0
XRECORD
  5
1AAB
102
{ACAD_REACTORS
330
1AA8
102
}
330
1AA8
100
AcDbXrecord
280
     1
270
     1
271
     1
  0
XRECORD
  5
1B0D
102
{ACAD_REACTORS
330
1AA0
102
}
330
1AA0
100
AcDbXrecord
280
     1
102
MATERIAL
148
0.0
149
0.0
149
0.0
 93
        0
 94
      127
282
     0
 72
     0
 77
     0
171
     0
175
     0
179
     0
273
     0
  0
XRECORD
  5
1AA2
102
{ACAD_REACTORS
330
1AA0
102
}
330
1AA0
100
AcDbXrecord
280
     1
270
     1
271
     1
  0
XRECORD
  5
1AA1
102
{ACAD_REACTORS
330
1AA0
102
}
330
1AA0
100
AcDbXrecord
280
     1
270
     1
271
     1
  0
XRECORD
  5
1AA5
102
{ACAD_REACTORS
330
1AA0
102
}
330
1AA0
100
AcDbXrecord
280
     1
270
     1
271
     1
  0
XRECORD
  5
1AA4
102
{ACAD_REACTORS
330
1AA0
102
}
330
1AA0
100
AcDbXrecord
280
     1
270
     1
271
     1
  0
XRECORD
  5
1AA6
102
{ACAD_REACTORS
330
1AA0
102
}
330
1AA0
100
AcDbXrecord
280
     1
270
     1
271
     1
  0
XRECORD
  5
1AA3
102
{ACAD_REACTORS
330
1AA0
102
}
330
1AA0
100
AcDbXrecord
280
     1
270
     1
271
     1
  0
XRECORD
  5
1B0F
102
{ACAD_REACTORS
330
1AB0
102
}
330
1AB0
100
AcDbXrecord
280
     1
102
MATERIAL
148
0.0
149
0.0
149
0.0
 93
        0
 94
      127
282
     0
 72
     0
 77
     0
171
     0
175
     0
179
     0
273
     0
  0
XRECORD
  5
1AB2
102
{ACAD_REACTORS
330
1AB0
102
}
330
1AB0
100
AcDbXrecord
280
     1
270
     1
271
     1
  0
XRECORD
  5
1AB1
102
{ACAD_REACTORS
330
1AB0
102
}
330
1AB0
100
AcDbXrecord
280
     1
270
     1
271
     1
  0
XRECORD
  5
1AB5
102
{ACAD_REACTORS
330
1AB0
102
}
330
1AB0
100
AcDbXrecord
280
     1
270
     1
271
     1
  0
XRECORD
  5
1AB4
102
{ACAD_REACTORS
330
1AB0
102
}
330
1AB0
100
AcDbXrecord
280
     1
270
     1
271
     1
  0
XRECORD
  5
1AB6
102
{ACAD_REACTORS
330
1AB0
102
}
330
1AB0
100
AcDbXrecord
280
     1
270
     1
271
     1
  0
XRECORD
  5
1AB3
102
{ACAD_REACTORS
330
1AB0
102
}
330
1AB0
100
AcDbXrecord
280
     1
270
     1
271
     1
  0
XRECORD
  5
1B43
102
{ACAD_REACTORS
330
1B42
102
}
330
1B42
100
AcDbXrecord
280
     1
102
DISPLAYNAME
  1
Imperial24
102
FLAGS
 90
        0
  0
CELLSTYLEMAP
  5
1B0A
102
{ACAD_REACTORS
330
1B09
102
}
330
1B09
100
AcDbCellStyleMap
 90
        3
300
CELLSTYLE
  1
TABLEFORMAT_BEGIN
 90
        5
170
     1
 91
        0
 92
    32768
 62
   257
 93
        1
300
CONTENTFORMAT
  1
CONTENTFORMAT_BEGIN
 90
        0
 91
        0
 92
      512
 93
        0
300

 40
0.0
140
1.0
 94
        5
 62
     0
340
1404
144
0.25
309
CONTENTFORMAT_END
171
     0
 94
        0
309
TABLEFORMAT_END
  1
CELLSTYLE_BEGIN
 90
        1
 91
        1
300
_TITLE
309
CELLSTYLE_END
300
CELLSTYLE
  1
TABLEFORMAT_BEGIN
 90
        5
170
     1
 91
        0
 92
        0
 62
   257
 93
        1
300
CONTENTFORMAT
  1
CONTENTFORMAT_BEGIN
 90
        0
 91
        0
 92
      512
 93
        0
300

 40
0.0
140
1.0
 94
        5
 62
     0
340
1404
144
0.18
309
CONTENTFORMAT_END
171
     0
 94
        0
309
TABLEFORMAT_END
  1
CELLSTYLE_BEGIN
 90
        2
 91
        1
300
_HEADER
309
CELLSTYLE_END
300
CELLSTYLE
  1
TABLEFORMAT_BEGIN
 90
        5
170
     1
 91
        0
 92
        0
 62
   257
 93
        1
300
CONTENTFORMAT
  1
CONTENTFORMAT_BEGIN
 90
        0
 91
        0
 92
      512
 93
        0
300

 40
0.0
140
1.0
 94
        2
 62
     0
340
1404
144
0.18
309
CONTENTFORMAT_END
171
     0
 94
        0
309
TABLEFORMAT_END
  1
CELLSTYLE_BEGIN
 90
        3
 91
        2
300
_DATA
309
CELLSTYLE_END
  0
XRECORD
  5
1B40
102
{ACAD_REACTORS
330
1B09
102
}
330
1B09
100
AcDbXrecord
280
     1
102
ACAD_ROUNDTRIP_PRE2007_TABLESTYLE
 90
      512
 91
        0
  1

 92
      512
 93
        0
  2

 94
      512
 95
        0
  3

  0
XRECORD
  5
1B1B
102
{ACAD_REACTORS
330
1B1A
102
}
330
1B1A
100
AcDbXrecord
280
     1
102
RTVSPost2010Prop28
280
     1
102
RTVSPost2010PropOp28
 70
     1
102
RTVSPost2010Prop29
280
     1
102
RTVSPost2010PropOp29
 70
     1
102
RTVSPost2010Prop30
280
     0
102
RTVSPost2010PropOp30
 70
     1
102
RTVSPost2010Prop31
280
     0
102
RTVSPost2010PropOp31
 70
     1
102
RTVSPost2010Prop32
280
     0
102
RTVSPost2010PropOp32
 70
     1
102
RTVSPost2010Prop33
280
     0
102
RTVSPost2010PropOp33
 70
     1
102
RTVSPost2010Prop34
280
     0
102
RTVSPost2010PropOp34
 70
     1
102
RTVSPost2010Prop35
280
     0
102
RTVSPost2010PropOp35
 70
     1
102
RTVSPost2010Prop36
280
     0
102
RTVSPost2010PropOp36
 70
     1
102
RTVSPost2010Prop37
 90
       50
102
RTVSPost2010PropOp37
 70
     1
102
RTVSPost2010Prop38
140
0.0
102
RTVSPost2010PropOp38
 70
     1
102
RTVSPost2010Prop39
140
1.0
102
RTVSPost2010PropOp39
 70
     1
102
RTVSPost2010Prop40
 90
        0
102
RTVSPost2010PropOp40
 70
     1
102
RTVSPost2010Prop41ColorIndex
 90
       18
102
RTVSPost2010Prop41ColorRGB
 90
        0
102
RTVSPost2010PropOp41
 70
     1
102
RTVSPost2010Prop42
 90
       50
102
RTVSPost2010PropOp42
 70
     1
102
RTVSPost2010Prop43
 90
        3
102
RTVSPost2010PropOp43
 70
     1
102
RTVSPost2010Prop44ColorIndex
 90
        5
102
RTVSPost2010Prop44ColorRGB
 90
      255
102
RTVSPost2010PropOp44
 70
     1
102
RTVSPost2010Prop45
280
     0
102
RTVSPost2010PropOp45
 70
     1
102
RTVSPost2010Prop46
 90
       50
102
RTVSPost2010PropOp46
 70
     1
102
RTVSPost2010Prop47
 90
       50
102
RTVSPost2010PropOp47
 70
     1
102
RTVSPost2010Prop48
 90
       50
102
RTVSPost2010PropOp48
 70
     1
102
RTVSPost2010Prop49
280
     0
102
RTVSPost2010PropOp49
 70
     1
102
RTVSPost2010Prop50
 90
       50
102
RTVSPost2010PropOp50
 70
     1
102
RTVSPost2010Prop51ColorIndex
 90
      256
102
RTVSPost2010Prop51ColorRGB
 90
-16777216
102
RTVSPost2010PropOp51
 70
     0
102
RTVSPost2010Prop52
140
1.0
102
RTVSPost2010PropOp52
 70
     0
102
RTVSPost2010Prop53
 90
        2
102
RTVSPost2010PropOp53
 70
     1
102
RTVSPost2010Prop54
  1
strokes_ogs.tif
102
RTVSPost2010PropOp54
 70
     1
102
RTVSPost2010Prop55
280
     0
102
RTVSPost2010PropOp55
 70
     1
102
RTVSPost2010Prop56
140
1.0
102
RTVSPost2010PropOp56
 70
     1
102
RTVSPost2010Prop57
140
1.0
102
RTVSPost2010PropOp57
 70
     1
102
RTVSPropertyOp0
 70
     1
102
RTVSPropertyOp1
 70
     1
102
RTVSPropertyOp2
 70
     1
102
RTVSPropertyOp3
 70
     1
102
RTVSPropertyOp4
 70
     1
102
RTVSPropertyOp5
 70
     1
102
RTVSPropertyOp6
 70
     1
102
RTVSPropertyOp7
 70
     1
102
RTVSPropertyOp8
 70
     1
102
RTVSPropertyOp9
 70
     1
102
RTVSPropertyOp10
 70
     1
102
RTVSPropertyOp11
 70
     1
102
RTVSPropertyOp12
 70
     1
102
RTVSPropertyOp13
 70
     1
102
RTVSPropertyOp14
 70
     1
102
RTVSPropertyOp15
 70
     1
102
RTVSPropertyOp16
 70
     1
102
RTVSPropertyOp17
 70
     1
102
RTVSPropertyOp18
 70
     1
102
RTVSPropertyOp19
 70
     1
102
RTVSPropertyOp20
 70
     1
102
RTVSPropertyOp21
 70
     1
102
RTVSPropertyOp22
 70
     1
102
RTVSPropertyOp23
 70
     1
102
RTVSPropertyOp24
 70
     1
102
RTVSPropertyOp25
 70
     1
102
RTVSPropertyOp26
 70
     1
102
RTVSPropertyOp27
 70
     1
102
RTVSPropertyOp28
 70
     1
102
RTVSPropertyOp29
 70
     1
102
RTVSPropertyOp30
 70
     1
102
RTVSPropertyOp31
 70
     1
102
RTVSPropertyOp32
 70
     1
102
RTVSPropertyOp33
 70
     1
102
RTVSPropertyOp34
 70
     1
102
RTVSPropertyOp35
 70
     1
102
RTVSPropertyOp36
 70
     1
102
RTVSPropertyOp37
 70
     1
102
RTVSPropertyOp38
 70
     1
102
RTVSPropertyOp39
 70
     1
102
RTVSPropertyOp40
 70
     1
102
RTVSPropertyOp41
 70
     1
102
RTVSPropertyOp42
 70
     1
102
RTVSPropertyOp43
 70
     1
102
RTVSPropertyOp44
 70
     1
102
RTVSPropertyOp45
 70
     1
102
RTVSPropertyOp46
 70
     1
102
RTVSPropertyOp47
 70
     1
102
RTVSPropertyOp48
 70
     1
102
RTVSPropertyOp49
 70
     1
102
RTVSPropertyOp50
 70
     1
102
RTVSPropertyOp51
 70
     0
102
RTVSPropertyOp52
 70
     0
102
RTVSPropertyOp53
 70
     1
102
RTVSPropertyOp54
 70
     1
102
RTVSPropertyOp55
 70
     1
102
RTVSPropertyOp56
 70
     1
102
RTVSPropertyOp57
 70
     1
102
RTVSPropertyOp58
 70
     1
102
RTVSPropertyOp59
 70
     1
102
RTVSPropertyOp60
 70
     1
102
RTVSPropertyOp61
 70
     1
102
RTVSPropertyOp62
 70
     1
  0
XRECORD
  5
1B19
102
{ACAD_REACTORS
330
1B18
102
}
330
1B18
100
AcDbXrecord
280
     1
102
RTVSPost2010Prop28
280
     0
102
RTVSPost2010PropOp28
 70
     1
102
RTVSPost2010Prop29
280
     1
102
RTVSPost2010PropOp29
 70
     1
102
RTVSPost2010Prop30
280
     1
102
RTVSPost2010PropOp30
 70
     1
102
RTVSPost2010Prop31
280
     0
102
RTVSPost2010PropOp31
 70
     1
102
RTVSPost2010Prop32
280
     0
102
RTVSPost2010PropOp32
 70
     1
102
RTVSPost2010Prop33
280
     0
102
RTVSPost2010PropOp33
 70
     1
102
RTVSPost2010Prop34
280
     0
102
RTVSPost2010PropOp34
 70
     1
102
RTVSPost2010Prop35
280
     0
102
RTVSPost2010PropOp35
 70
     1
102
RTVSPost2010Prop36
280
     0
102
RTVSPost2010PropOp36
 70
     1
102
RTVSPost2010Prop37
 90
       50
102
RTVSPost2010PropOp37
 70
     1
102
RTVSPost2010Prop38
140
0.0
102
RTVSPost2010PropOp38
 70
     1
102
RTVSPost2010Prop39
140
1.0
102
RTVSPost2010PropOp39
 70
     1
102
RTVSPost2010Prop40
 90
        0
102
RTVSPost2010PropOp40
 70
     1
102
RTVSPost2010Prop41ColorIndex
 90
       18
102
RTVSPost2010Prop41ColorRGB
 90
        0
102
RTVSPost2010PropOp41
 70
     1
102
RTVSPost2010Prop42
 90
       50
102
RTVSPost2010PropOp42
 70
     1
102
RTVSPost2010Prop43
 90
        3
102
RTVSPost2010PropOp43
 70
     1
102
RTVSPost2010Prop44ColorIndex
 90
        5
102
RTVSPost2010Prop44ColorRGB
 90
      255
102
RTVSPost2010PropOp44
 70
     1
102
RTVSPost2010Prop45
280
     0
102
RTVSPost2010PropOp45
 70
     1
102
RTVSPost2010Prop46
 90
       50
102
RTVSPost2010PropOp46
 70
     1
102
RTVSPost2010Prop47
 90
       50
102
RTVSPost2010PropOp47
 70
     1
102
RTVSPost2010Prop48
 90
       50
102
RTVSPost2010PropOp48
 70
     1
102
RTVSPost2010Prop49
280
     0
102
RTVSPost2010PropOp49
 70
     1
102
RTVSPost2010Prop50
 90
       50
102
RTVSPost2010PropOp50
 70
     1
102
RTVSPost2010Prop51ColorIndex
 90
      256
102
RTVSPost2010Prop51ColorRGB
 90
-16777216
102
RTVSPost2010PropOp51
 70
     0
102
RTVSPost2010Prop52
140
1.0
102
RTVSPost2010PropOp52
 70
     0
102
RTVSPost2010Prop53
 90
        2
102
RTVSPost2010PropOp53
 70
     1
102
RTVSPost2010Prop54
  1
strokes_ogs.tif
102
RTVSPost2010PropOp54
 70
     1
102
RTVSPost2010Prop55
280
     0
102
RTVSPost2010PropOp55
 70
     1
102
RTVSPost2010Prop56
140
1.0
102
RTVSPost2010PropOp56
 70
     1
102
RTVSPost2010Prop57
140
1.0
102
RTVSPost2010PropOp57
 70
     1
102
RTVSPropertyOp0
 70
     1
102
RTVSPropertyOp1
 70
     1
102
RTVSPropertyOp2
 70
     1
102
RTVSPropertyOp3
 70
     1
102
RTVSPropertyOp4
 70
     1
102
RTVSPropertyOp5
 70
     1
102
RTVSPropertyOp6
 70
     1
102
RTVSPropertyOp7
 70
     1
102
RTVSPropertyOp8
 70
     1
102
RTVSPropertyOp9
 70
     1
102
RTVSPropertyOp10
 70
     1
102
RTVSPropertyOp11
 70
     1
102
RTVSPropertyOp12
 70
     1
102
RTVSPropertyOp13
 70
     1
102
RTVSPropertyOp14
 70
     1
102
RTVSPropertyOp15
 70
     1
102
RTVSPropertyOp16
 70
     1
102
RTVSPropertyOp17
 70
     1
102
RTVSPropertyOp18
 70
     1
102
RTVSPropertyOp19
 70
     1
102
RTVSPropertyOp20
 70
     1
102
RTVSPropertyOp21
 70
     1
102
RTVSPropertyOp22
 70
     1
102
RTVSPropertyOp23
 70
     1
102
RTVSPropertyOp24
 70
     1
102
RTVSPropertyOp25
 70
     1
102
RTVSPropertyOp26
 70
     1
102
RTVSPropertyOp27
 70
     1
102
RTVSPropertyOp28
 70
     1
102
RTVSPropertyOp29
 70
     1
102
RTVSPropertyOp30
 70
     1
102
RTVSPropertyOp31
 70
     1
102
RTVSPropertyOp32
 70
     1
102
RTVSPropertyOp33
 70
     1
102
RTVSPropertyOp34
 70
     1
102
RTVSPropertyOp35
 70
     1
102
RTVSPropertyOp36
 70
     1
102
RTVSPropertyOp37
 70
     1
102
RTVSPropertyOp38
 70
     1
102
RTVSPropertyOp39
 70
     1
102
RTVSPropertyOp40
 70
     1
102
RTVSPropertyOp41
 70
     1
102
RTVSPropertyOp42
 70
     1
102
RTVSPropertyOp43
 70
     1
102
RTVSPropertyOp44
 70
     1
102
RTVSPropertyOp45
 70
     1
102
RTVSPropertyOp46
 70
     1
102
RTVSPropertyOp47
 70
     1
102
RTVSPropertyOp48
 70
     1
102
RTVSPropertyOp49
 70
     1
102
RTVSPropertyOp50
 70
     1
102
RTVSPropertyOp51
 70
     0
102
RTVSPropertyOp52
 70
     0
102
RTVSPropertyOp53
 70
     1
102
RTVSPropertyOp54
 70
     1
102
RTVSPropertyOp55
 70
     1
102
RTVSPropertyOp56
 70
     1
102
RTVSPropertyOp57
 70
     1
102
RTVSPropertyOp58
 70
     1
102
RTVSPropertyOp59
 70
     1
102
RTVSPropertyOp60
 70
     1
102
RTVSPropertyOp61
 70
     1
102
RTVSPropertyOp62
 70
     1
  0
XRECORD
  5
1B27
102
{ACAD_REACTORS
330
1B26
102
}
330
1B26
100
AcDbXrecord
280
     1
102
RTVSPost2010Prop28
280
     0
102
RTVSPost2010PropOp28
 70
     1
102
RTVSPost2010Prop29
280
     1
102
RTVSPost2010PropOp29
 70
     1
102
RTVSPost2010Prop30
280
     1
102
RTVSPost2010PropOp30
 70
     1
102
RTVSPost2010Prop31
280
     0
102
RTVSPost2010PropOp31
 70
     1
102
RTVSPost2010Prop32
280
     0
102
RTVSPost2010PropOp32
 70
     1
102
RTVSPost2010Prop33
280
     0
102
RTVSPost2010PropOp33
 70
     1
102
RTVSPost2010Prop34
280
     0
102
RTVSPost2010PropOp34
 70
     1
102
RTVSPost2010Prop35
280
     0
102
RTVSPost2010PropOp35
 70
     1
102
RTVSPost2010Prop36
280
     0
102
RTVSPost2010PropOp36
 70
     1
102
RTVSPost2010Prop37
 90
       50
102
RTVSPost2010PropOp37
 70
     1
102
RTVSPost2010Prop38
140
0.0
102
RTVSPost2010PropOp38
 70
     1
102
RTVSPost2010Prop39
140
1.0
102
RTVSPost2010PropOp39
 70
     1
102
RTVSPost2010Prop40
 90
        0
102
RTVSPost2010PropOp40
 70
     1
102
RTVSPost2010Prop41ColorIndex
 90
       18
102
RTVSPost2010Prop41ColorRGB
 90
        0
102
RTVSPost2010PropOp41
 70
     1
102
RTVSPost2010Prop42
 90
       50
102
RTVSPost2010PropOp42
 70
     1
102
RTVSPost2010Prop43
 90
        3
102
RTVSPost2010PropOp43
 70
     1
102
RTVSPost2010Prop44ColorIndex
 90
        5
102
RTVSPost2010Prop44ColorRGB
 90
      255
102
RTVSPost2010PropOp44
 70
     1
102
RTVSPost2010Prop45
280
     0
102
RTVSPost2010PropOp45
 70
     1
102
RTVSPost2010Prop46
 90
       50
102
RTVSPost2010PropOp46
 70
     1
102
RTVSPost2010Prop47
 90
       50
102
RTVSPost2010PropOp47
 70
     1
102
RTVSPost2010Prop48
 90
       50
102
RTVSPost2010PropOp48
 70
     1
102
RTVSPost2010Prop49
280
     0
102
RTVSPost2010PropOp49
 70
     1
102
RTVSPost2010Prop50
 90
       50
102
RTVSPost2010PropOp50
 70
     1
102
RTVSPost2010Prop51ColorIndex
 90
      256
102
RTVSPost2010Prop51ColorRGB
 90
-16777216
102
RTVSPost2010PropOp51
 70
     0
102
RTVSPost2010Prop52
140
1.0
102
RTVSPost2010PropOp52
 70
     0
102
RTVSPost2010Prop53
 90
        2
102
RTVSPost2010PropOp53
 70
     1
102
RTVSPost2010Prop54
  1
strokes_ogs.tif
102
RTVSPost2010PropOp54
 70
     1
102
RTVSPost2010Prop55
280
     0
102
RTVSPost2010PropOp55
 70
     1
102
RTVSPost2010Prop56
140
1.0
102
RTVSPost2010PropOp56
 70
     1
102
RTVSPost2010Prop57
140
1.0
102
RTVSPost2010PropOp57
 70
     1
102
RTVSPropertyOp0
 70
     1
102
RTVSPropertyOp1
 70
     1
102
RTVSPropertyOp2
 70
     1
102
RTVSPropertyOp3
 70
     1
102
RTVSPropertyOp4
 70
     1
102
RTVSPropertyOp5
 70
     1
102
RTVSPropertyOp6
 70
     1
102
RTVSPropertyOp7
 70
     1
102
RTVSPropertyOp8
 70
     1
102
RTVSPropertyOp9
 70
     1
102
RTVSPropertyOp10
 70
     1
102
RTVSPropertyOp11
 70
     1
102
RTVSPropertyOp12
 70
     1
102
RTVSPropertyOp13
 70
     1
102
RTVSPropertyOp14
 70
     1
102
RTVSPropertyOp15
 70
     1
102
RTVSPropertyOp16
 70
     1
102
RTVSPropertyOp17
 70
     1
102
RTVSPropertyOp18
 70
     1
102
RTVSPropertyOp19
 70
     1
102
RTVSPropertyOp20
 70
     1
102
RTVSPropertyOp21
 70
     1
102
RTVSPropertyOp22
 70
     1
102
RTVSPropertyOp23
 70
     1
102
RTVSPropertyOp24
 70
     1
102
RTVSPropertyOp25
 70
     1
102
RTVSPropertyOp26
 70
     1
102
RTVSPropertyOp27
 70
     1
102
RTVSPropertyOp28
 70
     1
102
RTVSPropertyOp29
 70
     1
102
RTVSPropertyOp30
 70
     1
102
RTVSPropertyOp31
 70
     1
102
RTVSPropertyOp32
 70
     1
102
RTVSPropertyOp33
 70
     1
102
RTVSPropertyOp34
 70
     1
102
RTVSPropertyOp35
 70
     1
102
RTVSPropertyOp36
 70
     1
102
RTVSPropertyOp37
 70
     1
102
RTVSPropertyOp38
 70
     1
102
RTVSPropertyOp39
 70
     1
102
RTVSPropertyOp40
 70
     1
102
RTVSPropertyOp41
 70
     1
102
RTVSPropertyOp42
 70
     1
102
RTVSPropertyOp43
 70
     1
102
RTVSPropertyOp44
 70
     1
102
RTVSPropertyOp45
 70
     1
102
RTVSPropertyOp46
 70
     1
102
RTVSPropertyOp47
 70
     1
102
RTVSPropertyOp48
 70
     1
102
RTVSPropertyOp49
 70
     1
102
RTVSPropertyOp50
 70
     1
102
RTVSPropertyOp51
 70
     0
102
RTVSPropertyOp52
 70
     0
102
RTVSPropertyOp53
 70
     1
102
RTVSPropertyOp54
 70
     1
102
RTVSPropertyOp55
 70
     1
102
RTVSPropertyOp56
 70
     1
102
RTVSPropertyOp57
 70
     1
102
RTVSPropertyOp58
 70
     1
102
RTVSPropertyOp59
 70
     1
102
RTVSPropertyOp60
 70
     1
102
RTVSPropertyOp61
 70
     1
102
RTVSPropertyOp62
 70
     1
  0
XRECORD
  5
1B2F
102
{ACAD_REACTORS
330
1B2E
102
}
330
1B2E
100
AcDbXrecord
280
     1
102
RTVSPost2010Prop28
280
     0
102
RTVSPost2010PropOp28
 70
     1
102
RTVSPost2010Prop29
280
     1
102
RTVSPost2010PropOp29
 70
     1
102
RTVSPost2010Prop30
280
     1
102
RTVSPost2010PropOp30
 70
     1
102
RTVSPost2010Prop31
280
     0
102
RTVSPost2010PropOp31
 70
     1
102
RTVSPost2010Prop32
280
     0
102
RTVSPost2010PropOp32
 70
     1
102
RTVSPost2010Prop33
280
     0
102
RTVSPost2010PropOp33
 70
     1
102
RTVSPost2010Prop34
280
     0
102
RTVSPost2010PropOp34
 70
     1
102
RTVSPost2010Prop35
280
     0
102
RTVSPost2010PropOp35
 70
     1
102
RTVSPost2010Prop36
280
     0
102
RTVSPost2010PropOp36
 70
     1
102
RTVSPost2010Prop37
 90
       50
102
RTVSPost2010PropOp37
 70
     1
102
RTVSPost2010Prop38
140
0.0
102
RTVSPost2010PropOp38
 70
     1
102
RTVSPost2010Prop39
140
1.0
102
RTVSPost2010PropOp39
 70
     1
102
RTVSPost2010Prop40
 90
        0
102
RTVSPost2010PropOp40
 70
     1
102
RTVSPost2010Prop41ColorIndex
 90
       18
102
RTVSPost2010Prop41ColorRGB
 90
        0
102
RTVSPost2010PropOp41
 70
     1
102
RTVSPost2010Prop42
 90
       50
102
RTVSPost2010PropOp42
 70
     1
102
RTVSPost2010Prop43
 90
        3
102
RTVSPost2010PropOp43
 70
     1
102
RTVSPost2010Prop44ColorIndex
 90
        5
102
RTVSPost2010Prop44ColorRGB
 90
      255
102
RTVSPost2010PropOp44
 70
     1
102
RTVSPost2010Prop45
280
     0
102
RTVSPost2010PropOp45
 70
     1
102
RTVSPost2010Prop46
 90
       50
102
RTVSPost2010PropOp46
 70
     1
102
RTVSPost2010Prop47
 90
       50
102
RTVSPost2010PropOp47
 70
     1
102
RTVSPost2010Prop48
 90
       50
102
RTVSPost2010PropOp48
 70
     1
102
RTVSPost2010Prop49
280
     0
102
RTVSPost2010PropOp49
 70
     1
102
RTVSPost2010Prop50
 90
       50
102
RTVSPost2010PropOp50
 70
     1
102
RTVSPost2010Prop51ColorIndex
 90
      256
102
RTVSPost2010Prop51ColorRGB
 90
-16777216
102
RTVSPost2010PropOp51
 70
     0
102
RTVSPost2010Prop52
140
1.0
102
RTVSPost2010PropOp52
 70
     0
102
RTVSPost2010Prop53
 90
        2
102
RTVSPost2010PropOp53
 70
     1
102
RTVSPost2010Prop54
  1
strokes_ogs.tif
102
RTVSPost2010PropOp54
 70
     1
102
RTVSPost2010Prop55
280
     0
102
RTVSPost2010PropOp55
 70
     1
102
RTVSPost2010Prop56
140
1.0
102
RTVSPost2010PropOp56
 70
     1
102
RTVSPost2010Prop57
140
1.0
102
RTVSPost2010PropOp57
 70
     1
102
RTVSPropertyOp0
 70
     1
102
RTVSPropertyOp1
 70
     1
102
RTVSPropertyOp2
 70
     1
102
RTVSPropertyOp3
 70
     1
102
RTVSPropertyOp4
 70
     1
102
RTVSPropertyOp5
 70
     1
102
RTVSPropertyOp6
 70
     1
102
RTVSPropertyOp7
 70
     1
102
RTVSPropertyOp8
 70
     1
102
RTVSPropertyOp9
 70
     1
102
RTVSPropertyOp10
 70
     1
102
RTVSPropertyOp11
 70
     1
102
RTVSPropertyOp12
 70
     1
102
RTVSPropertyOp13
 70
     1
102
RTVSPropertyOp14
 70
     1
102
RTVSPropertyOp15
 70
     1
102
RTVSPropertyOp16
 70
     1
102
RTVSPropertyOp17
 70
     1
102
RTVSPropertyOp18
 70
     1
102
RTVSPropertyOp19
 70
     1
102
RTVSPropertyOp20
 70
     1
102
RTVSPropertyOp21
 70
     1
102
RTVSPropertyOp22
 70
     1
102
RTVSPropertyOp23
 70
     1
102
RTVSPropertyOp24
 70
     1
102
RTVSPropertyOp25
 70
     1
102
RTVSPropertyOp26
 70
     1
102
RTVSPropertyOp27
 70
     1
102
RTVSPropertyOp28
 70
     1
102
RTVSPropertyOp29
 70
     1
102
RTVSPropertyOp30
 70
     1
102
RTVSPropertyOp31
 70
     1
102
RTVSPropertyOp32
 70
     1
102
RTVSPropertyOp33
 70
     1
102
RTVSPropertyOp34
 70
     1
102
RTVSPropertyOp35
 70
     1
102
RTVSPropertyOp36
 70
     1
102
RTVSPropertyOp37
 70
     1
102
RTVSPropertyOp38
 70
     1
102
RTVSPropertyOp39
 70
     1
102
RTVSPropertyOp40
 70
     1
102
RTVSPropertyOp41
 70
     1
102
RTVSPropertyOp42
 70
     1
102
RTVSPropertyOp43
 70
     1
102
RTVSPropertyOp44
 70
     1
102
RTVSPropertyOp45
 70
     1
102
RTVSPropertyOp46
 70
     1
102
RTVSPropertyOp47
 70
     1
102
RTVSPropertyOp48
 70
     1
102
RTVSPropertyOp49
 70
     1
102
RTVSPropertyOp50
 70
     1
102
RTVSPropertyOp51
 70
     0
102
RTVSPropertyOp52
 70
     0
102
RTVSPropertyOp53
 70
     1
102
RTVSPropertyOp54
 70
     1
102
RTVSPropertyOp55
 70
     1
102
RTVSPropertyOp56
 70
     1
102
RTVSPropertyOp57
 70
     1
102
RTVSPropertyOp58
 70
     1
102
RTVSPropertyOp59
 70
     1
102
RTVSPropertyOp60
 70
     1
102
RTVSPropertyOp61
 70
     1
102
RTVSPropertyOp62
 70
     1
  0
XRECORD
  5
1B21
102
{ACAD_REACTORS
330
1B20
102
}
330
1B20
100
AcDbXrecord
280
     1
102
RTVSPost2010Prop28
280
     0
102
RTVSPost2010PropOp28
 70
     1
102
RTVSPost2010Prop29
280
     1
102
RTVSPost2010PropOp29
 70
     1
102
RTVSPost2010Prop30
280
     1
102
RTVSPost2010PropOp30
 70
     1
102
RTVSPost2010Prop31
280
     0
102
RTVSPost2010PropOp31
 70
     1
102
RTVSPost2010Prop32
280
     0
102
RTVSPost2010PropOp32
 70
     1
102
RTVSPost2010Prop33
280
     0
102
RTVSPost2010PropOp33
 70
     1
102
RTVSPost2010Prop34
280
     0
102
RTVSPost2010PropOp34
 70
     1
102
RTVSPost2010Prop35
280
     0
102
RTVSPost2010PropOp35
 70
     1
102
RTVSPost2010Prop36
280
     0
102
RTVSPost2010PropOp36
 70
     1
102
RTVSPost2010Prop37
 90
       50
102
RTVSPost2010PropOp37
 70
     1
102
RTVSPost2010Prop38
140
0.0
102
RTVSPost2010PropOp38
 70
     1
102
RTVSPost2010Prop39
140
1.0
102
RTVSPost2010PropOp39
 70
     1
102
RTVSPost2010Prop40
 90
        0
102
RTVSPost2010PropOp40
 70
     1
102
RTVSPost2010Prop41ColorIndex
 90
       18
102
RTVSPost2010Prop41ColorRGB
 90
        0
102
RTVSPost2010PropOp41
 70
     1
102
RTVSPost2010Prop42
 90
       50
102
RTVSPost2010PropOp42
 70
     1
102
RTVSPost2010Prop43
 90
        3
102
RTVSPost2010PropOp43
 70
     1
102
RTVSPost2010Prop44ColorIndex
 90
        5
102
RTVSPost2010Prop44ColorRGB
 90
      255
102
RTVSPost2010PropOp44
 70
     1
102
RTVSPost2010Prop45
280
     0
102
RTVSPost2010PropOp45
 70
     1
102
RTVSPost2010Prop46
 90
       50
102
RTVSPost2010PropOp46
 70
     1
102
RTVSPost2010Prop47
 90
       50
102
RTVSPost2010PropOp47
 70
     1
102
RTVSPost2010Prop48
 90
       50
102
RTVSPost2010PropOp48
 70
     1
102
RTVSPost2010Prop49
280
     0
102
RTVSPost2010PropOp49
 70
     1
102
RTVSPost2010Prop50
 90
       50
102
RTVSPost2010PropOp50
 70
     1
102
RTVSPost2010Prop51ColorIndex
 90
      256
102
RTVSPost2010Prop51ColorRGB
 90
-16777216
102
RTVSPost2010PropOp51
 70
     0
102
RTVSPost2010Prop52
140
1.0
102
RTVSPost2010PropOp52
 70
     0
102
RTVSPost2010Prop53
 90
        2
102
RTVSPost2010PropOp53
 70
     1
102
RTVSPost2010Prop54
  1
strokes_ogs.tif
102
RTVSPost2010PropOp54
 70
     1
102
RTVSPost2010Prop55
280
     0
102
RTVSPost2010PropOp55
 70
     1
102
RTVSPost2010Prop56
140
1.0
102
RTVSPost2010PropOp56
 70
     1
102
RTVSPost2010Prop57
140
1.0
102
RTVSPost2010PropOp57
 70
     1
102
RTVSPropertyOp0
 70
     1
102
RTVSPropertyOp1
 70
     1
102
RTVSPropertyOp2
 70
     1
102
RTVSPropertyOp3
 70
     1
102
RTVSPropertyOp4
 70
     1
102
RTVSPropertyOp5
 70
     1
102
RTVSPropertyOp6
 70
     1
102
RTVSPropertyOp7
 70
     1
102
RTVSPropertyOp8
 70
     1
102
RTVSPropertyOp9
 70
     1
102
RTVSPropertyOp10
 70
     1
102
RTVSPropertyOp11
 70
     1
102
RTVSPropertyOp12
 70
     1
102
RTVSPropertyOp13
 70
     1
102
RTVSPropertyOp14
 70
     1
102
RTVSPropertyOp15
 70
     1
102
RTVSPropertyOp16
 70
     1
102
RTVSPropertyOp17
 70
     1
102
RTVSPropertyOp18
 70
     1
102
RTVSPropertyOp19
 70
     1
102
RTVSPropertyOp20
 70
     1
102
RTVSPropertyOp21
 70
     1
102
RTVSPropertyOp22
 70
     1
102
RTVSPropertyOp23
 70
     1
102
RTVSPropertyOp24
 70
     1
102
RTVSPropertyOp25
 70
     1
102
RTVSPropertyOp26
 70
     1
102
RTVSPropertyOp27
 70
     1
102
RTVSPropertyOp28
 70
     1
102
RTVSPropertyOp29
 70
     1
102
RTVSPropertyOp30
 70
     1
102
RTVSPropertyOp31
 70
     1
102
RTVSPropertyOp32
 70
     1
102
RTVSPropertyOp33
 70
     1
102
RTVSPropertyOp34
 70
     1
102
RTVSPropertyOp35
 70
     1
102
RTVSPropertyOp36
 70
     1
102
RTVSPropertyOp37
 70
     1
102
RTVSPropertyOp38
 70
     1
102
RTVSPropertyOp39
 70
     1
102
RTVSPropertyOp40
 70
     1
102
RTVSPropertyOp41
 70
     1
102
RTVSPropertyOp42
 70
     1
102
RTVSPropertyOp43
 70
     1
102
RTVSPropertyOp44
 70
     1
102
RTVSPropertyOp45
 70
     1
102
RTVSPropertyOp46
 70
     1
102
RTVSPropertyOp47
 70
     1
102
RTVSPropertyOp48
 70
     1
102
RTVSPropertyOp49
 70
     1
102
RTVSPropertyOp50
 70
     1
102
RTVSPropertyOp51
 70
     0
102
RTVSPropertyOp52
 70
     0
102
RTVSPropertyOp53
 70
     1
102
RTVSPropertyOp54
 70
     1
102
RTVSPropertyOp55
 70
     1
102
RTVSPropertyOp56
 70
     1
102
RTVSPropertyOp57
 70
     1
102
RTVSPropertyOp58
 70
     1
102
RTVSPropertyOp59
 70
     1
102
RTVSPropertyOp60
 70
     1
102
RTVSPropertyOp61
 70
     1
102
RTVSPropertyOp62
 70
     1
  0
XRECORD
  5
1B25
102
{ACAD_REACTORS
330
1B24
102
}
330
1B24
100
AcDbXrecord
280
     1
102
RTVSPost2010Prop28
280
     0
102
RTVSPost2010PropOp28
 70
     1
102
RTVSPost2010Prop29
280
     1
102
RTVSPost2010PropOp29
 70
     1
102
RTVSPost2010Prop30
280
     1
102
RTVSPost2010PropOp30
 70
     1
102
RTVSPost2010Prop31
280
     0
102
RTVSPost2010PropOp31
 70
     1
102
RTVSPost2010Prop32
280
     0
102
RTVSPost2010PropOp32
 70
     1
102
RTVSPost2010Prop33
280
     0
102
RTVSPost2010PropOp33
 70
     1
102
RTVSPost2010Prop34
280
     0
102
RTVSPost2010PropOp34
 70
     1
102
RTVSPost2010Prop35
280
     0
102
RTVSPost2010PropOp35
 70
     1
102
RTVSPost2010Prop36
280
     0
102
RTVSPost2010PropOp36
 70
     1
102
RTVSPost2010Prop37
 90
       50
102
RTVSPost2010PropOp37
 70
     1
102
RTVSPost2010Prop38
140
0.0
102
RTVSPost2010PropOp38
 70
     1
102
RTVSPost2010Prop39
140
1.0
102
RTVSPost2010PropOp39
 70
     1
102
RTVSPost2010Prop40
 90
        0
102
RTVSPost2010PropOp40
 70
     1
102
RTVSPost2010Prop41ColorIndex
 90
       18
102
RTVSPost2010Prop41ColorRGB
 90
        0
102
RTVSPost2010PropOp41
 70
     1
102
RTVSPost2010Prop42
 90
       50
102
RTVSPost2010PropOp42
 70
     1
102
RTVSPost2010Prop43
 90
        3
102
RTVSPost2010PropOp43
 70
     1
102
RTVSPost2010Prop44ColorIndex
 90
        5
102
RTVSPost2010Prop44ColorRGB
 90
      255
102
RTVSPost2010PropOp44
 70
     1
102
RTVSPost2010Prop45
280
     0
102
RTVSPost2010PropOp45
 70
     1
102
RTVSPost2010Prop46
 90
       50
102
RTVSPost2010PropOp46
 70
     1
102
RTVSPost2010Prop47
 90
       50
102
RTVSPost2010PropOp47
 70
     1
102
RTVSPost2010Prop48
 90
       50
102
RTVSPost2010PropOp48
 70
     1
102
RTVSPost2010Prop49
280
     0
102
RTVSPost2010PropOp49
 70
     1
102
RTVSPost2010Prop50
 90
       50
102
RTVSPost2010PropOp50
 70
     1
102
RTVSPost2010Prop51ColorIndex
 90
      256
102
RTVSPost2010Prop51ColorRGB
 90
-16777216
102
RTVSPost2010PropOp51
 70
     0
102
RTVSPost2010Prop52
140
1.0
102
RTVSPost2010PropOp52
 70
     0
102
RTVSPost2010Prop53
 90
        2
102
RTVSPost2010PropOp53
 70
     1
102
RTVSPost2010Prop54
  1
strokes_ogs.tif
102
RTVSPost2010PropOp54
 70
     1
102
RTVSPost2010Prop55
280
     0
102
RTVSPost2010PropOp55
 70
     1
102
RTVSPost2010Prop56
140
1.0
102
RTVSPost2010PropOp56
 70
     1
102
RTVSPost2010Prop57
140
1.0
102
RTVSPost2010PropOp57
 70
     1
102
RTVSPropertyOp0
 70
     1
102
RTVSPropertyOp1
 70
     1
102
RTVSPropertyOp2
 70
     1
102
RTVSPropertyOp3
 70
     1
102
RTVSPropertyOp4
 70
     1
102
RTVSPropertyOp5
 70
     1
102
RTVSPropertyOp6
 70
     1
102
RTVSPropertyOp7
 70
     1
102
RTVSPropertyOp8
 70
     1
102
RTVSPropertyOp9
 70
     1
102
RTVSPropertyOp10
 70
     1
102
RTVSPropertyOp11
 70
     1
102
RTVSPropertyOp12
 70
     1
102
RTVSPropertyOp13
 70
     1
102
RTVSPropertyOp14
 70
     1
102
RTVSPropertyOp15
 70
     1
102
RTVSPropertyOp16
 70
     1
102
RTVSPropertyOp17
 70
     1
102
RTVSPropertyOp18
 70
     1
102
RTVSPropertyOp19
 70
     1
102
RTVSPropertyOp20
 70
     1
102
RTVSPropertyOp21
 70
     1
102
RTVSPropertyOp22
 70
     1
102
RTVSPropertyOp23
 70
     1
102
RTVSPropertyOp24
 70
     1
102
RTVSPropertyOp25
 70
     1
102
RTVSPropertyOp26
 70
     1
102
RTVSPropertyOp27
 70
     1
102
RTVSPropertyOp28
 70
     1
102
RTVSPropertyOp29
 70
     1
102
RTVSPropertyOp30
 70
     1
102
RTVSPropertyOp31
 70
     1
102
RTVSPropertyOp32
 70
     1
102
RTVSPropertyOp33
 70
     1
102
RTVSPropertyOp34
 70
     1
102
RTVSPropertyOp35
 70
     1
102
RTVSPropertyOp36
 70
     1
102
RTVSPropertyOp37
 70
     1
102
RTVSPropertyOp38
 70
     1
102
RTVSPropertyOp39
 70
     1
102
RTVSPropertyOp40
 70
     1
102
RTVSPropertyOp41
 70
     1
102
RTVSPropertyOp42
 70
     1
102
RTVSPropertyOp43
 70
     1
102
RTVSPropertyOp44
 70
     1
102
RTVSPropertyOp45
 70
     1
102
RTVSPropertyOp46
 70
     1
102
RTVSPropertyOp47
 70
     1
102
RTVSPropertyOp48
 70
     1
102
RTVSPropertyOp49
 70
     1
102
RTVSPropertyOp50
 70
     1
102
RTVSPropertyOp51
 70
     0
102
RTVSPropertyOp52
 70
     0
102
RTVSPropertyOp53
 70
     1
102
RTVSPropertyOp54
 70
     1
102
RTVSPropertyOp55
 70
     1
102
RTVSPropertyOp56
 70
     1
102
RTVSPropertyOp57
 70
     1
102
RTVSPropertyOp58
 70
     1
102
RTVSPropertyOp59
 70
     1
102
RTVSPropertyOp60
 70
     1
102
RTVSPropertyOp61
 70
     1
102
RTVSPropertyOp62
 70
     1
  0
XRECORD
  5
1B3F
102
{ACAD_REACTORS
330
1B3E
102
}
330
1B3E
100
AcDbXrecord
280
     1
102
RTVSPost2010Prop28
280
     0
102
RTVSPost2010PropOp28
 70
     1
102
RTVSPost2010Prop29
280
     1
102
RTVSPost2010PropOp29
 70
     1
102
RTVSPost2010Prop30
280
     1
102
RTVSPost2010PropOp30
 70
     1
102
RTVSPost2010Prop31
280
     0
102
RTVSPost2010PropOp31
 70
     1
102
RTVSPost2010Prop32
280
     0
102
RTVSPost2010PropOp32
 70
     1
102
RTVSPost2010Prop33
280
     0
102
RTVSPost2010PropOp33
 70
     1
102
RTVSPost2010Prop34
280
     0
102
RTVSPost2010PropOp34
 70
     1
102
RTVSPost2010Prop35
280
     0
102
RTVSPost2010PropOp35
 70
     1
102
RTVSPost2010Prop36
280
     0
102
RTVSPost2010PropOp36
 70
     1
102
RTVSPost2010Prop37
 90
       50
102
RTVSPost2010PropOp37
 70
     0
102
RTVSPost2010Prop38
140
0.0
102
RTVSPost2010PropOp38
 70
     0
102
RTVSPost2010Prop39
140
1.0
102
RTVSPost2010PropOp39
 70
     0
102
RTVSPost2010Prop40
 90
        0
102
RTVSPost2010PropOp40
 70
     0
102
RTVSPost2010Prop41ColorIndex
 90
       18
102
RTVSPost2010Prop41ColorRGB
 90
        0
102
RTVSPost2010PropOp41
 70
     0
102
RTVSPost2010Prop42
 90
       50
102
RTVSPost2010PropOp42
 70
     0
102
RTVSPost2010Prop43
 90
        3
102
RTVSPost2010PropOp43
 70
     0
102
RTVSPost2010Prop44ColorIndex
 90
        5
102
RTVSPost2010Prop44ColorRGB
 90
      255
102
RTVSPost2010PropOp44
 70
     0
102
RTVSPost2010Prop45
280
     0
102
RTVSPost2010PropOp45
 70
     1
102
RTVSPost2010Prop46
 90
       50
102
RTVSPost2010PropOp46
 70
     0
102
RTVSPost2010Prop47
 90
       50
102
RTVSPost2010PropOp47
 70
     0
102
RTVSPost2010Prop48
 90
       50
102
RTVSPost2010PropOp48
 70
     0
102
RTVSPost2010Prop49
280
     0
102
RTVSPost2010PropOp49
 70
     1
102
RTVSPost2010Prop50
 90
       50
102
RTVSPost2010PropOp50
 70
     0
102
RTVSPost2010Prop51ColorIndex
 90
      256
102
RTVSPost2010Prop51ColorRGB
 90
-16777216
102
RTVSPost2010PropOp51
 70
     0
102
RTVSPost2010Prop52
140
1.0
102
RTVSPost2010PropOp52
 70
     0
102
RTVSPost2010Prop53
 90
        2
102
RTVSPost2010PropOp53
 70
     0
102
RTVSPost2010Prop54
  1
strokes_ogs.tif
102
RTVSPost2010PropOp54
 70
     0
102
RTVSPost2010Prop55
280
     0
102
RTVSPost2010PropOp55
 70
     1
102
RTVSPost2010Prop56
140
1.0
102
RTVSPost2010PropOp56
 70
     0
102
RTVSPost2010Prop57
140
1.0
102
RTVSPost2010PropOp57
 70
     0
102
RTVSPropertyOp0
 70
     0
102
RTVSPropertyOp1
 70
     0
102
RTVSPropertyOp2
 70
     0
102
RTVSPropertyOp3
 70
     0
102
RTVSPropertyOp4
 70
     0
102
RTVSPropertyOp5
 70
     0
102
RTVSPropertyOp6
 70
     0
102
RTVSPropertyOp7
 70
     0
102
RTVSPropertyOp8
 70
     0
102
RTVSPropertyOp9
 70
     0
102
RTVSPropertyOp10
 70
     0
102
RTVSPropertyOp11
 70
     0
102
RTVSPropertyOp12
 70
     0
102
RTVSPropertyOp13
 70
     0
102
RTVSPropertyOp14
 70
     2
102
RTVSPropertyOp15
 70
     0
102
RTVSPropertyOp16
 70
     0
102
RTVSPropertyOp17
 70
     0
102
RTVSPropertyOp18
 70
     0
102
RTVSPropertyOp19
 70
     0
102
RTVSPropertyOp20
 70
     0
102
RTVSPropertyOp21
 70
     0
102
RTVSPropertyOp22
 70
     0
102
RTVSPropertyOp23
 70
     0
102
RTVSPropertyOp24
 70
     0
102
RTVSPropertyOp25
 70
     0
102
RTVSPropertyOp26
 70
     0
102
RTVSPropertyOp27
 70
     0
102
RTVSPropertyOp28
 70
     1
102
RTVSPropertyOp29
 70
     1
102
RTVSPropertyOp30
 70
     1
102
RTVSPropertyOp31
 70
     1
102
RTVSPropertyOp32
 70
     1
102
RTVSPropertyOp33
 70
     1
102
RTVSPropertyOp34
 70
     1
102
RTVSPropertyOp35
 70
     1
102
RTVSPropertyOp36
 70
     1
102
RTVSPropertyOp37
 70
     0
102
RTVSPropertyOp38
 70
     0
102
RTVSPropertyOp39
 70
     0
102
RTVSPropertyOp40
 70
     0
102
RTVSPropertyOp41
 70
     0
102
RTVSPropertyOp42
 70
     0
102
RTVSPropertyOp43
 70
     0
102
RTVSPropertyOp44
 70
     0
102
RTVSPropertyOp45
 70
     1
102
RTVSPropertyOp46
 70
     0
102
RTVSPropertyOp47
 70
     0
102
RTVSPropertyOp48
 70
     0
102
RTVSPropertyOp49
 70
     1
102
RTVSPropertyOp50
 70
     0
102
RTVSPropertyOp51
 70
     0
102
RTVSPropertyOp52
 70
     0
102
RTVSPropertyOp53
 70
     0
102
RTVSPropertyOp54
 70
     0
102
RTVSPropertyOp55
 70
     1
102
RTVSPropertyOp56
 70
     0
102
RTVSPropertyOp57
 70
     0
102
RTVSPropertyOp58
 70
     0
102
RTVSPropertyOp59
 70
     0
102
RTVSPropertyOp60
 70
     0
102
RTVSPropertyOp61
 70
     0
102
RTVSPropertyOp62
 70
     0
  0
XRECORD
  5
1B2D
102
{ACAD_REACTORS
330
1B2C
102
}
330
1B2C
100
AcDbXrecord
280
     1
102
RTVSPost2010Prop28
280
     0
102
RTVSPost2010PropOp28
 70
     1
102
RTVSPost2010Prop29
280
     1
102
RTVSPost2010PropOp29
 70
     1
102
RTVSPost2010Prop30
280
     1
102
RTVSPost2010PropOp30
 70
     1
102
RTVSPost2010Prop31
280
     0
102
RTVSPost2010PropOp31
 70
     1
102
RTVSPost2010Prop32
280
     0
102
RTVSPost2010PropOp32
 70
     1
102
RTVSPost2010Prop33
280
     0
102
RTVSPost2010PropOp33
 70
     1
102
RTVSPost2010Prop34
280
     0
102
RTVSPost2010PropOp34
 70
     1
102
RTVSPost2010Prop35
280
     0
102
RTVSPost2010PropOp35
 70
     1
102
RTVSPost2010Prop36
280
     0
102
RTVSPost2010PropOp36
 70
     1
102
RTVSPost2010Prop37
 90
       50
102
RTVSPost2010PropOp37
 70
     1
102
RTVSPost2010Prop38
140
0.0
102
RTVSPost2010PropOp38
 70
     1
102
RTVSPost2010Prop39
140
1.0
102
RTVSPost2010PropOp39
 70
     1
102
RTVSPost2010Prop40
 90
        0
102
RTVSPost2010PropOp40
 70
     1
102
RTVSPost2010Prop41ColorIndex
 90
       18
102
RTVSPost2010Prop41ColorRGB
 90
        0
102
RTVSPost2010PropOp41
 70
     1
102
RTVSPost2010Prop42
 90
       50
102
RTVSPost2010PropOp42
 70
     1
102
RTVSPost2010Prop43
 90
        3
102
RTVSPost2010PropOp43
 70
     1
102
RTVSPost2010Prop44ColorIndex
 90
        5
102
RTVSPost2010Prop44ColorRGB
 90
      255
102
RTVSPost2010PropOp44
 70
     1
102
RTVSPost2010Prop45
280
     0
102
RTVSPost2010PropOp45
 70
     1
102
RTVSPost2010Prop46
 90
       50
102
RTVSPost2010PropOp46
 70
     1
102
RTVSPost2010Prop47
 90
       50
102
RTVSPost2010PropOp47
 70
     1
102
RTVSPost2010Prop48
 90
       50
102
RTVSPost2010PropOp48
 70
     1
102
RTVSPost2010Prop49
280
     0
102
RTVSPost2010PropOp49
 70
     1
102
RTVSPost2010Prop50
 90
       50
102
RTVSPost2010PropOp50
 70
     1
102
RTVSPost2010Prop51ColorIndex
 90
      256
102
RTVSPost2010Prop51ColorRGB
 90
-16777216
102
RTVSPost2010PropOp51
 70
     0
102
RTVSPost2010Prop52
140
1.0
102
RTVSPost2010PropOp52
 70
     0
102
RTVSPost2010Prop53
 90
        2
102
RTVSPost2010PropOp53
 70
     1
102
RTVSPost2010Prop54
  1
strokes_ogs.tif
102
RTVSPost2010PropOp54
 70
     1
102
RTVSPost2010Prop55
280
     0
102
RTVSPost2010PropOp55
 70
     1
102
RTVSPost2010Prop56
140
1.0
102
RTVSPost2010PropOp56
 70
     1
102
RTVSPost2010Prop57
140
1.0
102
RTVSPost2010PropOp57
 70
     1
102
RTVSPropertyOp0
 70
     1
102
RTVSPropertyOp1
 70
     1
102
RTVSPropertyOp2
 70
     1
102
RTVSPropertyOp3
 70
     1
102
RTVSPropertyOp4
 70
     1
102
RTVSPropertyOp5
 70
     1
102
RTVSPropertyOp6
 70
     1
102
RTVSPropertyOp7
 70
     1
102
RTVSPropertyOp8
 70
     1
102
RTVSPropertyOp9
 70
     1
102
RTVSPropertyOp10
 70
     1
102
RTVSPropertyOp11
 70
     1
102
RTVSPropertyOp12
 70
     1
102
RTVSPropertyOp13
 70
     1
102
RTVSPropertyOp14
 70
     1
102
RTVSPropertyOp15
 70
     1
102
RTVSPropertyOp16
 70
     1
102
RTVSPropertyOp17
 70
     1
102
RTVSPropertyOp18
 70
     1
102
RTVSPropertyOp19
 70
     1
102
RTVSPropertyOp20
 70
     1
102
RTVSPropertyOp21
 70
     1
102
RTVSPropertyOp22
 70
     1
102
RTVSPropertyOp23
 70
     1
102
RTVSPropertyOp24
 70
     1
102
RTVSPropertyOp25
 70
     1
102
RTVSPropertyOp26
 70
     1
102
RTVSPropertyOp27
 70
     1
102
RTVSPropertyOp28
 70
     1
102
RTVSPropertyOp29
 70
     1
102
RTVSPropertyOp30
 70
     1
102
RTVSPropertyOp31
 70
     1
102
RTVSPropertyOp32
 70
     1
102
RTVSPropertyOp33
 70
     1
102
RTVSPropertyOp34
 70
     1
102
RTVSPropertyOp35
 70
     1
102
RTVSPropertyOp36
 70
     1
102
RTVSPropertyOp37
 70
     1
102
RTVSPropertyOp38
 70
     1
102
RTVSPropertyOp39
 70
     1
102
RTVSPropertyOp40
 70
     1
102
RTVSPropertyOp41
 70
     1
102
RTVSPropertyOp42
 70
     1
102
RTVSPropertyOp43
 70
     1
102
RTVSPropertyOp44
 70
     1
102
RTVSPropertyOp45
 70
     1
102
RTVSPropertyOp46
 70
     1
102
RTVSPropertyOp47
 70
     1
102
RTVSPropertyOp48
 70
     1
102
RTVSPropertyOp49
 70
     1
102
RTVSPropertyOp50
 70
     1
102
RTVSPropertyOp51
 70
     0
102
RTVSPropertyOp52
 70
     0
102
RTVSPropertyOp53
 70
     1
102
RTVSPropertyOp54
 70
     1
102
RTVSPropertyOp55
 70
     1
102
RTVSPropertyOp56
 70
     1
102
RTVSPropertyOp57
 70
     1
102
RTVSPropertyOp58
 70
     1
102
RTVSPropertyOp59
 70
     1
102
RTVSPropertyOp60
 70
     1
102
RTVSPropertyOp61
 70
     1
102
RTVSPropertyOp62
 70
     1
  0
XRECORD
  5
1B11
102
{ACAD_REACTORS
330
1B10
102
}
330
1B10
100
AcDbXrecord
280
     1
102
RTVSPost2010Prop28
280
     0
102
RTVSPost2010PropOp28
 70
     1
102
RTVSPost2010Prop29
280
     1
102
RTVSPost2010PropOp29
 70
     1
102
RTVSPost2010Prop30
280
     1
102
RTVSPost2010PropOp30
 70
     1
102
RTVSPost2010Prop31
280
     0
102
RTVSPost2010PropOp31
 70
     1
102
RTVSPost2010Prop32
280
     0
102
RTVSPost2010PropOp32
 70
     1
102
RTVSPost2010Prop33
280
     0
102
RTVSPost2010PropOp33
 70
     1
102
RTVSPost2010Prop34
280
     0
102
RTVSPost2010PropOp34
 70
     1
102
RTVSPost2010Prop35
280
     0
102
RTVSPost2010PropOp35
 70
     1
102
RTVSPost2010Prop36
280
     0
102
RTVSPost2010PropOp36
 70
     1
102
RTVSPost2010Prop37
 90
       50
102
RTVSPost2010PropOp37
 70
     1
102
RTVSPost2010Prop38
140
0.0
102
RTVSPost2010PropOp38
 70
     1
102
RTVSPost2010Prop39
140
1.0
102
RTVSPost2010PropOp39
 70
     1
102
RTVSPost2010Prop40
 90
        0
102
RTVSPost2010PropOp40
 70
     1
102
RTVSPost2010Prop41ColorIndex
 90
       18
102
RTVSPost2010Prop41ColorRGB
 90
        0
102
RTVSPost2010PropOp41
 70
     1
102
RTVSPost2010Prop42
 90
       50
102
RTVSPost2010PropOp42
 70
     1
102
RTVSPost2010Prop43
 90
        3
102
RTVSPost2010PropOp43
 70
     1
102
RTVSPost2010Prop44ColorIndex
 90
        5
102
RTVSPost2010Prop44ColorRGB
 90
      255
102
RTVSPost2010PropOp44
 70
     1
102
RTVSPost2010Prop45
280
     0
102
RTVSPost2010PropOp45
 70
     1
102
RTVSPost2010Prop46
 90
       50
102
RTVSPost2010PropOp46
 70
     1
102
RTVSPost2010Prop47
 90
       50
102
RTVSPost2010PropOp47
 70
     1
102
RTVSPost2010Prop48
 90
       50
102
RTVSPost2010PropOp48
 70
     1
102
RTVSPost2010Prop49
280
     0
102
RTVSPost2010PropOp49
 70
     1
102
RTVSPost2010Prop50
 90
       50
102
RTVSPost2010PropOp50
 70
     1
102
RTVSPost2010Prop51ColorIndex
 90
      256
102
RTVSPost2010Prop51ColorRGB
 90
-16777216
102
RTVSPost2010PropOp51
 70
     0
102
RTVSPost2010Prop52
140
1.0
102
RTVSPost2010PropOp52
 70
     0
102
RTVSPost2010Prop53
 90
        2
102
RTVSPost2010PropOp53
 70
     1
102
RTVSPost2010Prop54
  1
strokes_ogs.tif
102
RTVSPost2010PropOp54
 70
     1
102
RTVSPost2010Prop55
280
     0
102
RTVSPost2010PropOp55
 70
     1
102
RTVSPost2010Prop56
140
1.0
102
RTVSPost2010PropOp56
 70
     1
102
RTVSPost2010Prop57
140
1.0
102
RTVSPost2010PropOp57
 70
     1
102
RTVSPropertyOp0
 70
     1
102
RTVSPropertyOp1
 70
     1
102
RTVSPropertyOp2
 70
     1
102
RTVSPropertyOp3
 70
     1
102
RTVSPropertyOp4
 70
     1
102
RTVSPropertyOp5
 70
     1
102
RTVSPropertyOp6
 70
     1
102
RTVSPropertyOp7
 70
     1
102
RTVSPropertyOp8
 70
     1
102
RTVSPropertyOp9
 70
     1
102
RTVSPropertyOp10
 70
     1
102
RTVSPropertyOp11
 70
     1
102
RTVSPropertyOp12
 70
     1
102
RTVSPropertyOp13
 70
     1
102
RTVSPropertyOp14
 70
     1
102
RTVSPropertyOp15
 70
     1
102
RTVSPropertyOp16
 70
     1
102
RTVSPropertyOp17
 70
     1
102
RTVSPropertyOp18
 70
     1
102
RTVSPropertyOp19
 70
     1
102
RTVSPropertyOp20
 70
     1
102
RTVSPropertyOp21
 70
     1
102
RTVSPropertyOp22
 70
     1
102
RTVSPropertyOp23
 70
     1
102
RTVSPropertyOp24
 70
     1
102
RTVSPropertyOp25
 70
     1
102
RTVSPropertyOp26
 70
     1
102
RTVSPropertyOp27
 70
     1
102
RTVSPropertyOp28
 70
     1
102
RTVSPropertyOp29
 70
     1
102
RTVSPropertyOp30
 70
     1
102
RTVSPropertyOp31
 70
     1
102
RTVSPropertyOp32
 70
     1
102
RTVSPropertyOp33
 70
     1
102
RTVSPropertyOp34
 70
     1
102
RTVSPropertyOp35
 70
     1
102
RTVSPropertyOp36
 70
     1
102
RTVSPropertyOp37
 70
     1
102
RTVSPropertyOp38
 70
     1
102
RTVSPropertyOp39
 70
     1
102
RTVSPropertyOp40
 70
     1
102
RTVSPropertyOp41
 70
     1
102
RTVSPropertyOp42
 70
     1
102
RTVSPropertyOp43
 70
     1
102
RTVSPropertyOp44
 70
     1
102
RTVSPropertyOp45
 70
     1
102
RTVSPropertyOp46
 70
     1
102
RTVSPropertyOp47
 70
     1
102
RTVSPropertyOp48
 70
     1
102
RTVSPropertyOp49
 70
     1
102
RTVSPropertyOp50
 70
     1
102
RTVSPropertyOp51
 70
     0
102
RTVSPropertyOp52
 70
     0
102
RTVSPropertyOp53
 70
     1
102
RTVSPropertyOp54
 70
     1
102
RTVSPropertyOp55
 70
     1
102
RTVSPropertyOp56
 70
     1
102
RTVSPropertyOp57
 70
     1
102
RTVSPropertyOp58
 70
     1
102
RTVSPropertyOp59
 70
     1
102
RTVSPropertyOp60
 70
     1
102
RTVSPropertyOp61
 70
     1
102
RTVSPropertyOp62
 70
     1
  0
XRECORD
  5
1B13
102
{ACAD_REACTORS
330
1B12
102
}
330
1B12
100
AcDbXrecord
280
     1
102
RTVSPost2010Prop28
280
     0
102
RTVSPost2010PropOp28
 70
     1
102
RTVSPost2010Prop29
280
     1
102
RTVSPost2010PropOp29
 70
     1
102
RTVSPost2010Prop30
280
     1
102
RTVSPost2010PropOp30
 70
     1
102
RTVSPost2010Prop31
280
     0
102
RTVSPost2010PropOp31
 70
     1
102
RTVSPost2010Prop32
280
     0
102
RTVSPost2010PropOp32
 70
     1
102
RTVSPost2010Prop33
280
     0
102
RTVSPost2010PropOp33
 70
     1
102
RTVSPost2010Prop34
280
     0
102
RTVSPost2010PropOp34
 70
     1
102
RTVSPost2010Prop35
280
     0
102
RTVSPost2010PropOp35
 70
     1
102
RTVSPost2010Prop36
280
     0
102
RTVSPost2010PropOp36
 70
     1
102
RTVSPost2010Prop37
 90
       50
102
RTVSPost2010PropOp37
 70
     1
102
RTVSPost2010Prop38
140
0.0
102
RTVSPost2010PropOp38
 70
     1
102
RTVSPost2010Prop39
140
1.0
102
RTVSPost2010PropOp39
 70
     1
102
RTVSPost2010Prop40
 90
        0
102
RTVSPost2010PropOp40
 70
     1
102
RTVSPost2010Prop41ColorIndex
 90
       18
102
RTVSPost2010Prop41ColorRGB
 90
        0
102
RTVSPost2010PropOp41
 70
     1
102
RTVSPost2010Prop42
 90
       50
102
RTVSPost2010PropOp42
 70
     1
102
RTVSPost2010Prop43
 90
        3
102
RTVSPost2010PropOp43
 70
     1
102
RTVSPost2010Prop44ColorIndex
 90
        5
102
RTVSPost2010Prop44ColorRGB
 90
      255
102
RTVSPost2010PropOp44
 70
     1
102
RTVSPost2010Prop45
280
     0
102
RTVSPost2010PropOp45
 70
     1
102
RTVSPost2010Prop46
 90
       50
102
RTVSPost2010PropOp46
 70
     1
102
RTVSPost2010Prop47
 90
       50
102
RTVSPost2010PropOp47
 70
     1
102
RTVSPost2010Prop48
 90
       50
102
RTVSPost2010PropOp48
 70
     1
102
RTVSPost2010Prop49
280
     0
102
RTVSPost2010PropOp49
 70
     1
102
RTVSPost2010Prop50
 90
       50
102
RTVSPost2010PropOp50
 70
     1
102
RTVSPost2010Prop51ColorIndex
 90
      256
102
RTVSPost2010Prop51ColorRGB
 90
-16777216
102
RTVSPost2010PropOp51
 70
     0
102
RTVSPost2010Prop52
140
1.0
102
RTVSPost2010PropOp52
 70
     0
102
RTVSPost2010Prop53
 90
        2
102
RTVSPost2010PropOp53
 70
     1
102
RTVSPost2010Prop54
  1
strokes_ogs.tif
102
RTVSPost2010PropOp54
 70
     1
102
RTVSPost2010Prop55
280
     0
102
RTVSPost2010PropOp55
 70
     1
102
RTVSPost2010Prop56
140
1.0
102
RTVSPost2010PropOp56
 70
     1
102
RTVSPost2010Prop57
140
1.0
102
RTVSPost2010PropOp57
 70
     1
102
RTVSPropertyOp0
 70
     1
102
RTVSPropertyOp1
 70
     1
102
RTVSPropertyOp2
 70
     1
102
RTVSPropertyOp3
 70
     1
102
RTVSPropertyOp4
 70
     1
102
RTVSPropertyOp5
 70
     1
102
RTVSPropertyOp6
 70
     1
102
RTVSPropertyOp7
 70
     1
102
RTVSPropertyOp8
 70
     1
102
RTVSPropertyOp9
 70
     1
102
RTVSPropertyOp10
 70
     1
102
RTVSPropertyOp11
 70
     1
102
RTVSPropertyOp12
 70
     1
102
RTVSPropertyOp13
 70
     1
102
RTVSPropertyOp14
 70
     1
102
RTVSPropertyOp15
 70
     1
102
RTVSPropertyOp16
 70
     1
102
RTVSPropertyOp17
 70
     1
102
RTVSPropertyOp18
 70
     1
102
RTVSPropertyOp19
 70
     1
102
RTVSPropertyOp20
 70
     1
102
RTVSPropertyOp21
 70
     1
102
RTVSPropertyOp22
 70
     1
102
RTVSPropertyOp23
 70
     1
102
RTVSPropertyOp24
 70
     1
102
RTVSPropertyOp25
 70
     1
102
RTVSPropertyOp26
 70
     1
102
RTVSPropertyOp27
 70
     1
102
RTVSPropertyOp28
 70
     1
102
RTVSPropertyOp29
 70
     1
102
RTVSPropertyOp30
 70
     1
102
RTVSPropertyOp31
 70
     1
102
RTVSPropertyOp32
 70
     1
102
RTVSPropertyOp33
 70
     1
102
RTVSPropertyOp34
 70
     1
102
RTVSPropertyOp35
 70
     1
102
RTVSPropertyOp36
 70
     1
102
RTVSPropertyOp37
 70
     1
102
RTVSPropertyOp38
 70
     1
102
RTVSPropertyOp39
 70
     1
102
RTVSPropertyOp40
 70
     1
102
RTVSPropertyOp41
 70
     1
102
RTVSPropertyOp42
 70
     1
102
RTVSPropertyOp43
 70
     1
102
RTVSPropertyOp44
 70
     1
102
RTVSPropertyOp45
 70
     1
102
RTVSPropertyOp46
 70
     1
102
RTVSPropertyOp47
 70
     1
102
RTVSPropertyOp48
 70
     1
102
RTVSPropertyOp49
 70
     1
102
RTVSPropertyOp50
 70
     1
102
RTVSPropertyOp51
 70
     0
102
RTVSPropertyOp52
 70
     0
102
RTVSPropertyOp53
 70
     1
102
RTVSPropertyOp54
 70
     1
102
RTVSPropertyOp55
 70
     1
102
RTVSPropertyOp56
 70
     1
102
RTVSPropertyOp57
 70
     1
102
RTVSPropertyOp58
 70
     1
102
RTVSPropertyOp59
 70
     1
102
RTVSPropertyOp60
 70
     1
102
RTVSPropertyOp61
 70
     1
102
RTVSPropertyOp62
 70
     1
  0
XRECORD
  5
1B15
102
{ACAD_REACTORS
330
1B14
102
}
330
1B14
100
AcDbXrecord
280
     1
102
RTVSPost2010Prop28
280
     0
102
RTVSPost2010PropOp28
 70
     1
102
RTVSPost2010Prop29
280
     1
102
RTVSPost2010PropOp29
 70
     1
102
RTVSPost2010Prop30
280
     1
102
RTVSPost2010PropOp30
 70
     1
102
RTVSPost2010Prop31
280
     0
102
RTVSPost2010PropOp31
 70
     1
102
RTVSPost2010Prop32
280
     0
102
RTVSPost2010PropOp32
 70
     1
102
RTVSPost2010Prop33
280
     0
102
RTVSPost2010PropOp33
 70
     1
102
RTVSPost2010Prop34
280
     0
102
RTVSPost2010PropOp34
 70
     1
102
RTVSPost2010Prop35
280
     0
102
RTVSPost2010PropOp35
 70
     1
102
RTVSPost2010Prop36
280
     0
102
RTVSPost2010PropOp36
 70
     1
102
RTVSPost2010Prop37
 90
       50
102
RTVSPost2010PropOp37
 70
     1
102
RTVSPost2010Prop38
140
0.0
102
RTVSPost2010PropOp38
 70
     1
102
RTVSPost2010Prop39
140
1.0
102
RTVSPost2010PropOp39
 70
     1
102
RTVSPost2010Prop40
 90
        0
102
RTVSPost2010PropOp40
 70
     1
102
RTVSPost2010Prop41ColorIndex
 90
       18
102
RTVSPost2010Prop41ColorRGB
 90
        0
102
RTVSPost2010PropOp41
 70
     1
102
RTVSPost2010Prop42
 90
       50
102
RTVSPost2010PropOp42
 70
     1
102
RTVSPost2010Prop43
 90
        3
102
RTVSPost2010PropOp43
 70
     1
102
RTVSPost2010Prop44ColorIndex
 90
        5
102
RTVSPost2010Prop44ColorRGB
 90
      255
102
RTVSPost2010PropOp44
 70
     1
102
RTVSPost2010Prop45
280
     0
102
RTVSPost2010PropOp45
 70
     1
102
RTVSPost2010Prop46
 90
       50
102
RTVSPost2010PropOp46
 70
     1
102
RTVSPost2010Prop47
 90
       50
102
RTVSPost2010PropOp47
 70
     1
102
RTVSPost2010Prop48
 90
       50
102
RTVSPost2010PropOp48
 70
     1
102
RTVSPost2010Prop49
280
     0
102
RTVSPost2010PropOp49
 70
     1
102
RTVSPost2010Prop50
 90
       50
102
RTVSPost2010PropOp50
 70
     1
102
RTVSPost2010Prop51ColorIndex
 90
      256
102
RTVSPost2010Prop51ColorRGB
 90
-16777216
102
RTVSPost2010PropOp51
 70
     0
102
RTVSPost2010Prop52
140
1.0
102
RTVSPost2010PropOp52
 70
     0
102
RTVSPost2010Prop53
 90
        2
102
RTVSPost2010PropOp53
 70
     1
102
RTVSPost2010Prop54
  1
strokes_ogs.tif
102
RTVSPost2010PropOp54
 70
     1
102
RTVSPost2010Prop55
280
     0
102
RTVSPost2010PropOp55
 70
     1
102
RTVSPost2010Prop56
140
1.0
102
RTVSPost2010PropOp56
 70
     1
102
RTVSPost2010Prop57
140
1.0
102
RTVSPost2010PropOp57
 70
     1
102
RTVSPropertyOp0
 70
     1
102
RTVSPropertyOp1
 70
     1
102
RTVSPropertyOp2
 70
     1
102
RTVSPropertyOp3
 70
     1
102
RTVSPropertyOp4
 70
     1
102
RTVSPropertyOp5
 70
     1
102
RTVSPropertyOp6
 70
     1
102
RTVSPropertyOp7
 70
     1
102
RTVSPropertyOp8
 70
     1
102
RTVSPropertyOp9
 70
     1
102
RTVSPropertyOp10
 70
     1
102
RTVSPropertyOp11
 70
     1
102
RTVSPropertyOp12
 70
     1
102
RTVSPropertyOp13
 70
     1
102
RTVSPropertyOp14
 70
     1
102
RTVSPropertyOp15
 70
     1
102
RTVSPropertyOp16
 70
     1
102
RTVSPropertyOp17
 70
     1
102
RTVSPropertyOp18
 70
     1
102
RTVSPropertyOp19
 70
     1
102
RTVSPropertyOp20
 70
     1
102
RTVSPropertyOp21
 70
     1
102
RTVSPropertyOp22
 70
     1
102
RTVSPropertyOp23
 70
     1
102
RTVSPropertyOp24
 70
     1
102
RTVSPropertyOp25
 70
     1
102
RTVSPropertyOp26
 70
     1
102
RTVSPropertyOp27
 70
     1
102
RTVSPropertyOp28
 70
     1
102
RTVSPropertyOp29
 70
     1
102
RTVSPropertyOp30
 70
     1
102
RTVSPropertyOp31
 70
     1
102
RTVSPropertyOp32
 70
     1
102
RTVSPropertyOp33
 70
     1
102
RTVSPropertyOp34
 70
     1
102
RTVSPropertyOp35
 70
     1
102
RTVSPropertyOp36
 70
     1
102
RTVSPropertyOp37
 70
     1
102
RTVSPropertyOp38
 70
     1
102
RTVSPropertyOp39
 70
     1
102
RTVSPropertyOp40
 70
     1
102
RTVSPropertyOp41
 70
     1
102
RTVSPropertyOp42
 70
     1
102
RTVSPropertyOp43
 70
     1
102
RTVSPropertyOp44
 70
     1
102
RTVSPropertyOp45
 70
     1
102
RTVSPropertyOp46
 70
     1
102
RTVSPropertyOp47
 70
     1
102
RTVSPropertyOp48
 70
     1
102
RTVSPropertyOp49
 70
     1
102
RTVSPropertyOp50
 70
     1
102
RTVSPropertyOp51
 70
     0
102
RTVSPropertyOp52
 70
     0
102
RTVSPropertyOp53
 70
     1
102
RTVSPropertyOp54
 70
     1
102
RTVSPropertyOp55
 70
     1
102
RTVSPropertyOp56
 70
     1
102
RTVSPropertyOp57
 70
     1
102
RTVSPropertyOp58
 70
     1
102
RTVSPropertyOp59
 70
     1
102
RTVSPropertyOp60
 70
     1
102
RTVSPropertyOp61
 70
     1
102
RTVSPropertyOp62
 70
     1
  0
XRECORD
  5
1B17
102
{ACAD_REACTORS
330
1B16
102
}
330
1B16
100
AcDbXrecord
280
     1
102
RTVSPost2010Prop28
280
     0
102
RTVSPost2010PropOp28
 70
     1
102
RTVSPost2010Prop29
280
     1
102
RTVSPost2010PropOp29
 70
     1
102
RTVSPost2010Prop30
280
     1
102
RTVSPost2010PropOp30
 70
     1
102
RTVSPost2010Prop31
280
     0
102
RTVSPost2010PropOp31
 70
     1
102
RTVSPost2010Prop32
280
     0
102
RTVSPost2010PropOp32
 70
     1
102
RTVSPost2010Prop33
280
     0
102
RTVSPost2010PropOp33
 70
     1
102
RTVSPost2010Prop34
280
     0
102
RTVSPost2010PropOp34
 70
     1
102
RTVSPost2010Prop35
280
     0
102
RTVSPost2010PropOp35
 70
     1
102
RTVSPost2010Prop36
280
     0
102
RTVSPost2010PropOp36
 70
     1
102
RTVSPost2010Prop37
 90
       50
102
RTVSPost2010PropOp37
 70
     1
102
RTVSPost2010Prop38
140
0.0
102
RTVSPost2010PropOp38
 70
     1
102
RTVSPost2010Prop39
140
1.0
102
RTVSPost2010PropOp39
 70
     1
102
RTVSPost2010Prop40
 90
        0
102
RTVSPost2010PropOp40
 70
     1
102
RTVSPost2010Prop41ColorIndex
 90
       18
102
RTVSPost2010Prop41ColorRGB
 90
        0
102
RTVSPost2010PropOp41
 70
     1
102
RTVSPost2010Prop42
 90
       50
102
RTVSPost2010PropOp42
 70
     1
102
RTVSPost2010Prop43
 90
        3
102
RTVSPost2010PropOp43
 70
     1
102
RTVSPost2010Prop44ColorIndex
 90
        5
102
RTVSPost2010Prop44ColorRGB
 90
      255
102
RTVSPost2010PropOp44
 70
     1
102
RTVSPost2010Prop45
280
     0
102
RTVSPost2010PropOp45
 70
     1
102
RTVSPost2010Prop46
 90
       50
102
RTVSPost2010PropOp46
 70
     1
102
RTVSPost2010Prop47
 90
       50
102
RTVSPost2010PropOp47
 70
     1
102
RTVSPost2010Prop48
 90
       50
102
RTVSPost2010PropOp48
 70
     1
102
RTVSPost2010Prop49
280
     0
102
RTVSPost2010PropOp49
 70
     1
102
RTVSPost2010Prop50
 90
       50
102
RTVSPost2010PropOp50
 70
     1
102
RTVSPost2010Prop51ColorIndex
 90
      256
102
RTVSPost2010Prop51ColorRGB
 90
-16777216
102
RTVSPost2010PropOp51
 70
     0
102
RTVSPost2010Prop52
140
1.0
102
RTVSPost2010PropOp52
 70
     0
102
RTVSPost2010Prop53
 90
        2
102
RTVSPost2010PropOp53
 70
     1
102
RTVSPost2010Prop54
  1
strokes_ogs.tif
102
RTVSPost2010PropOp54
 70
     1
102
RTVSPost2010Prop55
280
     0
102
RTVSPost2010PropOp55
 70
     1
102
RTVSPost2010Prop56
140
1.0
102
RTVSPost2010PropOp56
 70
     1
102
RTVSPost2010Prop57
140
1.0
102
RTVSPost2010PropOp57
 70
     1
102
RTVSPropertyOp0
 70
     1
102
RTVSPropertyOp1
 70
     1
102
RTVSPropertyOp2
 70
     1
102
RTVSPropertyOp3
 70
     1
102
RTVSPropertyOp4
 70
     1
102
RTVSPropertyOp5
 70
     1
102
RTVSPropertyOp6
 70
     1
102
RTVSPropertyOp7
 70
     1
102
RTVSPropertyOp8
 70
     1
102
RTVSPropertyOp9
 70
     1
102
RTVSPropertyOp10
 70
     1
102
RTVSPropertyOp11
 70
     1
102
RTVSPropertyOp12
 70
     1
102
RTVSPropertyOp13
 70
     1
102
RTVSPropertyOp14
 70
     1
102
RTVSPropertyOp15
 70
     1
102
RTVSPropertyOp16
 70
     1
102
RTVSPropertyOp17
 70
     1
102
RTVSPropertyOp18
 70
     1
102
RTVSPropertyOp19
 70
     1
102
RTVSPropertyOp20
 70
     1
102
RTVSPropertyOp21
 70
     1
102
RTVSPropertyOp22
 70
     1
102
RTVSPropertyOp23
 70
     1
102
RTVSPropertyOp24
 70
     1
102
RTVSPropertyOp25
 70
     1
102
RTVSPropertyOp26
 70
     1
102
RTVSPropertyOp27
 70
     1
102
RTVSPropertyOp28
 70
     1
102
RTVSPropertyOp29
 70
     1
102
RTVSPropertyOp30
 70
     1
102
RTVSPropertyOp31
 70
     1
102
RTVSPropertyOp32
 70
     1
102
RTVSPropertyOp33
 70
     1
102
RTVSPropertyOp34
 70
     1
102
RTVSPropertyOp35
 70
     1
102
RTVSPropertyOp36
 70
     1
102
RTVSPropertyOp37
 70
     1
102
RTVSPropertyOp38
 70
     1
102
RTVSPropertyOp39
 70
     1
102
RTVSPropertyOp40
 70
     1
102
RTVSPropertyOp41
 70
     1
102
RTVSPropertyOp42
 70
     1
102
RTVSPropertyOp43
 70
     1
102
RTVSPropertyOp44
 70
     1
102
RTVSPropertyOp45
 70
     1
102
RTVSPropertyOp46
 70
     1
102
RTVSPropertyOp47
 70
     1
102
RTVSPropertyOp48
 70
     1
102
RTVSPropertyOp49
 70
     1
102
RTVSPropertyOp50
 70
     1
102
RTVSPropertyOp51
 70
     0
102
RTVSPropertyOp52
 70
     0
102
RTVSPropertyOp53
 70
     1
102
RTVSPropertyOp54
 70
     1
102
RTVSPropertyOp55
 70
     1
102
RTVSPropertyOp56
 70
     1
102
RTVSPropertyOp57
 70
     1
102
RTVSPropertyOp58
 70
     1
102
RTVSPropertyOp59
 70
     1
102
RTVSPropertyOp60
 70
     1
102
RTVSPropertyOp61
 70
     1
102
RTVSPropertyOp62
 70
     1
  0
XRECORD
  5
1B1F
102
{ACAD_REACTORS
330
1B1E
102
}
330
1B1E
100
AcDbXrecord
280
     1
102
RTVSPost2010Prop28
280
     0
102
RTVSPost2010PropOp28
 70
     1
102
RTVSPost2010Prop29
280
     1
102
RTVSPost2010PropOp29
 70
     1
102
RTVSPost2010Prop30
280
     1
102
RTVSPost2010PropOp30
 70
     1
102
RTVSPost2010Prop31
280
     0
102
RTVSPost2010PropOp31
 70
     1
102
RTVSPost2010Prop32
280
     0
102
RTVSPost2010PropOp32
 70
     1
102
RTVSPost2010Prop33
280
     0
102
RTVSPost2010PropOp33
 70
     1
102
RTVSPost2010Prop34
280
     0
102
RTVSPost2010PropOp34
 70
     1
102
RTVSPost2010Prop35
280
     0
102
RTVSPost2010PropOp35
 70
     1
102
RTVSPost2010Prop36
280
     0
102
RTVSPost2010PropOp36
 70
     1
102
RTVSPost2010Prop37
 90
       50
102
RTVSPost2010PropOp37
 70
     1
102
RTVSPost2010Prop38
140
0.0
102
RTVSPost2010PropOp38
 70
     1
102
RTVSPost2010Prop39
140
1.0
102
RTVSPost2010PropOp39
 70
     1
102
RTVSPost2010Prop40
 90
        0
102
RTVSPost2010PropOp40
 70
     1
102
RTVSPost2010Prop41ColorIndex
 90
       18
102
RTVSPost2010Prop41ColorRGB
 90
        0
102
RTVSPost2010PropOp41
 70
     1
102
RTVSPost2010Prop42
 90
       50
102
RTVSPost2010PropOp42
 70
     1
102
RTVSPost2010Prop43
 90
        3
102
RTVSPost2010PropOp43
 70
     1
102
RTVSPost2010Prop44ColorIndex
 90
        5
102
RTVSPost2010Prop44ColorRGB
 90
      255
102
RTVSPost2010PropOp44
 70
     1
102
RTVSPost2010Prop45
280
     0
102
RTVSPost2010PropOp45
 70
     1
102
RTVSPost2010Prop46
 90
       50
102
RTVSPost2010PropOp46
 70
     1
102
RTVSPost2010Prop47
 90
       50
102
RTVSPost2010PropOp47
 70
     1
102
RTVSPost2010Prop48
 90
       50
102
RTVSPost2010PropOp48
 70
     1
102
RTVSPost2010Prop49
280
     0
102
RTVSPost2010PropOp49
 70
     1
102
RTVSPost2010Prop50
 90
       50
102
RTVSPost2010PropOp50
 70
     1
102
RTVSPost2010Prop51ColorIndex
 90
      256
102
RTVSPost2010Prop51ColorRGB
 90
-16777216
102
RTVSPost2010PropOp51
 70
     0
102
RTVSPost2010Prop52
140
1.0
102
RTVSPost2010PropOp52
 70
     0
102
RTVSPost2010Prop53
 90
        2
102
RTVSPost2010PropOp53
 70
     1
102
RTVSPost2010Prop54
  1
strokes_ogs.tif
102
RTVSPost2010PropOp54
 70
     1
102
RTVSPost2010Prop55
280
     0
102
RTVSPost2010PropOp55
 70
     1
102
RTVSPost2010Prop56
140
1.0
102
RTVSPost2010PropOp56
 70
     1
102
RTVSPost2010Prop57
140
1.0
102
RTVSPost2010PropOp57
 70
     1
102
RTVSPropertyOp0
 70
     1
102
RTVSPropertyOp1
 70
     1
102
RTVSPropertyOp2
 70
     1
102
RTVSPropertyOp3
 70
     1
102
RTVSPropertyOp4
 70
     1
102
RTVSPropertyOp5
 70
     1
102
RTVSPropertyOp6
 70
     1
102
RTVSPropertyOp7
 70
     1
102
RTVSPropertyOp8
 70
     1
102
RTVSPropertyOp9
 70
     1
102
RTVSPropertyOp10
 70
     1
102
RTVSPropertyOp11
 70
     1
102
RTVSPropertyOp12
 70
     1
102
RTVSPropertyOp13
 70
     1
102
RTVSPropertyOp14
 70
     1
102
RTVSPropertyOp15
 70
     1
102
RTVSPropertyOp16
 70
     1
102
RTVSPropertyOp17
 70
     1
102
RTVSPropertyOp18
 70
     1
102
RTVSPropertyOp19
 70
     1
102
RTVSPropertyOp20
 70
     1
102
RTVSPropertyOp21
 70
     1
102
RTVSPropertyOp22
 70
     1
102
RTVSPropertyOp23
 70
     1
102
RTVSPropertyOp24
 70
     1
102
RTVSPropertyOp25
 70
     1
102
RTVSPropertyOp26
 70
     1
102
RTVSPropertyOp27
 70
     1
102
RTVSPropertyOp28
 70
     1
102
RTVSPropertyOp29
 70
     1
102
RTVSPropertyOp30
 70
     1
102
RTVSPropertyOp31
 70
     1
102
RTVSPropertyOp32
 70
     1
102
RTVSPropertyOp33
 70
     1
102
RTVSPropertyOp34
 70
     1
102
RTVSPropertyOp35
 70
     1
102
RTVSPropertyOp36
 70
     1
102
RTVSPropertyOp37
 70
     1
102
RTVSPropertyOp38
 70
     1
102
RTVSPropertyOp39
 70
     1
102
RTVSPropertyOp40
 70
     1
102
RTVSPropertyOp41
 70
     1
102
RTVSPropertyOp42
 70
     1
102
RTVSPropertyOp43
 70
     1
102
RTVSPropertyOp44
 70
     1
102
RTVSPropertyOp45
 70
     1
102
RTVSPropertyOp46
 70
     1
102
RTVSPropertyOp47
 70
     1
102
RTVSPropertyOp48
 70
     1
102
RTVSPropertyOp49
 70
     1
102
RTVSPropertyOp50
 70
     1
102
RTVSPropertyOp51
 70
     0
102
RTVSPropertyOp52
 70
     0
102
RTVSPropertyOp53
 70
     1
102
RTVSPropertyOp54
 70
     1
102
RTVSPropertyOp55
 70
     1
102
RTVSPropertyOp56
 70
     1
102
RTVSPropertyOp57
 70
     1
102
RTVSPropertyOp58
 70
     1
102
RTVSPropertyOp59
 70
     1
102
RTVSPropertyOp60
 70
     1
102
RTVSPropertyOp61
 70
     1
102
RTVSPropertyOp62
 70
     1
  0
XRECORD
  5
1B3B
102
{ACAD_REACTORS
330
1B3A
102
}
330
1B3A
100
AcDbXrecord
280
     1
102
RTVSPost2010Prop28
280
     0
102
RTVSPost2010PropOp28
 70
     1
102
RTVSPost2010Prop29
280
     1
102
RTVSPost2010PropOp29
 70
     1
102
RTVSPost2010Prop30
280
     1
102
RTVSPost2010PropOp30
 70
     1
102
RTVSPost2010Prop31
280
     0
102
RTVSPost2010PropOp31
 70
     1
102
RTVSPost2010Prop32
280
     0
102
RTVSPost2010PropOp32
 70
     1
102
RTVSPost2010Prop33
280
     0
102
RTVSPost2010PropOp33
 70
     1
102
RTVSPost2010Prop34
280
     0
102
RTVSPost2010PropOp34
 70
     1
102
RTVSPost2010Prop35
280
     0
102
RTVSPost2010PropOp35
 70
     1
102
RTVSPost2010Prop36
280
     0
102
RTVSPost2010PropOp36
 70
     1
102
RTVSPost2010Prop37
 90
       50
102
RTVSPost2010PropOp37
 70
     0
102
RTVSPost2010Prop38
140
0.0
102
RTVSPost2010PropOp38
 70
     0
102
RTVSPost2010Prop39
140
1.0
102
RTVSPost2010PropOp39
 70
     0
102
RTVSPost2010Prop40
 90
        0
102
RTVSPost2010PropOp40
 70
     0
102
RTVSPost2010Prop41ColorIndex
 90
       18
102
RTVSPost2010Prop41ColorRGB
 90
        0
102
RTVSPost2010PropOp41
 70
     0
102
RTVSPost2010Prop42
 90
       50
102
RTVSPost2010PropOp42
 70
     0
102
RTVSPost2010Prop43
 90
        3
102
RTVSPost2010PropOp43
 70
     0
102
RTVSPost2010Prop44ColorIndex
 90
        5
102
RTVSPost2010Prop44ColorRGB
 90
      255
102
RTVSPost2010PropOp44
 70
     0
102
RTVSPost2010Prop45
280
     0
102
RTVSPost2010PropOp45
 70
     1
102
RTVSPost2010Prop46
 90
       50
102
RTVSPost2010PropOp46
 70
     0
102
RTVSPost2010Prop47
 90
       50
102
RTVSPost2010PropOp47
 70
     0
102
RTVSPost2010Prop48
 90
       50
102
RTVSPost2010PropOp48
 70
     0
102
RTVSPost2010Prop49
280
     0
102
RTVSPost2010PropOp49
 70
     1
102
RTVSPost2010Prop50
 90
       50
102
RTVSPost2010PropOp50
 70
     0
102
RTVSPost2010Prop51ColorIndex
 90
      256
102
RTVSPost2010Prop51ColorRGB
 90
-16777216
102
RTVSPost2010PropOp51
 70
     0
102
RTVSPost2010Prop52
140
1.0
102
RTVSPost2010PropOp52
 70
     0
102
RTVSPost2010Prop53
 90
        2
102
RTVSPost2010PropOp53
 70
     0
102
RTVSPost2010Prop54
  1
strokes_ogs.tif
102
RTVSPost2010PropOp54
 70
     0
102
RTVSPost2010Prop55
280
     0
102
RTVSPost2010PropOp55
 70
     1
102
RTVSPost2010Prop56
140
1.0
102
RTVSPost2010PropOp56
 70
     0
102
RTVSPost2010Prop57
140
1.0
102
RTVSPost2010PropOp57
 70
     0
102
RTVSPropertyOp0
 70
     0
102
RTVSPropertyOp1
 70
     0
102
RTVSPropertyOp2
 70
     0
102
RTVSPropertyOp3
 70
     0
102
RTVSPropertyOp4
 70
     0
102
RTVSPropertyOp5
 70
     0
102
RTVSPropertyOp6
 70
     0
102
RTVSPropertyOp7
 70
     0
102
RTVSPropertyOp8
 70
     0
102
RTVSPropertyOp9
 70
     0
102
RTVSPropertyOp10
 70
     0
102
RTVSPropertyOp11
 70
     0
102
RTVSPropertyOp12
 70
     0
102
RTVSPropertyOp13
 70
     0
102
RTVSPropertyOp14
 70
     2
102
RTVSPropertyOp15
 70
     0
102
RTVSPropertyOp16
 70
     0
102
RTVSPropertyOp17
 70
     0
102
RTVSPropertyOp18
 70
     0
102
RTVSPropertyOp19
 70
     0
102
RTVSPropertyOp20
 70
     0
102
RTVSPropertyOp21
 70
     0
102
RTVSPropertyOp22
 70
     0
102
RTVSPropertyOp23
 70
     0
102
RTVSPropertyOp24
 70
     0
102
RTVSPropertyOp25
 70
     0
102
RTVSPropertyOp26
 70
     0
102
RTVSPropertyOp27
 70
     0
102
RTVSPropertyOp28
 70
     1
102
RTVSPropertyOp29
 70
     1
102
RTVSPropertyOp30
 70
     1
102
RTVSPropertyOp31
 70
     1
102
RTVSPropertyOp32
 70
     1
102
RTVSPropertyOp33
 70
     1
102
RTVSPropertyOp34
 70
     1
102
RTVSPropertyOp35
 70
     1
102
RTVSPropertyOp36
 70
     1
102
RTVSPropertyOp37
 70
     0
102
RTVSPropertyOp38
 70
     0
102
RTVSPropertyOp39
 70
     0
102
RTVSPropertyOp40
 70
     0
102
RTVSPropertyOp41
 70
     0
102
RTVSPropertyOp42
 70
     0
102
RTVSPropertyOp43
 70
     0
102
RTVSPropertyOp44
 70
     0
102
RTVSPropertyOp45
 70
     1
102
RTVSPropertyOp46
 70
     0
102
RTVSPropertyOp47
 70
     0
102
RTVSPropertyOp48
 70
     0
102
RTVSPropertyOp49
 70
     1
102
RTVSPropertyOp50
 70
     0
102
RTVSPropertyOp51
 70
     0
102
RTVSPropertyOp52
 70
     0
102
RTVSPropertyOp53
 70
     0
102
RTVSPropertyOp54
 70
     0
102
RTVSPropertyOp55
 70
     1
102
RTVSPropertyOp56
 70
     0
102
RTVSPropertyOp57
 70
     0
102
RTVSPropertyOp58
 70
     0
102
RTVSPropertyOp59
 70
     0
102
RTVSPropertyOp60
 70
     0
102
RTVSPropertyOp61
 70
     0
102
RTVSPropertyOp62
 70
     0
  0
XRECORD
  5
1B2B
102
{ACAD_REACTORS
330
1B2A
102
}
330
1B2A
100
AcDbXrecord
280
     1
102
RTVSPost2010Prop28
280
     0
102
RTVSPost2010PropOp28
 70
     1
102
RTVSPost2010Prop29
280
     1
102
RTVSPost2010PropOp29
 70
     1
102
RTVSPost2010Prop30
280
     1
102
RTVSPost2010PropOp30
 70
     1
102
RTVSPost2010Prop31
280
     0
102
RTVSPost2010PropOp31
 70
     1
102
RTVSPost2010Prop32
280
     0
102
RTVSPost2010PropOp32
 70
     1
102
RTVSPost2010Prop33
280
     0
102
RTVSPost2010PropOp33
 70
     1
102
RTVSPost2010Prop34
280
     0
102
RTVSPost2010PropOp34
 70
     1
102
RTVSPost2010Prop35
280
     0
102
RTVSPost2010PropOp35
 70
     1
102
RTVSPost2010Prop36
280
     0
102
RTVSPost2010PropOp36
 70
     1
102
RTVSPost2010Prop37
 90
       50
102
RTVSPost2010PropOp37
 70
     1
102
RTVSPost2010Prop38
140
0.0
102
RTVSPost2010PropOp38
 70
     1
102
RTVSPost2010Prop39
140
1.0
102
RTVSPost2010PropOp39
 70
     1
102
RTVSPost2010Prop40
 90
        0
102
RTVSPost2010PropOp40
 70
     1
102
RTVSPost2010Prop41ColorIndex
 90
       18
102
RTVSPost2010Prop41ColorRGB
 90
        0
102
RTVSPost2010PropOp41
 70
     1
102
RTVSPost2010Prop42
 90
       50
102
RTVSPost2010PropOp42
 70
     1
102
RTVSPost2010Prop43
 90
        3
102
RTVSPost2010PropOp43
 70
     1
102
RTVSPost2010Prop44ColorIndex
 90
        5
102
RTVSPost2010Prop44ColorRGB
 90
      255
102
RTVSPost2010PropOp44
 70
     1
102
RTVSPost2010Prop45
280
     0
102
RTVSPost2010PropOp45
 70
     1
102
RTVSPost2010Prop46
 90
       50
102
RTVSPost2010PropOp46
 70
     1
102
RTVSPost2010Prop47
 90
       50
102
RTVSPost2010PropOp47
 70
     1
102
RTVSPost2010Prop48
 90
       50
102
RTVSPost2010PropOp48
 70
     1
102
RTVSPost2010Prop49
280
     0
102
RTVSPost2010PropOp49
 70
     1
102
RTVSPost2010Prop50
 90
       50
102
RTVSPost2010PropOp50
 70
     1
102
RTVSPost2010Prop51ColorIndex
 90
      256
102
RTVSPost2010Prop51ColorRGB
 90
-16777216
102
RTVSPost2010PropOp51
 70
     0
102
RTVSPost2010Prop52
140
1.0
102
RTVSPost2010PropOp52
 70
     0
102
RTVSPost2010Prop53
 90
        2
102
RTVSPost2010PropOp53
 70
     1
102
RTVSPost2010Prop54
  1
strokes_ogs.tif
102
RTVSPost2010PropOp54
 70
     1
102
RTVSPost2010Prop55
280
     0
102
RTVSPost2010PropOp55
 70
     1
102
RTVSPost2010Prop56
140
1.0
102
RTVSPost2010PropOp56
 70
     1
102
RTVSPost2010Prop57
140
1.0
102
RTVSPost2010PropOp57
 70
     1
102
RTVSPropertyOp0
 70
     1
102
RTVSPropertyOp1
 70
     1
102
RTVSPropertyOp2
 70
     1
102
RTVSPropertyOp3
 70
     1
102
RTVSPropertyOp4
 70
     1
102
RTVSPropertyOp5
 70
     1
102
RTVSPropertyOp6
 70
     1
102
RTVSPropertyOp7
 70
     1
102
RTVSPropertyOp8
 70
     1
102
RTVSPropertyOp9
 70
     1
102
RTVSPropertyOp10
 70
     1
102
RTVSPropertyOp11
 70
     1
102
RTVSPropertyOp12
 70
     1
102
RTVSPropertyOp13
 70
     1
102
RTVSPropertyOp14
 70
     1
102
RTVSPropertyOp15
 70
     1
102
RTVSPropertyOp16
 70
     1
102
RTVSPropertyOp17
 70
     1
102
RTVSPropertyOp18
 70
     1
102
RTVSPropertyOp19
 70
     1
102
RTVSPropertyOp20
 70
     1
102
RTVSPropertyOp21
 70
     1
102
RTVSPropertyOp22
 70
     1
102
RTVSPropertyOp23
 70
     1
102
RTVSPropertyOp24
 70
     1
102
RTVSPropertyOp25
 70
     1
102
RTVSPropertyOp26
 70
     1
102
RTVSPropertyOp27
 70
     1
102
RTVSPropertyOp28
 70
     1
102
RTVSPropertyOp29
 70
     1
102
RTVSPropertyOp30
 70
     1
102
RTVSPropertyOp31
 70
     1
102
RTVSPropertyOp32
 70
     1
102
RTVSPropertyOp33
 70
     1
102
RTVSPropertyOp34
 70
     1
102
RTVSPropertyOp35
 70
     1
102
RTVSPropertyOp36
 70
     1
102
RTVSPropertyOp37
 70
     1
102
RTVSPropertyOp38
 70
     1
102
RTVSPropertyOp39
 70
     1
102
RTVSPropertyOp40
 70
     1
102
RTVSPropertyOp41
 70
     1
102
RTVSPropertyOp42
 70
     1
102
RTVSPropertyOp43
 70
     1
102
RTVSPropertyOp44
 70
     1
102
RTVSPropertyOp45
 70
     1
102
RTVSPropertyOp46
 70
     1
102
RTVSPropertyOp47
 70
     1
102
RTVSPropertyOp48
 70
     1
102
RTVSPropertyOp49
 70
     1
102
RTVSPropertyOp50
 70
     1
102
RTVSPropertyOp51
 70
     0
102
RTVSPropertyOp52
 70
     0
102
RTVSPropertyOp53
 70
     1
102
RTVSPropertyOp54
 70
     1
102
RTVSPropertyOp55
 70
     1
102
RTVSPropertyOp56
 70
     1
102
RTVSPropertyOp57
 70
     1
102
RTVSPropertyOp58
 70
     1
102
RTVSPropertyOp59
 70
     1
102
RTVSPropertyOp60
 70
     1
102
RTVSPropertyOp61
 70
     1
102
RTVSPropertyOp62
 70
     1
  0
XRECORD
  5
1B3D
102
{ACAD_REACTORS
330
1B3C
102
}
330
1B3C
100
AcDbXrecord
280
     1
102
RTVSPost2010Prop28
280
     0
102
RTVSPost2010PropOp28
 70
     1
102
RTVSPost2010Prop29
280
     1
102
RTVSPost2010PropOp29
 70
     1
102
RTVSPost2010Prop30
280
     1
102
RTVSPost2010PropOp30
 70
     1
102
RTVSPost2010Prop31
280
     0
102
RTVSPost2010PropOp31
 70
     1
102
RTVSPost2010Prop32
280
     0
102
RTVSPost2010PropOp32
 70
     1
102
RTVSPost2010Prop33
280
     0
102
RTVSPost2010PropOp33
 70
     1
102
RTVSPost2010Prop34
280
     0
102
RTVSPost2010PropOp34
 70
     1
102
RTVSPost2010Prop35
280
     0
102
RTVSPost2010PropOp35
 70
     1
102
RTVSPost2010Prop36
280
     0
102
RTVSPost2010PropOp36
 70
     1
102
RTVSPost2010Prop37
 90
       50
102
RTVSPost2010PropOp37
 70
     0
102
RTVSPost2010Prop38
140
0.0
102
RTVSPost2010PropOp38
 70
     0
102
RTVSPost2010Prop39
140
1.0
102
RTVSPost2010PropOp39
 70
     0
102
RTVSPost2010Prop40
 90
        0
102
RTVSPost2010PropOp40
 70
     0
102
RTVSPost2010Prop41ColorIndex
 90
       18
102
RTVSPost2010Prop41ColorRGB
 90
        0
102
RTVSPost2010PropOp41
 70
     0
102
RTVSPost2010Prop42
 90
       50
102
RTVSPost2010PropOp42
 70
     0
102
RTVSPost2010Prop43
 90
        3
102
RTVSPost2010PropOp43
 70
     0
102
RTVSPost2010Prop44ColorIndex
 90
        5
102
RTVSPost2010Prop44ColorRGB
 90
      255
102
RTVSPost2010PropOp44
 70
     0
102
RTVSPost2010Prop45
280
     0
102
RTVSPost2010PropOp45
 70
     1
102
RTVSPost2010Prop46
 90
       50
102
RTVSPost2010PropOp46
 70
     0
102
RTVSPost2010Prop47
 90
       50
102
RTVSPost2010PropOp47
 70
     0
102
RTVSPost2010Prop48
 90
       50
102
RTVSPost2010PropOp48
 70
     0
102
RTVSPost2010Prop49
280
     0
102
RTVSPost2010PropOp49
 70
     1
102
RTVSPost2010Prop50
 90
       50
102
RTVSPost2010PropOp50
 70
     0
102
RTVSPost2010Prop51ColorIndex
 90
      256
102
RTVSPost2010Prop51ColorRGB
 90
-16777216
102
RTVSPost2010PropOp51
 70
     0
102
RTVSPost2010Prop52
140
1.0
102
RTVSPost2010PropOp52
 70
     0
102
RTVSPost2010Prop53
 90
        2
102
RTVSPost2010PropOp53
 70
     0
102
RTVSPost2010Prop54
  1
strokes_ogs.tif
102
RTVSPost2010PropOp54
 70
     0
102
RTVSPost2010Prop55
280
     0
102
RTVSPost2010PropOp55
 70
     1
102
RTVSPost2010Prop56
140
1.0
102
RTVSPost2010PropOp56
 70
     0
102
RTVSPost2010Prop57
140
1.0
102
RTVSPost2010PropOp57
 70
     0
102
RTVSPropertyOp0
 70
     0
102
RTVSPropertyOp1
 70
     0
102
RTVSPropertyOp2
 70
     0
102
RTVSPropertyOp3
 70
     0
102
RTVSPropertyOp4
 70
     0
102
RTVSPropertyOp5
 70
     0
102
RTVSPropertyOp6
 70
     0
102
RTVSPropertyOp7
 70
     0
102
RTVSPropertyOp8
 70
     0
102
RTVSPropertyOp9
 70
     0
102
RTVSPropertyOp10
 70
     0
102
RTVSPropertyOp11
 70
     0
102
RTVSPropertyOp12
 70
     0
102
RTVSPropertyOp13
 70
     0
102
RTVSPropertyOp14
 70
     2
102
RTVSPropertyOp15
 70
     0
102
RTVSPropertyOp16
 70
     0
102
RTVSPropertyOp17
 70
     0
102
RTVSPropertyOp18
 70
     0
102
RTVSPropertyOp19
 70
     0
102
RTVSPropertyOp20
 70
     0
102
RTVSPropertyOp21
 70
     0
102
RTVSPropertyOp22
 70
     0
102
RTVSPropertyOp23
 70
     0
102
RTVSPropertyOp24
 70
     0
102
RTVSPropertyOp25
 70
     0
102
RTVSPropertyOp26
 70
     0
102
RTVSPropertyOp27
 70
     0
102
RTVSPropertyOp28
 70
     1
102
RTVSPropertyOp29
 70
     1
102
RTVSPropertyOp30
 70
     1
102
RTVSPropertyOp31
 70
     1
102
RTVSPropertyOp32
 70
     1
102
RTVSPropertyOp33
 70
     1
102
RTVSPropertyOp34
 70
     1
102
RTVSPropertyOp35
 70
     1
102
RTVSPropertyOp36
 70
     1
102
RTVSPropertyOp37
 70
     0
102
RTVSPropertyOp38
 70
     0
102
RTVSPropertyOp39
 70
     0
102
RTVSPropertyOp40
 70
     0
102
RTVSPropertyOp41
 70
     0
102
RTVSPropertyOp42
 70
     0
102
RTVSPropertyOp43
 70
     0
102
RTVSPropertyOp44
 70
     0
102
RTVSPropertyOp45
 70
     1
102
RTVSPropertyOp46
 70
     0
102
RTVSPropertyOp47
 70
     0
102
RTVSPropertyOp48
 70
     0
102
RTVSPropertyOp49
 70
     1
102
RTVSPropertyOp50
 70
     0
102
RTVSPropertyOp51
 70
     0
102
RTVSPropertyOp52
 70
     0
102
RTVSPropertyOp53
 70
     0
102
RTVSPropertyOp54
 70
     0
102
RTVSPropertyOp55
 70
     1
102
RTVSPropertyOp56
 70
     0
102
RTVSPropertyOp57
 70
     0
102
RTVSPropertyOp58
 70
     0
102
RTVSPropertyOp59
 70
     0
102
RTVSPropertyOp60
 70
     0
102
RTVSPropertyOp61
 70
     0
102
RTVSPropertyOp62
 70
     0
  0
XRECORD
  5
1B23
102
{ACAD_REACTORS
330
1B22
102
}
330
1B22
100
AcDbXrecord
280
     1
102
RTVSPost2010Prop28
280
     0
102
RTVSPost2010PropOp28
 70
     1
102
RTVSPost2010Prop29
280
     1
102
RTVSPost2010PropOp29
 70
     1
102
RTVSPost2010Prop30
280
     1
102
RTVSPost2010PropOp30
 70
     1
102
RTVSPost2010Prop31
280
     0
102
RTVSPost2010PropOp31
 70
     1
102
RTVSPost2010Prop32
280
     0
102
RTVSPost2010PropOp32
 70
     1
102
RTVSPost2010Prop33
280
     0
102
RTVSPost2010PropOp33
 70
     1
102
RTVSPost2010Prop34
280
     0
102
RTVSPost2010PropOp34
 70
     1
102
RTVSPost2010Prop35
280
     0
102
RTVSPost2010PropOp35
 70
     1
102
RTVSPost2010Prop36
280
     0
102
RTVSPost2010PropOp36
 70
     1
102
RTVSPost2010Prop37
 90
       50
102
RTVSPost2010PropOp37
 70
     1
102
RTVSPost2010Prop38
140
0.0
102
RTVSPost2010PropOp38
 70
     1
102
RTVSPost2010Prop39
140
1.0
102
RTVSPost2010PropOp39
 70
     1
102
RTVSPost2010Prop40
 90
        0
102
RTVSPost2010PropOp40
 70
     1
102
RTVSPost2010Prop41ColorIndex
 90
       18
102
RTVSPost2010Prop41ColorRGB
 90
        0
102
RTVSPost2010PropOp41
 70
     1
102
RTVSPost2010Prop42
 90
       50
102
RTVSPost2010PropOp42
 70
     1
102
RTVSPost2010Prop43
 90
        3
102
RTVSPost2010PropOp43
 70
     1
102
RTVSPost2010Prop44ColorIndex
 90
        5
102
RTVSPost2010Prop44ColorRGB
 90
      255
102
RTVSPost2010PropOp44
 70
     1
102
RTVSPost2010Prop45
280
     0
102
RTVSPost2010PropOp45
 70
     1
102
RTVSPost2010Prop46
 90
       50
102
RTVSPost2010PropOp46
 70
     1
102
RTVSPost2010Prop47
 90
       50
102
RTVSPost2010PropOp47
 70
     1
102
RTVSPost2010Prop48
 90
       50
102
RTVSPost2010PropOp48
 70
     1
102
RTVSPost2010Prop49
280
     0
102
RTVSPost2010PropOp49
 70
     1
102
RTVSPost2010Prop50
 90
       50
102
RTVSPost2010PropOp50
 70
     1
102
RTVSPost2010Prop51ColorIndex
 90
      256
102
RTVSPost2010Prop51ColorRGB
 90
-16777216
102
RTVSPost2010PropOp51
 70
     0
102
RTVSPost2010Prop52
140
1.0
102
RTVSPost2010PropOp52
 70
     0
102
RTVSPost2010Prop53
 90
        2
102
RTVSPost2010PropOp53
 70
     1
102
RTVSPost2010Prop54
  1
strokes_ogs.tif
102
RTVSPost2010PropOp54
 70
     1
102
RTVSPost2010Prop55
280
     0
102
RTVSPost2010PropOp55
 70
     1
102
RTVSPost2010Prop56
140
1.0
102
RTVSPost2010PropOp56
 70
     1
102
RTVSPost2010Prop57
140
1.0
102
RTVSPost2010PropOp57
 70
     1
102
RTVSPropertyOp0
 70
     1
102
RTVSPropertyOp1
 70
     1
102
RTVSPropertyOp2
 70
     1
102
RTVSPropertyOp3
 70
     1
102
RTVSPropertyOp4
 70
     1
102
RTVSPropertyOp5
 70
     1
102
RTVSPropertyOp6
 70
     1
102
RTVSPropertyOp7
 70
     1
102
RTVSPropertyOp8
 70
     1
102
RTVSPropertyOp9
 70
     1
102
RTVSPropertyOp10
 70
     1
102
RTVSPropertyOp11
 70
     1
102
RTVSPropertyOp12
 70
     1
102
RTVSPropertyOp13
 70
     1
102
RTVSPropertyOp14
 70
     1
102
RTVSPropertyOp15
 70
     1
102
RTVSPropertyOp16
 70
     1
102
RTVSPropertyOp17
 70
     1
102
RTVSPropertyOp18
 70
     1
102
RTVSPropertyOp19
 70
     1
102
RTVSPropertyOp20
 70
     1
102
RTVSPropertyOp21
 70
     1
102
RTVSPropertyOp22
 70
     1
102
RTVSPropertyOp23
 70
     1
102
RTVSPropertyOp24
 70
     1
102
RTVSPropertyOp25
 70
     1
102
RTVSPropertyOp26
 70
     1
102
RTVSPropertyOp27
 70
     1
102
RTVSPropertyOp28
 70
     1
102
RTVSPropertyOp29
 70
     1
102
RTVSPropertyOp30
 70
     1
102
RTVSPropertyOp31
 70
     1
102
RTVSPropertyOp32
 70
     1
102
RTVSPropertyOp33
 70
     1
102
RTVSPropertyOp34
 70
     1
102
RTVSPropertyOp35
 70
     1
102
RTVSPropertyOp36
 70
     1
102
RTVSPropertyOp37
 70
     1
102
RTVSPropertyOp38
 70
     1
102
RTVSPropertyOp39
 70
     1
102
RTVSPropertyOp40
 70
     1
102
RTVSPropertyOp41
 70
     1
102
RTVSPropertyOp42
 70
     1
102
RTVSPropertyOp43
 70
     1
102
RTVSPropertyOp44
 70
     1
102
RTVSPropertyOp45
 70
     1
102
RTVSPropertyOp46
 70
     1
102
RTVSPropertyOp47
 70
     1
102
RTVSPropertyOp48
 70
     1
102
RTVSPropertyOp49
 70
     1
102
RTVSPropertyOp50
 70
     1
102
RTVSPropertyOp51
 70
     0
102
RTVSPropertyOp52
 70
     0
102
RTVSPropertyOp53
 70
     1
102
RTVSPropertyOp54
 70
     1
102
RTVSPropertyOp55
 70
     1
102
RTVSPropertyOp56
 70
     1
102
RTVSPropertyOp57
 70
     1
102
RTVSPropertyOp58
 70
     1
102
RTVSPropertyOp59
 70
     1
102
RTVSPropertyOp60
 70
     1
102
RTVSPropertyOp61
 70
     1
102
RTVSPropertyOp62
 70
     1
  0
XRECORD
  5
1B39
102
{ACAD_REACTORS
330
1B38
102
}
330
1B38
100
AcDbXrecord
280
     1
102
RTVSPost2010Prop28
280
     0
102
RTVSPost2010PropOp28
 70
     1
102
RTVSPost2010Prop29
280
     1
102
RTVSPost2010PropOp29
 70
     1
102
RTVSPost2010Prop30
280
     1
102
RTVSPost2010PropOp30
 70
     1
102
RTVSPost2010Prop31
280
     0
102
RTVSPost2010PropOp31
 70
     1
102
RTVSPost2010Prop32
280
     0
102
RTVSPost2010PropOp32
 70
     1
102
RTVSPost2010Prop33
280
     0
102
RTVSPost2010PropOp33
 70
     1
102
RTVSPost2010Prop34
280
     0
102
RTVSPost2010PropOp34
 70
     1
102
RTVSPost2010Prop35
280
     0
102
RTVSPost2010PropOp35
 70
     1
102
RTVSPost2010Prop36
280
     0
102
RTVSPost2010PropOp36
 70
     1
102
RTVSPost2010Prop37
 90
       50
102
RTVSPost2010PropOp37
 70
     1
102
RTVSPost2010Prop38
140
0.0
102
RTVSPost2010PropOp38
 70
     1
102
RTVSPost2010Prop39
140
1.0
102
RTVSPost2010PropOp39
 70
     1
102
RTVSPost2010Prop40
 90
        0
102
RTVSPost2010PropOp40
 70
     1
102
RTVSPost2010Prop41ColorIndex
 90
       18
102
RTVSPost2010Prop41ColorRGB
 90
        0
102
RTVSPost2010PropOp41
 70
     1
102
RTVSPost2010Prop42
 90
       50
102
RTVSPost2010PropOp42
 70
     1
102
RTVSPost2010Prop43
 90
        3
102
RTVSPost2010PropOp43
 70
     1
102
RTVSPost2010Prop44ColorIndex
 90
        5
102
RTVSPost2010Prop44ColorRGB
 90
      255
102
RTVSPost2010PropOp44
 70
     1
102
RTVSPost2010Prop45
280
     0
102
RTVSPost2010PropOp45
 70
     1
102
RTVSPost2010Prop46
 90
       50
102
RTVSPost2010PropOp46
 70
     1
102
RTVSPost2010Prop47
 90
       50
102
RTVSPost2010PropOp47
 70
     1
102
RTVSPost2010Prop48
 90
       50
102
RTVSPost2010PropOp48
 70
     1
102
RTVSPost2010Prop49
280
     0
102
RTVSPost2010PropOp49
 70
     1
102
RTVSPost2010Prop50
 90
       50
102
RTVSPost2010PropOp50
 70
     1
102
RTVSPost2010Prop51ColorIndex
 90
      256
102
RTVSPost2010Prop51ColorRGB
 90
-16777216
102
RTVSPost2010PropOp51
 70
     0
102
RTVSPost2010Prop52
140
1.0
102
RTVSPost2010PropOp52
 70
     0
102
RTVSPost2010Prop53
 90
        2
102
RTVSPost2010PropOp53
 70
     1
102
RTVSPost2010Prop54
  1
strokes_ogs.tif
102
RTVSPost2010PropOp54
 70
     1
102
RTVSPost2010Prop55
280
     0
102
RTVSPost2010PropOp55
 70
     1
102
RTVSPost2010Prop56
140
1.0
102
RTVSPost2010PropOp56
 70
     1
102
RTVSPost2010Prop57
140
1.0
102
RTVSPost2010PropOp57
 70
     1
102
RTVSPropertyOp0
 70
     1
102
RTVSPropertyOp1
 70
     1
102
RTVSPropertyOp2
 70
     1
102
RTVSPropertyOp3
 70
     1
102
RTVSPropertyOp4
 70
     1
102
RTVSPropertyOp5
 70
     1
102
RTVSPropertyOp6
 70
     1
102
RTVSPropertyOp7
 70
     1
102
RTVSPropertyOp8
 70
     1
102
RTVSPropertyOp9
 70
     1
102
RTVSPropertyOp10
 70
     1
102
RTVSPropertyOp11
 70
     1
102
RTVSPropertyOp12
 70
     1
102
RTVSPropertyOp13
 70
     1
102
RTVSPropertyOp14
 70
     1
102
RTVSPropertyOp15
 70
     1
102
RTVSPropertyOp16
 70
     1
102
RTVSPropertyOp17
 70
     1
102
RTVSPropertyOp18
 70
     1
102
RTVSPropertyOp19
 70
     1
102
RTVSPropertyOp20
 70
     1
102
RTVSPropertyOp21
 70
     1
102
RTVSPropertyOp22
 70
     1
102
RTVSPropertyOp23
 70
     1
102
RTVSPropertyOp24
 70
     1
102
RTVSPropertyOp25
 70
     1
102
RTVSPropertyOp26
 70
     1
102
RTVSPropertyOp27
 70
     1
102
RTVSPropertyOp28
 70
     1
102
RTVSPropertyOp29
 70
     1
102
RTVSPropertyOp30
 70
     1
102
RTVSPropertyOp31
 70
     1
102
RTVSPropertyOp32
 70
     1
102
RTVSPropertyOp33
 70
     1
102
RTVSPropertyOp34
 70
     1
102
RTVSPropertyOp35
 70
     1
102
RTVSPropertyOp36
 70
     1
102
RTVSPropertyOp37
 70
     1
102
RTVSPropertyOp38
 70
     1
102
RTVSPropertyOp39
 70
     1
102
RTVSPropertyOp40
 70
     1
102
RTVSPropertyOp41
 70
     1
102
RTVSPropertyOp42
 70
     1
102
RTVSPropertyOp43
 70
     1
102
RTVSPropertyOp44
 70
     1
102
RTVSPropertyOp45
 70
     1
102
RTVSPropertyOp46
 70
     1
102
RTVSPropertyOp47
 70
     1
102
RTVSPropertyOp48
 70
     1
102
RTVSPropertyOp49
 70
     1
102
RTVSPropertyOp50
 70
     1
102
RTVSPropertyOp51
 70
     0
102
RTVSPropertyOp52
 70
     0
102
RTVSPropertyOp53
 70
     1
102
RTVSPropertyOp54
 70
     1
102
RTVSPropertyOp55
 70
     1
102
RTVSPropertyOp56
 70
     1
102
RTVSPropertyOp57
 70
     1
102
RTVSPropertyOp58
 70
     1
102
RTVSPropertyOp59
 70
     1
102
RTVSPropertyOp60
 70
     1
102
RTVSPropertyOp61
 70
     1
102
RTVSPropertyOp62
 70
     1
  0
XRECORD
  5
1B37
102
{ACAD_REACTORS
330
1B36
102
}
330
1B36
100
AcDbXrecord
280
     1
102
RTVSPost2010Prop28
280
     0
102
RTVSPost2010PropOp28
 70
     1
102
RTVSPost2010Prop29
280
     1
102
RTVSPost2010PropOp29
 70
     1
102
RTVSPost2010Prop30
280
     1
102
RTVSPost2010PropOp30
 70
     1
102
RTVSPost2010Prop31
280
     0
102
RTVSPost2010PropOp31
 70
     1
102
RTVSPost2010Prop32
280
     0
102
RTVSPost2010PropOp32
 70
     1
102
RTVSPost2010Prop33
280
     0
102
RTVSPost2010PropOp33
 70
     1
102
RTVSPost2010Prop34
280
     0
102
RTVSPost2010PropOp34
 70
     1
102
RTVSPost2010Prop35
280
     0
102
RTVSPost2010PropOp35
 70
     1
102
RTVSPost2010Prop36
280
     0
102
RTVSPost2010PropOp36
 70
     1
102
RTVSPost2010Prop37
 90
       50
102
RTVSPost2010PropOp37
 70
     1
102
RTVSPost2010Prop38
140
0.0
102
RTVSPost2010PropOp38
 70
     1
102
RTVSPost2010Prop39
140
1.0
102
RTVSPost2010PropOp39
 70
     1
102
RTVSPost2010Prop40
 90
        0
102
RTVSPost2010PropOp40
 70
     1
102
RTVSPost2010Prop41ColorIndex
 90
       18
102
RTVSPost2010Prop41ColorRGB
 90
        0
102
RTVSPost2010PropOp41
 70
     1
102
RTVSPost2010Prop42
 90
       50
102
RTVSPost2010PropOp42
 70
     1
102
RTVSPost2010Prop43
 90
        3
102
RTVSPost2010PropOp43
 70
     1
102
RTVSPost2010Prop44ColorIndex
 90
        5
102
RTVSPost2010Prop44ColorRGB
 90
      255
102
RTVSPost2010PropOp44
 70
     1
102
RTVSPost2010Prop45
280
     0
102
RTVSPost2010PropOp45
 70
     1
102
RTVSPost2010Prop46
 90
       50
102
RTVSPost2010PropOp46
 70
     1
102
RTVSPost2010Prop47
 90
       50
102
RTVSPost2010PropOp47
 70
     1
102
RTVSPost2010Prop48
 90
       50
102
RTVSPost2010PropOp48
 70
     1
102
RTVSPost2010Prop49
280
     0
102
RTVSPost2010PropOp49
 70
     1
102
RTVSPost2010Prop50
 90
       50
102
RTVSPost2010PropOp50
 70
     1
102
RTVSPost2010Prop51ColorIndex
 90
      256
102
RTVSPost2010Prop51ColorRGB
 90
-16777216
102
RTVSPost2010PropOp51
 70
     0
102
RTVSPost2010Prop52
140
1.0
102
RTVSPost2010PropOp52
 70
     0
102
RTVSPost2010Prop53
 90
        2
102
RTVSPost2010PropOp53
 70
     1
102
RTVSPost2010Prop54
  1
strokes_ogs.tif
102
RTVSPost2010PropOp54
 70
     1
102
RTVSPost2010Prop55
280
     0
102
RTVSPost2010PropOp55
 70
     1
102
RTVSPost2010Prop56
140
1.0
102
RTVSPost2010PropOp56
 70
     1
102
RTVSPost2010Prop57
140
1.0
102
RTVSPost2010PropOp57
 70
     1
102
RTVSPropertyOp0
 70
     1
102
RTVSPropertyOp1
 70
     1
102
RTVSPropertyOp2
 70
     1
102
RTVSPropertyOp3
 70
     1
102
RTVSPropertyOp4
 70
     1
102
RTVSPropertyOp5
 70
     1
102
RTVSPropertyOp6
 70
     1
102
RTVSPropertyOp7
 70
     1
102
RTVSPropertyOp8
 70
     1
102
RTVSPropertyOp9
 70
     1
102
RTVSPropertyOp10
 70
     1
102
RTVSPropertyOp11
 70
     1
102
RTVSPropertyOp12
 70
     1
102
RTVSPropertyOp13
 70
     1
102
RTVSPropertyOp14
 70
     1
102
RTVSPropertyOp15
 70
     1
102
RTVSPropertyOp16
 70
     1
102
RTVSPropertyOp17
 70
     1
102
RTVSPropertyOp18
 70
     1
102
RTVSPropertyOp19
 70
     1
102
RTVSPropertyOp20
 70
     1
102
RTVSPropertyOp21
 70
     1
102
RTVSPropertyOp22
 70
     1
102
RTVSPropertyOp23
 70
     1
102
RTVSPropertyOp24
 70
     1
102
RTVSPropertyOp25
 70
     1
102
RTVSPropertyOp26
 70
     1
102
RTVSPropertyOp27
 70
     1
102
RTVSPropertyOp28
 70
     1
102
RTVSPropertyOp29
 70
     1
102
RTVSPropertyOp30
 70
     1
102
RTVSPropertyOp31
 70
     1
102
RTVSPropertyOp32
 70
     1
102
RTVSPropertyOp33
 70
     1
102
RTVSPropertyOp34
 70
     1
102
RTVSPropertyOp35
 70
     1
102
RTVSPropertyOp36
 70
     1
102
RTVSPropertyOp37
 70
     1
102
RTVSPropertyOp38
 70
     1
102
RTVSPropertyOp39
 70
     1
102
RTVSPropertyOp40
 70
     1
102
RTVSPropertyOp41
 70
     1
102
RTVSPropertyOp42
 70
     1
102
RTVSPropertyOp43
 70
     1
102
RTVSPropertyOp44
 70
     1
102
RTVSPropertyOp45
 70
     1
102
RTVSPropertyOp46
 70
     1
102
RTVSPropertyOp47
 70
     1
102
RTVSPropertyOp48
 70
     1
102
RTVSPropertyOp49
 70
     1
102
RTVSPropertyOp50
 70
     1
102
RTVSPropertyOp51
 70
     0
102
RTVSPropertyOp52
 70
     0
102
RTVSPropertyOp53
 70
     1
102
RTVSPropertyOp54
 70
     1
102
RTVSPropertyOp55
 70
     1
102
RTVSPropertyOp56
 70
     1
102
RTVSPropertyOp57
 70
     1
102
RTVSPropertyOp58
 70
     1
102
RTVSPropertyOp59
 70
     1
102
RTVSPropertyOp60
 70
     1
102
RTVSPropertyOp61
 70
     1
102
RTVSPropertyOp62
 70
     1
  0
XRECORD
  5
1B31
102
{ACAD_REACTORS
330
1B30
102
}
330
1B30
100
AcDbXrecord
280
     1
102
RTVSPost2010Prop28
280
     0
102
RTVSPost2010PropOp28
 70
     1
102
RTVSPost2010Prop29
280
     1
102
RTVSPost2010PropOp29
 70
     1
102
RTVSPost2010Prop30
280
     1
102
RTVSPost2010PropOp30
 70
     1
102
RTVSPost2010Prop31
280
     0
102
RTVSPost2010PropOp31
 70
     1
102
RTVSPost2010Prop32
280
     0
102
RTVSPost2010PropOp32
 70
     1
102
RTVSPost2010Prop33
280
     0
102
RTVSPost2010PropOp33
 70
     1
102
RTVSPost2010Prop34
280
     0
102
RTVSPost2010PropOp34
 70
     1
102
RTVSPost2010Prop35
280
     0
102
RTVSPost2010PropOp35
 70
     1
102
RTVSPost2010Prop36
280
     0
102
RTVSPost2010PropOp36
 70
     1
102
RTVSPost2010Prop37
 90
       50
102
RTVSPost2010PropOp37
 70
     1
102
RTVSPost2010Prop38
140
0.0
102
RTVSPost2010PropOp38
 70
     1
102
RTVSPost2010Prop39
140
1.0
102
RTVSPost2010PropOp39
 70
     1
102
RTVSPost2010Prop40
 90
        0
102
RTVSPost2010PropOp40
 70
     1
102
RTVSPost2010Prop41ColorIndex
 90
       18
102
RTVSPost2010Prop41ColorRGB
 90
        0
102
RTVSPost2010PropOp41
 70
     1
102
RTVSPost2010Prop42
 90
       50
102
RTVSPost2010PropOp42
 70
     1
102
RTVSPost2010Prop43
 90
        3
102
RTVSPost2010PropOp43
 70
     1
102
RTVSPost2010Prop44ColorIndex
 90
        5
102
RTVSPost2010Prop44ColorRGB
 90
      255
102
RTVSPost2010PropOp44
 70
     1
102
RTVSPost2010Prop45
280
     0
102
RTVSPost2010PropOp45
 70
     1
102
RTVSPost2010Prop46
 90
       50
102
RTVSPost2010PropOp46
 70
     1
102
RTVSPost2010Prop47
 90
       50
102
RTVSPost2010PropOp47
 70
     1
102
RTVSPost2010Prop48
 90
       50
102
RTVSPost2010PropOp48
 70
     1
102
RTVSPost2010Prop49
280
     0
102
RTVSPost2010PropOp49
 70
     1
102
RTVSPost2010Prop50
 90
       50
102
RTVSPost2010PropOp50
 70
     1
102
RTVSPost2010Prop51ColorIndex
 90
      256
102
RTVSPost2010Prop51ColorRGB
 90
-16777216
102
RTVSPost2010PropOp51
 70
     0
102
RTVSPost2010Prop52
140
1.0
102
RTVSPost2010PropOp52
 70
     0
102
RTVSPost2010Prop53
 90
        2
102
RTVSPost2010PropOp53
 70
     1
102
RTVSPost2010Prop54
  1
strokes_ogs.tif
102
RTVSPost2010PropOp54
 70
     1
102
RTVSPost2010Prop55
280
     0
102
RTVSPost2010PropOp55
 70
     1
102
RTVSPost2010Prop56
140
1.0
102
RTVSPost2010PropOp56
 70
     1
102
RTVSPost2010Prop57
140
1.0
102
RTVSPost2010PropOp57
 70
     1
102
RTVSPropertyOp0
 70
     1
102
RTVSPropertyOp1
 70
     1
102
RTVSPropertyOp2
 70
     1
102
RTVSPropertyOp3
 70
     1
102
RTVSPropertyOp4
 70
     1
102
RTVSPropertyOp5
 70
     1
102
RTVSPropertyOp6
 70
     1
102
RTVSPropertyOp7
 70
     1
102
RTVSPropertyOp8
 70
     1
102
RTVSPropertyOp9
 70
     1
102
RTVSPropertyOp10
 70
     1
102
RTVSPropertyOp11
 70
     1
102
RTVSPropertyOp12
 70
     1
102
RTVSPropertyOp13
 70
     1
102
RTVSPropertyOp14
 70
     1
102
RTVSPropertyOp15
 70
     1
102
RTVSPropertyOp16
 70
     1
102
RTVSPropertyOp17
 70
     1
102
RTVSPropertyOp18
 70
     1
102
RTVSPropertyOp19
 70
     1
102
RTVSPropertyOp20
 70
     1
102
RTVSPropertyOp21
 70
     1
102
RTVSPropertyOp22
 70
     1
102
RTVSPropertyOp23
 70
     1
102
RTVSPropertyOp24
 70
     1
102
RTVSPropertyOp25
 70
     1
102
RTVSPropertyOp26
 70
     1
102
RTVSPropertyOp27
 70
     1
102
RTVSPropertyOp28
 70
     1
102
RTVSPropertyOp29
 70
     1
102
RTVSPropertyOp30
 70
     1
102
RTVSPropertyOp31
 70
     1
102
RTVSPropertyOp32
 70
     1
102
RTVSPropertyOp33
 70
     1
102
RTVSPropertyOp34
 70
     1
102
RTVSPropertyOp35
 70
     1
102
RTVSPropertyOp36
 70
     1
102
RTVSPropertyOp37
 70
     1
102
RTVSPropertyOp38
 70
     1
102
RTVSPropertyOp39
 70
     1
102
RTVSPropertyOp40
 70
     1
102
RTVSPropertyOp41
 70
     1
102
RTVSPropertyOp42
 70
     1
102
RTVSPropertyOp43
 70
     1
102
RTVSPropertyOp44
 70
     1
102
RTVSPropertyOp45
 70
     1
102
RTVSPropertyOp46
 70
     1
102
RTVSPropertyOp47
 70
     1
102
RTVSPropertyOp48
 70
     1
102
RTVSPropertyOp49
 70
     1
102
RTVSPropertyOp50
 70
     1
102
RTVSPropertyOp51
 70
     0
102
RTVSPropertyOp52
 70
     0
102
RTVSPropertyOp53
 70
     1
102
RTVSPropertyOp54
 70
     1
102
RTVSPropertyOp55
 70
     1
102
RTVSPropertyOp56
 70
     1
102
RTVSPropertyOp57
 70
     1
102
RTVSPropertyOp58
 70
     1
102
RTVSPropertyOp59
 70
     1
102
RTVSPropertyOp60
 70
     1
102
RTVSPropertyOp61
 70
     1
102
RTVSPropertyOp62
 70
     1
  0
XRECORD
  5
1B33
102
{ACAD_REACTORS
330
1B32
102
}
330
1B32
100
AcDbXrecord
280
     1
102
RTVSPost2010Prop28
280
     0
102
RTVSPost2010PropOp28
 70
     1
102
RTVSPost2010Prop29
280
     1
102
RTVSPost2010PropOp29
 70
     1
102
RTVSPost2010Prop30
280
     1
102
RTVSPost2010PropOp30
 70
     1
102
RTVSPost2010Prop31
280
     0
102
RTVSPost2010PropOp31
 70
     1
102
RTVSPost2010Prop32
280
     0
102
RTVSPost2010PropOp32
 70
     1
102
RTVSPost2010Prop33
280
     0
102
RTVSPost2010PropOp33
 70
     1
102
RTVSPost2010Prop34
280
     0
102
RTVSPost2010PropOp34
 70
     1
102
RTVSPost2010Prop35
280
     0
102
RTVSPost2010PropOp35
 70
     1
102
RTVSPost2010Prop36
280
     0
102
RTVSPost2010PropOp36
 70
     1
102
RTVSPost2010Prop37
 90
       50
102
RTVSPost2010PropOp37
 70
     1
102
RTVSPost2010Prop38
140
0.0
102
RTVSPost2010PropOp38
 70
     1
102
RTVSPost2010Prop39
140
1.0
102
RTVSPost2010PropOp39
 70
     1
102
RTVSPost2010Prop40
 90
        0
102
RTVSPost2010PropOp40
 70
     1
102
RTVSPost2010Prop41ColorIndex
 90
       18
102
RTVSPost2010Prop41ColorRGB
 90
        0
102
RTVSPost2010PropOp41
 70
     1
102
RTVSPost2010Prop42
 90
       50
102
RTVSPost2010PropOp42
 70
     1
102
RTVSPost2010Prop43
 90
        3
102
RTVSPost2010PropOp43
 70
     1
102
RTVSPost2010Prop44ColorIndex
 90
        5
102
RTVSPost2010Prop44ColorRGB
 90
      255
102
RTVSPost2010PropOp44
 70
     1
102
RTVSPost2010Prop45
280
     0
102
RTVSPost2010PropOp45
 70
     1
102
RTVSPost2010Prop46
 90
       50
102
RTVSPost2010PropOp46
 70
     1
102
RTVSPost2010Prop47
 90
       50
102
RTVSPost2010PropOp47
 70
     1
102
RTVSPost2010Prop48
 90
       50
102
RTVSPost2010PropOp48
 70
     1
102
RTVSPost2010Prop49
280
     0
102
RTVSPost2010PropOp49
 70
     1
102
RTVSPost2010Prop50
 90
       50
102
RTVSPost2010PropOp50
 70
     1
102
RTVSPost2010Prop51ColorIndex
 90
      256
102
RTVSPost2010Prop51ColorRGB
 90
-16777216
102
RTVSPost2010PropOp51
 70
     0
102
RTVSPost2010Prop52
140
1.0
102
RTVSPost2010PropOp52
 70
     0
102
RTVSPost2010Prop53
 90
        2
102
RTVSPost2010PropOp53
 70
     1
102
RTVSPost2010Prop54
  1
strokes_ogs.tif
102
RTVSPost2010PropOp54
 70
     1
102
RTVSPost2010Prop55
280
     0
102
RTVSPost2010PropOp55
 70
     1
102
RTVSPost2010Prop56
140
1.0
102
RTVSPost2010PropOp56
 70
     1
102
RTVSPost2010Prop57
140
1.0
102
RTVSPost2010PropOp57
 70
     1
102
RTVSPropertyOp0
 70
     1
102
RTVSPropertyOp1
 70
     1
102
RTVSPropertyOp2
 70
     1
102
RTVSPropertyOp3
 70
     1
102
RTVSPropertyOp4
 70
     1
102
RTVSPropertyOp5
 70
     1
102
RTVSPropertyOp6
 70
     1
102
RTVSPropertyOp7
 70
     1
102
RTVSPropertyOp8
 70
     1
102
RTVSPropertyOp9
 70
     1
102
RTVSPropertyOp10
 70
     1
102
RTVSPropertyOp11
 70
     1
102
RTVSPropertyOp12
 70
     1
102
RTVSPropertyOp13
 70
     1
102
RTVSPropertyOp14
 70
     1
102
RTVSPropertyOp15
 70
     1
102
RTVSPropertyOp16
 70
     1
102
RTVSPropertyOp17
 70
     1
102
RTVSPropertyOp18
 70
     1
102
RTVSPropertyOp19
 70
     1
102
RTVSPropertyOp20
 70
     1
102
RTVSPropertyOp21
 70
     1
102
RTVSPropertyOp22
 70
     1
102
RTVSPropertyOp23
 70
     1
102
RTVSPropertyOp24
 70
     1
102
RTVSPropertyOp25
 70
     1
102
RTVSPropertyOp26
 70
     1
102
RTVSPropertyOp27
 70
     1
102
RTVSPropertyOp28
 70
     1
102
RTVSPropertyOp29
 70
     1
102
RTVSPropertyOp30
 70
     1
102
RTVSPropertyOp31
 70
     1
102
RTVSPropertyOp32
 70
     1
102
RTVSPropertyOp33
 70
     1
102
RTVSPropertyOp34
 70
     1
102
RTVSPropertyOp35
 70
     1
102
RTVSPropertyOp36
 70
     1
102
RTVSPropertyOp37
 70
     1
102
RTVSPropertyOp38
 70
     1
102
RTVSPropertyOp39
 70
     1
102
RTVSPropertyOp40
 70
     1
102
RTVSPropertyOp41
 70
     1
102
RTVSPropertyOp42
 70
     1
102
RTVSPropertyOp43
 70
     1
102
RTVSPropertyOp44
 70
     1
102
RTVSPropertyOp45
 70
     1
102
RTVSPropertyOp46
 70
     1
102
RTVSPropertyOp47
 70
     1
102
RTVSPropertyOp48
 70
     1
102
RTVSPropertyOp49
 70
     1
102
RTVSPropertyOp50
 70
     1
102
RTVSPropertyOp51
 70
     0
102
RTVSPropertyOp52
 70
     0
102
RTVSPropertyOp53
 70
     1
102
RTVSPropertyOp54
 70
     1
102
RTVSPropertyOp55
 70
     1
102
RTVSPropertyOp56
 70
     1
102
RTVSPropertyOp57
 70
     1
102
RTVSPropertyOp58
 70
     1
102
RTVSPropertyOp59
 70
     1
102
RTVSPropertyOp60
 70
     1
102
RTVSPropertyOp61
 70
     1
102
RTVSPropertyOp62
 70
     1
  0
XRECORD
  5
1B29
102
{ACAD_REACTORS
330
1B28
102
}
330
1B28
100
AcDbXrecord
280
     1
102
RTVSPost2010Prop28
280
     0
102
RTVSPost2010PropOp28
 70
     1
102
RTVSPost2010Prop29
280
     1
102
RTVSPost2010PropOp29
 70
     1
102
RTVSPost2010Prop30
280
     1
102
RTVSPost2010PropOp30
 70
     1
102
RTVSPost2010Prop31
280
     0
102
RTVSPost2010PropOp31
 70
     1
102
RTVSPost2010Prop32
280
     0
102
RTVSPost2010PropOp32
 70
     1
102
RTVSPost2010Prop33
280
     0
102
RTVSPost2010PropOp33
 70
     1
102
RTVSPost2010Prop34
280
     0
102
RTVSPost2010PropOp34
 70
     1
102
RTVSPost2010Prop35
280
     0
102
RTVSPost2010PropOp35
 70
     1
102
RTVSPost2010Prop36
280
     0
102
RTVSPost2010PropOp36
 70
     1
102
RTVSPost2010Prop37
 90
       50
102
RTVSPost2010PropOp37
 70
     1
102
RTVSPost2010Prop38
140
0.0
102
RTVSPost2010PropOp38
 70
     1
102
RTVSPost2010Prop39
140
1.0
102
RTVSPost2010PropOp39
 70
     1
102
RTVSPost2010Prop40
 90
        0
102
RTVSPost2010PropOp40
 70
     1
102
RTVSPost2010Prop41ColorIndex
 90
       18
102
RTVSPost2010Prop41ColorRGB
 90
        0
102
RTVSPost2010PropOp41
 70
     1
102
RTVSPost2010Prop42
 90
       50
102
RTVSPost2010PropOp42
 70
     1
102
RTVSPost2010Prop43
 90
        3
102
RTVSPost2010PropOp43
 70
     1
102
RTVSPost2010Prop44ColorIndex
 90
        5
102
RTVSPost2010Prop44ColorRGB
 90
      255
102
RTVSPost2010PropOp44
 70
     1
102
RTVSPost2010Prop45
280
     0
102
RTVSPost2010PropOp45
 70
     1
102
RTVSPost2010Prop46
 90
       50
102
RTVSPost2010PropOp46
 70
     1
102
RTVSPost2010Prop47
 90
       50
102
RTVSPost2010PropOp47
 70
     1
102
RTVSPost2010Prop48
 90
       50
102
RTVSPost2010PropOp48
 70
     1
102
RTVSPost2010Prop49
280
     0
102
RTVSPost2010PropOp49
 70
     1
102
RTVSPost2010Prop50
 90
       50
102
RTVSPost2010PropOp50
 70
     1
102
RTVSPost2010Prop51ColorIndex
 90
      256
102
RTVSPost2010Prop51ColorRGB
 90
-16777216
102
RTVSPost2010PropOp51
 70
     0
102
RTVSPost2010Prop52
140
1.0
102
RTVSPost2010PropOp52
 70
     0
102
RTVSPost2010Prop53
 90
        2
102
RTVSPost2010PropOp53
 70
     1
102
RTVSPost2010Prop54
  1
strokes_ogs.tif
102
RTVSPost2010PropOp54
 70
     1
102
RTVSPost2010Prop55
280
     0
102
RTVSPost2010PropOp55
 70
     1
102
RTVSPost2010Prop56
140
1.0
102
RTVSPost2010PropOp56
 70
     1
102
RTVSPost2010Prop57
140
1.0
102
RTVSPost2010PropOp57
 70
     1
102
RTVSPropertyOp0
 70
     1
102
RTVSPropertyOp1
 70
     1
102
RTVSPropertyOp2
 70
     1
102
RTVSPropertyOp3
 70
     1
102
RTVSPropertyOp4
 70
     1
102
RTVSPropertyOp5
 70
     1
102
RTVSPropertyOp6
 70
     1
102
RTVSPropertyOp7
 70
     1
102
RTVSPropertyOp8
 70
     1
102
RTVSPropertyOp9
 70
     1
102
RTVSPropertyOp10
 70
     1
102
RTVSPropertyOp11
 70
     1
102
RTVSPropertyOp12
 70
     1
102
RTVSPropertyOp13
 70
     1
102
RTVSPropertyOp14
 70
     1
102
RTVSPropertyOp15
 70
     1
102
RTVSPropertyOp16
 70
     1
102
RTVSPropertyOp17
 70
     1
102
RTVSPropertyOp18
 70
     1
102
RTVSPropertyOp19
 70
     1
102
RTVSPropertyOp20
 70
     1
102
RTVSPropertyOp21
 70
     1
102
RTVSPropertyOp22
 70
     1
102
RTVSPropertyOp23
 70
     1
102
RTVSPropertyOp24
 70
     1
102
RTVSPropertyOp25
 70
     1
102
RTVSPropertyOp26
 70
     1
102
RTVSPropertyOp27
 70
     1
102
RTVSPropertyOp28
 70
     1
102
RTVSPropertyOp29
 70
     1
102
RTVSPropertyOp30
 70
     1
102
RTVSPropertyOp31
 70
     1
102
RTVSPropertyOp32
 70
     1
102
RTVSPropertyOp33
 70
     1
102
RTVSPropertyOp34
 70
     1
102
RTVSPropertyOp35
 70
     1
102
RTVSPropertyOp36
 70
     1
102
RTVSPropertyOp37
 70
     1
102
RTVSPropertyOp38
 70
     1
102
RTVSPropertyOp39
 70
     1
102
RTVSPropertyOp40
 70
     1
102
RTVSPropertyOp41
 70
     1
102
RTVSPropertyOp42
 70
     1
102
RTVSPropertyOp43
 70
     1
102
RTVSPropertyOp44
 70
     1
102
RTVSPropertyOp45
 70
     1
102
RTVSPropertyOp46
 70
     1
102
RTVSPropertyOp47
 70
     1
102
RTVSPropertyOp48
 70
     1
102
RTVSPropertyOp49
 70
     1
102
RTVSPropertyOp50
 70
     1
102
RTVSPropertyOp51
 70
     0
102
RTVSPropertyOp52
 70
     0
102
RTVSPropertyOp53
 70
     1
102
RTVSPropertyOp54
 70
     1
102
RTVSPropertyOp55
 70
     1
102
RTVSPropertyOp56
 70
     1
102
RTVSPropertyOp57
 70
     1
102
RTVSPropertyOp58
 70
     1
102
RTVSPropertyOp59
 70
     1
102
RTVSPropertyOp60
 70
     1
102
RTVSPropertyOp61
 70
     1
102
RTVSPropertyOp62
 70
     1
  0
XRECORD
  5
1B1D
102
{ACAD_REACTORS
330
1B1C
102
}
330
1B1C
100
AcDbXrecord
280
     1
102
RTVSPost2010Prop28
280
     0
102
RTVSPost2010PropOp28
 70
     1
102
RTVSPost2010Prop29
280
     1
102
RTVSPost2010PropOp29
 70
     1
102
RTVSPost2010Prop30
280
     1
102
RTVSPost2010PropOp30
 70
     1
102
RTVSPost2010Prop31
280
     0
102
RTVSPost2010PropOp31
 70
     1
102
RTVSPost2010Prop32
280
     0
102
RTVSPost2010PropOp32
 70
     1
102
RTVSPost2010Prop33
280
     0
102
RTVSPost2010PropOp33
 70
     1
102
RTVSPost2010Prop34
280
     0
102
RTVSPost2010PropOp34
 70
     1
102
RTVSPost2010Prop35
280
     0
102
RTVSPost2010PropOp35
 70
     1
102
RTVSPost2010Prop36
280
     0
102
RTVSPost2010PropOp36
 70
     1
102
RTVSPost2010Prop37
 90
       50
102
RTVSPost2010PropOp37
 70
     1
102
RTVSPost2010Prop38
140
0.0
102
RTVSPost2010PropOp38
 70
     1
102
RTVSPost2010Prop39
140
1.0
102
RTVSPost2010PropOp39
 70
     1
102
RTVSPost2010Prop40
 90
        0
102
RTVSPost2010PropOp40
 70
     1
102
RTVSPost2010Prop41ColorIndex
 90
       18
102
RTVSPost2010Prop41ColorRGB
 90
        0
102
RTVSPost2010PropOp41
 70
     1
102
RTVSPost2010Prop42
 90
       50
102
RTVSPost2010PropOp42
 70
     1
102
RTVSPost2010Prop43
 90
        3
102
RTVSPost2010PropOp43
 70
     1
102
RTVSPost2010Prop44ColorIndex
 90
        5
102
RTVSPost2010Prop44ColorRGB
 90
      255
102
RTVSPost2010PropOp44
 70
     1
102
RTVSPost2010Prop45
280
     0
102
RTVSPost2010PropOp45
 70
     1
102
RTVSPost2010Prop46
 90
       50
102
RTVSPost2010PropOp46
 70
     1
102
RTVSPost2010Prop47
 90
       50
102
RTVSPost2010PropOp47
 70
     1
102
RTVSPost2010Prop48
 90
       50
102
RTVSPost2010PropOp48
 70
     1
102
RTVSPost2010Prop49
280
     0
102
RTVSPost2010PropOp49
 70
     1
102
RTVSPost2010Prop50
 90
       50
102
RTVSPost2010PropOp50
 70
     1
102
RTVSPost2010Prop51ColorIndex
 90
      256
102
RTVSPost2010Prop51ColorRGB
 90
-16777216
102
RTVSPost2010PropOp51
 70
     0
102
RTVSPost2010Prop52
140
1.0
102
RTVSPost2010PropOp52
 70
     0
102
RTVSPost2010Prop53
 90
        2
102
RTVSPost2010PropOp53
 70
     1
102
RTVSPost2010Prop54
  1
strokes_ogs.tif
102
RTVSPost2010PropOp54
 70
     1
102
RTVSPost2010Prop55
280
     0
102
RTVSPost2010PropOp55
 70
     1
102
RTVSPost2010Prop56
140
1.0
102
RTVSPost2010PropOp56
 70
     1
102
RTVSPost2010Prop57
140
1.0
102
RTVSPost2010PropOp57
 70
     1
102
RTVSPropertyOp0
 70
     1
102
RTVSPropertyOp1
 70
     1
102
RTVSPropertyOp2
 70
     1
102
RTVSPropertyOp3
 70
     1
102
RTVSPropertyOp4
 70
     1
102
RTVSPropertyOp5
 70
     1
102
RTVSPropertyOp6
 70
     1
102
RTVSPropertyOp7
 70
     1
102
RTVSPropertyOp8
 70
     1
102
RTVSPropertyOp9
 70
     1
102
RTVSPropertyOp10
 70
     1
102
RTVSPropertyOp11
 70
     1
102
RTVSPropertyOp12
 70
     1
102
RTVSPropertyOp13
 70
     1
102
RTVSPropertyOp14
 70
     1
102
RTVSPropertyOp15
 70
     1
102
RTVSPropertyOp16
 70
     1
102
RTVSPropertyOp17
 70
     1
102
RTVSPropertyOp18
 70
     1
102
RTVSPropertyOp19
 70
     1
102
RTVSPropertyOp20
 70
     1
102
RTVSPropertyOp21
 70
     1
102
RTVSPropertyOp22
 70
     1
102
RTVSPropertyOp23
 70
     1
102
RTVSPropertyOp24
 70
     1
102
RTVSPropertyOp25
 70
     1
102
RTVSPropertyOp26
 70
     1
102
RTVSPropertyOp27
 70
     1
102
RTVSPropertyOp28
 70
     1
102
RTVSPropertyOp29
 70
     1
102
RTVSPropertyOp30
 70
     1
102
RTVSPropertyOp31
 70
     1
102
RTVSPropertyOp32
 70
     1
102
RTVSPropertyOp33
 70
     1
102
RTVSPropertyOp34
 70
     1
102
RTVSPropertyOp35
 70
     1
102
RTVSPropertyOp36
 70
     1
102
RTVSPropertyOp37
 70
     1
102
RTVSPropertyOp38
 70
     1
102
RTVSPropertyOp39
 70
     1
102
RTVSPropertyOp40
 70
     1
102
RTVSPropertyOp41
 70
     1
102
RTVSPropertyOp42
 70
     1
102
RTVSPropertyOp43
 70
     1
102
RTVSPropertyOp44
 70
     1
102
RTVSPropertyOp45
 70
     1
102
RTVSPropertyOp46
 70
     1
102
RTVSPropertyOp47
 70
     1
102
RTVSPropertyOp48
 70
     1
102
RTVSPropertyOp49
 70
     1
102
RTVSPropertyOp50
 70
     1
102
RTVSPropertyOp51
 70
     0
102
RTVSPropertyOp52
 70
     0
102
RTVSPropertyOp53
 70
     1
102
RTVSPropertyOp54
 70
     1
102
RTVSPropertyOp55
 70
     1
102
RTVSPropertyOp56
 70
     1
102
RTVSPropertyOp57
 70
     1
102
RTVSPropertyOp58
 70
     1
102
RTVSPropertyOp59
 70
     1
102
RTVSPropertyOp60
 70
     1
102
RTVSPropertyOp61
 70
     1
102
RTVSPropertyOp62
 70
     1
  0
XRECORD
  5
1B35
102
{ACAD_REACTORS
330
1B34
102
}
330
1B34
100
AcDbXrecord
280
     1
102
RTVSPost2010Prop28
280
     0
102
RTVSPost2010PropOp28
 70
     1
102
RTVSPost2010Prop29
280
     1
102
RTVSPost2010PropOp29
 70
     1
102
RTVSPost2010Prop30
280
     1
102
RTVSPost2010PropOp30
 70
     1
102
RTVSPost2010Prop31
280
     0
102
RTVSPost2010PropOp31
 70
     1
102
RTVSPost2010Prop32
280
     0
102
RTVSPost2010PropOp32
 70
     1
102
RTVSPost2010Prop33
280
     0
102
RTVSPost2010PropOp33
 70
     1
102
RTVSPost2010Prop34
280
     0
102
RTVSPost2010PropOp34
 70
     1
102
RTVSPost2010Prop35
280
     0
102
RTVSPost2010PropOp35
 70
     1
102
RTVSPost2010Prop36
280
     0
102
RTVSPost2010PropOp36
 70
     1
102
RTVSPost2010Prop37
 90
       50
102
RTVSPost2010PropOp37
 70
     1
102
RTVSPost2010Prop38
140
0.0
102
RTVSPost2010PropOp38
 70
     1
102
RTVSPost2010Prop39
140
1.0
102
RTVSPost2010PropOp39
 70
     1
102
RTVSPost2010Prop40
 90
        0
102
RTVSPost2010PropOp40
 70
     1
102
RTVSPost2010Prop41ColorIndex
 90
       18
102
RTVSPost2010Prop41ColorRGB
 90
        0
102
RTVSPost2010PropOp41
 70
     1
102
RTVSPost2010Prop42
 90
       50
102
RTVSPost2010PropOp42
 70
     1
102
RTVSPost2010Prop43
 90
        3
102
RTVSPost2010PropOp43
 70
     1
102
RTVSPost2010Prop44ColorIndex
 90
        5
102
RTVSPost2010Prop44ColorRGB
 90
      255
102
RTVSPost2010PropOp44
 70
     1
102
RTVSPost2010Prop45
280
     0
102
RTVSPost2010PropOp45
 70
     1
102
RTVSPost2010Prop46
 90
       50
102
RTVSPost2010PropOp46
 70
     1
102
RTVSPost2010Prop47
 90
       50
102
RTVSPost2010PropOp47
 70
     1
102
RTVSPost2010Prop48
 90
       50
102
RTVSPost2010PropOp48
 70
     1
102
RTVSPost2010Prop49
280
     0
102
RTVSPost2010PropOp49
 70
     1
102
RTVSPost2010Prop50
 90
       50
102
RTVSPost2010PropOp50
 70
     1
102
RTVSPost2010Prop51ColorIndex
 90
      256
102
RTVSPost2010Prop51ColorRGB
 90
-16777216
102
RTVSPost2010PropOp51
 70
     0
102
RTVSPost2010Prop52
140
1.0
102
RTVSPost2010PropOp52
 70
     0
102
RTVSPost2010Prop53
 90
        2
102
RTVSPost2010PropOp53
 70
     1
102
RTVSPost2010Prop54
  1
strokes_ogs.tif
102
RTVSPost2010PropOp54
 70
     1
102
RTVSPost2010Prop55
280
     0
102
RTVSPost2010PropOp55
 70
     1
102
RTVSPost2010Prop56
140
1.0
102
RTVSPost2010PropOp56
 70
     1
102
RTVSPost2010Prop57
140
1.0
102
RTVSPost2010PropOp57
 70
     1
102
RTVSPropertyOp0
 70
     1
102
RTVSPropertyOp1
 70
     1
102
RTVSPropertyOp2
 70
     1
102
RTVSPropertyOp3
 70
     1
102
RTVSPropertyOp4
 70
     1
102
RTVSPropertyOp5
 70
     1
102
RTVSPropertyOp6
 70
     1
102
RTVSPropertyOp7
 70
     1
102
RTVSPropertyOp8
 70
     1
102
RTVSPropertyOp9
 70
     1
102
RTVSPropertyOp10
 70
     1
102
RTVSPropertyOp11
 70
     1
102
RTVSPropertyOp12
 70
     1
102
RTVSPropertyOp13
 70
     1
102
RTVSPropertyOp14
 70
     1
102
RTVSPropertyOp15
 70
     1
102
RTVSPropertyOp16
 70
     1
102
RTVSPropertyOp17
 70
     1
102
RTVSPropertyOp18
 70
     1
102
RTVSPropertyOp19
 70
     1
102
RTVSPropertyOp20
 70
     1
102
RTVSPropertyOp21
 70
     1
102
RTVSPropertyOp22
 70
     1
102
RTVSPropertyOp23
 70
     1
102
RTVSPropertyOp24
 70
     1
102
RTVSPropertyOp25
 70
     1
102
RTVSPropertyOp26
 70
     1
102
RTVSPropertyOp27
 70
     1
102
RTVSPropertyOp28
 70
     1
102
RTVSPropertyOp29
 70
     1
102
RTVSPropertyOp30
 70
     1
102
RTVSPropertyOp31
 70
     1
102
RTVSPropertyOp32
 70
     1
102
RTVSPropertyOp33
 70
     1
102
RTVSPropertyOp34
 70
     1
102
RTVSPropertyOp35
 70
     1
102
RTVSPropertyOp36
 70
     1
102
RTVSPropertyOp37
 70
     1
102
RTVSPropertyOp38
 70
     1
102
RTVSPropertyOp39
 70
     1
102
RTVSPropertyOp40
 70
     1
102
RTVSPropertyOp41
 70
     1
102
RTVSPropertyOp42
 70
     1
102
RTVSPropertyOp43
 70
     1
102
RTVSPropertyOp44
 70
     1
102
RTVSPropertyOp45
 70
     1
102
RTVSPropertyOp46
 70
     1
102
RTVSPropertyOp47
 70
     1
102
RTVSPropertyOp48
 70
     1
102
RTVSPropertyOp49
 70
     1
102
RTVSPropertyOp50
 70
     1
102
RTVSPropertyOp51
 70
     0
102
RTVSPropertyOp52
 70
     0
102
RTVSPropertyOp53
 70
     1
102
RTVSPropertyOp54
 70
     1
102
RTVSPropertyOp55
 70
     1
102
RTVSPropertyOp56
 70
     1
102
RTVSPropertyOp57
 70
     1
102
RTVSPropertyOp58
 70
     1
102
RTVSPropertyOp59
 70
     1
102
RTVSPropertyOp60
 70
     1
102
RTVSPropertyOp61
 70
     1
102
RTVSPropertyOp62
 70
     1
  0
ENDSEC
  0
EOF
