  0
SECTION
  2
HEADER
  9
$ACADVER
  1
AC1015
  9
$ACADMAINTVER
 70
    20
  9
$DWGCODEPAGE
  3
ANSI_932
  9
$INSBASE
 10
0.0
 20
0.0
 30
0.0
  9
$EXTMIN
 10
8.967373
 20
9.999999999999998
 30
0.0
  9
$EXTMAX
 10
364.209677
 20
235.5696829999998
 30
0.0
  9
$LIMMIN
 10
0.0
 20
0.0
  9
$LIMMAX
 10
396.0
 20
273.0
  9
$ORTHOMODE
 70
     1
  9
$REGENMODE
 70
     1
  9
$FILLMODE
 70
     1
  9
$QTEXTMODE
 70
     0
  9
$MIRRTEXT
 70
     1
  9
$LTSCALE
 40
20.0
  9
$ATTMODE
 70
     1
  9
$TEXTSIZE
 40
5.0
  9
$TRACEWID
 40
1.0
  9
$TEXTSTYLE
  7
STANDARD
  9
$CLAYER
  8
0
  9
$CELTYPE
  6
BYLAYER
  9
$CECOLOR
 62
   256
  9
$CELTSCALE
 40
1.0
  9
$DISPSILH
 70
     0
  9
$DIMSCALE
 40
1.0
  9
$DIMASZ
 40
3.0
  9
$DIMEXO
 40
1.0
  9
$DIMDLI
 40
10.0
  9
$DIMRND
 40
0.0
  9
$DIMDLE
 40
0.0
  9
$DIMEXE
 40
1.0
  9
$DIMTP
 40
0.0
  9
$DIMTM
 40
0.0
  9
$DIMTXT
 40
3.2
  9
$DIMCEN
 40
0.0
  9
$DIMTSZ
 40
0.0
  9
$DIMTOL
 70
     0
  9
$DIMLIM
 70
     0
  9
$DIMTIH
 70
     0
  9
$DIMTOH
 70
     0
  9
$DIMSE1
 70
     0
  9
$DIMSE2
 70
     0
  9
$DIMTAD
 70
     3
  9
$DIMZIN
 70
     8
  9
$DIMBLK
  1

  9
$DIMASO
 70
     1
  9
$DIMSHO
 70
     1
  9
$DIMPOST
  1

  9
$DIMAPOST
  1

  9
$DIMALT
 70
     0
  9
$DIMALTD
 70
     2
  9
$DIMALTF
 40
25.4
  9
$DIMLFAC
 40
1.0
  9
$DIMTOFL
 70
     1
  9
$DIMTVP
 40
0.0
  9
$DIMTIX
 70
     0
  9
$DIMSOXD
 70
     0
  9
$DIMSAH
 70
     1
  9
$DIMBLK1
  1

  9
$DIMBLK2
  1

  9
$DIMSTYLE
  2
STANDARD
  9
$DIMCLRD
 70
     0
  9
$DIMCLRE
 70
     0
  9
$DIMCLRT
 70
     0
  9
$DIMTFAC
 40
1.0
  9
$DIMGAP
 40
1.0
  9
$DIMJUST
 70
     0
  9
$DIMSD1
 70
     0
  9
$DIMSD2
 70
     0
  9
$DIMTOLJ
 70
     1
  9
$DIMTZIN
 70
     0
  9
$DIMALTZ
 70
     0
  9
$DIMALTTZ
 70
     0
  9
$DIMUPT
 70
     0
  9
$DIMDEC
 70
     4
  9
$DIMTDEC
 70
     4
  9
$DIMALTU
 70
     2
  9
$DIMALTTD
 70
     2
  9
$DIMTXSTY
  7
STANDARD
  9
$DIMAUNIT
 70
     0
  9
$DIMADEC
 70
     0
  9
$DIMALTRND
 40
0.0
  9
$DIMAZIN
 70
     0
  9
$DIMDSEP
 70
    46
  9
$DIMATFIT
 70
     3
  9
$DIMFRAC
 70
     0
  9
$DIMLDRBLK
  1

  9
$DIMLUNIT
 70
     2
  9
$DIMLWD
 70
    -2
  9
$DIMLWE
 70
    -2
  9
$DIMTMOVE
 70
     0
  9
$LUNITS
 70
     2
  9
$LUPREC
 70
     4
  9
$SKETCHINC
 40
1.0
  9
$FILLETRAD
 40
2.5
  9
$AUNITS
 70
     0
  9
$AUPREC
 70
     2
  9
$MENU
  1
.
  9
$ELEVATION
 40
0.0
  9
$PELEVATION
 40
0.0
  9
$THICKNESS
 40
0.0
  9
$LIMCHECK
 70
     0
  9
$CHAMFERA
 40
10.0
  9
$CHAMFERB
 40
10.0
  9
$CHAMFERC
 40
0.0
  9
$CHAMFERD
 40
0.0
  9
$SKPOLY
 70
     0
  9
$TDCREATE
 40
2450945.563098148
  9
$TDUCREATE
 40
2450945.188098148
  9
$TDUPDATE
 40
2457192.598963125
  9
$TDUUPDATE
 40
2457192.223963125
  9
$TDINDWG
 40
0.0000154630
  9
$TDUSRTIMER
 40
0.0000151620
  9
$USRTIMER
 70
     1
  9
$ANGBASE
 50
0.0
  9
$ANGDIR
 70
     0
  9
$PDMODE
 70
     0
  9
$PDSIZE
 40
0.0
  9
$PLINEWID
 40
0.0
  9
$SPLFRAME
 70
     0
  9
$SPLINETYPE
 70
     6
  9
$SPLINESEGS
 70
     8
  9
$HANDSEED
  5
9B6F
  9
$SURFTAB1
 70
     6
  9
$SURFTAB2
 70
     6
  9
$SURFTYPE
 70
     6
  9
$SURFU
 70
     6
  9
$SURFV
 70
     6
  9
$UCSBASE
  2

  9
$UCSNAME
  2

  9
$UCSORG
 10
0.0
 20
0.0
 30
0.0
  9
$UCSXDIR
 10
1.0
 20
0.0
 30
0.0
  9
$UCSYDIR
 10
0.0
 20
1.0
 30
0.0
  9
$UCSORTHOREF
  2

  9
$UCSORTHOVIEW
 70
     0
  9
$UCSORGTOP
 10
0.0
 20
0.0
 30
0.0
  9
$UCSORGBOTTOM
 10
0.0
 20
0.0
 30
0.0
  9
$UCSORGLEFT
 10
0.0
 20
0.0
 30
0.0
  9
$UCSORGRIGHT
 10
0.0
 20
0.0
 30
0.0
  9
$UCSORGFRONT
 10
0.0
 20
0.0
 30
0.0
  9
$UCSORGBACK
 10
0.0
 20
0.0
 30
0.0
  9
$PUCSBASE
  2

  9
$PUCSNAME
  2

  9
$PUCSORG
 10
0.0
 20
0.0
 30
0.0
  9
$PUCSXDIR
 10
1.0
 20
0.0
 30
0.0
  9
$PUCSYDIR
 10
0.0
 20
1.0
 30
0.0
  9
$PUCSORTHOREF
  2

  9
$PUCSORTHOVIEW
 70
     0
  9
$PUCSORGTOP
 10
0.0
 20
0.0
 30
0.0
  9
$PUCSORGBOTTOM
 10
0.0
 20
0.0
 30
0.0
  9
$PUCSORGLEFT
 10
0.0
 20
0.0
 30
0.0
  9
$PUCSORGRIGHT
 10
0.0
 20
0.0
 30
0.0
  9
$PUCSORGFRONT
 10
0.0
 20
0.0
 30
0.0
  9
$PUCSORGBACK
 10
0.0
 20
0.0
 30
0.0
  9
$USERI1
 70
     0
  9
$USERI2
 70
     0
  9
$USERI3
 70
     0
  9
$USERI4
 70
     0
  9
$USERI5
 70
     0
  9
$USERR1
 40
0.0
  9
$USERR2
 40
0.0
  9
$USERR3
 40
0.0
  9
$USERR4
 40
0.0
  9
$USERR5
 40
0.0
  9
$WORLDVIEW
 70
     1
  9
$SHADEDGE
 70
     3
  9
$SHADEDIF
 70
    70
  9
$TILEMODE
 70
     1
  9
$MAXACTVP
 70
    16
  9
$PINSBASE
 10
0.0
 20
0.0
 30
0.0
  9
$PLIMCHECK
 70
     0
  9
$PEXTMIN
 10
1.000000000000000E+20
 20
1.000000000000000E+20
 30
1.000000000000000E+20
  9
$PEXTMAX
 10
-1.000000000000000E+20
 20
-1.000000000000000E+20
 30
-1.000000000000000E+20
  9
$PLIMMIN
 10
0.0
 20
0.0
  9
$PLIMMAX
 10
420.0
 20
297.0
  9
$UNITMODE
 70
     0
  9
$VISRETAIN
 70
     0
  9
$PLINEGEN
 70
     0
  9
$PSLTSCALE
 70
     0
  9
$TREEDEPTH
 70
  3020
  9
$CMLSTYLE
  2
STANDARD
  9
$CMLJUST
 70
     0
  9
$CMLSCALE
 40
1.0
  9
$PROXYGRAPHICS
 70
     1
  9
$MEASUREMENT
 70
     0
  9
$CELWEIGHT
370
    -1
  9
$ENDCAPS
280
     0
  9
$JOINSTYLE
280
     0
  9
$LWDISPLAY
290
     0
  9
$INSUNITS
 70
     0
  9
$HYPERLINKBASE
  1

  9
$STYLESHEET
  1

  9
$XEDIT
290
     1
  9
$CEPSNTYPE
380
     0
  9
$PSTYLEMODE
290
     1
  9
$FINGERPRINTGUID
  2
{4A9DC696-1E57-4E4A-8C72-6A5F65A8C744}
  9
$VERSIONGUID
  2
{3EE51BAF-FAF8-4DCE-AD28-FD0439D6A027}
  9
$EXTNAMES
290
     1
  9
$PSVPSCALE
 40
0.0
  9
$OLESTARTUP
290
     0
  0
ENDSEC
  0
SECTION
  2
CLASSES
  0
CLASS
  1
ACDBDICTIONARYWDFLT
  2
AcDbDictionaryWithDefault
  3
ObjectDBX Classes
 90
        0
280
     0
281
     0
  0
CLASS
  1
ACDBPLACEHOLDER
  2
AcDbPlaceHolder
  3
ObjectDBX Classes
 90
        0
280
     0
281
     0
  0
CLASS
  1
LAYOUT
  2
AcDbLayout
  3
ObjectDBX Classes
 90
        0
280
     0
281
     0
  0
CLASS
  1
DICTIONARYVAR
  2
AcDbDictionaryVar
  3
ObjectDBX Classes
 90
        0
280
     0
281
     0
  0
CLASS
  1
MATERIAL
  2
AcDbMaterial
  3
ObjectDBX Classes
 90
     1153
280
     0
281
     0
  0
CLASS
  1
VISUALSTYLE
  2
AcDbVisualStyle
  3
ObjectDBX Classes
 90
     4095
280
     0
281
     0
  0
CLASS
  1
TABLESTYLE
  2
AcDbTableStyle
  3
ObjectDBX Classes
 90
     4095
280
     0
281
     0
  0
CLASS
  1
SCALE
  2
AcDbScale
  3
ObjectDBX Classes
 90
     1153
280
     0
281
     0
  0
CLASS
  1
MLEADERSTYLE
  2
AcDbMLeaderStyle
  3
ACDB_MLEADERSTYLE_CLASS
 90
     4095
280
     0
281
     0
  0
CLASS
  1
ACDBSECTIONVIEWSTYLE
  2
AcDbSectionViewStyle
  3
ObjectDBX Classes
 90
     1025
280
     0
281
     0
  0
CLASS
  1
ACDBDETAILVIEWSTYLE
  2
AcDbDetailViewStyle
  3
ObjectDBX Classes
 90
     1025
280
     0
281
     0
  0
CLASS
  1
CELLSTYLEMAP
  2
AcDbCellStyleMap
  3
ObjectDBX Classes
 90
     1152
280
     0
281
     0
  0
ENDSEC
  0
SECTION
  2
TABLES
  0
TABLE
  2
VPORT
  5
97CD
330
0
100
AcDbSymbolTable
 70
     1
  0
VPORT
  5
9AB8
330
97CD
100
AcDbSymbolTableRecord
100
AcDbViewportTableRecord
  2
*ACTIVE
 70
     0
 10
0.0
 20
0.0
 11
1.0
 21
1.0
 12
254.9221847650132
 22
122.7845999238599
 13
0.0
 23
0.0
 14
10.0
 24
10.0
 15
10.0
 25
10.0
 16
0.0
 26
0.0
 36
1.0
 17
0.0
 27
0.0
 37
0.0
 40
228.1138450688109
 41
1.899603698811096
 42
50.0
 43
0.0
 44
0.0
 50
0.0
 51
0.0
 71
     0
 72
   100
 73
     1
 74
     0
 75
     0
 76
     0
 77
     0
 78
     0
281
     0
 65
     1
110
0.0
120
0.0
130
0.0
111
1.0
121
0.0
131
0.0
112
0.0
122
1.0
132
0.0
 79
     0
146
0.0
1001
ACAD_NAV_VCDISPLAY
1070
     3
  0
ENDTAB
  0
TABLE
  2
LTYPE
  5
97CA
330
0
100
AcDbSymbolTable
 70
     4
  0
LTYPE
  5
97D8
330
97CA
100
AcDbSymbolTableRecord
100
AcDbLinetypeTableRecord
  2
BYBLOCK
 70
     0
  3

 72
    65
 73
     0
 40
0.0
  0
LTYPE
  5
97D9
330
97CA
100
AcDbSymbolTableRecord
100
AcDbLinetypeTableRecord
  2
BYLAYER
 70
     0
  3

 72
    65
 73
     0
 40
0.0
  0
LTYPE
  5
97DA
330
97CA
100
AcDbSymbolTableRecord
100
AcDbLinetypeTableRecord
  2
CONTINUOUS
 70
     0
  3
Solid line
 72
    65
 73
     0
 40
0.0
  0
LTYPE
  5
97E8
330
97CA
100
AcDbSymbolTableRecord
100
AcDbLinetypeTableRecord
  2
DASHED
 70
     0
  3
__ __ __ __ __ __ __ __ __ __ __ __ __ __ __ __
 72
    65
 73
     2
 40
0.75
 49
0.5
 74
     0
 49
-0.25
 74
     0
  0
LTYPE
  5
97E9
330
97CA
100
AcDbSymbolTableRecord
100
AcDbLinetypeTableRecord
  2
CENTER
 70
     0
  3
____ _ ____ _ ____ _ ____ _ ____ _ ____ _ ____ 
 72
    65
 73
     4
 40
2.0
 49
1.25
 74
     0
 49
-0.25
 74
     0
 49
0.25
 74
     0
 49
-0.25
 74
     0
  0
LTYPE
  5
97EA
330
97CA
100
AcDbSymbolTableRecord
100
AcDbLinetypeTableRecord
  2
PHANTOM
 70
     0
  3
______  __  __  ______  __  __  ______  __  __ 
 72
    65
 73
     6
 40
2.5
 49
1.25
 74
     0
 49
-0.25
 74
     0
 49
0.25
 74
     0
 49
-0.25
 74
     0
 49
0.25
 74
     0
 49
-0.25
 74
     0
  0
ENDTAB
  0
TABLE
  2
LAYER
  5
97C7
330
0
100
AcDbSymbolTable
 70
     8
  0
LAYER
  5
97D5
102
{ACAD_XDICTIONARY
360
9B13
102
}
330
97C7
100
AcDbSymbolTableRecord
100
AcDbLayerTableRecord
  2
0
 70
     0
 62
     7
  6
CONTINUOUS
370
    -3
390
9AC1
  0
LAYER
  5
97EB
102
{ACAD_XDICTIONARY
360
9B15
102
}
330
97C7
100
AcDbSymbolTableRecord
100
AcDbLayerTableRecord
  2
4
 70
     0
 62
     1
  6
CENTER
370
    -3
390
9AC1
  0
LAYER
  5
97EC
102
{ACAD_XDICTIONARY
360
9B17
102
}
330
97C7
100
AcDbSymbolTableRecord
100
AcDbLayerTableRecord
  2
5
 70
     0
 62
     6
  6
PHANTOM
370
    -3
390
9AC1
  0
LAYER
  5
97ED
102
{ACAD_XDICTIONARY
360
9B19
102
}
330
97C7
100
AcDbSymbolTableRecord
100
AcDbLayerTableRecord
  2
1
 70
     0
 62
     7
  6
CONTINUOUS
370
    -3
390
9AC1
  0
LAYER
  5
97EE
102
{ACAD_XDICTIONARY
360
9B1B
102
}
330
97C7
100
AcDbSymbolTableRecord
100
AcDbLayerTableRecord
  2
2
 70
     0
 62
     4
  6
CONTINUOUS
370
    -3
390
9AC1
  0
LAYER
  5
97EF
102
{ACAD_XDICTIONARY
360
9B1D
102
}
330
97C7
100
AcDbSymbolTableRecord
100
AcDbLayerTableRecord
  2
3
 70
     0
 62
     2
  6
DASHED
370
    -3
390
9AC1
  0
LAYER
  5
97F0
102
{ACAD_XDICTIONARY
360
9B1F
102
}
330
97C7
100
AcDbSymbolTableRecord
100
AcDbLayerTableRecord
  2
6
 70
     0
 62
     5
  6
CONTINUOUS
370
    -3
390
9AC1
  0
LAYER
  5
97F1
102
{ACAD_XDICTIONARY
360
9B21
102
}
330
97C7
100
AcDbSymbolTableRecord
100
AcDbLayerTableRecord
  2
7
 70
     0
 62
     3
  6
CONTINUOUS
370
    -3
390
9AC1
  0
ENDTAB
  0
TABLE
  2
STYLE
  5
97C8
330
0
100
AcDbSymbolTable
 70
     1
  0
STYLE
  5
97D6
330
97C8
100
AcDbSymbolTableRecord
100
AcDbTextStyleTableRecord
  2
STANDARD
 70
     0
 40
0.0
 41
1.0
 50
0.0
 71
     0
 42
5.0
  3
txt
  4

  0
ENDTAB
  0
TABLE
  2
VIEW
  5
97CB
330
0
100
AcDbSymbolTable
 70
     0
  0
ENDTAB
  0
TABLE
  2
UCS
  5
97CC
330
0
100
AcDbSymbolTable
 70
     0
  0
ENDTAB
  0
TABLE
  2
APPID
  5
97CE
330
0
100
AcDbSymbolTable
 70
     3
  0
APPID
  5
97D7
330
97CE
100
AcDbSymbolTableRecord
100
AcDbRegAppTableRecord
  2
ACAD
 70
     0
  0
APPID
  5
9B2D
330
97CE
100
AcDbSymbolTableRecord
100
AcDbRegAppTableRecord
  2
ACAD_NAV_VCDISPLAY
 70
     0
  0
APPID
  5
9B66
330
97CE
100
AcDbSymbolTableRecord
100
AcDbRegAppTableRecord
  2
ACAD_MLEADERVER
 70
     0
  0
ENDTAB
  0
TABLE
  2
DIMSTYLE
  5
97CF
330
0
100
AcDbSymbolTable
 70
     1
100
AcDbDimStyleTable
 71
     0
  0
DIMSTYLE
105
97F3
330
97CF
100
AcDbSymbolTableRecord
100
AcDbDimStyleTableRecord
  2
STANDARD
 70
     0
 41
3.0
 42
1.0
 43
10.0
 44
1.0
 73
     0
 74
     0
 77
     3
 78
     8
140
3.2
141
0.0
147
1.0
172
     1
173
     1
284
     8
285
     8
286
     8
340
97D6
  0
ENDTAB
  0
TABLE
  2
BLOCK_RECORD
  5
97C6
330
0
100
AcDbSymbolTable
 70
     0
  0
BLOCK_RECORD
  5
97E3
102
{ACAD_XDICTIONARY
360
9ABB
102
}
330
97C6
100
AcDbSymbolTableRecord
100
AcDbBlockTableRecord
  2
*MODEL_SPACE
340
9B0F
  0
BLOCK_RECORD
  5
97DF
102
{ACAD_XDICTIONARY
360
9AB9
102
}
330
97C6
100
AcDbSymbolTableRecord
100
AcDbBlockTableRecord
  2
*PAPER_SPACE
340
9B10
  0
ENDTAB
  0
ENDSEC
  0
SECTION
  2
BLOCKS
  0
BLOCK
  5
97E4
330
97E3
100
AcDbEntity
  8
0
100
AcDbBlockBegin
  2
*MODEL_SPACE
 70
     0
 10
0.0
 20
0.0
 30
0.0
  3
*MODEL_SPACE
  1

  0
ENDBLK
  5
97E5
330
97E3
100
AcDbEntity
  8
0
100
AcDbBlockEnd
  0
BLOCK
  5
97E0
330
97DF
100
AcDbEntity
 67
     1
  8
0
100
AcDbBlockBegin
  2
*PAPER_SPACE
 70
     0
 10
0.0
 20
0.0
 30
0.0
  3
*PAPER_SPACE
  1

  0
ENDBLK
  5
97E1
330
97DF
100
AcDbEntity
 67
     1
  8
0
100
AcDbBlockEnd
  0
ENDSEC
  0
SECTION
  2
ENTITIES
  0
TEXT
  5
97FB
330
97E3
100
AcDbEntity
  8
7
  6
Continuous
100
AcDbText
 10
10.0
 20
18.0
 30
0.0
 40
3.0
  1
TYPE No.TL-142-3
100
AcDbText
  0
TEXT
  5
97FC
330
97E3
100
AcDbEntity
  8
7
  6
Continuous
100
AcDbText
 10
10.0
 20
26.0
 30
0.0
 40
3.0
  1
CODE No.1486
100
AcDbText
  0
TEXT
  5
97FD
330
97E3
100
AcDbEntity
  8
1
  6
Continuous
100
AcDbText
 10
10.0
 20
10.0
 30
0.0
 40
1.399999999999999
  1
LAYER
100
AcDbText
  0
TEXT
  5
97FE
330
97E3
100
AcDbEntity
  8
1
  6
Continuous
100
AcDbText
 10
17.97951099999998
 20
10.04873699999998
 30
0.0
 40
1.399999999999999
  1
1
100
AcDbText
  0
TEXT
  5
97FF
330
97E3
100
AcDbEntity
  8
7
  6
Continuous
100
AcDbText
 10
29.97951099999999
 20
10.04873699999998
 30
0.0
 40
1.399999999999999
  1
7
100
AcDbText
  0
TEXT
  5
9800
330
97E3
100
AcDbEntity
  8
4
  6
CENTER
100
AcDbText
 10
23.97951099999999
 20
10.04873699999998
 30
0.0
 40
1.399999999999999
  1
4
100
AcDbText
  0
TEXT
  5
9801
330
97E3
100
AcDbEntity
  8
3
  6
DASHED
100
AcDbText
 10
21.979511
 20
10.04873699999998
 30
0.0
 40
1.399999999999999
  1
3
100
AcDbText
  0
TEXT
  5
9802
330
97E3
100
AcDbEntity
  8
2
  6
Continuous
100
AcDbText
 10
19.97951099999999
 20
10.04873699999998
 30
0.0
 40
1.399999999999999
  1
2
100
AcDbText
  0
TEXT
  5
9803
330
97E3
100
AcDbEntity
  8
6
  6
Continuous
100
AcDbText
 10
27.979511
 20
10.04873699999998
 30
0.0
 40
1.399999999999999
  1
6
100
AcDbText
  0
TEXT
  5
9804
330
97E3
100
AcDbEntity
  8
5
  6
PHANTOM
100
AcDbText
 10
25.97951099999999
 20
10.04873699999998
 30
0.0
 40
1.399999999999999
  1
5
100
AcDbText
  0
LINE
  5
9805
330
97E3
100
AcDbEntity
  8
1
  6
Continuous
100
AcDbLine
 10
56.718191
 20
221.0696829999999
 30
0.0
 11
35.218191
 21
221.0696829999999
 31
0.0
  0
LINE
  5
9806
330
97E3
100
AcDbEntity
  8
1
  6
Continuous
100
AcDbLine
 10
35.218191
 20
221.0696829999999
 30
0.0
 11
35.218191
 21
225.569683
 31
0.0
  0
LINE
  5
9807
330
97E3
100
AcDbEntity
  8
1
  6
Continuous
100
AcDbLine
 10
35.218191
 20
225.569683
 30
0.0
 11
39.71819099999999
 21
225.569683
 31
0.0
  0
LINE
  5
9808
330
97E3
100
AcDbEntity
  8
4
  6
CENTER
100
AcDbLine
 10
32.21819099999999
 20
108.1208149999998
 30
0.0
 11
32.21819099999999
 21
156.0867849999999
 31
0.0
  0
LINE
  5
9809
330
97E3
100
AcDbEntity
  8
4
  6
CENTER
100
AcDbLine
 10
30.218191
 20
147.8344689999999
 30
0.0
 11
30.218191
 21
141.8679459999999
 31
0.0
  0
LINE
  5
980A
330
97E3
100
AcDbEntity
  8
4
  6
CENTER
100
AcDbLine
 10
32.94136599999998
 20
144.9833179999999
 30
0.0
 11
27.40394
 21
144.9833179999999
 31
0.0
  0
LINE
  5
980B
330
97E3
100
AcDbEntity
  8
4
  6
CENTER
100
AcDbLine
 10
37.06401599999999
 20
144.9833179999999
 30
0.0
 11
42.462293
 21
144.9833179999999
 31
0.0
  0
LINE
  5
980C
330
97E3
100
AcDbEntity
  8
4
  6
CENTER
100
AcDbLine
 10
39.71819099999999
 20
147.8344689999999
 30
0.0
 11
39.71819099999999
 21
141.8679459999999
 31
0.0
  0
LINE
  5
980D
330
97E3
100
AcDbEntity
  8
4
  6
CENTER
100
AcDbLine
 10
34.88050199999999
 20
124.483318
 30
0.0
 11
29.492746
 21
124.483318
 31
0.0
  0
LINE
  5
980E
330
97E3
100
AcDbEntity
  8
4
  6
CENTER
100
AcDbLine
 10
14.82049899999998
 20
126.6833149999998
 30
0.0
 11
50.423178
 21
126.6833149999998
 31
0.0
  0
LINE
  5
980F
330
97E3
100
AcDbEntity
  8
1
  6
Continuous
100
AcDbLine
 10
42.718191
 20
115.6833149999998
 30
0.0
 11
39.14639499999999
 21
115.6833149999998
 31
0.0
  0
LINE
  5
9810
330
97E3
100
AcDbEntity
  8
1
  6
Continuous
100
AcDbLine
 10
45.218191
 20
118.1833149999998
 30
0.0
 11
45.218191
 21
152.483315
 31
0.0
  0
LINE
  5
9811
330
97E3
100
AcDbEntity
  8
1
  6
Continuous
100
AcDbLine
 10
45.218191
 20
152.483315
 30
0.0
 11
26.358896
 21
152.483315
 31
0.0
  0
LINE
  5
9812
330
97E3
100
AcDbEntity
  8
1
  6
Continuous
100
AcDbLine
 10
26.21819099999999
 20
152.483315
 30
0.0
 11
26.21819099999999
 21
151.183315
 31
0.0
  0
LINE
  5
9813
330
97E3
100
AcDbEntity
  8
1
  6
Continuous
100
AcDbLine
 10
23.718191
 20
151.183315
 30
0.0
 11
42.718191
 21
151.183315
 31
0.0
  0
LINE
  5
9814
330
97E3
100
AcDbEntity
  8
1
  6
Continuous
100
AcDbLine
 10
41.969858
 20
146.283321
 30
0.0
 11
41.969858
 21
143.683315
 31
0.0
  0
LINE
  5
9815
330
97E3
100
AcDbEntity
  8
1
  6
Continuous
100
AcDbLine
 10
41.969862
 20
143.683315
 30
0.0
 11
39.71819099999999
 21
142.3833119999999
 31
0.0
  0
LINE
  5
9816
330
97E3
100
AcDbEntity
  8
1
  6
Continuous
100
AcDbLine
 10
39.718195
 20
142.383327
 30
0.0
 11
37.466532
 21
143.683315
 31
0.0
  0
LINE
  5
9817
330
97E3
100
AcDbEntity
  8
1
  6
Continuous
100
AcDbLine
 10
37.46652799999999
 20
143.683315
 30
0.0
 11
37.46652799999999
 21
146.283321
 31
0.0
  0
LINE
  5
9818
330
97E3
100
AcDbEntity
  8
1
  6
Continuous
100
AcDbLine
 10
37.466524
 20
146.283321
 30
0.0
 11
39.718195
 21
147.583324
 31
0.0
  0
LINE
  5
9819
330
97E3
100
AcDbEntity
  8
1
  6
Continuous
100
AcDbLine
 10
39.718195
 20
147.583324
 30
0.0
 11
41.969858
 21
146.283321
 31
0.0
  0
LINE
  5
981A
330
97E3
100
AcDbEntity
  8
1
  6
Continuous
100
AcDbLine
 10
32.469858
 20
146.283321
 30
0.0
 11
32.469858
 21
143.683315
 31
0.0
  0
LINE
  5
981B
330
97E3
100
AcDbEntity
  8
1
  6
Continuous
100
AcDbLine
 10
32.469858
 20
143.683315
 30
0.0
 11
30.218191
 21
142.3833119999999
 31
0.0
  0
LINE
  5
981C
330
97E3
100
AcDbEntity
  8
1
  6
Continuous
100
AcDbLine
 10
30.218195
 20
142.383327
 30
0.0
 11
27.966532
 21
143.683315
 31
0.0
  0
LINE
  5
981D
330
97E3
100
AcDbEntity
  8
1
  6
Continuous
100
AcDbLine
 10
27.966528
 20
143.683315
 30
0.0
 11
27.966528
 21
146.283321
 31
0.0
  0
LINE
  5
981E
330
97E3
100
AcDbEntity
  8
1
  6
Continuous
100
AcDbLine
 10
27.966524
 20
146.283321
 30
0.0
 11
30.218191
 21
147.583324
 31
0.0
  0
LINE
  5
981F
330
97E3
100
AcDbEntity
  8
1
  6
Continuous
100
AcDbLine
 10
30.218195
 20
147.583324
 30
0.0
 11
32.469858
 21
146.283321
 31
0.0
  0
LINE
  5
9820
330
97E3
100
AcDbEntity
  8
1
  6
Continuous
100
AcDbLine
 10
32.818193
 20
129.7461199999999
 30
0.0
 11
32.818193
 21
125.2461199999999
 31
0.0
  0
LINE
  5
9821
330
97E3
100
AcDbEntity
  8
1
  6
Continuous
100
AcDbLine
 10
32.818193
 20
125.2461199999999
 30
0.0
 11
33.21819099999999
 21
125.2461199999999
 31
0.0
  0
LINE
  5
9822
330
97E3
100
AcDbEntity
  8
1
  6
Continuous
100
AcDbLine
 10
33.21819099999999
 20
125.2461199999999
 30
0.0
 11
33.21819099999999
 21
121.7843439999999
 31
0.0
  0
LINE
  5
9823
330
97E3
100
AcDbEntity
  8
1
  6
Continuous
100
AcDbLine
 10
31.21819099999999
 20
121.7843439999999
 30
0.0
 11
31.21819099999999
 21
125.2461199999999
 31
0.0
  0
LINE
  5
9824
330
97E3
100
AcDbEntity
  8
1
  6
Continuous
100
AcDbLine
 10
31.21819099999999
 20
125.2461199999999
 30
0.0
 11
31.618192
 21
125.2461199999999
 31
0.0
  0
LINE
  5
9825
330
97E3
100
AcDbEntity
  8
1
  6
Continuous
100
AcDbLine
 10
31.618192
 20
125.2461199999999
 30
0.0
 11
31.618192
 21
129.7461199999999
 31
0.0
  0
LINE
  5
9826
330
97E3
100
AcDbEntity
  8
1
  6
Continuous
100
AcDbLine
 10
31.618192
 20
129.7461199999999
 30
0.0
 11
32.818193
 21
129.7461199999999
 31
0.0
  0
LINE
  5
9827
330
97E3
100
AcDbEntity
  8
1
  6
Continuous
100
AcDbLine
 10
21.21819299999998
 20
134.1888689999999
 30
0.0
 11
21.21819299999998
 21
148.683315
 31
0.0
  0
LINE
  5
9828
330
97E3
100
AcDbEntity
  8
1
  6
Continuous
100
AcDbLine
 10
15.21819299999999
 20
218.5696829999999
 30
0.0
 11
16.718193
 21
218.5696829999999
 31
0.0
  0
LINE
  5
9829
330
97E3
100
AcDbEntity
  8
1
  6
Continuous
100
AcDbLine
 10
17.21819299999999
 20
219.0696829999999
 30
0.0
 11
17.21819299999999
 21
226.069683
 31
0.0
  0
LINE
  5
982A
330
97E3
100
AcDbEntity
  8
1
  6
Continuous
100
AcDbLine
 10
16.718193
 20
226.5696829999999
 30
0.0
 11
15.21819299999999
 21
226.5696829999999
 31
0.0
  0
LINE
  5
982B
330
97E3
100
AcDbEntity
  8
1
  6
Continuous
100
AcDbLine
 10
14.71819299999999
 20
226.069683
 30
0.0
 11
14.71819299999999
 21
219.0696829999999
 31
0.0
  0
LINE
  5
982C
330
97E3
100
AcDbEntity
  8
1
  6
Continuous
100
AcDbLine
 10
17.78855899999999
 20
210.5696829999998
 30
0.0
 11
22.051527
 21
210.5696829999998
 31
0.0
  0
LINE
  5
982D
330
97E3
100
AcDbEntity
  8
1
  6
Continuous
100
AcDbLine
 10
23.251531
 20
210.9696919999999
 30
0.0
 11
32.718195
 21
218.069683
 31
0.0
  0
LINE
  5
982E
330
97E3
100
AcDbEntity
  8
1
  6
Continuous
100
AcDbLine
 10
32.718191
 20
218.069683
 30
0.0
 11
53.925298
 21
218.069683
 31
0.0
  0
LINE
  5
982F
330
97E3
100
AcDbEntity
  8
1
  6
Continuous
100
AcDbLine
 10
53.925306
 20
218.069683
 30
0.0
 11
56.57174499999999
 21
220.7161209999999
 31
0.0
  0
LINE
  5
9830
330
97E3
100
AcDbEntity
  8
1
  6
Continuous
100
AcDbLine
 10
56.57175200000001
 20
221.4232289999999
 30
0.0
 11
53.87529499999999
 21
224.1196859999998
 31
0.0
  0
LINE
  5
9831
330
97E3
100
AcDbEntity
  8
1
  6
Continuous
100
AcDbLine
 10
41.21819099999997
 20
224.1196859999998
 30
0.0
 11
41.21819099999997
 21
224.7696799999999
 31
0.0
  0
LINE
  5
9832
330
97E3
100
AcDbEntity
  8
1
  6
Continuous
100
AcDbLine
 10
40.71819099999999
 20
225.2696799999999
 30
0.0
 11
39.71819099999999
 21
225.2696799999999
 31
0.0
  0
LINE
  5
9833
330
97E3
100
AcDbEntity
  8
1
  6
Continuous
100
AcDbLine
 10
39.71819099999999
 20
225.2696799999999
 30
0.0
 11
39.71819099999999
 21
226.5696829999999
 31
0.0
  0
LINE
  5
9834
330
97E3
100
AcDbEntity
  8
1
  6
Continuous
100
AcDbLine
 10
39.218191
 20
227.0696829999999
 30
0.0
 11
32.718191
 21
227.0696829999999
 31
0.0
  0
LINE
  5
9835
330
97E3
100
AcDbEntity
  8
1
  6
Continuous
100
AcDbLine
 10
32.718191
 20
227.0696829999999
 30
0.0
 11
23.25152399999999
 21
234.169689
 31
0.0
  0
LINE
  5
9836
330
97E3
100
AcDbEntity
  8
1
  6
Continuous
100
AcDbLine
 10
22.051527
 20
234.569683
 30
0.0
 11
17.78855899999999
 21
234.569683
 31
0.0
  0
LINE
  5
9837
330
97E3
100
AcDbEntity
  8
1
  6
Continuous
100
AcDbLine
 10
16.12445799999998
 20
233.6790879999998
 30
0.0
 11
12.054086
 21
227.5735279999999
 31
0.0
  0
LINE
  5
9838
330
97E3
100
AcDbEntity
  8
1
  6
Continuous
100
AcDbLine
 10
11.71819299999999
 20
226.464138
 30
0.0
 11
11.71819299999999
 21
218.6752279999998
 31
0.0
  0
LINE
  5
9839
330
97E3
100
AcDbEntity
  8
1
  6
Continuous
100
AcDbLine
 10
12.054096
 20
217.565822
 30
0.0
 11
16.12445799999998
 21
211.4602769999999
 31
0.0
  0
LINE
  5
983A
330
97E3
100
AcDbEntity
  8
1
  6
Continuous
100
AcDbLine
 10
128.227117
 20
113.6833149999998
 30
0.0
 11
128.227117
 21
139.6833149999999
 31
0.0
  0
LINE
  5
983B
330
97E3
100
AcDbEntity
  8
2
  6
Continuous
100
AcDbLine
 10
129.227117
 20
125.230358
 30
0.0
 11
137.2271169999999
 21
131.042217
 31
0.0
  0
LINE
  5
983C
330
97E3
100
AcDbEntity
  8
2
  6
Continuous
100
AcDbLine
 10
137.2271169999999
 20
122.3244129999998
 30
0.0
 11
129.227117
 21
128.1362719999999
 31
0.0
  0
LINE
  5
983D
330
97E3
100
AcDbEntity
  8
4
  6
CENTER
100
AcDbLine
 10
97.88837200000001
 20
222.5696829999999
 30
0.0
 11
109.5442179999998
 21
222.5696829999999
 31
0.0
  0
LINE
  5
983E
330
97E3
100
AcDbEntity
  8
1
  6
Continuous
100
AcDbLine
 10
143.4271139999999
 20
136.6833149999999
 30
0.0
 11
129.227117
 21
136.6833149999999
 31
0.0
  0
LINE
  5
983F
330
97E3
100
AcDbEntity
  8
1
  6
Continuous
100
AcDbLine
 10
137.2271169999999
 20
131.042217
 30
0.0
 11
129.227117
 21
131.042217
 31
0.0
  0
LINE
  5
9840
330
97E3
100
AcDbEntity
  8
1
  6
Continuous
100
AcDbLine
 10
101.740377
 20
234.569683
 30
0.0
 11
101.740377
 21
210.5696829999998
 31
0.0
  0
LINE
  5
9841
330
97E3
100
AcDbEntity
  8
1
  6
Continuous
100
AcDbLine
 10
105.740377
 20
210.5696829999998
 30
0.0
 11
105.740377
 21
234.569683
 31
0.0
  0
LINE
  5
9842
330
97E3
100
AcDbEntity
  8
1
  6
Continuous
100
AcDbLine
 10
129.227117
 20
139.6833149999999
 30
0.0
 11
129.227117
 21
113.6833149999998
 31
0.0
  0
LINE
  5
9843
330
97E3
100
AcDbEntity
  8
1
  6
Continuous
100
AcDbLine
 10
129.227117
 20
113.6833149999998
 30
0.0
 11
128.227117
 21
113.6833149999998
 31
0.0
  0
LINE
  5
9844
330
97E3
100
AcDbEntity
  8
1
  6
Continuous
100
AcDbLine
 10
128.227117
 20
113.6833149999998
 30
0.0
 11
124.2271169999998
 21
115.6833149999998
 31
0.0
  0
LINE
  5
9845
330
97E3
100
AcDbEntity
  8
1
  6
Continuous
100
AcDbLine
 10
124.2271169999998
 20
115.6833149999998
 30
0.0
 11
124.2271169999998
 21
137.6833149999999
 31
0.0
  0
LINE
  5
9846
330
97E3
100
AcDbEntity
  8
1
  6
Continuous
100
AcDbLine
 10
124.2271329999999
 20
137.6833149999999
 30
0.0
 11
128.227133
 21
139.6833149999999
 31
0.0
  0
LINE
  5
9847
330
97E3
100
AcDbEntity
  8
1
  6
Continuous
100
AcDbLine
 10
128.227117
 20
139.6833149999999
 30
0.0
 11
129.227117
 21
139.6833149999999
 31
0.0
  0
LINE
  5
9848
330
97E3
100
AcDbEntity
  8
1
  6
Continuous
100
AcDbLine
 10
137.2271169999999
 20
131.042217
 30
0.0
 11
137.2271169999999
 21
122.3244129999998
 31
0.0
  0
LINE
  5
9849
330
97E3
100
AcDbEntity
  8
1
  6
Continuous
100
AcDbLine
 10
137.2271169999999
 20
122.3244129999998
 30
0.0
 11
129.227117
 21
122.3244129999998
 31
0.0
  0
LINE
  5
984A
330
97E3
100
AcDbEntity
  8
1
  6
Continuous
100
AcDbLine
 10
129.227117
 20
116.6833149999998
 30
0.0
 11
143.4271139999999
 21
116.6833149999998
 31
0.0
  0
LINE
  5
984B
330
97E3
100
AcDbEntity
  8
1
  6
Continuous
100
AcDbLine
 10
167.153097
 20
43.096947
 30
0.0
 11
168.153097
 21
43.096947
 31
0.0
  0
LINE
  5
984C
330
97E3
100
AcDbEntity
  8
1
  6
Continuous
100
AcDbLine
 10
168.153097
 20
38.49694799999999
 30
0.0
 11
167.153097
 21
38.49694799999999
 31
0.0
  0
LINE
  5
984D
330
97E3
100
AcDbEntity
  8
1
  6
Continuous
100
AcDbLine
 10
167.153097
 20
40.303493
 30
0.0
 11
168.153097
 21
40.796947
 31
0.0
  0
LINE
  5
984E
330
97E3
100
AcDbEntity
  8
1
  6
Continuous
100
AcDbLine
 10
168.153097
 20
41.06249199999999
 30
0.0
 11
167.153097
 21
40.574566
 31
0.0
  0
LINE
  5
984F
330
97E3
100
AcDbEntity
  8
1
  6
Continuous
100
AcDbLine
 10
146.627126
 20
115.6833149999998
 30
0.0
 11
146.627126
 21
152.4833179999999
 31
0.0
  0
LINE
  5
9850
330
97E3
100
AcDbEntity
  8
1
  6
Continuous
100
AcDbLine
 10
168.153097
 20
43.096947
 30
0.0
 11
168.153097
 21
38.49694799999999
 31
0.0
  0
LINE
  5
9851
330
97E3
100
AcDbEntity
  8
1
  6
Continuous
100
AcDbLine
 10
128.227117
 20
209.569683
 30
0.0
 11
128.227117
 21
235.5696829999998
 31
0.0
  0
LINE
  5
9852
330
97E3
100
AcDbEntity
  8
4
  6
CENTER
100
AcDbLine
 10
171.7265679999998
 20
222.5696829999999
 30
0.0
 11
120.3431759999999
 21
222.5696829999999
 31
0.0
  0
LINE
  5
9853
330
97E3
100
AcDbEntity
  8
1
  6
Continuous
100
AcDbLine
 10
129.227117
 20
213.569683
 30
0.0
 11
137.2271169999999
 21
213.569683
 31
0.0
  0
LINE
  5
9854
330
97E3
100
AcDbEntity
  8
1
  6
Continuous
100
AcDbLine
 10
137.2271169999999
 20
213.569683
 30
0.0
 11
137.2271169999999
 21
212.5696829999998
 31
0.0
  0
LINE
  5
9855
330
97E3
100
AcDbEntity
  8
1
  6
Continuous
100
AcDbLine
 10
137.2271169999999
 20
232.569683
 30
0.0
 11
137.2271169999999
 21
231.5696829999999
 31
0.0
  0
LINE
  5
9856
330
97E3
100
AcDbEntity
  8
1
  6
Continuous
100
AcDbLine
 10
137.2271169999999
 20
231.5696829999999
 30
0.0
 11
129.227117
 21
231.5696829999999
 31
0.0
  0
LINE
  5
9857
330
97E3
100
AcDbEntity
  8
1
  6
Continuous
100
AcDbLine
 10
124.2271169999998
 20
211.569683
 30
0.0
 11
124.2271169999998
 21
233.5696829999999
 31
0.0
  0
LINE
  5
9858
330
97E3
100
AcDbEntity
  8
1
  6
Continuous
100
AcDbLine
 10
124.2271169999998
 20
233.5696829999999
 30
0.0
 11
128.227117
 21
235.5696829999998
 31
0.0
  0
LINE
  5
9859
330
97E3
100
AcDbEntity
  8
1
  6
Continuous
100
AcDbLine
 10
128.227117
 20
235.5696829999998
 30
0.0
 11
129.227117
 21
235.5696829999998
 31
0.0
  0
LINE
  5
985A
330
97E3
100
AcDbEntity
  8
1
  6
Continuous
100
AcDbLine
 10
129.227117
 20
235.5696829999998
 30
0.0
 11
129.227117
 21
209.569683
 31
0.0
  0
LINE
  5
985B
330
97E3
100
AcDbEntity
  8
1
  6
Continuous
100
AcDbLine
 10
129.227117
 20
209.569683
 30
0.0
 11
128.227117
 21
209.569683
 31
0.0
  0
LINE
  5
985C
330
97E3
100
AcDbEntity
  8
1
  6
Continuous
100
AcDbLine
 10
128.227117
 20
209.569668
 30
0.0
 11
124.2271169999998
 21
211.569668
 31
0.0
  0
LINE
  5
985D
330
97E3
100
AcDbEntity
  8
1
  6
Continuous
100
AcDbLine
 10
137.2271169999999
 20
212.5696829999998
 30
0.0
 11
144.627126
 21
212.5696829999998
 31
0.0
  0
LINE
  5
985E
330
97E3
100
AcDbEntity
  8
1
  6
Continuous
100
AcDbLine
 10
143.4271139999999
 20
232.569683
 30
0.0
 11
137.2271169999999
 21
232.569683
 31
0.0
  0
LINE
  5
985F
330
97E3
100
AcDbEntity
  8
1
  6
Continuous
100
AcDbLine
 10
143.4271139999999
 20
136.6833149999999
 30
0.0
 11
144.627126
 21
135.4833179999999
 31
0.0
  0
LINE
  5
9860
330
97E3
100
AcDbEntity
  8
1
  6
Continuous
100
AcDbLine
 10
143.4271139999999
 20
116.6833149999998
 30
0.0
 11
144.627111
 21
117.883312
 31
0.0
  0
LINE
  5
9861
330
97E3
100
AcDbEntity
  8
1
  6
Continuous
100
AcDbLine
 10
143.4271139999999
 20
136.6833149999999
 30
0.0
 11
143.4271139999999
 21
116.6833149999998
 31
0.0
  0
LINE
  5
9862
330
97E3
100
AcDbEntity
  8
1
  6
Continuous
100
AcDbLine
 10
143.4271139999999
 20
232.569683
 30
0.0
 11
144.627111
 21
231.3696859999998
 31
0.0
  0
LINE
  5
9863
330
97E3
100
AcDbEntity
  8
1
  6
Continuous
100
AcDbLine
 10
143.4271139999999
 20
232.569683
 30
0.0
 11
143.4271139999999
 21
227.0696829999999
 31
0.0
  0
LINE
  5
9864
330
97E3
100
AcDbEntity
  8
1
  6
Continuous
100
AcDbLine
 10
143.4271139999999
 20
222.069683
 30
0.0
 11
143.4271139999999
 21
217.569683
 31
0.0
  0
LINE
  5
9865
330
97E3
100
AcDbEntity
  8
4
  6
CENTER
100
AcDbLine
 10
58.96111099999998
 20
222.5696829999999
 30
0.0
 11
8.967373
 21
222.5696829999999
 31
0.0
  0
LINE
  5
9866
330
97E3
100
AcDbEntity
  8
1
  6
Continuous
100
AcDbLine
 10
41.21819099999997
 20
224.1196859999998
 30
0.0
 11
53.87529499999999
 21
224.1196859999998
 31
0.0
  0
LINE
  5
9867
330
97E3
100
AcDbEntity
  8
1
  6
Continuous
100
AcDbLine
 10
32.21819099999999
 20
140.5397299999999
 30
0.0
 11
30.54831500000001
 21
139.5756189999999
 31
0.0
  0
LINE
  5
9868
330
97E3
100
AcDbEntity
  8
1
  6
Continuous
100
AcDbLine
 10
44.21819099999999
 20
119.7551229999999
 30
0.0
 11
42.548315
 21
118.7910119999999
 31
0.0
  0
LINE
  5
9869
330
97E3
100
AcDbEntity
  8
1
  6
Continuous
100
AcDbLine
 10
20.218193
 20
119.7551229999999
 30
0.0
 11
20.218193
 21
121.683315
 31
0.0
  0
LINE
  5
986A
330
97E3
100
AcDbEntity
  8
1
  6
Continuous
100
AcDbLine
 10
44.21819099999999
 20
119.7551229999999
 30
0.0
 11
44.21819099999999
 21
121.683315
 31
0.0
  0
LINE
  5
986B
330
97E3
100
AcDbEntity
  8
1
  6
Continuous
100
AcDbLine
 10
32.218195
 20
112.826916
 30
0.0
 11
30.54832199999999
 21
113.7910119999999
 31
0.0
  0
LINE
  5
986C
330
97E3
100
AcDbEntity
  8
1
  6
Continuous
100
AcDbLine
 10
44.218195
 20
133.611522
 30
0.0
 11
42.548322
 21
134.5756189999999
 31
0.0
  0
LINE
  5
986D
330
97E3
100
AcDbEntity
  8
1
  6
Continuous
100
AcDbLine
 10
21.888067
 20
118.7910119999999
 30
0.0
 11
20.218195
 21
119.7551079999998
 31
0.0
  0
LINE
  5
986E
330
97E3
100
AcDbEntity
  8
1
  6
Continuous
100
AcDbLine
 10
33.88806300000001
 20
113.7910119999999
 30
0.0
 11
32.21819099999999
 21
112.826916
 31
0.0
  0
LINE
  5
986F
330
97E3
100
AcDbEntity
  8
1
  6
Continuous
100
AcDbLine
 10
44.21819099999999
 20
131.6833149999999
 30
0.0
 11
44.21819099999999
 21
133.611522
 31
0.0
  0
LINE
  5
9870
330
97E3
100
AcDbEntity
  8
1
  6
Continuous
100
AcDbLine
 10
33.88806699999999
 20
139.5756189999999
 30
0.0
 11
32.218195
 21
140.5397299999999
 31
0.0
  0
LINE
  5
9871
330
97E3
100
AcDbEntity
  8
1
  6
Continuous
100
AcDbLine
 10
21.88806299999999
 20
134.5756189999999
 30
0.0
 11
20.218193
 21
133.611522
 31
0.0
  0
LINE
  5
9872
330
97E3
100
AcDbEntity
  8
1
  6
Continuous
100
AcDbLine
 10
20.218193
 20
131.6833149999999
 30
0.0
 11
20.218193
 21
133.611522
 31
0.0
  0
LINE
  5
9873
330
97E3
100
AcDbEntity
  8
4
  6
CENTER
100
AcDbLine
 10
120.3431759999999
 20
126.6833149999998
 30
0.0
 11
172.8431149999999
 21
126.6833149999998
 31
0.0
  0
LINE
  5
9874
330
97E3
100
AcDbEntity
  8
4
  6
CENTER
100
AcDbLine
 10
97.86243200000001
 20
126.6833149999998
 30
0.0
 11
109.5442179999998
 21
126.6833149999998
 31
0.0
  0
LINE
  5
9875
330
97E3
100
AcDbEntity
  8
1
  6
Continuous
100
AcDbLine
 10
101.740377
 20
140.5397299999999
 30
0.0
 11
101.740377
 21
112.826916
 31
0.0
  0
LINE
  5
9876
330
97E3
100
AcDbEntity
  8
1
  6
Continuous
100
AcDbLine
 10
105.740377
 20
112.826916
 30
0.0
 11
105.740377
 21
140.5397299999999
 31
0.0
  0
LINE
  5
9877
330
97E3
100
AcDbEntity
  8
1
  6
Continuous
100
AcDbLine
 10
101.740377
 20
112.826916
 30
0.0
 11
105.740377
 21
112.826916
 31
0.0
  0
LINE
  5
9878
330
97E3
100
AcDbEntity
  8
1
  6
Continuous
100
AcDbLine
 10
101.740377
 20
140.5397299999999
 30
0.0
 11
105.740377
 21
140.5397299999999
 31
0.0
  0
LINE
  5
9879
330
97E3
100
AcDbEntity
  8
1
  6
Continuous
100
AcDbLine
 10
101.740377
 20
119.7551229999999
 30
0.0
 11
105.740377
 21
119.7551229999999
 31
0.0
  0
LINE
  5
987A
330
97E3
100
AcDbEntity
  8
1
  6
Continuous
100
AcDbLine
 10
101.740377
 20
133.611522
 30
0.0
 11
105.740377
 21
133.611522
 31
0.0
  0
LINE
  5
987B
330
97E3
100
AcDbEntity
  8
1
  6
Continuous
100
AcDbLine
 10
101.740377
 20
210.5696829999998
 30
0.0
 11
105.740377
 21
210.5696829999998
 31
0.0
  0
LINE
  5
987C
330
97E3
100
AcDbEntity
  8
1
  6
Continuous
100
AcDbLine
 10
101.740377
 20
234.569683
 30
0.0
 11
105.740377
 21
234.569683
 31
0.0
  0
LINE
  5
987D
330
97E3
100
AcDbEntity
  8
1
  6
Continuous
100
AcDbLine
 10
101.740377
 20
222.5696829999999
 30
0.0
 11
105.740377
 21
222.5696829999999
 31
0.0
  0
LINE
  5
987E
330
97E3
100
AcDbEntity
  8
2
  6
Continuous
100
AcDbLine
 10
143.9686179999999
 20
232.028179
 30
0.0
 11
137.2271169999999
 21
232.028179
 31
0.0
  0
LINE
  5
987F
330
97E3
100
AcDbEntity
  8
2
  6
Continuous
100
AcDbLine
 10
143.127126
 20
213.111187
 30
0.0
 11
137.2271169999999
 21
213.111187
 31
0.0
  0
LINE
  5
9880
330
97E3
100
AcDbEntity
  8
2
  6
Continuous
100
AcDbLine
 10
139.127126
 20
145.91682
 30
0.0
 11
143.127126
 21
145.91682
 31
0.0
  0
LINE
  5
9881
330
97E3
100
AcDbEntity
  8
2
  6
Continuous
100
AcDbLine
 10
139.127126
 20
144.0498159999999
 30
0.0
 11
143.127126
 21
144.0498159999999
 31
0.0
  0
LINE
  5
9882
330
97E3
100
AcDbEntity
  8
2
  6
Continuous
100
AcDbLine
 10
139.127111
 20
214.1361809999999
 30
0.0
 11
143.127126
 21
214.1361809999999
 31
0.0
  0
LINE
  5
9883
330
97E3
100
AcDbEntity
  8
2
  6
Continuous
100
AcDbLine
 10
139.127111
 20
216.003185
 30
0.0
 11
143.127126
 21
216.003185
 31
0.0
  0
LINE
  5
9884
330
97E3
100
AcDbEntity
  8
2
  6
Continuous
100
AcDbLine
 10
129.227117
 20
117.2248189999999
 30
0.0
 11
143.9686179999999
 21
117.2248189999999
 31
0.0
  0
LINE
  5
9885
330
97E3
100
AcDbEntity
  8
2
  6
Continuous
100
AcDbLine
 10
129.227117
 20
136.141811
 30
0.0
 11
143.9686179999999
 21
136.141811
 31
0.0
  0
LINE
  5
9886
330
97E3
100
AcDbEntity
  8
4
  6
CENTER
100
AcDbLine
 10
231.036047
 20
108.1208149999998
 30
0.0
 11
231.036047
 21
156.786785
 31
0.0
  0
LINE
  5
9887
330
97E3
100
AcDbEntity
  8
4
  6
CENTER
100
AcDbLine
 10
233.036047
 20
147.8344689999999
 30
0.0
 11
233.036047
 21
141.8679459999999
 31
0.0
  0
LINE
  5
9888
330
97E3
100
AcDbEntity
  8
4
  6
CENTER
100
AcDbLine
 10
230.312872
 20
144.9833179999999
 30
0.0
 11
235.850302
 21
144.9833179999999
 31
0.0
  0
LINE
  5
9889
330
97E3
100
AcDbEntity
  8
4
  6
CENTER
100
AcDbLine
 10
226.190222
 20
144.9833179999999
 30
0.0
 11
220.791952
 21
144.9833179999999
 31
0.0
  0
LINE
  5
988A
330
97E3
100
AcDbEntity
  8
4
  6
CENTER
100
AcDbLine
 10
223.536047
 20
147.8344689999999
 30
0.0
 11
223.536047
 21
141.8679459999999
 31
0.0
  0
LINE
  5
988B
330
97E3
100
AcDbEntity
  8
4
  6
CENTER
100
AcDbLine
 10
248.4337369999999
 20
126.6833149999998
 30
0.0
 11
212.83106
 21
126.6833149999998
 31
0.0
  0
LINE
  5
988C
330
97E3
100
AcDbEntity
  8
1
  6
Continuous
100
AcDbLine
 10
220.536047
 20
115.6833149999998
 30
0.0
 11
231.036047
 21
115.6833149999998
 31
0.0
  0
LINE
  5
988D
330
97E3
100
AcDbEntity
  8
1
  6
Continuous
100
AcDbLine
 10
218.036047
 20
118.1833149999998
 30
0.0
 11
218.036047
 21
152.483315
 31
0.0
  0
LINE
  5
988E
330
97E3
100
AcDbEntity
  8
1
  6
Continuous
100
AcDbLine
 10
218.036047
 20
152.483315
 30
0.0
 11
237.036047
 21
152.483315
 31
0.0
  0
LINE
  5
988F
330
97E3
100
AcDbEntity
  8
1
  6
Continuous
100
AcDbLine
 10
237.036047
 20
152.483315
 30
0.0
 11
237.036047
 21
147.9833179999999
 31
0.0
  0
LINE
  5
9890
330
97E3
100
AcDbEntity
  8
1
  6
Continuous
100
AcDbLine
 10
239.536047
 20
151.183315
 30
0.0
 11
237.036047
 21
151.183315
 31
0.0
  0
LINE
  5
9891
330
97E3
100
AcDbEntity
  8
1
  6
Continuous
100
AcDbLine
 10
242.036047
 20
126.6833149999998
 30
0.0
 11
242.036047
 21
148.683315
 31
0.0
  0
LINE
  5
9892
330
97E3
100
AcDbEntity
  8
1
  6
Continuous
100
AcDbLine
 10
243.036047
 20
119.7551229999999
 30
0.0
 11
243.036047
 21
133.611522
 31
0.0
  0
LINE
  5
9893
330
97E3
100
AcDbEntity
  8
1
  6
Continuous
100
AcDbLine
 10
231.0360619999999
 20
112.826916
 30
0.0
 11
243.036062
 21
119.7551229999999
 31
0.0
  0
LINE
  5
9894
330
97E3
100
AcDbEntity
  8
1
  6
Continuous
100
AcDbLine
 10
226.0886129999999
 20
115.6833149999998
 30
0.0
 11
231.0360619999999
 21
112.826916
 31
0.0
  0
LINE
  5
9895
330
97E3
100
AcDbEntity
  8
1
  6
Continuous
100
AcDbLine
 10
242.036047
 20
134.1888849999999
 30
0.0
 11
243.036062
 21
133.611522
 31
0.0
  0
LINE
  5
9896
330
97E3
100
AcDbEntity
  8
1
  6
Continuous
100
AcDbLine
 10
232.152166
 20
144.099438
 30
0.0
 11
233.9199429999999
 21
145.867199
 31
0.0
  0
LINE
  5
9897
330
97E3
100
AcDbEntity
  8
1
  6
Continuous
100
AcDbLine
 10
232.152166
 20
145.867199
 30
0.0
 11
233.9199429999999
 21
144.099438
 31
0.0
  0
LINE
  5
9898
330
97E3
100
AcDbEntity
  8
1
  6
Continuous
100
AcDbLine
 10
222.6521509999999
 20
144.099422
 30
0.0
 11
224.419927
 21
145.867199
 31
0.0
  0
LINE
  5
9899
330
97E3
100
AcDbEntity
  8
1
  6
Continuous
100
AcDbLine
 10
222.6521509999999
 20
145.867199
 30
0.0
 11
224.419927
 21
144.099422
 31
0.0
  0
LINE
  5
989A
330
97E3
100
AcDbEntity
  8
1
  6
Continuous
100
AcDbLine
 10
218.036047
 20
135.983318
 30
0.0
 11
224.036047
 21
135.983318
 31
0.0
  0
LINE
  5
989B
330
97E3
100
AcDbEntity
  8
1
  6
Continuous
100
AcDbLine
 10
218.036047
 20
147.9833179999999
 30
0.0
 11
238.036047
 21
147.9833179999999
 31
0.0
  0
LINE
  5
989C
330
97E3
100
AcDbEntity
  8
1
  6
Continuous
100
AcDbLine
 10
223.1521659999999
 20
125.7994339999999
 30
0.0
 11
224.919927
 21
127.5671959999999
 31
0.0
  0
LINE
  5
989D
330
97E3
100
AcDbEntity
  8
1
  6
Continuous
100
AcDbLine
 10
223.1521659999999
 20
127.5671959999999
 30
0.0
 11
224.919927
 21
125.7994339999999
 31
0.0
  0
LINE
  5
989E
330
97E3
100
AcDbEntity
  8
1
  6
Continuous
100
AcDbLine
 10
230.152166
 20
127.5671959999999
 30
0.0
 11
231.9199269999999
 21
125.7994339999999
 31
0.0
  0
LINE
  5
989F
330
97E3
100
AcDbEntity
  8
1
  6
Continuous
100
AcDbLine
 10
230.1521509999998
 20
125.7994339999999
 30
0.0
 11
231.9199269999999
 21
127.5671959999999
 31
0.0
  0
LINE
  5
98A0
330
97E3
100
AcDbEntity
  8
1
  6
Continuous
100
AcDbLine
 10
238.036047
 20
138.483318
 30
0.0
 11
238.036047
 21
147.9833179999999
 31
0.0
  0
LINE
  5
98A1
330
97E3
100
AcDbEntity
  8
1
  6
Continuous
100
AcDbLine
 10
220.036047
 20
151.3833119999999
 30
0.0
 11
220.536047
 21
151.3833119999999
 31
0.0
  0
LINE
  5
98A2
330
97E3
100
AcDbEntity
  8
1
  6
Continuous
100
AcDbLine
 10
220.036047
 20
147.9833179999999
 30
0.0
 11
220.036047
 21
151.3833119999999
 31
0.0
  0
LINE
  5
98A3
330
97E3
100
AcDbEntity
  8
1
  6
Continuous
100
AcDbLine
 10
220.536047
 20
147.9833179999999
 30
0.0
 11
220.536047
 21
151.3833119999999
 31
0.0
  0
LINE
  5
98A4
330
97E3
100
AcDbEntity
  8
1
  6
Continuous
100
AcDbLine
 10
228.736044
 20
147.9833179999999
 30
0.0
 11
228.736044
 21
151.3833119999999
 31
0.0
  0
LINE
  5
98A5
330
97E3
100
AcDbEntity
  8
1
  6
Continuous
100
AcDbLine
 10
229.2360439999999
 20
147.9833179999999
 30
0.0
 11
229.2360439999999
 21
151.3833119999999
 31
0.0
  0
LINE
  5
98A6
330
97E3
100
AcDbEntity
  8
1
  6
Continuous
100
AcDbLine
 10
235.4360559999999
 20
147.9833179999999
 30
0.0
 11
235.4360559999999
 21
151.3833119999999
 31
0.0
  0
LINE
  5
98A7
330
97E3
100
AcDbEntity
  8
1
  6
Continuous
100
AcDbLine
 10
235.936056
 20
147.9833179999999
 30
0.0
 11
235.936056
 21
151.3833119999999
 31
0.0
  0
LINE
  5
98A8
330
97E3
100
AcDbEntity
  8
1
  6
Continuous
100
AcDbLine
 10
228.736044
 20
151.3833119999999
 30
0.0
 11
229.2360439999999
 21
151.3833119999999
 31
0.0
  0
LINE
  5
98A9
330
97E3
100
AcDbEntity
  8
1
  6
Continuous
100
AcDbLine
 10
235.4360559999999
 20
151.3833119999999
 30
0.0
 11
235.936056
 21
151.3833119999999
 31
0.0
  0
LINE
  5
98AA
330
97E3
100
AcDbEntity
  8
1
  6
Continuous
100
AcDbLine
 10
228.036047
 20
138.483318
 30
0.0
 11
238.036047
 21
138.483318
 31
0.0
  0
LINE
  5
98AB
330
97E3
100
AcDbEntity
  8
1
  6
Continuous
100
AcDbLine
 10
228.036047
 20
137.4833179999999
 30
0.0
 11
228.036047
 21
138.483318
 31
0.0
  0
LINE
  5
98AC
330
97E3
100
AcDbEntity
  8
1
  6
Continuous
100
AcDbLine
 10
228.036047
 20
137.4833179999999
 30
0.0
 11
224.036047
 21
135.983318
 31
0.0
  0
LINE
  5
98AD
330
97E3
100
AcDbEntity
  8
1
  6
Continuous
100
AcDbLine
 10
224.8360499999999
 20
136.283321
 30
0.0
 11
240.4695639999999
 21
135.083324
 31
0.0
  0
LINE
  5
98AE
330
97E3
100
AcDbEntity
  8
1
  6
Continuous
100
AcDbLine
 10
224.1700339999999
 20
136.0335649999999
 30
0.0
 11
240.4465999999999
 21
134.784206
 31
0.0
  0
LINE
  5
98AF
330
97E3
100
AcDbEntity
  8
1
  6
Continuous
100
AcDbLine
 10
240.4695639999999
 20
135.083324
 30
0.0
 11
240.4465999999999
 21
134.784206
 31
0.0
  0
LINE
  5
98B0
330
97E3
100
AcDbEntity
  8
1
  6
Continuous
100
AcDbLine
 10
239.536047
 20
128.6833149999999
 30
0.0
 11
235.067175
 21
128.6833149999999
 31
0.0
  0
LINE
  5
98B1
330
97E3
100
AcDbEntity
  8
1
  6
Continuous
100
AcDbLine
 10
239.536047
 20
124.683315
 30
0.0
 11
235.067175
 21
124.683315
 31
0.0
  0
LINE
  5
98B2
330
97E3
100
AcDbEntity
  8
4
  6
CENTER
100
AcDbLine
 10
97.88837200000001
 20
40.79695499999997
 30
0.0
 11
109.5442179999998
 21
40.79695499999997
 31
0.0
  0
LINE
  5
98B3
330
97E3
100
AcDbEntity
  8
1
  6
Continuous
100
AcDbLine
 10
101.740377
 20
28.796955
 30
0.0
 11
101.740377
 21
52.79695499999998
 31
0.0
  0
LINE
  5
98B4
330
97E3
100
AcDbEntity
  8
1
  6
Continuous
100
AcDbLine
 10
105.740377
 20
52.79695499999998
 30
0.0
 11
105.740377
 21
28.796955
 31
0.0
  0
LINE
  5
98B5
330
97E3
100
AcDbEntity
  8
1
  6
Continuous
100
AcDbLine
 10
101.740377
 20
52.79695499999998
 30
0.0
 11
105.740377
 21
52.79695499999998
 31
0.0
  0
LINE
  5
98B6
330
97E3
100
AcDbEntity
  8
1
  6
Continuous
100
AcDbLine
 10
101.740377
 20
28.796955
 30
0.0
 11
105.740377
 21
28.796955
 31
0.0
  0
LINE
  5
98B7
330
97E3
100
AcDbEntity
  8
1
  6
Continuous
100
AcDbLine
 10
101.740377
 20
40.79695499999997
 30
0.0
 11
105.740377
 21
40.79695499999997
 31
0.0
  0
LINE
  5
98B8
330
97E3
100
AcDbEntity
  8
1
  6
Continuous
100
AcDbLine
 10
333.844991
 20
113.6833149999998
 30
0.0
 11
333.844991
 21
139.6833149999999
 31
0.0
  0
LINE
  5
98B9
330
97E3
100
AcDbEntity
  8
2
  6
Continuous
100
AcDbLine
 10
332.844961
 20
125.2303429999999
 30
0.0
 11
324.844991
 21
131.042217
 31
0.0
  0
LINE
  5
98BA
330
97E3
100
AcDbEntity
  8
2
  6
Continuous
100
AcDbLine
 10
324.844991
 20
122.3244129999998
 30
0.0
 11
332.8449909999998
 21
128.136287
 31
0.0
  0
LINE
  5
98BB
330
97E3
100
AcDbEntity
  8
1
  6
Continuous
100
AcDbLine
 10
318.6449789999999
 20
136.6833149999999
 30
0.0
 11
332.8449909999998
 21
136.6833149999999
 31
0.0
  0
LINE
  5
98BC
330
97E3
100
AcDbEntity
  8
1
  6
Continuous
100
AcDbLine
 10
324.844991
 20
131.042217
 30
0.0
 11
332.8449909999998
 21
131.042217
 31
0.0
  0
LINE
  5
98BD
330
97E3
100
AcDbEntity
  8
1
  6
Continuous
100
AcDbLine
 10
332.8449909999998
 20
139.6833149999999
 30
0.0
 11
332.8449909999998
 21
113.6833149999998
 31
0.0
  0
LINE
  5
98BE
330
97E3
100
AcDbEntity
  8
1
  6
Continuous
100
AcDbLine
 10
332.8449909999998
 20
113.6833149999998
 30
0.0
 11
333.844991
 21
113.6833149999998
 31
0.0
  0
LINE
  5
98BF
330
97E3
100
AcDbEntity
  8
1
  6
Continuous
100
AcDbLine
 10
333.844961
 20
113.6833149999998
 30
0.0
 11
337.844961
 21
115.6833149999998
 31
0.0
  0
LINE
  5
98C0
330
97E3
100
AcDbEntity
  8
1
  6
Continuous
100
AcDbLine
 10
337.844991
 20
115.6833149999998
 30
0.0
 11
337.844991
 21
137.6833149999999
 31
0.0
  0
LINE
  5
98C1
330
97E3
100
AcDbEntity
  8
1
  6
Continuous
100
AcDbLine
 10
337.844961
 20
137.6833149999999
 30
0.0
 11
333.844961
 21
139.6833149999999
 31
0.0
  0
LINE
  5
98C2
330
97E3
100
AcDbEntity
  8
1
  6
Continuous
100
AcDbLine
 10
333.844991
 20
139.6833149999999
 30
0.0
 11
332.8449909999998
 21
139.6833149999999
 31
0.0
  0
LINE
  5
98C3
330
97E3
100
AcDbEntity
  8
1
  6
Continuous
100
AcDbLine
 10
324.844991
 20
131.042217
 30
0.0
 11
324.844991
 21
122.3244129999998
 31
0.0
  0
LINE
  5
98C4
330
97E3
100
AcDbEntity
  8
1
  6
Continuous
100
AcDbLine
 10
324.844991
 20
122.3244129999998
 30
0.0
 11
332.8449909999998
 21
122.3244129999998
 31
0.0
  0
LINE
  5
98C5
330
97E3
100
AcDbEntity
  8
1
  6
Continuous
100
AcDbLine
 10
332.8449909999998
 20
116.6833149999998
 30
0.0
 11
318.6449789999999
 21
116.6833149999998
 31
0.0
  0
LINE
  5
98C6
330
97E3
100
AcDbEntity
  8
1
  6
Continuous
100
AcDbLine
 10
318.6449789999999
 20
136.68333
 30
0.0
 11
317.444967
 21
135.4833179999999
 31
0.0
  0
LINE
  5
98C7
330
97E3
100
AcDbEntity
  8
1
  6
Continuous
100
AcDbLine
 10
318.6449789999999
 20
116.6833149999998
 30
0.0
 11
317.444967
 21
117.883312
 31
0.0
  0
LINE
  5
98C8
330
97E3
100
AcDbEntity
  8
1
  6
Continuous
100
AcDbLine
 10
318.6449789999999
 20
136.6833149999999
 30
0.0
 11
318.6449789999999
 21
116.6833149999998
 31
0.0
  0
LINE
  5
98C9
330
97E3
100
AcDbEntity
  8
4
  6
CENTER
100
AcDbLine
 10
335.228933
 20
126.6833149999998
 30
0.0
 11
288.749349
 21
126.6833149999998
 31
0.0
  0
LINE
  5
98CA
330
97E3
100
AcDbEntity
  8
4
  6
CENTER
100
AcDbLine
 10
364.209677
 20
126.6833149999998
 30
0.0
 11
352.5278829999999
 21
126.6833149999998
 31
0.0
  0
LINE
  5
98CB
330
97E3
100
AcDbEntity
  8
1
  6
Continuous
100
AcDbLine
 10
360.3317159999999
 20
140.5397299999999
 30
0.0
 11
360.3317159999999
 21
112.826916
 31
0.0
  0
LINE
  5
98CC
330
97E3
100
AcDbEntity
  8
1
  6
Continuous
100
AcDbLine
 10
356.3317159999999
 20
112.826916
 30
0.0
 11
356.3317159999999
 21
140.5397299999999
 31
0.0
  0
LINE
  5
98CD
330
97E3
100
AcDbEntity
  8
1
  6
Continuous
100
AcDbLine
 10
360.3317159999999
 20
112.826916
 30
0.0
 11
356.3317159999999
 21
112.826916
 31
0.0
  0
LINE
  5
98CE
330
97E3
100
AcDbEntity
  8
1
  6
Continuous
100
AcDbLine
 10
360.3317159999999
 20
140.5397299999999
 30
0.0
 11
356.3317159999999
 21
140.5397299999999
 31
0.0
  0
LINE
  5
98CF
330
97E3
100
AcDbEntity
  8
1
  6
Continuous
100
AcDbLine
 10
360.3317159999999
 20
119.7551229999999
 30
0.0
 11
356.3317159999999
 21
119.7551229999999
 31
0.0
  0
LINE
  5
98D0
330
97E3
100
AcDbEntity
  8
1
  6
Continuous
100
AcDbLine
 10
360.3317159999999
 20
133.611522
 30
0.0
 11
356.3317159999999
 21
133.611522
 31
0.0
  0
LINE
  5
98D1
330
97E3
100
AcDbEntity
  8
2
  6
Continuous
100
AcDbLine
 10
332.8449909999998
 20
117.2248189999999
 30
0.0
 11
318.103475
 21
117.2248189999999
 31
0.0
  0
LINE
  5
98D2
330
97E3
100
AcDbEntity
  8
2
  6
Continuous
100
AcDbLine
 10
332.8449909999998
 20
136.141811
 30
0.0
 11
318.103475
 21
136.141811
 31
0.0
  0
LINE
  5
98D3
330
97E3
100
AcDbEntity
  8
4
  6
CENTER
100
AcDbLine
 10
172.638983
 20
144.9833179999999
 30
0.0
 11
135.897222
 21
144.9833179999999
 31
0.0
  0
LINE
  5
98D4
330
97E3
100
AcDbEntity
  8
1
  6
Continuous
100
AcDbLine
 10
171.127126
 20
145.261944
 30
0.0
 11
171.127126
 21
144.704677
 31
0.0
  0
LINE
  5
98D5
330
97E3
100
AcDbEntity
  8
1
  6
Continuous
100
AcDbLine
 10
169.5403039999999
 20
142.9833179999999
 30
0.0
 11
169.127126
 21
142.9833179999999
 31
0.0
  0
LINE
  5
98D6
330
97E3
100
AcDbEntity
  8
1
  6
Continuous
100
AcDbLine
 10
169.127126
 20
142.683315
 30
0.0
 11
168.127126
 21
142.683315
 31
0.0
  0
LINE
  5
98D7
330
97E3
100
AcDbEntity
  8
1
  6
Continuous
100
AcDbLine
 10
168.6271419999999
 20
144.5294
 30
0.0
 11
169.1271419999999
 21
144.9833179999999
 31
0.0
  0
LINE
  5
98D8
330
97E3
100
AcDbEntity
  8
1
  6
Continuous
100
AcDbLine
 10
169.127126
 20
145.2839929999998
 30
0.0
 11
168.627126
 21
144.872387
 31
0.0
  0
LINE
  5
98D9
330
97E3
100
AcDbEntity
  8
1
  6
Continuous
100
AcDbLine
 10
169.127126
 20
146.983318
 30
0.0
 11
169.5403039999999
 21
146.983318
 31
0.0
  0
LINE
  5
98DA
330
97E3
100
AcDbEntity
  8
1
  6
Continuous
100
AcDbLine
 10
169.127126
 20
147.283321
 30
0.0
 11
168.127126
 21
147.283321
 31
0.0
  0
LINE
  5
98DB
330
97E3
100
AcDbEntity
  8
1
  6
Continuous
100
AcDbLine
 10
168.127126
 20
135.983318
 30
0.0
 11
148.627126
 21
135.983318
 31
0.0
  0
LINE
  5
98DC
330
97E3
100
AcDbEntity
  8
1
  6
Continuous
100
AcDbLine
 10
148.627126
 20
135.983318
 30
0.0
 11
148.627126
 21
152.4833179999999
 31
0.0
  0
LINE
  5
98DD
330
97E3
100
AcDbEntity
  8
1
  6
Continuous
100
AcDbLine
 10
148.627126
 20
152.4833179999999
 30
0.0
 11
146.627126
 21
152.4833179999999
 31
0.0
  0
LINE
  5
98DE
330
97E3
100
AcDbEntity
  8
1
  6
Continuous
100
AcDbLine
 10
144.627126
 20
115.6833149999998
 30
0.0
 11
144.627126
 21
151.183315
 31
0.0
  0
LINE
  5
98DF
330
97E3
100
AcDbEntity
  8
1
  6
Continuous
100
AcDbLine
 10
144.627126
 20
151.183315
 30
0.0
 11
146.627126
 21
151.183315
 31
0.0
  0
LINE
  5
98E0
330
97E3
100
AcDbEntity
  8
1
  6
Continuous
100
AcDbLine
 10
147.627126
 20
152.4833179999999
 30
0.0
 11
147.627126
 21
137.983318
 31
0.0
  0
LINE
  5
98E1
330
97E3
100
AcDbEntity
  8
1
  6
Continuous
100
AcDbLine
 10
148.627126
 20
137.983318
 30
0.0
 11
146.627126
 21
137.983318
 31
0.0
  0
LINE
  5
98E2
330
97E3
100
AcDbEntity
  8
1
  6
Continuous
100
AcDbLine
 10
146.627126
 20
122.2333179999999
 30
0.0
 11
147.6530969999998
 21
122.2333179999999
 31
0.0
  0
LINE
  5
98E3
330
97E3
100
AcDbEntity
  8
1
  6
Continuous
100
AcDbLine
 10
147.6530969999998
 20
122.2333179999999
 30
0.0
 11
147.6530969999998
 21
123.733318
 31
0.0
  0
LINE
  5
98E4
330
97E3
100
AcDbEntity
  8
1
  6
Continuous
100
AcDbLine
 10
147.6530969999998
 20
123.733318
 30
0.0
 11
149.4531
 21
123.733318
 31
0.0
  0
LINE
  5
98E5
330
97E3
100
AcDbEntity
  8
1
  6
Continuous
100
AcDbLine
 10
149.4531
 20
123.733318
 30
0.0
 11
149.4531
 21
129.6333119999999
 31
0.0
  0
LINE
  5
98E6
330
97E3
100
AcDbEntity
  8
1
  6
Continuous
100
AcDbLine
 10
149.4531
 20
129.6333119999999
 30
0.0
 11
147.6530969999998
 21
129.6333119999999
 31
0.0
  0
LINE
  5
98E7
330
97E3
100
AcDbEntity
  8
1
  6
Continuous
100
AcDbLine
 10
147.6530969999998
 20
129.6333119999999
 30
0.0
 11
147.6530969999998
 21
131.133312
 31
0.0
  0
LINE
  5
98E8
330
97E3
100
AcDbEntity
  8
1
  6
Continuous
100
AcDbLine
 10
147.6530969999998
 20
131.133312
 30
0.0
 11
146.627126
 21
131.133312
 31
0.0
  0
LINE
  5
98E9
330
97E3
100
AcDbEntity
  8
1
  6
Continuous
100
AcDbLine
 10
147.6530969999998
 20
131.183315
 30
0.0
 11
167.153097
 21
131.183315
 31
0.0
  0
LINE
  5
98EA
330
97E3
100
AcDbEntity
  8
1
  6
Continuous
100
AcDbLine
 10
167.153097
 20
122.1833149999998
 30
0.0
 11
147.6530969999998
 21
122.1833149999998
 31
0.0
  0
LINE
  5
98EB
330
97E3
100
AcDbEntity
  8
1
  6
Continuous
100
AcDbLine
 10
148.1271259999998
 20
125.683315
 30
0.0
 11
148.1271259999998
 21
127.6833149999998
 31
0.0
  0
LINE
  5
98EC
330
97E3
100
AcDbEntity
  8
1
  6
Continuous
100
AcDbLine
 10
147.1271259999998
 20
128.6833149999999
 30
0.0
 11
146.627126
 21
128.6833149999999
 31
0.0
  0
LINE
  5
98ED
330
97E3
100
AcDbEntity
  8
1
  6
Continuous
100
AcDbLine
 10
146.627126
 20
124.683315
 30
0.0
 11
147.1271259999998
 21
124.683315
 31
0.0
  0
LINE
  5
98EE
330
97E3
100
AcDbEntity
  8
1
  6
Continuous
100
AcDbLine
 10
149.877126
 20
134.783321
 30
0.0
 11
149.877126
 21
135.983318
 31
0.0
  0
LINE
  5
98EF
330
97E3
100
AcDbEntity
  8
1
  6
Continuous
100
AcDbLine
 10
149.877126
 20
134.783321
 30
0.0
 11
153.877126
 21
134.783321
 31
0.0
  0
LINE
  5
98F0
330
97E3
100
AcDbEntity
  8
1
  6
Continuous
100
AcDbLine
 10
153.877126
 20
134.783321
 30
0.0
 11
153.877126
 21
135.983318
 31
0.0
  0
LINE
  5
98F1
330
97E3
100
AcDbEntity
  8
1
  6
Continuous
100
AcDbLine
 10
155.127126
 20
135.983318
 30
0.0
 11
155.127126
 21
151.527386
 31
0.0
  0
LINE
  5
98F2
330
97E3
100
AcDbEntity
  8
1
  6
Continuous
100
AcDbLine
 10
153.477133
 20
151.083309
 30
0.0
 11
153.477133
 21
147.9833179999999
 31
0.0
  0
LINE
  5
98F3
330
97E3
100
AcDbEntity
  8
1
  6
Continuous
100
AcDbLine
 10
154.9199429999999
 20
147.9833029999998
 30
0.0
 11
155.027136
 21
148.383327
 31
0.0
  0
LINE
  5
98F4
330
97E3
100
AcDbEntity
  8
1
  6
Continuous
100
AcDbLine
 10
155.02712
 20
148.3833119999999
 30
0.0
 11
155.227133
 21
148.3833119999999
 31
0.0
  0
LINE
  5
98F5
330
97E3
100
AcDbEntity
  8
1
  6
Continuous
100
AcDbLine
 10
155.227117
 20
148.3833119999999
 30
0.0
 11
155.334295
 21
147.9833179999999
 31
0.0
  0
LINE
  5
98F6
330
97E3
100
AcDbEntity
  8
1
  6
Continuous
100
AcDbLine
 10
163.27712
 20
147.9833179999999
 30
0.0
 11
163.27712
 21
151.083309
 31
0.0
  0
LINE
  5
98F7
330
97E3
100
AcDbEntity
  8
1
  6
Continuous
100
AcDbLine
 10
163.277136
 20
151.083324
 30
0.0
 11
163.577123
 21
151.3833119999999
 31
0.0
  0
LINE
  5
98F8
330
97E3
100
AcDbEntity
  8
1
  6
Continuous
100
AcDbLine
 10
163.5771389999999
 20
151.3833119999999
 30
0.0
 11
166.17713
 21
151.3833119999999
 31
0.0
  0
LINE
  5
98F9
330
97E3
100
AcDbEntity
  8
1
  6
Continuous
100
AcDbLine
 10
166.17713
 20
151.3833119999999
 30
0.0
 11
166.477133
 21
151.083309
 31
0.0
  0
LINE
  5
98FA
330
97E3
100
AcDbEntity
  8
1
  6
Continuous
100
AcDbLine
 10
166.477133
 20
151.083309
 30
0.0
 11
166.477133
 21
147.9833179999999
 31
0.0
  0
LINE
  5
98FB
330
97E3
100
AcDbEntity
  8
1
  6
Continuous
100
AcDbLine
 10
167.9199429999999
 20
147.9833179999999
 30
0.0
 11
168.0271199999999
 21
148.383327
 31
0.0
  0
LINE
  5
98FC
330
97E3
100
AcDbEntity
  8
1
  6
Continuous
100
AcDbLine
 10
168.0271199999999
 20
148.3833119999999
 30
0.0
 11
168.127126
 21
148.3833119999999
 31
0.0
  0
LINE
  5
98FD
330
97E3
100
AcDbEntity
  8
1
  6
Continuous
100
AcDbLine
 10
168.127126
 20
147.9833179999999
 30
0.0
 11
148.627126
 21
147.9833179999999
 31
0.0
  0
LINE
  5
98FE
330
97E3
100
AcDbEntity
  8
1
  6
Continuous
100
AcDbLine
 10
150.2771199999999
 20
147.9833179999999
 30
0.0
 11
150.2771199999999
 21
151.083309
 31
0.0
  0
LINE
  5
98FF
330
97E3
100
AcDbEntity
  8
1
  6
Continuous
100
AcDbLine
 10
150.2771199999999
 20
151.083309
 30
0.0
 11
150.577123
 21
151.3833119999999
 31
0.0
  0
LINE
  5
9900
330
97E3
100
AcDbEntity
  8
1
  6
Continuous
100
AcDbLine
 10
150.5771389999999
 20
151.3833119999999
 30
0.0
 11
153.17713
 21
151.3833119999999
 31
0.0
  0
LINE
  5
9901
330
97E3
100
AcDbEntity
  8
1
  6
Continuous
100
AcDbLine
 10
153.17713
 20
151.3833119999999
 30
0.0
 11
153.4771169999999
 21
151.083309
 31
0.0
  0
LINE
  5
9902
330
97E3
100
AcDbEntity
  8
1
  6
Continuous
100
AcDbLine
 10
168.127126
 20
148.3833119999999
 30
0.0
 11
168.127126
 21
135.983318
 31
0.0
  0
LINE
  5
9903
330
97E3
100
AcDbEntity
  8
1
  6
Continuous
100
AcDbLine
 10
166.8771259999998
 20
135.983318
 30
0.0
 11
166.8771259999998
 21
134.783321
 31
0.0
  0
LINE
  5
9904
330
97E3
100
AcDbEntity
  8
1
  6
Continuous
100
AcDbLine
 10
166.8771259999998
 20
134.783321
 30
0.0
 11
162.877126
 21
134.783321
 31
0.0
  0
LINE
  5
9905
330
97E3
100
AcDbEntity
  8
1
  6
Continuous
100
AcDbLine
 10
162.877126
 20
134.783321
 30
0.0
 11
162.877126
 21
135.983318
 31
0.0
  0
LINE
  5
9906
330
97E3
100
AcDbEntity
  8
1
  6
Continuous
100
AcDbLine
 10
167.153097
 20
128.983318
 30
0.0
 11
168.153097
 21
128.983318
 31
0.0
  0
LINE
  5
9907
330
97E3
100
AcDbEntity
  8
1
  6
Continuous
100
AcDbLine
 10
168.153097
 20
128.6833149999999
 30
0.0
 11
168.5662899999998
 21
128.6833149999999
 31
0.0
  0
LINE
  5
9908
330
97E3
100
AcDbEntity
  8
1
  6
Continuous
100
AcDbLine
 10
170.153097
 20
126.962047
 30
0.0
 11
170.153097
 21
126.168087
 31
0.0
  0
LINE
  5
9909
330
97E3
100
AcDbEntity
  8
1
  6
Continuous
100
AcDbLine
 10
168.5662899999998
 20
124.683315
 30
0.0
 11
168.153097
 21
124.683315
 31
0.0
  0
LINE
  5
990A
330
97E3
100
AcDbEntity
  8
1
  6
Continuous
100
AcDbLine
 10
168.153097
 20
124.383312
 30
0.0
 11
167.153097
 21
124.383312
 31
0.0
  0
LINE
  5
990B
330
97E3
100
AcDbEntity
  8
1
  6
Continuous
100
AcDbLine
 10
167.153097
 20
126.189861
 30
0.0
 11
168.153097
 21
126.6833
 31
0.0
  0
LINE
  5
990C
330
97E3
100
AcDbEntity
  8
1
  6
Continuous
100
AcDbLine
 10
168.153097
 20
126.9488639999998
 30
0.0
 11
167.153097
 21
126.460933
 31
0.0
  0
LINE
  5
990D
330
97E3
100
AcDbEntity
  8
1
  6
Continuous
100
AcDbLine
 10
144.627126
 20
147.483318
 30
0.0
 11
143.127126
 21
147.483318
 31
0.0
  0
LINE
  5
990E
330
97E3
100
AcDbEntity
  8
1
  6
Continuous
100
AcDbLine
 10
143.127126
 20
147.483318
 30
0.0
 11
143.127126
 21
142.483318
 31
0.0
  0
LINE
  5
990F
330
97E3
100
AcDbEntity
  8
1
  6
Continuous
100
AcDbLine
 10
143.127126
 20
142.483318
 30
0.0
 11
144.627126
 21
142.483318
 31
0.0
  0
LINE
  5
9910
330
97E3
100
AcDbEntity
  8
1
  6
Continuous
100
AcDbLine
 10
144.627126
 20
143.7333179999999
 30
0.0
 11
143.127126
 21
143.7333179999999
 31
0.0
  0
LINE
  5
9911
330
97E3
100
AcDbEntity
  8
1
  6
Continuous
100
AcDbLine
 10
143.127126
 20
143.833309
 30
0.0
 11
139.127126
 21
143.833309
 31
0.0
  0
LINE
  5
9912
330
97E3
100
AcDbEntity
  8
1
  6
Continuous
100
AcDbLine
 10
139.127126
 20
146.1333119999999
 30
0.0
 11
143.127126
 21
146.1333119999999
 31
0.0
  0
LINE
  5
9913
330
97E3
100
AcDbEntity
  8
1
  6
Continuous
100
AcDbLine
 10
143.127126
 20
146.2333179999999
 30
0.0
 11
144.627126
 21
146.2333179999999
 31
0.0
  0
LINE
  5
9914
330
97E3
100
AcDbEntity
  8
1
  6
Continuous
100
AcDbLine
 10
168.627126
 20
147.283321
 30
0.0
 11
168.627126
 21
142.683315
 31
0.0
  0
LINE
  5
9915
330
97E3
100
AcDbEntity
  8
1
  6
Continuous
100
AcDbLine
 10
169.127126
 20
142.683315
 30
0.0
 11
169.127126
 21
147.283321
 31
0.0
  0
LINE
  5
9916
330
97E3
100
AcDbEntity
  8
1
  6
Continuous
100
AcDbLine
 10
168.153097
 20
128.983318
 30
0.0
 11
168.153097
 21
124.383312
 31
0.0
  0
LINE
  5
9917
330
97E3
100
AcDbEntity
  8
1
  6
Continuous
100
AcDbLine
 10
167.153097
 20
122.1833149999998
 30
0.0
 11
167.153097
 21
131.183315
 31
0.0
  0
LINE
  5
9918
330
97E3
100
AcDbEntity
  8
1
  6
Continuous
100
AcDbLine
 10
146.627126
 20
115.6833149999998
 30
0.0
 11
144.627126
 21
115.6833149999998
 31
0.0
  0
LINE
  5
9919
330
97E3
100
AcDbEntity
  8
2
  6
Continuous
100
AcDbLine
 10
139.127111
 20
225.5031849999999
 30
0.0
 11
143.127126
 21
225.5031849999999
 31
0.0
  0
LINE
  5
991A
330
97E3
100
AcDbEntity
  8
2
  6
Continuous
100
AcDbLine
 10
139.127111
 20
223.636181
 30
0.0
 11
143.127126
 21
223.636181
 31
0.0
  0
LINE
  5
991B
330
97E3
100
AcDbEntity
  8
1
  6
Continuous
100
AcDbLine
 10
315.444967
 20
115.6833149999998
 30
0.0
 11
315.444967
 21
152.4833179999999
 31
0.0
  0
LINE
  5
991C
330
97E3
100
AcDbEntity
  8
2
  6
Continuous
100
AcDbLine
 10
322.944967
 20
145.91682
 30
0.0
 11
318.944967
 21
145.91682
 31
0.0
  0
LINE
  5
991D
330
97E3
100
AcDbEntity
  8
2
  6
Continuous
100
AcDbLine
 10
322.944967
 20
144.0498159999999
 30
0.0
 11
318.944967
 21
144.0498159999999
 31
0.0
  0
LINE
  5
991E
330
97E3
100
AcDbEntity
  8
4
  6
CENTER
100
AcDbLine
 10
289.455282
 20
144.9833179999999
 30
0.0
 11
324.8268029999999
 21
144.9833179999999
 31
0.0
  0
LINE
  5
991F
330
97E3
100
AcDbEntity
  8
1
  6
Continuous
100
AcDbLine
 10
290.944967
 20
145.261944
 30
0.0
 11
290.944967
 21
144.704677
 31
0.0
  0
LINE
  5
9920
330
97E3
100
AcDbEntity
  8
1
  6
Continuous
100
AcDbLine
 10
292.5317899999999
 20
142.9833179999999
 30
0.0
 11
292.944967
 21
142.9833179999999
 31
0.0
  0
LINE
  5
9921
330
97E3
100
AcDbEntity
  8
1
  6
Continuous
100
AcDbLine
 10
292.944967
 20
142.683315
 30
0.0
 11
293.944967
 21
142.683315
 31
0.0
  0
LINE
  5
9922
330
97E3
100
AcDbEntity
  8
1
  6
Continuous
100
AcDbLine
 10
293.444967
 20
145.4372519999998
 30
0.0
 11
292.944967
 21
144.983349
 31
0.0
  0
LINE
  5
9923
330
97E3
100
AcDbEntity
  8
1
  6
Continuous
100
AcDbLine
 10
292.944967
 20
144.6826439999999
 30
0.0
 11
293.444967
 21
145.0942499999999
 31
0.0
  0
LINE
  5
9924
330
97E3
100
AcDbEntity
  8
1
  6
Continuous
100
AcDbLine
 10
292.944967
 20
146.983318
 30
0.0
 11
292.5317899999999
 21
146.983318
 31
0.0
  0
LINE
  5
9925
330
97E3
100
AcDbEntity
  8
1
  6
Continuous
100
AcDbLine
 10
292.944967
 20
147.283321
 30
0.0
 11
293.944967
 21
147.283321
 31
0.0
  0
LINE
  5
9926
330
97E3
100
AcDbEntity
  8
1
  6
Continuous
100
AcDbLine
 10
313.444967
 20
135.983318
 30
0.0
 11
313.444967
 21
152.4833179999999
 31
0.0
  0
LINE
  5
9927
330
97E3
100
AcDbEntity
  8
1
  6
Continuous
100
AcDbLine
 10
313.444967
 20
152.4833179999999
 30
0.0
 11
315.444967
 21
152.4833179999999
 31
0.0
  0
LINE
  5
9928
330
97E3
100
AcDbEntity
  8
1
  6
Continuous
100
AcDbLine
 10
317.444967
 20
115.6833149999998
 30
0.0
 11
317.444967
 21
151.183315
 31
0.0
  0
LINE
  5
9929
330
97E3
100
AcDbEntity
  8
1
  6
Continuous
100
AcDbLine
 10
317.444967
 20
151.183315
 30
0.0
 11
315.444967
 21
151.183315
 31
0.0
  0
LINE
  5
992A
330
97E3
100
AcDbEntity
  8
1
  6
Continuous
100
AcDbLine
 10
314.444967
 20
152.4833179999999
 30
0.0
 11
314.444967
 21
137.983318
 31
0.0
  0
LINE
  5
992B
330
97E3
100
AcDbEntity
  8
1
  6
Continuous
100
AcDbLine
 10
306.944967
 20
135.983318
 30
0.0
 11
306.944967
 21
151.527386
 31
0.0
  0
LINE
  5
992C
330
97E3
100
AcDbEntity
  8
1
  6
Continuous
100
AcDbLine
 10
308.594961
 20
151.083309
 30
0.0
 11
308.594961
 21
147.9833179999999
 31
0.0
  0
LINE
  5
992D
330
97E3
100
AcDbEntity
  8
1
  6
Continuous
100
AcDbLine
 10
307.15212
 20
147.9833179999999
 30
0.0
 11
307.044943
 21
148.3833119999999
 31
0.0
  0
LINE
  5
992E
330
97E3
100
AcDbEntity
  8
1
  6
Continuous
100
AcDbLine
 10
307.0449729999999
 20
148.3833119999999
 30
0.0
 11
306.844961
 21
148.3833119999999
 31
0.0
  0
LINE
  5
992F
330
97E3
100
AcDbEntity
  8
1
  6
Continuous
100
AcDbLine
 10
306.844961
 20
148.383327
 30
0.0
 11
306.7377829999998
 21
147.9833179999999
 31
0.0
  0
LINE
  5
9930
330
97E3
100
AcDbEntity
  8
1
  6
Continuous
100
AcDbLine
 10
298.794973
 20
147.9833179999999
 30
0.0
 11
298.794973
 21
151.083309
 31
0.0
  0
LINE
  5
9931
330
97E3
100
AcDbEntity
  8
1
  6
Continuous
100
AcDbLine
 10
298.794973
 20
151.083309
 30
0.0
 11
298.4949549999999
 21
151.3833119999999
 31
0.0
  0
LINE
  5
9932
330
97E3
100
AcDbEntity
  8
1
  6
Continuous
100
AcDbLine
 10
298.4949549999999
 20
151.3833119999999
 30
0.0
 11
295.8949789999999
 21
151.3833119999999
 31
0.0
  0
LINE
  5
9933
330
97E3
100
AcDbEntity
  8
1
  6
Continuous
100
AcDbLine
 10
295.8949789999999
 20
151.383327
 30
0.0
 11
295.594961
 21
151.083324
 31
0.0
  0
LINE
  5
9934
330
97E3
100
AcDbEntity
  8
1
  6
Continuous
100
AcDbLine
 10
295.594961
 20
151.083309
 30
0.0
 11
295.594961
 21
147.9833179999999
 31
0.0
  0
LINE
  5
9935
330
97E3
100
AcDbEntity
  8
1
  6
Continuous
100
AcDbLine
 10
294.152151
 20
147.9833179999999
 30
0.0
 11
294.0449729999999
 21
148.3833119999999
 31
0.0
  0
LINE
  5
9936
330
97E3
100
AcDbEntity
  8
1
  6
Continuous
100
AcDbLine
 10
294.0449729999999
 20
148.3833119999999
 30
0.0
 11
293.944967
 21
148.3833119999999
 31
0.0
  0
LINE
  5
9937
330
97E3
100
AcDbEntity
  8
1
  6
Continuous
100
AcDbLine
 10
293.944967
 20
147.9833179999999
 30
0.0
 11
313.444967
 21
147.9833179999999
 31
0.0
  0
LINE
  5
9938
330
97E3
100
AcDbEntity
  8
1
  6
Continuous
100
AcDbLine
 10
311.7949729999999
 20
147.9833179999999
 30
0.0
 11
311.7949729999999
 21
151.083309
 31
0.0
  0
LINE
  5
9939
330
97E3
100
AcDbEntity
  8
1
  6
Continuous
100
AcDbLine
 10
311.7949729999999
 20
151.083309
 30
0.0
 11
311.4949549999999
 21
151.3833119999999
 31
0.0
  0
LINE
  5
993A
330
97E3
100
AcDbEntity
  8
1
  6
Continuous
100
AcDbLine
 10
311.4949549999999
 20
151.3833119999999
 30
0.0
 11
308.894979
 21
151.3833119999999
 31
0.0
  0
LINE
  5
993B
330
97E3
100
AcDbEntity
  8
1
  6
Continuous
100
AcDbLine
 10
308.894979
 20
151.3833119999999
 30
0.0
 11
308.594961
 21
151.083324
 31
0.0
  0
LINE
  5
993C
330
97E3
100
AcDbEntity
  8
1
  6
Continuous
100
AcDbLine
 10
293.944967
 20
148.3833119999999
 30
0.0
 11
293.944967
 21
135.983318
 31
0.0
  0
LINE
  5
993D
330
97E3
100
AcDbEntity
  8
1
  6
Continuous
100
AcDbLine
 10
317.444967
 20
147.483318
 30
0.0
 11
318.944967
 21
147.483318
 31
0.0
  0
LINE
  5
993E
330
97E3
100
AcDbEntity
  8
1
  6
Continuous
100
AcDbLine
 10
318.944967
 20
147.483318
 30
0.0
 11
318.944967
 21
142.483318
 31
0.0
  0
LINE
  5
993F
330
97E3
100
AcDbEntity
  8
1
  6
Continuous
100
AcDbLine
 10
318.944967
 20
142.483318
 30
0.0
 11
317.444967
 21
142.483318
 31
0.0
  0
LINE
  5
9940
330
97E3
100
AcDbEntity
  8
1
  6
Continuous
100
AcDbLine
 10
317.444967
 20
143.7333179999999
 30
0.0
 11
318.944967
 21
143.7333179999999
 31
0.0
  0
LINE
  5
9941
330
97E3
100
AcDbEntity
  8
1
  6
Continuous
100
AcDbLine
 10
318.944967
 20
143.833309
 30
0.0
 11
322.944967
 21
143.833309
 31
0.0
  0
LINE
  5
9942
330
97E3
100
AcDbEntity
  8
1
  6
Continuous
100
AcDbLine
 10
322.944967
 20
146.1333119999999
 30
0.0
 11
318.944967
 21
146.1333119999999
 31
0.0
  0
LINE
  5
9943
330
97E3
100
AcDbEntity
  8
1
  6
Continuous
100
AcDbLine
 10
318.944967
 20
146.2333179999999
 30
0.0
 11
317.444967
 21
146.2333179999999
 31
0.0
  0
LINE
  5
9944
330
97E3
100
AcDbEntity
  8
1
  6
Continuous
100
AcDbLine
 10
293.444967
 20
147.283321
 30
0.0
 11
293.444967
 21
142.683315
 31
0.0
  0
LINE
  5
9945
330
97E3
100
AcDbEntity
  8
1
  6
Continuous
100
AcDbLine
 10
292.944967
 20
142.683315
 30
0.0
 11
292.944967
 21
147.283321
 31
0.0
  0
LINE
  5
9946
330
97E3
100
AcDbEntity
  8
1
  6
Continuous
100
AcDbLine
 10
315.444967
 20
115.6833149999998
 30
0.0
 11
317.444967
 21
115.6833149999998
 31
0.0
  0
LINE
  5
9947
330
97E3
100
AcDbEntity
  8
1
  6
Continuous
100
AcDbLine
 10
293.944967
 20
135.983318
 30
0.0
 11
295.194967
 21
135.983318
 31
0.0
  0
LINE
  5
9948
330
97E3
100
AcDbEntity
  8
1
  6
Continuous
100
AcDbLine
 10
313.444967
 20
137.983318
 30
0.0
 11
315.444967
 21
137.983318
 31
0.0
  0
LINE
  5
9949
330
97E3
100
AcDbEntity
  8
1
  6
Continuous
100
AcDbLine
 10
315.444967
 20
122.2333179999999
 30
0.0
 11
314.4189969999999
 21
122.2333179999999
 31
0.0
  0
LINE
  5
994A
330
97E3
100
AcDbEntity
  8
1
  6
Continuous
100
AcDbLine
 10
314.4189969999999
 20
122.2333179999999
 30
0.0
 11
314.4189969999999
 21
123.733318
 31
0.0
  0
LINE
  5
994B
330
97E3
100
AcDbEntity
  8
1
  6
Continuous
100
AcDbLine
 10
314.4189969999999
 20
123.733318
 30
0.0
 11
312.6189779999999
 21
123.733318
 31
0.0
  0
LINE
  5
994C
330
97E3
100
AcDbEntity
  8
1
  6
Continuous
100
AcDbLine
 10
312.6189779999999
 20
123.733318
 30
0.0
 11
312.6189779999999
 21
129.6333119999999
 31
0.0
  0
LINE
  5
994D
330
97E3
100
AcDbEntity
  8
1
  6
Continuous
100
AcDbLine
 10
312.6189779999999
 20
129.6333119999999
 30
0.0
 11
314.4189969999999
 21
129.6333119999999
 31
0.0
  0
LINE
  5
994E
330
97E3
100
AcDbEntity
  8
1
  6
Continuous
100
AcDbLine
 10
314.4189969999999
 20
129.6333119999999
 30
0.0
 11
314.4189969999999
 21
131.133312
 31
0.0
  0
LINE
  5
994F
330
97E3
100
AcDbEntity
  8
1
  6
Continuous
100
AcDbLine
 10
314.4189969999999
 20
131.133312
 30
0.0
 11
315.444967
 21
131.133312
 31
0.0
  0
LINE
  5
9950
330
97E3
100
AcDbEntity
  8
1
  6
Continuous
100
AcDbLine
 10
314.4189969999999
 20
131.183315
 30
0.0
 11
294.9189969999999
 21
131.183315
 31
0.0
  0
LINE
  5
9951
330
97E3
100
AcDbEntity
  8
1
  6
Continuous
100
AcDbLine
 10
294.9189969999999
 20
122.1833149999998
 30
0.0
 11
314.4189969999999
 21
122.1833149999998
 31
0.0
  0
LINE
  5
9952
330
97E3
100
AcDbEntity
  8
1
  6
Continuous
100
AcDbLine
 10
314.944967
 20
128.6833149999999
 30
0.0
 11
315.444967
 21
128.6833149999999
 31
0.0
  0
LINE
  5
9953
330
97E3
100
AcDbEntity
  8
1
  6
Continuous
100
AcDbLine
 10
315.444967
 20
124.683315
 30
0.0
 11
314.944967
 21
124.683315
 31
0.0
  0
LINE
  5
9954
330
97E3
100
AcDbEntity
  8
1
  6
Continuous
100
AcDbLine
 10
312.194967
 20
134.783321
 30
0.0
 11
312.194967
 21
136.283321
 31
0.0
  0
LINE
  5
9955
330
97E3
100
AcDbEntity
  8
1
  6
Continuous
100
AcDbLine
 10
312.194967
 20
134.783321
 30
0.0
 11
308.194967
 21
134.783321
 31
0.0
  0
LINE
  5
9956
330
97E3
100
AcDbEntity
  8
1
  6
Continuous
100
AcDbLine
 10
308.194967
 20
134.783321
 30
0.0
 11
308.194967
 21
136.283321
 31
0.0
  0
LINE
  5
9957
330
97E3
100
AcDbEntity
  8
1
  6
Continuous
100
AcDbLine
 10
295.194967
 20
136.283321
 30
0.0
 11
295.194967
 21
134.783321
 31
0.0
  0
LINE
  5
9958
330
97E3
100
AcDbEntity
  8
1
  6
Continuous
100
AcDbLine
 10
295.194967
 20
134.783321
 30
0.0
 11
299.194967
 21
134.783321
 31
0.0
  0
LINE
  5
9959
330
97E3
100
AcDbEntity
  8
1
  6
Continuous
100
AcDbLine
 10
299.194967
 20
134.783321
 30
0.0
 11
299.194967
 21
136.283321
 31
0.0
  0
LINE
  5
995A
330
97E3
100
AcDbEntity
  8
1
  6
Continuous
100
AcDbLine
 10
294.9189969999999
 20
128.983318
 30
0.0
 11
293.9189970000001
 21
128.983318
 31
0.0
  0
LINE
  5
995B
330
97E3
100
AcDbEntity
  8
1
  6
Continuous
100
AcDbLine
 10
293.9189970000001
 20
128.6833149999999
 30
0.0
 11
293.5058189999999
 21
128.6833149999999
 31
0.0
  0
LINE
  5
995C
330
97E3
100
AcDbEntity
  8
1
  6
Continuous
100
AcDbLine
 10
291.9189970000001
 20
126.962047
 30
0.0
 11
291.9189970000001
 21
126.168087
 31
0.0
  0
LINE
  5
995D
330
97E3
100
AcDbEntity
  8
1
  6
Continuous
100
AcDbLine
 10
293.5058189999999
 20
124.683315
 30
0.0
 11
293.9189970000001
 21
124.683315
 31
0.0
  0
LINE
  5
995E
330
97E3
100
AcDbEntity
  8
1
  6
Continuous
100
AcDbLine
 10
293.9189970000001
 20
124.383312
 30
0.0
 11
294.9189969999999
 21
124.383312
 31
0.0
  0
LINE
  5
995F
330
97E3
100
AcDbEntity
  8
1
  6
Continuous
100
AcDbLine
 10
294.9189969999999
 20
127.1767689999998
 30
0.0
 11
293.918966
 21
126.6833149999998
 31
0.0
  0
LINE
  5
9960
330
97E3
100
AcDbEntity
  8
1
  6
Continuous
100
AcDbLine
 10
293.9189970000001
 20
126.4177659999998
 30
0.0
 11
294.918966
 21
126.905681
 31
0.0
  0
LINE
  5
9961
330
97E3
100
AcDbEntity
  8
1
  6
Continuous
100
AcDbLine
 10
293.9189970000001
 20
128.983318
 30
0.0
 11
293.9189970000001
 21
124.383312
 31
0.0
  0
LINE
  5
9962
330
97E3
100
AcDbEntity
  8
1
  6
Continuous
100
AcDbLine
 10
294.9189969999999
 20
122.1833149999998
 30
0.0
 11
294.9189969999999
 21
131.183315
 31
0.0
  0
LINE
  5
9963
330
97E3
100
AcDbEntity
  8
4
  6
CENTER
100
AcDbLine
 10
137.433492
 20
215.069683
 30
0.0
 11
172.513403
 21
215.069683
 31
0.0
  0
LINE
  5
9964
330
97E3
100
AcDbEntity
  8
4
  6
CENTER
100
AcDbLine
 10
137.499075
 20
224.5696829999999
 30
0.0
 11
172.9724019999999
 21
224.5696829999999
 31
0.0
  0
LINE
  5
9965
330
97E3
100
AcDbEntity
  8
1
  6
Continuous
100
AcDbLine
 10
144.627111
 20
209.569683
 30
0.0
 11
168.127111
 21
209.569683
 31
0.0
  0
LINE
  5
9966
330
97E3
100
AcDbEntity
  8
1
  6
Continuous
100
AcDbLine
 10
166.4771169999999
 20
211.569683
 30
0.0
 11
163.27712
 21
211.569683
 31
0.0
  0
LINE
  5
9967
330
97E3
100
AcDbEntity
  8
1
  6
Continuous
100
AcDbLine
 10
163.27712
 20
211.569683
 30
0.0
 11
163.27712
 21
212.0696829999999
 31
0.0
  0
LINE
  5
9968
330
97E3
100
AcDbEntity
  8
1
  6
Continuous
100
AcDbLine
 10
163.27712
 20
212.0696829999999
 30
0.0
 11
166.4771169999999
 21
212.0696829999999
 31
0.0
  0
LINE
  5
9969
330
97E3
100
AcDbEntity
  8
1
  6
Continuous
100
AcDbLine
 10
166.4771169999999
 20
212.0696829999999
 30
0.0
 11
166.4771169999999
 21
211.569683
 31
0.0
  0
LINE
  5
996A
330
97E3
100
AcDbEntity
  8
1
  6
Continuous
100
AcDbLine
 10
153.4771169999999
 20
211.569683
 30
0.0
 11
153.4771169999999
 21
212.0696829999999
 31
0.0
  0
LINE
  5
996B
330
97E3
100
AcDbEntity
  8
1
  6
Continuous
100
AcDbLine
 10
153.4771169999999
 20
212.0696829999999
 30
0.0
 11
150.2771199999999
 21
212.0696829999999
 31
0.0
  0
LINE
  5
996C
330
97E3
100
AcDbEntity
  8
1
  6
Continuous
100
AcDbLine
 10
150.2771199999999
 20
212.0696829999999
 30
0.0
 11
150.2771199999999
 21
211.569683
 31
0.0
  0
LINE
  5
996D
330
97E3
100
AcDbEntity
  8
1
  6
Continuous
100
AcDbLine
 10
150.2771199999999
 20
211.569683
 30
0.0
 11
153.4771169999999
 21
211.569683
 31
0.0
  0
LINE
  5
996E
330
97E3
100
AcDbEntity
  8
1
  6
Continuous
100
AcDbLine
 10
153.4771169999999
 20
220.26968
 30
0.0
 11
150.2771199999999
 21
220.26968
 31
0.0
  0
LINE
  5
996F
330
97E3
100
AcDbEntity
  8
1
  6
Continuous
100
AcDbLine
 10
150.2771199999999
 20
220.26968
 30
0.0
 11
150.2771199999999
 21
220.7696799999999
 31
0.0
  0
LINE
  5
9970
330
97E3
100
AcDbEntity
  8
1
  6
Continuous
100
AcDbLine
 10
150.2771199999999
 20
220.7696799999999
 30
0.0
 11
153.4771169999999
 21
220.7696799999999
 31
0.0
  0
LINE
  5
9971
330
97E3
100
AcDbEntity
  8
1
  6
Continuous
100
AcDbLine
 10
153.4771169999999
 20
220.7696799999999
 30
0.0
 11
153.4771169999999
 21
220.26968
 31
0.0
  0
LINE
  5
9972
330
97E3
100
AcDbEntity
  8
1
  6
Continuous
100
AcDbLine
 10
163.27712
 20
220.26968
 30
0.0
 11
166.4771169999999
 21
220.26968
 31
0.0
  0
LINE
  5
9973
330
97E3
100
AcDbEntity
  8
1
  6
Continuous
100
AcDbLine
 10
166.4771169999999
 20
220.26968
 30
0.0
 11
166.4771169999999
 21
220.7696799999999
 31
0.0
  0
LINE
  5
9974
330
97E3
100
AcDbEntity
  8
1
  6
Continuous
100
AcDbLine
 10
166.4771169999999
 20
220.7696799999999
 30
0.0
 11
163.27712
 21
220.7696799999999
 31
0.0
  0
LINE
  5
9975
330
97E3
100
AcDbEntity
  8
1
  6
Continuous
100
AcDbLine
 10
163.27712
 20
220.7696799999999
 30
0.0
 11
163.27712
 21
220.26968
 31
0.0
  0
LINE
  5
9976
330
97E3
100
AcDbEntity
  8
1
  6
Continuous
100
AcDbLine
 10
149.877111
 20
229.569683
 30
0.0
 11
149.877111
 21
232.0031849999999
 31
0.0
  0
LINE
  5
9977
330
97E3
100
AcDbEntity
  8
1
  6
Continuous
100
AcDbLine
 10
149.877111
 20
232.0031849999999
 30
0.0
 11
153.877111
 21
232.0031849999999
 31
0.0
  0
LINE
  5
9978
330
97E3
100
AcDbEntity
  8
1
  6
Continuous
100
AcDbLine
 10
153.877111
 20
232.0031849999999
 30
0.0
 11
153.877111
 21
229.569683
 31
0.0
  0
LINE
  5
9979
330
97E3
100
AcDbEntity
  8
1
  6
Continuous
100
AcDbLine
 10
153.4771169999999
 20
227.4696769999999
 30
0.0
 11
150.2771199999999
 21
227.4696769999999
 31
0.0
  0
LINE
  5
997A
330
97E3
100
AcDbEntity
  8
1
  6
Continuous
100
AcDbLine
 10
150.2771199999999
 20
227.4696769999999
 30
0.0
 11
150.2771199999999
 21
226.9696769999999
 31
0.0
  0
LINE
  5
997B
330
97E3
100
AcDbEntity
  8
1
  6
Continuous
100
AcDbLine
 10
150.2771199999999
 20
226.9696769999999
 30
0.0
 11
153.4771169999999
 21
226.9696769999999
 31
0.0
  0
LINE
  5
997C
330
97E3
100
AcDbEntity
  8
1
  6
Continuous
100
AcDbLine
 10
153.4771169999999
 20
226.9696769999999
 30
0.0
 11
153.4771169999999
 21
227.4696769999999
 31
0.0
  0
LINE
  5
997D
330
97E3
100
AcDbEntity
  8
1
  6
Continuous
100
AcDbLine
 10
163.27712
 20
227.4696769999999
 30
0.0
 11
166.4771169999999
 21
227.4696769999999
 31
0.0
  0
LINE
  5
997E
330
97E3
100
AcDbEntity
  8
1
  6
Continuous
100
AcDbLine
 10
166.4771169999999
 20
227.4696769999999
 30
0.0
 11
166.4771169999999
 21
226.9696769999999
 31
0.0
  0
LINE
  5
997F
330
97E3
100
AcDbEntity
  8
1
  6
Continuous
100
AcDbLine
 10
166.4771169999999
 20
226.9696769999999
 30
0.0
 11
163.27712
 21
226.9696769999999
 31
0.0
  0
LINE
  5
9980
330
97E3
100
AcDbEntity
  8
1
  6
Continuous
100
AcDbLine
 10
163.27712
 20
226.9696769999999
 30
0.0
 11
163.27712
 21
227.4696769999999
 31
0.0
  0
LINE
  5
9981
330
97E3
100
AcDbEntity
  8
1
  6
Continuous
100
AcDbLine
 10
162.877111
 20
229.569683
 30
0.0
 11
162.877111
 21
232.0031849999999
 31
0.0
  0
LINE
  5
9982
330
97E3
100
AcDbEntity
  8
1
  6
Continuous
100
AcDbLine
 10
162.877111
 20
232.0031849999999
 30
0.0
 11
166.877111
 21
232.0031849999999
 31
0.0
  0
LINE
  5
9983
330
97E3
100
AcDbEntity
  8
1
  6
Continuous
100
AcDbLine
 10
166.877111
 20
232.0031849999999
 30
0.0
 11
166.877111
 21
229.569683
 31
0.0
  0
LINE
  5
9984
330
97E3
100
AcDbEntity
  8
1
  6
Continuous
100
AcDbLine
 10
168.127111
 20
229.569683
 30
0.0
 11
148.627111
 21
229.569683
 31
0.0
  0
LINE
  5
9985
330
97E3
100
AcDbEntity
  8
1
  6
Continuous
100
AcDbLine
 10
148.627111
 20
228.569683
 30
0.0
 11
146.627111
 21
228.569683
 31
0.0
  0
LINE
  5
9986
330
97E3
100
AcDbEntity
  8
1
  6
Continuous
100
AcDbLine
 10
146.627111
 20
233.5696829999999
 30
0.0
 11
144.627111
 21
233.5696829999999
 31
0.0
  0
LINE
  5
9987
330
97E3
100
AcDbEntity
  8
1
  6
Continuous
100
AcDbLine
 10
143.127111
 20
213.919689
 30
0.0
 11
139.127111
 21
213.919689
 31
0.0
  0
LINE
  5
9988
330
97E3
100
AcDbEntity
  8
1
  6
Continuous
100
AcDbLine
 10
139.127111
 20
216.2196769999999
 30
0.0
 11
143.127111
 21
216.2196769999999
 31
0.0
  0
LINE
  5
9989
330
97E3
100
AcDbEntity
  8
1
  6
Continuous
100
AcDbLine
 10
144.627111
 20
209.569683
 30
0.0
 11
144.627111
 21
233.5696829999999
 31
0.0
  0
LINE
  5
998A
330
97E3
100
AcDbEntity
  8
1
  6
Continuous
100
AcDbLine
 10
139.127111
 20
225.7196769999999
 30
0.0
 11
143.127111
 21
225.7196769999999
 31
0.0
  0
LINE
  5
998B
330
97E3
100
AcDbEntity
  8
1
  6
Continuous
100
AcDbLine
 10
143.127111
 20
223.419689
 30
0.0
 11
139.127111
 21
223.419689
 31
0.0
  0
LINE
  5
998C
330
97E3
100
AcDbEntity
  8
1
  6
Continuous
100
AcDbLine
 10
147.627111
 20
228.569683
 30
0.0
 11
147.627111
 21
209.569683
 31
0.0
  0
LINE
  5
998D
330
97E3
100
AcDbEntity
  8
1
  6
Continuous
100
AcDbLine
 10
146.627111
 20
209.569683
 30
0.0
 11
146.627111
 21
233.5696829999999
 31
0.0
  0
LINE
  5
998E
330
97E3
100
AcDbEntity
  8
1
  6
Continuous
100
AcDbLine
 10
148.627111
 20
229.569683
 30
0.0
 11
148.627111
 21
209.569683
 31
0.0
  0
LINE
  5
998F
330
97E3
100
AcDbEntity
  8
1
  6
Continuous
100
AcDbLine
 10
161.627111
 20
209.569683
 30
0.0
 11
161.627111
 21
229.569683
 31
0.0
  0
LINE
  5
9990
330
97E3
100
AcDbEntity
  8
1
  6
Continuous
100
AcDbLine
 10
168.127111
 20
229.569683
 30
0.0
 11
168.127111
 21
209.569683
 31
0.0
  0
LINE
  5
9991
330
97E3
100
AcDbEntity
  8
1
  6
Continuous
100
AcDbLine
 10
168.127111
 20
226.8696859999999
 30
0.0
 11
169.127111
 21
226.8696859999999
 31
0.0
  0
LINE
  5
9992
330
97E3
100
AcDbEntity
  8
1
  6
Continuous
100
AcDbLine
 10
169.127111
 20
226.5696829999999
 30
0.0
 11
169.5403039999999
 21
226.5696829999999
 31
0.0
  0
LINE
  5
9993
330
97E3
100
AcDbEntity
  8
1
  6
Continuous
100
AcDbLine
 10
171.127111
 20
224.8482169999999
 30
0.0
 11
171.127111
 21
224.0542409999999
 31
0.0
  0
LINE
  5
9994
330
97E3
100
AcDbEntity
  8
1
  6
Continuous
100
AcDbLine
 10
168.127111
 20
222.26968
 30
0.0
 11
169.127111
 21
222.26968
 31
0.0
  0
LINE
  5
9995
330
97E3
100
AcDbEntity
  8
1
  6
Continuous
100
AcDbLine
 10
169.127111
 20
222.5696829999999
 30
0.0
 11
169.5403039999999
 21
222.5696829999999
 31
0.0
  0
LINE
  5
9996
330
97E3
100
AcDbEntity
  8
1
  6
Continuous
100
AcDbLine
 10
169.127111
 20
224.5696829999999
 30
0.0
 11
168.6270959999999
 21
224.1157489999999
 31
0.0
  0
LINE
  5
9997
330
97E3
100
AcDbEntity
  8
1
  6
Continuous
100
AcDbLine
 10
169.127111
 20
217.3696859999998
 30
0.0
 11
168.127111
 21
217.3696859999998
 31
0.0
  0
LINE
  5
9998
330
97E3
100
AcDbEntity
  8
1
  6
Continuous
100
AcDbLine
 10
169.127111
 20
217.069683
 30
0.0
 11
169.5403039999999
 21
217.069683
 31
0.0
  0
LINE
  5
9999
330
97E3
100
AcDbEntity
  8
1
  6
Continuous
100
AcDbLine
 10
171.127111
 20
215.348217
 30
0.0
 11
171.127111
 21
214.7911489999999
 31
0.0
  0
LINE
  5
999A
330
97E3
100
AcDbEntity
  8
1
  6
Continuous
100
AcDbLine
 10
169.5403039999999
 20
213.069683
 30
0.0
 11
169.127111
 21
213.069683
 31
0.0
  0
LINE
  5
999B
330
97E3
100
AcDbEntity
  8
1
  6
Continuous
100
AcDbLine
 10
169.127111
 20
212.7696799999999
 30
0.0
 11
168.127111
 21
212.7696799999999
 31
0.0
  0
LINE
  5
999C
330
97E3
100
AcDbEntity
  8
1
  6
Continuous
100
AcDbLine
 10
168.627111
 20
214.615764
 30
0.0
 11
169.127111
 21
215.069668
 31
0.0
  0
LINE
  5
999D
330
97E3
100
AcDbEntity
  8
1
  6
Continuous
100
AcDbLine
 10
169.127111
 20
215.3703569999999
 30
0.0
 11
168.627111
 21
214.9587669999999
 31
0.0
  0
LINE
  5
999E
330
97E3
100
AcDbEntity
  8
1
  6
Continuous
100
AcDbLine
 10
168.6270959999999
 20
224.4587509999998
 30
0.0
 11
169.1270959999999
 21
224.870342
 31
0.0
  0
LINE
  5
999F
330
97E3
100
AcDbEntity
  8
1
  6
Continuous
100
AcDbLine
 10
168.627111
 20
217.3696859999998
 30
0.0
 11
168.627111
 21
212.7696799999999
 31
0.0
  0
LINE
  5
99A0
330
97E3
100
AcDbEntity
  8
1
  6
Continuous
100
AcDbLine
 10
169.127111
 20
212.7696799999999
 30
0.0
 11
169.127111
 21
217.3696859999998
 31
0.0
  0
LINE
  5
99A1
330
97E3
100
AcDbEntity
  8
1
  6
Continuous
100
AcDbLine
 10
169.127111
 20
222.26968
 30
0.0
 11
169.127111
 21
226.8696859999999
 31
0.0
  0
LINE
  5
99A2
330
97E3
100
AcDbEntity
  8
1
  6
Continuous
100
AcDbLine
 10
168.627111
 20
226.8696859999999
 30
0.0
 11
168.627111
 21
222.26968
 31
0.0
  0
LINE
  5
99A3
330
97E3
100
AcDbEntity
  8
1
  6
Continuous
100
AcDbLine
 10
149.4531
 20
233.0696829999999
 30
0.0
 11
167.153097
 21
233.0696829999999
 31
0.0
  0
LINE
  5
99A4
330
97E3
100
AcDbEntity
  8
1
  6
Continuous
100
AcDbLine
 10
167.153097
 20
233.0696829999999
 30
0.0
 11
167.153097
 21
229.569683
 31
0.0
  0
LINE
  5
99A5
330
97E3
100
AcDbEntity
  8
1
  6
Continuous
100
AcDbLine
 10
148.127111
 20
228.569683
 30
0.0
 11
148.127111
 21
230.569683
 31
0.0
  0
LINE
  5
99A6
330
97E3
100
AcDbEntity
  8
1
  6
Continuous
100
AcDbLine
 10
147.127111
 20
231.5696829999999
 30
0.0
 11
146.627111
 21
231.5696829999999
 31
0.0
  0
LINE
  5
99A7
330
97E3
100
AcDbEntity
  8
1
  6
Continuous
100
AcDbLine
 10
170.153097
 20
222.6963609999998
 30
0.0
 11
170.153097
 21
222.290935
 31
0.0
  0
LINE
  5
99A8
330
97E3
100
AcDbEntity
  8
1
  6
Continuous
100
AcDbLine
 10
168.5662739999999
 20
220.5696829999999
 30
0.0
 11
168.127111
 21
220.5696829999999
 31
0.0
  0
LINE
  5
99A9
330
97E3
100
AcDbEntity
  8
1
  6
Continuous
100
AcDbLine
 10
144.627111
 20
227.0696829999999
 30
0.0
 11
143.127111
 21
227.0696829999999
 31
0.0
  0
LINE
  5
99AA
330
97E3
100
AcDbEntity
  8
1
  6
Continuous
100
AcDbLine
 10
143.127111
 20
225.819683
 30
0.0
 11
144.627111
 21
225.819683
 31
0.0
  0
LINE
  5
99AB
330
97E3
100
AcDbEntity
  8
1
  6
Continuous
100
AcDbLine
 10
143.127111
 20
227.0696829999999
 30
0.0
 11
143.127111
 21
222.069683
 31
0.0
  0
LINE
  5
99AC
330
97E3
100
AcDbEntity
  8
1
  6
Continuous
100
AcDbLine
 10
144.627111
 20
223.319683
 30
0.0
 11
143.127111
 21
223.319683
 31
0.0
  0
LINE
  5
99AD
330
97E3
100
AcDbEntity
  8
1
  6
Continuous
100
AcDbLine
 10
143.127111
 20
222.069683
 30
0.0
 11
144.627111
 21
222.069683
 31
0.0
  0
LINE
  5
99AE
330
97E3
100
AcDbEntity
  8
1
  6
Continuous
100
AcDbLine
 10
144.627111
 20
217.569683
 30
0.0
 11
143.127111
 21
217.569683
 31
0.0
  0
LINE
  5
99AF
330
97E3
100
AcDbEntity
  8
1
  6
Continuous
100
AcDbLine
 10
143.127111
 20
216.3196829999999
 30
0.0
 11
144.627111
 21
216.3196829999999
 31
0.0
  0
LINE
  5
99B0
330
97E3
100
AcDbEntity
  8
1
  6
Continuous
100
AcDbLine
 10
143.127111
 20
217.569683
 30
0.0
 11
143.127111
 21
212.5696829999998
 31
0.0
  0
LINE
  5
99B1
330
97E3
100
AcDbEntity
  8
1
  6
Continuous
100
AcDbLine
 10
144.627111
 20
213.819683
 30
0.0
 11
143.127111
 21
213.819683
 31
0.0
  0
LINE
  5
99B2
330
97E3
100
AcDbEntity
  8
1
  6
Continuous
100
AcDbLine
 10
128.227117
 20
53.79694699999999
 30
0.0
 11
128.227117
 21
27.79694699999998
 31
0.0
  0
LINE
  5
99B3
330
97E3
100
AcDbEntity
  8
4
  6
CENTER
100
AcDbLine
 10
171.548162
 20
40.796947
 30
0.0
 11
118.9190579999998
 21
40.796947
 31
0.0
  0
LINE
  5
99B4
330
97E3
100
AcDbEntity
  8
1
  6
Continuous
100
AcDbLine
 10
129.227117
 20
49.79694699999999
 30
0.0
 11
137.2271169999999
 21
49.79694699999999
 31
0.0
  0
LINE
  5
99B5
330
97E3
100
AcDbEntity
  8
1
  6
Continuous
100
AcDbLine
 10
137.2271169999999
 20
49.79694699999999
 30
0.0
 11
137.2271169999999
 21
50.79694700000001
 31
0.0
  0
LINE
  5
99B6
330
97E3
100
AcDbEntity
  8
1
  6
Continuous
100
AcDbLine
 10
137.2271169999999
 20
30.79694699999999
 30
0.0
 11
137.2271169999999
 21
31.79694699999998
 31
0.0
  0
LINE
  5
99B7
330
97E3
100
AcDbEntity
  8
1
  6
Continuous
100
AcDbLine
 10
137.2271169999999
 20
31.79694699999998
 30
0.0
 11
129.227117
 21
31.79694699999998
 31
0.0
  0
LINE
  5
99B8
330
97E3
100
AcDbEntity
  8
1
  6
Continuous
100
AcDbLine
 10
124.2271169999998
 20
51.79694699999998
 30
0.0
 11
124.2271169999998
 21
29.79694699999999
 31
0.0
  0
LINE
  5
99B9
330
97E3
100
AcDbEntity
  8
1
  6
Continuous
100
AcDbLine
 10
124.2271169999998
 20
29.79694699999999
 30
0.0
 11
128.227117
 21
27.796943
 31
0.0
  0
LINE
  5
99BA
330
97E3
100
AcDbEntity
  8
1
  6
Continuous
100
AcDbLine
 10
128.227117
 20
27.79694699999998
 30
0.0
 11
129.227117
 21
27.79694699999998
 31
0.0
  0
LINE
  5
99BB
330
97E3
100
AcDbEntity
  8
1
  6
Continuous
100
AcDbLine
 10
129.227117
 20
27.79694699999998
 30
0.0
 11
129.227117
 21
53.79694699999999
 31
0.0
  0
LINE
  5
99BC
330
97E3
100
AcDbEntity
  8
1
  6
Continuous
100
AcDbLine
 10
129.227117
 20
53.79694699999999
 30
0.0
 11
128.227117
 21
53.79694699999999
 31
0.0
  0
LINE
  5
99BD
330
97E3
100
AcDbEntity
  8
1
  6
Continuous
100
AcDbLine
 10
128.227117
 20
53.796955
 30
0.0
 11
124.2271169999998
 21
51.796955
 31
0.0
  0
LINE
  5
99BE
330
97E3
100
AcDbEntity
  8
1
  6
Continuous
100
AcDbLine
 10
137.2271169999999
 20
50.79694700000001
 30
0.0
 11
143.4271139999999
 21
50.79694700000001
 31
0.0
  0
LINE
  5
99BF
330
97E3
100
AcDbEntity
  8
1
  6
Continuous
100
AcDbLine
 10
143.4271139999999
 20
30.79694699999999
 30
0.0
 11
137.2271169999999
 21
30.79694699999999
 31
0.0
  0
LINE
  5
99C0
330
97E3
100
AcDbEntity
  8
1
  6
Continuous
100
AcDbLine
 10
143.4271299999998
 20
30.796955
 30
0.0
 11
144.627126
 21
31.996952
 31
0.0
  0
LINE
  5
99C1
330
97E3
100
AcDbEntity
  8
1
  6
Continuous
100
AcDbLine
 10
143.4271139999999
 20
30.79694699999999
 30
0.0
 11
143.4271139999999
 21
50.79694700000001
 31
0.0
  0
LINE
  5
99C2
330
97E3
100
AcDbEntity
  8
2
  6
Continuous
100
AcDbLine
 10
143.9686179999999
 20
31.338451
 30
0.0
 11
137.2271169999999
 21
31.338451
 31
0.0
  0
LINE
  5
99C3
330
97E3
100
AcDbEntity
  8
2
  6
Continuous
100
AcDbLine
 10
143.9686179999999
 20
50.25544299999999
 30
0.0
 11
137.2271169999999
 21
50.25544299999999
 31
0.0
  0
LINE
  5
99C4
330
97E3
100
AcDbEntity
  8
4
  6
CENTER
100
AcDbLine
 10
166.4550529999999
 20
48.29694700000001
 30
0.0
 11
172.3629359999999
 21
48.29694700000001
 31
0.0
  0
LINE
  5
99C5
330
97E3
100
AcDbEntity
  8
4
  6
CENTER
100
AcDbLine
 10
166.1937619999999
 20
38.79694699999999
 30
0.0
 11
172.606207
 21
38.79694699999999
 31
0.0
  0
LINE
  5
99C6
330
97E3
100
AcDbEntity
  8
1
  6
Continuous
100
AcDbLine
 10
144.627111
 20
53.79694699999999
 30
0.0
 11
168.127111
 21
53.79694699999999
 31
0.0
  0
LINE
  5
99C7
330
97E3
100
AcDbEntity
  8
1
  6
Continuous
100
AcDbLine
 10
168.127111
 20
33.79694699999999
 30
0.0
 11
167.153097
 21
33.79694699999999
 31
0.0
  0
LINE
  5
99C8
330
97E3
100
AcDbEntity
  8
1
  6
Continuous
100
AcDbLine
 10
148.627111
 20
34.79694699999999
 30
0.0
 11
148.127111
 21
34.79694699999999
 31
0.0
  0
LINE
  5
99C9
330
97E3
100
AcDbEntity
  8
1
  6
Continuous
100
AcDbLine
 10
146.627111
 20
29.79694699999999
 30
0.0
 11
144.627111
 21
29.79694699999999
 31
0.0
  0
LINE
  5
99CA
330
97E3
100
AcDbEntity
  8
1
  6
Continuous
100
AcDbLine
 10
144.627111
 20
53.79694699999999
 30
0.0
 11
144.627111
 21
29.79694699999999
 31
0.0
  0
LINE
  5
99CB
330
97E3
100
AcDbEntity
  8
1
  6
Continuous
100
AcDbLine
 10
147.627111
 20
35.66297099999999
 30
0.0
 11
147.627111
 21
36.29694699999999
 31
0.0
  0
LINE
  5
99CC
330
97E3
100
AcDbEntity
  8
1
  6
Continuous
100
AcDbLine
 10
146.627111
 20
53.79694699999999
 30
0.0
 11
146.627111
 21
29.79694699999999
 31
0.0
  0
LINE
  5
99CD
330
97E3
100
AcDbEntity
  8
1
  6
Continuous
100
AcDbLine
 10
148.627111
 20
33.79694699999999
 30
0.0
 11
148.627111
 21
36.29694699999999
 31
0.0
  0
LINE
  5
99CE
330
97E3
100
AcDbEntity
  8
1
  6
Continuous
100
AcDbLine
 10
155.127111
 20
53.79694699999999
 30
0.0
 11
155.127111
 21
45.29694699999999
 31
0.0
  0
LINE
  5
99CF
330
97E3
100
AcDbEntity
  8
1
  6
Continuous
100
AcDbLine
 10
168.127111
 20
33.79694699999999
 30
0.0
 11
168.127111
 21
38.49694799999999
 31
0.0
  0
LINE
  5
99D0
330
97E3
100
AcDbEntity
  8
1
  6
Continuous
100
AcDbLine
 10
168.127111
 20
36.496944
 30
0.0
 11
169.127111
 21
36.496944
 31
0.0
  0
LINE
  5
99D1
330
97E3
100
AcDbEntity
  8
1
  6
Continuous
100
AcDbLine
 10
169.127111
 20
36.79694699999997
 30
0.0
 11
169.5403039999999
 21
36.79694699999997
 31
0.0
  0
LINE
  5
99D2
330
97E3
100
AcDbEntity
  8
1
  6
Continuous
100
AcDbLine
 10
171.127111
 20
38.518413
 30
0.0
 11
171.127111
 21
39.07548099999999
 31
0.0
  0
LINE
  5
99D3
330
97E3
100
AcDbEntity
  8
1
  6
Continuous
100
AcDbLine
 10
169.127111
 20
45.99694399999999
 30
0.0
 11
168.127111
 21
45.99694399999999
 31
0.0
  0
LINE
  5
99D4
330
97E3
100
AcDbEntity
  8
1
  6
Continuous
100
AcDbLine
 10
169.127111
 20
46.29694699999999
 30
0.0
 11
169.5403039999999
 21
46.29694699999999
 31
0.0
  0
LINE
  5
99D5
330
97E3
100
AcDbEntity
  8
1
  6
Continuous
100
AcDbLine
 10
171.127111
 20
48.018413
 30
0.0
 11
171.127111
 21
48.57548099999998
 31
0.0
  0
LINE
  5
99D6
330
97E3
100
AcDbEntity
  8
1
  6
Continuous
100
AcDbLine
 10
169.5403039999999
 20
50.296947
 30
0.0
 11
169.127111
 21
50.296947
 31
0.0
  0
LINE
  5
99D7
330
97E3
100
AcDbEntity
  8
1
  6
Continuous
100
AcDbLine
 10
169.127111
 20
50.59695
 30
0.0
 11
168.127111
 21
50.59695
 31
0.0
  0
LINE
  5
99D8
330
97E3
100
AcDbEntity
  8
1
  6
Continuous
100
AcDbLine
 10
168.627126
 20
48.750862
 30
0.0
 11
169.127111
 21
48.296951
 31
0.0
  0
LINE
  5
99D9
330
97E3
100
AcDbEntity
  8
1
  6
Continuous
100
AcDbLine
 10
169.127126
 20
47.996284
 30
0.0
 11
168.627126
 21
48.407875
 31
0.0
  0
LINE
  5
99DA
330
97E3
100
AcDbEntity
  8
1
  6
Continuous
100
AcDbLine
 10
168.627111
 20
45.99694399999999
 30
0.0
 11
168.627111
 21
50.59695
 31
0.0
  0
LINE
  5
99DB
330
97E3
100
AcDbEntity
  8
1
  6
Continuous
100
AcDbLine
 10
169.127111
 20
50.59695
 30
0.0
 11
169.127111
 21
45.99694399999999
 31
0.0
  0
LINE
  5
99DC
330
97E3
100
AcDbEntity
  8
1
  6
Continuous
100
AcDbLine
 10
169.127111
 20
38.90269099999999
 30
0.0
 11
169.127111
 21
36.496944
 31
0.0
  0
LINE
  5
99DD
330
97E3
100
AcDbEntity
  8
1
  6
Continuous
100
AcDbLine
 10
168.627111
 20
36.496944
 30
0.0
 11
168.627111
 21
38.798549
 31
0.0
  0
LINE
  5
99DE
330
97E3
100
AcDbEntity
  8
1
  6
Continuous
100
AcDbLine
 10
149.4531
 20
30.29694699999998
 30
0.0
 11
167.153097
 21
30.29694699999998
 31
0.0
  0
LINE
  5
99DF
330
97E3
100
AcDbEntity
  8
1
  6
Continuous
100
AcDbLine
 10
167.153097
 20
30.29694699999998
 30
0.0
 11
167.153097
 21
45.29694699999999
 31
0.0
  0
LINE
  5
99E0
330
97E3
100
AcDbEntity
  8
1
  6
Continuous
100
AcDbLine
 10
148.127111
 20
34.79694699999999
 30
0.0
 11
148.127111
 21
32.79694699999998
 31
0.0
  0
LINE
  5
99E1
330
97E3
100
AcDbEntity
  8
1
  6
Continuous
100
AcDbLine
 10
147.127111
 20
31.79694699999998
 30
0.0
 11
146.627111
 21
31.79694699999998
 31
0.0
  0
LINE
  5
99E2
330
97E3
100
AcDbEntity
  8
1
  6
Continuous
100
AcDbLine
 10
170.153097
 20
40.51820699999999
 30
0.0
 11
170.153097
 21
41.075687
 31
0.0
  0
LINE
  5
99E3
330
97E3
100
AcDbEntity
  8
1
  6
Continuous
100
AcDbLine
 10
168.5662739999999
 20
42.79694699999999
 30
0.0
 11
168.153097
 21
42.79694699999999
 31
0.0
  0
LINE
  5
99E4
330
97E3
100
AcDbEntity
  8
1
  6
Continuous
100
AcDbLine
 10
143.4271139999999
 20
50.79693999999999
 30
0.0
 11
144.627111
 21
49.596939
 31
0.0
  0
LINE
  5
99E5
330
97E3
100
AcDbEntity
  8
1
  6
Continuous
100
AcDbLine
 10
168.5662739999999
 20
38.79694699999999
 30
0.0
 11
168.153097
 21
38.79694699999999
 31
0.0
  0
LINE
  5
99E6
330
97E3
100
AcDbEntity
  8
1
  6
Continuous
100
AcDbLine
 10
167.153097
 20
45.29694699999999
 30
0.0
 11
149.4531
 21
45.29694699999999
 31
0.0
  0
LINE
  5
99E7
330
97E3
100
AcDbEntity
  8
1
  6
Continuous
100
AcDbLine
 10
167.153097
 20
36.29694699999999
 30
0.0
 11
149.4531
 21
36.29694699999999
 31
0.0
  0
LINE
  5
99E8
330
97E3
100
AcDbEntity
  8
1
  6
Continuous
100
AcDbLine
 10
149.4531
 20
33.79694699999999
 30
0.0
 11
148.627111
 21
33.79694699999999
 31
0.0
  0
LINE
  5
99E9
330
97E3
100
AcDbEntity
  8
1
  6
Continuous
100
AcDbLine
 10
147.127111
 20
35.79694699999999
 30
0.0
 11
146.627111
 21
35.79694699999999
 31
0.0
  0
LINE
  5
99EA
330
97E3
100
AcDbEntity
  8
1
  6
Continuous
100
AcDbLine
 10
147.127111
 20
45.796947
 30
0.0
 11
146.627111
 21
45.796947
 31
0.0
  0
LINE
  5
99EB
330
97E3
100
AcDbEntity
  8
1
  6
Continuous
100
AcDbLine
 10
148.127111
 20
46.79694699999997
 30
0.0
 11
148.127111
 21
48.79694699999999
 31
0.0
  0
LINE
  5
99EC
330
97E3
100
AcDbEntity
  8
1
  6
Continuous
100
AcDbLine
 10
147.127111
 20
49.79694699999999
 30
0.0
 11
146.627111
 21
49.79694699999999
 31
0.0
  0
LINE
  5
99ED
330
97E3
100
AcDbEntity
  8
1
  6
Continuous
100
AcDbLine
 10
147.627111
 20
49.662971
 30
0.0
 11
147.627111
 21
53.79694699999999
 31
0.0
  0
LINE
  5
99EE
330
97E3
100
AcDbEntity
  8
1
  6
Continuous
100
AcDbLine
 10
147.627111
 20
45.29694699999999
 30
0.0
 11
147.627111
 21
45.930923
 31
0.0
  0
LINE
  5
99EF
330
97E3
100
AcDbEntity
  8
1
  6
Continuous
100
AcDbLine
 10
148.627111
 20
45.29694699999999
 30
0.0
 11
148.627111
 21
53.79694699999999
 31
0.0
  0
LINE
  5
99F0
330
97E3
100
AcDbEntity
  8
1
  6
Continuous
100
AcDbLine
 10
147.6530969999998
 20
44.19510999999999
 30
0.0
 11
147.6530969999998
 21
37.398784
 31
0.0
  0
LINE
  5
99F1
330
97E3
100
AcDbEntity
  8
1
  6
Continuous
100
AcDbLine
 10
149.4531
 20
45.29694699999999
 30
0.0
 11
149.4531
 21
44.19510999999999
 31
0.0
  0
LINE
  5
99F2
330
97E3
100
AcDbEntity
  8
1
  6
Continuous
100
AcDbLine
 10
149.4531
 20
45.24694799999998
 30
0.0
 11
146.627111
 21
45.24694799999998
 31
0.0
  0
LINE
  5
99F3
330
97E3
100
AcDbEntity
  8
1
  6
Continuous
100
AcDbLine
 10
149.4531
 20
36.346947
 30
0.0
 11
146.627111
 21
36.346947
 31
0.0
  0
LINE
  5
99F4
330
97E3
100
AcDbEntity
  8
1
  6
Continuous
100
AcDbLine
 10
149.4531
 20
44.19510999999999
 30
0.0
 11
147.6530969999998
 21
44.19510999999999
 31
0.0
  0
LINE
  5
99F5
330
97E3
100
AcDbEntity
  8
1
  6
Continuous
100
AcDbLine
 10
149.4531
 20
30.29694699999998
 30
0.0
 11
149.4531
 21
37.398784
 31
0.0
  0
LINE
  5
99F6
330
97E3
100
AcDbEntity
  8
1
  6
Continuous
100
AcDbLine
 10
149.4531
 20
37.398784
 30
0.0
 11
147.6530969999998
 21
37.398784
 31
0.0
  0
LINE
  5
99F7
330
97E3
100
AcDbEntity
  8
1
  6
Continuous
100
AcDbLine
 10
168.127111
 20
43.096947
 30
0.0
 11
168.127111
 21
53.79694699999999
 31
0.0
  0
LINE
  5
99F8
330
97E3
100
AcDbEntity
  8
1
  6
Continuous
100
AcDbLine
 10
312.6189779999999
 20
128.6833149999999
 30
0.0
 11
294.9189969999999
 21
128.6833149999999
 31
0.0
  0
LINE
  5
99F9
330
97E3
100
AcDbEntity
  8
1
  6
Continuous
100
AcDbLine
 10
312.6189779999999
 20
124.683315
 30
0.0
 11
294.9189969999999
 21
124.683315
 31
0.0
  0
LINE
  5
99FA
330
97E3
100
AcDbEntity
  8
1
  6
Continuous
100
AcDbLine
 10
293.944967
 20
138.483318
 30
0.0
 11
313.444967
 21
138.483318
 31
0.0
  0
LINE
  5
99FB
330
97E3
100
AcDbEntity
  8
1
  6
Continuous
100
AcDbLine
 10
295.194967
 20
136.283321
 30
0.0
 11
299.194967
 21
136.283321
 31
0.0
  0
LINE
  5
99FC
330
97E3
100
AcDbEntity
  8
1
  6
Continuous
100
AcDbLine
 10
295.194967
 20
135.083324
 30
0.0
 11
299.194967
 21
135.083324
 31
0.0
  0
LINE
  5
99FD
330
97E3
100
AcDbEntity
  8
1
  6
Continuous
100
AcDbLine
 10
308.194967
 20
135.083324
 30
0.0
 11
312.194967
 21
135.083324
 31
0.0
  0
LINE
  5
99FE
330
97E3
100
AcDbEntity
  8
1
  6
Continuous
100
AcDbLine
 10
308.194967
 20
136.283321
 30
0.0
 11
312.194967
 21
136.283321
 31
0.0
  0
LINE
  5
99FF
330
97E3
100
AcDbEntity
  8
1
  6
Continuous
100
AcDbLine
 10
305.694967
 20
135.983318
 30
0.0
 11
308.194967
 21
135.983318
 31
0.0
  0
LINE
  5
9A00
330
97E3
100
AcDbEntity
  8
1
  6
Continuous
100
AcDbLine
 10
312.194967
 20
135.983318
 30
0.0
 11
313.444967
 21
135.983318
 31
0.0
  0
LINE
  5
9A01
330
97E3
100
AcDbEntity
  8
1
  6
Continuous
100
AcDbLine
 10
139.127126
 20
146.1333119999999
 30
0.0
 11
139.127126
 21
143.833309
 31
0.0
  0
LINE
  5
9A02
330
97E3
100
AcDbEntity
  8
1
  6
Continuous
100
AcDbLine
 10
161.419943
 20
147.9833179999999
 30
0.0
 11
161.52712
 21
148.383327
 31
0.0
  0
LINE
  5
9A03
330
97E3
100
AcDbEntity
  8
1
  6
Continuous
100
AcDbLine
 10
161.52712
 20
148.3833119999999
 30
0.0
 11
161.6271259999998
 21
148.3833119999999
 31
0.0
  0
LINE
  5
9A04
330
97E3
100
AcDbEntity
  8
1
  6
Continuous
100
AcDbLine
 10
161.6271259999998
 20
151.527386
 30
0.0
 11
161.6271259999998
 21
135.983318
 31
0.0
  0
LINE
  5
9A05
330
97E3
100
AcDbEntity
  8
1
  6
Continuous
100
AcDbLine
 10
156.7771199999999
 20
147.9833179999999
 30
0.0
 11
156.7771199999999
 21
151.083309
 31
0.0
  0
LINE
  5
9A06
330
97E3
100
AcDbEntity
  8
1
  6
Continuous
100
AcDbLine
 10
156.777136
 20
151.083324
 30
0.0
 11
157.077123
 21
151.3833119999999
 31
0.0
  0
LINE
  5
9A07
330
97E3
100
AcDbEntity
  8
1
  6
Continuous
100
AcDbLine
 10
157.0771389999999
 20
151.3833119999999
 30
0.0
 11
159.67713
 21
151.3833119999999
 31
0.0
  0
LINE
  5
9A08
330
97E3
100
AcDbEntity
  8
1
  6
Continuous
100
AcDbLine
 10
159.67713
 20
151.3833119999999
 30
0.0
 11
159.977133
 21
151.083324
 31
0.0
  0
LINE
  5
9A09
330
97E3
100
AcDbEntity
  8
1
  6
Continuous
100
AcDbLine
 10
159.977133
 20
151.083309
 30
0.0
 11
159.977133
 21
147.9833179999999
 31
0.0
  0
LINE
  5
9A0A
330
97E3
100
AcDbEntity
  8
1
  6
Continuous
100
AcDbLine
 10
160.377126
 20
135.983318
 30
0.0
 11
160.377126
 21
134.783321
 31
0.0
  0
LINE
  5
9A0B
330
97E3
100
AcDbEntity
  8
1
  6
Continuous
100
AcDbLine
 10
160.377126
 20
134.783321
 30
0.0
 11
156.377126
 21
134.783321
 31
0.0
  0
LINE
  5
9A0C
330
97E3
100
AcDbEntity
  8
1
  6
Continuous
100
AcDbLine
 10
156.377126
 20
134.783321
 30
0.0
 11
156.377126
 21
135.983318
 31
0.0
  0
LINE
  5
9A0D
330
97E3
100
AcDbEntity
  8
1
  6
Continuous
100
AcDbLine
 10
161.727133
 20
148.3833119999999
 30
0.0
 11
161.6271259999998
 21
148.3833119999999
 31
0.0
  0
LINE
  5
9A0E
330
97E3
100
AcDbEntity
  8
1
  6
Continuous
100
AcDbLine
 10
161.8343099999999
 20
147.9833329999999
 30
0.0
 11
161.727133
 21
148.383327
 31
0.0
  0
LINE
  5
9A0F
330
97E3
100
AcDbEntity
  8
1
  6
Continuous
100
AcDbLine
 10
322.944967
 20
146.1333119999999
 30
0.0
 11
322.944967
 21
143.833309
 31
0.0
  0
LINE
  5
9A10
330
97E3
100
AcDbEntity
  8
1
  6
Continuous
100
AcDbLine
 10
305.2949729999999
 20
147.9833179999999
 30
0.0
 11
305.2949729999999
 21
151.083309
 31
0.0
  0
LINE
  5
9A11
330
97E3
100
AcDbEntity
  8
1
  6
Continuous
100
AcDbLine
 10
305.2949729999999
 20
151.083309
 30
0.0
 11
304.994955
 21
151.3833119999999
 31
0.0
  0
LINE
  5
9A12
330
97E3
100
AcDbEntity
  8
1
  6
Continuous
100
AcDbLine
 10
304.994955
 20
151.3833119999999
 30
0.0
 11
302.3949789999999
 21
151.3833119999999
 31
0.0
  0
LINE
  5
9A13
330
97E3
100
AcDbEntity
  8
1
  6
Continuous
100
AcDbLine
 10
302.3949789999999
 20
151.383327
 30
0.0
 11
302.094961
 21
151.083324
 31
0.0
  0
LINE
  5
9A14
330
97E3
100
AcDbEntity
  8
1
  6
Continuous
100
AcDbLine
 10
302.094961
 20
151.083309
 30
0.0
 11
302.094961
 21
147.9833179999999
 31
0.0
  0
LINE
  5
9A15
330
97E3
100
AcDbEntity
  8
1
  6
Continuous
100
AcDbLine
 10
300.652151
 20
147.9833179999999
 30
0.0
 11
300.5449729999999
 21
148.3833119999999
 31
0.0
  0
LINE
  5
9A16
330
97E3
100
AcDbEntity
  8
1
  6
Continuous
100
AcDbLine
 10
300.5449729999999
 20
148.3833119999999
 30
0.0
 11
300.444967
 21
148.3833119999999
 31
0.0
  0
LINE
  5
9A17
330
97E3
100
AcDbEntity
  8
1
  6
Continuous
100
AcDbLine
 10
300.444967
 20
151.527386
 30
0.0
 11
300.444967
 21
135.983318
 31
0.0
  0
LINE
  5
9A18
330
97E3
100
AcDbEntity
  8
1
  6
Continuous
100
AcDbLine
 10
301.694967
 20
136.283321
 30
0.0
 11
301.694967
 21
134.783321
 31
0.0
  0
LINE
  5
9A19
330
97E3
100
AcDbEntity
  8
1
  6
Continuous
100
AcDbLine
 10
301.694967
 20
136.283321
 30
0.0
 11
305.694967
 21
136.283321
 31
0.0
  0
LINE
  5
9A1A
330
97E3
100
AcDbEntity
  8
1
  6
Continuous
100
AcDbLine
 10
301.694967
 20
135.083324
 30
0.0
 11
305.694967
 21
135.083324
 31
0.0
  0
LINE
  5
9A1B
330
97E3
100
AcDbEntity
  8
1
  6
Continuous
100
AcDbLine
 10
301.694967
 20
134.783321
 30
0.0
 11
305.694967
 21
134.783321
 31
0.0
  0
LINE
  5
9A1C
330
97E3
100
AcDbEntity
  8
1
  6
Continuous
100
AcDbLine
 10
305.694967
 20
134.783321
 30
0.0
 11
305.694967
 21
136.283321
 31
0.0
  0
LINE
  5
9A1D
330
97E3
100
AcDbEntity
  8
1
  6
Continuous
100
AcDbLine
 10
299.194967
 20
135.983318
 30
0.0
 11
301.694967
 21
135.983318
 31
0.0
  0
LINE
  5
9A1E
330
97E3
100
AcDbEntity
  8
1
  6
Continuous
100
AcDbLine
 10
300.344961
 20
148.3833119999999
 30
0.0
 11
300.444967
 21
148.3833119999999
 31
0.0
  0
LINE
  5
9A1F
330
97E3
100
AcDbEntity
  8
1
  6
Continuous
100
AcDbLine
 10
300.2377829999999
 20
147.9833029999998
 30
0.0
 11
300.344961
 21
148.3833119999999
 31
0.0
  0
LINE
  5
9A20
330
97E3
100
AcDbEntity
  8
1
  6
Continuous
100
AcDbLine
 10
139.127111
 20
225.7196769999999
 30
0.0
 11
139.127111
 21
223.419689
 31
0.0
  0
LINE
  5
9A21
330
97E3
100
AcDbEntity
  8
1
  6
Continuous
100
AcDbLine
 10
139.127111
 20
216.2196769999999
 30
0.0
 11
139.127111
 21
213.919689
 31
0.0
  0
LINE
  5
9A22
330
97E3
100
AcDbEntity
  8
1
  6
Continuous
100
AcDbLine
 10
159.9771169999999
 20
211.569683
 30
0.0
 11
156.7771199999999
 21
211.569683
 31
0.0
  0
LINE
  5
9A23
330
97E3
100
AcDbEntity
  8
1
  6
Continuous
100
AcDbLine
 10
156.7771199999999
 20
212.0696829999999
 30
0.0
 11
159.9771169999999
 21
212.0696829999999
 31
0.0
  0
LINE
  5
9A24
330
97E3
100
AcDbEntity
  8
1
  6
Continuous
100
AcDbLine
 10
159.9771169999999
 20
212.0696829999999
 30
0.0
 11
159.9771169999999
 21
211.569683
 31
0.0
  0
LINE
  5
9A25
330
97E3
100
AcDbEntity
  8
1
  6
Continuous
100
AcDbLine
 10
156.7771199999999
 20
211.569683
 30
0.0
 11
156.7771199999999
 21
212.0696829999999
 31
0.0
  0
LINE
  5
9A26
330
97E3
100
AcDbEntity
  8
1
  6
Continuous
100
AcDbLine
 10
155.127111
 20
209.569683
 30
0.0
 11
155.127111
 21
229.569683
 31
0.0
  0
LINE
  5
9A27
330
97E3
100
AcDbEntity
  8
1
  6
Continuous
100
AcDbLine
 10
156.7771199999999
 20
220.26968
 30
0.0
 11
159.9771169999999
 21
220.26968
 31
0.0
  0
LINE
  5
9A28
330
97E3
100
AcDbEntity
  8
1
  6
Continuous
100
AcDbLine
 10
159.9771169999999
 20
220.26968
 30
0.0
 11
159.9771169999999
 21
220.7696799999999
 31
0.0
  0
LINE
  5
9A29
330
97E3
100
AcDbEntity
  8
1
  6
Continuous
100
AcDbLine
 10
159.9771169999999
 20
220.7696799999999
 30
0.0
 11
156.7771199999999
 21
220.7696799999999
 31
0.0
  0
LINE
  5
9A2A
330
97E3
100
AcDbEntity
  8
1
  6
Continuous
100
AcDbLine
 10
156.7771199999999
 20
220.7696799999999
 30
0.0
 11
156.7771199999999
 21
220.26968
 31
0.0
  0
LINE
  5
9A2B
330
97E3
100
AcDbEntity
  8
1
  6
Continuous
100
AcDbLine
 10
156.7771199999999
 20
227.4696769999999
 30
0.0
 11
159.9771169999999
 21
227.4696769999999
 31
0.0
  0
LINE
  5
9A2C
330
97E3
100
AcDbEntity
  8
1
  6
Continuous
100
AcDbLine
 10
159.9771169999999
 20
227.4696769999999
 30
0.0
 11
159.9771169999999
 21
226.9696769999999
 31
0.0
  0
LINE
  5
9A2D
330
97E3
100
AcDbEntity
  8
1
  6
Continuous
100
AcDbLine
 10
159.9771169999999
 20
226.9696769999999
 30
0.0
 11
156.7771199999999
 21
226.9696769999999
 31
0.0
  0
LINE
  5
9A2E
330
97E3
100
AcDbEntity
  8
1
  6
Continuous
100
AcDbLine
 10
156.7771199999999
 20
226.9696769999999
 30
0.0
 11
156.7771199999999
 21
227.4696769999999
 31
0.0
  0
LINE
  5
9A2F
330
97E3
100
AcDbEntity
  8
1
  6
Continuous
100
AcDbLine
 10
156.377111
 20
232.0031849999999
 30
0.0
 11
160.377111
 21
232.0031849999999
 31
0.0
  0
LINE
  5
9A30
330
97E3
100
AcDbEntity
  8
1
  6
Continuous
100
AcDbLine
 10
156.377111
 20
229.569683
 30
0.0
 11
156.377111
 21
232.0031849999999
 31
0.0
  0
LINE
  5
9A31
330
97E3
100
AcDbEntity
  8
1
  6
Continuous
100
AcDbLine
 10
160.377111
 20
232.0031849999999
 30
0.0
 11
160.377111
 21
229.569683
 31
0.0
  0
LINE
  5
9A32
330
97E3
100
AcDbEntity
  8
1
  6
Continuous
100
AcDbLine
 10
149.4531
 20
233.0696829999999
 30
0.0
 11
149.4531
 21
229.569683
 31
0.0
  0
LINE
  5
9A33
330
97E3
100
AcDbEntity
  8
1
  6
Continuous
100
AcDbLine
 10
161.627111
 20
53.79694699999999
 30
0.0
 11
161.627111
 21
45.29694699999999
 31
0.0
  0
LINE
  5
9A34
330
97E3
100
AcDbEntity
  8
1
  6
Continuous
100
AcDbLine
 10
313.944967
 20
127.6833149999998
 30
0.0
 11
313.944967
 21
125.683315
 31
0.0
  0
LINE
  5
9A35
330
97E3
100
AcDbEntity
  8
1
  6
Continuous
100
AcDbLine
 10
20.89250499999999
 20
222.236767
 30
0.0
 11
25.54388199999999
 21
222.236767
 31
0.0
  0
LINE
  5
9A36
330
97E3
100
AcDbEntity
  8
1
  6
Continuous
100
AcDbLine
 10
20.947986
 20
221.570934
 30
0.0
 11
25.488394
 21
221.570934
 31
0.0
  0
LINE
  5
9A37
330
97E3
100
AcDbEntity
  8
1
  6
Continuous
100
AcDbLine
 10
25.290815
 20
220.9037439999999
 30
0.0
 11
24.017332
 21
220.9037439999999
 31
0.0
  0
LINE
  5
9A38
330
97E3
100
AcDbEntity
  8
1
  6
Continuous
100
AcDbLine
 10
21.48661399999999
 20
220.2365529999999
 30
0.0
 11
24.94977399999999
 21
220.2365529999999
 31
0.0
  0
LINE
  5
9A39
330
97E3
100
AcDbEntity
  8
1
  6
Continuous
100
AcDbLine
 10
23.21752
 20
222.236767
 30
0.0
 11
23.21752
 21
221.570934
 31
0.0
  0
LINE
  5
9A3A
330
97E3
100
AcDbEntity
  8
1
  6
Continuous
100
AcDbLine
 10
22.4177
 20
220.9037439999999
 30
0.0
 11
21.145572
 21
220.9037439999999
 31
0.0
  0
LINE
  5
9A3B
330
97E3
100
AcDbEntity
  8
1
  6
Continuous
100
AcDbLine
 10
21.573225
 20
219.57072
 30
0.0
 11
24.861807
 21
219.57072
 31
0.0
  0
LINE
  5
9A3C
330
97E3
100
AcDbEntity
  8
1
  6
Continuous
100
AcDbLine
 10
24.447691
 20
218.90353
 30
0.0
 11
21.988699
 21
218.90353
 31
0.0
  0
LINE
  5
9A3D
330
97E3
100
AcDbEntity
  8
1
  6
Continuous
100
AcDbLine
 10
21.389171
 20
218.2376819999999
 30
0.0
 11
24.263639
 21
218.2376819999999
 31
0.0
  0
LINE
  5
9A3E
330
97E3
100
AcDbEntity
  8
1
  6
Continuous
100
AcDbLine
 10
21.026478
 20
224.9028129999999
 30
0.0
 11
25.20014
 21
224.9028129999999
 31
0.0
  0
LINE
  5
9A3F
330
97E3
100
AcDbEntity
  8
1
  6
Continuous
100
AcDbLine
 10
25.099996
 20
224.23698
 30
0.0
 11
23.21752
 21
224.23698
 31
0.0
  0
LINE
  5
9A40
330
97E3
100
AcDbEntity
  8
1
  6
Continuous
100
AcDbLine
 10
21.02377699999999
 20
223.5697899999999
 30
0.0
 11
25.41261099999999
 21
223.5697899999999
 31
0.0
  0
LINE
  5
9A41
330
97E3
100
AcDbEntity
  8
1
  6
Continuous
100
AcDbLine
 10
20.89250499999999
 20
222.9039569999999
 30
0.0
 11
25.54388199999999
 21
222.9039569999999
 31
0.0
  0
LINE
  5
9A42
330
97E3
100
AcDbEntity
  8
1
  6
Continuous
100
AcDbLine
 10
23.21752
 20
228.287487
 30
0.0
 11
23.21752
 21
226.9098009999999
 31
0.0
  0
LINE
  5
9A43
330
97E3
100
AcDbEntity
  8
1
  6
Continuous
100
AcDbLine
 10
24.46528
 20
226.575527
 30
0.0
 11
21.65577099999999
 21
227.3293259999999
 31
0.0
  0
LINE
  5
9A44
330
97E3
100
AcDbEntity
  8
1
  6
Continuous
100
AcDbLine
 10
23.21752
 20
225.90292
 30
0.0
 11
24.81714399999999
 21
225.90292
 31
0.0
  0
LINE
  5
9A45
330
97E3
100
AcDbEntity
  8
1
  6
Continuous
100
AcDbLine
 10
22.88459599999999
 20
226.2371939999999
 30
0.0
 11
21.46089499999998
 21
226.2371939999999
 31
0.0
  0
LINE
  5
9A46
330
97E3
100
AcDbEntity
  8
1
  6
Continuous
100
AcDbLine
 10
21.34044999999998
 20
225.5700029999999
 30
0.0
 11
22.88459599999999
 21
225.5700029999999
 31
0.0
  0
LINE
  5
9A47
330
97E3
100
AcDbEntity
  8
1
  6
Continuous
100
AcDbLine
 10
23.21752
 20
224.23698
 30
0.0
 11
23.21752
 21
223.904064
 31
0.0
  0
LINE
  5
9A48
330
97E3
100
AcDbEntity
  8
1
  6
Continuous
100
AcDbLine
 10
22.4177
 20
224.23698
 30
0.0
 11
21.33639099999999
 21
224.23698
 31
0.0
  0
CIRCLE
  5
9A49
330
97E3
100
AcDbEntity
  8
1
  6
Continuous
100
AcDbCircle
 10
30.218191
 20
144.9833179999999
 30
0.0
 40
1.149999999999999
  0
CIRCLE
  5
9A4A
330
97E3
100
AcDbEntity
  8
1
  6
Continuous
100
AcDbCircle
 10
39.71819099999999
 20
144.9833179999999
 30
0.0
 40
1.149999999999999
  0
ARC
  5
9A4B
330
97E3
100
AcDbEntity
  8
1
  6
Continuous
100
AcDbCircle
 10
42.718191
 20
118.1833149999998
 30
0.0
 40
2.5
100
AcDbArc
 50
269.9999969999999
 51
0.0
  0
ARC
  5
9A4C
330
97E3
100
AcDbEntity
  8
1
  6
Continuous
100
AcDbCircle
 10
42.718191
 20
148.683315
 30
0.0
 40
2.5
100
AcDbArc
 50
0.0
 51
90.00000300000001
  0
CIRCLE
  5
9A4D
330
97E3
100
AcDbEntity
  8
1
  6
Continuous
100
AcDbCircle
 10
32.21819099999999
 20
126.6833149999998
 30
0.0
 40
5.0
  0
ARC
  5
9A4E
330
97E3
100
AcDbEntity
  8
1
  6
Continuous
100
AcDbCircle
 10
32.21819099999999
 20
124.483318
 30
0.0
 40
2.25
100
AcDbArc
 50
296.3877979999999
 51
74.533989
  0
ARC
  5
9A4F
330
97E3
100
AcDbEntity
  8
1
  6
Continuous
100
AcDbCircle
 10
32.21819099999999
 20
124.483318
 30
0.0
 40
2.25
100
AcDbArc
 50
105.4660099999999
 51
243.612193
  0
CIRCLE
  5
9A50
330
97E3
100
AcDbEntity
  8
1
  6
Continuous
100
AcDbCircle
 10
32.21819099999999
 20
126.6833149999998
 30
0.0
 40
11.0
  0
CIRCLE
  5
9A51
330
97E3
100
AcDbEntity
  8
1
  6
Continuous
100
AcDbCircle
 10
32.21819099999999
 20
126.6833149999998
 30
0.0
 40
13.0
  0
ARC
  5
9A52
330
97E3
100
AcDbEntity
  8
1
  6
Continuous
100
AcDbCircle
 10
23.718191
 20
148.683315
 30
0.0
 40
2.5
100
AcDbArc
 50
90.00000300000001
 51
180.000005
  0
ARC
  5
9A53
330
97E3
100
AcDbEntity
  8
1
  6
Continuous
100
AcDbCircle
 10
16.718193
 20
219.0696829999999
 30
0.0
 40
0.5
100
AcDbArc
 50
269.9999969999999
 51
0.0
  0
ARC
  5
9A54
330
97E3
100
AcDbEntity
  8
1
  6
Continuous
100
AcDbCircle
 10
16.718193
 20
226.069683
 30
0.0
 40
0.5
100
AcDbArc
 50
0.0
 51
90.00000300000001
  0
ARC
  5
9A55
330
97E3
100
AcDbEntity
  8
1
  6
Continuous
100
AcDbCircle
 10
15.21819299999999
 20
226.069683
 30
0.0
 40
0.5
100
AcDbArc
 50
90.00000300000001
 51
180.000005
  0
ARC
  5
9A56
330
97E3
100
AcDbEntity
  8
1
  6
Continuous
100
AcDbCircle
 10
15.21819299999999
 20
219.0696829999999
 30
0.0
 40
0.5
100
AcDbArc
 50
180.000005
 51
270.000001
  0
ARC
  5
9A57
330
97E3
100
AcDbEntity
  8
1
  6
Continuous
100
AcDbCircle
 10
13.718193
 20
218.6752279999998
 30
0.0
 40
2.0
100
AcDbArc
 50
180.000005
 51
213.6900629999999
  0
ARC
  5
9A58
330
97E3
100
AcDbEntity
  8
1
  6
Continuous
100
AcDbCircle
 10
22.051527
 20
212.5696829999998
 30
0.0
 40
2.0
100
AcDbArc
 50
269.9999969999999
 51
306.8698979999999
  0
ARC
  5
9A59
330
97E3
100
AcDbEntity
  8
1
  6
Continuous
100
AcDbCircle
 10
56.21819099999999
 20
221.0696829999999
 30
0.0
 40
0.5
100
AcDbArc
 50
314.9999989999999
 51
45.00000099999999
  0
ARC
  5
9A5A
330
97E3
100
AcDbEntity
  8
1
  6
Continuous
100
AcDbCircle
 10
40.71819099999999
 20
224.7696799999999
 30
0.0
 40
0.5
100
AcDbArc
 50
0.0
 51
90.00000300000001
  0
ARC
  5
9A5B
330
97E3
100
AcDbEntity
  8
1
  6
Continuous
100
AcDbCircle
 10
39.218191
 20
226.5696829999999
 30
0.0
 40
0.5
100
AcDbArc
 50
0.0
 51
90.00000300000001
  0
ARC
  5
9A5C
330
97E3
100
AcDbEntity
  8
1
  6
Continuous
100
AcDbCircle
 10
22.051527
 20
232.569683
 30
0.0
 40
2.0
100
AcDbArc
 50
53.130102
 51
90.00000300000001
  0
ARC
  5
9A5D
330
97E3
100
AcDbEntity
  8
1
  6
Continuous
100
AcDbCircle
 10
17.78855899999999
 20
232.569683
 30
0.0
 40
2.0
100
AcDbArc
 50
90.00000300000001
 51
146.309933
  0
ARC
  5
9A5E
330
97E3
100
AcDbEntity
  8
1
  6
Continuous
100
AcDbCircle
 10
13.718193
 20
226.464138
 30
0.0
 40
2.0
100
AcDbArc
 50
146.309933
 51
180.000005
  0
ARC
  5
9A5F
330
97E3
100
AcDbEntity
  8
1
  6
Continuous
100
AcDbCircle
 10
17.78855899999999
 20
212.5696829999998
 30
0.0
 40
2.0
100
AcDbArc
 50
213.690067
 51
269.9999969999999
  0
ARC
  5
9A60
330
97E3
100
AcDbEntity
  8
1
  6
Continuous
100
AcDbCircle
 10
141.727117
 20
222.5696829999999
 30
0.0
 40
1.75
100
AcDbArc
 50
150.940774
 51
343.3984429999999
  0
CIRCLE
  5
9A61
330
97E3
100
AcDbEntity
  8
2
  6
Continuous
100
AcDbCircle
 10
30.218191
 20
144.9833179999999
 30
0.0
 40
0.9335
  0
CIRCLE
  5
9A62
330
97E3
100
AcDbEntity
  8
2
  6
Continuous
100
AcDbCircle
 10
39.71819099999999
 20
144.9833179999999
 30
0.0
 40
0.9335
  0
ARC
  5
9A63
330
97E3
100
AcDbEntity
  8
1
  6
Continuous
100
AcDbCircle
 10
220.536047
 20
118.1833149999998
 30
0.0
 40
2.5
100
AcDbArc
 50
179.9999909999999
 51
270.000001
  0
ARC
  5
9A64
330
97E3
100
AcDbEntity
  8
1
  6
Continuous
100
AcDbCircle
 10
231.036047
 20
126.6833149999998
 30
0.0
 40
11.0
100
AcDbArc
 50
269.9999969999999
 51
0.0
  0
ARC
  5
9A65
330
97E3
100
AcDbEntity
  8
1
  6
Continuous
100
AcDbCircle
 10
231.036047
 20
126.6833149999998
 30
0.0
 40
13.0
100
AcDbArc
 50
237.795772
 51
262.619862
  0
ARC
  5
9A66
330
97E3
100
AcDbEntity
  8
1
  6
Continuous
100
AcDbCircle
 10
239.536047
 20
148.683315
 30
0.0
 40
2.5
100
AcDbArc
 50
0.0
 51
90.00000300000001
  0
ARC
  5
9A67
330
97E3
100
AcDbEntity
  8
1
  6
Continuous
100
AcDbCircle
 10
231.036047
 20
126.6833149999998
 30
0.0
 40
13.0
100
AcDbArc
 50
277.3801329999999
 51
322.619864
  0
ARC
  5
9A68
330
97E3
100
AcDbEntity
  8
1
  6
Continuous
100
AcDbCircle
 10
231.036047
 20
126.6833149999998
 30
0.0
 40
13.0
100
AcDbArc
 50
337.3801349999999
 51
22.619865
  0
CIRCLE
  5
9A69
330
97E3
100
AcDbEntity
  8
1
  6
Continuous
100
AcDbCircle
 10
233.036047
 20
144.9833179999999
 30
0.0
 40
2.0
  0
CIRCLE
  5
9A6A
330
97E3
100
AcDbEntity
  8
1
  6
Continuous
100
AcDbCircle
 10
223.536047
 20
144.9833179999999
 30
0.0
 40
2.0
  0
CIRCLE
  5
9A6B
330
97E3
100
AcDbEntity
  8
1
  6
Continuous
100
AcDbCircle
 10
223.536047
 20
144.9833179999999
 30
0.0
 40
2.299999999999998
  0
CIRCLE
  5
9A6C
330
97E3
100
AcDbEntity
  8
1
  6
Continuous
100
AcDbCircle
 10
233.036047
 20
144.9833179999999
 30
0.0
 40
2.299999999999998
  0
ARC
  5
9A6D
330
97E3
100
AcDbEntity
  8
1
  6
Continuous
100
AcDbCircle
 10
231.036047
 20
126.6833149999998
 30
0.0
 40
4.5
100
AcDbArc
 50
26.387801
 51
333.612203
  0
CIRCLE
  5
9A6E
330
97E3
100
AcDbEntity
  8
1
  6
Continuous
100
AcDbCircle
 10
231.036047
 20
126.6833149999998
 30
0.0
 40
2.299999999999998
  0
CIRCLE
  5
9A6F
330
97E3
100
AcDbEntity
  8
1
  6
Continuous
100
AcDbCircle
 10
231.036047
 20
126.6833149999998
 30
0.0
 40
2.0
  0
CIRCLE
  5
9A70
330
97E3
100
AcDbEntity
  8
1
  6
Continuous
100
AcDbCircle
 10
224.036047
 20
126.6833149999998
 30
0.0
 40
2.0
  0
ARC
  5
9A71
330
97E3
100
AcDbEntity
  8
1
  6
Continuous
100
AcDbCircle
 10
239.536047
 20
126.6833149999998
 30
0.0
 40
2.0
100
AcDbArc
 50
269.9999969999999
 51
90.00000300000001
  0
ARC
  5
9A72
330
97E3
100
AcDbEntity
  8
1
  6
Continuous
100
AcDbCircle
 10
169.5284329999998
 20
144.58633
 30
0.0
 40
1.603061
100
AcDbArc
 50
270.4245279999998
 51
4.233871999999998
  0
ARC
  5
9A73
330
97E3
100
AcDbEntity
  8
1
  6
Continuous
100
AcDbCircle
 10
169.5284329999998
 20
145.380291
 30
0.0
 40
1.603061
100
AcDbArc
 50
355.766128
 51
89.57547199999996
  0
ARC
  5
9A74
330
97E3
100
AcDbEntity
  8
1
  6
Continuous
100
AcDbCircle
 10
147.1271259999998
 20
125.683315
 30
0.0
 40
1.0
100
AcDbArc
 50
269.9999969999999
 51
0.0
  0
ARC
  5
9A75
330
97E3
100
AcDbEntity
  8
1
  6
Continuous
100
AcDbCircle
 10
147.1271259999998
 20
127.6833149999998
 30
0.0
 40
1.0
100
AcDbArc
 50
0.0
 51
90.00000300000001
  0
CIRCLE
  5
9A76
330
97E3
100
AcDbEntity
  8
1
  6
Continuous
100
AcDbCircle
 10
151.877126
 20
149.883312
 30
0.0
 40
0.9
  0
CIRCLE
  5
9A77
330
97E3
100
AcDbEntity
  8
1
  6
Continuous
100
AcDbCircle
 10
164.877126
 20
149.883312
 30
0.0
 40
0.9
  0
ARC
  5
9A78
330
97E3
100
AcDbEntity
  8
1
  6
Continuous
100
AcDbCircle
 10
168.554403
 20
127.0803029999999
 30
0.0
 40
1.603061
100
AcDbArc
 50
355.7698240000001
 51
89.57547199999996
  0
ARC
  5
9A79
330
97E3
100
AcDbEntity
  8
1
  6
Continuous
100
AcDbCircle
 10
168.554403
 20
126.2863269999999
 30
0.0
 40
1.603061
100
AcDbArc
 50
270.4245279999998
 51
355.7698240000001
  0
ARC
  5
9A7A
330
97E3
100
AcDbEntity
  8
1
  6
Continuous
100
AcDbCircle
 10
292.5436609999998
 20
144.58633
 30
0.0
 40
1.603061
100
AcDbArc
 50
175.766135
 51
269.575463
  0
ARC
  5
9A7B
330
97E3
100
AcDbEntity
  8
1
  6
Continuous
100
AcDbCircle
 10
292.5436609999998
 20
145.380291
 30
0.0
 40
1.603061
100
AcDbArc
 50
90.42452600000002
 51
184.233875
  0
CIRCLE
  5
9A7C
330
97E3
100
AcDbEntity
  8
1
  6
Continuous
100
AcDbCircle
 10
310.194967
 20
149.883312
 30
0.0
 40
0.9
  0
CIRCLE
  5
9A7D
330
97E3
100
AcDbEntity
  8
1
  6
Continuous
100
AcDbCircle
 10
297.194967
 20
149.883312
 30
0.0
 40
0.9
  0
ARC
  5
9A7E
330
97E3
100
AcDbEntity
  8
1
  6
Continuous
100
AcDbCircle
 10
314.944967
 20
125.683315
 30
0.0
 40
1.0
100
AcDbArc
 50
179.9999909999999
 51
270.000001
  0
ARC
  5
9A7F
330
97E3
100
AcDbEntity
  8
1
  6
Continuous
100
AcDbCircle
 10
314.944967
 20
127.6833149999998
 30
0.0
 40
1.0
100
AcDbArc
 50
89.99999599999998
 51
180.000005
  0
ARC
  5
9A80
330
97E3
100
AcDbEntity
  8
1
  6
Continuous
100
AcDbCircle
 10
293.51769
 20
127.0803029999999
 30
0.0
 40
1.603061
100
AcDbArc
 50
90.42452600000002
 51
184.230173
  0
ARC
  5
9A81
330
97E3
100
AcDbEntity
  8
1
  6
Continuous
100
AcDbCircle
 10
293.51769
 20
126.2863269999999
 30
0.0
 40
1.603061
100
AcDbArc
 50
184.2301769999999
 51
269.5754739999999
  0
ARC
  5
9A82
330
97E3
100
AcDbEntity
  8
1
  6
Continuous
100
AcDbCircle
 10
169.5284329999998
 20
224.966671
 30
0.0
 40
1.603061
100
AcDbArc
 50
355.7624369999999
 51
89.57547199999996
  0
ARC
  5
9A83
330
97E3
100
AcDbEntity
  8
1
  6
Continuous
100
AcDbCircle
 10
169.5284329999998
 20
224.1726949999998
 30
0.0
 40
1.603061
100
AcDbArc
 50
270.4245279999998
 51
355.7624369999999
  0
ARC
  5
9A84
330
97E3
100
AcDbEntity
  8
1
  6
Continuous
100
AcDbCircle
 10
169.5284329999998
 20
215.4666709999999
 30
0.0
 40
1.603061
100
AcDbArc
 50
355.7624369999999
 51
89.57547199999996
  0
ARC
  5
9A85
330
97E3
100
AcDbEntity
  8
1
  6
Continuous
100
AcDbCircle
 10
169.5284329999998
 20
214.672695
 30
0.0
 40
1.603061
100
AcDbArc
 50
270.4245279999998
 51
4.237562999999997
  0
ARC
  5
9A86
330
97E3
100
AcDbEntity
  8
1
  6
Continuous
100
AcDbCircle
 10
147.127111
 20
230.569683
 30
0.0
 40
1.0
100
AcDbArc
 50
0.0
 51
90.00000300000001
  0
ARC
  5
9A87
330
97E3
100
AcDbEntity
  8
1
  6
Continuous
100
AcDbCircle
 10
168.554403
 20
222.172695
 30
0.0
 40
1.603061
100
AcDbArc
 50
270.4245279999998
 51
4.230176
  0
ARC
  5
9A88
330
97E3
100
AcDbEntity
  8
1
  6
Continuous
100
AcDbCircle
 10
169.5284329999998
 20
38.399959
 30
0.0
 40
1.603061
100
AcDbArc
 50
270.4245279999998
 51
4.237562999999997
  0
ARC
  5
9A89
330
97E3
100
AcDbEntity
  8
1
  6
Continuous
100
AcDbCircle
 10
169.5284329999998
 20
39.19393499999999
 30
0.0
 40
1.603061
100
AcDbArc
 50
355.7624369999999
 51
67.066051
  0
ARC
  5
9A8A
330
97E3
100
AcDbEntity
  8
1
  6
Continuous
100
AcDbCircle
 10
169.5284329999998
 20
47.899959
 30
0.0
 40
1.603061
100
AcDbArc
 50
270.4245279999998
 51
4.237562999999997
  0
ARC
  5
9A8B
330
97E3
100
AcDbEntity
  8
1
  6
Continuous
100
AcDbCircle
 10
169.5284329999998
 20
48.69393500000001
 30
0.0
 40
1.603061
100
AcDbArc
 50
355.7624369999999
 51
89.57547199999996
  0
ARC
  5
9A8C
330
97E3
100
AcDbEntity
  8
1
  6
Continuous
100
AcDbCircle
 10
147.127111
 20
32.79694699999998
 30
0.0
 40
1.0
100
AcDbArc
 50
269.9999969999999
 51
0.0
  0
ARC
  5
9A8D
330
97E3
100
AcDbEntity
  8
1
  6
Continuous
100
AcDbCircle
 10
168.554403
 20
41.193935
 30
0.0
 40
1.603061
100
AcDbArc
 50
355.7698240000001
 51
89.57547199999996
  0
ARC
  5
9A8E
330
97E3
100
AcDbEntity
  8
1
  6
Continuous
100
AcDbCircle
 10
168.554403
 20
40.399959
 30
0.0
 40
1.603061
100
AcDbArc
 50
270.4245279999998
 51
4.230176
  0
ARC
  5
9A8F
330
97E3
100
AcDbEntity
  8
1
  6
Continuous
100
AcDbCircle
 10
147.127111
 20
34.79694699999999
 30
0.0
 40
1.0
100
AcDbArc
 50
0.0
 51
90.00000300000001
  0
ARC
  5
9A90
330
97E3
100
AcDbEntity
  8
1
  6
Continuous
100
AcDbCircle
 10
147.127111
 20
46.79694699999997
 30
0.0
 40
1.0
100
AcDbArc
 50
269.9999969999999
 51
0.0
  0
ARC
  5
9A91
330
97E3
100
AcDbEntity
  8
1
  6
Continuous
100
AcDbCircle
 10
147.127111
 20
48.79694699999999
 30
0.0
 40
1.0
100
AcDbArc
 50
0.0
 51
90.00000300000001
  0
CIRCLE
  5
9A92
330
97E3
100
AcDbEntity
  8
1
  6
Continuous
100
AcDbCircle
 10
158.3771259999998
 20
149.883312
 30
0.0
 40
0.9
  0
CIRCLE
  5
9A93
330
97E3
100
AcDbEntity
  8
1
  6
Continuous
100
AcDbCircle
 10
303.694967
 20
149.883312
 30
0.0
 40
0.9
  0
ARC
  5
9A94
330
97E3
100
AcDbEntity
  8
1
  6
Continuous
100
AcDbCircle
 10
17.61880899999999
 20
222.5696829999999
 30
0.0
 40
7.932788
100
AcDbArc
 50
333.9859999999998
 51
337.0559999999999
  0
ARC
  5
9A95
330
97E3
100
AcDbEntity
  8
1
  6
Continuous
100
AcDbCircle
 10
24.861807
 20
219.5044059999999
 30
0.0
 40
0.066678
100
AcDbArc
 50
337.0559999999999
 51
90.00000300000001
  0
ARC
  5
9A96
330
97E3
100
AcDbEntity
  8
1
  6
Continuous
100
AcDbCircle
 10
25.290815
 20
220.837429
 30
0.0
 40
0.066678
100
AcDbArc
 50
347.270997
 51
90.00000300000001
  0
ARC
  5
9A97
330
97E3
100
AcDbEntity
  8
1
  6
Continuous
100
AcDbCircle
 10
17.61880899999999
 20
222.5696829999999
 30
0.0
 40
7.932788
100
AcDbArc
 50
344.794003
 51
347.270997
  0
ARC
  5
9A98
330
97E3
100
AcDbEntity
  8
1
  6
Continuous
100
AcDbCircle
 10
17.61880899999999
 20
222.5696829999999
 30
0.0
 40
7.932788
100
AcDbArc
 50
344.741998
 51
344.794003
  0
ARC
  5
9A99
330
97E3
100
AcDbEntity
  8
1
  6
Continuous
100
AcDbCircle
 10
24.94977399999999
 20
220.570827
 30
0.0
 40
0.333392
100
AcDbArc
 50
270.0000039999998
 51
344.741986
  0
ARC
  5
9A9A
330
97E3
100
AcDbEntity
  8
1
  6
Continuous
100
AcDbCircle
 10
21.48661399999999
 20
220.570827
 30
0.0
 40
0.333392
100
AcDbArc
 50
195.2575039999999
 51
270.0000039999998
  0
ARC
  5
9A9B
330
97E3
100
AcDbEntity
  8
1
  6
Continuous
100
AcDbCircle
 10
28.817579
 20
222.5696829999999
 30
0.0
 40
7.932788
100
AcDbArc
 50
193.268102
 51
195.2575039999999
  0
ARC
  5
9A9C
330
97E3
100
AcDbEntity
  8
1
  6
Continuous
100
AcDbCircle
 10
28.817579
 20
222.5696829999999
 30
0.0
 40
7.932788
100
AcDbArc
 50
192.728899
 51
193.268102
  0
ARC
  5
9A9D
330
97E3
100
AcDbEntity
  8
1
  6
Continuous
100
AcDbCircle
 10
21.145572
 20
220.837429
 30
0.0
 40
0.066678
100
AcDbArc
 50
90.00000300000001
 51
192.728896
  0
ARC
  5
9A9E
330
97E3
100
AcDbEntity
  8
1
  6
Continuous
100
AcDbCircle
 10
24.447691
 20
219.2377889999999
 30
0.0
 40
0.333392
100
AcDbArc
 50
270.0000039999998
 51
333.985995
  0
ARC
  5
9A9F
330
97E3
100
AcDbEntity
  8
1
  6
Continuous
100
AcDbCircle
 10
21.573225
 20
219.5044059999999
 30
0.0
 40
0.066678
100
AcDbArc
 50
90.00000300000001
 51
202.9440039999998
  0
ARC
  5
9AA0
330
97E3
100
AcDbEntity
  8
1
  6
Continuous
100
AcDbCircle
 10
28.817579
 20
222.5696829999999
 30
0.0
 40
7.932788
100
AcDbArc
 50
202.944007
 51
206.014396
  0
ARC
  5
9AA1
330
97E3
100
AcDbEntity
  8
1
  6
Continuous
100
AcDbCircle
 10
21.988699
 20
219.2377889999999
 30
0.0
 40
0.333392
100
AcDbArc
 50
206.014396
 51
270.0000039999998
  0
ARC
  5
9AA2
330
97E3
100
AcDbEntity
  8
1
  6
Continuous
100
AcDbCircle
 10
23.21752
 20
218.5705979999999
 30
0.0
 40
1.717978999999998
100
AcDbArc
 50
270.0000039999998
 51
324.4620069999998
  0
ARC
  5
9AA3
330
97E3
100
AcDbEntity
  8
1
  6
Continuous
100
AcDbCircle
 10
23.21752
 20
218.5705979999999
 30
0.0
 40
1.717978999999998
100
AcDbArc
 50
215.5377009999999
 51
256.5374009999998
  0
ARC
  5
9AA4
330
97E3
100
AcDbEntity
  8
1
  6
Continuous
100
AcDbCircle
 10
17.61880899999999
 20
222.5696829999999
 30
0.0
 40
7.932788
100
AcDbArc
 50
7.792996999999997
 51
10.103999
  0
ARC
  5
9AA5
330
97E3
100
AcDbEntity
  8
1
  6
Continuous
100
AcDbCircle
 10
25.41261099999999
 20
223.6374619999998
 30
0.0
 40
0.066678
100
AcDbArc
 50
270.0000039999998
 51
7.793000999999998
  0
ARC
  5
9AA6
330
97E3
100
AcDbEntity
  8
1
  6
Continuous
100
AcDbCircle
 10
25.099996
 20
223.904064
 30
0.0
 40
0.333392
100
AcDbArc
 50
10.103999
 51
90.00000300000001
  0
ARC
  5
9AA7
330
97E3
100
AcDbEntity
  8
1
  6
Continuous
100
AcDbCircle
 10
21.02377699999999
 20
223.6374619999998
 30
0.0
 40
0.066678
100
AcDbArc
 50
172.207005
 51
270.000001
  0
ARC
  5
9AA8
330
97E3
100
AcDbEntity
  8
1
  6
Continuous
100
AcDbCircle
 10
28.817579
 20
222.5696829999999
 30
0.0
 40
7.932788
100
AcDbArc
 50
169.8959969999999
 51
172.207005
  0
ARC
  5
9AA9
330
97E3
100
AcDbEntity
  8
1
  6
Continuous
100
AcDbCircle
 10
21.33639099999999
 20
223.904064
 30
0.0
 40
0.333392
100
AcDbArc
 50
90.00000300000001
 51
169.8959969999999
  0
ARC
  5
9AAA
330
97E3
100
AcDbEntity
  8
1
  6
Continuous
100
AcDbCircle
 10
23.21752
 20
226.57011
 30
0.0
 40
1.717978999999998
100
AcDbArc
 50
35.53799999999999
 51
45.698999
  0
ARC
  5
9AAB
330
97E3
100
AcDbEntity
  8
1
  6
Continuous
100
AcDbCircle
 10
23.21752
 20
226.57011
 30
0.0
 40
1.717978999999998
100
AcDbArc
 50
62.25000299999999
 51
144.461998
  0
ARC
  5
9AAC
330
97E3
100
AcDbEntity
  8
1
  6
Continuous
100
AcDbCircle
 10
22.88459599999999
 20
225.90292
 30
0.0
 40
0.333392
100
AcDbArc
 50
270.0000039999998
 51
90.00000300000001
  0
ARC
  5
9AAD
330
97E3
100
AcDbEntity
  8
1
  6
Continuous
100
AcDbCircle
 10
28.817579
 20
222.5696829999999
 30
0.0
 40
8.599396
100
AcDbArc
 50
144.461998
 51
215.5376979999999
  0
ARC
  5
9AAE
330
97E3
100
AcDbEntity
  8
1
  6
Continuous
100
AcDbCircle
 10
17.61880899999999
 20
222.5696829999999
 30
0.0
 40
8.599396
100
AcDbArc
 50
324.461996
 51
35.53799999999999
  0
ENDSEC
  0
SECTION
  2
OBJECTS
  0
DICTIONARY
  5
97D1
330
0
100
AcDbDictionary
281
     1
  3
ACAD_CIP_PREVIOUS_PRODUCT_INFO
350
9B12
  3
ACAD_COLOR
350
9AF4
  3
ACAD_DETAILVIEWSTYLE
350
9B0D
  3
ACAD_GROUP
350
97D2
  3
ACAD_LAYOUT
350
97DE
  3
ACAD_MATERIAL
350
9AC2
  3
ACAD_MLEADERSTYLE
350
9B09
  3
ACAD_MLINESTYLE
350
97DB
  3
ACAD_PLOTSETTINGS
350
97DD
  3
ACAD_PLOTSTYLENAME
350
9AC0
  3
ACAD_SCALELIST
350
9AF7
  3
ACAD_SECTIONVIEWSTYLE
350
9B0B
  3
ACAD_TABLESTYLE
350
9AF5
  3
ACAD_VISUALSTYLE
350
9ADB
  3
ACDB_RECOMPOSE_DATA
350
9B30
  3
AcDbVariableDictionary
350
9B23
  3
DWGPROPS
350
9B31
  0
DICTIONARY
  5
9B13
330
97D5
100
AcDbDictionary
280
     1
281
     1
  3
ADSK_XREC_LAYER_RECONCILED
360
9B14
  0
DICTIONARY
  5
9B15
330
97EB
100
AcDbDictionary
280
     1
281
     1
  3
ADSK_XREC_LAYER_RECONCILED
360
9B16
  0
DICTIONARY
  5
9B17
330
97EC
100
AcDbDictionary
280
     1
281
     1
  3
ADSK_XREC_LAYER_RECONCILED
360
9B18
  0
DICTIONARY
  5
9B19
330
97ED
100
AcDbDictionary
280
     1
281
     1
  3
ADSK_XREC_LAYER_RECONCILED
360
9B1A
  0
DICTIONARY
  5
9B1B
330
97EE
100
AcDbDictionary
280
     1
281
     1
  3
ADSK_XREC_LAYER_RECONCILED
360
9B1C
  0
DICTIONARY
  5
9B1D
330
97EF
100
AcDbDictionary
280
     1
281
     1
  3
ADSK_XREC_LAYER_RECONCILED
360
9B1E
  0
DICTIONARY
  5
9B1F
330
97F0
100
AcDbDictionary
280
     1
281
     1
  3
ADSK_XREC_LAYER_RECONCILED
360
9B20
  0
DICTIONARY
  5
9B21
330
97F1
100
AcDbDictionary
280
     1
281
     1
  3
ADSK_XREC_LAYER_RECONCILED
360
9B22
  0
DICTIONARY
  5
9ABB
330
97E3
100
AcDbDictionary
281
     1
  3
ACAD_LAYOUTSELFREF
350
9ABC
  0
DICTIONARY
  5
9AB9
330
97DF
100
AcDbDictionary
281
     1
  3
ACAD_LAYOUTSELFREF
350
9ABA
  0
XRECORD
  5
9B12
102
{ACAD_REACTORS
330
97D1
102
}
330
97D1
100
AcDbXrecord
280
     1
300
ACDLT
300
2014
300
ACDLT_F_S
  0
DICTIONARY
  5
9AF4
102
{ACAD_REACTORS
330
97D1
102
}
330
97D1
100
AcDbDictionary
281
     1
  0
DICTIONARY
  5
9B0D
102
{ACAD_REACTORS
330
97D1
102
}
330
97D1
100
AcDbDictionary
281
     1
  3
Imperial24
350
9B0E
  0
DICTIONARY
  5
97D2
102
{ACAD_REACTORS
330
97D1
102
}
330
97D1
100
AcDbDictionary
281
     1
  0
DICTIONARY
  5
97DE
102
{ACAD_REACTORS
330
97D1
102
}
330
97D1
100
AcDbDictionary
281
     1
  3
Model
350
9B0F
  3
レイアウト1
350
9B10
  0
DICTIONARY
  5
9AC2
102
{ACAD_REACTORS
330
97D1
102
}
330
97D1
100
AcDbDictionary
281
     1
  3
ByBlock
350
9ACB
  3
ByLayer
350
9AC3
  3
Global
350
9AD3
  0
DICTIONARY
  5
9B09
102
{ACAD_REACTORS
330
97D1
102
}
330
97D1
100
AcDbDictionary
281
     1
  3
Standard
350
9B0A
  0
DICTIONARY
  5
97DB
102
{ACAD_REACTORS
330
97D1
102
}
330
97D1
100
AcDbDictionary
281
     1
  3
STANDARD
350
97DC
  0
DICTIONARY
  5
97DD
102
{ACAD_REACTORS
330
97D1
102
}
330
97D1
100
AcDbDictionary
281
     1
  0
ACDBDICTIONARYWDFLT
  5
9AC0
102
{ACAD_REACTORS
330
97D1
102
}
330
97D1
100
AcDbDictionary
281
     1
  3
Normal
350
9AC1
100
AcDbDictionaryWithDefault
340
9AC1
  0
DICTIONARY
  5
9AF7
102
{ACAD_REACTORS
330
97D1
102
}
330
97D1
100
AcDbDictionary
281
     1
  3
A0
350
9AF8
  3
A1
350
9AF9
  3
A2
350
9AFA
  3
A3
350
9AFB
  3
A4
350
9AFC
  3
A5
350
9AFD
  3
A6
350
9AFE
  3
A7
350
9AFF
  3
A8
350
9B00
  3
A9
350
9B01
  3
B0
350
9B02
  3
B1
350
9B03
  3
B2
350
9B04
  3
B3
350
9B05
  3
B4
350
9B06
  3
B5
350
9B07
  3
B6
350
9B08
  0
DICTIONARY
  5
9B0B
102
{ACAD_REACTORS
330
97D1
102
}
330
97D1
100
AcDbDictionary
281
     1
  3
Imperial24
350
9B0C
  0
DICTIONARY
  5
9AF5
102
{ACAD_REACTORS
330
97D1
102
}
330
97D1
100
AcDbDictionary
281
     1
  3
Standard
350
9AF6
  0
DICTIONARY
  5
9ADB
102
{ACAD_REACTORS
330
97D1
102
}
330
97D1
100
AcDbDictionary
281
     1
  3
2dWireframe
350
9AE1
  3
Basic
350
9AE0
  3
Brighten
350
9AE7
  3
ColorChange
350
9AEB
  3
Conceptual
350
9AE4
  3
Dim
350
9AE6
  3
EdgeColorOff
350
9AF3
  3
Facepattern
350
9AEA
  3
Flat
350
9ADC
  3
FlatWithEdges
350
9ADD
  3
Gouraud
350
9ADE
  3
GouraudWithEdges
350
9ADF
  3
Hidden
350
9AE3
  3
JitterOff
350
9AF1
  3
Linepattern
350
9AE9
  3
OverhangOff
350
9AF2
  3
Realistic
350
9AE5
  3
Shaded
350
9AF0
  3
Shaded with edges
350
9AEF
  3
Shades of Gray
350
9AEC
  3
Sketchy
350
9AED
  3
Thicken
350
9AE8
  3
Wireframe
350
9AE2
  3
X-Ray
350
9AEE
  0
XRECORD
  5
9B30
102
{ACAD_REACTORS
330
97D1
102
}
330
97D1
100
AcDbXrecord
280
     1
 90
        1
330
9AF6
  0
DICTIONARY
  5
9B23
102
{ACAD_REACTORS
330
97D1
102
}
330
97D1
100
AcDbDictionary
281
     1
  3
CANNOSCALE
350
9B28
  3
CMLEADERSTYLE
350
9B25
  3
CTABLESTYLE
350
9B24
  3
CVIEWDETAILSTYLE
350
9B26
  3
CVIEWSECTIONSTYLE
350
9B27
  3
DIMASSOC
350
9B2B
  3
INDEXCTL
350
9B2A
  3
SORTENTS
350
9B29
  3
XCLIPFRAME
350
9B2C
  0
XRECORD
  5
9B31
102
{ACAD_REACTORS
330
97D1
102
}
330
97D1
100
AcDbXrecord
280
     1
  1
DWGPROPS COOKIE
  2

  3

  4

  6

  7

  8
Yoshitsune
  9

300
=
301
=
302
=
303
=
304
=
305
=
306
=
307
=
308
=
309
=
 40
0.0000147800925926
 41
2450945.563098148
 42
2457192.598963125
  1

 90
        0
  0
XRECORD
  5
9B14
102
{ACAD_REACTORS
330
9B13
102
}
330
9B13
100
AcDbXrecord
280
     1
290
     1
  0
XRECORD
  5
9B16
102
{ACAD_REACTORS
330
9B15
102
}
330
9B15
100
AcDbXrecord
280
     1
290
     1
  0
XRECORD
  5
9B18
102
{ACAD_REACTORS
330
9B17
102
}
330
9B17
100
AcDbXrecord
280
     1
290
     1
  0
XRECORD
  5
9B1A
102
{ACAD_REACTORS
330
9B19
102
}
330
9B19
100
AcDbXrecord
280
     1
290
     1
  0
XRECORD
  5
9B1C
102
{ACAD_REACTORS
330
9B1B
102
}
330
9B1B
100
AcDbXrecord
280
     1
290
     1
  0
XRECORD
  5
9B1E
102
{ACAD_REACTORS
330
9B1D
102
}
330
9B1D
100
AcDbXrecord
280
     1
290
     1
  0
XRECORD
  5
9B20
102
{ACAD_REACTORS
330
9B1F
102
}
330
9B1F
100
AcDbXrecord
280
     1
290
     1
  0
XRECORD
  5
9B22
102
{ACAD_REACTORS
330
9B21
102
}
330
9B21
100
AcDbXrecord
280
     1
290
     1
  0
XRECORD
  5
9ABC
102
{ACAD_REACTORS
330
9ABB
102
}
330
9ABB
100
AcDbXrecord
280
     1
340
97E3
  0
XRECORD
  5
9ABA
102
{ACAD_REACTORS
330
9AB9
102
}
330
9AB9
100
AcDbXrecord
280
     1
340
97DF
  0
ACDBDETAILVIEWSTYLE
  5
9B0E
102
{ACAD_XDICTIONARY
360
9B69
102
}
102
{ACAD_REACTORS
330
9B0D
102
}
330
9B0D
100
AcDbModelDocViewStyle
 70
     0
  3
Imperial24
290
     0
100
AcDbDetailViewStyle
 70
     0
 71
     0
 90
        3
 71
     1
340
97D6
 40
0.24
340
0
 40
0.24
300

 40
0.36
280
     3
 71
     2
340
97DA
 90
       25
 71
     3
340
97D6
 40
0.24
 90
        1
 40
0.75
 90
        1
300
%<\AcVar ViewType \f "%tc1">% %<\AcVar ViewDetailId>%\PSCALE %<\AcVar ViewScale \f "%sn">%
 71
     4
340
97DA
 90
       25
340
97DA
 90
       25
280
     0
  0
LAYOUT
  5
9B0F
102
{ACAD_XDICTIONARY
360
9B6B
102
}
102
{ACAD_REACTORS
330
97DE
102
}
330
97DE
100
AcDbPlotSettings
  1

  2
Canon LBP9100C
  4

  6

 40
0.0
 41
0.0
 42
0.0
 43
0.0
 44
0.0
 45
0.0
 46
0.0
 47
0.0
 48
0.0
 49
0.0
140
0.0
141
0.0
142
1.0
143
1.0
 70
  1712
 72
     0
 73
     0
 74
     0
  7

 75
     0
147
1.0
148
0.0
149
0.0
100
AcDbLayout
  1
Model
 70
     1
 71
     0
 10
0.0
 20
0.0
 11
12.0
 21
9.0
 12
0.0
 22
0.0
 32
0.0
 14
0.0
 24
0.0
 34
0.0
 15
0.0
 25
0.0
 35
0.0
146
0.0
 13
0.0
 23
0.0
 33
0.0
 16
1.0
 26
0.0
 36
0.0
 17
0.0
 27
1.0
 37
0.0
 76
     0
330
97E3
331
9AB8
  0
LAYOUT
  5
9B10
102
{ACAD_XDICTIONARY
360
9B6D
102
}
102
{ACAD_REACTORS
330
97DE
102
}
330
97DE
100
AcDbPlotSettings
  1

  2
Canon LBP9100C
  4

  6

 40
0.0
 41
0.0
 42
0.0
 43
0.0
 44
0.0
 45
0.0
 46
0.0
 47
0.0
 48
0.0
 49
0.0
140
0.0
141
0.0
142
1.0
143
1.0
 70
   688
 72
     0
 73
     0
 74
     5
  7

 75
    16
147
1.0
148
0.0
149
0.0
100
AcDbLayout
  1
レイアウト1
 70
     0
 71
     1
 10
0.0
 20
0.0
 11
420.0
 21
297.0
 12
0.0
 22
0.0
 32
0.0
 14
1.000000000000000E+20
 24
1.000000000000000E+20
 34
1.000000000000000E+20
 15
-1.000000000000000E+20
 25
-1.000000000000000E+20
 35
-1.000000000000000E+20
146
0.0
 13
0.0
 23
0.0
 33
0.0
 16
1.0
 26
0.0
 36
0.0
 17
0.0
 27
1.0
 37
0.0
 76
     0
330
97DF
  0
MATERIAL
  5
9ACB
102
{ACAD_XDICTIONARY
360
9ACC
102
}
102
{ACAD_REACTORS
330
9AC2
102
}
330
9AC2
100
AcDbMaterial
  1
ByBlock
 72
     0
 43
0.0208333333333333
 43
0.0
 43
0.0
 43
0.0
 43
0.0
 43
0.0208333333333333
 43
0.0
 43
0.0
 43
0.0
 43
0.0
 43
1.0
 43
0.0
 43
0.0
 43
0.0
 43
0.0
 43
1.0
 77
     0
 47
0.0208333333333333
 47
0.0
 47
0.0
 47
0.0
 47
0.0
 47
0.0208333333333333
 47
0.0
 47
0.0
 47
0.0
 47
0.0
 47
1.0
 47
0.0
 47
0.0
 47
0.0
 47
0.0
 47
1.0
171
     0
 49
0.0208333333333333
 49
0.0
 49
0.0
 49
0.0
 49
0.0
 49
0.0208333333333333
 49
0.0
 49
0.0
 49
0.0
 49
0.0
 49
1.0
 49
0.0
 49
0.0
 49
0.0
 49
0.0
 49
1.0
175
     0
142
0.0208333333333333
142
0.0
142
0.0
142
0.0
142
0.0
142
0.0208333333333333
142
0.0
142
0.0
142
0.0
142
0.0
142
1.0
142
0.0
142
0.0
142
0.0
142
0.0
142
1.0
179
     0
144
0.0208333333333333
144
0.0
144
0.0
144
0.0
144
0.0
144
0.0208333333333333
144
0.0
144
0.0
144
0.0
144
0.0
144
1.0
144
0.0
144
0.0
144
0.0
144
0.0
144
1.0
147
0.0208333333333333
147
0.0
147
0.0
147
0.0
147
0.0
147
0.0208333333333333
147
0.0
147
0.0
147
0.0
147
0.0
147
1.0
147
0.0
147
0.0
147
0.0
147
0.0
147
1.0
  0
MATERIAL
  5
9AC3
102
{ACAD_XDICTIONARY
360
9AC4
102
}
102
{ACAD_REACTORS
330
9AC2
102
}
330
9AC2
100
AcDbMaterial
  1
ByLayer
 72
     0
 43
0.0208333333333333
 43
0.0
 43
0.0
 43
0.0
 43
0.0
 43
0.0208333333333333
 43
0.0
 43
0.0
 43
0.0
 43
0.0
 43
1.0
 43
0.0
 43
0.0
 43
0.0
 43
0.0
 43
1.0
 77
     0
 47
0.0208333333333333
 47
0.0
 47
0.0
 47
0.0
 47
0.0
 47
0.0208333333333333
 47
0.0
 47
0.0
 47
0.0
 47
0.0
 47
1.0
 47
0.0
 47
0.0
 47
0.0
 47
0.0
 47
1.0
171
     0
 49
0.0208333333333333
 49
0.0
 49
0.0
 49
0.0
 49
0.0
 49
0.0208333333333333
 49
0.0
 49
0.0
 49
0.0
 49
0.0
 49
1.0
 49
0.0
 49
0.0
 49
0.0
 49
0.0
 49
1.0
175
     0
142
0.0208333333333333
142
0.0
142
0.0
142
0.0
142
0.0
142
0.0208333333333333
142
0.0
142
0.0
142
0.0
142
0.0
142
1.0
142
0.0
142
0.0
142
0.0
142
0.0
142
1.0
179
     0
144
0.0208333333333333
144
0.0
144
0.0
144
0.0
144
0.0
144
0.0208333333333333
144
0.0
144
0.0
144
0.0
144
0.0
144
1.0
144
0.0
144
0.0
144
0.0
144
0.0
144
1.0
147
0.0208333333333333
147
0.0
147
0.0
147
0.0
147
0.0
147
0.0208333333333333
147
0.0
147
0.0
147
0.0
147
0.0
147
1.0
147
0.0
147
0.0
147
0.0
147
0.0
147
1.0
  0
MATERIAL
  5
9AD3
102
{ACAD_XDICTIONARY
360
9AD4
102
}
102
{ACAD_REACTORS
330
9AC2
102
}
330
9AC2
100
AcDbMaterial
  1
Global
 72
     0
 43
0.0208333333333333
 43
0.0
 43
0.0
 43
0.0
 43
0.0
 43
0.0208333333333333
 43
0.0
 43
0.0
 43
0.0
 43
0.0
 43
1.0
 43
0.0
 43
0.0
 43
0.0
 43
0.0
 43
1.0
 77
     0
 47
0.0208333333333333
 47
0.0
 47
0.0
 47
0.0
 47
0.0
 47
0.0208333333333333
 47
0.0
 47
0.0
 47
0.0
 47
0.0
 47
1.0
 47
0.0
 47
0.0
 47
0.0
 47
0.0
 47
1.0
171
     0
 49
0.0208333333333333
 49
0.0
 49
0.0
 49
0.0
 49
0.0
 49
0.0208333333333333
 49
0.0
 49
0.0
 49
0.0
 49
0.0
 49
1.0
 49
0.0
 49
0.0
 49
0.0
 49
0.0
 49
1.0
175
     0
142
0.0208333333333333
142
0.0
142
0.0
142
0.0
142
0.0
142
0.0208333333333333
142
0.0
142
0.0
142
0.0
142
0.0
142
1.0
142
0.0
142
0.0
142
0.0
142
0.0
142
1.0
179
     0
144
0.0208333333333333
144
0.0
144
0.0
144
0.0
144
0.0
144
0.0208333333333333
144
0.0
144
0.0
144
0.0
144
0.0
144
1.0
144
0.0
144
0.0
144
0.0
144
0.0
144
1.0
147
0.0208333333333333
147
0.0
147
0.0
147
0.0
147
0.0
147
0.0208333333333333
147
0.0
147
0.0
147
0.0
147
0.0
147
1.0
147
0.0
147
0.0
147
0.0
147
0.0
147
1.0
  0
MLEADERSTYLE
  5
9B0A
102
{ACAD_REACTORS
330
9B09
102
}
330
9B09
100
AcDbMLeaderStyle
170
     2
171
     1
172
     0
 90
        2
 40
0.0
 41
0.0
173
     1
 91
-1056964608
340
97D8
 92
       -2
290
     1
 42
0.09
291
     1
 43
0.36
  3
Standard
 44
0.18
300

342
97D6
174
     1
178
     6
175
     1
176
     0
 93
-1056964608
 45
0.18
292
     0
297
     0
 46
0.18
 94
-1056964608
 47
1.0
 49
1.0
140
1.0
293
     1
141
0.0
294
     1
177
     0
142
1.0
295
     0
296
     0
143
0.125
1001
ACAD_MLEADERVER
1070
     2
  0
MLINESTYLE
  5
97DC
102
{ACAD_REACTORS
330
97DB
102
}
330
97DB
100
AcDbMlineStyle
  2
STANDARD
 70
     0
  3

 62
   256
 51
90.0
 52
90.0
 71
     2
 49
0.5
 62
   256
  6
BYLAYER
 49
-0.5
 62
   256
  6
BYLAYER
  0
ACDBPLACEHOLDER
  5
9AC1
102
{ACAD_REACTORS
330
9AC0
102
}
330
9AC0
  0
SCALE
  5
9AF8
102
{ACAD_REACTORS
330
9AF7
102
}
330
9AF7
100
AcDbScale
 70
     0
300
1:1
140
1.0
141
1.0
290
     1
  0
SCALE
  5
9AF9
102
{ACAD_REACTORS
330
9AF7
102
}
330
9AF7
100
AcDbScale
 70
     0
300
1/128" = 1'-0"
140
0.0078125
141
12.0
290
     0
  0
SCALE
  5
9AFA
102
{ACAD_REACTORS
330
9AF7
102
}
330
9AF7
100
AcDbScale
 70
     0
300
1/64" = 1'-0"
140
0.015625
141
12.0
290
     0
  0
SCALE
  5
9AFB
102
{ACAD_REACTORS
330
9AF7
102
}
330
9AF7
100
AcDbScale
 70
     0
300
1/32" = 1'-0"
140
0.03125
141
12.0
290
     0
  0
SCALE
  5
9AFC
102
{ACAD_REACTORS
330
9AF7
102
}
330
9AF7
100
AcDbScale
 70
     0
300
1/16" = 1'-0"
140
0.0625
141
12.0
290
     0
  0
SCALE
  5
9AFD
102
{ACAD_REACTORS
330
9AF7
102
}
330
9AF7
100
AcDbScale
 70
     0
300
3/32" = 1'-0"
140
0.09375
141
12.0
290
     0
  0
SCALE
  5
9AFE
102
{ACAD_REACTORS
330
9AF7
102
}
330
9AF7
100
AcDbScale
 70
     0
300
1/8" = 1'-0"
140
0.125
141
12.0
290
     0
  0
SCALE
  5
9AFF
102
{ACAD_REACTORS
330
9AF7
102
}
330
9AF7
100
AcDbScale
 70
     0
300
3/16" = 1'-0"
140
0.1875
141
12.0
290
     0
  0
SCALE
  5
9B00
102
{ACAD_REACTORS
330
9AF7
102
}
330
9AF7
100
AcDbScale
 70
     0
300
1/4" = 1'-0"
140
0.25
141
12.0
290
     0
  0
SCALE
  5
9B01
102
{ACAD_REACTORS
330
9AF7
102
}
330
9AF7
100
AcDbScale
 70
     0
300
3/8" = 1'-0"
140
0.375
141
12.0
290
     0
  0
SCALE
  5
9B02
102
{ACAD_REACTORS
330
9AF7
102
}
330
9AF7
100
AcDbScale
 70
     0
300
1/2" = 1'-0"
140
0.5
141
12.0
290
     0
  0
SCALE
  5
9B03
102
{ACAD_REACTORS
330
9AF7
102
}
330
9AF7
100
AcDbScale
 70
     0
300
3/4" = 1'-0"
140
0.75
141
12.0
290
     0
  0
SCALE
  5
9B04
102
{ACAD_REACTORS
330
9AF7
102
}
330
9AF7
100
AcDbScale
 70
     0
300
1" = 1'-0"
140
1.0
141
12.0
290
     0
  0
SCALE
  5
9B05
102
{ACAD_REACTORS
330
9AF7
102
}
330
9AF7
100
AcDbScale
 70
     0
300
1-1/2" = 1'-0"
140
1.5
141
12.0
290
     0
  0
SCALE
  5
9B06
102
{ACAD_REACTORS
330
9AF7
102
}
330
9AF7
100
AcDbScale
 70
     0
300
3" = 1'-0"
140
3.0
141
12.0
290
     0
  0
SCALE
  5
9B07
102
{ACAD_REACTORS
330
9AF7
102
}
330
9AF7
100
AcDbScale
 70
     0
300
6" = 1'-0"
140
6.0
141
12.0
290
     0
  0
SCALE
  5
9B08
102
{ACAD_REACTORS
330
9AF7
102
}
330
9AF7
100
AcDbScale
 70
     0
300
1'-0" = 1'-0"
140
12.0
141
12.0
290
     0
  0
ACDBSECTIONVIEWSTYLE
  5
9B0C
102
{ACAD_XDICTIONARY
360
9B67
102
}
102
{ACAD_REACTORS
330
9B0B
102
}
330
9B0B
100
AcDbModelDocViewStyle
 70
     0
  3
Imperial24
290
     0
100
AcDbSectionViewStyle
 70
     0
 71
     0
 90
       78
 71
     1
340
97D6
 40
0.24
340
0
340
0
 40
0.24
300
I, O, Q, S, X, Z
 40
0.48
 90
        3
 40
0.18
 90
        1
 71
     2
340
97DA
 90
       25
340
97DA
 90
       50
 40
0.24
 40
0.0
 40
0.24
 71
     3
340
97D6
 40
0.24
 90
        1
 40
0.75
 90
        1
300
%<\AcVar ViewType \f "%tc1">% %<\AcVar ViewSectionStartId>%-%<\AcVar ViewSectionEndId>%\PSCALE %<\AcVar ViewScale \f "%sn">%
 71
     4
300
ANSI31
 40
1.0
 90
        0
290
     0
290
     0
 90
        6
 40
0.0
 40
1.570796326794896
 40
0.2617993877991494
 40
1.308996938995747
 40
-0.2617993877991494
 40
1.832595714594046
  0
TABLESTYLE
  5
9AF6
102
{ACAD_XDICTIONARY
360
9B2E
102
}
102
{ACAD_REACTORS
330
9AF5
102
}
330
9AF5
100
AcDbTableStyle
  3
Standard
 70
     0
 71
     0
 40
0.06
 41
0.06
280
     0
281
     0
  7
STANDARD
140
0.18
170
     2
 62
     0
 63
     7
283
     0
274
    -2
284
     1
 64
     0
275
    -2
285
     1
 65
     0
276
    -2
286
     1
 66
     0
277
    -2
287
     1
 67
     0
278
    -2
288
     1
 68
     0
279
    -2
289
     1
 69
     0
  7
STANDARD
140
0.25
170
     5
 62
     0
 63
     7
283
     0
274
    -2
284
     1
 64
     0
275
    -2
285
     1
 65
     0
276
    -2
286
     1
 66
     0
277
    -2
287
     1
 67
     0
278
    -2
288
     1
 68
     0
279
    -2
289
     1
 69
     0
  7
STANDARD
140
0.18
170
     5
 62
     0
 63
     7
283
     0
274
    -2
284
     1
 64
     0
275
    -2
285
     1
 65
     0
276
    -2
286
     1
 66
     0
277
    -2
287
     1
 67
     0
278
    -2
288
     1
 68
     0
279
    -2
289
     1
 69
     0
  0
VISUALSTYLE
  5
9AE1
102
{ACAD_XDICTIONARY
360
9B3F
102
}
102
{ACAD_REACTORS
330
9ADB
102
}
330
9ADB
100
AcDbVisualStyle
  2
2dWireframe
 70
     4
 71
     0
 72
     2
 73
     0
 90
        0
 40
-0.6
 41
-30.0
 62
     5
 63
     7
 74
     1
 91
        4
 64
     7
 65
   257
 75
     1
175
     1
 42
1.0
 92
        0
 66
   257
 43
1.0
 76
     1
 77
     6
 78
     2
 67
     7
 79
     5
170
     0
171
     0
290
     0
174
     0
 93
        1
 44
0.0
173
     0
291
     0
 45
0.0
1001
ACAD
1000
AcDbSavedByObjectVersion
1070
     0
  0
VISUALSTYLE
  5
9AE0
102
{ACAD_XDICTIONARY
360
9B3D
102
}
102
{ACAD_REACTORS
330
9ADB
102
}
330
9ADB
100
AcDbVisualStyle
  2
Basic
 70
     7
 71
     1
 72
     0
 73
     1
 90
        0
 40
-0.6
 41
-30.0
 62
     5
 63
     7
 74
     0
 91
        4
 64
     7
 65
   257
 75
     1
175
     1
 42
1.0
 92
        8
 66
     7
 43
1.0
 76
     1
 77
     6
 78
     2
 67
     7
 79
     5
170
     0
171
     0
290
     0
174
     0
 93
        1
 44
0.0
173
     0
291
     1
 45
0.0
1001
ACAD
1000
AcDbSavedByObjectVersion
1070
     0
  0
VISUALSTYLE
  5
9AE7
102
{ACAD_XDICTIONARY
360
9B4B
102
}
102
{ACAD_REACTORS
330
9ADB
102
}
330
9ADB
100
AcDbVisualStyle
  2
Brighten
 70
    12
 71
     2
 72
     2
 73
     0
 90
        0
 40
-0.6
 41
-30.0
 62
     5
 63
     7
 74
     1
 91
        4
 64
     7
 65
   257
 75
     1
175
     1
 42
1.0
 92
        8
 66
     7
 43
1.0
 76
     1
 77
     6
 78
     2
 67
     7
 79
     5
170
     0
171
     0
290
     0
174
     0
 93
        1
 44
50.0
173
     0
291
     1
 45
0.0
1001
ACAD
1000
AcDbSavedByObjectVersion
1070
     0
  0
VISUALSTYLE
  5
9AEB
102
{ACAD_XDICTIONARY
360
9B53
102
}
102
{ACAD_REACTORS
330
9ADB
102
}
330
9ADB
100
AcDbVisualStyle
  2
ColorChange
 70
    16
 71
     2
 72
     2
 73
     3
 90
        0
 40
-0.6
 41
-30.0
 62
     5
 63
     8
 74
     1
 91
        4
 64
     7
 65
   257
 75
     1
175
     1
 42
1.0
 92
        8
 66
     8
 43
1.0
 76
     1
 77
     6
 78
     2
 67
     7
 79
     5
170
     0
171
     0
290
     0
174
     0
 93
        1
 44
0.0
173
     0
291
     1
 45
0.0
1001
ACAD
1000
AcDbSavedByObjectVersion
1070
     0
  0
VISUALSTYLE
  5
9AE4
102
{ACAD_XDICTIONARY
360
9B45
102
}
102
{ACAD_REACTORS
330
9ADB
102
}
330
9ADB
100
AcDbVisualStyle
  2
Conceptual
 70
     9
 71
     3
 72
     2
 73
     0
 90
        0
 40
-0.6
 41
-30.0
 62
     5
 63
     7
 74
     2
 91
        2
 64
     7
 65
   257
 75
     1
175
     1
 42
179.0
 92
        8
 66
     7
 43
1.0
 76
     1
 77
     6
 78
     2
 67
     7
 79
     3
170
     0
171
     0
290
     0
174
     0
 93
        1
 44
0.0
173
     0
291
     0
 45
0.0
1001
ACAD
1000
AcDbSavedByObjectVersion
1070
     0
  0
VISUALSTYLE
  5
9AE6
102
{ACAD_XDICTIONARY
360
9B49
102
}
102
{ACAD_REACTORS
330
9ADB
102
}
330
9ADB
100
AcDbVisualStyle
  2
Dim
 70
    11
 71
     2
 72
     2
 73
     0
 90
        0
 40
-0.6
 41
-30.0
 62
     5
 63
     7
 74
     1
 91
        4
 64
     7
 65
   257
 75
     1
175
     1
 42
1.0
 92
        8
 66
     7
 43
1.0
 76
     1
 77
     6
 78
     2
 67
     7
 79
     5
170
     0
171
     0
290
     0
174
     0
 93
        1
 44
-50.0
173
     0
291
     1
 45
0.0
1001
ACAD
1000
AcDbSavedByObjectVersion
1070
     0
  0
VISUALSTYLE
  5
9AF3
102
{ACAD_XDICTIONARY
360
9B63
102
}
102
{ACAD_REACTORS
330
9ADB
102
}
330
9ADB
100
AcDbVisualStyle
  2
EdgeColorOff
 70
    22
 71
     2
 72
     2
 73
     0
 90
        0
 40
-0.6
 41
-30.0
 62
     5
 63
     7
 74
     1
 91
        4
 64
     7
 65
   257
 75
     1
175
     1
 42
1.0
 92
        8
 66
     7
 43
1.0
 76
     1
 77
     6
 78
     2
 67
     7
 79
     5
170
     0
171
     0
290
     0
174
     0
 93
        1
 44
0.0
173
     0
291
     1
 45
0.0
1001
ACAD
1000
AcDbSavedByObjectVersion
1070
     0
  0
VISUALSTYLE
  5
9AEA
102
{ACAD_XDICTIONARY
360
9B51
102
}
102
{ACAD_REACTORS
330
9ADB
102
}
330
9ADB
100
AcDbVisualStyle
  2
Facepattern
 70
    15
 71
     2
 72
     2
 73
     0
 90
        0
 40
-0.6
 41
-30.0
 62
     5
 63
     7
 74
     1
 91
        4
 64
     7
 65
   257
 75
     1
175
     1
 42
1.0
 92
        8
 66
     7
 43
1.0
 76
     1
 77
     6
 78
     2
 67
     7
 79
     5
170
     0
171
     0
290
     0
174
     0
 93
        1
 44
0.0
173
     0
291
     1
 45
0.0
1001
ACAD
1000
AcDbSavedByObjectVersion
1070
     0
  0
VISUALSTYLE
  5
9ADC
102
{ACAD_XDICTIONARY
360
9B35
102
}
102
{ACAD_REACTORS
330
9ADB
102
}
330
9ADB
100
AcDbVisualStyle
  2
Flat
 70
     0
 71
     2
 72
     1
 73
     1
 90
        2
 40
-0.6
 41
30.0
 62
     5
 63
     7
 74
     0
 91
        0
 64
     7
 65
   257
 75
     1
175
     1
 42
1.0
 92
        8
 66
     7
 43
1.0
 76
     1
 77
     6
 78
     2
 67
     7
 79
     5
170
     0
171
     0
290
     0
174
     0
 93
       13
 44
0.0
173
     0
291
     1
 45
0.0
1001
ACAD
1000
AcDbSavedByObjectVersion
1070
     0
  0
VISUALSTYLE
  5
9ADD
102
{ACAD_XDICTIONARY
360
9B37
102
}
102
{ACAD_REACTORS
330
9ADB
102
}
330
9ADB
100
AcDbVisualStyle
  2
FlatWithEdges
 70
     1
 71
     2
 72
     1
 73
     1
 90
        2
 40
-0.6
 41
30.0
 62
     5
 63
     7
 74
     1
 91
        0
 64
     7
 65
   257
 75
     1
175
     1
 42
1.0
 92
        0
 66
   257
 43
1.0
 76
     1
 77
     6
 78
     2
 67
     7
 79
     5
170
     0
171
     0
290
     0
174
     0
 93
       13
 44
0.0
173
     0
291
     1
 45
0.0
1001
ACAD
1000
AcDbSavedByObjectVersion
1070
     0
  0
VISUALSTYLE
  5
9ADE
102
{ACAD_XDICTIONARY
360
9B39
102
}
102
{ACAD_REACTORS
330
9ADB
102
}
330
9ADB
100
AcDbVisualStyle
  2
Gouraud
 70
     2
 71
     2
 72
     2
 73
     1
 90
        2
 40
-0.6
 41
30.0
 62
     5
 63
     7
 74
     0
 91
        0
 64
     7
 65
   257
 75
     1
175
     1
 42
1.0
 92
        0
 66
     7
 43
1.0
 76
     1
 77
     6
 78
     2
 67
     7
 79
     5
170
     0
171
     0
290
     0
174
     0
 93
       13
 44
0.0
173
     0
291
     1
 45
0.0
1001
ACAD
1000
AcDbSavedByObjectVersion
1070
     0
  0
VISUALSTYLE
  5
9ADF
102
{ACAD_XDICTIONARY
360
9B3B
102
}
102
{ACAD_REACTORS
330
9ADB
102
}
330
9ADB
100
AcDbVisualStyle
  2
GouraudWithEdges
 70
     3
 71
     2
 72
     2
 73
     1
 90
        2
 40
-0.6
 41
30.0
 62
     5
 63
     7
 74
     1
 91
        0
 64
     7
 65
   257
 75
     1
175
     1
 42
1.0
 92
        0
 66
   257
 43
1.0
 76
     1
 77
     6
 78
     2
 67
     7
 79
     5
170
     0
171
     0
290
     0
174
     0
 93
       13
 44
0.0
173
     0
291
     1
 45
0.0
1001
ACAD
1000
AcDbSavedByObjectVersion
1070
     0
  0
VISUALSTYLE
  5
9AE3
102
{ACAD_XDICTIONARY
360
9B43
102
}
102
{ACAD_REACTORS
330
9ADB
102
}
330
9ADB
100
AcDbVisualStyle
  2
Hidden
 70
     6
 71
     1
 72
     2
 73
     2
 90
        0
 40
-0.6
 41
-30.0
 62
     5
 63
     7
 74
     2
 91
        2
 64
     7
 65
   257
 75
     2
175
     1
 42
40.0
 92
        0
 66
   257
 43
1.0
 76
     1
 77
     6
 78
     2
 67
     7
 79
     3
170
     0
171
     0
290
     0
174
     0
 93
        1
 44
0.0
173
     0
291
     0
 45
0.0
1001
ACAD
1000
AcDbSavedByObjectVersion
1070
     0
  0
VISUALSTYLE
  5
9AF1
102
{ACAD_XDICTIONARY
360
9B5F
102
}
102
{ACAD_REACTORS
330
9ADB
102
}
330
9ADB
100
AcDbVisualStyle
  2
JitterOff
 70
    20
 71
     2
 72
     2
 73
     0
 90
        0
 40
-0.6
 41
-30.0
 62
     5
 63
     7
 74
     1
 91
        4
 64
     7
 65
   257
 75
     1
175
     1
 42
1.0
 92
       10
 66
     7
 43
1.0
 76
     1
 77
     6
 78
     2
 67
     7
 79
     5
170
     0
171
     0
290
     0
174
     0
 93
        1
 44
0.0
173
     0
291
     1
 45
0.0
1001
ACAD
1000
AcDbSavedByObjectVersion
1070
     0
  0
VISUALSTYLE
  5
9AE9
102
{ACAD_XDICTIONARY
360
9B4F
102
}
102
{ACAD_REACTORS
330
9ADB
102
}
330
9ADB
100
AcDbVisualStyle
  2
Linepattern
 70
    14
 71
     2
 72
     2
 73
     0
 90
        0
 40
-0.6
 41
-30.0
 62
     5
 63
     7
 74
     1
 91
        4
 64
     7
 65
   257
 75
     7
175
     7
 42
1.0
 92
        8
 66
     7
 43
1.0
 76
     1
 77
     6
 78
     2
 67
     7
 79
     5
170
     0
171
     0
290
     0
174
     0
 93
        1
 44
0.0
173
     0
291
     1
 45
0.0
1001
ACAD
1000
AcDbSavedByObjectVersion
1070
     0
  0
VISUALSTYLE
  5
9AF2
102
{ACAD_XDICTIONARY
360
9B61
102
}
102
{ACAD_REACTORS
330
9ADB
102
}
330
9ADB
100
AcDbVisualStyle
  2
OverhangOff
 70
    21
 71
     2
 72
     2
 73
     0
 90
        0
 40
-0.6
 41
-30.0
 62
     5
 63
     7
 74
     1
 91
        4
 64
     7
 65
   257
 75
     1
175
     1
 42
1.0
 92
        9
 66
     7
 43
1.0
 76
     1
 77
     6
 78
     2
 67
     7
 79
     5
170
     0
171
     0
290
     0
174
     0
 93
        1
 44
0.0
173
     0
291
     1
 45
0.0
1001
ACAD
1000
AcDbSavedByObjectVersion
1070
     0
  0
VISUALSTYLE
  5
9AE5
102
{ACAD_XDICTIONARY
360
9B47
102
}
102
{ACAD_REACTORS
330
9ADB
102
}
330
9ADB
100
AcDbVisualStyle
  2
Realistic
 70
     8
 71
     2
 72
     3
 73
     0
 90
        2
 40
-0.6
 41
30.0
 62
     5
 63
     7
 74
     0
 91
        0
 64
     7
 65
   257
 75
     1
175
     1
 42
1.0
 92
        8
 66
   257
 43
1.0
 76
     1
 77
     6
 78
     2
 67
     7
 79
     3
170
     0
171
     0
290
     0
174
     0
 93
       13
 44
0.0
173
     0
291
     0
 45
0.0
1001
ACAD
1000
AcDbSavedByObjectVersion
1070
     0
  0
VISUALSTYLE
  5
9AF0
102
{ACAD_XDICTIONARY
360
9B5D
102
}
102
{ACAD_REACTORS
330
9ADB
102
}
330
9ADB
100
AcDbVisualStyle
  2
Shaded
 70
    27
 71
     2
 72
     2
 73
     1
 90
        2
 40
-0.6
 41
30.0
 62
     5
 63
     7
 74
     0
 91
        4
 64
     7
 65
   257
 75
     1
175
     1
 42
1.0
 92
        8
 66
   257
 43
1.0
 76
     1
 77
     6
 78
     2
 67
     8
 79
     3
170
     0
171
     0
290
     0
174
     0
 93
        5
 44
0.0
173
     0
291
     0
 45
0.0
1001
ACAD
1000
AcDbSavedByObjectVersion
1070
     0
  0
VISUALSTYLE
  5
9AEF
102
{ACAD_XDICTIONARY
360
9B5B
102
}
102
{ACAD_REACTORS
330
9ADB
102
}
330
9ADB
100
AcDbVisualStyle
  2
Shaded with edges
 70
    26
 71
     2
 72
     2
 73
     1
 90
        2
 40
-0.6
 41
30.0
 62
     5
 63
     7
 74
     1
 91
       10
 64
     7
 65
   257
 75
     2
175
     1
 42
1.0
 92
        8
 66
   257
 43
1.0
 76
     1
 77
     6
 78
     2
 67
     7
 79
     3
170
     0
171
     0
290
     0
174
     0
 93
        5
 44
0.0
173
     0
291
     0
 45
0.0
1001
ACAD
1000
AcDbSavedByObjectVersion
1070
     0
  0
VISUALSTYLE
  5
9AEC
102
{ACAD_XDICTIONARY
360
9B55
102
}
102
{ACAD_REACTORS
330
9ADB
102
}
330
9ADB
100
AcDbVisualStyle
  2
Shades of Gray
 70
    23
 71
     2
 72
     2
 73
     3
 90
        0
 40
-0.6
 41
-30.0
 62
     5
 63
     7
 74
     2
 91
        2
 64
     7
 65
     7
 75
     1
175
     1
 42
40.0
 92
        8
 66
     7
 43
1.0
 76
     1
 77
     6
 78
     2
 67
     7
 79
     3
170
     0
171
     0
290
     0
174
     0
 93
        1
 44
0.0
173
     0
291
     0
 45
0.0
1001
ACAD
1000
AcDbSavedByObjectVersion
1070
     0
  0
VISUALSTYLE
  5
9AED
102
{ACAD_XDICTIONARY
360
9B57
102
}
102
{ACAD_REACTORS
330
9ADB
102
}
330
9ADB
100
AcDbVisualStyle
  2
Sketchy
 70
    24
 71
     1
 72
     2
 73
     2
 90
        0
 40
-0.6
 41
-30.0
 62
     5
 63
     7
 74
     2
 91
        2
 64
     7
 65
     7
 75
     1
175
     1
 42
40.0
 92
       11
 66
     7
 43
1.0
 76
     1
 77
     6
 78
     2
 67
     7
 79
     6
170
     0
171
     0
290
     0
174
     0
 93
        1
 44
0.0
173
     0
291
     0
 45
0.0
1001
ACAD
1000
AcDbSavedByObjectVersion
1070
     0
  0
VISUALSTYLE
  5
9AE8
102
{ACAD_XDICTIONARY
360
9B4D
102
}
102
{ACAD_REACTORS
330
9ADB
102
}
330
9ADB
100
AcDbVisualStyle
  2
Thicken
 70
    13
 71
     2
 72
     2
 73
     0
 90
        0
 40
-0.6
 41
-30.0
 62
     5
 63
     7
 74
     1
 91
        4
 64
     7
 65
   257
 75
     1
175
     1
 42
1.0
 92
       12
 66
     7
 43
1.0
 76
     1
 77
     6
 78
     2
 67
     7
 79
     5
170
     0
171
     0
290
     0
174
     0
 93
        1
 44
0.0
173
     0
291
     1
 45
0.0
1001
ACAD
1000
AcDbSavedByObjectVersion
1070
     0
  0
VISUALSTYLE
  5
9AE2
102
{ACAD_XDICTIONARY
360
9B41
102
}
102
{ACAD_REACTORS
330
9ADB
102
}
330
9ADB
100
AcDbVisualStyle
  2
Wireframe
 70
     5
 71
     0
 72
     2
 73
     0
 90
        0
 40
-0.6
 41
-30.0
 62
     5
 63
     7
 74
     1
 91
        4
 64
     7
 65
   257
 75
     1
175
     1
 42
1.0
 92
        0
 66
   257
 43
1.0
 76
     1
 77
     6
 78
     2
 67
     7
 79
     3
170
     0
171
     0
290
     0
174
     0
 93
        1
 44
0.0
173
     0
291
     0
 45
0.0
1001
ACAD
1000
AcDbSavedByObjectVersion
1070
     0
  0
VISUALSTYLE
  5
9AEE
102
{ACAD_XDICTIONARY
360
9B59
102
}
102
{ACAD_REACTORS
330
9ADB
102
}
330
9ADB
100
AcDbVisualStyle
  2
X-Ray
 70
    25
 71
     2
 72
     2
 73
     1
 90
        1
 40
0.5
 41
-30.0
 62
     5
 63
     7
 74
     1
 91
        0
 64
     7
 65
   257
 75
     1
175
     1
 42
1.0
 92
        8
 66
     7
 43
1.0
 76
     1
 77
     6
 78
     2
 67
     7
 79
     3
170
     0
171
     0
290
     0
174
     0
 93
       13
 44
0.0
173
     0
291
     0
 45
0.0
1001
ACAD
1000
AcDbSavedByObjectVersion
1070
     0
  0
DICTIONARYVAR
  5
9B28
102
{ACAD_REACTORS
330
9B23
102
}
330
9B23
100
DictionaryVariables
280
     0
  1
1:1
  0
DICTIONARYVAR
  5
9B25
102
{ACAD_REACTORS
330
9B23
102
}
330
9B23
100
DictionaryVariables
280
     0
  1
STANDARD
  0
DICTIONARYVAR
  5
9B24
102
{ACAD_REACTORS
330
9B23
102
}
330
9B23
100
DictionaryVariables
280
     0
  1
STANDARD
  0
DICTIONARYVAR
  5
9B26
102
{ACAD_REACTORS
330
9B23
102
}
330
9B23
100
DictionaryVariables
280
     0
  1
Imperial24
  0
DICTIONARYVAR
  5
9B27
102
{ACAD_REACTORS
330
9B23
102
}
330
9B23
100
DictionaryVariables
280
     0
  1
Imperial24
  0
DICTIONARYVAR
  5
9B2B
102
{ACAD_REACTORS
330
9B23
102
}
330
9B23
100
DictionaryVariables
280
     0
  1
1
  0
DICTIONARYVAR
  5
9B2A
102
{ACAD_REACTORS
330
9B23
102
}
330
9B23
100
DictionaryVariables
280
     0
  1
0
  0
DICTIONARYVAR
  5
9B29
102
{ACAD_REACTORS
330
9B23
102
}
330
9B23
100
DictionaryVariables
280
     0
  1
127
  0
DICTIONARYVAR
  5
9B2C
102
{ACAD_REACTORS
330
9B23
102
}
330
9B23
100
DictionaryVariables
280
     0
  1
2
  0
DICTIONARY
  5
9B69
330
9B0E
100
AcDbDictionary
280
     1
281
     1
  3
ACAD_XREC_ROUNDTRIP
360
9B6A
  0
DICTIONARY
  5
9B6B
330
9B0F
100
AcDbDictionary
280
     1
281
     1
  3
ACAD_XREC_ROUNDTRIP
360
9B6C
  0
DICTIONARY
  5
9B6D
330
9B10
100
AcDbDictionary
280
     1
281
     1
  3
ACAD_XREC_ROUNDTRIP
360
9B6E
  0
DICTIONARY
  5
9ACC
330
9ACB
100
AcDbDictionary
280
     1
281
     1
  3
ACAD_XREC_ROUNDTRIP
360
9B33
  3
BUMPTILE
360
9ACE
  3
DIFFUSETILE
360
9ACD
  3
OPACITYTILE
360
9AD1
  3
REFLECTIONTILE
360
9AD0
  3
REFRACTIONTILE
360
9AD2
  3
SPECULARTILE
360
9ACF
  0
DICTIONARY
  5
9AC4
330
9AC3
100
AcDbDictionary
280
     1
281
     1
  3
ACAD_XREC_ROUNDTRIP
360
9B32
  3
BUMPTILE
360
9AC6
  3
DIFFUSETILE
360
9AC5
  3
OPACITYTILE
360
9AC9
  3
REFLECTIONTILE
360
9AC8
  3
REFRACTIONTILE
360
9ACA
  3
SPECULARTILE
360
9AC7
  0
DICTIONARY
  5
9AD4
330
9AD3
100
AcDbDictionary
280
     1
281
     1
  3
ACAD_XREC_ROUNDTRIP
360
9B34
  3
BUMPTILE
360
9AD6
  3
DIFFUSETILE
360
9AD5
  3
OPACITYTILE
360
9AD9
  3
REFLECTIONTILE
360
9AD8
  3
REFRACTIONTILE
360
9ADA
  3
SPECULARTILE
360
9AD7
  0
DICTIONARY
  5
9B67
330
9B0C
100
AcDbDictionary
280
     1
281
     1
  3
ACAD_XREC_ROUNDTRIP
360
9B68
  0
DICTIONARY
  5
9B2E
330
9AF6
100
AcDbDictionary
280
     1
281
     1
  3
ACAD_ROUNDTRIP_2008_TABLESTYLE_CELLSTYLEMAP
360
9B2F
  3
ACAD_XREC_ROUNDTRIP
360
9B65
  0
DICTIONARY
  5
9B3F
330
9AE1
100
AcDbDictionary
280
     1
281
     1
  3
ACAD_XREC_ROUNDTRIP
360
9B40
  0
DICTIONARY
  5
9B3D
330
9AE0
100
AcDbDictionary
280
     1
281
     1
  3
ACAD_XREC_ROUNDTRIP
360
9B3E
  0
DICTIONARY
  5
9B4B
330
9AE7
100
AcDbDictionary
280
     1
281
     1
  3
ACAD_XREC_ROUNDTRIP
360
9B4C
  0
DICTIONARY
  5
9B53
330
9AEB
100
AcDbDictionary
280
     1
281
     1
  3
ACAD_XREC_ROUNDTRIP
360
9B54
  0
DICTIONARY
  5
9B45
330
9AE4
100
AcDbDictionary
280
     1
281
     1
  3
ACAD_XREC_ROUNDTRIP
360
9B46
  0
DICTIONARY
  5
9B49
330
9AE6
100
AcDbDictionary
280
     1
281
     1
  3
ACAD_XREC_ROUNDTRIP
360
9B4A
  0
DICTIONARY
  5
9B63
330
9AF3
100
AcDbDictionary
280
     1
281
     1
  3
ACAD_XREC_ROUNDTRIP
360
9B64
  0
DICTIONARY
  5
9B51
330
9AEA
100
AcDbDictionary
280
     1
281
     1
  3
ACAD_XREC_ROUNDTRIP
360
9B52
  0
DICTIONARY
  5
9B35
330
9ADC
100
AcDbDictionary
280
     1
281
     1
  3
ACAD_XREC_ROUNDTRIP
360
9B36
  0
DICTIONARY
  5
9B37
330
9ADD
100
AcDbDictionary
280
     1
281
     1
  3
ACAD_XREC_ROUNDTRIP
360
9B38
  0
DICTIONARY
  5
9B39
330
9ADE
100
AcDbDictionary
280
     1
281
     1
  3
ACAD_XREC_ROUNDTRIP
360
9B3A
  0
DICTIONARY
  5
9B3B
330
9ADF
100
AcDbDictionary
280
     1
281
     1
  3
ACAD_XREC_ROUNDTRIP
360
9B3C
  0
DICTIONARY
  5
9B43
330
9AE3
100
AcDbDictionary
280
     1
281
     1
  3
ACAD_XREC_ROUNDTRIP
360
9B44
  0
DICTIONARY
  5
9B5F
330
9AF1
100
AcDbDictionary
280
     1
281
     1
  3
ACAD_XREC_ROUNDTRIP
360
9B60
  0
DICTIONARY
  5
9B4F
330
9AE9
100
AcDbDictionary
280
     1
281
     1
  3
ACAD_XREC_ROUNDTRIP
360
9B50
  0
DICTIONARY
  5
9B61
330
9AF2
100
AcDbDictionary
280
     1
281
     1
  3
ACAD_XREC_ROUNDTRIP
360
9B62
  0
DICTIONARY
  5
9B47
330
9AE5
100
AcDbDictionary
280
     1
281
     1
  3
ACAD_XREC_ROUNDTRIP
360
9B48
  0
DICTIONARY
  5
9B5D
330
9AF0
100
AcDbDictionary
280
     1
281
     1
  3
ACAD_XREC_ROUNDTRIP
360
9B5E
  0
DICTIONARY
  5
9B5B
330
9AEF
100
AcDbDictionary
280
     1
281
     1
  3
ACAD_XREC_ROUNDTRIP
360
9B5C
  0
DICTIONARY
  5
9B55
330
9AEC
100
AcDbDictionary
280
     1
281
     1
  3
ACAD_XREC_ROUNDTRIP
360
9B56
  0
DICTIONARY
  5
9B57
330
9AED
100
AcDbDictionary
280
     1
281
     1
  3
ACAD_XREC_ROUNDTRIP
360
9B58
  0
DICTIONARY
  5
9B4D
330
9AE8
100
AcDbDictionary
280
     1
281
     1
  3
ACAD_XREC_ROUNDTRIP
360
9B4E
  0
DICTIONARY
  5
9B41
330
9AE2
100
AcDbDictionary
280
     1
281
     1
  3
ACAD_XREC_ROUNDTRIP
360
9B42
  0
DICTIONARY
  5
9B59
330
9AEE
100
AcDbDictionary
280
     1
281
     1
  3
ACAD_XREC_ROUNDTRIP
360
9B5A
  0
XRECORD
  5
9B6A
102
{ACAD_REACTORS
330
9B69
102
}
330
9B69
100
AcDbXrecord
280
     1
102
DISPLAYNAME
  1
Imperial24
102
FLAGS
 90
        0
  0
XRECORD
  5
9B6C
102
{ACAD_REACTORS
330
9B6B
102
}
330
9B6B
100
AcDbXrecord
280
     1
102
SHADEPLOT
 70
     0
102
SHADEPLOTRESLEVEL
 70
     2
102
SHADEPLOTCUSTOMDPI
 70
   300
  0
XRECORD
  5
9B6E
102
{ACAD_REACTORS
330
9B6D
102
}
330
9B6D
100
AcDbXrecord
280
     1
102
SHADEPLOT
 70
     0
102
SHADEPLOTRESLEVEL
 70
     2
102
SHADEPLOTCUSTOMDPI
 70
   300
  0
XRECORD
  5
9B33
102
{ACAD_REACTORS
330
9ACC
102
}
330
9ACC
100
AcDbXrecord
280
     1
102
MATERIAL
148
0.0
149
0.0
149
0.0
 93
        0
 94
      127
282
     0
 72
     0
 77
     0
171
     0
175
     0
179
     0
273
     0
  0
XRECORD
  5
9ACE
102
{ACAD_REACTORS
330
9ACC
102
}
330
9ACC
100
AcDbXrecord
280
     1
270
     1
271
     1
  0
XRECORD
  5
9ACD
102
{ACAD_REACTORS
330
9ACC
102
}
330
9ACC
100
AcDbXrecord
280
     1
270
     1
271
     1
  0
XRECORD
  5
9AD1
102
{ACAD_REACTORS
330
9ACC
102
}
330
9ACC
100
AcDbXrecord
280
     1
270
     1
271
     1
  0
XRECORD
  5
9AD0
102
{ACAD_REACTORS
330
9ACC
102
}
330
9ACC
100
AcDbXrecord
280
     1
270
     1
271
     1
  0
XRECORD
  5
9AD2
102
{ACAD_REACTORS
330
9ACC
102
}
330
9ACC
100
AcDbXrecord
280
     1
270
     1
271
     1
  0
XRECORD
  5
9ACF
102
{ACAD_REACTORS
330
9ACC
102
}
330
9ACC
100
AcDbXrecord
280
     1
270
     1
271
     1
  0
XRECORD
  5
9B32
102
{ACAD_REACTORS
330
9AC4
102
}
330
9AC4
100
AcDbXrecord
280
     1
102
MATERIAL
148
0.0
149
0.0
149
0.0
 93
        0
 94
      127
282
     0
 72
     0
 77
     0
171
     0
175
     0
179
     0
273
     0
  0
XRECORD
  5
9AC6
102
{ACAD_REACTORS
330
9AC4
102
}
330
9AC4
100
AcDbXrecord
280
     1
270
     1
271
     1
  0
XRECORD
  5
9AC5
102
{ACAD_REACTORS
330
9AC4
102
}
330
9AC4
100
AcDbXrecord
280
     1
270
     1
271
     1
  0
XRECORD
  5
9AC9
102
{ACAD_REACTORS
330
9AC4
102
}
330
9AC4
100
AcDbXrecord
280
     1
270
     1
271
     1
  0
XRECORD
  5
9AC8
102
{ACAD_REACTORS
330
9AC4
102
}
330
9AC4
100
AcDbXrecord
280
     1
270
     1
271
     1
  0
XRECORD
  5
9ACA
102
{ACAD_REACTORS
330
9AC4
102
}
330
9AC4
100
AcDbXrecord
280
     1
270
     1
271
     1
  0
XRECORD
  5
9AC7
102
{ACAD_REACTORS
330
9AC4
102
}
330
9AC4
100
AcDbXrecord
280
     1
270
     1
271
     1
  0
XRECORD
  5
9B34
102
{ACAD_REACTORS
330
9AD4
102
}
330
9AD4
100
AcDbXrecord
280
     1
102
MATERIAL
148
0.0
149
0.0
149
0.0
 93
        0
 94
      127
282
     0
 72
     0
 77
     0
171
     0
175
     0
179
     0
273
     0
  0
XRECORD
  5
9AD6
102
{ACAD_REACTORS
330
9AD4
102
}
330
9AD4
100
AcDbXrecord
280
     1
270
     1
271
     1
  0
XRECORD
  5
9AD5
102
{ACAD_REACTORS
330
9AD4
102
}
330
9AD4
100
AcDbXrecord
280
     1
270
     1
271
     1
  0
XRECORD
  5
9AD9
102
{ACAD_REACTORS
330
9AD4
102
}
330
9AD4
100
AcDbXrecord
280
     1
270
     1
271
     1
  0
XRECORD
  5
9AD8
102
{ACAD_REACTORS
330
9AD4
102
}
330
9AD4
100
AcDbXrecord
280
     1
270
     1
271
     1
  0
XRECORD
  5
9ADA
102
{ACAD_REACTORS
330
9AD4
102
}
330
9AD4
100
AcDbXrecord
280
     1
270
     1
271
     1
  0
XRECORD
  5
9AD7
102
{ACAD_REACTORS
330
9AD4
102
}
330
9AD4
100
AcDbXrecord
280
     1
270
     1
271
     1
  0
XRECORD
  5
9B68
102
{ACAD_REACTORS
330
9B67
102
}
330
9B67
100
AcDbXrecord
280
     1
102
DISPLAYNAME
  1
Imperial24
102
FLAGS
 90
        0
  0
CELLSTYLEMAP
  5
9B2F
102
{ACAD_REACTORS
330
9B2E
102
}
330
9B2E
100
AcDbCellStyleMap
 90
        3
300
CELLSTYLE
  1
TABLEFORMAT_BEGIN
 90
        5
170
     1
 91
        0
 92
    32768
 62
   257
 93
        1
300
CONTENTFORMAT
  1
CONTENTFORMAT_BEGIN
 90
        0
 91
        0
 92
      512
 93
        0
300

 40
0.0
140
1.0
 94
        5
 62
     0
340
97D6
144
0.25
309
CONTENTFORMAT_END
171
     0
 94
        0
309
TABLEFORMAT_END
  1
CELLSTYLE_BEGIN
 90
        1
 91
        1
300
_TITLE
309
CELLSTYLE_END
300
CELLSTYLE
  1
TABLEFORMAT_BEGIN
 90
        5
170
     1
 91
        0
 92
        0
 62
   257
 93
        1
300
CONTENTFORMAT
  1
CONTENTFORMAT_BEGIN
 90
        0
 91
        0
 92
      512
 93
        0
300

 40
0.0
140
1.0
 94
        5
 62
     0
340
97D6
144
0.18
309
CONTENTFORMAT_END
171
     0
 94
        0
309
TABLEFORMAT_END
  1
CELLSTYLE_BEGIN
 90
        2
 91
        1
300
_HEADER
309
CELLSTYLE_END
300
CELLSTYLE
  1
TABLEFORMAT_BEGIN
 90
        5
170
     1
 91
        0
 92
        0
 62
   257
 93
        1
300
CONTENTFORMAT
  1
CONTENTFORMAT_BEGIN
 90
        0
 91
        0
 92
      512
 93
        0
300

 40
0.0
140
1.0
 94
        2
 62
     0
340
97D6
144
0.18
309
CONTENTFORMAT_END
171
     0
 94
        0
309
TABLEFORMAT_END
  1
CELLSTYLE_BEGIN
 90
        3
 91
        2
300
_DATA
309
CELLSTYLE_END
  0
XRECORD
  5
9B65
102
{ACAD_REACTORS
330
9B2E
102
}
330
9B2E
100
AcDbXrecord
280
     1
102
ACAD_ROUNDTRIP_PRE2007_TABLESTYLE
 90
      512
 91
        0
  1

 92
      512
 93
        0
  2

 94
      512
 95
        0
  3

  0
XRECORD
  5
9B40
102
{ACAD_REACTORS
330
9B3F
102
}
330
9B3F
100
AcDbXrecord
280
     1
102
RTVSPost2010Prop28
280
     1
102
RTVSPost2010PropOp28
 70
     1
102
RTVSPost2010Prop29
280
     1
102
RTVSPost2010PropOp29
 70
     1
102
RTVSPost2010Prop30
280
     0
102
RTVSPost2010PropOp30
 70
     1
102
RTVSPost2010Prop31
280
     0
102
RTVSPost2010PropOp31
 70
     1
102
RTVSPost2010Prop32
280
     0
102
RTVSPost2010PropOp32
 70
     1
102
RTVSPost2010Prop33
280
     0
102
RTVSPost2010PropOp33
 70
     1
102
RTVSPost2010Prop34
280
     0
102
RTVSPost2010PropOp34
 70
     1
102
RTVSPost2010Prop35
280
     0
102
RTVSPost2010PropOp35
 70
     1
102
RTVSPost2010Prop36
280
     0
102
RTVSPost2010PropOp36
 70
     1
102
RTVSPost2010Prop37
 90
       50
102
RTVSPost2010PropOp37
 70
     1
102
RTVSPost2010Prop38
140
0.0
102
RTVSPost2010PropOp38
 70
     1
102
RTVSPost2010Prop39
140
1.0
102
RTVSPost2010PropOp39
 70
     1
102
RTVSPost2010Prop40
 90
        0
102
RTVSPost2010PropOp40
 70
     1
102
RTVSPost2010Prop41ColorIndex
 90
       18
102
RTVSPost2010Prop41ColorRGB
 90
        0
102
RTVSPost2010PropOp41
 70
     1
102
RTVSPost2010Prop42
 90
       50
102
RTVSPost2010PropOp42
 70
     1
102
RTVSPost2010Prop43
 90
        3
102
RTVSPost2010PropOp43
 70
     1
102
RTVSPost2010Prop44ColorIndex
 90
        5
102
RTVSPost2010Prop44ColorRGB
 90
      255
102
RTVSPost2010PropOp44
 70
     1
102
RTVSPost2010Prop45
280
     0
102
RTVSPost2010PropOp45
 70
     1
102
RTVSPost2010Prop46
 90
       50
102
RTVSPost2010PropOp46
 70
     1
102
RTVSPost2010Prop47
 90
       50
102
RTVSPost2010PropOp47
 70
     1
102
RTVSPost2010Prop48
 90
       50
102
RTVSPost2010PropOp48
 70
     1
102
RTVSPost2010Prop49
280
     0
102
RTVSPost2010PropOp49
 70
     1
102
RTVSPost2010Prop50
 90
       50
102
RTVSPost2010PropOp50
 70
     1
102
RTVSPost2010Prop51ColorIndex
 90
      256
102
RTVSPost2010Prop51ColorRGB
 90
-16777216
102
RTVSPost2010PropOp51
 70
     0
102
RTVSPost2010Prop52
140
1.0
102
RTVSPost2010PropOp52
 70
     0
102
RTVSPost2010Prop53
 90
        2
102
RTVSPost2010PropOp53
 70
     1
102
RTVSPost2010Prop54
  1
strokes_ogs.tif
102
RTVSPost2010PropOp54
 70
     1
102
RTVSPost2010Prop55
280
     0
102
RTVSPost2010PropOp55
 70
     1
102
RTVSPost2010Prop56
140
1.0
102
RTVSPost2010PropOp56
 70
     1
102
RTVSPost2010Prop57
140
1.0
102
RTVSPost2010PropOp57
 70
     1
102
RTVSPropertyOp0
 70
     1
102
RTVSPropertyOp1
 70
     1
102
RTVSPropertyOp2
 70
     1
102
RTVSPropertyOp3
 70
     1
102
RTVSPropertyOp4
 70
     1
102
RTVSPropertyOp5
 70
     1
102
RTVSPropertyOp6
 70
     1
102
RTVSPropertyOp7
 70
     1
102
RTVSPropertyOp8
 70
     1
102
RTVSPropertyOp9
 70
     1
102
RTVSPropertyOp10
 70
     1
102
RTVSPropertyOp11
 70
     1
102
RTVSPropertyOp12
 70
     1
102
RTVSPropertyOp13
 70
     1
102
RTVSPropertyOp14
 70
     1
102
RTVSPropertyOp15
 70
     1
102
RTVSPropertyOp16
 70
     1
102
RTVSPropertyOp17
 70
     1
102
RTVSPropertyOp18
 70
     1
102
RTVSPropertyOp19
 70
     1
102
RTVSPropertyOp20
 70
     1
102
RTVSPropertyOp21
 70
     1
102
RTVSPropertyOp22
 70
     1
102
RTVSPropertyOp23
 70
     1
102
RTVSPropertyOp24
 70
     1
102
RTVSPropertyOp25
 70
     1
102
RTVSPropertyOp26
 70
     1
102
RTVSPropertyOp27
 70
     1
102
RTVSPropertyOp28
 70
     1
102
RTVSPropertyOp29
 70
     1
102
RTVSPropertyOp30
 70
     1
102
RTVSPropertyOp31
 70
     1
102
RTVSPropertyOp32
 70
     1
102
RTVSPropertyOp33
 70
     1
102
RTVSPropertyOp34
 70
     1
102
RTVSPropertyOp35
 70
     1
102
RTVSPropertyOp36
 70
     1
102
RTVSPropertyOp37
 70
     1
102
RTVSPropertyOp38
 70
     1
102
RTVSPropertyOp39
 70
     1
102
RTVSPropertyOp40
 70
     1
102
RTVSPropertyOp41
 70
     1
102
RTVSPropertyOp42
 70
     1
102
RTVSPropertyOp43
 70
     1
102
RTVSPropertyOp44
 70
     1
102
RTVSPropertyOp45
 70
     1
102
RTVSPropertyOp46
 70
     1
102
RTVSPropertyOp47
 70
     1
102
RTVSPropertyOp48
 70
     1
102
RTVSPropertyOp49
 70
     1
102
RTVSPropertyOp50
 70
     1
102
RTVSPropertyOp51
 70
     0
102
RTVSPropertyOp52
 70
     0
102
RTVSPropertyOp53
 70
     1
102
RTVSPropertyOp54
 70
     1
102
RTVSPropertyOp55
 70
     1
102
RTVSPropertyOp56
 70
     1
102
RTVSPropertyOp57
 70
     1
102
RTVSPropertyOp58
 70
     1
102
RTVSPropertyOp59
 70
     1
102
RTVSPropertyOp60
 70
     1
102
RTVSPropertyOp61
 70
     1
102
RTVSPropertyOp62
 70
     1
  0
XRECORD
  5
9B3E
102
{ACAD_REACTORS
330
9B3D
102
}
330
9B3D
100
AcDbXrecord
280
     1
102
RTVSPost2010Prop28
280
     0
102
RTVSPost2010PropOp28
 70
     1
102
RTVSPost2010Prop29
280
     1
102
RTVSPost2010PropOp29
 70
     1
102
RTVSPost2010Prop30
280
     1
102
RTVSPost2010PropOp30
 70
     1
102
RTVSPost2010Prop31
280
     0
102
RTVSPost2010PropOp31
 70
     1
102
RTVSPost2010Prop32
280
     0
102
RTVSPost2010PropOp32
 70
     1
102
RTVSPost2010Prop33
280
     0
102
RTVSPost2010PropOp33
 70
     1
102
RTVSPost2010Prop34
280
     0
102
RTVSPost2010PropOp34
 70
     1
102
RTVSPost2010Prop35
280
     0
102
RTVSPost2010PropOp35
 70
     1
102
RTVSPost2010Prop36
280
     0
102
RTVSPost2010PropOp36
 70
     1
102
RTVSPost2010Prop37
 90
       50
102
RTVSPost2010PropOp37
 70
     1
102
RTVSPost2010Prop38
140
0.0
102
RTVSPost2010PropOp38
 70
     1
102
RTVSPost2010Prop39
140
1.0
102
RTVSPost2010PropOp39
 70
     1
102
RTVSPost2010Prop40
 90
        0
102
RTVSPost2010PropOp40
 70
     1
102
RTVSPost2010Prop41ColorIndex
 90
       18
102
RTVSPost2010Prop41ColorRGB
 90
        0
102
RTVSPost2010PropOp41
 70
     1
102
RTVSPost2010Prop42
 90
       50
102
RTVSPost2010PropOp42
 70
     1
102
RTVSPost2010Prop43
 90
        3
102
RTVSPost2010PropOp43
 70
     1
102
RTVSPost2010Prop44ColorIndex
 90
        5
102
RTVSPost2010Prop44ColorRGB
 90
      255
102
RTVSPost2010PropOp44
 70
     1
102
RTVSPost2010Prop45
280
     0
102
RTVSPost2010PropOp45
 70
     1
102
RTVSPost2010Prop46
 90
       50
102
RTVSPost2010PropOp46
 70
     1
102
RTVSPost2010Prop47
 90
       50
102
RTVSPost2010PropOp47
 70
     1
102
RTVSPost2010Prop48
 90
       50
102
RTVSPost2010PropOp48
 70
     1
102
RTVSPost2010Prop49
280
     0
102
RTVSPost2010PropOp49
 70
     1
102
RTVSPost2010Prop50
 90
       50
102
RTVSPost2010PropOp50
 70
     1
102
RTVSPost2010Prop51ColorIndex
 90
      256
102
RTVSPost2010Prop51ColorRGB
 90
-16777216
102
RTVSPost2010PropOp51
 70
     0
102
RTVSPost2010Prop52
140
1.0
102
RTVSPost2010PropOp52
 70
     0
102
RTVSPost2010Prop53
 90
        2
102
RTVSPost2010PropOp53
 70
     1
102
RTVSPost2010Prop54
  1
strokes_ogs.tif
102
RTVSPost2010PropOp54
 70
     1
102
RTVSPost2010Prop55
280
     0
102
RTVSPost2010PropOp55
 70
     1
102
RTVSPost2010Prop56
140
1.0
102
RTVSPost2010PropOp56
 70
     1
102
RTVSPost2010Prop57
140
1.0
102
RTVSPost2010PropOp57
 70
     1
102
RTVSPropertyOp0
 70
     1
102
RTVSPropertyOp1
 70
     1
102
RTVSPropertyOp2
 70
     1
102
RTVSPropertyOp3
 70
     1
102
RTVSPropertyOp4
 70
     1
102
RTVSPropertyOp5
 70
     1
102
RTVSPropertyOp6
 70
     1
102
RTVSPropertyOp7
 70
     1
102
RTVSPropertyOp8
 70
     1
102
RTVSPropertyOp9
 70
     1
102
RTVSPropertyOp10
 70
     1
102
RTVSPropertyOp11
 70
     1
102
RTVSPropertyOp12
 70
     1
102
RTVSPropertyOp13
 70
     1
102
RTVSPropertyOp14
 70
     1
102
RTVSPropertyOp15
 70
     1
102
RTVSPropertyOp16
 70
     1
102
RTVSPropertyOp17
 70
     1
102
RTVSPropertyOp18
 70
     1
102
RTVSPropertyOp19
 70
     1
102
RTVSPropertyOp20
 70
     1
102
RTVSPropertyOp21
 70
     1
102
RTVSPropertyOp22
 70
     1
102
RTVSPropertyOp23
 70
     1
102
RTVSPropertyOp24
 70
     1
102
RTVSPropertyOp25
 70
     1
102
RTVSPropertyOp26
 70
     1
102
RTVSPropertyOp27
 70
     1
102
RTVSPropertyOp28
 70
     1
102
RTVSPropertyOp29
 70
     1
102
RTVSPropertyOp30
 70
     1
102
RTVSPropertyOp31
 70
     1
102
RTVSPropertyOp32
 70
     1
102
RTVSPropertyOp33
 70
     1
102
RTVSPropertyOp34
 70
     1
102
RTVSPropertyOp35
 70
     1
102
RTVSPropertyOp36
 70
     1
102
RTVSPropertyOp37
 70
     1
102
RTVSPropertyOp38
 70
     1
102
RTVSPropertyOp39
 70
     1
102
RTVSPropertyOp40
 70
     1
102
RTVSPropertyOp41
 70
     1
102
RTVSPropertyOp42
 70
     1
102
RTVSPropertyOp43
 70
     1
102
RTVSPropertyOp44
 70
     1
102
RTVSPropertyOp45
 70
     1
102
RTVSPropertyOp46
 70
     1
102
RTVSPropertyOp47
 70
     1
102
RTVSPropertyOp48
 70
     1
102
RTVSPropertyOp49
 70
     1
102
RTVSPropertyOp50
 70
     1
102
RTVSPropertyOp51
 70
     0
102
RTVSPropertyOp52
 70
     0
102
RTVSPropertyOp53
 70
     1
102
RTVSPropertyOp54
 70
     1
102
RTVSPropertyOp55
 70
     1
102
RTVSPropertyOp56
 70
     1
102
RTVSPropertyOp57
 70
     1
102
RTVSPropertyOp58
 70
     1
102
RTVSPropertyOp59
 70
     1
102
RTVSPropertyOp60
 70
     1
102
RTVSPropertyOp61
 70
     1
102
RTVSPropertyOp62
 70
     1
  0
XRECORD
  5
9B4C
102
{ACAD_REACTORS
330
9B4B
102
}
330
9B4B
100
AcDbXrecord
280
     1
102
RTVSPost2010Prop28
280
     0
102
RTVSPost2010PropOp28
 70
     1
102
RTVSPost2010Prop29
280
     1
102
RTVSPost2010PropOp29
 70
     1
102
RTVSPost2010Prop30
280
     1
102
RTVSPost2010PropOp30
 70
     1
102
RTVSPost2010Prop31
280
     0
102
RTVSPost2010PropOp31
 70
     1
102
RTVSPost2010Prop32
280
     0
102
RTVSPost2010PropOp32
 70
     1
102
RTVSPost2010Prop33
280
     0
102
RTVSPost2010PropOp33
 70
     1
102
RTVSPost2010Prop34
280
     0
102
RTVSPost2010PropOp34
 70
     1
102
RTVSPost2010Prop35
280
     0
102
RTVSPost2010PropOp35
 70
     1
102
RTVSPost2010Prop36
280
     0
102
RTVSPost2010PropOp36
 70
     1
102
RTVSPost2010Prop37
 90
       50
102
RTVSPost2010PropOp37
 70
     1
102
RTVSPost2010Prop38
140
0.0
102
RTVSPost2010PropOp38
 70
     1
102
RTVSPost2010Prop39
140
1.0
102
RTVSPost2010PropOp39
 70
     1
102
RTVSPost2010Prop40
 90
        0
102
RTVSPost2010PropOp40
 70
     1
102
RTVSPost2010Prop41ColorIndex
 90
       18
102
RTVSPost2010Prop41ColorRGB
 90
        0
102
RTVSPost2010PropOp41
 70
     1
102
RTVSPost2010Prop42
 90
       50
102
RTVSPost2010PropOp42
 70
     1
102
RTVSPost2010Prop43
 90
        3
102
RTVSPost2010PropOp43
 70
     1
102
RTVSPost2010Prop44ColorIndex
 90
        5
102
RTVSPost2010Prop44ColorRGB
 90
      255
102
RTVSPost2010PropOp44
 70
     1
102
RTVSPost2010Prop45
280
     0
102
RTVSPost2010PropOp45
 70
     1
102
RTVSPost2010Prop46
 90
       50
102
RTVSPost2010PropOp46
 70
     1
102
RTVSPost2010Prop47
 90
       50
102
RTVSPost2010PropOp47
 70
     1
102
RTVSPost2010Prop48
 90
       50
102
RTVSPost2010PropOp48
 70
     1
102
RTVSPost2010Prop49
280
     0
102
RTVSPost2010PropOp49
 70
     1
102
RTVSPost2010Prop50
 90
       50
102
RTVSPost2010PropOp50
 70
     1
102
RTVSPost2010Prop51ColorIndex
 90
      256
102
RTVSPost2010Prop51ColorRGB
 90
-16777216
102
RTVSPost2010PropOp51
 70
     0
102
RTVSPost2010Prop52
140
1.0
102
RTVSPost2010PropOp52
 70
     0
102
RTVSPost2010Prop53
 90
        2
102
RTVSPost2010PropOp53
 70
     1
102
RTVSPost2010Prop54
  1
strokes_ogs.tif
102
RTVSPost2010PropOp54
 70
     1
102
RTVSPost2010Prop55
280
     0
102
RTVSPost2010PropOp55
 70
     1
102
RTVSPost2010Prop56
140
1.0
102
RTVSPost2010PropOp56
 70
     1
102
RTVSPost2010Prop57
140
1.0
102
RTVSPost2010PropOp57
 70
     1
102
RTVSPropertyOp0
 70
     1
102
RTVSPropertyOp1
 70
     1
102
RTVSPropertyOp2
 70
     1
102
RTVSPropertyOp3
 70
     1
102
RTVSPropertyOp4
 70
     1
102
RTVSPropertyOp5
 70
     1
102
RTVSPropertyOp6
 70
     1
102
RTVSPropertyOp7
 70
     1
102
RTVSPropertyOp8
 70
     1
102
RTVSPropertyOp9
 70
     1
102
RTVSPropertyOp10
 70
     1
102
RTVSPropertyOp11
 70
     1
102
RTVSPropertyOp12
 70
     1
102
RTVSPropertyOp13
 70
     1
102
RTVSPropertyOp14
 70
     1
102
RTVSPropertyOp15
 70
     1
102
RTVSPropertyOp16
 70
     1
102
RTVSPropertyOp17
 70
     1
102
RTVSPropertyOp18
 70
     1
102
RTVSPropertyOp19
 70
     1
102
RTVSPropertyOp20
 70
     1
102
RTVSPropertyOp21
 70
     1
102
RTVSPropertyOp22
 70
     1
102
RTVSPropertyOp23
 70
     1
102
RTVSPropertyOp24
 70
     1
102
RTVSPropertyOp25
 70
     1
102
RTVSPropertyOp26
 70
     1
102
RTVSPropertyOp27
 70
     1
102
RTVSPropertyOp28
 70
     1
102
RTVSPropertyOp29
 70
     1
102
RTVSPropertyOp30
 70
     1
102
RTVSPropertyOp31
 70
     1
102
RTVSPropertyOp32
 70
     1
102
RTVSPropertyOp33
 70
     1
102
RTVSPropertyOp34
 70
     1
102
RTVSPropertyOp35
 70
     1
102
RTVSPropertyOp36
 70
     1
102
RTVSPropertyOp37
 70
     1
102
RTVSPropertyOp38
 70
     1
102
RTVSPropertyOp39
 70
     1
102
RTVSPropertyOp40
 70
     1
102
RTVSPropertyOp41
 70
     1
102
RTVSPropertyOp42
 70
     1
102
RTVSPropertyOp43
 70
     1
102
RTVSPropertyOp44
 70
     1
102
RTVSPropertyOp45
 70
     1
102
RTVSPropertyOp46
 70
     1
102
RTVSPropertyOp47
 70
     1
102
RTVSPropertyOp48
 70
     1
102
RTVSPropertyOp49
 70
     1
102
RTVSPropertyOp50
 70
     1
102
RTVSPropertyOp51
 70
     0
102
RTVSPropertyOp52
 70
     0
102
RTVSPropertyOp53
 70
     1
102
RTVSPropertyOp54
 70
     1
102
RTVSPropertyOp55
 70
     1
102
RTVSPropertyOp56
 70
     1
102
RTVSPropertyOp57
 70
     1
102
RTVSPropertyOp58
 70
     1
102
RTVSPropertyOp59
 70
     1
102
RTVSPropertyOp60
 70
     1
102
RTVSPropertyOp61
 70
     1
102
RTVSPropertyOp62
 70
     1
  0
XRECORD
  5
9B54
102
{ACAD_REACTORS
330
9B53
102
}
330
9B53
100
AcDbXrecord
280
     1
102
RTVSPost2010Prop28
280
     0
102
RTVSPost2010PropOp28
 70
     1
102
RTVSPost2010Prop29
280
     1
102
RTVSPost2010PropOp29
 70
     1
102
RTVSPost2010Prop30
280
     1
102
RTVSPost2010PropOp30
 70
     1
102
RTVSPost2010Prop31
280
     0
102
RTVSPost2010PropOp31
 70
     1
102
RTVSPost2010Prop32
280
     0
102
RTVSPost2010PropOp32
 70
     1
102
RTVSPost2010Prop33
280
     0
102
RTVSPost2010PropOp33
 70
     1
102
RTVSPost2010Prop34
280
     0
102
RTVSPost2010PropOp34
 70
     1
102
RTVSPost2010Prop35
280
     0
102
RTVSPost2010PropOp35
 70
     1
102
RTVSPost2010Prop36
280
     0
102
RTVSPost2010PropOp36
 70
     1
102
RTVSPost2010Prop37
 90
       50
102
RTVSPost2010PropOp37
 70
     1
102
RTVSPost2010Prop38
140
0.0
102
RTVSPost2010PropOp38
 70
     1
102
RTVSPost2010Prop39
140
1.0
102
RTVSPost2010PropOp39
 70
     1
102
RTVSPost2010Prop40
 90
        0
102
RTVSPost2010PropOp40
 70
     1
102
RTVSPost2010Prop41ColorIndex
 90
       18
102
RTVSPost2010Prop41ColorRGB
 90
        0
102
RTVSPost2010PropOp41
 70
     1
102
RTVSPost2010Prop42
 90
       50
102
RTVSPost2010PropOp42
 70
     1
102
RTVSPost2010Prop43
 90
        3
102
RTVSPost2010PropOp43
 70
     1
102
RTVSPost2010Prop44ColorIndex
 90
        5
102
RTVSPost2010Prop44ColorRGB
 90
      255
102
RTVSPost2010PropOp44
 70
     1
102
RTVSPost2010Prop45
280
     0
102
RTVSPost2010PropOp45
 70
     1
102
RTVSPost2010Prop46
 90
       50
102
RTVSPost2010PropOp46
 70
     1
102
RTVSPost2010Prop47
 90
       50
102
RTVSPost2010PropOp47
 70
     1
102
RTVSPost2010Prop48
 90
       50
102
RTVSPost2010PropOp48
 70
     1
102
RTVSPost2010Prop49
280
     0
102
RTVSPost2010PropOp49
 70
     1
102
RTVSPost2010Prop50
 90
       50
102
RTVSPost2010PropOp50
 70
     1
102
RTVSPost2010Prop51ColorIndex
 90
      256
102
RTVSPost2010Prop51ColorRGB
 90
-16777216
102
RTVSPost2010PropOp51
 70
     0
102
RTVSPost2010Prop52
140
1.0
102
RTVSPost2010PropOp52
 70
     0
102
RTVSPost2010Prop53
 90
        2
102
RTVSPost2010PropOp53
 70
     1
102
RTVSPost2010Prop54
  1
strokes_ogs.tif
102
RTVSPost2010PropOp54
 70
     1
102
RTVSPost2010Prop55
280
     0
102
RTVSPost2010PropOp55
 70
     1
102
RTVSPost2010Prop56
140
1.0
102
RTVSPost2010PropOp56
 70
     1
102
RTVSPost2010Prop57
140
1.0
102
RTVSPost2010PropOp57
 70
     1
102
RTVSPropertyOp0
 70
     1
102
RTVSPropertyOp1
 70
     1
102
RTVSPropertyOp2
 70
     1
102
RTVSPropertyOp3
 70
     1
102
RTVSPropertyOp4
 70
     1
102
RTVSPropertyOp5
 70
     1
102
RTVSPropertyOp6
 70
     1
102
RTVSPropertyOp7
 70
     1
102
RTVSPropertyOp8
 70
     1
102
RTVSPropertyOp9
 70
     1
102
RTVSPropertyOp10
 70
     1
102
RTVSPropertyOp11
 70
     1
102
RTVSPropertyOp12
 70
     1
102
RTVSPropertyOp13
 70
     1
102
RTVSPropertyOp14
 70
     1
102
RTVSPropertyOp15
 70
     1
102
RTVSPropertyOp16
 70
     1
102
RTVSPropertyOp17
 70
     1
102
RTVSPropertyOp18
 70
     1
102
RTVSPropertyOp19
 70
     1
102
RTVSPropertyOp20
 70
     1
102
RTVSPropertyOp21
 70
     1
102
RTVSPropertyOp22
 70
     1
102
RTVSPropertyOp23
 70
     1
102
RTVSPropertyOp24
 70
     1
102
RTVSPropertyOp25
 70
     1
102
RTVSPropertyOp26
 70
     1
102
RTVSPropertyOp27
 70
     1
102
RTVSPropertyOp28
 70
     1
102
RTVSPropertyOp29
 70
     1
102
RTVSPropertyOp30
 70
     1
102
RTVSPropertyOp31
 70
     1
102
RTVSPropertyOp32
 70
     1
102
RTVSPropertyOp33
 70
     1
102
RTVSPropertyOp34
 70
     1
102
RTVSPropertyOp35
 70
     1
102
RTVSPropertyOp36
 70
     1
102
RTVSPropertyOp37
 70
     1
102
RTVSPropertyOp38
 70
     1
102
RTVSPropertyOp39
 70
     1
102
RTVSPropertyOp40
 70
     1
102
RTVSPropertyOp41
 70
     1
102
RTVSPropertyOp42
 70
     1
102
RTVSPropertyOp43
 70
     1
102
RTVSPropertyOp44
 70
     1
102
RTVSPropertyOp45
 70
     1
102
RTVSPropertyOp46
 70
     1
102
RTVSPropertyOp47
 70
     1
102
RTVSPropertyOp48
 70
     1
102
RTVSPropertyOp49
 70
     1
102
RTVSPropertyOp50
 70
     1
102
RTVSPropertyOp51
 70
     0
102
RTVSPropertyOp52
 70
     0
102
RTVSPropertyOp53
 70
     1
102
RTVSPropertyOp54
 70
     1
102
RTVSPropertyOp55
 70
     1
102
RTVSPropertyOp56
 70
     1
102
RTVSPropertyOp57
 70
     1
102
RTVSPropertyOp58
 70
     1
102
RTVSPropertyOp59
 70
     1
102
RTVSPropertyOp60
 70
     1
102
RTVSPropertyOp61
 70
     1
102
RTVSPropertyOp62
 70
     1
  0
XRECORD
  5
9B46
102
{ACAD_REACTORS
330
9B45
102
}
330
9B45
100
AcDbXrecord
280
     1
102
RTVSPost2010Prop28
280
     0
102
RTVSPost2010PropOp28
 70
     1
102
RTVSPost2010Prop29
280
     1
102
RTVSPost2010PropOp29
 70
     1
102
RTVSPost2010Prop30
280
     1
102
RTVSPost2010PropOp30
 70
     1
102
RTVSPost2010Prop31
280
     0
102
RTVSPost2010PropOp31
 70
     1
102
RTVSPost2010Prop32
280
     0
102
RTVSPost2010PropOp32
 70
     1
102
RTVSPost2010Prop33
280
     0
102
RTVSPost2010PropOp33
 70
     1
102
RTVSPost2010Prop34
280
     0
102
RTVSPost2010PropOp34
 70
     1
102
RTVSPost2010Prop35
280
     0
102
RTVSPost2010PropOp35
 70
     1
102
RTVSPost2010Prop36
280
     0
102
RTVSPost2010PropOp36
 70
     1
102
RTVSPost2010Prop37
 90
       50
102
RTVSPost2010PropOp37
 70
     1
102
RTVSPost2010Prop38
140
0.0
102
RTVSPost2010PropOp38
 70
     1
102
RTVSPost2010Prop39
140
1.0
102
RTVSPost2010PropOp39
 70
     1
102
RTVSPost2010Prop40
 90
        0
102
RTVSPost2010PropOp40
 70
     1
102
RTVSPost2010Prop41ColorIndex
 90
       18
102
RTVSPost2010Prop41ColorRGB
 90
        0
102
RTVSPost2010PropOp41
 70
     1
102
RTVSPost2010Prop42
 90
       50
102
RTVSPost2010PropOp42
 70
     1
102
RTVSPost2010Prop43
 90
        3
102
RTVSPost2010PropOp43
 70
     1
102
RTVSPost2010Prop44ColorIndex
 90
        5
102
RTVSPost2010Prop44ColorRGB
 90
      255
102
RTVSPost2010PropOp44
 70
     1
102
RTVSPost2010Prop45
280
     0
102
RTVSPost2010PropOp45
 70
     1
102
RTVSPost2010Prop46
 90
       50
102
RTVSPost2010PropOp46
 70
     1
102
RTVSPost2010Prop47
 90
       50
102
RTVSPost2010PropOp47
 70
     1
102
RTVSPost2010Prop48
 90
       50
102
RTVSPost2010PropOp48
 70
     1
102
RTVSPost2010Prop49
280
     0
102
RTVSPost2010PropOp49
 70
     1
102
RTVSPost2010Prop50
 90
       50
102
RTVSPost2010PropOp50
 70
     1
102
RTVSPost2010Prop51ColorIndex
 90
      256
102
RTVSPost2010Prop51ColorRGB
 90
-16777216
102
RTVSPost2010PropOp51
 70
     0
102
RTVSPost2010Prop52
140
1.0
102
RTVSPost2010PropOp52
 70
     0
102
RTVSPost2010Prop53
 90
        2
102
RTVSPost2010PropOp53
 70
     1
102
RTVSPost2010Prop54
  1
strokes_ogs.tif
102
RTVSPost2010PropOp54
 70
     1
102
RTVSPost2010Prop55
280
     0
102
RTVSPost2010PropOp55
 70
     1
102
RTVSPost2010Prop56
140
1.0
102
RTVSPost2010PropOp56
 70
     1
102
RTVSPost2010Prop57
140
1.0
102
RTVSPost2010PropOp57
 70
     1
102
RTVSPropertyOp0
 70
     1
102
RTVSPropertyOp1
 70
     1
102
RTVSPropertyOp2
 70
     1
102
RTVSPropertyOp3
 70
     1
102
RTVSPropertyOp4
 70
     1
102
RTVSPropertyOp5
 70
     1
102
RTVSPropertyOp6
 70
     1
102
RTVSPropertyOp7
 70
     1
102
RTVSPropertyOp8
 70
     1
102
RTVSPropertyOp9
 70
     1
102
RTVSPropertyOp10
 70
     1
102
RTVSPropertyOp11
 70
     1
102
RTVSPropertyOp12
 70
     1
102
RTVSPropertyOp13
 70
     1
102
RTVSPropertyOp14
 70
     1
102
RTVSPropertyOp15
 70
     1
102
RTVSPropertyOp16
 70
     1
102
RTVSPropertyOp17
 70
     1
102
RTVSPropertyOp18
 70
     1
102
RTVSPropertyOp19
 70
     1
102
RTVSPropertyOp20
 70
     1
102
RTVSPropertyOp21
 70
     1
102
RTVSPropertyOp22
 70
     1
102
RTVSPropertyOp23
 70
     1
102
RTVSPropertyOp24
 70
     1
102
RTVSPropertyOp25
 70
     1
102
RTVSPropertyOp26
 70
     1
102
RTVSPropertyOp27
 70
     1
102
RTVSPropertyOp28
 70
     1
102
RTVSPropertyOp29
 70
     1
102
RTVSPropertyOp30
 70
     1
102
RTVSPropertyOp31
 70
     1
102
RTVSPropertyOp32
 70
     1
102
RTVSPropertyOp33
 70
     1
102
RTVSPropertyOp34
 70
     1
102
RTVSPropertyOp35
 70
     1
102
RTVSPropertyOp36
 70
     1
102
RTVSPropertyOp37
 70
     1
102
RTVSPropertyOp38
 70
     1
102
RTVSPropertyOp39
 70
     1
102
RTVSPropertyOp40
 70
     1
102
RTVSPropertyOp41
 70
     1
102
RTVSPropertyOp42
 70
     1
102
RTVSPropertyOp43
 70
     1
102
RTVSPropertyOp44
 70
     1
102
RTVSPropertyOp45
 70
     1
102
RTVSPropertyOp46
 70
     1
102
RTVSPropertyOp47
 70
     1
102
RTVSPropertyOp48
 70
     1
102
RTVSPropertyOp49
 70
     1
102
RTVSPropertyOp50
 70
     1
102
RTVSPropertyOp51
 70
     0
102
RTVSPropertyOp52
 70
     0
102
RTVSPropertyOp53
 70
     1
102
RTVSPropertyOp54
 70
     1
102
RTVSPropertyOp55
 70
     1
102
RTVSPropertyOp56
 70
     1
102
RTVSPropertyOp57
 70
     1
102
RTVSPropertyOp58
 70
     1
102
RTVSPropertyOp59
 70
     1
102
RTVSPropertyOp60
 70
     1
102
RTVSPropertyOp61
 70
     1
102
RTVSPropertyOp62
 70
     1
  0
XRECORD
  5
9B4A
102
{ACAD_REACTORS
330
9B49
102
}
330
9B49
100
AcDbXrecord
280
     1
102
RTVSPost2010Prop28
280
     0
102
RTVSPost2010PropOp28
 70
     1
102
RTVSPost2010Prop29
280
     1
102
RTVSPost2010PropOp29
 70
     1
102
RTVSPost2010Prop30
280
     1
102
RTVSPost2010PropOp30
 70
     1
102
RTVSPost2010Prop31
280
     0
102
RTVSPost2010PropOp31
 70
     1
102
RTVSPost2010Prop32
280
     0
102
RTVSPost2010PropOp32
 70
     1
102
RTVSPost2010Prop33
280
     0
102
RTVSPost2010PropOp33
 70
     1
102
RTVSPost2010Prop34
280
     0
102
RTVSPost2010PropOp34
 70
     1
102
RTVSPost2010Prop35
280
     0
102
RTVSPost2010PropOp35
 70
     1
102
RTVSPost2010Prop36
280
     0
102
RTVSPost2010PropOp36
 70
     1
102
RTVSPost2010Prop37
 90
       50
102
RTVSPost2010PropOp37
 70
     1
102
RTVSPost2010Prop38
140
0.0
102
RTVSPost2010PropOp38
 70
     1
102
RTVSPost2010Prop39
140
1.0
102
RTVSPost2010PropOp39
 70
     1
102
RTVSPost2010Prop40
 90
        0
102
RTVSPost2010PropOp40
 70
     1
102
RTVSPost2010Prop41ColorIndex
 90
       18
102
RTVSPost2010Prop41ColorRGB
 90
        0
102
RTVSPost2010PropOp41
 70
     1
102
RTVSPost2010Prop42
 90
       50
102
RTVSPost2010PropOp42
 70
     1
102
RTVSPost2010Prop43
 90
        3
102
RTVSPost2010PropOp43
 70
     1
102
RTVSPost2010Prop44ColorIndex
 90
        5
102
RTVSPost2010Prop44ColorRGB
 90
      255
102
RTVSPost2010PropOp44
 70
     1
102
RTVSPost2010Prop45
280
     0
102
RTVSPost2010PropOp45
 70
     1
102
RTVSPost2010Prop46
 90
       50
102
RTVSPost2010PropOp46
 70
     1
102
RTVSPost2010Prop47
 90
       50
102
RTVSPost2010PropOp47
 70
     1
102
RTVSPost2010Prop48
 90
       50
102
RTVSPost2010PropOp48
 70
     1
102
RTVSPost2010Prop49
280
     0
102
RTVSPost2010PropOp49
 70
     1
102
RTVSPost2010Prop50
 90
       50
102
RTVSPost2010PropOp50
 70
     1
102
RTVSPost2010Prop51ColorIndex
 90
      256
102
RTVSPost2010Prop51ColorRGB
 90
-16777216
102
RTVSPost2010PropOp51
 70
     0
102
RTVSPost2010Prop52
140
1.0
102
RTVSPost2010PropOp52
 70
     0
102
RTVSPost2010Prop53
 90
        2
102
RTVSPost2010PropOp53
 70
     1
102
RTVSPost2010Prop54
  1
strokes_ogs.tif
102
RTVSPost2010PropOp54
 70
     1
102
RTVSPost2010Prop55
280
     0
102
RTVSPost2010PropOp55
 70
     1
102
RTVSPost2010Prop56
140
1.0
102
RTVSPost2010PropOp56
 70
     1
102
RTVSPost2010Prop57
140
1.0
102
RTVSPost2010PropOp57
 70
     1
102
RTVSPropertyOp0
 70
     1
102
RTVSPropertyOp1
 70
     1
102
RTVSPropertyOp2
 70
     1
102
RTVSPropertyOp3
 70
     1
102
RTVSPropertyOp4
 70
     1
102
RTVSPropertyOp5
 70
     1
102
RTVSPropertyOp6
 70
     1
102
RTVSPropertyOp7
 70
     1
102
RTVSPropertyOp8
 70
     1
102
RTVSPropertyOp9
 70
     1
102
RTVSPropertyOp10
 70
     1
102
RTVSPropertyOp11
 70
     1
102
RTVSPropertyOp12
 70
     1
102
RTVSPropertyOp13
 70
     1
102
RTVSPropertyOp14
 70
     1
102
RTVSPropertyOp15
 70
     1
102
RTVSPropertyOp16
 70
     1
102
RTVSPropertyOp17
 70
     1
102
RTVSPropertyOp18
 70
     1
102
RTVSPropertyOp19
 70
     1
102
RTVSPropertyOp20
 70
     1
102
RTVSPropertyOp21
 70
     1
102
RTVSPropertyOp22
 70
     1
102
RTVSPropertyOp23
 70
     1
102
RTVSPropertyOp24
 70
     1
102
RTVSPropertyOp25
 70
     1
102
RTVSPropertyOp26
 70
     1
102
RTVSPropertyOp27
 70
     1
102
RTVSPropertyOp28
 70
     1
102
RTVSPropertyOp29
 70
     1
102
RTVSPropertyOp30
 70
     1
102
RTVSPropertyOp31
 70
     1
102
RTVSPropertyOp32
 70
     1
102
RTVSPropertyOp33
 70
     1
102
RTVSPropertyOp34
 70
     1
102
RTVSPropertyOp35
 70
     1
102
RTVSPropertyOp36
 70
     1
102
RTVSPropertyOp37
 70
     1
102
RTVSPropertyOp38
 70
     1
102
RTVSPropertyOp39
 70
     1
102
RTVSPropertyOp40
 70
     1
102
RTVSPropertyOp41
 70
     1
102
RTVSPropertyOp42
 70
     1
102
RTVSPropertyOp43
 70
     1
102
RTVSPropertyOp44
 70
     1
102
RTVSPropertyOp45
 70
     1
102
RTVSPropertyOp46
 70
     1
102
RTVSPropertyOp47
 70
     1
102
RTVSPropertyOp48
 70
     1
102
RTVSPropertyOp49
 70
     1
102
RTVSPropertyOp50
 70
     1
102
RTVSPropertyOp51
 70
     0
102
RTVSPropertyOp52
 70
     0
102
RTVSPropertyOp53
 70
     1
102
RTVSPropertyOp54
 70
     1
102
RTVSPropertyOp55
 70
     1
102
RTVSPropertyOp56
 70
     1
102
RTVSPropertyOp57
 70
     1
102
RTVSPropertyOp58
 70
     1
102
RTVSPropertyOp59
 70
     1
102
RTVSPropertyOp60
 70
     1
102
RTVSPropertyOp61
 70
     1
102
RTVSPropertyOp62
 70
     1
  0
XRECORD
  5
9B64
102
{ACAD_REACTORS
330
9B63
102
}
330
9B63
100
AcDbXrecord
280
     1
102
RTVSPost2010Prop28
280
     0
102
RTVSPost2010PropOp28
 70
     1
102
RTVSPost2010Prop29
280
     1
102
RTVSPost2010PropOp29
 70
     1
102
RTVSPost2010Prop30
280
     1
102
RTVSPost2010PropOp30
 70
     1
102
RTVSPost2010Prop31
280
     0
102
RTVSPost2010PropOp31
 70
     1
102
RTVSPost2010Prop32
280
     0
102
RTVSPost2010PropOp32
 70
     1
102
RTVSPost2010Prop33
280
     0
102
RTVSPost2010PropOp33
 70
     1
102
RTVSPost2010Prop34
280
     0
102
RTVSPost2010PropOp34
 70
     1
102
RTVSPost2010Prop35
280
     0
102
RTVSPost2010PropOp35
 70
     1
102
RTVSPost2010Prop36
280
     0
102
RTVSPost2010PropOp36
 70
     1
102
RTVSPost2010Prop37
 90
       50
102
RTVSPost2010PropOp37
 70
     0
102
RTVSPost2010Prop38
140
0.0
102
RTVSPost2010PropOp38
 70
     0
102
RTVSPost2010Prop39
140
1.0
102
RTVSPost2010PropOp39
 70
     0
102
RTVSPost2010Prop40
 90
        0
102
RTVSPost2010PropOp40
 70
     0
102
RTVSPost2010Prop41ColorIndex
 90
       18
102
RTVSPost2010Prop41ColorRGB
 90
        0
102
RTVSPost2010PropOp41
 70
     0
102
RTVSPost2010Prop42
 90
       50
102
RTVSPost2010PropOp42
 70
     0
102
RTVSPost2010Prop43
 90
        3
102
RTVSPost2010PropOp43
 70
     0
102
RTVSPost2010Prop44ColorIndex
 90
        5
102
RTVSPost2010Prop44ColorRGB
 90
      255
102
RTVSPost2010PropOp44
 70
     0
102
RTVSPost2010Prop45
280
     0
102
RTVSPost2010PropOp45
 70
     1
102
RTVSPost2010Prop46
 90
       50
102
RTVSPost2010PropOp46
 70
     0
102
RTVSPost2010Prop47
 90
       50
102
RTVSPost2010PropOp47
 70
     0
102
RTVSPost2010Prop48
 90
       50
102
RTVSPost2010PropOp48
 70
     0
102
RTVSPost2010Prop49
280
     0
102
RTVSPost2010PropOp49
 70
     1
102
RTVSPost2010Prop50
 90
       50
102
RTVSPost2010PropOp50
 70
     0
102
RTVSPost2010Prop51ColorIndex
 90
      256
102
RTVSPost2010Prop51ColorRGB
 90
-16777216
102
RTVSPost2010PropOp51
 70
     0
102
RTVSPost2010Prop52
140
1.0
102
RTVSPost2010PropOp52
 70
     0
102
RTVSPost2010Prop53
 90
        2
102
RTVSPost2010PropOp53
 70
     0
102
RTVSPost2010Prop54
  1
strokes_ogs.tif
102
RTVSPost2010PropOp54
 70
     0
102
RTVSPost2010Prop55
280
     0
102
RTVSPost2010PropOp55
 70
     1
102
RTVSPost2010Prop56
140
1.0
102
RTVSPost2010PropOp56
 70
     0
102
RTVSPost2010Prop57
140
1.0
102
RTVSPost2010PropOp57
 70
     0
102
RTVSPropertyOp0
 70
     0
102
RTVSPropertyOp1
 70
     0
102
RTVSPropertyOp2
 70
     0
102
RTVSPropertyOp3
 70
     0
102
RTVSPropertyOp4
 70
     0
102
RTVSPropertyOp5
 70
     0
102
RTVSPropertyOp6
 70
     0
102
RTVSPropertyOp7
 70
     0
102
RTVSPropertyOp8
 70
     0
102
RTVSPropertyOp9
 70
     0
102
RTVSPropertyOp10
 70
     0
102
RTVSPropertyOp11
 70
     0
102
RTVSPropertyOp12
 70
     0
102
RTVSPropertyOp13
 70
     0
102
RTVSPropertyOp14
 70
     2
102
RTVSPropertyOp15
 70
     0
102
RTVSPropertyOp16
 70
     0
102
RTVSPropertyOp17
 70
     0
102
RTVSPropertyOp18
 70
     0
102
RTVSPropertyOp19
 70
     0
102
RTVSPropertyOp20
 70
     0
102
RTVSPropertyOp21
 70
     0
102
RTVSPropertyOp22
 70
     0
102
RTVSPropertyOp23
 70
     0
102
RTVSPropertyOp24
 70
     0
102
RTVSPropertyOp25
 70
     0
102
RTVSPropertyOp26
 70
     0
102
RTVSPropertyOp27
 70
     0
102
RTVSPropertyOp28
 70
     1
102
RTVSPropertyOp29
 70
     1
102
RTVSPropertyOp30
 70
     1
102
RTVSPropertyOp31
 70
     1
102
RTVSPropertyOp32
 70
     1
102
RTVSPropertyOp33
 70
     1
102
RTVSPropertyOp34
 70
     1
102
RTVSPropertyOp35
 70
     1
102
RTVSPropertyOp36
 70
     1
102
RTVSPropertyOp37
 70
     0
102
RTVSPropertyOp38
 70
     0
102
RTVSPropertyOp39
 70
     0
102
RTVSPropertyOp40
 70
     0
102
RTVSPropertyOp41
 70
     0
102
RTVSPropertyOp42
 70
     0
102
RTVSPropertyOp43
 70
     0
102
RTVSPropertyOp44
 70
     0
102
RTVSPropertyOp45
 70
     1
102
RTVSPropertyOp46
 70
     0
102
RTVSPropertyOp47
 70
     0
102
RTVSPropertyOp48
 70
     0
102
RTVSPropertyOp49
 70
     1
102
RTVSPropertyOp50
 70
     0
102
RTVSPropertyOp51
 70
     0
102
RTVSPropertyOp52
 70
     0
102
RTVSPropertyOp53
 70
     0
102
RTVSPropertyOp54
 70
     0
102
RTVSPropertyOp55
 70
     1
102
RTVSPropertyOp56
 70
     0
102
RTVSPropertyOp57
 70
     0
102
RTVSPropertyOp58
 70
     0
102
RTVSPropertyOp59
 70
     0
102
RTVSPropertyOp60
 70
     0
102
RTVSPropertyOp61
 70
     0
102
RTVSPropertyOp62
 70
     0
  0
XRECORD
  5
9B52
102
{ACAD_REACTORS
330
9B51
102
}
330
9B51
100
AcDbXrecord
280
     1
102
RTVSPost2010Prop28
280
     0
102
RTVSPost2010PropOp28
 70
     1
102
RTVSPost2010Prop29
280
     1
102
RTVSPost2010PropOp29
 70
     1
102
RTVSPost2010Prop30
280
     1
102
RTVSPost2010PropOp30
 70
     1
102
RTVSPost2010Prop31
280
     0
102
RTVSPost2010PropOp31
 70
     1
102
RTVSPost2010Prop32
280
     0
102
RTVSPost2010PropOp32
 70
     1
102
RTVSPost2010Prop33
280
     0
102
RTVSPost2010PropOp33
 70
     1
102
RTVSPost2010Prop34
280
     0
102
RTVSPost2010PropOp34
 70
     1
102
RTVSPost2010Prop35
280
     0
102
RTVSPost2010PropOp35
 70
     1
102
RTVSPost2010Prop36
280
     0
102
RTVSPost2010PropOp36
 70
     1
102
RTVSPost2010Prop37
 90
       50
102
RTVSPost2010PropOp37
 70
     1
102
RTVSPost2010Prop38
140
0.0
102
RTVSPost2010PropOp38
 70
     1
102
RTVSPost2010Prop39
140
1.0
102
RTVSPost2010PropOp39
 70
     1
102
RTVSPost2010Prop40
 90
        0
102
RTVSPost2010PropOp40
 70
     1
102
RTVSPost2010Prop41ColorIndex
 90
       18
102
RTVSPost2010Prop41ColorRGB
 90
        0
102
RTVSPost2010PropOp41
 70
     1
102
RTVSPost2010Prop42
 90
       50
102
RTVSPost2010PropOp42
 70
     1
102
RTVSPost2010Prop43
 90
        3
102
RTVSPost2010PropOp43
 70
     1
102
RTVSPost2010Prop44ColorIndex
 90
        5
102
RTVSPost2010Prop44ColorRGB
 90
      255
102
RTVSPost2010PropOp44
 70
     1
102
RTVSPost2010Prop45
280
     0
102
RTVSPost2010PropOp45
 70
     1
102
RTVSPost2010Prop46
 90
       50
102
RTVSPost2010PropOp46
 70
     1
102
RTVSPost2010Prop47
 90
       50
102
RTVSPost2010PropOp47
 70
     1
102
RTVSPost2010Prop48
 90
       50
102
RTVSPost2010PropOp48
 70
     1
102
RTVSPost2010Prop49
280
     0
102
RTVSPost2010PropOp49
 70
     1
102
RTVSPost2010Prop50
 90
       50
102
RTVSPost2010PropOp50
 70
     1
102
RTVSPost2010Prop51ColorIndex
 90
      256
102
RTVSPost2010Prop51ColorRGB
 90
-16777216
102
RTVSPost2010PropOp51
 70
     0
102
RTVSPost2010Prop52
140
1.0
102
RTVSPost2010PropOp52
 70
     0
102
RTVSPost2010Prop53
 90
        2
102
RTVSPost2010PropOp53
 70
     1
102
RTVSPost2010Prop54
  1
strokes_ogs.tif
102
RTVSPost2010PropOp54
 70
     1
102
RTVSPost2010Prop55
280
     0
102
RTVSPost2010PropOp55
 70
     1
102
RTVSPost2010Prop56
140
1.0
102
RTVSPost2010PropOp56
 70
     1
102
RTVSPost2010Prop57
140
1.0
102
RTVSPost2010PropOp57
 70
     1
102
RTVSPropertyOp0
 70
     1
102
RTVSPropertyOp1
 70
     1
102
RTVSPropertyOp2
 70
     1
102
RTVSPropertyOp3
 70
     1
102
RTVSPropertyOp4
 70
     1
102
RTVSPropertyOp5
 70
     1
102
RTVSPropertyOp6
 70
     1
102
RTVSPropertyOp7
 70
     1
102
RTVSPropertyOp8
 70
     1
102
RTVSPropertyOp9
 70
     1
102
RTVSPropertyOp10
 70
     1
102
RTVSPropertyOp11
 70
     1
102
RTVSPropertyOp12
 70
     1
102
RTVSPropertyOp13
 70
     1
102
RTVSPropertyOp14
 70
     1
102
RTVSPropertyOp15
 70
     1
102
RTVSPropertyOp16
 70
     1
102
RTVSPropertyOp17
 70
     1
102
RTVSPropertyOp18
 70
     1
102
RTVSPropertyOp19
 70
     1
102
RTVSPropertyOp20
 70
     1
102
RTVSPropertyOp21
 70
     1
102
RTVSPropertyOp22
 70
     1
102
RTVSPropertyOp23
 70
     1
102
RTVSPropertyOp24
 70
     1
102
RTVSPropertyOp25
 70
     1
102
RTVSPropertyOp26
 70
     1
102
RTVSPropertyOp27
 70
     1
102
RTVSPropertyOp28
 70
     1
102
RTVSPropertyOp29
 70
     1
102
RTVSPropertyOp30
 70
     1
102
RTVSPropertyOp31
 70
     1
102
RTVSPropertyOp32
 70
     1
102
RTVSPropertyOp33
 70
     1
102
RTVSPropertyOp34
 70
     1
102
RTVSPropertyOp35
 70
     1
102
RTVSPropertyOp36
 70
     1
102
RTVSPropertyOp37
 70
     1
102
RTVSPropertyOp38
 70
     1
102
RTVSPropertyOp39
 70
     1
102
RTVSPropertyOp40
 70
     1
102
RTVSPropertyOp41
 70
     1
102
RTVSPropertyOp42
 70
     1
102
RTVSPropertyOp43
 70
     1
102
RTVSPropertyOp44
 70
     1
102
RTVSPropertyOp45
 70
     1
102
RTVSPropertyOp46
 70
     1
102
RTVSPropertyOp47
 70
     1
102
RTVSPropertyOp48
 70
     1
102
RTVSPropertyOp49
 70
     1
102
RTVSPropertyOp50
 70
     1
102
RTVSPropertyOp51
 70
     0
102
RTVSPropertyOp52
 70
     0
102
RTVSPropertyOp53
 70
     1
102
RTVSPropertyOp54
 70
     1
102
RTVSPropertyOp55
 70
     1
102
RTVSPropertyOp56
 70
     1
102
RTVSPropertyOp57
 70
     1
102
RTVSPropertyOp58
 70
     1
102
RTVSPropertyOp59
 70
     1
102
RTVSPropertyOp60
 70
     1
102
RTVSPropertyOp61
 70
     1
102
RTVSPropertyOp62
 70
     1
  0
XRECORD
  5
9B36
102
{ACAD_REACTORS
330
9B35
102
}
330
9B35
100
AcDbXrecord
280
     1
102
RTVSPost2010Prop28
280
     0
102
RTVSPost2010PropOp28
 70
     1
102
RTVSPost2010Prop29
280
     1
102
RTVSPost2010PropOp29
 70
     1
102
RTVSPost2010Prop30
280
     1
102
RTVSPost2010PropOp30
 70
     1
102
RTVSPost2010Prop31
280
     0
102
RTVSPost2010PropOp31
 70
     1
102
RTVSPost2010Prop32
280
     0
102
RTVSPost2010PropOp32
 70
     1
102
RTVSPost2010Prop33
280
     0
102
RTVSPost2010PropOp33
 70
     1
102
RTVSPost2010Prop34
280
     0
102
RTVSPost2010PropOp34
 70
     1
102
RTVSPost2010Prop35
280
     0
102
RTVSPost2010PropOp35
 70
     1
102
RTVSPost2010Prop36
280
     0
102
RTVSPost2010PropOp36
 70
     1
102
RTVSPost2010Prop37
 90
       50
102
RTVSPost2010PropOp37
 70
     1
102
RTVSPost2010Prop38
140
0.0
102
RTVSPost2010PropOp38
 70
     1
102
RTVSPost2010Prop39
140
1.0
102
RTVSPost2010PropOp39
 70
     1
102
RTVSPost2010Prop40
 90
        0
102
RTVSPost2010PropOp40
 70
     1
102
RTVSPost2010Prop41ColorIndex
 90
       18
102
RTVSPost2010Prop41ColorRGB
 90
        0
102
RTVSPost2010PropOp41
 70
     1
102
RTVSPost2010Prop42
 90
       50
102
RTVSPost2010PropOp42
 70
     1
102
RTVSPost2010Prop43
 90
        3
102
RTVSPost2010PropOp43
 70
     1
102
RTVSPost2010Prop44ColorIndex
 90
        5
102
RTVSPost2010Prop44ColorRGB
 90
      255
102
RTVSPost2010PropOp44
 70
     1
102
RTVSPost2010Prop45
280
     0
102
RTVSPost2010PropOp45
 70
     1
102
RTVSPost2010Prop46
 90
       50
102
RTVSPost2010PropOp46
 70
     1
102
RTVSPost2010Prop47
 90
       50
102
RTVSPost2010PropOp47
 70
     1
102
RTVSPost2010Prop48
 90
       50
102
RTVSPost2010PropOp48
 70
     1
102
RTVSPost2010Prop49
280
     0
102
RTVSPost2010PropOp49
 70
     1
102
RTVSPost2010Prop50
 90
       50
102
RTVSPost2010PropOp50
 70
     1
102
RTVSPost2010Prop51ColorIndex
 90
      256
102
RTVSPost2010Prop51ColorRGB
 90
-16777216
102
RTVSPost2010PropOp51
 70
     0
102
RTVSPost2010Prop52
140
1.0
102
RTVSPost2010PropOp52
 70
     0
102
RTVSPost2010Prop53
 90
        2
102
RTVSPost2010PropOp53
 70
     1
102
RTVSPost2010Prop54
  1
strokes_ogs.tif
102
RTVSPost2010PropOp54
 70
     1
102
RTVSPost2010Prop55
280
     0
102
RTVSPost2010PropOp55
 70
     1
102
RTVSPost2010Prop56
140
1.0
102
RTVSPost2010PropOp56
 70
     1
102
RTVSPost2010Prop57
140
1.0
102
RTVSPost2010PropOp57
 70
     1
102
RTVSPropertyOp0
 70
     1
102
RTVSPropertyOp1
 70
     1
102
RTVSPropertyOp2
 70
     1
102
RTVSPropertyOp3
 70
     1
102
RTVSPropertyOp4
 70
     1
102
RTVSPropertyOp5
 70
     1
102
RTVSPropertyOp6
 70
     1
102
RTVSPropertyOp7
 70
     1
102
RTVSPropertyOp8
 70
     1
102
RTVSPropertyOp9
 70
     1
102
RTVSPropertyOp10
 70
     1
102
RTVSPropertyOp11
 70
     1
102
RTVSPropertyOp12
 70
     1
102
RTVSPropertyOp13
 70
     1
102
RTVSPropertyOp14
 70
     1
102
RTVSPropertyOp15
 70
     1
102
RTVSPropertyOp16
 70
     1
102
RTVSPropertyOp17
 70
     1
102
RTVSPropertyOp18
 70
     1
102
RTVSPropertyOp19
 70
     1
102
RTVSPropertyOp20
 70
     1
102
RTVSPropertyOp21
 70
     1
102
RTVSPropertyOp22
 70
     1
102
RTVSPropertyOp23
 70
     1
102
RTVSPropertyOp24
 70
     1
102
RTVSPropertyOp25
 70
     1
102
RTVSPropertyOp26
 70
     1
102
RTVSPropertyOp27
 70
     1
102
RTVSPropertyOp28
 70
     1
102
RTVSPropertyOp29
 70
     1
102
RTVSPropertyOp30
 70
     1
102
RTVSPropertyOp31
 70
     1
102
RTVSPropertyOp32
 70
     1
102
RTVSPropertyOp33
 70
     1
102
RTVSPropertyOp34
 70
     1
102
RTVSPropertyOp35
 70
     1
102
RTVSPropertyOp36
 70
     1
102
RTVSPropertyOp37
 70
     1
102
RTVSPropertyOp38
 70
     1
102
RTVSPropertyOp39
 70
     1
102
RTVSPropertyOp40
 70
     1
102
RTVSPropertyOp41
 70
     1
102
RTVSPropertyOp42
 70
     1
102
RTVSPropertyOp43
 70
     1
102
RTVSPropertyOp44
 70
     1
102
RTVSPropertyOp45
 70
     1
102
RTVSPropertyOp46
 70
     1
102
RTVSPropertyOp47
 70
     1
102
RTVSPropertyOp48
 70
     1
102
RTVSPropertyOp49
 70
     1
102
RTVSPropertyOp50
 70
     1
102
RTVSPropertyOp51
 70
     0
102
RTVSPropertyOp52
 70
     0
102
RTVSPropertyOp53
 70
     1
102
RTVSPropertyOp54
 70
     1
102
RTVSPropertyOp55
 70
     1
102
RTVSPropertyOp56
 70
     1
102
RTVSPropertyOp57
 70
     1
102
RTVSPropertyOp58
 70
     1
102
RTVSPropertyOp59
 70
     1
102
RTVSPropertyOp60
 70
     1
102
RTVSPropertyOp61
 70
     1
102
RTVSPropertyOp62
 70
     1
  0
XRECORD
  5
9B38
102
{ACAD_REACTORS
330
9B37
102
}
330
9B37
100
AcDbXrecord
280
     1
102
RTVSPost2010Prop28
280
     0
102
RTVSPost2010PropOp28
 70
     1
102
RTVSPost2010Prop29
280
     1
102
RTVSPost2010PropOp29
 70
     1
102
RTVSPost2010Prop30
280
     1
102
RTVSPost2010PropOp30
 70
     1
102
RTVSPost2010Prop31
280
     0
102
RTVSPost2010PropOp31
 70
     1
102
RTVSPost2010Prop32
280
     0
102
RTVSPost2010PropOp32
 70
     1
102
RTVSPost2010Prop33
280
     0
102
RTVSPost2010PropOp33
 70
     1
102
RTVSPost2010Prop34
280
     0
102
RTVSPost2010PropOp34
 70
     1
102
RTVSPost2010Prop35
280
     0
102
RTVSPost2010PropOp35
 70
     1
102
RTVSPost2010Prop36
280
     0
102
RTVSPost2010PropOp36
 70
     1
102
RTVSPost2010Prop37
 90
       50
102
RTVSPost2010PropOp37
 70
     1
102
RTVSPost2010Prop38
140
0.0
102
RTVSPost2010PropOp38
 70
     1
102
RTVSPost2010Prop39
140
1.0
102
RTVSPost2010PropOp39
 70
     1
102
RTVSPost2010Prop40
 90
        0
102
RTVSPost2010PropOp40
 70
     1
102
RTVSPost2010Prop41ColorIndex
 90
       18
102
RTVSPost2010Prop41ColorRGB
 90
        0
102
RTVSPost2010PropOp41
 70
     1
102
RTVSPost2010Prop42
 90
       50
102
RTVSPost2010PropOp42
 70
     1
102
RTVSPost2010Prop43
 90
        3
102
RTVSPost2010PropOp43
 70
     1
102
RTVSPost2010Prop44ColorIndex
 90
        5
102
RTVSPost2010Prop44ColorRGB
 90
      255
102
RTVSPost2010PropOp44
 70
     1
102
RTVSPost2010Prop45
280
     0
102
RTVSPost2010PropOp45
 70
     1
102
RTVSPost2010Prop46
 90
       50
102
RTVSPost2010PropOp46
 70
     1
102
RTVSPost2010Prop47
 90
       50
102
RTVSPost2010PropOp47
 70
     1
102
RTVSPost2010Prop48
 90
       50
102
RTVSPost2010PropOp48
 70
     1
102
RTVSPost2010Prop49
280
     0
102
RTVSPost2010PropOp49
 70
     1
102
RTVSPost2010Prop50
 90
       50
102
RTVSPost2010PropOp50
 70
     1
102
RTVSPost2010Prop51ColorIndex
 90
      256
102
RTVSPost2010Prop51ColorRGB
 90
-16777216
102
RTVSPost2010PropOp51
 70
     0
102
RTVSPost2010Prop52
140
1.0
102
RTVSPost2010PropOp52
 70
     0
102
RTVSPost2010Prop53
 90
        2
102
RTVSPost2010PropOp53
 70
     1
102
RTVSPost2010Prop54
  1
strokes_ogs.tif
102
RTVSPost2010PropOp54
 70
     1
102
RTVSPost2010Prop55
280
     0
102
RTVSPost2010PropOp55
 70
     1
102
RTVSPost2010Prop56
140
1.0
102
RTVSPost2010PropOp56
 70
     1
102
RTVSPost2010Prop57
140
1.0
102
RTVSPost2010PropOp57
 70
     1
102
RTVSPropertyOp0
 70
     1
102
RTVSPropertyOp1
 70
     1
102
RTVSPropertyOp2
 70
     1
102
RTVSPropertyOp3
 70
     1
102
RTVSPropertyOp4
 70
     1
102
RTVSPropertyOp5
 70
     1
102
RTVSPropertyOp6
 70
     1
102
RTVSPropertyOp7
 70
     1
102
RTVSPropertyOp8
 70
     1
102
RTVSPropertyOp9
 70
     1
102
RTVSPropertyOp10
 70
     1
102
RTVSPropertyOp11
 70
     1
102
RTVSPropertyOp12
 70
     1
102
RTVSPropertyOp13
 70
     1
102
RTVSPropertyOp14
 70
     1
102
RTVSPropertyOp15
 70
     1
102
RTVSPropertyOp16
 70
     1
102
RTVSPropertyOp17
 70
     1
102
RTVSPropertyOp18
 70
     1
102
RTVSPropertyOp19
 70
     1
102
RTVSPropertyOp20
 70
     1
102
RTVSPropertyOp21
 70
     1
102
RTVSPropertyOp22
 70
     1
102
RTVSPropertyOp23
 70
     1
102
RTVSPropertyOp24
 70
     1
102
RTVSPropertyOp25
 70
     1
102
RTVSPropertyOp26
 70
     1
102
RTVSPropertyOp27
 70
     1
102
RTVSPropertyOp28
 70
     1
102
RTVSPropertyOp29
 70
     1
102
RTVSPropertyOp30
 70
     1
102
RTVSPropertyOp31
 70
     1
102
RTVSPropertyOp32
 70
     1
102
RTVSPropertyOp33
 70
     1
102
RTVSPropertyOp34
 70
     1
102
RTVSPropertyOp35
 70
     1
102
RTVSPropertyOp36
 70
     1
102
RTVSPropertyOp37
 70
     1
102
RTVSPropertyOp38
 70
     1
102
RTVSPropertyOp39
 70
     1
102
RTVSPropertyOp40
 70
     1
102
RTVSPropertyOp41
 70
     1
102
RTVSPropertyOp42
 70
     1
102
RTVSPropertyOp43
 70
     1
102
RTVSPropertyOp44
 70
     1
102
RTVSPropertyOp45
 70
     1
102
RTVSPropertyOp46
 70
     1
102
RTVSPropertyOp47
 70
     1
102
RTVSPropertyOp48
 70
     1
102
RTVSPropertyOp49
 70
     1
102
RTVSPropertyOp50
 70
     1
102
RTVSPropertyOp51
 70
     0
102
RTVSPropertyOp52
 70
     0
102
RTVSPropertyOp53
 70
     1
102
RTVSPropertyOp54
 70
     1
102
RTVSPropertyOp55
 70
     1
102
RTVSPropertyOp56
 70
     1
102
RTVSPropertyOp57
 70
     1
102
RTVSPropertyOp58
 70
     1
102
RTVSPropertyOp59
 70
     1
102
RTVSPropertyOp60
 70
     1
102
RTVSPropertyOp61
 70
     1
102
RTVSPropertyOp62
 70
     1
  0
XRECORD
  5
9B3A
102
{ACAD_REACTORS
330
9B39
102
}
330
9B39
100
AcDbXrecord
280
     1
102
RTVSPost2010Prop28
280
     0
102
RTVSPost2010PropOp28
 70
     1
102
RTVSPost2010Prop29
280
     1
102
RTVSPost2010PropOp29
 70
     1
102
RTVSPost2010Prop30
280
     1
102
RTVSPost2010PropOp30
 70
     1
102
RTVSPost2010Prop31
280
     0
102
RTVSPost2010PropOp31
 70
     1
102
RTVSPost2010Prop32
280
     0
102
RTVSPost2010PropOp32
 70
     1
102
RTVSPost2010Prop33
280
     0
102
RTVSPost2010PropOp33
 70
     1
102
RTVSPost2010Prop34
280
     0
102
RTVSPost2010PropOp34
 70
     1
102
RTVSPost2010Prop35
280
     0
102
RTVSPost2010PropOp35
 70
     1
102
RTVSPost2010Prop36
280
     0
102
RTVSPost2010PropOp36
 70
     1
102
RTVSPost2010Prop37
 90
       50
102
RTVSPost2010PropOp37
 70
     1
102
RTVSPost2010Prop38
140
0.0
102
RTVSPost2010PropOp38
 70
     1
102
RTVSPost2010Prop39
140
1.0
102
RTVSPost2010PropOp39
 70
     1
102
RTVSPost2010Prop40
 90
        0
102
RTVSPost2010PropOp40
 70
     1
102
RTVSPost2010Prop41ColorIndex
 90
       18
102
RTVSPost2010Prop41ColorRGB
 90
        0
102
RTVSPost2010PropOp41
 70
     1
102
RTVSPost2010Prop42
 90
       50
102
RTVSPost2010PropOp42
 70
     1
102
RTVSPost2010Prop43
 90
        3
102
RTVSPost2010PropOp43
 70
     1
102
RTVSPost2010Prop44ColorIndex
 90
        5
102
RTVSPost2010Prop44ColorRGB
 90
      255
102
RTVSPost2010PropOp44
 70
     1
102
RTVSPost2010Prop45
280
     0
102
RTVSPost2010PropOp45
 70
     1
102
RTVSPost2010Prop46
 90
       50
102
RTVSPost2010PropOp46
 70
     1
102
RTVSPost2010Prop47
 90
       50
102
RTVSPost2010PropOp47
 70
     1
102
RTVSPost2010Prop48
 90
       50
102
RTVSPost2010PropOp48
 70
     1
102
RTVSPost2010Prop49
280
     0
102
RTVSPost2010PropOp49
 70
     1
102
RTVSPost2010Prop50
 90
       50
102
RTVSPost2010PropOp50
 70
     1
102
RTVSPost2010Prop51ColorIndex
 90
      256
102
RTVSPost2010Prop51ColorRGB
 90
-16777216
102
RTVSPost2010PropOp51
 70
     0
102
RTVSPost2010Prop52
140
1.0
102
RTVSPost2010PropOp52
 70
     0
102
RTVSPost2010Prop53
 90
        2
102
RTVSPost2010PropOp53
 70
     1
102
RTVSPost2010Prop54
  1
strokes_ogs.tif
102
RTVSPost2010PropOp54
 70
     1
102
RTVSPost2010Prop55
280
     0
102
RTVSPost2010PropOp55
 70
     1
102
RTVSPost2010Prop56
140
1.0
102
RTVSPost2010PropOp56
 70
     1
102
RTVSPost2010Prop57
140
1.0
102
RTVSPost2010PropOp57
 70
     1
102
RTVSPropertyOp0
 70
     1
102
RTVSPropertyOp1
 70
     1
102
RTVSPropertyOp2
 70
     1
102
RTVSPropertyOp3
 70
     1
102
RTVSPropertyOp4
 70
     1
102
RTVSPropertyOp5
 70
     1
102
RTVSPropertyOp6
 70
     1
102
RTVSPropertyOp7
 70
     1
102
RTVSPropertyOp8
 70
     1
102
RTVSPropertyOp9
 70
     1
102
RTVSPropertyOp10
 70
     1
102
RTVSPropertyOp11
 70
     1
102
RTVSPropertyOp12
 70
     1
102
RTVSPropertyOp13
 70
     1
102
RTVSPropertyOp14
 70
     1
102
RTVSPropertyOp15
 70
     1
102
RTVSPropertyOp16
 70
     1
102
RTVSPropertyOp17
 70
     1
102
RTVSPropertyOp18
 70
     1
102
RTVSPropertyOp19
 70
     1
102
RTVSPropertyOp20
 70
     1
102
RTVSPropertyOp21
 70
     1
102
RTVSPropertyOp22
 70
     1
102
RTVSPropertyOp23
 70
     1
102
RTVSPropertyOp24
 70
     1
102
RTVSPropertyOp25
 70
     1
102
RTVSPropertyOp26
 70
     1
102
RTVSPropertyOp27
 70
     1
102
RTVSPropertyOp28
 70
     1
102
RTVSPropertyOp29
 70
     1
102
RTVSPropertyOp30
 70
     1
102
RTVSPropertyOp31
 70
     1
102
RTVSPropertyOp32
 70
     1
102
RTVSPropertyOp33
 70
     1
102
RTVSPropertyOp34
 70
     1
102
RTVSPropertyOp35
 70
     1
102
RTVSPropertyOp36
 70
     1
102
RTVSPropertyOp37
 70
     1
102
RTVSPropertyOp38
 70
     1
102
RTVSPropertyOp39
 70
     1
102
RTVSPropertyOp40
 70
     1
102
RTVSPropertyOp41
 70
     1
102
RTVSPropertyOp42
 70
     1
102
RTVSPropertyOp43
 70
     1
102
RTVSPropertyOp44
 70
     1
102
RTVSPropertyOp45
 70
     1
102
RTVSPropertyOp46
 70
     1
102
RTVSPropertyOp47
 70
     1
102
RTVSPropertyOp48
 70
     1
102
RTVSPropertyOp49
 70
     1
102
RTVSPropertyOp50
 70
     1
102
RTVSPropertyOp51
 70
     0
102
RTVSPropertyOp52
 70
     0
102
RTVSPropertyOp53
 70
     1
102
RTVSPropertyOp54
 70
     1
102
RTVSPropertyOp55
 70
     1
102
RTVSPropertyOp56
 70
     1
102
RTVSPropertyOp57
 70
     1
102
RTVSPropertyOp58
 70
     1
102
RTVSPropertyOp59
 70
     1
102
RTVSPropertyOp60
 70
     1
102
RTVSPropertyOp61
 70
     1
102
RTVSPropertyOp62
 70
     1
  0
XRECORD
  5
9B3C
102
{ACAD_REACTORS
330
9B3B
102
}
330
9B3B
100
AcDbXrecord
280
     1
102
RTVSPost2010Prop28
280
     0
102
RTVSPost2010PropOp28
 70
     1
102
RTVSPost2010Prop29
280
     1
102
RTVSPost2010PropOp29
 70
     1
102
RTVSPost2010Prop30
280
     1
102
RTVSPost2010PropOp30
 70
     1
102
RTVSPost2010Prop31
280
     0
102
RTVSPost2010PropOp31
 70
     1
102
RTVSPost2010Prop32
280
     0
102
RTVSPost2010PropOp32
 70
     1
102
RTVSPost2010Prop33
280
     0
102
RTVSPost2010PropOp33
 70
     1
102
RTVSPost2010Prop34
280
     0
102
RTVSPost2010PropOp34
 70
     1
102
RTVSPost2010Prop35
280
     0
102
RTVSPost2010PropOp35
 70
     1
102
RTVSPost2010Prop36
280
     0
102
RTVSPost2010PropOp36
 70
     1
102
RTVSPost2010Prop37
 90
       50
102
RTVSPost2010PropOp37
 70
     1
102
RTVSPost2010Prop38
140
0.0
102
RTVSPost2010PropOp38
 70
     1
102
RTVSPost2010Prop39
140
1.0
102
RTVSPost2010PropOp39
 70
     1
102
RTVSPost2010Prop40
 90
        0
102
RTVSPost2010PropOp40
 70
     1
102
RTVSPost2010Prop41ColorIndex
 90
       18
102
RTVSPost2010Prop41ColorRGB
 90
        0
102
RTVSPost2010PropOp41
 70
     1
102
RTVSPost2010Prop42
 90
       50
102
RTVSPost2010PropOp42
 70
     1
102
RTVSPost2010Prop43
 90
        3
102
RTVSPost2010PropOp43
 70
     1
102
RTVSPost2010Prop44ColorIndex
 90
        5
102
RTVSPost2010Prop44ColorRGB
 90
      255
102
RTVSPost2010PropOp44
 70
     1
102
RTVSPost2010Prop45
280
     0
102
RTVSPost2010PropOp45
 70
     1
102
RTVSPost2010Prop46
 90
       50
102
RTVSPost2010PropOp46
 70
     1
102
RTVSPost2010Prop47
 90
       50
102
RTVSPost2010PropOp47
 70
     1
102
RTVSPost2010Prop48
 90
       50
102
RTVSPost2010PropOp48
 70
     1
102
RTVSPost2010Prop49
280
     0
102
RTVSPost2010PropOp49
 70
     1
102
RTVSPost2010Prop50
 90
       50
102
RTVSPost2010PropOp50
 70
     1
102
RTVSPost2010Prop51ColorIndex
 90
      256
102
RTVSPost2010Prop51ColorRGB
 90
-16777216
102
RTVSPost2010PropOp51
 70
     0
102
RTVSPost2010Prop52
140
1.0
102
RTVSPost2010PropOp52
 70
     0
102
RTVSPost2010Prop53
 90
        2
102
RTVSPost2010PropOp53
 70
     1
102
RTVSPost2010Prop54
  1
strokes_ogs.tif
102
RTVSPost2010PropOp54
 70
     1
102
RTVSPost2010Prop55
280
     0
102
RTVSPost2010PropOp55
 70
     1
102
RTVSPost2010Prop56
140
1.0
102
RTVSPost2010PropOp56
 70
     1
102
RTVSPost2010Prop57
140
1.0
102
RTVSPost2010PropOp57
 70
     1
102
RTVSPropertyOp0
 70
     1
102
RTVSPropertyOp1
 70
     1
102
RTVSPropertyOp2
 70
     1
102
RTVSPropertyOp3
 70
     1
102
RTVSPropertyOp4
 70
     1
102
RTVSPropertyOp5
 70
     1
102
RTVSPropertyOp6
 70
     1
102
RTVSPropertyOp7
 70
     1
102
RTVSPropertyOp8
 70
     1
102
RTVSPropertyOp9
 70
     1
102
RTVSPropertyOp10
 70
     1
102
RTVSPropertyOp11
 70
     1
102
RTVSPropertyOp12
 70
     1
102
RTVSPropertyOp13
 70
     1
102
RTVSPropertyOp14
 70
     1
102
RTVSPropertyOp15
 70
     1
102
RTVSPropertyOp16
 70
     1
102
RTVSPropertyOp17
 70
     1
102
RTVSPropertyOp18
 70
     1
102
RTVSPropertyOp19
 70
     1
102
RTVSPropertyOp20
 70
     1
102
RTVSPropertyOp21
 70
     1
102
RTVSPropertyOp22
 70
     1
102
RTVSPropertyOp23
 70
     1
102
RTVSPropertyOp24
 70
     1
102
RTVSPropertyOp25
 70
     1
102
RTVSPropertyOp26
 70
     1
102
RTVSPropertyOp27
 70
     1
102
RTVSPropertyOp28
 70
     1
102
RTVSPropertyOp29
 70
     1
102
RTVSPropertyOp30
 70
     1
102
RTVSPropertyOp31
 70
     1
102
RTVSPropertyOp32
 70
     1
102
RTVSPropertyOp33
 70
     1
102
RTVSPropertyOp34
 70
     1
102
RTVSPropertyOp35
 70
     1
102
RTVSPropertyOp36
 70
     1
102
RTVSPropertyOp37
 70
     1
102
RTVSPropertyOp38
 70
     1
102
RTVSPropertyOp39
 70
     1
102
RTVSPropertyOp40
 70
     1
102
RTVSPropertyOp41
 70
     1
102
RTVSPropertyOp42
 70
     1
102
RTVSPropertyOp43
 70
     1
102
RTVSPropertyOp44
 70
     1
102
RTVSPropertyOp45
 70
     1
102
RTVSPropertyOp46
 70
     1
102
RTVSPropertyOp47
 70
     1
102
RTVSPropertyOp48
 70
     1
102
RTVSPropertyOp49
 70
     1
102
RTVSPropertyOp50
 70
     1
102
RTVSPropertyOp51
 70
     0
102
RTVSPropertyOp52
 70
     0
102
RTVSPropertyOp53
 70
     1
102
RTVSPropertyOp54
 70
     1
102
RTVSPropertyOp55
 70
     1
102
RTVSPropertyOp56
 70
     1
102
RTVSPropertyOp57
 70
     1
102
RTVSPropertyOp58
 70
     1
102
RTVSPropertyOp59
 70
     1
102
RTVSPropertyOp60
 70
     1
102
RTVSPropertyOp61
 70
     1
102
RTVSPropertyOp62
 70
     1
  0
XRECORD
  5
9B44
102
{ACAD_REACTORS
330
9B43
102
}
330
9B43
100
AcDbXrecord
280
     1
102
RTVSPost2010Prop28
280
     0
102
RTVSPost2010PropOp28
 70
     1
102
RTVSPost2010Prop29
280
     1
102
RTVSPost2010PropOp29
 70
     1
102
RTVSPost2010Prop30
280
     1
102
RTVSPost2010PropOp30
 70
     1
102
RTVSPost2010Prop31
280
     0
102
RTVSPost2010PropOp31
 70
     1
102
RTVSPost2010Prop32
280
     0
102
RTVSPost2010PropOp32
 70
     1
102
RTVSPost2010Prop33
280
     0
102
RTVSPost2010PropOp33
 70
     1
102
RTVSPost2010Prop34
280
     0
102
RTVSPost2010PropOp34
 70
     1
102
RTVSPost2010Prop35
280
     0
102
RTVSPost2010PropOp35
 70
     1
102
RTVSPost2010Prop36
280
     0
102
RTVSPost2010PropOp36
 70
     1
102
RTVSPost2010Prop37
 90
       50
102
RTVSPost2010PropOp37
 70
     1
102
RTVSPost2010Prop38
140
0.0
102
RTVSPost2010PropOp38
 70
     1
102
RTVSPost2010Prop39
140
1.0
102
RTVSPost2010PropOp39
 70
     1
102
RTVSPost2010Prop40
 90
        0
102
RTVSPost2010PropOp40
 70
     1
102
RTVSPost2010Prop41ColorIndex
 90
       18
102
RTVSPost2010Prop41ColorRGB
 90
        0
102
RTVSPost2010PropOp41
 70
     1
102
RTVSPost2010Prop42
 90
       50
102
RTVSPost2010PropOp42
 70
     1
102
RTVSPost2010Prop43
 90
        3
102
RTVSPost2010PropOp43
 70
     1
102
RTVSPost2010Prop44ColorIndex
 90
        5
102
RTVSPost2010Prop44ColorRGB
 90
      255
102
RTVSPost2010PropOp44
 70
     1
102
RTVSPost2010Prop45
280
     0
102
RTVSPost2010PropOp45
 70
     1
102
RTVSPost2010Prop46
 90
       50
102
RTVSPost2010PropOp46
 70
     1
102
RTVSPost2010Prop47
 90
       50
102
RTVSPost2010PropOp47
 70
     1
102
RTVSPost2010Prop48
 90
       50
102
RTVSPost2010PropOp48
 70
     1
102
RTVSPost2010Prop49
280
     0
102
RTVSPost2010PropOp49
 70
     1
102
RTVSPost2010Prop50
 90
       50
102
RTVSPost2010PropOp50
 70
     1
102
RTVSPost2010Prop51ColorIndex
 90
      256
102
RTVSPost2010Prop51ColorRGB
 90
-16777216
102
RTVSPost2010PropOp51
 70
     0
102
RTVSPost2010Prop52
140
1.0
102
RTVSPost2010PropOp52
 70
     0
102
RTVSPost2010Prop53
 90
        2
102
RTVSPost2010PropOp53
 70
     1
102
RTVSPost2010Prop54
  1
strokes_ogs.tif
102
RTVSPost2010PropOp54
 70
     1
102
RTVSPost2010Prop55
280
     0
102
RTVSPost2010PropOp55
 70
     1
102
RTVSPost2010Prop56
140
1.0
102
RTVSPost2010PropOp56
 70
     1
102
RTVSPost2010Prop57
140
1.0
102
RTVSPost2010PropOp57
 70
     1
102
RTVSPropertyOp0
 70
     1
102
RTVSPropertyOp1
 70
     1
102
RTVSPropertyOp2
 70
     1
102
RTVSPropertyOp3
 70
     1
102
RTVSPropertyOp4
 70
     1
102
RTVSPropertyOp5
 70
     1
102
RTVSPropertyOp6
 70
     1
102
RTVSPropertyOp7
 70
     1
102
RTVSPropertyOp8
 70
     1
102
RTVSPropertyOp9
 70
     1
102
RTVSPropertyOp10
 70
     1
102
RTVSPropertyOp11
 70
     1
102
RTVSPropertyOp12
 70
     1
102
RTVSPropertyOp13
 70
     1
102
RTVSPropertyOp14
 70
     1
102
RTVSPropertyOp15
 70
     1
102
RTVSPropertyOp16
 70
     1
102
RTVSPropertyOp17
 70
     1
102
RTVSPropertyOp18
 70
     1
102
RTVSPropertyOp19
 70
     1
102
RTVSPropertyOp20
 70
     1
102
RTVSPropertyOp21
 70
     1
102
RTVSPropertyOp22
 70
     1
102
RTVSPropertyOp23
 70
     1
102
RTVSPropertyOp24
 70
     1
102
RTVSPropertyOp25
 70
     1
102
RTVSPropertyOp26
 70
     1
102
RTVSPropertyOp27
 70
     1
102
RTVSPropertyOp28
 70
     1
102
RTVSPropertyOp29
 70
     1
102
RTVSPropertyOp30
 70
     1
102
RTVSPropertyOp31
 70
     1
102
RTVSPropertyOp32
 70
     1
102
RTVSPropertyOp33
 70
     1
102
RTVSPropertyOp34
 70
     1
102
RTVSPropertyOp35
 70
     1
102
RTVSPropertyOp36
 70
     1
102
RTVSPropertyOp37
 70
     1
102
RTVSPropertyOp38
 70
     1
102
RTVSPropertyOp39
 70
     1
102
RTVSPropertyOp40
 70
     1
102
RTVSPropertyOp41
 70
     1
102
RTVSPropertyOp42
 70
     1
102
RTVSPropertyOp43
 70
     1
102
RTVSPropertyOp44
 70
     1
102
RTVSPropertyOp45
 70
     1
102
RTVSPropertyOp46
 70
     1
102
RTVSPropertyOp47
 70
     1
102
RTVSPropertyOp48
 70
     1
102
RTVSPropertyOp49
 70
     1
102
RTVSPropertyOp50
 70
     1
102
RTVSPropertyOp51
 70
     0
102
RTVSPropertyOp52
 70
     0
102
RTVSPropertyOp53
 70
     1
102
RTVSPropertyOp54
 70
     1
102
RTVSPropertyOp55
 70
     1
102
RTVSPropertyOp56
 70
     1
102
RTVSPropertyOp57
 70
     1
102
RTVSPropertyOp58
 70
     1
102
RTVSPropertyOp59
 70
     1
102
RTVSPropertyOp60
 70
     1
102
RTVSPropertyOp61
 70
     1
102
RTVSPropertyOp62
 70
     1
  0
XRECORD
  5
9B60
102
{ACAD_REACTORS
330
9B5F
102
}
330
9B5F
100
AcDbXrecord
280
     1
102
RTVSPost2010Prop28
280
     0
102
RTVSPost2010PropOp28
 70
     1
102
RTVSPost2010Prop29
280
     1
102
RTVSPost2010PropOp29
 70
     1
102
RTVSPost2010Prop30
280
     1
102
RTVSPost2010PropOp30
 70
     1
102
RTVSPost2010Prop31
280
     0
102
RTVSPost2010PropOp31
 70
     1
102
RTVSPost2010Prop32
280
     0
102
RTVSPost2010PropOp32
 70
     1
102
RTVSPost2010Prop33
280
     0
102
RTVSPost2010PropOp33
 70
     1
102
RTVSPost2010Prop34
280
     0
102
RTVSPost2010PropOp34
 70
     1
102
RTVSPost2010Prop35
280
     0
102
RTVSPost2010PropOp35
 70
     1
102
RTVSPost2010Prop36
280
     0
102
RTVSPost2010PropOp36
 70
     1
102
RTVSPost2010Prop37
 90
       50
102
RTVSPost2010PropOp37
 70
     0
102
RTVSPost2010Prop38
140
0.0
102
RTVSPost2010PropOp38
 70
     0
102
RTVSPost2010Prop39
140
1.0
102
RTVSPost2010PropOp39
 70
     0
102
RTVSPost2010Prop40
 90
        0
102
RTVSPost2010PropOp40
 70
     0
102
RTVSPost2010Prop41ColorIndex
 90
       18
102
RTVSPost2010Prop41ColorRGB
 90
        0
102
RTVSPost2010PropOp41
 70
     0
102
RTVSPost2010Prop42
 90
       50
102
RTVSPost2010PropOp42
 70
     0
102
RTVSPost2010Prop43
 90
        3
102
RTVSPost2010PropOp43
 70
     0
102
RTVSPost2010Prop44ColorIndex
 90
        5
102
RTVSPost2010Prop44ColorRGB
 90
      255
102
RTVSPost2010PropOp44
 70
     0
102
RTVSPost2010Prop45
280
     0
102
RTVSPost2010PropOp45
 70
     1
102
RTVSPost2010Prop46
 90
       50
102
RTVSPost2010PropOp46
 70
     0
102
RTVSPost2010Prop47
 90
       50
102
RTVSPost2010PropOp47
 70
     0
102
RTVSPost2010Prop48
 90
       50
102
RTVSPost2010PropOp48
 70
     0
102
RTVSPost2010Prop49
280
     0
102
RTVSPost2010PropOp49
 70
     1
102
RTVSPost2010Prop50
 90
       50
102
RTVSPost2010PropOp50
 70
     0
102
RTVSPost2010Prop51ColorIndex
 90
      256
102
RTVSPost2010Prop51ColorRGB
 90
-16777216
102
RTVSPost2010PropOp51
 70
     0
102
RTVSPost2010Prop52
140
1.0
102
RTVSPost2010PropOp52
 70
     0
102
RTVSPost2010Prop53
 90
        2
102
RTVSPost2010PropOp53
 70
     0
102
RTVSPost2010Prop54
  1
strokes_ogs.tif
102
RTVSPost2010PropOp54
 70
     0
102
RTVSPost2010Prop55
280
     0
102
RTVSPost2010PropOp55
 70
     1
102
RTVSPost2010Prop56
140
1.0
102
RTVSPost2010PropOp56
 70
     0
102
RTVSPost2010Prop57
140
1.0
102
RTVSPost2010PropOp57
 70
     0
102
RTVSPropertyOp0
 70
     0
102
RTVSPropertyOp1
 70
     0
102
RTVSPropertyOp2
 70
     0
102
RTVSPropertyOp3
 70
     0
102
RTVSPropertyOp4
 70
     0
102
RTVSPropertyOp5
 70
     0
102
RTVSPropertyOp6
 70
     0
102
RTVSPropertyOp7
 70
     0
102
RTVSPropertyOp8
 70
     0
102
RTVSPropertyOp9
 70
     0
102
RTVSPropertyOp10
 70
     0
102
RTVSPropertyOp11
 70
     0
102
RTVSPropertyOp12
 70
     0
102
RTVSPropertyOp13
 70
     0
102
RTVSPropertyOp14
 70
     2
102
RTVSPropertyOp15
 70
     0
102
RTVSPropertyOp16
 70
     0
102
RTVSPropertyOp17
 70
     0
102
RTVSPropertyOp18
 70
     0
102
RTVSPropertyOp19
 70
     0
102
RTVSPropertyOp20
 70
     0
102
RTVSPropertyOp21
 70
     0
102
RTVSPropertyOp22
 70
     0
102
RTVSPropertyOp23
 70
     0
102
RTVSPropertyOp24
 70
     0
102
RTVSPropertyOp25
 70
     0
102
RTVSPropertyOp26
 70
     0
102
RTVSPropertyOp27
 70
     0
102
RTVSPropertyOp28
 70
     1
102
RTVSPropertyOp29
 70
     1
102
RTVSPropertyOp30
 70
     1
102
RTVSPropertyOp31
 70
     1
102
RTVSPropertyOp32
 70
     1
102
RTVSPropertyOp33
 70
     1
102
RTVSPropertyOp34
 70
     1
102
RTVSPropertyOp35
 70
     1
102
RTVSPropertyOp36
 70
     1
102
RTVSPropertyOp37
 70
     0
102
RTVSPropertyOp38
 70
     0
102
RTVSPropertyOp39
 70
     0
102
RTVSPropertyOp40
 70
     0
102
RTVSPropertyOp41
 70
     0
102
RTVSPropertyOp42
 70
     0
102
RTVSPropertyOp43
 70
     0
102
RTVSPropertyOp44
 70
     0
102
RTVSPropertyOp45
 70
     1
102
RTVSPropertyOp46
 70
     0
102
RTVSPropertyOp47
 70
     0
102
RTVSPropertyOp48
 70
     0
102
RTVSPropertyOp49
 70
     1
102
RTVSPropertyOp50
 70
     0
102
RTVSPropertyOp51
 70
     0
102
RTVSPropertyOp52
 70
     0
102
RTVSPropertyOp53
 70
     0
102
RTVSPropertyOp54
 70
     0
102
RTVSPropertyOp55
 70
     1
102
RTVSPropertyOp56
 70
     0
102
RTVSPropertyOp57
 70
     0
102
RTVSPropertyOp58
 70
     0
102
RTVSPropertyOp59
 70
     0
102
RTVSPropertyOp60
 70
     0
102
RTVSPropertyOp61
 70
     0
102
RTVSPropertyOp62
 70
     0
  0
XRECORD
  5
9B50
102
{ACAD_REACTORS
330
9B4F
102
}
330
9B4F
100
AcDbXrecord
280
     1
102
RTVSPost2010Prop28
280
     0
102
RTVSPost2010PropOp28
 70
     1
102
RTVSPost2010Prop29
280
     1
102
RTVSPost2010PropOp29
 70
     1
102
RTVSPost2010Prop30
280
     1
102
RTVSPost2010PropOp30
 70
     1
102
RTVSPost2010Prop31
280
     0
102
RTVSPost2010PropOp31
 70
     1
102
RTVSPost2010Prop32
280
     0
102
RTVSPost2010PropOp32
 70
     1
102
RTVSPost2010Prop33
280
     0
102
RTVSPost2010PropOp33
 70
     1
102
RTVSPost2010Prop34
280
     0
102
RTVSPost2010PropOp34
 70
     1
102
RTVSPost2010Prop35
280
     0
102
RTVSPost2010PropOp35
 70
     1
102
RTVSPost2010Prop36
280
     0
102
RTVSPost2010PropOp36
 70
     1
102
RTVSPost2010Prop37
 90
       50
102
RTVSPost2010PropOp37
 70
     1
102
RTVSPost2010Prop38
140
0.0
102
RTVSPost2010PropOp38
 70
     1
102
RTVSPost2010Prop39
140
1.0
102
RTVSPost2010PropOp39
 70
     1
102
RTVSPost2010Prop40
 90
        0
102
RTVSPost2010PropOp40
 70
     1
102
RTVSPost2010Prop41ColorIndex
 90
       18
102
RTVSPost2010Prop41ColorRGB
 90
        0
102
RTVSPost2010PropOp41
 70
     1
102
RTVSPost2010Prop42
 90
       50
102
RTVSPost2010PropOp42
 70
     1
102
RTVSPost2010Prop43
 90
        3
102
RTVSPost2010PropOp43
 70
     1
102
RTVSPost2010Prop44ColorIndex
 90
        5
102
RTVSPost2010Prop44ColorRGB
 90
      255
102
RTVSPost2010PropOp44
 70
     1
102
RTVSPost2010Prop45
280
     0
102
RTVSPost2010PropOp45
 70
     1
102
RTVSPost2010Prop46
 90
       50
102
RTVSPost2010PropOp46
 70
     1
102
RTVSPost2010Prop47
 90
       50
102
RTVSPost2010PropOp47
 70
     1
102
RTVSPost2010Prop48
 90
       50
102
RTVSPost2010PropOp48
 70
     1
102
RTVSPost2010Prop49
280
     0
102
RTVSPost2010PropOp49
 70
     1
102
RTVSPost2010Prop50
 90
       50
102
RTVSPost2010PropOp50
 70
     1
102
RTVSPost2010Prop51ColorIndex
 90
      256
102
RTVSPost2010Prop51ColorRGB
 90
-16777216
102
RTVSPost2010PropOp51
 70
     0
102
RTVSPost2010Prop52
140
1.0
102
RTVSPost2010PropOp52
 70
     0
102
RTVSPost2010Prop53
 90
        2
102
RTVSPost2010PropOp53
 70
     1
102
RTVSPost2010Prop54
  1
strokes_ogs.tif
102
RTVSPost2010PropOp54
 70
     1
102
RTVSPost2010Prop55
280
     0
102
RTVSPost2010PropOp55
 70
     1
102
RTVSPost2010Prop56
140
1.0
102
RTVSPost2010PropOp56
 70
     1
102
RTVSPost2010Prop57
140
1.0
102
RTVSPost2010PropOp57
 70
     1
102
RTVSPropertyOp0
 70
     1
102
RTVSPropertyOp1
 70
     1
102
RTVSPropertyOp2
 70
     1
102
RTVSPropertyOp3
 70
     1
102
RTVSPropertyOp4
 70
     1
102
RTVSPropertyOp5
 70
     1
102
RTVSPropertyOp6
 70
     1
102
RTVSPropertyOp7
 70
     1
102
RTVSPropertyOp8
 70
     1
102
RTVSPropertyOp9
 70
     1
102
RTVSPropertyOp10
 70
     1
102
RTVSPropertyOp11
 70
     1
102
RTVSPropertyOp12
 70
     1
102
RTVSPropertyOp13
 70
     1
102
RTVSPropertyOp14
 70
     1
102
RTVSPropertyOp15
 70
     1
102
RTVSPropertyOp16
 70
     1
102
RTVSPropertyOp17
 70
     1
102
RTVSPropertyOp18
 70
     1
102
RTVSPropertyOp19
 70
     1
102
RTVSPropertyOp20
 70
     1
102
RTVSPropertyOp21
 70
     1
102
RTVSPropertyOp22
 70
     1
102
RTVSPropertyOp23
 70
     1
102
RTVSPropertyOp24
 70
     1
102
RTVSPropertyOp25
 70
     1
102
RTVSPropertyOp26
 70
     1
102
RTVSPropertyOp27
 70
     1
102
RTVSPropertyOp28
 70
     1
102
RTVSPropertyOp29
 70
     1
102
RTVSPropertyOp30
 70
     1
102
RTVSPropertyOp31
 70
     1
102
RTVSPropertyOp32
 70
     1
102
RTVSPropertyOp33
 70
     1
102
RTVSPropertyOp34
 70
     1
102
RTVSPropertyOp35
 70
     1
102
RTVSPropertyOp36
 70
     1
102
RTVSPropertyOp37
 70
     1
102
RTVSPropertyOp38
 70
     1
102
RTVSPropertyOp39
 70
     1
102
RTVSPropertyOp40
 70
     1
102
RTVSPropertyOp41
 70
     1
102
RTVSPropertyOp42
 70
     1
102
RTVSPropertyOp43
 70
     1
102
RTVSPropertyOp44
 70
     1
102
RTVSPropertyOp45
 70
     1
102
RTVSPropertyOp46
 70
     1
102
RTVSPropertyOp47
 70
     1
102
RTVSPropertyOp48
 70
     1
102
RTVSPropertyOp49
 70
     1
102
RTVSPropertyOp50
 70
     1
102
RTVSPropertyOp51
 70
     0
102
RTVSPropertyOp52
 70
     0
102
RTVSPropertyOp53
 70
     1
102
RTVSPropertyOp54
 70
     1
102
RTVSPropertyOp55
 70
     1
102
RTVSPropertyOp56
 70
     1
102
RTVSPropertyOp57
 70
     1
102
RTVSPropertyOp58
 70
     1
102
RTVSPropertyOp59
 70
     1
102
RTVSPropertyOp60
 70
     1
102
RTVSPropertyOp61
 70
     1
102
RTVSPropertyOp62
 70
     1
  0
XRECORD
  5
9B62
102
{ACAD_REACTORS
330
9B61
102
}
330
9B61
100
AcDbXrecord
280
     1
102
RTVSPost2010Prop28
280
     0
102
RTVSPost2010PropOp28
 70
     1
102
RTVSPost2010Prop29
280
     1
102
RTVSPost2010PropOp29
 70
     1
102
RTVSPost2010Prop30
280
     1
102
RTVSPost2010PropOp30
 70
     1
102
RTVSPost2010Prop31
280
     0
102
RTVSPost2010PropOp31
 70
     1
102
RTVSPost2010Prop32
280
     0
102
RTVSPost2010PropOp32
 70
     1
102
RTVSPost2010Prop33
280
     0
102
RTVSPost2010PropOp33
 70
     1
102
RTVSPost2010Prop34
280
     0
102
RTVSPost2010PropOp34
 70
     1
102
RTVSPost2010Prop35
280
     0
102
RTVSPost2010PropOp35
 70
     1
102
RTVSPost2010Prop36
280
     0
102
RTVSPost2010PropOp36
 70
     1
102
RTVSPost2010Prop37
 90
       50
102
RTVSPost2010PropOp37
 70
     0
102
RTVSPost2010Prop38
140
0.0
102
RTVSPost2010PropOp38
 70
     0
102
RTVSPost2010Prop39
140
1.0
102
RTVSPost2010PropOp39
 70
     0
102
RTVSPost2010Prop40
 90
        0
102
RTVSPost2010PropOp40
 70
     0
102
RTVSPost2010Prop41ColorIndex
 90
       18
102
RTVSPost2010Prop41ColorRGB
 90
        0
102
RTVSPost2010PropOp41
 70
     0
102
RTVSPost2010Prop42
 90
       50
102
RTVSPost2010PropOp42
 70
     0
102
RTVSPost2010Prop43
 90
        3
102
RTVSPost2010PropOp43
 70
     0
102
RTVSPost2010Prop44ColorIndex
 90
        5
102
RTVSPost2010Prop44ColorRGB
 90
      255
102
RTVSPost2010PropOp44
 70
     0
102
RTVSPost2010Prop45
280
     0
102
RTVSPost2010PropOp45
 70
     1
102
RTVSPost2010Prop46
 90
       50
102
RTVSPost2010PropOp46
 70
     0
102
RTVSPost2010Prop47
 90
       50
102
RTVSPost2010PropOp47
 70
     0
102
RTVSPost2010Prop48
 90
       50
102
RTVSPost2010PropOp48
 70
     0
102
RTVSPost2010Prop49
280
     0
102
RTVSPost2010PropOp49
 70
     1
102
RTVSPost2010Prop50
 90
       50
102
RTVSPost2010PropOp50
 70
     0
102
RTVSPost2010Prop51ColorIndex
 90
      256
102
RTVSPost2010Prop51ColorRGB
 90
-16777216
102
RTVSPost2010PropOp51
 70
     0
102
RTVSPost2010Prop52
140
1.0
102
RTVSPost2010PropOp52
 70
     0
102
RTVSPost2010Prop53
 90
        2
102
RTVSPost2010PropOp53
 70
     0
102
RTVSPost2010Prop54
  1
strokes_ogs.tif
102
RTVSPost2010PropOp54
 70
     0
102
RTVSPost2010Prop55
280
     0
102
RTVSPost2010PropOp55
 70
     1
102
RTVSPost2010Prop56
140
1.0
102
RTVSPost2010PropOp56
 70
     0
102
RTVSPost2010Prop57
140
1.0
102
RTVSPost2010PropOp57
 70
     0
102
RTVSPropertyOp0
 70
     0
102
RTVSPropertyOp1
 70
     0
102
RTVSPropertyOp2
 70
     0
102
RTVSPropertyOp3
 70
     0
102
RTVSPropertyOp4
 70
     0
102
RTVSPropertyOp5
 70
     0
102
RTVSPropertyOp6
 70
     0
102
RTVSPropertyOp7
 70
     0
102
RTVSPropertyOp8
 70
     0
102
RTVSPropertyOp9
 70
     0
102
RTVSPropertyOp10
 70
     0
102
RTVSPropertyOp11
 70
     0
102
RTVSPropertyOp12
 70
     0
102
RTVSPropertyOp13
 70
     0
102
RTVSPropertyOp14
 70
     2
102
RTVSPropertyOp15
 70
     0
102
RTVSPropertyOp16
 70
     0
102
RTVSPropertyOp17
 70
     0
102
RTVSPropertyOp18
 70
     0
102
RTVSPropertyOp19
 70
     0
102
RTVSPropertyOp20
 70
     0
102
RTVSPropertyOp21
 70
     0
102
RTVSPropertyOp22
 70
     0
102
RTVSPropertyOp23
 70
     0
102
RTVSPropertyOp24
 70
     0
102
RTVSPropertyOp25
 70
     0
102
RTVSPropertyOp26
 70
     0
102
RTVSPropertyOp27
 70
     0
102
RTVSPropertyOp28
 70
     1
102
RTVSPropertyOp29
 70
     1
102
RTVSPropertyOp30
 70
     1
102
RTVSPropertyOp31
 70
     1
102
RTVSPropertyOp32
 70
     1
102
RTVSPropertyOp33
 70
     1
102
RTVSPropertyOp34
 70
     1
102
RTVSPropertyOp35
 70
     1
102
RTVSPropertyOp36
 70
     1
102
RTVSPropertyOp37
 70
     0
102
RTVSPropertyOp38
 70
     0
102
RTVSPropertyOp39
 70
     0
102
RTVSPropertyOp40
 70
     0
102
RTVSPropertyOp41
 70
     0
102
RTVSPropertyOp42
 70
     0
102
RTVSPropertyOp43
 70
     0
102
RTVSPropertyOp44
 70
     0
102
RTVSPropertyOp45
 70
     1
102
RTVSPropertyOp46
 70
     0
102
RTVSPropertyOp47
 70
     0
102
RTVSPropertyOp48
 70
     0
102
RTVSPropertyOp49
 70
     1
102
RTVSPropertyOp50
 70
     0
102
RTVSPropertyOp51
 70
     0
102
RTVSPropertyOp52
 70
     0
102
RTVSPropertyOp53
 70
     0
102
RTVSPropertyOp54
 70
     0
102
RTVSPropertyOp55
 70
     1
102
RTVSPropertyOp56
 70
     0
102
RTVSPropertyOp57
 70
     0
102
RTVSPropertyOp58
 70
     0
102
RTVSPropertyOp59
 70
     0
102
RTVSPropertyOp60
 70
     0
102
RTVSPropertyOp61
 70
     0
102
RTVSPropertyOp62
 70
     0
  0
XRECORD
  5
9B48
102
{ACAD_REACTORS
330
9B47
102
}
330
9B47
100
AcDbXrecord
280
     1
102
RTVSPost2010Prop28
280
     0
102
RTVSPost2010PropOp28
 70
     1
102
RTVSPost2010Prop29
280
     1
102
RTVSPost2010PropOp29
 70
     1
102
RTVSPost2010Prop30
280
     1
102
RTVSPost2010PropOp30
 70
     1
102
RTVSPost2010Prop31
280
     0
102
RTVSPost2010PropOp31
 70
     1
102
RTVSPost2010Prop32
280
     0
102
RTVSPost2010PropOp32
 70
     1
102
RTVSPost2010Prop33
280
     0
102
RTVSPost2010PropOp33
 70
     1
102
RTVSPost2010Prop34
280
     0
102
RTVSPost2010PropOp34
 70
     1
102
RTVSPost2010Prop35
280
     0
102
RTVSPost2010PropOp35
 70
     1
102
RTVSPost2010Prop36
280
     0
102
RTVSPost2010PropOp36
 70
     1
102
RTVSPost2010Prop37
 90
       50
102
RTVSPost2010PropOp37
 70
     1
102
RTVSPost2010Prop38
140
0.0
102
RTVSPost2010PropOp38
 70
     1
102
RTVSPost2010Prop39
140
1.0
102
RTVSPost2010PropOp39
 70
     1
102
RTVSPost2010Prop40
 90
        0
102
RTVSPost2010PropOp40
 70
     1
102
RTVSPost2010Prop41ColorIndex
 90
       18
102
RTVSPost2010Prop41ColorRGB
 90
        0
102
RTVSPost2010PropOp41
 70
     1
102
RTVSPost2010Prop42
 90
       50
102
RTVSPost2010PropOp42
 70
     1
102
RTVSPost2010Prop43
 90
        3
102
RTVSPost2010PropOp43
 70
     1
102
RTVSPost2010Prop44ColorIndex
 90
        5
102
RTVSPost2010Prop44ColorRGB
 90
      255
102
RTVSPost2010PropOp44
 70
     1
102
RTVSPost2010Prop45
280
     0
102
RTVSPost2010PropOp45
 70
     1
102
RTVSPost2010Prop46
 90
       50
102
RTVSPost2010PropOp46
 70
     1
102
RTVSPost2010Prop47
 90
       50
102
RTVSPost2010PropOp47
 70
     1
102
RTVSPost2010Prop48
 90
       50
102
RTVSPost2010PropOp48
 70
     1
102
RTVSPost2010Prop49
280
     0
102
RTVSPost2010PropOp49
 70
     1
102
RTVSPost2010Prop50
 90
       50
102
RTVSPost2010PropOp50
 70
     1
102
RTVSPost2010Prop51ColorIndex
 90
      256
102
RTVSPost2010Prop51ColorRGB
 90
-16777216
102
RTVSPost2010PropOp51
 70
     0
102
RTVSPost2010Prop52
140
1.0
102
RTVSPost2010PropOp52
 70
     0
102
RTVSPost2010Prop53
 90
        2
102
RTVSPost2010PropOp53
 70
     1
102
RTVSPost2010Prop54
  1
strokes_ogs.tif
102
RTVSPost2010PropOp54
 70
     1
102
RTVSPost2010Prop55
280
     0
102
RTVSPost2010PropOp55
 70
     1
102
RTVSPost2010Prop56
140
1.0
102
RTVSPost2010PropOp56
 70
     1
102
RTVSPost2010Prop57
140
1.0
102
RTVSPost2010PropOp57
 70
     1
102
RTVSPropertyOp0
 70
     1
102
RTVSPropertyOp1
 70
     1
102
RTVSPropertyOp2
 70
     1
102
RTVSPropertyOp3
 70
     1
102
RTVSPropertyOp4
 70
     1
102
RTVSPropertyOp5
 70
     1
102
RTVSPropertyOp6
 70
     1
102
RTVSPropertyOp7
 70
     1
102
RTVSPropertyOp8
 70
     1
102
RTVSPropertyOp9
 70
     1
102
RTVSPropertyOp10
 70
     1
102
RTVSPropertyOp11
 70
     1
102
RTVSPropertyOp12
 70
     1
102
RTVSPropertyOp13
 70
     1
102
RTVSPropertyOp14
 70
     1
102
RTVSPropertyOp15
 70
     1
102
RTVSPropertyOp16
 70
     1
102
RTVSPropertyOp17
 70
     1
102
RTVSPropertyOp18
 70
     1
102
RTVSPropertyOp19
 70
     1
102
RTVSPropertyOp20
 70
     1
102
RTVSPropertyOp21
 70
     1
102
RTVSPropertyOp22
 70
     1
102
RTVSPropertyOp23
 70
     1
102
RTVSPropertyOp24
 70
     1
102
RTVSPropertyOp25
 70
     1
102
RTVSPropertyOp26
 70
     1
102
RTVSPropertyOp27
 70
     1
102
RTVSPropertyOp28
 70
     1
102
RTVSPropertyOp29
 70
     1
102
RTVSPropertyOp30
 70
     1
102
RTVSPropertyOp31
 70
     1
102
RTVSPropertyOp32
 70
     1
102
RTVSPropertyOp33
 70
     1
102
RTVSPropertyOp34
 70
     1
102
RTVSPropertyOp35
 70
     1
102
RTVSPropertyOp36
 70
     1
102
RTVSPropertyOp37
 70
     1
102
RTVSPropertyOp38
 70
     1
102
RTVSPropertyOp39
 70
     1
102
RTVSPropertyOp40
 70
     1
102
RTVSPropertyOp41
 70
     1
102
RTVSPropertyOp42
 70
     1
102
RTVSPropertyOp43
 70
     1
102
RTVSPropertyOp44
 70
     1
102
RTVSPropertyOp45
 70
     1
102
RTVSPropertyOp46
 70
     1
102
RTVSPropertyOp47
 70
     1
102
RTVSPropertyOp48
 70
     1
102
RTVSPropertyOp49
 70
     1
102
RTVSPropertyOp50
 70
     1
102
RTVSPropertyOp51
 70
     0
102
RTVSPropertyOp52
 70
     0
102
RTVSPropertyOp53
 70
     1
102
RTVSPropertyOp54
 70
     1
102
RTVSPropertyOp55
 70
     1
102
RTVSPropertyOp56
 70
     1
102
RTVSPropertyOp57
 70
     1
102
RTVSPropertyOp58
 70
     1
102
RTVSPropertyOp59
 70
     1
102
RTVSPropertyOp60
 70
     1
102
RTVSPropertyOp61
 70
     1
102
RTVSPropertyOp62
 70
     1
  0
XRECORD
  5
9B5E
102
{ACAD_REACTORS
330
9B5D
102
}
330
9B5D
100
AcDbXrecord
280
     1
102
RTVSPost2010Prop28
280
     0
102
RTVSPost2010PropOp28
 70
     1
102
RTVSPost2010Prop29
280
     1
102
RTVSPost2010PropOp29
 70
     1
102
RTVSPost2010Prop30
280
     1
102
RTVSPost2010PropOp30
 70
     1
102
RTVSPost2010Prop31
280
     0
102
RTVSPost2010PropOp31
 70
     1
102
RTVSPost2010Prop32
280
     0
102
RTVSPost2010PropOp32
 70
     1
102
RTVSPost2010Prop33
280
     0
102
RTVSPost2010PropOp33
 70
     1
102
RTVSPost2010Prop34
280
     0
102
RTVSPost2010PropOp34
 70
     1
102
RTVSPost2010Prop35
280
     0
102
RTVSPost2010PropOp35
 70
     1
102
RTVSPost2010Prop36
280
     0
102
RTVSPost2010PropOp36
 70
     1
102
RTVSPost2010Prop37
 90
       50
102
RTVSPost2010PropOp37
 70
     1
102
RTVSPost2010Prop38
140
0.0
102
RTVSPost2010PropOp38
 70
     1
102
RTVSPost2010Prop39
140
1.0
102
RTVSPost2010PropOp39
 70
     1
102
RTVSPost2010Prop40
 90
        0
102
RTVSPost2010PropOp40
 70
     1
102
RTVSPost2010Prop41ColorIndex
 90
       18
102
RTVSPost2010Prop41ColorRGB
 90
        0
102
RTVSPost2010PropOp41
 70
     1
102
RTVSPost2010Prop42
 90
       50
102
RTVSPost2010PropOp42
 70
     1
102
RTVSPost2010Prop43
 90
        3
102
RTVSPost2010PropOp43
 70
     1
102
RTVSPost2010Prop44ColorIndex
 90
        5
102
RTVSPost2010Prop44ColorRGB
 90
      255
102
RTVSPost2010PropOp44
 70
     1
102
RTVSPost2010Prop45
280
     0
102
RTVSPost2010PropOp45
 70
     1
102
RTVSPost2010Prop46
 90
       50
102
RTVSPost2010PropOp46
 70
     1
102
RTVSPost2010Prop47
 90
       50
102
RTVSPost2010PropOp47
 70
     1
102
RTVSPost2010Prop48
 90
       50
102
RTVSPost2010PropOp48
 70
     1
102
RTVSPost2010Prop49
280
     0
102
RTVSPost2010PropOp49
 70
     1
102
RTVSPost2010Prop50
 90
       50
102
RTVSPost2010PropOp50
 70
     1
102
RTVSPost2010Prop51ColorIndex
 90
      256
102
RTVSPost2010Prop51ColorRGB
 90
-16777216
102
RTVSPost2010PropOp51
 70
     0
102
RTVSPost2010Prop52
140
1.0
102
RTVSPost2010PropOp52
 70
     0
102
RTVSPost2010Prop53
 90
        2
102
RTVSPost2010PropOp53
 70
     1
102
RTVSPost2010Prop54
  1
strokes_ogs.tif
102
RTVSPost2010PropOp54
 70
     1
102
RTVSPost2010Prop55
280
     0
102
RTVSPost2010PropOp55
 70
     1
102
RTVSPost2010Prop56
140
1.0
102
RTVSPost2010PropOp56
 70
     1
102
RTVSPost2010Prop57
140
1.0
102
RTVSPost2010PropOp57
 70
     1
102
RTVSPropertyOp0
 70
     1
102
RTVSPropertyOp1
 70
     1
102
RTVSPropertyOp2
 70
     1
102
RTVSPropertyOp3
 70
     1
102
RTVSPropertyOp4
 70
     1
102
RTVSPropertyOp5
 70
     1
102
RTVSPropertyOp6
 70
     1
102
RTVSPropertyOp7
 70
     1
102
RTVSPropertyOp8
 70
     1
102
RTVSPropertyOp9
 70
     1
102
RTVSPropertyOp10
 70
     1
102
RTVSPropertyOp11
 70
     1
102
RTVSPropertyOp12
 70
     1
102
RTVSPropertyOp13
 70
     1
102
RTVSPropertyOp14
 70
     1
102
RTVSPropertyOp15
 70
     1
102
RTVSPropertyOp16
 70
     1
102
RTVSPropertyOp17
 70
     1
102
RTVSPropertyOp18
 70
     1
102
RTVSPropertyOp19
 70
     1
102
RTVSPropertyOp20
 70
     1
102
RTVSPropertyOp21
 70
     1
102
RTVSPropertyOp22
 70
     1
102
RTVSPropertyOp23
 70
     1
102
RTVSPropertyOp24
 70
     1
102
RTVSPropertyOp25
 70
     1
102
RTVSPropertyOp26
 70
     1
102
RTVSPropertyOp27
 70
     1
102
RTVSPropertyOp28
 70
     1
102
RTVSPropertyOp29
 70
     1
102
RTVSPropertyOp30
 70
     1
102
RTVSPropertyOp31
 70
     1
102
RTVSPropertyOp32
 70
     1
102
RTVSPropertyOp33
 70
     1
102
RTVSPropertyOp34
 70
     1
102
RTVSPropertyOp35
 70
     1
102
RTVSPropertyOp36
 70
     1
102
RTVSPropertyOp37
 70
     1
102
RTVSPropertyOp38
 70
     1
102
RTVSPropertyOp39
 70
     1
102
RTVSPropertyOp40
 70
     1
102
RTVSPropertyOp41
 70
     1
102
RTVSPropertyOp42
 70
     1
102
RTVSPropertyOp43
 70
     1
102
RTVSPropertyOp44
 70
     1
102
RTVSPropertyOp45
 70
     1
102
RTVSPropertyOp46
 70
     1
102
RTVSPropertyOp47
 70
     1
102
RTVSPropertyOp48
 70
     1
102
RTVSPropertyOp49
 70
     1
102
RTVSPropertyOp50
 70
     1
102
RTVSPropertyOp51
 70
     0
102
RTVSPropertyOp52
 70
     0
102
RTVSPropertyOp53
 70
     1
102
RTVSPropertyOp54
 70
     1
102
RTVSPropertyOp55
 70
     1
102
RTVSPropertyOp56
 70
     1
102
RTVSPropertyOp57
 70
     1
102
RTVSPropertyOp58
 70
     1
102
RTVSPropertyOp59
 70
     1
102
RTVSPropertyOp60
 70
     1
102
RTVSPropertyOp61
 70
     1
102
RTVSPropertyOp62
 70
     1
  0
XRECORD
  5
9B5C
102
{ACAD_REACTORS
330
9B5B
102
}
330
9B5B
100
AcDbXrecord
280
     1
102
RTVSPost2010Prop28
280
     0
102
RTVSPost2010PropOp28
 70
     1
102
RTVSPost2010Prop29
280
     1
102
RTVSPost2010PropOp29
 70
     1
102
RTVSPost2010Prop30
280
     1
102
RTVSPost2010PropOp30
 70
     1
102
RTVSPost2010Prop31
280
     0
102
RTVSPost2010PropOp31
 70
     1
102
RTVSPost2010Prop32
280
     0
102
RTVSPost2010PropOp32
 70
     1
102
RTVSPost2010Prop33
280
     0
102
RTVSPost2010PropOp33
 70
     1
102
RTVSPost2010Prop34
280
     0
102
RTVSPost2010PropOp34
 70
     1
102
RTVSPost2010Prop35
280
     0
102
RTVSPost2010PropOp35
 70
     1
102
RTVSPost2010Prop36
280
     0
102
RTVSPost2010PropOp36
 70
     1
102
RTVSPost2010Prop37
 90
       50
102
RTVSPost2010PropOp37
 70
     1
102
RTVSPost2010Prop38
140
0.0
102
RTVSPost2010PropOp38
 70
     1
102
RTVSPost2010Prop39
140
1.0
102
RTVSPost2010PropOp39
 70
     1
102
RTVSPost2010Prop40
 90
        0
102
RTVSPost2010PropOp40
 70
     1
102
RTVSPost2010Prop41ColorIndex
 90
       18
102
RTVSPost2010Prop41ColorRGB
 90
        0
102
RTVSPost2010PropOp41
 70
     1
102
RTVSPost2010Prop42
 90
       50
102
RTVSPost2010PropOp42
 70
     1
102
RTVSPost2010Prop43
 90
        3
102
RTVSPost2010PropOp43
 70
     1
102
RTVSPost2010Prop44ColorIndex
 90
        5
102
RTVSPost2010Prop44ColorRGB
 90
      255
102
RTVSPost2010PropOp44
 70
     1
102
RTVSPost2010Prop45
280
     0
102
RTVSPost2010PropOp45
 70
     1
102
RTVSPost2010Prop46
 90
       50
102
RTVSPost2010PropOp46
 70
     1
102
RTVSPost2010Prop47
 90
       50
102
RTVSPost2010PropOp47
 70
     1
102
RTVSPost2010Prop48
 90
       50
102
RTVSPost2010PropOp48
 70
     1
102
RTVSPost2010Prop49
280
     0
102
RTVSPost2010PropOp49
 70
     1
102
RTVSPost2010Prop50
 90
       50
102
RTVSPost2010PropOp50
 70
     1
102
RTVSPost2010Prop51ColorIndex
 90
      256
102
RTVSPost2010Prop51ColorRGB
 90
-16777216
102
RTVSPost2010PropOp51
 70
     0
102
RTVSPost2010Prop52
140
1.0
102
RTVSPost2010PropOp52
 70
     0
102
RTVSPost2010Prop53
 90
        2
102
RTVSPost2010PropOp53
 70
     1
102
RTVSPost2010Prop54
  1
strokes_ogs.tif
102
RTVSPost2010PropOp54
 70
     1
102
RTVSPost2010Prop55
280
     0
102
RTVSPost2010PropOp55
 70
     1
102
RTVSPost2010Prop56
140
1.0
102
RTVSPost2010PropOp56
 70
     1
102
RTVSPost2010Prop57
140
1.0
102
RTVSPost2010PropOp57
 70
     1
102
RTVSPropertyOp0
 70
     1
102
RTVSPropertyOp1
 70
     1
102
RTVSPropertyOp2
 70
     1
102
RTVSPropertyOp3
 70
     1
102
RTVSPropertyOp4
 70
     1
102
RTVSPropertyOp5
 70
     1
102
RTVSPropertyOp6
 70
     1
102
RTVSPropertyOp7
 70
     1
102
RTVSPropertyOp8
 70
     1
102
RTVSPropertyOp9
 70
     1
102
RTVSPropertyOp10
 70
     1
102
RTVSPropertyOp11
 70
     1
102
RTVSPropertyOp12
 70
     1
102
RTVSPropertyOp13
 70
     1
102
RTVSPropertyOp14
 70
     1
102
RTVSPropertyOp15
 70
     1
102
RTVSPropertyOp16
 70
     1
102
RTVSPropertyOp17
 70
     1
102
RTVSPropertyOp18
 70
     1
102
RTVSPropertyOp19
 70
     1
102
RTVSPropertyOp20
 70
     1
102
RTVSPropertyOp21
 70
     1
102
RTVSPropertyOp22
 70
     1
102
RTVSPropertyOp23
 70
     1
102
RTVSPropertyOp24
 70
     1
102
RTVSPropertyOp25
 70
     1
102
RTVSPropertyOp26
 70
     1
102
RTVSPropertyOp27
 70
     1
102
RTVSPropertyOp28
 70
     1
102
RTVSPropertyOp29
 70
     1
102
RTVSPropertyOp30
 70
     1
102
RTVSPropertyOp31
 70
     1
102
RTVSPropertyOp32
 70
     1
102
RTVSPropertyOp33
 70
     1
102
RTVSPropertyOp34
 70
     1
102
RTVSPropertyOp35
 70
     1
102
RTVSPropertyOp36
 70
     1
102
RTVSPropertyOp37
 70
     1
102
RTVSPropertyOp38
 70
     1
102
RTVSPropertyOp39
 70
     1
102
RTVSPropertyOp40
 70
     1
102
RTVSPropertyOp41
 70
     1
102
RTVSPropertyOp42
 70
     1
102
RTVSPropertyOp43
 70
     1
102
RTVSPropertyOp44
 70
     1
102
RTVSPropertyOp45
 70
     1
102
RTVSPropertyOp46
 70
     1
102
RTVSPropertyOp47
 70
     1
102
RTVSPropertyOp48
 70
     1
102
RTVSPropertyOp49
 70
     1
102
RTVSPropertyOp50
 70
     1
102
RTVSPropertyOp51
 70
     0
102
RTVSPropertyOp52
 70
     0
102
RTVSPropertyOp53
 70
     1
102
RTVSPropertyOp54
 70
     1
102
RTVSPropertyOp55
 70
     1
102
RTVSPropertyOp56
 70
     1
102
RTVSPropertyOp57
 70
     1
102
RTVSPropertyOp58
 70
     1
102
RTVSPropertyOp59
 70
     1
102
RTVSPropertyOp60
 70
     1
102
RTVSPropertyOp61
 70
     1
102
RTVSPropertyOp62
 70
     1
  0
XRECORD
  5
9B56
102
{ACAD_REACTORS
330
9B55
102
}
330
9B55
100
AcDbXrecord
280
     1
102
RTVSPost2010Prop28
280
     0
102
RTVSPost2010PropOp28
 70
     1
102
RTVSPost2010Prop29
280
     1
102
RTVSPost2010PropOp29
 70
     1
102
RTVSPost2010Prop30
280
     1
102
RTVSPost2010PropOp30
 70
     1
102
RTVSPost2010Prop31
280
     0
102
RTVSPost2010PropOp31
 70
     1
102
RTVSPost2010Prop32
280
     0
102
RTVSPost2010PropOp32
 70
     1
102
RTVSPost2010Prop33
280
     0
102
RTVSPost2010PropOp33
 70
     1
102
RTVSPost2010Prop34
280
     0
102
RTVSPost2010PropOp34
 70
     1
102
RTVSPost2010Prop35
280
     0
102
RTVSPost2010PropOp35
 70
     1
102
RTVSPost2010Prop36
280
     0
102
RTVSPost2010PropOp36
 70
     1
102
RTVSPost2010Prop37
 90
       50
102
RTVSPost2010PropOp37
 70
     1
102
RTVSPost2010Prop38
140
0.0
102
RTVSPost2010PropOp38
 70
     1
102
RTVSPost2010Prop39
140
1.0
102
RTVSPost2010PropOp39
 70
     1
102
RTVSPost2010Prop40
 90
        0
102
RTVSPost2010PropOp40
 70
     1
102
RTVSPost2010Prop41ColorIndex
 90
       18
102
RTVSPost2010Prop41ColorRGB
 90
        0
102
RTVSPost2010PropOp41
 70
     1
102
RTVSPost2010Prop42
 90
       50
102
RTVSPost2010PropOp42
 70
     1
102
RTVSPost2010Prop43
 90
        3
102
RTVSPost2010PropOp43
 70
     1
102
RTVSPost2010Prop44ColorIndex
 90
        5
102
RTVSPost2010Prop44ColorRGB
 90
      255
102
RTVSPost2010PropOp44
 70
     1
102
RTVSPost2010Prop45
280
     0
102
RTVSPost2010PropOp45
 70
     1
102
RTVSPost2010Prop46
 90
       50
102
RTVSPost2010PropOp46
 70
     1
102
RTVSPost2010Prop47
 90
       50
102
RTVSPost2010PropOp47
 70
     1
102
RTVSPost2010Prop48
 90
       50
102
RTVSPost2010PropOp48
 70
     1
102
RTVSPost2010Prop49
280
     0
102
RTVSPost2010PropOp49
 70
     1
102
RTVSPost2010Prop50
 90
       50
102
RTVSPost2010PropOp50
 70
     1
102
RTVSPost2010Prop51ColorIndex
 90
      256
102
RTVSPost2010Prop51ColorRGB
 90
-16777216
102
RTVSPost2010PropOp51
 70
     0
102
RTVSPost2010Prop52
140
1.0
102
RTVSPost2010PropOp52
 70
     0
102
RTVSPost2010Prop53
 90
        2
102
RTVSPost2010PropOp53
 70
     1
102
RTVSPost2010Prop54
  1
strokes_ogs.tif
102
RTVSPost2010PropOp54
 70
     1
102
RTVSPost2010Prop55
280
     0
102
RTVSPost2010PropOp55
 70
     1
102
RTVSPost2010Prop56
140
1.0
102
RTVSPost2010PropOp56
 70
     1
102
RTVSPost2010Prop57
140
1.0
102
RTVSPost2010PropOp57
 70
     1
102
RTVSPropertyOp0
 70
     1
102
RTVSPropertyOp1
 70
     1
102
RTVSPropertyOp2
 70
     1
102
RTVSPropertyOp3
 70
     1
102
RTVSPropertyOp4
 70
     1
102
RTVSPropertyOp5
 70
     1
102
RTVSPropertyOp6
 70
     1
102
RTVSPropertyOp7
 70
     1
102
RTVSPropertyOp8
 70
     1
102
RTVSPropertyOp9
 70
     1
102
RTVSPropertyOp10
 70
     1
102
RTVSPropertyOp11
 70
     1
102
RTVSPropertyOp12
 70
     1
102
RTVSPropertyOp13
 70
     1
102
RTVSPropertyOp14
 70
     1
102
RTVSPropertyOp15
 70
     1
102
RTVSPropertyOp16
 70
     1
102
RTVSPropertyOp17
 70
     1
102
RTVSPropertyOp18
 70
     1
102
RTVSPropertyOp19
 70
     1
102
RTVSPropertyOp20
 70
     1
102
RTVSPropertyOp21
 70
     1
102
RTVSPropertyOp22
 70
     1
102
RTVSPropertyOp23
 70
     1
102
RTVSPropertyOp24
 70
     1
102
RTVSPropertyOp25
 70
     1
102
RTVSPropertyOp26
 70
     1
102
RTVSPropertyOp27
 70
     1
102
RTVSPropertyOp28
 70
     1
102
RTVSPropertyOp29
 70
     1
102
RTVSPropertyOp30
 70
     1
102
RTVSPropertyOp31
 70
     1
102
RTVSPropertyOp32
 70
     1
102
RTVSPropertyOp33
 70
     1
102
RTVSPropertyOp34
 70
     1
102
RTVSPropertyOp35
 70
     1
102
RTVSPropertyOp36
 70
     1
102
RTVSPropertyOp37
 70
     1
102
RTVSPropertyOp38
 70
     1
102
RTVSPropertyOp39
 70
     1
102
RTVSPropertyOp40
 70
     1
102
RTVSPropertyOp41
 70
     1
102
RTVSPropertyOp42
 70
     1
102
RTVSPropertyOp43
 70
     1
102
RTVSPropertyOp44
 70
     1
102
RTVSPropertyOp45
 70
     1
102
RTVSPropertyOp46
 70
     1
102
RTVSPropertyOp47
 70
     1
102
RTVSPropertyOp48
 70
     1
102
RTVSPropertyOp49
 70
     1
102
RTVSPropertyOp50
 70
     1
102
RTVSPropertyOp51
 70
     0
102
RTVSPropertyOp52
 70
     0
102
RTVSPropertyOp53
 70
     1
102
RTVSPropertyOp54
 70
     1
102
RTVSPropertyOp55
 70
     1
102
RTVSPropertyOp56
 70
     1
102
RTVSPropertyOp57
 70
     1
102
RTVSPropertyOp58
 70
     1
102
RTVSPropertyOp59
 70
     1
102
RTVSPropertyOp60
 70
     1
102
RTVSPropertyOp61
 70
     1
102
RTVSPropertyOp62
 70
     1
  0
XRECORD
  5
9B58
102
{ACAD_REACTORS
330
9B57
102
}
330
9B57
100
AcDbXrecord
280
     1
102
RTVSPost2010Prop28
280
     0
102
RTVSPost2010PropOp28
 70
     1
102
RTVSPost2010Prop29
280
     1
102
RTVSPost2010PropOp29
 70
     1
102
RTVSPost2010Prop30
280
     1
102
RTVSPost2010PropOp30
 70
     1
102
RTVSPost2010Prop31
280
     0
102
RTVSPost2010PropOp31
 70
     1
102
RTVSPost2010Prop32
280
     0
102
RTVSPost2010PropOp32
 70
     1
102
RTVSPost2010Prop33
280
     0
102
RTVSPost2010PropOp33
 70
     1
102
RTVSPost2010Prop34
280
     0
102
RTVSPost2010PropOp34
 70
     1
102
RTVSPost2010Prop35
280
     0
102
RTVSPost2010PropOp35
 70
     1
102
RTVSPost2010Prop36
280
     0
102
RTVSPost2010PropOp36
 70
     1
102
RTVSPost2010Prop37
 90
       50
102
RTVSPost2010PropOp37
 70
     1
102
RTVSPost2010Prop38
140
0.0
102
RTVSPost2010PropOp38
 70
     1
102
RTVSPost2010Prop39
140
1.0
102
RTVSPost2010PropOp39
 70
     1
102
RTVSPost2010Prop40
 90
        0
102
RTVSPost2010PropOp40
 70
     1
102
RTVSPost2010Prop41ColorIndex
 90
       18
102
RTVSPost2010Prop41ColorRGB
 90
        0
102
RTVSPost2010PropOp41
 70
     1
102
RTVSPost2010Prop42
 90
       50
102
RTVSPost2010PropOp42
 70
     1
102
RTVSPost2010Prop43
 90
        3
102
RTVSPost2010PropOp43
 70
     1
102
RTVSPost2010Prop44ColorIndex
 90
        5
102
RTVSPost2010Prop44ColorRGB
 90
      255
102
RTVSPost2010PropOp44
 70
     1
102
RTVSPost2010Prop45
280
     0
102
RTVSPost2010PropOp45
 70
     1
102
RTVSPost2010Prop46
 90
       50
102
RTVSPost2010PropOp46
 70
     1
102
RTVSPost2010Prop47
 90
       50
102
RTVSPost2010PropOp47
 70
     1
102
RTVSPost2010Prop48
 90
       50
102
RTVSPost2010PropOp48
 70
     1
102
RTVSPost2010Prop49
280
     0
102
RTVSPost2010PropOp49
 70
     1
102
RTVSPost2010Prop50
 90
       50
102
RTVSPost2010PropOp50
 70
     1
102
RTVSPost2010Prop51ColorIndex
 90
      256
102
RTVSPost2010Prop51ColorRGB
 90
-16777216
102
RTVSPost2010PropOp51
 70
     0
102
RTVSPost2010Prop52
140
1.0
102
RTVSPost2010PropOp52
 70
     0
102
RTVSPost2010Prop53
 90
        2
102
RTVSPost2010PropOp53
 70
     1
102
RTVSPost2010Prop54
  1
strokes_ogs.tif
102
RTVSPost2010PropOp54
 70
     1
102
RTVSPost2010Prop55
280
     0
102
RTVSPost2010PropOp55
 70
     1
102
RTVSPost2010Prop56
140
1.0
102
RTVSPost2010PropOp56
 70
     1
102
RTVSPost2010Prop57
140
1.0
102
RTVSPost2010PropOp57
 70
     1
102
RTVSPropertyOp0
 70
     1
102
RTVSPropertyOp1
 70
     1
102
RTVSPropertyOp2
 70
     1
102
RTVSPropertyOp3
 70
     1
102
RTVSPropertyOp4
 70
     1
102
RTVSPropertyOp5
 70
     1
102
RTVSPropertyOp6
 70
     1
102
RTVSPropertyOp7
 70
     1
102
RTVSPropertyOp8
 70
     1
102
RTVSPropertyOp9
 70
     1
102
RTVSPropertyOp10
 70
     1
102
RTVSPropertyOp11
 70
     1
102
RTVSPropertyOp12
 70
     1
102
RTVSPropertyOp13
 70
     1
102
RTVSPropertyOp14
 70
     1
102
RTVSPropertyOp15
 70
     1
102
RTVSPropertyOp16
 70
     1
102
RTVSPropertyOp17
 70
     1
102
RTVSPropertyOp18
 70
     1
102
RTVSPropertyOp19
 70
     1
102
RTVSPropertyOp20
 70
     1
102
RTVSPropertyOp21
 70
     1
102
RTVSPropertyOp22
 70
     1
102
RTVSPropertyOp23
 70
     1
102
RTVSPropertyOp24
 70
     1
102
RTVSPropertyOp25
 70
     1
102
RTVSPropertyOp26
 70
     1
102
RTVSPropertyOp27
 70
     1
102
RTVSPropertyOp28
 70
     1
102
RTVSPropertyOp29
 70
     1
102
RTVSPropertyOp30
 70
     1
102
RTVSPropertyOp31
 70
     1
102
RTVSPropertyOp32
 70
     1
102
RTVSPropertyOp33
 70
     1
102
RTVSPropertyOp34
 70
     1
102
RTVSPropertyOp35
 70
     1
102
RTVSPropertyOp36
 70
     1
102
RTVSPropertyOp37
 70
     1
102
RTVSPropertyOp38
 70
     1
102
RTVSPropertyOp39
 70
     1
102
RTVSPropertyOp40
 70
     1
102
RTVSPropertyOp41
 70
     1
102
RTVSPropertyOp42
 70
     1
102
RTVSPropertyOp43
 70
     1
102
RTVSPropertyOp44
 70
     1
102
RTVSPropertyOp45
 70
     1
102
RTVSPropertyOp46
 70
     1
102
RTVSPropertyOp47
 70
     1
102
RTVSPropertyOp48
 70
     1
102
RTVSPropertyOp49
 70
     1
102
RTVSPropertyOp50
 70
     1
102
RTVSPropertyOp51
 70
     0
102
RTVSPropertyOp52
 70
     0
102
RTVSPropertyOp53
 70
     1
102
RTVSPropertyOp54
 70
     1
102
RTVSPropertyOp55
 70
     1
102
RTVSPropertyOp56
 70
     1
102
RTVSPropertyOp57
 70
     1
102
RTVSPropertyOp58
 70
     1
102
RTVSPropertyOp59
 70
     1
102
RTVSPropertyOp60
 70
     1
102
RTVSPropertyOp61
 70
     1
102
RTVSPropertyOp62
 70
     1
  0
XRECORD
  5
9B4E
102
{ACAD_REACTORS
330
9B4D
102
}
330
9B4D
100
AcDbXrecord
280
     1
102
RTVSPost2010Prop28
280
     0
102
RTVSPost2010PropOp28
 70
     1
102
RTVSPost2010Prop29
280
     1
102
RTVSPost2010PropOp29
 70
     1
102
RTVSPost2010Prop30
280
     1
102
RTVSPost2010PropOp30
 70
     1
102
RTVSPost2010Prop31
280
     0
102
RTVSPost2010PropOp31
 70
     1
102
RTVSPost2010Prop32
280
     0
102
RTVSPost2010PropOp32
 70
     1
102
RTVSPost2010Prop33
280
     0
102
RTVSPost2010PropOp33
 70
     1
102
RTVSPost2010Prop34
280
     0
102
RTVSPost2010PropOp34
 70
     1
102
RTVSPost2010Prop35
280
     0
102
RTVSPost2010PropOp35
 70
     1
102
RTVSPost2010Prop36
280
     0
102
RTVSPost2010PropOp36
 70
     1
102
RTVSPost2010Prop37
 90
       50
102
RTVSPost2010PropOp37
 70
     1
102
RTVSPost2010Prop38
140
0.0
102
RTVSPost2010PropOp38
 70
     1
102
RTVSPost2010Prop39
140
1.0
102
RTVSPost2010PropOp39
 70
     1
102
RTVSPost2010Prop40
 90
        0
102
RTVSPost2010PropOp40
 70
     1
102
RTVSPost2010Prop41ColorIndex
 90
       18
102
RTVSPost2010Prop41ColorRGB
 90
        0
102
RTVSPost2010PropOp41
 70
     1
102
RTVSPost2010Prop42
 90
       50
102
RTVSPost2010PropOp42
 70
     1
102
RTVSPost2010Prop43
 90
        3
102
RTVSPost2010PropOp43
 70
     1
102
RTVSPost2010Prop44ColorIndex
 90
        5
102
RTVSPost2010Prop44ColorRGB
 90
      255
102
RTVSPost2010PropOp44
 70
     1
102
RTVSPost2010Prop45
280
     0
102
RTVSPost2010PropOp45
 70
     1
102
RTVSPost2010Prop46
 90
       50
102
RTVSPost2010PropOp46
 70
     1
102
RTVSPost2010Prop47
 90
       50
102
RTVSPost2010PropOp47
 70
     1
102
RTVSPost2010Prop48
 90
       50
102
RTVSPost2010PropOp48
 70
     1
102
RTVSPost2010Prop49
280
     0
102
RTVSPost2010PropOp49
 70
     1
102
RTVSPost2010Prop50
 90
       50
102
RTVSPost2010PropOp50
 70
     1
102
RTVSPost2010Prop51ColorIndex
 90
      256
102
RTVSPost2010Prop51ColorRGB
 90
-16777216
102
RTVSPost2010PropOp51
 70
     0
102
RTVSPost2010Prop52
140
1.0
102
RTVSPost2010PropOp52
 70
     0
102
RTVSPost2010Prop53
 90
        2
102
RTVSPost2010PropOp53
 70
     1
102
RTVSPost2010Prop54
  1
strokes_ogs.tif
102
RTVSPost2010PropOp54
 70
     1
102
RTVSPost2010Prop55
280
     0
102
RTVSPost2010PropOp55
 70
     1
102
RTVSPost2010Prop56
140
1.0
102
RTVSPost2010PropOp56
 70
     1
102
RTVSPost2010Prop57
140
1.0
102
RTVSPost2010PropOp57
 70
     1
102
RTVSPropertyOp0
 70
     1
102
RTVSPropertyOp1
 70
     1
102
RTVSPropertyOp2
 70
     1
102
RTVSPropertyOp3
 70
     1
102
RTVSPropertyOp4
 70
     1
102
RTVSPropertyOp5
 70
     1
102
RTVSPropertyOp6
 70
     1
102
RTVSPropertyOp7
 70
     1
102
RTVSPropertyOp8
 70
     1
102
RTVSPropertyOp9
 70
     1
102
RTVSPropertyOp10
 70
     1
102
RTVSPropertyOp11
 70
     1
102
RTVSPropertyOp12
 70
     1
102
RTVSPropertyOp13
 70
     1
102
RTVSPropertyOp14
 70
     1
102
RTVSPropertyOp15
 70
     1
102
RTVSPropertyOp16
 70
     1
102
RTVSPropertyOp17
 70
     1
102
RTVSPropertyOp18
 70
     1
102
RTVSPropertyOp19
 70
     1
102
RTVSPropertyOp20
 70
     1
102
RTVSPropertyOp21
 70
     1
102
RTVSPropertyOp22
 70
     1
102
RTVSPropertyOp23
 70
     1
102
RTVSPropertyOp24
 70
     1
102
RTVSPropertyOp25
 70
     1
102
RTVSPropertyOp26
 70
     1
102
RTVSPropertyOp27
 70
     1
102
RTVSPropertyOp28
 70
     1
102
RTVSPropertyOp29
 70
     1
102
RTVSPropertyOp30
 70
     1
102
RTVSPropertyOp31
 70
     1
102
RTVSPropertyOp32
 70
     1
102
RTVSPropertyOp33
 70
     1
102
RTVSPropertyOp34
 70
     1
102
RTVSPropertyOp35
 70
     1
102
RTVSPropertyOp36
 70
     1
102
RTVSPropertyOp37
 70
     1
102
RTVSPropertyOp38
 70
     1
102
RTVSPropertyOp39
 70
     1
102
RTVSPropertyOp40
 70
     1
102
RTVSPropertyOp41
 70
     1
102
RTVSPropertyOp42
 70
     1
102
RTVSPropertyOp43
 70
     1
102
RTVSPropertyOp44
 70
     1
102
RTVSPropertyOp45
 70
     1
102
RTVSPropertyOp46
 70
     1
102
RTVSPropertyOp47
 70
     1
102
RTVSPropertyOp48
 70
     1
102
RTVSPropertyOp49
 70
     1
102
RTVSPropertyOp50
 70
     1
102
RTVSPropertyOp51
 70
     0
102
RTVSPropertyOp52
 70
     0
102
RTVSPropertyOp53
 70
     1
102
RTVSPropertyOp54
 70
     1
102
RTVSPropertyOp55
 70
     1
102
RTVSPropertyOp56
 70
     1
102
RTVSPropertyOp57
 70
     1
102
RTVSPropertyOp58
 70
     1
102
RTVSPropertyOp59
 70
     1
102
RTVSPropertyOp60
 70
     1
102
RTVSPropertyOp61
 70
     1
102
RTVSPropertyOp62
 70
     1
  0
XRECORD
  5
9B42
102
{ACAD_REACTORS
330
9B41
102
}
330
9B41
100
AcDbXrecord
280
     1
102
RTVSPost2010Prop28
280
     0
102
RTVSPost2010PropOp28
 70
     1
102
RTVSPost2010Prop29
280
     1
102
RTVSPost2010PropOp29
 70
     1
102
RTVSPost2010Prop30
280
     1
102
RTVSPost2010PropOp30
 70
     1
102
RTVSPost2010Prop31
280
     0
102
RTVSPost2010PropOp31
 70
     1
102
RTVSPost2010Prop32
280
     0
102
RTVSPost2010PropOp32
 70
     1
102
RTVSPost2010Prop33
280
     0
102
RTVSPost2010PropOp33
 70
     1
102
RTVSPost2010Prop34
280
     0
102
RTVSPost2010PropOp34
 70
     1
102
RTVSPost2010Prop35
280
     0
102
RTVSPost2010PropOp35
 70
     1
102
RTVSPost2010Prop36
280
     0
102
RTVSPost2010PropOp36
 70
     1
102
RTVSPost2010Prop37
 90
       50
102
RTVSPost2010PropOp37
 70
     1
102
RTVSPost2010Prop38
140
0.0
102
RTVSPost2010PropOp38
 70
     1
102
RTVSPost2010Prop39
140
1.0
102
RTVSPost2010PropOp39
 70
     1
102
RTVSPost2010Prop40
 90
        0
102
RTVSPost2010PropOp40
 70
     1
102
RTVSPost2010Prop41ColorIndex
 90
       18
102
RTVSPost2010Prop41ColorRGB
 90
        0
102
RTVSPost2010PropOp41
 70
     1
102
RTVSPost2010Prop42
 90
       50
102
RTVSPost2010PropOp42
 70
     1
102
RTVSPost2010Prop43
 90
        3
102
RTVSPost2010PropOp43
 70
     1
102
RTVSPost2010Prop44ColorIndex
 90
        5
102
RTVSPost2010Prop44ColorRGB
 90
      255
102
RTVSPost2010PropOp44
 70
     1
102
RTVSPost2010Prop45
280
     0
102
RTVSPost2010PropOp45
 70
     1
102
RTVSPost2010Prop46
 90
       50
102
RTVSPost2010PropOp46
 70
     1
102
RTVSPost2010Prop47
 90
       50
102
RTVSPost2010PropOp47
 70
     1
102
RTVSPost2010Prop48
 90
       50
102
RTVSPost2010PropOp48
 70
     1
102
RTVSPost2010Prop49
280
     0
102
RTVSPost2010PropOp49
 70
     1
102
RTVSPost2010Prop50
 90
       50
102
RTVSPost2010PropOp50
 70
     1
102
RTVSPost2010Prop51ColorIndex
 90
      256
102
RTVSPost2010Prop51ColorRGB
 90
-16777216
102
RTVSPost2010PropOp51
 70
     0
102
RTVSPost2010Prop52
140
1.0
102
RTVSPost2010PropOp52
 70
     0
102
RTVSPost2010Prop53
 90
        2
102
RTVSPost2010PropOp53
 70
     1
102
RTVSPost2010Prop54
  1
strokes_ogs.tif
102
RTVSPost2010PropOp54
 70
     1
102
RTVSPost2010Prop55
280
     0
102
RTVSPost2010PropOp55
 70
     1
102
RTVSPost2010Prop56
140
1.0
102
RTVSPost2010PropOp56
 70
     1
102
RTVSPost2010Prop57
140
1.0
102
RTVSPost2010PropOp57
 70
     1
102
RTVSPropertyOp0
 70
     1
102
RTVSPropertyOp1
 70
     1
102
RTVSPropertyOp2
 70
     1
102
RTVSPropertyOp3
 70
     1
102
RTVSPropertyOp4
 70
     1
102
RTVSPropertyOp5
 70
     1
102
RTVSPropertyOp6
 70
     1
102
RTVSPropertyOp7
 70
     1
102
RTVSPropertyOp8
 70
     1
102
RTVSPropertyOp9
 70
     1
102
RTVSPropertyOp10
 70
     1
102
RTVSPropertyOp11
 70
     1
102
RTVSPropertyOp12
 70
     1
102
RTVSPropertyOp13
 70
     1
102
RTVSPropertyOp14
 70
     1
102
RTVSPropertyOp15
 70
     1
102
RTVSPropertyOp16
 70
     1
102
RTVSPropertyOp17
 70
     1
102
RTVSPropertyOp18
 70
     1
102
RTVSPropertyOp19
 70
     1
102
RTVSPropertyOp20
 70
     1
102
RTVSPropertyOp21
 70
     1
102
RTVSPropertyOp22
 70
     1
102
RTVSPropertyOp23
 70
     1
102
RTVSPropertyOp24
 70
     1
102
RTVSPropertyOp25
 70
     1
102
RTVSPropertyOp26
 70
     1
102
RTVSPropertyOp27
 70
     1
102
RTVSPropertyOp28
 70
     1
102
RTVSPropertyOp29
 70
     1
102
RTVSPropertyOp30
 70
     1
102
RTVSPropertyOp31
 70
     1
102
RTVSPropertyOp32
 70
     1
102
RTVSPropertyOp33
 70
     1
102
RTVSPropertyOp34
 70
     1
102
RTVSPropertyOp35
 70
     1
102
RTVSPropertyOp36
 70
     1
102
RTVSPropertyOp37
 70
     1
102
RTVSPropertyOp38
 70
     1
102
RTVSPropertyOp39
 70
     1
102
RTVSPropertyOp40
 70
     1
102
RTVSPropertyOp41
 70
     1
102
RTVSPropertyOp42
 70
     1
102
RTVSPropertyOp43
 70
     1
102
RTVSPropertyOp44
 70
     1
102
RTVSPropertyOp45
 70
     1
102
RTVSPropertyOp46
 70
     1
102
RTVSPropertyOp47
 70
     1
102
RTVSPropertyOp48
 70
     1
102
RTVSPropertyOp49
 70
     1
102
RTVSPropertyOp50
 70
     1
102
RTVSPropertyOp51
 70
     0
102
RTVSPropertyOp52
 70
     0
102
RTVSPropertyOp53
 70
     1
102
RTVSPropertyOp54
 70
     1
102
RTVSPropertyOp55
 70
     1
102
RTVSPropertyOp56
 70
     1
102
RTVSPropertyOp57
 70
     1
102
RTVSPropertyOp58
 70
     1
102
RTVSPropertyOp59
 70
     1
102
RTVSPropertyOp60
 70
     1
102
RTVSPropertyOp61
 70
     1
102
RTVSPropertyOp62
 70
     1
  0
XRECORD
  5
9B5A
102
{ACAD_REACTORS
330
9B59
102
}
330
9B59
100
AcDbXrecord
280
     1
102
RTVSPost2010Prop28
280
     0
102
RTVSPost2010PropOp28
 70
     1
102
RTVSPost2010Prop29
280
     1
102
RTVSPost2010PropOp29
 70
     1
102
RTVSPost2010Prop30
280
     1
102
RTVSPost2010PropOp30
 70
     1
102
RTVSPost2010Prop31
280
     0
102
RTVSPost2010PropOp31
 70
     1
102
RTVSPost2010Prop32
280
     0
102
RTVSPost2010PropOp32
 70
     1
102
RTVSPost2010Prop33
280
     0
102
RTVSPost2010PropOp33
 70
     1
102
RTVSPost2010Prop34
280
     0
102
RTVSPost2010PropOp34
 70
     1
102
RTVSPost2010Prop35
280
     0
102
RTVSPost2010PropOp35
 70
     1
102
RTVSPost2010Prop36
280
     0
102
RTVSPost2010PropOp36
 70
     1
102
RTVSPost2010Prop37
 90
       50
102
RTVSPost2010PropOp37
 70
     1
102
RTVSPost2010Prop38
140
0.0
102
RTVSPost2010PropOp38
 70
     1
102
RTVSPost2010Prop39
140
1.0
102
RTVSPost2010PropOp39
 70
     1
102
RTVSPost2010Prop40
 90
        0
102
RTVSPost2010PropOp40
 70
     1
102
RTVSPost2010Prop41ColorIndex
 90
       18
102
RTVSPost2010Prop41ColorRGB
 90
        0
102
RTVSPost2010PropOp41
 70
     1
102
RTVSPost2010Prop42
 90
       50
102
RTVSPost2010PropOp42
 70
     1
102
RTVSPost2010Prop43
 90
        3
102
RTVSPost2010PropOp43
 70
     1
102
RTVSPost2010Prop44ColorIndex
 90
        5
102
RTVSPost2010Prop44ColorRGB
 90
      255
102
RTVSPost2010PropOp44
 70
     1
102
RTVSPost2010Prop45
280
     0
102
RTVSPost2010PropOp45
 70
     1
102
RTVSPost2010Prop46
 90
       50
102
RTVSPost2010PropOp46
 70
     1
102
RTVSPost2010Prop47
 90
       50
102
RTVSPost2010PropOp47
 70
     1
102
RTVSPost2010Prop48
 90
       50
102
RTVSPost2010PropOp48
 70
     1
102
RTVSPost2010Prop49
280
     0
102
RTVSPost2010PropOp49
 70
     1
102
RTVSPost2010Prop50
 90
       50
102
RTVSPost2010PropOp50
 70
     1
102
RTVSPost2010Prop51ColorIndex
 90
      256
102
RTVSPost2010Prop51ColorRGB
 90
-16777216
102
RTVSPost2010PropOp51
 70
     0
102
RTVSPost2010Prop52
140
1.0
102
RTVSPost2010PropOp52
 70
     0
102
RTVSPost2010Prop53
 90
        2
102
RTVSPost2010PropOp53
 70
     1
102
RTVSPost2010Prop54
  1
strokes_ogs.tif
102
RTVSPost2010PropOp54
 70
     1
102
RTVSPost2010Prop55
280
     0
102
RTVSPost2010PropOp55
 70
     1
102
RTVSPost2010Prop56
140
1.0
102
RTVSPost2010PropOp56
 70
     1
102
RTVSPost2010Prop57
140
1.0
102
RTVSPost2010PropOp57
 70
     1
102
RTVSPropertyOp0
 70
     1
102
RTVSPropertyOp1
 70
     1
102
RTVSPropertyOp2
 70
     1
102
RTVSPropertyOp3
 70
     1
102
RTVSPropertyOp4
 70
     1
102
RTVSPropertyOp5
 70
     1
102
RTVSPropertyOp6
 70
     1
102
RTVSPropertyOp7
 70
     1
102
RTVSPropertyOp8
 70
     1
102
RTVSPropertyOp9
 70
     1
102
RTVSPropertyOp10
 70
     1
102
RTVSPropertyOp11
 70
     1
102
RTVSPropertyOp12
 70
     1
102
RTVSPropertyOp13
 70
     1
102
RTVSPropertyOp14
 70
     1
102
RTVSPropertyOp15
 70
     1
102
RTVSPropertyOp16
 70
     1
102
RTVSPropertyOp17
 70
     1
102
RTVSPropertyOp18
 70
     1
102
RTVSPropertyOp19
 70
     1
102
RTVSPropertyOp20
 70
     1
102
RTVSPropertyOp21
 70
     1
102
RTVSPropertyOp22
 70
     1
102
RTVSPropertyOp23
 70
     1
102
RTVSPropertyOp24
 70
     1
102
RTVSPropertyOp25
 70
     1
102
RTVSPropertyOp26
 70
     1
102
RTVSPropertyOp27
 70
     1
102
RTVSPropertyOp28
 70
     1
102
RTVSPropertyOp29
 70
     1
102
RTVSPropertyOp30
 70
     1
102
RTVSPropertyOp31
 70
     1
102
RTVSPropertyOp32
 70
     1
102
RTVSPropertyOp33
 70
     1
102
RTVSPropertyOp34
 70
     1
102
RTVSPropertyOp35
 70
     1
102
RTVSPropertyOp36
 70
     1
102
RTVSPropertyOp37
 70
     1
102
RTVSPropertyOp38
 70
     1
102
RTVSPropertyOp39
 70
     1
102
RTVSPropertyOp40
 70
     1
102
RTVSPropertyOp41
 70
     1
102
RTVSPropertyOp42
 70
     1
102
RTVSPropertyOp43
 70
     1
102
RTVSPropertyOp44
 70
     1
102
RTVSPropertyOp45
 70
     1
102
RTVSPropertyOp46
 70
     1
102
RTVSPropertyOp47
 70
     1
102
RTVSPropertyOp48
 70
     1
102
RTVSPropertyOp49
 70
     1
102
RTVSPropertyOp50
 70
     1
102
RTVSPropertyOp51
 70
     0
102
RTVSPropertyOp52
 70
     0
102
RTVSPropertyOp53
 70
     1
102
RTVSPropertyOp54
 70
     1
102
RTVSPropertyOp55
 70
     1
102
RTVSPropertyOp56
 70
     1
102
RTVSPropertyOp57
 70
     1
102
RTVSPropertyOp58
 70
     1
102
RTVSPropertyOp59
 70
     1
102
RTVSPropertyOp60
 70
     1
102
RTVSPropertyOp61
 70
     1
102
RTVSPropertyOp62
 70
     1
  0
ENDSEC
  0
EOF
