  0
SECTION
  2
HEADER
  9
$ACADVER
  1
AC1015
  9
$ACADMAINTVER
 70
    20
  9
$DWGCODEPAGE
  3
ANSI_932
  9
$INSBASE
 10
0.0
 20
0.0
 30
0.0
  9
$EXTMIN
 10
10.0
 20
9.999999999999998
 30
0.0
  9
$EXTMAX
 10
434.421414
 20
275.7720029999999
 30
0.0
  9
$LIMMIN
 10
0.0
 20
0.0
  9
$LIMMAX
 10
495.0
 20
341.25
  9
$ORTHOMODE
 70
     1
  9
$REGENMODE
 70
     1
  9
$FILLMODE
 70
     1
  9
$QTEXTMODE
 70
     0
  9
$MIRRTEXT
 70
     1
  9
$LTSCALE
 40
20.0
  9
$ATTMODE
 70
     1
  9
$TEXTSIZE
 40
5.0
  9
$TRACEWID
 40
1.0
  9
$TEXTSTYLE
  7
STANDARD
  9
$CLAYER
  8
0
  9
$CELTYPE
  6
BYLAYER
  9
$CECOLOR
 62
   256
  9
$CELTSCALE
 40
1.0
  9
$DISPSILH
 70
     0
  9
$DIMSCALE
 40
1.0
  9
$DIMASZ
 40
3.0
  9
$DIMEXO
 40
1.0
  9
$DIMDLI
 40
10.0
  9
$DIMRND
 40
0.0
  9
$DIMDLE
 40
0.0
  9
$DIMEXE
 40
1.0
  9
$DIMTP
 40
0.0
  9
$DIMTM
 40
0.0
  9
$DIMTXT
 40
3.2
  9
$DIMCEN
 40
0.0
  9
$DIMTSZ
 40
0.0
  9
$DIMTOL
 70
     0
  9
$DIMLIM
 70
     0
  9
$DIMTIH
 70
     0
  9
$DIMTOH
 70
     0
  9
$DIMSE1
 70
     0
  9
$DIMSE2
 70
     0
  9
$DIMTAD
 70
     3
  9
$DIMZIN
 70
     8
  9
$DIMBLK
  1

  9
$DIMASO
 70
     1
  9
$DIMSHO
 70
     1
  9
$DIMPOST
  1

  9
$DIMAPOST
  1

  9
$DIMALT
 70
     0
  9
$DIMALTD
 70
     2
  9
$DIMALTF
 40
25.4
  9
$DIMLFAC
 40
1.0
  9
$DIMTOFL
 70
     1
  9
$DIMTVP
 40
0.0
  9
$DIMTIX
 70
     0
  9
$DIMSOXD
 70
     0
  9
$DIMSAH
 70
     1
  9
$DIMBLK1
  1

  9
$DIMBLK2
  1

  9
$DIMSTYLE
  2
STANDARD
  9
$DIMCLRD
 70
     0
  9
$DIMCLRE
 70
     0
  9
$DIMCLRT
 70
     0
  9
$DIMTFAC
 40
1.0
  9
$DIMGAP
 40
1.0
  9
$DIMJUST
 70
     0
  9
$DIMSD1
 70
     0
  9
$DIMSD2
 70
     0
  9
$DIMTOLJ
 70
     1
  9
$DIMTZIN
 70
     0
  9
$DIMALTZ
 70
     0
  9
$DIMALTTZ
 70
     0
  9
$DIMUPT
 70
     0
  9
$DIMDEC
 70
     4
  9
$DIMTDEC
 70
     4
  9
$DIMALTU
 70
     2
  9
$DIMALTTD
 70
     2
  9
$DIMTXSTY
  7
STANDARD
  9
$DIMAUNIT
 70
     0
  9
$DIMADEC
 70
     0
  9
$DIMALTRND
 40
0.0
  9
$DIMAZIN
 70
     0
  9
$DIMDSEP
 70
    46
  9
$DIMATFIT
 70
     3
  9
$DIMFRAC
 70
     0
  9
$DIMLDRBLK
  1

  9
$DIMLUNIT
 70
     2
  9
$DIMLWD
 70
    -2
  9
$DIMLWE
 70
    -2
  9
$DIMTMOVE
 70
     0
  9
$LUNITS
 70
     2
  9
$LUPREC
 70
     4
  9
$SKETCHINC
 40
1.0
  9
$FILLETRAD
 40
2.5
  9
$AUNITS
 70
     0
  9
$AUPREC
 70
     2
  9
$MENU
  1
.
  9
$ELEVATION
 40
0.0
  9
$PELEVATION
 40
0.0
  9
$THICKNESS
 40
0.0
  9
$LIMCHECK
 70
     0
  9
$CHAMFERA
 40
10.0
  9
$CHAMFERB
 40
10.0
  9
$CHAMFERC
 40
0.0
  9
$CHAMFERD
 40
0.0
  9
$SKPOLY
 70
     0
  9
$TDCREATE
 40
2450945.563564699
  9
$TDUCREATE
 40
2450945.188564699
  9
$TDUPDATE
 40
2457192.598971991
  9
$TDUUPDATE
 40
2457192.223971991
  9
$TDINDWG
 40
0.0000146991
  9
$TDUSRTIMER
 40
0.0000143866
  9
$USRTIMER
 70
     1
  9
$ANGBASE
 50
0.0
  9
$ANGDIR
 70
     0
  9
$PDMODE
 70
     0
  9
$PDSIZE
 40
0.0
  9
$PLINEWID
 40
0.0
  9
$SPLFRAME
 70
     0
  9
$SPLINETYPE
 70
     6
  9
$SPLINESEGS
 70
     8
  9
$HANDSEED
  5
9BA1
  9
$SURFTAB1
 70
     6
  9
$SURFTAB2
 70
     6
  9
$SURFTYPE
 70
     6
  9
$SURFU
 70
     6
  9
$SURFV
 70
     6
  9
$UCSBASE
  2

  9
$UCSNAME
  2

  9
$UCSORG
 10
0.0
 20
0.0
 30
0.0
  9
$UCSXDIR
 10
1.0
 20
0.0
 30
0.0
  9
$UCSYDIR
 10
0.0
 20
1.0
 30
0.0
  9
$UCSORTHOREF
  2

  9
$UCSORTHOVIEW
 70
     0
  9
$UCSORGTOP
 10
0.0
 20
0.0
 30
0.0
  9
$UCSORGBOTTOM
 10
0.0
 20
0.0
 30
0.0
  9
$UCSORGLEFT
 10
0.0
 20
0.0
 30
0.0
  9
$UCSORGRIGHT
 10
0.0
 20
0.0
 30
0.0
  9
$UCSORGFRONT
 10
0.0
 20
0.0
 30
0.0
  9
$UCSORGBACK
 10
0.0
 20
0.0
 30
0.0
  9
$PUCSBASE
  2

  9
$PUCSNAME
  2

  9
$PUCSORG
 10
0.0
 20
0.0
 30
0.0
  9
$PUCSXDIR
 10
1.0
 20
0.0
 30
0.0
  9
$PUCSYDIR
 10
0.0
 20
1.0
 30
0.0
  9
$PUCSORTHOREF
  2

  9
$PUCSORTHOVIEW
 70
     0
  9
$PUCSORGTOP
 10
0.0
 20
0.0
 30
0.0
  9
$PUCSORGBOTTOM
 10
0.0
 20
0.0
 30
0.0
  9
$PUCSORGLEFT
 10
0.0
 20
0.0
 30
0.0
  9
$PUCSORGRIGHT
 10
0.0
 20
0.0
 30
0.0
  9
$PUCSORGFRONT
 10
0.0
 20
0.0
 30
0.0
  9
$PUCSORGBACK
 10
0.0
 20
0.0
 30
0.0
  9
$USERI1
 70
     0
  9
$USERI2
 70
     0
  9
$USERI3
 70
     0
  9
$USERI4
 70
     0
  9
$USERI5
 70
     0
  9
$USERR1
 40
0.0
  9
$USERR2
 40
0.0
  9
$USERR3
 40
0.0
  9
$USERR4
 40
0.0
  9
$USERR5
 40
0.0
  9
$WORLDVIEW
 70
     1
  9
$SHADEDGE
 70
     3
  9
$SHADEDIF
 70
    70
  9
$TILEMODE
 70
     1
  9
$MAXACTVP
 70
    16
  9
$PINSBASE
 10
0.0
 20
0.0
 30
0.0
  9
$PLIMCHECK
 70
     0
  9
$PEXTMIN
 10
1.000000000000000E+20
 20
1.000000000000000E+20
 30
1.000000000000000E+20
  9
$PEXTMAX
 10
-1.000000000000000E+20
 20
-1.000000000000000E+20
 30
-1.000000000000000E+20
  9
$PLIMMIN
 10
0.0
 20
0.0
  9
$PLIMMAX
 10
420.0
 20
297.0
  9
$UNITMODE
 70
     0
  9
$VISRETAIN
 70
     0
  9
$PLINEGEN
 70
     0
  9
$PSLTSCALE
 70
     0
  9
$TREEDEPTH
 70
  3020
  9
$CMLSTYLE
  2
STANDARD
  9
$CMLJUST
 70
     0
  9
$CMLSCALE
 40
1.0
  9
$PROXYGRAPHICS
 70
     1
  9
$MEASUREMENT
 70
     0
  9
$CELWEIGHT
370
    -1
  9
$ENDCAPS
280
     0
  9
$JOINSTYLE
280
     0
  9
$LWDISPLAY
290
     0
  9
$INSUNITS
 70
     0
  9
$HYPERLINKBASE
  1

  9
$STYLESHEET
  1

  9
$XEDIT
290
     1
  9
$CEPSNTYPE
380
     0
  9
$PSTYLEMODE
290
     1
  9
$FINGERPRINTGUID
  2
{29AD9838-740B-4F79-A5C9-DBD0B88ECF7E}
  9
$VERSIONGUID
  2
{619E6CC2-30CB-4254-9A5C-261C156904F2}
  9
$EXTNAMES
290
     1
  9
$PSVPSCALE
 40
0.0
  9
$OLESTARTUP
290
     0
  0
ENDSEC
  0
SECTION
  2
CLASSES
  0
CLASS
  1
ACDBDICTIONARYWDFLT
  2
AcDbDictionaryWithDefault
  3
ObjectDBX Classes
 90
        0
280
     0
281
     0
  0
CLASS
  1
ACDBPLACEHOLDER
  2
AcDbPlaceHolder
  3
ObjectDBX Classes
 90
        0
280
     0
281
     0
  0
CLASS
  1
LAYOUT
  2
AcDbLayout
  3
ObjectDBX Classes
 90
        0
280
     0
281
     0
  0
CLASS
  1
DICTIONARYVAR
  2
AcDbDictionaryVar
  3
ObjectDBX Classes
 90
        0
280
     0
281
     0
  0
CLASS
  1
MATERIAL
  2
AcDbMaterial
  3
ObjectDBX Classes
 90
     1153
280
     0
281
     0
  0
CLASS
  1
VISUALSTYLE
  2
AcDbVisualStyle
  3
ObjectDBX Classes
 90
     4095
280
     0
281
     0
  0
CLASS
  1
TABLESTYLE
  2
AcDbTableStyle
  3
ObjectDBX Classes
 90
     4095
280
     0
281
     0
  0
CLASS
  1
SCALE
  2
AcDbScale
  3
ObjectDBX Classes
 90
     1153
280
     0
281
     0
  0
CLASS
  1
MLEADERSTYLE
  2
AcDbMLeaderStyle
  3
ACDB_MLEADERSTYLE_CLASS
 90
     4095
280
     0
281
     0
  0
CLASS
  1
ACDBSECTIONVIEWSTYLE
  2
AcDbSectionViewStyle
  3
ObjectDBX Classes
 90
     1025
280
     0
281
     0
  0
CLASS
  1
ACDBDETAILVIEWSTYLE
  2
AcDbDetailViewStyle
  3
ObjectDBX Classes
 90
     1025
280
     0
281
     0
  0
CLASS
  1
CELLSTYLEMAP
  2
AcDbCellStyleMap
  3
ObjectDBX Classes
 90
     1152
280
     0
281
     0
  0
ENDSEC
  0
SECTION
  2
TABLES
  0
TABLE
  2
VPORT
  5
97E9
330
0
100
AcDbSymbolTable
 70
     1
  0
VPORT
  5
9AEA
330
97E9
100
AcDbSymbolTableRecord
100
AcDbViewportTableRecord
  2
*ACTIVE
 70
     0
 10
0.0
 20
0.0
 11
1.0
 21
1.0
 12
302.720345170177
 22
142.8843791954675
 13
0.0
 23
0.0
 14
10.0
 24
10.0
 15
10.0
 25
10.0
 16
0.0
 26
0.0
 36
1.0
 17
0.0
 27
0.0
 37
0.0
 40
268.767224183778
 41
1.899603698811096
 42
50.0
 43
0.0
 44
0.0
 50
0.0
 51
0.0
 71
     0
 72
   100
 73
     1
 74
     0
 75
     0
 76
     0
 77
     0
 78
     0
281
     0
 65
     1
110
0.0
120
0.0
130
0.0
111
1.0
121
0.0
131
0.0
112
0.0
122
1.0
132
0.0
 79
     0
146
0.0
1001
ACAD_NAV_VCDISPLAY
1070
     3
  0
ENDTAB
  0
TABLE
  2
LTYPE
  5
97E6
330
0
100
AcDbSymbolTable
 70
     4
  0
LTYPE
  5
97F4
330
97E6
100
AcDbSymbolTableRecord
100
AcDbLinetypeTableRecord
  2
BYBLOCK
 70
     0
  3

 72
    65
 73
     0
 40
0.0
  0
LTYPE
  5
97F5
330
97E6
100
AcDbSymbolTableRecord
100
AcDbLinetypeTableRecord
  2
BYLAYER
 70
     0
  3

 72
    65
 73
     0
 40
0.0
  0
LTYPE
  5
97F6
330
97E6
100
AcDbSymbolTableRecord
100
AcDbLinetypeTableRecord
  2
CONTINUOUS
 70
     0
  3
Solid line
 72
    65
 73
     0
 40
0.0
  0
LTYPE
  5
9804
330
97E6
100
AcDbSymbolTableRecord
100
AcDbLinetypeTableRecord
  2
DASHED
 70
     0
  3
__ __ __ __ __ __ __ __ __ __ __ __ __ __ __ __
 72
    65
 73
     2
 40
0.75
 49
0.5
 74
     0
 49
-0.25
 74
     0
  0
LTYPE
  5
9805
330
97E6
100
AcDbSymbolTableRecord
100
AcDbLinetypeTableRecord
  2
CENTER
 70
     0
  3
____ _ ____ _ ____ _ ____ _ ____ _ ____ _ ____ 
 72
    65
 73
     4
 40
2.0
 49
1.25
 74
     0
 49
-0.25
 74
     0
 49
0.25
 74
     0
 49
-0.25
 74
     0
  0
LTYPE
  5
9806
330
97E6
100
AcDbSymbolTableRecord
100
AcDbLinetypeTableRecord
  2
PHANTOM
 70
     0
  3
______  __  __  ______  __  __  ______  __  __ 
 72
    65
 73
     6
 40
2.5
 49
1.25
 74
     0
 49
-0.25
 74
     0
 49
0.25
 74
     0
 49
-0.25
 74
     0
 49
0.25
 74
     0
 49
-0.25
 74
     0
  0
ENDTAB
  0
TABLE
  2
LAYER
  5
97E3
330
0
100
AcDbSymbolTable
 70
     8
  0
LAYER
  5
97F1
102
{ACAD_XDICTIONARY
360
9B45
102
}
330
97E3
100
AcDbSymbolTableRecord
100
AcDbLayerTableRecord
  2
0
 70
     0
 62
     7
  6
CONTINUOUS
370
    -3
390
9AF3
  0
LAYER
  5
9807
102
{ACAD_XDICTIONARY
360
9B47
102
}
330
97E3
100
AcDbSymbolTableRecord
100
AcDbLayerTableRecord
  2
4
 70
     0
 62
     1
  6
CENTER
370
    -3
390
9AF3
  0
LAYER
  5
9808
102
{ACAD_XDICTIONARY
360
9B49
102
}
330
97E3
100
AcDbSymbolTableRecord
100
AcDbLayerTableRecord
  2
5
 70
     0
 62
     6
  6
PHANTOM
370
    -3
390
9AF3
  0
LAYER
  5
9809
102
{ACAD_XDICTIONARY
360
9B4B
102
}
330
97E3
100
AcDbSymbolTableRecord
100
AcDbLayerTableRecord
  2
1
 70
     0
 62
     7
  6
CONTINUOUS
370
    -3
390
9AF3
  0
LAYER
  5
980A
102
{ACAD_XDICTIONARY
360
9B4D
102
}
330
97E3
100
AcDbSymbolTableRecord
100
AcDbLayerTableRecord
  2
2
 70
     0
 62
     4
  6
CONTINUOUS
370
    -3
390
9AF3
  0
LAYER
  5
980B
102
{ACAD_XDICTIONARY
360
9B4F
102
}
330
97E3
100
AcDbSymbolTableRecord
100
AcDbLayerTableRecord
  2
3
 70
     0
 62
     2
  6
DASHED
370
    -3
390
9AF3
  0
LAYER
  5
980C
102
{ACAD_XDICTIONARY
360
9B51
102
}
330
97E3
100
AcDbSymbolTableRecord
100
AcDbLayerTableRecord
  2
6
 70
     0
 62
     5
  6
CONTINUOUS
370
    -3
390
9AF3
  0
LAYER
  5
980D
102
{ACAD_XDICTIONARY
360
9B53
102
}
330
97E3
100
AcDbSymbolTableRecord
100
AcDbLayerTableRecord
  2
7
 70
     0
 62
     3
  6
CONTINUOUS
370
    -3
390
9AF3
  0
ENDTAB
  0
TABLE
  2
STYLE
  5
97E4
330
0
100
AcDbSymbolTable
 70
     1
  0
STYLE
  5
97F2
330
97E4
100
AcDbSymbolTableRecord
100
AcDbTextStyleTableRecord
  2
STANDARD
 70
     0
 40
0.0
 41
1.0
 50
0.0
 71
     0
 42
5.0
  3
txt
  4

  0
ENDTAB
  0
TABLE
  2
VIEW
  5
97E7
330
0
100
AcDbSymbolTable
 70
     0
  0
ENDTAB
  0
TABLE
  2
UCS
  5
97E8
330
0
100
AcDbSymbolTable
 70
     0
  0
ENDTAB
  0
TABLE
  2
APPID
  5
97EA
330
0
100
AcDbSymbolTable
 70
     3
  0
APPID
  5
97F3
330
97EA
100
AcDbSymbolTableRecord
100
AcDbRegAppTableRecord
  2
ACAD
 70
     0
  0
APPID
  5
9B5F
330
97EA
100
AcDbSymbolTableRecord
100
AcDbRegAppTableRecord
  2
ACAD_NAV_VCDISPLAY
 70
     0
  0
APPID
  5
9B98
330
97EA
100
AcDbSymbolTableRecord
100
AcDbRegAppTableRecord
  2
ACAD_MLEADERVER
 70
     0
  0
ENDTAB
  0
TABLE
  2
DIMSTYLE
  5
97EB
330
0
100
AcDbSymbolTable
 70
     1
100
AcDbDimStyleTable
 71
     0
  0
DIMSTYLE
105
980F
330
97EB
100
AcDbSymbolTableRecord
100
AcDbDimStyleTableRecord
  2
STANDARD
 70
     0
 41
3.0
 42
1.0
 43
10.0
 44
1.0
 73
     0
 74
     0
 77
     3
 78
     8
140
3.2
141
0.0
147
1.0
172
     1
173
     1
284
     8
285
     8
286
     8
340
97F2
  0
ENDTAB
  0
TABLE
  2
BLOCK_RECORD
  5
97E2
330
0
100
AcDbSymbolTable
 70
     0
  0
BLOCK_RECORD
  5
97FF
102
{ACAD_XDICTIONARY
360
9AED
102
}
330
97E2
100
AcDbSymbolTableRecord
100
AcDbBlockTableRecord
  2
*MODEL_SPACE
340
9B41
  0
BLOCK_RECORD
  5
97FB
102
{ACAD_XDICTIONARY
360
9AEB
102
}
330
97E2
100
AcDbSymbolTableRecord
100
AcDbBlockTableRecord
  2
*PAPER_SPACE
340
9B42
  0
ENDTAB
  0
ENDSEC
  0
SECTION
  2
BLOCKS
  0
BLOCK
  5
9800
330
97FF
100
AcDbEntity
  8
0
100
AcDbBlockBegin
  2
*MODEL_SPACE
 70
     0
 10
0.0
 20
0.0
 30
0.0
  3
*MODEL_SPACE
  1

  0
ENDBLK
  5
9801
330
97FF
100
AcDbEntity
  8
0
100
AcDbBlockEnd
  0
BLOCK
  5
97FC
330
97FB
100
AcDbEntity
 67
     1
  8
0
100
AcDbBlockBegin
  2
*PAPER_SPACE
 70
     0
 10
0.0
 20
0.0
 30
0.0
  3
*PAPER_SPACE
  1

  0
ENDBLK
  5
97FD
330
97FB
100
AcDbEntity
 67
     1
  8
0
100
AcDbBlockEnd
  0
ENDSEC
  0
SECTION
  2
ENTITIES
  0
TEXT
  5
9817
330
97FF
100
AcDbEntity
  8
7
  6
Continuous
100
AcDbText
 10
10.0
 20
18.0
 30
0.0
 40
3.0
  1
TYPE No.TL-143
100
AcDbText
  0
TEXT
  5
9818
330
97FF
100
AcDbEntity
  8
7
  6
Continuous
100
AcDbText
 10
10.0
 20
26.0
 30
0.0
 40
3.0
  1
CODE No.1487
100
AcDbText
  0
TEXT
  5
9819
330
97FF
100
AcDbEntity
  8
1
  6
Continuous
100
AcDbText
 10
10.0
 20
10.0
 30
0.0
 40
1.399999999999999
  1
LAYER
100
AcDbText
  0
TEXT
  5
981A
330
97FF
100
AcDbEntity
  8
1
  6
Continuous
100
AcDbText
 10
17.97951099999998
 20
10.04873699999998
 30
0.0
 40
1.399999999999999
  1
1
100
AcDbText
  0
TEXT
  5
981B
330
97FF
100
AcDbEntity
  8
7
  6
Continuous
100
AcDbText
 10
29.97951099999999
 20
10.04873699999998
 30
0.0
 40
1.399999999999999
  1
7
100
AcDbText
  0
TEXT
  5
981C
330
97FF
100
AcDbEntity
  8
4
  6
CENTER
100
AcDbText
 10
23.97951099999999
 20
10.04873699999998
 30
0.0
 40
1.399999999999999
  1
4
100
AcDbText
  0
TEXT
  5
981D
330
97FF
100
AcDbEntity
  8
3
  6
DASHED
100
AcDbText
 10
21.979511
 20
10.04873699999998
 30
0.0
 40
1.399999999999999
  1
3
100
AcDbText
  0
TEXT
  5
981E
330
97FF
100
AcDbEntity
  8
2
  6
Continuous
100
AcDbText
 10
19.97951099999999
 20
10.04873699999998
 30
0.0
 40
1.399999999999999
  1
2
100
AcDbText
  0
TEXT
  5
981F
330
97FF
100
AcDbEntity
  8
6
  6
Continuous
100
AcDbText
 10
27.979511
 20
10.04873699999998
 30
0.0
 40
1.399999999999999
  1
6
100
AcDbText
  0
TEXT
  5
9820
330
97FF
100
AcDbEntity
  8
5
  6
PHANTOM
100
AcDbText
 10
25.97951099999999
 20
10.04873699999998
 30
0.0
 40
1.399999999999999
  1
5
100
AcDbText
  0
LINE
  5
9821
330
97FF
100
AcDbEntity
  8
1
  6
Continuous
100
AcDbLine
 10
29.852555
 20
153.9156039999998
 30
0.0
 11
29.852555
 21
149.715607
 31
0.0
  0
LINE
  5
9822
330
97FF
100
AcDbEntity
  8
1
  6
Continuous
100
AcDbLine
 10
31.052555
 20
153.9156039999998
 30
0.0
 11
31.052555
 21
149.715607
 31
0.0
  0
LINE
  5
9823
330
97FF
100
AcDbEntity
  8
1
  6
Continuous
100
AcDbLine
 10
31.052555
 20
153.9156039999998
 30
0.0
 11
29.852555
 21
153.9156039999998
 31
0.0
  0
LINE
  5
9824
330
97FF
100
AcDbEntity
  8
1
  6
Continuous
100
AcDbLine
 10
29.40255399999999
 20
149.715607
 30
0.0
 11
29.40255399999999
 21
146.0270999999998
 31
0.0
  0
LINE
  5
9825
330
97FF
100
AcDbEntity
  8
1
  6
Continuous
100
AcDbLine
 10
31.50255599999999
 20
149.715607
 30
0.0
 11
31.50255599999999
 21
146.0270999999998
 31
0.0
  0
LINE
  5
9826
330
97FF
100
AcDbEntity
  8
1
  6
Continuous
100
AcDbLine
 10
29.852555
 20
149.715607
 30
0.0
 11
29.40255399999999
 21
149.715607
 31
0.0
  0
LINE
  5
9827
330
97FF
100
AcDbEntity
  8
1
  6
Continuous
100
AcDbLine
 10
31.50255599999999
 20
149.715607
 30
0.0
 11
31.052555
 21
149.715607
 31
0.0
  0
LINE
  5
9828
330
97FF
100
AcDbEntity
  8
1
  6
Continuous
100
AcDbLine
 10
28.78276099999999
 20
163.807907
 30
0.0
 11
30.45256399999999
 21
164.772003
 31
0.0
  0
LINE
  5
9829
330
97FF
100
AcDbEntity
  8
1
  6
Continuous
100
AcDbLine
 10
20.12239899999999
 20
158.8078769999999
 30
0.0
 11
18.452561
 21
157.843811
 31
0.0
  0
LINE
  5
982A
330
97FF
100
AcDbEntity
  8
1
  6
Continuous
100
AcDbLine
 10
32.122456
 20
138.0233
 30
0.0
 11
30.452557
 21
137.059189
 31
0.0
  0
LINE
  5
982B
330
97FF
100
AcDbEntity
  8
1
  6
Continuous
100
AcDbLine
 10
40.782768
 20
143.0233
 30
0.0
 11
42.45256099999997
 21
143.9873959999999
 31
0.0
  0
LINE
  5
982C
330
97FF
100
AcDbEntity
  8
1
  6
Continuous
100
AcDbLine
 10
32.122456
 20
163.8078919999998
 30
0.0
 11
30.452557
 21
164.772003
 31
0.0
  0
LINE
  5
982D
330
97FF
100
AcDbEntity
  8
1
  6
Continuous
100
AcDbLine
 10
40.782742
 20
158.8078919999998
 30
0.0
 11
42.452542
 21
157.843796
 31
0.0
  0
LINE
  5
982E
330
97FF
100
AcDbEntity
  8
1
  6
Continuous
100
AcDbLine
 10
28.78274600000001
 20
138.0233
 30
0.0
 11
30.452545
 21
137.059204
 31
0.0
  0
LINE
  5
982F
330
97FF
100
AcDbEntity
  8
1
  6
Continuous
100
AcDbLine
 10
20.122458
 20
143.0233
 30
0.0
 11
18.452561
 21
143.9873959999999
 31
0.0
  0
LINE
  5
9830
330
97FF
100
AcDbEntity
  8
1
  6
Continuous
100
AcDbLine
 10
42.452557
 20
145.915604
 30
0.0
 11
42.452557
 21
143.9873959999999
 31
0.0
  0
LINE
  5
9831
330
97FF
100
AcDbEntity
  8
1
  6
Continuous
100
AcDbLine
 10
42.452557
 20
157.843796
 30
0.0
 11
42.452557
 21
155.9156039999998
 31
0.0
  0
LINE
  5
9832
330
97FF
100
AcDbEntity
  8
1
  6
Continuous
100
AcDbLine
 10
18.45255299999999
 20
145.915604
 30
0.0
 11
18.45255299999999
 21
143.9873959999999
 31
0.0
  0
LINE
  5
9833
330
97FF
100
AcDbEntity
  8
1
  6
Continuous
100
AcDbLine
 10
18.45255299999999
 20
157.843796
 30
0.0
 11
18.45255299999999
 21
155.9156039999998
 31
0.0
  0
LINE
  5
9834
330
97FF
100
AcDbEntity
  8
1
  6
Continuous
100
AcDbLine
 10
57.45255699999999
 20
152.415604
 30
0.0
 11
57.45255699999999
 21
169.415604
 31
0.0
  0
LINE
  5
9835
330
97FF
100
AcDbEntity
  8
1
  6
Continuous
100
AcDbLine
 10
55.95255699999999
 20
170.915604
 30
0.0
 11
50.952557
 21
170.915604
 31
0.0
  0
LINE
  5
9836
330
97FF
100
AcDbEntity
  8
1
  6
Continuous
100
AcDbLine
 10
50.952557
 20
170.915604
 30
0.0
 11
50.952557
 21
172.415604
 31
0.0
  0
LINE
  5
9837
330
97FF
100
AcDbEntity
  8
1
  6
Continuous
100
AcDbLine
 10
41.45255699999998
 20
170.915604
 30
0.0
 11
41.45255699999998
 21
172.415604
 31
0.0
  0
LINE
  5
9838
330
97FF
100
AcDbEntity
  8
1
  6
Continuous
100
AcDbLine
 10
41.45255699999998
 20
172.415604
 30
0.0
 11
50.952557
 21
172.415604
 31
0.0
  0
LINE
  5
9839
330
97FF
100
AcDbEntity
  8
1
  6
Continuous
100
AcDbLine
 10
24.657952
 20
162.552704
 30
0.0
 11
41.45255699999998
 21
170.915604
 31
0.0
  0
LINE
  5
983A
330
97FF
100
AcDbEntity
  8
4
  6
CENTER
100
AcDbLine
 10
43.452557
 20
150.915604
 30
0.0
 11
14.84607
 21
150.915604
 31
0.0
  0
LINE
  5
983B
330
97FF
100
AcDbEntity
  8
4
  6
CENTER
100
AcDbLine
 10
30.452553
 20
167.210266
 30
0.0
 11
30.452553
 21
134.6442409999999
 31
0.0
  0
LINE
  5
983C
330
97FF
100
AcDbEntity
  8
1
  6
Continuous
100
AcDbLine
 10
55.95255699999999
 20
150.915604
 30
0.0
 11
43.452557
 21
150.915604
 31
0.0
  0
LINE
  5
983D
330
97FF
100
AcDbEntity
  8
4
  6
CENTER
100
AcDbLine
 10
54.70255699999999
 20
155.9156039999998
 30
0.0
 11
47.202557
 21
155.9156039999998
 31
0.0
  0
LINE
  5
983E
330
97FF
100
AcDbEntity
  8
4
  6
CENTER
100
AcDbLine
 10
50.952557
 20
159.665604
 30
0.0
 11
50.952557
 21
152.165604
 31
0.0
  0
LINE
  5
983F
330
97FF
100
AcDbEntity
  8
4
  6
CENTER
100
AcDbLine
 10
54.70255699999999
 20
165.415604
 30
0.0
 11
47.202557
 21
165.415604
 31
0.0
  0
LINE
  5
9840
330
97FF
100
AcDbEntity
  8
4
  6
CENTER
100
AcDbLine
 10
50.952557
 20
169.1656039999998
 30
0.0
 11
50.952557
 21
161.665604
 31
0.0
  0
LINE
  5
9841
330
97FF
100
AcDbEntity
  8
1
  6
Continuous
100
AcDbLine
 10
48.702557
 20
165.415604
 30
0.0
 11
48.702557
 21
166.714706
 31
0.0
  0
LINE
  5
9842
330
97FF
100
AcDbEntity
  8
1
  6
Continuous
100
AcDbLine
 10
53.20255699999999
 20
165.415604
 30
0.0
 11
53.20255699999999
 21
166.714706
 31
0.0
  0
LINE
  5
9843
330
97FF
100
AcDbEntity
  8
1
  6
Continuous
100
AcDbLine
 10
49.827557
 20
167.364197
 30
0.0
 11
50.952553
 21
168.013702
 31
0.0
  0
LINE
  5
9844
330
97FF
100
AcDbEntity
  8
1
  6
Continuous
100
AcDbLine
 10
49.827557
 20
167.364197
 30
0.0
 11
48.702545
 21
166.7146909999999
 31
0.0
  0
LINE
  5
9845
330
97FF
100
AcDbEntity
  8
1
  6
Continuous
100
AcDbLine
 10
52.077553
 20
163.467102
 30
0.0
 11
53.202549
 21
164.116608
 31
0.0
  0
LINE
  5
9846
330
97FF
100
AcDbEntity
  8
1
  6
Continuous
100
AcDbLine
 10
52.077553
 20
163.467102
 30
0.0
 11
50.952553
 21
162.817596
 31
0.0
  0
LINE
  5
9847
330
97FF
100
AcDbEntity
  8
1
  6
Continuous
100
AcDbLine
 10
49.827557
 20
157.8641969999999
 30
0.0
 11
50.952568
 21
158.5137019999999
 31
0.0
  0
LINE
  5
9848
330
97FF
100
AcDbEntity
  8
1
  6
Continuous
100
AcDbLine
 10
49.827557
 20
157.8641969999999
 30
0.0
 11
48.702557
 21
157.2146909999998
 31
0.0
  0
LINE
  5
9849
330
97FF
100
AcDbEntity
  8
1
  6
Continuous
100
AcDbLine
 10
52.077564
 20
153.967102
 30
0.0
 11
50.952564
 21
153.317596
 31
0.0
  0
LINE
  5
984A
330
97FF
100
AcDbEntity
  8
1
  6
Continuous
100
AcDbLine
 10
52.077564
 20
153.967102
 30
0.0
 11
53.20256099999999
 21
154.6165919999999
 31
0.0
  0
LINE
  5
984B
330
97FF
100
AcDbEntity
  8
1
  6
Continuous
100
AcDbLine
 10
52.07755699999999
 20
167.364197
 30
0.0
 11
50.952553
 21
168.013702
 31
0.0
  0
LINE
  5
984C
330
97FF
100
AcDbEntity
  8
1
  6
Continuous
100
AcDbLine
 10
52.07755699999999
 20
167.364197
 30
0.0
 11
53.202553
 21
166.714706
 31
0.0
  0
LINE
  5
984D
330
97FF
100
AcDbEntity
  8
1
  6
Continuous
100
AcDbLine
 10
49.82754899999999
 20
163.4670869999999
 30
0.0
 11
50.952549
 21
162.8175809999999
 31
0.0
  0
LINE
  5
984E
330
97FF
100
AcDbEntity
  8
1
  6
Continuous
100
AcDbLine
 10
49.82754899999999
 20
163.4670869999999
 30
0.0
 11
48.702545
 21
164.1165919999999
 31
0.0
  0
LINE
  5
984F
330
97FF
100
AcDbEntity
  8
1
  6
Continuous
100
AcDbLine
 10
52.077549
 20
157.8641969999999
 30
0.0
 11
50.952549
 21
158.513687
 31
0.0
  0
LINE
  5
9850
330
97FF
100
AcDbEntity
  8
1
  6
Continuous
100
AcDbLine
 10
52.077549
 20
157.8641969999999
 30
0.0
 11
53.202549
 21
157.2146909999998
 31
0.0
  0
LINE
  5
9851
330
97FF
100
AcDbEntity
  8
1
  6
Continuous
100
AcDbLine
 10
49.827553
 20
153.9670869999999
 30
0.0
 11
50.952549
 21
153.317596
 31
0.0
  0
LINE
  5
9852
330
97FF
100
AcDbEntity
  8
1
  6
Continuous
100
AcDbLine
 10
49.827553
 20
153.9670869999999
 30
0.0
 11
48.70254899999999
 21
154.6165919999999
 31
0.0
  0
LINE
  5
9853
330
97FF
100
AcDbEntity
  8
1
  6
Continuous
100
AcDbLine
 10
48.702557
 20
157.2147059999998
 30
0.0
 11
48.702557
 21
154.6165919999999
 31
0.0
  0
LINE
  5
9854
330
97FF
100
AcDbEntity
  8
1
  6
Continuous
100
AcDbLine
 10
48.702557
 20
165.415604
 30
0.0
 11
48.702557
 21
164.1165919999999
 31
0.0
  0
LINE
  5
9855
330
97FF
100
AcDbEntity
  8
1
  6
Continuous
100
AcDbLine
 10
53.20255699999999
 20
157.2147059999998
 30
0.0
 11
53.20255699999999
 21
154.6165919999999
 31
0.0
  0
LINE
  5
9856
330
97FF
100
AcDbEntity
  8
1
  6
Continuous
100
AcDbLine
 10
53.20255699999999
 20
165.415604
 30
0.0
 11
53.20255699999999
 21
164.1165919999999
 31
0.0
  0
LINE
  5
9857
330
97FF
100
AcDbEntity
  8
1
  6
Continuous
100
AcDbLine
 10
121.452557
 20
137.915604
 30
0.0
 11
122.452557
 21
137.915604
 31
0.0
  0
LINE
  5
9858
330
97FF
100
AcDbEntity
  8
1
  6
Continuous
100
AcDbLine
 10
122.452557
 20
163.915604
 30
0.0
 11
121.452557
 21
163.915604
 31
0.0
  0
LINE
  5
9859
330
97FF
100
AcDbEntity
  8
1
  6
Continuous
100
AcDbLine
 10
121.452557
 20
137.915604
 30
0.0
 11
117.452557
 21
139.915604
 31
0.0
  0
LINE
  5
985A
330
97FF
100
AcDbEntity
  8
1
  6
Continuous
100
AcDbLine
 10
117.452557
 20
161.915604
 30
0.0
 11
121.452557
 21
163.915604
 31
0.0
  0
LINE
  5
985B
330
97FF
100
AcDbEntity
  8
1
  6
Continuous
100
AcDbLine
 10
94.45255700000002
 20
137.059204
 30
0.0
 11
98.45255700000002
 21
137.059204
 31
0.0
  0
LINE
  5
985C
330
97FF
100
AcDbEntity
  8
1
  6
Continuous
100
AcDbLine
 10
94.45255700000002
 20
164.772003
 30
0.0
 11
98.45255700000002
 21
164.772003
 31
0.0
  0
LINE
  5
985D
330
97FF
100
AcDbEntity
  8
1
  6
Continuous
100
AcDbLine
 10
94.45255700000002
 20
157.843796
 30
0.0
 11
98.45255700000002
 21
157.843796
 31
0.0
  0
LINE
  5
985E
330
97FF
100
AcDbEntity
  8
1
  6
Continuous
100
AcDbLine
 10
94.45255700000002
 20
143.9873959999999
 30
0.0
 11
98.45255700000002
 21
143.9873959999999
 31
0.0
  0
LINE
  5
985F
330
97FF
100
AcDbEntity
  8
1
  6
Continuous
100
AcDbLine
 10
94.45255700000002
 20
137.059204
 30
0.0
 11
94.45255700000002
 21
164.772003
 31
0.0
  0
LINE
  5
9860
330
97FF
100
AcDbEntity
  8
1
  6
Continuous
100
AcDbLine
 10
98.45255700000002
 20
137.059204
 30
0.0
 11
98.45255700000002
 21
164.772003
 31
0.0
  0
LINE
  5
9861
330
97FF
100
AcDbEntity
  8
1
  6
Continuous
100
AcDbLine
 10
122.452557
 20
146.565598
 30
0.0
 11
130.452557
 21
146.565598
 31
0.0
  0
LINE
  5
9862
330
97FF
100
AcDbEntity
  8
1
  6
Continuous
100
AcDbLine
 10
122.452557
 20
155.265594
 30
0.0
 11
130.452557
 21
155.265594
 31
0.0
  0
LINE
  5
9863
330
97FF
100
AcDbEntity
  8
2
  6
Continuous
100
AcDbLine
 10
122.452557
 20
146.565598
 30
0.0
 11
130.452557
 21
155.265594
 31
0.0
  0
LINE
  5
9864
330
97FF
100
AcDbEntity
  8
2
  6
Continuous
100
AcDbLine
 10
122.452557
 20
155.265594
 30
0.0
 11
130.452557
 21
146.565598
 31
0.0
  0
LINE
  5
9865
330
97FF
100
AcDbEntity
  8
1
  6
Continuous
100
AcDbLine
 10
161.452557
 20
137.915604
 30
0.0
 11
161.452557
 21
170.915604
 31
0.0
  0
LINE
  5
9866
330
97FF
100
AcDbEntity
  8
1
  6
Continuous
100
AcDbLine
 10
162.952557
 20
137.915604
 30
0.0
 11
162.952557
 21
170.915604
 31
0.0
  0
LINE
  5
9867
330
97FF
100
AcDbEntity
  8
1
  6
Continuous
100
AcDbLine
 10
139.452557
 20
137.915604
 30
0.0
 11
139.452557
 21
170.915604
 31
0.0
  0
LINE
  5
9868
330
97FF
100
AcDbEntity
  8
1
  6
Continuous
100
AcDbLine
 10
137.952557
 20
137.915604
 30
0.0
 11
137.952557
 21
170.915604
 31
0.0
  0
LINE
  5
9869
330
97FF
100
AcDbEntity
  8
1
  6
Continuous
100
AcDbLine
 10
139.452557
 20
170.915604
 30
0.0
 11
161.452557
 21
170.915604
 31
0.0
  0
LINE
  5
986A
330
97FF
100
AcDbEntity
  8
1
  6
Continuous
100
AcDbLine
 10
139.452557
 20
172.415604
 30
0.0
 11
161.452557
 21
172.415604
 31
0.0
  0
LINE
  5
986B
330
97FF
100
AcDbEntity
  8
1
  6
Continuous
100
AcDbLine
 10
162.952557
 20
140.915604
 30
0.0
 11
182.452557
 21
140.915604
 31
0.0
  0
LINE
  5
986C
330
97FF
100
AcDbEntity
  8
1
  6
Continuous
100
AcDbLine
 10
162.952557
 20
160.915604
 30
0.0
 11
182.452557
 21
160.915604
 31
0.0
  0
LINE
  5
986D
330
97FF
100
AcDbEntity
  8
1
  6
Continuous
100
AcDbLine
 10
122.452557
 20
160.915604
 30
0.0
 11
137.952557
 21
160.915604
 31
0.0
  0
LINE
  5
986E
330
97FF
100
AcDbEntity
  8
1
  6
Continuous
100
AcDbLine
 10
122.452557
 20
140.915604
 30
0.0
 11
137.952557
 21
140.915604
 31
0.0
  0
LINE
  5
986F
330
97FF
100
AcDbEntity
  8
1
  6
Continuous
100
AcDbLine
 10
139.452557
 20
140.915604
 30
0.0
 11
161.452557
 21
140.915604
 31
0.0
  0
LINE
  5
9870
330
97FF
100
AcDbEntity
  8
1
  6
Continuous
100
AcDbLine
 10
137.952557
 20
137.915604
 30
0.0
 11
139.452557
 21
137.915604
 31
0.0
  0
LINE
  5
9871
330
97FF
100
AcDbEntity
  8
1
  6
Continuous
100
AcDbLine
 10
161.452557
 20
137.915604
 30
0.0
 11
162.952557
 21
137.915604
 31
0.0
  0
LINE
  5
9872
330
97FF
100
AcDbEntity
  8
4
  6
CENTER
100
AcDbLine
 10
90.483731
 20
150.915604
 30
0.0
 11
102.7071499999999
 21
150.915604
 31
0.0
  0
LINE
  5
9873
330
97FF
100
AcDbEntity
  8
4
  6
CENTER
100
AcDbLine
 10
112.2089499999999
 20
150.915604
 30
0.0
 11
186.879513
 21
150.915604
 31
0.0
  0
LINE
  5
9874
330
97FF
100
AcDbEntity
  8
1
  6
Continuous
100
AcDbLine
 10
161.452557
 20
170.915604
 30
0.0
 11
162.952557
 21
170.915604
 31
0.0
  0
LINE
  5
9875
330
97FF
100
AcDbEntity
  8
1
  6
Continuous
100
AcDbLine
 10
139.452557
 20
170.915604
 30
0.0
 11
137.952557
 21
170.915604
 31
0.0
  0
LINE
  5
9876
330
97FF
100
AcDbEntity
  8
1
  6
Continuous
100
AcDbLine
 10
160.452557
 20
150.915604
 30
0.0
 11
160.452557
 21
170.915604
 31
0.0
  0
LINE
  5
9877
330
97FF
100
AcDbEntity
  8
1
  6
Continuous
100
AcDbLine
 10
140.452557
 20
150.915604
 30
0.0
 11
140.452557
 21
170.915604
 31
0.0
  0
LINE
  5
9878
330
97FF
100
AcDbEntity
  8
1
  6
Continuous
100
AcDbLine
 10
137.952557
 20
150.915604
 30
0.0
 11
162.952557
 21
150.915604
 31
0.0
  0
LINE
  5
9879
330
97FF
100
AcDbEntity
  8
1
  6
Continuous
100
AcDbLine
 10
121.452557
 20
137.915604
 30
0.0
 11
121.452557
 21
163.915604
 31
0.0
  0
LINE
  5
987A
330
97FF
100
AcDbEntity
  8
1
  6
Continuous
100
AcDbLine
 10
117.452557
 20
139.915604
 30
0.0
 11
117.452557
 21
161.915604
 31
0.0
  0
LINE
  5
987B
330
97FF
100
AcDbEntity
  8
1
  6
Continuous
100
AcDbLine
 10
122.452557
 20
137.915604
 30
0.0
 11
122.452557
 21
163.915604
 31
0.0
  0
LINE
  5
987C
330
97FF
100
AcDbEntity
  8
1
  6
Continuous
100
AcDbLine
 10
130.452557
 20
146.565598
 30
0.0
 11
130.452557
 21
155.265594
 31
0.0
  0
LINE
  5
987D
330
97FF
100
AcDbEntity
  8
1
  6
Continuous
100
AcDbLine
 10
182.452557
 20
140.915604
 30
0.0
 11
182.452557
 21
160.915604
 31
0.0
  0
LINE
  5
987E
330
97FF
100
AcDbEntity
  8
1
  6
Continuous
100
AcDbLine
 10
147.119259
 20
150.915604
 30
0.0
 11
147.119259
 21
170.915604
 31
0.0
  0
LINE
  5
987F
330
97FF
100
AcDbEntity
  8
1
  6
Continuous
100
AcDbLine
 10
153.7859609999999
 20
150.915604
 30
0.0
 11
153.7859609999999
 21
170.915604
 31
0.0
  0
LINE
  5
9880
330
97FF
100
AcDbEntity
  8
1
  6
Continuous
100
AcDbLine
 10
155.619259
 20
168.915604
 30
0.0
 11
158.619259
 21
168.915604
 31
0.0
  0
LINE
  5
9881
330
97FF
100
AcDbEntity
  8
1
  6
Continuous
100
AcDbLine
 10
155.619259
 20
168.4156039999998
 30
0.0
 11
158.619259
 21
168.4156039999998
 31
0.0
  0
LINE
  5
9882
330
97FF
100
AcDbEntity
  8
1
  6
Continuous
100
AcDbLine
 10
142.2859609999999
 20
168.915604
 30
0.0
 11
145.2859609999999
 21
168.915604
 31
0.0
  0
LINE
  5
9883
330
97FF
100
AcDbEntity
  8
1
  6
Continuous
100
AcDbLine
 10
148.952557
 20
168.915604
 30
0.0
 11
151.952557
 21
168.915604
 31
0.0
  0
LINE
  5
9884
330
97FF
100
AcDbEntity
  8
1
  6
Continuous
100
AcDbLine
 10
142.2859609999999
 20
152.915604
 30
0.0
 11
145.2859609999999
 21
152.915604
 31
0.0
  0
LINE
  5
9885
330
97FF
100
AcDbEntity
  8
1
  6
Continuous
100
AcDbLine
 10
142.2859609999999
 20
153.415604
 30
0.0
 11
145.2859609999999
 21
153.415604
 31
0.0
  0
LINE
  5
9886
330
97FF
100
AcDbEntity
  8
1
  6
Continuous
100
AcDbLine
 10
142.2859609999999
 20
159.915604
 30
0.0
 11
145.2859609999999
 21
159.915604
 31
0.0
  0
LINE
  5
9887
330
97FF
100
AcDbEntity
  8
1
  6
Continuous
100
AcDbLine
 10
142.2859609999999
 20
160.415604
 30
0.0
 11
145.2859609999999
 21
160.415604
 31
0.0
  0
LINE
  5
9888
330
97FF
100
AcDbEntity
  8
1
  6
Continuous
100
AcDbLine
 10
142.2859609999999
 20
168.4156039999998
 30
0.0
 11
145.2859609999999
 21
168.4156039999998
 31
0.0
  0
LINE
  5
9889
330
97FF
100
AcDbEntity
  8
1
  6
Continuous
100
AcDbLine
 10
148.952557
 20
168.4156039999998
 30
0.0
 11
151.952557
 21
168.4156039999998
 31
0.0
  0
LINE
  5
988A
330
97FF
100
AcDbEntity
  8
1
  6
Continuous
100
AcDbLine
 10
148.952557
 20
152.915604
 30
0.0
 11
151.952557
 21
152.915604
 31
0.0
  0
LINE
  5
988B
330
97FF
100
AcDbEntity
  8
1
  6
Continuous
100
AcDbLine
 10
155.619259
 20
152.915604
 30
0.0
 11
158.619259
 21
152.915604
 31
0.0
  0
LINE
  5
988C
330
97FF
100
AcDbEntity
  8
1
  6
Continuous
100
AcDbLine
 10
148.952557
 20
153.415604
 30
0.0
 11
151.952557
 21
153.415604
 31
0.0
  0
LINE
  5
988D
330
97FF
100
AcDbEntity
  8
1
  6
Continuous
100
AcDbLine
 10
155.619259
 20
153.415604
 30
0.0
 11
158.619259
 21
153.415604
 31
0.0
  0
LINE
  5
988E
330
97FF
100
AcDbEntity
  8
1
  6
Continuous
100
AcDbLine
 10
148.952557
 20
159.915604
 30
0.0
 11
151.952557
 21
159.915604
 31
0.0
  0
LINE
  5
988F
330
97FF
100
AcDbEntity
  8
1
  6
Continuous
100
AcDbLine
 10
155.619259
 20
159.915604
 30
0.0
 11
158.619259
 21
159.915604
 31
0.0
  0
LINE
  5
9890
330
97FF
100
AcDbEntity
  8
1
  6
Continuous
100
AcDbLine
 10
148.952557
 20
160.415604
 30
0.0
 11
151.952557
 21
160.415604
 31
0.0
  0
LINE
  5
9891
330
97FF
100
AcDbEntity
  8
1
  6
Continuous
100
AcDbLine
 10
155.619259
 20
160.415604
 30
0.0
 11
158.619259
 21
160.415604
 31
0.0
  0
LINE
  5
9892
330
97FF
100
AcDbEntity
  8
1
  6
Continuous
100
AcDbLine
 10
158.619259
 20
168.4156039999998
 30
0.0
 11
158.619259
 21
168.915604
 31
0.0
  0
LINE
  5
9893
330
97FF
100
AcDbEntity
  8
1
  6
Continuous
100
AcDbLine
 10
155.619259
 20
168.4156039999998
 30
0.0
 11
155.619259
 21
168.915604
 31
0.0
  0
LINE
  5
9894
330
97FF
100
AcDbEntity
  8
1
  6
Continuous
100
AcDbLine
 10
151.952557
 20
168.4156039999998
 30
0.0
 11
151.952557
 21
168.915604
 31
0.0
  0
LINE
  5
9895
330
97FF
100
AcDbEntity
  8
1
  6
Continuous
100
AcDbLine
 10
148.952557
 20
168.4156039999998
 30
0.0
 11
148.952557
 21
168.915604
 31
0.0
  0
LINE
  5
9896
330
97FF
100
AcDbEntity
  8
1
  6
Continuous
100
AcDbLine
 10
145.2859609999999
 20
168.4156039999998
 30
0.0
 11
145.2859609999999
 21
168.915604
 31
0.0
  0
LINE
  5
9897
330
97FF
100
AcDbEntity
  8
1
  6
Continuous
100
AcDbLine
 10
142.2859609999999
 20
168.4156039999998
 30
0.0
 11
142.2859609999999
 21
168.915604
 31
0.0
  0
LINE
  5
9898
330
97FF
100
AcDbEntity
  8
1
  6
Continuous
100
AcDbLine
 10
142.2859609999999
 20
159.915604
 30
0.0
 11
142.2859609999999
 21
160.415604
 31
0.0
  0
LINE
  5
9899
330
97FF
100
AcDbEntity
  8
1
  6
Continuous
100
AcDbLine
 10
145.2859609999999
 20
159.915604
 30
0.0
 11
145.2859609999999
 21
160.415604
 31
0.0
  0
LINE
  5
989A
330
97FF
100
AcDbEntity
  8
1
  6
Continuous
100
AcDbLine
 10
148.952557
 20
159.915604
 30
0.0
 11
148.952557
 21
160.415604
 31
0.0
  0
LINE
  5
989B
330
97FF
100
AcDbEntity
  8
1
  6
Continuous
100
AcDbLine
 10
151.952557
 20
159.915604
 30
0.0
 11
151.952557
 21
160.415604
 31
0.0
  0
LINE
  5
989C
330
97FF
100
AcDbEntity
  8
1
  6
Continuous
100
AcDbLine
 10
155.619259
 20
159.915604
 30
0.0
 11
155.619259
 21
160.415604
 31
0.0
  0
LINE
  5
989D
330
97FF
100
AcDbEntity
  8
1
  6
Continuous
100
AcDbLine
 10
158.619259
 20
159.915604
 30
0.0
 11
158.619259
 21
160.415604
 31
0.0
  0
LINE
  5
989E
330
97FF
100
AcDbEntity
  8
1
  6
Continuous
100
AcDbLine
 10
158.619259
 20
152.915604
 30
0.0
 11
158.619259
 21
153.415604
 31
0.0
  0
LINE
  5
989F
330
97FF
100
AcDbEntity
  8
1
  6
Continuous
100
AcDbLine
 10
155.619259
 20
152.915604
 30
0.0
 11
155.619259
 21
153.415604
 31
0.0
  0
LINE
  5
98A0
330
97FF
100
AcDbEntity
  8
1
  6
Continuous
100
AcDbLine
 10
151.952557
 20
152.915604
 30
0.0
 11
151.952557
 21
153.415604
 31
0.0
  0
LINE
  5
98A1
330
97FF
100
AcDbEntity
  8
1
  6
Continuous
100
AcDbLine
 10
148.952557
 20
152.915604
 30
0.0
 11
148.952557
 21
153.415604
 31
0.0
  0
LINE
  5
98A2
330
97FF
100
AcDbEntity
  8
1
  6
Continuous
100
AcDbLine
 10
145.2859609999999
 20
152.915604
 30
0.0
 11
145.2859609999999
 21
153.415604
 31
0.0
  0
LINE
  5
98A3
330
97FF
100
AcDbEntity
  8
1
  6
Continuous
100
AcDbLine
 10
142.2859609999999
 20
152.915604
 30
0.0
 11
142.2859609999999
 21
153.415604
 31
0.0
  0
LINE
  5
98A4
330
97FF
100
AcDbEntity
  8
1
  6
Continuous
100
AcDbLine
 10
141.7859609999999
 20
149.415604
 30
0.0
 11
141.7859609999999
 21
150.915604
 31
0.0
  0
LINE
  5
98A5
330
97FF
100
AcDbEntity
  8
1
  6
Continuous
100
AcDbLine
 10
145.7859609999999
 20
149.415604
 30
0.0
 11
145.7859609999999
 21
150.915604
 31
0.0
  0
LINE
  5
98A6
330
97FF
100
AcDbEntity
  8
1
  6
Continuous
100
AcDbLine
 10
148.452557
 20
149.415604
 30
0.0
 11
148.452557
 21
150.915604
 31
0.0
  0
LINE
  5
98A7
330
97FF
100
AcDbEntity
  8
1
  6
Continuous
100
AcDbLine
 10
152.452557
 20
149.415604
 30
0.0
 11
152.452557
 21
150.915604
 31
0.0
  0
LINE
  5
98A8
330
97FF
100
AcDbEntity
  8
1
  6
Continuous
100
AcDbLine
 10
155.119259
 20
149.415604
 30
0.0
 11
155.119259
 21
150.915604
 31
0.0
  0
LINE
  5
98A9
330
97FF
100
AcDbEntity
  8
1
  6
Continuous
100
AcDbLine
 10
159.119259
 20
149.415604
 30
0.0
 11
159.119259
 21
150.915604
 31
0.0
  0
LINE
  5
98AA
330
97FF
100
AcDbEntity
  8
1
  6
Continuous
100
AcDbLine
 10
155.119259
 20
149.415604
 30
0.0
 11
159.119259
 21
149.415604
 31
0.0
  0
LINE
  5
98AB
330
97FF
100
AcDbEntity
  8
1
  6
Continuous
100
AcDbLine
 10
141.7859609999999
 20
149.415604
 30
0.0
 11
145.7859609999999
 21
149.415604
 31
0.0
  0
LINE
  5
98AC
330
97FF
100
AcDbEntity
  8
1
  6
Continuous
100
AcDbLine
 10
148.452557
 20
149.415604
 30
0.0
 11
152.452557
 21
149.415604
 31
0.0
  0
LINE
  5
98AD
330
97FF
100
AcDbEntity
  8
1
  6
Continuous
100
AcDbLine
 10
162.952557
 20
153.615601
 30
0.0
 11
164.0525479999998
 21
153.615601
 31
0.0
  0
LINE
  5
98AE
330
97FF
100
AcDbEntity
  8
1
  6
Continuous
100
AcDbLine
 10
162.952557
 20
158.215607
 30
0.0
 11
164.0525479999998
 21
158.215607
 31
0.0
  0
LINE
  5
98AF
330
97FF
100
AcDbEntity
  8
1
  6
Continuous
100
AcDbLine
 10
162.952557
 20
163.1156009999999
 30
0.0
 11
164.0525479999998
 21
163.1156009999999
 31
0.0
  0
LINE
  5
98B0
330
97FF
100
AcDbEntity
  8
1
  6
Continuous
100
AcDbLine
 10
162.952557
 20
167.715607
 30
0.0
 11
164.0525479999998
 21
167.715607
 31
0.0
  0
LINE
  5
98B1
330
97FF
100
AcDbEntity
  8
1
  6
Continuous
100
AcDbLine
 10
163.452557
 20
153.615601
 30
0.0
 11
163.452557
 21
158.215607
 31
0.0
  0
LINE
  5
98B2
330
97FF
100
AcDbEntity
  8
1
  6
Continuous
100
AcDbLine
 10
163.452557
 20
163.1156009999999
 30
0.0
 11
163.452557
 21
167.715607
 31
0.0
  0
LINE
  5
98B3
330
97FF
100
AcDbEntity
  8
1
  6
Continuous
100
AcDbLine
 10
164.0525479999998
 20
153.615601
 30
0.0
 11
164.0525479999998
 21
158.215607
 31
0.0
  0
LINE
  5
98B4
330
97FF
100
AcDbEntity
  8
1
  6
Continuous
100
AcDbLine
 10
164.0525479999998
 20
163.1156009999999
 30
0.0
 11
164.0525479999998
 21
167.715607
 31
0.0
  0
LINE
  5
98B5
330
97FF
100
AcDbEntity
  8
1
  6
Continuous
100
AcDbLine
 10
164.0525479999998
 20
167.4156039999998
 30
0.0
 11
164.6513479999998
 21
167.4156039999998
 31
0.0
  0
LINE
  5
98B6
330
97FF
100
AcDbEntity
  8
1
  6
Continuous
100
AcDbLine
 10
164.0525479999998
 20
163.415604
 30
0.0
 11
164.6513479999998
 21
163.415604
 31
0.0
  0
LINE
  5
98B7
330
97FF
100
AcDbEntity
  8
1
  6
Continuous
100
AcDbLine
 10
164.0525479999998
 20
157.9156039999998
 30
0.0
 11
164.6513479999998
 21
157.9156039999998
 31
0.0
  0
LINE
  5
98B8
330
97FF
100
AcDbEntity
  8
1
  6
Continuous
100
AcDbLine
 10
164.0525479999998
 20
153.9156039999998
 30
0.0
 11
164.6513479999998
 21
153.9156039999998
 31
0.0
  0
LINE
  5
98B9
330
97FF
100
AcDbEntity
  8
1
  6
Continuous
100
AcDbLine
 10
134.0525479999998
 20
164.265594
 30
0.0
 11
134.0525479999998
 21
166.5655979999999
 31
0.0
  0
LINE
  5
98BA
330
97FF
100
AcDbEntity
  8
1
  6
Continuous
100
AcDbLine
 10
134.0525479999998
 20
154.765594
 30
0.0
 11
134.0525479999998
 21
157.0655979999999
 31
0.0
  0
LINE
  5
98BB
330
97FF
100
AcDbEntity
  8
1
  6
Continuous
100
AcDbLine
 10
136.152554
 20
168.013702
 30
0.0
 11
137.952557
 21
168.013702
 31
0.0
  0
LINE
  5
98BC
330
97FF
100
AcDbEntity
  8
1
  6
Continuous
100
AcDbLine
 10
136.152554
 20
166.714706
 30
0.0
 11
137.952557
 21
166.714706
 31
0.0
  0
LINE
  5
98BD
330
97FF
100
AcDbEntity
  8
1
  6
Continuous
100
AcDbLine
 10
136.152554
 20
164.1165919999999
 30
0.0
 11
137.952557
 21
164.1165919999999
 31
0.0
  0
LINE
  5
98BE
330
97FF
100
AcDbEntity
  8
1
  6
Continuous
100
AcDbLine
 10
136.152554
 20
162.817596
 30
0.0
 11
137.952557
 21
162.817596
 31
0.0
  0
LINE
  5
98BF
330
97FF
100
AcDbEntity
  8
1
  6
Continuous
100
AcDbLine
 10
136.152554
 20
158.5137019999999
 30
0.0
 11
137.952557
 21
158.5137019999999
 31
0.0
  0
LINE
  5
98C0
330
97FF
100
AcDbEntity
  8
1
  6
Continuous
100
AcDbLine
 10
136.152554
 20
157.2147059999998
 30
0.0
 11
137.952557
 21
157.2147059999998
 31
0.0
  0
LINE
  5
98C1
330
97FF
100
AcDbEntity
  8
1
  6
Continuous
100
AcDbLine
 10
136.152554
 20
154.6165919999999
 30
0.0
 11
137.952557
 21
154.6165919999999
 31
0.0
  0
LINE
  5
98C2
330
97FF
100
AcDbEntity
  8
1
  6
Continuous
100
AcDbLine
 10
136.152554
 20
153.317596
 30
0.0
 11
137.952557
 21
153.317596
 31
0.0
  0
LINE
  5
98C3
330
97FF
100
AcDbEntity
  8
1
  6
Continuous
100
AcDbLine
 10
136.152554
 20
153.317596
 30
0.0
 11
136.152554
 21
158.5137019999999
 31
0.0
  0
LINE
  5
98C4
330
97FF
100
AcDbEntity
  8
1
  6
Continuous
100
AcDbLine
 10
136.152554
 20
162.817596
 30
0.0
 11
136.152554
 21
168.013702
 31
0.0
  0
LINE
  5
98C5
330
97FF
100
AcDbEntity
  8
1
  6
Continuous
100
AcDbLine
 10
136.452557
 20
140.915604
 30
0.0
 11
136.452557
 21
153.317596
 31
0.0
  0
LINE
  5
98C6
330
97FF
100
AcDbEntity
  8
1
  6
Continuous
100
AcDbLine
 10
136.452557
 20
158.5137019999999
 30
0.0
 11
136.452557
 21
160.915604
 31
0.0
  0
LINE
  5
98C7
330
97FF
100
AcDbEntity
  8
1
  6
Continuous
100
AcDbLine
 10
134.0525479999998
 20
154.765594
 30
0.0
 11
136.152554
 21
154.765594
 31
0.0
  0
LINE
  5
98C8
330
97FF
100
AcDbEntity
  8
1
  6
Continuous
100
AcDbLine
 10
134.0525479999998
 20
157.0655979999999
 30
0.0
 11
136.152554
 21
157.0655979999999
 31
0.0
  0
LINE
  5
98C9
330
97FF
100
AcDbEntity
  8
1
  6
Continuous
100
AcDbLine
 10
134.0525479999998
 20
164.265594
 30
0.0
 11
136.152554
 21
164.265594
 31
0.0
  0
LINE
  5
98CA
330
97FF
100
AcDbEntity
  8
1
  6
Continuous
100
AcDbLine
 10
134.0525479999998
 20
166.5655979999999
 30
0.0
 11
136.152554
 21
166.5655979999999
 31
0.0
  0
LINE
  5
98CB
330
97FF
100
AcDbEntity
  8
4
  6
CENTER
100
AcDbLine
 10
132.540051
 20
155.9156039999998
 30
0.0
 11
166.7495539999999
 21
155.9156039999998
 31
0.0
  0
LINE
  5
98CC
330
97FF
100
AcDbEntity
  8
4
  6
CENTER
100
AcDbLine
 10
132.540051
 20
165.415604
 30
0.0
 11
166.7495539999999
 21
165.415604
 31
0.0
  0
LINE
  5
98CD
330
97FF
100
AcDbEntity
  8
1
  6
Continuous
100
AcDbLine
 10
168.452557
 20
143.844604
 30
0.0
 11
168.452557
 21
157.986694
 31
0.0
  0
LINE
  5
98CE
330
97FF
100
AcDbEntity
  8
1
  6
Continuous
100
AcDbLine
 10
168.452557
 20
157.986694
 30
0.0
 11
164.0525479999998
 21
157.986694
 31
0.0
  0
LINE
  5
98CF
330
97FF
100
AcDbEntity
  8
1
  6
Continuous
100
AcDbLine
 10
168.452557
 20
143.844604
 30
0.0
 11
162.952557
 21
143.844604
 31
0.0
  0
LINE
  5
98D0
330
97FF
100
AcDbEntity
  8
1
  6
Continuous
100
AcDbLine
 10
168.452557
 20
153.779404
 30
0.0
 11
164.0525479999998
 21
153.779404
 31
0.0
  0
LINE
  5
98D1
330
97FF
100
AcDbEntity
  8
1
  6
Continuous
100
AcDbLine
 10
168.452557
 20
148.0518039999998
 30
0.0
 11
162.952557
 21
148.0518039999998
 31
0.0
  0
LINE
  5
98D2
330
97FF
100
AcDbEntity
  8
2
  6
Continuous
100
AcDbLine
 10
168.4525419999999
 20
148.0518039999998
 30
0.0
 11
162.952557
 21
143.844604
 31
0.0
  0
LINE
  5
98D3
330
97FF
100
AcDbEntity
  8
2
  6
Continuous
100
AcDbLine
 10
168.452557
 20
143.844604
 30
0.0
 11
162.952557
 21
148.0518039999998
 31
0.0
  0
LINE
  5
98D4
330
97FF
100
AcDbEntity
  8
2
  6
Continuous
100
AcDbLine
 10
165.55035
 20
155.766602
 30
0.0
 11
168.452557
 21
157.9867099999999
 31
0.0
  0
LINE
  5
98D5
330
97FF
100
AcDbEntity
  8
2
  6
Continuous
100
AcDbLine
 10
168.452557
 20
153.7793879999999
 30
0.0
 11
165.5519679999999
 21
155.998291
 31
0.0
  0
LINE
  5
98D6
330
97FF
100
AcDbEntity
  8
1
  6
Continuous
100
AcDbLine
 10
180.452557
 20
140.915604
 30
0.0
 11
180.452557
 21
160.915604
 31
0.0
  0
LINE
  5
98D7
330
97FF
100
AcDbEntity
  8
1
  6
Continuous
100
AcDbLine
 10
180.452557
 20
158.398193
 30
0.0
 11
177.452557
 21
158.398193
 31
0.0
  0
LINE
  5
98D8
330
97FF
100
AcDbEntity
  8
1
  6
Continuous
100
AcDbLine
 10
180.452557
 20
157.549698
 30
0.0
 11
177.452557
 21
157.549698
 31
0.0
  0
LINE
  5
98D9
330
97FF
100
AcDbEntity
  8
1
  6
Continuous
100
AcDbLine
 10
180.452557
 20
144.281601
 30
0.0
 11
177.452557
 21
144.281601
 31
0.0
  0
LINE
  5
98DA
330
97FF
100
AcDbEntity
  8
1
  6
Continuous
100
AcDbLine
 10
180.452557
 20
143.4329989999999
 30
0.0
 11
177.452557
 21
143.4329989999999
 31
0.0
  0
LINE
  5
98DB
330
97FF
100
AcDbEntity
  8
1
  6
Continuous
100
AcDbLine
 10
177.452557
 20
143.4329989999999
 30
0.0
 11
177.452557
 21
144.281601
 31
0.0
  0
LINE
  5
98DC
330
97FF
100
AcDbEntity
  8
1
  6
Continuous
100
AcDbLine
 10
177.452557
 20
157.549698
 30
0.0
 11
177.452557
 21
158.398193
 31
0.0
  0
LINE
  5
98DD
330
97FF
100
AcDbEntity
  8
1
  6
Continuous
100
AcDbLine
 10
137.952557
 20
76.05920399999998
 30
0.0
 11
137.952557
 21
36.059196
 31
0.0
  0
LINE
  5
98DE
330
97FF
100
AcDbEntity
  8
1
  6
Continuous
100
AcDbLine
 10
139.452557
 20
76.05920399999998
 30
0.0
 11
139.452557
 21
36.059196
 31
0.0
  0
LINE
  5
98DF
330
97FF
100
AcDbEntity
  8
1
  6
Continuous
100
AcDbLine
 10
161.452557
 20
76.05920399999998
 30
0.0
 11
161.452557
 21
36.059196
 31
0.0
  0
LINE
  5
98E0
330
97FF
100
AcDbEntity
  8
1
  6
Continuous
100
AcDbLine
 10
162.952557
 20
76.05920399999998
 30
0.0
 11
162.952557
 21
36.059196
 31
0.0
  0
LINE
  5
98E1
330
97FF
100
AcDbEntity
  8
1
  6
Continuous
100
AcDbLine
 10
137.952557
 20
36.059196
 30
0.0
 11
139.452557
 21
36.059196
 31
0.0
  0
LINE
  5
98E2
330
97FF
100
AcDbEntity
  8
1
  6
Continuous
100
AcDbLine
 10
161.452557
 20
36.059196
 30
0.0
 11
162.952557
 21
36.059196
 31
0.0
  0
LINE
  5
98E3
330
97FF
100
AcDbEntity
  8
1
  6
Continuous
100
AcDbLine
 10
137.952557
 20
62.059204
 30
0.0
 11
139.452557
 21
62.059204
 31
0.0
  0
LINE
  5
98E4
330
97FF
100
AcDbEntity
  8
1
  6
Continuous
100
AcDbLine
 10
161.452557
 20
62.059204
 30
0.0
 11
162.952557
 21
62.059204
 31
0.0
  0
LINE
  5
98E5
330
97FF
100
AcDbEntity
  8
1
  6
Continuous
100
AcDbLine
 10
122.452557
 20
62.059204
 30
0.0
 11
122.452557
 21
36.059196
 31
0.0
  0
LINE
  5
98E6
330
97FF
100
AcDbEntity
  8
1
  6
Continuous
100
AcDbLine
 10
121.452557
 20
62.059204
 30
0.0
 11
121.452557
 21
36.059196
 31
0.0
  0
LINE
  5
98E7
330
97FF
100
AcDbEntity
  8
1
  6
Continuous
100
AcDbLine
 10
122.452557
 20
62.059204
 30
0.0
 11
121.452557
 21
62.059204
 31
0.0
  0
LINE
  5
98E8
330
97FF
100
AcDbEntity
  8
1
  6
Continuous
100
AcDbLine
 10
121.452557
 20
36.059196
 30
0.0
 11
122.452557
 21
36.059196
 31
0.0
  0
LINE
  5
98E9
330
97FF
100
AcDbEntity
  8
1
  6
Continuous
100
AcDbLine
 10
94.45255700000002
 20
61.059204
 30
0.0
 11
94.45255700000002
 21
37.059196
 31
0.0
  0
LINE
  5
98EA
330
97FF
100
AcDbEntity
  8
1
  6
Continuous
100
AcDbLine
 10
98.45255700000002
 20
61.059204
 30
0.0
 11
98.45255700000002
 21
37.059196
 31
0.0
  0
LINE
  5
98EB
330
97FF
100
AcDbEntity
  8
4
  6
CENTER
100
AcDbLine
 10
89.78430600000001
 20
49.059196
 30
0.0
 11
102.618969
 21
49.059196
 31
0.0
  0
LINE
  5
98EC
330
97FF
100
AcDbEntity
  8
1
  6
Continuous
100
AcDbLine
 10
94.45255700000002
 20
49.059196
 30
0.0
 11
98.45255700000002
 21
49.059196
 31
0.0
  0
LINE
  5
98ED
330
97FF
100
AcDbEntity
  8
1
  6
Continuous
100
AcDbLine
 10
94.45255700000002
 20
37.059196
 30
0.0
 11
98.45255700000002
 21
37.059196
 31
0.0
  0
LINE
  5
98EE
330
97FF
100
AcDbEntity
  8
1
  6
Continuous
100
AcDbLine
 10
94.45255700000002
 20
61.059204
 30
0.0
 11
98.45255700000002
 21
61.059204
 31
0.0
  0
LINE
  5
98EF
330
97FF
100
AcDbEntity
  8
1
  6
Continuous
100
AcDbLine
 10
136.452557
 20
59.059204
 30
0.0
 11
136.452557
 21
39.059196
 31
0.0
  0
LINE
  5
98F0
330
97FF
100
AcDbEntity
  8
1
  6
Continuous
100
AcDbLine
 10
122.452557
 20
40.059196
 30
0.0
 11
130.452557
 21
40.059196
 31
0.0
  0
LINE
  5
98F1
330
97FF
100
AcDbEntity
  8
1
  6
Continuous
100
AcDbLine
 10
122.452557
 20
58.059204
 30
0.0
 11
130.452557
 21
58.059204
 31
0.0
  0
LINE
  5
98F2
330
97FF
100
AcDbEntity
  8
1
  6
Continuous
100
AcDbLine
 10
130.452557
 20
40.059196
 30
0.0
 11
130.452557
 21
39.059196
 31
0.0
  0
LINE
  5
98F3
330
97FF
100
AcDbEntity
  8
1
  6
Continuous
100
AcDbLine
 10
130.452557
 20
59.059204
 30
0.0
 11
130.452557
 21
58.059204
 31
0.0
  0
LINE
  5
98F4
330
97FF
100
AcDbEntity
  8
1
  6
Continuous
100
AcDbLine
 10
130.452557
 20
59.059204
 30
0.0
 11
137.952557
 21
59.059204
 31
0.0
  0
LINE
  5
98F5
330
97FF
100
AcDbEntity
  8
1
  6
Continuous
100
AcDbLine
 10
130.452557
 20
39.059196
 30
0.0
 11
137.952557
 21
39.059196
 31
0.0
  0
LINE
  5
98F6
330
97FF
100
AcDbEntity
  8
1
  6
Continuous
100
AcDbLine
 10
139.452557
 20
59.059204
 30
0.0
 11
161.452557
 21
59.059204
 31
0.0
  0
LINE
  5
98F7
330
97FF
100
AcDbEntity
  8
1
  6
Continuous
100
AcDbLine
 10
168.452557
 20
59.059204
 30
0.0
 11
182.452557
 21
59.059204
 31
0.0
  0
LINE
  5
98F8
330
97FF
100
AcDbEntity
  8
1
  6
Continuous
100
AcDbLine
 10
139.452557
 20
39.059196
 30
0.0
 11
161.452557
 21
39.059196
 31
0.0
  0
LINE
  5
98F9
330
97FF
100
AcDbEntity
  8
1
  6
Continuous
100
AcDbLine
 10
162.952557
 20
39.059196
 30
0.0
 11
182.452557
 21
39.059196
 31
0.0
  0
LINE
  5
98FA
330
97FF
100
AcDbEntity
  8
1
  6
Continuous
100
AcDbLine
 10
182.452557
 20
59.059204
 30
0.0
 11
182.452557
 21
39.059196
 31
0.0
  0
LINE
  5
98FB
330
97FF
100
AcDbEntity
  8
1
  6
Continuous
100
AcDbLine
 10
180.452557
 20
59.059204
 30
0.0
 11
180.452557
 21
39.059196
 31
0.0
  0
LINE
  5
98FC
330
97FF
100
AcDbEntity
  8
1
  6
Continuous
100
AcDbLine
 10
139.452557
 20
62.559204
 30
0.0
 11
161.452557
 21
62.559204
 31
0.0
  0
LINE
  5
98FD
330
97FF
100
AcDbEntity
  8
1
  6
Continuous
100
AcDbLine
 10
140.452557
 20
72.55920399999998
 30
0.0
 11
160.452557
 21
72.55920399999998
 31
0.0
  0
LINE
  5
98FE
330
97FF
100
AcDbEntity
  8
1
  6
Continuous
100
AcDbLine
 10
158.619259
 20
72.55920399999998
 30
0.0
 11
158.619259
 21
76.05920399999998
 31
0.0
  0
LINE
  5
98FF
330
97FF
100
AcDbEntity
  8
1
  6
Continuous
100
AcDbLine
 10
155.619259
 20
72.55920399999998
 30
0.0
 11
155.619259
 21
76.05920399999998
 31
0.0
  0
LINE
  5
9900
330
97FF
100
AcDbEntity
  8
1
  6
Continuous
100
AcDbLine
 10
151.952557
 20
72.55920399999998
 30
0.0
 11
151.952557
 21
76.05920399999998
 31
0.0
  0
LINE
  5
9901
330
97FF
100
AcDbEntity
  8
1
  6
Continuous
100
AcDbLine
 10
148.952557
 20
72.55920399999998
 30
0.0
 11
148.952557
 21
76.05920399999998
 31
0.0
  0
LINE
  5
9902
330
97FF
100
AcDbEntity
  8
1
  6
Continuous
100
AcDbLine
 10
145.2859609999999
 20
72.55920399999998
 30
0.0
 11
145.2859609999999
 21
76.05920399999998
 31
0.0
  0
LINE
  5
9903
330
97FF
100
AcDbEntity
  8
1
  6
Continuous
100
AcDbLine
 10
142.2859609999999
 20
72.55920399999998
 30
0.0
 11
142.2859609999999
 21
76.05920399999998
 31
0.0
  0
LINE
  5
9904
330
97FF
100
AcDbEntity
  8
1
  6
Continuous
100
AcDbLine
 10
142.2859609999999
 20
76.05920399999998
 30
0.0
 11
145.2859609999999
 21
76.05920399999998
 31
0.0
  0
LINE
  5
9905
330
97FF
100
AcDbEntity
  8
1
  6
Continuous
100
AcDbLine
 10
148.952557
 20
76.05920399999998
 30
0.0
 11
151.952557
 21
76.05920399999998
 31
0.0
  0
LINE
  5
9906
330
97FF
100
AcDbEntity
  8
1
  6
Continuous
100
AcDbLine
 10
155.619259
 20
76.05920399999998
 30
0.0
 11
158.619259
 21
76.05920399999998
 31
0.0
  0
LINE
  5
9907
330
97FF
100
AcDbEntity
  8
4
  6
CENTER
100
AcDbLine
 10
159.619259
 20
74.55920400000001
 30
0.0
 11
154.6192589999998
 21
74.55920400000001
 31
0.0
  0
LINE
  5
9908
330
97FF
100
AcDbEntity
  8
4
  6
CENTER
100
AcDbLine
 10
157.119259
 20
77.05920400000001
 30
0.0
 11
157.119259
 21
72.05920400000001
 31
0.0
  0
LINE
  5
9909
330
97FF
100
AcDbEntity
  8
4
  6
CENTER
100
AcDbLine
 10
152.952557
 20
74.55920400000001
 30
0.0
 11
147.952557
 21
74.55920400000001
 31
0.0
  0
LINE
  5
990A
330
97FF
100
AcDbEntity
  8
4
  6
CENTER
100
AcDbLine
 10
150.452557
 20
77.05920400000001
 30
0.0
 11
150.452557
 21
72.05920400000001
 31
0.0
  0
LINE
  5
990B
330
97FF
100
AcDbEntity
  8
4
  6
CENTER
100
AcDbLine
 10
146.2859609999999
 20
74.55920400000001
 30
0.0
 11
141.2859609999999
 21
74.55920400000001
 31
0.0
  0
LINE
  5
990C
330
97FF
100
AcDbEntity
  8
4
  6
CENTER
100
AcDbLine
 10
143.7859609999999
 20
77.05920400000001
 30
0.0
 11
143.7859609999999
 21
72.05920400000001
 31
0.0
  0
LINE
  5
990D
330
97FF
100
AcDbEntity
  8
1
  6
Continuous
100
AcDbLine
 10
137.952557
 20
76.05920399999998
 30
0.0
 11
140.452557
 21
76.05920399999998
 31
0.0
  0
LINE
  5
990E
330
97FF
100
AcDbEntity
  8
1
  6
Continuous
100
AcDbLine
 10
160.452557
 20
76.05920399999998
 30
0.0
 11
162.952557
 21
76.05920399999998
 31
0.0
  0
LINE
  5
990F
330
97FF
100
AcDbEntity
  8
1
  6
Continuous
100
AcDbLine
 10
162.952557
 20
67.259201
 30
0.0
 11
164.0525479999998
 21
67.259201
 31
0.0
  0
LINE
  5
9910
330
97FF
100
AcDbEntity
  8
1
  6
Continuous
100
AcDbLine
 10
162.952557
 20
71.859207
 30
0.0
 11
164.0525479999998
 21
71.859207
 31
0.0
  0
LINE
  5
9911
330
97FF
100
AcDbEntity
  8
1
  6
Continuous
100
AcDbLine
 10
163.452557
 20
67.259201
 30
0.0
 11
163.452557
 21
71.859207
 31
0.0
  0
LINE
  5
9912
330
97FF
100
AcDbEntity
  8
1
  6
Continuous
100
AcDbLine
 10
164.0525479999998
 20
67.259201
 30
0.0
 11
164.0525479999998
 21
71.859207
 31
0.0
  0
LINE
  5
9913
330
97FF
100
AcDbEntity
  8
1
  6
Continuous
100
AcDbLine
 10
164.0525479999998
 20
71.55920400000002
 30
0.0
 11
164.6513479999998
 21
71.55920400000002
 31
0.0
  0
LINE
  5
9914
330
97FF
100
AcDbEntity
  8
1
  6
Continuous
100
AcDbLine
 10
164.0525479999998
 20
67.55920399999999
 30
0.0
 11
164.6513479999998
 21
67.55920399999999
 31
0.0
  0
LINE
  5
9915
330
97FF
100
AcDbEntity
  8
1
  6
Continuous
100
AcDbLine
 10
134.0525479999998
 20
68.409195
 30
0.0
 11
134.0525479999998
 21
70.709198
 31
0.0
  0
LINE
  5
9916
330
97FF
100
AcDbEntity
  8
1
  6
Continuous
100
AcDbLine
 10
136.152554
 20
67.30920400000001
 30
0.0
 11
136.152554
 21
71.80920400000002
 31
0.0
  0
LINE
  5
9917
330
97FF
100
AcDbEntity
  8
1
  6
Continuous
100
AcDbLine
 10
134.0525479999998
 20
68.409195
 30
0.0
 11
136.152554
 21
68.409195
 31
0.0
  0
LINE
  5
9918
330
97FF
100
AcDbEntity
  8
1
  6
Continuous
100
AcDbLine
 10
134.0525479999998
 20
70.709198
 30
0.0
 11
136.152554
 21
70.709198
 31
0.0
  0
LINE
  5
9919
330
97FF
100
AcDbEntity
  8
1
  6
Continuous
100
AcDbLine
 10
137.952557
 20
69.55920400000001
 30
0.0
 11
136.152554
 21
69.55920400000001
 31
0.0
  0
LINE
  5
991A
330
97FF
100
AcDbEntity
  8
1
  6
Continuous
100
AcDbLine
 10
137.952557
 20
67.30920400000001
 30
0.0
 11
136.152554
 21
67.30920400000001
 31
0.0
  0
LINE
  5
991B
330
97FF
100
AcDbEntity
  8
1
  6
Continuous
100
AcDbLine
 10
137.952557
 20
71.80920400000002
 30
0.0
 11
136.152554
 21
71.80920400000002
 31
0.0
  0
LINE
  5
991C
330
97FF
100
AcDbEntity
  8
4
  6
CENTER
100
AcDbLine
 10
166.345654
 20
69.55920400000001
 30
0.0
 11
132.496136
 21
69.55920400000001
 31
0.0
  0
LINE
  5
991D
330
97FF
100
AcDbEntity
  8
1
  6
Continuous
100
AcDbLine
 10
141.7859609999999
 20
62.559204
 30
0.0
 11
141.7859609999999
 21
59.559204
 31
0.0
  0
LINE
  5
991E
330
97FF
100
AcDbEntity
  8
1
  6
Continuous
100
AcDbLine
 10
145.7859609999999
 20
62.559204
 30
0.0
 11
145.7859609999999
 21
59.559204
 31
0.0
  0
LINE
  5
991F
330
97FF
100
AcDbEntity
  8
1
  6
Continuous
100
AcDbLine
 10
148.452557
 20
62.559204
 30
0.0
 11
148.452557
 21
59.559204
 31
0.0
  0
LINE
  5
9920
330
97FF
100
AcDbEntity
  8
1
  6
Continuous
100
AcDbLine
 10
152.452557
 20
62.559204
 30
0.0
 11
152.452557
 21
59.559204
 31
0.0
  0
LINE
  5
9921
330
97FF
100
AcDbEntity
  8
1
  6
Continuous
100
AcDbLine
 10
155.119259
 20
62.559204
 30
0.0
 11
155.119259
 21
59.559204
 31
0.0
  0
LINE
  5
9922
330
97FF
100
AcDbEntity
  8
1
  6
Continuous
100
AcDbLine
 10
159.119259
 20
62.559204
 30
0.0
 11
159.119259
 21
59.559204
 31
0.0
  0
LINE
  5
9923
330
97FF
100
AcDbEntity
  8
1
  6
Continuous
100
AcDbLine
 10
140.452557
 20
60.059204
 30
0.0
 11
140.452557
 21
76.05920399999998
 31
0.0
  0
LINE
  5
9924
330
97FF
100
AcDbEntity
  8
1
  6
Continuous
100
AcDbLine
 10
147.119259
 20
60.059204
 30
0.0
 11
147.119259
 21
76.05920399999998
 31
0.0
  0
LINE
  5
9925
330
97FF
100
AcDbEntity
  8
1
  6
Continuous
100
AcDbLine
 10
153.7859609999999
 20
60.059204
 30
0.0
 11
153.7859609999999
 21
76.05920399999998
 31
0.0
  0
LINE
  5
9926
330
97FF
100
AcDbEntity
  8
1
  6
Continuous
100
AcDbLine
 10
160.452557
 20
60.059204
 30
0.0
 11
160.452557
 21
76.05920399999998
 31
0.0
  0
LINE
  5
9927
330
97FF
100
AcDbEntity
  8
1
  6
Continuous
100
AcDbLine
 10
140.452557
 20
60.059204
 30
0.0
 11
141.7859609999999
 21
60.059204
 31
0.0
  0
LINE
  5
9928
330
97FF
100
AcDbEntity
  8
1
  6
Continuous
100
AcDbLine
 10
145.7859609999999
 20
60.059204
 30
0.0
 11
148.452557
 21
60.059204
 31
0.0
  0
LINE
  5
9929
330
97FF
100
AcDbEntity
  8
1
  6
Continuous
100
AcDbLine
 10
152.452557
 20
60.059204
 30
0.0
 11
155.119259
 21
60.059204
 31
0.0
  0
LINE
  5
992A
330
97FF
100
AcDbEntity
  8
1
  6
Continuous
100
AcDbLine
 10
159.119259
 20
60.059204
 30
0.0
 11
160.452557
 21
60.059204
 31
0.0
  0
LINE
  5
992B
330
97FF
100
AcDbEntity
  8
1
  6
Continuous
100
AcDbLine
 10
141.7859609999999
 20
59.559204
 30
0.0
 11
145.7859609999999
 21
59.559204
 31
0.0
  0
LINE
  5
992C
330
97FF
100
AcDbEntity
  8
1
  6
Continuous
100
AcDbLine
 10
148.452557
 20
59.559204
 30
0.0
 11
152.452557
 21
59.559204
 31
0.0
  0
LINE
  5
992D
330
97FF
100
AcDbEntity
  8
1
  6
Continuous
100
AcDbLine
 10
155.119259
 20
59.559204
 30
0.0
 11
159.119259
 21
59.559204
 31
0.0
  0
LINE
  5
992E
330
97FF
100
AcDbEntity
  8
1
  6
Continuous
100
AcDbLine
 10
142.035961
 20
59.559204
 30
0.0
 11
142.035961
 21
59.059204
 31
0.0
  0
LINE
  5
992F
330
97FF
100
AcDbEntity
  8
1
  6
Continuous
100
AcDbLine
 10
145.5359609999999
 20
59.559204
 30
0.0
 11
145.5359609999999
 21
59.059204
 31
0.0
  0
LINE
  5
9930
330
97FF
100
AcDbEntity
  8
1
  6
Continuous
100
AcDbLine
 10
148.702557
 20
59.559204
 30
0.0
 11
148.702557
 21
59.059204
 31
0.0
  0
LINE
  5
9931
330
97FF
100
AcDbEntity
  8
1
  6
Continuous
100
AcDbLine
 10
152.202557
 20
59.559204
 30
0.0
 11
152.202557
 21
59.059204
 31
0.0
  0
LINE
  5
9932
330
97FF
100
AcDbEntity
  8
1
  6
Continuous
100
AcDbLine
 10
155.3692589999998
 20
59.559204
 30
0.0
 11
155.3692589999998
 21
59.059204
 31
0.0
  0
LINE
  5
9933
330
97FF
100
AcDbEntity
  8
1
  6
Continuous
100
AcDbLine
 10
158.8692589999998
 20
59.559204
 30
0.0
 11
158.8692589999998
 21
59.059204
 31
0.0
  0
LINE
  5
9934
330
97FF
100
AcDbEntity
  8
1
  6
Continuous
100
AcDbLine
 10
168.452557
 20
59.059204
 30
0.0
 11
168.452557
 21
56.130302
 31
0.0
  0
LINE
  5
9935
330
97FF
100
AcDbEntity
  8
1
  6
Continuous
100
AcDbLine
 10
180.452557
 20
56.541801
 30
0.0
 11
177.452557
 21
56.541801
 31
0.0
  0
LINE
  5
9936
330
97FF
100
AcDbEntity
  8
1
  6
Continuous
100
AcDbLine
 10
168.452557
 20
56.130302
 30
0.0
 11
162.952557
 21
56.130302
 31
0.0
  0
LINE
  5
9937
330
97FF
100
AcDbEntity
  8
1
  6
Continuous
100
AcDbLine
 10
180.452557
 20
55.693298
 30
0.0
 11
177.452557
 21
55.693298
 31
0.0
  0
LINE
  5
9938
330
97FF
100
AcDbEntity
  8
1
  6
Continuous
100
AcDbLine
 10
180.452557
 20
42.425201
 30
0.0
 11
177.452557
 21
42.425201
 31
0.0
  0
LINE
  5
9939
330
97FF
100
AcDbEntity
  8
1
  6
Continuous
100
AcDbLine
 10
180.452557
 20
41.576599
 30
0.0
 11
177.452557
 21
41.576599
 31
0.0
  0
LINE
  5
993A
330
97FF
100
AcDbEntity
  8
1
  6
Continuous
100
AcDbLine
 10
177.452557
 20
42.425201
 30
0.0
 11
177.452557
 21
41.576599
 31
0.0
  0
LINE
  5
993B
330
97FF
100
AcDbEntity
  8
1
  6
Continuous
100
AcDbLine
 10
177.452557
 20
56.541801
 30
0.0
 11
177.452557
 21
55.693298
 31
0.0
  0
LINE
  5
993C
330
97FF
100
AcDbEntity
  8
1
  6
Continuous
100
AcDbLine
 10
141.7859609999999
 20
61.559204
 30
0.0
 11
145.7859609999999
 21
61.559204
 31
0.0
  0
LINE
  5
993D
330
97FF
100
AcDbEntity
  8
1
  6
Continuous
100
AcDbLine
 10
148.452557
 20
61.559204
 30
0.0
 11
152.452557
 21
61.559204
 31
0.0
  0
LINE
  5
993E
330
97FF
100
AcDbEntity
  8
1
  6
Continuous
100
AcDbLine
 10
155.119259
 20
61.559204
 30
0.0
 11
159.119259
 21
61.559204
 31
0.0
  0
LINE
  5
993F
330
97FF
100
AcDbEntity
  8
1
  6
Continuous
100
AcDbLine
 10
19.95255299999999
 20
266.7720029999999
 30
0.0
 11
19.95255299999999
 21
258.877518
 31
0.0
  0
LINE
  5
9940
330
97FF
100
AcDbEntity
  8
1
  6
Continuous
100
AcDbLine
 10
22.95255299999999
 20
266.272003
 30
0.0
 11
22.95255299999999
 21
259.2720029999999
 31
0.0
  0
LINE
  5
9941
330
97FF
100
AcDbEntity
  8
1
  6
Continuous
100
AcDbLine
 10
25.45255299999999
 20
266.272003
 30
0.0
 11
25.45255299999999
 21
259.2720029999999
 31
0.0
  0
LINE
  5
9942
330
97FF
100
AcDbEntity
  8
1
  6
Continuous
100
AcDbLine
 10
40.952557
 20
267.2720029999999
 30
0.0
 11
47.652554
 21
267.2720029999999
 31
0.0
  0
LINE
  5
9943
330
97FF
100
AcDbEntity
  8
1
  6
Continuous
100
AcDbLine
 10
26.02285399999999
 20
250.7720029999999
 30
0.0
 11
30.285855
 21
250.7720029999999
 31
0.0
  0
LINE
  5
9944
330
97FF
100
AcDbEntity
  8
1
  6
Continuous
100
AcDbLine
 10
26.02285399999999
 20
274.7720339999998
 30
0.0
 11
30.285855
 21
274.7720339999998
 31
0.0
  0
LINE
  5
9945
330
97FF
100
AcDbEntity
  8
1
  6
Continuous
100
AcDbLine
 10
20.288441
 20
257.7681119999999
 30
0.0
 11
24.358813
 21
251.662628
 31
0.0
  0
LINE
  5
9946
330
97FF
100
AcDbEntity
  8
1
  6
Continuous
100
AcDbLine
 10
20.288454
 20
267.775818
 30
0.0
 11
24.358757
 21
273.8814089999999
 31
0.0
  0
LINE
  5
9947
330
97FF
100
AcDbEntity
  8
1
  6
Continuous
100
AcDbLine
 10
31.48585499999999
 20
251.172012
 30
0.0
 11
40.952557
 21
258.2720179999999
 31
0.0
  0
LINE
  5
9948
330
97FF
100
AcDbEntity
  8
1
  6
Continuous
100
AcDbLine
 10
31.485852
 20
274.3720399999999
 30
0.0
 11
40.952557
 21
267.2720339999999
 31
0.0
  0
LINE
  5
9949
330
97FF
100
AcDbEntity
  8
1
  6
Continuous
100
AcDbLine
 10
65.452557
 20
258.2720029999999
 30
0.0
 11
67.805561
 21
260.617905
 31
0.0
  0
LINE
  5
994A
330
97FF
100
AcDbEntity
  8
1
  6
Continuous
100
AcDbLine
 10
64.452557
 20
264.4720149999999
 30
0.0
 11
67.794651
 21
261.3366089999999
 31
0.0
  0
LINE
  5
994B
330
97FF
100
AcDbEntity
  8
1
  6
Continuous
100
AcDbLine
 10
47.952557
 20
266.9720149999998
 30
0.0
 11
47.952557
 21
264.4720149999999
 31
0.0
  0
LINE
  5
994C
330
97FF
100
AcDbEntity
  8
1
  6
Continuous
100
AcDbLine
 10
47.952557
 20
264.4720149999999
 30
0.0
 11
64.452557
 21
264.4720149999999
 31
0.0
  0
LINE
  5
994D
330
97FF
100
AcDbEntity
  8
1
  6
Continuous
100
AcDbLine
 10
40.952553
 20
266.0220339999999
 30
0.0
 11
30.885853
 21
273.572021
 31
0.0
  0
LINE
  5
994E
330
97FF
100
AcDbEntity
  8
1
  6
Continuous
100
AcDbLine
 10
30.285855
 20
273.7720339999999
 30
0.0
 11
26.02285399999999
 21
273.7720339999999
 31
0.0
  0
LINE
  5
994F
330
97FF
100
AcDbEntity
  8
1
  6
Continuous
100
AcDbLine
 10
25.190855
 20
273.326721
 30
0.0
 11
21.120449
 21
267.2210999999999
 31
0.0
  0
LINE
  5
9950
330
97FF
100
AcDbEntity
  8
1
  6
Continuous
100
AcDbLine
 10
20.95255299999999
 20
266.7720029999999
 30
0.0
 11
20.95255299999999
 21
258.877518
 31
0.0
  0
LINE
  5
9951
330
97FF
100
AcDbEntity
  8
1
  6
Continuous
100
AcDbLine
 10
26.02285399999999
 20
251.7720029999999
 30
0.0
 11
30.285855
 21
251.7720029999999
 31
0.0
  0
LINE
  5
9952
330
97FF
100
AcDbEntity
  8
1
  6
Continuous
100
AcDbLine
 10
30.885861
 20
251.9720149999999
 30
0.0
 11
40.952557
 21
259.522018
 31
0.0
  0
LINE
  5
9953
330
97FF
100
AcDbEntity
  8
1
  6
Continuous
100
AcDbLine
 10
40.952557
 20
266.022003
 30
0.0
 11
40.952557
 21
259.5220029999999
 31
0.0
  0
LINE
  5
9954
330
97FF
100
AcDbEntity
  8
1
  6
Continuous
100
AcDbLine
 10
65.452557
 20
258.2720029999999
 30
0.0
 11
40.952557
 21
258.2720029999999
 31
0.0
  0
LINE
  5
9955
330
97FF
100
AcDbEntity
  8
1
  6
Continuous
100
AcDbLine
 10
67.794651
 20
261.2720029999999
 30
0.0
 11
43.95255699999998
 21
261.2720029999999
 31
0.0
  0
LINE
  5
9956
330
97FF
100
AcDbEntity
  8
1
  6
Continuous
100
AcDbLine
 10
43.95255699999998
 20
265.7720029999999
 30
0.0
 11
47.952557
 21
265.7720029999999
 31
0.0
  0
LINE
  5
9957
330
97FF
100
AcDbEntity
  8
1
  6
Continuous
100
AcDbLine
 10
43.95255699999998
 20
265.7720029999999
 30
0.0
 11
43.95255699999998
 21
261.2720029999999
 31
0.0
  0
LINE
  5
9958
330
97FF
100
AcDbEntity
  8
1
  6
Continuous
100
AcDbLine
 10
21.120453
 20
258.3228299999999
 30
0.0
 11
25.19085
 21
252.2173309999999
 31
0.0
  0
LINE
  5
9959
330
97FF
100
AcDbEntity
  8
1
  6
Continuous
100
AcDbLine
 10
23.45255299999999
 20
266.7720029999999
 30
0.0
 11
25.043755
 21
266.7720029999999
 31
0.0
  0
LINE
  5
995A
330
97FF
100
AcDbEntity
  8
4
  6
CENTER
100
AcDbLine
 10
16.826147
 20
262.7720029999999
 30
0.0
 11
70.64255199999998
 21
262.7720029999999
 31
0.0
  0
LINE
  5
995B
330
97FF
100
AcDbEntity
  8
1
  6
Continuous
100
AcDbLine
 10
23.45255299999999
 20
258.7720029999999
 30
0.0
 11
25.043755
 21
258.7720029999999
 31
0.0
  0
LINE
  5
995C
330
97FF
100
AcDbEntity
  8
1
  6
Continuous
100
AcDbLine
 10
137.952557
 20
235.7720029999999
 30
0.0
 11
137.952557
 21
275.7720029999999
 31
0.0
  0
LINE
  5
995D
330
97FF
100
AcDbEntity
  8
1
  6
Continuous
100
AcDbLine
 10
139.452557
 20
235.7720029999999
 30
0.0
 11
139.452557
 21
242.2720029999999
 31
0.0
  0
LINE
  5
995E
330
97FF
100
AcDbEntity
  8
1
  6
Continuous
100
AcDbLine
 10
161.452557
 20
235.7720029999999
 30
0.0
 11
161.452557
 21
242.2720029999999
 31
0.0
  0
LINE
  5
995F
330
97FF
100
AcDbEntity
  8
1
  6
Continuous
100
AcDbLine
 10
162.952557
 20
235.7720029999999
 30
0.0
 11
162.952557
 21
275.7720029999999
 31
0.0
  0
LINE
  5
9960
330
97FF
100
AcDbEntity
  8
1
  6
Continuous
100
AcDbLine
 10
137.952557
 20
275.7720029999999
 30
0.0
 11
139.452557
 21
275.7720029999999
 31
0.0
  0
LINE
  5
9961
330
97FF
100
AcDbEntity
  8
1
  6
Continuous
100
AcDbLine
 10
161.452557
 20
275.7720029999999
 30
0.0
 11
162.952557
 21
275.7720029999999
 31
0.0
  0
LINE
  5
9962
330
97FF
100
AcDbEntity
  8
1
  6
Continuous
100
AcDbLine
 10
137.952557
 20
249.7720029999999
 30
0.0
 11
162.952557
 21
249.7720029999999
 31
0.0
  0
LINE
  5
9963
330
97FF
100
AcDbEntity
  8
1
  6
Continuous
100
AcDbLine
 10
122.452557
 20
249.7720029999999
 30
0.0
 11
122.452557
 21
275.7720029999999
 31
0.0
  0
LINE
  5
9964
330
97FF
100
AcDbEntity
  8
1
  6
Continuous
100
AcDbLine
 10
121.452557
 20
249.7720029999999
 30
0.0
 11
121.452557
 21
275.7720029999999
 31
0.0
  0
LINE
  5
9965
330
97FF
100
AcDbEntity
  8
1
  6
Continuous
100
AcDbLine
 10
122.452557
 20
249.7720029999999
 30
0.0
 11
121.452557
 21
249.7720029999999
 31
0.0
  0
LINE
  5
9966
330
97FF
100
AcDbEntity
  8
1
  6
Continuous
100
AcDbLine
 10
121.452557
 20
275.7720029999999
 30
0.0
 11
122.452557
 21
275.7720029999999
 31
0.0
  0
LINE
  5
9967
330
97FF
100
AcDbEntity
  8
1
  6
Continuous
100
AcDbLine
 10
94.45255700000002
 20
250.7720029999999
 30
0.0
 11
94.45255700000002
 21
274.7720029999999
 31
0.0
  0
LINE
  5
9968
330
97FF
100
AcDbEntity
  8
1
  6
Continuous
100
AcDbLine
 10
98.45255700000002
 20
250.7720029999999
 30
0.0
 11
98.45255700000002
 21
274.7720029999999
 31
0.0
  0
LINE
  5
9969
330
97FF
100
AcDbEntity
  8
4
  6
CENTER
100
AcDbLine
 10
90.968785
 20
262.7720029999999
 30
0.0
 11
102.319103
 21
262.7720029999999
 31
0.0
  0
LINE
  5
996A
330
97FF
100
AcDbEntity
  8
1
  6
Continuous
100
AcDbLine
 10
94.45255700000002
 20
262.7720029999999
 30
0.0
 11
98.45255700000002
 21
262.7720029999999
 31
0.0
  0
LINE
  5
996B
330
97FF
100
AcDbEntity
  8
1
  6
Continuous
100
AcDbLine
 10
94.45255700000002
 20
274.7720029999999
 30
0.0
 11
98.45255700000002
 21
274.7720029999999
 31
0.0
  0
LINE
  5
996C
330
97FF
100
AcDbEntity
  8
1
  6
Continuous
100
AcDbLine
 10
94.45255700000002
 20
250.7720029999999
 30
0.0
 11
98.45255700000002
 21
250.7720029999999
 31
0.0
  0
LINE
  5
996D
330
97FF
100
AcDbEntity
  8
1
  6
Continuous
100
AcDbLine
 10
136.452557
 20
252.7720029999999
 30
0.0
 11
136.452557
 21
272.7720029999999
 31
0.0
  0
LINE
  5
996E
330
97FF
100
AcDbEntity
  8
1
  6
Continuous
100
AcDbLine
 10
122.452557
 20
271.7720029999999
 30
0.0
 11
130.452557
 21
271.7720029999999
 31
0.0
  0
LINE
  5
996F
330
97FF
100
AcDbEntity
  8
1
  6
Continuous
100
AcDbLine
 10
122.452557
 20
253.772003
 30
0.0
 11
130.452557
 21
253.772003
 31
0.0
  0
LINE
  5
9970
330
97FF
100
AcDbEntity
  8
1
  6
Continuous
100
AcDbLine
 10
130.452557
 20
271.7720029999999
 30
0.0
 11
130.452557
 21
272.7720029999999
 31
0.0
  0
LINE
  5
9971
330
97FF
100
AcDbEntity
  8
1
  6
Continuous
100
AcDbLine
 10
130.452557
 20
252.7720029999999
 30
0.0
 11
130.452557
 21
253.772003
 31
0.0
  0
LINE
  5
9972
330
97FF
100
AcDbEntity
  8
1
  6
Continuous
100
AcDbLine
 10
130.452557
 20
252.7720029999999
 30
0.0
 11
137.952557
 21
252.7720029999999
 31
0.0
  0
LINE
  5
9973
330
97FF
100
AcDbEntity
  8
1
  6
Continuous
100
AcDbLine
 10
130.452557
 20
272.7720029999999
 30
0.0
 11
137.952557
 21
272.7720029999999
 31
0.0
  0
LINE
  5
9974
330
97FF
100
AcDbEntity
  8
1
  6
Continuous
100
AcDbLine
 10
139.452557
 20
252.7720029999999
 30
0.0
 11
161.452557
 21
252.7720029999999
 31
0.0
  0
LINE
  5
9975
330
97FF
100
AcDbEntity
  8
1
  6
Continuous
100
AcDbLine
 10
168.452557
 20
252.7720029999999
 30
0.0
 11
182.452557
 21
252.7720029999999
 31
0.0
  0
LINE
  5
9976
330
97FF
100
AcDbEntity
  8
1
  6
Continuous
100
AcDbLine
 10
139.452557
 20
272.7720029999999
 30
0.0
 11
161.452557
 21
272.7720029999999
 31
0.0
  0
LINE
  5
9977
330
97FF
100
AcDbEntity
  8
1
  6
Continuous
100
AcDbLine
 10
162.952557
 20
272.7720029999999
 30
0.0
 11
182.452557
 21
272.7720029999999
 31
0.0
  0
LINE
  5
9978
330
97FF
100
AcDbEntity
  8
1
  6
Continuous
100
AcDbLine
 10
182.452557
 20
252.7720029999999
 30
0.0
 11
182.452557
 21
272.7720029999999
 31
0.0
  0
LINE
  5
9979
330
97FF
100
AcDbEntity
  8
1
  6
Continuous
100
AcDbLine
 10
180.452557
 20
252.7720029999999
 30
0.0
 11
180.452557
 21
272.7720029999999
 31
0.0
  0
LINE
  5
997A
330
97FF
100
AcDbEntity
  8
1
  6
Continuous
100
AcDbLine
 10
140.452557
 20
239.2720029999999
 30
0.0
 11
160.452557
 21
239.2720029999999
 31
0.0
  0
LINE
  5
997B
330
97FF
100
AcDbEntity
  8
1
  6
Continuous
100
AcDbLine
 10
158.619259
 20
239.2720029999999
 30
0.0
 11
158.619259
 21
235.7720029999999
 31
0.0
  0
LINE
  5
997C
330
97FF
100
AcDbEntity
  8
1
  6
Continuous
100
AcDbLine
 10
155.619259
 20
239.2720029999999
 30
0.0
 11
155.619259
 21
235.7720029999999
 31
0.0
  0
LINE
  5
997D
330
97FF
100
AcDbEntity
  8
1
  6
Continuous
100
AcDbLine
 10
151.952557
 20
239.2720029999999
 30
0.0
 11
151.952557
 21
235.7720029999999
 31
0.0
  0
LINE
  5
997E
330
97FF
100
AcDbEntity
  8
1
  6
Continuous
100
AcDbLine
 10
148.952557
 20
239.2720029999999
 30
0.0
 11
148.952557
 21
235.7720029999999
 31
0.0
  0
LINE
  5
997F
330
97FF
100
AcDbEntity
  8
1
  6
Continuous
100
AcDbLine
 10
145.2859609999999
 20
239.2720029999999
 30
0.0
 11
145.2859609999999
 21
235.7720029999999
 31
0.0
  0
LINE
  5
9980
330
97FF
100
AcDbEntity
  8
1
  6
Continuous
100
AcDbLine
 10
142.2859609999999
 20
239.2720029999999
 30
0.0
 11
142.2859609999999
 21
235.7720029999999
 31
0.0
  0
LINE
  5
9981
330
97FF
100
AcDbEntity
  8
1
  6
Continuous
100
AcDbLine
 10
142.2859609999999
 20
235.7720029999999
 30
0.0
 11
145.2859609999999
 21
235.7720029999999
 31
0.0
  0
LINE
  5
9982
330
97FF
100
AcDbEntity
  8
1
  6
Continuous
100
AcDbLine
 10
148.952557
 20
235.7720029999999
 30
0.0
 11
151.952557
 21
235.7720029999999
 31
0.0
  0
LINE
  5
9983
330
97FF
100
AcDbEntity
  8
1
  6
Continuous
100
AcDbLine
 10
155.619259
 20
235.7720029999999
 30
0.0
 11
158.619259
 21
235.7720029999999
 31
0.0
  0
LINE
  5
9984
330
97FF
100
AcDbEntity
  8
4
  6
CENTER
100
AcDbLine
 10
159.619259
 20
237.2720029999999
 30
0.0
 11
154.6192589999998
 21
237.2720029999999
 31
0.0
  0
LINE
  5
9985
330
97FF
100
AcDbEntity
  8
4
  6
CENTER
100
AcDbLine
 10
157.119259
 20
234.772003
 30
0.0
 11
157.119259
 21
239.7720029999999
 31
0.0
  0
LINE
  5
9986
330
97FF
100
AcDbEntity
  8
4
  6
CENTER
100
AcDbLine
 10
152.952557
 20
237.2720029999999
 30
0.0
 11
147.952557
 21
237.2720029999999
 31
0.0
  0
LINE
  5
9987
330
97FF
100
AcDbEntity
  8
4
  6
CENTER
100
AcDbLine
 10
150.452557
 20
234.772003
 30
0.0
 11
150.452557
 21
239.7720029999999
 31
0.0
  0
LINE
  5
9988
330
97FF
100
AcDbEntity
  8
4
  6
CENTER
100
AcDbLine
 10
146.2859609999999
 20
237.2720029999999
 30
0.0
 11
141.2859609999999
 21
237.2720029999999
 31
0.0
  0
LINE
  5
9989
330
97FF
100
AcDbEntity
  8
4
  6
CENTER
100
AcDbLine
 10
143.7859609999999
 20
234.772003
 30
0.0
 11
143.7859609999999
 21
239.7720029999999
 31
0.0
  0
LINE
  5
998A
330
97FF
100
AcDbEntity
  8
1
  6
Continuous
100
AcDbLine
 10
137.952557
 20
235.7720029999999
 30
0.0
 11
140.452557
 21
235.7720029999999
 31
0.0
  0
LINE
  5
998B
330
97FF
100
AcDbEntity
  8
1
  6
Continuous
100
AcDbLine
 10
160.452557
 20
235.7720029999999
 30
0.0
 11
162.952557
 21
235.7720029999999
 31
0.0
  0
LINE
  5
998C
330
97FF
100
AcDbEntity
  8
1
  6
Continuous
100
AcDbLine
 10
162.952557
 20
244.5720059999999
 30
0.0
 11
164.0525479999998
 21
244.5720059999999
 31
0.0
  0
LINE
  5
998D
330
97FF
100
AcDbEntity
  8
1
  6
Continuous
100
AcDbLine
 10
162.952557
 20
239.972
 30
0.0
 11
164.0525479999998
 21
239.972
 31
0.0
  0
LINE
  5
998E
330
97FF
100
AcDbEntity
  8
1
  6
Continuous
100
AcDbLine
 10
163.452557
 20
244.5720059999999
 30
0.0
 11
163.452557
 21
239.972
 31
0.0
  0
LINE
  5
998F
330
97FF
100
AcDbEntity
  8
1
  6
Continuous
100
AcDbLine
 10
164.0525479999998
 20
244.5720059999999
 30
0.0
 11
164.0525479999998
 21
239.972
 31
0.0
  0
LINE
  5
9990
330
97FF
100
AcDbEntity
  8
1
  6
Continuous
100
AcDbLine
 10
164.0525479999998
 20
240.2720029999999
 30
0.0
 11
164.6513479999998
 21
240.2720029999999
 31
0.0
  0
LINE
  5
9991
330
97FF
100
AcDbEntity
  8
1
  6
Continuous
100
AcDbLine
 10
164.0525479999998
 20
244.2720029999999
 30
0.0
 11
164.6513479999998
 21
244.2720029999999
 31
0.0
  0
LINE
  5
9992
330
97FF
100
AcDbEntity
  8
1
  6
Continuous
100
AcDbLine
 10
134.0525479999998
 20
243.422012
 30
0.0
 11
134.0525479999998
 21
241.122009
 31
0.0
  0
LINE
  5
9993
330
97FF
100
AcDbEntity
  8
1
  6
Continuous
100
AcDbLine
 10
136.152554
 20
244.5220029999999
 30
0.0
 11
136.152554
 21
240.0220029999999
 31
0.0
  0
LINE
  5
9994
330
97FF
100
AcDbEntity
  8
1
  6
Continuous
100
AcDbLine
 10
134.0525479999998
 20
243.422012
 30
0.0
 11
136.152554
 21
243.422012
 31
0.0
  0
LINE
  5
9995
330
97FF
100
AcDbEntity
  8
1
  6
Continuous
100
AcDbLine
 10
134.0525479999998
 20
241.122009
 30
0.0
 11
136.152554
 21
241.122009
 31
0.0
  0
LINE
  5
9996
330
97FF
100
AcDbEntity
  8
1
  6
Continuous
100
AcDbLine
 10
137.952557
 20
242.2720029999999
 30
0.0
 11
136.152554
 21
242.2720029999999
 31
0.0
  0
LINE
  5
9997
330
97FF
100
AcDbEntity
  8
1
  6
Continuous
100
AcDbLine
 10
137.952557
 20
244.5220029999999
 30
0.0
 11
136.152554
 21
244.5220029999999
 31
0.0
  0
LINE
  5
9998
330
97FF
100
AcDbEntity
  8
1
  6
Continuous
100
AcDbLine
 10
137.952557
 20
240.0220029999999
 30
0.0
 11
136.152554
 21
240.0220029999999
 31
0.0
  0
LINE
  5
9999
330
97FF
100
AcDbEntity
  8
4
  6
CENTER
100
AcDbLine
 10
167.1576809999999
 20
242.2720029999999
 30
0.0
 11
132.206936
 21
242.2720029999999
 31
0.0
  0
LINE
  5
999A
330
97FF
100
AcDbEntity
  8
1
  6
Continuous
100
AcDbLine
 10
141.7859609999999
 20
251.7720029999999
 30
0.0
 11
141.7859609999999
 21
252.2720029999999
 31
0.0
  0
LINE
  5
999B
330
97FF
100
AcDbEntity
  8
1
  6
Continuous
100
AcDbLine
 10
145.7859609999999
 20
251.7720029999999
 30
0.0
 11
145.7859609999999
 21
252.2720029999999
 31
0.0
  0
LINE
  5
999C
330
97FF
100
AcDbEntity
  8
1
  6
Continuous
100
AcDbLine
 10
148.452557
 20
251.7720029999999
 30
0.0
 11
148.452557
 21
252.2720029999999
 31
0.0
  0
LINE
  5
999D
330
97FF
100
AcDbEntity
  8
1
  6
Continuous
100
AcDbLine
 10
152.452557
 20
251.7720029999999
 30
0.0
 11
152.452557
 21
252.2720029999999
 31
0.0
  0
LINE
  5
999E
330
97FF
100
AcDbEntity
  8
1
  6
Continuous
100
AcDbLine
 10
160.452557
 20
251.7720029999999
 30
0.0
 11
160.452557
 21
249.7720029999999
 31
0.0
  0
LINE
  5
999F
330
97FF
100
AcDbEntity
  8
1
  6
Continuous
100
AcDbLine
 10
140.452557
 20
251.7720029999999
 30
0.0
 11
160.452557
 21
251.7720029999999
 31
0.0
  0
LINE
  5
99A0
330
97FF
100
AcDbEntity
  8
1
  6
Continuous
100
AcDbLine
 10
141.7859609999999
 20
252.2720029999999
 30
0.0
 11
145.7859609999999
 21
252.2720029999999
 31
0.0
  0
LINE
  5
99A1
330
97FF
100
AcDbEntity
  8
1
  6
Continuous
100
AcDbLine
 10
148.452557
 20
252.2720029999999
 30
0.0
 11
152.452557
 21
252.2720029999999
 31
0.0
  0
LINE
  5
99A2
330
97FF
100
AcDbEntity
  8
1
  6
Continuous
100
AcDbLine
 10
155.119259
 20
252.2720029999999
 30
0.0
 11
159.119259
 21
252.2720029999999
 31
0.0
  0
LINE
  5
99A3
330
97FF
100
AcDbEntity
  8
1
  6
Continuous
100
AcDbLine
 10
142.035961
 20
252.2720029999999
 30
0.0
 11
142.035961
 21
252.7720029999999
 31
0.0
  0
LINE
  5
99A4
330
97FF
100
AcDbEntity
  8
1
  6
Continuous
100
AcDbLine
 10
145.5359609999999
 20
252.2720029999999
 30
0.0
 11
145.5359609999999
 21
252.7720029999999
 31
0.0
  0
LINE
  5
99A5
330
97FF
100
AcDbEntity
  8
1
  6
Continuous
100
AcDbLine
 10
148.702557
 20
252.2720029999999
 30
0.0
 11
148.702557
 21
252.7720029999999
 31
0.0
  0
LINE
  5
99A6
330
97FF
100
AcDbEntity
  8
1
  6
Continuous
100
AcDbLine
 10
152.202557
 20
252.2720029999999
 30
0.0
 11
152.202557
 21
252.7720029999999
 31
0.0
  0
LINE
  5
99A7
330
97FF
100
AcDbEntity
  8
1
  6
Continuous
100
AcDbLine
 10
155.3692589999998
 20
252.2720029999999
 30
0.0
 11
155.3692589999998
 21
252.7720029999999
 31
0.0
  0
LINE
  5
99A8
330
97FF
100
AcDbEntity
  8
1
  6
Continuous
100
AcDbLine
 10
158.8692589999998
 20
252.2720029999999
 30
0.0
 11
158.8692589999998
 21
252.7720029999999
 31
0.0
  0
LINE
  5
99A9
330
97FF
100
AcDbEntity
  8
1
  6
Continuous
100
AcDbLine
 10
168.452557
 20
252.7720029999999
 30
0.0
 11
168.452557
 21
255.700897
 31
0.0
  0
LINE
  5
99AA
330
97FF
100
AcDbEntity
  8
1
  6
Continuous
100
AcDbLine
 10
180.452557
 20
255.2893979999999
 30
0.0
 11
177.452557
 21
255.2893979999999
 31
0.0
  0
LINE
  5
99AB
330
97FF
100
AcDbEntity
  8
1
  6
Continuous
100
AcDbLine
 10
168.452557
 20
255.700897
 30
0.0
 11
162.952557
 21
255.700897
 31
0.0
  0
LINE
  5
99AC
330
97FF
100
AcDbEntity
  8
1
  6
Continuous
100
AcDbLine
 10
180.452557
 20
256.1379089999999
 30
0.0
 11
177.452557
 21
256.1379089999999
 31
0.0
  0
LINE
  5
99AD
330
97FF
100
AcDbEntity
  8
1
  6
Continuous
100
AcDbLine
 10
180.452557
 20
269.4060059999998
 30
0.0
 11
177.452557
 21
269.4060059999998
 31
0.0
  0
LINE
  5
99AE
330
97FF
100
AcDbEntity
  8
1
  6
Continuous
100
AcDbLine
 10
180.452557
 20
270.254608
 30
0.0
 11
177.452557
 21
270.254608
 31
0.0
  0
LINE
  5
99AF
330
97FF
100
AcDbEntity
  8
1
  6
Continuous
100
AcDbLine
 10
177.452557
 20
269.4060059999998
 30
0.0
 11
177.452557
 21
270.254608
 31
0.0
  0
LINE
  5
99B0
330
97FF
100
AcDbEntity
  8
1
  6
Continuous
100
AcDbLine
 10
177.452557
 20
255.2893979999999
 30
0.0
 11
177.452557
 21
256.1379089999999
 31
0.0
  0
LINE
  5
99B1
330
97FF
100
AcDbEntity
  8
1
  6
Continuous
100
AcDbLine
 10
272.7826499999998
 20
158.8078919999998
 30
0.0
 11
274.4525419999998
 21
157.843796
 31
0.0
  0
LINE
  5
99B2
330
97FF
100
AcDbEntity
  8
1
  6
Continuous
100
AcDbLine
 10
260.7826499999998
 20
138.0233
 30
0.0
 11
262.4525719999999
 21
137.059189
 31
0.0
  0
LINE
  5
99B3
330
97FF
100
AcDbEntity
  8
1
  6
Continuous
100
AcDbLine
 10
252.122341
 20
143.0233
 30
0.0
 11
250.4525569999999
 21
143.9873959999999
 31
0.0
  0
LINE
  5
99B4
330
97FF
100
AcDbEntity
  8
1
  6
Continuous
100
AcDbLine
 10
264.1223719999999
 20
138.0233
 30
0.0
 11
262.4525719999999
 21
137.059204
 31
0.0
  0
LINE
  5
99B5
330
97FF
100
AcDbEntity
  8
1
  6
Continuous
100
AcDbLine
 10
272.782681
 20
143.023315
 30
0.0
 11
274.4525719999999
 21
143.987411
 31
0.0
  0
LINE
  5
99B6
330
97FF
100
AcDbEntity
  8
1
  6
Continuous
100
AcDbLine
 10
250.4525569999999
 20
145.915604
 30
0.0
 11
250.4525569999999
 21
143.9873959999999
 31
0.0
  0
LINE
  5
99B7
330
97FF
100
AcDbEntity
  8
1
  6
Continuous
100
AcDbLine
 10
274.4525719999999
 20
145.915604
 30
0.0
 11
274.4525719999999
 21
143.9873959999999
 31
0.0
  0
LINE
  5
99B8
330
97FF
100
AcDbEntity
  8
1
  6
Continuous
100
AcDbLine
 10
274.4525719999999
 20
157.843796
 30
0.0
 11
274.4525719999999
 21
155.9156039999998
 31
0.0
  0
LINE
  5
99B9
330
97FF
100
AcDbEntity
  8
1
  6
Continuous
100
AcDbLine
 10
235.4525569999999
 20
152.415604
 30
0.0
 11
235.4525569999999
 21
169.415604
 31
0.0
  0
LINE
  5
99BA
330
97FF
100
AcDbEntity
  8
1
  6
Continuous
100
AcDbLine
 10
236.9525569999999
 20
170.915604
 30
0.0
 11
241.9525569999999
 21
170.915604
 31
0.0
  0
LINE
  5
99BB
330
97FF
100
AcDbEntity
  8
1
  6
Continuous
100
AcDbLine
 10
241.9525569999999
 20
170.915604
 30
0.0
 11
241.9525569999999
 21
172.415604
 31
0.0
  0
LINE
  5
99BC
330
97FF
100
AcDbEntity
  8
1
  6
Continuous
100
AcDbLine
 10
251.452572
 20
170.915604
 30
0.0
 11
251.452572
 21
172.415604
 31
0.0
  0
LINE
  5
99BD
330
97FF
100
AcDbEntity
  8
1
  6
Continuous
100
AcDbLine
 10
251.452572
 20
172.415604
 30
0.0
 11
241.9525569999999
 21
172.415604
 31
0.0
  0
LINE
  5
99BE
330
97FF
100
AcDbEntity
  8
1
  6
Continuous
100
AcDbLine
 10
268.2472799999998
 20
162.552658
 30
0.0
 11
251.452572
 21
170.915604
 31
0.0
  0
LINE
  5
99BF
330
97FF
100
AcDbEntity
  8
4
  6
CENTER
100
AcDbLine
 10
249.4525569999999
 20
150.915604
 30
0.0
 11
278.6012839999999
 21
150.915604
 31
0.0
  0
LINE
  5
99C0
330
97FF
100
AcDbEntity
  8
4
  6
CENTER
100
AcDbLine
 10
262.4525719999999
 20
167.2844389999999
 30
0.0
 11
262.4525719999999
 21
134.4070279999999
 31
0.0
  0
LINE
  5
99C1
330
97FF
100
AcDbEntity
  8
1
  6
Continuous
100
AcDbLine
 10
236.9525569999999
 20
150.915604
 30
0.0
 11
249.452572
 21
150.915604
 31
0.0
  0
LINE
  5
99C2
330
97FF
100
AcDbEntity
  8
4
  6
CENTER
100
AcDbLine
 10
238.2025569999999
 20
155.9156039999998
 30
0.0
 11
245.7025569999999
 21
155.9156039999998
 31
0.0
  0
LINE
  5
99C3
330
97FF
100
AcDbEntity
  8
4
  6
CENTER
100
AcDbLine
 10
241.9525569999999
 20
159.665604
 30
0.0
 11
241.9525569999999
 21
152.165604
 31
0.0
  0
LINE
  5
99C4
330
97FF
100
AcDbEntity
  8
4
  6
CENTER
100
AcDbLine
 10
238.2025569999999
 20
165.415604
 30
0.0
 11
245.7025569999999
 21
165.415604
 31
0.0
  0
LINE
  5
99C5
330
97FF
100
AcDbEntity
  8
4
  6
CENTER
100
AcDbLine
 10
241.9525569999999
 20
169.1656039999998
 30
0.0
 11
241.9525569999999
 21
161.665604
 31
0.0
  0
LINE
  5
99C6
330
97FF
100
AcDbEntity
  8
4
  6
CENTER
100
AcDbLine
 10
113.395062
 20
49.059196
 30
0.0
 11
186.879513
 21
49.059196
 31
0.0
  0
LINE
  5
99C7
330
97FF
100
AcDbEntity
  8
4
  6
CENTER
100
AcDbLine
 10
112.7402379999999
 20
262.7720029999999
 30
0.0
 11
186.879513
 21
262.7720029999999
 31
0.0
  0
LINE
  5
99C8
330
97FF
100
AcDbEntity
  8
2
  6
Continuous
100
AcDbLine
 10
122.452557
 20
160.3741
 30
0.0
 11
136.452557
 21
160.3741
 31
0.0
  0
LINE
  5
99C9
330
97FF
100
AcDbEntity
  8
2
  6
Continuous
100
AcDbLine
 10
122.452557
 20
141.4571079999998
 30
0.0
 11
136.452557
 21
141.4571079999998
 31
0.0
  0
LINE
  5
99CA
330
97FF
100
AcDbEntity
  8
2
  6
Continuous
100
AcDbLine
 10
136.452557
 20
253.3135069999999
 30
0.0
 11
137.390469
 21
252.7720029999999
 31
0.0
  0
LINE
  5
99CB
330
97FF
100
AcDbEntity
  8
2
  6
Continuous
100
AcDbLine
 10
136.452557
 20
272.230499
 30
0.0
 11
137.390454
 21
272.7720029999999
 31
0.0
  0
LINE
  5
99CC
330
97FF
100
AcDbEntity
  8
2
  6
Continuous
100
AcDbLine
 10
130.452557
 20
272.230499
 30
0.0
 11
136.452557
 21
272.230499
 31
0.0
  0
LINE
  5
99CD
330
97FF
100
AcDbEntity
  8
2
  6
Continuous
100
AcDbLine
 10
130.452557
 20
253.3135069999999
 30
0.0
 11
136.452557
 21
253.3135069999999
 31
0.0
  0
LINE
  5
99CE
330
97FF
100
AcDbEntity
  8
2
  6
Continuous
100
AcDbLine
 10
136.452557
 20
141.4570919999998
 30
0.0
 11
137.390454
 21
140.915604
 31
0.0
  0
LINE
  5
99CF
330
97FF
100
AcDbEntity
  8
2
  6
Continuous
100
AcDbLine
 10
136.452557
 20
160.3741
 30
0.0
 11
137.390469
 21
160.915604
 31
0.0
  0
LINE
  5
99D0
330
97FF
100
AcDbEntity
  8
2
  6
Continuous
100
AcDbLine
 10
130.452557
 20
39.600704
 30
0.0
 11
136.452557
 21
39.600704
 31
0.0
  0
LINE
  5
99D1
330
97FF
100
AcDbEntity
  8
2
  6
Continuous
100
AcDbLine
 10
136.452557
 20
39.600704
 30
0.0
 11
137.390469
 21
39.059204
 31
0.0
  0
LINE
  5
99D2
330
97FF
100
AcDbEntity
  8
2
  6
Continuous
100
AcDbLine
 10
136.452557
 20
58.517708
 30
0.0
 11
137.390454
 21
59.059204
 31
0.0
  0
LINE
  5
99D3
330
97FF
100
AcDbEntity
  8
2
  6
Continuous
100
AcDbLine
 10
130.452557
 20
58.517704
 30
0.0
 11
136.452557
 21
58.517704
 31
0.0
  0
LINE
  5
99D4
330
97FF
100
AcDbEntity
  8
1
  6
Continuous
100
AcDbLine
 10
137.952557
 20
242.2720029999999
 30
0.0
 11
162.952557
 21
242.2720029999999
 31
0.0
  0
LINE
  5
99D5
330
97FF
100
AcDbEntity
  8
1
  6
Continuous
100
AcDbLine
 10
140.452557
 20
242.2720029999999
 30
0.0
 11
140.452557
 21
235.7720029999999
 31
0.0
  0
LINE
  5
99D6
330
97FF
100
AcDbEntity
  8
1
  6
Continuous
100
AcDbLine
 10
139.452557
 20
249.7720029999999
 30
0.0
 11
139.452557
 21
275.7720029999999
 31
0.0
  0
LINE
  5
99D7
330
97FF
100
AcDbEntity
  8
1
  6
Continuous
100
AcDbLine
 10
147.119259
 20
242.2720029999999
 30
0.0
 11
147.119259
 21
235.7720029999999
 31
0.0
  0
LINE
  5
99D8
330
97FF
100
AcDbEntity
  8
1
  6
Continuous
100
AcDbLine
 10
153.7859609999999
 20
242.2720029999999
 30
0.0
 11
153.7859609999999
 21
235.7720029999999
 31
0.0
  0
LINE
  5
99D9
330
97FF
100
AcDbEntity
  8
1
  6
Continuous
100
AcDbLine
 10
160.452557
 20
242.2720029999999
 30
0.0
 11
160.452557
 21
235.7720029999999
 31
0.0
  0
LINE
  5
99DA
330
97FF
100
AcDbEntity
  8
1
  6
Continuous
100
AcDbLine
 10
161.452557
 20
249.7720029999999
 30
0.0
 11
161.452557
 21
275.7720029999999
 31
0.0
  0
LINE
  5
99DB
330
97FF
100
AcDbEntity
  8
1
  6
Continuous
100
AcDbLine
 10
140.452557
 20
251.7720029999999
 30
0.0
 11
140.452557
 21
249.7720029999999
 31
0.0
  0
LINE
  5
99DC
330
97FF
100
AcDbEntity
  8
2
  6
Continuous
100
AcDbLine
 10
136.152554
 20
68.625702
 30
0.0
 11
134.0525479999998
 21
68.625702
 31
0.0
  0
LINE
  5
99DD
330
97FF
100
AcDbEntity
  8
2
  6
Continuous
100
AcDbLine
 10
136.152554
 20
70.49270600000001
 30
0.0
 11
134.0525479999998
 21
70.49270600000001
 31
0.0
  0
LINE
  5
99DE
330
97FF
100
AcDbEntity
  8
1
  6
Continuous
100
AcDbLine
 10
163.452557
 20
242.272018
 30
0.0
 11
164.0525479999998
 21
242.618423
 31
0.0
  0
LINE
  5
99DF
330
97FF
100
AcDbEntity
  8
1
  6
Continuous
100
AcDbLine
 10
163.452557
 20
241.9255979999999
 30
0.0
 11
164.0525479999998
 21
242.2720029999999
 31
0.0
  0
LINE
  5
99E0
330
97FF
100
AcDbEntity
  8
1
  6
Continuous
100
AcDbLine
 10
163.452557
 20
155.9156039999998
 30
0.0
 11
164.0525479999998
 21
156.262009
 31
0.0
  0
LINE
  5
99E1
330
97FF
100
AcDbEntity
  8
1
  6
Continuous
100
AcDbLine
 10
163.452557
 20
155.5691989999999
 30
0.0
 11
164.0525479999998
 21
155.9156039999998
 31
0.0
  0
LINE
  5
99E2
330
97FF
100
AcDbEntity
  8
1
  6
Continuous
100
AcDbLine
 10
163.452557
 20
165.415604
 30
0.0
 11
164.0525479999998
 21
165.7620089999998
 31
0.0
  0
LINE
  5
99E3
330
97FF
100
AcDbEntity
  8
1
  6
Continuous
100
AcDbLine
 10
163.452557
 20
165.069199
 30
0.0
 11
164.0525479999998
 21
165.415604
 31
0.0
  0
LINE
  5
99E4
330
97FF
100
AcDbEntity
  8
1
  6
Continuous
100
AcDbLine
 10
163.452557
 20
69.55920400000001
 30
0.0
 11
164.0525479999998
 21
69.905609
 31
0.0
  0
LINE
  5
99E5
330
97FF
100
AcDbEntity
  8
1
  6
Continuous
100
AcDbLine
 10
163.452557
 20
69.212799
 30
0.0
 11
164.0525479999998
 21
69.55920400000001
 31
0.0
  0
LINE
  5
99E6
330
97FF
100
AcDbEntity
  8
2
  6
Continuous
100
AcDbLine
 10
136.152554
 20
243.2055049999999
 30
0.0
 11
134.0525479999998
 21
243.2055049999999
 31
0.0
  0
LINE
  5
99E7
330
97FF
100
AcDbEntity
  8
2
  6
Continuous
100
AcDbLine
 10
136.152554
 20
241.3385009999998
 30
0.0
 11
134.0525479999998
 21
241.3385009999998
 31
0.0
  0
LINE
  5
99E8
330
97FF
100
AcDbEntity
  8
2
  6
Continuous
100
AcDbLine
 10
136.152554
 20
156.849106
 30
0.0
 11
134.0525479999998
 21
156.849106
 31
0.0
  0
LINE
  5
99E9
330
97FF
100
AcDbEntity
  8
2
  6
Continuous
100
AcDbLine
 10
136.152554
 20
154.982101
 30
0.0
 11
134.0525479999998
 21
154.982101
 31
0.0
  0
LINE
  5
99EA
330
97FF
100
AcDbEntity
  8
2
  6
Continuous
100
AcDbLine
 10
136.152554
 20
166.349106
 30
0.0
 11
134.0525479999998
 21
166.349106
 31
0.0
  0
LINE
  5
99EB
330
97FF
100
AcDbEntity
  8
2
  6
Continuous
100
AcDbLine
 10
136.152554
 20
164.482101
 30
0.0
 11
134.0525479999998
 21
164.482101
 31
0.0
  0
LINE
  5
99EC
330
97FF
100
AcDbEntity
  8
1
  6
Continuous
100
AcDbLine
 10
241.0686759999999
 20
155.031723
 30
0.0
 11
242.8364529999999
 21
156.7994999999999
 31
0.0
  0
LINE
  5
99ED
330
97FF
100
AcDbEntity
  8
1
  6
Continuous
100
AcDbLine
 10
241.0686759999999
 20
156.7994999999999
 30
0.0
 11
242.8364529999999
 21
155.031723
 31
0.0
  0
LINE
  5
99EE
330
97FF
100
AcDbEntity
  8
1
  6
Continuous
100
AcDbLine
 10
241.0686759999999
 20
164.531723
 30
0.0
 11
242.836437
 21
166.299484
 31
0.0
  0
LINE
  5
99EF
330
97FF
100
AcDbEntity
  8
1
  6
Continuous
100
AcDbLine
 10
241.0686759999999
 20
166.299484
 30
0.0
 11
242.836437
 21
164.531723
 31
0.0
  0
LINE
  5
99F0
330
97FF
100
AcDbEntity
  8
1
  6
Continuous
100
AcDbLine
 10
262.9165919999999
 20
142.551575
 30
0.0
 11
263.430386
 21
142.7803189999998
 31
0.0
  0
LINE
  5
99F1
330
97FF
100
AcDbEntity
  8
1
  6
Continuous
100
AcDbLine
 10
263.430386
 20
142.780334
 30
0.0
 11
263.732052
 21
142.7855989999999
 31
0.0
  0
LINE
  5
99F2
330
97FF
100
AcDbEntity
  8
1
  6
Continuous
100
AcDbLine
 10
262.9165919999999
 20
143.4796299999999
 30
0.0
 11
263.430386
 21
143.2508699999999
 31
0.0
  0
LINE
  5
99F3
330
97FF
100
AcDbEntity
  8
1
  6
Continuous
100
AcDbLine
 10
263.430386
 20
143.250885
 30
0.0
 11
263.7320829999998
 21
143.2456209999998
 31
0.0
  0
LINE
  5
99F4
330
97FF
100
AcDbEntity
  8
1
  6
Continuous
100
AcDbLine
 10
262.2173119999998
 20
143.993423
 30
0.0
 11
262.222592
 21
144.295105
 31
0.0
  0
LINE
  5
99F5
330
97FF
100
AcDbEntity
  8
1
  6
Continuous
100
AcDbLine
 10
261.988552
 20
143.4796299999999
 30
0.0
 11
262.2173119999998
 21
143.993408
 31
0.0
  0
LINE
  5
99F6
330
97FF
100
AcDbEntity
  8
1
  6
Continuous
100
AcDbLine
 10
262.6878319999998
 20
143.993408
 30
0.0
 11
262.682583
 21
144.2950899999999
 31
0.0
  0
LINE
  5
99F7
330
97FF
100
AcDbEntity
  8
1
  6
Continuous
100
AcDbLine
 10
262.9165919999999
 20
143.4796299999999
 30
0.0
 11
262.6878319999998
 21
143.993423
 31
0.0
  0
LINE
  5
99F8
330
97FF
100
AcDbEntity
  8
1
  6
Continuous
100
AcDbLine
 10
261.4747889999998
 20
142.780334
 30
0.0
 11
261.1730919999998
 21
142.7855989999999
 31
0.0
  0
LINE
  5
99F9
330
97FF
100
AcDbEntity
  8
1
  6
Continuous
100
AcDbLine
 10
261.988552
 20
142.55159
 30
0.0
 11
261.4747579999999
 21
142.780334
 31
0.0
  0
LINE
  5
99FA
330
97FF
100
AcDbEntity
  8
1
  6
Continuous
100
AcDbLine
 10
261.4747579999999
 20
143.2508699999999
 30
0.0
 11
261.173062
 21
143.245605
 31
0.0
  0
LINE
  5
99FB
330
97FF
100
AcDbEntity
  8
1
  6
Continuous
100
AcDbLine
 10
261.988552
 20
143.4796139999999
 30
0.0
 11
261.4747579999999
 21
143.2508699999999
 31
0.0
  0
LINE
  5
99FC
330
97FF
100
AcDbEntity
  8
1
  6
Continuous
100
AcDbLine
 10
262.6878319999998
 20
142.0377959999999
 30
0.0
 11
262.682553
 21
141.7361149999998
 31
0.0
  0
LINE
  5
99FD
330
97FF
100
AcDbEntity
  8
1
  6
Continuous
100
AcDbLine
 10
262.9165919999999
 20
142.55159
 30
0.0
 11
262.6878319999998
 21
142.0377809999999
 31
0.0
  0
LINE
  5
99FE
330
97FF
100
AcDbEntity
  8
1
  6
Continuous
100
AcDbLine
 10
262.2173119999998
 20
142.0377809999999
 30
0.0
 11
262.222592
 21
141.7360989999998
 31
0.0
  0
LINE
  5
99FF
330
97FF
100
AcDbEntity
  8
1
  6
Continuous
100
AcDbLine
 10
261.988552
 20
142.55159
 30
0.0
 11
262.217282
 21
142.0377959999999
 31
0.0
  0
LINE
  5
9A00
330
97FF
100
AcDbEntity
  8
1
  6
Continuous
100
AcDbLine
 10
262.9165919999999
 20
158.3515779999999
 30
0.0
 11
263.430386
 21
158.5803379999999
 31
0.0
  0
LINE
  5
9A01
330
97FF
100
AcDbEntity
  8
1
  6
Continuous
100
AcDbLine
 10
263.430386
 20
158.5803379999999
 30
0.0
 11
263.7320829999998
 21
158.585602
 31
0.0
  0
LINE
  5
9A02
330
97FF
100
AcDbEntity
  8
1
  6
Continuous
100
AcDbLine
 10
262.9165919999999
 20
159.2796329999999
 30
0.0
 11
263.430386
 21
159.0508729999999
 31
0.0
  0
LINE
  5
9A03
330
97FF
100
AcDbEntity
  8
1
  6
Continuous
100
AcDbLine
 10
263.430386
 20
159.0508729999999
 30
0.0
 11
263.7320829999998
 21
159.045609
 31
0.0
  0
LINE
  5
9A04
330
97FF
100
AcDbEntity
  8
1
  6
Continuous
100
AcDbLine
 10
262.2173119999998
 20
159.7934109999999
 30
0.0
 11
262.222561
 21
160.0950929999999
 31
0.0
  0
LINE
  5
9A05
330
97FF
100
AcDbEntity
  8
1
  6
Continuous
100
AcDbLine
 10
261.988552
 20
159.2796329999999
 30
0.0
 11
262.2173119999998
 21
159.7934109999999
 31
0.0
  0
LINE
  5
9A06
330
97FF
100
AcDbEntity
  8
1
  6
Continuous
100
AcDbLine
 10
262.6878629999998
 20
159.7934109999999
 30
0.0
 11
262.682583
 21
160.0950929999999
 31
0.0
  0
LINE
  5
9A07
330
97FF
100
AcDbEntity
  8
1
  6
Continuous
100
AcDbLine
 10
262.9165919999999
 20
159.2796329999999
 30
0.0
 11
262.6878319999998
 21
159.793427
 31
0.0
  0
LINE
  5
9A08
330
97FF
100
AcDbEntity
  8
1
  6
Continuous
100
AcDbLine
 10
261.4747579999999
 20
158.580322
 30
0.0
 11
261.1730919999998
 21
158.585602
 31
0.0
  0
LINE
  5
9A09
330
97FF
100
AcDbEntity
  8
1
  6
Continuous
100
AcDbLine
 10
261.988552
 20
158.3515929999998
 30
0.0
 11
261.4747579999999
 21
158.5803379999999
 31
0.0
  0
LINE
  5
9A0A
330
97FF
100
AcDbEntity
  8
1
  6
Continuous
100
AcDbLine
 10
261.4747579999999
 20
159.0508729999999
 30
0.0
 11
261.1730919999998
 21
159.045609
 31
0.0
  0
LINE
  5
9A0B
330
97FF
100
AcDbEntity
  8
1
  6
Continuous
100
AcDbLine
 10
261.988552
 20
159.2796329999999
 30
0.0
 11
261.4747579999999
 21
159.0508729999999
 31
0.0
  0
LINE
  5
9A0C
330
97FF
100
AcDbEntity
  8
1
  6
Continuous
100
AcDbLine
 10
262.6878629999998
 20
157.8377989999999
 30
0.0
 11
262.682583
 21
157.5361179999999
 31
0.0
  0
LINE
  5
9A0D
330
97FF
100
AcDbEntity
  8
1
  6
Continuous
100
AcDbLine
 10
262.9165919999999
 20
158.3515929999998
 30
0.0
 11
262.6878319999998
 21
157.8377839999999
 31
0.0
  0
LINE
  5
9A0E
330
97FF
100
AcDbEntity
  8
1
  6
Continuous
100
AcDbLine
 10
262.2173119999998
 20
157.8377839999999
 30
0.0
 11
262.222561
 21
157.536102
 31
0.0
  0
LINE
  5
9A0F
330
97FF
100
AcDbEntity
  8
1
  6
Continuous
100
AcDbLine
 10
261.988552
 20
158.3515929999998
 30
0.0
 11
262.2173119999998
 21
157.8377989999999
 31
0.0
  0
LINE
  5
9A10
330
97FF
100
AcDbEntity
  8
1
  6
Continuous
100
AcDbLine
 10
403.4525719999998
 20
137.915604
 30
0.0
 11
402.4525719999998
 21
137.915604
 31
0.0
  0
LINE
  5
9A11
330
97FF
100
AcDbEntity
  8
1
  6
Continuous
100
AcDbLine
 10
402.4525719999998
 20
163.915604
 30
0.0
 11
403.4525719999998
 21
163.915604
 31
0.0
  0
LINE
  5
9A12
330
97FF
100
AcDbEntity
  8
1
  6
Continuous
100
AcDbLine
 10
403.4525719999998
 20
137.915604
 30
0.0
 11
407.4525719999998
 21
139.915604
 31
0.0
  0
LINE
  5
9A13
330
97FF
100
AcDbEntity
  8
1
  6
Continuous
100
AcDbLine
 10
407.4525719999998
 20
161.915604
 30
0.0
 11
403.4526029999998
 21
163.915604
 31
0.0
  0
LINE
  5
9A14
330
97FF
100
AcDbEntity
  8
1
  6
Continuous
100
AcDbLine
 10
430.4525719999999
 20
137.059204
 30
0.0
 11
426.4525719999999
 21
137.059204
 31
0.0
  0
LINE
  5
9A15
330
97FF
100
AcDbEntity
  8
1
  6
Continuous
100
AcDbLine
 10
430.4525719999999
 20
164.772003
 30
0.0
 11
426.4525719999999
 21
164.772003
 31
0.0
  0
LINE
  5
9A16
330
97FF
100
AcDbEntity
  8
1
  6
Continuous
100
AcDbLine
 10
430.4525719999999
 20
157.843796
 30
0.0
 11
426.4525719999999
 21
157.843796
 31
0.0
  0
LINE
  5
9A17
330
97FF
100
AcDbEntity
  8
1
  6
Continuous
100
AcDbLine
 10
430.4525719999999
 20
143.9873959999999
 30
0.0
 11
426.4525719999999
 21
143.9873959999999
 31
0.0
  0
LINE
  5
9A18
330
97FF
100
AcDbEntity
  8
1
  6
Continuous
100
AcDbLine
 10
430.4525719999999
 20
137.059204
 30
0.0
 11
430.4525719999999
 21
164.772003
 31
0.0
  0
LINE
  5
9A19
330
97FF
100
AcDbEntity
  8
1
  6
Continuous
100
AcDbLine
 10
426.4525719999999
 20
137.059204
 30
0.0
 11
426.4525719999999
 21
164.772003
 31
0.0
  0
LINE
  5
9A1A
330
97FF
100
AcDbEntity
  8
1
  6
Continuous
100
AcDbLine
 10
402.4525719999998
 20
146.565598
 30
0.0
 11
394.4525719999999
 21
146.565598
 31
0.0
  0
LINE
  5
9A1B
330
97FF
100
AcDbEntity
  8
1
  6
Continuous
100
AcDbLine
 10
402.4525719999998
 20
155.265594
 30
0.0
 11
394.4525719999999
 21
155.265594
 31
0.0
  0
LINE
  5
9A1C
330
97FF
100
AcDbEntity
  8
2
  6
Continuous
100
AcDbLine
 10
402.4526029999998
 20
146.565598
 30
0.0
 11
394.4526029999999
 21
155.265594
 31
0.0
  0
LINE
  5
9A1D
330
97FF
100
AcDbEntity
  8
2
  6
Continuous
100
AcDbLine
 10
402.4526029999998
 20
155.265594
 30
0.0
 11
394.4525719999999
 21
146.565598
 31
0.0
  0
LINE
  5
9A1E
330
97FF
100
AcDbEntity
  8
1
  6
Continuous
100
AcDbLine
 10
363.4525719999999
 20
137.915604
 30
0.0
 11
363.4525719999999
 21
170.915604
 31
0.0
  0
LINE
  5
9A1F
330
97FF
100
AcDbEntity
  8
1
  6
Continuous
100
AcDbLine
 10
361.9525719999999
 20
137.915604
 30
0.0
 11
361.9525719999999
 21
170.915604
 31
0.0
  0
LINE
  5
9A20
330
97FF
100
AcDbEntity
  8
1
  6
Continuous
100
AcDbLine
 10
385.4525719999998
 20
137.915604
 30
0.0
 11
385.4525719999998
 21
170.915604
 31
0.0
  0
LINE
  5
9A21
330
97FF
100
AcDbEntity
  8
1
  6
Continuous
100
AcDbLine
 10
386.952572
 20
137.915604
 30
0.0
 11
386.952572
 21
170.915604
 31
0.0
  0
LINE
  5
9A22
330
97FF
100
AcDbEntity
  8
1
  6
Continuous
100
AcDbLine
 10
385.4525719999998
 20
170.915604
 30
0.0
 11
363.4525719999999
 21
170.915604
 31
0.0
  0
LINE
  5
9A23
330
97FF
100
AcDbEntity
  8
1
  6
Continuous
100
AcDbLine
 10
385.4525719999998
 20
172.415604
 30
0.0
 11
363.4525719999999
 21
172.415604
 31
0.0
  0
LINE
  5
9A24
330
97FF
100
AcDbEntity
  8
1
  6
Continuous
100
AcDbLine
 10
361.9525719999999
 20
140.915604
 30
0.0
 11
342.4525719999999
 21
140.915604
 31
0.0
  0
LINE
  5
9A25
330
97FF
100
AcDbEntity
  8
1
  6
Continuous
100
AcDbLine
 10
385.4525719999998
 20
160.915604
 30
0.0
 11
363.4525719999999
 21
160.915604
 31
0.0
  0
LINE
  5
9A26
330
97FF
100
AcDbEntity
  8
1
  6
Continuous
100
AcDbLine
 10
402.4525719999998
 20
160.915604
 30
0.0
 11
386.952572
 21
160.915604
 31
0.0
  0
LINE
  5
9A27
330
97FF
100
AcDbEntity
  8
1
  6
Continuous
100
AcDbLine
 10
402.4525719999998
 20
140.915604
 30
0.0
 11
386.952572
 21
140.915604
 31
0.0
  0
LINE
  5
9A28
330
97FF
100
AcDbEntity
  8
1
  6
Continuous
100
AcDbLine
 10
385.4525719999998
 20
140.915604
 30
0.0
 11
363.4525719999999
 21
140.915604
 31
0.0
  0
LINE
  5
9A29
330
97FF
100
AcDbEntity
  8
1
  6
Continuous
100
AcDbLine
 10
386.952572
 20
137.915604
 30
0.0
 11
385.4525719999998
 21
137.915604
 31
0.0
  0
LINE
  5
9A2A
330
97FF
100
AcDbEntity
  8
1
  6
Continuous
100
AcDbLine
 10
363.4525719999999
 20
137.915604
 30
0.0
 11
361.9525719999999
 21
137.915604
 31
0.0
  0
LINE
  5
9A2B
330
97FF
100
AcDbEntity
  8
4
  6
CENTER
100
AcDbLine
 10
434.421414
 20
150.915604
 30
0.0
 11
422.1979939999997
 21
150.915604
 31
0.0
  0
LINE
  5
9A2C
330
97FF
100
AcDbEntity
  8
4
  6
CENTER
100
AcDbLine
 10
412.696194
 20
150.915604
 30
0.0
 11
337.8504909999999
 21
150.915604
 31
0.0
  0
LINE
  5
9A2D
330
97FF
100
AcDbEntity
  8
1
  6
Continuous
100
AcDbLine
 10
363.4525719999999
 20
170.915604
 30
0.0
 11
361.9525719999999
 21
170.915604
 31
0.0
  0
LINE
  5
9A2E
330
97FF
100
AcDbEntity
  8
1
  6
Continuous
100
AcDbLine
 10
385.4525719999998
 20
170.915604
 30
0.0
 11
386.952572
 21
170.915604
 31
0.0
  0
LINE
  5
9A2F
330
97FF
100
AcDbEntity
  8
1
  6
Continuous
100
AcDbLine
 10
364.4525719999998
 20
160.915604
 30
0.0
 11
364.4525719999998
 21
170.915604
 31
0.0
  0
LINE
  5
9A30
330
97FF
100
AcDbEntity
  8
1
  6
Continuous
100
AcDbLine
 10
384.452572
 20
160.915604
 30
0.0
 11
384.452572
 21
170.915604
 31
0.0
  0
LINE
  5
9A31
330
97FF
100
AcDbEntity
  8
1
  6
Continuous
100
AcDbLine
 10
403.4525719999998
 20
137.915604
 30
0.0
 11
403.4525719999998
 21
163.915604
 31
0.0
  0
LINE
  5
9A32
330
97FF
100
AcDbEntity
  8
1
  6
Continuous
100
AcDbLine
 10
407.4525719999998
 20
139.915604
 30
0.0
 11
407.4525719999998
 21
161.915604
 31
0.0
  0
LINE
  5
9A33
330
97FF
100
AcDbEntity
  8
1
  6
Continuous
100
AcDbLine
 10
402.4525719999998
 20
137.915604
 30
0.0
 11
402.4525719999998
 21
163.915604
 31
0.0
  0
LINE
  5
9A34
330
97FF
100
AcDbEntity
  8
1
  6
Continuous
100
AcDbLine
 10
394.4525719999999
 20
146.565598
 30
0.0
 11
394.4525719999999
 21
155.265594
 31
0.0
  0
LINE
  5
9A35
330
97FF
100
AcDbEntity
  8
1
  6
Continuous
100
AcDbLine
 10
342.4525719999999
 20
140.915604
 30
0.0
 11
342.4525719999999
 21
160.915604
 31
0.0
  0
LINE
  5
9A36
330
97FF
100
AcDbEntity
  8
1
  6
Continuous
100
AcDbLine
 10
377.785885
 20
160.915604
 30
0.0
 11
377.785885
 21
170.915604
 31
0.0
  0
LINE
  5
9A37
330
97FF
100
AcDbEntity
  8
1
  6
Continuous
100
AcDbLine
 10
371.1191979999999
 20
160.915604
 30
0.0
 11
371.1191979999999
 21
170.915604
 31
0.0
  0
LINE
  5
9A38
330
97FF
100
AcDbEntity
  8
1
  6
Continuous
100
AcDbLine
 10
383.1191979999999
 20
160.915604
 30
0.0
 11
383.1191979999999
 21
166.915604
 31
0.0
  0
LINE
  5
9A39
330
97FF
100
AcDbEntity
  8
1
  6
Continuous
100
AcDbLine
 10
379.1191979999999
 20
160.915604
 30
0.0
 11
379.1191979999999
 21
166.915604
 31
0.0
  0
LINE
  5
9A3A
330
97FF
100
AcDbEntity
  8
1
  6
Continuous
100
AcDbLine
 10
376.4525719999999
 20
160.915604
 30
0.0
 11
376.4525719999999
 21
166.915604
 31
0.0
  0
LINE
  5
9A3B
330
97FF
100
AcDbEntity
  8
1
  6
Continuous
100
AcDbLine
 10
372.4525719999999
 20
160.915604
 30
0.0
 11
372.4525719999999
 21
166.915604
 31
0.0
  0
LINE
  5
9A3C
330
97FF
100
AcDbEntity
  8
1
  6
Continuous
100
AcDbLine
 10
369.785885
 20
160.915604
 30
0.0
 11
369.785885
 21
166.915604
 31
0.0
  0
LINE
  5
9A3D
330
97FF
100
AcDbEntity
  8
1
  6
Continuous
100
AcDbLine
 10
365.785885
 20
160.915604
 30
0.0
 11
365.785885
 21
166.915604
 31
0.0
  0
LINE
  5
9A3E
330
97FF
100
AcDbEntity
  8
1
  6
Continuous
100
AcDbLine
 10
361.9525719999999
 20
163.1156009999999
 30
0.0
 11
360.852597
 21
163.1156009999999
 31
0.0
  0
LINE
  5
9A3F
330
97FF
100
AcDbEntity
  8
1
  6
Continuous
100
AcDbLine
 10
361.9525719999999
 20
167.715607
 30
0.0
 11
360.852597
 21
167.715607
 31
0.0
  0
LINE
  5
9A40
330
97FF
100
AcDbEntity
  8
1
  6
Continuous
100
AcDbLine
 10
361.4525719999999
 20
163.1156009999999
 30
0.0
 11
361.4525719999999
 21
167.715607
 31
0.0
  0
LINE
  5
9A41
330
97FF
100
AcDbEntity
  8
1
  6
Continuous
100
AcDbLine
 10
360.852597
 20
163.1156009999999
 30
0.0
 11
360.852597
 21
167.715607
 31
0.0
  0
LINE
  5
9A42
330
97FF
100
AcDbEntity
  8
1
  6
Continuous
100
AcDbLine
 10
360.852597
 20
167.4156039999998
 30
0.0
 11
360.253781
 21
167.4156039999998
 31
0.0
  0
LINE
  5
9A43
330
97FF
100
AcDbEntity
  8
1
  6
Continuous
100
AcDbLine
 10
360.852597
 20
163.415604
 30
0.0
 11
360.253781
 21
163.415604
 31
0.0
  0
LINE
  5
9A44
330
97FF
100
AcDbEntity
  8
1
  6
Continuous
100
AcDbLine
 10
390.8525969999999
 20
164.265594
 30
0.0
 11
390.8525969999999
 21
166.5655979999999
 31
0.0
  0
LINE
  5
9A45
330
97FF
100
AcDbEntity
  8
1
  6
Continuous
100
AcDbLine
 10
388.7525899999998
 20
168.013702
 30
0.0
 11
386.952572
 21
168.013702
 31
0.0
  0
LINE
  5
9A46
330
97FF
100
AcDbEntity
  8
1
  6
Continuous
100
AcDbLine
 10
388.7525899999998
 20
166.714706
 30
0.0
 11
386.952572
 21
166.714706
 31
0.0
  0
LINE
  5
9A47
330
97FF
100
AcDbEntity
  8
1
  6
Continuous
100
AcDbLine
 10
388.7525899999998
 20
164.1165919999999
 30
0.0
 11
386.952572
 21
164.1165919999999
 31
0.0
  0
LINE
  5
9A48
330
97FF
100
AcDbEntity
  8
1
  6
Continuous
100
AcDbLine
 10
388.7525899999998
 20
162.817596
 30
0.0
 11
386.952572
 21
162.817596
 31
0.0
  0
LINE
  5
9A49
330
97FF
100
AcDbEntity
  8
1
  6
Continuous
100
AcDbLine
 10
388.7525899999998
 20
162.817596
 30
0.0
 11
388.7525899999998
 21
168.013702
 31
0.0
  0
LINE
  5
9A4A
330
97FF
100
AcDbEntity
  8
1
  6
Continuous
100
AcDbLine
 10
388.4525719999999
 20
140.915604
 30
0.0
 11
388.4525719999999
 21
160.915604
 31
0.0
  0
LINE
  5
9A4B
330
97FF
100
AcDbEntity
  8
1
  6
Continuous
100
AcDbLine
 10
390.8525969999999
 20
164.265594
 30
0.0
 11
388.7525899999998
 21
164.265594
 31
0.0
  0
LINE
  5
9A4C
330
97FF
100
AcDbEntity
  8
1
  6
Continuous
100
AcDbLine
 10
390.8525969999999
 20
166.5655979999999
 30
0.0
 11
388.7525899999998
 21
166.5655979999999
 31
0.0
  0
LINE
  5
9A4D
330
97FF
100
AcDbEntity
  8
4
  6
CENTER
100
AcDbLine
 10
392.3651089999999
 20
155.9156039999998
 30
0.0
 11
358.155575
 21
155.9156039999998
 31
0.0
  0
LINE
  5
9A4E
330
97FF
100
AcDbEntity
  8
4
  6
CENTER
100
AcDbLine
 10
392.3651089999999
 20
165.415604
 30
0.0
 11
358.155575
 21
165.415604
 31
0.0
  0
LINE
  5
9A4F
330
97FF
100
AcDbEntity
  8
1
  6
Continuous
100
AcDbLine
 10
344.4525719999999
 20
140.915604
 30
0.0
 11
344.4525719999999
 21
160.915604
 31
0.0
  0
LINE
  5
9A50
330
97FF
100
AcDbEntity
  8
1
  6
Continuous
100
AcDbLine
 10
344.4525719999999
 20
158.398193
 30
0.0
 11
347.4525719999999
 21
158.398193
 31
0.0
  0
LINE
  5
9A51
330
97FF
100
AcDbEntity
  8
1
  6
Continuous
100
AcDbLine
 10
344.4525719999999
 20
157.549698
 30
0.0
 11
347.4525719999999
 21
157.549698
 31
0.0
  0
LINE
  5
9A52
330
97FF
100
AcDbEntity
  8
1
  6
Continuous
100
AcDbLine
 10
344.4525719999999
 20
144.281601
 30
0.0
 11
347.4525719999999
 21
144.281601
 31
0.0
  0
LINE
  5
9A53
330
97FF
100
AcDbEntity
  8
1
  6
Continuous
100
AcDbLine
 10
344.4525719999999
 20
143.4329989999999
 30
0.0
 11
347.4525719999999
 21
143.4329989999999
 31
0.0
  0
LINE
  5
9A54
330
97FF
100
AcDbEntity
  8
1
  6
Continuous
100
AcDbLine
 10
347.4525719999999
 20
143.4329989999999
 30
0.0
 11
347.4525719999999
 21
144.281601
 31
0.0
  0
LINE
  5
9A55
330
97FF
100
AcDbEntity
  8
1
  6
Continuous
100
AcDbLine
 10
347.4525719999999
 20
157.549698
 30
0.0
 11
347.4525719999999
 21
158.398193
 31
0.0
  0
LINE
  5
9A56
330
97FF
100
AcDbEntity
  8
2
  6
Continuous
100
AcDbLine
 10
402.4525719999998
 20
160.3741
 30
0.0
 11
388.4525719999999
 21
160.3741
 31
0.0
  0
LINE
  5
9A57
330
97FF
100
AcDbEntity
  8
2
  6
Continuous
100
AcDbLine
 10
402.4525719999998
 20
141.4571079999998
 30
0.0
 11
388.4525719999999
 21
141.4571079999998
 31
0.0
  0
LINE
  5
9A58
330
97FF
100
AcDbEntity
  8
2
  6
Continuous
100
AcDbLine
 10
388.4525719999999
 20
141.4571079999998
 30
0.0
 11
387.514706
 21
140.915619
 31
0.0
  0
LINE
  5
9A59
330
97FF
100
AcDbEntity
  8
2
  6
Continuous
100
AcDbLine
 10
388.4526029999999
 20
160.3741
 30
0.0
 11
387.514675
 21
160.915604
 31
0.0
  0
LINE
  5
9A5A
330
97FF
100
AcDbEntity
  8
1
  6
Continuous
100
AcDbLine
 10
361.4526029999999
 20
165.4156189999999
 30
0.0
 11
360.852597
 21
165.0692139999998
 31
0.0
  0
LINE
  5
9A5B
330
97FF
100
AcDbEntity
  8
1
  6
Continuous
100
AcDbLine
 10
361.4525719999999
 20
165.7620089999998
 30
0.0
 11
360.852597
 21
165.415604
 31
0.0
  0
LINE
  5
9A5C
330
97FF
100
AcDbEntity
  8
2
  6
Continuous
100
AcDbLine
 10
388.7525899999998
 20
166.349106
 30
0.0
 11
390.8525969999999
 21
166.349106
 31
0.0
  0
LINE
  5
9A5D
330
97FF
100
AcDbEntity
  8
2
  6
Continuous
100
AcDbLine
 10
388.7525899999998
 20
164.482101
 30
0.0
 11
390.8525969999999
 21
164.482101
 31
0.0
  0
LINE
  5
9A5E
330
97FF
100
AcDbEntity
  8
1
  6
Continuous
100
AcDbLine
 10
361.9525719999999
 20
160.915604
 30
0.0
 11
342.4525719999999
 21
160.915604
 31
0.0
  0
LINE
  5
9A5F
330
97FF
100
AcDbEntity
  8
1
  6
Continuous
100
AcDbLine
 10
383.1191979999999
 20
166.915604
 30
0.0
 11
379.1191979999999
 21
166.915604
 31
0.0
  0
LINE
  5
9A60
330
97FF
100
AcDbEntity
  8
1
  6
Continuous
100
AcDbLine
 10
376.4525719999999
 20
166.915604
 30
0.0
 11
372.4525719999999
 21
166.915604
 31
0.0
  0
LINE
  5
9A61
330
97FF
100
AcDbEntity
  8
1
  6
Continuous
100
AcDbLine
 10
369.785885
 20
166.915604
 30
0.0
 11
365.785885
 21
166.915604
 31
0.0
  0
LINE
  5
9A62
330
97FF
100
AcDbEntity
  8
1
  6
Continuous
100
AcDbLine
 10
155.119259
 20
252.2720029999999
 30
0.0
 11
155.119259
 21
251.7720029999999
 31
0.0
  0
LINE
  5
9A63
330
97FF
100
AcDbEntity
  8
1
  6
Continuous
100
AcDbLine
 10
159.119259
 20
252.2720029999999
 30
0.0
 11
159.119259
 21
251.7720029999999
 31
0.0
  0
LINE
  5
9A64
330
97FF
100
AcDbEntity
  8
1
  6
Continuous
100
AcDbLine
 10
29.12686599999998
 20
262.4390869999999
 30
0.0
 11
33.77823999999999
 21
262.4390869999999
 31
0.0
  0
LINE
  5
9A65
330
97FF
100
AcDbEntity
  8
1
  6
Continuous
100
AcDbLine
 10
29.18234699999999
 20
261.7732539999999
 30
0.0
 11
33.722752
 21
261.7732539999999
 31
0.0
  0
LINE
  5
9A66
330
97FF
100
AcDbEntity
  8
1
  6
Continuous
100
AcDbLine
 10
33.52517299999998
 20
261.106064
 30
0.0
 11
32.25169000000001
 21
261.106064
 31
0.0
  0
LINE
  5
9A67
330
97FF
100
AcDbEntity
  8
1
  6
Continuous
100
AcDbLine
 10
29.720974
 20
260.438873
 30
0.0
 11
33.184132
 21
260.438873
 31
0.0
  0
LINE
  5
9A68
330
97FF
100
AcDbEntity
  8
1
  6
Continuous
100
AcDbLine
 10
31.451878
 20
262.4390869999999
 30
0.0
 11
31.451878
 21
261.7732539999999
 31
0.0
  0
LINE
  5
9A69
330
97FF
100
AcDbEntity
  8
1
  6
Continuous
100
AcDbLine
 10
30.652058
 20
261.106064
 30
0.0
 11
29.379933
 21
261.106064
 31
0.0
  0
LINE
  5
9A6A
330
97FF
100
AcDbEntity
  8
1
  6
Continuous
100
AcDbLine
 10
29.807583
 20
259.773041
 30
0.0
 11
33.096165
 21
259.773041
 31
0.0
  0
LINE
  5
9A6B
330
97FF
100
AcDbEntity
  8
1
  6
Continuous
100
AcDbLine
 10
32.682049
 20
259.1058499999999
 30
0.0
 11
30.223057
 21
259.1058499999999
 31
0.0
  0
LINE
  5
9A6C
330
97FF
100
AcDbEntity
  8
1
  6
Continuous
100
AcDbLine
 10
29.623532
 20
258.4400019999999
 30
0.0
 11
32.49799799999999
 21
258.4400019999999
 31
0.0
  0
LINE
  5
9A6D
330
97FF
100
AcDbEntity
  8
1
  6
Continuous
100
AcDbLine
 10
29.260838
 20
265.105133
 30
0.0
 11
33.434498
 21
265.105133
 31
0.0
  0
LINE
  5
9A6E
330
97FF
100
AcDbEntity
  8
1
  6
Continuous
100
AcDbLine
 10
33.334355
 20
264.4393009999999
 30
0.0
 11
31.451878
 21
264.4393009999999
 31
0.0
  0
LINE
  5
9A6F
330
97FF
100
AcDbEntity
  8
1
  6
Continuous
100
AcDbLine
 10
29.25813699999999
 20
263.7721099999998
 30
0.0
 11
33.646969
 21
263.7721099999998
 31
0.0
  0
LINE
  5
9A70
330
97FF
100
AcDbEntity
  8
1
  6
Continuous
100
AcDbLine
 10
29.12686599999998
 20
263.1062769999999
 30
0.0
 11
33.77823999999999
 21
263.1062769999999
 31
0.0
  0
LINE
  5
9A71
330
97FF
100
AcDbEntity
  8
1
  6
Continuous
100
AcDbLine
 10
31.451878
 20
268.489807
 30
0.0
 11
31.451878
 21
267.1121219999998
 31
0.0
  0
LINE
  5
9A72
330
97FF
100
AcDbEntity
  8
1
  6
Continuous
100
AcDbLine
 10
32.699639
 20
266.777832
 30
0.0
 11
29.89013299999999
 21
267.531647
 31
0.0
  0
LINE
  5
9A73
330
97FF
100
AcDbEntity
  8
1
  6
Continuous
100
AcDbLine
 10
31.451878
 20
266.1052549999999
 30
0.0
 11
33.05150199999999
 21
266.1052549999999
 31
0.0
  0
LINE
  5
9A74
330
97FF
100
AcDbEntity
  8
1
  6
Continuous
100
AcDbLine
 10
31.11895399999999
 20
266.4395139999999
 30
0.0
 11
29.695256
 21
266.4395139999999
 31
0.0
  0
LINE
  5
9A75
330
97FF
100
AcDbEntity
  8
1
  6
Continuous
100
AcDbLine
 10
29.57480999999999
 20
265.772324
 30
0.0
 11
31.11895399999999
 21
265.772324
 31
0.0
  0
LINE
  5
9A76
330
97FF
100
AcDbEntity
  8
1
  6
Continuous
100
AcDbLine
 10
31.451878
 20
264.4393009999999
 30
0.0
 11
31.451878
 21
264.106384
 31
0.0
  0
LINE
  5
9A77
330
97FF
100
AcDbEntity
  8
1
  6
Continuous
100
AcDbLine
 10
30.652058
 20
264.4393009999999
 30
0.0
 11
29.570751
 21
264.4393009999999
 31
0.0
  0
CIRCLE
  5
9A78
330
97FF
100
AcDbEntity
  8
1
  6
Continuous
100
AcDbCircle
 10
30.452553
 20
150.915604
 30
0.0
 40
13.0
  0
CIRCLE
  5
9A79
330
97FF
100
AcDbEntity
  8
1
  6
Continuous
100
AcDbCircle
 10
30.452553
 20
150.915604
 30
0.0
 40
5.0
  0
ARC
  5
9A7A
330
97FF
100
AcDbEntity
  8
1
  6
Continuous
100
AcDbCircle
 10
55.95255699999999
 20
152.415604
 30
0.0
 40
1.5
100
AcDbArc
 50
269.99997
 51
0.0
  0
ARC
  5
9A7B
330
97FF
100
AcDbEntity
  8
1
  6
Continuous
100
AcDbCircle
 10
55.95255699999999
 20
169.415604
 30
0.0
 40
1.5
100
AcDbArc
 50
0.0
 51
89.99998900000001
  0
CIRCLE
  5
9A7C
330
97FF
100
AcDbEntity
  8
1
  6
Continuous
100
AcDbCircle
 10
50.952557
 20
155.9156039999998
 30
0.0
 40
1.149999999999999
  0
CIRCLE
  5
9A7D
330
97FF
100
AcDbEntity
  8
1
  6
Continuous
100
AcDbCircle
 10
50.952557
 20
165.415604
 30
0.0
 40
1.149999999999999
  0
ARC
  5
9A7E
330
97FF
100
AcDbEntity
  8
1
  6
Continuous
100
AcDbCircle
 10
139.452557
 20
170.915604
 30
0.0
 40
1.5
100
AcDbArc
 50
89.99998900000001
 51
179.999978
  0
ARC
  5
9A7F
330
97FF
100
AcDbEntity
  8
1
  6
Continuous
100
AcDbCircle
 10
161.452557
 20
170.915604
 30
0.0
 40
1.5
100
AcDbArc
 50
0.0
 51
89.99998900000001
  0
ARC
  5
9A80
330
97FF
100
AcDbEntity
  8
1
  6
Continuous
100
AcDbCircle
 10
160.552548
 20
155.9156039999998
 30
0.0
 40
5.0
100
AcDbArc
 50
342.4026609999998
 51
17.59729799999998
  0
ARC
  5
9A81
330
97FF
100
AcDbEntity
  8
1
  6
Continuous
100
AcDbCircle
 10
160.552548
 20
165.415604
 30
0.0
 40
5.0
100
AcDbArc
 50
342.4026609999998
 51
17.59729799999998
  0
ARC
  5
9A82
330
97FF
100
AcDbEntity
  8
1
  6
Continuous
100
AcDbCircle
 10
164.6513479999998
 20
154.6156009999999
 30
0.0
 40
0.7
100
AcDbArc
 50
269.99997
 51
342.4026609999998
  0
ARC
  5
9A83
330
97FF
100
AcDbEntity
  8
1
  6
Continuous
100
AcDbCircle
 10
164.6513479999998
 20
157.215607
 30
0.0
 40
0.7
100
AcDbArc
 50
17.59729799999998
 51
89.99998900000001
  0
ARC
  5
9A84
330
97FF
100
AcDbEntity
  8
1
  6
Continuous
100
AcDbCircle
 10
164.6513479999998
 20
164.1156009999999
 30
0.0
 40
0.7
100
AcDbArc
 50
269.99997
 51
342.4026609999998
  0
ARC
  5
9A85
330
97FF
100
AcDbEntity
  8
1
  6
Continuous
100
AcDbCircle
 10
164.6513479999998
 20
166.715607
 30
0.0
 40
0.7
100
AcDbArc
 50
17.59729799999998
 51
89.99998900000001
  0
CIRCLE
  5
9A86
330
97FF
100
AcDbEntity
  8
1
  6
Continuous
100
AcDbCircle
 10
143.7859609999999
 20
74.55920400000001
 30
0.0
 40
1.0
  0
CIRCLE
  5
9A87
330
97FF
100
AcDbEntity
  8
1
  6
Continuous
100
AcDbCircle
 10
150.452557
 20
74.55920400000001
 30
0.0
 40
1.0
  0
CIRCLE
  5
9A88
330
97FF
100
AcDbEntity
  8
1
  6
Continuous
100
AcDbCircle
 10
157.119259
 20
74.55920400000001
 30
0.0
 40
1.0
  0
ARC
  5
9A89
330
97FF
100
AcDbEntity
  8
1
  6
Continuous
100
AcDbCircle
 10
160.552548
 20
69.55920400000001
 30
0.0
 40
5.0
100
AcDbArc
 50
342.4026609999998
 51
17.59729799999998
  0
ARC
  5
9A8A
330
97FF
100
AcDbEntity
  8
1
  6
Continuous
100
AcDbCircle
 10
164.6513479999998
 20
68.25920100000001
 30
0.0
 40
0.7
100
AcDbArc
 50
269.99997
 51
342.4026609999998
  0
ARC
  5
9A8B
330
97FF
100
AcDbEntity
  8
1
  6
Continuous
100
AcDbCircle
 10
164.6513479999998
 20
70.85920699999999
 30
0.0
 40
0.7
100
AcDbArc
 50
17.59729799999998
 51
89.99998900000001
  0
ARC
  5
9A8C
330
97FF
100
AcDbEntity
  8
1
  6
Continuous
100
AcDbCircle
 10
67.452557
 20
260.972015
 30
0.0
 40
0.5
100
AcDbArc
 50
314.913365
 51
46.828095
  0
ARC
  5
9A8D
330
97FF
100
AcDbEntity
  8
1
  6
Continuous
100
AcDbCircle
 10
47.652554
 20
266.9720149999998
 30
0.0
 40
0.3
100
AcDbArc
 50
0.0
 51
89.99998900000001
  0
ARC
  5
9A8E
330
97FF
100
AcDbEntity
  8
1
  6
Continuous
100
AcDbCircle
 10
24.952553
 20
266.272003
 30
0.0
 40
0.5
100
AcDbArc
 50
0.0
 51
89.99998900000001
  0
ARC
  5
9A8F
330
97FF
100
AcDbEntity
  8
1
  6
Continuous
100
AcDbCircle
 10
30.285855
 20
272.7720339999998
 30
0.0
 40
2.0
100
AcDbArc
 50
53.13009499999999
 51
89.99998900000001
  0
ARC
  5
9A90
330
97FF
100
AcDbEntity
  8
1
  6
Continuous
100
AcDbCircle
 10
26.02285399999999
 20
272.7720339999998
 30
0.0
 40
2.0
100
AcDbArc
 50
89.99998900000001
 51
146.3098779999999
  0
ARC
  5
9A91
330
97FF
100
AcDbEntity
  8
1
  6
Continuous
100
AcDbCircle
 10
21.95255299999999
 20
266.6664119999999
 30
0.0
 40
2.0
100
AcDbArc
 50
146.3098779999999
 51
176.9747779999999
  0
ARC
  5
9A92
330
97FF
100
AcDbEntity
  8
1
  6
Continuous
100
AcDbCircle
 10
21.95255299999999
 20
258.877518
 30
0.0
 40
2.0
100
AcDbArc
 50
179.999978
 51
213.690077
  0
ARC
  5
9A93
330
97FF
100
AcDbEntity
  8
1
  6
Continuous
100
AcDbCircle
 10
26.02285399999999
 20
252.7720029999999
 30
0.0
 40
2.0
100
AcDbArc
 50
213.690395
 51
269.99997
  0
ARC
  5
9A94
330
97FF
100
AcDbEntity
  8
1
  6
Continuous
100
AcDbCircle
 10
30.285855
 20
252.7720029999999
 30
0.0
 40
2.0
100
AcDbArc
 50
269.99997
 51
306.869864
  0
ARC
  5
9A95
330
97FF
100
AcDbEntity
  8
1
  6
Continuous
100
AcDbCircle
 10
30.285855
 20
272.7720339999998
 30
0.0
 40
1.0
100
AcDbArc
 50
53.13009499999999
 51
89.99998900000001
  0
ARC
  5
9A96
330
97FF
100
AcDbEntity
  8
1
  6
Continuous
100
AcDbCircle
 10
26.02285399999999
 20
272.7720339999998
 30
0.0
 40
1.0
100
AcDbArc
 50
89.99998900000001
 51
146.3098779999999
  0
ARC
  5
9A97
330
97FF
100
AcDbEntity
  8
1
  6
Continuous
100
AcDbCircle
 10
21.95255299999999
 20
266.6664119999999
 30
0.0
 40
1.0
100
AcDbArc
 50
146.3098779999999
 51
173.941081
  0
ARC
  5
9A98
330
97FF
100
AcDbEntity
  8
1
  6
Continuous
100
AcDbCircle
 10
21.95255299999999
 20
258.877518
 30
0.0
 40
1.0
100
AcDbArc
 50
179.999978
 51
213.690077
  0
ARC
  5
9A99
330
97FF
100
AcDbEntity
  8
1
  6
Continuous
100
AcDbCircle
 10
26.02285399999999
 20
252.7720029999999
 30
0.0
 40
1.0
100
AcDbArc
 50
213.6905449999999
 51
269.99997
  0
ARC
  5
9A9A
330
97FF
100
AcDbEntity
  8
1
  6
Continuous
100
AcDbCircle
 10
30.285855
 20
252.7720029999999
 30
0.0
 40
1.0
100
AcDbArc
 50
269.99997
 51
306.869864
  0
ARC
  5
9A9B
330
97FF
100
AcDbEntity
  8
1
  6
Continuous
100
AcDbCircle
 10
23.45255299999999
 20
266.272003
 30
0.0
 40
0.5
100
AcDbArc
 50
89.99998900000001
 51
179.999978
  0
ARC
  5
9A9C
330
97FF
100
AcDbEntity
  8
1
  6
Continuous
100
AcDbCircle
 10
24.952553
 20
259.2720029999999
 30
0.0
 40
0.5
100
AcDbArc
 50
270.0000109999999
 51
0.0
  0
ARC
  5
9A9D
330
97FF
100
AcDbEntity
  8
1
  6
Continuous
100
AcDbCircle
 10
23.45255299999999
 20
259.2720029999999
 30
0.0
 40
0.5
100
AcDbArc
 50
180.000022
 51
270.0000109999999
  0
CIRCLE
  5
9A9E
330
97FF
100
AcDbEntity
  8
1
  6
Continuous
100
AcDbCircle
 10
134.952557
 20
262.7720029999999
 30
0.0
 40
1.3
  0
CIRCLE
  5
9A9F
330
97FF
100
AcDbEntity
  8
1
  6
Continuous
100
AcDbCircle
 10
143.7859609999999
 20
237.2720029999999
 30
0.0
 40
1.0
  0
CIRCLE
  5
9AA0
330
97FF
100
AcDbEntity
  8
1
  6
Continuous
100
AcDbCircle
 10
150.452557
 20
237.2720029999999
 30
0.0
 40
1.0
  0
CIRCLE
  5
9AA1
330
97FF
100
AcDbEntity
  8
1
  6
Continuous
100
AcDbCircle
 10
157.119259
 20
237.2720029999999
 30
0.0
 40
1.0
  0
ARC
  5
9AA2
330
97FF
100
AcDbEntity
  8
1
  6
Continuous
100
AcDbCircle
 10
160.552548
 20
242.2720029999999
 30
0.0
 40
5.0
100
AcDbArc
 50
342.402702
 51
17.597339
  0
ARC
  5
9AA3
330
97FF
100
AcDbEntity
  8
1
  6
Continuous
100
AcDbCircle
 10
164.6513479999998
 20
243.5720059999999
 30
0.0
 40
0.7
100
AcDbArc
 50
17.597339
 51
90.00003000000004
  0
ARC
  5
9AA4
330
97FF
100
AcDbEntity
  8
1
  6
Continuous
100
AcDbCircle
 10
164.6513479999998
 20
240.972
 30
0.0
 40
0.7
100
AcDbArc
 50
270.0000109999999
 51
342.402702
  0
ARC
  5
9AA5
330
97FF
100
AcDbEntity
  8
1
  6
Continuous
100
AcDbCircle
 10
262.4525719999999
 20
150.915604
 30
0.0
 40
13.0
100
AcDbArc
 50
179.9999909999999
 51
63.528911
  0
ARC
  5
9AA6
330
97FF
100
AcDbEntity
  8
1
  6
Continuous
100
AcDbCircle
 10
236.9525569999999
 20
152.415604
 30
0.0
 40
1.5
100
AcDbArc
 50
179.9999909999999
 51
270.0000279999998
  0
ARC
  5
9AA7
330
97FF
100
AcDbEntity
  8
1
  6
Continuous
100
AcDbCircle
 10
236.9525569999999
 20
169.415604
 30
0.0
 40
1.5
100
AcDbArc
 50
90.00000900000001
 51
180.000005
  0
ARC
  5
9AA8
330
97FF
100
AcDbEntity
  8
1
  6
Continuous
100
AcDbCircle
 10
262.4525719999999
 20
150.915604
 30
0.0
 40
10.0
100
AcDbArc
 50
279.8942509999998
 51
80.10574899999998
  0
CIRCLE
  5
9AA9
330
97FF
100
AcDbEntity
  8
1
  6
Continuous
100
AcDbCircle
 10
241.9525569999999
 20
165.415604
 30
0.0
 40
2.299999999999998
  0
CIRCLE
  5
9AAA
330
97FF
100
AcDbEntity
  8
1
  6
Continuous
100
AcDbCircle
 10
241.9525569999999
 20
155.9156039999998
 30
0.0
 40
2.299999999999998
  0
CIRCLE
  5
9AAB
330
97FF
100
AcDbEntity
  8
1
  6
Continuous
100
AcDbCircle
 10
241.9525569999999
 20
165.415604
 30
0.0
 40
2.0
  0
CIRCLE
  5
9AAC
330
97FF
100
AcDbEntity
  8
1
  6
Continuous
100
AcDbCircle
 10
241.9525569999999
 20
155.9156039999998
 30
0.0
 40
2.0
  0
ARC
  5
9AAD
330
97FF
100
AcDbEntity
  8
1
  6
Continuous
100
AcDbCircle
 10
262.4525719999999
 20
143.01561
 30
0.0
 40
1.3
100
AcDbArc
 50
349.809412
 51
10.190588
  0
ARC
  5
9AAE
330
97FF
100
AcDbEntity
  8
1
  6
Continuous
100
AcDbCircle
 10
262.4525719999999
 20
143.01561
 30
0.0
 40
1.3
100
AcDbArc
 50
79.80940799999998
 51
100.19059
  0
ARC
  5
9AAF
330
97FF
100
AcDbEntity
  8
1
  6
Continuous
100
AcDbCircle
 10
262.4525719999999
 20
143.01561
 30
0.0
 40
1.3
100
AcDbArc
 50
169.809417
 51
190.190593
  0
ARC
  5
9AB0
330
97FF
100
AcDbEntity
  8
1
  6
Continuous
100
AcDbCircle
 10
262.4525719999999
 20
143.01561
 30
0.0
 40
1.3
100
AcDbArc
 50
259.80941
 51
280.1905919999999
  0
CIRCLE
  5
9AB1
330
97FF
100
AcDbEntity
  8
1
  6
Continuous
100
AcDbCircle
 10
262.4525719999999
 20
143.01561
 30
0.0
 40
2.6
  0
ARC
  5
9AB2
330
97FF
100
AcDbEntity
  8
1
  6
Continuous
100
AcDbCircle
 10
262.4525719999999
 20
158.8155979999999
 30
0.0
 40
1.3
100
AcDbArc
 50
349.809412
 51
10.190588
  0
ARC
  5
9AB3
330
97FF
100
AcDbEntity
  8
1
  6
Continuous
100
AcDbCircle
 10
262.4525719999999
 20
158.8155979999999
 30
0.0
 40
1.3
100
AcDbArc
 50
79.80940799999998
 51
100.19059
  0
ARC
  5
9AB4
330
97FF
100
AcDbEntity
  8
1
  6
Continuous
100
AcDbCircle
 10
262.4525719999999
 20
158.8155979999999
 30
0.0
 40
1.3
100
AcDbArc
 50
169.809417
 51
190.190593
  0
ARC
  5
9AB5
330
97FF
100
AcDbEntity
  8
1
  6
Continuous
100
AcDbCircle
 10
262.4525719999999
 20
158.8155979999999
 30
0.0
 40
1.3
100
AcDbArc
 50
259.80941
 51
280.1905919999999
  0
CIRCLE
  5
9AB6
330
97FF
100
AcDbEntity
  8
1
  6
Continuous
100
AcDbCircle
 10
262.4525719999999
 20
158.8155979999999
 30
0.0
 40
2.6
  0
ARC
  5
9AB7
330
97FF
100
AcDbEntity
  8
1
  6
Continuous
100
AcDbCircle
 10
262.4525719999999
 20
150.915604
 30
0.0
 40
10.0
100
AcDbArc
 50
99.89424900000001
 51
260.1057609999999
  0
ARC
  5
9AB8
330
97FF
100
AcDbEntity
  8
1
  6
Continuous
100
AcDbCircle
 10
385.4525719999998
 20
170.915604
 30
0.0
 40
1.5
100
AcDbArc
 50
0.000022
 51
90.00000900000001
  0
ARC
  5
9AB9
330
97FF
100
AcDbEntity
  8
1
  6
Continuous
100
AcDbCircle
 10
363.4525719999999
 20
170.915604
 30
0.0
 40
1.5
100
AcDbArc
 50
90.00000900000001
 51
180.000005
  0
ARC
  5
9ABA
330
97FF
100
AcDbEntity
  8
1
  6
Continuous
100
AcDbCircle
 10
364.352597
 20
165.415604
 30
0.0
 40
5.0
100
AcDbArc
 50
162.4027059999999
 51
197.5973449999999
  0
ARC
  5
9ABB
330
97FF
100
AcDbEntity
  8
1
  6
Continuous
100
AcDbCircle
 10
360.253781
 20
164.1156009999999
 30
0.0
 40
0.7
100
AcDbArc
 50
197.5973349999999
 51
270.000032
  0
ARC
  5
9ABC
330
97FF
100
AcDbEntity
  8
1
  6
Continuous
100
AcDbCircle
 10
360.253781
 20
166.715607
 30
0.0
 40
0.7
100
AcDbArc
 50
90.00000900000001
 51
162.4027059999999
  0
CIRCLE
  5
9ABD
330
97FF
100
AcDbEntity
  8
2
  6
Continuous
100
AcDbCircle
 10
50.952557
 20
165.415604
 30
0.0
 40
0.9335
  0
CIRCLE
  5
9ABE
330
97FF
100
AcDbEntity
  8
2
  6
Continuous
100
AcDbCircle
 10
50.952557
 20
155.9156039999998
 30
0.0
 40
0.9335
  0
ARC
  5
9ABF
330
97FF
100
AcDbEntity
  8
1
  6
Continuous
100
AcDbCircle
 10
25.853169
 20
262.7720029999999
 30
0.0
 40
7.932788
100
AcDbArc
 50
333.9859999999998
 51
337.0559999999999
  0
ARC
  5
9AC0
330
97FF
100
AcDbEntity
  8
1
  6
Continuous
100
AcDbCircle
 10
33.096165
 20
259.706726
 30
0.0
 40
0.066678
100
AcDbArc
 50
337.0559999999999
 51
90.00000300000001
  0
ARC
  5
9AC1
330
97FF
100
AcDbEntity
  8
1
  6
Continuous
100
AcDbCircle
 10
33.52517299999998
 20
261.0397489999999
 30
0.0
 40
0.066678
100
AcDbArc
 50
347.270997
 51
90.00000300000001
  0
ARC
  5
9AC2
330
97FF
100
AcDbEntity
  8
1
  6
Continuous
100
AcDbCircle
 10
25.853169
 20
262.7720029999999
 30
0.0
 40
7.932788
100
AcDbArc
 50
344.794003
 51
347.270997
  0
ARC
  5
9AC3
330
97FF
100
AcDbEntity
  8
1
  6
Continuous
100
AcDbCircle
 10
25.853169
 20
262.7720029999999
 30
0.0
 40
7.932788
100
AcDbArc
 50
344.741998
 51
344.794003
  0
ARC
  5
9AC4
330
97FF
100
AcDbEntity
  8
1
  6
Continuous
100
AcDbCircle
 10
33.184132
 20
260.7731479999998
 30
0.0
 40
0.333392
100
AcDbArc
 50
270.0000039999998
 51
344.741986
  0
ARC
  5
9AC5
330
97FF
100
AcDbEntity
  8
1
  6
Continuous
100
AcDbCircle
 10
29.720974
 20
260.7731479999998
 30
0.0
 40
0.333392
100
AcDbArc
 50
195.2575039999999
 51
270.0000039999998
  0
ARC
  5
9AC6
330
97FF
100
AcDbEntity
  8
1
  6
Continuous
100
AcDbCircle
 10
37.05193700000001
 20
262.7720029999999
 30
0.0
 40
7.932788
100
AcDbArc
 50
193.268102
 51
195.2575039999999
  0
ARC
  5
9AC7
330
97FF
100
AcDbEntity
  8
1
  6
Continuous
100
AcDbCircle
 10
37.05193700000001
 20
262.7720029999999
 30
0.0
 40
7.932788
100
AcDbArc
 50
192.728899
 51
193.268102
  0
ARC
  5
9AC8
330
97FF
100
AcDbEntity
  8
1
  6
Continuous
100
AcDbCircle
 10
29.379933
 20
261.0397489999999
 30
0.0
 40
0.066678
100
AcDbArc
 50
90.00000300000001
 51
192.728896
  0
ARC
  5
9AC9
330
97FF
100
AcDbEntity
  8
1
  6
Continuous
100
AcDbCircle
 10
32.682049
 20
259.440109
 30
0.0
 40
0.333392
100
AcDbArc
 50
270.0000039999998
 51
333.985995
  0
ARC
  5
9ACA
330
97FF
100
AcDbEntity
  8
1
  6
Continuous
100
AcDbCircle
 10
29.807583
 20
259.706726
 30
0.0
 40
0.066678
100
AcDbArc
 50
90.00000300000001
 51
202.9440039999998
  0
ARC
  5
9ACB
330
97FF
100
AcDbEntity
  8
1
  6
Continuous
100
AcDbCircle
 10
37.05193700000001
 20
262.7720029999999
 30
0.0
 40
7.932788
100
AcDbArc
 50
202.944007
 51
206.014396
  0
ARC
  5
9ACC
330
97FF
100
AcDbEntity
  8
1
  6
Continuous
100
AcDbCircle
 10
30.223057
 20
259.440109
 30
0.0
 40
0.333392
100
AcDbArc
 50
206.014396
 51
270.0000039999998
  0
ARC
  5
9ACD
330
97FF
100
AcDbEntity
  8
1
  6
Continuous
100
AcDbCircle
 10
31.451878
 20
258.772919
 30
0.0
 40
1.717978999999998
100
AcDbArc
 50
270.0000039999998
 51
324.4620069999998
  0
ARC
  5
9ACE
330
97FF
100
AcDbEntity
  8
1
  6
Continuous
100
AcDbCircle
 10
31.451878
 20
258.772919
 30
0.0
 40
1.717978999999998
100
AcDbArc
 50
215.5377009999999
 51
256.5374009999998
  0
ARC
  5
9ACF
330
97FF
100
AcDbEntity
  8
1
  6
Continuous
100
AcDbCircle
 10
25.853169
 20
262.7720029999999
 30
0.0
 40
7.932788
100
AcDbArc
 50
7.792996999999997
 51
10.103999
  0
ARC
  5
9AD0
330
97FF
100
AcDbEntity
  8
1
  6
Continuous
100
AcDbCircle
 10
33.646969
 20
263.839783
 30
0.0
 40
0.066678
100
AcDbArc
 50
270.0000039999998
 51
7.793000999999998
  0
ARC
  5
9AD1
330
97FF
100
AcDbEntity
  8
1
  6
Continuous
100
AcDbCircle
 10
33.334355
 20
264.106384
 30
0.0
 40
0.333392
100
AcDbArc
 50
10.103999
 51
90.00000300000001
  0
ARC
  5
9AD2
330
97FF
100
AcDbEntity
  8
1
  6
Continuous
100
AcDbCircle
 10
29.25813699999999
 20
263.839783
 30
0.0
 40
0.066678
100
AcDbArc
 50
172.207005
 51
270.000001
  0
ARC
  5
9AD3
330
97FF
100
AcDbEntity
  8
1
  6
Continuous
100
AcDbCircle
 10
37.05193700000001
 20
262.7720029999999
 30
0.0
 40
7.932788
100
AcDbArc
 50
169.8959969999999
 51
172.207005
  0
ARC
  5
9AD4
330
97FF
100
AcDbEntity
  8
1
  6
Continuous
100
AcDbCircle
 10
29.570751
 20
264.106384
 30
0.0
 40
0.333392
100
AcDbArc
 50
90.00000300000001
 51
169.8959969999999
  0
ARC
  5
9AD5
330
97FF
100
AcDbEntity
  8
1
  6
Continuous
100
AcDbCircle
 10
31.451878
 20
266.7724299999998
 30
0.0
 40
1.717978999999998
100
AcDbArc
 50
35.53799999999999
 51
45.698999
  0
ARC
  5
9AD6
330
97FF
100
AcDbEntity
  8
1
  6
Continuous
100
AcDbCircle
 10
31.451878
 20
266.7724299999998
 30
0.0
 40
1.717978999999998
100
AcDbArc
 50
62.25000299999999
 51
144.461998
  0
ARC
  5
9AD7
330
97FF
100
AcDbEntity
  8
1
  6
Continuous
100
AcDbCircle
 10
31.11895399999999
 20
266.1052549999999
 30
0.0
 40
0.333392
100
AcDbArc
 50
270.0000039999998
 51
90.00000300000001
  0
ARC
  5
9AD8
330
97FF
100
AcDbEntity
  8
1
  6
Continuous
100
AcDbCircle
 10
37.05193700000001
 20
262.7720029999999
 30
0.0
 40
8.599396
100
AcDbArc
 50
144.461998
 51
215.5376979999999
  0
ARC
  5
9AD9
330
97FF
100
AcDbEntity
  8
1
  6
Continuous
100
AcDbCircle
 10
25.853169
 20
262.7720029999999
 30
0.0
 40
8.599396
100
AcDbArc
 50
324.461996
 51
35.53799999999999
  0
CIRCLE
  5
9ADA
330
97FF
100
AcDbEntity
  8
1
  6
Continuous
100
AcDbCircle
 10
30.452553
 20
150.915604
 30
0.0
 40
11.0
  0
LINE
  5
9ADB
330
97FF
100
AcDbEntity
  8
1
  6
Continuous
100
AcDbLine
 10
117.452557
 20
251.7720029999999
 30
0.0
 11
117.452557
 21
273.7720029999999
 31
0.0
  0
LINE
  5
9ADC
330
97FF
100
AcDbEntity
  8
1
  6
Continuous
100
AcDbLine
 10
117.452557
 20
273.7720029999999
 30
0.0
 11
121.452557
 21
275.7720029999999
 31
0.0
  0
LINE
  5
9ADD
330
97FF
100
AcDbEntity
  8
1
  6
Continuous
100
AcDbLine
 10
121.452557
 20
249.7720029999999
 30
0.0
 11
117.452557
 21
251.7720029999999
 31
0.0
  0
LINE
  5
9ADE
330
97FF
100
AcDbEntity
  8
1
  6
Continuous
100
AcDbLine
 10
117.452557
 20
60.05919599999999
 30
0.0
 11
121.452557
 21
62.05919599999999
 31
0.0
  0
LINE
  5
9ADF
330
97FF
100
AcDbEntity
  8
1
  6
Continuous
100
AcDbLine
 10
117.452557
 20
38.059196
 30
0.0
 11
117.452557
 21
60.05919599999999
 31
0.0
  0
LINE
  5
9AE0
330
97FF
100
AcDbEntity
  8
1
  6
Continuous
100
AcDbLine
 10
121.452557
 20
36.059196
 30
0.0
 11
117.452557
 21
38.059196
 31
0.0
  0
ENDSEC
  0
SECTION
  2
OBJECTS
  0
DICTIONARY
  5
97ED
330
0
100
AcDbDictionary
281
     1
  3
ACAD_CIP_PREVIOUS_PRODUCT_INFO
350
9B44
  3
ACAD_COLOR
350
9B26
  3
ACAD_DETAILVIEWSTYLE
350
9B3F
  3
ACAD_GROUP
350
97EE
  3
ACAD_LAYOUT
350
97FA
  3
ACAD_MATERIAL
350
9AF4
  3
ACAD_MLEADERSTYLE
350
9B3B
  3
ACAD_MLINESTYLE
350
97F7
  3
ACAD_PLOTSETTINGS
350
97F9
  3
ACAD_PLOTSTYLENAME
350
9AF2
  3
ACAD_SCALELIST
350
9B29
  3
ACAD_SECTIONVIEWSTYLE
350
9B3D
  3
ACAD_TABLESTYLE
350
9B27
  3
ACAD_VISUALSTYLE
350
9B0D
  3
ACDB_RECOMPOSE_DATA
350
9B62
  3
AcDbVariableDictionary
350
9B55
  3
DWGPROPS
350
9B63
  0
DICTIONARY
  5
9B45
330
97F1
100
AcDbDictionary
280
     1
281
     1
  3
ADSK_XREC_LAYER_RECONCILED
360
9B46
  0
DICTIONARY
  5
9B47
330
9807
100
AcDbDictionary
280
     1
281
     1
  3
ADSK_XREC_LAYER_RECONCILED
360
9B48
  0
DICTIONARY
  5
9B49
330
9808
100
AcDbDictionary
280
     1
281
     1
  3
ADSK_XREC_LAYER_RECONCILED
360
9B4A
  0
DICTIONARY
  5
9B4B
330
9809
100
AcDbDictionary
280
     1
281
     1
  3
ADSK_XREC_LAYER_RECONCILED
360
9B4C
  0
DICTIONARY
  5
9B4D
330
980A
100
AcDbDictionary
280
     1
281
     1
  3
ADSK_XREC_LAYER_RECONCILED
360
9B4E
  0
DICTIONARY
  5
9B4F
330
980B
100
AcDbDictionary
280
     1
281
     1
  3
ADSK_XREC_LAYER_RECONCILED
360
9B50
  0
DICTIONARY
  5
9B51
330
980C
100
AcDbDictionary
280
     1
281
     1
  3
ADSK_XREC_LAYER_RECONCILED
360
9B52
  0
DICTIONARY
  5
9B53
330
980D
100
AcDbDictionary
280
     1
281
     1
  3
ADSK_XREC_LAYER_RECONCILED
360
9B54
  0
DICTIONARY
  5
9AED
330
97FF
100
AcDbDictionary
281
     1
  3
ACAD_LAYOUTSELFREF
350
9AEE
  0
DICTIONARY
  5
9AEB
330
97FB
100
AcDbDictionary
281
     1
  3
ACAD_LAYOUTSELFREF
350
9AEC
  0
XRECORD
  5
9B44
102
{ACAD_REACTORS
330
97ED
102
}
330
97ED
100
AcDbXrecord
280
     1
300
ACDLT
300
2014
300
ACDLT_F_S
  0
DICTIONARY
  5
9B26
102
{ACAD_REACTORS
330
97ED
102
}
330
97ED
100
AcDbDictionary
281
     1
  0
DICTIONARY
  5
9B3F
102
{ACAD_REACTORS
330
97ED
102
}
330
97ED
100
AcDbDictionary
281
     1
  3
Imperial24
350
9B40
  0
DICTIONARY
  5
97EE
102
{ACAD_REACTORS
330
97ED
102
}
330
97ED
100
AcDbDictionary
281
     1
  0
DICTIONARY
  5
97FA
102
{ACAD_REACTORS
330
97ED
102
}
330
97ED
100
AcDbDictionary
281
     1
  3
Model
350
9B41
  3
レイアウト1
350
9B42
  0
DICTIONARY
  5
9AF4
102
{ACAD_REACTORS
330
97ED
102
}
330
97ED
100
AcDbDictionary
281
     1
  3
ByBlock
350
9AFD
  3
ByLayer
350
9AF5
  3
Global
350
9B05
  0
DICTIONARY
  5
9B3B
102
{ACAD_REACTORS
330
97ED
102
}
330
97ED
100
AcDbDictionary
281
     1
  3
Standard
350
9B3C
  0
DICTIONARY
  5
97F7
102
{ACAD_REACTORS
330
97ED
102
}
330
97ED
100
AcDbDictionary
281
     1
  3
STANDARD
350
97F8
  0
DICTIONARY
  5
97F9
102
{ACAD_REACTORS
330
97ED
102
}
330
97ED
100
AcDbDictionary
281
     1
  0
ACDBDICTIONARYWDFLT
  5
9AF2
102
{ACAD_REACTORS
330
97ED
102
}
330
97ED
100
AcDbDictionary
281
     1
  3
Normal
350
9AF3
100
AcDbDictionaryWithDefault
340
9AF3
  0
DICTIONARY
  5
9B29
102
{ACAD_REACTORS
330
97ED
102
}
330
97ED
100
AcDbDictionary
281
     1
  3
A0
350
9B2A
  3
A1
350
9B2B
  3
A2
350
9B2C
  3
A3
350
9B2D
  3
A4
350
9B2E
  3
A5
350
9B2F
  3
A6
350
9B30
  3
A7
350
9B31
  3
A8
350
9B32
  3
A9
350
9B33
  3
B0
350
9B34
  3
B1
350
9B35
  3
B2
350
9B36
  3
B3
350
9B37
  3
B4
350
9B38
  3
B5
350
9B39
  3
B6
350
9B3A
  0
DICTIONARY
  5
9B3D
102
{ACAD_REACTORS
330
97ED
102
}
330
97ED
100
AcDbDictionary
281
     1
  3
Imperial24
350
9B3E
  0
DICTIONARY
  5
9B27
102
{ACAD_REACTORS
330
97ED
102
}
330
97ED
100
AcDbDictionary
281
     1
  3
Standard
350
9B28
  0
DICTIONARY
  5
9B0D
102
{ACAD_REACTORS
330
97ED
102
}
330
97ED
100
AcDbDictionary
281
     1
  3
2dWireframe
350
9B13
  3
Basic
350
9B12
  3
Brighten
350
9B19
  3
ColorChange
350
9B1D
  3
Conceptual
350
9B16
  3
Dim
350
9B18
  3
EdgeColorOff
350
9B25
  3
Facepattern
350
9B1C
  3
Flat
350
9B0E
  3
FlatWithEdges
350
9B0F
  3
Gouraud
350
9B10
  3
GouraudWithEdges
350
9B11
  3
Hidden
350
9B15
  3
JitterOff
350
9B23
  3
Linepattern
350
9B1B
  3
OverhangOff
350
9B24
  3
Realistic
350
9B17
  3
Shaded
350
9B22
  3
Shaded with edges
350
9B21
  3
Shades of Gray
350
9B1E
  3
Sketchy
350
9B1F
  3
Thicken
350
9B1A
  3
Wireframe
350
9B14
  3
X-Ray
350
9B20
  0
XRECORD
  5
9B62
102
{ACAD_REACTORS
330
97ED
102
}
330
97ED
100
AcDbXrecord
280
     1
 90
        1
330
9B28
  0
DICTIONARY
  5
9B55
102
{ACAD_REACTORS
330
97ED
102
}
330
97ED
100
AcDbDictionary
281
     1
  3
CANNOSCALE
350
9B5A
  3
CMLEADERSTYLE
350
9B57
  3
CTABLESTYLE
350
9B56
  3
CVIEWDETAILSTYLE
350
9B58
  3
CVIEWSECTIONSTYLE
350
9B59
  3
DIMASSOC
350
9B5D
  3
INDEXCTL
350
9B5C
  3
SORTENTS
350
9B5B
  3
XCLIPFRAME
350
9B5E
  0
XRECORD
  5
9B63
102
{ACAD_REACTORS
330
97ED
102
}
330
97ED
100
AcDbXrecord
280
     1
  1
DWGPROPS COOKIE
  2

  3

  4

  6

  7

  8
Yoshitsune
  9

300
=
301
=
302
=
303
=
304
=
305
=
306
=
307
=
308
=
309
=
 40
0.0000140393518519
 41
2450945.563564699
 42
2457192.598971991
  1

 90
        0
  0
XRECORD
  5
9B46
102
{ACAD_REACTORS
330
9B45
102
}
330
9B45
100
AcDbXrecord
280
     1
290
     1
  0
XRECORD
  5
9B48
102
{ACAD_REACTORS
330
9B47
102
}
330
9B47
100
AcDbXrecord
280
     1
290
     1
  0
XRECORD
  5
9B4A
102
{ACAD_REACTORS
330
9B49
102
}
330
9B49
100
AcDbXrecord
280
     1
290
     1
  0
XRECORD
  5
9B4C
102
{ACAD_REACTORS
330
9B4B
102
}
330
9B4B
100
AcDbXrecord
280
     1
290
     1
  0
XRECORD
  5
9B4E
102
{ACAD_REACTORS
330
9B4D
102
}
330
9B4D
100
AcDbXrecord
280
     1
290
     1
  0
XRECORD
  5
9B50
102
{ACAD_REACTORS
330
9B4F
102
}
330
9B4F
100
AcDbXrecord
280
     1
290
     1
  0
XRECORD
  5
9B52
102
{ACAD_REACTORS
330
9B51
102
}
330
9B51
100
AcDbXrecord
280
     1
290
     1
  0
XRECORD
  5
9B54
102
{ACAD_REACTORS
330
9B53
102
}
330
9B53
100
AcDbXrecord
280
     1
290
     1
  0
XRECORD
  5
9AEE
102
{ACAD_REACTORS
330
9AED
102
}
330
9AED
100
AcDbXrecord
280
     1
340
97FF
  0
XRECORD
  5
9AEC
102
{ACAD_REACTORS
330
9AEB
102
}
330
9AEB
100
AcDbXrecord
280
     1
340
97FB
  0
ACDBDETAILVIEWSTYLE
  5
9B40
102
{ACAD_XDICTIONARY
360
9B9B
102
}
102
{ACAD_REACTORS
330
9B3F
102
}
330
9B3F
100
AcDbModelDocViewStyle
 70
     0
  3
Imperial24
290
     0
100
AcDbDetailViewStyle
 70
     0
 71
     0
 90
        3
 71
     1
340
97F2
 40
0.24
340
0
 40
0.24
300

 40
0.36
280
     3
 71
     2
340
97F6
 90
       25
 71
     3
340
97F2
 40
0.24
 90
        1
 40
0.75
 90
        1
300
%<\AcVar ViewType \f "%tc1">% %<\AcVar ViewDetailId>%\PSCALE %<\AcVar ViewScale \f "%sn">%
 71
     4
340
97F6
 90
       25
340
97F6
 90
       25
280
     0
  0
LAYOUT
  5
9B41
102
{ACAD_XDICTIONARY
360
9B9D
102
}
102
{ACAD_REACTORS
330
97FA
102
}
330
97FA
100
AcDbPlotSettings
  1

  2
Canon LBP9100C
  4

  6

 40
0.0
 41
0.0
 42
0.0
 43
0.0
 44
0.0
 45
0.0
 46
0.0
 47
0.0
 48
0.0
 49
0.0
140
0.0
141
0.0
142
1.0
143
1.0
 70
  1712
 72
     0
 73
     0
 74
     0
  7

 75
     0
147
1.0
148
0.0
149
0.0
100
AcDbLayout
  1
Model
 70
     1
 71
     0
 10
0.0
 20
0.0
 11
12.0
 21
9.0
 12
0.0
 22
0.0
 32
0.0
 14
0.0
 24
0.0
 34
0.0
 15
0.0
 25
0.0
 35
0.0
146
0.0
 13
0.0
 23
0.0
 33
0.0
 16
1.0
 26
0.0
 36
0.0
 17
0.0
 27
1.0
 37
0.0
 76
     0
330
97FF
331
9AEA
  0
LAYOUT
  5
9B42
102
{ACAD_XDICTIONARY
360
9B9F
102
}
102
{ACAD_REACTORS
330
97FA
102
}
330
97FA
100
AcDbPlotSettings
  1

  2
Canon LBP9100C
  4

  6

 40
0.0
 41
0.0
 42
0.0
 43
0.0
 44
0.0
 45
0.0
 46
0.0
 47
0.0
 48
0.0
 49
0.0
140
0.0
141
0.0
142
1.0
143
1.0
 70
   688
 72
     0
 73
     0
 74
     5
  7

 75
    16
147
1.0
148
0.0
149
0.0
100
AcDbLayout
  1
レイアウト1
 70
     0
 71
     1
 10
0.0
 20
0.0
 11
420.0
 21
297.0
 12
0.0
 22
0.0
 32
0.0
 14
1.000000000000000E+20
 24
1.000000000000000E+20
 34
1.000000000000000E+20
 15
-1.000000000000000E+20
 25
-1.000000000000000E+20
 35
-1.000000000000000E+20
146
0.0
 13
0.0
 23
0.0
 33
0.0
 16
1.0
 26
0.0
 36
0.0
 17
0.0
 27
1.0
 37
0.0
 76
     0
330
97FB
  0
MATERIAL
  5
9AFD
102
{ACAD_XDICTIONARY
360
9AFE
102
}
102
{ACAD_REACTORS
330
9AF4
102
}
330
9AF4
100
AcDbMaterial
  1
ByBlock
 72
     0
 43
0.0208333333333333
 43
0.0
 43
0.0
 43
0.0
 43
0.0
 43
0.0208333333333333
 43
0.0
 43
0.0
 43
0.0
 43
0.0
 43
1.0
 43
0.0
 43
0.0
 43
0.0
 43
0.0
 43
1.0
 77
     0
 47
0.0208333333333333
 47
0.0
 47
0.0
 47
0.0
 47
0.0
 47
0.0208333333333333
 47
0.0
 47
0.0
 47
0.0
 47
0.0
 47
1.0
 47
0.0
 47
0.0
 47
0.0
 47
0.0
 47
1.0
171
     0
 49
0.0208333333333333
 49
0.0
 49
0.0
 49
0.0
 49
0.0
 49
0.0208333333333333
 49
0.0
 49
0.0
 49
0.0
 49
0.0
 49
1.0
 49
0.0
 49
0.0
 49
0.0
 49
0.0
 49
1.0
175
     0
142
0.0208333333333333
142
0.0
142
0.0
142
0.0
142
0.0
142
0.0208333333333333
142
0.0
142
0.0
142
0.0
142
0.0
142
1.0
142
0.0
142
0.0
142
0.0
142
0.0
142
1.0
179
     0
144
0.0208333333333333
144
0.0
144
0.0
144
0.0
144
0.0
144
0.0208333333333333
144
0.0
144
0.0
144
0.0
144
0.0
144
1.0
144
0.0
144
0.0
144
0.0
144
0.0
144
1.0
147
0.0208333333333333
147
0.0
147
0.0
147
0.0
147
0.0
147
0.0208333333333333
147
0.0
147
0.0
147
0.0
147
0.0
147
1.0
147
0.0
147
0.0
147
0.0
147
0.0
147
1.0
  0
MATERIAL
  5
9AF5
102
{ACAD_XDICTIONARY
360
9AF6
102
}
102
{ACAD_REACTORS
330
9AF4
102
}
330
9AF4
100
AcDbMaterial
  1
ByLayer
 72
     0
 43
0.0208333333333333
 43
0.0
 43
0.0
 43
0.0
 43
0.0
 43
0.0208333333333333
 43
0.0
 43
0.0
 43
0.0
 43
0.0
 43
1.0
 43
0.0
 43
0.0
 43
0.0
 43
0.0
 43
1.0
 77
     0
 47
0.0208333333333333
 47
0.0
 47
0.0
 47
0.0
 47
0.0
 47
0.0208333333333333
 47
0.0
 47
0.0
 47
0.0
 47
0.0
 47
1.0
 47
0.0
 47
0.0
 47
0.0
 47
0.0
 47
1.0
171
     0
 49
0.0208333333333333
 49
0.0
 49
0.0
 49
0.0
 49
0.0
 49
0.0208333333333333
 49
0.0
 49
0.0
 49
0.0
 49
0.0
 49
1.0
 49
0.0
 49
0.0
 49
0.0
 49
0.0
 49
1.0
175
     0
142
0.0208333333333333
142
0.0
142
0.0
142
0.0
142
0.0
142
0.0208333333333333
142
0.0
142
0.0
142
0.0
142
0.0
142
1.0
142
0.0
142
0.0
142
0.0
142
0.0
142
1.0
179
     0
144
0.0208333333333333
144
0.0
144
0.0
144
0.0
144
0.0
144
0.0208333333333333
144
0.0
144
0.0
144
0.0
144
0.0
144
1.0
144
0.0
144
0.0
144
0.0
144
0.0
144
1.0
147
0.0208333333333333
147
0.0
147
0.0
147
0.0
147
0.0
147
0.0208333333333333
147
0.0
147
0.0
147
0.0
147
0.0
147
1.0
147
0.0
147
0.0
147
0.0
147
0.0
147
1.0
  0
MATERIAL
  5
9B05
102
{ACAD_XDICTIONARY
360
9B06
102
}
102
{ACAD_REACTORS
330
9AF4
102
}
330
9AF4
100
AcDbMaterial
  1
Global
 72
     0
 43
0.0208333333333333
 43
0.0
 43
0.0
 43
0.0
 43
0.0
 43
0.0208333333333333
 43
0.0
 43
0.0
 43
0.0
 43
0.0
 43
1.0
 43
0.0
 43
0.0
 43
0.0
 43
0.0
 43
1.0
 77
     0
 47
0.0208333333333333
 47
0.0
 47
0.0
 47
0.0
 47
0.0
 47
0.0208333333333333
 47
0.0
 47
0.0
 47
0.0
 47
0.0
 47
1.0
 47
0.0
 47
0.0
 47
0.0
 47
0.0
 47
1.0
171
     0
 49
0.0208333333333333
 49
0.0
 49
0.0
 49
0.0
 49
0.0
 49
0.0208333333333333
 49
0.0
 49
0.0
 49
0.0
 49
0.0
 49
1.0
 49
0.0
 49
0.0
 49
0.0
 49
0.0
 49
1.0
175
     0
142
0.0208333333333333
142
0.0
142
0.0
142
0.0
142
0.0
142
0.0208333333333333
142
0.0
142
0.0
142
0.0
142
0.0
142
1.0
142
0.0
142
0.0
142
0.0
142
0.0
142
1.0
179
     0
144
0.0208333333333333
144
0.0
144
0.0
144
0.0
144
0.0
144
0.0208333333333333
144
0.0
144
0.0
144
0.0
144
0.0
144
1.0
144
0.0
144
0.0
144
0.0
144
0.0
144
1.0
147
0.0208333333333333
147
0.0
147
0.0
147
0.0
147
0.0
147
0.0208333333333333
147
0.0
147
0.0
147
0.0
147
0.0
147
1.0
147
0.0
147
0.0
147
0.0
147
0.0
147
1.0
  0
MLEADERSTYLE
  5
9B3C
102
{ACAD_REACTORS
330
9B3B
102
}
330
9B3B
100
AcDbMLeaderStyle
170
     2
171
     1
172
     0
 90
        2
 40
0.0
 41
0.0
173
     1
 91
-1056964608
340
97F4
 92
       -2
290
     1
 42
0.09
291
     1
 43
0.36
  3
Standard
 44
0.18
300

342
97F2
174
     1
178
     6
175
     1
176
     0
 93
-1056964608
 45
0.18
292
     0
297
     0
 46
0.18
 94
-1056964608
 47
1.0
 49
1.0
140
1.0
293
     1
141
0.0
294
     1
177
     0
142
1.0
295
     0
296
     0
143
0.125
1001
ACAD_MLEADERVER
1070
     2
  0
MLINESTYLE
  5
97F8
102
{ACAD_REACTORS
330
97F7
102
}
330
97F7
100
AcDbMlineStyle
  2
STANDARD
 70
     0
  3

 62
   256
 51
90.0
 52
90.0
 71
     2
 49
0.5
 62
   256
  6
BYLAYER
 49
-0.5
 62
   256
  6
BYLAYER
  0
ACDBPLACEHOLDER
  5
9AF3
102
{ACAD_REACTORS
330
9AF2
102
}
330
9AF2
  0
SCALE
  5
9B2A
102
{ACAD_REACTORS
330
9B29
102
}
330
9B29
100
AcDbScale
 70
     0
300
1:1
140
1.0
141
1.0
290
     1
  0
SCALE
  5
9B2B
102
{ACAD_REACTORS
330
9B29
102
}
330
9B29
100
AcDbScale
 70
     0
300
1/128" = 1'-0"
140
0.0078125
141
12.0
290
     0
  0
SCALE
  5
9B2C
102
{ACAD_REACTORS
330
9B29
102
}
330
9B29
100
AcDbScale
 70
     0
300
1/64" = 1'-0"
140
0.015625
141
12.0
290
     0
  0
SCALE
  5
9B2D
102
{ACAD_REACTORS
330
9B29
102
}
330
9B29
100
AcDbScale
 70
     0
300
1/32" = 1'-0"
140
0.03125
141
12.0
290
     0
  0
SCALE
  5
9B2E
102
{ACAD_REACTORS
330
9B29
102
}
330
9B29
100
AcDbScale
 70
     0
300
1/16" = 1'-0"
140
0.0625
141
12.0
290
     0
  0
SCALE
  5
9B2F
102
{ACAD_REACTORS
330
9B29
102
}
330
9B29
100
AcDbScale
 70
     0
300
3/32" = 1'-0"
140
0.09375
141
12.0
290
     0
  0
SCALE
  5
9B30
102
{ACAD_REACTORS
330
9B29
102
}
330
9B29
100
AcDbScale
 70
     0
300
1/8" = 1'-0"
140
0.125
141
12.0
290
     0
  0
SCALE
  5
9B31
102
{ACAD_REACTORS
330
9B29
102
}
330
9B29
100
AcDbScale
 70
     0
300
3/16" = 1'-0"
140
0.1875
141
12.0
290
     0
  0
SCALE
  5
9B32
102
{ACAD_REACTORS
330
9B29
102
}
330
9B29
100
AcDbScale
 70
     0
300
1/4" = 1'-0"
140
0.25
141
12.0
290
     0
  0
SCALE
  5
9B33
102
{ACAD_REACTORS
330
9B29
102
}
330
9B29
100
AcDbScale
 70
     0
300
3/8" = 1'-0"
140
0.375
141
12.0
290
     0
  0
SCALE
  5
9B34
102
{ACAD_REACTORS
330
9B29
102
}
330
9B29
100
AcDbScale
 70
     0
300
1/2" = 1'-0"
140
0.5
141
12.0
290
     0
  0
SCALE
  5
9B35
102
{ACAD_REACTORS
330
9B29
102
}
330
9B29
100
AcDbScale
 70
     0
300
3/4" = 1'-0"
140
0.75
141
12.0
290
     0
  0
SCALE
  5
9B36
102
{ACAD_REACTORS
330
9B29
102
}
330
9B29
100
AcDbScale
 70
     0
300
1" = 1'-0"
140
1.0
141
12.0
290
     0
  0
SCALE
  5
9B37
102
{ACAD_REACTORS
330
9B29
102
}
330
9B29
100
AcDbScale
 70
     0
300
1-1/2" = 1'-0"
140
1.5
141
12.0
290
     0
  0
SCALE
  5
9B38
102
{ACAD_REACTORS
330
9B29
102
}
330
9B29
100
AcDbScale
 70
     0
300
3" = 1'-0"
140
3.0
141
12.0
290
     0
  0
SCALE
  5
9B39
102
{ACAD_REACTORS
330
9B29
102
}
330
9B29
100
AcDbScale
 70
     0
300
6" = 1'-0"
140
6.0
141
12.0
290
     0
  0
SCALE
  5
9B3A
102
{ACAD_REACTORS
330
9B29
102
}
330
9B29
100
AcDbScale
 70
     0
300
1'-0" = 1'-0"
140
12.0
141
12.0
290
     0
  0
ACDBSECTIONVIEWSTYLE
  5
9B3E
102
{ACAD_XDICTIONARY
360
9B99
102
}
102
{ACAD_REACTORS
330
9B3D
102
}
330
9B3D
100
AcDbModelDocViewStyle
 70
     0
  3
Imperial24
290
     0
100
AcDbSectionViewStyle
 70
     0
 71
     0
 90
       78
 71
     1
340
97F2
 40
0.24
340
0
340
0
 40
0.24
300
I, O, Q, S, X, Z
 40
0.48
 90
        3
 40
0.18
 90
        1
 71
     2
340
97F6
 90
       25
340
97F6
 90
       50
 40
0.24
 40
0.0
 40
0.24
 71
     3
340
97F2
 40
0.24
 90
        1
 40
0.75
 90
        1
300
%<\AcVar ViewType \f "%tc1">% %<\AcVar ViewSectionStartId>%-%<\AcVar ViewSectionEndId>%\PSCALE %<\AcVar ViewScale \f "%sn">%
 71
     4
300
ANSI31
 40
1.0
 90
        0
290
     0
290
     0
 90
        6
 40
0.0
 40
1.570796326794896
 40
0.2617993877991494
 40
1.308996938995747
 40
-0.2617993877991494
 40
1.832595714594046
  0
TABLESTYLE
  5
9B28
102
{ACAD_XDICTIONARY
360
9B60
102
}
102
{ACAD_REACTORS
330
9B27
102
}
330
9B27
100
AcDbTableStyle
  3
Standard
 70
     0
 71
     0
 40
0.06
 41
0.06
280
     0
281
     0
  7
STANDARD
140
0.18
170
     2
 62
     0
 63
     7
283
     0
274
    -2
284
     1
 64
     0
275
    -2
285
     1
 65
     0
276
    -2
286
     1
 66
     0
277
    -2
287
     1
 67
     0
278
    -2
288
     1
 68
     0
279
    -2
289
     1
 69
     0
  7
STANDARD
140
0.25
170
     5
 62
     0
 63
     7
283
     0
274
    -2
284
     1
 64
     0
275
    -2
285
     1
 65
     0
276
    -2
286
     1
 66
     0
277
    -2
287
     1
 67
     0
278
    -2
288
     1
 68
     0
279
    -2
289
     1
 69
     0
  7
STANDARD
140
0.18
170
     5
 62
     0
 63
     7
283
     0
274
    -2
284
     1
 64
     0
275
    -2
285
     1
 65
     0
276
    -2
286
     1
 66
     0
277
    -2
287
     1
 67
     0
278
    -2
288
     1
 68
     0
279
    -2
289
     1
 69
     0
  0
VISUALSTYLE
  5
9B13
102
{ACAD_XDICTIONARY
360
9B71
102
}
102
{ACAD_REACTORS
330
9B0D
102
}
330
9B0D
100
AcDbVisualStyle
  2
2dWireframe
 70
     4
 71
     0
 72
     2
 73
     0
 90
        0
 40
-0.6
 41
-30.0
 62
     5
 63
     7
 74
     1
 91
        4
 64
     7
 65
   257
 75
     1
175
     1
 42
1.0
 92
        0
 66
   257
 43
1.0
 76
     1
 77
     6
 78
     2
 67
     7
 79
     5
170
     0
171
     0
290
     0
174
     0
 93
        1
 44
0.0
173
     0
291
     0
 45
0.0
1001
ACAD
1000
AcDbSavedByObjectVersion
1070
     0
  0
VISUALSTYLE
  5
9B12
102
{ACAD_XDICTIONARY
360
9B6F
102
}
102
{ACAD_REACTORS
330
9B0D
102
}
330
9B0D
100
AcDbVisualStyle
  2
Basic
 70
     7
 71
     1
 72
     0
 73
     1
 90
        0
 40
-0.6
 41
-30.0
 62
     5
 63
     7
 74
     0
 91
        4
 64
     7
 65
   257
 75
     1
175
     1
 42
1.0
 92
        8
 66
     7
 43
1.0
 76
     1
 77
     6
 78
     2
 67
     7
 79
     5
170
     0
171
     0
290
     0
174
     0
 93
        1
 44
0.0
173
     0
291
     1
 45
0.0
1001
ACAD
1000
AcDbSavedByObjectVersion
1070
     0
  0
VISUALSTYLE
  5
9B19
102
{ACAD_XDICTIONARY
360
9B7D
102
}
102
{ACAD_REACTORS
330
9B0D
102
}
330
9B0D
100
AcDbVisualStyle
  2
Brighten
 70
    12
 71
     2
 72
     2
 73
     0
 90
        0
 40
-0.6
 41
-30.0
 62
     5
 63
     7
 74
     1
 91
        4
 64
     7
 65
   257
 75
     1
175
     1
 42
1.0
 92
        8
 66
     7
 43
1.0
 76
     1
 77
     6
 78
     2
 67
     7
 79
     5
170
     0
171
     0
290
     0
174
     0
 93
        1
 44
50.0
173
     0
291
     1
 45
0.0
1001
ACAD
1000
AcDbSavedByObjectVersion
1070
     0
  0
VISUALSTYLE
  5
9B1D
102
{ACAD_XDICTIONARY
360
9B85
102
}
102
{ACAD_REACTORS
330
9B0D
102
}
330
9B0D
100
AcDbVisualStyle
  2
ColorChange
 70
    16
 71
     2
 72
     2
 73
     3
 90
        0
 40
-0.6
 41
-30.0
 62
     5
 63
     8
 74
     1
 91
        4
 64
     7
 65
   257
 75
     1
175
     1
 42
1.0
 92
        8
 66
     8
 43
1.0
 76
     1
 77
     6
 78
     2
 67
     7
 79
     5
170
     0
171
     0
290
     0
174
     0
 93
        1
 44
0.0
173
     0
291
     1
 45
0.0
1001
ACAD
1000
AcDbSavedByObjectVersion
1070
     0
  0
VISUALSTYLE
  5
9B16
102
{ACAD_XDICTIONARY
360
9B77
102
}
102
{ACAD_REACTORS
330
9B0D
102
}
330
9B0D
100
AcDbVisualStyle
  2
Conceptual
 70
     9
 71
     3
 72
     2
 73
     0
 90
        0
 40
-0.6
 41
-30.0
 62
     5
 63
     7
 74
     2
 91
        2
 64
     7
 65
   257
 75
     1
175
     1
 42
179.0
 92
        8
 66
     7
 43
1.0
 76
     1
 77
     6
 78
     2
 67
     7
 79
     3
170
     0
171
     0
290
     0
174
     0
 93
        1
 44
0.0
173
     0
291
     0
 45
0.0
1001
ACAD
1000
AcDbSavedByObjectVersion
1070
     0
  0
VISUALSTYLE
  5
9B18
102
{ACAD_XDICTIONARY
360
9B7B
102
}
102
{ACAD_REACTORS
330
9B0D
102
}
330
9B0D
100
AcDbVisualStyle
  2
Dim
 70
    11
 71
     2
 72
     2
 73
     0
 90
        0
 40
-0.6
 41
-30.0
 62
     5
 63
     7
 74
     1
 91
        4
 64
     7
 65
   257
 75
     1
175
     1
 42
1.0
 92
        8
 66
     7
 43
1.0
 76
     1
 77
     6
 78
     2
 67
     7
 79
     5
170
     0
171
     0
290
     0
174
     0
 93
        1
 44
-50.0
173
     0
291
     1
 45
0.0
1001
ACAD
1000
AcDbSavedByObjectVersion
1070
     0
  0
VISUALSTYLE
  5
9B25
102
{ACAD_XDICTIONARY
360
9B95
102
}
102
{ACAD_REACTORS
330
9B0D
102
}
330
9B0D
100
AcDbVisualStyle
  2
EdgeColorOff
 70
    22
 71
     2
 72
     2
 73
     0
 90
        0
 40
-0.6
 41
-30.0
 62
     5
 63
     7
 74
     1
 91
        4
 64
     7
 65
   257
 75
     1
175
     1
 42
1.0
 92
        8
 66
     7
 43
1.0
 76
     1
 77
     6
 78
     2
 67
     7
 79
     5
170
     0
171
     0
290
     0
174
     0
 93
        1
 44
0.0
173
     0
291
     1
 45
0.0
1001
ACAD
1000
AcDbSavedByObjectVersion
1070
     0
  0
VISUALSTYLE
  5
9B1C
102
{ACAD_XDICTIONARY
360
9B83
102
}
102
{ACAD_REACTORS
330
9B0D
102
}
330
9B0D
100
AcDbVisualStyle
  2
Facepattern
 70
    15
 71
     2
 72
     2
 73
     0
 90
        0
 40
-0.6
 41
-30.0
 62
     5
 63
     7
 74
     1
 91
        4
 64
     7
 65
   257
 75
     1
175
     1
 42
1.0
 92
        8
 66
     7
 43
1.0
 76
     1
 77
     6
 78
     2
 67
     7
 79
     5
170
     0
171
     0
290
     0
174
     0
 93
        1
 44
0.0
173
     0
291
     1
 45
0.0
1001
ACAD
1000
AcDbSavedByObjectVersion
1070
     0
  0
VISUALSTYLE
  5
9B0E
102
{ACAD_XDICTIONARY
360
9B67
102
}
102
{ACAD_REACTORS
330
9B0D
102
}
330
9B0D
100
AcDbVisualStyle
  2
Flat
 70
     0
 71
     2
 72
     1
 73
     1
 90
        2
 40
-0.6
 41
30.0
 62
     5
 63
     7
 74
     0
 91
        0
 64
     7
 65
   257
 75
     1
175
     1
 42
1.0
 92
        8
 66
     7
 43
1.0
 76
     1
 77
     6
 78
     2
 67
     7
 79
     5
170
     0
171
     0
290
     0
174
     0
 93
       13
 44
0.0
173
     0
291
     1
 45
0.0
1001
ACAD
1000
AcDbSavedByObjectVersion
1070
     0
  0
VISUALSTYLE
  5
9B0F
102
{ACAD_XDICTIONARY
360
9B69
102
}
102
{ACAD_REACTORS
330
9B0D
102
}
330
9B0D
100
AcDbVisualStyle
  2
FlatWithEdges
 70
     1
 71
     2
 72
     1
 73
     1
 90
        2
 40
-0.6
 41
30.0
 62
     5
 63
     7
 74
     1
 91
        0
 64
     7
 65
   257
 75
     1
175
     1
 42
1.0
 92
        0
 66
   257
 43
1.0
 76
     1
 77
     6
 78
     2
 67
     7
 79
     5
170
     0
171
     0
290
     0
174
     0
 93
       13
 44
0.0
173
     0
291
     1
 45
0.0
1001
ACAD
1000
AcDbSavedByObjectVersion
1070
     0
  0
VISUALSTYLE
  5
9B10
102
{ACAD_XDICTIONARY
360
9B6B
102
}
102
{ACAD_REACTORS
330
9B0D
102
}
330
9B0D
100
AcDbVisualStyle
  2
Gouraud
 70
     2
 71
     2
 72
     2
 73
     1
 90
        2
 40
-0.6
 41
30.0
 62
     5
 63
     7
 74
     0
 91
        0
 64
     7
 65
   257
 75
     1
175
     1
 42
1.0
 92
        0
 66
     7
 43
1.0
 76
     1
 77
     6
 78
     2
 67
     7
 79
     5
170
     0
171
     0
290
     0
174
     0
 93
       13
 44
0.0
173
     0
291
     1
 45
0.0
1001
ACAD
1000
AcDbSavedByObjectVersion
1070
     0
  0
VISUALSTYLE
  5
9B11
102
{ACAD_XDICTIONARY
360
9B6D
102
}
102
{ACAD_REACTORS
330
9B0D
102
}
330
9B0D
100
AcDbVisualStyle
  2
GouraudWithEdges
 70
     3
 71
     2
 72
     2
 73
     1
 90
        2
 40
-0.6
 41
30.0
 62
     5
 63
     7
 74
     1
 91
        0
 64
     7
 65
   257
 75
     1
175
     1
 42
1.0
 92
        0
 66
   257
 43
1.0
 76
     1
 77
     6
 78
     2
 67
     7
 79
     5
170
     0
171
     0
290
     0
174
     0
 93
       13
 44
0.0
173
     0
291
     1
 45
0.0
1001
ACAD
1000
AcDbSavedByObjectVersion
1070
     0
  0
VISUALSTYLE
  5
9B15
102
{ACAD_XDICTIONARY
360
9B75
102
}
102
{ACAD_REACTORS
330
9B0D
102
}
330
9B0D
100
AcDbVisualStyle
  2
Hidden
 70
     6
 71
     1
 72
     2
 73
     2
 90
        0
 40
-0.6
 41
-30.0
 62
     5
 63
     7
 74
     2
 91
        2
 64
     7
 65
   257
 75
     2
175
     1
 42
40.0
 92
        0
 66
   257
 43
1.0
 76
     1
 77
     6
 78
     2
 67
     7
 79
     3
170
     0
171
     0
290
     0
174
     0
 93
        1
 44
0.0
173
     0
291
     0
 45
0.0
1001
ACAD
1000
AcDbSavedByObjectVersion
1070
     0
  0
VISUALSTYLE
  5
9B23
102
{ACAD_XDICTIONARY
360
9B91
102
}
102
{ACAD_REACTORS
330
9B0D
102
}
330
9B0D
100
AcDbVisualStyle
  2
JitterOff
 70
    20
 71
     2
 72
     2
 73
     0
 90
        0
 40
-0.6
 41
-30.0
 62
     5
 63
     7
 74
     1
 91
        4
 64
     7
 65
   257
 75
     1
175
     1
 42
1.0
 92
       10
 66
     7
 43
1.0
 76
     1
 77
     6
 78
     2
 67
     7
 79
     5
170
     0
171
     0
290
     0
174
     0
 93
        1
 44
0.0
173
     0
291
     1
 45
0.0
1001
ACAD
1000
AcDbSavedByObjectVersion
1070
     0
  0
VISUALSTYLE
  5
9B1B
102
{ACAD_XDICTIONARY
360
9B81
102
}
102
{ACAD_REACTORS
330
9B0D
102
}
330
9B0D
100
AcDbVisualStyle
  2
Linepattern
 70
    14
 71
     2
 72
     2
 73
     0
 90
        0
 40
-0.6
 41
-30.0
 62
     5
 63
     7
 74
     1
 91
        4
 64
     7
 65
   257
 75
     7
175
     7
 42
1.0
 92
        8
 66
     7
 43
1.0
 76
     1
 77
     6
 78
     2
 67
     7
 79
     5
170
     0
171
     0
290
     0
174
     0
 93
        1
 44
0.0
173
     0
291
     1
 45
0.0
1001
ACAD
1000
AcDbSavedByObjectVersion
1070
     0
  0
VISUALSTYLE
  5
9B24
102
{ACAD_XDICTIONARY
360
9B93
102
}
102
{ACAD_REACTORS
330
9B0D
102
}
330
9B0D
100
AcDbVisualStyle
  2
OverhangOff
 70
    21
 71
     2
 72
     2
 73
     0
 90
        0
 40
-0.6
 41
-30.0
 62
     5
 63
     7
 74
     1
 91
        4
 64
     7
 65
   257
 75
     1
175
     1
 42
1.0
 92
        9
 66
     7
 43
1.0
 76
     1
 77
     6
 78
     2
 67
     7
 79
     5
170
     0
171
     0
290
     0
174
     0
 93
        1
 44
0.0
173
     0
291
     1
 45
0.0
1001
ACAD
1000
AcDbSavedByObjectVersion
1070
     0
  0
VISUALSTYLE
  5
9B17
102
{ACAD_XDICTIONARY
360
9B79
102
}
102
{ACAD_REACTORS
330
9B0D
102
}
330
9B0D
100
AcDbVisualStyle
  2
Realistic
 70
     8
 71
     2
 72
     3
 73
     0
 90
        2
 40
-0.6
 41
30.0
 62
     5
 63
     7
 74
     0
 91
        0
 64
     7
 65
   257
 75
     1
175
     1
 42
1.0
 92
        8
 66
   257
 43
1.0
 76
     1
 77
     6
 78
     2
 67
     7
 79
     3
170
     0
171
     0
290
     0
174
     0
 93
       13
 44
0.0
173
     0
291
     0
 45
0.0
1001
ACAD
1000
AcDbSavedByObjectVersion
1070
     0
  0
VISUALSTYLE
  5
9B22
102
{ACAD_XDICTIONARY
360
9B8F
102
}
102
{ACAD_REACTORS
330
9B0D
102
}
330
9B0D
100
AcDbVisualStyle
  2
Shaded
 70
    27
 71
     2
 72
     2
 73
     1
 90
        2
 40
-0.6
 41
30.0
 62
     5
 63
     7
 74
     0
 91
        4
 64
     7
 65
   257
 75
     1
175
     1
 42
1.0
 92
        8
 66
   257
 43
1.0
 76
     1
 77
     6
 78
     2
 67
     8
 79
     3
170
     0
171
     0
290
     0
174
     0
 93
        5
 44
0.0
173
     0
291
     0
 45
0.0
1001
ACAD
1000
AcDbSavedByObjectVersion
1070
     0
  0
VISUALSTYLE
  5
9B21
102
{ACAD_XDICTIONARY
360
9B8D
102
}
102
{ACAD_REACTORS
330
9B0D
102
}
330
9B0D
100
AcDbVisualStyle
  2
Shaded with edges
 70
    26
 71
     2
 72
     2
 73
     1
 90
        2
 40
-0.6
 41
30.0
 62
     5
 63
     7
 74
     1
 91
       10
 64
     7
 65
   257
 75
     2
175
     1
 42
1.0
 92
        8
 66
   257
 43
1.0
 76
     1
 77
     6
 78
     2
 67
     7
 79
     3
170
     0
171
     0
290
     0
174
     0
 93
        5
 44
0.0
173
     0
291
     0
 45
0.0
1001
ACAD
1000
AcDbSavedByObjectVersion
1070
     0
  0
VISUALSTYLE
  5
9B1E
102
{ACAD_XDICTIONARY
360
9B87
102
}
102
{ACAD_REACTORS
330
9B0D
102
}
330
9B0D
100
AcDbVisualStyle
  2
Shades of Gray
 70
    23
 71
     2
 72
     2
 73
     3
 90
        0
 40
-0.6
 41
-30.0
 62
     5
 63
     7
 74
     2
 91
        2
 64
     7
 65
     7
 75
     1
175
     1
 42
40.0
 92
        8
 66
     7
 43
1.0
 76
     1
 77
     6
 78
     2
 67
     7
 79
     3
170
     0
171
     0
290
     0
174
     0
 93
        1
 44
0.0
173
     0
291
     0
 45
0.0
1001
ACAD
1000
AcDbSavedByObjectVersion
1070
     0
  0
VISUALSTYLE
  5
9B1F
102
{ACAD_XDICTIONARY
360
9B89
102
}
102
{ACAD_REACTORS
330
9B0D
102
}
330
9B0D
100
AcDbVisualStyle
  2
Sketchy
 70
    24
 71
     1
 72
     2
 73
     2
 90
        0
 40
-0.6
 41
-30.0
 62
     5
 63
     7
 74
     2
 91
        2
 64
     7
 65
     7
 75
     1
175
     1
 42
40.0
 92
       11
 66
     7
 43
1.0
 76
     1
 77
     6
 78
     2
 67
     7
 79
     6
170
     0
171
     0
290
     0
174
     0
 93
        1
 44
0.0
173
     0
291
     0
 45
0.0
1001
ACAD
1000
AcDbSavedByObjectVersion
1070
     0
  0
VISUALSTYLE
  5
9B1A
102
{ACAD_XDICTIONARY
360
9B7F
102
}
102
{ACAD_REACTORS
330
9B0D
102
}
330
9B0D
100
AcDbVisualStyle
  2
Thicken
 70
    13
 71
     2
 72
     2
 73
     0
 90
        0
 40
-0.6
 41
-30.0
 62
     5
 63
     7
 74
     1
 91
        4
 64
     7
 65
   257
 75
     1
175
     1
 42
1.0
 92
       12
 66
     7
 43
1.0
 76
     1
 77
     6
 78
     2
 67
     7
 79
     5
170
     0
171
     0
290
     0
174
     0
 93
        1
 44
0.0
173
     0
291
     1
 45
0.0
1001
ACAD
1000
AcDbSavedByObjectVersion
1070
     0
  0
VISUALSTYLE
  5
9B14
102
{ACAD_XDICTIONARY
360
9B73
102
}
102
{ACAD_REACTORS
330
9B0D
102
}
330
9B0D
100
AcDbVisualStyle
  2
Wireframe
 70
     5
 71
     0
 72
     2
 73
     0
 90
        0
 40
-0.6
 41
-30.0
 62
     5
 63
     7
 74
     1
 91
        4
 64
     7
 65
   257
 75
     1
175
     1
 42
1.0
 92
        0
 66
   257
 43
1.0
 76
     1
 77
     6
 78
     2
 67
     7
 79
     3
170
     0
171
     0
290
     0
174
     0
 93
        1
 44
0.0
173
     0
291
     0
 45
0.0
1001
ACAD
1000
AcDbSavedByObjectVersion
1070
     0
  0
VISUALSTYLE
  5
9B20
102
{ACAD_XDICTIONARY
360
9B8B
102
}
102
{ACAD_REACTORS
330
9B0D
102
}
330
9B0D
100
AcDbVisualStyle
  2
X-Ray
 70
    25
 71
     2
 72
     2
 73
     1
 90
        1
 40
0.5
 41
-30.0
 62
     5
 63
     7
 74
     1
 91
        0
 64
     7
 65
   257
 75
     1
175
     1
 42
1.0
 92
        8
 66
     7
 43
1.0
 76
     1
 77
     6
 78
     2
 67
     7
 79
     3
170
     0
171
     0
290
     0
174
     0
 93
       13
 44
0.0
173
     0
291
     0
 45
0.0
1001
ACAD
1000
AcDbSavedByObjectVersion
1070
     0
  0
DICTIONARYVAR
  5
9B5A
102
{ACAD_REACTORS
330
9B55
102
}
330
9B55
100
DictionaryVariables
280
     0
  1
1:1
  0
DICTIONARYVAR
  5
9B57
102
{ACAD_REACTORS
330
9B55
102
}
330
9B55
100
DictionaryVariables
280
     0
  1
STANDARD
  0
DICTIONARYVAR
  5
9B56
102
{ACAD_REACTORS
330
9B55
102
}
330
9B55
100
DictionaryVariables
280
     0
  1
STANDARD
  0
DICTIONARYVAR
  5
9B58
102
{ACAD_REACTORS
330
9B55
102
}
330
9B55
100
DictionaryVariables
280
     0
  1
Imperial24
  0
DICTIONARYVAR
  5
9B59
102
{ACAD_REACTORS
330
9B55
102
}
330
9B55
100
DictionaryVariables
280
     0
  1
Imperial24
  0
DICTIONARYVAR
  5
9B5D
102
{ACAD_REACTORS
330
9B55
102
}
330
9B55
100
DictionaryVariables
280
     0
  1
1
  0
DICTIONARYVAR
  5
9B5C
102
{ACAD_REACTORS
330
9B55
102
}
330
9B55
100
DictionaryVariables
280
     0
  1
0
  0
DICTIONARYVAR
  5
9B5B
102
{ACAD_REACTORS
330
9B55
102
}
330
9B55
100
DictionaryVariables
280
     0
  1
127
  0
DICTIONARYVAR
  5
9B5E
102
{ACAD_REACTORS
330
9B55
102
}
330
9B55
100
DictionaryVariables
280
     0
  1
2
  0
DICTIONARY
  5
9B9B
330
9B40
100
AcDbDictionary
280
     1
281
     1
  3
ACAD_XREC_ROUNDTRIP
360
9B9C
  0
DICTIONARY
  5
9B9D
330
9B41
100
AcDbDictionary
280
     1
281
     1
  3
ACAD_XREC_ROUNDTRIP
360
9B9E
  0
DICTIONARY
  5
9B9F
330
9B42
100
AcDbDictionary
280
     1
281
     1
  3
ACAD_XREC_ROUNDTRIP
360
9BA0
  0
DICTIONARY
  5
9AFE
330
9AFD
100
AcDbDictionary
280
     1
281
     1
  3
ACAD_XREC_ROUNDTRIP
360
9B65
  3
BUMPTILE
360
9B00
  3
DIFFUSETILE
360
9AFF
  3
OPACITYTILE
360
9B03
  3
REFLECTIONTILE
360
9B02
  3
REFRACTIONTILE
360
9B04
  3
SPECULARTILE
360
9B01
  0
DICTIONARY
  5
9AF6
330
9AF5
100
AcDbDictionary
280
     1
281
     1
  3
ACAD_XREC_ROUNDTRIP
360
9B64
  3
BUMPTILE
360
9AF8
  3
DIFFUSETILE
360
9AF7
  3
OPACITYTILE
360
9AFB
  3
REFLECTIONTILE
360
9AFA
  3
REFRACTIONTILE
360
9AFC
  3
SPECULARTILE
360
9AF9
  0
DICTIONARY
  5
9B06
330
9B05
100
AcDbDictionary
280
     1
281
     1
  3
ACAD_XREC_ROUNDTRIP
360
9B66
  3
BUMPTILE
360
9B08
  3
DIFFUSETILE
360
9B07
  3
OPACITYTILE
360
9B0B
  3
REFLECTIONTILE
360
9B0A
  3
REFRACTIONTILE
360
9B0C
  3
SPECULARTILE
360
9B09
  0
DICTIONARY
  5
9B99
330
9B3E
100
AcDbDictionary
280
     1
281
     1
  3
ACAD_XREC_ROUNDTRIP
360
9B9A
  0
DICTIONARY
  5
9B60
330
9B28
100
AcDbDictionary
280
     1
281
     1
  3
ACAD_ROUNDTRIP_2008_TABLESTYLE_CELLSTYLEMAP
360
9B61
  3
ACAD_XREC_ROUNDTRIP
360
9B97
  0
DICTIONARY
  5
9B71
330
9B13
100
AcDbDictionary
280
     1
281
     1
  3
ACAD_XREC_ROUNDTRIP
360
9B72
  0
DICTIONARY
  5
9B6F
330
9B12
100
AcDbDictionary
280
     1
281
     1
  3
ACAD_XREC_ROUNDTRIP
360
9B70
  0
DICTIONARY
  5
9B7D
330
9B19
100
AcDbDictionary
280
     1
281
     1
  3
ACAD_XREC_ROUNDTRIP
360
9B7E
  0
DICTIONARY
  5
9B85
330
9B1D
100
AcDbDictionary
280
     1
281
     1
  3
ACAD_XREC_ROUNDTRIP
360
9B86
  0
DICTIONARY
  5
9B77
330
9B16
100
AcDbDictionary
280
     1
281
     1
  3
ACAD_XREC_ROUNDTRIP
360
9B78
  0
DICTIONARY
  5
9B7B
330
9B18
100
AcDbDictionary
280
     1
281
     1
  3
ACAD_XREC_ROUNDTRIP
360
9B7C
  0
DICTIONARY
  5
9B95
330
9B25
100
AcDbDictionary
280
     1
281
     1
  3
ACAD_XREC_ROUNDTRIP
360
9B96
  0
DICTIONARY
  5
9B83
330
9B1C
100
AcDbDictionary
280
     1
281
     1
  3
ACAD_XREC_ROUNDTRIP
360
9B84
  0
DICTIONARY
  5
9B67
330
9B0E
100
AcDbDictionary
280
     1
281
     1
  3
ACAD_XREC_ROUNDTRIP
360
9B68
  0
DICTIONARY
  5
9B69
330
9B0F
100
AcDbDictionary
280
     1
281
     1
  3
ACAD_XREC_ROUNDTRIP
360
9B6A
  0
DICTIONARY
  5
9B6B
330
9B10
100
AcDbDictionary
280
     1
281
     1
  3
ACAD_XREC_ROUNDTRIP
360
9B6C
  0
DICTIONARY
  5
9B6D
330
9B11
100
AcDbDictionary
280
     1
281
     1
  3
ACAD_XREC_ROUNDTRIP
360
9B6E
  0
DICTIONARY
  5
9B75
330
9B15
100
AcDbDictionary
280
     1
281
     1
  3
ACAD_XREC_ROUNDTRIP
360
9B76
  0
DICTIONARY
  5
9B91
330
9B23
100
AcDbDictionary
280
     1
281
     1
  3
ACAD_XREC_ROUNDTRIP
360
9B92
  0
DICTIONARY
  5
9B81
330
9B1B
100
AcDbDictionary
280
     1
281
     1
  3
ACAD_XREC_ROUNDTRIP
360
9B82
  0
DICTIONARY
  5
9B93
330
9B24
100
AcDbDictionary
280
     1
281
     1
  3
ACAD_XREC_ROUNDTRIP
360
9B94
  0
DICTIONARY
  5
9B79
330
9B17
100
AcDbDictionary
280
     1
281
     1
  3
ACAD_XREC_ROUNDTRIP
360
9B7A
  0
DICTIONARY
  5
9B8F
330
9B22
100
AcDbDictionary
280
     1
281
     1
  3
ACAD_XREC_ROUNDTRIP
360
9B90
  0
DICTIONARY
  5
9B8D
330
9B21
100
AcDbDictionary
280
     1
281
     1
  3
ACAD_XREC_ROUNDTRIP
360
9B8E
  0
DICTIONARY
  5
9B87
330
9B1E
100
AcDbDictionary
280
     1
281
     1
  3
ACAD_XREC_ROUNDTRIP
360
9B88
  0
DICTIONARY
  5
9B89
330
9B1F
100
AcDbDictionary
280
     1
281
     1
  3
ACAD_XREC_ROUNDTRIP
360
9B8A
  0
DICTIONARY
  5
9B7F
330
9B1A
100
AcDbDictionary
280
     1
281
     1
  3
ACAD_XREC_ROUNDTRIP
360
9B80
  0
DICTIONARY
  5
9B73
330
9B14
100
AcDbDictionary
280
     1
281
     1
  3
ACAD_XREC_ROUNDTRIP
360
9B74
  0
DICTIONARY
  5
9B8B
330
9B20
100
AcDbDictionary
280
     1
281
     1
  3
ACAD_XREC_ROUNDTRIP
360
9B8C
  0
XRECORD
  5
9B9C
102
{ACAD_REACTORS
330
9B9B
102
}
330
9B9B
100
AcDbXrecord
280
     1
102
DISPLAYNAME
  1
Imperial24
102
FLAGS
 90
        0
  0
XRECORD
  5
9B9E
102
{ACAD_REACTORS
330
9B9D
102
}
330
9B9D
100
AcDbXrecord
280
     1
102
SHADEPLOT
 70
     0
102
SHADEPLOTRESLEVEL
 70
     2
102
SHADEPLOTCUSTOMDPI
 70
   300
  0
XRECORD
  5
9BA0
102
{ACAD_REACTORS
330
9B9F
102
}
330
9B9F
100
AcDbXrecord
280
     1
102
SHADEPLOT
 70
     0
102
SHADEPLOTRESLEVEL
 70
     2
102
SHADEPLOTCUSTOMDPI
 70
   300
  0
XRECORD
  5
9B65
102
{ACAD_REACTORS
330
9AFE
102
}
330
9AFE
100
AcDbXrecord
280
     1
102
MATERIAL
148
0.0
149
0.0
149
0.0
 93
        0
 94
      127
282
     0
 72
     0
 77
     0
171
     0
175
     0
179
     0
273
     0
  0
XRECORD
  5
9B00
102
{ACAD_REACTORS
330
9AFE
102
}
330
9AFE
100
AcDbXrecord
280
     1
270
     1
271
     1
  0
XRECORD
  5
9AFF
102
{ACAD_REACTORS
330
9AFE
102
}
330
9AFE
100
AcDbXrecord
280
     1
270
     1
271
     1
  0
XRECORD
  5
9B03
102
{ACAD_REACTORS
330
9AFE
102
}
330
9AFE
100
AcDbXrecord
280
     1
270
     1
271
     1
  0
XRECORD
  5
9B02
102
{ACAD_REACTORS
330
9AFE
102
}
330
9AFE
100
AcDbXrecord
280
     1
270
     1
271
     1
  0
XRECORD
  5
9B04
102
{ACAD_REACTORS
330
9AFE
102
}
330
9AFE
100
AcDbXrecord
280
     1
270
     1
271
     1
  0
XRECORD
  5
9B01
102
{ACAD_REACTORS
330
9AFE
102
}
330
9AFE
100
AcDbXrecord
280
     1
270
     1
271
     1
  0
XRECORD
  5
9B64
102
{ACAD_REACTORS
330
9AF6
102
}
330
9AF6
100
AcDbXrecord
280
     1
102
MATERIAL
148
0.0
149
0.0
149
0.0
 93
        0
 94
      127
282
     0
 72
     0
 77
     0
171
     0
175
     0
179
     0
273
     0
  0
XRECORD
  5
9AF8
102
{ACAD_REACTORS
330
9AF6
102
}
330
9AF6
100
AcDbXrecord
280
     1
270
     1
271
     1
  0
XRECORD
  5
9AF7
102
{ACAD_REACTORS
330
9AF6
102
}
330
9AF6
100
AcDbXrecord
280
     1
270
     1
271
     1
  0
XRECORD
  5
9AFB
102
{ACAD_REACTORS
330
9AF6
102
}
330
9AF6
100
AcDbXrecord
280
     1
270
     1
271
     1
  0
XRECORD
  5
9AFA
102
{ACAD_REACTORS
330
9AF6
102
}
330
9AF6
100
AcDbXrecord
280
     1
270
     1
271
     1
  0
XRECORD
  5
9AFC
102
{ACAD_REACTORS
330
9AF6
102
}
330
9AF6
100
AcDbXrecord
280
     1
270
     1
271
     1
  0
XRECORD
  5
9AF9
102
{ACAD_REACTORS
330
9AF6
102
}
330
9AF6
100
AcDbXrecord
280
     1
270
     1
271
     1
  0
XRECORD
  5
9B66
102
{ACAD_REACTORS
330
9B06
102
}
330
9B06
100
AcDbXrecord
280
     1
102
MATERIAL
148
0.0
149
0.0
149
0.0
 93
        0
 94
      127
282
     0
 72
     0
 77
     0
171
     0
175
     0
179
     0
273
     0
  0
XRECORD
  5
9B08
102
{ACAD_REACTORS
330
9B06
102
}
330
9B06
100
AcDbXrecord
280
     1
270
     1
271
     1
  0
XRECORD
  5
9B07
102
{ACAD_REACTORS
330
9B06
102
}
330
9B06
100
AcDbXrecord
280
     1
270
     1
271
     1
  0
XRECORD
  5
9B0B
102
{ACAD_REACTORS
330
9B06
102
}
330
9B06
100
AcDbXrecord
280
     1
270
     1
271
     1
  0
XRECORD
  5
9B0A
102
{ACAD_REACTORS
330
9B06
102
}
330
9B06
100
AcDbXrecord
280
     1
270
     1
271
     1
  0
XRECORD
  5
9B0C
102
{ACAD_REACTORS
330
9B06
102
}
330
9B06
100
AcDbXrecord
280
     1
270
     1
271
     1
  0
XRECORD
  5
9B09
102
{ACAD_REACTORS
330
9B06
102
}
330
9B06
100
AcDbXrecord
280
     1
270
     1
271
     1
  0
XRECORD
  5
9B9A
102
{ACAD_REACTORS
330
9B99
102
}
330
9B99
100
AcDbXrecord
280
     1
102
DISPLAYNAME
  1
Imperial24
102
FLAGS
 90
        0
  0
CELLSTYLEMAP
  5
9B61
102
{ACAD_REACTORS
330
9B60
102
}
330
9B60
100
AcDbCellStyleMap
 90
        3
300
CELLSTYLE
  1
TABLEFORMAT_BEGIN
 90
        5
170
     1
 91
        0
 92
    32768
 62
   257
 93
        1
300
CONTENTFORMAT
  1
CONTENTFORMAT_BEGIN
 90
        0
 91
        0
 92
      512
 93
        0
300

 40
0.0
140
1.0
 94
        5
 62
     0
340
97F2
144
0.25
309
CONTENTFORMAT_END
171
     0
 94
        0
309
TABLEFORMAT_END
  1
CELLSTYLE_BEGIN
 90
        1
 91
        1
300
_TITLE
309
CELLSTYLE_END
300
CELLSTYLE
  1
TABLEFORMAT_BEGIN
 90
        5
170
     1
 91
        0
 92
        0
 62
   257
 93
        1
300
CONTENTFORMAT
  1
CONTENTFORMAT_BEGIN
 90
        0
 91
        0
 92
      512
 93
        0
300

 40
0.0
140
1.0
 94
        5
 62
     0
340
97F2
144
0.18
309
CONTENTFORMAT_END
171
     0
 94
        0
309
TABLEFORMAT_END
  1
CELLSTYLE_BEGIN
 90
        2
 91
        1
300
_HEADER
309
CELLSTYLE_END
300
CELLSTYLE
  1
TABLEFORMAT_BEGIN
 90
        5
170
     1
 91
        0
 92
        0
 62
   257
 93
        1
300
CONTENTFORMAT
  1
CONTENTFORMAT_BEGIN
 90
        0
 91
        0
 92
      512
 93
        0
300

 40
0.0
140
1.0
 94
        2
 62
     0
340
97F2
144
0.18
309
CONTENTFORMAT_END
171
     0
 94
        0
309
TABLEFORMAT_END
  1
CELLSTYLE_BEGIN
 90
        3
 91
        2
300
_DATA
309
CELLSTYLE_END
  0
XRECORD
  5
9B97
102
{ACAD_REACTORS
330
9B60
102
}
330
9B60
100
AcDbXrecord
280
     1
102
ACAD_ROUNDTRIP_PRE2007_TABLESTYLE
 90
      512
 91
        0
  1

 92
      512
 93
        0
  2

 94
      512
 95
        0
  3

  0
XRECORD
  5
9B72
102
{ACAD_REACTORS
330
9B71
102
}
330
9B71
100
AcDbXrecord
280
     1
102
RTVSPost2010Prop28
280
     1
102
RTVSPost2010PropOp28
 70
     1
102
RTVSPost2010Prop29
280
     1
102
RTVSPost2010PropOp29
 70
     1
102
RTVSPost2010Prop30
280
     0
102
RTVSPost2010PropOp30
 70
     1
102
RTVSPost2010Prop31
280
     0
102
RTVSPost2010PropOp31
 70
     1
102
RTVSPost2010Prop32
280
     0
102
RTVSPost2010PropOp32
 70
     1
102
RTVSPost2010Prop33
280
     0
102
RTVSPost2010PropOp33
 70
     1
102
RTVSPost2010Prop34
280
     0
102
RTVSPost2010PropOp34
 70
     1
102
RTVSPost2010Prop35
280
     0
102
RTVSPost2010PropOp35
 70
     1
102
RTVSPost2010Prop36
280
     0
102
RTVSPost2010PropOp36
 70
     1
102
RTVSPost2010Prop37
 90
       50
102
RTVSPost2010PropOp37
 70
     1
102
RTVSPost2010Prop38
140
0.0
102
RTVSPost2010PropOp38
 70
     1
102
RTVSPost2010Prop39
140
1.0
102
RTVSPost2010PropOp39
 70
     1
102
RTVSPost2010Prop40
 90
        0
102
RTVSPost2010PropOp40
 70
     1
102
RTVSPost2010Prop41ColorIndex
 90
       18
102
RTVSPost2010Prop41ColorRGB
 90
        0
102
RTVSPost2010PropOp41
 70
     1
102
RTVSPost2010Prop42
 90
       50
102
RTVSPost2010PropOp42
 70
     1
102
RTVSPost2010Prop43
 90
        3
102
RTVSPost2010PropOp43
 70
     1
102
RTVSPost2010Prop44ColorIndex
 90
        5
102
RTVSPost2010Prop44ColorRGB
 90
      255
102
RTVSPost2010PropOp44
 70
     1
102
RTVSPost2010Prop45
280
     0
102
RTVSPost2010PropOp45
 70
     1
102
RTVSPost2010Prop46
 90
       50
102
RTVSPost2010PropOp46
 70
     1
102
RTVSPost2010Prop47
 90
       50
102
RTVSPost2010PropOp47
 70
     1
102
RTVSPost2010Prop48
 90
       50
102
RTVSPost2010PropOp48
 70
     1
102
RTVSPost2010Prop49
280
     0
102
RTVSPost2010PropOp49
 70
     1
102
RTVSPost2010Prop50
 90
       50
102
RTVSPost2010PropOp50
 70
     1
102
RTVSPost2010Prop51ColorIndex
 90
      256
102
RTVSPost2010Prop51ColorRGB
 90
-16777216
102
RTVSPost2010PropOp51
 70
     0
102
RTVSPost2010Prop52
140
1.0
102
RTVSPost2010PropOp52
 70
     0
102
RTVSPost2010Prop53
 90
        2
102
RTVSPost2010PropOp53
 70
     1
102
RTVSPost2010Prop54
  1
strokes_ogs.tif
102
RTVSPost2010PropOp54
 70
     1
102
RTVSPost2010Prop55
280
     0
102
RTVSPost2010PropOp55
 70
     1
102
RTVSPost2010Prop56
140
1.0
102
RTVSPost2010PropOp56
 70
     1
102
RTVSPost2010Prop57
140
1.0
102
RTVSPost2010PropOp57
 70
     1
102
RTVSPropertyOp0
 70
     1
102
RTVSPropertyOp1
 70
     1
102
RTVSPropertyOp2
 70
     1
102
RTVSPropertyOp3
 70
     1
102
RTVSPropertyOp4
 70
     1
102
RTVSPropertyOp5
 70
     1
102
RTVSPropertyOp6
 70
     1
102
RTVSPropertyOp7
 70
     1
102
RTVSPropertyOp8
 70
     1
102
RTVSPropertyOp9
 70
     1
102
RTVSPropertyOp10
 70
     1
102
RTVSPropertyOp11
 70
     1
102
RTVSPropertyOp12
 70
     1
102
RTVSPropertyOp13
 70
     1
102
RTVSPropertyOp14
 70
     1
102
RTVSPropertyOp15
 70
     1
102
RTVSPropertyOp16
 70
     1
102
RTVSPropertyOp17
 70
     1
102
RTVSPropertyOp18
 70
     1
102
RTVSPropertyOp19
 70
     1
102
RTVSPropertyOp20
 70
     1
102
RTVSPropertyOp21
 70
     1
102
RTVSPropertyOp22
 70
     1
102
RTVSPropertyOp23
 70
     1
102
RTVSPropertyOp24
 70
     1
102
RTVSPropertyOp25
 70
     1
102
RTVSPropertyOp26
 70
     1
102
RTVSPropertyOp27
 70
     1
102
RTVSPropertyOp28
 70
     1
102
RTVSPropertyOp29
 70
     1
102
RTVSPropertyOp30
 70
     1
102
RTVSPropertyOp31
 70
     1
102
RTVSPropertyOp32
 70
     1
102
RTVSPropertyOp33
 70
     1
102
RTVSPropertyOp34
 70
     1
102
RTVSPropertyOp35
 70
     1
102
RTVSPropertyOp36
 70
     1
102
RTVSPropertyOp37
 70
     1
102
RTVSPropertyOp38
 70
     1
102
RTVSPropertyOp39
 70
     1
102
RTVSPropertyOp40
 70
     1
102
RTVSPropertyOp41
 70
     1
102
RTVSPropertyOp42
 70
     1
102
RTVSPropertyOp43
 70
     1
102
RTVSPropertyOp44
 70
     1
102
RTVSPropertyOp45
 70
     1
102
RTVSPropertyOp46
 70
     1
102
RTVSPropertyOp47
 70
     1
102
RTVSPropertyOp48
 70
     1
102
RTVSPropertyOp49
 70
     1
102
RTVSPropertyOp50
 70
     1
102
RTVSPropertyOp51
 70
     0
102
RTVSPropertyOp52
 70
     0
102
RTVSPropertyOp53
 70
     1
102
RTVSPropertyOp54
 70
     1
102
RTVSPropertyOp55
 70
     1
102
RTVSPropertyOp56
 70
     1
102
RTVSPropertyOp57
 70
     1
102
RTVSPropertyOp58
 70
     1
102
RTVSPropertyOp59
 70
     1
102
RTVSPropertyOp60
 70
     1
102
RTVSPropertyOp61
 70
     1
102
RTVSPropertyOp62
 70
     1
  0
XRECORD
  5
9B70
102
{ACAD_REACTORS
330
9B6F
102
}
330
9B6F
100
AcDbXrecord
280
     1
102
RTVSPost2010Prop28
280
     0
102
RTVSPost2010PropOp28
 70
     1
102
RTVSPost2010Prop29
280
     1
102
RTVSPost2010PropOp29
 70
     1
102
RTVSPost2010Prop30
280
     1
102
RTVSPost2010PropOp30
 70
     1
102
RTVSPost2010Prop31
280
     0
102
RTVSPost2010PropOp31
 70
     1
102
RTVSPost2010Prop32
280
     0
102
RTVSPost2010PropOp32
 70
     1
102
RTVSPost2010Prop33
280
     0
102
RTVSPost2010PropOp33
 70
     1
102
RTVSPost2010Prop34
280
     0
102
RTVSPost2010PropOp34
 70
     1
102
RTVSPost2010Prop35
280
     0
102
RTVSPost2010PropOp35
 70
     1
102
RTVSPost2010Prop36
280
     0
102
RTVSPost2010PropOp36
 70
     1
102
RTVSPost2010Prop37
 90
       50
102
RTVSPost2010PropOp37
 70
     1
102
RTVSPost2010Prop38
140
0.0
102
RTVSPost2010PropOp38
 70
     1
102
RTVSPost2010Prop39
140
1.0
102
RTVSPost2010PropOp39
 70
     1
102
RTVSPost2010Prop40
 90
        0
102
RTVSPost2010PropOp40
 70
     1
102
RTVSPost2010Prop41ColorIndex
 90
       18
102
RTVSPost2010Prop41ColorRGB
 90
        0
102
RTVSPost2010PropOp41
 70
     1
102
RTVSPost2010Prop42
 90
       50
102
RTVSPost2010PropOp42
 70
     1
102
RTVSPost2010Prop43
 90
        3
102
RTVSPost2010PropOp43
 70
     1
102
RTVSPost2010Prop44ColorIndex
 90
        5
102
RTVSPost2010Prop44ColorRGB
 90
      255
102
RTVSPost2010PropOp44
 70
     1
102
RTVSPost2010Prop45
280
     0
102
RTVSPost2010PropOp45
 70
     1
102
RTVSPost2010Prop46
 90
       50
102
RTVSPost2010PropOp46
 70
     1
102
RTVSPost2010Prop47
 90
       50
102
RTVSPost2010PropOp47
 70
     1
102
RTVSPost2010Prop48
 90
       50
102
RTVSPost2010PropOp48
 70
     1
102
RTVSPost2010Prop49
280
     0
102
RTVSPost2010PropOp49
 70
     1
102
RTVSPost2010Prop50
 90
       50
102
RTVSPost2010PropOp50
 70
     1
102
RTVSPost2010Prop51ColorIndex
 90
      256
102
RTVSPost2010Prop51ColorRGB
 90
-16777216
102
RTVSPost2010PropOp51
 70
     0
102
RTVSPost2010Prop52
140
1.0
102
RTVSPost2010PropOp52
 70
     0
102
RTVSPost2010Prop53
 90
        2
102
RTVSPost2010PropOp53
 70
     1
102
RTVSPost2010Prop54
  1
strokes_ogs.tif
102
RTVSPost2010PropOp54
 70
     1
102
RTVSPost2010Prop55
280
     0
102
RTVSPost2010PropOp55
 70
     1
102
RTVSPost2010Prop56
140
1.0
102
RTVSPost2010PropOp56
 70
     1
102
RTVSPost2010Prop57
140
1.0
102
RTVSPost2010PropOp57
 70
     1
102
RTVSPropertyOp0
 70
     1
102
RTVSPropertyOp1
 70
     1
102
RTVSPropertyOp2
 70
     1
102
RTVSPropertyOp3
 70
     1
102
RTVSPropertyOp4
 70
     1
102
RTVSPropertyOp5
 70
     1
102
RTVSPropertyOp6
 70
     1
102
RTVSPropertyOp7
 70
     1
102
RTVSPropertyOp8
 70
     1
102
RTVSPropertyOp9
 70
     1
102
RTVSPropertyOp10
 70
     1
102
RTVSPropertyOp11
 70
     1
102
RTVSPropertyOp12
 70
     1
102
RTVSPropertyOp13
 70
     1
102
RTVSPropertyOp14
 70
     1
102
RTVSPropertyOp15
 70
     1
102
RTVSPropertyOp16
 70
     1
102
RTVSPropertyOp17
 70
     1
102
RTVSPropertyOp18
 70
     1
102
RTVSPropertyOp19
 70
     1
102
RTVSPropertyOp20
 70
     1
102
RTVSPropertyOp21
 70
     1
102
RTVSPropertyOp22
 70
     1
102
RTVSPropertyOp23
 70
     1
102
RTVSPropertyOp24
 70
     1
102
RTVSPropertyOp25
 70
     1
102
RTVSPropertyOp26
 70
     1
102
RTVSPropertyOp27
 70
     1
102
RTVSPropertyOp28
 70
     1
102
RTVSPropertyOp29
 70
     1
102
RTVSPropertyOp30
 70
     1
102
RTVSPropertyOp31
 70
     1
102
RTVSPropertyOp32
 70
     1
102
RTVSPropertyOp33
 70
     1
102
RTVSPropertyOp34
 70
     1
102
RTVSPropertyOp35
 70
     1
102
RTVSPropertyOp36
 70
     1
102
RTVSPropertyOp37
 70
     1
102
RTVSPropertyOp38
 70
     1
102
RTVSPropertyOp39
 70
     1
102
RTVSPropertyOp40
 70
     1
102
RTVSPropertyOp41
 70
     1
102
RTVSPropertyOp42
 70
     1
102
RTVSPropertyOp43
 70
     1
102
RTVSPropertyOp44
 70
     1
102
RTVSPropertyOp45
 70
     1
102
RTVSPropertyOp46
 70
     1
102
RTVSPropertyOp47
 70
     1
102
RTVSPropertyOp48
 70
     1
102
RTVSPropertyOp49
 70
     1
102
RTVSPropertyOp50
 70
     1
102
RTVSPropertyOp51
 70
     0
102
RTVSPropertyOp52
 70
     0
102
RTVSPropertyOp53
 70
     1
102
RTVSPropertyOp54
 70
     1
102
RTVSPropertyOp55
 70
     1
102
RTVSPropertyOp56
 70
     1
102
RTVSPropertyOp57
 70
     1
102
RTVSPropertyOp58
 70
     1
102
RTVSPropertyOp59
 70
     1
102
RTVSPropertyOp60
 70
     1
102
RTVSPropertyOp61
 70
     1
102
RTVSPropertyOp62
 70
     1
  0
XRECORD
  5
9B7E
102
{ACAD_REACTORS
330
9B7D
102
}
330
9B7D
100
AcDbXrecord
280
     1
102
RTVSPost2010Prop28
280
     0
102
RTVSPost2010PropOp28
 70
     1
102
RTVSPost2010Prop29
280
     1
102
RTVSPost2010PropOp29
 70
     1
102
RTVSPost2010Prop30
280
     1
102
RTVSPost2010PropOp30
 70
     1
102
RTVSPost2010Prop31
280
     0
102
RTVSPost2010PropOp31
 70
     1
102
RTVSPost2010Prop32
280
     0
102
RTVSPost2010PropOp32
 70
     1
102
RTVSPost2010Prop33
280
     0
102
RTVSPost2010PropOp33
 70
     1
102
RTVSPost2010Prop34
280
     0
102
RTVSPost2010PropOp34
 70
     1
102
RTVSPost2010Prop35
280
     0
102
RTVSPost2010PropOp35
 70
     1
102
RTVSPost2010Prop36
280
     0
102
RTVSPost2010PropOp36
 70
     1
102
RTVSPost2010Prop37
 90
       50
102
RTVSPost2010PropOp37
 70
     1
102
RTVSPost2010Prop38
140
0.0
102
RTVSPost2010PropOp38
 70
     1
102
RTVSPost2010Prop39
140
1.0
102
RTVSPost2010PropOp39
 70
     1
102
RTVSPost2010Prop40
 90
        0
102
RTVSPost2010PropOp40
 70
     1
102
RTVSPost2010Prop41ColorIndex
 90
       18
102
RTVSPost2010Prop41ColorRGB
 90
        0
102
RTVSPost2010PropOp41
 70
     1
102
RTVSPost2010Prop42
 90
       50
102
RTVSPost2010PropOp42
 70
     1
102
RTVSPost2010Prop43
 90
        3
102
RTVSPost2010PropOp43
 70
     1
102
RTVSPost2010Prop44ColorIndex
 90
        5
102
RTVSPost2010Prop44ColorRGB
 90
      255
102
RTVSPost2010PropOp44
 70
     1
102
RTVSPost2010Prop45
280
     0
102
RTVSPost2010PropOp45
 70
     1
102
RTVSPost2010Prop46
 90
       50
102
RTVSPost2010PropOp46
 70
     1
102
RTVSPost2010Prop47
 90
       50
102
RTVSPost2010PropOp47
 70
     1
102
RTVSPost2010Prop48
 90
       50
102
RTVSPost2010PropOp48
 70
     1
102
RTVSPost2010Prop49
280
     0
102
RTVSPost2010PropOp49
 70
     1
102
RTVSPost2010Prop50
 90
       50
102
RTVSPost2010PropOp50
 70
     1
102
RTVSPost2010Prop51ColorIndex
 90
      256
102
RTVSPost2010Prop51ColorRGB
 90
-16777216
102
RTVSPost2010PropOp51
 70
     0
102
RTVSPost2010Prop52
140
1.0
102
RTVSPost2010PropOp52
 70
     0
102
RTVSPost2010Prop53
 90
        2
102
RTVSPost2010PropOp53
 70
     1
102
RTVSPost2010Prop54
  1
strokes_ogs.tif
102
RTVSPost2010PropOp54
 70
     1
102
RTVSPost2010Prop55
280
     0
102
RTVSPost2010PropOp55
 70
     1
102
RTVSPost2010Prop56
140
1.0
102
RTVSPost2010PropOp56
 70
     1
102
RTVSPost2010Prop57
140
1.0
102
RTVSPost2010PropOp57
 70
     1
102
RTVSPropertyOp0
 70
     1
102
RTVSPropertyOp1
 70
     1
102
RTVSPropertyOp2
 70
     1
102
RTVSPropertyOp3
 70
     1
102
RTVSPropertyOp4
 70
     1
102
RTVSPropertyOp5
 70
     1
102
RTVSPropertyOp6
 70
     1
102
RTVSPropertyOp7
 70
     1
102
RTVSPropertyOp8
 70
     1
102
RTVSPropertyOp9
 70
     1
102
RTVSPropertyOp10
 70
     1
102
RTVSPropertyOp11
 70
     1
102
RTVSPropertyOp12
 70
     1
102
RTVSPropertyOp13
 70
     1
102
RTVSPropertyOp14
 70
     1
102
RTVSPropertyOp15
 70
     1
102
RTVSPropertyOp16
 70
     1
102
RTVSPropertyOp17
 70
     1
102
RTVSPropertyOp18
 70
     1
102
RTVSPropertyOp19
 70
     1
102
RTVSPropertyOp20
 70
     1
102
RTVSPropertyOp21
 70
     1
102
RTVSPropertyOp22
 70
     1
102
RTVSPropertyOp23
 70
     1
102
RTVSPropertyOp24
 70
     1
102
RTVSPropertyOp25
 70
     1
102
RTVSPropertyOp26
 70
     1
102
RTVSPropertyOp27
 70
     1
102
RTVSPropertyOp28
 70
     1
102
RTVSPropertyOp29
 70
     1
102
RTVSPropertyOp30
 70
     1
102
RTVSPropertyOp31
 70
     1
102
RTVSPropertyOp32
 70
     1
102
RTVSPropertyOp33
 70
     1
102
RTVSPropertyOp34
 70
     1
102
RTVSPropertyOp35
 70
     1
102
RTVSPropertyOp36
 70
     1
102
RTVSPropertyOp37
 70
     1
102
RTVSPropertyOp38
 70
     1
102
RTVSPropertyOp39
 70
     1
102
RTVSPropertyOp40
 70
     1
102
RTVSPropertyOp41
 70
     1
102
RTVSPropertyOp42
 70
     1
102
RTVSPropertyOp43
 70
     1
102
RTVSPropertyOp44
 70
     1
102
RTVSPropertyOp45
 70
     1
102
RTVSPropertyOp46
 70
     1
102
RTVSPropertyOp47
 70
     1
102
RTVSPropertyOp48
 70
     1
102
RTVSPropertyOp49
 70
     1
102
RTVSPropertyOp50
 70
     1
102
RTVSPropertyOp51
 70
     0
102
RTVSPropertyOp52
 70
     0
102
RTVSPropertyOp53
 70
     1
102
RTVSPropertyOp54
 70
     1
102
RTVSPropertyOp55
 70
     1
102
RTVSPropertyOp56
 70
     1
102
RTVSPropertyOp57
 70
     1
102
RTVSPropertyOp58
 70
     1
102
RTVSPropertyOp59
 70
     1
102
RTVSPropertyOp60
 70
     1
102
RTVSPropertyOp61
 70
     1
102
RTVSPropertyOp62
 70
     1
  0
XRECORD
  5
9B86
102
{ACAD_REACTORS
330
9B85
102
}
330
9B85
100
AcDbXrecord
280
     1
102
RTVSPost2010Prop28
280
     0
102
RTVSPost2010PropOp28
 70
     1
102
RTVSPost2010Prop29
280
     1
102
RTVSPost2010PropOp29
 70
     1
102
RTVSPost2010Prop30
280
     1
102
RTVSPost2010PropOp30
 70
     1
102
RTVSPost2010Prop31
280
     0
102
RTVSPost2010PropOp31
 70
     1
102
RTVSPost2010Prop32
280
     0
102
RTVSPost2010PropOp32
 70
     1
102
RTVSPost2010Prop33
280
     0
102
RTVSPost2010PropOp33
 70
     1
102
RTVSPost2010Prop34
280
     0
102
RTVSPost2010PropOp34
 70
     1
102
RTVSPost2010Prop35
280
     0
102
RTVSPost2010PropOp35
 70
     1
102
RTVSPost2010Prop36
280
     0
102
RTVSPost2010PropOp36
 70
     1
102
RTVSPost2010Prop37
 90
       50
102
RTVSPost2010PropOp37
 70
     1
102
RTVSPost2010Prop38
140
0.0
102
RTVSPost2010PropOp38
 70
     1
102
RTVSPost2010Prop39
140
1.0
102
RTVSPost2010PropOp39
 70
     1
102
RTVSPost2010Prop40
 90
        0
102
RTVSPost2010PropOp40
 70
     1
102
RTVSPost2010Prop41ColorIndex
 90
       18
102
RTVSPost2010Prop41ColorRGB
 90
        0
102
RTVSPost2010PropOp41
 70
     1
102
RTVSPost2010Prop42
 90
       50
102
RTVSPost2010PropOp42
 70
     1
102
RTVSPost2010Prop43
 90
        3
102
RTVSPost2010PropOp43
 70
     1
102
RTVSPost2010Prop44ColorIndex
 90
        5
102
RTVSPost2010Prop44ColorRGB
 90
      255
102
RTVSPost2010PropOp44
 70
     1
102
RTVSPost2010Prop45
280
     0
102
RTVSPost2010PropOp45
 70
     1
102
RTVSPost2010Prop46
 90
       50
102
RTVSPost2010PropOp46
 70
     1
102
RTVSPost2010Prop47
 90
       50
102
RTVSPost2010PropOp47
 70
     1
102
RTVSPost2010Prop48
 90
       50
102
RTVSPost2010PropOp48
 70
     1
102
RTVSPost2010Prop49
280
     0
102
RTVSPost2010PropOp49
 70
     1
102
RTVSPost2010Prop50
 90
       50
102
RTVSPost2010PropOp50
 70
     1
102
RTVSPost2010Prop51ColorIndex
 90
      256
102
RTVSPost2010Prop51ColorRGB
 90
-16777216
102
RTVSPost2010PropOp51
 70
     0
102
RTVSPost2010Prop52
140
1.0
102
RTVSPost2010PropOp52
 70
     0
102
RTVSPost2010Prop53
 90
        2
102
RTVSPost2010PropOp53
 70
     1
102
RTVSPost2010Prop54
  1
strokes_ogs.tif
102
RTVSPost2010PropOp54
 70
     1
102
RTVSPost2010Prop55
280
     0
102
RTVSPost2010PropOp55
 70
     1
102
RTVSPost2010Prop56
140
1.0
102
RTVSPost2010PropOp56
 70
     1
102
RTVSPost2010Prop57
140
1.0
102
RTVSPost2010PropOp57
 70
     1
102
RTVSPropertyOp0
 70
     1
102
RTVSPropertyOp1
 70
     1
102
RTVSPropertyOp2
 70
     1
102
RTVSPropertyOp3
 70
     1
102
RTVSPropertyOp4
 70
     1
102
RTVSPropertyOp5
 70
     1
102
RTVSPropertyOp6
 70
     1
102
RTVSPropertyOp7
 70
     1
102
RTVSPropertyOp8
 70
     1
102
RTVSPropertyOp9
 70
     1
102
RTVSPropertyOp10
 70
     1
102
RTVSPropertyOp11
 70
     1
102
RTVSPropertyOp12
 70
     1
102
RTVSPropertyOp13
 70
     1
102
RTVSPropertyOp14
 70
     1
102
RTVSPropertyOp15
 70
     1
102
RTVSPropertyOp16
 70
     1
102
RTVSPropertyOp17
 70
     1
102
RTVSPropertyOp18
 70
     1
102
RTVSPropertyOp19
 70
     1
102
RTVSPropertyOp20
 70
     1
102
RTVSPropertyOp21
 70
     1
102
RTVSPropertyOp22
 70
     1
102
RTVSPropertyOp23
 70
     1
102
RTVSPropertyOp24
 70
     1
102
RTVSPropertyOp25
 70
     1
102
RTVSPropertyOp26
 70
     1
102
RTVSPropertyOp27
 70
     1
102
RTVSPropertyOp28
 70
     1
102
RTVSPropertyOp29
 70
     1
102
RTVSPropertyOp30
 70
     1
102
RTVSPropertyOp31
 70
     1
102
RTVSPropertyOp32
 70
     1
102
RTVSPropertyOp33
 70
     1
102
RTVSPropertyOp34
 70
     1
102
RTVSPropertyOp35
 70
     1
102
RTVSPropertyOp36
 70
     1
102
RTVSPropertyOp37
 70
     1
102
RTVSPropertyOp38
 70
     1
102
RTVSPropertyOp39
 70
     1
102
RTVSPropertyOp40
 70
     1
102
RTVSPropertyOp41
 70
     1
102
RTVSPropertyOp42
 70
     1
102
RTVSPropertyOp43
 70
     1
102
RTVSPropertyOp44
 70
     1
102
RTVSPropertyOp45
 70
     1
102
RTVSPropertyOp46
 70
     1
102
RTVSPropertyOp47
 70
     1
102
RTVSPropertyOp48
 70
     1
102
RTVSPropertyOp49
 70
     1
102
RTVSPropertyOp50
 70
     1
102
RTVSPropertyOp51
 70
     0
102
RTVSPropertyOp52
 70
     0
102
RTVSPropertyOp53
 70
     1
102
RTVSPropertyOp54
 70
     1
102
RTVSPropertyOp55
 70
     1
102
RTVSPropertyOp56
 70
     1
102
RTVSPropertyOp57
 70
     1
102
RTVSPropertyOp58
 70
     1
102
RTVSPropertyOp59
 70
     1
102
RTVSPropertyOp60
 70
     1
102
RTVSPropertyOp61
 70
     1
102
RTVSPropertyOp62
 70
     1
  0
XRECORD
  5
9B78
102
{ACAD_REACTORS
330
9B77
102
}
330
9B77
100
AcDbXrecord
280
     1
102
RTVSPost2010Prop28
280
     0
102
RTVSPost2010PropOp28
 70
     1
102
RTVSPost2010Prop29
280
     1
102
RTVSPost2010PropOp29
 70
     1
102
RTVSPost2010Prop30
280
     1
102
RTVSPost2010PropOp30
 70
     1
102
RTVSPost2010Prop31
280
     0
102
RTVSPost2010PropOp31
 70
     1
102
RTVSPost2010Prop32
280
     0
102
RTVSPost2010PropOp32
 70
     1
102
RTVSPost2010Prop33
280
     0
102
RTVSPost2010PropOp33
 70
     1
102
RTVSPost2010Prop34
280
     0
102
RTVSPost2010PropOp34
 70
     1
102
RTVSPost2010Prop35
280
     0
102
RTVSPost2010PropOp35
 70
     1
102
RTVSPost2010Prop36
280
     0
102
RTVSPost2010PropOp36
 70
     1
102
RTVSPost2010Prop37
 90
       50
102
RTVSPost2010PropOp37
 70
     1
102
RTVSPost2010Prop38
140
0.0
102
RTVSPost2010PropOp38
 70
     1
102
RTVSPost2010Prop39
140
1.0
102
RTVSPost2010PropOp39
 70
     1
102
RTVSPost2010Prop40
 90
        0
102
RTVSPost2010PropOp40
 70
     1
102
RTVSPost2010Prop41ColorIndex
 90
       18
102
RTVSPost2010Prop41ColorRGB
 90
        0
102
RTVSPost2010PropOp41
 70
     1
102
RTVSPost2010Prop42
 90
       50
102
RTVSPost2010PropOp42
 70
     1
102
RTVSPost2010Prop43
 90
        3
102
RTVSPost2010PropOp43
 70
     1
102
RTVSPost2010Prop44ColorIndex
 90
        5
102
RTVSPost2010Prop44ColorRGB
 90
      255
102
RTVSPost2010PropOp44
 70
     1
102
RTVSPost2010Prop45
280
     0
102
RTVSPost2010PropOp45
 70
     1
102
RTVSPost2010Prop46
 90
       50
102
RTVSPost2010PropOp46
 70
     1
102
RTVSPost2010Prop47
 90
       50
102
RTVSPost2010PropOp47
 70
     1
102
RTVSPost2010Prop48
 90
       50
102
RTVSPost2010PropOp48
 70
     1
102
RTVSPost2010Prop49
280
     0
102
RTVSPost2010PropOp49
 70
     1
102
RTVSPost2010Prop50
 90
       50
102
RTVSPost2010PropOp50
 70
     1
102
RTVSPost2010Prop51ColorIndex
 90
      256
102
RTVSPost2010Prop51ColorRGB
 90
-16777216
102
RTVSPost2010PropOp51
 70
     0
102
RTVSPost2010Prop52
140
1.0
102
RTVSPost2010PropOp52
 70
     0
102
RTVSPost2010Prop53
 90
        2
102
RTVSPost2010PropOp53
 70
     1
102
RTVSPost2010Prop54
  1
strokes_ogs.tif
102
RTVSPost2010PropOp54
 70
     1
102
RTVSPost2010Prop55
280
     0
102
RTVSPost2010PropOp55
 70
     1
102
RTVSPost2010Prop56
140
1.0
102
RTVSPost2010PropOp56
 70
     1
102
RTVSPost2010Prop57
140
1.0
102
RTVSPost2010PropOp57
 70
     1
102
RTVSPropertyOp0
 70
     1
102
RTVSPropertyOp1
 70
     1
102
RTVSPropertyOp2
 70
     1
102
RTVSPropertyOp3
 70
     1
102
RTVSPropertyOp4
 70
     1
102
RTVSPropertyOp5
 70
     1
102
RTVSPropertyOp6
 70
     1
102
RTVSPropertyOp7
 70
     1
102
RTVSPropertyOp8
 70
     1
102
RTVSPropertyOp9
 70
     1
102
RTVSPropertyOp10
 70
     1
102
RTVSPropertyOp11
 70
     1
102
RTVSPropertyOp12
 70
     1
102
RTVSPropertyOp13
 70
     1
102
RTVSPropertyOp14
 70
     1
102
RTVSPropertyOp15
 70
     1
102
RTVSPropertyOp16
 70
     1
102
RTVSPropertyOp17
 70
     1
102
RTVSPropertyOp18
 70
     1
102
RTVSPropertyOp19
 70
     1
102
RTVSPropertyOp20
 70
     1
102
RTVSPropertyOp21
 70
     1
102
RTVSPropertyOp22
 70
     1
102
RTVSPropertyOp23
 70
     1
102
RTVSPropertyOp24
 70
     1
102
RTVSPropertyOp25
 70
     1
102
RTVSPropertyOp26
 70
     1
102
RTVSPropertyOp27
 70
     1
102
RTVSPropertyOp28
 70
     1
102
RTVSPropertyOp29
 70
     1
102
RTVSPropertyOp30
 70
     1
102
RTVSPropertyOp31
 70
     1
102
RTVSPropertyOp32
 70
     1
102
RTVSPropertyOp33
 70
     1
102
RTVSPropertyOp34
 70
     1
102
RTVSPropertyOp35
 70
     1
102
RTVSPropertyOp36
 70
     1
102
RTVSPropertyOp37
 70
     1
102
RTVSPropertyOp38
 70
     1
102
RTVSPropertyOp39
 70
     1
102
RTVSPropertyOp40
 70
     1
102
RTVSPropertyOp41
 70
     1
102
RTVSPropertyOp42
 70
     1
102
RTVSPropertyOp43
 70
     1
102
RTVSPropertyOp44
 70
     1
102
RTVSPropertyOp45
 70
     1
102
RTVSPropertyOp46
 70
     1
102
RTVSPropertyOp47
 70
     1
102
RTVSPropertyOp48
 70
     1
102
RTVSPropertyOp49
 70
     1
102
RTVSPropertyOp50
 70
     1
102
RTVSPropertyOp51
 70
     0
102
RTVSPropertyOp52
 70
     0
102
RTVSPropertyOp53
 70
     1
102
RTVSPropertyOp54
 70
     1
102
RTVSPropertyOp55
 70
     1
102
RTVSPropertyOp56
 70
     1
102
RTVSPropertyOp57
 70
     1
102
RTVSPropertyOp58
 70
     1
102
RTVSPropertyOp59
 70
     1
102
RTVSPropertyOp60
 70
     1
102
RTVSPropertyOp61
 70
     1
102
RTVSPropertyOp62
 70
     1
  0
XRECORD
  5
9B7C
102
{ACAD_REACTORS
330
9B7B
102
}
330
9B7B
100
AcDbXrecord
280
     1
102
RTVSPost2010Prop28
280
     0
102
RTVSPost2010PropOp28
 70
     1
102
RTVSPost2010Prop29
280
     1
102
RTVSPost2010PropOp29
 70
     1
102
RTVSPost2010Prop30
280
     1
102
RTVSPost2010PropOp30
 70
     1
102
RTVSPost2010Prop31
280
     0
102
RTVSPost2010PropOp31
 70
     1
102
RTVSPost2010Prop32
280
     0
102
RTVSPost2010PropOp32
 70
     1
102
RTVSPost2010Prop33
280
     0
102
RTVSPost2010PropOp33
 70
     1
102
RTVSPost2010Prop34
280
     0
102
RTVSPost2010PropOp34
 70
     1
102
RTVSPost2010Prop35
280
     0
102
RTVSPost2010PropOp35
 70
     1
102
RTVSPost2010Prop36
280
     0
102
RTVSPost2010PropOp36
 70
     1
102
RTVSPost2010Prop37
 90
       50
102
RTVSPost2010PropOp37
 70
     1
102
RTVSPost2010Prop38
140
0.0
102
RTVSPost2010PropOp38
 70
     1
102
RTVSPost2010Prop39
140
1.0
102
RTVSPost2010PropOp39
 70
     1
102
RTVSPost2010Prop40
 90
        0
102
RTVSPost2010PropOp40
 70
     1
102
RTVSPost2010Prop41ColorIndex
 90
       18
102
RTVSPost2010Prop41ColorRGB
 90
        0
102
RTVSPost2010PropOp41
 70
     1
102
RTVSPost2010Prop42
 90
       50
102
RTVSPost2010PropOp42
 70
     1
102
RTVSPost2010Prop43
 90
        3
102
RTVSPost2010PropOp43
 70
     1
102
RTVSPost2010Prop44ColorIndex
 90
        5
102
RTVSPost2010Prop44ColorRGB
 90
      255
102
RTVSPost2010PropOp44
 70
     1
102
RTVSPost2010Prop45
280
     0
102
RTVSPost2010PropOp45
 70
     1
102
RTVSPost2010Prop46
 90
       50
102
RTVSPost2010PropOp46
 70
     1
102
RTVSPost2010Prop47
 90
       50
102
RTVSPost2010PropOp47
 70
     1
102
RTVSPost2010Prop48
 90
       50
102
RTVSPost2010PropOp48
 70
     1
102
RTVSPost2010Prop49
280
     0
102
RTVSPost2010PropOp49
 70
     1
102
RTVSPost2010Prop50
 90
       50
102
RTVSPost2010PropOp50
 70
     1
102
RTVSPost2010Prop51ColorIndex
 90
      256
102
RTVSPost2010Prop51ColorRGB
 90
-16777216
102
RTVSPost2010PropOp51
 70
     0
102
RTVSPost2010Prop52
140
1.0
102
RTVSPost2010PropOp52
 70
     0
102
RTVSPost2010Prop53
 90
        2
102
RTVSPost2010PropOp53
 70
     1
102
RTVSPost2010Prop54
  1
strokes_ogs.tif
102
RTVSPost2010PropOp54
 70
     1
102
RTVSPost2010Prop55
280
     0
102
RTVSPost2010PropOp55
 70
     1
102
RTVSPost2010Prop56
140
1.0
102
RTVSPost2010PropOp56
 70
     1
102
RTVSPost2010Prop57
140
1.0
102
RTVSPost2010PropOp57
 70
     1
102
RTVSPropertyOp0
 70
     1
102
RTVSPropertyOp1
 70
     1
102
RTVSPropertyOp2
 70
     1
102
RTVSPropertyOp3
 70
     1
102
RTVSPropertyOp4
 70
     1
102
RTVSPropertyOp5
 70
     1
102
RTVSPropertyOp6
 70
     1
102
RTVSPropertyOp7
 70
     1
102
RTVSPropertyOp8
 70
     1
102
RTVSPropertyOp9
 70
     1
102
RTVSPropertyOp10
 70
     1
102
RTVSPropertyOp11
 70
     1
102
RTVSPropertyOp12
 70
     1
102
RTVSPropertyOp13
 70
     1
102
RTVSPropertyOp14
 70
     1
102
RTVSPropertyOp15
 70
     1
102
RTVSPropertyOp16
 70
     1
102
RTVSPropertyOp17
 70
     1
102
RTVSPropertyOp18
 70
     1
102
RTVSPropertyOp19
 70
     1
102
RTVSPropertyOp20
 70
     1
102
RTVSPropertyOp21
 70
     1
102
RTVSPropertyOp22
 70
     1
102
RTVSPropertyOp23
 70
     1
102
RTVSPropertyOp24
 70
     1
102
RTVSPropertyOp25
 70
     1
102
RTVSPropertyOp26
 70
     1
102
RTVSPropertyOp27
 70
     1
102
RTVSPropertyOp28
 70
     1
102
RTVSPropertyOp29
 70
     1
102
RTVSPropertyOp30
 70
     1
102
RTVSPropertyOp31
 70
     1
102
RTVSPropertyOp32
 70
     1
102
RTVSPropertyOp33
 70
     1
102
RTVSPropertyOp34
 70
     1
102
RTVSPropertyOp35
 70
     1
102
RTVSPropertyOp36
 70
     1
102
RTVSPropertyOp37
 70
     1
102
RTVSPropertyOp38
 70
     1
102
RTVSPropertyOp39
 70
     1
102
RTVSPropertyOp40
 70
     1
102
RTVSPropertyOp41
 70
     1
102
RTVSPropertyOp42
 70
     1
102
RTVSPropertyOp43
 70
     1
102
RTVSPropertyOp44
 70
     1
102
RTVSPropertyOp45
 70
     1
102
RTVSPropertyOp46
 70
     1
102
RTVSPropertyOp47
 70
     1
102
RTVSPropertyOp48
 70
     1
102
RTVSPropertyOp49
 70
     1
102
RTVSPropertyOp50
 70
     1
102
RTVSPropertyOp51
 70
     0
102
RTVSPropertyOp52
 70
     0
102
RTVSPropertyOp53
 70
     1
102
RTVSPropertyOp54
 70
     1
102
RTVSPropertyOp55
 70
     1
102
RTVSPropertyOp56
 70
     1
102
RTVSPropertyOp57
 70
     1
102
RTVSPropertyOp58
 70
     1
102
RTVSPropertyOp59
 70
     1
102
RTVSPropertyOp60
 70
     1
102
RTVSPropertyOp61
 70
     1
102
RTVSPropertyOp62
 70
     1
  0
XRECORD
  5
9B96
102
{ACAD_REACTORS
330
9B95
102
}
330
9B95
100
AcDbXrecord
280
     1
102
RTVSPost2010Prop28
280
     0
102
RTVSPost2010PropOp28
 70
     1
102
RTVSPost2010Prop29
280
     1
102
RTVSPost2010PropOp29
 70
     1
102
RTVSPost2010Prop30
280
     1
102
RTVSPost2010PropOp30
 70
     1
102
RTVSPost2010Prop31
280
     0
102
RTVSPost2010PropOp31
 70
     1
102
RTVSPost2010Prop32
280
     0
102
RTVSPost2010PropOp32
 70
     1
102
RTVSPost2010Prop33
280
     0
102
RTVSPost2010PropOp33
 70
     1
102
RTVSPost2010Prop34
280
     0
102
RTVSPost2010PropOp34
 70
     1
102
RTVSPost2010Prop35
280
     0
102
RTVSPost2010PropOp35
 70
     1
102
RTVSPost2010Prop36
280
     0
102
RTVSPost2010PropOp36
 70
     1
102
RTVSPost2010Prop37
 90
       50
102
RTVSPost2010PropOp37
 70
     0
102
RTVSPost2010Prop38
140
0.0
102
RTVSPost2010PropOp38
 70
     0
102
RTVSPost2010Prop39
140
1.0
102
RTVSPost2010PropOp39
 70
     0
102
RTVSPost2010Prop40
 90
        0
102
RTVSPost2010PropOp40
 70
     0
102
RTVSPost2010Prop41ColorIndex
 90
       18
102
RTVSPost2010Prop41ColorRGB
 90
        0
102
RTVSPost2010PropOp41
 70
     0
102
RTVSPost2010Prop42
 90
       50
102
RTVSPost2010PropOp42
 70
     0
102
RTVSPost2010Prop43
 90
        3
102
RTVSPost2010PropOp43
 70
     0
102
RTVSPost2010Prop44ColorIndex
 90
        5
102
RTVSPost2010Prop44ColorRGB
 90
      255
102
RTVSPost2010PropOp44
 70
     0
102
RTVSPost2010Prop45
280
     0
102
RTVSPost2010PropOp45
 70
     1
102
RTVSPost2010Prop46
 90
       50
102
RTVSPost2010PropOp46
 70
     0
102
RTVSPost2010Prop47
 90
       50
102
RTVSPost2010PropOp47
 70
     0
102
RTVSPost2010Prop48
 90
       50
102
RTVSPost2010PropOp48
 70
     0
102
RTVSPost2010Prop49
280
     0
102
RTVSPost2010PropOp49
 70
     1
102
RTVSPost2010Prop50
 90
       50
102
RTVSPost2010PropOp50
 70
     0
102
RTVSPost2010Prop51ColorIndex
 90
      256
102
RTVSPost2010Prop51ColorRGB
 90
-16777216
102
RTVSPost2010PropOp51
 70
     0
102
RTVSPost2010Prop52
140
1.0
102
RTVSPost2010PropOp52
 70
     0
102
RTVSPost2010Prop53
 90
        2
102
RTVSPost2010PropOp53
 70
     0
102
RTVSPost2010Prop54
  1
strokes_ogs.tif
102
RTVSPost2010PropOp54
 70
     0
102
RTVSPost2010Prop55
280
     0
102
RTVSPost2010PropOp55
 70
     1
102
RTVSPost2010Prop56
140
1.0
102
RTVSPost2010PropOp56
 70
     0
102
RTVSPost2010Prop57
140
1.0
102
RTVSPost2010PropOp57
 70
     0
102
RTVSPropertyOp0
 70
     0
102
RTVSPropertyOp1
 70
     0
102
RTVSPropertyOp2
 70
     0
102
RTVSPropertyOp3
 70
     0
102
RTVSPropertyOp4
 70
     0
102
RTVSPropertyOp5
 70
     0
102
RTVSPropertyOp6
 70
     0
102
RTVSPropertyOp7
 70
     0
102
RTVSPropertyOp8
 70
     0
102
RTVSPropertyOp9
 70
     0
102
RTVSPropertyOp10
 70
     0
102
RTVSPropertyOp11
 70
     0
102
RTVSPropertyOp12
 70
     0
102
RTVSPropertyOp13
 70
     0
102
RTVSPropertyOp14
 70
     2
102
RTVSPropertyOp15
 70
     0
102
RTVSPropertyOp16
 70
     0
102
RTVSPropertyOp17
 70
     0
102
RTVSPropertyOp18
 70
     0
102
RTVSPropertyOp19
 70
     0
102
RTVSPropertyOp20
 70
     0
102
RTVSPropertyOp21
 70
     0
102
RTVSPropertyOp22
 70
     0
102
RTVSPropertyOp23
 70
     0
102
RTVSPropertyOp24
 70
     0
102
RTVSPropertyOp25
 70
     0
102
RTVSPropertyOp26
 70
     0
102
RTVSPropertyOp27
 70
     0
102
RTVSPropertyOp28
 70
     1
102
RTVSPropertyOp29
 70
     1
102
RTVSPropertyOp30
 70
     1
102
RTVSPropertyOp31
 70
     1
102
RTVSPropertyOp32
 70
     1
102
RTVSPropertyOp33
 70
     1
102
RTVSPropertyOp34
 70
     1
102
RTVSPropertyOp35
 70
     1
102
RTVSPropertyOp36
 70
     1
102
RTVSPropertyOp37
 70
     0
102
RTVSPropertyOp38
 70
     0
102
RTVSPropertyOp39
 70
     0
102
RTVSPropertyOp40
 70
     0
102
RTVSPropertyOp41
 70
     0
102
RTVSPropertyOp42
 70
     0
102
RTVSPropertyOp43
 70
     0
102
RTVSPropertyOp44
 70
     0
102
RTVSPropertyOp45
 70
     1
102
RTVSPropertyOp46
 70
     0
102
RTVSPropertyOp47
 70
     0
102
RTVSPropertyOp48
 70
     0
102
RTVSPropertyOp49
 70
     1
102
RTVSPropertyOp50
 70
     0
102
RTVSPropertyOp51
 70
     0
102
RTVSPropertyOp52
 70
     0
102
RTVSPropertyOp53
 70
     0
102
RTVSPropertyOp54
 70
     0
102
RTVSPropertyOp55
 70
     1
102
RTVSPropertyOp56
 70
     0
102
RTVSPropertyOp57
 70
     0
102
RTVSPropertyOp58
 70
     0
102
RTVSPropertyOp59
 70
     0
102
RTVSPropertyOp60
 70
     0
102
RTVSPropertyOp61
 70
     0
102
RTVSPropertyOp62
 70
     0
  0
XRECORD
  5
9B84
102
{ACAD_REACTORS
330
9B83
102
}
330
9B83
100
AcDbXrecord
280
     1
102
RTVSPost2010Prop28
280
     0
102
RTVSPost2010PropOp28
 70
     1
102
RTVSPost2010Prop29
280
     1
102
RTVSPost2010PropOp29
 70
     1
102
RTVSPost2010Prop30
280
     1
102
RTVSPost2010PropOp30
 70
     1
102
RTVSPost2010Prop31
280
     0
102
RTVSPost2010PropOp31
 70
     1
102
RTVSPost2010Prop32
280
     0
102
RTVSPost2010PropOp32
 70
     1
102
RTVSPost2010Prop33
280
     0
102
RTVSPost2010PropOp33
 70
     1
102
RTVSPost2010Prop34
280
     0
102
RTVSPost2010PropOp34
 70
     1
102
RTVSPost2010Prop35
280
     0
102
RTVSPost2010PropOp35
 70
     1
102
RTVSPost2010Prop36
280
     0
102
RTVSPost2010PropOp36
 70
     1
102
RTVSPost2010Prop37
 90
       50
102
RTVSPost2010PropOp37
 70
     1
102
RTVSPost2010Prop38
140
0.0
102
RTVSPost2010PropOp38
 70
     1
102
RTVSPost2010Prop39
140
1.0
102
RTVSPost2010PropOp39
 70
     1
102
RTVSPost2010Prop40
 90
        0
102
RTVSPost2010PropOp40
 70
     1
102
RTVSPost2010Prop41ColorIndex
 90
       18
102
RTVSPost2010Prop41ColorRGB
 90
        0
102
RTVSPost2010PropOp41
 70
     1
102
RTVSPost2010Prop42
 90
       50
102
RTVSPost2010PropOp42
 70
     1
102
RTVSPost2010Prop43
 90
        3
102
RTVSPost2010PropOp43
 70
     1
102
RTVSPost2010Prop44ColorIndex
 90
        5
102
RTVSPost2010Prop44ColorRGB
 90
      255
102
RTVSPost2010PropOp44
 70
     1
102
RTVSPost2010Prop45
280
     0
102
RTVSPost2010PropOp45
 70
     1
102
RTVSPost2010Prop46
 90
       50
102
RTVSPost2010PropOp46
 70
     1
102
RTVSPost2010Prop47
 90
       50
102
RTVSPost2010PropOp47
 70
     1
102
RTVSPost2010Prop48
 90
       50
102
RTVSPost2010PropOp48
 70
     1
102
RTVSPost2010Prop49
280
     0
102
RTVSPost2010PropOp49
 70
     1
102
RTVSPost2010Prop50
 90
       50
102
RTVSPost2010PropOp50
 70
     1
102
RTVSPost2010Prop51ColorIndex
 90
      256
102
RTVSPost2010Prop51ColorRGB
 90
-16777216
102
RTVSPost2010PropOp51
 70
     0
102
RTVSPost2010Prop52
140
1.0
102
RTVSPost2010PropOp52
 70
     0
102
RTVSPost2010Prop53
 90
        2
102
RTVSPost2010PropOp53
 70
     1
102
RTVSPost2010Prop54
  1
strokes_ogs.tif
102
RTVSPost2010PropOp54
 70
     1
102
RTVSPost2010Prop55
280
     0
102
RTVSPost2010PropOp55
 70
     1
102
RTVSPost2010Prop56
140
1.0
102
RTVSPost2010PropOp56
 70
     1
102
RTVSPost2010Prop57
140
1.0
102
RTVSPost2010PropOp57
 70
     1
102
RTVSPropertyOp0
 70
     1
102
RTVSPropertyOp1
 70
     1
102
RTVSPropertyOp2
 70
     1
102
RTVSPropertyOp3
 70
     1
102
RTVSPropertyOp4
 70
     1
102
RTVSPropertyOp5
 70
     1
102
RTVSPropertyOp6
 70
     1
102
RTVSPropertyOp7
 70
     1
102
RTVSPropertyOp8
 70
     1
102
RTVSPropertyOp9
 70
     1
102
RTVSPropertyOp10
 70
     1
102
RTVSPropertyOp11
 70
     1
102
RTVSPropertyOp12
 70
     1
102
RTVSPropertyOp13
 70
     1
102
RTVSPropertyOp14
 70
     1
102
RTVSPropertyOp15
 70
     1
102
RTVSPropertyOp16
 70
     1
102
RTVSPropertyOp17
 70
     1
102
RTVSPropertyOp18
 70
     1
102
RTVSPropertyOp19
 70
     1
102
RTVSPropertyOp20
 70
     1
102
RTVSPropertyOp21
 70
     1
102
RTVSPropertyOp22
 70
     1
102
RTVSPropertyOp23
 70
     1
102
RTVSPropertyOp24
 70
     1
102
RTVSPropertyOp25
 70
     1
102
RTVSPropertyOp26
 70
     1
102
RTVSPropertyOp27
 70
     1
102
RTVSPropertyOp28
 70
     1
102
RTVSPropertyOp29
 70
     1
102
RTVSPropertyOp30
 70
     1
102
RTVSPropertyOp31
 70
     1
102
RTVSPropertyOp32
 70
     1
102
RTVSPropertyOp33
 70
     1
102
RTVSPropertyOp34
 70
     1
102
RTVSPropertyOp35
 70
     1
102
RTVSPropertyOp36
 70
     1
102
RTVSPropertyOp37
 70
     1
102
RTVSPropertyOp38
 70
     1
102
RTVSPropertyOp39
 70
     1
102
RTVSPropertyOp40
 70
     1
102
RTVSPropertyOp41
 70
     1
102
RTVSPropertyOp42
 70
     1
102
RTVSPropertyOp43
 70
     1
102
RTVSPropertyOp44
 70
     1
102
RTVSPropertyOp45
 70
     1
102
RTVSPropertyOp46
 70
     1
102
RTVSPropertyOp47
 70
     1
102
RTVSPropertyOp48
 70
     1
102
RTVSPropertyOp49
 70
     1
102
RTVSPropertyOp50
 70
     1
102
RTVSPropertyOp51
 70
     0
102
RTVSPropertyOp52
 70
     0
102
RTVSPropertyOp53
 70
     1
102
RTVSPropertyOp54
 70
     1
102
RTVSPropertyOp55
 70
     1
102
RTVSPropertyOp56
 70
     1
102
RTVSPropertyOp57
 70
     1
102
RTVSPropertyOp58
 70
     1
102
RTVSPropertyOp59
 70
     1
102
RTVSPropertyOp60
 70
     1
102
RTVSPropertyOp61
 70
     1
102
RTVSPropertyOp62
 70
     1
  0
XRECORD
  5
9B68
102
{ACAD_REACTORS
330
9B67
102
}
330
9B67
100
AcDbXrecord
280
     1
102
RTVSPost2010Prop28
280
     0
102
RTVSPost2010PropOp28
 70
     1
102
RTVSPost2010Prop29
280
     1
102
RTVSPost2010PropOp29
 70
     1
102
RTVSPost2010Prop30
280
     1
102
RTVSPost2010PropOp30
 70
     1
102
RTVSPost2010Prop31
280
     0
102
RTVSPost2010PropOp31
 70
     1
102
RTVSPost2010Prop32
280
     0
102
RTVSPost2010PropOp32
 70
     1
102
RTVSPost2010Prop33
280
     0
102
RTVSPost2010PropOp33
 70
     1
102
RTVSPost2010Prop34
280
     0
102
RTVSPost2010PropOp34
 70
     1
102
RTVSPost2010Prop35
280
     0
102
RTVSPost2010PropOp35
 70
     1
102
RTVSPost2010Prop36
280
     0
102
RTVSPost2010PropOp36
 70
     1
102
RTVSPost2010Prop37
 90
       50
102
RTVSPost2010PropOp37
 70
     1
102
RTVSPost2010Prop38
140
0.0
102
RTVSPost2010PropOp38
 70
     1
102
RTVSPost2010Prop39
140
1.0
102
RTVSPost2010PropOp39
 70
     1
102
RTVSPost2010Prop40
 90
        0
102
RTVSPost2010PropOp40
 70
     1
102
RTVSPost2010Prop41ColorIndex
 90
       18
102
RTVSPost2010Prop41ColorRGB
 90
        0
102
RTVSPost2010PropOp41
 70
     1
102
RTVSPost2010Prop42
 90
       50
102
RTVSPost2010PropOp42
 70
     1
102
RTVSPost2010Prop43
 90
        3
102
RTVSPost2010PropOp43
 70
     1
102
RTVSPost2010Prop44ColorIndex
 90
        5
102
RTVSPost2010Prop44ColorRGB
 90
      255
102
RTVSPost2010PropOp44
 70
     1
102
RTVSPost2010Prop45
280
     0
102
RTVSPost2010PropOp45
 70
     1
102
RTVSPost2010Prop46
 90
       50
102
RTVSPost2010PropOp46
 70
     1
102
RTVSPost2010Prop47
 90
       50
102
RTVSPost2010PropOp47
 70
     1
102
RTVSPost2010Prop48
 90
       50
102
RTVSPost2010PropOp48
 70
     1
102
RTVSPost2010Prop49
280
     0
102
RTVSPost2010PropOp49
 70
     1
102
RTVSPost2010Prop50
 90
       50
102
RTVSPost2010PropOp50
 70
     1
102
RTVSPost2010Prop51ColorIndex
 90
      256
102
RTVSPost2010Prop51ColorRGB
 90
-16777216
102
RTVSPost2010PropOp51
 70
     0
102
RTVSPost2010Prop52
140
1.0
102
RTVSPost2010PropOp52
 70
     0
102
RTVSPost2010Prop53
 90
        2
102
RTVSPost2010PropOp53
 70
     1
102
RTVSPost2010Prop54
  1
strokes_ogs.tif
102
RTVSPost2010PropOp54
 70
     1
102
RTVSPost2010Prop55
280
     0
102
RTVSPost2010PropOp55
 70
     1
102
RTVSPost2010Prop56
140
1.0
102
RTVSPost2010PropOp56
 70
     1
102
RTVSPost2010Prop57
140
1.0
102
RTVSPost2010PropOp57
 70
     1
102
RTVSPropertyOp0
 70
     1
102
RTVSPropertyOp1
 70
     1
102
RTVSPropertyOp2
 70
     1
102
RTVSPropertyOp3
 70
     1
102
RTVSPropertyOp4
 70
     1
102
RTVSPropertyOp5
 70
     1
102
RTVSPropertyOp6
 70
     1
102
RTVSPropertyOp7
 70
     1
102
RTVSPropertyOp8
 70
     1
102
RTVSPropertyOp9
 70
     1
102
RTVSPropertyOp10
 70
     1
102
RTVSPropertyOp11
 70
     1
102
RTVSPropertyOp12
 70
     1
102
RTVSPropertyOp13
 70
     1
102
RTVSPropertyOp14
 70
     1
102
RTVSPropertyOp15
 70
     1
102
RTVSPropertyOp16
 70
     1
102
RTVSPropertyOp17
 70
     1
102
RTVSPropertyOp18
 70
     1
102
RTVSPropertyOp19
 70
     1
102
RTVSPropertyOp20
 70
     1
102
RTVSPropertyOp21
 70
     1
102
RTVSPropertyOp22
 70
     1
102
RTVSPropertyOp23
 70
     1
102
RTVSPropertyOp24
 70
     1
102
RTVSPropertyOp25
 70
     1
102
RTVSPropertyOp26
 70
     1
102
RTVSPropertyOp27
 70
     1
102
RTVSPropertyOp28
 70
     1
102
RTVSPropertyOp29
 70
     1
102
RTVSPropertyOp30
 70
     1
102
RTVSPropertyOp31
 70
     1
102
RTVSPropertyOp32
 70
     1
102
RTVSPropertyOp33
 70
     1
102
RTVSPropertyOp34
 70
     1
102
RTVSPropertyOp35
 70
     1
102
RTVSPropertyOp36
 70
     1
102
RTVSPropertyOp37
 70
     1
102
RTVSPropertyOp38
 70
     1
102
RTVSPropertyOp39
 70
     1
102
RTVSPropertyOp40
 70
     1
102
RTVSPropertyOp41
 70
     1
102
RTVSPropertyOp42
 70
     1
102
RTVSPropertyOp43
 70
     1
102
RTVSPropertyOp44
 70
     1
102
RTVSPropertyOp45
 70
     1
102
RTVSPropertyOp46
 70
     1
102
RTVSPropertyOp47
 70
     1
102
RTVSPropertyOp48
 70
     1
102
RTVSPropertyOp49
 70
     1
102
RTVSPropertyOp50
 70
     1
102
RTVSPropertyOp51
 70
     0
102
RTVSPropertyOp52
 70
     0
102
RTVSPropertyOp53
 70
     1
102
RTVSPropertyOp54
 70
     1
102
RTVSPropertyOp55
 70
     1
102
RTVSPropertyOp56
 70
     1
102
RTVSPropertyOp57
 70
     1
102
RTVSPropertyOp58
 70
     1
102
RTVSPropertyOp59
 70
     1
102
RTVSPropertyOp60
 70
     1
102
RTVSPropertyOp61
 70
     1
102
RTVSPropertyOp62
 70
     1
  0
XRECORD
  5
9B6A
102
{ACAD_REACTORS
330
9B69
102
}
330
9B69
100
AcDbXrecord
280
     1
102
RTVSPost2010Prop28
280
     0
102
RTVSPost2010PropOp28
 70
     1
102
RTVSPost2010Prop29
280
     1
102
RTVSPost2010PropOp29
 70
     1
102
RTVSPost2010Prop30
280
     1
102
RTVSPost2010PropOp30
 70
     1
102
RTVSPost2010Prop31
280
     0
102
RTVSPost2010PropOp31
 70
     1
102
RTVSPost2010Prop32
280
     0
102
RTVSPost2010PropOp32
 70
     1
102
RTVSPost2010Prop33
280
     0
102
RTVSPost2010PropOp33
 70
     1
102
RTVSPost2010Prop34
280
     0
102
RTVSPost2010PropOp34
 70
     1
102
RTVSPost2010Prop35
280
     0
102
RTVSPost2010PropOp35
 70
     1
102
RTVSPost2010Prop36
280
     0
102
RTVSPost2010PropOp36
 70
     1
102
RTVSPost2010Prop37
 90
       50
102
RTVSPost2010PropOp37
 70
     1
102
RTVSPost2010Prop38
140
0.0
102
RTVSPost2010PropOp38
 70
     1
102
RTVSPost2010Prop39
140
1.0
102
RTVSPost2010PropOp39
 70
     1
102
RTVSPost2010Prop40
 90
        0
102
RTVSPost2010PropOp40
 70
     1
102
RTVSPost2010Prop41ColorIndex
 90
       18
102
RTVSPost2010Prop41ColorRGB
 90
        0
102
RTVSPost2010PropOp41
 70
     1
102
RTVSPost2010Prop42
 90
       50
102
RTVSPost2010PropOp42
 70
     1
102
RTVSPost2010Prop43
 90
        3
102
RTVSPost2010PropOp43
 70
     1
102
RTVSPost2010Prop44ColorIndex
 90
        5
102
RTVSPost2010Prop44ColorRGB
 90
      255
102
RTVSPost2010PropOp44
 70
     1
102
RTVSPost2010Prop45
280
     0
102
RTVSPost2010PropOp45
 70
     1
102
RTVSPost2010Prop46
 90
       50
102
RTVSPost2010PropOp46
 70
     1
102
RTVSPost2010Prop47
 90
       50
102
RTVSPost2010PropOp47
 70
     1
102
RTVSPost2010Prop48
 90
       50
102
RTVSPost2010PropOp48
 70
     1
102
RTVSPost2010Prop49
280
     0
102
RTVSPost2010PropOp49
 70
     1
102
RTVSPost2010Prop50
 90
       50
102
RTVSPost2010PropOp50
 70
     1
102
RTVSPost2010Prop51ColorIndex
 90
      256
102
RTVSPost2010Prop51ColorRGB
 90
-16777216
102
RTVSPost2010PropOp51
 70
     0
102
RTVSPost2010Prop52
140
1.0
102
RTVSPost2010PropOp52
 70
     0
102
RTVSPost2010Prop53
 90
        2
102
RTVSPost2010PropOp53
 70
     1
102
RTVSPost2010Prop54
  1
strokes_ogs.tif
102
RTVSPost2010PropOp54
 70
     1
102
RTVSPost2010Prop55
280
     0
102
RTVSPost2010PropOp55
 70
     1
102
RTVSPost2010Prop56
140
1.0
102
RTVSPost2010PropOp56
 70
     1
102
RTVSPost2010Prop57
140
1.0
102
RTVSPost2010PropOp57
 70
     1
102
RTVSPropertyOp0
 70
     1
102
RTVSPropertyOp1
 70
     1
102
RTVSPropertyOp2
 70
     1
102
RTVSPropertyOp3
 70
     1
102
RTVSPropertyOp4
 70
     1
102
RTVSPropertyOp5
 70
     1
102
RTVSPropertyOp6
 70
     1
102
RTVSPropertyOp7
 70
     1
102
RTVSPropertyOp8
 70
     1
102
RTVSPropertyOp9
 70
     1
102
RTVSPropertyOp10
 70
     1
102
RTVSPropertyOp11
 70
     1
102
RTVSPropertyOp12
 70
     1
102
RTVSPropertyOp13
 70
     1
102
RTVSPropertyOp14
 70
     1
102
RTVSPropertyOp15
 70
     1
102
RTVSPropertyOp16
 70
     1
102
RTVSPropertyOp17
 70
     1
102
RTVSPropertyOp18
 70
     1
102
RTVSPropertyOp19
 70
     1
102
RTVSPropertyOp20
 70
     1
102
RTVSPropertyOp21
 70
     1
102
RTVSPropertyOp22
 70
     1
102
RTVSPropertyOp23
 70
     1
102
RTVSPropertyOp24
 70
     1
102
RTVSPropertyOp25
 70
     1
102
RTVSPropertyOp26
 70
     1
102
RTVSPropertyOp27
 70
     1
102
RTVSPropertyOp28
 70
     1
102
RTVSPropertyOp29
 70
     1
102
RTVSPropertyOp30
 70
     1
102
RTVSPropertyOp31
 70
     1
102
RTVSPropertyOp32
 70
     1
102
RTVSPropertyOp33
 70
     1
102
RTVSPropertyOp34
 70
     1
102
RTVSPropertyOp35
 70
     1
102
RTVSPropertyOp36
 70
     1
102
RTVSPropertyOp37
 70
     1
102
RTVSPropertyOp38
 70
     1
102
RTVSPropertyOp39
 70
     1
102
RTVSPropertyOp40
 70
     1
102
RTVSPropertyOp41
 70
     1
102
RTVSPropertyOp42
 70
     1
102
RTVSPropertyOp43
 70
     1
102
RTVSPropertyOp44
 70
     1
102
RTVSPropertyOp45
 70
     1
102
RTVSPropertyOp46
 70
     1
102
RTVSPropertyOp47
 70
     1
102
RTVSPropertyOp48
 70
     1
102
RTVSPropertyOp49
 70
     1
102
RTVSPropertyOp50
 70
     1
102
RTVSPropertyOp51
 70
     0
102
RTVSPropertyOp52
 70
     0
102
RTVSPropertyOp53
 70
     1
102
RTVSPropertyOp54
 70
     1
102
RTVSPropertyOp55
 70
     1
102
RTVSPropertyOp56
 70
     1
102
RTVSPropertyOp57
 70
     1
102
RTVSPropertyOp58
 70
     1
102
RTVSPropertyOp59
 70
     1
102
RTVSPropertyOp60
 70
     1
102
RTVSPropertyOp61
 70
     1
102
RTVSPropertyOp62
 70
     1
  0
XRECORD
  5
9B6C
102
{ACAD_REACTORS
330
9B6B
102
}
330
9B6B
100
AcDbXrecord
280
     1
102
RTVSPost2010Prop28
280
     0
102
RTVSPost2010PropOp28
 70
     1
102
RTVSPost2010Prop29
280
     1
102
RTVSPost2010PropOp29
 70
     1
102
RTVSPost2010Prop30
280
     1
102
RTVSPost2010PropOp30
 70
     1
102
RTVSPost2010Prop31
280
     0
102
RTVSPost2010PropOp31
 70
     1
102
RTVSPost2010Prop32
280
     0
102
RTVSPost2010PropOp32
 70
     1
102
RTVSPost2010Prop33
280
     0
102
RTVSPost2010PropOp33
 70
     1
102
RTVSPost2010Prop34
280
     0
102
RTVSPost2010PropOp34
 70
     1
102
RTVSPost2010Prop35
280
     0
102
RTVSPost2010PropOp35
 70
     1
102
RTVSPost2010Prop36
280
     0
102
RTVSPost2010PropOp36
 70
     1
102
RTVSPost2010Prop37
 90
       50
102
RTVSPost2010PropOp37
 70
     1
102
RTVSPost2010Prop38
140
0.0
102
RTVSPost2010PropOp38
 70
     1
102
RTVSPost2010Prop39
140
1.0
102
RTVSPost2010PropOp39
 70
     1
102
RTVSPost2010Prop40
 90
        0
102
RTVSPost2010PropOp40
 70
     1
102
RTVSPost2010Prop41ColorIndex
 90
       18
102
RTVSPost2010Prop41ColorRGB
 90
        0
102
RTVSPost2010PropOp41
 70
     1
102
RTVSPost2010Prop42
 90
       50
102
RTVSPost2010PropOp42
 70
     1
102
RTVSPost2010Prop43
 90
        3
102
RTVSPost2010PropOp43
 70
     1
102
RTVSPost2010Prop44ColorIndex
 90
        5
102
RTVSPost2010Prop44ColorRGB
 90
      255
102
RTVSPost2010PropOp44
 70
     1
102
RTVSPost2010Prop45
280
     0
102
RTVSPost2010PropOp45
 70
     1
102
RTVSPost2010Prop46
 90
       50
102
RTVSPost2010PropOp46
 70
     1
102
RTVSPost2010Prop47
 90
       50
102
RTVSPost2010PropOp47
 70
     1
102
RTVSPost2010Prop48
 90
       50
102
RTVSPost2010PropOp48
 70
     1
102
RTVSPost2010Prop49
280
     0
102
RTVSPost2010PropOp49
 70
     1
102
RTVSPost2010Prop50
 90
       50
102
RTVSPost2010PropOp50
 70
     1
102
RTVSPost2010Prop51ColorIndex
 90
      256
102
RTVSPost2010Prop51ColorRGB
 90
-16777216
102
RTVSPost2010PropOp51
 70
     0
102
RTVSPost2010Prop52
140
1.0
102
RTVSPost2010PropOp52
 70
     0
102
RTVSPost2010Prop53
 90
        2
102
RTVSPost2010PropOp53
 70
     1
102
RTVSPost2010Prop54
  1
strokes_ogs.tif
102
RTVSPost2010PropOp54
 70
     1
102
RTVSPost2010Prop55
280
     0
102
RTVSPost2010PropOp55
 70
     1
102
RTVSPost2010Prop56
140
1.0
102
RTVSPost2010PropOp56
 70
     1
102
RTVSPost2010Prop57
140
1.0
102
RTVSPost2010PropOp57
 70
     1
102
RTVSPropertyOp0
 70
     1
102
RTVSPropertyOp1
 70
     1
102
RTVSPropertyOp2
 70
     1
102
RTVSPropertyOp3
 70
     1
102
RTVSPropertyOp4
 70
     1
102
RTVSPropertyOp5
 70
     1
102
RTVSPropertyOp6
 70
     1
102
RTVSPropertyOp7
 70
     1
102
RTVSPropertyOp8
 70
     1
102
RTVSPropertyOp9
 70
     1
102
RTVSPropertyOp10
 70
     1
102
RTVSPropertyOp11
 70
     1
102
RTVSPropertyOp12
 70
     1
102
RTVSPropertyOp13
 70
     1
102
RTVSPropertyOp14
 70
     1
102
RTVSPropertyOp15
 70
     1
102
RTVSPropertyOp16
 70
     1
102
RTVSPropertyOp17
 70
     1
102
RTVSPropertyOp18
 70
     1
102
RTVSPropertyOp19
 70
     1
102
RTVSPropertyOp20
 70
     1
102
RTVSPropertyOp21
 70
     1
102
RTVSPropertyOp22
 70
     1
102
RTVSPropertyOp23
 70
     1
102
RTVSPropertyOp24
 70
     1
102
RTVSPropertyOp25
 70
     1
102
RTVSPropertyOp26
 70
     1
102
RTVSPropertyOp27
 70
     1
102
RTVSPropertyOp28
 70
     1
102
RTVSPropertyOp29
 70
     1
102
RTVSPropertyOp30
 70
     1
102
RTVSPropertyOp31
 70
     1
102
RTVSPropertyOp32
 70
     1
102
RTVSPropertyOp33
 70
     1
102
RTVSPropertyOp34
 70
     1
102
RTVSPropertyOp35
 70
     1
102
RTVSPropertyOp36
 70
     1
102
RTVSPropertyOp37
 70
     1
102
RTVSPropertyOp38
 70
     1
102
RTVSPropertyOp39
 70
     1
102
RTVSPropertyOp40
 70
     1
102
RTVSPropertyOp41
 70
     1
102
RTVSPropertyOp42
 70
     1
102
RTVSPropertyOp43
 70
     1
102
RTVSPropertyOp44
 70
     1
102
RTVSPropertyOp45
 70
     1
102
RTVSPropertyOp46
 70
     1
102
RTVSPropertyOp47
 70
     1
102
RTVSPropertyOp48
 70
     1
102
RTVSPropertyOp49
 70
     1
102
RTVSPropertyOp50
 70
     1
102
RTVSPropertyOp51
 70
     0
102
RTVSPropertyOp52
 70
     0
102
RTVSPropertyOp53
 70
     1
102
RTVSPropertyOp54
 70
     1
102
RTVSPropertyOp55
 70
     1
102
RTVSPropertyOp56
 70
     1
102
RTVSPropertyOp57
 70
     1
102
RTVSPropertyOp58
 70
     1
102
RTVSPropertyOp59
 70
     1
102
RTVSPropertyOp60
 70
     1
102
RTVSPropertyOp61
 70
     1
102
RTVSPropertyOp62
 70
     1
  0
XRECORD
  5
9B6E
102
{ACAD_REACTORS
330
9B6D
102
}
330
9B6D
100
AcDbXrecord
280
     1
102
RTVSPost2010Prop28
280
     0
102
RTVSPost2010PropOp28
 70
     1
102
RTVSPost2010Prop29
280
     1
102
RTVSPost2010PropOp29
 70
     1
102
RTVSPost2010Prop30
280
     1
102
RTVSPost2010PropOp30
 70
     1
102
RTVSPost2010Prop31
280
     0
102
RTVSPost2010PropOp31
 70
     1
102
RTVSPost2010Prop32
280
     0
102
RTVSPost2010PropOp32
 70
     1
102
RTVSPost2010Prop33
280
     0
102
RTVSPost2010PropOp33
 70
     1
102
RTVSPost2010Prop34
280
     0
102
RTVSPost2010PropOp34
 70
     1
102
RTVSPost2010Prop35
280
     0
102
RTVSPost2010PropOp35
 70
     1
102
RTVSPost2010Prop36
280
     0
102
RTVSPost2010PropOp36
 70
     1
102
RTVSPost2010Prop37
 90
       50
102
RTVSPost2010PropOp37
 70
     1
102
RTVSPost2010Prop38
140
0.0
102
RTVSPost2010PropOp38
 70
     1
102
RTVSPost2010Prop39
140
1.0
102
RTVSPost2010PropOp39
 70
     1
102
RTVSPost2010Prop40
 90
        0
102
RTVSPost2010PropOp40
 70
     1
102
RTVSPost2010Prop41ColorIndex
 90
       18
102
RTVSPost2010Prop41ColorRGB
 90
        0
102
RTVSPost2010PropOp41
 70
     1
102
RTVSPost2010Prop42
 90
       50
102
RTVSPost2010PropOp42
 70
     1
102
RTVSPost2010Prop43
 90
        3
102
RTVSPost2010PropOp43
 70
     1
102
RTVSPost2010Prop44ColorIndex
 90
        5
102
RTVSPost2010Prop44ColorRGB
 90
      255
102
RTVSPost2010PropOp44
 70
     1
102
RTVSPost2010Prop45
280
     0
102
RTVSPost2010PropOp45
 70
     1
102
RTVSPost2010Prop46
 90
       50
102
RTVSPost2010PropOp46
 70
     1
102
RTVSPost2010Prop47
 90
       50
102
RTVSPost2010PropOp47
 70
     1
102
RTVSPost2010Prop48
 90
       50
102
RTVSPost2010PropOp48
 70
     1
102
RTVSPost2010Prop49
280
     0
102
RTVSPost2010PropOp49
 70
     1
102
RTVSPost2010Prop50
 90
       50
102
RTVSPost2010PropOp50
 70
     1
102
RTVSPost2010Prop51ColorIndex
 90
      256
102
RTVSPost2010Prop51ColorRGB
 90
-16777216
102
RTVSPost2010PropOp51
 70
     0
102
RTVSPost2010Prop52
140
1.0
102
RTVSPost2010PropOp52
 70
     0
102
RTVSPost2010Prop53
 90
        2
102
RTVSPost2010PropOp53
 70
     1
102
RTVSPost2010Prop54
  1
strokes_ogs.tif
102
RTVSPost2010PropOp54
 70
     1
102
RTVSPost2010Prop55
280
     0
102
RTVSPost2010PropOp55
 70
     1
102
RTVSPost2010Prop56
140
1.0
102
RTVSPost2010PropOp56
 70
     1
102
RTVSPost2010Prop57
140
1.0
102
RTVSPost2010PropOp57
 70
     1
102
RTVSPropertyOp0
 70
     1
102
RTVSPropertyOp1
 70
     1
102
RTVSPropertyOp2
 70
     1
102
RTVSPropertyOp3
 70
     1
102
RTVSPropertyOp4
 70
     1
102
RTVSPropertyOp5
 70
     1
102
RTVSPropertyOp6
 70
     1
102
RTVSPropertyOp7
 70
     1
102
RTVSPropertyOp8
 70
     1
102
RTVSPropertyOp9
 70
     1
102
RTVSPropertyOp10
 70
     1
102
RTVSPropertyOp11
 70
     1
102
RTVSPropertyOp12
 70
     1
102
RTVSPropertyOp13
 70
     1
102
RTVSPropertyOp14
 70
     1
102
RTVSPropertyOp15
 70
     1
102
RTVSPropertyOp16
 70
     1
102
RTVSPropertyOp17
 70
     1
102
RTVSPropertyOp18
 70
     1
102
RTVSPropertyOp19
 70
     1
102
RTVSPropertyOp20
 70
     1
102
RTVSPropertyOp21
 70
     1
102
RTVSPropertyOp22
 70
     1
102
RTVSPropertyOp23
 70
     1
102
RTVSPropertyOp24
 70
     1
102
RTVSPropertyOp25
 70
     1
102
RTVSPropertyOp26
 70
     1
102
RTVSPropertyOp27
 70
     1
102
RTVSPropertyOp28
 70
     1
102
RTVSPropertyOp29
 70
     1
102
RTVSPropertyOp30
 70
     1
102
RTVSPropertyOp31
 70
     1
102
RTVSPropertyOp32
 70
     1
102
RTVSPropertyOp33
 70
     1
102
RTVSPropertyOp34
 70
     1
102
RTVSPropertyOp35
 70
     1
102
RTVSPropertyOp36
 70
     1
102
RTVSPropertyOp37
 70
     1
102
RTVSPropertyOp38
 70
     1
102
RTVSPropertyOp39
 70
     1
102
RTVSPropertyOp40
 70
     1
102
RTVSPropertyOp41
 70
     1
102
RTVSPropertyOp42
 70
     1
102
RTVSPropertyOp43
 70
     1
102
RTVSPropertyOp44
 70
     1
102
RTVSPropertyOp45
 70
     1
102
RTVSPropertyOp46
 70
     1
102
RTVSPropertyOp47
 70
     1
102
RTVSPropertyOp48
 70
     1
102
RTVSPropertyOp49
 70
     1
102
RTVSPropertyOp50
 70
     1
102
RTVSPropertyOp51
 70
     0
102
RTVSPropertyOp52
 70
     0
102
RTVSPropertyOp53
 70
     1
102
RTVSPropertyOp54
 70
     1
102
RTVSPropertyOp55
 70
     1
102
RTVSPropertyOp56
 70
     1
102
RTVSPropertyOp57
 70
     1
102
RTVSPropertyOp58
 70
     1
102
RTVSPropertyOp59
 70
     1
102
RTVSPropertyOp60
 70
     1
102
RTVSPropertyOp61
 70
     1
102
RTVSPropertyOp62
 70
     1
  0
XRECORD
  5
9B76
102
{ACAD_REACTORS
330
9B75
102
}
330
9B75
100
AcDbXrecord
280
     1
102
RTVSPost2010Prop28
280
     0
102
RTVSPost2010PropOp28
 70
     1
102
RTVSPost2010Prop29
280
     1
102
RTVSPost2010PropOp29
 70
     1
102
RTVSPost2010Prop30
280
     1
102
RTVSPost2010PropOp30
 70
     1
102
RTVSPost2010Prop31
280
     0
102
RTVSPost2010PropOp31
 70
     1
102
RTVSPost2010Prop32
280
     0
102
RTVSPost2010PropOp32
 70
     1
102
RTVSPost2010Prop33
280
     0
102
RTVSPost2010PropOp33
 70
     1
102
RTVSPost2010Prop34
280
     0
102
RTVSPost2010PropOp34
 70
     1
102
RTVSPost2010Prop35
280
     0
102
RTVSPost2010PropOp35
 70
     1
102
RTVSPost2010Prop36
280
     0
102
RTVSPost2010PropOp36
 70
     1
102
RTVSPost2010Prop37
 90
       50
102
RTVSPost2010PropOp37
 70
     1
102
RTVSPost2010Prop38
140
0.0
102
RTVSPost2010PropOp38
 70
     1
102
RTVSPost2010Prop39
140
1.0
102
RTVSPost2010PropOp39
 70
     1
102
RTVSPost2010Prop40
 90
        0
102
RTVSPost2010PropOp40
 70
     1
102
RTVSPost2010Prop41ColorIndex
 90
       18
102
RTVSPost2010Prop41ColorRGB
 90
        0
102
RTVSPost2010PropOp41
 70
     1
102
RTVSPost2010Prop42
 90
       50
102
RTVSPost2010PropOp42
 70
     1
102
RTVSPost2010Prop43
 90
        3
102
RTVSPost2010PropOp43
 70
     1
102
RTVSPost2010Prop44ColorIndex
 90
        5
102
RTVSPost2010Prop44ColorRGB
 90
      255
102
RTVSPost2010PropOp44
 70
     1
102
RTVSPost2010Prop45
280
     0
102
RTVSPost2010PropOp45
 70
     1
102
RTVSPost2010Prop46
 90
       50
102
RTVSPost2010PropOp46
 70
     1
102
RTVSPost2010Prop47
 90
       50
102
RTVSPost2010PropOp47
 70
     1
102
RTVSPost2010Prop48
 90
       50
102
RTVSPost2010PropOp48
 70
     1
102
RTVSPost2010Prop49
280
     0
102
RTVSPost2010PropOp49
 70
     1
102
RTVSPost2010Prop50
 90
       50
102
RTVSPost2010PropOp50
 70
     1
102
RTVSPost2010Prop51ColorIndex
 90
      256
102
RTVSPost2010Prop51ColorRGB
 90
-16777216
102
RTVSPost2010PropOp51
 70
     0
102
RTVSPost2010Prop52
140
1.0
102
RTVSPost2010PropOp52
 70
     0
102
RTVSPost2010Prop53
 90
        2
102
RTVSPost2010PropOp53
 70
     1
102
RTVSPost2010Prop54
  1
strokes_ogs.tif
102
RTVSPost2010PropOp54
 70
     1
102
RTVSPost2010Prop55
280
     0
102
RTVSPost2010PropOp55
 70
     1
102
RTVSPost2010Prop56
140
1.0
102
RTVSPost2010PropOp56
 70
     1
102
RTVSPost2010Prop57
140
1.0
102
RTVSPost2010PropOp57
 70
     1
102
RTVSPropertyOp0
 70
     1
102
RTVSPropertyOp1
 70
     1
102
RTVSPropertyOp2
 70
     1
102
RTVSPropertyOp3
 70
     1
102
RTVSPropertyOp4
 70
     1
102
RTVSPropertyOp5
 70
     1
102
RTVSPropertyOp6
 70
     1
102
RTVSPropertyOp7
 70
     1
102
RTVSPropertyOp8
 70
     1
102
RTVSPropertyOp9
 70
     1
102
RTVSPropertyOp10
 70
     1
102
RTVSPropertyOp11
 70
     1
102
RTVSPropertyOp12
 70
     1
102
RTVSPropertyOp13
 70
     1
102
RTVSPropertyOp14
 70
     1
102
RTVSPropertyOp15
 70
     1
102
RTVSPropertyOp16
 70
     1
102
RTVSPropertyOp17
 70
     1
102
RTVSPropertyOp18
 70
     1
102
RTVSPropertyOp19
 70
     1
102
RTVSPropertyOp20
 70
     1
102
RTVSPropertyOp21
 70
     1
102
RTVSPropertyOp22
 70
     1
102
RTVSPropertyOp23
 70
     1
102
RTVSPropertyOp24
 70
     1
102
RTVSPropertyOp25
 70
     1
102
RTVSPropertyOp26
 70
     1
102
RTVSPropertyOp27
 70
     1
102
RTVSPropertyOp28
 70
     1
102
RTVSPropertyOp29
 70
     1
102
RTVSPropertyOp30
 70
     1
102
RTVSPropertyOp31
 70
     1
102
RTVSPropertyOp32
 70
     1
102
RTVSPropertyOp33
 70
     1
102
RTVSPropertyOp34
 70
     1
102
RTVSPropertyOp35
 70
     1
102
RTVSPropertyOp36
 70
     1
102
RTVSPropertyOp37
 70
     1
102
RTVSPropertyOp38
 70
     1
102
RTVSPropertyOp39
 70
     1
102
RTVSPropertyOp40
 70
     1
102
RTVSPropertyOp41
 70
     1
102
RTVSPropertyOp42
 70
     1
102
RTVSPropertyOp43
 70
     1
102
RTVSPropertyOp44
 70
     1
102
RTVSPropertyOp45
 70
     1
102
RTVSPropertyOp46
 70
     1
102
RTVSPropertyOp47
 70
     1
102
RTVSPropertyOp48
 70
     1
102
RTVSPropertyOp49
 70
     1
102
RTVSPropertyOp50
 70
     1
102
RTVSPropertyOp51
 70
     0
102
RTVSPropertyOp52
 70
     0
102
RTVSPropertyOp53
 70
     1
102
RTVSPropertyOp54
 70
     1
102
RTVSPropertyOp55
 70
     1
102
RTVSPropertyOp56
 70
     1
102
RTVSPropertyOp57
 70
     1
102
RTVSPropertyOp58
 70
     1
102
RTVSPropertyOp59
 70
     1
102
RTVSPropertyOp60
 70
     1
102
RTVSPropertyOp61
 70
     1
102
RTVSPropertyOp62
 70
     1
  0
XRECORD
  5
9B92
102
{ACAD_REACTORS
330
9B91
102
}
330
9B91
100
AcDbXrecord
280
     1
102
RTVSPost2010Prop28
280
     0
102
RTVSPost2010PropOp28
 70
     1
102
RTVSPost2010Prop29
280
     1
102
RTVSPost2010PropOp29
 70
     1
102
RTVSPost2010Prop30
280
     1
102
RTVSPost2010PropOp30
 70
     1
102
RTVSPost2010Prop31
280
     0
102
RTVSPost2010PropOp31
 70
     1
102
RTVSPost2010Prop32
280
     0
102
RTVSPost2010PropOp32
 70
     1
102
RTVSPost2010Prop33
280
     0
102
RTVSPost2010PropOp33
 70
     1
102
RTVSPost2010Prop34
280
     0
102
RTVSPost2010PropOp34
 70
     1
102
RTVSPost2010Prop35
280
     0
102
RTVSPost2010PropOp35
 70
     1
102
RTVSPost2010Prop36
280
     0
102
RTVSPost2010PropOp36
 70
     1
102
RTVSPost2010Prop37
 90
       50
102
RTVSPost2010PropOp37
 70
     0
102
RTVSPost2010Prop38
140
0.0
102
RTVSPost2010PropOp38
 70
     0
102
RTVSPost2010Prop39
140
1.0
102
RTVSPost2010PropOp39
 70
     0
102
RTVSPost2010Prop40
 90
        0
102
RTVSPost2010PropOp40
 70
     0
102
RTVSPost2010Prop41ColorIndex
 90
       18
102
RTVSPost2010Prop41ColorRGB
 90
        0
102
RTVSPost2010PropOp41
 70
     0
102
RTVSPost2010Prop42
 90
       50
102
RTVSPost2010PropOp42
 70
     0
102
RTVSPost2010Prop43
 90
        3
102
RTVSPost2010PropOp43
 70
     0
102
RTVSPost2010Prop44ColorIndex
 90
        5
102
RTVSPost2010Prop44ColorRGB
 90
      255
102
RTVSPost2010PropOp44
 70
     0
102
RTVSPost2010Prop45
280
     0
102
RTVSPost2010PropOp45
 70
     1
102
RTVSPost2010Prop46
 90
       50
102
RTVSPost2010PropOp46
 70
     0
102
RTVSPost2010Prop47
 90
       50
102
RTVSPost2010PropOp47
 70
     0
102
RTVSPost2010Prop48
 90
       50
102
RTVSPost2010PropOp48
 70
     0
102
RTVSPost2010Prop49
280
     0
102
RTVSPost2010PropOp49
 70
     1
102
RTVSPost2010Prop50
 90
       50
102
RTVSPost2010PropOp50
 70
     0
102
RTVSPost2010Prop51ColorIndex
 90
      256
102
RTVSPost2010Prop51ColorRGB
 90
-16777216
102
RTVSPost2010PropOp51
 70
     0
102
RTVSPost2010Prop52
140
1.0
102
RTVSPost2010PropOp52
 70
     0
102
RTVSPost2010Prop53
 90
        2
102
RTVSPost2010PropOp53
 70
     0
102
RTVSPost2010Prop54
  1
strokes_ogs.tif
102
RTVSPost2010PropOp54
 70
     0
102
RTVSPost2010Prop55
280
     0
102
RTVSPost2010PropOp55
 70
     1
102
RTVSPost2010Prop56
140
1.0
102
RTVSPost2010PropOp56
 70
     0
102
RTVSPost2010Prop57
140
1.0
102
RTVSPost2010PropOp57
 70
     0
102
RTVSPropertyOp0
 70
     0
102
RTVSPropertyOp1
 70
     0
102
RTVSPropertyOp2
 70
     0
102
RTVSPropertyOp3
 70
     0
102
RTVSPropertyOp4
 70
     0
102
RTVSPropertyOp5
 70
     0
102
RTVSPropertyOp6
 70
     0
102
RTVSPropertyOp7
 70
     0
102
RTVSPropertyOp8
 70
     0
102
RTVSPropertyOp9
 70
     0
102
RTVSPropertyOp10
 70
     0
102
RTVSPropertyOp11
 70
     0
102
RTVSPropertyOp12
 70
     0
102
RTVSPropertyOp13
 70
     0
102
RTVSPropertyOp14
 70
     2
102
RTVSPropertyOp15
 70
     0
102
RTVSPropertyOp16
 70
     0
102
RTVSPropertyOp17
 70
     0
102
RTVSPropertyOp18
 70
     0
102
RTVSPropertyOp19
 70
     0
102
RTVSPropertyOp20
 70
     0
102
RTVSPropertyOp21
 70
     0
102
RTVSPropertyOp22
 70
     0
102
RTVSPropertyOp23
 70
     0
102
RTVSPropertyOp24
 70
     0
102
RTVSPropertyOp25
 70
     0
102
RTVSPropertyOp26
 70
     0
102
RTVSPropertyOp27
 70
     0
102
RTVSPropertyOp28
 70
     1
102
RTVSPropertyOp29
 70
     1
102
RTVSPropertyOp30
 70
     1
102
RTVSPropertyOp31
 70
     1
102
RTVSPropertyOp32
 70
     1
102
RTVSPropertyOp33
 70
     1
102
RTVSPropertyOp34
 70
     1
102
RTVSPropertyOp35
 70
     1
102
RTVSPropertyOp36
 70
     1
102
RTVSPropertyOp37
 70
     0
102
RTVSPropertyOp38
 70
     0
102
RTVSPropertyOp39
 70
     0
102
RTVSPropertyOp40
 70
     0
102
RTVSPropertyOp41
 70
     0
102
RTVSPropertyOp42
 70
     0
102
RTVSPropertyOp43
 70
     0
102
RTVSPropertyOp44
 70
     0
102
RTVSPropertyOp45
 70
     1
102
RTVSPropertyOp46
 70
     0
102
RTVSPropertyOp47
 70
     0
102
RTVSPropertyOp48
 70
     0
102
RTVSPropertyOp49
 70
     1
102
RTVSPropertyOp50
 70
     0
102
RTVSPropertyOp51
 70
     0
102
RTVSPropertyOp52
 70
     0
102
RTVSPropertyOp53
 70
     0
102
RTVSPropertyOp54
 70
     0
102
RTVSPropertyOp55
 70
     1
102
RTVSPropertyOp56
 70
     0
102
RTVSPropertyOp57
 70
     0
102
RTVSPropertyOp58
 70
     0
102
RTVSPropertyOp59
 70
     0
102
RTVSPropertyOp60
 70
     0
102
RTVSPropertyOp61
 70
     0
102
RTVSPropertyOp62
 70
     0
  0
XRECORD
  5
9B82
102
{ACAD_REACTORS
330
9B81
102
}
330
9B81
100
AcDbXrecord
280
     1
102
RTVSPost2010Prop28
280
     0
102
RTVSPost2010PropOp28
 70
     1
102
RTVSPost2010Prop29
280
     1
102
RTVSPost2010PropOp29
 70
     1
102
RTVSPost2010Prop30
280
     1
102
RTVSPost2010PropOp30
 70
     1
102
RTVSPost2010Prop31
280
     0
102
RTVSPost2010PropOp31
 70
     1
102
RTVSPost2010Prop32
280
     0
102
RTVSPost2010PropOp32
 70
     1
102
RTVSPost2010Prop33
280
     0
102
RTVSPost2010PropOp33
 70
     1
102
RTVSPost2010Prop34
280
     0
102
RTVSPost2010PropOp34
 70
     1
102
RTVSPost2010Prop35
280
     0
102
RTVSPost2010PropOp35
 70
     1
102
RTVSPost2010Prop36
280
     0
102
RTVSPost2010PropOp36
 70
     1
102
RTVSPost2010Prop37
 90
       50
102
RTVSPost2010PropOp37
 70
     1
102
RTVSPost2010Prop38
140
0.0
102
RTVSPost2010PropOp38
 70
     1
102
RTVSPost2010Prop39
140
1.0
102
RTVSPost2010PropOp39
 70
     1
102
RTVSPost2010Prop40
 90
        0
102
RTVSPost2010PropOp40
 70
     1
102
RTVSPost2010Prop41ColorIndex
 90
       18
102
RTVSPost2010Prop41ColorRGB
 90
        0
102
RTVSPost2010PropOp41
 70
     1
102
RTVSPost2010Prop42
 90
       50
102
RTVSPost2010PropOp42
 70
     1
102
RTVSPost2010Prop43
 90
        3
102
RTVSPost2010PropOp43
 70
     1
102
RTVSPost2010Prop44ColorIndex
 90
        5
102
RTVSPost2010Prop44ColorRGB
 90
      255
102
RTVSPost2010PropOp44
 70
     1
102
RTVSPost2010Prop45
280
     0
102
RTVSPost2010PropOp45
 70
     1
102
RTVSPost2010Prop46
 90
       50
102
RTVSPost2010PropOp46
 70
     1
102
RTVSPost2010Prop47
 90
       50
102
RTVSPost2010PropOp47
 70
     1
102
RTVSPost2010Prop48
 90
       50
102
RTVSPost2010PropOp48
 70
     1
102
RTVSPost2010Prop49
280
     0
102
RTVSPost2010PropOp49
 70
     1
102
RTVSPost2010Prop50
 90
       50
102
RTVSPost2010PropOp50
 70
     1
102
RTVSPost2010Prop51ColorIndex
 90
      256
102
RTVSPost2010Prop51ColorRGB
 90
-16777216
102
RTVSPost2010PropOp51
 70
     0
102
RTVSPost2010Prop52
140
1.0
102
RTVSPost2010PropOp52
 70
     0
102
RTVSPost2010Prop53
 90
        2
102
RTVSPost2010PropOp53
 70
     1
102
RTVSPost2010Prop54
  1
strokes_ogs.tif
102
RTVSPost2010PropOp54
 70
     1
102
RTVSPost2010Prop55
280
     0
102
RTVSPost2010PropOp55
 70
     1
102
RTVSPost2010Prop56
140
1.0
102
RTVSPost2010PropOp56
 70
     1
102
RTVSPost2010Prop57
140
1.0
102
RTVSPost2010PropOp57
 70
     1
102
RTVSPropertyOp0
 70
     1
102
RTVSPropertyOp1
 70
     1
102
RTVSPropertyOp2
 70
     1
102
RTVSPropertyOp3
 70
     1
102
RTVSPropertyOp4
 70
     1
102
RTVSPropertyOp5
 70
     1
102
RTVSPropertyOp6
 70
     1
102
RTVSPropertyOp7
 70
     1
102
RTVSPropertyOp8
 70
     1
102
RTVSPropertyOp9
 70
     1
102
RTVSPropertyOp10
 70
     1
102
RTVSPropertyOp11
 70
     1
102
RTVSPropertyOp12
 70
     1
102
RTVSPropertyOp13
 70
     1
102
RTVSPropertyOp14
 70
     1
102
RTVSPropertyOp15
 70
     1
102
RTVSPropertyOp16
 70
     1
102
RTVSPropertyOp17
 70
     1
102
RTVSPropertyOp18
 70
     1
102
RTVSPropertyOp19
 70
     1
102
RTVSPropertyOp20
 70
     1
102
RTVSPropertyOp21
 70
     1
102
RTVSPropertyOp22
 70
     1
102
RTVSPropertyOp23
 70
     1
102
RTVSPropertyOp24
 70
     1
102
RTVSPropertyOp25
 70
     1
102
RTVSPropertyOp26
 70
     1
102
RTVSPropertyOp27
 70
     1
102
RTVSPropertyOp28
 70
     1
102
RTVSPropertyOp29
 70
     1
102
RTVSPropertyOp30
 70
     1
102
RTVSPropertyOp31
 70
     1
102
RTVSPropertyOp32
 70
     1
102
RTVSPropertyOp33
 70
     1
102
RTVSPropertyOp34
 70
     1
102
RTVSPropertyOp35
 70
     1
102
RTVSPropertyOp36
 70
     1
102
RTVSPropertyOp37
 70
     1
102
RTVSPropertyOp38
 70
     1
102
RTVSPropertyOp39
 70
     1
102
RTVSPropertyOp40
 70
     1
102
RTVSPropertyOp41
 70
     1
102
RTVSPropertyOp42
 70
     1
102
RTVSPropertyOp43
 70
     1
102
RTVSPropertyOp44
 70
     1
102
RTVSPropertyOp45
 70
     1
102
RTVSPropertyOp46
 70
     1
102
RTVSPropertyOp47
 70
     1
102
RTVSPropertyOp48
 70
     1
102
RTVSPropertyOp49
 70
     1
102
RTVSPropertyOp50
 70
     1
102
RTVSPropertyOp51
 70
     0
102
RTVSPropertyOp52
 70
     0
102
RTVSPropertyOp53
 70
     1
102
RTVSPropertyOp54
 70
     1
102
RTVSPropertyOp55
 70
     1
102
RTVSPropertyOp56
 70
     1
102
RTVSPropertyOp57
 70
     1
102
RTVSPropertyOp58
 70
     1
102
RTVSPropertyOp59
 70
     1
102
RTVSPropertyOp60
 70
     1
102
RTVSPropertyOp61
 70
     1
102
RTVSPropertyOp62
 70
     1
  0
XRECORD
  5
9B94
102
{ACAD_REACTORS
330
9B93
102
}
330
9B93
100
AcDbXrecord
280
     1
102
RTVSPost2010Prop28
280
     0
102
RTVSPost2010PropOp28
 70
     1
102
RTVSPost2010Prop29
280
     1
102
RTVSPost2010PropOp29
 70
     1
102
RTVSPost2010Prop30
280
     1
102
RTVSPost2010PropOp30
 70
     1
102
RTVSPost2010Prop31
280
     0
102
RTVSPost2010PropOp31
 70
     1
102
RTVSPost2010Prop32
280
     0
102
RTVSPost2010PropOp32
 70
     1
102
RTVSPost2010Prop33
280
     0
102
RTVSPost2010PropOp33
 70
     1
102
RTVSPost2010Prop34
280
     0
102
RTVSPost2010PropOp34
 70
     1
102
RTVSPost2010Prop35
280
     0
102
RTVSPost2010PropOp35
 70
     1
102
RTVSPost2010Prop36
280
     0
102
RTVSPost2010PropOp36
 70
     1
102
RTVSPost2010Prop37
 90
       50
102
RTVSPost2010PropOp37
 70
     0
102
RTVSPost2010Prop38
140
0.0
102
RTVSPost2010PropOp38
 70
     0
102
RTVSPost2010Prop39
140
1.0
102
RTVSPost2010PropOp39
 70
     0
102
RTVSPost2010Prop40
 90
        0
102
RTVSPost2010PropOp40
 70
     0
102
RTVSPost2010Prop41ColorIndex
 90
       18
102
RTVSPost2010Prop41ColorRGB
 90
        0
102
RTVSPost2010PropOp41
 70
     0
102
RTVSPost2010Prop42
 90
       50
102
RTVSPost2010PropOp42
 70
     0
102
RTVSPost2010Prop43
 90
        3
102
RTVSPost2010PropOp43
 70
     0
102
RTVSPost2010Prop44ColorIndex
 90
        5
102
RTVSPost2010Prop44ColorRGB
 90
      255
102
RTVSPost2010PropOp44
 70
     0
102
RTVSPost2010Prop45
280
     0
102
RTVSPost2010PropOp45
 70
     1
102
RTVSPost2010Prop46
 90
       50
102
RTVSPost2010PropOp46
 70
     0
102
RTVSPost2010Prop47
 90
       50
102
RTVSPost2010PropOp47
 70
     0
102
RTVSPost2010Prop48
 90
       50
102
RTVSPost2010PropOp48
 70
     0
102
RTVSPost2010Prop49
280
     0
102
RTVSPost2010PropOp49
 70
     1
102
RTVSPost2010Prop50
 90
       50
102
RTVSPost2010PropOp50
 70
     0
102
RTVSPost2010Prop51ColorIndex
 90
      256
102
RTVSPost2010Prop51ColorRGB
 90
-16777216
102
RTVSPost2010PropOp51
 70
     0
102
RTVSPost2010Prop52
140
1.0
102
RTVSPost2010PropOp52
 70
     0
102
RTVSPost2010Prop53
 90
        2
102
RTVSPost2010PropOp53
 70
     0
102
RTVSPost2010Prop54
  1
strokes_ogs.tif
102
RTVSPost2010PropOp54
 70
     0
102
RTVSPost2010Prop55
280
     0
102
RTVSPost2010PropOp55
 70
     1
102
RTVSPost2010Prop56
140
1.0
102
RTVSPost2010PropOp56
 70
     0
102
RTVSPost2010Prop57
140
1.0
102
RTVSPost2010PropOp57
 70
     0
102
RTVSPropertyOp0
 70
     0
102
RTVSPropertyOp1
 70
     0
102
RTVSPropertyOp2
 70
     0
102
RTVSPropertyOp3
 70
     0
102
RTVSPropertyOp4
 70
     0
102
RTVSPropertyOp5
 70
     0
102
RTVSPropertyOp6
 70
     0
102
RTVSPropertyOp7
 70
     0
102
RTVSPropertyOp8
 70
     0
102
RTVSPropertyOp9
 70
     0
102
RTVSPropertyOp10
 70
     0
102
RTVSPropertyOp11
 70
     0
102
RTVSPropertyOp12
 70
     0
102
RTVSPropertyOp13
 70
     0
102
RTVSPropertyOp14
 70
     2
102
RTVSPropertyOp15
 70
     0
102
RTVSPropertyOp16
 70
     0
102
RTVSPropertyOp17
 70
     0
102
RTVSPropertyOp18
 70
     0
102
RTVSPropertyOp19
 70
     0
102
RTVSPropertyOp20
 70
     0
102
RTVSPropertyOp21
 70
     0
102
RTVSPropertyOp22
 70
     0
102
RTVSPropertyOp23
 70
     0
102
RTVSPropertyOp24
 70
     0
102
RTVSPropertyOp25
 70
     0
102
RTVSPropertyOp26
 70
     0
102
RTVSPropertyOp27
 70
     0
102
RTVSPropertyOp28
 70
     1
102
RTVSPropertyOp29
 70
     1
102
RTVSPropertyOp30
 70
     1
102
RTVSPropertyOp31
 70
     1
102
RTVSPropertyOp32
 70
     1
102
RTVSPropertyOp33
 70
     1
102
RTVSPropertyOp34
 70
     1
102
RTVSPropertyOp35
 70
     1
102
RTVSPropertyOp36
 70
     1
102
RTVSPropertyOp37
 70
     0
102
RTVSPropertyOp38
 70
     0
102
RTVSPropertyOp39
 70
     0
102
RTVSPropertyOp40
 70
     0
102
RTVSPropertyOp41
 70
     0
102
RTVSPropertyOp42
 70
     0
102
RTVSPropertyOp43
 70
     0
102
RTVSPropertyOp44
 70
     0
102
RTVSPropertyOp45
 70
     1
102
RTVSPropertyOp46
 70
     0
102
RTVSPropertyOp47
 70
     0
102
RTVSPropertyOp48
 70
     0
102
RTVSPropertyOp49
 70
     1
102
RTVSPropertyOp50
 70
     0
102
RTVSPropertyOp51
 70
     0
102
RTVSPropertyOp52
 70
     0
102
RTVSPropertyOp53
 70
     0
102
RTVSPropertyOp54
 70
     0
102
RTVSPropertyOp55
 70
     1
102
RTVSPropertyOp56
 70
     0
102
RTVSPropertyOp57
 70
     0
102
RTVSPropertyOp58
 70
     0
102
RTVSPropertyOp59
 70
     0
102
RTVSPropertyOp60
 70
     0
102
RTVSPropertyOp61
 70
     0
102
RTVSPropertyOp62
 70
     0
  0
XRECORD
  5
9B7A
102
{ACAD_REACTORS
330
9B79
102
}
330
9B79
100
AcDbXrecord
280
     1
102
RTVSPost2010Prop28
280
     0
102
RTVSPost2010PropOp28
 70
     1
102
RTVSPost2010Prop29
280
     1
102
RTVSPost2010PropOp29
 70
     1
102
RTVSPost2010Prop30
280
     1
102
RTVSPost2010PropOp30
 70
     1
102
RTVSPost2010Prop31
280
     0
102
RTVSPost2010PropOp31
 70
     1
102
RTVSPost2010Prop32
280
     0
102
RTVSPost2010PropOp32
 70
     1
102
RTVSPost2010Prop33
280
     0
102
RTVSPost2010PropOp33
 70
     1
102
RTVSPost2010Prop34
280
     0
102
RTVSPost2010PropOp34
 70
     1
102
RTVSPost2010Prop35
280
     0
102
RTVSPost2010PropOp35
 70
     1
102
RTVSPost2010Prop36
280
     0
102
RTVSPost2010PropOp36
 70
     1
102
RTVSPost2010Prop37
 90
       50
102
RTVSPost2010PropOp37
 70
     1
102
RTVSPost2010Prop38
140
0.0
102
RTVSPost2010PropOp38
 70
     1
102
RTVSPost2010Prop39
140
1.0
102
RTVSPost2010PropOp39
 70
     1
102
RTVSPost2010Prop40
 90
        0
102
RTVSPost2010PropOp40
 70
     1
102
RTVSPost2010Prop41ColorIndex
 90
       18
102
RTVSPost2010Prop41ColorRGB
 90
        0
102
RTVSPost2010PropOp41
 70
     1
102
RTVSPost2010Prop42
 90
       50
102
RTVSPost2010PropOp42
 70
     1
102
RTVSPost2010Prop43
 90
        3
102
RTVSPost2010PropOp43
 70
     1
102
RTVSPost2010Prop44ColorIndex
 90
        5
102
RTVSPost2010Prop44ColorRGB
 90
      255
102
RTVSPost2010PropOp44
 70
     1
102
RTVSPost2010Prop45
280
     0
102
RTVSPost2010PropOp45
 70
     1
102
RTVSPost2010Prop46
 90
       50
102
RTVSPost2010PropOp46
 70
     1
102
RTVSPost2010Prop47
 90
       50
102
RTVSPost2010PropOp47
 70
     1
102
RTVSPost2010Prop48
 90
       50
102
RTVSPost2010PropOp48
 70
     1
102
RTVSPost2010Prop49
280
     0
102
RTVSPost2010PropOp49
 70
     1
102
RTVSPost2010Prop50
 90
       50
102
RTVSPost2010PropOp50
 70
     1
102
RTVSPost2010Prop51ColorIndex
 90
      256
102
RTVSPost2010Prop51ColorRGB
 90
-16777216
102
RTVSPost2010PropOp51
 70
     0
102
RTVSPost2010Prop52
140
1.0
102
RTVSPost2010PropOp52
 70
     0
102
RTVSPost2010Prop53
 90
        2
102
RTVSPost2010PropOp53
 70
     1
102
RTVSPost2010Prop54
  1
strokes_ogs.tif
102
RTVSPost2010PropOp54
 70
     1
102
RTVSPost2010Prop55
280
     0
102
RTVSPost2010PropOp55
 70
     1
102
RTVSPost2010Prop56
140
1.0
102
RTVSPost2010PropOp56
 70
     1
102
RTVSPost2010Prop57
140
1.0
102
RTVSPost2010PropOp57
 70
     1
102
RTVSPropertyOp0
 70
     1
102
RTVSPropertyOp1
 70
     1
102
RTVSPropertyOp2
 70
     1
102
RTVSPropertyOp3
 70
     1
102
RTVSPropertyOp4
 70
     1
102
RTVSPropertyOp5
 70
     1
102
RTVSPropertyOp6
 70
     1
102
RTVSPropertyOp7
 70
     1
102
RTVSPropertyOp8
 70
     1
102
RTVSPropertyOp9
 70
     1
102
RTVSPropertyOp10
 70
     1
102
RTVSPropertyOp11
 70
     1
102
RTVSPropertyOp12
 70
     1
102
RTVSPropertyOp13
 70
     1
102
RTVSPropertyOp14
 70
     1
102
RTVSPropertyOp15
 70
     1
102
RTVSPropertyOp16
 70
     1
102
RTVSPropertyOp17
 70
     1
102
RTVSPropertyOp18
 70
     1
102
RTVSPropertyOp19
 70
     1
102
RTVSPropertyOp20
 70
     1
102
RTVSPropertyOp21
 70
     1
102
RTVSPropertyOp22
 70
     1
102
RTVSPropertyOp23
 70
     1
102
RTVSPropertyOp24
 70
     1
102
RTVSPropertyOp25
 70
     1
102
RTVSPropertyOp26
 70
     1
102
RTVSPropertyOp27
 70
     1
102
RTVSPropertyOp28
 70
     1
102
RTVSPropertyOp29
 70
     1
102
RTVSPropertyOp30
 70
     1
102
RTVSPropertyOp31
 70
     1
102
RTVSPropertyOp32
 70
     1
102
RTVSPropertyOp33
 70
     1
102
RTVSPropertyOp34
 70
     1
102
RTVSPropertyOp35
 70
     1
102
RTVSPropertyOp36
 70
     1
102
RTVSPropertyOp37
 70
     1
102
RTVSPropertyOp38
 70
     1
102
RTVSPropertyOp39
 70
     1
102
RTVSPropertyOp40
 70
     1
102
RTVSPropertyOp41
 70
     1
102
RTVSPropertyOp42
 70
     1
102
RTVSPropertyOp43
 70
     1
102
RTVSPropertyOp44
 70
     1
102
RTVSPropertyOp45
 70
     1
102
RTVSPropertyOp46
 70
     1
102
RTVSPropertyOp47
 70
     1
102
RTVSPropertyOp48
 70
     1
102
RTVSPropertyOp49
 70
     1
102
RTVSPropertyOp50
 70
     1
102
RTVSPropertyOp51
 70
     0
102
RTVSPropertyOp52
 70
     0
102
RTVSPropertyOp53
 70
     1
102
RTVSPropertyOp54
 70
     1
102
RTVSPropertyOp55
 70
     1
102
RTVSPropertyOp56
 70
     1
102
RTVSPropertyOp57
 70
     1
102
RTVSPropertyOp58
 70
     1
102
RTVSPropertyOp59
 70
     1
102
RTVSPropertyOp60
 70
     1
102
RTVSPropertyOp61
 70
     1
102
RTVSPropertyOp62
 70
     1
  0
XRECORD
  5
9B90
102
{ACAD_REACTORS
330
9B8F
102
}
330
9B8F
100
AcDbXrecord
280
     1
102
RTVSPost2010Prop28
280
     0
102
RTVSPost2010PropOp28
 70
     1
102
RTVSPost2010Prop29
280
     1
102
RTVSPost2010PropOp29
 70
     1
102
RTVSPost2010Prop30
280
     1
102
RTVSPost2010PropOp30
 70
     1
102
RTVSPost2010Prop31
280
     0
102
RTVSPost2010PropOp31
 70
     1
102
RTVSPost2010Prop32
280
     0
102
RTVSPost2010PropOp32
 70
     1
102
RTVSPost2010Prop33
280
     0
102
RTVSPost2010PropOp33
 70
     1
102
RTVSPost2010Prop34
280
     0
102
RTVSPost2010PropOp34
 70
     1
102
RTVSPost2010Prop35
280
     0
102
RTVSPost2010PropOp35
 70
     1
102
RTVSPost2010Prop36
280
     0
102
RTVSPost2010PropOp36
 70
     1
102
RTVSPost2010Prop37
 90
       50
102
RTVSPost2010PropOp37
 70
     1
102
RTVSPost2010Prop38
140
0.0
102
RTVSPost2010PropOp38
 70
     1
102
RTVSPost2010Prop39
140
1.0
102
RTVSPost2010PropOp39
 70
     1
102
RTVSPost2010Prop40
 90
        0
102
RTVSPost2010PropOp40
 70
     1
102
RTVSPost2010Prop41ColorIndex
 90
       18
102
RTVSPost2010Prop41ColorRGB
 90
        0
102
RTVSPost2010PropOp41
 70
     1
102
RTVSPost2010Prop42
 90
       50
102
RTVSPost2010PropOp42
 70
     1
102
RTVSPost2010Prop43
 90
        3
102
RTVSPost2010PropOp43
 70
     1
102
RTVSPost2010Prop44ColorIndex
 90
        5
102
RTVSPost2010Prop44ColorRGB
 90
      255
102
RTVSPost2010PropOp44
 70
     1
102
RTVSPost2010Prop45
280
     0
102
RTVSPost2010PropOp45
 70
     1
102
RTVSPost2010Prop46
 90
       50
102
RTVSPost2010PropOp46
 70
     1
102
RTVSPost2010Prop47
 90
       50
102
RTVSPost2010PropOp47
 70
     1
102
RTVSPost2010Prop48
 90
       50
102
RTVSPost2010PropOp48
 70
     1
102
RTVSPost2010Prop49
280
     0
102
RTVSPost2010PropOp49
 70
     1
102
RTVSPost2010Prop50
 90
       50
102
RTVSPost2010PropOp50
 70
     1
102
RTVSPost2010Prop51ColorIndex
 90
      256
102
RTVSPost2010Prop51ColorRGB
 90
-16777216
102
RTVSPost2010PropOp51
 70
     0
102
RTVSPost2010Prop52
140
1.0
102
RTVSPost2010PropOp52
 70
     0
102
RTVSPost2010Prop53
 90
        2
102
RTVSPost2010PropOp53
 70
     1
102
RTVSPost2010Prop54
  1
strokes_ogs.tif
102
RTVSPost2010PropOp54
 70
     1
102
RTVSPost2010Prop55
280
     0
102
RTVSPost2010PropOp55
 70
     1
102
RTVSPost2010Prop56
140
1.0
102
RTVSPost2010PropOp56
 70
     1
102
RTVSPost2010Prop57
140
1.0
102
RTVSPost2010PropOp57
 70
     1
102
RTVSPropertyOp0
 70
     1
102
RTVSPropertyOp1
 70
     1
102
RTVSPropertyOp2
 70
     1
102
RTVSPropertyOp3
 70
     1
102
RTVSPropertyOp4
 70
     1
102
RTVSPropertyOp5
 70
     1
102
RTVSPropertyOp6
 70
     1
102
RTVSPropertyOp7
 70
     1
102
RTVSPropertyOp8
 70
     1
102
RTVSPropertyOp9
 70
     1
102
RTVSPropertyOp10
 70
     1
102
RTVSPropertyOp11
 70
     1
102
RTVSPropertyOp12
 70
     1
102
RTVSPropertyOp13
 70
     1
102
RTVSPropertyOp14
 70
     1
102
RTVSPropertyOp15
 70
     1
102
RTVSPropertyOp16
 70
     1
102
RTVSPropertyOp17
 70
     1
102
RTVSPropertyOp18
 70
     1
102
RTVSPropertyOp19
 70
     1
102
RTVSPropertyOp20
 70
     1
102
RTVSPropertyOp21
 70
     1
102
RTVSPropertyOp22
 70
     1
102
RTVSPropertyOp23
 70
     1
102
RTVSPropertyOp24
 70
     1
102
RTVSPropertyOp25
 70
     1
102
RTVSPropertyOp26
 70
     1
102
RTVSPropertyOp27
 70
     1
102
RTVSPropertyOp28
 70
     1
102
RTVSPropertyOp29
 70
     1
102
RTVSPropertyOp30
 70
     1
102
RTVSPropertyOp31
 70
     1
102
RTVSPropertyOp32
 70
     1
102
RTVSPropertyOp33
 70
     1
102
RTVSPropertyOp34
 70
     1
102
RTVSPropertyOp35
 70
     1
102
RTVSPropertyOp36
 70
     1
102
RTVSPropertyOp37
 70
     1
102
RTVSPropertyOp38
 70
     1
102
RTVSPropertyOp39
 70
     1
102
RTVSPropertyOp40
 70
     1
102
RTVSPropertyOp41
 70
     1
102
RTVSPropertyOp42
 70
     1
102
RTVSPropertyOp43
 70
     1
102
RTVSPropertyOp44
 70
     1
102
RTVSPropertyOp45
 70
     1
102
RTVSPropertyOp46
 70
     1
102
RTVSPropertyOp47
 70
     1
102
RTVSPropertyOp48
 70
     1
102
RTVSPropertyOp49
 70
     1
102
RTVSPropertyOp50
 70
     1
102
RTVSPropertyOp51
 70
     0
102
RTVSPropertyOp52
 70
     0
102
RTVSPropertyOp53
 70
     1
102
RTVSPropertyOp54
 70
     1
102
RTVSPropertyOp55
 70
     1
102
RTVSPropertyOp56
 70
     1
102
RTVSPropertyOp57
 70
     1
102
RTVSPropertyOp58
 70
     1
102
RTVSPropertyOp59
 70
     1
102
RTVSPropertyOp60
 70
     1
102
RTVSPropertyOp61
 70
     1
102
RTVSPropertyOp62
 70
     1
  0
XRECORD
  5
9B8E
102
{ACAD_REACTORS
330
9B8D
102
}
330
9B8D
100
AcDbXrecord
280
     1
102
RTVSPost2010Prop28
280
     0
102
RTVSPost2010PropOp28
 70
     1
102
RTVSPost2010Prop29
280
     1
102
RTVSPost2010PropOp29
 70
     1
102
RTVSPost2010Prop30
280
     1
102
RTVSPost2010PropOp30
 70
     1
102
RTVSPost2010Prop31
280
     0
102
RTVSPost2010PropOp31
 70
     1
102
RTVSPost2010Prop32
280
     0
102
RTVSPost2010PropOp32
 70
     1
102
RTVSPost2010Prop33
280
     0
102
RTVSPost2010PropOp33
 70
     1
102
RTVSPost2010Prop34
280
     0
102
RTVSPost2010PropOp34
 70
     1
102
RTVSPost2010Prop35
280
     0
102
RTVSPost2010PropOp35
 70
     1
102
RTVSPost2010Prop36
280
     0
102
RTVSPost2010PropOp36
 70
     1
102
RTVSPost2010Prop37
 90
       50
102
RTVSPost2010PropOp37
 70
     1
102
RTVSPost2010Prop38
140
0.0
102
RTVSPost2010PropOp38
 70
     1
102
RTVSPost2010Prop39
140
1.0
102
RTVSPost2010PropOp39
 70
     1
102
RTVSPost2010Prop40
 90
        0
102
RTVSPost2010PropOp40
 70
     1
102
RTVSPost2010Prop41ColorIndex
 90
       18
102
RTVSPost2010Prop41ColorRGB
 90
        0
102
RTVSPost2010PropOp41
 70
     1
102
RTVSPost2010Prop42
 90
       50
102
RTVSPost2010PropOp42
 70
     1
102
RTVSPost2010Prop43
 90
        3
102
RTVSPost2010PropOp43
 70
     1
102
RTVSPost2010Prop44ColorIndex
 90
        5
102
RTVSPost2010Prop44ColorRGB
 90
      255
102
RTVSPost2010PropOp44
 70
     1
102
RTVSPost2010Prop45
280
     0
102
RTVSPost2010PropOp45
 70
     1
102
RTVSPost2010Prop46
 90
       50
102
RTVSPost2010PropOp46
 70
     1
102
RTVSPost2010Prop47
 90
       50
102
RTVSPost2010PropOp47
 70
     1
102
RTVSPost2010Prop48
 90
       50
102
RTVSPost2010PropOp48
 70
     1
102
RTVSPost2010Prop49
280
     0
102
RTVSPost2010PropOp49
 70
     1
102
RTVSPost2010Prop50
 90
       50
102
RTVSPost2010PropOp50
 70
     1
102
RTVSPost2010Prop51ColorIndex
 90
      256
102
RTVSPost2010Prop51ColorRGB
 90
-16777216
102
RTVSPost2010PropOp51
 70
     0
102
RTVSPost2010Prop52
140
1.0
102
RTVSPost2010PropOp52
 70
     0
102
RTVSPost2010Prop53
 90
        2
102
RTVSPost2010PropOp53
 70
     1
102
RTVSPost2010Prop54
  1
strokes_ogs.tif
102
RTVSPost2010PropOp54
 70
     1
102
RTVSPost2010Prop55
280
     0
102
RTVSPost2010PropOp55
 70
     1
102
RTVSPost2010Prop56
140
1.0
102
RTVSPost2010PropOp56
 70
     1
102
RTVSPost2010Prop57
140
1.0
102
RTVSPost2010PropOp57
 70
     1
102
RTVSPropertyOp0
 70
     1
102
RTVSPropertyOp1
 70
     1
102
RTVSPropertyOp2
 70
     1
102
RTVSPropertyOp3
 70
     1
102
RTVSPropertyOp4
 70
     1
102
RTVSPropertyOp5
 70
     1
102
RTVSPropertyOp6
 70
     1
102
RTVSPropertyOp7
 70
     1
102
RTVSPropertyOp8
 70
     1
102
RTVSPropertyOp9
 70
     1
102
RTVSPropertyOp10
 70
     1
102
RTVSPropertyOp11
 70
     1
102
RTVSPropertyOp12
 70
     1
102
RTVSPropertyOp13
 70
     1
102
RTVSPropertyOp14
 70
     1
102
RTVSPropertyOp15
 70
     1
102
RTVSPropertyOp16
 70
     1
102
RTVSPropertyOp17
 70
     1
102
RTVSPropertyOp18
 70
     1
102
RTVSPropertyOp19
 70
     1
102
RTVSPropertyOp20
 70
     1
102
RTVSPropertyOp21
 70
     1
102
RTVSPropertyOp22
 70
     1
102
RTVSPropertyOp23
 70
     1
102
RTVSPropertyOp24
 70
     1
102
RTVSPropertyOp25
 70
     1
102
RTVSPropertyOp26
 70
     1
102
RTVSPropertyOp27
 70
     1
102
RTVSPropertyOp28
 70
     1
102
RTVSPropertyOp29
 70
     1
102
RTVSPropertyOp30
 70
     1
102
RTVSPropertyOp31
 70
     1
102
RTVSPropertyOp32
 70
     1
102
RTVSPropertyOp33
 70
     1
102
RTVSPropertyOp34
 70
     1
102
RTVSPropertyOp35
 70
     1
102
RTVSPropertyOp36
 70
     1
102
RTVSPropertyOp37
 70
     1
102
RTVSPropertyOp38
 70
     1
102
RTVSPropertyOp39
 70
     1
102
RTVSPropertyOp40
 70
     1
102
RTVSPropertyOp41
 70
     1
102
RTVSPropertyOp42
 70
     1
102
RTVSPropertyOp43
 70
     1
102
RTVSPropertyOp44
 70
     1
102
RTVSPropertyOp45
 70
     1
102
RTVSPropertyOp46
 70
     1
102
RTVSPropertyOp47
 70
     1
102
RTVSPropertyOp48
 70
     1
102
RTVSPropertyOp49
 70
     1
102
RTVSPropertyOp50
 70
     1
102
RTVSPropertyOp51
 70
     0
102
RTVSPropertyOp52
 70
     0
102
RTVSPropertyOp53
 70
     1
102
RTVSPropertyOp54
 70
     1
102
RTVSPropertyOp55
 70
     1
102
RTVSPropertyOp56
 70
     1
102
RTVSPropertyOp57
 70
     1
102
RTVSPropertyOp58
 70
     1
102
RTVSPropertyOp59
 70
     1
102
RTVSPropertyOp60
 70
     1
102
RTVSPropertyOp61
 70
     1
102
RTVSPropertyOp62
 70
     1
  0
XRECORD
  5
9B88
102
{ACAD_REACTORS
330
9B87
102
}
330
9B87
100
AcDbXrecord
280
     1
102
RTVSPost2010Prop28
280
     0
102
RTVSPost2010PropOp28
 70
     1
102
RTVSPost2010Prop29
280
     1
102
RTVSPost2010PropOp29
 70
     1
102
RTVSPost2010Prop30
280
     1
102
RTVSPost2010PropOp30
 70
     1
102
RTVSPost2010Prop31
280
     0
102
RTVSPost2010PropOp31
 70
     1
102
RTVSPost2010Prop32
280
     0
102
RTVSPost2010PropOp32
 70
     1
102
RTVSPost2010Prop33
280
     0
102
RTVSPost2010PropOp33
 70
     1
102
RTVSPost2010Prop34
280
     0
102
RTVSPost2010PropOp34
 70
     1
102
RTVSPost2010Prop35
280
     0
102
RTVSPost2010PropOp35
 70
     1
102
RTVSPost2010Prop36
280
     0
102
RTVSPost2010PropOp36
 70
     1
102
RTVSPost2010Prop37
 90
       50
102
RTVSPost2010PropOp37
 70
     1
102
RTVSPost2010Prop38
140
0.0
102
RTVSPost2010PropOp38
 70
     1
102
RTVSPost2010Prop39
140
1.0
102
RTVSPost2010PropOp39
 70
     1
102
RTVSPost2010Prop40
 90
        0
102
RTVSPost2010PropOp40
 70
     1
102
RTVSPost2010Prop41ColorIndex
 90
       18
102
RTVSPost2010Prop41ColorRGB
 90
        0
102
RTVSPost2010PropOp41
 70
     1
102
RTVSPost2010Prop42
 90
       50
102
RTVSPost2010PropOp42
 70
     1
102
RTVSPost2010Prop43
 90
        3
102
RTVSPost2010PropOp43
 70
     1
102
RTVSPost2010Prop44ColorIndex
 90
        5
102
RTVSPost2010Prop44ColorRGB
 90
      255
102
RTVSPost2010PropOp44
 70
     1
102
RTVSPost2010Prop45
280
     0
102
RTVSPost2010PropOp45
 70
     1
102
RTVSPost2010Prop46
 90
       50
102
RTVSPost2010PropOp46
 70
     1
102
RTVSPost2010Prop47
 90
       50
102
RTVSPost2010PropOp47
 70
     1
102
RTVSPost2010Prop48
 90
       50
102
RTVSPost2010PropOp48
 70
     1
102
RTVSPost2010Prop49
280
     0
102
RTVSPost2010PropOp49
 70
     1
102
RTVSPost2010Prop50
 90
       50
102
RTVSPost2010PropOp50
 70
     1
102
RTVSPost2010Prop51ColorIndex
 90
      256
102
RTVSPost2010Prop51ColorRGB
 90
-16777216
102
RTVSPost2010PropOp51
 70
     0
102
RTVSPost2010Prop52
140
1.0
102
RTVSPost2010PropOp52
 70
     0
102
RTVSPost2010Prop53
 90
        2
102
RTVSPost2010PropOp53
 70
     1
102
RTVSPost2010Prop54
  1
strokes_ogs.tif
102
RTVSPost2010PropOp54
 70
     1
102
RTVSPost2010Prop55
280
     0
102
RTVSPost2010PropOp55
 70
     1
102
RTVSPost2010Prop56
140
1.0
102
RTVSPost2010PropOp56
 70
     1
102
RTVSPost2010Prop57
140
1.0
102
RTVSPost2010PropOp57
 70
     1
102
RTVSPropertyOp0
 70
     1
102
RTVSPropertyOp1
 70
     1
102
RTVSPropertyOp2
 70
     1
102
RTVSPropertyOp3
 70
     1
102
RTVSPropertyOp4
 70
     1
102
RTVSPropertyOp5
 70
     1
102
RTVSPropertyOp6
 70
     1
102
RTVSPropertyOp7
 70
     1
102
RTVSPropertyOp8
 70
     1
102
RTVSPropertyOp9
 70
     1
102
RTVSPropertyOp10
 70
     1
102
RTVSPropertyOp11
 70
     1
102
RTVSPropertyOp12
 70
     1
102
RTVSPropertyOp13
 70
     1
102
RTVSPropertyOp14
 70
     1
102
RTVSPropertyOp15
 70
     1
102
RTVSPropertyOp16
 70
     1
102
RTVSPropertyOp17
 70
     1
102
RTVSPropertyOp18
 70
     1
102
RTVSPropertyOp19
 70
     1
102
RTVSPropertyOp20
 70
     1
102
RTVSPropertyOp21
 70
     1
102
RTVSPropertyOp22
 70
     1
102
RTVSPropertyOp23
 70
     1
102
RTVSPropertyOp24
 70
     1
102
RTVSPropertyOp25
 70
     1
102
RTVSPropertyOp26
 70
     1
102
RTVSPropertyOp27
 70
     1
102
RTVSPropertyOp28
 70
     1
102
RTVSPropertyOp29
 70
     1
102
RTVSPropertyOp30
 70
     1
102
RTVSPropertyOp31
 70
     1
102
RTVSPropertyOp32
 70
     1
102
RTVSPropertyOp33
 70
     1
102
RTVSPropertyOp34
 70
     1
102
RTVSPropertyOp35
 70
     1
102
RTVSPropertyOp36
 70
     1
102
RTVSPropertyOp37
 70
     1
102
RTVSPropertyOp38
 70
     1
102
RTVSPropertyOp39
 70
     1
102
RTVSPropertyOp40
 70
     1
102
RTVSPropertyOp41
 70
     1
102
RTVSPropertyOp42
 70
     1
102
RTVSPropertyOp43
 70
     1
102
RTVSPropertyOp44
 70
     1
102
RTVSPropertyOp45
 70
     1
102
RTVSPropertyOp46
 70
     1
102
RTVSPropertyOp47
 70
     1
102
RTVSPropertyOp48
 70
     1
102
RTVSPropertyOp49
 70
     1
102
RTVSPropertyOp50
 70
     1
102
RTVSPropertyOp51
 70
     0
102
RTVSPropertyOp52
 70
     0
102
RTVSPropertyOp53
 70
     1
102
RTVSPropertyOp54
 70
     1
102
RTVSPropertyOp55
 70
     1
102
RTVSPropertyOp56
 70
     1
102
RTVSPropertyOp57
 70
     1
102
RTVSPropertyOp58
 70
     1
102
RTVSPropertyOp59
 70
     1
102
RTVSPropertyOp60
 70
     1
102
RTVSPropertyOp61
 70
     1
102
RTVSPropertyOp62
 70
     1
  0
XRECORD
  5
9B8A
102
{ACAD_REACTORS
330
9B89
102
}
330
9B89
100
AcDbXrecord
280
     1
102
RTVSPost2010Prop28
280
     0
102
RTVSPost2010PropOp28
 70
     1
102
RTVSPost2010Prop29
280
     1
102
RTVSPost2010PropOp29
 70
     1
102
RTVSPost2010Prop30
280
     1
102
RTVSPost2010PropOp30
 70
     1
102
RTVSPost2010Prop31
280
     0
102
RTVSPost2010PropOp31
 70
     1
102
RTVSPost2010Prop32
280
     0
102
RTVSPost2010PropOp32
 70
     1
102
RTVSPost2010Prop33
280
     0
102
RTVSPost2010PropOp33
 70
     1
102
RTVSPost2010Prop34
280
     0
102
RTVSPost2010PropOp34
 70
     1
102
RTVSPost2010Prop35
280
     0
102
RTVSPost2010PropOp35
 70
     1
102
RTVSPost2010Prop36
280
     0
102
RTVSPost2010PropOp36
 70
     1
102
RTVSPost2010Prop37
 90
       50
102
RTVSPost2010PropOp37
 70
     1
102
RTVSPost2010Prop38
140
0.0
102
RTVSPost2010PropOp38
 70
     1
102
RTVSPost2010Prop39
140
1.0
102
RTVSPost2010PropOp39
 70
     1
102
RTVSPost2010Prop40
 90
        0
102
RTVSPost2010PropOp40
 70
     1
102
RTVSPost2010Prop41ColorIndex
 90
       18
102
RTVSPost2010Prop41ColorRGB
 90
        0
102
RTVSPost2010PropOp41
 70
     1
102
RTVSPost2010Prop42
 90
       50
102
RTVSPost2010PropOp42
 70
     1
102
RTVSPost2010Prop43
 90
        3
102
RTVSPost2010PropOp43
 70
     1
102
RTVSPost2010Prop44ColorIndex
 90
        5
102
RTVSPost2010Prop44ColorRGB
 90
      255
102
RTVSPost2010PropOp44
 70
     1
102
RTVSPost2010Prop45
280
     0
102
RTVSPost2010PropOp45
 70
     1
102
RTVSPost2010Prop46
 90
       50
102
RTVSPost2010PropOp46
 70
     1
102
RTVSPost2010Prop47
 90
       50
102
RTVSPost2010PropOp47
 70
     1
102
RTVSPost2010Prop48
 90
       50
102
RTVSPost2010PropOp48
 70
     1
102
RTVSPost2010Prop49
280
     0
102
RTVSPost2010PropOp49
 70
     1
102
RTVSPost2010Prop50
 90
       50
102
RTVSPost2010PropOp50
 70
     1
102
RTVSPost2010Prop51ColorIndex
 90
      256
102
RTVSPost2010Prop51ColorRGB
 90
-16777216
102
RTVSPost2010PropOp51
 70
     0
102
RTVSPost2010Prop52
140
1.0
102
RTVSPost2010PropOp52
 70
     0
102
RTVSPost2010Prop53
 90
        2
102
RTVSPost2010PropOp53
 70
     1
102
RTVSPost2010Prop54
  1
strokes_ogs.tif
102
RTVSPost2010PropOp54
 70
     1
102
RTVSPost2010Prop55
280
     0
102
RTVSPost2010PropOp55
 70
     1
102
RTVSPost2010Prop56
140
1.0
102
RTVSPost2010PropOp56
 70
     1
102
RTVSPost2010Prop57
140
1.0
102
RTVSPost2010PropOp57
 70
     1
102
RTVSPropertyOp0
 70
     1
102
RTVSPropertyOp1
 70
     1
102
RTVSPropertyOp2
 70
     1
102
RTVSPropertyOp3
 70
     1
102
RTVSPropertyOp4
 70
     1
102
RTVSPropertyOp5
 70
     1
102
RTVSPropertyOp6
 70
     1
102
RTVSPropertyOp7
 70
     1
102
RTVSPropertyOp8
 70
     1
102
RTVSPropertyOp9
 70
     1
102
RTVSPropertyOp10
 70
     1
102
RTVSPropertyOp11
 70
     1
102
RTVSPropertyOp12
 70
     1
102
RTVSPropertyOp13
 70
     1
102
RTVSPropertyOp14
 70
     1
102
RTVSPropertyOp15
 70
     1
102
RTVSPropertyOp16
 70
     1
102
RTVSPropertyOp17
 70
     1
102
RTVSPropertyOp18
 70
     1
102
RTVSPropertyOp19
 70
     1
102
RTVSPropertyOp20
 70
     1
102
RTVSPropertyOp21
 70
     1
102
RTVSPropertyOp22
 70
     1
102
RTVSPropertyOp23
 70
     1
102
RTVSPropertyOp24
 70
     1
102
RTVSPropertyOp25
 70
     1
102
RTVSPropertyOp26
 70
     1
102
RTVSPropertyOp27
 70
     1
102
RTVSPropertyOp28
 70
     1
102
RTVSPropertyOp29
 70
     1
102
RTVSPropertyOp30
 70
     1
102
RTVSPropertyOp31
 70
     1
102
RTVSPropertyOp32
 70
     1
102
RTVSPropertyOp33
 70
     1
102
RTVSPropertyOp34
 70
     1
102
RTVSPropertyOp35
 70
     1
102
RTVSPropertyOp36
 70
     1
102
RTVSPropertyOp37
 70
     1
102
RTVSPropertyOp38
 70
     1
102
RTVSPropertyOp39
 70
     1
102
RTVSPropertyOp40
 70
     1
102
RTVSPropertyOp41
 70
     1
102
RTVSPropertyOp42
 70
     1
102
RTVSPropertyOp43
 70
     1
102
RTVSPropertyOp44
 70
     1
102
RTVSPropertyOp45
 70
     1
102
RTVSPropertyOp46
 70
     1
102
RTVSPropertyOp47
 70
     1
102
RTVSPropertyOp48
 70
     1
102
RTVSPropertyOp49
 70
     1
102
RTVSPropertyOp50
 70
     1
102
RTVSPropertyOp51
 70
     0
102
RTVSPropertyOp52
 70
     0
102
RTVSPropertyOp53
 70
     1
102
RTVSPropertyOp54
 70
     1
102
RTVSPropertyOp55
 70
     1
102
RTVSPropertyOp56
 70
     1
102
RTVSPropertyOp57
 70
     1
102
RTVSPropertyOp58
 70
     1
102
RTVSPropertyOp59
 70
     1
102
RTVSPropertyOp60
 70
     1
102
RTVSPropertyOp61
 70
     1
102
RTVSPropertyOp62
 70
     1
  0
XRECORD
  5
9B80
102
{ACAD_REACTORS
330
9B7F
102
}
330
9B7F
100
AcDbXrecord
280
     1
102
RTVSPost2010Prop28
280
     0
102
RTVSPost2010PropOp28
 70
     1
102
RTVSPost2010Prop29
280
     1
102
RTVSPost2010PropOp29
 70
     1
102
RTVSPost2010Prop30
280
     1
102
RTVSPost2010PropOp30
 70
     1
102
RTVSPost2010Prop31
280
     0
102
RTVSPost2010PropOp31
 70
     1
102
RTVSPost2010Prop32
280
     0
102
RTVSPost2010PropOp32
 70
     1
102
RTVSPost2010Prop33
280
     0
102
RTVSPost2010PropOp33
 70
     1
102
RTVSPost2010Prop34
280
     0
102
RTVSPost2010PropOp34
 70
     1
102
RTVSPost2010Prop35
280
     0
102
RTVSPost2010PropOp35
 70
     1
102
RTVSPost2010Prop36
280
     0
102
RTVSPost2010PropOp36
 70
     1
102
RTVSPost2010Prop37
 90
       50
102
RTVSPost2010PropOp37
 70
     1
102
RTVSPost2010Prop38
140
0.0
102
RTVSPost2010PropOp38
 70
     1
102
RTVSPost2010Prop39
140
1.0
102
RTVSPost2010PropOp39
 70
     1
102
RTVSPost2010Prop40
 90
        0
102
RTVSPost2010PropOp40
 70
     1
102
RTVSPost2010Prop41ColorIndex
 90
       18
102
RTVSPost2010Prop41ColorRGB
 90
        0
102
RTVSPost2010PropOp41
 70
     1
102
RTVSPost2010Prop42
 90
       50
102
RTVSPost2010PropOp42
 70
     1
102
RTVSPost2010Prop43
 90
        3
102
RTVSPost2010PropOp43
 70
     1
102
RTVSPost2010Prop44ColorIndex
 90
        5
102
RTVSPost2010Prop44ColorRGB
 90
      255
102
RTVSPost2010PropOp44
 70
     1
102
RTVSPost2010Prop45
280
     0
102
RTVSPost2010PropOp45
 70
     1
102
RTVSPost2010Prop46
 90
       50
102
RTVSPost2010PropOp46
 70
     1
102
RTVSPost2010Prop47
 90
       50
102
RTVSPost2010PropOp47
 70
     1
102
RTVSPost2010Prop48
 90
       50
102
RTVSPost2010PropOp48
 70
     1
102
RTVSPost2010Prop49
280
     0
102
RTVSPost2010PropOp49
 70
     1
102
RTVSPost2010Prop50
 90
       50
102
RTVSPost2010PropOp50
 70
     1
102
RTVSPost2010Prop51ColorIndex
 90
      256
102
RTVSPost2010Prop51ColorRGB
 90
-16777216
102
RTVSPost2010PropOp51
 70
     0
102
RTVSPost2010Prop52
140
1.0
102
RTVSPost2010PropOp52
 70
     0
102
RTVSPost2010Prop53
 90
        2
102
RTVSPost2010PropOp53
 70
     1
102
RTVSPost2010Prop54
  1
strokes_ogs.tif
102
RTVSPost2010PropOp54
 70
     1
102
RTVSPost2010Prop55
280
     0
102
RTVSPost2010PropOp55
 70
     1
102
RTVSPost2010Prop56
140
1.0
102
RTVSPost2010PropOp56
 70
     1
102
RTVSPost2010Prop57
140
1.0
102
RTVSPost2010PropOp57
 70
     1
102
RTVSPropertyOp0
 70
     1
102
RTVSPropertyOp1
 70
     1
102
RTVSPropertyOp2
 70
     1
102
RTVSPropertyOp3
 70
     1
102
RTVSPropertyOp4
 70
     1
102
RTVSPropertyOp5
 70
     1
102
RTVSPropertyOp6
 70
     1
102
RTVSPropertyOp7
 70
     1
102
RTVSPropertyOp8
 70
     1
102
RTVSPropertyOp9
 70
     1
102
RTVSPropertyOp10
 70
     1
102
RTVSPropertyOp11
 70
     1
102
RTVSPropertyOp12
 70
     1
102
RTVSPropertyOp13
 70
     1
102
RTVSPropertyOp14
 70
     1
102
RTVSPropertyOp15
 70
     1
102
RTVSPropertyOp16
 70
     1
102
RTVSPropertyOp17
 70
     1
102
RTVSPropertyOp18
 70
     1
102
RTVSPropertyOp19
 70
     1
102
RTVSPropertyOp20
 70
     1
102
RTVSPropertyOp21
 70
     1
102
RTVSPropertyOp22
 70
     1
102
RTVSPropertyOp23
 70
     1
102
RTVSPropertyOp24
 70
     1
102
RTVSPropertyOp25
 70
     1
102
RTVSPropertyOp26
 70
     1
102
RTVSPropertyOp27
 70
     1
102
RTVSPropertyOp28
 70
     1
102
RTVSPropertyOp29
 70
     1
102
RTVSPropertyOp30
 70
     1
102
RTVSPropertyOp31
 70
     1
102
RTVSPropertyOp32
 70
     1
102
RTVSPropertyOp33
 70
     1
102
RTVSPropertyOp34
 70
     1
102
RTVSPropertyOp35
 70
     1
102
RTVSPropertyOp36
 70
     1
102
RTVSPropertyOp37
 70
     1
102
RTVSPropertyOp38
 70
     1
102
RTVSPropertyOp39
 70
     1
102
RTVSPropertyOp40
 70
     1
102
RTVSPropertyOp41
 70
     1
102
RTVSPropertyOp42
 70
     1
102
RTVSPropertyOp43
 70
     1
102
RTVSPropertyOp44
 70
     1
102
RTVSPropertyOp45
 70
     1
102
RTVSPropertyOp46
 70
     1
102
RTVSPropertyOp47
 70
     1
102
RTVSPropertyOp48
 70
     1
102
RTVSPropertyOp49
 70
     1
102
RTVSPropertyOp50
 70
     1
102
RTVSPropertyOp51
 70
     0
102
RTVSPropertyOp52
 70
     0
102
RTVSPropertyOp53
 70
     1
102
RTVSPropertyOp54
 70
     1
102
RTVSPropertyOp55
 70
     1
102
RTVSPropertyOp56
 70
     1
102
RTVSPropertyOp57
 70
     1
102
RTVSPropertyOp58
 70
     1
102
RTVSPropertyOp59
 70
     1
102
RTVSPropertyOp60
 70
     1
102
RTVSPropertyOp61
 70
     1
102
RTVSPropertyOp62
 70
     1
  0
XRECORD
  5
9B74
102
{ACAD_REACTORS
330
9B73
102
}
330
9B73
100
AcDbXrecord
280
     1
102
RTVSPost2010Prop28
280
     0
102
RTVSPost2010PropOp28
 70
     1
102
RTVSPost2010Prop29
280
     1
102
RTVSPost2010PropOp29
 70
     1
102
RTVSPost2010Prop30
280
     1
102
RTVSPost2010PropOp30
 70
     1
102
RTVSPost2010Prop31
280
     0
102
RTVSPost2010PropOp31
 70
     1
102
RTVSPost2010Prop32
280
     0
102
RTVSPost2010PropOp32
 70
     1
102
RTVSPost2010Prop33
280
     0
102
RTVSPost2010PropOp33
 70
     1
102
RTVSPost2010Prop34
280
     0
102
RTVSPost2010PropOp34
 70
     1
102
RTVSPost2010Prop35
280
     0
102
RTVSPost2010PropOp35
 70
     1
102
RTVSPost2010Prop36
280
     0
102
RTVSPost2010PropOp36
 70
     1
102
RTVSPost2010Prop37
 90
       50
102
RTVSPost2010PropOp37
 70
     1
102
RTVSPost2010Prop38
140
0.0
102
RTVSPost2010PropOp38
 70
     1
102
RTVSPost2010Prop39
140
1.0
102
RTVSPost2010PropOp39
 70
     1
102
RTVSPost2010Prop40
 90
        0
102
RTVSPost2010PropOp40
 70
     1
102
RTVSPost2010Prop41ColorIndex
 90
       18
102
RTVSPost2010Prop41ColorRGB
 90
        0
102
RTVSPost2010PropOp41
 70
     1
102
RTVSPost2010Prop42
 90
       50
102
RTVSPost2010PropOp42
 70
     1
102
RTVSPost2010Prop43
 90
        3
102
RTVSPost2010PropOp43
 70
     1
102
RTVSPost2010Prop44ColorIndex
 90
        5
102
RTVSPost2010Prop44ColorRGB
 90
      255
102
RTVSPost2010PropOp44
 70
     1
102
RTVSPost2010Prop45
280
     0
102
RTVSPost2010PropOp45
 70
     1
102
RTVSPost2010Prop46
 90
       50
102
RTVSPost2010PropOp46
 70
     1
102
RTVSPost2010Prop47
 90
       50
102
RTVSPost2010PropOp47
 70
     1
102
RTVSPost2010Prop48
 90
       50
102
RTVSPost2010PropOp48
 70
     1
102
RTVSPost2010Prop49
280
     0
102
RTVSPost2010PropOp49
 70
     1
102
RTVSPost2010Prop50
 90
       50
102
RTVSPost2010PropOp50
 70
     1
102
RTVSPost2010Prop51ColorIndex
 90
      256
102
RTVSPost2010Prop51ColorRGB
 90
-16777216
102
RTVSPost2010PropOp51
 70
     0
102
RTVSPost2010Prop52
140
1.0
102
RTVSPost2010PropOp52
 70
     0
102
RTVSPost2010Prop53
 90
        2
102
RTVSPost2010PropOp53
 70
     1
102
RTVSPost2010Prop54
  1
strokes_ogs.tif
102
RTVSPost2010PropOp54
 70
     1
102
RTVSPost2010Prop55
280
     0
102
RTVSPost2010PropOp55
 70
     1
102
RTVSPost2010Prop56
140
1.0
102
RTVSPost2010PropOp56
 70
     1
102
RTVSPost2010Prop57
140
1.0
102
RTVSPost2010PropOp57
 70
     1
102
RTVSPropertyOp0
 70
     1
102
RTVSPropertyOp1
 70
     1
102
RTVSPropertyOp2
 70
     1
102
RTVSPropertyOp3
 70
     1
102
RTVSPropertyOp4
 70
     1
102
RTVSPropertyOp5
 70
     1
102
RTVSPropertyOp6
 70
     1
102
RTVSPropertyOp7
 70
     1
102
RTVSPropertyOp8
 70
     1
102
RTVSPropertyOp9
 70
     1
102
RTVSPropertyOp10
 70
     1
102
RTVSPropertyOp11
 70
     1
102
RTVSPropertyOp12
 70
     1
102
RTVSPropertyOp13
 70
     1
102
RTVSPropertyOp14
 70
     1
102
RTVSPropertyOp15
 70
     1
102
RTVSPropertyOp16
 70
     1
102
RTVSPropertyOp17
 70
     1
102
RTVSPropertyOp18
 70
     1
102
RTVSPropertyOp19
 70
     1
102
RTVSPropertyOp20
 70
     1
102
RTVSPropertyOp21
 70
     1
102
RTVSPropertyOp22
 70
     1
102
RTVSPropertyOp23
 70
     1
102
RTVSPropertyOp24
 70
     1
102
RTVSPropertyOp25
 70
     1
102
RTVSPropertyOp26
 70
     1
102
RTVSPropertyOp27
 70
     1
102
RTVSPropertyOp28
 70
     1
102
RTVSPropertyOp29
 70
     1
102
RTVSPropertyOp30
 70
     1
102
RTVSPropertyOp31
 70
     1
102
RTVSPropertyOp32
 70
     1
102
RTVSPropertyOp33
 70
     1
102
RTVSPropertyOp34
 70
     1
102
RTVSPropertyOp35
 70
     1
102
RTVSPropertyOp36
 70
     1
102
RTVSPropertyOp37
 70
     1
102
RTVSPropertyOp38
 70
     1
102
RTVSPropertyOp39
 70
     1
102
RTVSPropertyOp40
 70
     1
102
RTVSPropertyOp41
 70
     1
102
RTVSPropertyOp42
 70
     1
102
RTVSPropertyOp43
 70
     1
102
RTVSPropertyOp44
 70
     1
102
RTVSPropertyOp45
 70
     1
102
RTVSPropertyOp46
 70
     1
102
RTVSPropertyOp47
 70
     1
102
RTVSPropertyOp48
 70
     1
102
RTVSPropertyOp49
 70
     1
102
RTVSPropertyOp50
 70
     1
102
RTVSPropertyOp51
 70
     0
102
RTVSPropertyOp52
 70
     0
102
RTVSPropertyOp53
 70
     1
102
RTVSPropertyOp54
 70
     1
102
RTVSPropertyOp55
 70
     1
102
RTVSPropertyOp56
 70
     1
102
RTVSPropertyOp57
 70
     1
102
RTVSPropertyOp58
 70
     1
102
RTVSPropertyOp59
 70
     1
102
RTVSPropertyOp60
 70
     1
102
RTVSPropertyOp61
 70
     1
102
RTVSPropertyOp62
 70
     1
  0
XRECORD
  5
9B8C
102
{ACAD_REACTORS
330
9B8B
102
}
330
9B8B
100
AcDbXrecord
280
     1
102
RTVSPost2010Prop28
280
     0
102
RTVSPost2010PropOp28
 70
     1
102
RTVSPost2010Prop29
280
     1
102
RTVSPost2010PropOp29
 70
     1
102
RTVSPost2010Prop30
280
     1
102
RTVSPost2010PropOp30
 70
     1
102
RTVSPost2010Prop31
280
     0
102
RTVSPost2010PropOp31
 70
     1
102
RTVSPost2010Prop32
280
     0
102
RTVSPost2010PropOp32
 70
     1
102
RTVSPost2010Prop33
280
     0
102
RTVSPost2010PropOp33
 70
     1
102
RTVSPost2010Prop34
280
     0
102
RTVSPost2010PropOp34
 70
     1
102
RTVSPost2010Prop35
280
     0
102
RTVSPost2010PropOp35
 70
     1
102
RTVSPost2010Prop36
280
     0
102
RTVSPost2010PropOp36
 70
     1
102
RTVSPost2010Prop37
 90
       50
102
RTVSPost2010PropOp37
 70
     1
102
RTVSPost2010Prop38
140
0.0
102
RTVSPost2010PropOp38
 70
     1
102
RTVSPost2010Prop39
140
1.0
102
RTVSPost2010PropOp39
 70
     1
102
RTVSPost2010Prop40
 90
        0
102
RTVSPost2010PropOp40
 70
     1
102
RTVSPost2010Prop41ColorIndex
 90
       18
102
RTVSPost2010Prop41ColorRGB
 90
        0
102
RTVSPost2010PropOp41
 70
     1
102
RTVSPost2010Prop42
 90
       50
102
RTVSPost2010PropOp42
 70
     1
102
RTVSPost2010Prop43
 90
        3
102
RTVSPost2010PropOp43
 70
     1
102
RTVSPost2010Prop44ColorIndex
 90
        5
102
RTVSPost2010Prop44ColorRGB
 90
      255
102
RTVSPost2010PropOp44
 70
     1
102
RTVSPost2010Prop45
280
     0
102
RTVSPost2010PropOp45
 70
     1
102
RTVSPost2010Prop46
 90
       50
102
RTVSPost2010PropOp46
 70
     1
102
RTVSPost2010Prop47
 90
       50
102
RTVSPost2010PropOp47
 70
     1
102
RTVSPost2010Prop48
 90
       50
102
RTVSPost2010PropOp48
 70
     1
102
RTVSPost2010Prop49
280
     0
102
RTVSPost2010PropOp49
 70
     1
102
RTVSPost2010Prop50
 90
       50
102
RTVSPost2010PropOp50
 70
     1
102
RTVSPost2010Prop51ColorIndex
 90
      256
102
RTVSPost2010Prop51ColorRGB
 90
-16777216
102
RTVSPost2010PropOp51
 70
     0
102
RTVSPost2010Prop52
140
1.0
102
RTVSPost2010PropOp52
 70
     0
102
RTVSPost2010Prop53
 90
        2
102
RTVSPost2010PropOp53
 70
     1
102
RTVSPost2010Prop54
  1
strokes_ogs.tif
102
RTVSPost2010PropOp54
 70
     1
102
RTVSPost2010Prop55
280
     0
102
RTVSPost2010PropOp55
 70
     1
102
RTVSPost2010Prop56
140
1.0
102
RTVSPost2010PropOp56
 70
     1
102
RTVSPost2010Prop57
140
1.0
102
RTVSPost2010PropOp57
 70
     1
102
RTVSPropertyOp0
 70
     1
102
RTVSPropertyOp1
 70
     1
102
RTVSPropertyOp2
 70
     1
102
RTVSPropertyOp3
 70
     1
102
RTVSPropertyOp4
 70
     1
102
RTVSPropertyOp5
 70
     1
102
RTVSPropertyOp6
 70
     1
102
RTVSPropertyOp7
 70
     1
102
RTVSPropertyOp8
 70
     1
102
RTVSPropertyOp9
 70
     1
102
RTVSPropertyOp10
 70
     1
102
RTVSPropertyOp11
 70
     1
102
RTVSPropertyOp12
 70
     1
102
RTVSPropertyOp13
 70
     1
102
RTVSPropertyOp14
 70
     1
102
RTVSPropertyOp15
 70
     1
102
RTVSPropertyOp16
 70
     1
102
RTVSPropertyOp17
 70
     1
102
RTVSPropertyOp18
 70
     1
102
RTVSPropertyOp19
 70
     1
102
RTVSPropertyOp20
 70
     1
102
RTVSPropertyOp21
 70
     1
102
RTVSPropertyOp22
 70
     1
102
RTVSPropertyOp23
 70
     1
102
RTVSPropertyOp24
 70
     1
102
RTVSPropertyOp25
 70
     1
102
RTVSPropertyOp26
 70
     1
102
RTVSPropertyOp27
 70
     1
102
RTVSPropertyOp28
 70
     1
102
RTVSPropertyOp29
 70
     1
102
RTVSPropertyOp30
 70
     1
102
RTVSPropertyOp31
 70
     1
102
RTVSPropertyOp32
 70
     1
102
RTVSPropertyOp33
 70
     1
102
RTVSPropertyOp34
 70
     1
102
RTVSPropertyOp35
 70
     1
102
RTVSPropertyOp36
 70
     1
102
RTVSPropertyOp37
 70
     1
102
RTVSPropertyOp38
 70
     1
102
RTVSPropertyOp39
 70
     1
102
RTVSPropertyOp40
 70
     1
102
RTVSPropertyOp41
 70
     1
102
RTVSPropertyOp42
 70
     1
102
RTVSPropertyOp43
 70
     1
102
RTVSPropertyOp44
 70
     1
102
RTVSPropertyOp45
 70
     1
102
RTVSPropertyOp46
 70
     1
102
RTVSPropertyOp47
 70
     1
102
RTVSPropertyOp48
 70
     1
102
RTVSPropertyOp49
 70
     1
102
RTVSPropertyOp50
 70
     1
102
RTVSPropertyOp51
 70
     0
102
RTVSPropertyOp52
 70
     0
102
RTVSPropertyOp53
 70
     1
102
RTVSPropertyOp54
 70
     1
102
RTVSPropertyOp55
 70
     1
102
RTVSPropertyOp56
 70
     1
102
RTVSPropertyOp57
 70
     1
102
RTVSPropertyOp58
 70
     1
102
RTVSPropertyOp59
 70
     1
102
RTVSPropertyOp60
 70
     1
102
RTVSPropertyOp61
 70
     1
102
RTVSPropertyOp62
 70
     1
  0
ENDSEC
  0
EOF
