  0
SECTION
  2
HEADER
  9
$ACADVER
  1
AC1015
  9
$DWGCODEPAGE
  3
ANSI_932
  9
$LTSCALE
 40
20.0
  9
$FILLMODE
 70
     1
  9
$CLAYER
  8
0
  9
$PDMODE
 70
     0
  9
$SPLFRAME
 70
     0
  9
$SPLINETYPE
 70
     6
  9
$SPLINESEGS
 70
     8
  9
$DIMASZ
 40
2.000000
  9
$DIMEXE
 40
1.500000
  9
$DIMEXO
 40
0.800000
  9
$DIMTAD
 70
     1
  9
$DIMTIH
 70
     0
  9
$DIMTOH
 70
     0
  9
$DIMTVP
 40
0.500000
  9
$DIMTXT
 40
3.100000
  9
$EXTMIN
 10
0.000000
 20
0.000000
 30
0.000000
  9
$EXTMAX
 10
297.000000
 20
420.000000
 30
0.000000
  9
$MEASUREMENT
 70
  1
  9
$LIMMIN
 10
0.000000
 20
0.000000
  9
$LIMMAX
 10
297.000000
 20
420.000000
  9
$HANDSEED
  5
1C5
  9
$LWDISPLAY
290
     0
  9
$DIMBLK
  1
_OPEN
  9
$DIMDEC
 70
     2
  9
$DIMADEC
 70
     2
  9
$DIMAUNIT
 70
     0
  9
$DIMZIN
 70
     8
  9
$DIMAZIN
 70
     2
  9
$DIMTOFL
 70
     1
  0
ENDSEC
  0
SECTION
  2
CLASSES
  0
ENDSEC
  0
SECTION
  2
TABLES
  0
TABLE
  2
VPORT
  5
192
100
AcDbSymbolTable
 70
     1
  0
VPORT
  5
193
100
AcDbSymbolTableRecord
100
AcDbViewportTableRecord
  2
*ACTIVE
 70
     0
 12
255.580718
 22
81.500000
 40
126.999999
 41
3.867413
  0
ENDTAB
  0
TABLE
  2
LTYPE
  5
194
100
AcDbSymbolTable
 70
     3
  0
LTYPE
  5
195
100
AcDbSymbolTableRecord
100
AcDbLinetypeTableRecord
  2
BYBLOCK
 70
     0
  3

 72
    65
 73
     0
 40
0.0
  0
LTYPE
  5
196
100
AcDbSymbolTableRecord
100
AcDbLinetypeTableRecord
  2
BYLAYER
 70
     0
  3

 72
    65
 73
     0
 40
0.0
  0
LTYPE
  5
197
100
AcDbSymbolTableRecord
100
AcDbLinetypeTableRecord
  2
CONTINUOUS
 70
     0
  3
Solid line (NEC CAE2D for Win R18.0 : 2023.09.06)
 72
    65
 73
     0
 40
0.0
  0
LTYPE
  5
198
100
AcDbSymbolTableRecord
100
AcDbLinetypeTableRecord
  2
DASHED
 70
     0
  3
__ __ __ __ __ __ __ __ __ __ __ __ __ _
 72
    65
 73
     2
 40
0.75
 49
0.5
 74
     0
 49
-0.25
 74
     0
  0
LTYPE
  5
199
100
AcDbSymbolTableRecord
100
AcDbLinetypeTableRecord
  2
CENTER
 70
     0
  3
____ _ ____ _ ____ _ ____ _ ____ _ ____
 72
    65
 73
     4
 40
2.0
 49
1.25
 74
     0
 49
-0.25
 74
     0
 49
0.25
 74
     0
 49
-0.25
 74
     0
  0
ENDTAB
  0
TABLE
  2
LAYER
  5
19A
100
AcDbSymbolTable
 70
    12
  0
LAYER
  5
19B
100
AcDbSymbolTableRecord
100
AcDbLayerTableRecord
  2
0
 70
     0
 62
     7
  6
CONTINUOUS
370
    -3
390

  0
LAYER
  5
19C
100
AcDbSymbolTableRecord
100
AcDbLayerTableRecord
  2
A0
 70
     0
 62
     9
  6
CONTINUOUS
370
    -3
390

  0
LAYER
  5
19D
100
AcDbSymbolTableRecord
100
AcDbLayerTableRecord
  2
A1
 70
     0
 62
     8
  6
CONTINUOUS
370
    -3
390

  0
LAYER
  5
19E
100
AcDbSymbolTableRecord
100
AcDbLayerTableRecord
  2
A3
 70
     0
 62
    12
  6
CONTINUOUS
370
    -3
390

  0
LAYER
  5
19F
100
AcDbSymbolTableRecord
100
AcDbLayerTableRecord
  2
A4
 70
     0
 62
    12
  6
CONTINUOUS
370
    -3
390

  0
LAYER
  5
1A0
100
AcDbSymbolTableRecord
100
AcDbLayerTableRecord
  2
A8
 70
     0
 62
    10
  6
CONTINUOUS
370
    -3
390

  0
LAYER
  5
1A1
100
AcDbSymbolTableRecord
100
AcDbLayerTableRecord
  2
A10
 70
     0
 62
     6
  6
CONTINUOUS
370
    -3
390

  0
LAYER
  5
1A2
100
AcDbSymbolTableRecord
100
AcDbLayerTableRecord
  2
A20
 70
     0
 62
     1
  6
CONTINUOUS
370
    -3
390

  0
LAYER
  5
1A3
100
AcDbSymbolTableRecord
100
AcDbLayerTableRecord
  2
A30
 70
     0
 62
     1
  6
CONTINUOUS
370
    -3
390

  0
LAYER
  5
1A4
100
AcDbSymbolTableRecord
100
AcDbLayerTableRecord
  2
A40
 70
     0
 62
     9
  6
CONTINUOUS
370
    -3
390

  0
LAYER
  5
1A5
100
AcDbSymbolTableRecord
100
AcDbLayerTableRecord
  2
A50
 70
     0
 62
    12
  6
CONTINUOUS
370
    -3
390

  0
LAYER
  5
1A6
100
AcDbSymbolTableRecord
100
AcDbLayerTableRecord
  2
A1023
 70
     0
 62
    16
  6
CONTINUOUS
370
    -3
390

  0
ENDTAB
  0
TABLE
  2
STYLE
  5
1A7
100
AcDbSymbolTable
 70
     4
  0
STYLE
  5
1A8
100
AcDbSymbolTableRecord
100
AcDbTextStyleTableRecord
  2
STANDARD
 70
    64
 40
0.0
 41
1.0
 50
0.0
 71
     0
 42
3.000000000000000
  3
TXT
  4

  0
STYLE
  5
1A9
100
AcDbSymbolTableRecord
100
AcDbTextStyleTableRecord
  2
ANKTATE
 70
    68
 40
0.0
 41
1.0
 50
0.0
 71
     0
 42
3.000000000000000
  3
TXT
  4

  0
STYLE
  5
1AA
100
AcDbSymbolTableRecord
100
AcDbTextStyleTableRecord
  2
KNJYOKO
 70
    64
 40
0.0
 41
1.0
 50
0.0
 71
     0
 42
3.000000000000000
  3
TXT
  4
BIGFONT
  0
STYLE
  5
1AB
100
AcDbSymbolTableRecord
100
AcDbTextStyleTableRecord
  2
KNJTATE
 70
    68
 40
0.0
 41
1.0
 50
0.0
 71
     0
 42
3.000000000000000
  3
TXT
  4
BIGFONT
  0
ENDTAB
  0
TABLE
  2
VIEW
  5
1AC
100
AcDbSymbolTable
 70
     0
  0
ENDTAB
  0
TABLE
  2
UCS
  5
1AD
100
AcDbSymbolTable
 70
     0
  0
ENDTAB
  0
TABLE
  2
APPID
  5
1AE
100
AcDbSymbolTable
 70
     1
  0
APPID
  5
1AF
100
AcDbSymbolTableRecord
100
AcDbRegAppTableRecord
  2
ACAD
 70
     0
  0
ENDTAB
  0
TABLE
  2
DIMSTYLE
  5
1B0
100
AcDbSymbolTable
 70
     2
100
AcDbDimStyleTable
  0
DIMSTYLE
105
1B1
100
AcDbSymbolTableRecord
100
AcDbDimStyleTableRecord
  2
STANDARD
 70
     0
 41
2.000000
 44
1.500000
 42
0.800000
145
0.661290
140
3.100000
144
1.000000
146
0.645161
340
1A8
  0
DIMSTYLE
105
1B2
100
AcDbSymbolTableRecord
100
AcDbDimStyleTableRecord
  2
A001
 70
     0
 41
2.000000
 44
1.500000
 42
0.800000
145
0.661290
140
3.100000
144
1.000000
146
0.645161
 77
     1
 73
     0
 74
     0
271
     2
179
     2
275
     0
 78
     8
 79
     2
172
     1
340
1A8
  0
ENDTAB
  0
TABLE
  2
BLOCK_RECORD
  5
1B3
100
AcDbSymbolTable
 70
    12
  0
BLOCK_RECORD
  5
1B4
100
AcDbSymbolTableRecord
100
AcDbBlockTableRecord
  2
*MODEL_SPACE
  0
BLOCK_RECORD
  5
1B5
100
AcDbSymbolTableRecord
100
AcDbBlockTableRecord
  2
*PAPER_SPACE
  0
BLOCK_RECORD
  5
1B6
100
AcDbSymbolTableRecord
100
AcDbBlockTableRecord
  2
*PAPER_SPACE0
  0
BLOCK_RECORD
  5
1
100
AcDbSymbolTableRecord
100
AcDbBlockTableRecord
  2
_NONE
  0
BLOCK_RECORD
  5
4
100
AcDbSymbolTableRecord
100
AcDbBlockTableRecord
  2
_CLOSED
  0
BLOCK_RECORD
  5
B
100
AcDbSymbolTableRecord
100
AcDbBlockTableRecord
  2
_DOT
  0
BLOCK_RECORD
  5
13
100
AcDbSymbolTableRecord
100
AcDbBlockTableRecord
  2
_OPEN
  0
BLOCK_RECORD
  5
19
100
AcDbSymbolTableRecord
100
AcDbBlockTableRecord
  2
_ORIGIN
  0
BLOCK_RECORD
  5
1E
100
AcDbSymbolTableRecord
100
AcDbBlockTableRecord
  2
_OPEN30
  0
BLOCK_RECORD
  5
24
100
AcDbSymbolTableRecord
100
AcDbBlockTableRecord
  2
_BOXFILLED
  0
BLOCK_RECORD
  5
29
100
AcDbSymbolTableRecord
100
AcDbBlockTableRecord
  2
_BOXBLANK
  0
BLOCK_RECORD
  5
31
100
AcDbSymbolTableRecord
100
AcDbBlockTableRecord
  2
_OBLIQUE
  0
BLOCK_RECORD
  5
35
100
AcDbSymbolTableRecord
100
AcDbBlockTableRecord
  2
_OPEN90
  0
BLOCK_RECORD
  5
3B
100
AcDbSymbolTableRecord
100
AcDbBlockTableRecord
  2
_CLOSEDBLANK
  0
BLOCK_RECORD
  5
41
100
AcDbSymbolTableRecord
100
AcDbBlockTableRecord
  2
_DOTBLANK
  0
ENDTAB
  0
ENDSEC
  0
SECTION
  2
BLOCKS
  0
BLOCK
  5
1B7
100
AcDbEntity
  8
0
100
AcDbBlockBegin
  2
*MODEL_SPACE
 70
     0
 10
0.0
 20
0.0
 30
0.0
  3
*MODEL_SPACE
  1

  0
ENDBLK
  5
1B8
100
AcDbEntity
  8
0
100
AcDbBlockEnd
  0
BLOCK
  5
1B9
100
AcDbEntity
  8
0
100
AcDbBlockBegin
  2
*PAPER_SPACE
 70
     0
 10
0.0
 20
0.0
 30
0.0
  3
*PAPER_SPACE
  1

  0
ENDBLK
  5
1BA
100
AcDbEntity
  8
0
100
AcDbBlockEnd
  0
BLOCK
  5
1BB
100
AcDbEntity
  8
0
100
AcDbBlockBegin
  2
*PAPER_SPACE0
 70
     0
 10
0.0
 20
0.0
 30
0.0
  3
*PAPER_SPACE0
  1

  0
ENDBLK
  5
1BC
100
AcDbEntity
  8
0
100
AcDbBlockEnd
  0
BLOCK
  5
2
330
1
100
AcDbEntity
  8
0
100
AcDbBlockBegin
  2
_NONE
 70
     0
 10
0.0
 20
0.0
 30
0.0
  3
_NONE
  1

  0
ENDBLK
  5
3
330
1
100
AcDbEntity
  8
0
100
AcDbBlockEnd
  0
BLOCK
  5
5
330
4
100
AcDbEntity
  8
0
100
AcDbBlockBegin
  2
_CLOSED
 70
     0
 10
0.0
 20
0.0
 30
0.0
  3
_CLOSED
  1

  0
LINE
  5
6
330
4
100
AcDbEntity
  8
0
  6
BYBLOCK
 62
     0
370
    -2
100
AcDbLine
 10
-1.0
 20
0.166667
 30
0.0
 11
0.0
 21
0.0
 31
0.0
  0
LINE
  5
7
330
4
100
AcDbEntity
  8
0
  6
BYBLOCK
 62
     0
370
    -2
100
AcDbLine
 10
0.0
 20
0.0
 30
0.0
 11
-1.0
 21
-0.166667
 31
0.0
  0
LINE
  5
8
330
4
100
AcDbEntity
  8
0
  6
BYBLOCK
 62
     0
370
    -2
100
AcDbLine
 10
-1.0
 20
0.166667
 30
0.0
 11
-1.0
 21
-0.166667
 31
0.0
  0
LINE
  5
9
330
4
100
AcDbEntity
  8
0
  6
BYBLOCK
 62
     0
370
    -2
100
AcDbLine
 10
0.0
 20
0.0
 30
0.0
 11
-1.0
 21
0.0
 31
0.0
  0
ENDBLK
  5
A
330
4
100
AcDbEntity
  8
0
100
AcDbBlockEnd
  0
BLOCK
  5
C
330
B
100
AcDbEntity
  8
0
100
AcDbBlockBegin
  2
_DOT
 70
     0
 10
0.0
 20
0.0
 30
0.0
  3
_DOT
  1

  0
POLYLINE
  5
D
330
B
100
AcDbEntity
  8
0
  6
BYBLOCK
 62
     0
370
    -2
100
AcDb2dPolyline
 66
     1
 10
0.0
 20
0.0
 30
0.0
 70
     1
 40
0.5
 41
0.5
  0
VERTEX
  5
E
330
B
100
AcDbEntity
  8
0
  6
BYBLOCK
 62
     0
370
    -2
100
AcDbVertex
100
AcDb2dVertex
 10
-0.25
 20
0.0
 30
0.0
 42
1.0
  0
VERTEX
  5
F
330
B
100
AcDbEntity
  8
0
  6
BYBLOCK
 62
     0
370
    -2
100
AcDbVertex
100
AcDb2dVertex
 10
0.25
 20
0.0
 30
0.0
 42
1.0
  0
SEQEND
  5
10
330
B
100
AcDbEntity
  8
0
  6
BYBLOCK
 62
     0
370
    -2
  0
LINE
  5
11
330
B
100
AcDbEntity
  8
0
  6
BYBLOCK
 62
     0
370
    -2
100
AcDbLine
 10
-0.5
 20
0.0
 30
0.0
 11
-1.0
 21
0.0
 31
0.0
  0
ENDBLK
  5
12
330
B
100
AcDbEntity
  8
0
100
AcDbBlockEnd
  0
BLOCK
  5
14
330
13
100
AcDbEntity
  8
0
100
AcDbBlockBegin
  2
_OPEN
 70
     0
 10
0.0
 20
0.0
 30
0.0
  3
_OPEN
  1

  0
LINE
  5
15
330
13
100
AcDbEntity
  8
0
  6
BYBLOCK
 62
     0
370
    -2
100
AcDbLine
 10
-1.0
 20
0.166667
 30
0.0
 11
0.0
 21
0.0
 31
0.0
  0
LINE
  5
16
330
13
100
AcDbEntity
  8
0
  6
BYBLOCK
 62
     0
370
    -2
100
AcDbLine
 10
0.0
 20
0.0
 30
0.0
 11
-1.0
 21
-0.166667
 31
0.0
  0
LINE
  5
17
330
13
100
AcDbEntity
  8
0
  6
BYBLOCK
 62
     0
370
    -2
100
AcDbLine
 10
0.0
 20
0.0
 30
0.0
 11
-1.0
 21
0.0
 31
0.0
  0
ENDBLK
  5
18
330
13
100
AcDbEntity
  8
0
100
AcDbBlockEnd
  0
BLOCK
  5
1A
330
19
100
AcDbEntity
  8
0
100
AcDbBlockBegin
  2
_ORIGIN
 70
     0
 10
0.0
 20
0.0
 30
0.0
  3
_ORIGIN
  1

  0
CIRCLE
  5
1B
330
19
100
AcDbEntity
  8
0
  6
BYBLOCK
 62
     0
370
    -2
100
AcDbCircle
 10
0.0
 20
0.0
 30
0.0
 40
0.5
  0
LINE
  5
1C
330
19
100
AcDbEntity
  8
0
  6
BYBLOCK
 62
     0
370
    -2
100
AcDbLine
 10
0.0
 20
0.0
 30
0.0
 11
-1.0
 21
0.0
 31
0.0
  0
ENDBLK
  5
1D
330
19
100
AcDbEntity
  8
0
100
AcDbBlockEnd
  0
BLOCK
  5
1F
330
1E
100
AcDbEntity
  8
0
100
AcDbBlockBegin
  2
_OPEN30
 70
     0
 10
0.0
 20
0.0
 30
0.0
  3
_OPEN30
  1

  0
LINE
  5
20
330
1E
100
AcDbEntity
  8
0
  6
BYBLOCK
 62
     0
370
    -2
100
AcDbLine
 10
-1.0
 20
0.267949
 30
0.0
 11
0.0
 21
0.0
 31
0.0
  0
LINE
  5
21
330
1E
100
AcDbEntity
  8
0
  6
BYBLOCK
 62
     0
370
    -2
100
AcDbLine
 10
0.0
 20
0.0
 30
0.0
 11
-1.0
 21
-0.267949
 31
0.0
  0
LINE
  5
22
330
1E
100
AcDbEntity
  8
0
  6
BYBLOCK
 62
     0
370
    -2
100
AcDbLine
 10
0.0
 20
0.0
 30
0.0
 11
-1.0
 21
0.0
 31
0.0
  0
ENDBLK
  5
23
330
1E
100
AcDbEntity
  8
0
100
AcDbBlockEnd
  0
BLOCK
  5
25
330
24
100
AcDbEntity
  8
0
100
AcDbBlockBegin
  2
_BOXFILLED
 70
     0
 10
0.0
 20
0.0
 30
0.0
  3
_BOXFILLED
  1

  0
SOLID
  5
26
330
24
100
AcDbEntity
  8
0
  6
BYBLOCK
 62
     0
370
    -2
100
AcDbTrace
 10
-0.5
 20
0.5
 30
0.0
 11
0.5
 21
0.5
 31
0.0
 12
-0.5
 22
-0.5
 32
0.0
 13
0.5
 23
-0.5
 33
0.0
  0
LINE
  5
27
330
24
100
AcDbEntity
  8
0
  6
BYBLOCK
 62
     0
370
    -2
100
AcDbLine
 10
-0.5
 20
0.0
 30
0.0
 11
-1.0
 21
0.0
 31
0.0
  0
ENDBLK
  5
28
330
24
100
AcDbEntity
  8
0
100
AcDbBlockEnd
  0
BLOCK
  5
2A
330
29
100
AcDbEntity
  8
0
100
AcDbBlockBegin
  2
_BOXBLANK
 70
     0
 10
0.0
 20
0.0
 30
0.0
  3
_BOXBLANK
  1

  0
LINE
  5
2B
330
29
100
AcDbEntity
  8
0
  6
BYBLOCK
 62
     0
370
    -2
100
AcDbLine
 10
-0.5
 20
-0.5
 30
0.0
 11
0.5
 21
-0.5
 31
0.0
  0
LINE
  5
2C
330
29
100
AcDbEntity
  8
0
  6
BYBLOCK
 62
     0
370
    -2
100
AcDbLine
 10
0.5
 20
-0.5
 30
0.0
 11
0.5
 21
0.5
 31
0.0
  0
LINE
  5
2D
330
29
100
AcDbEntity
  8
0
  6
BYBLOCK
 62
     0
370
    -2
100
AcDbLine
 10
0.5
 20
0.5
 30
0.0
 11
-0.5
 21
0.5
 31
0.0
  0
LINE
  5
2E
330
29
100
AcDbEntity
  8
0
  6
BYBLOCK
 62
     0
370
    -2
100
AcDbLine
 10
-0.5
 20
0.5
 30
0.0
 11
-0.5
 21
-0.5
 31
0.0
  0
LINE
  5
2F
330
29
100
AcDbEntity
  8
0
  6
BYBLOCK
 62
     0
370
    -2
100
AcDbLine
 10
-0.5
 20
0.0
 30
0.0
 11
-1.0
 21
0.0
 31
0.0
  0
ENDBLK
  5
30
330
29
100
AcDbEntity
  8
0
100
AcDbBlockEnd
  0
BLOCK
  5
32
330
31
100
AcDbEntity
  8
0
100
AcDbBlockBegin
  2
_OBLIQUE
 70
     0
 10
0.0
 20
0.0
 30
0.0
  3
_OBLIQUE
  1

  0
LINE
  5
33
330
31
100
AcDbEntity
  8
0
  6
BYBLOCK
 62
     0
370
    -2
100
AcDbLine
 10
-0.5
 20
-0.5
 30
0.0
 11
0.5
 21
0.5
 31
0.0
  0
ENDBLK
  5
34
330
31
100
AcDbEntity
  8
0
100
AcDbBlockEnd
  0
BLOCK
  5
36
330
35
100
AcDbEntity
  8
0
100
AcDbBlockBegin
  2
_OPEN90
 70
     0
 10
0.0
 20
0.0
 30
0.0
  3
_OPEN90
  1

  0
LINE
  5
37
330
35
100
AcDbEntity
  8
0
  6
BYBLOCK
 62
     0
370
    -2
100
AcDbLine
 10
-0.5
 20
0.5
 30
0.0
 11
0.0
 21
0.0
 31
0.0
  0
LINE
  5
38
330
35
100
AcDbEntity
  8
0
  6
BYBLOCK
 62
     0
370
    -2
100
AcDbLine
 10
0.0
 20
0.0
 30
0.0
 11
-0.5
 21
-0.5
 31
0.0
  0
LINE
  5
39
330
35
100
AcDbEntity
  8
0
  6
BYBLOCK
 62
     0
370
    -2
100
AcDbLine
 10
0.0
 20
0.0
 30
0.0
 11
-1.0
 21
0.0
 31
0.0
  0
ENDBLK
  5
3A
330
35
100
AcDbEntity
  8
0
100
AcDbBlockEnd
  0
BLOCK
  5
3C
330
3B
100
AcDbEntity
  8
0
100
AcDbBlockBegin
  2
_CLOSEDBLANK
 70
     0
 10
0.0
 20
0.0
 30
0.0
  3
_CLOSEDBLANK
  1

  0
LINE
  5
3D
330
3B
100
AcDbEntity
  8
0
  6
BYBLOCK
 62
     0
370
    -2
100
AcDbLine
 10
-1.0
 20
0.1666666666666666
 30
0.0
 11
0.0
 21
0.0
 31
0.0
  0
LINE
  5
3E
330
3B
100
AcDbEntity
  8
0
  6
BYBLOCK
 62
     0
370
    -2
100
AcDbLine
 10
0.0
 20
0.0
 30
0.0
 11
-1.0
 21
-0.1666666666666666
 31
0.0
  0
LINE
  5
3F
330
3B
100
AcDbEntity
  8
0
  6
BYBLOCK
 62
     0
370
    -2
100
AcDbLine
 10
-1.0
 20
0.1666666666666666
 30
0.0
 11
-1.0
 21
-0.1666666666666666
 31
0.0
  0
ENDBLK
  5
40
330
3B
100
AcDbEntity
  8
0
100
AcDbBlockEnd
  0
BLOCK
  5
42
330
41
100
AcDbEntity
  8
0
100
AcDbBlockBegin
  2
_DOTBLANK
 70
     0
 10
0.0
 20
0.0
 30
0.0
  3
_DOTBLANK
  1

  0
CIRCLE
  5
43
330
41
100
AcDbEntity
  8
0
  6
BYBLOCK
 62
     0
370
    -2
100
AcDbCircle
 10
0.0
 20
0.0
 30
0.0
 40
0.5
  0
LINE
  5
44
330
41
100
AcDbEntity
  8
0
  6
BYBLOCK
 62
     0
370
    -2
100
AcDbLine
 10
-0.5
 20
0.0
 30
0.0
 11
-1.0
 21
0.0
 31
0.0
  0
ENDBLK
  5
45
330
41
100
AcDbEntity
  8
0
100
AcDbBlockEnd
  0
ENDSEC
  0
SECTION
  2
ENTITIES
  0
MTEXT
  5
46
100
AcDbEntity
  8
A8
  6
CONTINUOUS
 62
3
100
AcDbMText
 10
9.999997526638502
 20
18.00000076076889
 30
0.000000000000000
 40
3.000000000000000
 41
0.000000000000000
 44
0.6739999771118164
 71
     7
 72
     1
  1
{\H0.93x;{TYPE No.TL-149-1}}
 11
1.000000000000000
 21
0.000000000000000
 31
0.000000000000000
  7
STANDARD
  0
POINT
  5
47
100
AcDbEntity
  8
A0
  6
CONTINUOUS
 62
3
100
AcDbPoint
 10
9.999997526638502
 20
18.00000076076889
 30
0.000000000000000
  0
LINE
  5
48
100
AcDbEntity
  8
A1
  6
CONTINUOUS
 62
7
100
AcDbLine
 10
214.3307189139018
 20
89.99999999996830
 30
0.000000000000000
 11
210.8307189139022
 21
89.99999999997065
 31
0.000000000000000
  0
LINE
  5
49
100
AcDbEntity
  8
A1
  6
CONTINUOUS
 62
7
100
AcDbLine
 10
206.3183344251465
 20
67.99999999997361
 30
0.000000000000000
 11
204.8307189138836
 21
67.99999999997461
 31
0.000000000000000
  0
LINE
  5
4A
100
AcDbEntity
  8
A1
  6
CONTINUOUS
 62
7
100
AcDbLine
 10
208.5116410515433
 20
61.97393956999354
 30
0.000000000000000
 11
206.3183344251490
 21
67.99999999996699
 31
0.000000000000000
  0
LINE
  5
4B
100
AcDbEntity
  8
A1
  6
CONTINUOUS
 62
7
100
AcDbLine
 10
214.3307189139013
 20
89.19999999996827
 30
0.000000000000000
 11
215.2365855717601
 21
85.81925960795654
 31
0.000000000000000
  0
LINE
  5
4C
100
AcDbEntity
  8
A1
  6
CONTINUOUS
 62
7
100
AcDbLine
 10
215.1034595749325
 20
89.40705523605027
 30
0.000000000000000
 11
216.0093262327913
 21
86.02631484403854
 31
0.000000000000000
  0
ARC
  5
4D
100
AcDbEntity
  8
A1
  6
CONTINUOUS
 62
7
100
AcDbCircle
 10
214.3307189139013
 20
89.19999999996827
 30
0.000000000000000
 40
0.7999999999999945
100
AcDbArc
 50
14.99999999999983
 51
90.00000000000000
  0
LINE
  5
4E
100
AcDbEntity
  8
A1
  6
CONTINUOUS
 62
7
100
AcDbLine
 10
215.2365855717599
 20
85.81925960795652
 30
0.000000000000000
 11
216.0093262327913
 21
86.02631484403855
 31
0.000000000000000
  0
LINE
  5
4F
100
AcDbEntity
  8
A1
  6
CONTINUOUS
 62
7
100
AcDbLine
 10
214.3307189139017
 20
89.99999999996828
 30
0.000000000000000
 11
214.3307189139017
 21
62.99999999996825
 31
0.000000000000000
  0
LINE
  5
50
100
AcDbEntity
  8
A1
  6
CONTINUOUS
 62
7
100
AcDbLine
 10
92.49999999999925
 20
87.19999999997987
 30
0.000000000000000
 11
92.49999999999925
 21
59.99999999997356
 31
0.000000000000000
  0
LINE
  5
51
100
AcDbEntity
  8
A1
  6
CONTINUOUS
 62
7
100
AcDbLine
 10
50.99999999999925
 20
87.19999999997987
 30
0.000000000000000
 11
50.99999999999925
 21
59.99999999997356
 31
0.000000000000000
  0
LINE
  5
52
100
AcDbEntity
  8
A1
  6
CONTINUOUS
 62
7
100
AcDbLine
 10
89.69999999999918
 20
89.99999999997988
 30
0.000000000000000
 11
53.79999999999920
 21
89.99999999997988
 31
0.000000000000000
  0
LINE
  5
53
100
AcDbEntity
  8
A1
  6
CONTINUOUS
 62
7
100
AcDbLine
 10
51.79999999999920
 20
67.99999999997993
 30
0.000000000000000
 11
51.79999999999920
 21
59.99999999997356
 31
0.000000000000000
  0
LINE
  5
54
100
AcDbEntity
  8
A1
  6
CONTINUOUS
 62
7
100
AcDbLine
 10
91.69999999999918
 20
67.99999999997993
 30
0.000000000000000
 11
91.69999999999918
 21
59.99999999997356
 31
0.000000000000000
  0
LINE
  5
55
100
AcDbEntity
  8
A1
  6
CONTINUOUS
 62
7
100
AcDbLine
 10
92.49999999999925
 20
67.99999999997993
 30
0.000000000000000
 11
50.99999999999925
 21
67.99999999997993
 31
0.000000000000000
  0
LINE
  5
56
100
AcDbEntity
  8
A1
  6
CONTINUOUS
 62
7
100
AcDbLine
 10
51.79999999999920
 20
59.99999999997356
 30
0.000000000000000
 11
50.99999999999925
 21
59.99999999997356
 31
0.000000000000000
  0
LINE
  5
57
100
AcDbEntity
  8
A1
  6
CONTINUOUS
 62
7
100
AcDbLine
 10
92.49999999999925
 20
59.99999999997356
 30
0.000000000000000
 11
91.69999999999918
 21
59.99999999997356
 31
0.000000000000000
  0
ARC
  5
58
100
AcDbEntity
  8
A1
  6
CONTINUOUS
 62
7
100
AcDbCircle
 10
53.79999999999920
 20
87.19999999997987
 30
0.000000000000000
 40
2.800000000000000
100
AcDbArc
 50
90.00000000000000
 51
180.0000000000000
  0
ARC
  5
59
100
AcDbEntity
  8
A1
  6
CONTINUOUS
 62
7
100
AcDbCircle
 10
89.69999999999918
 20
87.19999999997987
 30
0.000000000000000
 40
2.800000000000000
100
AcDbArc
 50
0.000000000000000
 51
90.00000000000000
  0
ARC
  5
5A
100
AcDbEntity
  8
A1
  6
CONTINUOUS
 62
7
100
AcDbCircle
 10
275.3875211883760
 20
62.13675407317116
 30
0.000000000000000
 40
70.80000000000000
100
AcDbArc
 50
157.2557880176175
 51
175.2496550121017
  0
ARC
  5
5B
100
AcDbEntity
  8
A1
  6
CONTINUOUS
 62
7
100
AcDbCircle
 10
210.8307189139017
 20
89.19999999997060
 30
0.000000000000000
 40
0.7999999999999829
100
AcDbArc
 50
90.00000000000000
 51
157.2557880176173
  0
CIRCLE
  5
5C
100
AcDbEntity
  8
A3
  6
DASHED
 62
2
100
AcDbCircle
 10
86.64999999999092
 20
61.99999999998898
 30
0.000000000000000
 40
1.600000000000000
  0
CIRCLE
  5
5D
100
AcDbEntity
  8
A3
  6
DASHED
 62
2
100
AcDbCircle
 10
56.84999999999086
 20
61.99999999998898
 30
0.000000000000000
 40
1.600000000000000
  0
LINE
  5
5E
100
AcDbEntity
  8
A1
  6
CONTINUOUS
 62
7
100
AcDbLine
 10
215.8307189138838
 20
74.99999999998897
 30
0.000000000000000
 11
215.8307189138838
 21
55.49999999998897
 31
0.000000000000000
  0
LINE
  5
5F
100
AcDbEntity
  8
A1
  6
CONTINUOUS
 62
7
100
AcDbLine
 10
215.8307189138838
 20
55.49999999998897
 30
0.000000000000000
 11
215.0307189138838
 21
55.49999999998897
 31
0.000000000000000
  0
LINE
  5
60
100
AcDbEntity
  8
A1
  6
CONTINUOUS
 62
7
100
AcDbLine
 10
214.3307189139017
 20
71.99999999998897
 30
0.000000000000000
 11
215.8307189138838
 21
71.99999999998897
 31
0.000000000000000
  0
ARC
  5
61
100
AcDbEntity
  8
A1
  6
CONTINUOUS
 62
7
100
AcDbCircle
 10
215.0307189138838
 20
74.99999999998897
 30
0.000000000000000
 40
0.7999999999999972
100
AcDbArc
 50
0.000000000000000
 51
65.97310326403861
  0
LINE
  5
62
100
AcDbEntity
  8
A1
  6
CONTINUOUS
 62
7
100
AcDbLine
 10
215.0307189138838
 20
74.99999999998894
 30
0.000000000000000
 11
214.3307189139018
 21
75.31205390668494
 31
0.000000000000000
  0
LINE
  5
63
100
AcDbEntity
  8
A1
  6
CONTINUOUS
 62
7
100
AcDbLine
 10
214.3307189139018
 20
76.18794609327699
 30
0.000000000000000
 11
215.3564512738179
 21
75.73068353592761
 31
0.000000000000000
  0
LINE
  5
64
100
AcDbEntity
  8
A1
  6
CONTINUOUS
 62
7
100
AcDbLine
 10
127.3307189138823
 20
89.49999999998897
 30
0.000000000000000
 11
160.3307189138895
 21
89.49999999998897
 31
0.000000000000000
  0
LINE
  5
65
100
AcDbEntity
  8
A1
  6
CONTINUOUS
 62
7
100
AcDbLine
 10
127.3307189138823
 20
78.49999999998897
 30
0.000000000000000
 11
160.3307189138822
 21
78.49999999998897
 31
0.000000000000000
  0
LINE
  5
66
100
AcDbEntity
  8
A1
  6
CONTINUOUS
 62
7
100
AcDbLine
 10
125.3307189138823
 20
80.49999999998897
 30
0.000000000000000
 11
125.3307189138823
 21
87.49999999998897
 31
0.000000000000000
  0
LINE
  5
67
100
AcDbEntity
  8
A1
  6
CONTINUOUS
 62
7
100
AcDbLine
 10
162.3307189138836
 20
80.49999999998897
 30
0.000000000000000
 11
162.3307189138881
 21
87.49999999998894
 31
0.000000000000000
  0
LINE
  5
68
100
AcDbEntity
  8
A1
  6
CONTINUOUS
 62
7
100
AcDbLine
 10
160.3307189138895
 20
89.49999999998900
 30
0.000000000000000
 11
162.3307189138882
 21
87.49999999998897
 31
0.000000000000000
  0
LINE
  5
69
100
AcDbEntity
  8
A1
  6
CONTINUOUS
 62
7
100
AcDbLine
 10
162.3307189138836
 20
80.49999999998897
 30
0.000000000000000
 11
160.3307189138823
 21
78.49999999998894
 31
0.000000000000000
  0
LINE
  5
6A
100
AcDbEntity
  8
A1
  6
CONTINUOUS
 62
7
100
AcDbLine
 10
127.3307189138823
 20
78.49999999998899
 30
0.000000000000000
 11
125.3307189138823
 21
80.49999999998900
 31
0.000000000000000
  0
LINE
  5
6B
100
AcDbEntity
  8
A1
  6
CONTINUOUS
 62
7
100
AcDbLine
 10
125.3307189138823
 20
87.49999999998903
 30
0.000000000000000
 11
127.3307189138824
 21
89.49999999998903
 31
0.000000000000000
  0
CIRCLE
  5
6C
100
AcDbEntity
  8
A1
  6
CONTINUOUS
 62
7
100
AcDbCircle
 10
128.9307189138823
 20
83.99999999998897
 30
0.000000000000000
 40
1.600000000000000
  0
CIRCLE
  5
6D
100
AcDbEntity
  8
A1
  6
CONTINUOUS
 62
7
100
AcDbCircle
 10
158.7307189138823
 20
83.99999999998897
 30
0.000000000000000
 40
1.600000000000000
  0
LINE
  5
6E
100
AcDbEntity
  8
A1
  6
CONTINUOUS
 62
7
100
AcDbLine
 10
131.8307189138823
 20
82.79999999998896
 30
0.000000000000000
 11
131.8307189138823
 21
89.49999999998897
 31
0.000000000000000
  0
LINE
  5
6F
100
AcDbEntity
  8
A1
  6
CONTINUOUS
 62
7
100
AcDbLine
 10
155.8307189138822
 20
82.79999999998896
 30
0.000000000000000
 11
155.8307189138822
 21
89.49999999998897
 31
0.000000000000000
  0
LINE
  5
70
100
AcDbEntity
  8
A1
  6
CONTINUOUS
 62
7
100
AcDbLine
 10
248.3307189138814
 20
84.99999999998998
 30
0.000000000000000
 11
248.3307189138838
 21
88.69999999999054
 31
0.000000000000000
  0
LINE
  5
71
100
AcDbEntity
  8
A1
  6
CONTINUOUS
 62
7
100
AcDbLine
 10
254.3307189138771
 20
78.49999999999001
 30
0.000000000000000
 11
254.3307189138843
 21
89.49999999999001
 31
0.000000000000000
  0
LINE
  5
72
100
AcDbEntity
  8
A1
  6
CONTINUOUS
 62
7
100
AcDbLine
 10
253.5307189138772
 20
78.49999999999052
 30
0.000000000000000
 11
253.5307189138843
 21
89.49999999998995
 31
0.000000000000000
  0
LINE
  5
73
100
AcDbEntity
  8
A1
  6
CONTINUOUS
 62
7
100
AcDbLine
 10
254.3307189138772
 20
78.49999999998997
 30
0.000000000000000
 11
253.5307189138772
 21
78.49999999998997
 31
0.000000000000000
  0
LINE
  5
74
100
AcDbEntity
  8
A1
  6
CONTINUOUS
 62
7
100
AcDbLine
 10
254.3307189138772
 20
89.49999999998997
 30
0.000000000000000
 11
249.1307189138838
 21
89.49999999998997
 31
0.000000000000000
  0
LINE
  5
75
100
AcDbEntity
  8
A1
  6
CONTINUOUS
 62
7
100
AcDbLine
 10
154.4455078283411
 20
85.29667141502981
 30
0.000000000000000
 11
154.4455078283411
 21
88.69999999998899
 31
0.000000000000000
  0
LINE
  5
76
100
AcDbEntity
  8
A1
  6
CONTINUOUS
 62
7
100
AcDbLine
 10
133.2159299993966
 20
85.29667141502981
 30
0.000000000000000
 11
133.2159299993966
 21
88.69999999998899
 31
0.000000000000000
  0
ARC
  5
77
100
AcDbEntity
  8
A1
  6
CONTINUOUS
 62
7
100
AcDbCircle
 10
132.6307189138823
 20
82.79999999998896
 30
0.000000000000000
 40
0.8000000000000000
100
AcDbArc
 50
180.0000000000000
 51
270.0000000000000
  0
ARC
  5
78
100
AcDbEntity
  8
A1
  6
CONTINUOUS
 62
7
100
AcDbCircle
 10
155.0307189138823
 20
82.79999999998896
 30
0.000000000000000
 40
0.8000000000000000
100
AcDbArc
 50
270.0000000000000
 51
360.0000000000000
  0
ARC
  5
79
100
AcDbEntity
  8
A1
  6
CONTINUOUS
 62
7
100
AcDbCircle
 10
249.1307189138838
 20
88.69999999998996
 30
0.000000000000000
 40
0.8000000000000000
100
AcDbArc
 50
90.00000000000000
 51
180.0000000000000
  0
LINE
  5
7A
100
AcDbEntity
  8
A1
  6
CONTINUOUS
 62
7
100
AcDbLine
 10
132.6307189138823
 20
81.99999999998897
 30
0.000000000000000
 11
155.0307189138823
 21
81.99999999998897
 31
0.000000000000000
  0
LINE
  5
7B
100
AcDbEntity
  8
A1
  6
CONTINUOUS
 62
7
100
AcDbLine
 10
53.29999999998601
 20
50.00000000000144
 30
0.000000000000000
 11
90.19999999999997
 21
50.00000000000144
 31
0.000000000000000
  0
LINE
  5
7C
100
AcDbEntity
  8
A1
  6
CONTINUOUS
 62
7
100
AcDbLine
 10
205.8307189138852
 20
66.99999999996723
 30
0.000000000000000
 11
205.8307189138915
 21
50.79999999996691
 31
0.000000000000000
  0
ARC
  5
7D
100
AcDbEntity
  8
A1
  6
CONTINUOUS
 62
7
100
AcDbCircle
 10
206.6307189138915
 20
50.79999999996723
 30
0.000000000000000
 40
0.8000000000000000
100
AcDbArc
 50
180.0000000000000
 51
315.0000000000007
  0
ARC
  5
7E
100
AcDbEntity
  8
A1
  6
CONTINUOUS
 62
7
100
AcDbCircle
 10
206.6307189138912
 20
66.99999999996723
 30
0.000000000000000
 40
0.8000000000060510
100
AcDbArc
 50
106.5261241906923
 51
180.0000000000000
  0
LINE
  5
7F
100
AcDbEntity
  8
A1
  6
CONTINUOUS
 62
7
100
AcDbLine
 10
207.1964043388408
 20
50.23431457501808
 30
0.000000000000000
 11
211.5558186967027
 21
54.59372893288007
 31
0.000000000000000
  0
LINE
  5
80
100
AcDbEntity
  8
A1
  6
CONTINUOUS
 62
7
100
AcDbLine
 10
210.5198062104176
 20
53.55771644659480
 30
0.000000000000000
 11
214.3303179870684
 21
55.75771644659610
 31
0.000000000000000
  0
LINE
  5
81
100
AcDbEntity
  8
A1
  6
CONTINUOUS
 62
7
100
AcDbLine
 10
214.3303179870685
 20
55.75771644659611
 30
0.000000000000000
 11
214.2027869381816
 21
55.97860670281048
 31
0.000000000000000
  0
ARC
  5
82
100
AcDbEntity
  8
A1
  6
CONTINUOUS
 62
7
100
AcDbCircle
 10
53.29999999998601
 20
50.80000000000144
 30
0.000000000000000
 40
0.8000000000000000
100
AcDbArc
 50
180.0000000000000
 51
270.0000000000000
  0
ARC
  5
83
100
AcDbEntity
  8
A1
  6
CONTINUOUS
 62
7
100
AcDbCircle
 10
90.19999999999997
 20
50.80000000000144
 30
0.000000000000000
 40
0.8000000000000000
100
AcDbArc
 50
270.0000000000000
 51
360.0000000000000
  0
LINE
  5
84
100
AcDbEntity
  8
A1
  6
CONTINUOUS
 62
7
100
AcDbLine
 10
53.29999999998601
 20
67.79999999998938
 30
0.000000000000000
 11
90.19999999999997
 21
67.79999999998938
 31
0.000000000000000
  0
ARC
  5
85
100
AcDbEntity
  8
A1
  6
CONTINUOUS
 62
7
100
AcDbCircle
 10
53.49999999998799
 20
57.99999999995773
 30
0.000000000000000
 40
1.799999999999997
100
AcDbArc
 50
123.7489885958745
 51
236.2510114040971
  0
LINE
  5
86
100
AcDbEntity
  8
A1
  6
CONTINUOUS
 62
7
100
AcDbLine
 10
90.99999999999342
 20
67.99999999997992
 30
0.000000000000000
 11
91.00000000000004
 21
50.80000000000177
 31
0.000000000000000
  0
LINE
  5
87
100
AcDbEntity
  8
A1
  6
CONTINUOUS
 62
7
100
AcDbLine
 10
52.49999999998604
 20
50.80000000000165
 30
0.000000000000000
 11
52.49999999999028
 21
67.99999999997993
 31
0.000000000000000
  0
LINE
  5
88
100
AcDbEntity
  8
A4
  6
CENTER
 62
1
100
AcDbLine
 10
71.75000000000215
 20
48.50000000000146
 30
0.000000000000000
 11
71.74999999999928
 21
91.49999999997986
 31
0.000000000000000
  0
ARC
  5
89
100
AcDbEntity
  8
A1
  6
CONTINUOUS
 62
7
100
AcDbCircle
 10
52.49999999999925
 20
62.99999999997356
 30
0.000000000000000
 40
2.500000000000085
100
AcDbArc
 50
126.8698976458450
 51
233.1301023541550
  0
LINE
  5
8A
100
AcDbEntity
  8
A1
  6
CONTINUOUS
 62
7
100
AcDbLine
 10
52.49999999998867
 20
61.87499999997356
 30
0.000000000000000
 11
51.79999999999920
 21
61.87499999997356
 31
0.000000000000000
  0
LINE
  5
8B
100
AcDbEntity
  8
A1
  6
CONTINUOUS
 62
7
100
AcDbLine
 10
52.49999999998924
 20
64.12499999997357
 30
0.000000000000000
 11
51.79999999999920
 21
64.12499999997357
 31
0.000000000000000
  0
LINE
  5
8C
100
AcDbEntity
  8
A1
  6
CONTINUOUS
 62
7
100
AcDbLine
 10
91.69999999999918
 20
61.87499999997356
 30
0.000000000000000
 11
90.99999999999572
 21
61.87499999997356
 31
0.000000000000000
  0
LINE
  5
8D
100
AcDbEntity
  8
A1
  6
CONTINUOUS
 62
7
100
AcDbLine
 10
91.69999999999918
 20
64.12499999997357
 30
0.000000000000000
 11
90.99999999999493
 21
64.12499999997357
 31
0.000000000000000
  0
LINE
  5
8E
100
AcDbEntity
  8
A1
  6
CONTINUOUS
 62
7
100
AcDbLine
 10
92.83071891388222
 20
64.49999999997357
 30
0.000000000000000
 11
92.49999999999916
 21
64.12499999997355
 31
0.000000000000000
  0
LINE
  5
8F
100
AcDbEntity
  8
A1
  6
CONTINUOUS
 62
7
100
AcDbLine
 10
92.83071891388229
 20
61.49999999997360
 30
0.000000000000000
 11
92.49999999999925
 21
61.87499999997361
 31
0.000000000000000
  0
LINE
  5
90
100
AcDbEntity
  8
A1
  6
CONTINUOUS
 62
7
100
AcDbLine
 10
92.83071891388231
 20
64.49999999997357
 30
0.000000000000000
 11
92.83071891388231
 21
61.49999999997360
 31
0.000000000000000
  0
LINE
  5
91
100
AcDbEntity
  8
A1
  6
CONTINUOUS
 62
7
100
AcDbLine
 10
254.3307189138772
 20
80.49999999998997
 30
0.000000000000000
 11
253.5307189138772
 21
80.49999999998997
 31
0.000000000000000
  0
LINE
  5
92
100
AcDbEntity
  8
A1
  6
CONTINUOUS
 62
7
100
AcDbLine
 10
254.3307189138772
 20
87.49999999999002
 30
0.000000000000000
 11
253.5307189138772
 21
87.49999999999002
 31
0.000000000000000
  0
LINE
  5
93
100
AcDbEntity
  8
A3
  6
DASHED
 62
2
100
AcDbLine
 10
53.49999999998890
 20
55.49999999998897
 30
0.000000000000000
 11
53.49999999999562
 21
78.50000000000080
 31
0.000000000000000
  0
LINE
  5
94
100
AcDbEntity
  8
A3
  6
DASHED
 62
2
100
AcDbLine
 10
53.49999999998890
 20
55.49999999998898
 30
0.000000000000000
 11
89.99999999998902
 21
55.49999999998898
 31
0.000000000000000
  0
LINE
  5
95
100
AcDbEntity
  8
A3
  6
DASHED
 62
2
100
AcDbLine
 10
89.99999999998902
 20
78.49999999998897
 30
0.000000000000000
 11
89.99999999998902
 21
55.49999999998897
 31
0.000000000000000
  0
LINE
  5
96
100
AcDbEntity
  8
A3
  6
DASHED
 62
2
100
AcDbLine
 10
53.49999999998890
 20
78.49999999998897
 30
0.000000000000000
 11
89.99999999998902
 21
78.49999999998897
 31
0.000000000000000
  0
ARC
  5
97
100
AcDbEntity
  8
A1
  6
CONTINUOUS
 62
7
100
AcDbCircle
 10
211.3307189139017
 20
62.99999999996825
 30
0.000000000000000
 40
3.000000000000000
100
AcDbArc
 50
199.9999999999542
 51
360.0000000000000
  0
CIRCLE
  5
98
100
AcDbEntity
  8
A1
  6
CONTINUOUS
 62
7
100
AcDbCircle
 10
211.3307189139017
 20
62.99999999996825
 30
0.000000000000000
 40
1.500000000000000
  0
LINE
  5
99
100
AcDbEntity
  8
A1
  6
CONTINUOUS
 62
7
100
AcDbLine
 10
214.3307189139017
 20
66.49999999998897
 30
0.000000000000000
 11
215.8307189138838
 21
66.49999999998897
 31
0.000000000000000
  0
LINE
  5
9A
100
AcDbEntity
  8
A1
  6
CONTINUOUS
 62
7
100
AcDbLine
 10
215.0307189138838
 20
55.49999999998897
 30
0.000000000000000
 11
215.0307189138838
 21
66.49999999998897
 31
0.000000000000000
  0
LINE
  5
9B
100
AcDbEntity
  8
A1
  6
CONTINUOUS
 62
7
100
AcDbLine
 10
215.0307189138838
 20
71.99999999998897
 30
0.000000000000000
 11
215.0307189138838
 21
74.99999999998897
 31
0.000000000000000
  0
ARC
  5
9C
100
AcDbEntity
  8
A1
  6
CONTINUOUS
 62
7
100
AcDbCircle
 10
215.0913526026341
 20
51.05819502694878
 30
0.000000000000000
 40
5.000000000000000
100
AcDbArc
 50
98.75019429149481
 51
135.0000000000007
  0
LINE
  5
9D
100
AcDbEntity
  8
A1
  6
CONTINUOUS
 62
7
100
AcDbLine
 10
214.3307189138868
 20
62.99999999996945
 30
0.000000000000000
 11
214.3307189138896
 21
55.99999999998715
 31
0.000000000000000
  0
LINE
  5
9E
100
AcDbEntity
  8
A1
  6
CONTINUOUS
 62
7
100
AcDbLine
 10
214.3307189139017
 20
65.99999999998897
 30
0.000000000000000
 11
215.0307189138837
 21
65.99999999998897
 31
0.000000000000000
  0
LINE
  5
9F
100
AcDbEntity
  8
A1
  6
CONTINUOUS
 62
7
100
AcDbLine
 10
214.3307189138885
 20
58.73499999998398
 30
0.000000000000000
 11
215.0307189138837
 21
57.99999999998897
 31
0.000000000000000
  0
LINE
  5
A0
100
AcDbEntity
  8
A1
  6
CONTINUOUS
 62
7
100
AcDbLine
 10
253.5307189138796
 20
81.99999999998946
 30
0.000000000000000
 11
248.7844583808121
 21
84.27881788482127
 31
0.000000000000000
  0
ARC
  5
A1
100
AcDbEntity
  8
A1
  6
CONTINUOUS
 62
7
100
AcDbCircle
 10
249.1307189138814
 20
84.99999999998946
 30
0.000000000000000
 40
0.7999999999999972
100
AcDbArc
 50
180.0000000000000
 51
244.3529818549825
  0
LINE
  5
A2
100
AcDbEntity
  8
A1
  6
CONTINUOUS
 62
7
100
AcDbLine
 10
144.6307189138831
 20
84.49667141502979
 30
0.000000000000000
 11
153.6455078283420
 21
84.49667141502979
 31
0.000000000000000
  0
ARC
  5
A3
100
AcDbEntity
  8
A1
  6
CONTINUOUS
 62
7
100
AcDbCircle
 10
153.6455078283420
 20
85.29667141502981
 30
0.000000000000000
 40
0.8000000000000000
100
AcDbArc
 50
270.0000000000000
 51
360.0000000000000
  0
LINE
  5
A4
100
AcDbEntity
  8
A1
  6
CONTINUOUS
 62
7
100
AcDbLine
 10
134.0159299993973
 20
84.49667141502979
 30
0.000000000000000
 11
143.0307189138829
 21
84.49667141502979
 31
0.000000000000000
  0
ARC
  5
A5
100
AcDbEntity
  8
A1
  6
CONTINUOUS
 62
7
100
AcDbCircle
 10
134.0159299993973
 20
85.29667141502981
 30
0.000000000000000
 40
0.8000000000000000
100
AcDbArc
 50
180.0000000000000
 51
270.0000000000000
  0
LINE
  5
A6
100
AcDbEntity
  8
A1
  6
CONTINUOUS
 62
7
100
AcDbLine
 10
453.1614378277271
 20
89.99999999992127
 30
0.000000000000000
 11
456.6614378277266
 21
89.99999999992410
 31
0.000000000000000
  0
LINE
  5
A7
100
AcDbEntity
  8
A1
  6
CONTINUOUS
 62
7
100
AcDbLine
 10
461.1738223164853
 20
67.99999999992765
 30
0.000000000000000
 11
462.6614378277482
 21
67.99999999992885
 31
0.000000000000000
  0
LINE
  5
A8
100
AcDbEntity
  8
A1
  6
CONTINUOUS
 62
7
100
AcDbLine
 10
458.9805156900892
 20
61.97393956994722
 30
0.000000000000000
 11
461.1738223164826
 21
67.99999999992096
 31
0.000000000000000
  0
LINE
  5
A9
100
AcDbEntity
  8
A1
  6
CONTINUOUS
 62
7
100
AcDbLine
 10
453.1614378277278
 20
89.19999999992119
 30
0.000000000000000
 11
452.2555711698694
 21
85.81925960790933
 31
0.000000000000000
  0
LINE
  5
AA
100
AcDbEntity
  8
A1
  6
CONTINUOUS
 62
7
100
AcDbLine
 10
452.3886971666965
 20
89.40705523600309
 30
0.000000000000000
 11
451.4828305088381
 21
86.02631484399123
 31
0.000000000000000
  0
ARC
  5
AB
100
AcDbEntity
  8
A1
  6
CONTINUOUS
 62
7
100
AcDbCircle
 10
453.1614378277277
 20
89.19999999992123
 30
0.000000000000000
 40
0.7999999999999945
100
AcDbArc
 50
90.00000000000763
 51
165.0000000000078
  0
LINE
  5
AC
100
AcDbEntity
  8
A1
  6
CONTINUOUS
 62
7
100
AcDbLine
 10
452.2555711698694
 20
85.81925960790939
 30
0.000000000000000
 11
451.4828305088380
 21
86.02631484399132
 31
0.000000000000000
  0
LINE
  5
AD
100
AcDbEntity
  8
A1
  6
CONTINUOUS
 62
7
100
AcDbLine
 10
453.1614378277270
 20
89.99999999992123
 30
0.000000000000000
 11
453.1614378277306
 21
62.99999999992122
 31
0.000000000000000
  0
ARC
  5
AE
100
AcDbEntity
  8
A1
  6
CONTINUOUS
 62
7
100
AcDbCircle
 10
392.1046355532565
 20
62.13675407311600
 30
0.000000000000000
 40
70.80000000000000
100
AcDbArc
 50
4.750344987905928
 51
22.74421198239008
  0
ARC
  5
AF
100
AcDbEntity
  8
A1
  6
CONTINUOUS
 62
7
100
AcDbCircle
 10
456.6614378277272
 20
89.19999999992402
 30
0.000000000000000
 40
0.7999999999999829
100
AcDbArc
 50
22.74421198239028
 51
90.00000000000763
  0
LINE
  5
B0
100
AcDbEntity
  8
A1
  6
CONTINUOUS
 62
7
100
AcDbLine
 10
451.6614378277471
 20
74.99999999994172
 30
0.000000000000000
 11
451.6614378277497
 21
55.49999999994174
 31
0.000000000000000
  0
LINE
  5
B1
100
AcDbEntity
  8
A1
  6
CONTINUOUS
 62
7
100
AcDbLine
 10
451.6614378277497
 20
55.49999999994174
 30
0.000000000000000
 11
452.4614378277496
 21
55.49999999994185
 31
0.000000000000000
  0
LINE
  5
B2
100
AcDbEntity
  8
A1
  6
CONTINUOUS
 62
7
100
AcDbLine
 10
453.1614378277294
 20
71.99999999994195
 30
0.000000000000000
 11
451.6614378277475
 21
71.99999999994175
 31
0.000000000000000
  0
ARC
  5
B3
100
AcDbEntity
  8
A1
  6
CONTINUOUS
 62
7
100
AcDbCircle
 10
452.4614378277470
 20
74.99999999994182
 30
0.000000000000000
 40
0.7999999999999972
100
AcDbArc
 50
114.0268967359690
 51
180.0000000000076
  0
LINE
  5
B4
100
AcDbEntity
  8
A1
  6
CONTINUOUS
 62
7
100
AcDbLine
 10
452.4614378277469
 20
74.99999999994176
 30
0.000000000000000
 11
453.1614378277289
 21
75.31205390663786
 31
0.000000000000000
  0
LINE
  5
B5
100
AcDbEntity
  8
A1
  6
CONTINUOUS
 62
7
100
AcDbLine
 10
453.1614378277290
 20
76.18794609322994
 30
0.000000000000000
 11
452.1357054678128
 21
75.73068353588043
 31
0.000000000000000
  0
LINE
  5
B6
100
AcDbEntity
  8
A1
  6
CONTINUOUS
 62
7
100
AcDbLine
 10
501.1614378277474
 20
84.99999999994321
 30
0.000000000000000
 11
501.1614378277445
 21
88.69999999994374
 31
0.000000000000000
  0
LINE
  5
B7
100
AcDbEntity
  8
A1
  6
CONTINUOUS
 62
7
100
AcDbLine
 10
495.1614378277525
 20
78.49999999994240
 30
0.000000000000000
 11
495.1614378277440
 21
89.49999999994240
 31
0.000000000000000
  0
LINE
  5
B8
100
AcDbEntity
  8
A1
  6
CONTINUOUS
 62
7
100
AcDbLine
 10
495.9614378277526
 20
78.49999999994306
 30
0.000000000000000
 11
495.9614378277440
 21
89.49999999994249
 31
0.000000000000000
  0
LINE
  5
B9
100
AcDbEntity
  8
A1
  6
CONTINUOUS
 62
7
100
AcDbLine
 10
495.1614378277524
 20
78.49999999994240
 30
0.000000000000000
 11
495.9614378277525
 21
78.49999999994252
 31
0.000000000000000
  0
LINE
  5
BA
100
AcDbEntity
  8
A1
  6
CONTINUOUS
 62
7
100
AcDbLine
 10
495.1614378277509
 20
89.49999999994237
 30
0.000000000000000
 11
500.3614378277444
 21
89.49999999994307
 31
0.000000000000000
  0
ARC
  5
BB
100
AcDbEntity
  8
A1
  6
CONTINUOUS
 62
7
100
AcDbCircle
 10
500.3614378277445
 20
88.69999999994309
 30
0.000000000000000
 40
0.8000000000000000
100
AcDbArc
 50
7.633331235512440e-12
 51
90.00000000000763
  0
LINE
  5
BC
100
AcDbEntity
  8
A1
  6
CONTINUOUS
 62
7
100
AcDbLine
 10
461.6614378277467
 20
66.99999999992133
 30
0.000000000000000
 11
461.6614378277426
 21
50.79999999992102
 31
0.000000000000000
  0
ARC
  5
BD
100
AcDbEntity
  8
A1
  6
CONTINUOUS
 62
7
100
AcDbCircle
 10
460.8614378277425
 20
50.79999999992122
 30
0.000000000000000
 40
0.8000000000000000
100
AcDbArc
 50
225.0000000000070
 51
360.0000000000076
  0
ARC
  5
BE
100
AcDbEntity
  8
A1
  6
CONTINUOUS
 62
7
100
AcDbCircle
 10
460.8614378277406
 20
66.99999999992122
 30
0.000000000000000
 40
0.8000000000060510
100
AcDbArc
 50
7.633331235512440e-12
 51
73.47387580931539
  0
LINE
  5
BF
100
AcDbEntity
  8
A1
  6
CONTINUOUS
 62
7
100
AcDbLine
 10
460.2957524027932
 20
50.23431457497182
 30
0.000000000000000
 11
455.9363380449306
 21
54.59372893283327
 31
0.000000000000000
  0
LINE
  5
C0
100
AcDbEntity
  8
A1
  6
CONTINUOUS
 62
7
100
AcDbLine
 10
456.9723505312161
 20
53.55771644654823
 30
0.000000000000000
 11
453.1618387545650
 21
55.75771644654901
 31
0.000000000000000
  0
LINE
  5
C1
100
AcDbEntity
  8
A1
  6
CONTINUOUS
 62
7
100
AcDbLine
 10
453.1618387545652
 20
55.75771644654898
 30
0.000000000000000
 11
453.2893698034520
 21
55.97860670276339
 31
0.000000000000000
  0
LINE
  5
C2
100
AcDbEntity
  8
A1
  6
CONTINUOUS
 62
7
100
AcDbLine
 10
495.1614378277521
 20
80.49999999994237
 30
0.000000000000000
 11
495.9614378277522
 21
80.49999999994249
 31
0.000000000000000
  0
LINE
  5
C3
100
AcDbEntity
  8
A1
  6
CONTINUOUS
 62
7
100
AcDbLine
 10
495.1614378277512
 20
87.49999999994243
 30
0.000000000000000
 11
495.9614378277513
 21
87.49999999994255
 31
0.000000000000000
  0
ARC
  5
C4
100
AcDbEntity
  8
A1
  6
CONTINUOUS
 62
7
100
AcDbCircle
 10
456.1614378277307
 20
62.99999999992162
 30
0.000000000000000
 40
3.000000000000000
100
AcDbArc
 50
180.0000000000076
 51
340.0000000000535
  0
CIRCLE
  5
C5
100
AcDbEntity
  8
A1
  6
CONTINUOUS
 62
7
100
AcDbCircle
 10
456.1614378277307
 20
62.99999999992162
 30
0.000000000000000
 40
1.500000000000000
  0
LINE
  5
C6
100
AcDbEntity
  8
A1
  6
CONTINUOUS
 62
7
100
AcDbLine
 10
453.1614378277301
 20
66.49999999994195
 30
0.000000000000000
 11
451.6614378277482
 21
66.49999999994175
 31
0.000000000000000
  0
LINE
  5
C7
100
AcDbEntity
  8
A1
  6
CONTINUOUS
 62
7
100
AcDbLine
 10
452.4614378277496
 20
55.49999999994185
 30
0.000000000000000
 11
452.4614378277482
 21
66.49999999994186
 31
0.000000000000000
  0
LINE
  5
C8
100
AcDbEntity
  8
A1
  6
CONTINUOUS
 62
7
100
AcDbLine
 10
452.4614378277474
 20
71.99999999994186
 30
0.000000000000000
 11
452.4614378277470
 21
74.99999999994183
 31
0.000000000000000
  0
ARC
  5
C9
100
AcDbEntity
  8
A1
  6
CONTINUOUS
 62
7
100
AcDbCircle
 10
452.4008041389999
 20
51.05819502690165
 30
0.000000000000000
 40
5.000000000000000
100
AcDbArc
 50
45.00000000000692
 51
81.24980570851284
  0
LINE
  5
CA
100
AcDbEntity
  8
A1
  6
CONTINUOUS
 62
7
100
AcDbLine
 10
453.1614378277456
 20
62.99999999992241
 30
0.000000000000000
 11
453.1614378277438
 21
55.99999999994010
 31
0.000000000000000
  0
LINE
  5
CB
100
AcDbEntity
  8
A1
  6
CONTINUOUS
 62
7
100
AcDbLine
 10
453.1614378277302
 20
65.99999999994195
 30
0.000000000000000
 11
452.4614378277482
 21
65.99999999994186
 31
0.000000000000000
  0
LINE
  5
CC
100
AcDbEntity
  8
A1
  6
CONTINUOUS
 62
7
100
AcDbLine
 10
453.1614378277445
 20
58.73499999993700
 30
0.000000000000000
 11
452.4614378277494
 21
57.99999999994193
 31
0.000000000000000
  0
LINE
  5
CD
100
AcDbEntity
  8
A1
  6
CONTINUOUS
 62
7
100
AcDbLine
 10
495.9614378277498
 20
81.99999999994205
 30
0.000000000000000
 11
500.7076983608170
 21
84.27881788477450
 31
0.000000000000000
  0
ARC
  5
CE
100
AcDbEntity
  8
A1
  6
CONTINUOUS
 62
7
100
AcDbCircle
 10
500.3614378277474
 20
84.99999999994256
 30
0.000000000000000
 40
0.7999999999999972
100
AcDbArc
 50
295.6470181450251
 51
360.0000000000076
  0
CIRCLE
  5
CF
100
AcDbEntity
  8
A1
  6
CONTINUOUS
 62
7
100
AcDbCircle
 10
458.1614378277470
 20
57.99999999992318
 30
0.000000000000000
 40
1.496662954705172
  0
LINE
  5
D0
100
AcDbEntity
  8
A4
  6
CENTER
 62
1
100
AcDbLine
 10
161.8307189138823
 20
83.99999999998897
 30
0.000000000000000
 11
155.6307189138823
 21
83.99999999998897
 31
0.000000000000000
  0
LINE
  5
D1
100
AcDbEntity
  8
A4
  6
CENTER
 62
1
100
AcDbLine
 10
158.7307189138823
 20
87.09999999998897
 30
0.000000000000000
 11
158.7307189138823
 21
80.89999999998898
 31
0.000000000000000
  0
LINE
  5
D2
100
AcDbEntity
  8
A4
  6
CENTER
 62
1
100
AcDbLine
 10
132.0307189138823
 20
83.99999999998897
 30
0.000000000000000
 11
125.8307189138823
 21
83.99999999998897
 31
0.000000000000000
  0
LINE
  5
D3
100
AcDbEntity
  8
A4
  6
CENTER
 62
1
100
AcDbLine
 10
128.9307189138823
 20
87.09999999998897
 30
0.000000000000000
 11
128.9307189138823
 21
80.89999999998898
 31
0.000000000000000
  0
LINE
  5
D4
100
AcDbEntity
  8
A4
  6
CENTER
 62
1
100
AcDbLine
 10
143.8307189138797
 20
76.99999999999145
 30
0.000000000000000
 11
143.8307189138885
 21
90.99999999999162
 31
0.000000000000000
  0
LINE
  5
D5
100
AcDbEntity
  8
A4
  6
CENTER
 62
1
100
AcDbLine
 10
493.6614378277482
 20
83.99999999994228
 30
0.000000000000000
 11
497.4614378277481
 21
83.99999999994259
 31
0.000000000000000
  0
LINE
  5
D6
100
AcDbEntity
  8
A4
  6
CENTER
 62
1
100
AcDbLine
 10
252.0307189138807
 20
83.99999999998997
 30
0.000000000000000
 11
255.8307189138806
 21
83.99999999998997
 31
0.000000000000000
  0
LINE
  5
D7
100
AcDbEntity
  8
A4
  6
CENTER
 62
1
100
AcDbLine
 10
89.74999999999083
 20
61.99999999998898
 30
0.000000000000000
 11
83.54999999999090
 21
61.99999999998898
 31
0.000000000000000
  0
LINE
  5
D8
100
AcDbEntity
  8
A4
  6
CENTER
 62
1
100
AcDbLine
 10
86.64999999999092
 20
65.09999999998897
 30
0.000000000000000
 11
86.64999999999092
 21
58.89999999998899
 31
0.000000000000000
  0
LINE
  5
D9
100
AcDbEntity
  8
A4
  6
CENTER
 62
1
100
AcDbLine
 10
59.94999999999088
 20
61.99999999998898
 30
0.000000000000000
 11
53.74999999999083
 21
61.99999999998898
 31
0.000000000000000
  0
LINE
  5
DA
100
AcDbEntity
  8
A4
  6
CENTER
 62
1
100
AcDbLine
 10
56.84999999999086
 20
65.09999999998897
 30
0.000000000000000
 11
56.84999999999086
 21
58.89999999998899
 31
0.000000000000000
  0
LINE
  5
DB
100
AcDbEntity
  8
A4
  6
CENTER
 62
1
100
AcDbLine
 10
459.1614378277307
 20
62.99999999992162
 30
0.000000000000000
 11
453.1614378277307
 21
62.99999999992162
 31
0.000000000000000
  0
LINE
  5
DC
100
AcDbEntity
  8
A4
  6
CENTER
 62
1
100
AcDbLine
 10
456.1614378277307
 20
65.99999999992161
 30
0.000000000000000
 11
456.1614378277307
 21
59.99999999992162
 31
0.000000000000000
  0
LINE
  5
DD
100
AcDbEntity
  8
A4
  6
CENTER
 62
1
100
AcDbLine
 10
213.5307189138838
 20
61.99999999998897
 30
0.000000000000000
 11
217.3307189138838
 21
61.99999999998897
 31
0.000000000000000
  0
LINE
  5
DE
100
AcDbEntity
  8
A4
  6
CENTER
 62
1
100
AcDbLine
 10
450.1114378277389
 20
61.99999999994161
 30
0.000000000000000
 11
453.9114378277388
 21
61.99999999994193
 31
0.000000000000000
  0
LINE
  5
DF
100
AcDbEntity
  8
A4
  6
CENTER
 62
1
100
AcDbLine
 10
214.3307189139017
 20
62.99999999996825
 30
0.000000000000000
 11
208.3307189139017
 21
62.99999999996825
 31
0.000000000000000
  0
LINE
  5
E0
100
AcDbEntity
  8
A4
  6
CENTER
 62
1
100
AcDbLine
 10
211.3307189139017
 20
65.99999999996825
 30
0.000000000000000
 11
211.3307189139017
 21
59.99999999996825
 31
0.000000000000000
  0
LINE
  5
E1
100
AcDbEntity
  8
A4
  6
CENTER
 62
1
100
AcDbLine
 10
213.5307189138838
 20
83.99999999998897
 30
0.000000000000000
 11
217.3307189138838
 21
83.99999999998897
 31
0.000000000000000
  0
LINE
  5
E2
100
AcDbEntity
  8
A4
  6
CENTER
 62
1
100
AcDbLine
 10
450.1114378277389
 20
83.99999999994162
 30
0.000000000000000
 11
453.9114378277388
 21
83.99999999994193
 31
0.000000000000000
  0
LINE
  5
E3
100
AcDbEntity
  8
A1
  6
CONTINUOUS
 62
7
100
AcDbLine
 10
133.8307189138692
 20
137.4999999999798
 30
0.000000000000000
 11
153.8307189138692
 21
137.4999999999798
 31
0.000000000000000
  0
LINE
  5
E4
100
AcDbEntity
  8
A1
  6
CONTINUOUS
 62
7
100
AcDbLine
 10
125.3307189138823
 20
143.4999999999798
 30
0.000000000000000
 11
162.3307189138965
 21
143.4999999999798
 31
0.000000000000000
  0
LINE
  5
E5
100
AcDbEntity
  8
A1
  6
CONTINUOUS
 62
7
100
AcDbLine
 10
162.3307189138967
 20
142.6999999999799
 30
0.000000000000000
 11
162.3307189138959
 21
143.4999999999791
 31
0.000000000000000
  0
LINE
  5
E6
100
AcDbEntity
  8
A1
  6
CONTINUOUS
 62
7
100
AcDbLine
 10
160.3307189138795
 20
142.6999999999779
 30
0.000000000000000
 11
160.3307189138787
 21
143.4999999999771
 31
0.000000000000000
  0
LINE
  5
E7
100
AcDbEntity
  8
A1
  6
CONTINUOUS
 62
7
100
AcDbLine
 10
127.3307189138723
 20
142.6999999999457
 30
0.000000000000000
 11
127.3307189138716
 21
143.4999999999449
 31
0.000000000000000
  0
LINE
  5
E8
100
AcDbEntity
  8
A1
  6
CONTINUOUS
 62
7
100
AcDbLine
 10
125.3307189138704
 20
142.6999999999437
 30
0.000000000000000
 11
125.3307189138696
 21
143.4999999999430
 31
0.000000000000000
  0
LINE
  5
E9
100
AcDbEntity
  8
A4
  6
CENTER
 62
1
100
AcDbLine
 10
128.9307189138684
 20
141.1999999999798
 30
0.000000000000000
 11
128.9307189138647
 21
144.9999999999798
 31
0.000000000000000
  0
LINE
  5
EA
100
AcDbEntity
  8
A4
  6
CENTER
 62
1
100
AcDbLine
 10
143.8307189138716
 20
135.9999999999799
 30
0.000000000000000
 11
143.8307189138628
 21
144.9999999999798
 31
0.000000000000000
  0
LINE
  5
EB
100
AcDbEntity
  8
A4
  6
CENTER
 62
1
100
AcDbLine
 10
158.7307189138685
 20
141.1999999999798
 30
0.000000000000000
 11
158.7307189138647
 21
144.9999999999798
 31
0.000000000000000
  0
ARC
  5
EC
100
AcDbEntity
  8
A1
  6
CONTINUOUS
 62
7
100
AcDbCircle
 10
133.8307189138692
 20
138.2999999999799
 30
0.000000000000000
 40
0.8000000000000114
100
AcDbArc
 50
194.9164427087711
 51
270.0000000000000
  0
ARC
  5
ED
100
AcDbEntity
  8
A1
  6
CONTINUOUS
 62
7
100
AcDbCircle
 10
153.8307189138692
 20
138.2999999999799
 30
0.000000000000000
 40
0.7999999999999972
100
AcDbArc
 50
270.0000000000000
 51
345.0835572911580
  0
ARC
  5
EE
100
AcDbEntity
  8
A1
  6
CONTINUOUS
 62
7
100
AcDbCircle
 10
155.8307189138723
 20
142.6999999999799
 30
0.000000000000000
 40
0.7999999999999829
100
AcDbArc
 50
90.00000000000000
 51
165.0835572911577
  0
ARC
  5
EF
100
AcDbEntity
  8
A1
  6
CONTINUOUS
 62
7
100
AcDbCircle
 10
131.8307189138723
 20
142.6999999999799
 30
0.000000000000000
 40
0.7999999999999972
100
AcDbArc
 50
14.91644270877042
 51
90.00000000000000
  0
LINE
  5
F0
100
AcDbEntity
  8
A1
  6
CONTINUOUS
 62
7
100
AcDbLine
 10
125.3307189138823
 20
142.6999999999799
 30
0.000000000000000
 11
131.8307189138723
 21
142.6999999999799
 31
0.000000000000000
  0
LINE
  5
F1
100
AcDbEntity
  8
A1
  6
CONTINUOUS
 62
7
100
AcDbLine
 10
155.8307189138723
 20
142.6999999999799
 30
0.000000000000000
 11
162.3307189138965
 21
142.6999999999799
 31
0.000000000000000
  0
LINE
  5
F2
100
AcDbEntity
  8
A1
  6
CONTINUOUS
 62
7
100
AcDbLine
 10
131.8307189138724
 20
142.6999999999799
 30
0.000000000000000
 11
133.0576771156996
 21
138.0940719099033
 31
0.000000000000000
  0
LINE
  5
F3
100
AcDbEntity
  8
A1
  6
CONTINUOUS
 62
7
100
AcDbLine
 10
155.8307189138723
 20
142.6999999999798
 30
0.000000000000000
 11
154.6037607120387
 21
138.0940719099023
 31
0.000000000000000
  0
LINE
  5
F4
100
AcDbEntity
  8
A1
  6
CONTINUOUS
 62
7
100
AcDbLine
 10
138.7092432809449
 20
140.4999999999798
 30
0.000000000000000
 11
148.9521945468090
 21
140.4999999999798
 31
0.000000000000000
  0
LINE
  5
F5
100
AcDbEntity
  8
A1
  6
CONTINUOUS
 62
7
100
AcDbLine
 10
154.0453698251205
 20
139.1057867498591
 30
0.000000000000000
 11
155.0576771157029
 21
142.9059280900574
 31
0.000000000000000
  0
LINE
  5
F6
100
AcDbEntity
  8
A1
  6
CONTINUOUS
 62
7
100
AcDbLine
 10
132.6037607120421
 20
142.9059280900565
 30
0.000000000000000
 11
133.6160680026234
 21
139.1057867498431
 31
0.000000000000000
  0
ARC
  5
F7
100
AcDbEntity
  8
A1
  6
CONTINUOUS
 62
7
100
AcDbCircle
 10
148.9521945468090
 20
130.4999999999798
 30
0.000000000000000
 40
10.00000000000000
100
AcDbArc
 50
59.38161869923797
 51
90.00000000000000
  0
ARC
  5
F8
100
AcDbEntity
  8
A1
  6
CONTINUOUS
 62
7
100
AcDbCircle
 10
138.7092432809449
 20
130.4999999999698
 30
0.000000000000000
 40
10.00000000000000
100
AcDbArc
 50
90.00000000011192
 51
120.6183813008291
  0
LINE
  5
F9
100
AcDbEntity
  8
A1
  6
CONTINUOUS
 62
7
100
AcDbLine
 10
407.1614378277489
 20
89.49999999994179
 30
0.000000000000000
 11
374.1614378277417
 21
89.49999999994179
 31
0.000000000000000
  0
LINE
  5
FA
100
AcDbEntity
  8
A1
  6
CONTINUOUS
 62
7
100
AcDbLine
 10
407.1614378277489
 20
78.49999999994179
 30
0.000000000000000
 11
374.1614378277489
 21
78.49999999994179
 31
0.000000000000000
  0
LINE
  5
FB
100
AcDbEntity
  8
A1
  6
CONTINUOUS
 62
7
100
AcDbLine
 10
409.1614378277489
 20
80.49999999994179
 30
0.000000000000000
 11
409.1614378277489
 21
87.49999999994179
 31
0.000000000000000
  0
LINE
  5
FC
100
AcDbEntity
  8
A1
  6
CONTINUOUS
 62
7
100
AcDbLine
 10
372.1614378277476
 20
80.49999999994178
 30
0.000000000000000
 11
372.1614378277430
 21
87.49999999994175
 31
0.000000000000000
  0
LINE
  5
FD
100
AcDbEntity
  8
A1
  6
CONTINUOUS
 62
7
100
AcDbLine
 10
374.1614378277418
 20
89.49999999994179
 30
0.000000000000000
 11
372.1614378277432
 21
87.49999999994185
 31
0.000000000000000
  0
LINE
  5
FE
100
AcDbEntity
  8
A1
  6
CONTINUOUS
 62
7
100
AcDbLine
 10
372.1614378277477
 20
80.49999999994179
 30
0.000000000000000
 11
374.1614378277490
 21
78.49999999994182
 31
0.000000000000000
  0
LINE
  5
FF
100
AcDbEntity
  8
A1
  6
CONTINUOUS
 62
7
100
AcDbLine
 10
407.1614378277488
 20
78.49999999994179
 30
0.000000000000000
 11
409.1614378277488
 21
80.49999999994179
 31
0.000000000000000
  0
LINE
  5
100
100
AcDbEntity
  8
A1
  6
CONTINUOUS
 62
7
100
AcDbLine
 10
409.1614378277488
 20
87.49999999994185
 30
0.000000000000000
 11
407.1614378277488
 21
89.49999999994188
 31
0.000000000000000
  0
CIRCLE
  5
101
100
AcDbEntity
  8
A1
  6
CONTINUOUS
 62
7
100
AcDbCircle
 10
405.5614378277489
 20
83.99999999994179
 30
0.000000000000000
 40
1.600000000000000
  0
CIRCLE
  5
102
100
AcDbEntity
  8
A1
  6
CONTINUOUS
 62
7
100
AcDbCircle
 10
375.7614378277489
 20
83.99999999994179
 30
0.000000000000000
 40
1.600000000000000
  0
LINE
  5
103
100
AcDbEntity
  8
A1
  6
CONTINUOUS
 62
7
100
AcDbLine
 10
380.6614378277430
 20
84.99999999994182
 30
0.000000000000000
 11
380.6614378277430
 21
88.69999999994178
 31
0.000000000000000
  0
LINE
  5
104
100
AcDbEntity
  8
A1
  6
CONTINUOUS
 62
7
100
AcDbLine
 10
379.2762267422187
 20
83.30332858492716
 30
0.000000000000000
 11
379.2762267422187
 21
88.69999999994178
 31
0.000000000000000
  0
LINE
  5
105
100
AcDbEntity
  8
A1
  6
CONTINUOUS
 62
7
100
AcDbLine
 10
400.6614378277430
 20
84.99999999994182
 30
0.000000000000000
 11
400.6614378277430
 21
88.69999999994178
 31
0.000000000000000
  0
LINE
  5
106
100
AcDbEntity
  8
A1
  6
CONTINUOUS
 62
7
100
AcDbLine
 10
400.8760887389917
 20
88.69999999994178
 30
0.000000000000000
 11
380.4467869164918
 21
88.69999999994178
 31
0.000000000000000
  0
LINE
  5
107
100
AcDbEntity
  8
A1
  6
CONTINUOUS
 62
7
100
AcDbLine
 10
380.4467869164916
 20
89.49999999994175
 30
0.000000000000000
 11
380.4467869164917
 21
88.69999999993261
 31
0.000000000000000
  0
LINE
  5
108
100
AcDbEntity
  8
A1
  6
CONTINUOUS
 62
7
100
AcDbLine
 10
400.8760887389914
 20
89.49999999994182
 30
0.000000000000000
 11
400.8760887389917
 21
88.69999999996176
 31
0.000000000000000
  0
LINE
  5
109
100
AcDbEntity
  8
A1
  6
CONTINUOUS
 62
7
100
AcDbLine
 10
380.0762267422187
 20
82.50332858492717
 30
0.000000000000000
 11
389.8614378277488
 21
82.50332858492717
 31
0.000000000000000
  0
LINE
  5
10A
100
AcDbEntity
  8
A1
  6
CONTINUOUS
 62
7
100
AcDbLine
 10
400.6614378277430
 20
84.99999999994182
 30
0.000000000000000
 11
380.6614378277430
 21
84.99999999994182
 31
0.000000000000000
  0
LINE
  5
10B
100
AcDbEntity
  8
A1
  6
CONTINUOUS
 62
7
100
AcDbLine
 10
402.0466489132791
 20
83.30332858492716
 30
0.000000000000000
 11
402.0466489132791
 21
88.69999999994178
 31
0.000000000000000
  0
LINE
  5
10C
100
AcDbEntity
  8
A1
  6
CONTINUOUS
 62
7
100
AcDbLine
 10
401.2466489132791
 20
82.50332858492717
 30
0.000000000000000
 11
391.4614378277490
 21
82.50332858492717
 31
0.000000000000000
  0
ARC
  5
10D
100
AcDbEntity
  8
A1
  6
CONTINUOUS
 62
7
100
AcDbCircle
 10
380.0762267422187
 20
83.30332858492716
 30
0.000000000000000
 40
0.8000000000000000
100
AcDbArc
 50
180.0000000000000
 51
270.0000000000000
  0
ARC
  5
10E
100
AcDbEntity
  8
A1
  6
CONTINUOUS
 62
7
100
AcDbCircle
 10
401.2466489132791
 20
83.30332858492716
 30
0.000000000000000
 40
0.8000000000000000
100
AcDbArc
 50
270.0000000000000
 51
360.0000000000000
  0
LINE
  5
10F
100
AcDbEntity
  8
A4
  6
CENTER
 62
1
100
AcDbLine
 10
405.5614378277489
 20
87.09999999994176
 30
0.000000000000000
 11
405.5614378277489
 21
80.89999999994177
 31
0.000000000000000
  0
LINE
  5
110
100
AcDbEntity
  8
A4
  6
CENTER
 62
1
100
AcDbLine
 10
390.6614378277463
 20
76.99999999994428
 30
0.000000000000000
 11
390.6614378277551
 21
90.99999999994445
 31
0.000000000000000
  0
LINE
  5
111
100
AcDbEntity
  8
A4
  6
CENTER
 62
1
100
AcDbLine
 10
375.7614378277488
 20
87.09999999994176
 30
0.000000000000000
 11
375.7614378277488
 21
80.89999999994177
 31
0.000000000000000
  0
LINE
  5
112
100
AcDbEntity
  8
A4
  6
CENTER
 62
1
100
AcDbLine
 10
378.8614378277488
 20
83.99999999994176
 30
0.000000000000000
 11
372.6614378277488
 21
83.99999999994176
 31
0.000000000000000
  0
LINE
  5
113
100
AcDbEntity
  8
A1
  6
CONTINUOUS
 62
7
100
AcDbLine
 10
51.79999999999927
 20
132.4999999999799
 30
0.000000000000000
 11
91.69999999999925
 21
132.4999999999799
 31
0.000000000000000
  0
LINE
  5
114
100
AcDbEntity
  8
A1
  6
CONTINUOUS
 62
7
100
AcDbLine
 10
92.49999999999932
 20
133.2999999999799
 30
0.000000000000000
 11
92.49999999999932
 21
141.9999999999799
 31
0.000000000000000
  0
LINE
  5
115
100
AcDbEntity
  8
A1
  6
CONTINUOUS
 62
7
100
AcDbLine
 10
50.99999999999920
 20
141.9999999999799
 30
0.000000000000000
 11
50.99999999999920
 21
133.2999999999799
 31
0.000000000000000
  0
LINE
  5
116
100
AcDbEntity
  8
A1
  6
CONTINUOUS
 62
7
100
AcDbLine
 10
63.74999999999920
 20
143.6786073189092
 30
0.000000000000000
 11
79.74999999999932
 21
143.6786073189092
 31
0.000000000000000
  0
LINE
  5
117
100
AcDbEntity
  8
A1
  6
CONTINUOUS
 62
7
100
AcDbLine
 10
80.74999999999932
 20
141.9999999999800
 30
0.000000000000000
 11
79.74999999999932
 21
143.6786073189093
 31
0.000000000000000
  0
LINE
  5
118
100
AcDbEntity
  8
A1
  6
CONTINUOUS
 62
7
100
AcDbLine
 10
62.74999999999932
 20
141.9999999999799
 30
0.000000000000000
 11
63.74999999999930
 21
143.6786073189091
 31
0.000000000000000
  0
LINE
  5
119
100
AcDbEntity
  8
A1
  6
CONTINUOUS
 62
7
100
AcDbLine
 10
62.74999999999920
 20
141.9999999999799
 30
0.000000000000000
 11
50.99999999999920
 21
141.9999999999799
 31
0.000000000000000
  0
LINE
  5
11A
100
AcDbEntity
  8
A1
  6
CONTINUOUS
 62
7
100
AcDbLine
 10
92.49999999999932
 20
141.9999999999799
 30
0.000000000000000
 11
80.74999999999932
 21
141.9999999999799
 31
0.000000000000000
  0
ARC
  5
11B
100
AcDbEntity
  8
A1
  6
CONTINUOUS
 62
7
100
AcDbCircle
 10
91.69999999999925
 20
133.2999999999799
 30
0.000000000000000
 40
0.8000000000000000
100
AcDbArc
 50
270.0000000000000
 51
360.0000000000000
  0
ARC
  5
11C
100
AcDbEntity
  8
A1
  6
CONTINUOUS
 62
7
100
AcDbCircle
 10
51.79999999999927
 20
133.2999999999799
 30
0.000000000000000
 40
0.8000000000000000
100
AcDbArc
 50
180.0000000000000
 51
270.0000000000000
  0
LINE
  5
11D
100
AcDbEntity
  8
A1
  6
CONTINUOUS
 62
7
100
AcDbLine
 10
53.49999999999613
 20
141.9999999999799
 30
0.000000000000000
 11
53.49999999999613
 21
143.4999999999799
 31
0.000000000000000
  0
LINE
  5
11E
100
AcDbEntity
  8
A4
  6
CENTER
 62
1
100
AcDbLine
 10
86.64999999999804
 20
141.1999999999799
 30
0.000000000000000
 11
86.64999999999804
 21
144.9999999999799
 31
0.000000000000000
  0
LINE
  5
11F
100
AcDbEntity
  8
A1
  6
CONTINUOUS
 62
7
100
AcDbLine
 10
90.00000000000216
 20
141.9999999999799
 30
0.000000000000000
 11
90.00000000000216
 21
143.4999999999798
 31
0.000000000000000
  0
LINE
  5
120
100
AcDbEntity
  8
A1
  6
CONTINUOUS
 62
7
100
AcDbLine
 10
53.49999999999613
 20
143.4999999999799
 30
0.000000000000000
 11
63.64359791482116
 21
143.4999999999799
 31
0.000000000000000
  0
LINE
  5
121
100
AcDbEntity
  8
A1
  6
CONTINUOUS
 62
7
100
AcDbLine
 10
79.85640208517736
 20
143.4999999999799
 30
0.000000000000000
 11
89.99999999999613
 21
143.4999999999799
 31
0.000000000000000
  0
LINE
  5
122
100
AcDbEntity
  8
A4
  6
CENTER
 62
1
100
AcDbLine
 10
71.74999999999932
 20
130.9999999999799
 30
0.000000000000000
 11
71.74999999999932
 21
144.9999999999799
 31
0.000000000000000
  0
LINE
  5
123
100
AcDbEntity
  8
A4
  6
CENTER
 62
1
100
AcDbLine
 10
56.85000000000036
 20
141.1999999999799
 30
0.000000000000000
 11
56.85000000000036
 21
144.9999999999799
 31
0.000000000000000
  0
ARC
  5
124
100
AcDbEntity
  8
A1
  6
CONTINUOUS
 62
7
100
AcDbCircle
 10
52.46562456325410
 20
138.9999999999799
 30
0.000000000000000
 40
2.500000000000085
100
AcDbArc
 50
126.8698976458450
 51
233.1301023541550
  0
LINE
  5
125
100
AcDbEntity
  8
A1
  6
CONTINUOUS
 62
7
100
AcDbLine
 10
92.79634347713717
 20
140.4999999999799
 30
0.000000000000000
 11
92.79634347713717
 21
137.4999999999799
 31
0.000000000000000
  0
LINE
  5
126
100
AcDbEntity
  8
A1
  6
CONTINUOUS
 62
7
100
AcDbLine
 10
92.79634347713719
 20
137.4999999999800
 30
0.000000000000000
 11
92.46562456325417
 21
137.8749999999800
 31
0.000000000000000
  0
LINE
  5
127
100
AcDbEntity
  8
A1
  6
CONTINUOUS
 62
7
100
AcDbLine
 10
92.79634347713717
 20
140.4999999999800
 30
0.000000000000000
 11
92.46562456325412
 21
140.1249999999799
 31
0.000000000000000
  0
LINE
  5
128
100
AcDbEntity
  8
A4
  6
CENTER
 62
1
100
AcDbLine
 10
48.46562456325410
 20
138.9999999999799
 30
0.000000000000000
 11
94.29634347713716
 21
138.9999999999799
 31
0.000000000000000
  0
LINE
  5
129
100
AcDbEntity
  8
A4
  6
CENTER
 62
1
100
AcDbLine
 10
48.49999999999921
 20
62.99999999997356
 30
0.000000000000000
 11
94.33071891388228
 21
62.99999999997357
 31
0.000000000000000
  0
LINE
  5
12A
100
AcDbEntity
  8
A1
  6
CONTINUOUS
 62
7
100
AcDbLine
 10
297.1614378277468
 20
87.19999999993487
 30
0.000000000000000
 11
297.1614378277468
 21
59.99999999992856
 31
0.000000000000000
  0
LINE
  5
12B
100
AcDbEntity
  8
A1
  6
CONTINUOUS
 62
7
100
AcDbLine
 10
338.6614378277468
 20
87.19999999993487
 30
0.000000000000000
 11
338.6614378277468
 21
59.99999999992856
 31
0.000000000000000
  0
LINE
  5
12C
100
AcDbEntity
  8
A1
  6
CONTINUOUS
 62
7
100
AcDbLine
 10
299.9614378277467
 20
89.99999999993489
 30
0.000000000000000
 11
335.8614378277467
 21
89.99999999993489
 31
0.000000000000000
  0
LINE
  5
12D
100
AcDbEntity
  8
A1
  6
CONTINUOUS
 62
7
100
AcDbLine
 10
337.8614378277467
 20
87.19999999993487
 30
0.000000000000000
 11
337.8614378277467
 21
59.99999999992856
 31
0.000000000000000
  0
LINE
  5
12E
100
AcDbEntity
  8
A1
  6
CONTINUOUS
 62
7
100
AcDbLine
 10
297.9614378277467
 20
87.19999999993487
 30
0.000000000000000
 11
297.9614378277467
 21
59.99999999992856
 31
0.000000000000000
  0
LINE
  5
12F
100
AcDbEntity
  8
A1
  6
CONTINUOUS
 62
7
100
AcDbLine
 10
337.8614378277467
 20
59.99999999992856
 30
0.000000000000000
 11
338.6614378277468
 21
59.99999999992856
 31
0.000000000000000
  0
LINE
  5
130
100
AcDbEntity
  8
A1
  6
CONTINUOUS
 62
7
100
AcDbLine
 10
297.1614378277468
 20
59.99999999992856
 30
0.000000000000000
 11
297.9614378277467
 21
59.99999999992856
 31
0.000000000000000
  0
ARC
  5
131
100
AcDbEntity
  8
A1
  6
CONTINUOUS
 62
7
100
AcDbCircle
 10
335.8614378277467
 20
87.19999999993487
 30
0.000000000000000
 40
2.800000000000000
100
AcDbArc
 50
0.000000000000000
 51
90.00000000000000
  0
ARC
  5
132
100
AcDbEntity
  8
A1
  6
CONTINUOUS
 62
7
100
AcDbCircle
 10
299.9614378277467
 20
87.19999999993487
 30
0.000000000000000
 40
2.800000000000000
100
AcDbArc
 50
90.00000000000000
 51
180.0000000000000
  0
ARC
  5
133
100
AcDbEntity
  8
A1
  6
CONTINUOUS
 62
7
100
AcDbCircle
 10
335.8614378277467
 20
87.19999999993487
 30
0.000000000000000
 40
1.999999999999988
100
AcDbArc
 50
0.000000000000000
 51
90.00000000000000
  0
ARC
  5
134
100
AcDbEntity
  8
A1
  6
CONTINUOUS
 62
7
100
AcDbCircle
 10
299.9614378277467
 20
87.19999999993487
 30
0.000000000000000
 40
2.000000000000017
100
AcDbArc
 50
90.00000000000000
 51
180.0000000000000
  0
LINE
  5
135
100
AcDbEntity
  8
A1
  6
CONTINUOUS
 62
7
100
AcDbLine
 10
311.4835168047797
 20
86.02631484399882
 30
0.000000000000000
 11
324.3393588507138
 21
86.02631484399882
 31
0.000000000000000
  0
LINE
  5
136
100
AcDbEntity
  8
A1
  6
CONTINUOUS
 62
7
100
AcDbLine
 10
311.4835168047797
 20
85.81925960791682
 30
0.000000000000000
 11
324.3393588507138
 21
85.81925960791682
 31
0.000000000000000
  0
LINE
  5
137
100
AcDbEntity
  8
A1
  6
CONTINUOUS
 62
7
100
AcDbLine
 10
309.5401090375709
 20
87.50185854549194
 30
0.000000000000000
 11
309.0971022228377
 21
89.26222814917566
 31
0.000000000000000
  0
ELLIPSE
  5
138
100
AcDbEntity
  8
A1
  6
CONTINUOUS
 62
7
100
AcDbEllipse
 10
311.4835168047797
 20
87.95816649657695
 30
0.000000000000000
 11
-1.999999999999993
 21
0.000000000000000
 31
0.000000000000000
210
0.000000000000000
220
0.000000000000000
230
1.000000000000000
 40
0.9659258262890694
 41
0.2384557720381981
 42
1.570796326794897
  0
ELLIPSE
  5
139
100
AcDbEntity
  8
A1
  6
CONTINUOUS
 62
7
100
AcDbEllipse
 10
311.4835168047797
 20
87.75111126049495
 30
0.000000000000000
 11
-1.999999999999993
 21
0.000000000000000
 31
0.000000000000000
210
0.000000000000000
220
0.000000000000000
230
1.000000000000000
 40
0.9659258262890694
 41
0.3063290812751873
 42
1.570796326794897
  0
LINE
  5
13A
100
AcDbEntity
  8
A1
  6
CONTINUOUS
 62
7
100
AcDbLine
 10
309.5766228124113
 20
87.16854082095648
 30
0.000000000000000
 11
309.1323434733794
 21
88.52535939340530
 31
0.000000000000000
  0
LINE
  5
13B
100
AcDbEntity
  8
A1
  6
CONTINUOUS
 62
7
100
AcDbLine
 10
299.9614378277467
 20
89.19999999993487
 30
0.000000000000000
 11
308.1788964771972
 21
89.19999999993487
 31
0.000000000000000
  0
LINE
  5
13C
100
AcDbEntity
  8
A1
  6
CONTINUOUS
 62
7
100
AcDbLine
 10
327.6439791782963
 20
89.19999999993487
 30
0.000000000000000
 11
335.8614378277467
 21
89.19999999993487
 31
0.000000000000000
  0
ELLIPSE
  5
13D
100
AcDbEntity
  8
A1
  6
CONTINUOUS
 62
7
100
AcDbEllipse
 10
308.1253983392361
 20
89.03407417362305
 30
0.000000000000000
 11
-0.9999999999999929
 21
0.000000000000000
 31
0.000000000000000
210
0.000000000000000
220
0.000000000000000
230
1.000000000000000
 40
0.9659258263118387
 41
3.380048425633391
 42
4.712388980384690
  0
ELLIPSE
  5
13E
100
AcDbEntity
  8
A1
  6
CONTINUOUS
 62
7
100
AcDbEllipse
 10
308.1788964771972
 20
88.23407417362301
 30
0.000000000000000
 11
-0.9999999999999929
 21
0.000000000000000
 31
0.000000000000000
210
0.000000000000000
220
0.000000000000000
230
1.000000000000000
 40
0.9659258263118387
 41
3.447921734871661
 42
4.712388980384690
  0
ELLIPSE
  5
13F
100
AcDbEntity
  8
A1
  6
CONTINUOUS
 62
7
100
AcDbEllipse
 10
324.3393588507138
 20
87.75111126049495
 30
0.000000000000000
 11
1.999999999999993
 21
0.000000000000000
 31
0.000000000000000
210
0.000000000000000
220
0.000000000000000
230
1.000000000000000
 40
0.9659258262890694
 41
4.712388980384690
 42
5.976856225904399
  0
ELLIPSE
  5
140
100
AcDbEntity
  8
A1
  6
CONTINUOUS
 62
7
100
AcDbEllipse
 10
324.3393588507138
 20
87.95816649657695
 30
0.000000000000000
 11
1.999999999999993
 21
0.000000000000000
 31
0.000000000000000
210
0.000000000000000
220
0.000000000000000
230
1.000000000000000
 40
0.9659258262890694
 41
4.712388980384690
 42
6.044729535141388
  0
LINE
  5
141
100
AcDbEntity
  8
A1
  6
CONTINUOUS
 62
7
100
AcDbLine
 10
326.2827666179225
 20
87.50185854549191
 30
0.000000000000000
 11
326.7257734326557
 21
89.26222814917564
 31
0.000000000000000
  0
LINE
  5
142
100
AcDbEntity
  8
A1
  6
CONTINUOUS
 62
7
100
AcDbLine
 10
326.2462528430824
 20
87.16854082095657
 30
0.000000000000000
 11
326.6905321821142
 21
88.52535939340535
 31
0.000000000000000
  0
ELLIPSE
  5
143
100
AcDbEntity
  8
A1
  6
CONTINUOUS
 62
7
100
AcDbEllipse
 10
327.6439791782963
 20
88.23407417362301
 30
0.000000000000000
 11
0.9999999999999929
 21
0.000000000000000
 31
0.000000000000000
210
0.000000000000000
220
0.000000000000000
230
1.000000000000000
 40
0.9659258263118387
 41
1.570796326794897
 42
2.835263572307925
  0
ELLIPSE
  5
144
100
AcDbEntity
  8
A1
  6
CONTINUOUS
 62
7
100
AcDbEllipse
 10
327.6974773162574
 20
89.03407417362305
 30
0.000000000000000
 11
0.9999999999999929
 21
0.000000000000000
 31
0.000000000000000
210
0.000000000000000
220
0.000000000000000
230
1.000000000000000
 40
0.9659258263118387
 41
1.570796326794897
 42
2.903136881546196
  0
LINE
  5
145
100
AcDbEntity
  8
A1
  6
CONTINUOUS
 62
7
100
AcDbLine
 10
336.1614378277563
 20
55.49999999994176
 30
0.000000000000000
 11
299.6614378277563
 21
55.49999999994176
 31
0.000000000000000
  0
LINE
  5
146
100
AcDbEntity
  8
A1
  6
CONTINUOUS
 62
7
100
AcDbLine
 10
336.1614378277563
 20
78.49999999994176
 30
0.000000000000000
 11
299.6614378277563
 21
78.49999999994176
 31
0.000000000000000
  0
LINE
  5
147
100
AcDbEntity
  8
A1
  6
CONTINUOUS
 62
7
100
AcDbLine
 10
336.1614378277564
 20
55.49999999994176
 30
0.000000000000000
 11
336.1614378277496
 21
78.49999999995360
 31
0.000000000000000
  0
LINE
  5
148
100
AcDbEntity
  8
A1
  6
CONTINUOUS
 62
7
100
AcDbLine
 10
299.6614378277563
 20
78.49999999994175
 30
0.000000000000000
 11
299.6614378277563
 21
55.49999999994178
 31
0.000000000000000
  0
CIRCLE
  5
149
100
AcDbEntity
  8
A1
  6
CONTINUOUS
 62
7
100
AcDbCircle
 10
303.0114378277544
 20
61.99999999994176
 30
0.000000000000000
 40
1.600000000000000
  0
CIRCLE
  5
14A
100
AcDbEntity
  8
A1
  6
CONTINUOUS
 62
7
100
AcDbCircle
 10
332.8114378277545
 20
61.99999999994176
 30
0.000000000000000
 40
1.600000000000000
  0
LINE
  5
14B
100
AcDbEntity
  8
A1
  6
CONTINUOUS
 62
7
100
AcDbLine
 10
335.3614378277505
 20
75.51925915030716
 30
0.000000000000000
 11
318.7114378277505
 21
75.51925915030716
 31
0.000000000000000
  0
LINE
  5
14C
100
AcDbEntity
  8
A1
  6
CONTINUOUS
 62
7
100
AcDbLine
 10
317.1114378277506
 20
75.51925915030716
 30
0.000000000000000
 11
300.4614378277565
 21
75.51925915030716
 31
0.000000000000000
  0
LINE
  5
14D
100
AcDbEntity
  8
A1
  6
CONTINUOUS
 62
7
100
AcDbLine
 10
311.4114378277548
 20
60.99999999994748
 30
0.000000000000000
 11
311.4114378277533
 21
65.99999999994844
 31
0.000000000000000
  0
LINE
  5
14E
100
AcDbEntity
  8
A1
  6
CONTINUOUS
 62
7
100
AcDbLine
 10
324.4114378277548
 20
60.99999999995241
 30
0.000000000000000
 11
324.4114378277533
 21
65.99999999995360
 31
0.000000000000000
  0
LINE
  5
14F
100
AcDbEntity
  8
A1
  6
CONTINUOUS
 62
7
100
AcDbLine
 10
310.3381044944202
 20
65.99999999994800
 30
0.000000000000000
 11
325.4847711610864
 21
65.99999999995403
 31
0.000000000000000
  0
LINE
  5
150
100
AcDbEntity
  8
A1
  6
CONTINUOUS
 62
7
100
AcDbLine
 10
312.4114378277552
 20
59.99999999994776
 30
0.000000000000000
 11
323.4114378277552
 21
59.99999999995214
 31
0.000000000000000
  0
ARC
  5
151
100
AcDbEntity
  8
A1
  6
CONTINUOUS
 62
7
100
AcDbCircle
 10
312.4114378277548
 20
60.99999999994775
 30
0.000000000000000
 40
1.000000000000000
100
AcDbArc
 50
180.0000000000000
 51
270.0000000000000
  0
ARC
  5
152
100
AcDbEntity
  8
A1
  6
CONTINUOUS
 62
7
100
AcDbCircle
 10
323.4114378277548
 20
60.99999999995213
 30
0.000000000000000
 40
1.000000000000000
100
AcDbArc
 50
270.0000000000000
 51
360.0000000000000
  0
LINE
  5
153
100
AcDbEntity
  8
A1
  6
CONTINUOUS
 62
7
100
AcDbLine
 10
336.1614378277563
 20
76.49999999994176
 30
0.000000000000000
 11
299.6614378277563
 21
76.49999999994176
 31
0.000000000000000
  0
LINE
  5
154
100
AcDbEntity
  8
A1
  6
CONTINUOUS
 62
7
100
AcDbLine
 10
325.4847711610881
 20
60.39333333328960
 30
0.000000000000000
 11
325.4847711610865
 21
65.99999999995393
 31
0.000000000000000
  0
ARC
  5
155
100
AcDbEntity
  8
A1
  6
CONTINUOUS
 62
7
100
AcDbCircle
 10
323.4114378277550
 20
60.39333333328960
 30
0.000000000000000
 40
2.073333333333125
100
AcDbArc
 50
270.0000000000000
 51
360.0000000000000
  0
ARC
  5
156
100
AcDbEntity
  8
A1
  6
CONTINUOUS
 62
7
100
AcDbCircle
 10
312.4114378277550
 20
60.39333333328639
 30
0.000000000000000
 40
2.073333333333125
100
AcDbArc
 50
180.0000000000335
 51
270.0000000000334
  0
LINE
  5
157
100
AcDbEntity
  8
A1
  6
CONTINUOUS
 62
7
100
AcDbLine
 10
310.3381044944218
 20
60.39333333328579
 30
0.000000000000000
 11
310.3381044944202
 21
65.99999999994949
 31
0.000000000000000
  0
LINE
  5
158
100
AcDbEntity
  8
A1
  6
CONTINUOUS
 62
7
100
AcDbLine
 10
312.4114378277558
 20
58.31999999995123
 30
0.000000000000000
 11
317.1114378277555
 21
58.31999999995310
 31
0.000000000000000
  0
LINE
  5
159
100
AcDbEntity
  8
A1
  6
CONTINUOUS
 62
7
100
AcDbLine
 10
318.7114378277556
 20
58.31999999995373
 30
0.000000000000000
 11
323.4114378277557
 21
58.31999999995561
 31
0.000000000000000
  0
CIRCLE
  5
15A
100
AcDbEntity
  8
A1
  6
CONTINUOUS
 62
7
100
AcDbCircle
 10
317.9114378277542
 20
62.99999999994369
 30
0.000000000000000
 40
1.600000000000000
  0
CIRCLE
  5
15B
100
AcDbEntity
  8
A1
  6
CONTINUOUS
 62
7
100
AcDbCircle
 10
317.9114378277542
 20
62.99999999994369
 30
0.000000000000000
 40
0.8000000000000000
  0
LINE
  5
15C
100
AcDbEntity
  8
A1
  6
CONTINUOUS
 62
7
100
AcDbLine
 10
323.4114378277554
 20
61.99999999994260
 30
0.000000000000000
 11
323.4114378277575
 21
65.99999999995318
 31
0.000000000000000
  0
LINE
  5
15D
100
AcDbEntity
  8
A1
  6
CONTINUOUS
 62
7
100
AcDbLine
 10
312.4114378277513
 20
61.99999999994476
 30
0.000000000000000
 11
312.4114378277534
 21
65.99999999994880
 31
0.000000000000000
  0
ARC
  5
15E
100
AcDbEntity
  8
A1
  6
CONTINUOUS
 62
7
100
AcDbCircle
 10
314.4114378277512
 20
61.99999999994369
 30
0.000000000000000
 40
2.000000000000000
100
AcDbArc
 50
180.0000000000000
 51
270.0000000000000
  0
ARC
  5
15F
100
AcDbEntity
  8
A1
  6
CONTINUOUS
 62
7
100
AcDbCircle
 10
321.4114378277552
 20
61.99999999994369
 30
0.000000000000000
 40
2.000000000000000
100
AcDbArc
 50
270.0000000000000
 51
360.0000000000000
  0
LINE
  5
160
100
AcDbEntity
  8
A1
  6
CONTINUOUS
 62
7
100
AcDbLine
 10
336.3614378277607
 20
49.99999999996754
 30
0.000000000000000
 11
299.4614378277465
 21
49.99999999996754
 31
0.000000000000000
  0
LINE
  5
161
100
AcDbEntity
  8
A1
  6
CONTINUOUS
 62
7
100
AcDbLine
 10
337.1614378277551
 20
72.99999999996754
 30
0.000000000000000
 11
337.1614378277606
 21
50.79999999996774
 31
0.000000000000000
  0
LINE
  5
162
100
AcDbEntity
  8
A1
  6
CONTINUOUS
 62
7
100
AcDbLine
 10
298.6614378277552
 20
72.99999999996756
 30
0.000000000000000
 11
298.6614378277466
 21
50.79999999996787
 31
0.000000000000000
  0
ARC
  5
163
100
AcDbEntity
  8
A1
  6
CONTINUOUS
 62
7
100
AcDbCircle
 10
336.3614378277607
 20
50.79999999996754
 30
0.000000000000000
 40
0.8000000000000000
100
AcDbArc
 50
270.0000000000000
 51
360.0000000000000
  0
ARC
  5
164
100
AcDbEntity
  8
A1
  6
CONTINUOUS
 62
7
100
AcDbCircle
 10
299.4614378277465
 20
50.79999999996754
 30
0.000000000000000
 40
0.8000000000000000
100
AcDbArc
 50
180.0000000000000
 51
270.0000000000000
  0
LINE
  5
165
100
AcDbEntity
  8
A1
  6
CONTINUOUS
 62
7
100
AcDbLine
 10
337.1614378277552
 20
72.99999999996754
 30
0.000000000000000
 11
336.1614378277513
 21
72.99999999996754
 31
0.000000000000000
  0
LINE
  5
166
100
AcDbEntity
  8
A1
  6
CONTINUOUS
 62
7
100
AcDbLine
 10
299.6614378277563
 20
72.99999999996754
 30
0.000000000000000
 11
298.6614378277552
 21
72.99999999996754
 31
0.000000000000000
  0
LINE
  5
167
100
AcDbEntity
  8
A1
  6
CONTINUOUS
 62
7
100
AcDbLine
 10
299.4614378277552
 20
72.99999999996723
 30
0.000000000000000
 11
299.4614378277463
 21
49.99999999996753
 31
0.000000000000000
  0
LINE
  5
168
100
AcDbEntity
  8
A1
  6
CONTINUOUS
 62
7
100
AcDbLine
 10
336.3614378277551
 20
72.99999999996736
 30
0.000000000000000
 11
336.3614378277608
 21
49.99999999996753
 31
0.000000000000000
  0
LINE
  5
169
100
AcDbEntity
  8
A1
  6
CONTINUOUS
 62
7
100
AcDbLine
 10
336.3614378277607
 20
53.55771644657698
 30
0.000000000000000
 11
299.4614378277465
 21
53.55771644657698
 31
0.000000000000000
  0
ARC
  5
16A
100
AcDbEntity
  8
A1
  6
CONTINUOUS
 62
7
100
AcDbCircle
 10
336.1614378277513
 20
57.99999999993814
 30
0.000000000000000
 40
1.799999999999997
100
AcDbArc
 50
303.7489885959478
 51
416.2510114041704
  0
LINE
  5
16B
100
AcDbEntity
  8
A1
  6
CONTINUOUS
 62
7
100
AcDbLine
 10
299.4614378277486
 20
55.99999999994068
 30
0.000000000000000
 11
298.6614378277552
 21
55.99999999994068
 31
0.000000000000000
  0
LINE
  5
16C
100
AcDbEntity
  8
A1
  6
CONTINUOUS
 62
7
100
AcDbLine
 10
336.3614378277458
 20
55.99999999992621
 30
0.000000000000000
 11
337.1614378277393
 21
55.99999999992558
 31
0.000000000000000
  0
LINE
  5
16D
100
AcDbEntity
  8
A1
  6
CONTINUOUS
 62
7
100
AcDbLine
 10
299.6614378277563
 20
66.99999999994944
 30
0.000000000000000
 11
299.4614378277467
 21
66.99999999994944
 31
0.000000000000000
  0
LINE
  5
16E
100
AcDbEntity
  8
A1
  6
CONTINUOUS
 62
7
100
AcDbLine
 10
336.3614378277608
 20
66.99999999994944
 30
0.000000000000000
 11
336.1614378277530
 21
66.99999999994944
 31
0.000000000000000
  0
LINE
  5
16F
100
AcDbEntity
  8
A1
  6
CONTINUOUS
 62
7
100
AcDbLine
 10
299.6614378277563
 20
56.45053676960572
 30
0.000000000000000
 11
299.4614378277465
 21
56.45053676960572
 31
0.000000000000000
  0
LINE
  5
170
100
AcDbEntity
  8
A1
  6
CONTINUOUS
 62
7
100
AcDbLine
 10
336.3614378277607
 20
56.45053676960572
 30
0.000000000000000
 11
336.1614378277561
 21
56.45053676960572
 31
0.000000000000000
  0
LINE
  5
171
100
AcDbEntity
  8
A1
  6
CONTINUOUS
 62
7
100
AcDbLine
 10
299.6614378277563
 20
55.75771644657829
 30
0.000000000000000
 11
299.4614378277465
 21
55.75771644657829
 31
0.000000000000000
  0
LINE
  5
172
100
AcDbEntity
  8
A1
  6
CONTINUOUS
 62
7
100
AcDbLine
 10
336.3614378277607
 20
55.75771644657829
 30
0.000000000000000
 11
336.1614378277563
 21
55.75771644657829
 31
0.000000000000000
  0
ARC
  5
173
100
AcDbEntity
  8
A1
  6
CONTINUOUS
 62
7
100
AcDbCircle
 10
337.1614378277475
 20
62.99999999991367
 30
0.000000000000000
 40
2.500000000000085
100
AcDbArc
 50
306.8698976458007
 51
413.1301023541107
  0
LINE
  5
174
100
AcDbEntity
  8
A1
  6
CONTINUOUS
 62
7
100
AcDbLine
 10
296.8307189138656
 20
64.49999999994485
 30
0.000000000000000
 11
296.8307189138633
 21
61.49999999994490
 31
0.000000000000000
  0
LINE
  5
175
100
AcDbEntity
  8
A1
  6
CONTINUOUS
 62
7
100
AcDbLine
 10
296.8307189138634
 20
61.49999999994500
 30
0.000000000000000
 11
297.1614378277466
 21
61.87499999994469
 31
0.000000000000000
  0
LINE
  5
176
100
AcDbEntity
  8
A1
  6
CONTINUOUS
 62
7
100
AcDbLine
 10
296.8307189138658
 20
64.49999999994481
 30
0.000000000000000
 11
297.1614378277485
 21
64.12499999994458
 31
0.000000000000000
  0
LINE
  5
177
100
AcDbEntity
  8
A4
  6
CENTER
 62
1
100
AcDbLine
 10
317.9114378277446
 20
48.49999999996754
 30
0.000000000000000
 11
317.9114378277469
 21
91.49999999993489
 31
0.000000000000000
  0
LINE
  5
178
100
AcDbEntity
  8
A4
  6
CENTER
 62
1
100
AcDbLine
 10
295.3307189138644
 20
62.99999999994604
 30
0.000000000000000
 11
341.1614378277474
 21
62.99999999991059
 31
0.000000000000000
  0
LINE
  5
179
100
AcDbEntity
  8
A1
  6
CONTINUOUS
 62
7
100
AcDbLine
 10
297.9614378277467
 20
67.99999999993494
 30
0.000000000000000
 11
298.6614378277532
 21
67.99999999993494
 31
0.000000000000000
  0
LINE
  5
17A
100
AcDbEntity
  8
A1
  6
CONTINUOUS
 62
7
100
AcDbLine
 10
299.4614378277532
 20
67.99999999993494
 30
0.000000000000000
 11
299.6614378277563
 21
67.99999999993494
 31
0.000000000000000
  0
LINE
  5
17B
100
AcDbEntity
  8
A1
  6
CONTINUOUS
 62
7
100
AcDbLine
 10
336.1614378277527
 20
67.99999999993494
 30
0.000000000000000
 11
336.3614378277564
 21
67.99999999993494
 31
0.000000000000000
  0
LINE
  5
17C
100
AcDbEntity
  8
A1
  6
CONTINUOUS
 62
7
100
AcDbLine
 10
337.1614378277563
 20
67.99999999993494
 30
0.000000000000000
 11
337.8614378277467
 21
67.99999999993494
 31
0.000000000000000
  0
LINE
  5
17D
100
AcDbEntity
  8
A1
  6
CONTINUOUS
 62
7
100
AcDbLine
 10
298.6614378277510
 20
69.99999999994330
 30
0.000000000000000
 11
298.2284251258693
 21
69.74999999993344
 31
0.000000000000000
  0
LINE
  5
17E
100
AcDbEntity
  8
A1
  6
CONTINUOUS
 62
7
100
AcDbLine
 10
298.2284251258692
 20
69.74999999993341
 30
0.000000000000000
 11
298.2284251258680
 21
72.24999999993338
 31
0.000000000000000
  0
LINE
  5
17F
100
AcDbEntity
  8
A1
  6
CONTINUOUS
 62
7
100
AcDbLine
 10
298.6614378277498
 20
71.99999999992400
 30
0.000000000000000
 11
298.2284251258679
 21
72.24999999993344
 31
0.000000000000000
  0
LINE
  5
180
100
AcDbEntity
  8
A1
  6
CONTINUOUS
 62
7
100
AcDbLine
 10
337.6614378277555
 20
69.24999999994330
 30
0.000000000000000
 11
337.1614378277555
 21
69.24999999994306
 31
0.000000000000000
  0
LINE
  5
181
100
AcDbEntity
  8
A1
  6
CONTINUOUS
 62
7
100
AcDbLine
 10
337.6614378277537
 20
72.74999999994330
 30
0.000000000000000
 11
337.6614378277555
 21
69.24999999994330
 31
0.000000000000000
  0
LINE
  5
182
100
AcDbEntity
  8
A1
  6
CONTINUOUS
 62
7
100
AcDbLine
 10
337.6614378277537
 20
72.74999999994330
 30
0.000000000000000
 11
337.1614378277537
 21
72.74999999994306
 31
0.000000000000000
  0
LINE
  5
183
100
AcDbEntity
  8
A1
  6
CONTINUOUS
 62
7
100
AcDbLine
 10
299.6614378277563
 20
71.99999999990503
 30
0.000000000000000
 11
299.4614378277548
 21
71.99999999990483
 31
0.000000000000000
  0
LINE
  5
184
100
AcDbEntity
  8
A1
  6
CONTINUOUS
 62
7
100
AcDbLine
 10
336.3614378277554
 20
71.99999999994199
 30
0.000000000000000
 11
336.1614378277516
 21
71.99999999994179
 31
0.000000000000000
  0
LINE
  5
185
100
AcDbEntity
  8
A1
  6
CONTINUOUS
 62
7
100
AcDbLine
 10
299.6614378277564
 20
69.99999999990503
 30
0.000000000000000
 11
299.4614378277541
 21
69.99999999990483
 31
0.000000000000000
  0
LINE
  5
186
100
AcDbEntity
  8
A1
  6
CONTINUOUS
 62
7
100
AcDbLine
 10
336.3614378277559
 20
69.99999999994199
 30
0.000000000000000
 11
336.1614378277522
 21
69.99999999994179
 31
0.000000000000000
  0
LINE
  5
187
100
AcDbEntity
  8
A1
  6
CONTINUOUS
 62
7
100
AcDbLine
 10
297.9614378277467
 20
64.12499999994401
 30
0.000000000000000
 11
298.6614378277517
 21
64.12499999994347
 31
0.000000000000000
  0
LINE
  5
188
100
AcDbEntity
  8
A1
  6
CONTINUOUS
 62
7
100
AcDbLine
 10
297.9614378277467
 20
61.87499999994400
 30
0.000000000000000
 11
298.6614378277508
 21
61.87499999994346
 31
0.000000000000000
  0
LINE
  5
189
100
AcDbEntity
  8
A1
  6
CONTINUOUS
 62
7
100
AcDbLine
 10
336.1614378277545
 20
61.87499999991445
 30
0.000000000000000
 11
336.3614378277577
 21
61.87499999991429
 31
0.000000000000000
  0
LINE
  5
18A
100
AcDbEntity
  8
A1
  6
CONTINUOUS
 62
7
100
AcDbLine
 10
337.1614378277579
 20
61.87499999991368
 30
0.000000000000000
 11
337.8614378277468
 21
61.87499999991314
 31
0.000000000000000
  0
LINE
  5
18B
100
AcDbEntity
  8
A1
  6
CONTINUOUS
 62
7
100
AcDbLine
 10
336.1614378277538
 20
64.12499999991445
 30
0.000000000000000
 11
336.3614378277572
 21
64.12499999991429
 31
0.000000000000000
  0
LINE
  5
18C
100
AcDbEntity
  8
A1
  6
CONTINUOUS
 62
7
100
AcDbLine
 10
337.1614378277573
 20
64.12499999991368
 30
0.000000000000000
 11
337.8614378277467
 21
64.12499999991314
 31
0.000000000000000
  0
LINE
  5
18D
100
AcDbEntity
  8
A4
  6
CENTER
 62
1
100
AcDbLine
 10
299.9114378277544
 20
61.99999999994176
 30
0.000000000000000
 11
306.1114378277545
 21
61.99999999994176
 31
0.000000000000000
  0
LINE
  5
18E
100
AcDbEntity
  8
A4
  6
CENTER
 62
1
100
AcDbLine
 10
303.0114378277544
 20
58.89999999994176
 30
0.000000000000000
 11
303.0114378277544
 21
65.09999999994176
 31
0.000000000000000
  0
LINE
  5
18F
100
AcDbEntity
  8
A4
  6
CENTER
 62
1
100
AcDbLine
 10
329.7114378277545
 20
61.99999999994176
 30
0.000000000000000
 11
335.9114378277545
 21
61.99999999994176
 31
0.000000000000000
  0
LINE
  5
190
100
AcDbEntity
  8
A4
  6
CENTER
 62
1
100
AcDbLine
 10
332.8114378277545
 20
58.89999999994176
 30
0.000000000000000
 11
332.8114378277545
 21
65.09999999994176
 31
0.000000000000000
  0
LINE
  5
191
100
AcDbEntity
  8
A4
  6
CENTER
 62
1
100
AcDbLine
 10
402.4614378277489
 20
83.99999999994176
 30
0.000000000000000
 11
408.6614378277488
 21
83.99999999994176
 31
0.000000000000000
  0
ENDSEC
  0
SECTION
  2
OBJECTS
  0
DICTIONARY
  5
1BD
100
AcDbDictionary
  3
ACAD_GROUP
350
1BE
  3
ACAD_LAYOUT
350
1BF
  3
ACAD_MLINESTYLE
350
1C0
  0
DICTIONARY
  5
1BE
102
{ACAD_REACTORS
330
1BD
102
}
330
1BD
100
AcDbDictionary
  0
DICTIONARY
  5
1BF
102
{ACAD_REACTORS
330
1BD
102
}
330
1BD
100
AcDbDictionary
  3
Model
350
1C1
  3
ﾚｲｱｳﾄ1
350
1C2
  3
ﾚｲｱｳﾄ2
350
1C3
  0
DICTIONARY
  5
1C0
102
{ACAD_REACTORS
330
1BD
102
}
330
1BD
100
AcDbDictionary
  3
STANDARD
350
1C4
  0
LAYOUT
  5
1C1
102
{ACAD_REACTORS
330
1BF
102
}
330
1BF
100
AcDbPlotSettings
 70
11952
  4
A3
 44
297.000000
 45
420.000000
 73
  1
 72
  1
100
AcDbLayout
  1
Model
 71
0
330
1B4
  0
LAYOUT
  5
1C2
102
{ACAD_REACTORS
330
1BF
102
}
330
1BF
100
AcDbPlotSettings
100
AcDbLayout
  1
ﾚｲｱｳﾄ1
 71
1
330
1B5
  0
LAYOUT
  5
1C3
102
{ACAD_REACTORS
330
1BF
102
}
330
1BF
100
AcDbPlotSettings
100
AcDbLayout
  1
ﾚｲｱｳﾄ2
 71
2
330
1B6
  0
MLINESTYLE
  5
1C4
102
{ACAD_REACTORS
330
1C0
102
}
330
1C0
100
AcDbMlineStyle
  2
STANDARD
 70
     0
  3

 62
   256
 51
90.00
 52
90.00
 71
     2
 49
0.50
 62
   256
  6
BYLAYER
 49
-0.50
 62
   256
  6
BYLAYER
  0
ENDSEC
  0
EOF
