  0
SECTION
  2
HEADER
  9
$ACADVER
  1
AC1015
  9
$ACADMAINTVER
 70
    20
  9
$DWGCODEPAGE
  3
ANSI_932
  9
$INSBASE
 10
0.0
 20
0.0
 30
0.0
  9
$EXTMIN
 10
9.999997526638505
 20
10.00000076076889
 30
0.0
  9
$EXTMAX
 10
359.7975204356102
 20
234.290113641031
 30
0.0
  9
$LIMMIN
 10
0.0000015376081137
 20
-0.0000001931532552
  9
$LIMMAX
 10
396.0000015376081
 20
272.9999998068464
  9
$ORTHOMODE
 70
     1
  9
$REGENMODE
 70
     1
  9
$FILLMODE
 70
     1
  9
$QTEXTMODE
 70
     0
  9
$MIRRTEXT
 70
     1
  9
$LTSCALE
 40
1.0
  9
$ATTMODE
 70
     1
  9
$TEXTSIZE
 40
2.5
  9
$TRACEWID
 40
1.0
  9
$TEXTSTYLE
  7
STANDARD
  9
$CLAYER
  8
0
  9
$CELTYPE
  6
BYLAYER
  9
$CECOLOR
 62
   256
  9
$CELTSCALE
 40
1.0
  9
$DISPSILH
 70
     0
  9
$DIMSCALE
 40
1.0
  9
$DIMASZ
 40
3.0
  9
$DIMEXO
 40
1.0
  9
$DIMDLI
 40
10.0
  9
$DIMRND
 40
0.0
  9
$DIMDLE
 40
0.0
  9
$DIMEXE
 40
1.0
  9
$DIMTP
 40
0.0
  9
$DIMTM
 40
0.0
  9
$DIMTXT
 40
3.2
  9
$DIMCEN
 40
0.0
  9
$DIMTSZ
 40
0.0
  9
$DIMTOL
 70
     0
  9
$DIMLIM
 70
     0
  9
$DIMTIH
 70
     0
  9
$DIMTOH
 70
     0
  9
$DIMSE1
 70
     0
  9
$DIMSE2
 70
     0
  9
$DIMTAD
 70
     3
  9
$DIMZIN
 70
     8
  9
$DIMBLK
  1

  9
$DIMASO
 70
     1
  9
$DIMSHO
 70
     1
  9
$DIMPOST
  1

  9
$DIMAPOST
  1

  9
$DIMALT
 70
     0
  9
$DIMALTD
 70
     2
  9
$DIMALTF
 40
25.4
  9
$DIMLFAC
 40
1.0
  9
$DIMTOFL
 70
     1
  9
$DIMTVP
 40
0.0
  9
$DIMTIX
 70
     0
  9
$DIMSOXD
 70
     0
  9
$DIMSAH
 70
     1
  9
$DIMBLK1
  1
OPEN
  9
$DIMBLK2
  1
OPEN
  9
$DIMSTYLE
  2
STANDARD
  9
$DIMCLRD
 70
     0
  9
$DIMCLRE
 70
     0
  9
$DIMCLRT
 70
     0
  9
$DIMTFAC
 40
1.0
  9
$DIMGAP
 40
1.0
  9
$DIMJUST
 70
     0
  9
$DIMSD1
 70
     0
  9
$DIMSD2
 70
     0
  9
$DIMTOLJ
 70
     1
  9
$DIMTZIN
 70
     0
  9
$DIMALTZ
 70
     0
  9
$DIMALTTZ
 70
     0
  9
$DIMUPT
 70
     0
  9
$DIMDEC
 70
     4
  9
$DIMTDEC
 70
     4
  9
$DIMALTU
 70
     2
  9
$DIMALTTD
 70
     2
  9
$DIMTXSTY
  7
STANDARD
  9
$DIMAUNIT
 70
     0
  9
$DIMADEC
 70
     0
  9
$DIMALTRND
 40
0.0
  9
$DIMAZIN
 70
     0
  9
$DIMDSEP
 70
    46
  9
$DIMATFIT
 70
     3
  9
$DIMFRAC
 70
     0
  9
$DIMLDRBLK
  1
OPEN
  9
$DIMLUNIT
 70
     2
  9
$DIMLWD
 70
    -2
  9
$DIMLWE
 70
    -2
  9
$DIMTMOVE
 70
     0
  9
$LUNITS
 70
     2
  9
$LUPREC
 70
     4
  9
$SKETCHINC
 40
1.0
  9
$FILLETRAD
 40
0.0
  9
$AUNITS
 70
     0
  9
$AUPREC
 70
     0
  9
$MENU
  1
.
  9
$ELEVATION
 40
0.0
  9
$PELEVATION
 40
0.0
  9
$THICKNESS
 40
0.0
  9
$LIMCHECK
 70
     0
  9
$CHAMFERA
 40
10.0
  9
$CHAMFERB
 40
10.0
  9
$CHAMFERC
 40
0.0
  9
$CHAMFERD
 40
0.0
  9
$SKPOLY
 70
     0
  9
$TDCREATE
 40
2452291.461278206
  9
$TDUCREATE
 40
2452291.086278207
  9
$TDUPDATE
 40
2457192.599055683
  9
$TDUUPDATE
 40
2457192.224055683
  9
$TDINDWG
 40
0.2067900694
  9
$TDUSRTIMER
 40
0.2067891319
  9
$USRTIMER
 70
     1
  9
$ANGBASE
 50
0.0
  9
$ANGDIR
 70
     0
  9
$PDMODE
 70
     0
  9
$PDSIZE
 40
0.0
  9
$PLINEWID
 40
0.0
  9
$SPLFRAME
 70
     0
  9
$SPLINETYPE
 70
     6
  9
$SPLINESEGS
 70
     8
  9
$HANDSEED
  5
1742
  9
$SURFTAB1
 70
     6
  9
$SURFTAB2
 70
     6
  9
$SURFTYPE
 70
     6
  9
$SURFU
 70
     6
  9
$SURFV
 70
     6
  9
$UCSBASE
  2

  9
$UCSNAME
  2

  9
$UCSORG
 10
0.0
 20
0.0
 30
0.0
  9
$UCSXDIR
 10
1.0
 20
0.0
 30
0.0
  9
$UCSYDIR
 10
0.0
 20
1.0
 30
0.0
  9
$UCSORTHOREF
  2

  9
$UCSORTHOVIEW
 70
     0
  9
$UCSORGTOP
 10
0.0
 20
0.0
 30
0.0
  9
$UCSORGBOTTOM
 10
0.0
 20
0.0
 30
0.0
  9
$UCSORGLEFT
 10
0.0
 20
0.0
 30
0.0
  9
$UCSORGRIGHT
 10
0.0
 20
0.0
 30
0.0
  9
$UCSORGFRONT
 10
0.0
 20
0.0
 30
0.0
  9
$UCSORGBACK
 10
0.0
 20
0.0
 30
0.0
  9
$PUCSBASE
  2

  9
$PUCSNAME
  2

  9
$PUCSORG
 10
0.0
 20
0.0
 30
0.0
  9
$PUCSXDIR
 10
1.0
 20
0.0
 30
0.0
  9
$PUCSYDIR
 10
0.0
 20
1.0
 30
0.0
  9
$PUCSORTHOREF
  2

  9
$PUCSORTHOVIEW
 70
     0
  9
$PUCSORGTOP
 10
0.0
 20
0.0
 30
0.0
  9
$PUCSORGBOTTOM
 10
0.0
 20
0.0
 30
0.0
  9
$PUCSORGLEFT
 10
0.0
 20
0.0
 30
0.0
  9
$PUCSORGRIGHT
 10
0.0
 20
0.0
 30
0.0
  9
$PUCSORGFRONT
 10
0.0
 20
0.0
 30
0.0
  9
$PUCSORGBACK
 10
0.0
 20
0.0
 30
0.0
  9
$USERI1
 70
     0
  9
$USERI2
 70
     0
  9
$USERI3
 70
     0
  9
$USERI4
 70
     0
  9
$USERI5
 70
     0
  9
$USERR1
 40
0.0
  9
$USERR2
 40
0.0
  9
$USERR3
 40
0.0
  9
$USERR4
 40
0.0
  9
$USERR5
 40
0.0
  9
$WORLDVIEW
 70
     1
  9
$SHADEDGE
 70
     3
  9
$SHADEDIF
 70
    70
  9
$TILEMODE
 70
     1
  9
$MAXACTVP
 70
    48
  9
$PINSBASE
 10
0.0
 20
0.0
 30
0.0
  9
$PLIMCHECK
 70
     0
  9
$PEXTMIN
 10
1.000000000000000E+20
 20
1.000000000000000E+20
 30
1.000000000000000E+20
  9
$PEXTMAX
 10
-1.000000000000000E+20
 20
-1.000000000000000E+20
 30
-1.000000000000000E+20
  9
$PLIMMIN
 10
0.0
 20
0.0
  9
$PLIMMAX
 10
420.0
 20
297.0
  9
$UNITMODE
 70
     0
  9
$VISRETAIN
 70
     1
  9
$PLINEGEN
 70
     0
  9
$PSLTSCALE
 70
     1
  9
$TREEDEPTH
 70
  3020
  9
$CMLSTYLE
  2
STANDARD
  9
$CMLJUST
 70
     0
  9
$CMLSCALE
 40
1.0
  9
$PROXYGRAPHICS
 70
     1
  9
$MEASUREMENT
 70
     0
  9
$CELWEIGHT
370
    -1
  9
$ENDCAPS
280
     0
  9
$JOINSTYLE
280
     0
  9
$LWDISPLAY
290
     0
  9
$INSUNITS
 70
     0
  9
$HYPERLINKBASE
  1

  9
$STYLESHEET
  1

  9
$XEDIT
290
     1
  9
$CEPSNTYPE
380
     0
  9
$PSTYLEMODE
290
     1
  9
$FINGERPRINTGUID
  2
{6DF4F196-24F9-44A0-91AF-026534B28AC8}
  9
$VERSIONGUID
  2
{2ACC1EF3-A589-4130-A0F4-F2FB0EE270BD}
  9
$EXTNAMES
290
     1
  9
$PSVPSCALE
 40
0.0
  9
$OLESTARTUP
290
     0
  0
ENDSEC
  0
SECTION
  2
CLASSES
  0
CLASS
  1
ACDBDICTIONARYWDFLT
  2
AcDbDictionaryWithDefault
  3
ObjectDBX Classes
 90
        0
280
     0
281
     0
  0
CLASS
  1
ACDBPLACEHOLDER
  2
AcDbPlaceHolder
  3
ObjectDBX Classes
 90
        0
280
     0
281
     0
  0
CLASS
  1
LAYOUT
  2
AcDbLayout
  3
ObjectDBX Classes
 90
        0
280
     0
281
     0
  0
CLASS
  1
DICTIONARYVAR
  2
AcDbDictionaryVar
  3
ObjectDBX Classes
 90
        0
280
     0
281
     0
  0
CLASS
  1
MATERIAL
  2
AcDbMaterial
  3
ObjectDBX Classes
 90
     1153
280
     0
281
     0
  0
CLASS
  1
VISUALSTYLE
  2
AcDbVisualStyle
  3
ObjectDBX Classes
 90
     4095
280
     0
281
     0
  0
CLASS
  1
TABLESTYLE
  2
AcDbTableStyle
  3
ObjectDBX Classes
 90
     4095
280
     0
281
     0
  0
CLASS
  1
SCALE
  2
AcDbScale
  3
ObjectDBX Classes
 90
     1153
280
     0
281
     0
  0
CLASS
  1
MLEADERSTYLE
  2
AcDbMLeaderStyle
  3
ACDB_MLEADERSTYLE_CLASS
 90
     4095
280
     0
281
     0
  0
CLASS
  1
ACDBSECTIONVIEWSTYLE
  2
AcDbSectionViewStyle
  3
ObjectDBX Classes
 90
     1025
280
     0
281
     0
  0
CLASS
  1
ACDBDETAILVIEWSTYLE
  2
AcDbDetailViewStyle
  3
ObjectDBX Classes
 90
     1025
280
     0
281
     0
  0
CLASS
  1
CELLSTYLEMAP
  2
AcDbCellStyleMap
  3
ObjectDBX Classes
 90
     1152
280
     0
281
     0
  0
ENDSEC
  0
SECTION
  2
TABLES
  0
TABLE
  2
VPORT
  5
12C9
330
0
100
AcDbSymbolTable
 70
     1
  0
VPORT
  5
168E
330
12C9
100
AcDbSymbolTableRecord
100
AcDbViewportTableRecord
  2
*ACTIVE
 70
     0
 10
0.0
 20
0.0
 11
1.0
 21
1.0
 12
278.5659139911282
 22
122.1493381943224
 13
0.0
 23
0.0
 14
10.0
 24
10.0
 15
10.0
 25
10.0
 16
0.0
 26
0.0
 36
1.0
 17
0.0
 27
0.0
 37
0.0
 40
229.3429956480336
 41
1.899603698811096
 42
50.0
 43
0.0
 44
0.0
 50
0.0
 51
0.0
 71
     0
 72
   100
 73
     1
 74
     0
 75
     0
 76
     0
 77
     0
 78
     0
281
     0
 65
     1
110
0.0
120
0.0
130
0.0
111
1.0
121
0.0
131
0.0
112
0.0
122
1.0
132
0.0
 79
     0
146
0.0
1001
ACAD_NAV_VCDISPLAY
1070
     3
  0
ENDTAB
  0
TABLE
  2
LTYPE
  5
12C6
330
0
100
AcDbSymbolTable
 70
     4
  0
LTYPE
  5
12D4
330
12C6
100
AcDbSymbolTableRecord
100
AcDbLinetypeTableRecord
  2
BYBLOCK
 70
     0
  3

 72
    65
 73
     0
 40
0.0
  0
LTYPE
  5
12D5
330
12C6
100
AcDbSymbolTableRecord
100
AcDbLinetypeTableRecord
  2
BYLAYER
 70
     0
  3

 72
    65
 73
     0
 40
0.0
  0
LTYPE
  5
12D6
330
12C6
100
AcDbSymbolTableRecord
100
AcDbLinetypeTableRecord
  2
CONTINUOUS
 70
     0
  3
Solid line
 72
    65
 73
     0
 40
0.0
  0
LTYPE
  5
12E4
330
12C6
100
AcDbSymbolTableRecord
100
AcDbLinetypeTableRecord
  2
DASHED
 70
     0
  3
Dashed __ __ __ __ __ __ __ __ __ __ __ __ __ _
 72
    65
 73
     2
 40
19.04999999999996
 49
12.7
 74
     0
 49
-6.349999999999997
 74
     0
  0
LTYPE
  5
12E5
330
12C6
100
AcDbSymbolTableRecord
100
AcDbLinetypeTableRecord
  2
CENTER
 70
     0
  3
Center ____ _ ____ _ ____ _ ____ _ ____ _ ____
 72
    65
 73
     4
 40
50.8
 49
31.75
 74
     0
 49
-6.349999999999997
 74
     0
 49
6.349999999999997
 74
     0
 49
-6.349999999999997
 74
     0
  0
LTYPE
  5
12E6
330
12C6
100
AcDbSymbolTableRecord
100
AcDbLinetypeTableRecord
  2
PHANTOM
 70
     0
  3
Phantom ______  __  __  ______  __  __  ______
 72
    65
 73
     6
 40
63.5
 49
31.75
 74
     0
 49
-6.349999999999997
 74
     0
 49
6.349999999999997
 74
     0
 49
-6.349999999999997
 74
     0
 49
6.349999999999997
 74
     0
 49
-6.349999999999997
 74
     0
  0
ENDTAB
  0
TABLE
  2
LAYER
  5
12C3
330
0
100
AcDbSymbolTable
 70
     8
  0
LAYER
  5
12D1
102
{ACAD_XDICTIONARY
360
16E6
102
}
330
12C3
100
AcDbSymbolTableRecord
100
AcDbLayerTableRecord
  2
0
 70
     0
 62
     7
  6
CONTINUOUS
370
    -3
390
1695
  0
LAYER
  5
12E7
102
{ACAD_XDICTIONARY
360
16E8
102
}
330
12C3
100
AcDbSymbolTableRecord
100
AcDbLayerTableRecord
  2
4
 70
     0
 62
     1
  6
CENTER
370
    -3
390
1695
  0
LAYER
  5
12E8
102
{ACAD_XDICTIONARY
360
16EA
102
}
330
12C3
100
AcDbSymbolTableRecord
100
AcDbLayerTableRecord
  2
5
 70
     0
 62
     6
  6
PHANTOM
370
    -3
390
1695
  0
LAYER
  5
12E9
102
{ACAD_XDICTIONARY
360
16EC
102
}
330
12C3
100
AcDbSymbolTableRecord
100
AcDbLayerTableRecord
  2
1
 70
     0
 62
     7
  6
CONTINUOUS
370
    -3
390
1695
  0
LAYER
  5
12EA
102
{ACAD_XDICTIONARY
360
16EE
102
}
330
12C3
100
AcDbSymbolTableRecord
100
AcDbLayerTableRecord
  2
2
 70
     0
 62
     4
  6
CONTINUOUS
370
    -3
390
1695
  0
LAYER
  5
12EB
102
{ACAD_XDICTIONARY
360
16F0
102
}
330
12C3
100
AcDbSymbolTableRecord
100
AcDbLayerTableRecord
  2
3
 70
     0
 62
     2
  6
DASHED
370
    -3
390
1695
  0
LAYER
  5
12EC
102
{ACAD_XDICTIONARY
360
16F2
102
}
330
12C3
100
AcDbSymbolTableRecord
100
AcDbLayerTableRecord
  2
6
 70
     0
 62
     5
  6
CONTINUOUS
370
    -3
390
1695
  0
LAYER
  5
12ED
102
{ACAD_XDICTIONARY
360
16F4
102
}
330
12C3
100
AcDbSymbolTableRecord
100
AcDbLayerTableRecord
  2
7
 70
     0
 62
     3
  6
CONTINUOUS
370
    -3
390
1695
  0
ENDTAB
  0
TABLE
  2
STYLE
  5
12C4
330
0
100
AcDbSymbolTable
 70
     1
  0
STYLE
  5
12D2
330
12C4
100
AcDbSymbolTableRecord
100
AcDbTextStyleTableRecord
  2
STANDARD
 70
     0
 40
0.0
 41
1.0
 50
0.0
 71
     0
 42
2.5
  3
simplex.shx
  4

  0
ENDTAB
  0
TABLE
  2
VIEW
  5
12C7
330
0
100
AcDbSymbolTable
 70
     0
  0
ENDTAB
  0
TABLE
  2
UCS
  5
12C8
330
0
100
AcDbSymbolTable
 70
     0
  0
ENDTAB
  0
TABLE
  2
APPID
  5
12CA
330
0
100
AcDbSymbolTable
 70
     5
  0
APPID
  5
12D3
330
12CA
100
AcDbSymbolTableRecord
100
AcDbRegAppTableRecord
  2
ACAD
 70
     0
  0
APPID
  5
12EE
330
12CA
100
AcDbSymbolTableRecord
100
AcDbRegAppTableRecord
  2
CONTENTTABDATA
 70
     0
  0
APPID
  5
12EF
330
12CA
100
AcDbSymbolTableRecord
100
AcDbRegAppTableRecord
  2
CONTENTCURRENTTAB
 70
     0
  0
APPID
  5
1700
330
12CA
100
AcDbSymbolTableRecord
100
AcDbRegAppTableRecord
  2
ACAD_NAV_VCDISPLAY
 70
     0
  0
APPID
  5
1739
330
12CA
100
AcDbSymbolTableRecord
100
AcDbRegAppTableRecord
  2
ACAD_MLEADERVER
 70
     0
  0
ENDTAB
  0
TABLE
  2
DIMSTYLE
  5
12CB
330
0
100
AcDbSymbolTable
 70
     1
100
AcDbDimStyleTable
 71
     0
  0
DIMSTYLE
105
12F0
330
12CB
100
AcDbSymbolTableRecord
100
AcDbDimStyleTableRecord
  2
STANDARD
 70
     0
 41
3.0
 42
1.0
 43
10.0
 44
1.0
 73
     0
 74
     0
 77
     3
 78
     8
140
3.2
141
0.0
147
1.0
172
     1
173
     1
284
     8
285
     8
286
     8
340
12D2
  0
ENDTAB
  0
TABLE
  2
BLOCK_RECORD
  5
12C2
330
0
100
AcDbSymbolTable
 70
     1
  0
BLOCK_RECORD
  5
12DF
102
{ACAD_XDICTIONARY
360
14FB
102
}
330
12C2
100
AcDbSymbolTableRecord
100
AcDbBlockTableRecord
  2
*MODEL_SPACE
340
16E3
  0
BLOCK_RECORD
  5
12DB
102
{ACAD_XDICTIONARY
360
14F9
102
}
330
12C2
100
AcDbSymbolTableRecord
100
AcDbBlockTableRecord
  2
*PAPER_SPACE
340
16E4
  0
BLOCK_RECORD
  5
12F8
330
12C2
100
AcDbSymbolTableRecord
100
AcDbBlockTableRecord
  2
_OPEN
340
0
  0
ENDTAB
  0
ENDSEC
  0
SECTION
  2
BLOCKS
  0
BLOCK
  5
12E0
330
12DF
100
AcDbEntity
  8
0
100
AcDbBlockBegin
  2
*MODEL_SPACE
 70
     0
 10
0.0
 20
0.0
 30
0.0
  3
*MODEL_SPACE
  1

  0
ENDBLK
  5
12E1
330
12DF
100
AcDbEntity
  8
0
100
AcDbBlockEnd
  0
BLOCK
  5
12DC
330
12DB
100
AcDbEntity
 67
     1
  8
0
100
AcDbBlockBegin
  2
*PAPER_SPACE
 70
     0
 10
0.0
 20
0.0
 30
0.0
  3
*PAPER_SPACE
  1

  0
ENDBLK
  5
12DD
330
12DB
100
AcDbEntity
 67
     1
  8
0
100
AcDbBlockEnd
  0
BLOCK
  5
12F9
330
12F8
100
AcDbEntity
  8
0
100
AcDbBlockBegin
  2
_OPEN
 70
     0
 10
0.0
 20
0.0
 30
0.0
  3
_OPEN
  1

  0
LINE
  5
12FA
330
12F8
100
AcDbEntity
  8
0
  6
ByBlock
 62
     0
100
AcDbLine
 10
-1.0
 20
0.1666666666666666
 30
0.0
 11
0.0
 21
0.0
 31
0.0
  0
LINE
  5
12FB
330
12F8
100
AcDbEntity
  8
0
  6
ByBlock
 62
     0
100
AcDbLine
 10
0.0
 20
0.0
 30
0.0
 11
-1.0
 21
-0.1666666666666666
 31
0.0
  0
LINE
  5
12FC
330
12F8
100
AcDbEntity
  8
0
  6
ByBlock
 62
     0
100
AcDbLine
 10
0.0
 20
0.0
 30
0.0
 11
-1.0
 21
0.0
 31
0.0
  0
ENDBLK
  5
12FD
330
12F8
100
AcDbEntity
  8
0
100
AcDbBlockEnd
  0
ENDSEC
  0
SECTION
  2
ENTITIES
  0
LINE
  5
12FE
330
12DF
100
AcDbEntity
  8
1
  6
Continuous
100
AcDbLine
 10
134.3975204356917
 20
221.3182254938581
 30
0.0
 11
142.997520435692
 21
221.3182254938581
 31
0.0
  0
LINE
  5
12FF
330
12DF
100
AcDbEntity
  8
1
  6
Continuous
100
AcDbLine
 10
134.8975204356894
 20
225.92303600317
 30
0.0
 11
142.4975204356895
 21
225.92303600317
 31
0.0
  0
LINE
  5
1300
330
12DF
100
AcDbEntity
  8
1
  6
Continuous
100
AcDbLine
 10
134.8975204356899
 20
225.93897627721
 30
0.0
 11
142.4975204356896
 21
225.9389762772046
 31
0.0
  0
LINE
  5
1301
330
12DF
100
AcDbEntity
  8
1
  6
Continuous
100
AcDbLine
 10
148.4475098203438
 20
145.1250544529194
 30
0.0
 11
145.5054480602937
 21
162.1002764774816
 31
0.0
  0
ARC
  5
1302
330
12DF
100
AcDbEntity
  8
1
  6
Continuous
100
AcDbCircle
 10
143.7330589713464
 20
160.63445352863
 30
0.0
 40
5.0
100
AcDbArc
 50
9.999999999999847
 51
89.99999999999998
  0
ARC
  5
1303
330
12DF
100
AcDbEntity
  8
1
  6
Continuous
100
AcDbCircle
 10
146.7975204355703
 20
145.8444535286313
 30
0.0
 40
4.5
100
AcDbArc
 50
270.0
 51
9.999999999999987
  0
LINE
  5
1304
330
12DF
100
AcDbEntity
  8
1
  6
Continuous
100
AcDbLine
 10
146.6975204355351
 20
151.0144535286315
 30
0.0
 11
147.0975204355351
 21
151.0144535286315
 31
0.0
  0
LINE
  5
1305
330
12DF
100
AcDbEntity
  8
1
  6
Continuous
100
AcDbLine
 10
146.6975204355351
 20
146.8144535286315
 30
0.0
 11
147.0975204355351
 21
146.8144535286315
 31
0.0
  0
LINE
  5
1306
330
12DF
100
AcDbEntity
  8
1
  6
Continuous
100
AcDbLine
 10
146.2975204355351
 20
144.3444535286313
 30
0.0
 11
147.7925078726769
 21
144.3444535286313
 31
0.0
  0
LINE
  5
1307
330
12DF
100
AcDbEntity
  8
4
  6
CENTER
 48
0.2
100
AcDbLine
 10
128.8499755921334
 20
148.9144535286299
 30
0.0
 11
148.3929530512173
 21
148.9144535286318
 31
0.0
  0
TEXT
  5
1308
330
12DF
100
AcDbEntity
  8
7
  6
Continuous
100
AcDbText
 10
9.999997526638507
 20
26.00000076076889
 30
0.0
 40
3.0
  1
CODE No.1523
100
AcDbText
  0
TEXT
  5
1309
330
12DF
100
AcDbEntity
  8
7
  6
Continuous
100
AcDbText
 10
9.999997526638507
 20
18.00000076076889
 30
0.0
 40
3.0
  1
TYPE No.TL-154-1
100
AcDbText
  0
TEXT
  5
130A
330
12DF
100
AcDbEntity
  8
1
  6
Continuous
100
AcDbText
 10
9.999997526638507
 20
10.00000076076889
 30
0.0
 40
1.399999999999999
  1
LAYER
100
AcDbText
  0
TEXT
  5
130B
330
12DF
100
AcDbEntity
  8
5
  6
PHANTOM
100
AcDbText
 10
25.97950852663851
 20
10.04873776076889
 30
0.0
 40
1.399999999999999
  1
5
100
AcDbText
  0
TEXT
  5
130C
330
12DF
100
AcDbEntity
  8
6
  6
Continuous
100
AcDbText
 10
27.97950852663849
 20
10.04873776076889
 30
0.0
 40
1.399999999999999
  1
6
100
AcDbText
  0
TEXT
  5
130D
330
12DF
100
AcDbEntity
  8
2
  6
Continuous
100
AcDbText
 10
19.9795085266385
 20
10.04873776076889
 30
0.0
 40
1.399999999999999
  1
2
100
AcDbText
  0
TEXT
  5
130E
330
12DF
100
AcDbEntity
  8
3
  6
DASHED
100
AcDbText
 10
21.97950852663848
 20
10.04873776076889
 30
0.0
 40
1.399999999999999
  1
3
100
AcDbText
  0
TEXT
  5
130F
330
12DF
100
AcDbEntity
  8
4
  6
CENTER
100
AcDbText
 10
23.97950852663849
 20
10.04873776076889
 30
0.0
 40
1.399999999999999
  1
4
100
AcDbText
  0
TEXT
  5
1310
330
12DF
100
AcDbEntity
  8
7
  6
Continuous
100
AcDbText
 10
29.9795085266385
 20
10.04873776076889
 30
0.0
 40
1.399999999999999
  1
7
100
AcDbText
  0
TEXT
  5
1311
330
12DF
100
AcDbEntity
  8
1
  6
Continuous
100
AcDbText
 10
17.9795085266385
 20
10.04873776076889
 30
0.0
 40
1.399999999999999
  1
1
100
AcDbText
  0
LINE
  5
1312
330
12DF
100
AcDbEntity
  8
1
  6
Continuous
100
AcDbLine
 10
58.03095126166994
 20
146.5310844891742
 30
0.0
 11
53.4594338224686
 21
120.6047207481665
 31
0.0
  0
LINE
  5
1313
330
12DF
100
AcDbEntity
  8
1
  6
Continuous
100
AcDbLine
 10
50.49752043558272
 20
120.0187674826759
 30
0.0
 11
50.49752043558272
 21
148.04445352863
 31
0.0
  0
LINE
  5
1314
330
12DF
100
AcDbEntity
  8
1
  6
Continuous
100
AcDbLine
 10
49.29752043558274
 20
112.8344535286302
 30
0.0
 11
49.29752043558274
 21
145.63445352863
 31
0.0
  0
LINE
  5
1315
330
12DF
100
AcDbEntity
  8
1
  6
Continuous
100
AcDbLine
 10
48.29752043558274
 20
112.8344535286302
 30
0.0
 11
48.29752043558274
 21
151.83445352863
 31
0.0
  0
LINE
  5
1316
330
12DF
100
AcDbEntity
  8
1
  6
Continuous
100
AcDbLine
 10
54.44576633895396
 20
111.8344535286302
 30
0.0
 11
53.61302604800321
 21
114.1223886742872
 31
0.0
  0
ARC
  5
1317
330
12DF
100
AcDbEntity
  8
1
  6
Continuous
100
AcDbCircle
 10
62.81510747608453
 20
118.9550630603309
 30
0.0
 40
9.5
100
AcDbArc
 50
169.9999999999996
 51
200.0
  0
LINE
  5
1318
330
12DF
100
AcDbEntity
  8
1
  6
Continuous
100
AcDbLine
 10
53.90420223541624
 20
114.1223886742872
 30
0.0
 11
52.79480596419262
 21
114.1223886742872
 31
0.0
  0
LINE
  5
1319
330
12DF
100
AcDbEntity
  8
1
  6
Continuous
100
AcDbLine
 10
50.49752043558272
 20
128.5129144977128
 30
0.0
 11
49.29752043558274
 21
128.83445352863
 31
0.0
  0
LINE
  5
131A
330
12DF
100
AcDbEntity
  8
1
  6
Continuous
100
AcDbLine
 10
50.49752043558264
 20
127.4776383173026
 30
0.0
 11
49.29752043558274
 21
127.7991773482201
 31
0.0
  0
ARC
  5
131B
330
12DF
100
AcDbEntity
  8
1
  6
Continuous
100
AcDbCircle
 10
59.99752043558271
 20
120.0187674826759
 30
0.0
 40
9.5
100
AcDbArc
 50
180.0
 51
216.8410865502444
  0
ARC
  5
131C
330
12DF
100
AcDbEntity
  8
1
  6
Continuous
100
AcDbCircle
 10
52.79480596419262
 20
114.6223886742872
 30
0.0
 40
0.5
100
AcDbArc
 50
216.8410865502448
 51
270.0
  0
LINE
  5
131D
330
12DF
100
AcDbEntity
  8
1
  6
Continuous
100
AcDbLine
 10
49.29752043558274
 20
112.83445352863
 30
0.0
 11
48.29752043558274
 21
112.83445352863
 31
0.0
  0
LINE
  5
131E
330
12DF
100
AcDbEntity
  8
4
  6
CENTER
 48
0.2
100
AcDbLine
 10
50.0747364568287
 20
116.83445352863
 30
0.0
 11
46.66032416712249
 21
116.83445352863
 31
0.0
  0
LINE
  5
131F
330
12DF
100
AcDbEntity
  8
1
  6
Continuous
100
AcDbLine
 10
55.19752043558272
 20
112.1080696432904
 30
0.0
 11
54.44576633895396
 21
111.83445352863
 31
0.0
  0
LINE
  5
1320
330
12DF
100
AcDbEntity
  8
1
  6
Continuous
100
AcDbLine
 10
55.19752043558262
 20
112.1080696432904
 30
0.0
 11
53.8880275786184
 21
115.7058716987369
 31
0.0
  0
ARC
  5
1321
330
12DF
100
AcDbEntity
  8
1
  6
Continuous
100
AcDbCircle
 10
53.90420223541624
 20
113.3223886742872
 30
0.0
 40
0.8
100
AcDbArc
 50
20.00000000000027
 51
89.99999999999998
  0
ARC
  5
1322
330
12DF
100
AcDbEntity
  8
1
  6
Continuous
100
AcDbCircle
 10
53.29752043558274
 20
142.74445352863
 30
0.0
 40
1.5
100
AcDbArc
 50
185.7652596983712
 51
5.765259698371133
  0
ARC
  5
1323
330
12DF
100
AcDbEntity
  8
1
  6
Continuous
100
AcDbCircle
 10
53.29752043558274
 20
142.64445352863
 30
0.0
 40
1.6
100
AcDbArc
 50
164.3913207820649
 51
25.06918333423429
  0
LINE
  5
1324
330
12DF
100
AcDbEntity
  8
4
  6
CENTER
 48
0.1
100
AcDbLine
 10
57.36752043558271
 20
148.81445352863
 30
0.0
 11
50.42752043558271
 21
148.81445352863
 31
0.0
  0
LINE
  5
1325
330
12DF
100
AcDbEntity
  8
4
  6
CENTER
 48
0.1
100
AcDbLine
 10
56.89752043558272
 20
142.64445352863
 30
0.0
 11
49.69752043558272
 21
142.64445352863
 31
0.0
  0
ARC
  5
1326
330
12DF
100
AcDbEntity
  8
1
  6
Continuous
100
AcDbCircle
 10
49.46118771030096
 20
152.4604506491513
 30
0.0
 40
0.3999999999985422
100
AcDbArc
 50
23.53283303577257
 51
203.5328330357724
  0
LINE
  5
1327
330
12DF
100
AcDbEntity
  8
1
  6
Continuous
100
AcDbLine
 10
49.29752043558274
 20
151.83445352863
 30
0.0
 11
49.07449141518203
 21
152.3465824124023
 31
0.0
  0
LINE
  5
1328
330
12DF
100
AcDbEntity
  8
1
  6
Continuous
100
AcDbLine
 10
54.19752043558272
 20
151.83445352863
 30
0.0
 11
53.88738586869172
 21
151.83445352863
 31
0.0
  0
ARC
  5
1329
330
12DF
100
AcDbEntity
  8
1
  6
Continuous
100
AcDbCircle
 10
53.99752043558271
 20
148.04445352863
 30
0.0
 40
3.5
100
AcDbArc
 50
146.9960337787248
 51
180.0
  0
LINE
  5
132A
330
12DF
100
AcDbEntity
  8
1
  6
Continuous
100
AcDbLine
 10
50.17009087773113
 20
151.83445352863
 30
0.0
 11
49.80795655344653
 21
152.6660020281839
 31
0.0
  0
LINE
  5
132B
330
12DF
100
AcDbEntity
  8
1
  6
Continuous
100
AcDbLine
 10
49.29752043558274
 20
143.6344535286343
 30
0.0
 11
48.29752043558274
 21
143.6344535286343
 31
0.0
  0
LINE
  5
132C
330
12DF
100
AcDbEntity
  8
1
  6
Continuous
100
AcDbLine
 10
50.49752043558272
 20
145.63445352863
 30
0.0
 11
48.29752043558274
 21
145.63445352863
 31
0.0
  0
LINE
  5
132D
330
12DF
100
AcDbEntity
  8
4
  6
CENTER
 48
0.1
100
AcDbLine
 10
50.0747364568287
 20
139.83445352863
 30
0.0
 11
46.66032416712249
 21
139.83445352863
 31
0.0
  0
LINE
  5
132E
330
12DF
100
AcDbEntity
  8
4
  6
CENTER
 48
0.1
100
AcDbLine
 10
53.29752043558274
 20
139.04445352863
 30
0.0
 11
53.29752043558274
 21
146.24445352863
 31
0.0
  0
ARC
  5
132F
330
12DF
100
AcDbEntity
  8
1
  6
Continuous
100
AcDbCircle
 10
53.99752043558271
 20
148.04445352863
 30
0.0
 40
3.5
100
AcDbArc
 50
350.0000000000531
 51
91.322192808865
  0
ARC
  5
1330
330
12DF
100
AcDbEntity
  8
1
  6
Continuous
100
AcDbCircle
 10
53.40390264221078
 20
147.3469580018346
 30
0.0
 40
4.69842830268799
100
AcDbArc
 50
349.9999999999997
 51
84.3261771657251
  0
ARC
  5
1331
330
12DF
100
AcDbEntity
  8
1
  6
Continuous
100
AcDbCircle
 10
54.19752043558272
 20
148.7344535286301
 30
0.0
 40
3.099999999999993
100
AcDbArc
 50
12.3149188505607
 51
90.0
  0
ARC
  5
1332
330
12DF
100
AcDbEntity
  8
1
  6
Continuous
100
AcDbCircle
 10
53.89752043558271
 20
148.81445352863
 30
0.0
 40
2.2
100
AcDbArc
 50
283.4262427991792
 51
88.10427659756269
  0
LINE
  5
1333
330
12DF
100
AcDbEntity
  8
1
  6
Continuous
100
AcDbLine
 10
57.44434757112545
 20
147.4366849067959
 30
0.0
 11
57.11069612541344
 21
145.54445352863
 31
0.0
  0
LINE
  5
1334
330
12DF
100
AcDbEntity
  8
1
  6
Continuous
100
AcDbLine
 10
57.11069612541353
 20
145.54445352863
 30
0.0
 11
57.83447834266342
 21
145.4168311955726
 31
0.0
  0
LINE
  5
1335
330
12DF
100
AcDbEntity
  8
4
  6
CENTER
 48
0.1
100
AcDbLine
 10
53.89752043558271
 20
145.34445352863
 30
0.0
 11
53.89752043558271
 21
152.28445352863
 31
0.0
  0
LINE
  5
1336
330
12DF
100
AcDbEntity
  8
1
  6
Continuous
100
AcDbLine
 10
146.2975204355351
 20
114.2223886742786
 30
0.0
 11
146.2975204355351
 21
151.6444535286214
 31
0.0
  0
LINE
  5
1337
330
12DF
100
AcDbEntity
  8
1
  6
Continuous
100
AcDbLine
 10
130.2975204355351
 20
114.2223886742786
 30
0.0
 11
130.2975204355351
 21
151.6444535286214
 31
0.0
  0
LINE
  5
1338
330
12DF
100
AcDbEntity
  8
4
  6
CENTER
 48
0.2
100
AcDbLine
 10
138.2975204355969
 20
109.5375749494547
 30
0.0
 11
138.2975204355717
 21
168.5436512043074
 31
0.0
  0
ARC
  5
1339
330
12DF
100
AcDbEntity
  8
1
  6
Continuous
100
AcDbCircle
 10
138.2975204355352
 20
129.1014912196668
 30
0.0
 40
16.89342157634681
100
AcDbArc
 50
241.7345545011435
 51
298.2654454988562
  0
ARC
  5
133A
330
12DF
100
AcDbEntity
  8
1
  6
Continuous
100
AcDbCircle
 10
138.2975204355352
 20
127.0648315384804
 30
0.0
 40
15.13037800982808
100
AcDbArc
 50
238.0797997464036
 51
301.9202002535962
  0
LINE
  5
133B
330
12DF
100
AcDbEntity
  8
4
  6
CENTER
 48
0.1
100
AcDbLine
 10
143.0975204355744
 20
116.9344535286312
 30
0.0
 11
133.4975204355743
 21
116.9344535286312
 31
0.0
  0
LINE
  5
133C
330
12DF
100
AcDbEntity
  8
1
  6
Continuous
100
AcDbLine
 10
128.1475310507969
 20
145.1250544529194
 30
0.0
 11
131.0895928108463
 21
162.1002764774816
 31
0.0
  0
LINE
  5
133D
330
12DF
100
AcDbEntity
  8
1
  6
Continuous
100
AcDbLine
 10
125.3658855470153
 20
146.6258703281324
 30
0.0
 11
127.9379431347324
 21
161.5026944169648
 31
0.0
  0
LINE
  5
133E
330
12DF
100
AcDbEntity
  8
1
  6
Continuous
100
AcDbLine
 10
130.2975204355351
 20
151.6444535286214
 30
0.0
 11
131.097520435535
 21
151.6444535286214
 31
0.0
  0
LINE
  5
133F
330
12DF
100
AcDbEntity
  8
1
  6
Continuous
100
AcDbLine
 10
130.2975204355351
 20
145.6444535286216
 30
0.0
 11
133.8975204355352
 21
145.6444535286216
 31
0.0
  0
ARC
  5
1340
330
12DF
100
AcDbEntity
  8
1
  6
Continuous
100
AcDbCircle
 10
129.7975204355704
 20
145.8444535286313
 30
0.0
 40
4.5
100
AcDbArc
 50
169.9999999999996
 51
270.0
  0
ARC
  5
1341
330
12DF
100
AcDbEntity
  8
1
  6
Continuous
100
AcDbCircle
 10
133.1046632926784
 20
148.9144535286299
 30
0.0
 40
3.807142857143183
100
AcDbArc
 50
144.6997515601426
 51
215.3002484398574
  0
LINE
  5
1342
330
12DF
100
AcDbEntity
  8
1
  6
Continuous
100
AcDbLine
 10
129.9975204355352
 20
151.1144535286298
 30
0.0
 11
129.9975204355352
 21
146.7144535286299
 31
0.0
  0
LINE
  5
1343
330
12DF
100
AcDbEntity
  8
1
  6
Continuous
100
AcDbLine
 10
130.2975204355351
 20
151.1144535286298
 30
0.0
 11
130.2975204355351
 21
146.7144535286299
 31
0.0
  0
LINE
  5
1344
330
12DF
100
AcDbEntity
  8
1
  6
Continuous
100
AcDbLine
 10
129.9975204355352
 20
151.1144535286298
 30
0.0
 11
130.2975204355351
 21
151.1144535286298
 31
0.0
  0
LINE
  5
1345
330
12DF
100
AcDbEntity
  8
1
  6
Continuous
100
AcDbLine
 10
129.9975204355352
 20
146.7144535286299
 30
0.0
 11
130.2975204355351
 21
146.7144535286298
 31
0.0
  0
LINE
  5
1346
330
12DF
100
AcDbEntity
  8
1
  6
Continuous
100
AcDbLine
 10
128.8025329984638
 20
144.3444535286313
 30
0.0
 11
130.2975204355351
 21
144.3444535286313
 31
0.0
  0
ARC
  5
1347
330
12DF
100
AcDbEntity
  8
1
  6
Continuous
100
AcDbCircle
 10
129.7975204355704
 20
145.8444535286313
 30
0.0
 40
1.8
100
AcDbArc
 50
203.5573097619157
 51
236.4426902380788
  0
LINE
  5
1348
330
12DF
100
AcDbEntity
  8
1
  6
Continuous
100
AcDbLine
 10
129.7975204355704
 20
141.3444535286313
 30
0.0
 11
130.2975204355351
 21
141.3444535286313
 31
0.0
  0
LINE
  5
1349
330
12DF
100
AcDbEntity
  8
1
  6
Continuous
100
AcDbLine
 10
134.3975204355352
 20
152.1444535286216
 30
0.0
 11
142.9975204355351
 21
152.1444535286216
 31
0.0
  0
ARC
  5
134A
330
12DF
100
AcDbEntity
  8
1
  6
Continuous
100
AcDbCircle
 10
133.8975204355352
 20
146.1444535286215
 30
0.0
 40
0.5
100
AcDbArc
 50
270.0
 51
0.0
  0
LINE
  5
134B
330
12DF
100
AcDbEntity
  8
1
  6
Continuous
100
AcDbLine
 10
131.097520435535
 20
145.6444535286216
 30
0.0
 11
131.097520435535
 21
151.6444535286214
 31
0.0
  0
LINE
  5
134C
330
12DF
100
AcDbEntity
  8
1
  6
Continuous
100
AcDbLine
 10
132.5475204356953
 20
145.7344535286354
 30
0.0
 11
132.5475204356953
 21
151.9344535286311
 31
0.0
  0
LINE
  5
134D
330
12DF
100
AcDbEntity
  8
1
  6
Continuous
100
AcDbLine
 10
131.5475204356953
 20
145.7344535286354
 30
0.0
 11
131.5475204356953
 21
151.9344535286311
 31
0.0
  0
ARC
  5
134E
330
12DF
100
AcDbEntity
  8
1
  6
Continuous
100
AcDbCircle
 10
133.8975204356234
 20
145.9844535285997
 30
0.0
 40
0.4
100
AcDbArc
 50
329.7930354405032
 51
350.5376777919725
  0
ARC
  5
134F
330
12DF
100
AcDbEntity
  8
1
  6
Continuous
100
AcDbCircle
 10
133.8975204356234
 20
145.9844535285997
 30
0.0
 40
0.4
100
AcDbArc
 50
170.5376777919725
 51
238.2116693770536
  0
ARC
  5
1350
330
12DF
100
AcDbEntity
  8
1
  6
Continuous
100
AcDbCircle
 10
133.0975204356234
 20
145.9844535285997
 30
0.0
 40
0.4
100
AcDbArc
 50
301.7883306229506
 51
350.5376777919725
  0
ARC
  5
1351
330
12DF
100
AcDbEntity
  8
1
  6
Continuous
100
AcDbCircle
 10
133.0975204356234
 20
145.9844535285997
 30
0.0
 40
0.4
100
AcDbArc
 50
170.5376777919725
 51
238.2116693770492
  0
LINE
  5
1352
330
12DF
100
AcDbEntity
  8
1
  6
Continuous
100
AcDbLine
 10
132.6742405309823
 20
151.9344535286288
 30
0.0
 11
131.5475204356909
 21
151.9344535286288
 31
0.0
  0
LINE
  5
1353
330
12DF
100
AcDbEntity
  8
1
  6
Continuous
100
AcDbLine
 10
131.097520435535
 20
150.4144535286298
 30
0.0
 11
131.5475204356951
 21
150.4144535286298
 31
0.0
  0
LINE
  5
1354
330
12DF
100
AcDbEntity
  8
1
  6
Continuous
100
AcDbLine
 10
131.097520435535
 20
147.4144535286299
 30
0.0
 11
131.5475204356951
 21
147.4144535286299
 31
0.0
  0
LINE
  5
1355
330
12DF
100
AcDbEntity
  8
1
  6
Continuous
100
AcDbLine
 10
134.3975204355352
 20
146.1444535286215
 30
0.0
 11
134.3975204355352
 21
152.1444535286216
 31
0.0
  0
LINE
  5
1356
330
12DF
100
AcDbEntity
  8
1
  6
Continuous
100
AcDbLine
 10
132.7029628660909
 20
146.0502131235219
 30
0.0
 11
133.5029628660909
 21
150.8502131235224
 31
0.0
  0
LINE
  5
1357
330
12DF
100
AcDbEntity
  8
1
  6
Continuous
100
AcDbLine
 10
133.5029628660909
 20
146.0502131235219
 30
0.0
 11
134.3029628660908
 21
150.8502131235224
 31
0.0
  0
LINE
  5
1358
330
12DF
100
AcDbEntity
  8
1
  6
Continuous
100
AcDbLine
 10
132.5475204356952
 20
150.41445352863
 30
0.0
 11
133.4303362669422
 21
150.4144535286302
 31
0.0
  0
LINE
  5
1359
330
12DF
100
AcDbEntity
  8
1
  6
Continuous
100
AcDbLine
 10
134.3975204355352
 20
151.9344535286293
 30
0.0
 11
133.4770135029018
 21
151.9344535286289
 31
0.0
  0
LINE
  5
135A
330
12DF
100
AcDbEntity
  8
1
  6
Continuous
100
AcDbLine
 10
132.6975204356234
 20
150.41445352863
 30
0.0
 11
132.6975204356234
 21
152.1604506491256
 31
0.0
  0
LINE
  5
135B
330
12DF
100
AcDbEntity
  8
1
  6
Continuous
100
AcDbLine
 10
137.6580105023558
 20
152.1444535286216
 30
0.0
 11
137.6975204356235
 21
152.5960541323513
 31
0.0
  0
ARC
  5
135C
330
12DF
100
AcDbEntity
  8
1
  6
Continuous
100
AcDbCircle
 10
133.4975204356236
 20
152.1604506491256
 30
0.0
 40
0.8
100
AcDbArc
 50
90.00000000000012
 51
180.0
  0
LINE
  5
135D
330
12DF
100
AcDbEntity
  8
1
  6
Continuous
100
AcDbLine
 10
134.3975204355353
 20
152.08171085196
 30
0.0
 11
133.4975204356236
 21
152.1604506491256
 31
0.0
  0
LINE
  5
135E
330
12DF
100
AcDbEntity
  8
1
  6
Continuous
100
AcDbLine
 10
137.6975204356234
 20
152.5960541323513
 30
0.0
 11
133.5672450298218
 21
152.9574064075989
 31
0.0
  0
LINE
  5
135F
330
12DF
100
AcDbEntity
  8
1
  6
Continuous
100
AcDbLine
 10
133.4975204356236
 20
150.8175585407184
 30
0.0
 11
133.4975204356236
 21
152.1604506491256
 31
0.0
  0
ARC
  5
1360
330
12DF
100
AcDbEntity
  8
1
  6
Continuous
100
AcDbCircle
 10
133.8975204356234
 20
150.7844535286
 30
0.0
 40
0.4
100
AcDbArc
 50
350.5376777919722
 51
170.5376777919725
  0
ARC
  5
1361
330
12DF
100
AcDbEntity
  8
1
  6
Continuous
100
AcDbCircle
 10
134.6975204356234
 20
150.7844535286
 30
0.0
 40
0.4
100
AcDbArc
 50
138.5903779098725
 51
170.5376777919725
  0
LINE
  5
1362
330
12DF
100
AcDbEntity
  8
1
  6
Continuous
100
AcDbLine
 10
132.5475204356953
 20
147.41445352863
 30
0.0
 11
132.9303362669422
 21
147.41445352863
 31
0.0
  0
LINE
  5
1363
330
12DF
100
AcDbEntity
  8
1
  6
Continuous
100
AcDbLine
 10
132.6975204356234
 20
145.9844535285998
 30
0.0
 11
132.6975204356234
 21
147.41445352863
 31
0.0
  0
ARC
  5
1364
330
12DF
100
AcDbEntity
  8
1
  6
Continuous
100
AcDbCircle
 10
134.6975204356234
 20
145.9844535285997
 30
0.0
 40
0.4
100
AcDbArc
 50
170.5376777919725
 51
196.8164675696193
  0
LINE
  5
1365
330
12DF
100
AcDbEntity
  8
1
  6
Continuous
100
AcDbLine
 10
134.3029628660908
 20
146.0502131235219
 30
0.0
 11
134.3975204355352
 21
146.617558540188
 31
0.0
  0
LINE
  5
1366
330
12DF
100
AcDbEntity
  8
1
  6
Continuous
100
AcDbLine
 10
132.5475204356953
 20
145.7344535286355
 30
0.0
 11
131.5475204356921
 21
145.7344535286354
 31
0.0
  0
ARC
  5
1367
330
12DF
100
AcDbEntity
  8
1
  6
Continuous
100
AcDbCircle
 10
131.5475204356938
 20
144.7344535286354
 30
0.0
 40
1.0
100
AcDbArc
 50
65.50535152668679
 51
89.99999999999998
  0
ARC
  5
1368
330
12DF
100
AcDbEntity
  8
1
  6
Continuous
100
AcDbCircle
 10
143.4975204355352
 20
146.1444535286215
 30
0.0
 40
0.5
100
AcDbArc
 50
180.0
 51
270.0
  0
LINE
  5
1369
330
12DF
100
AcDbEntity
  8
1
  6
Continuous
100
AcDbLine
 10
145.4975204355352
 20
145.6444535286211
 30
0.0
 11
145.4975204355352
 21
151.6444535286214
 31
0.0
  0
LINE
  5
136A
330
12DF
100
AcDbEntity
  8
1
  6
Continuous
100
AcDbLine
 10
144.0475204356953
 20
145.7344535286378
 30
0.0
 11
144.0475204356953
 21
151.9344535286311
 31
0.0
  0
LINE
  5
136B
330
12DF
100
AcDbEntity
  8
1
  6
Continuous
100
AcDbLine
 10
145.0475204356953
 20
145.7344535286378
 30
0.0
 11
145.0475204356953
 21
151.9344535286311
 31
0.0
  0
LINE
  5
136C
330
12DF
100
AcDbEntity
  8
1
  6
Continuous
100
AcDbLine
 10
143.8975204356251
 20
145.6444535286208
 30
0.0
 11
143.8975204356247
 21
147.414453528631
 31
0.0
  0
LINE
  5
136D
330
12DF
100
AcDbEntity
  8
1
  6
Continuous
100
AcDbLine
 10
143.3413712709822
 20
147.4144535286312
 30
0.0
 11
144.0475204356951
 21
147.4144535286312
 31
0.0
  0
LINE
  5
136E
330
12DF
100
AcDbEntity
  8
1
  6
Continuous
100
AcDbLine
 10
145.0475204356952
 20
151.9344535286311
 30
0.0
 11
142.9975204355351
 21
151.9344535286307
 31
0.0
  0
LINE
  5
136F
330
12DF
100
AcDbEntity
  8
1
  6
Continuous
100
AcDbLine
 10
143.8920780051566
 20
150.718693933678
 30
0.0
 11
143.0920780051564
 21
145.9186939336778
 31
0.0
  0
ARC
  5
1370
330
12DF
100
AcDbEntity
  8
1
  6
Continuous
100
AcDbCircle
 10
143.4975204356236
 20
150.7844535286
 30
0.0
 40
0.4
100
AcDbArc
 50
350.5376777919722
 51
170.5376777919725
  0
LINE
  5
1371
330
12DF
100
AcDbEntity
  8
1
  6
Continuous
100
AcDbLine
 10
142.9975204355351
 20
146.1444535286215
 30
0.0
 11
142.9975204355351
 21
152.1444535286216
 31
0.0
  0
ARC
  5
1372
330
12DF
100
AcDbEntity
  8
1
  6
Continuous
100
AcDbCircle
 10
142.6975204356235
 20
150.7844535286
 30
0.0
 40
0.4
100
AcDbArc
 50
350.5376777919722
 51
41.40962212843439
  0
LINE
  5
1373
330
12DF
100
AcDbEntity
  8
1
  6
Continuous
100
AcDbLine
 10
142.9975204355351
 20
150.2175585401881
 30
0.0
 11
143.1029628660909
 21
150.850213123522
 31
0.0
  0
ARC
  5
1374
330
12DF
100
AcDbEntity
  8
1
  6
Continuous
100
AcDbCircle
 10
142.6975204356235
 20
145.9844535285997
 30
0.0
 40
0.4
100
AcDbArc
 50
343.1835324028868
 51
350.5376777919725
  0
LINE
  5
1375
330
12DF
100
AcDbEntity
  8
1
  6
Continuous
100
AcDbLine
 10
146.6975204355351
 20
151.0144535286315
 30
0.0
 11
146.6975204355351
 21
146.8144535286316
 31
0.0
  0
LINE
  5
1376
330
12DF
100
AcDbEntity
  8
1
  6
Continuous
100
AcDbLine
 10
143.8413712709822
 20
150.4144535286313
 30
0.0
 11
144.0475204356953
 21
150.4144535286313
 31
0.0
  0
LINE
  5
1377
330
12DF
100
AcDbEntity
  8
1
  6
Continuous
100
AcDbLine
 10
145.0475204356952
 20
150.4144535286313
 30
0.0
 11
145.4975204355352
 21
150.4144535286313
 31
0.0
  0
ARC
  5
1378
330
12DF
100
AcDbEntity
  8
1
  6
Continuous
100
AcDbCircle
 10
146.2975204355351
 20
150.8144535286314
 30
0.0
 40
0.4
100
AcDbArc
 50
270.0
 51
0.0
  0
LINE
  5
1379
330
12DF
100
AcDbEntity
  8
1
  6
Continuous
100
AcDbLine
 10
145.4975204355352
 20
151.6444535286214
 30
0.0
 11
146.2975204355351
 21
151.6444535286214
 31
0.0
  0
LINE
  5
137A
330
12DF
100
AcDbEntity
  8
1
  6
Continuous
100
AcDbLine
 10
143.8975204356238
 20
150.414453528631
 30
0.0
 11
143.8975204356236
 21
150.7844535286003
 31
0.0
  0
LINE
  5
137B
330
12DF
100
AcDbEntity
  8
1
  6
Continuous
100
AcDbLine
 10
145.0475204356953
 20
147.4144535286312
 30
0.0
 11
145.4975204355352
 21
147.4144535286312
 31
0.0
  0
ARC
  5
137C
330
12DF
100
AcDbEntity
  8
1
  6
Continuous
100
AcDbCircle
 10
146.2975204355351
 20
147.0144535286314
 30
0.0
 40
0.4
100
AcDbArc
 50
0.0
 51
89.99999999999998
  0
LINE
  5
137D
330
12DF
100
AcDbEntity
  8
1
  6
Continuous
100
AcDbLine
 10
143.497520435535
 20
145.6444535286216
 30
0.0
 11
146.2975204355355
 21
145.6444535286209
 31
0.0
  0
ARC
  5
137E
330
12DF
100
AcDbEntity
  8
1
  6
Continuous
100
AcDbCircle
 10
145.0475204356959
 20
144.7344535286378
 30
0.0
 40
1.0
100
AcDbArc
 50
89.99999999999998
 51
114.4946484736998
  0
LINE
  5
137F
330
12DF
100
AcDbEntity
  8
1
  6
Continuous
100
AcDbLine
 10
145.0475204356965
 20
145.7344535286378
 30
0.0
 11
144.0475204356953
 21
145.7344535286376
 31
0.0
  0
LINE
  5
1380
330
12DF
100
AcDbEntity
  8
1
  6
Continuous
100
AcDbLine
 10
146.2975204355351
 20
141.3444535286313
 30
0.0
 11
146.7975204355703
 21
141.3444535286313
 31
0.0
  0
LINE
  5
1381
330
12DF
100
AcDbEntity
  8
4
  6
CENTER
 48
0.1
100
AcDbLine
 10
143.0975204355744
 20
139.934453528631
 30
0.0
 11
133.4975204355743
 21
139.934453528631
 31
0.0
  0
ARC
  5
1382
330
12DF
100
AcDbEntity
  8
1
  6
Continuous
100
AcDbCircle
 10
132.8619818997935
 20
160.63445352863
 30
0.0
 40
5.0
100
AcDbArc
 50
89.99999999999998
 51
169.9999999999996
  0
LINE
  5
1383
330
12DF
100
AcDbEntity
  8
1
  6
Continuous
100
AcDbLine
 10
131.7262002306335
 20
162.63445352863
 30
0.0
 11
144.8688406405066
 21
162.63445352863
 31
0.0
  0
LINE
  5
1384
330
12DF
100
AcDbEntity
  8
1
  6
Continuous
100
AcDbLine
 10
132.8619818997935
 20
165.63445352863
 30
0.0
 11
143.7330589713464
 21
165.63445352863
 31
0.0
  0
ARC
  5
1385
330
12DF
100
AcDbEntity
  8
1
  6
Continuous
100
AcDbCircle
 10
132.8619818997935
 20
160.63445352863
 30
0.0
 40
2.299999999999998
100
AcDbArc
 50
119.5918457939505
 51
140.4081542060492
  0
ARC
  5
1386
330
12DF
100
AcDbEntity
  8
1
  6
Continuous
100
AcDbCircle
 10
143.7330589713464
 20
160.63445352863
 30
0.0
 40
2.299999999999998
100
AcDbArc
 50
39.5918457939459
 51
60.40815420604931
  0
LINE
  5
1387
330
12DF
100
AcDbEntity
  8
1
  6
Continuous
100
AcDbLine
 10
151.2291553241251
 20
146.6258703281324
 30
0.0
 11
148.6570977364073
 21
161.5026944169648
 31
0.0
  0
LINE
  5
1388
330
12DF
100
AcDbEntity
  8
1
  6
Continuous
100
AcDbLine
 10
147.0975204355351
 20
151.0144535286315
 30
0.0
 11
147.0975204355351
 21
146.8144535286316
 31
0.0
  0
ARC
  5
1389
330
12DF
100
AcDbEntity
  8
1
  6
Continuous
100
AcDbCircle
 10
146.7975204355703
 20
145.8444535286313
 30
0.0
 40
1.8
100
AcDbArc
 50
303.5573097619208
 51
336.4426902380805
  0
LINE
  5
138A
330
12DF
100
AcDbEntity
  8
1
  6
Continuous
100
AcDbLine
 10
134.3975204356917
 20
221.3182254938581
 30
0.0
 11
134.3975204356893
 21
225.4389762772095
 31
0.0
  0
LINE
  5
138B
330
12DF
100
AcDbEntity
  8
1
  6
Continuous
100
AcDbLine
 10
130.2975204356916
 20
221.9230360032319
 30
0.0
 11
130.2975204356888
 21
226.6367402551519
 31
0.0
  0
LINE
  5
138C
330
12DF
100
AcDbEntity
  8
1
  6
Continuous
100
AcDbLine
 10
131.0975204356916
 20
221.9230360032331
 30
0.0
 11
131.0975204356886
 21
226.8230360031719
 31
0.0
  0
ARC
  5
138D
330
12DF
100
AcDbEntity
  8
1
  6
Continuous
100
AcDbCircle
 10
131.0975204356913
 20
222.3860780960734
 30
0.0
 40
0.8
100
AcDbArc
 50
215.3663690284834
 51
270.0000000000001
  0
LINE
  5
138E
330
12DF
100
AcDbEntity
  8
1
  6
Continuous
100
AcDbLine
 10
130.2975204356914
 20
221.9230360032319
 30
0.0
 11
131.0975204356914
 21
221.9230360032331
 31
0.0
  0
LINE
  5
138F
330
12DF
100
AcDbEntity
  8
1
  6
Continuous
100
AcDbLine
 10
131.0975204356913
 20
222.3739242985483
 30
0.0
 11
131.5475204355528
 21
222.3739242985488
 31
0.0
  0
LINE
  5
1390
330
12DF
100
AcDbEntity
  8
1
  6
Continuous
100
AcDbLine
 10
131.0975204356908
 20
221.5860780960737
 30
0.0
 11
134.3975204356915
 21
221.5860780960725
 31
0.0
  0
ARC
  5
1391
330
12DF
100
AcDbEntity
  8
1
  6
Continuous
100
AcDbCircle
 10
134.8975204356894
 20
225.4230360031701
 30
0.0
 40
0.5
100
AcDbArc
 50
90.00000000000012
 51
180.0
  0
ARC
  5
1392
330
12DF
100
AcDbEntity
  8
1
  6
Continuous
100
AcDbCircle
 10
134.8975204356894
 20
225.4389762772099
 30
0.0
 40
0.5
100
AcDbArc
 50
90.00000000000012
 51
180.0
  0
ARC
  5
1393
330
12DF
100
AcDbEntity
  8
1
  6
Continuous
100
AcDbCircle
 10
178.2975204355623
 20
161.4344535286314
 30
0.0
 40
16.0
100
AcDbArc
 50
46.39718102715479
 51
133.602818972562
  0
LINE
  5
1394
330
12DF
100
AcDbEntity
  8
1
  6
Continuous
100
AcDbLine
 10
189.399405821037
 20
170.916687053754
 30
0.0
 11
184.7975204355687
 21
165.9344535286322
 31
0.0
  0
LINE
  5
1395
330
12DF
100
AcDbEntity
  8
4
  6
CENTER
 48
0.2
100
AcDbLine
 10
188.0975204355653
 20
171.934453528632
 30
0.0
 11
168.4975204355654
 21
171.9344535286308
 31
0.0
  0
LINE
  5
1396
330
12DF
100
AcDbEntity
  8
1
  6
Continuous
100
AcDbLine
 10
29.49752043558098
 20
164.13445352863
 30
0.0
 11
29.49752043558098
 21
177.3344535286299
 31
0.0
  0
LINE
  5
1397
330
12DF
100
AcDbEntity
  8
1
  6
Continuous
100
AcDbLine
 10
28.29752043558096
 20
164.13445352863
 30
0.0
 11
28.29752043558096
 21
177.3344535286303
 31
0.0
  0
LINE
  5
1398
330
12DF
100
AcDbEntity
  8
1
  6
Continuous
100
AcDbLine
 10
32.80205243680522
 20
161.9130641758145
 30
0.0
 11
37.29752043558054
 21
165.3625580948706
 31
0.0
  0
LINE
  5
1399
330
12DF
100
AcDbEntity
  8
1
  6
Continuous
100
AcDbLine
 10
32.07153872199482
 20
162.8650881841643
 30
0.0
 11
36.56700672077004
 21
166.3145821032202
 31
0.0
  0
ARC
  5
139A
330
12DF
100
AcDbEntity
  8
1
  6
Continuous
100
AcDbCircle
 10
31.09752043558083
 20
164.13445352863
 30
0.0
 40
2.799999999999998
100
AcDbArc
 50
180.0
 51
307.5
  0
ARC
  5
139B
330
12DF
100
AcDbEntity
  8
1
  6
Continuous
100
AcDbCircle
 10
31.09752043558083
 20
164.13445352863
 30
0.0
 40
1.6
100
AcDbArc
 50
180.0
 51
307.5
  0
LINE
  5
139C
330
12DF
100
AcDbEntity
  8
1
  6
Continuous
100
AcDbLine
 10
29.49752043557803
 20
165.834453528641
 30
0.0
 11
28.29752043557945
 21
165.8344535286414
 31
0.0
  0
LINE
  5
139D
330
12DF
100
AcDbEntity
  8
4
  6
CENTER
 48
0.1
100
AcDbLine
 10
31.09752043558083
 20
171.83445352863
 30
0.0
 11
26.26976606708844
 21
171.83445352863
 31
0.0
  0
LINE
  5
139E
330
12DF
100
AcDbEntity
  8
1
  6
Continuous
100
AcDbLine
 10
36.56700672077004
 20
166.3145821032202
 30
0.0
 11
37.29752043558054
 21
165.3625580948708
 31
0.0
  0
LINE
  5
139F
330
12DF
100
AcDbEntity
  8
1
  6
Continuous
100
AcDbLine
 10
29.49752043558082
 20
177.3344535286299
 30
0.0
 11
28.29752043558221
 21
177.3344535286303
 31
0.0
  0
CIRCLE
  5
13A0
330
12DF
100
AcDbEntity
  8
1
  6
Continuous
100
AcDbCircle
 10
173.2975204355654
 20
171.9344535286308
 30
0.0
 40
2.799999999999998
  0
CIRCLE
  5
13A1
330
12DF
100
AcDbEntity
  8
1
  6
Continuous
100
AcDbCircle
 10
183.2975204355654
 20
171.934453528632
 30
0.0
 40
2.799999999999998
  0
LINE
  5
13A2
330
12DF
100
AcDbEntity
  8
4
  6
CENTER
 48
0.2
100
AcDbLine
 10
178.297520435573
 20
158.5686630248428
 30
0.0
 11
178.2975204355604
 21
180.3940661524684
 31
0.0
  0
LINE
  5
13A3
330
12DF
100
AcDbEntity
  8
4
  6
CENTER
 48
0.1
100
AcDbLine
 10
183.2975204355654
 20
167.1344535286318
 30
0.0
 11
183.2975204355654
 21
176.734453528632
 31
0.0
  0
LINE
  5
13A4
330
12DF
100
AcDbEntity
  8
4
  6
CENTER
 48
0.1
100
AcDbLine
 10
173.2975204355654
 20
167.1344535286308
 30
0.0
 11
173.2975204355654
 21
176.7344535286309
 31
0.0
  0
LINE
  5
13A5
330
12DF
100
AcDbEntity
  8
1
  6
Continuous
100
AcDbLine
 10
167.1956350501301
 20
170.9166870538134
 30
0.0
 11
171.7975204355689
 21
165.9344535286308
 31
0.0
  0
ARC
  5
13A6
330
12DF
100
AcDbEntity
  8
1
  6
Continuous
100
AcDbCircle
 10
168.2975204355883
 20
171.9344535286563
 30
0.0
 40
1.5
100
AcDbArc
 50
133.6028189725622
 51
222.7273953126789
  0
LINE
  5
13A7
330
12DF
100
AcDbEntity
  8
1
  6
Continuous
100
AcDbLine
 10
182.79752043557
 20
165.4625580948783
 30
0.0
 11
173.79752043557
 21
165.4625580948771
 31
0.0
  0
LINE
  5
13A8
330
12DF
100
AcDbEntity
  8
1
  6
Continuous
100
AcDbLine
 10
182.7975204355694
 20
166.4145821032275
 30
0.0
 11
173.7975204355694
 21
166.4145821032268
 31
0.0
  0
LINE
  5
13A9
330
12DF
100
AcDbEntity
  8
1
  6
Continuous
100
AcDbLine
 10
184.7975204355714
 20
161.434453528632
 30
0.0
 11
171.7975204355714
 21
161.4344535286305
 31
0.0
  0
LINE
  5
13AA
330
12DF
100
AcDbEntity
  8
1
  6
Continuous
100
AcDbLine
 10
171.7975204355714
 20
161.4344535286307
 30
0.0
 11
171.7975204355687
 21
165.9344535286306
 31
0.0
  0
CIRCLE
  5
13AB
330
12DF
100
AcDbEntity
  8
1
  6
Continuous
100
AcDbCircle
 10
173.2975204355654
 20
171.9344535286308
 30
0.0
 40
1.7
  0
ARC
  5
13AC
330
12DF
100
AcDbEntity
  8
1
  6
Continuous
100
AcDbCircle
 10
173.7975204355703
 20
163.4625580948771
 30
0.0
 40
2.0
100
AcDbArc
 50
89.99999999999998
 51
180.0
  0
ARC
  5
13AD
330
12DF
100
AcDbEntity
  8
1
  6
Continuous
100
AcDbCircle
 10
173.7975204355697
 20
164.4145821032268
 30
0.0
 40
2.0
100
AcDbArc
 50
89.99999999999998
 51
180.0
  0
LINE
  5
13AE
330
12DF
100
AcDbEntity
  8
1
  6
Continuous
100
AcDbLine
 10
184.7975204355714
 20
161.434453528632
 30
0.0
 11
184.7975204355687
 21
165.9344535286322
 31
0.0
  0
CIRCLE
  5
13AF
330
12DF
100
AcDbEntity
  8
1
  6
Continuous
100
AcDbCircle
 10
183.2975204355654
 20
171.934453528632
 30
0.0
 40
1.7
  0
ARC
  5
13B0
330
12DF
100
AcDbEntity
  8
1
  6
Continuous
100
AcDbCircle
 10
182.7975204355702
 20
163.4625580948783
 30
0.0
 40
2.0
100
AcDbArc
 50
0.0
 51
89.99999999999998
  0
ARC
  5
13B1
330
12DF
100
AcDbEntity
  8
1
  6
Continuous
100
AcDbCircle
 10
182.7975204355697
 20
164.4145821032276
 30
0.0
 40
2.0
100
AcDbArc
 50
0.0
 51
89.99999999999998
  0
ARC
  5
13B2
330
12DF
100
AcDbEntity
  8
1
  6
Continuous
100
AcDbCircle
 10
188.2975204355881
 20
171.9344535286066
 30
0.0
 40
1.5
100
AcDbArc
 50
317.2726046867886
 51
46.39718102715501
  0
LINE
  5
13B3
330
12DF
100
AcDbEntity
  8
1
  6
Continuous
100
AcDbLine
 10
146.2975204356915
 20
221.9230360032564
 30
0.0
 11
146.2975204356887
 21
226.636740255007
 31
0.0
  0
LINE
  5
13B4
330
12DF
100
AcDbEntity
  8
1
  6
Continuous
100
AcDbLine
 10
145.4975204356915
 20
221.923036003255
 30
0.0
 11
145.4975204356886
 21
226.8230360031719
 31
0.0
  0
LINE
  5
13B5
330
12DF
100
AcDbEntity
  8
1
  6
Continuous
100
AcDbLine
 10
142.997520435692
 20
221.3182254938581
 30
0.0
 11
142.9975204356894
 21
225.4389762772051
 31
0.0
  0
LINE
  5
13B6
330
12DF
100
AcDbEntity
  8
4
  6
CENTER
 48
0.2
100
AcDbLine
 10
138.2975204355799
 20
219.8342412874589
 30
0.0
 11
138.2975204355717
 21
233.2378122479541
 31
0.0
  0
ARC
  5
13B7
330
12DF
100
AcDbEntity
  8
1
  6
Continuous
100
AcDbCircle
 10
145.4975204356913
 20
222.3860780960686
 30
0.0
 40
0.8
100
AcDbArc
 50
270.0
 51
324.633630974056
  0
LINE
  5
13B8
330
12DF
100
AcDbEntity
  8
1
  6
Continuous
100
AcDbLine
 10
145.4975204356915
 20
221.923036003255
 30
0.0
 11
146.2975204357309
 21
221.9230360032562
 31
0.0
  0
LINE
  5
13B9
330
12DF
100
AcDbEntity
  8
1
  6
Continuous
100
AcDbLine
 10
142.9975204356913
 20
222.3739242985621
 30
0.0
 11
144.0475204355528
 21
222.3739242985634
 31
0.0
  0
LINE
  5
13BA
330
12DF
100
AcDbEntity
  8
1
  6
Continuous
100
AcDbLine
 10
142.9975204356915
 20
221.5860780960694
 30
0.0
 11
145.4975204356844
 21
221.5860780960686
 31
0.0
  0
LINE
  5
13BB
330
12DF
100
AcDbEntity
  8
4
  6
CENTER
 48
0.2
100
AcDbLine
 10
128.3693459178826
 20
225.52303600317
 30
0.0
 11
148.3966753301249
 21
225.52303600317
 31
0.0
  0
LINE
  5
13BC
330
12DF
100
AcDbEntity
  8
4
  6
CENTER
 48
0.2
100
AcDbLine
 10
124.0763590436548
 20
226.1230360031698
 30
0.0
 11
152.5168696634966
 21
226.1230360031698
 31
0.0
  0
ARC
  5
13BD
330
12DF
100
AcDbEntity
  8
1
  6
Continuous
100
AcDbCircle
 10
142.4975204356893
 20
225.4230360031701
 30
0.0
 40
0.5
100
AcDbArc
 50
0.0000000000000509
 51
90.00000000000012
  0
ARC
  5
13BE
330
12DF
100
AcDbEntity
  8
1
  6
Continuous
100
AcDbCircle
 10
142.4975204356893
 20
225.4389762772047
 30
0.0
 40
0.5
100
AcDbArc
 50
0.0000000000000509
 51
90.00000000000012
  0
LINE
  5
13BF
330
12DF
100
AcDbEntity
  8
1
  6
Continuous
100
AcDbLine
 10
132.5475204355528
 20
231.12303600317
 30
0.0
 11
144.0475204355528
 21
231.12303600317
 31
0.0
  0
LINE
  5
13C0
330
12DF
100
AcDbEntity
  8
1
  6
Continuous
100
AcDbLine
 10
132.5475204355528
 20
230.1230360031699
 30
0.0
 11
132.7325368427414
 21
230.1230360031699
 31
0.0
  0
LINE
  5
13C1
330
12DF
100
AcDbEntity
  8
1
  6
Continuous
100
AcDbLine
 10
132.5475204355528
 20
222.1230360031698
 30
0.0
 11
131.5475204355528
 21
222.1230360031698
 31
0.0
  0
ARC
  5
13C2
330
12DF
100
AcDbEntity
  8
1
  6
Continuous
100
AcDbCircle
 10
132.5475204355528
 20
230.1230360031699
 30
0.0
 40
1.0
100
AcDbArc
 50
90.00000000000012
 51
180.0
  0
LINE
  5
13C3
330
12DF
100
AcDbEntity
  8
1
  6
Continuous
100
AcDbLine
 10
131.5475204355528
 20
230.1230360031699
 30
0.0
 11
131.5475204355528
 21
229.8230360031719
 31
0.0
  0
LINE
  5
13C4
330
12DF
100
AcDbEntity
  8
1
  6
Continuous
100
AcDbLine
 10
132.5475204355528
 20
230.1230360031699
 30
0.0
 11
132.5475204355528
 21
229.8230360031719
 31
0.0
  0
LINE
  5
13C5
330
12DF
100
AcDbEntity
  8
1
  6
Continuous
100
AcDbLine
 10
145.0475204355528
 20
222.1230360031698
 30
0.0
 11
144.0475204355528
 21
222.1230360031698
 31
0.0
  0
ARC
  5
13C6
330
12DF
100
AcDbEntity
  8
1
  6
Continuous
100
AcDbCircle
 10
144.0475204355528
 20
230.1230360031699
 30
0.0
 40
1.0
100
AcDbArc
 50
0.0000000000000509
 51
90.00000000000012
  0
LINE
  5
13C7
330
12DF
100
AcDbEntity
  8
1
  6
Continuous
100
AcDbLine
 10
145.0475204355528
 20
230.1230360031699
 30
0.0
 11
145.0475204355528
 21
229.8230360031719
 31
0.0
  0
LINE
  5
13C8
330
12DF
100
AcDbEntity
  8
1
  6
Continuous
100
AcDbLine
 10
144.0475204355528
 20
230.1230360031699
 30
0.0
 11
144.0475204355528
 21
229.8230360031719
 31
0.0
  0
ARC
  5
13C9
330
12DF
100
AcDbEntity
  8
1
  6
Continuous
100
AcDbCircle
 10
51.0975204355808
 20
164.03445352863
 30
0.0
 40
1.5
100
AcDbArc
 50
5.765259698371187
 51
185.7652596983711
  0
LINE
  5
13CA
330
12DF
100
AcDbEntity
  8
1
  6
Continuous
100
AcDbLine
 10
132.5475204355528
 20
222.3739242985502
 30
0.0
 11
134.3975204356913
 21
222.3739242985522
 31
0.0
  0
LINE
  5
13CB
330
12DF
100
AcDbEntity
  8
1
  6
Continuous
100
AcDbLine
 10
145.0475204355528
 20
222.3739242985644
 30
0.0
 11
145.4975204356844
 21
222.3739242985649
 31
0.0
  0
LINE
  5
13CC
330
12DF
100
AcDbEntity
  8
1
  6
Continuous
100
AcDbLine
 10
129.9975204356893
 20
226.4386334155422
 30
0.0
 11
129.9975204356893
 21
223.32303600317
 31
0.0
  0
ARC
  5
13CD
330
12DF
100
AcDbEntity
  8
1
  6
Continuous
100
AcDbCircle
 10
133.1046632928325
 20
225.5230360031696
 30
0.0
 40
3.807142857143183
100
AcDbArc
 50
172.8659879811197
 51
215.3002484398574
  0
LINE
  5
13CE
330
12DF
100
AcDbEntity
  8
1
  6
Continuous
100
AcDbLine
 10
129.9975204356893
 20
223.32303600317
 30
0.0
 11
130.2975204356893
 21
223.3230360031698
 31
0.0
  0
LINE
  5
13CF
330
12DF
100
AcDbEntity
  8
1
  6
Continuous
100
AcDbLine
 10
131.0975204356894
 20
224.0230360031699
 30
0.0
 11
131.5475204358493
 21
224.0230360031699
 31
0.0
  0
LINE
  5
13D0
330
12DF
100
AcDbEntity
  8
1
  6
Continuous
100
AcDbLine
 10
132.5475204358493
 20
224.0230360031702
 30
0.0
 11
132.8529628662451
 21
224.0230360031702
 31
0.0
  0
LINE
  5
13D1
330
12DF
100
AcDbEntity
  8
1
  6
Continuous
100
AcDbLine
 10
143.3964179187623
 20
224.0230360031714
 30
0.0
 11
144.0475204358493
 21
224.0230360031711
 31
0.0
  0
LINE
  5
13D2
330
12DF
100
AcDbEntity
  8
1
  6
Continuous
100
AcDbLine
 10
145.0475204358493
 20
224.0230360031714
 30
0.0
 11
145.4975204356893
 21
224.0230360031714
 31
0.0
  0
LINE
  5
13D3
330
12DF
100
AcDbEntity
  8
1
  6
Continuous
100
AcDbLine
 10
147.0975204356894
 20
226.1084553493792
 30
0.0
 11
147.0975204356894
 21
223.4230360031717
 31
0.0
  0
ARC
  5
13D4
330
12DF
100
AcDbEntity
  8
1
  6
Continuous
100
AcDbCircle
 10
146.2975204356894
 20
223.6230360031715
 30
0.0
 40
0.4
100
AcDbArc
 50
0.0
 51
89.99999999999998
  0
LINE
  5
13D5
330
12DF
100
AcDbEntity
  8
1
  6
Continuous
100
AcDbLine
 10
146.6975204356894
 20
226.3725978021927
 30
0.0
 11
146.6975204356894
 21
223.4230360031717
 31
0.0
  0
LINE
  5
13D6
330
12DF
100
AcDbEntity
  8
1
  6
Continuous
100
AcDbLine
 10
146.6975204356894
 20
223.4230360031714
 30
0.0
 11
147.0975204356894
 21
223.4230360031714
 31
0.0
  0
LINE
  5
13D7
330
12DF
100
AcDbEntity
  8
1
  6
Continuous
100
AcDbLine
 10
132.7029628662451
 20
223.12303600317
 30
0.0
 11
133.3196295329121
 21
226.8230360031719
 31
0.0
  0
LINE
  5
13D8
330
12DF
100
AcDbEntity
  8
1
  6
Continuous
100
AcDbLine
 10
132.6975204357779
 20
229.8230360031719
 30
0.0
 11
132.6975204357778
 21
229.95936872845
 31
0.0
  0
ARC
  5
13D9
330
12DF
100
AcDbEntity
  8
1
  6
Continuous
100
AcDbCircle
 10
133.0975204357778
 20
223.0572764082475
 30
0.0
 40
0.4
100
AcDbArc
 50
170.5376777919725
 51
350.5376777919751
  0
LINE
  5
13DA
330
12DF
100
AcDbEntity
  8
1
  6
Continuous
100
AcDbLine
 10
132.6975204357778
 20
223.0572764082475
 30
0.0
 11
132.6975204357778
 21
224.0230360031702
 31
0.0
  0
LINE
  5
13DB
330
12DF
100
AcDbEntity
  8
1
  6
Continuous
100
AcDbLine
 10
133.0975204357778
 20
230.3593687284501
 30
0.0
 11
137.6975204357779
 21
230.3593687284501
 31
0.0
  0
LINE
  5
13DC
330
12DF
100
AcDbEntity
  8
1
  6
Continuous
100
AcDbLine
 10
137.6975204357779
 20
229.8230360031719
 30
0.0
 11
137.6975204357779
 21
230.3593687284501
 31
0.0
  0
ARC
  5
13DD
330
12DF
100
AcDbEntity
  8
1
  6
Continuous
100
AcDbCircle
 10
133.0975204357778
 20
229.95936872845
 30
0.0
 40
0.4
100
AcDbArc
 50
90.0
 51
199.927560719608
  0
LINE
  5
13DE
330
12DF
100
AcDbEntity
  8
1
  6
Continuous
100
AcDbLine
 10
137.6975204357779
 20
230.1230360031699
 30
0.0
 11
144.0475204355528
 21
230.1230360031699
 31
0.0
  0
LINE
  5
13DF
330
12DF
100
AcDbEntity
  8
1
  6
Continuous
100
AcDbLine
 10
133.4920780053106
 20
222.9915168133254
 30
0.0
 11
134.1306645369518
 21
226.8230360031719
 31
0.0
  0
LINE
  5
13E0
330
12DF
100
AcDbEntity
  8
1
  6
Continuous
100
AcDbLine
 10
134.3031130093506
 20
222.9915168133254
 30
0.0
 11
134.3975204356905
 21
223.5579613713654
 31
0.0
  0
ARC
  5
13E1
330
12DF
100
AcDbEntity
  8
1
  6
Continuous
100
AcDbCircle
 10
133.9085554398176
 20
223.0572764082475
 30
0.0
 40
0.4
100
AcDbArc
 50
170.5376777919725
 51
350.5376777919751
  0
LINE
  5
13E2
330
12DF
100
AcDbEntity
  8
1
  6
Continuous
100
AcDbLine
 10
135.605391257371
 20
225.9389762772094
 30
0.0
 11
135.7527345450313
 21
226.8230360031719
 31
0.0
  0
LINE
  5
13E3
330
12DF
100
AcDbEntity
  8
1
  6
Continuous
100
AcDbLine
 10
136.4164262614107
 20
225.938976277209
 30
0.0
 11
136.5637695490711
 21
226.8230360031719
 31
0.0
  0
ARC
  5
13E4
330
12DF
100
AcDbEntity
  8
1
  6
Continuous
100
AcDbCircle
 10
134.7195904438574
 20
223.0572764082475
 30
0.0
 40
0.4
100
AcDbArc
 50
170.5376777919725
 51
216.3728386181919
  0
LINE
  5
13E5
330
12DF
100
AcDbEntity
  8
1
  6
Continuous
100
AcDbLine
 10
140.4716012816089
 20
225.9389762772062
 30
0.0
 11
140.61894456927
 21
226.8230360031719
 31
0.0
  0
LINE
  5
13E6
330
12DF
100
AcDbEntity
  8
1
  6
Continuous
100
AcDbLine
 10
139.6605662775693
 20
225.9389762772066
 30
0.0
 11
139.8079095652303
 21
226.8230360031719
 31
0.0
  0
LINE
  5
13E7
330
12DF
100
AcDbEntity
  8
1
  6
Continuous
100
AcDbLine
 10
141.2826362856487
 20
225.9389762772054
 30
0.0
 11
141.4299795733096
 21
226.8230360031719
 31
0.0
  0
LINE
  5
13E8
330
12DF
100
AcDbEntity
  8
1
  6
Continuous
100
AcDbLine
 10
143.2244980537878
 20
222.9915168133254
 30
0.0
 11
143.8630845854288
 21
226.8230360031719
 31
0.0
  0
LINE
  5
13E9
330
12DF
100
AcDbEntity
  8
1
  6
Continuous
100
AcDbLine
 10
142.8758559450813
 20
225.7658741853245
 30
0.0
 11
143.0520495813893
 21
226.8230360031719
 31
0.0
  0
LINE
  5
13EA
330
12DF
100
AcDbEntity
  8
1
  6
Continuous
100
AcDbLine
 10
142.0936712896883
 20
225.938976277205
 30
0.0
 11
142.2410145773495
 21
226.8230360031719
 31
0.0
  0
ARC
  5
13EB
330
12DF
100
AcDbEntity
  8
1
  6
Continuous
100
AcDbCircle
 10
142.8299404842551
 20
223.0572764082475
 30
0.0
 40
0.4
100
AcDbArc
 50
294.7683066755995
 51
350.5376777919751
  0
LINE
  5
13EC
330
12DF
100
AcDbEntity
  8
1
  6
Continuous
100
AcDbLine
 10
134.7924972037303
 20
225.9278219796037
 30
0.0
 11
134.9416995409915
 21
226.8230360031719
 31
0.0
  0
LINE
  5
13ED
330
12DF
100
AcDbEntity
  8
1
  6
Continuous
100
AcDbLine
 10
137.2274612654504
 20
225.9389762772084
 30
0.0
 11
137.3748045531109
 21
226.8230360031719
 31
0.0
  0
LINE
  5
13EE
330
12DF
100
AcDbEntity
  8
1
  6
Continuous
100
AcDbLine
 10
138.0384962694898
 20
225.9389762772078
 30
0.0
 11
138.1858395571505
 21
226.8230360031719
 31
0.0
  0
LINE
  5
13EF
330
12DF
100
AcDbEntity
  8
1
  6
Continuous
100
AcDbLine
 10
138.8495312735297
 20
225.9389762772073
 30
0.0
 11
138.9968745611904
 21
226.8230360031719
 31
0.0
  0
LINE
  5
13F0
330
12DF
100
AcDbEntity
  8
1
  6
Continuous
100
AcDbLine
 10
166.797520435588
 20
231.12303600317
 30
0.0
 11
166.797520435588
 21
229.9230360031701
 31
0.0
  0
LINE
  5
13F1
330
12DF
100
AcDbEntity
  8
1
  6
Continuous
100
AcDbLine
 10
189.797520435588
 20
231.12303600317
 30
0.0
 11
189.797520435588
 21
229.9230360031701
 31
0.0
  0
LINE
  5
13F2
330
12DF
100
AcDbEntity
  8
1
  6
Continuous
100
AcDbLine
 10
184.7975204355714
 20
229.9230360031701
 30
0.0
 11
184.7975204355714
 21
222.1230360031703
 31
0.0
  0
LINE
  5
13F3
330
12DF
100
AcDbEntity
  8
1
  6
Continuous
100
AcDbLine
 10
171.7975204355714
 20
229.9230360031701
 30
0.0
 11
171.7975204355714
 21
222.1230360031703
 31
0.0
  0
LINE
  5
13F4
330
12DF
100
AcDbEntity
  8
1
  6
Continuous
100
AcDbLine
 10
166.797520435588
 20
231.12303600317
 30
0.0
 11
189.797520435588
 21
231.12303600317
 31
0.0
  0
LINE
  5
13F5
330
12DF
100
AcDbEntity
  8
1
  6
Continuous
100
AcDbLine
 10
166.7975204355878
 20
229.9230360031701
 30
0.0
 11
189.7975204355877
 21
229.9230360031701
 31
0.0
  0
LINE
  5
13F6
330
12DF
100
AcDbEntity
  8
1
  6
Continuous
100
AcDbLine
 10
171.7975204355714
 20
222.8535497179807
 30
0.0
 11
184.7975204355714
 21
222.8535497179807
 31
0.0
  0
LINE
  5
13F7
330
12DF
100
AcDbEntity
  8
1
  6
Continuous
100
AcDbLine
 10
171.7975204355714
 20
222.1230360031703
 30
0.0
 11
184.7975204355714
 21
222.1230360031703
 31
0.0
  0
LINE
  5
13F8
330
12DF
100
AcDbEntity
  8
4
  6
CENTER
 48
0.1
100
AcDbLine
 10
173.2975204355654
 20
227.92303600317
 30
0.0
 11
173.2975204355654
 21
233.12303600317
 31
0.0
  0
LINE
  5
13F9
330
12DF
100
AcDbEntity
  8
4
  6
CENTER
 48
0.1
100
AcDbLine
 10
183.2975204355654
 20
227.92303600317
 30
0.0
 11
183.2975204355654
 21
233.12303600317
 31
0.0
  0
LINE
  5
13FA
330
12DF
100
AcDbEntity
  8
4
  6
CENTER
 48
0.2
100
AcDbLine
 10
178.297520435573
 20
219.7654486907747
 30
0.0
 11
178.2975204355604
 21
234.290113641031
 31
0.0
  0
LINE
  5
13FB
330
12DF
100
AcDbEntity
  8
1
  6
Continuous
100
AcDbLine
 10
54.78993313510057
 20
142.895133103616
 30
0.0
 11
52.58993313509864
 21
164.185133103616
 31
0.0
  0
LINE
  5
13FC
330
12DF
100
AcDbEntity
  8
1
  6
Continuous
100
AcDbLine
 10
51.80510773606489
 20
142.593773953644
 30
0.0
 11
49.605107736063
 21
163.8837739536441
 31
0.0
  0
LINE
  5
13FD
330
12DF
100
AcDbEntity
  8
1
  6
Continuous
100
AcDbLine
 10
50.872134121334
 20
151.83445352863
 30
0.0
 11
48.29752043558274
 21
151.83445352863
 31
0.0
  0
LINE
  5
13FE
330
12DF
100
AcDbEntity
  8
1
  6
Continuous
100
AcDbLine
 10
130.1290560922838
 20
229.8230360031719
 30
0.0
 11
146.4659847788596
 21
229.8230360031719
 31
0.0
  0
LINE
  5
13FF
330
12DF
100
AcDbEntity
  8
1
  6
Continuous
100
AcDbLine
 10
130.5796344935167
 20
226.8230360031719
 30
0.0
 11
146.0154063776413
 21
226.8230360031719
 31
0.0
  0
ARC
  5
1400
330
12DF
100
AcDbEntity
  8
1
  6
Continuous
100
AcDbCircle
 10
130.1290560922838
 20
228.3230360031719
 30
0.0
 40
1.5
100
AcDbArc
 50
90.0
 51
123.4390223290318
  0
ARC
  5
1401
330
12DF
100
AcDbEntity
  8
1
  6
Continuous
100
AcDbCircle
 10
126.7975204355704
 20
226.1230360031698
 30
0.0
 40
1.5
100
AcDbArc
 50
123.4390223290318
 51
270.0
  0
LINE
  5
1402
330
12DF
100
AcDbEntity
  8
1
  6
Continuous
100
AcDbLine
 10
126.7975204355704
 20
224.6230360031701
 30
0.0
 11
129.4054286781189
 21
224.62303600317
 31
0.0
  0
LINE
  5
1403
330
12DF
100
AcDbEntity
  8
1
  6
Continuous
100
AcDbLine
 10
129.3024822913278
 20
229.5747451353479
 30
0.0
 11
125.9709466346145
 21
227.3747451353461
 31
0.0
  0
LINE
  5
1404
330
12DF
100
AcDbEntity
  8
1
  6
Continuous
100
AcDbLine
 10
130.5796344935167
 20
226.8230360031719
 30
0.0
 11
128.2134605652484
 21
225.2605185401799
 31
0.0
  0
ARC
  5
1405
330
12DF
100
AcDbEntity
  8
1
  6
Continuous
100
AcDbCircle
 10
149.7975204355876
 20
226.1230360031698
 30
0.0
 40
1.5
100
AcDbArc
 50
270.0
 51
56.56097767096817
  0
LINE
  5
1406
330
12DF
100
AcDbEntity
  8
1
  6
Continuous
100
AcDbLine
 10
147.2925585798303
 20
229.5747451353479
 30
0.0
 11
150.6240942365436
 21
227.3747451353461
 31
0.0
  0
LINE
  5
1407
330
12DF
100
AcDbEntity
  8
1
  6
Continuous
100
AcDbLine
 10
146.0154063776414
 20
226.8230360031719
 30
0.0
 11
148.3854295012086
 21
225.2579767004609
 31
0.0
  0
LINE
  5
1408
330
12DF
100
AcDbEntity
  8
1
  6
Continuous
100
AcDbLine
 10
149.7975204355876
 20
224.6230360031701
 30
0.0
 11
147.0975204356894
 21
224.62303600317
 31
0.0
  0
LINE
  5
1409
330
12DF
100
AcDbEntity
  8
1
  6
Continuous
100
AcDbLine
 10
144.0475204355528
 20
226.8230360031719
 30
0.0
 11
144.0475204355528
 21
222.1230360031698
 31
0.0
  0
LINE
  5
140A
330
12DF
100
AcDbEntity
  8
1
  6
Continuous
100
AcDbLine
 10
145.0475204355528
 20
226.8230360031719
 30
0.0
 11
145.0475204355528
 21
222.1230360031698
 31
0.0
  0
LINE
  5
140B
330
12DF
100
AcDbEntity
  8
1
  6
Continuous
100
AcDbLine
 10
131.5475204355528
 20
226.8230360031719
 30
0.0
 11
131.5475204355528
 21
222.1230360031698
 31
0.0
  0
LINE
  5
140C
330
12DF
100
AcDbEntity
  8
1
  6
Continuous
100
AcDbLine
 10
132.5475204355528
 20
226.8230360031719
 30
0.0
 11
132.5475204355528
 21
222.1230360031698
 31
0.0
  0
ARC
  5
140D
330
12DF
100
AcDbEntity
  8
1
  6
Continuous
100
AcDbCircle
 10
146.4659847788596
 20
228.3230360031719
 30
0.0
 40
1.5
100
AcDbArc
 50
277.6684497463932
 51
30.53224175136378
  0
ARC
  5
140E
330
12DF
100
AcDbEntity
  8
1
  6
Continuous
100
AcDbCircle
 10
146.4659847788596
 20
228.3230360031719
 30
0.0
 40
1.5
100
AcDbArc
 50
56.56097767050074
 51
90.0
  0
ARC
  5
140F
330
12DF
100
AcDbEntity
  8
1
  6
Continuous
100
AcDbCircle
 10
130.1290560922838
 20
228.3230360031719
 30
0.0
 40
1.5
100
AcDbArc
 50
149.4677582486359
 51
262.3315502536064
  0
LINE
  5
1410
330
12DF
100
AcDbEntity
  8
4
  6
CENTER
 48
0.2
100
AcDbLine
 10
138.2975204355799
 20
66.79859535750093
 30
0.0
 11
138.2975204355717
 21
53.39502439700581
 31
0.0
  0
LINE
  5
1411
330
12DF
100
AcDbEntity
  8
4
  6
CENTER
 48
0.2
100
AcDbLine
 10
128.3693459178826
 20
61.10980064178982
 30
0.0
 11
148.3966753301249
 21
61.10980064178982
 31
0.0
  0
LINE
  5
1412
330
12DF
100
AcDbEntity
  8
4
  6
CENTER
 48
0.2
100
AcDbLine
 10
124.0763590436548
 20
60.50980064178986
 30
0.0
 11
152.5168696634966
 21
60.50980064178986
 31
0.0
  0
LINE
  5
1413
330
12DF
100
AcDbEntity
  8
1
  6
Continuous
100
AcDbLine
 10
132.5475204355528
 20
55.50980064178986
 30
0.0
 11
144.0475204355528
 21
55.50980064178986
 31
0.0
  0
ARC
  5
1414
330
12DF
100
AcDbEntity
  8
1
  6
Continuous
100
AcDbCircle
 10
144.0475204355528
 20
56.5098006417898
 30
0.0
 40
1.0
100
AcDbArc
 50
269.9999999999997
 51
359.9999999999997
  0
LINE
  5
1415
330
12DF
100
AcDbEntity
  8
1
  6
Continuous
100
AcDbLine
 10
145.0475204355528
 20
56.50980064178984
 30
0.0
 11
145.0475204355528
 21
59.72738768225466
 31
0.0
  0
LINE
  5
1416
330
12DF
100
AcDbEntity
  8
1
  6
Continuous
100
AcDbLine
 10
144.0475204355528
 20
56.50980064178984
 30
0.0
 11
144.0475204355528
 21
59.72738768225513
 31
0.0
  0
LINE
  5
1417
330
12DF
100
AcDbEntity
  8
1
  6
Continuous
100
AcDbLine
 10
131.5475204355528
 20
56.50980064178992
 30
0.0
 11
145.0475204355528
 21
56.50980064178986
 31
0.0
  0
LINE
  5
1418
330
12DF
100
AcDbEntity
  8
1
  6
Continuous
100
AcDbLine
 10
139.9475204355717
 20
56.50980064178986
 30
0.0
 11
139.9475204355717
 21
59.72738768225692
 31
0.0
  0
LINE
  5
1419
330
12DF
100
AcDbEntity
  8
1
  6
Continuous
100
AcDbLine
 10
136.6475204355716
 20
56.50980064178989
 30
0.0
 11
136.6475204355716
 21
59.72738768225839
 31
0.0
  0
ARC
  5
141A
330
12DF
100
AcDbEntity
  8
1
  6
Continuous
100
AcDbCircle
 10
132.5475204355528
 20
56.50980064178989
 30
0.0
 40
1.0
100
AcDbArc
 50
179.9999999999998
 51
269.9999999999997
  0
LINE
  5
141B
330
12DF
100
AcDbEntity
  8
1
  6
Continuous
100
AcDbLine
 10
132.5475204355528
 20
56.50980064178984
 30
0.0
 11
132.5475204355528
 21
59.7273876822602
 31
0.0
  0
LINE
  5
141C
330
12DF
100
AcDbEntity
  8
1
  6
Continuous
100
AcDbLine
 10
131.5475204355528
 20
56.50980064178989
 30
0.0
 11
131.5475204355528
 21
59.72738768226061
 31
0.0
  0
LINE
  5
141D
330
12DF
100
AcDbEntity
  8
1
  6
Continuous
100
AcDbLine
 10
131.0975204356908
 20
65.0467585488862
 30
0.0
 11
134.3975204356915
 21
65.04675854888738
 31
0.0
  0
ARC
  5
141E
330
12DF
100
AcDbEntity
  8
1
  6
Continuous
100
AcDbCircle
 10
131.0975204356913
 20
64.24675854888616
 30
0.0
 40
0.8
100
AcDbArc
 50
89.99999999999982
 51
179.9999999999648
  0
LINE
  5
141F
330
12DF
100
AcDbEntity
  8
1
  6
Continuous
100
AcDbLine
 10
130.2975204356914
 20
64.70980064172781
 30
0.0
 11
130.4451462943759
 21
64.7098006417276
 31
0.0
  0
LINE
  5
1420
330
12DF
100
AcDbEntity
  8
1
  6
Continuous
100
AcDbLine
 10
130.2975204356916
 20
64.70980064172775
 30
0.0
 11
130.2975204356873
 21
57.70980064180045
 31
0.0
  0
LINE
  5
1421
330
12DF
100
AcDbEntity
  8
1
  6
Continuous
100
AcDbLine
 10
131.0975204356886
 20
59.72738768226079
 30
0.0
 11
131.097520435687
 21
57.70980064179997
 31
0.0
  0
LINE
  5
1422
330
12DF
100
AcDbEntity
  8
1
  6
Continuous
100
AcDbLine
 10
130.2975204356873
 20
57.70980064178981
 30
0.0
 11
131.097520435687
 21
57.70980064178981
 31
0.0
  0
LINE
  5
1423
330
12DF
100
AcDbEntity
  8
1
  6
Continuous
100
AcDbLine
 10
129.9975204356893
 20
58.90980064178997
 30
0.0
 11
130.2975204356893
 21
58.90980064178997
 31
0.0
  0
LINE
  5
1424
330
12DF
100
AcDbEntity
  8
1
  6
Continuous
100
AcDbLine
 10
129.9975204356893
 20
58.90980064178997
 30
0.0
 11
129.9975204356893
 21
63.30980064178989
 31
0.0
  0
ARC
  5
1425
330
12DF
100
AcDbEntity
  8
1
  6
Continuous
100
AcDbCircle
 10
133.1046632928325
 20
61.10980064178996
 30
0.0
 40
3.807142857143183
100
AcDbArc
 50
144.6997515601424
 51
215.3002484398574
  0
LINE
  5
1426
330
12DF
100
AcDbEntity
  8
1
  6
Continuous
100
AcDbLine
 10
129.9975204356893
 20
63.30980064178989
 30
0.0
 11
130.2975204356893
 21
63.30980064178996
 31
0.0
  0
LINE
  5
1427
330
12DF
100
AcDbEntity
  8
1
  6
Continuous
100
AcDbLine
 10
130.2975204356886
 20
59.72738768226118
 30
0.0
 11
146.2975204356883
 21
59.7273876822541
 31
0.0
  0
LINE
  5
1428
330
12DF
100
AcDbEntity
  8
1
  6
Continuous
100
AcDbLine
 10
146.2975204356915
 20
64.70980064170347
 30
0.0
 11
146.2975204356873
 21
57.70980064179079
 31
0.0
  0
LINE
  5
1429
330
12DF
100
AcDbEntity
  8
1
  6
Continuous
100
AcDbLine
 10
145.4975204356884
 20
59.7273876822545
 30
0.0
 11
145.4975204356871
 21
57.70980064179132
 31
0.0
  0
LINE
  5
142A
330
12DF
100
AcDbEntity
  8
1
  6
Continuous
100
AcDbLine
 10
146.6975204356894
 20
59.0098006417883
 30
0.0
 11
147.0975204356894
 21
59.0098006417883
 31
0.0
  0
ARC
  5
142B
330
12DF
100
AcDbEntity
  8
1
  6
Continuous
100
AcDbCircle
 10
146.2975204356894
 20
63.0098006417883
 30
0.0
 40
0.4
100
AcDbArc
 50
270.0
 51
0.0
  0
LINE
  5
142C
330
12DF
100
AcDbEntity
  8
1
  6
Continuous
100
AcDbLine
 10
146.6975204356894
 20
63.20980064178829
 30
0.0
 11
147.0975204356894
 21
63.20980064178829
 31
0.0
  0
ARC
  5
142D
330
12DF
100
AcDbEntity
  8
1
  6
Continuous
100
AcDbCircle
 10
146.2975204356894
 20
59.20980064178838
 30
0.0
 40
0.4
100
AcDbArc
 50
0.0
 51
90.00000000000005
  0
LINE
  5
142E
330
12DF
100
AcDbEntity
  8
1
  6
Continuous
100
AcDbLine
 10
147.0975204356894
 20
59.0098006417883
 30
0.0
 11
147.0975204356894
 21
63.20980064178815
 31
0.0
  0
LINE
  5
142F
330
12DF
100
AcDbEntity
  8
1
  6
Continuous
100
AcDbLine
 10
146.6975204356894
 20
59.0098006417883
 30
0.0
 11
146.6975204356894
 21
63.20980064178815
 31
0.0
  0
ARC
  5
1430
330
12DF
100
AcDbEntity
  8
1
  6
Continuous
100
AcDbCircle
 10
145.4975204356913
 20
64.2467585488912
 30
0.0
 40
0.8
100
AcDbArc
 50
359.9999999999648
 51
89.99999999999996
  0
LINE
  5
1431
330
12DF
100
AcDbEntity
  8
1
  6
Continuous
100
AcDbLine
 10
146.1498945770272
 20
64.70980064170376
 30
0.0
 11
146.2975204357309
 21
64.70980064170354
 31
0.0
  0
LINE
  5
1432
330
12DF
100
AcDbEntity
  8
1
  6
Continuous
100
AcDbLine
 10
142.9975204356918
 20
65.04675854889038
 30
0.0
 11
145.4975204356844
 21
65.04675854889129
 31
0.0
  0
LINE
  5
1433
330
12DF
100
AcDbEntity
  8
1
  6
Continuous
100
AcDbLine
 10
134.3975204356917
 20
65.31461115110167
 30
0.0
 11
142.997520435692
 21
65.31461115110167
 31
0.0
  0
LINE
  5
1434
330
12DF
100
AcDbEntity
  8
1
  6
Continuous
100
AcDbLine
 10
142.997520435692
 20
65.31461115110167
 30
0.0
 11
142.9975204356918
 21
65.04675854889038
 31
0.0
  0
LINE
  5
1435
330
12DF
100
AcDbEntity
  8
1
  6
Continuous
100
AcDbLine
 10
134.3975204356917
 20
65.31461115110167
 30
0.0
 11
134.3975204356915
 21
65.04675854888738
 31
0.0
  0
LINE
  5
1436
330
12DF
100
AcDbEntity
  8
1
  6
Continuous
100
AcDbLine
 10
145.4975204354638
 20
59.72738768226079
 30
0.0
 11
145.497520435465
 21
57.70980064179997
 31
0.0
  0
LINE
  5
1437
330
12DF
100
AcDbEntity
  8
1
  6
Continuous
100
AcDbLine
 10
146.2975204354648
 20
57.70980064178981
 30
0.0
 11
145.4975204354648
 21
57.70980064178981
 31
0.0
  0
ARC
  5
1438
330
12DF
100
AcDbEntity
  8
1
  6
Continuous
100
AcDbCircle
 10
138.2975204356816
 20
44.11806448353064
 30
0.0
 40
17.53998206163044
100
AcDbArc
 50
62.86421542023526
 51
117.1357845797139
  0
ARC
  5
1439
330
12DF
100
AcDbEntity
  8
1
  6
Continuous
100
AcDbCircle
 10
138.2975204356839
 20
49.13903652762328
 30
0.0
 40
13.27076411416638
100
AcDbArc
 50
52.92722823260424
 51
127.0727717673451
  0
LINE
  5
143A
330
12DF
100
AcDbEntity
  8
1
  6
Continuous
100
AcDbLine
 10
140.6326800625252
 20
59.72738768225664
 30
0.0
 11
140.8022779026028
 21
58.70980064178979
 31
0.0
  0
LINE
  5
143B
330
12DF
100
AcDbEntity
  8
1
  6
Continuous
100
AcDbLine
 10
141.4437150665649
 20
59.72738768225624
 30
0.0
 11
141.5913930416686
 21
58.84131983163404
 31
0.0
  0
LINE
  5
143C
330
12DF
100
AcDbEntity
  8
1
  6
Continuous
100
AcDbLine
 10
142.2547500706048
 20
59.72738768225591
 30
0.0
 11
142.4024280457085
 21
58.84131983163404
 31
0.0
  0
LINE
  5
143D
330
12DF
100
AcDbEntity
  8
1
  6
Continuous
100
AcDbLine
 10
143.0657850746446
 20
59.72738768225557
 30
0.0
 11
143.2353829147223
 21
58.70980064178979
 31
0.0
  0
ARC
  5
143E
330
12DF
100
AcDbEntity
  8
1
  6
Continuous
100
AcDbCircle
 10
141.1968354721356
 20
58.77556023671195
 30
0.0
 40
0.4
100
AcDbArc
 50
189.4623222080275
 51
9.462322208027567
  0
ARC
  5
143F
330
12DF
100
AcDbEntity
  8
1
  6
Continuous
100
AcDbCircle
 10
140.385800468096
 20
58.77556023671195
 30
0.0
 40
0.4
100
AcDbArc
 50
189.4623222080275
 51
9.462322208027567
  0
ARC
  5
1440
330
12DF
100
AcDbEntity
  8
1
  6
Continuous
100
AcDbCircle
 10
142.8189054802153
 20
58.77556023671195
 30
0.0
 40
0.4
100
AcDbArc
 50
189.4623222080275
 51
9.462322208027567
  0
ARC
  5
1441
330
12DF
100
AcDbEntity
  8
1
  6
Continuous
100
AcDbCircle
 10
143.6299404842551
 20
58.77556023671195
 30
0.0
 40
0.4
100
AcDbArc
 50
189.4623222080275
 51
9.462322208027567
  0
ARC
  5
1442
330
12DF
100
AcDbEntity
  8
1
  6
Continuous
100
AcDbCircle
 10
142.0078704761754
 20
58.77556023671195
 30
0.0
 40
0.4
100
AcDbArc
 50
189.4623222080275
 51
9.462322208027567
  0
LINE
  5
1443
330
12DF
100
AcDbEntity
  8
1
  6
Continuous
100
AcDbLine
 10
139.9475204355717
 20
58.97213541974005
 30
0.0
 11
139.9912428985634
 21
58.70980064178979
 31
0.0
  0
ARC
  5
1444
330
12DF
100
AcDbEntity
  8
1
  6
Continuous
100
AcDbCircle
 10
136.3306254478972
 20
58.77556023671195
 30
0.0
 40
0.4
100
AcDbArc
 50
189.4623222080275
 51
322.3951008482766
  0
LINE
  5
1445
330
12DF
100
AcDbEntity
  8
1
  6
Continuous
100
AcDbLine
 10
134.1444000302066
 20
59.7273876822595
 30
0.0
 11
134.3139978702848
 21
58.70980064178979
 31
0.0
  0
LINE
  5
1446
330
12DF
100
AcDbEntity
  8
1
  6
Continuous
100
AcDbLine
 10
135.7664700382863
 20
59.72738768225878
 30
0.0
 11
135.9360678783644
 21
58.70980064178979
 31
0.0
  0
LINE
  5
1447
330
12DF
100
AcDbEntity
  8
1
  6
Continuous
100
AcDbLine
 10
134.9554350342464
 20
59.72738768225912
 30
0.0
 11
135.1031130093506
 21
58.84131983163404
 31
0.0
  0
ARC
  5
1448
330
12DF
100
AcDbEntity
  8
1
  6
Continuous
100
AcDbCircle
 10
133.8975204357778
 20
58.77556023671195
 30
0.0
 40
0.4
100
AcDbArc
 50
189.4623222080275
 51
9.462322208027567
  0
ARC
  5
1449
330
12DF
100
AcDbEntity
  8
1
  6
Continuous
100
AcDbCircle
 10
134.7085554398175
 20
58.77556023671195
 30
0.0
 40
0.4
100
AcDbArc
 50
189.4623222080275
 51
9.462322208027567
  0
ARC
  5
144A
330
12DF
100
AcDbEntity
  8
1
  6
Continuous
100
AcDbCircle
 10
135.5195904438573
 20
58.77556023671195
 30
0.0
 40
0.4
100
AcDbArc
 50
189.4623222080275
 51
9.462322208027567
  0
LINE
  5
144B
330
12DF
100
AcDbEntity
  8
1
  6
Continuous
100
AcDbLine
 10
133.4975204357779
 20
58.74245522459339
 30
0.0
 11
133.5029628662451
 21
58.70980064178974
 31
0.0
  0
LINE
  5
144C
330
12DF
100
AcDbEntity
  8
1
  6
Continuous
100
AcDbLine
 10
133.4975204357776
 20
59.72738768225976
 30
0.0
 11
133.4975204357776
 21
57.07346791650957
 31
0.0
  0
LINE
  5
144D
330
12DF
100
AcDbEntity
  8
1
  6
Continuous
100
AcDbLine
 10
132.6975204357778
 20
59.72738768226014
 30
0.0
 11
132.6975204357778
 21
57.07346791650957
 31
0.0
  0
LINE
  5
144E
330
12DF
100
AcDbEntity
  8
1
  6
Continuous
100
AcDbLine
 10
133.4975204357776
 20
57.07346791650957
 30
0.0
 11
136.6475204355716
 21
57.07346791650957
 31
0.0
  0
LINE
  5
144F
330
12DF
100
AcDbEntity
  8
1
  6
Continuous
100
AcDbLine
 10
136.5775050423261
 20
59.72738768225843
 30
0.0
 11
136.6475204355716
 21
59.30729532278451
 31
0.0
  0
ARC
  5
1450
330
12DF
100
AcDbEntity
  8
1
  6
Continuous
100
AcDbCircle
 10
133.4975204357776
 20
57.07346791650957
 30
0.0
 40
0.8
100
AcDbArc
 50
180.0
 51
224.7959533746747
  0
LINE
  5
1451
330
12DF
100
AcDbEntity
  8
1
  6
Continuous
100
AcDbLine
 10
143.8768200786843
 20
59.7273876822552
 30
0.0
 11
144.0464179187621
 21
58.70980064178946
 31
0.0
  0
LINE
  5
1452
330
12DF
100
AcDbEntity
  8
1
  6
Continuous
100
AcDbLine
 10
126.7975204355704
 20
62.00980064178985
 30
0.0
 11
129.4054286781189
 21
62.00980064178986
 31
0.0
  0
ARC
  5
1453
330
12DF
100
AcDbEntity
  8
1
  6
Continuous
100
AcDbCircle
 10
126.7975204355704
 20
60.50980064178986
 30
0.0
 40
1.5
100
AcDbArc
 50
90.00000000000005
 51
236.5609776709681
  0
LINE
  5
1454
330
12DF
100
AcDbEntity
  8
1
  6
Continuous
100
AcDbLine
 10
129.3024822913278
 20
57.05809150961179
 30
0.0
 11
125.9709466346145
 21
59.25809150961367
 31
0.0
  0
ARC
  5
1455
330
12DF
100
AcDbEntity
  8
1
  6
Continuous
100
AcDbCircle
 10
130.1290560922838
 20
58.30980064178794
 30
0.0
 40
1.5
100
AcDbArc
 50
236.5609776709677
 51
270.0
  0
LINE
  5
1456
330
12DF
100
AcDbEntity
  8
1
  6
Continuous
100
AcDbLine
 10
130.1290560922838
 20
56.80980064178793
 30
0.0
 11
131.5475204355528
 21
56.80980064178791
 31
0.0
  0
ARC
  5
1457
330
12DF
100
AcDbEntity
  8
1
  6
Continuous
100
AcDbCircle
 10
146.4659847788596
 20
58.30980064178794
 30
0.0
 40
1.5
100
AcDbArc
 50
270.0
 51
303.4390223290321
  0
LINE
  5
1458
330
12DF
100
AcDbEntity
  8
1
  6
Continuous
100
AcDbLine
 10
149.7975204355876
 20
62.00980064178985
 30
0.0
 11
147.0975204356894
 21
62.00980064178986
 31
0.0
  0
ARC
  5
1459
330
12DF
100
AcDbEntity
  8
1
  6
Continuous
100
AcDbCircle
 10
149.7975204355876
 20
60.50980064178986
 30
0.0
 40
1.5
100
AcDbArc
 50
303.4390223290316
 51
90.00000000000005
  0
LINE
  5
145A
330
12DF
100
AcDbEntity
  8
1
  6
Continuous
100
AcDbLine
 10
147.2925585798303
 20
57.05809150961179
 30
0.0
 11
150.6240942365436
 21
59.25809150961367
 31
0.0
  0
LINE
  5
145B
330
12DF
100
AcDbEntity
  8
1
  6
Continuous
100
AcDbLine
 10
126.7975204355704
 20
59.00980064178984
 30
0.0
 11
129.9290788214799
 21
59.00980064178989
 31
0.0
  0
LINE
  5
145C
330
12DF
100
AcDbEntity
  8
1
  6
Continuous
100
AcDbLine
 10
149.7975204355807
 20
59.00980064178984
 30
0.0
 11
146.2975204356881
 21
59.00980064178989
 31
0.0
  0
LINE
  5
145D
330
12DF
100
AcDbEntity
  8
1
  6
Continuous
100
AcDbLine
 10
145.0475204355528
 20
56.80980064178793
 30
0.0
 11
146.4659847788596
 21
56.80980064178793
 31
0.0
  0
LINE
  5
145E
330
12DF
100
AcDbEntity
  8
1
  6
Continuous
100
AcDbLine
 10
139.9475204355717
 20
56.80980064178791
 30
0.0
 11
144.0475204355528
 21
56.80980064178791
 31
0.0
  0
LINE
  5
145F
330
12DF
100
AcDbEntity
  8
1
  6
Continuous
100
AcDbLine
 10
132.5475204355528
 20
56.80980064178791
 30
0.0
 11
132.7422194571998
 21
56.80980064178791
 31
0.0
  0
LINE
  5
1460
330
12DF
100
AcDbEntity
  8
4
  6
CENTER
 48
0.2
100
AcDbLine
 10
153.1319384126629
 20
142.74445352863
 30
0.0
 11
122.7502687018148
 21
142.74445352863
 31
0.0
  0
LINE
  5
1461
330
12DF
100
AcDbEntity
  8
4
  6
CENTER
 48
0.1
100
AcDbLine
 10
245.4975204355847
 20
171.93445352863
 30
0.0
 11
250.3252748040772
 21
171.93445352863
 31
0.0
  0
ARC
  5
1462
330
12DF
100
AcDbEntity
  8
1
  6
Continuous
100
AcDbCircle
 10
245.4975204355847
 20
164.23445352863
 30
0.0
 40
1.6
100
AcDbArc
 50
232.4999999999997
 51
0.000000000000007
  0
ARC
  5
1463
330
12DF
100
AcDbEntity
  8
1
  6
Continuous
100
AcDbCircle
 10
245.4975204355847
 20
164.23445352863
 30
0.0
 40
2.799999999999998
100
AcDbArc
 50
232.5
 51
0.000000000000007
  0
LINE
  5
1464
330
12DF
100
AcDbEntity
  8
1
  6
Continuous
100
AcDbLine
 10
248.2975204355847
 20
164.23445352863
 30
0.0
 11
248.2975204355847
 21
177.4344535286304
 31
0.0
  0
LINE
  5
1465
330
12DF
100
AcDbEntity
  8
1
  6
Continuous
100
AcDbLine
 10
247.0975204355846
 20
164.23445352863
 30
0.0
 11
247.0975204355846
 21
177.43445352863
 31
0.0
  0
LINE
  5
1466
330
12DF
100
AcDbEntity
  8
1
  6
Continuous
100
AcDbLine
 10
247.0975204355875
 20
165.9344535286409
 30
0.0
 11
248.2975204355862
 21
165.9344535286414
 31
0.0
  0
LINE
  5
1467
330
12DF
100
AcDbEntity
  8
1
  6
Continuous
100
AcDbLine
 10
247.0975204355847
 20
177.43445352863
 30
0.0
 11
248.2975204355832
 21
177.4344535286304
 31
0.0
  0
LINE
  5
1468
330
12DF
100
AcDbEntity
  8
1
  6
Continuous
100
AcDbLine
 10
224.7899331351004
 20
142.693773953644
 30
0.0
 11
226.9899331351026
 21
163.983773953644
 31
0.0
  0
LINE
  5
1469
330
12DF
100
AcDbEntity
  8
1
  6
Continuous
100
AcDbLine
 10
221.8051077360648
 20
142.995133103616
 30
0.0
 11
224.0051077360668
 21
164.285133103616
 31
0.0
  0
LINE
  5
146A
330
12DF
100
AcDbEntity
  8
4
  6
CENTER
 48
0.1
100
AcDbLine
 10
223.2975204355827
 20
139.14445352863
 30
0.0
 11
223.2975204355827
 21
146.3444535286299
 31
0.0
  0
LINE
  5
146B
330
12DF
100
AcDbEntity
  8
1
  6
Continuous
100
AcDbLine
 10
228.2975204355829
 20
112.9344535286302
 30
0.0
 11
228.2975204355829
 21
151.9344535286299
 31
0.0
  0
LINE
  5
146C
330
12DF
100
AcDbEntity
  8
1
  6
Continuous
100
AcDbLine
 10
227.2975204355827
 20
112.9344535286302
 30
0.0
 11
227.2975204355827
 21
145.73445352863
 31
0.0
  0
LINE
  5
146D
330
12DF
100
AcDbEntity
  8
1
  6
Continuous
100
AcDbLine
 10
226.0975204355828
 20
120.1187674826759
 30
0.0
 11
226.0975204355828
 21
148.14445352863
 31
0.0
  0
LINE
  5
146E
330
12DF
100
AcDbEntity
  8
1
  6
Continuous
100
AcDbLine
 10
218.5640896094957
 20
146.6310844891741
 30
0.0
 11
223.1356070486969
 21
120.7047207481664
 31
0.0
  0
LINE
  5
146F
330
12DF
100
AcDbEntity
  8
1
  6
Continuous
100
AcDbLine
 10
221.397520435583
 20
112.2080696432905
 30
0.0
 11
222.707013292547
 21
115.8058716987369
 31
0.0
  0
LINE
  5
1470
330
12DF
100
AcDbEntity
  8
1
  6
Continuous
100
AcDbLine
 10
222.1492745322116
 20
111.9344535286302
 30
0.0
 11
222.9820148231621
 21
114.2223886742872
 31
0.0
  0
LINE
  5
1471
330
12DF
100
AcDbEntity
  8
1
  6
Continuous
100
AcDbLine
 10
227.2975204355827
 20
112.93445352863
 30
0.0
 11
228.2975204355829
 21
112.93445352863
 31
0.0
  0
LINE
  5
1472
330
12DF
100
AcDbEntity
  8
1
  6
Continuous
100
AcDbLine
 10
221.3975204355827
 20
112.2080696432905
 30
0.0
 11
222.1492745322116
 21
111.93445352863
 31
0.0
  0
ARC
  5
1473
330
12DF
100
AcDbEntity
  8
1
  6
Continuous
100
AcDbCircle
 10
222.6908386357492
 20
113.4223886742872
 30
0.0
 40
0.8
100
AcDbArc
 50
90.00000000000005
 51
159.9999999999996
  0
LINE
  5
1474
330
12DF
100
AcDbEntity
  8
4
  6
CENTER
 48
0.1
100
AcDbLine
 10
226.5203044143369
 20
116.93445352863
 30
0.0
 11
229.9347167040429
 21
116.93445352863
 31
0.0
  0
ARC
  5
1475
330
12DF
100
AcDbEntity
  8
1
  6
Continuous
100
AcDbCircle
 10
223.8002349069728
 20
114.7223886742872
 30
0.0
 40
0.5
100
AcDbArc
 50
270.0
 51
323.1589134497551
  0
ARC
  5
1476
330
12DF
100
AcDbEntity
  8
1
  6
Continuous
100
AcDbCircle
 10
216.5975204355828
 20
120.1187674826759
 30
0.0
 40
9.5
100
AcDbArc
 50
323.1589134497551
 51
0.000000000000007
  0
LINE
  5
1477
330
12DF
100
AcDbEntity
  8
1
  6
Continuous
100
AcDbLine
 10
222.6908386357492
 20
114.2223886742872
 30
0.0
 11
223.8002349069728
 21
114.2223886742872
 31
0.0
  0
ARC
  5
1478
330
12DF
100
AcDbEntity
  8
1
  6
Continuous
100
AcDbCircle
 10
213.7799333950811
 20
119.0550630603308
 30
0.0
 40
9.5
100
AcDbArc
 50
339.9999999999997
 51
10.00000000000003
  0
LINE
  5
1479
330
12DF
100
AcDbEntity
  8
1
  6
Continuous
100
AcDbLine
 10
226.0975204355828
 20
127.5776383173027
 30
0.0
 11
227.2975204355827
 21
127.89917734822
 31
0.0
  0
LINE
  5
147A
330
12DF
100
AcDbEntity
  8
1
  6
Continuous
100
AcDbLine
 10
226.0975204355828
 20
128.6129144977128
 30
0.0
 11
227.2975204355827
 21
128.9344535286299
 31
0.0
  0
ARC
  5
147B
330
12DF
100
AcDbEntity
  8
1
  6
Continuous
100
AcDbCircle
 10
223.2975204355827
 20
142.74445352863
 30
0.0
 40
1.6
100
AcDbArc
 50
154.9308166657656
 51
15.60867921793465
  0
ARC
  5
147C
330
12DF
100
AcDbEntity
  8
1
  6
Continuous
100
AcDbCircle
 10
223.2975204355827
 20
142.8444535286299
 30
0.0
 40
1.5
100
AcDbArc
 50
174.2347403016286
 51
354.2347403016287
  0
LINE
  5
147D
330
12DF
100
AcDbEntity
  8
4
  6
CENTER
 48
0.1
100
AcDbLine
 10
219.6975204355828
 20
142.74445352863
 30
0.0
 11
226.8975204355827
 21
142.74445352863
 31
0.0
  0
LINE
  5
147E
330
12DF
100
AcDbEntity
  8
4
  6
CENTER
 48
0.1
100
AcDbLine
 10
226.5203044143369
 20
139.93445352863
 30
0.0
 11
229.9347167040429
 21
139.93445352863
 31
0.0
  0
LINE
  5
147F
330
12DF
100
AcDbEntity
  8
1
  6
Continuous
100
AcDbLine
 10
227.2975204355827
 20
143.7344535286342
 30
0.0
 11
228.2975204355829
 21
143.7344535286342
 31
0.0
  0
LINE
  5
1480
330
12DF
100
AcDbEntity
  8
1
  6
Continuous
100
AcDbLine
 10
240.0280341503957
 20
166.4145821032201
 30
0.0
 11
239.2975204355851
 21
165.4625580948708
 31
0.0
  0
LINE
  5
1481
330
12DF
100
AcDbEntity
  8
1
  6
Continuous
100
AcDbLine
 10
244.5235021491708
 20
162.9650881841643
 30
0.0
 11
240.0280341503957
 21
166.4145821032201
 31
0.0
  0
LINE
  5
1482
330
12DF
100
AcDbEntity
  8
1
  6
Continuous
100
AcDbLine
 10
243.7929884343604
 20
162.0130641758144
 30
0.0
 11
239.2975204355851
 21
165.4625580948706
 31
0.0
  0
LINE
  5
1483
330
12DF
100
AcDbEntity
  8
1
  6
Continuous
100
AcDbLine
 10
222.3975204355828
 20
151.9344535286299
 30
0.0
 11
222.7076550024738
 21
151.9344535286299
 31
0.0
  0
ARC
  5
1484
330
12DF
100
AcDbEntity
  8
1
  6
Continuous
100
AcDbCircle
 10
223.1911382289548
 20
147.4469580018346
 30
0.0
 40
4.69842830268799
100
AcDbArc
 50
95.67382283427489
 51
190.0000000000002
  0
ARC
  5
1485
330
12DF
100
AcDbEntity
  8
1
  6
Continuous
100
AcDbCircle
 10
222.5975204355828
 20
148.14445352863
 30
0.0
 40
3.5
100
AcDbArc
 50
88.67780719113499
 51
189.9999999999468
  0
LINE
  5
1486
330
12DF
100
AcDbEntity
  8
4
  6
CENTER
 48
0.1
100
AcDbLine
 10
219.227520435583
 20
148.91445352863
 30
0.0
 11
226.1675204355828
 21
148.91445352863
 31
0.0
  0
LINE
  5
1487
330
12DF
100
AcDbEntity
  8
1
  6
Continuous
100
AcDbLine
 10
225.7229067498316
 20
151.9344535286299
 30
0.0
 11
228.2975204355829
 21
151.9344535286299
 31
0.0
  0
ARC
  5
1488
330
12DF
100
AcDbEntity
  8
1
  6
Continuous
100
AcDbCircle
 10
222.5975204355828
 20
148.14445352863
 30
0.0
 40
3.5
100
AcDbArc
 50
0.000000000000007
 51
33.00396622127518
  0
LINE
  5
1489
330
12DF
100
AcDbEntity
  8
4
  6
CENTER
 48
0.1
100
AcDbLine
 10
222.6975204355829
 20
145.44445352863
 30
0.0
 11
222.6975204355829
 21
152.38445352863
 31
0.0
  0
LINE
  5
148A
330
12DF
100
AcDbEntity
  8
1
  6
Continuous
100
AcDbLine
 10
226.0975204355828
 20
145.73445352863
 30
0.0
 11
228.2975204355829
 21
145.73445352863
 31
0.0
  0
LINE
  5
148B
330
12DF
100
AcDbEntity
  8
1
  6
Continuous
100
AcDbLine
 10
226.4249499934344
 20
151.9344535286299
 30
0.0
 11
226.787084317719
 21
152.7660020281839
 31
0.0
  0
LINE
  5
148C
330
12DF
100
AcDbEntity
  8
1
  6
Continuous
100
AcDbLine
 10
227.2975204355827
 20
151.9344535286299
 30
0.0
 11
227.5205494559836
 21
152.4465824124023
 31
0.0
  0
ARC
  5
148D
330
12DF
100
AcDbEntity
  8
1
  6
Continuous
100
AcDbCircle
 10
227.1338531608646
 20
152.5604506491513
 30
0.0
 40
0.3999999999985422
100
AcDbArc
 50
336.4671669642272
 51
156.4671669642274
  0
ARC
  5
148E
330
12DF
100
AcDbEntity
  8
1
  6
Continuous
100
AcDbCircle
 10
222.6975204355829
 20
148.91445352863
 30
0.0
 40
2.1
100
AcDbArc
 50
92.26288257543201
 51
256.2065980278258
  0
ARC
  5
148F
330
12DF
100
AcDbEntity
  8
1
  6
Continuous
100
AcDbCircle
 10
222.3975204355828
 20
148.83445352863
 30
0.0
 40
3.099999999999993
100
AcDbArc
 50
90.0
 51
167.6850811494389
  0
LINE
  5
1490
330
12DF
100
AcDbEntity
  8
1
  6
Continuous
100
AcDbLine
 10
219.4843447457518
 20
145.64445352863
 30
0.0
 11
218.7605625285022
 21
145.5168311955726
 31
0.0
  0
LINE
  5
1491
330
12DF
100
AcDbEntity
  8
1
  6
Continuous
100
AcDbLine
 10
219.1506933000402
 20
147.5366849067959
 30
0.0
 11
219.484344745752
 21
145.64445352863
 31
0.0
  0
ARC
  5
1492
330
12DF
100
AcDbEntity
  8
1
  6
Continuous
100
AcDbCircle
 10
225.4975204355847
 20
164.13445352863
 30
0.0
 40
1.5
100
AcDbArc
 50
354.2347403016287
 51
174.2347403016286
  0
LINE
  5
1493
330
12DF
100
AcDbEntity
  8
1
  6
Continuous
100
AcDbLine
 10
337.195635050152
 20
170.9166870538134
 30
0.0
 11
341.7975204355908
 21
165.9344535286308
 31
0.0
  0
ARC
  5
1494
330
12DF
100
AcDbEntity
  8
1
  6
Continuous
100
AcDbCircle
 10
348.2975204355847
 20
161.4344535286314
 30
0.0
 40
16.0
100
AcDbArc
 50
46.39718102715479
 51
133.602818972562
  0
LINE
  5
1495
330
12DF
100
AcDbEntity
  8
4
  6
CENTER
 48
0.2
100
AcDbLine
 10
308.2975204355684
 20
109.5375749494547
 30
0.0
 11
308.2975204355938
 21
168.5436512043074
 31
0.0
  0
ARC
  5
1496
330
12DF
100
AcDbEntity
  8
1
  6
Continuous
100
AcDbCircle
 10
299.7975204355948
 20
145.8444535286313
 30
0.0
 40
1.8
100
AcDbArc
 50
203.5573097619194
 51
236.442690238079
  0
ARC
  5
1497
330
12DF
100
AcDbEntity
  8
1
  6
Continuous
100
AcDbCircle
 10
316.7975204355948
 20
145.8444535286313
 30
0.0
 40
1.8
100
AcDbArc
 50
303.5573097619208
 51
336.4426902380841
  0
ARC
  5
1498
330
12DF
100
AcDbEntity
  8
1
  6
Continuous
100
AcDbCircle
 10
316.7975204355948
 20
145.8444535286313
 30
0.0
 40
4.5
100
AcDbArc
 50
270.0
 51
10.00000000000003
  0
LINE
  5
1499
330
12DF
100
AcDbEntity
  8
1
  6
Continuous
100
AcDbLine
 10
316.2975204356303
 20
114.2223886742786
 30
0.0
 11
316.2975204356303
 21
151.6444535286214
 31
0.0
  0
LINE
  5
149A
330
12DF
100
AcDbEntity
  8
1
  6
Continuous
100
AcDbLine
 10
300.29752043563
 20
114.2223886742786
 30
0.0
 11
300.29752043563
 21
151.6444535286214
 31
0.0
  0
ARC
  5
149B
330
12DF
100
AcDbEntity
  8
1
  6
Continuous
100
AcDbCircle
 10
299.7975204355948
 20
145.8444535286313
 30
0.0
 40
4.5
100
AcDbArc
 50
170.0
 51
270.0
  0
LINE
  5
149C
330
12DF
100
AcDbEntity
  8
4
  6
CENTER
 48
0.2
100
AcDbLine
 10
293.4631024585023
 20
142.74445352863
 30
0.0
 11
323.8447721693505
 21
142.74445352863
 31
0.0
  0
LINE
  5
149D
330
12DF
100
AcDbEntity
  8
4
  6
CENTER
 48
0.1
100
AcDbLine
 10
303.497520435591
 20
139.934453528631
 30
0.0
 11
313.0975204355909
 21
139.934453528631
 31
0.0
  0
CIRCLE
  5
149E
330
12DF
100
AcDbEntity
  8
3
  6
DASHED
 48
0.2
100
AcDbCircle
 10
308.2975204355908
 20
139.934453528631
 30
0.0
 40
2.799999999999998
  0
CIRCLE
  5
149F
330
12DF
100
AcDbEntity
  8
1
  6
Continuous
100
AcDbCircle
 10
308.2975204355908
 20
139.934453528631
 30
0.0
 40
1.9
  0
LINE
  5
14A0
330
12DF
100
AcDbEntity
  8
4
  6
CENTER
 48
0.1
100
AcDbLine
 10
303.497520435591
 20
116.9344535286312
 30
0.0
 11
313.0975204355909
 21
116.9344535286312
 31
0.0
  0
ARC
  5
14A1
330
12DF
100
AcDbEntity
  8
1
  6
Continuous
100
AcDbCircle
 10
308.2975204354702
 20
119.6844535286228
 30
0.0
 40
6.750000000000056
100
AcDbArc
 50
180.0
 51
0.000000000000007
  0
CIRCLE
  5
14A2
330
12DF
100
AcDbEntity
  8
3
  6
DASHED
 48
0.2
100
AcDbCircle
 10
308.2975204355908
 20
116.9344535286312
 30
0.0
 40
2.799999999999998
  0
CIRCLE
  5
14A3
330
12DF
100
AcDbEntity
  8
1
  6
Continuous
100
AcDbCircle
 10
308.2975204355908
 20
116.9344535286312
 30
0.0
 40
1.9
  0
ARC
  5
14A4
330
12DF
100
AcDbEntity
  8
1
  6
Continuous
100
AcDbCircle
 10
308.2975204356303
 20
127.0648315384804
 30
0.0
 40
15.13037800982808
100
AcDbArc
 50
238.0797997464036
 51
301.9202002535962
  0
LINE
  5
14A5
330
12DF
100
AcDbEntity
  8
1
  6
Continuous
100
AcDbLine
 10
315.0475204354701
 20
119.6844535286228
 30
0.0
 11
315.0475204354701
 21
143.7344535286355
 31
0.0
  0
LINE
  5
14A6
330
12DF
100
AcDbEntity
  8
1
  6
Continuous
100
AcDbLine
 10
317.7925078727016
 20
144.3444535286313
 30
0.0
 11
316.2975204356303
 21
144.3444535286313
 31
0.0
  0
LINE
  5
14A7
330
12DF
100
AcDbEntity
  8
1
  6
Continuous
100
AcDbLine
 10
316.7975204355948
 20
141.3444535286313
 30
0.0
 11
316.2975204356303
 21
141.3444535286313
 31
0.0
  0
LINE
  5
14A8
330
12DF
100
AcDbEntity
  8
1
  6
Continuous
100
AcDbLine
 10
301.5475204354702
 20
119.6844535286228
 30
0.0
 11
301.5475204354702
 21
143.7344535286378
 31
0.0
  0
LINE
  5
14A9
330
12DF
100
AcDbEntity
  8
1
  6
Continuous
100
AcDbLine
 10
300.29752043563
 20
141.3444535286313
 30
0.0
 11
299.7975204355948
 21
141.3444535286313
 31
0.0
  0
LINE
  5
14AA
330
12DF
100
AcDbEntity
  8
1
  6
Continuous
100
AcDbLine
 10
300.29752043563
 20
144.3444535286313
 30
0.0
 11
298.8025329984884
 21
144.3444535286313
 31
0.0
  0
LINE
  5
14AB
330
12DF
100
AcDbEntity
  8
1
  6
Continuous
100
AcDbLine
 10
313.7330589713717
 20
165.63445352863
 30
0.0
 11
302.8619818998187
 21
165.63445352863
 31
0.0
  0
LINE
  5
14AC
330
12DF
100
AcDbEntity
  8
1
  6
Continuous
100
AcDbLine
 10
314.868840640532
 20
162.63445352863
 30
0.0
 11
301.7262002306588
 21
162.63445352863
 31
0.0
  0
LINE
  5
14AD
330
12DF
100
AcDbEntity
  8
1
  6
Continuous
100
AcDbLine
 10
308.8975204355418
 20
152.5960541323513
 30
0.0
 11
313.0277958413437
 21
152.9574064075989
 31
0.0
  0
LINE
  5
14AE
330
12DF
100
AcDbEntity
  8
1
  6
Continuous
100
AcDbLine
 10
308.9370303688093
 20
152.1444535286216
 30
0.0
 11
303.5975204356302
 21
152.1444535286216
 31
0.0
  0
LINE
  5
14AF
330
12DF
100
AcDbEntity
  8
4
  6
CENTER
 48
0.2
100
AcDbLine
 10
317.745065279032
 20
148.9144535286299
 30
0.0
 11
298.2020878199482
 21
148.9144535286318
 31
0.0
  0
ARC
  5
14B0
330
12DF
100
AcDbEntity
  8
1
  6
Continuous
100
AcDbCircle
 10
313.7330589713717
 20
160.63445352863
 30
0.0
 40
5.0
100
AcDbArc
 50
10.00000000000003
 51
90.00000000000005
  0
LINE
  5
14B1
330
12DF
100
AcDbEntity
  8
1
  6
Continuous
100
AcDbLine
 10
321.2291553241499
 20
146.6258703281324
 30
0.0
 11
318.657097736433
 21
161.5026944169648
 31
0.0
  0
LINE
  5
14B2
330
12DF
100
AcDbEntity
  8
1
  6
Continuous
100
AcDbLine
 10
318.4475098203684
 20
145.1250544529194
 30
0.0
 11
315.5054480603189
 21
162.1002764774816
 31
0.0
  0
ARC
  5
14B3
330
12DF
100
AcDbEntity
  8
1
  6
Continuous
100
AcDbCircle
 10
315.0475204354717
 20
144.7344535286354
 30
0.0
 40
1.0
100
AcDbArc
 50
90.00000000000005
 51
269.9999999999186
  0
LINE
  5
14B4
330
12DF
100
AcDbEntity
  8
1
  6
Continuous
100
AcDbLine
 10
313.0975204355418
 20
151.9344535286289
 30
0.0
 11
313.0975204355418
 21
152.1604506491256
 31
0.0
  0
LINE
  5
14B5
330
12DF
100
AcDbEntity
  8
1
  6
Continuous
100
AcDbLine
 10
308.9672450297397
 20
151.7990983738779
 30
0.0
 11
313.0975204355418
 21
152.1604506491256
 31
0.0
  0
ARC
  5
14B6
330
12DF
100
AcDbEntity
  8
1
  6
Continuous
100
AcDbCircle
 10
313.0975204355418
 20
152.1604506491256
 30
0.0
 40
0.8
100
AcDbArc
 50
359.9999999999997
 51
95.00000000000065
  0
LINE
  5
14B7
330
12DF
100
AcDbEntity
  8
1
  6
Continuous
100
AcDbLine
 10
313.8975204355417
 20
151.9344535286288
 30
0.0
 11
313.8975204355417
 21
152.1604506491256
 31
0.0
  0
LINE
  5
14B8
330
12DF
100
AcDbEntity
  8
1
  6
Continuous
100
AcDbLine
 10
301.5475204354702
 20
151.9344535286318
 30
0.0
 11
308.9554029881494
 21
151.9344535286299
 31
0.0
  0
LINE
  5
14B9
330
12DF
100
AcDbEntity
  8
1
  6
Continuous
100
AcDbLine
 10
312.1975204356303
 20
151.9344535286293
 30
0.0
 11
312.1975204356303
 21
152.08171085196
 31
0.0
  0
LINE
  5
14BA
330
12DF
100
AcDbEntity
  8
1
  6
Continuous
100
AcDbLine
 10
315.4975204356304
 20
147.4144535286299
 30
0.0
 11
315.0475204354701
 21
147.4144535286299
 31
0.0
  0
LINE
  5
14BB
330
12DF
100
AcDbEntity
  8
1
  6
Continuous
100
AcDbLine
 10
315.4975204356304
 20
150.4144535286298
 30
0.0
 11
315.0475204354701
 21
150.4144535286298
 31
0.0
  0
LINE
  5
14BC
330
12DF
100
AcDbEntity
  8
1
  6
Continuous
100
AcDbLine
 10
315.0475204354701
 20
145.7344535286354
 30
0.0
 11
315.0475204354701
 21
151.9344535286288
 31
0.0
  0
LINE
  5
14BD
330
12DF
100
AcDbEntity
  8
1
  6
Continuous
100
AcDbLine
 10
315.4975204356302
 20
113.7573772845561
 30
0.0
 11
315.4975204356304
 21
151.6444535286214
 31
0.0
  0
LINE
  5
14BE
330
12DF
100
AcDbEntity
  8
1
  6
Continuous
100
AcDbLine
 10
316.5975204356302
 20
146.7144535286299
 30
0.0
 11
316.2975204356304
 21
146.7144535286298
 31
0.0
  0
LINE
  5
14BF
330
12DF
100
AcDbEntity
  8
1
  6
Continuous
100
AcDbLine
 10
316.5975204356302
 20
151.1144535286298
 30
0.0
 11
316.2975204356304
 21
151.1144535286298
 31
0.0
  0
LINE
  5
14C0
330
12DF
100
AcDbEntity
  8
1
  6
Continuous
100
AcDbLine
 10
316.2975204356303
 20
151.1144535286298
 30
0.0
 11
316.2975204356303
 21
146.7144535286299
 31
0.0
  0
LINE
  5
14C1
330
12DF
100
AcDbEntity
  8
1
  6
Continuous
100
AcDbLine
 10
316.5975204356302
 20
151.1144535286298
 30
0.0
 11
316.5975204356302
 21
146.7144535286299
 31
0.0
  0
ARC
  5
14C2
330
12DF
100
AcDbEntity
  8
1
  6
Continuous
100
AcDbCircle
 10
313.4903775784869
 20
148.9144535286299
 30
0.0
 40
3.807142857143183
100
AcDbArc
 50
324.6997515601425
 51
35.30024843985739
  0
LINE
  5
14C3
330
12DF
100
AcDbEntity
  8
1
  6
Continuous
100
AcDbLine
 10
315.4975204356304
 20
145.6444535286216
 30
0.0
 11
314.6329121866088
 21
145.6444535286216
 31
0.0
  0
LINE
  5
14C4
330
12DF
100
AcDbEntity
  8
1
  6
Continuous
100
AcDbLine
 10
316.2975204356303
 20
151.6444535286214
 30
0.0
 11
315.4975204356304
 21
151.6444535286214
 31
0.0
  0
ARC
  5
14C5
330
12DF
100
AcDbEntity
  8
1
  6
Continuous
100
AcDbCircle
 10
313.7330589713717
 20
160.63445352863
 30
0.0
 40
2.299999999999998
100
AcDbArc
 50
39.59184579395069
 51
60.40815420604936
  0
ARC
  5
14C6
330
12DF
100
AcDbEntity
  8
1
  6
Continuous
100
AcDbCircle
 10
302.8619818998186
 20
160.63445352863
 30
0.0
 40
5.0
100
AcDbArc
 50
90.00000000000005
 51
170.0
  0
LINE
  5
14C7
330
12DF
100
AcDbEntity
  8
1
  6
Continuous
100
AcDbLine
 10
298.1475310508217
 20
145.1250544529194
 30
0.0
 11
301.0895928108713
 21
162.1002764774816
 31
0.0
  0
LINE
  5
14C8
330
12DF
100
AcDbEntity
  8
1
  6
Continuous
100
AcDbLine
 10
295.3658855470403
 20
146.6258703281324
 30
0.0
 11
297.9379431347577
 21
161.5026944169648
 31
0.0
  0
LINE
  5
14C9
330
12DF
100
AcDbEntity
  8
1
  6
Continuous
100
AcDbLine
 10
301.9621286843381
 20
145.6444535286211
 30
0.0
 11
301.0975204356302
 21
145.644453528621
 31
0.0
  0
LINE
  5
14CA
330
12DF
100
AcDbEntity
  8
1
  6
Continuous
100
AcDbLine
 10
303.5975204356302
 20
151.9344535286314
 30
0.0
 11
303.5975204356302
 21
152.1444535286216
 31
0.0
  0
LINE
  5
14CB
330
12DF
100
AcDbEntity
  8
1
  6
Continuous
100
AcDbLine
 10
308.9672450297397
 20
151.7990983738779
 30
0.0
 11
308.8975204355418
 21
152.5960541323513
 31
0.0
  0
LINE
  5
14CC
330
12DF
100
AcDbEntity
  8
1
  6
Continuous
100
AcDbLine
 10
299.4975204356304
 20
151.0144535286315
 30
0.0
 11
299.4975204356304
 21
146.8144535286316
 31
0.0
  0
ARC
  5
14CD
330
12DF
100
AcDbEntity
  8
1
  6
Continuous
100
AcDbCircle
 10
301.5475204354695
 20
144.7344535286378
 30
0.0
 40
1.0
100
AcDbArc
 50
270.0000000000358
 51
90.00000000000005
  0
ARC
  5
14CE
330
12DF
100
AcDbEntity
  8
1
  6
Continuous
100
AcDbCircle
 10
300.29752043563
 20
147.0144535286314
 30
0.0
 40
0.4
100
AcDbArc
 50
90.00000000000005
 51
180.0
  0
LINE
  5
14CF
330
12DF
100
AcDbEntity
  8
1
  6
Continuous
100
AcDbLine
 10
301.5475204354702
 20
147.4144535286312
 30
0.0
 11
301.0975204356302
 21
147.4144535286312
 31
0.0
  0
LINE
  5
14D0
330
12DF
100
AcDbEntity
  8
1
  6
Continuous
100
AcDbLine
 10
301.0975204356302
 20
151.6444535286214
 30
0.0
 11
300.29752043563
 21
151.6444535286214
 31
0.0
  0
ARC
  5
14D1
330
12DF
100
AcDbEntity
  8
1
  6
Continuous
100
AcDbCircle
 10
300.29752043563
 20
150.8144535286314
 30
0.0
 40
0.4
100
AcDbArc
 50
180.0
 51
270.0
  0
LINE
  5
14D2
330
12DF
100
AcDbEntity
  8
1
  6
Continuous
100
AcDbLine
 10
301.5475204354702
 20
150.4144535286313
 30
0.0
 11
301.0975204356302
 21
150.4144535286313
 31
0.0
  0
LINE
  5
14D3
330
12DF
100
AcDbEntity
  8
1
  6
Continuous
100
AcDbLine
 10
299.8975204356303
 20
151.0144535286315
 30
0.0
 11
299.8975204356303
 21
146.8144535286316
 31
0.0
  0
LINE
  5
14D4
330
12DF
100
AcDbEntity
  8
1
  6
Continuous
100
AcDbLine
 10
301.5475204354702
 20
145.7344535286378
 30
0.0
 11
301.5475204354702
 21
151.9344535286311
 31
0.0
  0
LINE
  5
14D5
330
12DF
100
AcDbEntity
  8
1
  6
Continuous
100
AcDbLine
 10
301.0975204356302
 20
113.7573772845563
 30
0.0
 11
301.0975204356302
 21
151.6444535286214
 31
0.0
  0
LINE
  5
14D6
330
12DF
100
AcDbEntity
  8
1
  6
Continuous
100
AcDbLine
 10
299.8975204356303
 20
146.8144535286315
 30
0.0
 11
299.4975204356304
 21
146.8144535286315
 31
0.0
  0
LINE
  5
14D7
330
12DF
100
AcDbEntity
  8
1
  6
Continuous
100
AcDbLine
 10
299.8975204356303
 20
151.0144535286315
 30
0.0
 11
299.4975204356304
 21
151.0144535286315
 31
0.0
  0
ARC
  5
14D8
330
12DF
100
AcDbEntity
  8
1
  6
Continuous
100
AcDbCircle
 10
302.8619818998186
 20
160.63445352863
 30
0.0
 40
2.299999999999998
100
AcDbArc
 50
119.5918457939507
 51
140.408154206054
  0
ARC
  5
14D9
330
12DF
100
AcDbEntity
  8
1
  6
Continuous
100
AcDbCircle
 10
338.2975204356103
 20
171.9344535286563
 30
0.0
 40
1.5
100
AcDbArc
 50
133.6028189725622
 51
222.7273953126789
  0
LINE
  5
14DA
330
12DF
100
AcDbEntity
  8
4
  6
CENTER
 48
0.2
100
AcDbLine
 10
348.2975204355951
 20
158.5686630248428
 30
0.0
 11
348.2975204355827
 21
180.3940661524684
 31
0.0
  0
LINE
  5
14DB
330
12DF
100
AcDbEntity
  8
1
  6
Continuous
100
AcDbLine
 10
359.3994058210594
 20
170.916687053754
 30
0.0
 11
354.7975204355909
 21
165.9344535286322
 31
0.0
  0
LINE
  5
14DC
330
12DF
100
AcDbEntity
  8
1
  6
Continuous
100
AcDbLine
 10
354.7975204355938
 20
161.434453528632
 30
0.0
 11
341.7975204355938
 21
161.4344535286305
 31
0.0
  0
LINE
  5
14DD
330
12DF
100
AcDbEntity
  8
1
  6
Continuous
100
AcDbLine
 10
341.7975204355934
 20
161.4344535286307
 30
0.0
 11
341.7975204355908
 21
165.9344535286306
 31
0.0
  0
LINE
  5
14DE
330
12DF
100
AcDbEntity
  8
1
  6
Continuous
100
AcDbLine
 10
354.7975204355934
 20
161.434453528632
 30
0.0
 11
354.7975204355909
 21
165.9344535286322
 31
0.0
  0
CIRCLE
  5
14DF
330
12DF
100
AcDbEntity
  8
1
  6
Continuous
100
AcDbCircle
 10
353.2975204355874
 20
171.934453528632
 30
0.0
 40
1.7
  0
LINE
  5
14E0
330
12DF
100
AcDbEntity
  8
4
  6
CENTER
 48
0.2
100
AcDbLine
 10
358.0975204355874
 20
171.934453528632
 30
0.0
 11
338.4975204355875
 21
171.9344535286308
 31
0.0
  0
LINE
  5
14E1
330
12DF
100
AcDbEntity
  8
4
  6
CENTER
 48
0.1
100
AcDbLine
 10
343.2975204355874
 20
167.1344535286308
 30
0.0
 11
343.2975204355874
 21
176.7344535286309
 31
0.0
  0
CIRCLE
  5
14E2
330
12DF
100
AcDbEntity
  8
1
  6
Continuous
100
AcDbCircle
 10
343.2975204355874
 20
171.9344535286308
 30
0.0
 40
1.7
  0
LINE
  5
14E3
330
12DF
100
AcDbEntity
  8
4
  6
CENTER
 48
0.1
100
AcDbLine
 10
353.2975204355874
 20
167.1344535286318
 30
0.0
 11
353.2975204355874
 21
176.734453528632
 31
0.0
  0
ARC
  5
14E4
330
12DF
100
AcDbEntity
  8
1
  6
Continuous
100
AcDbCircle
 10
358.2975204356102
 20
171.9344535286066
 30
0.0
 40
1.5
100
AcDbArc
 50
317.2726046867886
 51
46.39718102715501
  0
LINE
  5
14E5
330
12DF
100
AcDbEntity
  8
1
  6
Continuous
100
AcDbLine
 10
309.4475204355717
 20
124.5618553665102
 30
0.0
 11
307.1475204355718
 21
124.5618553665096
 31
0.0
  0
ARC
  5
14E6
330
12DF
100
AcDbEntity
  8
1
  6
Continuous
100
AcDbCircle
 10
307.1475204355716
 20
125.0618553665097
 30
0.0
 40
0.5
100
AcDbArc
 50
225.5729959991906
 51
270.0
  0
ARC
  5
14E7
330
12DF
100
AcDbEntity
  8
1
  6
Continuous
100
AcDbCircle
 10
309.4475204355717
 20
125.0618553665103
 30
0.0
 40
0.5
100
AcDbArc
 50
270.0
 51
314.4270040007908
  0
LINE
  5
14E8
330
12DF
100
AcDbEntity
  8
1
  6
Continuous
100
AcDbLine
 10
306.7975204355716
 20
124.1344535286811
 30
0.0
 11
306.7975204355716
 21
128.9344535286363
 31
0.0
  0
LINE
  5
14E9
330
12DF
100
AcDbEntity
  8
1
  6
Continuous
100
AcDbLine
 10
309.7975204355716
 20
124.1344535286834
 30
0.0
 11
309.7975204355716
 21
128.9344535286369
 31
0.0
  0
LINE
  5
14EA
330
12DF
100
AcDbEntity
  8
1
  6
Continuous
100
AcDbLine
 10
307.2975204355723
 20
123.6344535286812
 30
0.0
 11
309.2975204355723
 21
123.6344535286834
 31
0.0
  0
ARC
  5
14EB
330
12DF
100
AcDbEntity
  8
1
  6
Continuous
100
AcDbCircle
 10
309.2975204355716
 20
124.1344535286834
 30
0.0
 40
0.5
100
AcDbArc
 50
270.0
 51
0.0
  0
ARC
  5
14EC
330
12DF
100
AcDbEntity
  8
1
  6
Continuous
100
AcDbCircle
 10
307.2975204355716
 20
124.1344535286811
 30
0.0
 40
0.5
100
AcDbArc
 50
180.0
 51
270.0
  0
LINE
  5
14ED
330
12DF
100
AcDbEntity
  8
1
  6
Continuous
100
AcDbLine
 10
309.7975204355716
 20
128.9344535286369
 30
0.0
 11
306.7975204355716
 21
128.9344535286363
 31
0.0
  0
LINE
  5
14EE
330
12DF
100
AcDbEntity
  8
1
  6
Continuous
100
AcDbLine
 10
310.5143615280004
 20
151.9344535286298
 30
0.0
 11
315.0475204354701
 21
151.9344535286288
 31
0.0
  0
ENDSEC
  0
SECTION
  2
OBJECTS
  0
DICTIONARY
  5
12CD
330
0
100
AcDbDictionary
281
     1
  3
ACAD_CIP_PREVIOUS_PRODUCT_INFO
350
16E5
  3
ACAD_COLOR
350
16C8
  3
ACAD_DETAILVIEWSTYLE
350
16E1
  3
ACAD_GROUP
350
12CE
  3
ACAD_LAYOUT
350
12DA
  3
ACAD_MATERIAL
350
1696
  3
ACAD_MLEADERSTYLE
350
16DD
  3
ACAD_MLINESTYLE
350
12D7
  3
ACAD_PLOTSETTINGS
350
12D9
  3
ACAD_PLOTSTYLENAME
350
1694
  3
ACAD_SCALELIST
350
16CB
  3
ACAD_SECTIONVIEWSTYLE
350
16DF
  3
ACAD_TABLESTYLE
350
16C9
  3
ACAD_VISUALSTYLE
350
16AF
  3
ACDB_RECOMPOSE_DATA
350
1703
  3
AcDbVariableDictionary
350
16F6
  3
DWGPROPS
350
1704
  0
DICTIONARY
  5
16E6
330
12D1
100
AcDbDictionary
280
     1
281
     1
  3
ADSK_XREC_LAYER_RECONCILED
360
16E7
  0
DICTIONARY
  5
16E8
330
12E7
100
AcDbDictionary
280
     1
281
     1
  3
ADSK_XREC_LAYER_RECONCILED
360
16E9
  0
DICTIONARY
  5
16EA
330
12E8
100
AcDbDictionary
280
     1
281
     1
  3
ADSK_XREC_LAYER_RECONCILED
360
16EB
  0
DICTIONARY
  5
16EC
330
12E9
100
AcDbDictionary
280
     1
281
     1
  3
ADSK_XREC_LAYER_RECONCILED
360
16ED
  0
DICTIONARY
  5
16EE
330
12EA
100
AcDbDictionary
280
     1
281
     1
  3
ADSK_XREC_LAYER_RECONCILED
360
16EF
  0
DICTIONARY
  5
16F0
330
12EB
100
AcDbDictionary
280
     1
281
     1
  3
ADSK_XREC_LAYER_RECONCILED
360
16F1
  0
DICTIONARY
  5
16F2
330
12EC
100
AcDbDictionary
280
     1
281
     1
  3
ADSK_XREC_LAYER_RECONCILED
360
16F3
  0
DICTIONARY
  5
16F4
330
12ED
100
AcDbDictionary
280
     1
281
     1
  3
ADSK_XREC_LAYER_RECONCILED
360
16F5
  0
DICTIONARY
  5
14FB
330
12DF
100
AcDbDictionary
281
     1
  3
ACAD_LAYOUTSELFREF
350
1690
  0
DICTIONARY
  5
14F9
330
12DB
100
AcDbDictionary
281
     1
  3
ACAD_LAYOUTSELFREF
350
168F
  0
XRECORD
  5
16E5
102
{ACAD_REACTORS
330
12CD
102
}
330
12CD
100
AcDbXrecord
280
     1
300
ACDLT
300
2014
300
ACDLT_F_S
  0
DICTIONARY
  5
16C8
102
{ACAD_REACTORS
330
12CD
102
}
330
12CD
100
AcDbDictionary
281
     1
  0
DICTIONARY
  5
16E1
102
{ACAD_REACTORS
330
12CD
102
}
330
12CD
100
AcDbDictionary
281
     1
  3
Imperial24
350
16E2
  0
DICTIONARY
  5
12CE
102
{ACAD_REACTORS
330
12CD
102
}
330
12CD
100
AcDbDictionary
281
     1
  0
DICTIONARY
  5
12DA
102
{ACAD_REACTORS
330
12CD
102
}
330
12CD
100
AcDbDictionary
281
     1
  3
Model
350
16E3
  3
レイアウト1
350
16E4
  0
DICTIONARY
  5
1696
102
{ACAD_REACTORS
330
12CD
102
}
330
12CD
100
AcDbDictionary
281
     1
  3
ByBlock
350
169F
  3
ByLayer
350
1697
  3
Global
350
16A7
  0
DICTIONARY
  5
16DD
102
{ACAD_REACTORS
330
12CD
102
}
330
12CD
100
AcDbDictionary
281
     1
  3
Standard
350
16DE
  0
DICTIONARY
  5
12D7
102
{ACAD_REACTORS
330
12CD
102
}
330
12CD
100
AcDbDictionary
281
     1
  3
STANDARD
350
12D8
  0
DICTIONARY
  5
12D9
102
{ACAD_REACTORS
330
12CD
102
}
330
12CD
100
AcDbDictionary
281
     1
  0
ACDBDICTIONARYWDFLT
  5
1694
102
{ACAD_REACTORS
330
12CD
102
}
330
12CD
100
AcDbDictionary
281
     1
  3
Normal
350
1695
100
AcDbDictionaryWithDefault
340
1695
  0
DICTIONARY
  5
16CB
102
{ACAD_REACTORS
330
12CD
102
}
330
12CD
100
AcDbDictionary
281
     1
  3
A0
350
16CC
  3
A1
350
16CD
  3
A2
350
16CE
  3
A3
350
16CF
  3
A4
350
16D0
  3
A5
350
16D1
  3
A6
350
16D2
  3
A7
350
16D3
  3
A8
350
16D4
  3
A9
350
16D5
  3
B0
350
16D6
  3
B1
350
16D7
  3
B2
350
16D8
  3
B3
350
16D9
  3
B4
350
16DA
  3
B5
350
16DB
  3
B6
350
16DC
  0
DICTIONARY
  5
16DF
102
{ACAD_REACTORS
330
12CD
102
}
330
12CD
100
AcDbDictionary
281
     1
  3
Imperial24
350
16E0
  0
DICTIONARY
  5
16C9
102
{ACAD_REACTORS
330
12CD
102
}
330
12CD
100
AcDbDictionary
281
     1
  3
Standard
350
16CA
  0
DICTIONARY
  5
16AF
102
{ACAD_REACTORS
330
12CD
102
}
330
12CD
100
AcDbDictionary
281
     1
  3
2dWireframe
350
16B5
  3
Basic
350
16B4
  3
Brighten
350
16BB
  3
ColorChange
350
16BF
  3
Conceptual
350
16B8
  3
Dim
350
16BA
  3
EdgeColorOff
350
16C7
  3
Facepattern
350
16BE
  3
Flat
350
16B0
  3
FlatWithEdges
350
16B1
  3
Gouraud
350
16B2
  3
GouraudWithEdges
350
16B3
  3
Hidden
350
16B7
  3
JitterOff
350
16C5
  3
Linepattern
350
16BD
  3
OverhangOff
350
16C6
  3
Realistic
350
16B9
  3
Shaded
350
16C4
  3
Shaded with edges
350
16C3
  3
Shades of Gray
350
16C0
  3
Sketchy
350
16C1
  3
Thicken
350
16BC
  3
Wireframe
350
16B6
  3
X-Ray
350
16C2
  0
XRECORD
  5
1703
102
{ACAD_REACTORS
330
12CD
102
}
330
12CD
100
AcDbXrecord
280
     1
 90
        1
330
16CA
  0
DICTIONARY
  5
16F6
102
{ACAD_REACTORS
330
12CD
102
}
330
12CD
100
AcDbDictionary
281
     1
  3
CANNOSCALE
350
16FB
  3
CMLEADERSTYLE
350
16F8
  3
CTABLESTYLE
350
16F7
  3
CVIEWDETAILSTYLE
350
16F9
  3
CVIEWSECTIONSTYLE
350
16FA
  3
DIMASSOC
350
16FE
  3
INDEXCTL
350
16FD
  3
SORTENTS
350
16FC
  3
XCLIPFRAME
350
16FF
  0
XRECORD
  5
1704
102
{ACAD_REACTORS
330
12CD
102
}
330
12CD
100
AcDbXrecord
280
     1
  1
DWGPROPS COOKIE
  2

  3

  4

  6

  7

  8
Yoshitsune
  9

300
=
301
=
302
=
303
=
304
=
305
=
306
=
307
=
308
=
309
=
 40
0.206789525462963
 41
2452291.461278206
 42
2457192.599055683
  1

 90
        0
  0
XRECORD
  5
16E7
102
{ACAD_REACTORS
330
16E6
102
}
330
16E6
100
AcDbXrecord
280
     1
290
     1
  0
XRECORD
  5
16E9
102
{ACAD_REACTORS
330
16E8
102
}
330
16E8
100
AcDbXrecord
280
     1
290
     1
  0
XRECORD
  5
16EB
102
{ACAD_REACTORS
330
16EA
102
}
330
16EA
100
AcDbXrecord
280
     1
290
     1
  0
XRECORD
  5
16ED
102
{ACAD_REACTORS
330
16EC
102
}
330
16EC
100
AcDbXrecord
280
     1
290
     1
  0
XRECORD
  5
16EF
102
{ACAD_REACTORS
330
16EE
102
}
330
16EE
100
AcDbXrecord
280
     1
290
     1
  0
XRECORD
  5
16F1
102
{ACAD_REACTORS
330
16F0
102
}
330
16F0
100
AcDbXrecord
280
     1
290
     1
  0
XRECORD
  5
16F3
102
{ACAD_REACTORS
330
16F2
102
}
330
16F2
100
AcDbXrecord
280
     1
290
     1
  0
XRECORD
  5
16F5
102
{ACAD_REACTORS
330
16F4
102
}
330
16F4
100
AcDbXrecord
280
     1
290
     1
  0
XRECORD
  5
1690
102
{ACAD_REACTORS
330
14FB
102
}
330
14FB
100
AcDbXrecord
280
     1
340
12DF
  0
XRECORD
  5
168F
102
{ACAD_REACTORS
330
14F9
102
}
330
14F9
100
AcDbXrecord
280
     1
340
12DB
  0
ACDBDETAILVIEWSTYLE
  5
16E2
102
{ACAD_XDICTIONARY
360
173C
102
}
102
{ACAD_REACTORS
330
16E1
102
}
330
16E1
100
AcDbModelDocViewStyle
 70
     0
  3
Imperial24
290
     0
100
AcDbDetailViewStyle
 70
     0
 71
     0
 90
        3
 71
     1
340
12D2
 40
0.24
340
0
 40
0.24
300

 40
0.36
280
     3
 71
     2
340
12D6
 90
       25
 71
     3
340
12D2
 40
0.24
 90
        1
 40
0.75
 90
        1
300
%<\AcVar ViewType \f "%tc1">% %<\AcVar ViewDetailId>%\PSCALE %<\AcVar ViewScale \f "%sn">%
 71
     4
340
12D6
 90
       25
340
12D6
 90
       25
280
     0
  0
LAYOUT
  5
16E3
102
{ACAD_XDICTIONARY
360
173E
102
}
102
{ACAD_REACTORS
330
12DA
102
}
330
12DA
100
AcDbPlotSettings
  1

  2
Canon LBP9100C
  4

  6

 40
0.0
 41
0.0
 42
0.0
 43
0.0
 44
0.0
 45
0.0
 46
0.0
 47
0.0
 48
0.0
 49
0.0
140
0.0
141
0.0
142
1.0
143
1.0
 70
  1712
 72
     0
 73
     0
 74
     0
  7

 75
     0
147
1.0
148
0.0
149
0.0
100
AcDbLayout
  1
Model
 70
     1
 71
     0
 10
0.0
 20
0.0
 11
12.0
 21
9.0
 12
0.0
 22
0.0
 32
0.0
 14
0.0
 24
0.0
 34
0.0
 15
0.0
 25
0.0
 35
0.0
146
0.0
 13
0.0
 23
0.0
 33
0.0
 16
1.0
 26
0.0
 36
0.0
 17
0.0
 27
1.0
 37
0.0
 76
     0
330
12DF
331
168E
  0
LAYOUT
  5
16E4
102
{ACAD_XDICTIONARY
360
1740
102
}
102
{ACAD_REACTORS
330
12DA
102
}
330
12DA
100
AcDbPlotSettings
  1

  2
Canon LBP9100C
  4

  6

 40
0.0
 41
0.0
 42
0.0
 43
0.0
 44
0.0
 45
0.0
 46
0.0
 47
0.0
 48
0.0
 49
0.0
140
0.0
141
0.0
142
1.0
143
1.0
 70
   688
 72
     0
 73
     0
 74
     5
  7

 75
    16
147
1.0
148
0.0
149
0.0
100
AcDbLayout
  1
レイアウト1
 70
     1
 71
     1
 10
0.0
 20
0.0
 11
420.0
 21
297.0
 12
0.0
 22
0.0
 32
0.0
 14
1.000000000000000E+20
 24
1.000000000000000E+20
 34
1.000000000000000E+20
 15
-1.000000000000000E+20
 25
-1.000000000000000E+20
 35
-1.000000000000000E+20
146
0.0
 13
0.0
 23
0.0
 33
0.0
 16
1.0
 26
0.0
 36
0.0
 17
0.0
 27
1.0
 37
0.0
 76
     0
330
12DB
  0
MATERIAL
  5
169F
102
{ACAD_XDICTIONARY
360
16A0
102
}
102
{ACAD_REACTORS
330
1696
102
}
330
1696
100
AcDbMaterial
  1
ByBlock
 72
     0
 43
0.0208333333333333
 43
0.0
 43
0.0
 43
0.0
 43
0.0
 43
0.0208333333333333
 43
0.0
 43
0.0
 43
0.0
 43
0.0
 43
1.0
 43
0.0
 43
0.0
 43
0.0
 43
0.0
 43
1.0
 77
     0
 47
0.0208333333333333
 47
0.0
 47
0.0
 47
0.0
 47
0.0
 47
0.0208333333333333
 47
0.0
 47
0.0
 47
0.0
 47
0.0
 47
1.0
 47
0.0
 47
0.0
 47
0.0
 47
0.0
 47
1.0
171
     0
 49
0.0208333333333333
 49
0.0
 49
0.0
 49
0.0
 49
0.0
 49
0.0208333333333333
 49
0.0
 49
0.0
 49
0.0
 49
0.0
 49
1.0
 49
0.0
 49
0.0
 49
0.0
 49
0.0
 49
1.0
175
     0
142
0.0208333333333333
142
0.0
142
0.0
142
0.0
142
0.0
142
0.0208333333333333
142
0.0
142
0.0
142
0.0
142
0.0
142
1.0
142
0.0
142
0.0
142
0.0
142
0.0
142
1.0
179
     0
144
0.0208333333333333
144
0.0
144
0.0
144
0.0
144
0.0
144
0.0208333333333333
144
0.0
144
0.0
144
0.0
144
0.0
144
1.0
144
0.0
144
0.0
144
0.0
144
0.0
144
1.0
147
0.0208333333333333
147
0.0
147
0.0
147
0.0
147
0.0
147
0.0208333333333333
147
0.0
147
0.0
147
0.0
147
0.0
147
1.0
147
0.0
147
0.0
147
0.0
147
0.0
147
1.0
  0
MATERIAL
  5
1697
102
{ACAD_XDICTIONARY
360
1698
102
}
102
{ACAD_REACTORS
330
1696
102
}
330
1696
100
AcDbMaterial
  1
ByLayer
 72
     0
 43
0.0208333333333333
 43
0.0
 43
0.0
 43
0.0
 43
0.0
 43
0.0208333333333333
 43
0.0
 43
0.0
 43
0.0
 43
0.0
 43
1.0
 43
0.0
 43
0.0
 43
0.0
 43
0.0
 43
1.0
 77
     0
 47
0.0208333333333333
 47
0.0
 47
0.0
 47
0.0
 47
0.0
 47
0.0208333333333333
 47
0.0
 47
0.0
 47
0.0
 47
0.0
 47
1.0
 47
0.0
 47
0.0
 47
0.0
 47
0.0
 47
1.0
171
     0
 49
0.0208333333333333
 49
0.0
 49
0.0
 49
0.0
 49
0.0
 49
0.0208333333333333
 49
0.0
 49
0.0
 49
0.0
 49
0.0
 49
1.0
 49
0.0
 49
0.0
 49
0.0
 49
0.0
 49
1.0
175
     0
142
0.0208333333333333
142
0.0
142
0.0
142
0.0
142
0.0
142
0.0208333333333333
142
0.0
142
0.0
142
0.0
142
0.0
142
1.0
142
0.0
142
0.0
142
0.0
142
0.0
142
1.0
179
     0
144
0.0208333333333333
144
0.0
144
0.0
144
0.0
144
0.0
144
0.0208333333333333
144
0.0
144
0.0
144
0.0
144
0.0
144
1.0
144
0.0
144
0.0
144
0.0
144
0.0
144
1.0
147
0.0208333333333333
147
0.0
147
0.0
147
0.0
147
0.0
147
0.0208333333333333
147
0.0
147
0.0
147
0.0
147
0.0
147
1.0
147
0.0
147
0.0
147
0.0
147
0.0
147
1.0
  0
MATERIAL
  5
16A7
102
{ACAD_XDICTIONARY
360
16A8
102
}
102
{ACAD_REACTORS
330
1696
102
}
330
1696
100
AcDbMaterial
  1
Global
 72
     0
 43
0.0208333333333333
 43
0.0
 43
0.0
 43
0.0
 43
0.0
 43
0.0208333333333333
 43
0.0
 43
0.0
 43
0.0
 43
0.0
 43
1.0
 43
0.0
 43
0.0
 43
0.0
 43
0.0
 43
1.0
 77
     0
 47
0.0208333333333333
 47
0.0
 47
0.0
 47
0.0
 47
0.0
 47
0.0208333333333333
 47
0.0
 47
0.0
 47
0.0
 47
0.0
 47
1.0
 47
0.0
 47
0.0
 47
0.0
 47
0.0
 47
1.0
171
     0
 49
0.0208333333333333
 49
0.0
 49
0.0
 49
0.0
 49
0.0
 49
0.0208333333333333
 49
0.0
 49
0.0
 49
0.0
 49
0.0
 49
1.0
 49
0.0
 49
0.0
 49
0.0
 49
0.0
 49
1.0
175
     0
142
0.0208333333333333
142
0.0
142
0.0
142
0.0
142
0.0
142
0.0208333333333333
142
0.0
142
0.0
142
0.0
142
0.0
142
1.0
142
0.0
142
0.0
142
0.0
142
0.0
142
1.0
179
     0
144
0.0208333333333333
144
0.0
144
0.0
144
0.0
144
0.0
144
0.0208333333333333
144
0.0
144
0.0
144
0.0
144
0.0
144
1.0
144
0.0
144
0.0
144
0.0
144
0.0
144
1.0
147
0.0208333333333333
147
0.0
147
0.0
147
0.0
147
0.0
147
0.0208333333333333
147
0.0
147
0.0
147
0.0
147
0.0
147
1.0
147
0.0
147
0.0
147
0.0
147
0.0
147
1.0
  0
MLEADERSTYLE
  5
16DE
102
{ACAD_REACTORS
330
16DD
102
}
330
16DD
100
AcDbMLeaderStyle
170
     2
171
     1
172
     0
 90
        2
 40
0.0
 41
0.0
173
     1
 91
-1056964608
340
12D4
 92
       -2
290
     1
 42
0.09
291
     1
 43
0.36
  3
Standard
 44
0.18
300

342
12D2
174
     1
178
     6
175
     1
176
     0
 93
-1056964608
 45
0.18
292
     0
297
     0
 46
0.18
 94
-1056964608
 47
1.0
 49
1.0
140
1.0
293
     1
141
0.0
294
     1
177
     0
142
1.0
295
     0
296
     0
143
0.125
1001
ACAD_MLEADERVER
1070
     2
  0
MLINESTYLE
  5
12D8
102
{ACAD_REACTORS
330
12D7
102
}
330
12D7
100
AcDbMlineStyle
  2
STANDARD
 70
     0
  3

 62
   256
 51
90.0
 52
90.0
 71
     2
 49
0.5
 62
   256
  6
BYLAYER
 49
-0.5
 62
   256
  6
BYLAYER
  0
ACDBPLACEHOLDER
  5
1695
102
{ACAD_REACTORS
330
1694
102
}
330
1694
  0
SCALE
  5
16CC
102
{ACAD_REACTORS
330
16CB
102
}
330
16CB
100
AcDbScale
 70
     0
300
1:1
140
1.0
141
1.0
290
     1
  0
SCALE
  5
16CD
102
{ACAD_REACTORS
330
16CB
102
}
330
16CB
100
AcDbScale
 70
     0
300
1/128" = 1'-0"
140
0.0078125
141
12.0
290
     0
  0
SCALE
  5
16CE
102
{ACAD_REACTORS
330
16CB
102
}
330
16CB
100
AcDbScale
 70
     0
300
1/64" = 1'-0"
140
0.015625
141
12.0
290
     0
  0
SCALE
  5
16CF
102
{ACAD_REACTORS
330
16CB
102
}
330
16CB
100
AcDbScale
 70
     0
300
1/32" = 1'-0"
140
0.03125
141
12.0
290
     0
  0
SCALE
  5
16D0
102
{ACAD_REACTORS
330
16CB
102
}
330
16CB
100
AcDbScale
 70
     0
300
1/16" = 1'-0"
140
0.0625
141
12.0
290
     0
  0
SCALE
  5
16D1
102
{ACAD_REACTORS
330
16CB
102
}
330
16CB
100
AcDbScale
 70
     0
300
3/32" = 1'-0"
140
0.09375
141
12.0
290
     0
  0
SCALE
  5
16D2
102
{ACAD_REACTORS
330
16CB
102
}
330
16CB
100
AcDbScale
 70
     0
300
1/8" = 1'-0"
140
0.125
141
12.0
290
     0
  0
SCALE
  5
16D3
102
{ACAD_REACTORS
330
16CB
102
}
330
16CB
100
AcDbScale
 70
     0
300
3/16" = 1'-0"
140
0.1875
141
12.0
290
     0
  0
SCALE
  5
16D4
102
{ACAD_REACTORS
330
16CB
102
}
330
16CB
100
AcDbScale
 70
     0
300
1/4" = 1'-0"
140
0.25
141
12.0
290
     0
  0
SCALE
  5
16D5
102
{ACAD_REACTORS
330
16CB
102
}
330
16CB
100
AcDbScale
 70
     0
300
3/8" = 1'-0"
140
0.375
141
12.0
290
     0
  0
SCALE
  5
16D6
102
{ACAD_REACTORS
330
16CB
102
}
330
16CB
100
AcDbScale
 70
     0
300
1/2" = 1'-0"
140
0.5
141
12.0
290
     0
  0
SCALE
  5
16D7
102
{ACAD_REACTORS
330
16CB
102
}
330
16CB
100
AcDbScale
 70
     0
300
3/4" = 1'-0"
140
0.75
141
12.0
290
     0
  0
SCALE
  5
16D8
102
{ACAD_REACTORS
330
16CB
102
}
330
16CB
100
AcDbScale
 70
     0
300
1" = 1'-0"
140
1.0
141
12.0
290
     0
  0
SCALE
  5
16D9
102
{ACAD_REACTORS
330
16CB
102
}
330
16CB
100
AcDbScale
 70
     0
300
1-1/2" = 1'-0"
140
1.5
141
12.0
290
     0
  0
SCALE
  5
16DA
102
{ACAD_REACTORS
330
16CB
102
}
330
16CB
100
AcDbScale
 70
     0
300
3" = 1'-0"
140
3.0
141
12.0
290
     0
  0
SCALE
  5
16DB
102
{ACAD_REACTORS
330
16CB
102
}
330
16CB
100
AcDbScale
 70
     0
300
6" = 1'-0"
140
6.0
141
12.0
290
     0
  0
SCALE
  5
16DC
102
{ACAD_REACTORS
330
16CB
102
}
330
16CB
100
AcDbScale
 70
     0
300
1'-0" = 1'-0"
140
12.0
141
12.0
290
     0
  0
ACDBSECTIONVIEWSTYLE
  5
16E0
102
{ACAD_XDICTIONARY
360
173A
102
}
102
{ACAD_REACTORS
330
16DF
102
}
330
16DF
100
AcDbModelDocViewStyle
 70
     0
  3
Imperial24
290
     0
100
AcDbSectionViewStyle
 70
     0
 71
     0
 90
       78
 71
     1
340
12D2
 40
0.24
340
0
340
0
 40
0.24
300
I, O, Q, S, X, Z
 40
0.48
 90
        3
 40
0.18
 90
        1
 71
     2
340
12D6
 90
       25
340
12D6
 90
       50
 40
0.24
 40
0.0
 40
0.24
 71
     3
340
12D2
 40
0.24
 90
        1
 40
0.75
 90
        1
300
%<\AcVar ViewType \f "%tc1">% %<\AcVar ViewSectionStartId>%-%<\AcVar ViewSectionEndId>%\PSCALE %<\AcVar ViewScale \f "%sn">%
 71
     4
300
ANSI31
 40
1.0
 90
        0
290
     0
290
     0
 90
        6
 40
0.0
 40
1.570796326794896
 40
0.2617993877991494
 40
1.308996938995747
 40
-0.2617993877991494
 40
1.832595714594046
  0
TABLESTYLE
  5
16CA
102
{ACAD_XDICTIONARY
360
1701
102
}
102
{ACAD_REACTORS
330
16C9
102
}
330
16C9
100
AcDbTableStyle
  3
Standard
 70
     0
 71
     0
 40
0.06
 41
0.06
280
     0
281
     0
  7
STANDARD
140
0.18
170
     2
 62
     0
 63
     7
283
     0
274
    -2
284
     1
 64
     0
275
    -2
285
     1
 65
     0
276
    -2
286
     1
 66
     0
277
    -2
287
     1
 67
     0
278
    -2
288
     1
 68
     0
279
    -2
289
     1
 69
     0
  7
STANDARD
140
0.25
170
     5
 62
     0
 63
     7
283
     0
274
    -2
284
     1
 64
     0
275
    -2
285
     1
 65
     0
276
    -2
286
     1
 66
     0
277
    -2
287
     1
 67
     0
278
    -2
288
     1
 68
     0
279
    -2
289
     1
 69
     0
  7
STANDARD
140
0.18
170
     5
 62
     0
 63
     7
283
     0
274
    -2
284
     1
 64
     0
275
    -2
285
     1
 65
     0
276
    -2
286
     1
 66
     0
277
    -2
287
     1
 67
     0
278
    -2
288
     1
 68
     0
279
    -2
289
     1
 69
     0
  0
VISUALSTYLE
  5
16B5
102
{ACAD_XDICTIONARY
360
1712
102
}
102
{ACAD_REACTORS
330
16AF
102
}
330
16AF
100
AcDbVisualStyle
  2
2dWireframe
 70
     4
 71
     0
 72
     2
 73
     0
 90
        0
 40
-0.6
 41
-30.0
 62
     5
 63
     7
 74
     1
 91
        4
 64
     7
 65
   257
 75
     1
175
     1
 42
1.0
 92
        0
 66
   257
 43
1.0
 76
     1
 77
     6
 78
     2
 67
     7
 79
     5
170
     0
171
     0
290
     0
174
     0
 93
        1
 44
0.0
173
     0
291
     0
 45
0.0
1001
ACAD
1000
AcDbSavedByObjectVersion
1070
     0
  0
VISUALSTYLE
  5
16B4
102
{ACAD_XDICTIONARY
360
1710
102
}
102
{ACAD_REACTORS
330
16AF
102
}
330
16AF
100
AcDbVisualStyle
  2
Basic
 70
     7
 71
     1
 72
     0
 73
     1
 90
        0
 40
-0.6
 41
-30.0
 62
     5
 63
     7
 74
     0
 91
        4
 64
     7
 65
   257
 75
     1
175
     1
 42
1.0
 92
        8
 66
     7
 43
1.0
 76
     1
 77
     6
 78
     2
 67
     7
 79
     5
170
     0
171
     0
290
     0
174
     0
 93
        1
 44
0.0
173
     0
291
     1
 45
0.0
1001
ACAD
1000
AcDbSavedByObjectVersion
1070
     0
  0
VISUALSTYLE
  5
16BB
102
{ACAD_XDICTIONARY
360
171E
102
}
102
{ACAD_REACTORS
330
16AF
102
}
330
16AF
100
AcDbVisualStyle
  2
Brighten
 70
    12
 71
     2
 72
     2
 73
     0
 90
        0
 40
-0.6
 41
-30.0
 62
     5
 63
     7
 74
     1
 91
        4
 64
     7
 65
   257
 75
     1
175
     1
 42
1.0
 92
        8
 66
     7
 43
1.0
 76
     1
 77
     6
 78
     2
 67
     7
 79
     5
170
     0
171
     0
290
     0
174
     0
 93
        1
 44
50.0
173
     0
291
     1
 45
0.0
1001
ACAD
1000
AcDbSavedByObjectVersion
1070
     0
  0
VISUALSTYLE
  5
16BF
102
{ACAD_XDICTIONARY
360
1726
102
}
102
{ACAD_REACTORS
330
16AF
102
}
330
16AF
100
AcDbVisualStyle
  2
ColorChange
 70
    16
 71
     2
 72
     2
 73
     3
 90
        0
 40
-0.6
 41
-30.0
 62
     5
 63
     8
 74
     1
 91
        4
 64
     7
 65
   257
 75
     1
175
     1
 42
1.0
 92
        8
 66
     8
 43
1.0
 76
     1
 77
     6
 78
     2
 67
     7
 79
     5
170
     0
171
     0
290
     0
174
     0
 93
        1
 44
0.0
173
     0
291
     1
 45
0.0
1001
ACAD
1000
AcDbSavedByObjectVersion
1070
     0
  0
VISUALSTYLE
  5
16B8
102
{ACAD_XDICTIONARY
360
1718
102
}
102
{ACAD_REACTORS
330
16AF
102
}
330
16AF
100
AcDbVisualStyle
  2
Conceptual
 70
     9
 71
     3
 72
     2
 73
     0
 90
        0
 40
-0.6
 41
-30.0
 62
     5
 63
     7
 74
     2
 91
        2
 64
     7
 65
   257
 75
     1
175
     1
 42
179.0
 92
        8
 66
     7
 43
1.0
 76
     1
 77
     6
 78
     2
 67
     7
 79
     3
170
     0
171
     0
290
     0
174
     0
 93
        1
 44
0.0
173
     0
291
     0
 45
0.0
1001
ACAD
1000
AcDbSavedByObjectVersion
1070
     0
  0
VISUALSTYLE
  5
16BA
102
{ACAD_XDICTIONARY
360
171C
102
}
102
{ACAD_REACTORS
330
16AF
102
}
330
16AF
100
AcDbVisualStyle
  2
Dim
 70
    11
 71
     2
 72
     2
 73
     0
 90
        0
 40
-0.6
 41
-30.0
 62
     5
 63
     7
 74
     1
 91
        4
 64
     7
 65
   257
 75
     1
175
     1
 42
1.0
 92
        8
 66
     7
 43
1.0
 76
     1
 77
     6
 78
     2
 67
     7
 79
     5
170
     0
171
     0
290
     0
174
     0
 93
        1
 44
-50.0
173
     0
291
     1
 45
0.0
1001
ACAD
1000
AcDbSavedByObjectVersion
1070
     0
  0
VISUALSTYLE
  5
16C7
102
{ACAD_XDICTIONARY
360
1736
102
}
102
{ACAD_REACTORS
330
16AF
102
}
330
16AF
100
AcDbVisualStyle
  2
EdgeColorOff
 70
    22
 71
     2
 72
     2
 73
     0
 90
        0
 40
-0.6
 41
-30.0
 62
     5
 63
     7
 74
     1
 91
        4
 64
     7
 65
   257
 75
     1
175
     1
 42
1.0
 92
        8
 66
     7
 43
1.0
 76
     1
 77
     6
 78
     2
 67
     7
 79
     5
170
     0
171
     0
290
     0
174
     0
 93
        1
 44
0.0
173
     0
291
     1
 45
0.0
1001
ACAD
1000
AcDbSavedByObjectVersion
1070
     0
  0
VISUALSTYLE
  5
16BE
102
{ACAD_XDICTIONARY
360
1724
102
}
102
{ACAD_REACTORS
330
16AF
102
}
330
16AF
100
AcDbVisualStyle
  2
Facepattern
 70
    15
 71
     2
 72
     2
 73
     0
 90
        0
 40
-0.6
 41
-30.0
 62
     5
 63
     7
 74
     1
 91
        4
 64
     7
 65
   257
 75
     1
175
     1
 42
1.0
 92
        8
 66
     7
 43
1.0
 76
     1
 77
     6
 78
     2
 67
     7
 79
     5
170
     0
171
     0
290
     0
174
     0
 93
        1
 44
0.0
173
     0
291
     1
 45
0.0
1001
ACAD
1000
AcDbSavedByObjectVersion
1070
     0
  0
VISUALSTYLE
  5
16B0
102
{ACAD_XDICTIONARY
360
1708
102
}
102
{ACAD_REACTORS
330
16AF
102
}
330
16AF
100
AcDbVisualStyle
  2
Flat
 70
     0
 71
     2
 72
     1
 73
     1
 90
        2
 40
-0.6
 41
30.0
 62
     5
 63
     7
 74
     0
 91
        0
 64
     7
 65
   257
 75
     1
175
     1
 42
1.0
 92
        8
 66
     7
 43
1.0
 76
     1
 77
     6
 78
     2
 67
     7
 79
     5
170
     0
171
     0
290
     0
174
     0
 93
       13
 44
0.0
173
     0
291
     1
 45
0.0
1001
ACAD
1000
AcDbSavedByObjectVersion
1070
     0
  0
VISUALSTYLE
  5
16B1
102
{ACAD_XDICTIONARY
360
170A
102
}
102
{ACAD_REACTORS
330
16AF
102
}
330
16AF
100
AcDbVisualStyle
  2
FlatWithEdges
 70
     1
 71
     2
 72
     1
 73
     1
 90
        2
 40
-0.6
 41
30.0
 62
     5
 63
     7
 74
     1
 91
        0
 64
     7
 65
   257
 75
     1
175
     1
 42
1.0
 92
        0
 66
   257
 43
1.0
 76
     1
 77
     6
 78
     2
 67
     7
 79
     5
170
     0
171
     0
290
     0
174
     0
 93
       13
 44
0.0
173
     0
291
     1
 45
0.0
1001
ACAD
1000
AcDbSavedByObjectVersion
1070
     0
  0
VISUALSTYLE
  5
16B2
102
{ACAD_XDICTIONARY
360
170C
102
}
102
{ACAD_REACTORS
330
16AF
102
}
330
16AF
100
AcDbVisualStyle
  2
Gouraud
 70
     2
 71
     2
 72
     2
 73
     1
 90
        2
 40
-0.6
 41
30.0
 62
     5
 63
     7
 74
     0
 91
        0
 64
     7
 65
   257
 75
     1
175
     1
 42
1.0
 92
        0
 66
     7
 43
1.0
 76
     1
 77
     6
 78
     2
 67
     7
 79
     5
170
     0
171
     0
290
     0
174
     0
 93
       13
 44
0.0
173
     0
291
     1
 45
0.0
1001
ACAD
1000
AcDbSavedByObjectVersion
1070
     0
  0
VISUALSTYLE
  5
16B3
102
{ACAD_XDICTIONARY
360
170E
102
}
102
{ACAD_REACTORS
330
16AF
102
}
330
16AF
100
AcDbVisualStyle
  2
GouraudWithEdges
 70
     3
 71
     2
 72
     2
 73
     1
 90
        2
 40
-0.6
 41
30.0
 62
     5
 63
     7
 74
     1
 91
        0
 64
     7
 65
   257
 75
     1
175
     1
 42
1.0
 92
        0
 66
   257
 43
1.0
 76
     1
 77
     6
 78
     2
 67
     7
 79
     5
170
     0
171
     0
290
     0
174
     0
 93
       13
 44
0.0
173
     0
291
     1
 45
0.0
1001
ACAD
1000
AcDbSavedByObjectVersion
1070
     0
  0
VISUALSTYLE
  5
16B7
102
{ACAD_XDICTIONARY
360
1716
102
}
102
{ACAD_REACTORS
330
16AF
102
}
330
16AF
100
AcDbVisualStyle
  2
Hidden
 70
     6
 71
     1
 72
     2
 73
     2
 90
        0
 40
-0.6
 41
-30.0
 62
     5
 63
     7
 74
     2
 91
        2
 64
     7
 65
   257
 75
     2
175
     1
 42
40.0
 92
        0
 66
   257
 43
1.0
 76
     1
 77
     6
 78
     2
 67
     7
 79
     3
170
     0
171
     0
290
     0
174
     0
 93
        1
 44
0.0
173
     0
291
     0
 45
0.0
1001
ACAD
1000
AcDbSavedByObjectVersion
1070
     0
  0
VISUALSTYLE
  5
16C5
102
{ACAD_XDICTIONARY
360
1732
102
}
102
{ACAD_REACTORS
330
16AF
102
}
330
16AF
100
AcDbVisualStyle
  2
JitterOff
 70
    20
 71
     2
 72
     2
 73
     0
 90
        0
 40
-0.6
 41
-30.0
 62
     5
 63
     7
 74
     1
 91
        4
 64
     7
 65
   257
 75
     1
175
     1
 42
1.0
 92
       10
 66
     7
 43
1.0
 76
     1
 77
     6
 78
     2
 67
     7
 79
     5
170
     0
171
     0
290
     0
174
     0
 93
        1
 44
0.0
173
     0
291
     1
 45
0.0
1001
ACAD
1000
AcDbSavedByObjectVersion
1070
     0
  0
VISUALSTYLE
  5
16BD
102
{ACAD_XDICTIONARY
360
1722
102
}
102
{ACAD_REACTORS
330
16AF
102
}
330
16AF
100
AcDbVisualStyle
  2
Linepattern
 70
    14
 71
     2
 72
     2
 73
     0
 90
        0
 40
-0.6
 41
-30.0
 62
     5
 63
     7
 74
     1
 91
        4
 64
     7
 65
   257
 75
     7
175
     7
 42
1.0
 92
        8
 66
     7
 43
1.0
 76
     1
 77
     6
 78
     2
 67
     7
 79
     5
170
     0
171
     0
290
     0
174
     0
 93
        1
 44
0.0
173
     0
291
     1
 45
0.0
1001
ACAD
1000
AcDbSavedByObjectVersion
1070
     0
  0
VISUALSTYLE
  5
16C6
102
{ACAD_XDICTIONARY
360
1734
102
}
102
{ACAD_REACTORS
330
16AF
102
}
330
16AF
100
AcDbVisualStyle
  2
OverhangOff
 70
    21
 71
     2
 72
     2
 73
     0
 90
        0
 40
-0.6
 41
-30.0
 62
     5
 63
     7
 74
     1
 91
        4
 64
     7
 65
   257
 75
     1
175
     1
 42
1.0
 92
        9
 66
     7
 43
1.0
 76
     1
 77
     6
 78
     2
 67
     7
 79
     5
170
     0
171
     0
290
     0
174
     0
 93
        1
 44
0.0
173
     0
291
     1
 45
0.0
1001
ACAD
1000
AcDbSavedByObjectVersion
1070
     0
  0
VISUALSTYLE
  5
16B9
102
{ACAD_XDICTIONARY
360
171A
102
}
102
{ACAD_REACTORS
330
16AF
102
}
330
16AF
100
AcDbVisualStyle
  2
Realistic
 70
     8
 71
     2
 72
     3
 73
     0
 90
        2
 40
-0.6
 41
30.0
 62
     5
 63
     7
 74
     0
 91
        0
 64
     7
 65
   257
 75
     1
175
     1
 42
1.0
 92
        8
 66
   257
 43
1.0
 76
     1
 77
     6
 78
     2
 67
     7
 79
     3
170
     0
171
     0
290
     0
174
     0
 93
       13
 44
0.0
173
     0
291
     0
 45
0.0
1001
ACAD
1000
AcDbSavedByObjectVersion
1070
     0
  0
VISUALSTYLE
  5
16C4
102
{ACAD_XDICTIONARY
360
1730
102
}
102
{ACAD_REACTORS
330
16AF
102
}
330
16AF
100
AcDbVisualStyle
  2
Shaded
 70
    27
 71
     2
 72
     2
 73
     1
 90
        2
 40
-0.6
 41
30.0
 62
     5
 63
     7
 74
     0
 91
        4
 64
     7
 65
   257
 75
     1
175
     1
 42
1.0
 92
        8
 66
   257
 43
1.0
 76
     1
 77
     6
 78
     2
 67
     8
 79
     3
170
     0
171
     0
290
     0
174
     0
 93
        5
 44
0.0
173
     0
291
     0
 45
0.0
1001
ACAD
1000
AcDbSavedByObjectVersion
1070
     0
  0
VISUALSTYLE
  5
16C3
102
{ACAD_XDICTIONARY
360
172E
102
}
102
{ACAD_REACTORS
330
16AF
102
}
330
16AF
100
AcDbVisualStyle
  2
Shaded with edges
 70
    26
 71
     2
 72
     2
 73
     1
 90
        2
 40
-0.6
 41
30.0
 62
     5
 63
     7
 74
     1
 91
       10
 64
     7
 65
   257
 75
     2
175
     1
 42
1.0
 92
        8
 66
   257
 43
1.0
 76
     1
 77
     6
 78
     2
 67
     7
 79
     3
170
     0
171
     0
290
     0
174
     0
 93
        5
 44
0.0
173
     0
291
     0
 45
0.0
1001
ACAD
1000
AcDbSavedByObjectVersion
1070
     0
  0
VISUALSTYLE
  5
16C0
102
{ACAD_XDICTIONARY
360
1728
102
}
102
{ACAD_REACTORS
330
16AF
102
}
330
16AF
100
AcDbVisualStyle
  2
Shades of Gray
 70
    23
 71
     2
 72
     2
 73
     3
 90
        0
 40
-0.6
 41
-30.0
 62
     5
 63
     7
 74
     2
 91
        2
 64
     7
 65
     7
 75
     1
175
     1
 42
40.0
 92
        8
 66
     7
 43
1.0
 76
     1
 77
     6
 78
     2
 67
     7
 79
     3
170
     0
171
     0
290
     0
174
     0
 93
        1
 44
0.0
173
     0
291
     0
 45
0.0
1001
ACAD
1000
AcDbSavedByObjectVersion
1070
     0
  0
VISUALSTYLE
  5
16C1
102
{ACAD_XDICTIONARY
360
172A
102
}
102
{ACAD_REACTORS
330
16AF
102
}
330
16AF
100
AcDbVisualStyle
  2
Sketchy
 70
    24
 71
     1
 72
     2
 73
     2
 90
        0
 40
-0.6
 41
-30.0
 62
     5
 63
     7
 74
     2
 91
        2
 64
     7
 65
     7
 75
     1
175
     1
 42
40.0
 92
       11
 66
     7
 43
1.0
 76
     1
 77
     6
 78
     2
 67
     7
 79
     6
170
     0
171
     0
290
     0
174
     0
 93
        1
 44
0.0
173
     0
291
     0
 45
0.0
1001
ACAD
1000
AcDbSavedByObjectVersion
1070
     0
  0
VISUALSTYLE
  5
16BC
102
{ACAD_XDICTIONARY
360
1720
102
}
102
{ACAD_REACTORS
330
16AF
102
}
330
16AF
100
AcDbVisualStyle
  2
Thicken
 70
    13
 71
     2
 72
     2
 73
     0
 90
        0
 40
-0.6
 41
-30.0
 62
     5
 63
     7
 74
     1
 91
        4
 64
     7
 65
   257
 75
     1
175
     1
 42
1.0
 92
       12
 66
     7
 43
1.0
 76
     1
 77
     6
 78
     2
 67
     7
 79
     5
170
     0
171
     0
290
     0
174
     0
 93
        1
 44
0.0
173
     0
291
     1
 45
0.0
1001
ACAD
1000
AcDbSavedByObjectVersion
1070
     0
  0
VISUALSTYLE
  5
16B6
102
{ACAD_XDICTIONARY
360
1714
102
}
102
{ACAD_REACTORS
330
16AF
102
}
330
16AF
100
AcDbVisualStyle
  2
Wireframe
 70
     5
 71
     0
 72
     2
 73
     0
 90
        0
 40
-0.6
 41
-30.0
 62
     5
 63
     7
 74
     1
 91
        4
 64
     7
 65
   257
 75
     1
175
     1
 42
1.0
 92
        0
 66
   257
 43
1.0
 76
     1
 77
     6
 78
     2
 67
     7
 79
     3
170
     0
171
     0
290
     0
174
     0
 93
        1
 44
0.0
173
     0
291
     0
 45
0.0
1001
ACAD
1000
AcDbSavedByObjectVersion
1070
     0
  0
VISUALSTYLE
  5
16C2
102
{ACAD_XDICTIONARY
360
172C
102
}
102
{ACAD_REACTORS
330
16AF
102
}
330
16AF
100
AcDbVisualStyle
  2
X-Ray
 70
    25
 71
     2
 72
     2
 73
     1
 90
        1
 40
0.5
 41
-30.0
 62
     5
 63
     7
 74
     1
 91
        0
 64
     7
 65
   257
 75
     1
175
     1
 42
1.0
 92
        8
 66
     7
 43
1.0
 76
     1
 77
     6
 78
     2
 67
     7
 79
     3
170
     0
171
     0
290
     0
174
     0
 93
       13
 44
0.0
173
     0
291
     0
 45
0.0
1001
ACAD
1000
AcDbSavedByObjectVersion
1070
     0
  0
DICTIONARYVAR
  5
16FB
102
{ACAD_REACTORS
330
16F6
102
}
330
16F6
100
DictionaryVariables
280
     0
  1
1:1
  0
DICTIONARYVAR
  5
16F8
102
{ACAD_REACTORS
330
16F6
102
}
330
16F6
100
DictionaryVariables
280
     0
  1
STANDARD
  0
DICTIONARYVAR
  5
16F7
102
{ACAD_REACTORS
330
16F6
102
}
330
16F6
100
DictionaryVariables
280
     0
  1
STANDARD
  0
DICTIONARYVAR
  5
16F9
102
{ACAD_REACTORS
330
16F6
102
}
330
16F6
100
DictionaryVariables
280
     0
  1
Imperial24
  0
DICTIONARYVAR
  5
16FA
102
{ACAD_REACTORS
330
16F6
102
}
330
16F6
100
DictionaryVariables
280
     0
  1
Imperial24
  0
DICTIONARYVAR
  5
16FE
102
{ACAD_REACTORS
330
16F6
102
}
330
16F6
100
DictionaryVariables
280
     0
  1
1
  0
DICTIONARYVAR
  5
16FD
102
{ACAD_REACTORS
330
16F6
102
}
330
16F6
100
DictionaryVariables
280
     0
  1
0
  0
DICTIONARYVAR
  5
16FC
102
{ACAD_REACTORS
330
16F6
102
}
330
16F6
100
DictionaryVariables
280
     0
  1
127
  0
DICTIONARYVAR
  5
16FF
102
{ACAD_REACTORS
330
16F6
102
}
330
16F6
100
DictionaryVariables
280
     0
  1
2
  0
DICTIONARY
  5
173C
330
16E2
100
AcDbDictionary
280
     1
281
     1
  3
ACAD_XREC_ROUNDTRIP
360
173D
  0
DICTIONARY
  5
173E
330
16E3
100
AcDbDictionary
280
     1
281
     1
  3
ACAD_XREC_ROUNDTRIP
360
173F
  0
DICTIONARY
  5
1740
330
16E4
100
AcDbDictionary
280
     1
281
     1
  3
ACAD_XREC_ROUNDTRIP
360
1741
  0
DICTIONARY
  5
16A0
330
169F
100
AcDbDictionary
280
     1
281
     1
  3
ACAD_XREC_ROUNDTRIP
360
1706
  3
BUMPTILE
360
16A2
  3
DIFFUSETILE
360
16A1
  3
OPACITYTILE
360
16A5
  3
REFLECTIONTILE
360
16A4
  3
REFRACTIONTILE
360
16A6
  3
SPECULARTILE
360
16A3
  0
DICTIONARY
  5
1698
330
1697
100
AcDbDictionary
280
     1
281
     1
  3
ACAD_XREC_ROUNDTRIP
360
1705
  3
BUMPTILE
360
169A
  3
DIFFUSETILE
360
1699
  3
OPACITYTILE
360
169D
  3
REFLECTIONTILE
360
169C
  3
REFRACTIONTILE
360
169E
  3
SPECULARTILE
360
169B
  0
DICTIONARY
  5
16A8
330
16A7
100
AcDbDictionary
280
     1
281
     1
  3
ACAD_XREC_ROUNDTRIP
360
1707
  3
BUMPTILE
360
16AA
  3
DIFFUSETILE
360
16A9
  3
OPACITYTILE
360
16AD
  3
REFLECTIONTILE
360
16AC
  3
REFRACTIONTILE
360
16AE
  3
SPECULARTILE
360
16AB
  0
DICTIONARY
  5
173A
330
16E0
100
AcDbDictionary
280
     1
281
     1
  3
ACAD_XREC_ROUNDTRIP
360
173B
  0
DICTIONARY
  5
1701
330
16CA
100
AcDbDictionary
280
     1
281
     1
  3
ACAD_ROUNDTRIP_2008_TABLESTYLE_CELLSTYLEMAP
360
1702
  3
ACAD_XREC_ROUNDTRIP
360
1738
  0
DICTIONARY
  5
1712
330
16B5
100
AcDbDictionary
280
     1
281
     1
  3
ACAD_XREC_ROUNDTRIP
360
1713
  0
DICTIONARY
  5
1710
330
16B4
100
AcDbDictionary
280
     1
281
     1
  3
ACAD_XREC_ROUNDTRIP
360
1711
  0
DICTIONARY
  5
171E
330
16BB
100
AcDbDictionary
280
     1
281
     1
  3
ACAD_XREC_ROUNDTRIP
360
171F
  0
DICTIONARY
  5
1726
330
16BF
100
AcDbDictionary
280
     1
281
     1
  3
ACAD_XREC_ROUNDTRIP
360
1727
  0
DICTIONARY
  5
1718
330
16B8
100
AcDbDictionary
280
     1
281
     1
  3
ACAD_XREC_ROUNDTRIP
360
1719
  0
DICTIONARY
  5
171C
330
16BA
100
AcDbDictionary
280
     1
281
     1
  3
ACAD_XREC_ROUNDTRIP
360
171D
  0
DICTIONARY
  5
1736
330
16C7
100
AcDbDictionary
280
     1
281
     1
  3
ACAD_XREC_ROUNDTRIP
360
1737
  0
DICTIONARY
  5
1724
330
16BE
100
AcDbDictionary
280
     1
281
     1
  3
ACAD_XREC_ROUNDTRIP
360
1725
  0
DICTIONARY
  5
1708
330
16B0
100
AcDbDictionary
280
     1
281
     1
  3
ACAD_XREC_ROUNDTRIP
360
1709
  0
DICTIONARY
  5
170A
330
16B1
100
AcDbDictionary
280
     1
281
     1
  3
ACAD_XREC_ROUNDTRIP
360
170B
  0
DICTIONARY
  5
170C
330
16B2
100
AcDbDictionary
280
     1
281
     1
  3
ACAD_XREC_ROUNDTRIP
360
170D
  0
DICTIONARY
  5
170E
330
16B3
100
AcDbDictionary
280
     1
281
     1
  3
ACAD_XREC_ROUNDTRIP
360
170F
  0
DICTIONARY
  5
1716
330
16B7
100
AcDbDictionary
280
     1
281
     1
  3
ACAD_XREC_ROUNDTRIP
360
1717
  0
DICTIONARY
  5
1732
330
16C5
100
AcDbDictionary
280
     1
281
     1
  3
ACAD_XREC_ROUNDTRIP
360
1733
  0
DICTIONARY
  5
1722
330
16BD
100
AcDbDictionary
280
     1
281
     1
  3
ACAD_XREC_ROUNDTRIP
360
1723
  0
DICTIONARY
  5
1734
330
16C6
100
AcDbDictionary
280
     1
281
     1
  3
ACAD_XREC_ROUNDTRIP
360
1735
  0
DICTIONARY
  5
171A
330
16B9
100
AcDbDictionary
280
     1
281
     1
  3
ACAD_XREC_ROUNDTRIP
360
171B
  0
DICTIONARY
  5
1730
330
16C4
100
AcDbDictionary
280
     1
281
     1
  3
ACAD_XREC_ROUNDTRIP
360
1731
  0
DICTIONARY
  5
172E
330
16C3
100
AcDbDictionary
280
     1
281
     1
  3
ACAD_XREC_ROUNDTRIP
360
172F
  0
DICTIONARY
  5
1728
330
16C0
100
AcDbDictionary
280
     1
281
     1
  3
ACAD_XREC_ROUNDTRIP
360
1729
  0
DICTIONARY
  5
172A
330
16C1
100
AcDbDictionary
280
     1
281
     1
  3
ACAD_XREC_ROUNDTRIP
360
172B
  0
DICTIONARY
  5
1720
330
16BC
100
AcDbDictionary
280
     1
281
     1
  3
ACAD_XREC_ROUNDTRIP
360
1721
  0
DICTIONARY
  5
1714
330
16B6
100
AcDbDictionary
280
     1
281
     1
  3
ACAD_XREC_ROUNDTRIP
360
1715
  0
DICTIONARY
  5
172C
330
16C2
100
AcDbDictionary
280
     1
281
     1
  3
ACAD_XREC_ROUNDTRIP
360
172D
  0
XRECORD
  5
173D
102
{ACAD_REACTORS
330
173C
102
}
330
173C
100
AcDbXrecord
280
     1
102
DISPLAYNAME
  1
Imperial24
102
FLAGS
 90
        0
  0
XRECORD
  5
173F
102
{ACAD_REACTORS
330
173E
102
}
330
173E
100
AcDbXrecord
280
     1
102
SHADEPLOT
 70
     0
102
SHADEPLOTRESLEVEL
 70
     2
102
SHADEPLOTCUSTOMDPI
 70
   300
  0
XRECORD
  5
1741
102
{ACAD_REACTORS
330
1740
102
}
330
1740
100
AcDbXrecord
280
     1
102
SHADEPLOT
 70
     0
102
SHADEPLOTRESLEVEL
 70
     2
102
SHADEPLOTCUSTOMDPI
 70
   300
  0
XRECORD
  5
1706
102
{ACAD_REACTORS
330
16A0
102
}
330
16A0
100
AcDbXrecord
280
     1
102
MATERIAL
148
0.0
149
0.0
149
0.0
 93
        0
 94
      127
282
     0
 72
     0
 77
     0
171
     0
175
     0
179
     0
273
     0
  0
XRECORD
  5
16A2
102
{ACAD_REACTORS
330
16A0
102
}
330
16A0
100
AcDbXrecord
280
     1
270
     1
271
     1
  0
XRECORD
  5
16A1
102
{ACAD_REACTORS
330
16A0
102
}
330
16A0
100
AcDbXrecord
280
     1
270
     1
271
     1
  0
XRECORD
  5
16A5
102
{ACAD_REACTORS
330
16A0
102
}
330
16A0
100
AcDbXrecord
280
     1
270
     1
271
     1
  0
XRECORD
  5
16A4
102
{ACAD_REACTORS
330
16A0
102
}
330
16A0
100
AcDbXrecord
280
     1
270
     1
271
     1
  0
XRECORD
  5
16A6
102
{ACAD_REACTORS
330
16A0
102
}
330
16A0
100
AcDbXrecord
280
     1
270
     1
271
     1
  0
XRECORD
  5
16A3
102
{ACAD_REACTORS
330
16A0
102
}
330
16A0
100
AcDbXrecord
280
     1
270
     1
271
     1
  0
XRECORD
  5
1705
102
{ACAD_REACTORS
330
1698
102
}
330
1698
100
AcDbXrecord
280
     1
102
MATERIAL
148
0.0
149
0.0
149
0.0
 93
        0
 94
      127
282
     0
 72
     0
 77
     0
171
     0
175
     0
179
     0
273
     0
  0
XRECORD
  5
169A
102
{ACAD_REACTORS
330
1698
102
}
330
1698
100
AcDbXrecord
280
     1
270
     1
271
     1
  0
XRECORD
  5
1699
102
{ACAD_REACTORS
330
1698
102
}
330
1698
100
AcDbXrecord
280
     1
270
     1
271
     1
  0
XRECORD
  5
169D
102
{ACAD_REACTORS
330
1698
102
}
330
1698
100
AcDbXrecord
280
     1
270
     1
271
     1
  0
XRECORD
  5
169C
102
{ACAD_REACTORS
330
1698
102
}
330
1698
100
AcDbXrecord
280
     1
270
     1
271
     1
  0
XRECORD
  5
169E
102
{ACAD_REACTORS
330
1698
102
}
330
1698
100
AcDbXrecord
280
     1
270
     1
271
     1
  0
XRECORD
  5
169B
102
{ACAD_REACTORS
330
1698
102
}
330
1698
100
AcDbXrecord
280
     1
270
     1
271
     1
  0
XRECORD
  5
1707
102
{ACAD_REACTORS
330
16A8
102
}
330
16A8
100
AcDbXrecord
280
     1
102
MATERIAL
148
0.0
149
0.0
149
0.0
 93
        0
 94
      127
282
     0
 72
     0
 77
     0
171
     0
175
     0
179
     0
273
     0
  0
XRECORD
  5
16AA
102
{ACAD_REACTORS
330
16A8
102
}
330
16A8
100
AcDbXrecord
280
     1
270
     1
271
     1
  0
XRECORD
  5
16A9
102
{ACAD_REACTORS
330
16A8
102
}
330
16A8
100
AcDbXrecord
280
     1
270
     1
271
     1
  0
XRECORD
  5
16AD
102
{ACAD_REACTORS
330
16A8
102
}
330
16A8
100
AcDbXrecord
280
     1
270
     1
271
     1
  0
XRECORD
  5
16AC
102
{ACAD_REACTORS
330
16A8
102
}
330
16A8
100
AcDbXrecord
280
     1
270
     1
271
     1
  0
XRECORD
  5
16AE
102
{ACAD_REACTORS
330
16A8
102
}
330
16A8
100
AcDbXrecord
280
     1
270
     1
271
     1
  0
XRECORD
  5
16AB
102
{ACAD_REACTORS
330
16A8
102
}
330
16A8
100
AcDbXrecord
280
     1
270
     1
271
     1
  0
XRECORD
  5
173B
102
{ACAD_REACTORS
330
173A
102
}
330
173A
100
AcDbXrecord
280
     1
102
DISPLAYNAME
  1
Imperial24
102
FLAGS
 90
        0
  0
CELLSTYLEMAP
  5
1702
102
{ACAD_REACTORS
330
1701
102
}
330
1701
100
AcDbCellStyleMap
 90
        3
300
CELLSTYLE
  1
TABLEFORMAT_BEGIN
 90
        5
170
     1
 91
        0
 92
    32768
 62
   257
 93
        1
300
CONTENTFORMAT
  1
CONTENTFORMAT_BEGIN
 90
        0
 91
        0
 92
      512
 93
        0
300

 40
0.0
140
1.0
 94
        5
 62
     0
340
12D2
144
0.25
309
CONTENTFORMAT_END
171
     0
 94
        0
309
TABLEFORMAT_END
  1
CELLSTYLE_BEGIN
 90
        1
 91
        1
300
_TITLE
309
CELLSTYLE_END
300
CELLSTYLE
  1
TABLEFORMAT_BEGIN
 90
        5
170
     1
 91
        0
 92
        0
 62
   257
 93
        1
300
CONTENTFORMAT
  1
CONTENTFORMAT_BEGIN
 90
        0
 91
        0
 92
      512
 93
        0
300

 40
0.0
140
1.0
 94
        5
 62
     0
340
12D2
144
0.18
309
CONTENTFORMAT_END
171
     0
 94
        0
309
TABLEFORMAT_END
  1
CELLSTYLE_BEGIN
 90
        2
 91
        1
300
_HEADER
309
CELLSTYLE_END
300
CELLSTYLE
  1
TABLEFORMAT_BEGIN
 90
        5
170
     1
 91
        0
 92
        0
 62
   257
 93
        1
300
CONTENTFORMAT
  1
CONTENTFORMAT_BEGIN
 90
        0
 91
        0
 92
      512
 93
        0
300

 40
0.0
140
1.0
 94
        2
 62
     0
340
12D2
144
0.18
309
CONTENTFORMAT_END
171
     0
 94
        0
309
TABLEFORMAT_END
  1
CELLSTYLE_BEGIN
 90
        3
 91
        2
300
_DATA
309
CELLSTYLE_END
  0
XRECORD
  5
1738
102
{ACAD_REACTORS
330
1701
102
}
330
1701
100
AcDbXrecord
280
     1
102
ACAD_ROUNDTRIP_PRE2007_TABLESTYLE
 90
      512
 91
        0
  1

 92
      512
 93
        0
  2

 94
      512
 95
        0
  3

  0
XRECORD
  5
1713
102
{ACAD_REACTORS
330
1712
102
}
330
1712
100
AcDbXrecord
280
     1
102
RTVSPost2010Prop28
280
     1
102
RTVSPost2010PropOp28
 70
     1
102
RTVSPost2010Prop29
280
     1
102
RTVSPost2010PropOp29
 70
     1
102
RTVSPost2010Prop30
280
     0
102
RTVSPost2010PropOp30
 70
     1
102
RTVSPost2010Prop31
280
     0
102
RTVSPost2010PropOp31
 70
     1
102
RTVSPost2010Prop32
280
     0
102
RTVSPost2010PropOp32
 70
     1
102
RTVSPost2010Prop33
280
     0
102
RTVSPost2010PropOp33
 70
     1
102
RTVSPost2010Prop34
280
     0
102
RTVSPost2010PropOp34
 70
     1
102
RTVSPost2010Prop35
280
     0
102
RTVSPost2010PropOp35
 70
     1
102
RTVSPost2010Prop36
280
     0
102
RTVSPost2010PropOp36
 70
     1
102
RTVSPost2010Prop37
 90
       50
102
RTVSPost2010PropOp37
 70
     1
102
RTVSPost2010Prop38
140
0.0
102
RTVSPost2010PropOp38
 70
     1
102
RTVSPost2010Prop39
140
1.0
102
RTVSPost2010PropOp39
 70
     1
102
RTVSPost2010Prop40
 90
        0
102
RTVSPost2010PropOp40
 70
     1
102
RTVSPost2010Prop41ColorIndex
 90
       18
102
RTVSPost2010Prop41ColorRGB
 90
        0
102
RTVSPost2010PropOp41
 70
     1
102
RTVSPost2010Prop42
 90
       50
102
RTVSPost2010PropOp42
 70
     1
102
RTVSPost2010Prop43
 90
        3
102
RTVSPost2010PropOp43
 70
     1
102
RTVSPost2010Prop44ColorIndex
 90
        5
102
RTVSPost2010Prop44ColorRGB
 90
      255
102
RTVSPost2010PropOp44
 70
     1
102
RTVSPost2010Prop45
280
     0
102
RTVSPost2010PropOp45
 70
     1
102
RTVSPost2010Prop46
 90
       50
102
RTVSPost2010PropOp46
 70
     1
102
RTVSPost2010Prop47
 90
       50
102
RTVSPost2010PropOp47
 70
     1
102
RTVSPost2010Prop48
 90
       50
102
RTVSPost2010PropOp48
 70
     1
102
RTVSPost2010Prop49
280
     0
102
RTVSPost2010PropOp49
 70
     1
102
RTVSPost2010Prop50
 90
       50
102
RTVSPost2010PropOp50
 70
     1
102
RTVSPost2010Prop51ColorIndex
 90
      256
102
RTVSPost2010Prop51ColorRGB
 90
-16777216
102
RTVSPost2010PropOp51
 70
     0
102
RTVSPost2010Prop52
140
1.0
102
RTVSPost2010PropOp52
 70
     0
102
RTVSPost2010Prop53
 90
        2
102
RTVSPost2010PropOp53
 70
     1
102
RTVSPost2010Prop54
  1
strokes_ogs.tif
102
RTVSPost2010PropOp54
 70
     1
102
RTVSPost2010Prop55
280
     0
102
RTVSPost2010PropOp55
 70
     1
102
RTVSPost2010Prop56
140
1.0
102
RTVSPost2010PropOp56
 70
     1
102
RTVSPost2010Prop57
140
1.0
102
RTVSPost2010PropOp57
 70
     1
102
RTVSPropertyOp0
 70
     1
102
RTVSPropertyOp1
 70
     1
102
RTVSPropertyOp2
 70
     1
102
RTVSPropertyOp3
 70
     1
102
RTVSPropertyOp4
 70
     1
102
RTVSPropertyOp5
 70
     1
102
RTVSPropertyOp6
 70
     1
102
RTVSPropertyOp7
 70
     1
102
RTVSPropertyOp8
 70
     1
102
RTVSPropertyOp9
 70
     1
102
RTVSPropertyOp10
 70
     1
102
RTVSPropertyOp11
 70
     1
102
RTVSPropertyOp12
 70
     1
102
RTVSPropertyOp13
 70
     1
102
RTVSPropertyOp14
 70
     1
102
RTVSPropertyOp15
 70
     1
102
RTVSPropertyOp16
 70
     1
102
RTVSPropertyOp17
 70
     1
102
RTVSPropertyOp18
 70
     1
102
RTVSPropertyOp19
 70
     1
102
RTVSPropertyOp20
 70
     1
102
RTVSPropertyOp21
 70
     1
102
RTVSPropertyOp22
 70
     1
102
RTVSPropertyOp23
 70
     1
102
RTVSPropertyOp24
 70
     1
102
RTVSPropertyOp25
 70
     1
102
RTVSPropertyOp26
 70
     1
102
RTVSPropertyOp27
 70
     1
102
RTVSPropertyOp28
 70
     1
102
RTVSPropertyOp29
 70
     1
102
RTVSPropertyOp30
 70
     1
102
RTVSPropertyOp31
 70
     1
102
RTVSPropertyOp32
 70
     1
102
RTVSPropertyOp33
 70
     1
102
RTVSPropertyOp34
 70
     1
102
RTVSPropertyOp35
 70
     1
102
RTVSPropertyOp36
 70
     1
102
RTVSPropertyOp37
 70
     1
102
RTVSPropertyOp38
 70
     1
102
RTVSPropertyOp39
 70
     1
102
RTVSPropertyOp40
 70
     1
102
RTVSPropertyOp41
 70
     1
102
RTVSPropertyOp42
 70
     1
102
RTVSPropertyOp43
 70
     1
102
RTVSPropertyOp44
 70
     1
102
RTVSPropertyOp45
 70
     1
102
RTVSPropertyOp46
 70
     1
102
RTVSPropertyOp47
 70
     1
102
RTVSPropertyOp48
 70
     1
102
RTVSPropertyOp49
 70
     1
102
RTVSPropertyOp50
 70
     1
102
RTVSPropertyOp51
 70
     0
102
RTVSPropertyOp52
 70
     0
102
RTVSPropertyOp53
 70
     1
102
RTVSPropertyOp54
 70
     1
102
RTVSPropertyOp55
 70
     1
102
RTVSPropertyOp56
 70
     1
102
RTVSPropertyOp57
 70
     1
102
RTVSPropertyOp58
 70
     1
102
RTVSPropertyOp59
 70
     1
102
RTVSPropertyOp60
 70
     1
102
RTVSPropertyOp61
 70
     1
102
RTVSPropertyOp62
 70
     1
  0
XRECORD
  5
1711
102
{ACAD_REACTORS
330
1710
102
}
330
1710
100
AcDbXrecord
280
     1
102
RTVSPost2010Prop28
280
     0
102
RTVSPost2010PropOp28
 70
     1
102
RTVSPost2010Prop29
280
     1
102
RTVSPost2010PropOp29
 70
     1
102
RTVSPost2010Prop30
280
     1
102
RTVSPost2010PropOp30
 70
     1
102
RTVSPost2010Prop31
280
     0
102
RTVSPost2010PropOp31
 70
     1
102
RTVSPost2010Prop32
280
     0
102
RTVSPost2010PropOp32
 70
     1
102
RTVSPost2010Prop33
280
     0
102
RTVSPost2010PropOp33
 70
     1
102
RTVSPost2010Prop34
280
     0
102
RTVSPost2010PropOp34
 70
     1
102
RTVSPost2010Prop35
280
     0
102
RTVSPost2010PropOp35
 70
     1
102
RTVSPost2010Prop36
280
     0
102
RTVSPost2010PropOp36
 70
     1
102
RTVSPost2010Prop37
 90
       50
102
RTVSPost2010PropOp37
 70
     1
102
RTVSPost2010Prop38
140
0.0
102
RTVSPost2010PropOp38
 70
     1
102
RTVSPost2010Prop39
140
1.0
102
RTVSPost2010PropOp39
 70
     1
102
RTVSPost2010Prop40
 90
        0
102
RTVSPost2010PropOp40
 70
     1
102
RTVSPost2010Prop41ColorIndex
 90
       18
102
RTVSPost2010Prop41ColorRGB
 90
        0
102
RTVSPost2010PropOp41
 70
     1
102
RTVSPost2010Prop42
 90
       50
102
RTVSPost2010PropOp42
 70
     1
102
RTVSPost2010Prop43
 90
        3
102
RTVSPost2010PropOp43
 70
     1
102
RTVSPost2010Prop44ColorIndex
 90
        5
102
RTVSPost2010Prop44ColorRGB
 90
      255
102
RTVSPost2010PropOp44
 70
     1
102
RTVSPost2010Prop45
280
     0
102
RTVSPost2010PropOp45
 70
     1
102
RTVSPost2010Prop46
 90
       50
102
RTVSPost2010PropOp46
 70
     1
102
RTVSPost2010Prop47
 90
       50
102
RTVSPost2010PropOp47
 70
     1
102
RTVSPost2010Prop48
 90
       50
102
RTVSPost2010PropOp48
 70
     1
102
RTVSPost2010Prop49
280
     0
102
RTVSPost2010PropOp49
 70
     1
102
RTVSPost2010Prop50
 90
       50
102
RTVSPost2010PropOp50
 70
     1
102
RTVSPost2010Prop51ColorIndex
 90
      256
102
RTVSPost2010Prop51ColorRGB
 90
-16777216
102
RTVSPost2010PropOp51
 70
     0
102
RTVSPost2010Prop52
140
1.0
102
RTVSPost2010PropOp52
 70
     0
102
RTVSPost2010Prop53
 90
        2
102
RTVSPost2010PropOp53
 70
     1
102
RTVSPost2010Prop54
  1
strokes_ogs.tif
102
RTVSPost2010PropOp54
 70
     1
102
RTVSPost2010Prop55
280
     0
102
RTVSPost2010PropOp55
 70
     1
102
RTVSPost2010Prop56
140
1.0
102
RTVSPost2010PropOp56
 70
     1
102
RTVSPost2010Prop57
140
1.0
102
RTVSPost2010PropOp57
 70
     1
102
RTVSPropertyOp0
 70
     1
102
RTVSPropertyOp1
 70
     1
102
RTVSPropertyOp2
 70
     1
102
RTVSPropertyOp3
 70
     1
102
RTVSPropertyOp4
 70
     1
102
RTVSPropertyOp5
 70
     1
102
RTVSPropertyOp6
 70
     1
102
RTVSPropertyOp7
 70
     1
102
RTVSPropertyOp8
 70
     1
102
RTVSPropertyOp9
 70
     1
102
RTVSPropertyOp10
 70
     1
102
RTVSPropertyOp11
 70
     1
102
RTVSPropertyOp12
 70
     1
102
RTVSPropertyOp13
 70
     1
102
RTVSPropertyOp14
 70
     1
102
RTVSPropertyOp15
 70
     1
102
RTVSPropertyOp16
 70
     1
102
RTVSPropertyOp17
 70
     1
102
RTVSPropertyOp18
 70
     1
102
RTVSPropertyOp19
 70
     1
102
RTVSPropertyOp20
 70
     1
102
RTVSPropertyOp21
 70
     1
102
RTVSPropertyOp22
 70
     1
102
RTVSPropertyOp23
 70
     1
102
RTVSPropertyOp24
 70
     1
102
RTVSPropertyOp25
 70
     1
102
RTVSPropertyOp26
 70
     1
102
RTVSPropertyOp27
 70
     1
102
RTVSPropertyOp28
 70
     1
102
RTVSPropertyOp29
 70
     1
102
RTVSPropertyOp30
 70
     1
102
RTVSPropertyOp31
 70
     1
102
RTVSPropertyOp32
 70
     1
102
RTVSPropertyOp33
 70
     1
102
RTVSPropertyOp34
 70
     1
102
RTVSPropertyOp35
 70
     1
102
RTVSPropertyOp36
 70
     1
102
RTVSPropertyOp37
 70
     1
102
RTVSPropertyOp38
 70
     1
102
RTVSPropertyOp39
 70
     1
102
RTVSPropertyOp40
 70
     1
102
RTVSPropertyOp41
 70
     1
102
RTVSPropertyOp42
 70
     1
102
RTVSPropertyOp43
 70
     1
102
RTVSPropertyOp44
 70
     1
102
RTVSPropertyOp45
 70
     1
102
RTVSPropertyOp46
 70
     1
102
RTVSPropertyOp47
 70
     1
102
RTVSPropertyOp48
 70
     1
102
RTVSPropertyOp49
 70
     1
102
RTVSPropertyOp50
 70
     1
102
RTVSPropertyOp51
 70
     0
102
RTVSPropertyOp52
 70
     0
102
RTVSPropertyOp53
 70
     1
102
RTVSPropertyOp54
 70
     1
102
RTVSPropertyOp55
 70
     1
102
RTVSPropertyOp56
 70
     1
102
RTVSPropertyOp57
 70
     1
102
RTVSPropertyOp58
 70
     1
102
RTVSPropertyOp59
 70
     1
102
RTVSPropertyOp60
 70
     1
102
RTVSPropertyOp61
 70
     1
102
RTVSPropertyOp62
 70
     1
  0
XRECORD
  5
171F
102
{ACAD_REACTORS
330
171E
102
}
330
171E
100
AcDbXrecord
280
     1
102
RTVSPost2010Prop28
280
     0
102
RTVSPost2010PropOp28
 70
     1
102
RTVSPost2010Prop29
280
     1
102
RTVSPost2010PropOp29
 70
     1
102
RTVSPost2010Prop30
280
     1
102
RTVSPost2010PropOp30
 70
     1
102
RTVSPost2010Prop31
280
     0
102
RTVSPost2010PropOp31
 70
     1
102
RTVSPost2010Prop32
280
     0
102
RTVSPost2010PropOp32
 70
     1
102
RTVSPost2010Prop33
280
     0
102
RTVSPost2010PropOp33
 70
     1
102
RTVSPost2010Prop34
280
     0
102
RTVSPost2010PropOp34
 70
     1
102
RTVSPost2010Prop35
280
     0
102
RTVSPost2010PropOp35
 70
     1
102
RTVSPost2010Prop36
280
     0
102
RTVSPost2010PropOp36
 70
     1
102
RTVSPost2010Prop37
 90
       50
102
RTVSPost2010PropOp37
 70
     1
102
RTVSPost2010Prop38
140
0.0
102
RTVSPost2010PropOp38
 70
     1
102
RTVSPost2010Prop39
140
1.0
102
RTVSPost2010PropOp39
 70
     1
102
RTVSPost2010Prop40
 90
        0
102
RTVSPost2010PropOp40
 70
     1
102
RTVSPost2010Prop41ColorIndex
 90
       18
102
RTVSPost2010Prop41ColorRGB
 90
        0
102
RTVSPost2010PropOp41
 70
     1
102
RTVSPost2010Prop42
 90
       50
102
RTVSPost2010PropOp42
 70
     1
102
RTVSPost2010Prop43
 90
        3
102
RTVSPost2010PropOp43
 70
     1
102
RTVSPost2010Prop44ColorIndex
 90
        5
102
RTVSPost2010Prop44ColorRGB
 90
      255
102
RTVSPost2010PropOp44
 70
     1
102
RTVSPost2010Prop45
280
     0
102
RTVSPost2010PropOp45
 70
     1
102
RTVSPost2010Prop46
 90
       50
102
RTVSPost2010PropOp46
 70
     1
102
RTVSPost2010Prop47
 90
       50
102
RTVSPost2010PropOp47
 70
     1
102
RTVSPost2010Prop48
 90
       50
102
RTVSPost2010PropOp48
 70
     1
102
RTVSPost2010Prop49
280
     0
102
RTVSPost2010PropOp49
 70
     1
102
RTVSPost2010Prop50
 90
       50
102
RTVSPost2010PropOp50
 70
     1
102
RTVSPost2010Prop51ColorIndex
 90
      256
102
RTVSPost2010Prop51ColorRGB
 90
-16777216
102
RTVSPost2010PropOp51
 70
     0
102
RTVSPost2010Prop52
140
1.0
102
RTVSPost2010PropOp52
 70
     0
102
RTVSPost2010Prop53
 90
        2
102
RTVSPost2010PropOp53
 70
     1
102
RTVSPost2010Prop54
  1
strokes_ogs.tif
102
RTVSPost2010PropOp54
 70
     1
102
RTVSPost2010Prop55
280
     0
102
RTVSPost2010PropOp55
 70
     1
102
RTVSPost2010Prop56
140
1.0
102
RTVSPost2010PropOp56
 70
     1
102
RTVSPost2010Prop57
140
1.0
102
RTVSPost2010PropOp57
 70
     1
102
RTVSPropertyOp0
 70
     1
102
RTVSPropertyOp1
 70
     1
102
RTVSPropertyOp2
 70
     1
102
RTVSPropertyOp3
 70
     1
102
RTVSPropertyOp4
 70
     1
102
RTVSPropertyOp5
 70
     1
102
RTVSPropertyOp6
 70
     1
102
RTVSPropertyOp7
 70
     1
102
RTVSPropertyOp8
 70
     1
102
RTVSPropertyOp9
 70
     1
102
RTVSPropertyOp10
 70
     1
102
RTVSPropertyOp11
 70
     1
102
RTVSPropertyOp12
 70
     1
102
RTVSPropertyOp13
 70
     1
102
RTVSPropertyOp14
 70
     1
102
RTVSPropertyOp15
 70
     1
102
RTVSPropertyOp16
 70
     1
102
RTVSPropertyOp17
 70
     1
102
RTVSPropertyOp18
 70
     1
102
RTVSPropertyOp19
 70
     1
102
RTVSPropertyOp20
 70
     1
102
RTVSPropertyOp21
 70
     1
102
RTVSPropertyOp22
 70
     1
102
RTVSPropertyOp23
 70
     1
102
RTVSPropertyOp24
 70
     1
102
RTVSPropertyOp25
 70
     1
102
RTVSPropertyOp26
 70
     1
102
RTVSPropertyOp27
 70
     1
102
RTVSPropertyOp28
 70
     1
102
RTVSPropertyOp29
 70
     1
102
RTVSPropertyOp30
 70
     1
102
RTVSPropertyOp31
 70
     1
102
RTVSPropertyOp32
 70
     1
102
RTVSPropertyOp33
 70
     1
102
RTVSPropertyOp34
 70
     1
102
RTVSPropertyOp35
 70
     1
102
RTVSPropertyOp36
 70
     1
102
RTVSPropertyOp37
 70
     1
102
RTVSPropertyOp38
 70
     1
102
RTVSPropertyOp39
 70
     1
102
RTVSPropertyOp40
 70
     1
102
RTVSPropertyOp41
 70
     1
102
RTVSPropertyOp42
 70
     1
102
RTVSPropertyOp43
 70
     1
102
RTVSPropertyOp44
 70
     1
102
RTVSPropertyOp45
 70
     1
102
RTVSPropertyOp46
 70
     1
102
RTVSPropertyOp47
 70
     1
102
RTVSPropertyOp48
 70
     1
102
RTVSPropertyOp49
 70
     1
102
RTVSPropertyOp50
 70
     1
102
RTVSPropertyOp51
 70
     0
102
RTVSPropertyOp52
 70
     0
102
RTVSPropertyOp53
 70
     1
102
RTVSPropertyOp54
 70
     1
102
RTVSPropertyOp55
 70
     1
102
RTVSPropertyOp56
 70
     1
102
RTVSPropertyOp57
 70
     1
102
RTVSPropertyOp58
 70
     1
102
RTVSPropertyOp59
 70
     1
102
RTVSPropertyOp60
 70
     1
102
RTVSPropertyOp61
 70
     1
102
RTVSPropertyOp62
 70
     1
  0
XRECORD
  5
1727
102
{ACAD_REACTORS
330
1726
102
}
330
1726
100
AcDbXrecord
280
     1
102
RTVSPost2010Prop28
280
     0
102
RTVSPost2010PropOp28
 70
     1
102
RTVSPost2010Prop29
280
     1
102
RTVSPost2010PropOp29
 70
     1
102
RTVSPost2010Prop30
280
     1
102
RTVSPost2010PropOp30
 70
     1
102
RTVSPost2010Prop31
280
     0
102
RTVSPost2010PropOp31
 70
     1
102
RTVSPost2010Prop32
280
     0
102
RTVSPost2010PropOp32
 70
     1
102
RTVSPost2010Prop33
280
     0
102
RTVSPost2010PropOp33
 70
     1
102
RTVSPost2010Prop34
280
     0
102
RTVSPost2010PropOp34
 70
     1
102
RTVSPost2010Prop35
280
     0
102
RTVSPost2010PropOp35
 70
     1
102
RTVSPost2010Prop36
280
     0
102
RTVSPost2010PropOp36
 70
     1
102
RTVSPost2010Prop37
 90
       50
102
RTVSPost2010PropOp37
 70
     1
102
RTVSPost2010Prop38
140
0.0
102
RTVSPost2010PropOp38
 70
     1
102
RTVSPost2010Prop39
140
1.0
102
RTVSPost2010PropOp39
 70
     1
102
RTVSPost2010Prop40
 90
        0
102
RTVSPost2010PropOp40
 70
     1
102
RTVSPost2010Prop41ColorIndex
 90
       18
102
RTVSPost2010Prop41ColorRGB
 90
        0
102
RTVSPost2010PropOp41
 70
     1
102
RTVSPost2010Prop42
 90
       50
102
RTVSPost2010PropOp42
 70
     1
102
RTVSPost2010Prop43
 90
        3
102
RTVSPost2010PropOp43
 70
     1
102
RTVSPost2010Prop44ColorIndex
 90
        5
102
RTVSPost2010Prop44ColorRGB
 90
      255
102
RTVSPost2010PropOp44
 70
     1
102
RTVSPost2010Prop45
280
     0
102
RTVSPost2010PropOp45
 70
     1
102
RTVSPost2010Prop46
 90
       50
102
RTVSPost2010PropOp46
 70
     1
102
RTVSPost2010Prop47
 90
       50
102
RTVSPost2010PropOp47
 70
     1
102
RTVSPost2010Prop48
 90
       50
102
RTVSPost2010PropOp48
 70
     1
102
RTVSPost2010Prop49
280
     0
102
RTVSPost2010PropOp49
 70
     1
102
RTVSPost2010Prop50
 90
       50
102
RTVSPost2010PropOp50
 70
     1
102
RTVSPost2010Prop51ColorIndex
 90
      256
102
RTVSPost2010Prop51ColorRGB
 90
-16777216
102
RTVSPost2010PropOp51
 70
     0
102
RTVSPost2010Prop52
140
1.0
102
RTVSPost2010PropOp52
 70
     0
102
RTVSPost2010Prop53
 90
        2
102
RTVSPost2010PropOp53
 70
     1
102
RTVSPost2010Prop54
  1
strokes_ogs.tif
102
RTVSPost2010PropOp54
 70
     1
102
RTVSPost2010Prop55
280
     0
102
RTVSPost2010PropOp55
 70
     1
102
RTVSPost2010Prop56
140
1.0
102
RTVSPost2010PropOp56
 70
     1
102
RTVSPost2010Prop57
140
1.0
102
RTVSPost2010PropOp57
 70
     1
102
RTVSPropertyOp0
 70
     1
102
RTVSPropertyOp1
 70
     1
102
RTVSPropertyOp2
 70
     1
102
RTVSPropertyOp3
 70
     1
102
RTVSPropertyOp4
 70
     1
102
RTVSPropertyOp5
 70
     1
102
RTVSPropertyOp6
 70
     1
102
RTVSPropertyOp7
 70
     1
102
RTVSPropertyOp8
 70
     1
102
RTVSPropertyOp9
 70
     1
102
RTVSPropertyOp10
 70
     1
102
RTVSPropertyOp11
 70
     1
102
RTVSPropertyOp12
 70
     1
102
RTVSPropertyOp13
 70
     1
102
RTVSPropertyOp14
 70
     1
102
RTVSPropertyOp15
 70
     1
102
RTVSPropertyOp16
 70
     1
102
RTVSPropertyOp17
 70
     1
102
RTVSPropertyOp18
 70
     1
102
RTVSPropertyOp19
 70
     1
102
RTVSPropertyOp20
 70
     1
102
RTVSPropertyOp21
 70
     1
102
RTVSPropertyOp22
 70
     1
102
RTVSPropertyOp23
 70
     1
102
RTVSPropertyOp24
 70
     1
102
RTVSPropertyOp25
 70
     1
102
RTVSPropertyOp26
 70
     1
102
RTVSPropertyOp27
 70
     1
102
RTVSPropertyOp28
 70
     1
102
RTVSPropertyOp29
 70
     1
102
RTVSPropertyOp30
 70
     1
102
RTVSPropertyOp31
 70
     1
102
RTVSPropertyOp32
 70
     1
102
RTVSPropertyOp33
 70
     1
102
RTVSPropertyOp34
 70
     1
102
RTVSPropertyOp35
 70
     1
102
RTVSPropertyOp36
 70
     1
102
RTVSPropertyOp37
 70
     1
102
RTVSPropertyOp38
 70
     1
102
RTVSPropertyOp39
 70
     1
102
RTVSPropertyOp40
 70
     1
102
RTVSPropertyOp41
 70
     1
102
RTVSPropertyOp42
 70
     1
102
RTVSPropertyOp43
 70
     1
102
RTVSPropertyOp44
 70
     1
102
RTVSPropertyOp45
 70
     1
102
RTVSPropertyOp46
 70
     1
102
RTVSPropertyOp47
 70
     1
102
RTVSPropertyOp48
 70
     1
102
RTVSPropertyOp49
 70
     1
102
RTVSPropertyOp50
 70
     1
102
RTVSPropertyOp51
 70
     0
102
RTVSPropertyOp52
 70
     0
102
RTVSPropertyOp53
 70
     1
102
RTVSPropertyOp54
 70
     1
102
RTVSPropertyOp55
 70
     1
102
RTVSPropertyOp56
 70
     1
102
RTVSPropertyOp57
 70
     1
102
RTVSPropertyOp58
 70
     1
102
RTVSPropertyOp59
 70
     1
102
RTVSPropertyOp60
 70
     1
102
RTVSPropertyOp61
 70
     1
102
RTVSPropertyOp62
 70
     1
  0
XRECORD
  5
1719
102
{ACAD_REACTORS
330
1718
102
}
330
1718
100
AcDbXrecord
280
     1
102
RTVSPost2010Prop28
280
     0
102
RTVSPost2010PropOp28
 70
     1
102
RTVSPost2010Prop29
280
     1
102
RTVSPost2010PropOp29
 70
     1
102
RTVSPost2010Prop30
280
     1
102
RTVSPost2010PropOp30
 70
     1
102
RTVSPost2010Prop31
280
     0
102
RTVSPost2010PropOp31
 70
     1
102
RTVSPost2010Prop32
280
     0
102
RTVSPost2010PropOp32
 70
     1
102
RTVSPost2010Prop33
280
     0
102
RTVSPost2010PropOp33
 70
     1
102
RTVSPost2010Prop34
280
     0
102
RTVSPost2010PropOp34
 70
     1
102
RTVSPost2010Prop35
280
     0
102
RTVSPost2010PropOp35
 70
     1
102
RTVSPost2010Prop36
280
     0
102
RTVSPost2010PropOp36
 70
     1
102
RTVSPost2010Prop37
 90
       50
102
RTVSPost2010PropOp37
 70
     1
102
RTVSPost2010Prop38
140
0.0
102
RTVSPost2010PropOp38
 70
     1
102
RTVSPost2010Prop39
140
1.0
102
RTVSPost2010PropOp39
 70
     1
102
RTVSPost2010Prop40
 90
        0
102
RTVSPost2010PropOp40
 70
     1
102
RTVSPost2010Prop41ColorIndex
 90
       18
102
RTVSPost2010Prop41ColorRGB
 90
        0
102
RTVSPost2010PropOp41
 70
     1
102
RTVSPost2010Prop42
 90
       50
102
RTVSPost2010PropOp42
 70
     1
102
RTVSPost2010Prop43
 90
        3
102
RTVSPost2010PropOp43
 70
     1
102
RTVSPost2010Prop44ColorIndex
 90
        5
102
RTVSPost2010Prop44ColorRGB
 90
      255
102
RTVSPost2010PropOp44
 70
     1
102
RTVSPost2010Prop45
280
     0
102
RTVSPost2010PropOp45
 70
     1
102
RTVSPost2010Prop46
 90
       50
102
RTVSPost2010PropOp46
 70
     1
102
RTVSPost2010Prop47
 90
       50
102
RTVSPost2010PropOp47
 70
     1
102
RTVSPost2010Prop48
 90
       50
102
RTVSPost2010PropOp48
 70
     1
102
RTVSPost2010Prop49
280
     0
102
RTVSPost2010PropOp49
 70
     1
102
RTVSPost2010Prop50
 90
       50
102
RTVSPost2010PropOp50
 70
     1
102
RTVSPost2010Prop51ColorIndex
 90
      256
102
RTVSPost2010Prop51ColorRGB
 90
-16777216
102
RTVSPost2010PropOp51
 70
     0
102
RTVSPost2010Prop52
140
1.0
102
RTVSPost2010PropOp52
 70
     0
102
RTVSPost2010Prop53
 90
        2
102
RTVSPost2010PropOp53
 70
     1
102
RTVSPost2010Prop54
  1
strokes_ogs.tif
102
RTVSPost2010PropOp54
 70
     1
102
RTVSPost2010Prop55
280
     0
102
RTVSPost2010PropOp55
 70
     1
102
RTVSPost2010Prop56
140
1.0
102
RTVSPost2010PropOp56
 70
     1
102
RTVSPost2010Prop57
140
1.0
102
RTVSPost2010PropOp57
 70
     1
102
RTVSPropertyOp0
 70
     1
102
RTVSPropertyOp1
 70
     1
102
RTVSPropertyOp2
 70
     1
102
RTVSPropertyOp3
 70
     1
102
RTVSPropertyOp4
 70
     1
102
RTVSPropertyOp5
 70
     1
102
RTVSPropertyOp6
 70
     1
102
RTVSPropertyOp7
 70
     1
102
RTVSPropertyOp8
 70
     1
102
RTVSPropertyOp9
 70
     1
102
RTVSPropertyOp10
 70
     1
102
RTVSPropertyOp11
 70
     1
102
RTVSPropertyOp12
 70
     1
102
RTVSPropertyOp13
 70
     1
102
RTVSPropertyOp14
 70
     1
102
RTVSPropertyOp15
 70
     1
102
RTVSPropertyOp16
 70
     1
102
RTVSPropertyOp17
 70
     1
102
RTVSPropertyOp18
 70
     1
102
RTVSPropertyOp19
 70
     1
102
RTVSPropertyOp20
 70
     1
102
RTVSPropertyOp21
 70
     1
102
RTVSPropertyOp22
 70
     1
102
RTVSPropertyOp23
 70
     1
102
RTVSPropertyOp24
 70
     1
102
RTVSPropertyOp25
 70
     1
102
RTVSPropertyOp26
 70
     1
102
RTVSPropertyOp27
 70
     1
102
RTVSPropertyOp28
 70
     1
102
RTVSPropertyOp29
 70
     1
102
RTVSPropertyOp30
 70
     1
102
RTVSPropertyOp31
 70
     1
102
RTVSPropertyOp32
 70
     1
102
RTVSPropertyOp33
 70
     1
102
RTVSPropertyOp34
 70
     1
102
RTVSPropertyOp35
 70
     1
102
RTVSPropertyOp36
 70
     1
102
RTVSPropertyOp37
 70
     1
102
RTVSPropertyOp38
 70
     1
102
RTVSPropertyOp39
 70
     1
102
RTVSPropertyOp40
 70
     1
102
RTVSPropertyOp41
 70
     1
102
RTVSPropertyOp42
 70
     1
102
RTVSPropertyOp43
 70
     1
102
RTVSPropertyOp44
 70
     1
102
RTVSPropertyOp45
 70
     1
102
RTVSPropertyOp46
 70
     1
102
RTVSPropertyOp47
 70
     1
102
RTVSPropertyOp48
 70
     1
102
RTVSPropertyOp49
 70
     1
102
RTVSPropertyOp50
 70
     1
102
RTVSPropertyOp51
 70
     0
102
RTVSPropertyOp52
 70
     0
102
RTVSPropertyOp53
 70
     1
102
RTVSPropertyOp54
 70
     1
102
RTVSPropertyOp55
 70
     1
102
RTVSPropertyOp56
 70
     1
102
RTVSPropertyOp57
 70
     1
102
RTVSPropertyOp58
 70
     1
102
RTVSPropertyOp59
 70
     1
102
RTVSPropertyOp60
 70
     1
102
RTVSPropertyOp61
 70
     1
102
RTVSPropertyOp62
 70
     1
  0
XRECORD
  5
171D
102
{ACAD_REACTORS
330
171C
102
}
330
171C
100
AcDbXrecord
280
     1
102
RTVSPost2010Prop28
280
     0
102
RTVSPost2010PropOp28
 70
     1
102
RTVSPost2010Prop29
280
     1
102
RTVSPost2010PropOp29
 70
     1
102
RTVSPost2010Prop30
280
     1
102
RTVSPost2010PropOp30
 70
     1
102
RTVSPost2010Prop31
280
     0
102
RTVSPost2010PropOp31
 70
     1
102
RTVSPost2010Prop32
280
     0
102
RTVSPost2010PropOp32
 70
     1
102
RTVSPost2010Prop33
280
     0
102
RTVSPost2010PropOp33
 70
     1
102
RTVSPost2010Prop34
280
     0
102
RTVSPost2010PropOp34
 70
     1
102
RTVSPost2010Prop35
280
     0
102
RTVSPost2010PropOp35
 70
     1
102
RTVSPost2010Prop36
280
     0
102
RTVSPost2010PropOp36
 70
     1
102
RTVSPost2010Prop37
 90
       50
102
RTVSPost2010PropOp37
 70
     1
102
RTVSPost2010Prop38
140
0.0
102
RTVSPost2010PropOp38
 70
     1
102
RTVSPost2010Prop39
140
1.0
102
RTVSPost2010PropOp39
 70
     1
102
RTVSPost2010Prop40
 90
        0
102
RTVSPost2010PropOp40
 70
     1
102
RTVSPost2010Prop41ColorIndex
 90
       18
102
RTVSPost2010Prop41ColorRGB
 90
        0
102
RTVSPost2010PropOp41
 70
     1
102
RTVSPost2010Prop42
 90
       50
102
RTVSPost2010PropOp42
 70
     1
102
RTVSPost2010Prop43
 90
        3
102
RTVSPost2010PropOp43
 70
     1
102
RTVSPost2010Prop44ColorIndex
 90
        5
102
RTVSPost2010Prop44ColorRGB
 90
      255
102
RTVSPost2010PropOp44
 70
     1
102
RTVSPost2010Prop45
280
     0
102
RTVSPost2010PropOp45
 70
     1
102
RTVSPost2010Prop46
 90
       50
102
RTVSPost2010PropOp46
 70
     1
102
RTVSPost2010Prop47
 90
       50
102
RTVSPost2010PropOp47
 70
     1
102
RTVSPost2010Prop48
 90
       50
102
RTVSPost2010PropOp48
 70
     1
102
RTVSPost2010Prop49
280
     0
102
RTVSPost2010PropOp49
 70
     1
102
RTVSPost2010Prop50
 90
       50
102
RTVSPost2010PropOp50
 70
     1
102
RTVSPost2010Prop51ColorIndex
 90
      256
102
RTVSPost2010Prop51ColorRGB
 90
-16777216
102
RTVSPost2010PropOp51
 70
     0
102
RTVSPost2010Prop52
140
1.0
102
RTVSPost2010PropOp52
 70
     0
102
RTVSPost2010Prop53
 90
        2
102
RTVSPost2010PropOp53
 70
     1
102
RTVSPost2010Prop54
  1
strokes_ogs.tif
102
RTVSPost2010PropOp54
 70
     1
102
RTVSPost2010Prop55
280
     0
102
RTVSPost2010PropOp55
 70
     1
102
RTVSPost2010Prop56
140
1.0
102
RTVSPost2010PropOp56
 70
     1
102
RTVSPost2010Prop57
140
1.0
102
RTVSPost2010PropOp57
 70
     1
102
RTVSPropertyOp0
 70
     1
102
RTVSPropertyOp1
 70
     1
102
RTVSPropertyOp2
 70
     1
102
RTVSPropertyOp3
 70
     1
102
RTVSPropertyOp4
 70
     1
102
RTVSPropertyOp5
 70
     1
102
RTVSPropertyOp6
 70
     1
102
RTVSPropertyOp7
 70
     1
102
RTVSPropertyOp8
 70
     1
102
RTVSPropertyOp9
 70
     1
102
RTVSPropertyOp10
 70
     1
102
RTVSPropertyOp11
 70
     1
102
RTVSPropertyOp12
 70
     1
102
RTVSPropertyOp13
 70
     1
102
RTVSPropertyOp14
 70
     1
102
RTVSPropertyOp15
 70
     1
102
RTVSPropertyOp16
 70
     1
102
RTVSPropertyOp17
 70
     1
102
RTVSPropertyOp18
 70
     1
102
RTVSPropertyOp19
 70
     1
102
RTVSPropertyOp20
 70
     1
102
RTVSPropertyOp21
 70
     1
102
RTVSPropertyOp22
 70
     1
102
RTVSPropertyOp23
 70
     1
102
RTVSPropertyOp24
 70
     1
102
RTVSPropertyOp25
 70
     1
102
RTVSPropertyOp26
 70
     1
102
RTVSPropertyOp27
 70
     1
102
RTVSPropertyOp28
 70
     1
102
RTVSPropertyOp29
 70
     1
102
RTVSPropertyOp30
 70
     1
102
RTVSPropertyOp31
 70
     1
102
RTVSPropertyOp32
 70
     1
102
RTVSPropertyOp33
 70
     1
102
RTVSPropertyOp34
 70
     1
102
RTVSPropertyOp35
 70
     1
102
RTVSPropertyOp36
 70
     1
102
RTVSPropertyOp37
 70
     1
102
RTVSPropertyOp38
 70
     1
102
RTVSPropertyOp39
 70
     1
102
RTVSPropertyOp40
 70
     1
102
RTVSPropertyOp41
 70
     1
102
RTVSPropertyOp42
 70
     1
102
RTVSPropertyOp43
 70
     1
102
RTVSPropertyOp44
 70
     1
102
RTVSPropertyOp45
 70
     1
102
RTVSPropertyOp46
 70
     1
102
RTVSPropertyOp47
 70
     1
102
RTVSPropertyOp48
 70
     1
102
RTVSPropertyOp49
 70
     1
102
RTVSPropertyOp50
 70
     1
102
RTVSPropertyOp51
 70
     0
102
RTVSPropertyOp52
 70
     0
102
RTVSPropertyOp53
 70
     1
102
RTVSPropertyOp54
 70
     1
102
RTVSPropertyOp55
 70
     1
102
RTVSPropertyOp56
 70
     1
102
RTVSPropertyOp57
 70
     1
102
RTVSPropertyOp58
 70
     1
102
RTVSPropertyOp59
 70
     1
102
RTVSPropertyOp60
 70
     1
102
RTVSPropertyOp61
 70
     1
102
RTVSPropertyOp62
 70
     1
  0
XRECORD
  5
1737
102
{ACAD_REACTORS
330
1736
102
}
330
1736
100
AcDbXrecord
280
     1
102
RTVSPost2010Prop28
280
     0
102
RTVSPost2010PropOp28
 70
     1
102
RTVSPost2010Prop29
280
     1
102
RTVSPost2010PropOp29
 70
     1
102
RTVSPost2010Prop30
280
     1
102
RTVSPost2010PropOp30
 70
     1
102
RTVSPost2010Prop31
280
     0
102
RTVSPost2010PropOp31
 70
     1
102
RTVSPost2010Prop32
280
     0
102
RTVSPost2010PropOp32
 70
     1
102
RTVSPost2010Prop33
280
     0
102
RTVSPost2010PropOp33
 70
     1
102
RTVSPost2010Prop34
280
     0
102
RTVSPost2010PropOp34
 70
     1
102
RTVSPost2010Prop35
280
     0
102
RTVSPost2010PropOp35
 70
     1
102
RTVSPost2010Prop36
280
     0
102
RTVSPost2010PropOp36
 70
     1
102
RTVSPost2010Prop37
 90
       50
102
RTVSPost2010PropOp37
 70
     0
102
RTVSPost2010Prop38
140
0.0
102
RTVSPost2010PropOp38
 70
     0
102
RTVSPost2010Prop39
140
1.0
102
RTVSPost2010PropOp39
 70
     0
102
RTVSPost2010Prop40
 90
        0
102
RTVSPost2010PropOp40
 70
     0
102
RTVSPost2010Prop41ColorIndex
 90
       18
102
RTVSPost2010Prop41ColorRGB
 90
        0
102
RTVSPost2010PropOp41
 70
     0
102
RTVSPost2010Prop42
 90
       50
102
RTVSPost2010PropOp42
 70
     0
102
RTVSPost2010Prop43
 90
        3
102
RTVSPost2010PropOp43
 70
     0
102
RTVSPost2010Prop44ColorIndex
 90
        5
102
RTVSPost2010Prop44ColorRGB
 90
      255
102
RTVSPost2010PropOp44
 70
     0
102
RTVSPost2010Prop45
280
     0
102
RTVSPost2010PropOp45
 70
     1
102
RTVSPost2010Prop46
 90
       50
102
RTVSPost2010PropOp46
 70
     0
102
RTVSPost2010Prop47
 90
       50
102
RTVSPost2010PropOp47
 70
     0
102
RTVSPost2010Prop48
 90
       50
102
RTVSPost2010PropOp48
 70
     0
102
RTVSPost2010Prop49
280
     0
102
RTVSPost2010PropOp49
 70
     1
102
RTVSPost2010Prop50
 90
       50
102
RTVSPost2010PropOp50
 70
     0
102
RTVSPost2010Prop51ColorIndex
 90
      256
102
RTVSPost2010Prop51ColorRGB
 90
-16777216
102
RTVSPost2010PropOp51
 70
     0
102
RTVSPost2010Prop52
140
1.0
102
RTVSPost2010PropOp52
 70
     0
102
RTVSPost2010Prop53
 90
        2
102
RTVSPost2010PropOp53
 70
     0
102
RTVSPost2010Prop54
  1
strokes_ogs.tif
102
RTVSPost2010PropOp54
 70
     0
102
RTVSPost2010Prop55
280
     0
102
RTVSPost2010PropOp55
 70
     1
102
RTVSPost2010Prop56
140
1.0
102
RTVSPost2010PropOp56
 70
     0
102
RTVSPost2010Prop57
140
1.0
102
RTVSPost2010PropOp57
 70
     0
102
RTVSPropertyOp0
 70
     0
102
RTVSPropertyOp1
 70
     0
102
RTVSPropertyOp2
 70
     0
102
RTVSPropertyOp3
 70
     0
102
RTVSPropertyOp4
 70
     0
102
RTVSPropertyOp5
 70
     0
102
RTVSPropertyOp6
 70
     0
102
RTVSPropertyOp7
 70
     0
102
RTVSPropertyOp8
 70
     0
102
RTVSPropertyOp9
 70
     0
102
RTVSPropertyOp10
 70
     0
102
RTVSPropertyOp11
 70
     0
102
RTVSPropertyOp12
 70
     0
102
RTVSPropertyOp13
 70
     0
102
RTVSPropertyOp14
 70
     2
102
RTVSPropertyOp15
 70
     0
102
RTVSPropertyOp16
 70
     0
102
RTVSPropertyOp17
 70
     0
102
RTVSPropertyOp18
 70
     0
102
RTVSPropertyOp19
 70
     0
102
RTVSPropertyOp20
 70
     0
102
RTVSPropertyOp21
 70
     0
102
RTVSPropertyOp22
 70
     0
102
RTVSPropertyOp23
 70
     0
102
RTVSPropertyOp24
 70
     0
102
RTVSPropertyOp25
 70
     0
102
RTVSPropertyOp26
 70
     0
102
RTVSPropertyOp27
 70
     0
102
RTVSPropertyOp28
 70
     1
102
RTVSPropertyOp29
 70
     1
102
RTVSPropertyOp30
 70
     1
102
RTVSPropertyOp31
 70
     1
102
RTVSPropertyOp32
 70
     1
102
RTVSPropertyOp33
 70
     1
102
RTVSPropertyOp34
 70
     1
102
RTVSPropertyOp35
 70
     1
102
RTVSPropertyOp36
 70
     1
102
RTVSPropertyOp37
 70
     0
102
RTVSPropertyOp38
 70
     0
102
RTVSPropertyOp39
 70
     0
102
RTVSPropertyOp40
 70
     0
102
RTVSPropertyOp41
 70
     0
102
RTVSPropertyOp42
 70
     0
102
RTVSPropertyOp43
 70
     0
102
RTVSPropertyOp44
 70
     0
102
RTVSPropertyOp45
 70
     1
102
RTVSPropertyOp46
 70
     0
102
RTVSPropertyOp47
 70
     0
102
RTVSPropertyOp48
 70
     0
102
RTVSPropertyOp49
 70
     1
102
RTVSPropertyOp50
 70
     0
102
RTVSPropertyOp51
 70
     0
102
RTVSPropertyOp52
 70
     0
102
RTVSPropertyOp53
 70
     0
102
RTVSPropertyOp54
 70
     0
102
RTVSPropertyOp55
 70
     1
102
RTVSPropertyOp56
 70
     0
102
RTVSPropertyOp57
 70
     0
102
RTVSPropertyOp58
 70
     0
102
RTVSPropertyOp59
 70
     0
102
RTVSPropertyOp60
 70
     0
102
RTVSPropertyOp61
 70
     0
102
RTVSPropertyOp62
 70
     0
  0
XRECORD
  5
1725
102
{ACAD_REACTORS
330
1724
102
}
330
1724
100
AcDbXrecord
280
     1
102
RTVSPost2010Prop28
280
     0
102
RTVSPost2010PropOp28
 70
     1
102
RTVSPost2010Prop29
280
     1
102
RTVSPost2010PropOp29
 70
     1
102
RTVSPost2010Prop30
280
     1
102
RTVSPost2010PropOp30
 70
     1
102
RTVSPost2010Prop31
280
     0
102
RTVSPost2010PropOp31
 70
     1
102
RTVSPost2010Prop32
280
     0
102
RTVSPost2010PropOp32
 70
     1
102
RTVSPost2010Prop33
280
     0
102
RTVSPost2010PropOp33
 70
     1
102
RTVSPost2010Prop34
280
     0
102
RTVSPost2010PropOp34
 70
     1
102
RTVSPost2010Prop35
280
     0
102
RTVSPost2010PropOp35
 70
     1
102
RTVSPost2010Prop36
280
     0
102
RTVSPost2010PropOp36
 70
     1
102
RTVSPost2010Prop37
 90
       50
102
RTVSPost2010PropOp37
 70
     1
102
RTVSPost2010Prop38
140
0.0
102
RTVSPost2010PropOp38
 70
     1
102
RTVSPost2010Prop39
140
1.0
102
RTVSPost2010PropOp39
 70
     1
102
RTVSPost2010Prop40
 90
        0
102
RTVSPost2010PropOp40
 70
     1
102
RTVSPost2010Prop41ColorIndex
 90
       18
102
RTVSPost2010Prop41ColorRGB
 90
        0
102
RTVSPost2010PropOp41
 70
     1
102
RTVSPost2010Prop42
 90
       50
102
RTVSPost2010PropOp42
 70
     1
102
RTVSPost2010Prop43
 90
        3
102
RTVSPost2010PropOp43
 70
     1
102
RTVSPost2010Prop44ColorIndex
 90
        5
102
RTVSPost2010Prop44ColorRGB
 90
      255
102
RTVSPost2010PropOp44
 70
     1
102
RTVSPost2010Prop45
280
     0
102
RTVSPost2010PropOp45
 70
     1
102
RTVSPost2010Prop46
 90
       50
102
RTVSPost2010PropOp46
 70
     1
102
RTVSPost2010Prop47
 90
       50
102
RTVSPost2010PropOp47
 70
     1
102
RTVSPost2010Prop48
 90
       50
102
RTVSPost2010PropOp48
 70
     1
102
RTVSPost2010Prop49
280
     0
102
RTVSPost2010PropOp49
 70
     1
102
RTVSPost2010Prop50
 90
       50
102
RTVSPost2010PropOp50
 70
     1
102
RTVSPost2010Prop51ColorIndex
 90
      256
102
RTVSPost2010Prop51ColorRGB
 90
-16777216
102
RTVSPost2010PropOp51
 70
     0
102
RTVSPost2010Prop52
140
1.0
102
RTVSPost2010PropOp52
 70
     0
102
RTVSPost2010Prop53
 90
        2
102
RTVSPost2010PropOp53
 70
     1
102
RTVSPost2010Prop54
  1
strokes_ogs.tif
102
RTVSPost2010PropOp54
 70
     1
102
RTVSPost2010Prop55
280
     0
102
RTVSPost2010PropOp55
 70
     1
102
RTVSPost2010Prop56
140
1.0
102
RTVSPost2010PropOp56
 70
     1
102
RTVSPost2010Prop57
140
1.0
102
RTVSPost2010PropOp57
 70
     1
102
RTVSPropertyOp0
 70
     1
102
RTVSPropertyOp1
 70
     1
102
RTVSPropertyOp2
 70
     1
102
RTVSPropertyOp3
 70
     1
102
RTVSPropertyOp4
 70
     1
102
RTVSPropertyOp5
 70
     1
102
RTVSPropertyOp6
 70
     1
102
RTVSPropertyOp7
 70
     1
102
RTVSPropertyOp8
 70
     1
102
RTVSPropertyOp9
 70
     1
102
RTVSPropertyOp10
 70
     1
102
RTVSPropertyOp11
 70
     1
102
RTVSPropertyOp12
 70
     1
102
RTVSPropertyOp13
 70
     1
102
RTVSPropertyOp14
 70
     1
102
RTVSPropertyOp15
 70
     1
102
RTVSPropertyOp16
 70
     1
102
RTVSPropertyOp17
 70
     1
102
RTVSPropertyOp18
 70
     1
102
RTVSPropertyOp19
 70
     1
102
RTVSPropertyOp20
 70
     1
102
RTVSPropertyOp21
 70
     1
102
RTVSPropertyOp22
 70
     1
102
RTVSPropertyOp23
 70
     1
102
RTVSPropertyOp24
 70
     1
102
RTVSPropertyOp25
 70
     1
102
RTVSPropertyOp26
 70
     1
102
RTVSPropertyOp27
 70
     1
102
RTVSPropertyOp28
 70
     1
102
RTVSPropertyOp29
 70
     1
102
RTVSPropertyOp30
 70
     1
102
RTVSPropertyOp31
 70
     1
102
RTVSPropertyOp32
 70
     1
102
RTVSPropertyOp33
 70
     1
102
RTVSPropertyOp34
 70
     1
102
RTVSPropertyOp35
 70
     1
102
RTVSPropertyOp36
 70
     1
102
RTVSPropertyOp37
 70
     1
102
RTVSPropertyOp38
 70
     1
102
RTVSPropertyOp39
 70
     1
102
RTVSPropertyOp40
 70
     1
102
RTVSPropertyOp41
 70
     1
102
RTVSPropertyOp42
 70
     1
102
RTVSPropertyOp43
 70
     1
102
RTVSPropertyOp44
 70
     1
102
RTVSPropertyOp45
 70
     1
102
RTVSPropertyOp46
 70
     1
102
RTVSPropertyOp47
 70
     1
102
RTVSPropertyOp48
 70
     1
102
RTVSPropertyOp49
 70
     1
102
RTVSPropertyOp50
 70
     1
102
RTVSPropertyOp51
 70
     0
102
RTVSPropertyOp52
 70
     0
102
RTVSPropertyOp53
 70
     1
102
RTVSPropertyOp54
 70
     1
102
RTVSPropertyOp55
 70
     1
102
RTVSPropertyOp56
 70
     1
102
RTVSPropertyOp57
 70
     1
102
RTVSPropertyOp58
 70
     1
102
RTVSPropertyOp59
 70
     1
102
RTVSPropertyOp60
 70
     1
102
RTVSPropertyOp61
 70
     1
102
RTVSPropertyOp62
 70
     1
  0
XRECORD
  5
1709
102
{ACAD_REACTORS
330
1708
102
}
330
1708
100
AcDbXrecord
280
     1
102
RTVSPost2010Prop28
280
     0
102
RTVSPost2010PropOp28
 70
     1
102
RTVSPost2010Prop29
280
     1
102
RTVSPost2010PropOp29
 70
     1
102
RTVSPost2010Prop30
280
     1
102
RTVSPost2010PropOp30
 70
     1
102
RTVSPost2010Prop31
280
     0
102
RTVSPost2010PropOp31
 70
     1
102
RTVSPost2010Prop32
280
     0
102
RTVSPost2010PropOp32
 70
     1
102
RTVSPost2010Prop33
280
     0
102
RTVSPost2010PropOp33
 70
     1
102
RTVSPost2010Prop34
280
     0
102
RTVSPost2010PropOp34
 70
     1
102
RTVSPost2010Prop35
280
     0
102
RTVSPost2010PropOp35
 70
     1
102
RTVSPost2010Prop36
280
     0
102
RTVSPost2010PropOp36
 70
     1
102
RTVSPost2010Prop37
 90
       50
102
RTVSPost2010PropOp37
 70
     1
102
RTVSPost2010Prop38
140
0.0
102
RTVSPost2010PropOp38
 70
     1
102
RTVSPost2010Prop39
140
1.0
102
RTVSPost2010PropOp39
 70
     1
102
RTVSPost2010Prop40
 90
        0
102
RTVSPost2010PropOp40
 70
     1
102
RTVSPost2010Prop41ColorIndex
 90
       18
102
RTVSPost2010Prop41ColorRGB
 90
        0
102
RTVSPost2010PropOp41
 70
     1
102
RTVSPost2010Prop42
 90
       50
102
RTVSPost2010PropOp42
 70
     1
102
RTVSPost2010Prop43
 90
        3
102
RTVSPost2010PropOp43
 70
     1
102
RTVSPost2010Prop44ColorIndex
 90
        5
102
RTVSPost2010Prop44ColorRGB
 90
      255
102
RTVSPost2010PropOp44
 70
     1
102
RTVSPost2010Prop45
280
     0
102
RTVSPost2010PropOp45
 70
     1
102
RTVSPost2010Prop46
 90
       50
102
RTVSPost2010PropOp46
 70
     1
102
RTVSPost2010Prop47
 90
       50
102
RTVSPost2010PropOp47
 70
     1
102
RTVSPost2010Prop48
 90
       50
102
RTVSPost2010PropOp48
 70
     1
102
RTVSPost2010Prop49
280
     0
102
RTVSPost2010PropOp49
 70
     1
102
RTVSPost2010Prop50
 90
       50
102
RTVSPost2010PropOp50
 70
     1
102
RTVSPost2010Prop51ColorIndex
 90
      256
102
RTVSPost2010Prop51ColorRGB
 90
-16777216
102
RTVSPost2010PropOp51
 70
     0
102
RTVSPost2010Prop52
140
1.0
102
RTVSPost2010PropOp52
 70
     0
102
RTVSPost2010Prop53
 90
        2
102
RTVSPost2010PropOp53
 70
     1
102
RTVSPost2010Prop54
  1
strokes_ogs.tif
102
RTVSPost2010PropOp54
 70
     1
102
RTVSPost2010Prop55
280
     0
102
RTVSPost2010PropOp55
 70
     1
102
RTVSPost2010Prop56
140
1.0
102
RTVSPost2010PropOp56
 70
     1
102
RTVSPost2010Prop57
140
1.0
102
RTVSPost2010PropOp57
 70
     1
102
RTVSPropertyOp0
 70
     1
102
RTVSPropertyOp1
 70
     1
102
RTVSPropertyOp2
 70
     1
102
RTVSPropertyOp3
 70
     1
102
RTVSPropertyOp4
 70
     1
102
RTVSPropertyOp5
 70
     1
102
RTVSPropertyOp6
 70
     1
102
RTVSPropertyOp7
 70
     1
102
RTVSPropertyOp8
 70
     1
102
RTVSPropertyOp9
 70
     1
102
RTVSPropertyOp10
 70
     1
102
RTVSPropertyOp11
 70
     1
102
RTVSPropertyOp12
 70
     1
102
RTVSPropertyOp13
 70
     1
102
RTVSPropertyOp14
 70
     1
102
RTVSPropertyOp15
 70
     1
102
RTVSPropertyOp16
 70
     1
102
RTVSPropertyOp17
 70
     1
102
RTVSPropertyOp18
 70
     1
102
RTVSPropertyOp19
 70
     1
102
RTVSPropertyOp20
 70
     1
102
RTVSPropertyOp21
 70
     1
102
RTVSPropertyOp22
 70
     1
102
RTVSPropertyOp23
 70
     1
102
RTVSPropertyOp24
 70
     1
102
RTVSPropertyOp25
 70
     1
102
RTVSPropertyOp26
 70
     1
102
RTVSPropertyOp27
 70
     1
102
RTVSPropertyOp28
 70
     1
102
RTVSPropertyOp29
 70
     1
102
RTVSPropertyOp30
 70
     1
102
RTVSPropertyOp31
 70
     1
102
RTVSPropertyOp32
 70
     1
102
RTVSPropertyOp33
 70
     1
102
RTVSPropertyOp34
 70
     1
102
RTVSPropertyOp35
 70
     1
102
RTVSPropertyOp36
 70
     1
102
RTVSPropertyOp37
 70
     1
102
RTVSPropertyOp38
 70
     1
102
RTVSPropertyOp39
 70
     1
102
RTVSPropertyOp40
 70
     1
102
RTVSPropertyOp41
 70
     1
102
RTVSPropertyOp42
 70
     1
102
RTVSPropertyOp43
 70
     1
102
RTVSPropertyOp44
 70
     1
102
RTVSPropertyOp45
 70
     1
102
RTVSPropertyOp46
 70
     1
102
RTVSPropertyOp47
 70
     1
102
RTVSPropertyOp48
 70
     1
102
RTVSPropertyOp49
 70
     1
102
RTVSPropertyOp50
 70
     1
102
RTVSPropertyOp51
 70
     0
102
RTVSPropertyOp52
 70
     0
102
RTVSPropertyOp53
 70
     1
102
RTVSPropertyOp54
 70
     1
102
RTVSPropertyOp55
 70
     1
102
RTVSPropertyOp56
 70
     1
102
RTVSPropertyOp57
 70
     1
102
RTVSPropertyOp58
 70
     1
102
RTVSPropertyOp59
 70
     1
102
RTVSPropertyOp60
 70
     1
102
RTVSPropertyOp61
 70
     1
102
RTVSPropertyOp62
 70
     1
  0
XRECORD
  5
170B
102
{ACAD_REACTORS
330
170A
102
}
330
170A
100
AcDbXrecord
280
     1
102
RTVSPost2010Prop28
280
     0
102
RTVSPost2010PropOp28
 70
     1
102
RTVSPost2010Prop29
280
     1
102
RTVSPost2010PropOp29
 70
     1
102
RTVSPost2010Prop30
280
     1
102
RTVSPost2010PropOp30
 70
     1
102
RTVSPost2010Prop31
280
     0
102
RTVSPost2010PropOp31
 70
     1
102
RTVSPost2010Prop32
280
     0
102
RTVSPost2010PropOp32
 70
     1
102
RTVSPost2010Prop33
280
     0
102
RTVSPost2010PropOp33
 70
     1
102
RTVSPost2010Prop34
280
     0
102
RTVSPost2010PropOp34
 70
     1
102
RTVSPost2010Prop35
280
     0
102
RTVSPost2010PropOp35
 70
     1
102
RTVSPost2010Prop36
280
     0
102
RTVSPost2010PropOp36
 70
     1
102
RTVSPost2010Prop37
 90
       50
102
RTVSPost2010PropOp37
 70
     1
102
RTVSPost2010Prop38
140
0.0
102
RTVSPost2010PropOp38
 70
     1
102
RTVSPost2010Prop39
140
1.0
102
RTVSPost2010PropOp39
 70
     1
102
RTVSPost2010Prop40
 90
        0
102
RTVSPost2010PropOp40
 70
     1
102
RTVSPost2010Prop41ColorIndex
 90
       18
102
RTVSPost2010Prop41ColorRGB
 90
        0
102
RTVSPost2010PropOp41
 70
     1
102
RTVSPost2010Prop42
 90
       50
102
RTVSPost2010PropOp42
 70
     1
102
RTVSPost2010Prop43
 90
        3
102
RTVSPost2010PropOp43
 70
     1
102
RTVSPost2010Prop44ColorIndex
 90
        5
102
RTVSPost2010Prop44ColorRGB
 90
      255
102
RTVSPost2010PropOp44
 70
     1
102
RTVSPost2010Prop45
280
     0
102
RTVSPost2010PropOp45
 70
     1
102
RTVSPost2010Prop46
 90
       50
102
RTVSPost2010PropOp46
 70
     1
102
RTVSPost2010Prop47
 90
       50
102
RTVSPost2010PropOp47
 70
     1
102
RTVSPost2010Prop48
 90
       50
102
RTVSPost2010PropOp48
 70
     1
102
RTVSPost2010Prop49
280
     0
102
RTVSPost2010PropOp49
 70
     1
102
RTVSPost2010Prop50
 90
       50
102
RTVSPost2010PropOp50
 70
     1
102
RTVSPost2010Prop51ColorIndex
 90
      256
102
RTVSPost2010Prop51ColorRGB
 90
-16777216
102
RTVSPost2010PropOp51
 70
     0
102
RTVSPost2010Prop52
140
1.0
102
RTVSPost2010PropOp52
 70
     0
102
RTVSPost2010Prop53
 90
        2
102
RTVSPost2010PropOp53
 70
     1
102
RTVSPost2010Prop54
  1
strokes_ogs.tif
102
RTVSPost2010PropOp54
 70
     1
102
RTVSPost2010Prop55
280
     0
102
RTVSPost2010PropOp55
 70
     1
102
RTVSPost2010Prop56
140
1.0
102
RTVSPost2010PropOp56
 70
     1
102
RTVSPost2010Prop57
140
1.0
102
RTVSPost2010PropOp57
 70
     1
102
RTVSPropertyOp0
 70
     1
102
RTVSPropertyOp1
 70
     1
102
RTVSPropertyOp2
 70
     1
102
RTVSPropertyOp3
 70
     1
102
RTVSPropertyOp4
 70
     1
102
RTVSPropertyOp5
 70
     1
102
RTVSPropertyOp6
 70
     1
102
RTVSPropertyOp7
 70
     1
102
RTVSPropertyOp8
 70
     1
102
RTVSPropertyOp9
 70
     1
102
RTVSPropertyOp10
 70
     1
102
RTVSPropertyOp11
 70
     1
102
RTVSPropertyOp12
 70
     1
102
RTVSPropertyOp13
 70
     1
102
RTVSPropertyOp14
 70
     1
102
RTVSPropertyOp15
 70
     1
102
RTVSPropertyOp16
 70
     1
102
RTVSPropertyOp17
 70
     1
102
RTVSPropertyOp18
 70
     1
102
RTVSPropertyOp19
 70
     1
102
RTVSPropertyOp20
 70
     1
102
RTVSPropertyOp21
 70
     1
102
RTVSPropertyOp22
 70
     1
102
RTVSPropertyOp23
 70
     1
102
RTVSPropertyOp24
 70
     1
102
RTVSPropertyOp25
 70
     1
102
RTVSPropertyOp26
 70
     1
102
RTVSPropertyOp27
 70
     1
102
RTVSPropertyOp28
 70
     1
102
RTVSPropertyOp29
 70
     1
102
RTVSPropertyOp30
 70
     1
102
RTVSPropertyOp31
 70
     1
102
RTVSPropertyOp32
 70
     1
102
RTVSPropertyOp33
 70
     1
102
RTVSPropertyOp34
 70
     1
102
RTVSPropertyOp35
 70
     1
102
RTVSPropertyOp36
 70
     1
102
RTVSPropertyOp37
 70
     1
102
RTVSPropertyOp38
 70
     1
102
RTVSPropertyOp39
 70
     1
102
RTVSPropertyOp40
 70
     1
102
RTVSPropertyOp41
 70
     1
102
RTVSPropertyOp42
 70
     1
102
RTVSPropertyOp43
 70
     1
102
RTVSPropertyOp44
 70
     1
102
RTVSPropertyOp45
 70
     1
102
RTVSPropertyOp46
 70
     1
102
RTVSPropertyOp47
 70
     1
102
RTVSPropertyOp48
 70
     1
102
RTVSPropertyOp49
 70
     1
102
RTVSPropertyOp50
 70
     1
102
RTVSPropertyOp51
 70
     0
102
RTVSPropertyOp52
 70
     0
102
RTVSPropertyOp53
 70
     1
102
RTVSPropertyOp54
 70
     1
102
RTVSPropertyOp55
 70
     1
102
RTVSPropertyOp56
 70
     1
102
RTVSPropertyOp57
 70
     1
102
RTVSPropertyOp58
 70
     1
102
RTVSPropertyOp59
 70
     1
102
RTVSPropertyOp60
 70
     1
102
RTVSPropertyOp61
 70
     1
102
RTVSPropertyOp62
 70
     1
  0
XRECORD
  5
170D
102
{ACAD_REACTORS
330
170C
102
}
330
170C
100
AcDbXrecord
280
     1
102
RTVSPost2010Prop28
280
     0
102
RTVSPost2010PropOp28
 70
     1
102
RTVSPost2010Prop29
280
     1
102
RTVSPost2010PropOp29
 70
     1
102
RTVSPost2010Prop30
280
     1
102
RTVSPost2010PropOp30
 70
     1
102
RTVSPost2010Prop31
280
     0
102
RTVSPost2010PropOp31
 70
     1
102
RTVSPost2010Prop32
280
     0
102
RTVSPost2010PropOp32
 70
     1
102
RTVSPost2010Prop33
280
     0
102
RTVSPost2010PropOp33
 70
     1
102
RTVSPost2010Prop34
280
     0
102
RTVSPost2010PropOp34
 70
     1
102
RTVSPost2010Prop35
280
     0
102
RTVSPost2010PropOp35
 70
     1
102
RTVSPost2010Prop36
280
     0
102
RTVSPost2010PropOp36
 70
     1
102
RTVSPost2010Prop37
 90
       50
102
RTVSPost2010PropOp37
 70
     1
102
RTVSPost2010Prop38
140
0.0
102
RTVSPost2010PropOp38
 70
     1
102
RTVSPost2010Prop39
140
1.0
102
RTVSPost2010PropOp39
 70
     1
102
RTVSPost2010Prop40
 90
        0
102
RTVSPost2010PropOp40
 70
     1
102
RTVSPost2010Prop41ColorIndex
 90
       18
102
RTVSPost2010Prop41ColorRGB
 90
        0
102
RTVSPost2010PropOp41
 70
     1
102
RTVSPost2010Prop42
 90
       50
102
RTVSPost2010PropOp42
 70
     1
102
RTVSPost2010Prop43
 90
        3
102
RTVSPost2010PropOp43
 70
     1
102
RTVSPost2010Prop44ColorIndex
 90
        5
102
RTVSPost2010Prop44ColorRGB
 90
      255
102
RTVSPost2010PropOp44
 70
     1
102
RTVSPost2010Prop45
280
     0
102
RTVSPost2010PropOp45
 70
     1
102
RTVSPost2010Prop46
 90
       50
102
RTVSPost2010PropOp46
 70
     1
102
RTVSPost2010Prop47
 90
       50
102
RTVSPost2010PropOp47
 70
     1
102
RTVSPost2010Prop48
 90
       50
102
RTVSPost2010PropOp48
 70
     1
102
RTVSPost2010Prop49
280
     0
102
RTVSPost2010PropOp49
 70
     1
102
RTVSPost2010Prop50
 90
       50
102
RTVSPost2010PropOp50
 70
     1
102
RTVSPost2010Prop51ColorIndex
 90
      256
102
RTVSPost2010Prop51ColorRGB
 90
-16777216
102
RTVSPost2010PropOp51
 70
     0
102
RTVSPost2010Prop52
140
1.0
102
RTVSPost2010PropOp52
 70
     0
102
RTVSPost2010Prop53
 90
        2
102
RTVSPost2010PropOp53
 70
     1
102
RTVSPost2010Prop54
  1
strokes_ogs.tif
102
RTVSPost2010PropOp54
 70
     1
102
RTVSPost2010Prop55
280
     0
102
RTVSPost2010PropOp55
 70
     1
102
RTVSPost2010Prop56
140
1.0
102
RTVSPost2010PropOp56
 70
     1
102
RTVSPost2010Prop57
140
1.0
102
RTVSPost2010PropOp57
 70
     1
102
RTVSPropertyOp0
 70
     1
102
RTVSPropertyOp1
 70
     1
102
RTVSPropertyOp2
 70
     1
102
RTVSPropertyOp3
 70
     1
102
RTVSPropertyOp4
 70
     1
102
RTVSPropertyOp5
 70
     1
102
RTVSPropertyOp6
 70
     1
102
RTVSPropertyOp7
 70
     1
102
RTVSPropertyOp8
 70
     1
102
RTVSPropertyOp9
 70
     1
102
RTVSPropertyOp10
 70
     1
102
RTVSPropertyOp11
 70
     1
102
RTVSPropertyOp12
 70
     1
102
RTVSPropertyOp13
 70
     1
102
RTVSPropertyOp14
 70
     1
102
RTVSPropertyOp15
 70
     1
102
RTVSPropertyOp16
 70
     1
102
RTVSPropertyOp17
 70
     1
102
RTVSPropertyOp18
 70
     1
102
RTVSPropertyOp19
 70
     1
102
RTVSPropertyOp20
 70
     1
102
RTVSPropertyOp21
 70
     1
102
RTVSPropertyOp22
 70
     1
102
RTVSPropertyOp23
 70
     1
102
RTVSPropertyOp24
 70
     1
102
RTVSPropertyOp25
 70
     1
102
RTVSPropertyOp26
 70
     1
102
RTVSPropertyOp27
 70
     1
102
RTVSPropertyOp28
 70
     1
102
RTVSPropertyOp29
 70
     1
102
RTVSPropertyOp30
 70
     1
102
RTVSPropertyOp31
 70
     1
102
RTVSPropertyOp32
 70
     1
102
RTVSPropertyOp33
 70
     1
102
RTVSPropertyOp34
 70
     1
102
RTVSPropertyOp35
 70
     1
102
RTVSPropertyOp36
 70
     1
102
RTVSPropertyOp37
 70
     1
102
RTVSPropertyOp38
 70
     1
102
RTVSPropertyOp39
 70
     1
102
RTVSPropertyOp40
 70
     1
102
RTVSPropertyOp41
 70
     1
102
RTVSPropertyOp42
 70
     1
102
RTVSPropertyOp43
 70
     1
102
RTVSPropertyOp44
 70
     1
102
RTVSPropertyOp45
 70
     1
102
RTVSPropertyOp46
 70
     1
102
RTVSPropertyOp47
 70
     1
102
RTVSPropertyOp48
 70
     1
102
RTVSPropertyOp49
 70
     1
102
RTVSPropertyOp50
 70
     1
102
RTVSPropertyOp51
 70
     0
102
RTVSPropertyOp52
 70
     0
102
RTVSPropertyOp53
 70
     1
102
RTVSPropertyOp54
 70
     1
102
RTVSPropertyOp55
 70
     1
102
RTVSPropertyOp56
 70
     1
102
RTVSPropertyOp57
 70
     1
102
RTVSPropertyOp58
 70
     1
102
RTVSPropertyOp59
 70
     1
102
RTVSPropertyOp60
 70
     1
102
RTVSPropertyOp61
 70
     1
102
RTVSPropertyOp62
 70
     1
  0
XRECORD
  5
170F
102
{ACAD_REACTORS
330
170E
102
}
330
170E
100
AcDbXrecord
280
     1
102
RTVSPost2010Prop28
280
     0
102
RTVSPost2010PropOp28
 70
     1
102
RTVSPost2010Prop29
280
     1
102
RTVSPost2010PropOp29
 70
     1
102
RTVSPost2010Prop30
280
     1
102
RTVSPost2010PropOp30
 70
     1
102
RTVSPost2010Prop31
280
     0
102
RTVSPost2010PropOp31
 70
     1
102
RTVSPost2010Prop32
280
     0
102
RTVSPost2010PropOp32
 70
     1
102
RTVSPost2010Prop33
280
     0
102
RTVSPost2010PropOp33
 70
     1
102
RTVSPost2010Prop34
280
     0
102
RTVSPost2010PropOp34
 70
     1
102
RTVSPost2010Prop35
280
     0
102
RTVSPost2010PropOp35
 70
     1
102
RTVSPost2010Prop36
280
     0
102
RTVSPost2010PropOp36
 70
     1
102
RTVSPost2010Prop37
 90
       50
102
RTVSPost2010PropOp37
 70
     1
102
RTVSPost2010Prop38
140
0.0
102
RTVSPost2010PropOp38
 70
     1
102
RTVSPost2010Prop39
140
1.0
102
RTVSPost2010PropOp39
 70
     1
102
RTVSPost2010Prop40
 90
        0
102
RTVSPost2010PropOp40
 70
     1
102
RTVSPost2010Prop41ColorIndex
 90
       18
102
RTVSPost2010Prop41ColorRGB
 90
        0
102
RTVSPost2010PropOp41
 70
     1
102
RTVSPost2010Prop42
 90
       50
102
RTVSPost2010PropOp42
 70
     1
102
RTVSPost2010Prop43
 90
        3
102
RTVSPost2010PropOp43
 70
     1
102
RTVSPost2010Prop44ColorIndex
 90
        5
102
RTVSPost2010Prop44ColorRGB
 90
      255
102
RTVSPost2010PropOp44
 70
     1
102
RTVSPost2010Prop45
280
     0
102
RTVSPost2010PropOp45
 70
     1
102
RTVSPost2010Prop46
 90
       50
102
RTVSPost2010PropOp46
 70
     1
102
RTVSPost2010Prop47
 90
       50
102
RTVSPost2010PropOp47
 70
     1
102
RTVSPost2010Prop48
 90
       50
102
RTVSPost2010PropOp48
 70
     1
102
RTVSPost2010Prop49
280
     0
102
RTVSPost2010PropOp49
 70
     1
102
RTVSPost2010Prop50
 90
       50
102
RTVSPost2010PropOp50
 70
     1
102
RTVSPost2010Prop51ColorIndex
 90
      256
102
RTVSPost2010Prop51ColorRGB
 90
-16777216
102
RTVSPost2010PropOp51
 70
     0
102
RTVSPost2010Prop52
140
1.0
102
RTVSPost2010PropOp52
 70
     0
102
RTVSPost2010Prop53
 90
        2
102
RTVSPost2010PropOp53
 70
     1
102
RTVSPost2010Prop54
  1
strokes_ogs.tif
102
RTVSPost2010PropOp54
 70
     1
102
RTVSPost2010Prop55
280
     0
102
RTVSPost2010PropOp55
 70
     1
102
RTVSPost2010Prop56
140
1.0
102
RTVSPost2010PropOp56
 70
     1
102
RTVSPost2010Prop57
140
1.0
102
RTVSPost2010PropOp57
 70
     1
102
RTVSPropertyOp0
 70
     1
102
RTVSPropertyOp1
 70
     1
102
RTVSPropertyOp2
 70
     1
102
RTVSPropertyOp3
 70
     1
102
RTVSPropertyOp4
 70
     1
102
RTVSPropertyOp5
 70
     1
102
RTVSPropertyOp6
 70
     1
102
RTVSPropertyOp7
 70
     1
102
RTVSPropertyOp8
 70
     1
102
RTVSPropertyOp9
 70
     1
102
RTVSPropertyOp10
 70
     1
102
RTVSPropertyOp11
 70
     1
102
RTVSPropertyOp12
 70
     1
102
RTVSPropertyOp13
 70
     1
102
RTVSPropertyOp14
 70
     1
102
RTVSPropertyOp15
 70
     1
102
RTVSPropertyOp16
 70
     1
102
RTVSPropertyOp17
 70
     1
102
RTVSPropertyOp18
 70
     1
102
RTVSPropertyOp19
 70
     1
102
RTVSPropertyOp20
 70
     1
102
RTVSPropertyOp21
 70
     1
102
RTVSPropertyOp22
 70
     1
102
RTVSPropertyOp23
 70
     1
102
RTVSPropertyOp24
 70
     1
102
RTVSPropertyOp25
 70
     1
102
RTVSPropertyOp26
 70
     1
102
RTVSPropertyOp27
 70
     1
102
RTVSPropertyOp28
 70
     1
102
RTVSPropertyOp29
 70
     1
102
RTVSPropertyOp30
 70
     1
102
RTVSPropertyOp31
 70
     1
102
RTVSPropertyOp32
 70
     1
102
RTVSPropertyOp33
 70
     1
102
RTVSPropertyOp34
 70
     1
102
RTVSPropertyOp35
 70
     1
102
RTVSPropertyOp36
 70
     1
102
RTVSPropertyOp37
 70
     1
102
RTVSPropertyOp38
 70
     1
102
RTVSPropertyOp39
 70
     1
102
RTVSPropertyOp40
 70
     1
102
RTVSPropertyOp41
 70
     1
102
RTVSPropertyOp42
 70
     1
102
RTVSPropertyOp43
 70
     1
102
RTVSPropertyOp44
 70
     1
102
RTVSPropertyOp45
 70
     1
102
RTVSPropertyOp46
 70
     1
102
RTVSPropertyOp47
 70
     1
102
RTVSPropertyOp48
 70
     1
102
RTVSPropertyOp49
 70
     1
102
RTVSPropertyOp50
 70
     1
102
RTVSPropertyOp51
 70
     0
102
RTVSPropertyOp52
 70
     0
102
RTVSPropertyOp53
 70
     1
102
RTVSPropertyOp54
 70
     1
102
RTVSPropertyOp55
 70
     1
102
RTVSPropertyOp56
 70
     1
102
RTVSPropertyOp57
 70
     1
102
RTVSPropertyOp58
 70
     1
102
RTVSPropertyOp59
 70
     1
102
RTVSPropertyOp60
 70
     1
102
RTVSPropertyOp61
 70
     1
102
RTVSPropertyOp62
 70
     1
  0
XRECORD
  5
1717
102
{ACAD_REACTORS
330
1716
102
}
330
1716
100
AcDbXrecord
280
     1
102
RTVSPost2010Prop28
280
     0
102
RTVSPost2010PropOp28
 70
     1
102
RTVSPost2010Prop29
280
     1
102
RTVSPost2010PropOp29
 70
     1
102
RTVSPost2010Prop30
280
     1
102
RTVSPost2010PropOp30
 70
     1
102
RTVSPost2010Prop31
280
     0
102
RTVSPost2010PropOp31
 70
     1
102
RTVSPost2010Prop32
280
     0
102
RTVSPost2010PropOp32
 70
     1
102
RTVSPost2010Prop33
280
     0
102
RTVSPost2010PropOp33
 70
     1
102
RTVSPost2010Prop34
280
     0
102
RTVSPost2010PropOp34
 70
     1
102
RTVSPost2010Prop35
280
     0
102
RTVSPost2010PropOp35
 70
     1
102
RTVSPost2010Prop36
280
     0
102
RTVSPost2010PropOp36
 70
     1
102
RTVSPost2010Prop37
 90
       50
102
RTVSPost2010PropOp37
 70
     1
102
RTVSPost2010Prop38
140
0.0
102
RTVSPost2010PropOp38
 70
     1
102
RTVSPost2010Prop39
140
1.0
102
RTVSPost2010PropOp39
 70
     1
102
RTVSPost2010Prop40
 90
        0
102
RTVSPost2010PropOp40
 70
     1
102
RTVSPost2010Prop41ColorIndex
 90
       18
102
RTVSPost2010Prop41ColorRGB
 90
        0
102
RTVSPost2010PropOp41
 70
     1
102
RTVSPost2010Prop42
 90
       50
102
RTVSPost2010PropOp42
 70
     1
102
RTVSPost2010Prop43
 90
        3
102
RTVSPost2010PropOp43
 70
     1
102
RTVSPost2010Prop44ColorIndex
 90
        5
102
RTVSPost2010Prop44ColorRGB
 90
      255
102
RTVSPost2010PropOp44
 70
     1
102
RTVSPost2010Prop45
280
     0
102
RTVSPost2010PropOp45
 70
     1
102
RTVSPost2010Prop46
 90
       50
102
RTVSPost2010PropOp46
 70
     1
102
RTVSPost2010Prop47
 90
       50
102
RTVSPost2010PropOp47
 70
     1
102
RTVSPost2010Prop48
 90
       50
102
RTVSPost2010PropOp48
 70
     1
102
RTVSPost2010Prop49
280
     0
102
RTVSPost2010PropOp49
 70
     1
102
RTVSPost2010Prop50
 90
       50
102
RTVSPost2010PropOp50
 70
     1
102
RTVSPost2010Prop51ColorIndex
 90
      256
102
RTVSPost2010Prop51ColorRGB
 90
-16777216
102
RTVSPost2010PropOp51
 70
     0
102
RTVSPost2010Prop52
140
1.0
102
RTVSPost2010PropOp52
 70
     0
102
RTVSPost2010Prop53
 90
        2
102
RTVSPost2010PropOp53
 70
     1
102
RTVSPost2010Prop54
  1
strokes_ogs.tif
102
RTVSPost2010PropOp54
 70
     1
102
RTVSPost2010Prop55
280
     0
102
RTVSPost2010PropOp55
 70
     1
102
RTVSPost2010Prop56
140
1.0
102
RTVSPost2010PropOp56
 70
     1
102
RTVSPost2010Prop57
140
1.0
102
RTVSPost2010PropOp57
 70
     1
102
RTVSPropertyOp0
 70
     1
102
RTVSPropertyOp1
 70
     1
102
RTVSPropertyOp2
 70
     1
102
RTVSPropertyOp3
 70
     1
102
RTVSPropertyOp4
 70
     1
102
RTVSPropertyOp5
 70
     1
102
RTVSPropertyOp6
 70
     1
102
RTVSPropertyOp7
 70
     1
102
RTVSPropertyOp8
 70
     1
102
RTVSPropertyOp9
 70
     1
102
RTVSPropertyOp10
 70
     1
102
RTVSPropertyOp11
 70
     1
102
RTVSPropertyOp12
 70
     1
102
RTVSPropertyOp13
 70
     1
102
RTVSPropertyOp14
 70
     1
102
RTVSPropertyOp15
 70
     1
102
RTVSPropertyOp16
 70
     1
102
RTVSPropertyOp17
 70
     1
102
RTVSPropertyOp18
 70
     1
102
RTVSPropertyOp19
 70
     1
102
RTVSPropertyOp20
 70
     1
102
RTVSPropertyOp21
 70
     1
102
RTVSPropertyOp22
 70
     1
102
RTVSPropertyOp23
 70
     1
102
RTVSPropertyOp24
 70
     1
102
RTVSPropertyOp25
 70
     1
102
RTVSPropertyOp26
 70
     1
102
RTVSPropertyOp27
 70
     1
102
RTVSPropertyOp28
 70
     1
102
RTVSPropertyOp29
 70
     1
102
RTVSPropertyOp30
 70
     1
102
RTVSPropertyOp31
 70
     1
102
RTVSPropertyOp32
 70
     1
102
RTVSPropertyOp33
 70
     1
102
RTVSPropertyOp34
 70
     1
102
RTVSPropertyOp35
 70
     1
102
RTVSPropertyOp36
 70
     1
102
RTVSPropertyOp37
 70
     1
102
RTVSPropertyOp38
 70
     1
102
RTVSPropertyOp39
 70
     1
102
RTVSPropertyOp40
 70
     1
102
RTVSPropertyOp41
 70
     1
102
RTVSPropertyOp42
 70
     1
102
RTVSPropertyOp43
 70
     1
102
RTVSPropertyOp44
 70
     1
102
RTVSPropertyOp45
 70
     1
102
RTVSPropertyOp46
 70
     1
102
RTVSPropertyOp47
 70
     1
102
RTVSPropertyOp48
 70
     1
102
RTVSPropertyOp49
 70
     1
102
RTVSPropertyOp50
 70
     1
102
RTVSPropertyOp51
 70
     0
102
RTVSPropertyOp52
 70
     0
102
RTVSPropertyOp53
 70
     1
102
RTVSPropertyOp54
 70
     1
102
RTVSPropertyOp55
 70
     1
102
RTVSPropertyOp56
 70
     1
102
RTVSPropertyOp57
 70
     1
102
RTVSPropertyOp58
 70
     1
102
RTVSPropertyOp59
 70
     1
102
RTVSPropertyOp60
 70
     1
102
RTVSPropertyOp61
 70
     1
102
RTVSPropertyOp62
 70
     1
  0
XRECORD
  5
1733
102
{ACAD_REACTORS
330
1732
102
}
330
1732
100
AcDbXrecord
280
     1
102
RTVSPost2010Prop28
280
     0
102
RTVSPost2010PropOp28
 70
     1
102
RTVSPost2010Prop29
280
     1
102
RTVSPost2010PropOp29
 70
     1
102
RTVSPost2010Prop30
280
     1
102
RTVSPost2010PropOp30
 70
     1
102
RTVSPost2010Prop31
280
     0
102
RTVSPost2010PropOp31
 70
     1
102
RTVSPost2010Prop32
280
     0
102
RTVSPost2010PropOp32
 70
     1
102
RTVSPost2010Prop33
280
     0
102
RTVSPost2010PropOp33
 70
     1
102
RTVSPost2010Prop34
280
     0
102
RTVSPost2010PropOp34
 70
     1
102
RTVSPost2010Prop35
280
     0
102
RTVSPost2010PropOp35
 70
     1
102
RTVSPost2010Prop36
280
     0
102
RTVSPost2010PropOp36
 70
     1
102
RTVSPost2010Prop37
 90
       50
102
RTVSPost2010PropOp37
 70
     0
102
RTVSPost2010Prop38
140
0.0
102
RTVSPost2010PropOp38
 70
     0
102
RTVSPost2010Prop39
140
1.0
102
RTVSPost2010PropOp39
 70
     0
102
RTVSPost2010Prop40
 90
        0
102
RTVSPost2010PropOp40
 70
     0
102
RTVSPost2010Prop41ColorIndex
 90
       18
102
RTVSPost2010Prop41ColorRGB
 90
        0
102
RTVSPost2010PropOp41
 70
     0
102
RTVSPost2010Prop42
 90
       50
102
RTVSPost2010PropOp42
 70
     0
102
RTVSPost2010Prop43
 90
        3
102
RTVSPost2010PropOp43
 70
     0
102
RTVSPost2010Prop44ColorIndex
 90
        5
102
RTVSPost2010Prop44ColorRGB
 90
      255
102
RTVSPost2010PropOp44
 70
     0
102
RTVSPost2010Prop45
280
     0
102
RTVSPost2010PropOp45
 70
     1
102
RTVSPost2010Prop46
 90
       50
102
RTVSPost2010PropOp46
 70
     0
102
RTVSPost2010Prop47
 90
       50
102
RTVSPost2010PropOp47
 70
     0
102
RTVSPost2010Prop48
 90
       50
102
RTVSPost2010PropOp48
 70
     0
102
RTVSPost2010Prop49
280
     0
102
RTVSPost2010PropOp49
 70
     1
102
RTVSPost2010Prop50
 90
       50
102
RTVSPost2010PropOp50
 70
     0
102
RTVSPost2010Prop51ColorIndex
 90
      256
102
RTVSPost2010Prop51ColorRGB
 90
-16777216
102
RTVSPost2010PropOp51
 70
     0
102
RTVSPost2010Prop52
140
1.0
102
RTVSPost2010PropOp52
 70
     0
102
RTVSPost2010Prop53
 90
        2
102
RTVSPost2010PropOp53
 70
     0
102
RTVSPost2010Prop54
  1
strokes_ogs.tif
102
RTVSPost2010PropOp54
 70
     0
102
RTVSPost2010Prop55
280
     0
102
RTVSPost2010PropOp55
 70
     1
102
RTVSPost2010Prop56
140
1.0
102
RTVSPost2010PropOp56
 70
     0
102
RTVSPost2010Prop57
140
1.0
102
RTVSPost2010PropOp57
 70
     0
102
RTVSPropertyOp0
 70
     0
102
RTVSPropertyOp1
 70
     0
102
RTVSPropertyOp2
 70
     0
102
RTVSPropertyOp3
 70
     0
102
RTVSPropertyOp4
 70
     0
102
RTVSPropertyOp5
 70
     0
102
RTVSPropertyOp6
 70
     0
102
RTVSPropertyOp7
 70
     0
102
RTVSPropertyOp8
 70
     0
102
RTVSPropertyOp9
 70
     0
102
RTVSPropertyOp10
 70
     0
102
RTVSPropertyOp11
 70
     0
102
RTVSPropertyOp12
 70
     0
102
RTVSPropertyOp13
 70
     0
102
RTVSPropertyOp14
 70
     2
102
RTVSPropertyOp15
 70
     0
102
RTVSPropertyOp16
 70
     0
102
RTVSPropertyOp17
 70
     0
102
RTVSPropertyOp18
 70
     0
102
RTVSPropertyOp19
 70
     0
102
RTVSPropertyOp20
 70
     0
102
RTVSPropertyOp21
 70
     0
102
RTVSPropertyOp22
 70
     0
102
RTVSPropertyOp23
 70
     0
102
RTVSPropertyOp24
 70
     0
102
RTVSPropertyOp25
 70
     0
102
RTVSPropertyOp26
 70
     0
102
RTVSPropertyOp27
 70
     0
102
RTVSPropertyOp28
 70
     1
102
RTVSPropertyOp29
 70
     1
102
RTVSPropertyOp30
 70
     1
102
RTVSPropertyOp31
 70
     1
102
RTVSPropertyOp32
 70
     1
102
RTVSPropertyOp33
 70
     1
102
RTVSPropertyOp34
 70
     1
102
RTVSPropertyOp35
 70
     1
102
RTVSPropertyOp36
 70
     1
102
RTVSPropertyOp37
 70
     0
102
RTVSPropertyOp38
 70
     0
102
RTVSPropertyOp39
 70
     0
102
RTVSPropertyOp40
 70
     0
102
RTVSPropertyOp41
 70
     0
102
RTVSPropertyOp42
 70
     0
102
RTVSPropertyOp43
 70
     0
102
RTVSPropertyOp44
 70
     0
102
RTVSPropertyOp45
 70
     1
102
RTVSPropertyOp46
 70
     0
102
RTVSPropertyOp47
 70
     0
102
RTVSPropertyOp48
 70
     0
102
RTVSPropertyOp49
 70
     1
102
RTVSPropertyOp50
 70
     0
102
RTVSPropertyOp51
 70
     0
102
RTVSPropertyOp52
 70
     0
102
RTVSPropertyOp53
 70
     0
102
RTVSPropertyOp54
 70
     0
102
RTVSPropertyOp55
 70
     1
102
RTVSPropertyOp56
 70
     0
102
RTVSPropertyOp57
 70
     0
102
RTVSPropertyOp58
 70
     0
102
RTVSPropertyOp59
 70
     0
102
RTVSPropertyOp60
 70
     0
102
RTVSPropertyOp61
 70
     0
102
RTVSPropertyOp62
 70
     0
  0
XRECORD
  5
1723
102
{ACAD_REACTORS
330
1722
102
}
330
1722
100
AcDbXrecord
280
     1
102
RTVSPost2010Prop28
280
     0
102
RTVSPost2010PropOp28
 70
     1
102
RTVSPost2010Prop29
280
     1
102
RTVSPost2010PropOp29
 70
     1
102
RTVSPost2010Prop30
280
     1
102
RTVSPost2010PropOp30
 70
     1
102
RTVSPost2010Prop31
280
     0
102
RTVSPost2010PropOp31
 70
     1
102
RTVSPost2010Prop32
280
     0
102
RTVSPost2010PropOp32
 70
     1
102
RTVSPost2010Prop33
280
     0
102
RTVSPost2010PropOp33
 70
     1
102
RTVSPost2010Prop34
280
     0
102
RTVSPost2010PropOp34
 70
     1
102
RTVSPost2010Prop35
280
     0
102
RTVSPost2010PropOp35
 70
     1
102
RTVSPost2010Prop36
280
     0
102
RTVSPost2010PropOp36
 70
     1
102
RTVSPost2010Prop37
 90
       50
102
RTVSPost2010PropOp37
 70
     1
102
RTVSPost2010Prop38
140
0.0
102
RTVSPost2010PropOp38
 70
     1
102
RTVSPost2010Prop39
140
1.0
102
RTVSPost2010PropOp39
 70
     1
102
RTVSPost2010Prop40
 90
        0
102
RTVSPost2010PropOp40
 70
     1
102
RTVSPost2010Prop41ColorIndex
 90
       18
102
RTVSPost2010Prop41ColorRGB
 90
        0
102
RTVSPost2010PropOp41
 70
     1
102
RTVSPost2010Prop42
 90
       50
102
RTVSPost2010PropOp42
 70
     1
102
RTVSPost2010Prop43
 90
        3
102
RTVSPost2010PropOp43
 70
     1
102
RTVSPost2010Prop44ColorIndex
 90
        5
102
RTVSPost2010Prop44ColorRGB
 90
      255
102
RTVSPost2010PropOp44
 70
     1
102
RTVSPost2010Prop45
280
     0
102
RTVSPost2010PropOp45
 70
     1
102
RTVSPost2010Prop46
 90
       50
102
RTVSPost2010PropOp46
 70
     1
102
RTVSPost2010Prop47
 90
       50
102
RTVSPost2010PropOp47
 70
     1
102
RTVSPost2010Prop48
 90
       50
102
RTVSPost2010PropOp48
 70
     1
102
RTVSPost2010Prop49
280
     0
102
RTVSPost2010PropOp49
 70
     1
102
RTVSPost2010Prop50
 90
       50
102
RTVSPost2010PropOp50
 70
     1
102
RTVSPost2010Prop51ColorIndex
 90
      256
102
RTVSPost2010Prop51ColorRGB
 90
-16777216
102
RTVSPost2010PropOp51
 70
     0
102
RTVSPost2010Prop52
140
1.0
102
RTVSPost2010PropOp52
 70
     0
102
RTVSPost2010Prop53
 90
        2
102
RTVSPost2010PropOp53
 70
     1
102
RTVSPost2010Prop54
  1
strokes_ogs.tif
102
RTVSPost2010PropOp54
 70
     1
102
RTVSPost2010Prop55
280
     0
102
RTVSPost2010PropOp55
 70
     1
102
RTVSPost2010Prop56
140
1.0
102
RTVSPost2010PropOp56
 70
     1
102
RTVSPost2010Prop57
140
1.0
102
RTVSPost2010PropOp57
 70
     1
102
RTVSPropertyOp0
 70
     1
102
RTVSPropertyOp1
 70
     1
102
RTVSPropertyOp2
 70
     1
102
RTVSPropertyOp3
 70
     1
102
RTVSPropertyOp4
 70
     1
102
RTVSPropertyOp5
 70
     1
102
RTVSPropertyOp6
 70
     1
102
RTVSPropertyOp7
 70
     1
102
RTVSPropertyOp8
 70
     1
102
RTVSPropertyOp9
 70
     1
102
RTVSPropertyOp10
 70
     1
102
RTVSPropertyOp11
 70
     1
102
RTVSPropertyOp12
 70
     1
102
RTVSPropertyOp13
 70
     1
102
RTVSPropertyOp14
 70
     1
102
RTVSPropertyOp15
 70
     1
102
RTVSPropertyOp16
 70
     1
102
RTVSPropertyOp17
 70
     1
102
RTVSPropertyOp18
 70
     1
102
RTVSPropertyOp19
 70
     1
102
RTVSPropertyOp20
 70
     1
102
RTVSPropertyOp21
 70
     1
102
RTVSPropertyOp22
 70
     1
102
RTVSPropertyOp23
 70
     1
102
RTVSPropertyOp24
 70
     1
102
RTVSPropertyOp25
 70
     1
102
RTVSPropertyOp26
 70
     1
102
RTVSPropertyOp27
 70
     1
102
RTVSPropertyOp28
 70
     1
102
RTVSPropertyOp29
 70
     1
102
RTVSPropertyOp30
 70
     1
102
RTVSPropertyOp31
 70
     1
102
RTVSPropertyOp32
 70
     1
102
RTVSPropertyOp33
 70
     1
102
RTVSPropertyOp34
 70
     1
102
RTVSPropertyOp35
 70
     1
102
RTVSPropertyOp36
 70
     1
102
RTVSPropertyOp37
 70
     1
102
RTVSPropertyOp38
 70
     1
102
RTVSPropertyOp39
 70
     1
102
RTVSPropertyOp40
 70
     1
102
RTVSPropertyOp41
 70
     1
102
RTVSPropertyOp42
 70
     1
102
RTVSPropertyOp43
 70
     1
102
RTVSPropertyOp44
 70
     1
102
RTVSPropertyOp45
 70
     1
102
RTVSPropertyOp46
 70
     1
102
RTVSPropertyOp47
 70
     1
102
RTVSPropertyOp48
 70
     1
102
RTVSPropertyOp49
 70
     1
102
RTVSPropertyOp50
 70
     1
102
RTVSPropertyOp51
 70
     0
102
RTVSPropertyOp52
 70
     0
102
RTVSPropertyOp53
 70
     1
102
RTVSPropertyOp54
 70
     1
102
RTVSPropertyOp55
 70
     1
102
RTVSPropertyOp56
 70
     1
102
RTVSPropertyOp57
 70
     1
102
RTVSPropertyOp58
 70
     1
102
RTVSPropertyOp59
 70
     1
102
RTVSPropertyOp60
 70
     1
102
RTVSPropertyOp61
 70
     1
102
RTVSPropertyOp62
 70
     1
  0
XRECORD
  5
1735
102
{ACAD_REACTORS
330
1734
102
}
330
1734
100
AcDbXrecord
280
     1
102
RTVSPost2010Prop28
280
     0
102
RTVSPost2010PropOp28
 70
     1
102
RTVSPost2010Prop29
280
     1
102
RTVSPost2010PropOp29
 70
     1
102
RTVSPost2010Prop30
280
     1
102
RTVSPost2010PropOp30
 70
     1
102
RTVSPost2010Prop31
280
     0
102
RTVSPost2010PropOp31
 70
     1
102
RTVSPost2010Prop32
280
     0
102
RTVSPost2010PropOp32
 70
     1
102
RTVSPost2010Prop33
280
     0
102
RTVSPost2010PropOp33
 70
     1
102
RTVSPost2010Prop34
280
     0
102
RTVSPost2010PropOp34
 70
     1
102
RTVSPost2010Prop35
280
     0
102
RTVSPost2010PropOp35
 70
     1
102
RTVSPost2010Prop36
280
     0
102
RTVSPost2010PropOp36
 70
     1
102
RTVSPost2010Prop37
 90
       50
102
RTVSPost2010PropOp37
 70
     0
102
RTVSPost2010Prop38
140
0.0
102
RTVSPost2010PropOp38
 70
     0
102
RTVSPost2010Prop39
140
1.0
102
RTVSPost2010PropOp39
 70
     0
102
RTVSPost2010Prop40
 90
        0
102
RTVSPost2010PropOp40
 70
     0
102
RTVSPost2010Prop41ColorIndex
 90
       18
102
RTVSPost2010Prop41ColorRGB
 90
        0
102
RTVSPost2010PropOp41
 70
     0
102
RTVSPost2010Prop42
 90
       50
102
RTVSPost2010PropOp42
 70
     0
102
RTVSPost2010Prop43
 90
        3
102
RTVSPost2010PropOp43
 70
     0
102
RTVSPost2010Prop44ColorIndex
 90
        5
102
RTVSPost2010Prop44ColorRGB
 90
      255
102
RTVSPost2010PropOp44
 70
     0
102
RTVSPost2010Prop45
280
     0
102
RTVSPost2010PropOp45
 70
     1
102
RTVSPost2010Prop46
 90
       50
102
RTVSPost2010PropOp46
 70
     0
102
RTVSPost2010Prop47
 90
       50
102
RTVSPost2010PropOp47
 70
     0
102
RTVSPost2010Prop48
 90
       50
102
RTVSPost2010PropOp48
 70
     0
102
RTVSPost2010Prop49
280
     0
102
RTVSPost2010PropOp49
 70
     1
102
RTVSPost2010Prop50
 90
       50
102
RTVSPost2010PropOp50
 70
     0
102
RTVSPost2010Prop51ColorIndex
 90
      256
102
RTVSPost2010Prop51ColorRGB
 90
-16777216
102
RTVSPost2010PropOp51
 70
     0
102
RTVSPost2010Prop52
140
1.0
102
RTVSPost2010PropOp52
 70
     0
102
RTVSPost2010Prop53
 90
        2
102
RTVSPost2010PropOp53
 70
     0
102
RTVSPost2010Prop54
  1
strokes_ogs.tif
102
RTVSPost2010PropOp54
 70
     0
102
RTVSPost2010Prop55
280
     0
102
RTVSPost2010PropOp55
 70
     1
102
RTVSPost2010Prop56
140
1.0
102
RTVSPost2010PropOp56
 70
     0
102
RTVSPost2010Prop57
140
1.0
102
RTVSPost2010PropOp57
 70
     0
102
RTVSPropertyOp0
 70
     0
102
RTVSPropertyOp1
 70
     0
102
RTVSPropertyOp2
 70
     0
102
RTVSPropertyOp3
 70
     0
102
RTVSPropertyOp4
 70
     0
102
RTVSPropertyOp5
 70
     0
102
RTVSPropertyOp6
 70
     0
102
RTVSPropertyOp7
 70
     0
102
RTVSPropertyOp8
 70
     0
102
RTVSPropertyOp9
 70
     0
102
RTVSPropertyOp10
 70
     0
102
RTVSPropertyOp11
 70
     0
102
RTVSPropertyOp12
 70
     0
102
RTVSPropertyOp13
 70
     0
102
RTVSPropertyOp14
 70
     2
102
RTVSPropertyOp15
 70
     0
102
RTVSPropertyOp16
 70
     0
102
RTVSPropertyOp17
 70
     0
102
RTVSPropertyOp18
 70
     0
102
RTVSPropertyOp19
 70
     0
102
RTVSPropertyOp20
 70
     0
102
RTVSPropertyOp21
 70
     0
102
RTVSPropertyOp22
 70
     0
102
RTVSPropertyOp23
 70
     0
102
RTVSPropertyOp24
 70
     0
102
RTVSPropertyOp25
 70
     0
102
RTVSPropertyOp26
 70
     0
102
RTVSPropertyOp27
 70
     0
102
RTVSPropertyOp28
 70
     1
102
RTVSPropertyOp29
 70
     1
102
RTVSPropertyOp30
 70
     1
102
RTVSPropertyOp31
 70
     1
102
RTVSPropertyOp32
 70
     1
102
RTVSPropertyOp33
 70
     1
102
RTVSPropertyOp34
 70
     1
102
RTVSPropertyOp35
 70
     1
102
RTVSPropertyOp36
 70
     1
102
RTVSPropertyOp37
 70
     0
102
RTVSPropertyOp38
 70
     0
102
RTVSPropertyOp39
 70
     0
102
RTVSPropertyOp40
 70
     0
102
RTVSPropertyOp41
 70
     0
102
RTVSPropertyOp42
 70
     0
102
RTVSPropertyOp43
 70
     0
102
RTVSPropertyOp44
 70
     0
102
RTVSPropertyOp45
 70
     1
102
RTVSPropertyOp46
 70
     0
102
RTVSPropertyOp47
 70
     0
102
RTVSPropertyOp48
 70
     0
102
RTVSPropertyOp49
 70
     1
102
RTVSPropertyOp50
 70
     0
102
RTVSPropertyOp51
 70
     0
102
RTVSPropertyOp52
 70
     0
102
RTVSPropertyOp53
 70
     0
102
RTVSPropertyOp54
 70
     0
102
RTVSPropertyOp55
 70
     1
102
RTVSPropertyOp56
 70
     0
102
RTVSPropertyOp57
 70
     0
102
RTVSPropertyOp58
 70
     0
102
RTVSPropertyOp59
 70
     0
102
RTVSPropertyOp60
 70
     0
102
RTVSPropertyOp61
 70
     0
102
RTVSPropertyOp62
 70
     0
  0
XRECORD
  5
171B
102
{ACAD_REACTORS
330
171A
102
}
330
171A
100
AcDbXrecord
280
     1
102
RTVSPost2010Prop28
280
     0
102
RTVSPost2010PropOp28
 70
     1
102
RTVSPost2010Prop29
280
     1
102
RTVSPost2010PropOp29
 70
     1
102
RTVSPost2010Prop30
280
     1
102
RTVSPost2010PropOp30
 70
     1
102
RTVSPost2010Prop31
280
     0
102
RTVSPost2010PropOp31
 70
     1
102
RTVSPost2010Prop32
280
     0
102
RTVSPost2010PropOp32
 70
     1
102
RTVSPost2010Prop33
280
     0
102
RTVSPost2010PropOp33
 70
     1
102
RTVSPost2010Prop34
280
     0
102
RTVSPost2010PropOp34
 70
     1
102
RTVSPost2010Prop35
280
     0
102
RTVSPost2010PropOp35
 70
     1
102
RTVSPost2010Prop36
280
     0
102
RTVSPost2010PropOp36
 70
     1
102
RTVSPost2010Prop37
 90
       50
102
RTVSPost2010PropOp37
 70
     1
102
RTVSPost2010Prop38
140
0.0
102
RTVSPost2010PropOp38
 70
     1
102
RTVSPost2010Prop39
140
1.0
102
RTVSPost2010PropOp39
 70
     1
102
RTVSPost2010Prop40
 90
        0
102
RTVSPost2010PropOp40
 70
     1
102
RTVSPost2010Prop41ColorIndex
 90
       18
102
RTVSPost2010Prop41ColorRGB
 90
        0
102
RTVSPost2010PropOp41
 70
     1
102
RTVSPost2010Prop42
 90
       50
102
RTVSPost2010PropOp42
 70
     1
102
RTVSPost2010Prop43
 90
        3
102
RTVSPost2010PropOp43
 70
     1
102
RTVSPost2010Prop44ColorIndex
 90
        5
102
RTVSPost2010Prop44ColorRGB
 90
      255
102
RTVSPost2010PropOp44
 70
     1
102
RTVSPost2010Prop45
280
     0
102
RTVSPost2010PropOp45
 70
     1
102
RTVSPost2010Prop46
 90
       50
102
RTVSPost2010PropOp46
 70
     1
102
RTVSPost2010Prop47
 90
       50
102
RTVSPost2010PropOp47
 70
     1
102
RTVSPost2010Prop48
 90
       50
102
RTVSPost2010PropOp48
 70
     1
102
RTVSPost2010Prop49
280
     0
102
RTVSPost2010PropOp49
 70
     1
102
RTVSPost2010Prop50
 90
       50
102
RTVSPost2010PropOp50
 70
     1
102
RTVSPost2010Prop51ColorIndex
 90
      256
102
RTVSPost2010Prop51ColorRGB
 90
-16777216
102
RTVSPost2010PropOp51
 70
     0
102
RTVSPost2010Prop52
140
1.0
102
RTVSPost2010PropOp52
 70
     0
102
RTVSPost2010Prop53
 90
        2
102
RTVSPost2010PropOp53
 70
     1
102
RTVSPost2010Prop54
  1
strokes_ogs.tif
102
RTVSPost2010PropOp54
 70
     1
102
RTVSPost2010Prop55
280
     0
102
RTVSPost2010PropOp55
 70
     1
102
RTVSPost2010Prop56
140
1.0
102
RTVSPost2010PropOp56
 70
     1
102
RTVSPost2010Prop57
140
1.0
102
RTVSPost2010PropOp57
 70
     1
102
RTVSPropertyOp0
 70
     1
102
RTVSPropertyOp1
 70
     1
102
RTVSPropertyOp2
 70
     1
102
RTVSPropertyOp3
 70
     1
102
RTVSPropertyOp4
 70
     1
102
RTVSPropertyOp5
 70
     1
102
RTVSPropertyOp6
 70
     1
102
RTVSPropertyOp7
 70
     1
102
RTVSPropertyOp8
 70
     1
102
RTVSPropertyOp9
 70
     1
102
RTVSPropertyOp10
 70
     1
102
RTVSPropertyOp11
 70
     1
102
RTVSPropertyOp12
 70
     1
102
RTVSPropertyOp13
 70
     1
102
RTVSPropertyOp14
 70
     1
102
RTVSPropertyOp15
 70
     1
102
RTVSPropertyOp16
 70
     1
102
RTVSPropertyOp17
 70
     1
102
RTVSPropertyOp18
 70
     1
102
RTVSPropertyOp19
 70
     1
102
RTVSPropertyOp20
 70
     1
102
RTVSPropertyOp21
 70
     1
102
RTVSPropertyOp22
 70
     1
102
RTVSPropertyOp23
 70
     1
102
RTVSPropertyOp24
 70
     1
102
RTVSPropertyOp25
 70
     1
102
RTVSPropertyOp26
 70
     1
102
RTVSPropertyOp27
 70
     1
102
RTVSPropertyOp28
 70
     1
102
RTVSPropertyOp29
 70
     1
102
RTVSPropertyOp30
 70
     1
102
RTVSPropertyOp31
 70
     1
102
RTVSPropertyOp32
 70
     1
102
RTVSPropertyOp33
 70
     1
102
RTVSPropertyOp34
 70
     1
102
RTVSPropertyOp35
 70
     1
102
RTVSPropertyOp36
 70
     1
102
RTVSPropertyOp37
 70
     1
102
RTVSPropertyOp38
 70
     1
102
RTVSPropertyOp39
 70
     1
102
RTVSPropertyOp40
 70
     1
102
RTVSPropertyOp41
 70
     1
102
RTVSPropertyOp42
 70
     1
102
RTVSPropertyOp43
 70
     1
102
RTVSPropertyOp44
 70
     1
102
RTVSPropertyOp45
 70
     1
102
RTVSPropertyOp46
 70
     1
102
RTVSPropertyOp47
 70
     1
102
RTVSPropertyOp48
 70
     1
102
RTVSPropertyOp49
 70
     1
102
RTVSPropertyOp50
 70
     1
102
RTVSPropertyOp51
 70
     0
102
RTVSPropertyOp52
 70
     0
102
RTVSPropertyOp53
 70
     1
102
RTVSPropertyOp54
 70
     1
102
RTVSPropertyOp55
 70
     1
102
RTVSPropertyOp56
 70
     1
102
RTVSPropertyOp57
 70
     1
102
RTVSPropertyOp58
 70
     1
102
RTVSPropertyOp59
 70
     1
102
RTVSPropertyOp60
 70
     1
102
RTVSPropertyOp61
 70
     1
102
RTVSPropertyOp62
 70
     1
  0
XRECORD
  5
1731
102
{ACAD_REACTORS
330
1730
102
}
330
1730
100
AcDbXrecord
280
     1
102
RTVSPost2010Prop28
280
     0
102
RTVSPost2010PropOp28
 70
     1
102
RTVSPost2010Prop29
280
     1
102
RTVSPost2010PropOp29
 70
     1
102
RTVSPost2010Prop30
280
     1
102
RTVSPost2010PropOp30
 70
     1
102
RTVSPost2010Prop31
280
     0
102
RTVSPost2010PropOp31
 70
     1
102
RTVSPost2010Prop32
280
     0
102
RTVSPost2010PropOp32
 70
     1
102
RTVSPost2010Prop33
280
     0
102
RTVSPost2010PropOp33
 70
     1
102
RTVSPost2010Prop34
280
     0
102
RTVSPost2010PropOp34
 70
     1
102
RTVSPost2010Prop35
280
     0
102
RTVSPost2010PropOp35
 70
     1
102
RTVSPost2010Prop36
280
     0
102
RTVSPost2010PropOp36
 70
     1
102
RTVSPost2010Prop37
 90
       50
102
RTVSPost2010PropOp37
 70
     1
102
RTVSPost2010Prop38
140
0.0
102
RTVSPost2010PropOp38
 70
     1
102
RTVSPost2010Prop39
140
1.0
102
RTVSPost2010PropOp39
 70
     1
102
RTVSPost2010Prop40
 90
        0
102
RTVSPost2010PropOp40
 70
     1
102
RTVSPost2010Prop41ColorIndex
 90
       18
102
RTVSPost2010Prop41ColorRGB
 90
        0
102
RTVSPost2010PropOp41
 70
     1
102
RTVSPost2010Prop42
 90
       50
102
RTVSPost2010PropOp42
 70
     1
102
RTVSPost2010Prop43
 90
        3
102
RTVSPost2010PropOp43
 70
     1
102
RTVSPost2010Prop44ColorIndex
 90
        5
102
RTVSPost2010Prop44ColorRGB
 90
      255
102
RTVSPost2010PropOp44
 70
     1
102
RTVSPost2010Prop45
280
     0
102
RTVSPost2010PropOp45
 70
     1
102
RTVSPost2010Prop46
 90
       50
102
RTVSPost2010PropOp46
 70
     1
102
RTVSPost2010Prop47
 90
       50
102
RTVSPost2010PropOp47
 70
     1
102
RTVSPost2010Prop48
 90
       50
102
RTVSPost2010PropOp48
 70
     1
102
RTVSPost2010Prop49
280
     0
102
RTVSPost2010PropOp49
 70
     1
102
RTVSPost2010Prop50
 90
       50
102
RTVSPost2010PropOp50
 70
     1
102
RTVSPost2010Prop51ColorIndex
 90
      256
102
RTVSPost2010Prop51ColorRGB
 90
-16777216
102
RTVSPost2010PropOp51
 70
     0
102
RTVSPost2010Prop52
140
1.0
102
RTVSPost2010PropOp52
 70
     0
102
RTVSPost2010Prop53
 90
        2
102
RTVSPost2010PropOp53
 70
     1
102
RTVSPost2010Prop54
  1
strokes_ogs.tif
102
RTVSPost2010PropOp54
 70
     1
102
RTVSPost2010Prop55
280
     0
102
RTVSPost2010PropOp55
 70
     1
102
RTVSPost2010Prop56
140
1.0
102
RTVSPost2010PropOp56
 70
     1
102
RTVSPost2010Prop57
140
1.0
102
RTVSPost2010PropOp57
 70
     1
102
RTVSPropertyOp0
 70
     1
102
RTVSPropertyOp1
 70
     1
102
RTVSPropertyOp2
 70
     1
102
RTVSPropertyOp3
 70
     1
102
RTVSPropertyOp4
 70
     1
102
RTVSPropertyOp5
 70
     1
102
RTVSPropertyOp6
 70
     1
102
RTVSPropertyOp7
 70
     1
102
RTVSPropertyOp8
 70
     1
102
RTVSPropertyOp9
 70
     1
102
RTVSPropertyOp10
 70
     1
102
RTVSPropertyOp11
 70
     1
102
RTVSPropertyOp12
 70
     1
102
RTVSPropertyOp13
 70
     1
102
RTVSPropertyOp14
 70
     1
102
RTVSPropertyOp15
 70
     1
102
RTVSPropertyOp16
 70
     1
102
RTVSPropertyOp17
 70
     1
102
RTVSPropertyOp18
 70
     1
102
RTVSPropertyOp19
 70
     1
102
RTVSPropertyOp20
 70
     1
102
RTVSPropertyOp21
 70
     1
102
RTVSPropertyOp22
 70
     1
102
RTVSPropertyOp23
 70
     1
102
RTVSPropertyOp24
 70
     1
102
RTVSPropertyOp25
 70
     1
102
RTVSPropertyOp26
 70
     1
102
RTVSPropertyOp27
 70
     1
102
RTVSPropertyOp28
 70
     1
102
RTVSPropertyOp29
 70
     1
102
RTVSPropertyOp30
 70
     1
102
RTVSPropertyOp31
 70
     1
102
RTVSPropertyOp32
 70
     1
102
RTVSPropertyOp33
 70
     1
102
RTVSPropertyOp34
 70
     1
102
RTVSPropertyOp35
 70
     1
102
RTVSPropertyOp36
 70
     1
102
RTVSPropertyOp37
 70
     1
102
RTVSPropertyOp38
 70
     1
102
RTVSPropertyOp39
 70
     1
102
RTVSPropertyOp40
 70
     1
102
RTVSPropertyOp41
 70
     1
102
RTVSPropertyOp42
 70
     1
102
RTVSPropertyOp43
 70
     1
102
RTVSPropertyOp44
 70
     1
102
RTVSPropertyOp45
 70
     1
102
RTVSPropertyOp46
 70
     1
102
RTVSPropertyOp47
 70
     1
102
RTVSPropertyOp48
 70
     1
102
RTVSPropertyOp49
 70
     1
102
RTVSPropertyOp50
 70
     1
102
RTVSPropertyOp51
 70
     0
102
RTVSPropertyOp52
 70
     0
102
RTVSPropertyOp53
 70
     1
102
RTVSPropertyOp54
 70
     1
102
RTVSPropertyOp55
 70
     1
102
RTVSPropertyOp56
 70
     1
102
RTVSPropertyOp57
 70
     1
102
RTVSPropertyOp58
 70
     1
102
RTVSPropertyOp59
 70
     1
102
RTVSPropertyOp60
 70
     1
102
RTVSPropertyOp61
 70
     1
102
RTVSPropertyOp62
 70
     1
  0
XRECORD
  5
172F
102
{ACAD_REACTORS
330
172E
102
}
330
172E
100
AcDbXrecord
280
     1
102
RTVSPost2010Prop28
280
     0
102
RTVSPost2010PropOp28
 70
     1
102
RTVSPost2010Prop29
280
     1
102
RTVSPost2010PropOp29
 70
     1
102
RTVSPost2010Prop30
280
     1
102
RTVSPost2010PropOp30
 70
     1
102
RTVSPost2010Prop31
280
     0
102
RTVSPost2010PropOp31
 70
     1
102
RTVSPost2010Prop32
280
     0
102
RTVSPost2010PropOp32
 70
     1
102
RTVSPost2010Prop33
280
     0
102
RTVSPost2010PropOp33
 70
     1
102
RTVSPost2010Prop34
280
     0
102
RTVSPost2010PropOp34
 70
     1
102
RTVSPost2010Prop35
280
     0
102
RTVSPost2010PropOp35
 70
     1
102
RTVSPost2010Prop36
280
     0
102
RTVSPost2010PropOp36
 70
     1
102
RTVSPost2010Prop37
 90
       50
102
RTVSPost2010PropOp37
 70
     1
102
RTVSPost2010Prop38
140
0.0
102
RTVSPost2010PropOp38
 70
     1
102
RTVSPost2010Prop39
140
1.0
102
RTVSPost2010PropOp39
 70
     1
102
RTVSPost2010Prop40
 90
        0
102
RTVSPost2010PropOp40
 70
     1
102
RTVSPost2010Prop41ColorIndex
 90
       18
102
RTVSPost2010Prop41ColorRGB
 90
        0
102
RTVSPost2010PropOp41
 70
     1
102
RTVSPost2010Prop42
 90
       50
102
RTVSPost2010PropOp42
 70
     1
102
RTVSPost2010Prop43
 90
        3
102
RTVSPost2010PropOp43
 70
     1
102
RTVSPost2010Prop44ColorIndex
 90
        5
102
RTVSPost2010Prop44ColorRGB
 90
      255
102
RTVSPost2010PropOp44
 70
     1
102
RTVSPost2010Prop45
280
     0
102
RTVSPost2010PropOp45
 70
     1
102
RTVSPost2010Prop46
 90
       50
102
RTVSPost2010PropOp46
 70
     1
102
RTVSPost2010Prop47
 90
       50
102
RTVSPost2010PropOp47
 70
     1
102
RTVSPost2010Prop48
 90
       50
102
RTVSPost2010PropOp48
 70
     1
102
RTVSPost2010Prop49
280
     0
102
RTVSPost2010PropOp49
 70
     1
102
RTVSPost2010Prop50
 90
       50
102
RTVSPost2010PropOp50
 70
     1
102
RTVSPost2010Prop51ColorIndex
 90
      256
102
RTVSPost2010Prop51ColorRGB
 90
-16777216
102
RTVSPost2010PropOp51
 70
     0
102
RTVSPost2010Prop52
140
1.0
102
RTVSPost2010PropOp52
 70
     0
102
RTVSPost2010Prop53
 90
        2
102
RTVSPost2010PropOp53
 70
     1
102
RTVSPost2010Prop54
  1
strokes_ogs.tif
102
RTVSPost2010PropOp54
 70
     1
102
RTVSPost2010Prop55
280
     0
102
RTVSPost2010PropOp55
 70
     1
102
RTVSPost2010Prop56
140
1.0
102
RTVSPost2010PropOp56
 70
     1
102
RTVSPost2010Prop57
140
1.0
102
RTVSPost2010PropOp57
 70
     1
102
RTVSPropertyOp0
 70
     1
102
RTVSPropertyOp1
 70
     1
102
RTVSPropertyOp2
 70
     1
102
RTVSPropertyOp3
 70
     1
102
RTVSPropertyOp4
 70
     1
102
RTVSPropertyOp5
 70
     1
102
RTVSPropertyOp6
 70
     1
102
RTVSPropertyOp7
 70
     1
102
RTVSPropertyOp8
 70
     1
102
RTVSPropertyOp9
 70
     1
102
RTVSPropertyOp10
 70
     1
102
RTVSPropertyOp11
 70
     1
102
RTVSPropertyOp12
 70
     1
102
RTVSPropertyOp13
 70
     1
102
RTVSPropertyOp14
 70
     1
102
RTVSPropertyOp15
 70
     1
102
RTVSPropertyOp16
 70
     1
102
RTVSPropertyOp17
 70
     1
102
RTVSPropertyOp18
 70
     1
102
RTVSPropertyOp19
 70
     1
102
RTVSPropertyOp20
 70
     1
102
RTVSPropertyOp21
 70
     1
102
RTVSPropertyOp22
 70
     1
102
RTVSPropertyOp23
 70
     1
102
RTVSPropertyOp24
 70
     1
102
RTVSPropertyOp25
 70
     1
102
RTVSPropertyOp26
 70
     1
102
RTVSPropertyOp27
 70
     1
102
RTVSPropertyOp28
 70
     1
102
RTVSPropertyOp29
 70
     1
102
RTVSPropertyOp30
 70
     1
102
RTVSPropertyOp31
 70
     1
102
RTVSPropertyOp32
 70
     1
102
RTVSPropertyOp33
 70
     1
102
RTVSPropertyOp34
 70
     1
102
RTVSPropertyOp35
 70
     1
102
RTVSPropertyOp36
 70
     1
102
RTVSPropertyOp37
 70
     1
102
RTVSPropertyOp38
 70
     1
102
RTVSPropertyOp39
 70
     1
102
RTVSPropertyOp40
 70
     1
102
RTVSPropertyOp41
 70
     1
102
RTVSPropertyOp42
 70
     1
102
RTVSPropertyOp43
 70
     1
102
RTVSPropertyOp44
 70
     1
102
RTVSPropertyOp45
 70
     1
102
RTVSPropertyOp46
 70
     1
102
RTVSPropertyOp47
 70
     1
102
RTVSPropertyOp48
 70
     1
102
RTVSPropertyOp49
 70
     1
102
RTVSPropertyOp50
 70
     1
102
RTVSPropertyOp51
 70
     0
102
RTVSPropertyOp52
 70
     0
102
RTVSPropertyOp53
 70
     1
102
RTVSPropertyOp54
 70
     1
102
RTVSPropertyOp55
 70
     1
102
RTVSPropertyOp56
 70
     1
102
RTVSPropertyOp57
 70
     1
102
RTVSPropertyOp58
 70
     1
102
RTVSPropertyOp59
 70
     1
102
RTVSPropertyOp60
 70
     1
102
RTVSPropertyOp61
 70
     1
102
RTVSPropertyOp62
 70
     1
  0
XRECORD
  5
1729
102
{ACAD_REACTORS
330
1728
102
}
330
1728
100
AcDbXrecord
280
     1
102
RTVSPost2010Prop28
280
     0
102
RTVSPost2010PropOp28
 70
     1
102
RTVSPost2010Prop29
280
     1
102
RTVSPost2010PropOp29
 70
     1
102
RTVSPost2010Prop30
280
     1
102
RTVSPost2010PropOp30
 70
     1
102
RTVSPost2010Prop31
280
     0
102
RTVSPost2010PropOp31
 70
     1
102
RTVSPost2010Prop32
280
     0
102
RTVSPost2010PropOp32
 70
     1
102
RTVSPost2010Prop33
280
     0
102
RTVSPost2010PropOp33
 70
     1
102
RTVSPost2010Prop34
280
     0
102
RTVSPost2010PropOp34
 70
     1
102
RTVSPost2010Prop35
280
     0
102
RTVSPost2010PropOp35
 70
     1
102
RTVSPost2010Prop36
280
     0
102
RTVSPost2010PropOp36
 70
     1
102
RTVSPost2010Prop37
 90
       50
102
RTVSPost2010PropOp37
 70
     1
102
RTVSPost2010Prop38
140
0.0
102
RTVSPost2010PropOp38
 70
     1
102
RTVSPost2010Prop39
140
1.0
102
RTVSPost2010PropOp39
 70
     1
102
RTVSPost2010Prop40
 90
        0
102
RTVSPost2010PropOp40
 70
     1
102
RTVSPost2010Prop41ColorIndex
 90
       18
102
RTVSPost2010Prop41ColorRGB
 90
        0
102
RTVSPost2010PropOp41
 70
     1
102
RTVSPost2010Prop42
 90
       50
102
RTVSPost2010PropOp42
 70
     1
102
RTVSPost2010Prop43
 90
        3
102
RTVSPost2010PropOp43
 70
     1
102
RTVSPost2010Prop44ColorIndex
 90
        5
102
RTVSPost2010Prop44ColorRGB
 90
      255
102
RTVSPost2010PropOp44
 70
     1
102
RTVSPost2010Prop45
280
     0
102
RTVSPost2010PropOp45
 70
     1
102
RTVSPost2010Prop46
 90
       50
102
RTVSPost2010PropOp46
 70
     1
102
RTVSPost2010Prop47
 90
       50
102
RTVSPost2010PropOp47
 70
     1
102
RTVSPost2010Prop48
 90
       50
102
RTVSPost2010PropOp48
 70
     1
102
RTVSPost2010Prop49
280
     0
102
RTVSPost2010PropOp49
 70
     1
102
RTVSPost2010Prop50
 90
       50
102
RTVSPost2010PropOp50
 70
     1
102
RTVSPost2010Prop51ColorIndex
 90
      256
102
RTVSPost2010Prop51ColorRGB
 90
-16777216
102
RTVSPost2010PropOp51
 70
     0
102
RTVSPost2010Prop52
140
1.0
102
RTVSPost2010PropOp52
 70
     0
102
RTVSPost2010Prop53
 90
        2
102
RTVSPost2010PropOp53
 70
     1
102
RTVSPost2010Prop54
  1
strokes_ogs.tif
102
RTVSPost2010PropOp54
 70
     1
102
RTVSPost2010Prop55
280
     0
102
RTVSPost2010PropOp55
 70
     1
102
RTVSPost2010Prop56
140
1.0
102
RTVSPost2010PropOp56
 70
     1
102
RTVSPost2010Prop57
140
1.0
102
RTVSPost2010PropOp57
 70
     1
102
RTVSPropertyOp0
 70
     1
102
RTVSPropertyOp1
 70
     1
102
RTVSPropertyOp2
 70
     1
102
RTVSPropertyOp3
 70
     1
102
RTVSPropertyOp4
 70
     1
102
RTVSPropertyOp5
 70
     1
102
RTVSPropertyOp6
 70
     1
102
RTVSPropertyOp7
 70
     1
102
RTVSPropertyOp8
 70
     1
102
RTVSPropertyOp9
 70
     1
102
RTVSPropertyOp10
 70
     1
102
RTVSPropertyOp11
 70
     1
102
RTVSPropertyOp12
 70
     1
102
RTVSPropertyOp13
 70
     1
102
RTVSPropertyOp14
 70
     1
102
RTVSPropertyOp15
 70
     1
102
RTVSPropertyOp16
 70
     1
102
RTVSPropertyOp17
 70
     1
102
RTVSPropertyOp18
 70
     1
102
RTVSPropertyOp19
 70
     1
102
RTVSPropertyOp20
 70
     1
102
RTVSPropertyOp21
 70
     1
102
RTVSPropertyOp22
 70
     1
102
RTVSPropertyOp23
 70
     1
102
RTVSPropertyOp24
 70
     1
102
RTVSPropertyOp25
 70
     1
102
RTVSPropertyOp26
 70
     1
102
RTVSPropertyOp27
 70
     1
102
RTVSPropertyOp28
 70
     1
102
RTVSPropertyOp29
 70
     1
102
RTVSPropertyOp30
 70
     1
102
RTVSPropertyOp31
 70
     1
102
RTVSPropertyOp32
 70
     1
102
RTVSPropertyOp33
 70
     1
102
RTVSPropertyOp34
 70
     1
102
RTVSPropertyOp35
 70
     1
102
RTVSPropertyOp36
 70
     1
102
RTVSPropertyOp37
 70
     1
102
RTVSPropertyOp38
 70
     1
102
RTVSPropertyOp39
 70
     1
102
RTVSPropertyOp40
 70
     1
102
RTVSPropertyOp41
 70
     1
102
RTVSPropertyOp42
 70
     1
102
RTVSPropertyOp43
 70
     1
102
RTVSPropertyOp44
 70
     1
102
RTVSPropertyOp45
 70
     1
102
RTVSPropertyOp46
 70
     1
102
RTVSPropertyOp47
 70
     1
102
RTVSPropertyOp48
 70
     1
102
RTVSPropertyOp49
 70
     1
102
RTVSPropertyOp50
 70
     1
102
RTVSPropertyOp51
 70
     0
102
RTVSPropertyOp52
 70
     0
102
RTVSPropertyOp53
 70
     1
102
RTVSPropertyOp54
 70
     1
102
RTVSPropertyOp55
 70
     1
102
RTVSPropertyOp56
 70
     1
102
RTVSPropertyOp57
 70
     1
102
RTVSPropertyOp58
 70
     1
102
RTVSPropertyOp59
 70
     1
102
RTVSPropertyOp60
 70
     1
102
RTVSPropertyOp61
 70
     1
102
RTVSPropertyOp62
 70
     1
  0
XRECORD
  5
172B
102
{ACAD_REACTORS
330
172A
102
}
330
172A
100
AcDbXrecord
280
     1
102
RTVSPost2010Prop28
280
     0
102
RTVSPost2010PropOp28
 70
     1
102
RTVSPost2010Prop29
280
     1
102
RTVSPost2010PropOp29
 70
     1
102
RTVSPost2010Prop30
280
     1
102
RTVSPost2010PropOp30
 70
     1
102
RTVSPost2010Prop31
280
     0
102
RTVSPost2010PropOp31
 70
     1
102
RTVSPost2010Prop32
280
     0
102
RTVSPost2010PropOp32
 70
     1
102
RTVSPost2010Prop33
280
     0
102
RTVSPost2010PropOp33
 70
     1
102
RTVSPost2010Prop34
280
     0
102
RTVSPost2010PropOp34
 70
     1
102
RTVSPost2010Prop35
280
     0
102
RTVSPost2010PropOp35
 70
     1
102
RTVSPost2010Prop36
280
     0
102
RTVSPost2010PropOp36
 70
     1
102
RTVSPost2010Prop37
 90
       50
102
RTVSPost2010PropOp37
 70
     1
102
RTVSPost2010Prop38
140
0.0
102
RTVSPost2010PropOp38
 70
     1
102
RTVSPost2010Prop39
140
1.0
102
RTVSPost2010PropOp39
 70
     1
102
RTVSPost2010Prop40
 90
        0
102
RTVSPost2010PropOp40
 70
     1
102
RTVSPost2010Prop41ColorIndex
 90
       18
102
RTVSPost2010Prop41ColorRGB
 90
        0
102
RTVSPost2010PropOp41
 70
     1
102
RTVSPost2010Prop42
 90
       50
102
RTVSPost2010PropOp42
 70
     1
102
RTVSPost2010Prop43
 90
        3
102
RTVSPost2010PropOp43
 70
     1
102
RTVSPost2010Prop44ColorIndex
 90
        5
102
RTVSPost2010Prop44ColorRGB
 90
      255
102
RTVSPost2010PropOp44
 70
     1
102
RTVSPost2010Prop45
280
     0
102
RTVSPost2010PropOp45
 70
     1
102
RTVSPost2010Prop46
 90
       50
102
RTVSPost2010PropOp46
 70
     1
102
RTVSPost2010Prop47
 90
       50
102
RTVSPost2010PropOp47
 70
     1
102
RTVSPost2010Prop48
 90
       50
102
RTVSPost2010PropOp48
 70
     1
102
RTVSPost2010Prop49
280
     0
102
RTVSPost2010PropOp49
 70
     1
102
RTVSPost2010Prop50
 90
       50
102
RTVSPost2010PropOp50
 70
     1
102
RTVSPost2010Prop51ColorIndex
 90
      256
102
RTVSPost2010Prop51ColorRGB
 90
-16777216
102
RTVSPost2010PropOp51
 70
     0
102
RTVSPost2010Prop52
140
1.0
102
RTVSPost2010PropOp52
 70
     0
102
RTVSPost2010Prop53
 90
        2
102
RTVSPost2010PropOp53
 70
     1
102
RTVSPost2010Prop54
  1
strokes_ogs.tif
102
RTVSPost2010PropOp54
 70
     1
102
RTVSPost2010Prop55
280
     0
102
RTVSPost2010PropOp55
 70
     1
102
RTVSPost2010Prop56
140
1.0
102
RTVSPost2010PropOp56
 70
     1
102
RTVSPost2010Prop57
140
1.0
102
RTVSPost2010PropOp57
 70
     1
102
RTVSPropertyOp0
 70
     1
102
RTVSPropertyOp1
 70
     1
102
RTVSPropertyOp2
 70
     1
102
RTVSPropertyOp3
 70
     1
102
RTVSPropertyOp4
 70
     1
102
RTVSPropertyOp5
 70
     1
102
RTVSPropertyOp6
 70
     1
102
RTVSPropertyOp7
 70
     1
102
RTVSPropertyOp8
 70
     1
102
RTVSPropertyOp9
 70
     1
102
RTVSPropertyOp10
 70
     1
102
RTVSPropertyOp11
 70
     1
102
RTVSPropertyOp12
 70
     1
102
RTVSPropertyOp13
 70
     1
102
RTVSPropertyOp14
 70
     1
102
RTVSPropertyOp15
 70
     1
102
RTVSPropertyOp16
 70
     1
102
RTVSPropertyOp17
 70
     1
102
RTVSPropertyOp18
 70
     1
102
RTVSPropertyOp19
 70
     1
102
RTVSPropertyOp20
 70
     1
102
RTVSPropertyOp21
 70
     1
102
RTVSPropertyOp22
 70
     1
102
RTVSPropertyOp23
 70
     1
102
RTVSPropertyOp24
 70
     1
102
RTVSPropertyOp25
 70
     1
102
RTVSPropertyOp26
 70
     1
102
RTVSPropertyOp27
 70
     1
102
RTVSPropertyOp28
 70
     1
102
RTVSPropertyOp29
 70
     1
102
RTVSPropertyOp30
 70
     1
102
RTVSPropertyOp31
 70
     1
102
RTVSPropertyOp32
 70
     1
102
RTVSPropertyOp33
 70
     1
102
RTVSPropertyOp34
 70
     1
102
RTVSPropertyOp35
 70
     1
102
RTVSPropertyOp36
 70
     1
102
RTVSPropertyOp37
 70
     1
102
RTVSPropertyOp38
 70
     1
102
RTVSPropertyOp39
 70
     1
102
RTVSPropertyOp40
 70
     1
102
RTVSPropertyOp41
 70
     1
102
RTVSPropertyOp42
 70
     1
102
RTVSPropertyOp43
 70
     1
102
RTVSPropertyOp44
 70
     1
102
RTVSPropertyOp45
 70
     1
102
RTVSPropertyOp46
 70
     1
102
RTVSPropertyOp47
 70
     1
102
RTVSPropertyOp48
 70
     1
102
RTVSPropertyOp49
 70
     1
102
RTVSPropertyOp50
 70
     1
102
RTVSPropertyOp51
 70
     0
102
RTVSPropertyOp52
 70
     0
102
RTVSPropertyOp53
 70
     1
102
RTVSPropertyOp54
 70
     1
102
RTVSPropertyOp55
 70
     1
102
RTVSPropertyOp56
 70
     1
102
RTVSPropertyOp57
 70
     1
102
RTVSPropertyOp58
 70
     1
102
RTVSPropertyOp59
 70
     1
102
RTVSPropertyOp60
 70
     1
102
RTVSPropertyOp61
 70
     1
102
RTVSPropertyOp62
 70
     1
  0
XRECORD
  5
1721
102
{ACAD_REACTORS
330
1720
102
}
330
1720
100
AcDbXrecord
280
     1
102
RTVSPost2010Prop28
280
     0
102
RTVSPost2010PropOp28
 70
     1
102
RTVSPost2010Prop29
280
     1
102
RTVSPost2010PropOp29
 70
     1
102
RTVSPost2010Prop30
280
     1
102
RTVSPost2010PropOp30
 70
     1
102
RTVSPost2010Prop31
280
     0
102
RTVSPost2010PropOp31
 70
     1
102
RTVSPost2010Prop32
280
     0
102
RTVSPost2010PropOp32
 70
     1
102
RTVSPost2010Prop33
280
     0
102
RTVSPost2010PropOp33
 70
     1
102
RTVSPost2010Prop34
280
     0
102
RTVSPost2010PropOp34
 70
     1
102
RTVSPost2010Prop35
280
     0
102
RTVSPost2010PropOp35
 70
     1
102
RTVSPost2010Prop36
280
     0
102
RTVSPost2010PropOp36
 70
     1
102
RTVSPost2010Prop37
 90
       50
102
RTVSPost2010PropOp37
 70
     1
102
RTVSPost2010Prop38
140
0.0
102
RTVSPost2010PropOp38
 70
     1
102
RTVSPost2010Prop39
140
1.0
102
RTVSPost2010PropOp39
 70
     1
102
RTVSPost2010Prop40
 90
        0
102
RTVSPost2010PropOp40
 70
     1
102
RTVSPost2010Prop41ColorIndex
 90
       18
102
RTVSPost2010Prop41ColorRGB
 90
        0
102
RTVSPost2010PropOp41
 70
     1
102
RTVSPost2010Prop42
 90
       50
102
RTVSPost2010PropOp42
 70
     1
102
RTVSPost2010Prop43
 90
        3
102
RTVSPost2010PropOp43
 70
     1
102
RTVSPost2010Prop44ColorIndex
 90
        5
102
RTVSPost2010Prop44ColorRGB
 90
      255
102
RTVSPost2010PropOp44
 70
     1
102
RTVSPost2010Prop45
280
     0
102
RTVSPost2010PropOp45
 70
     1
102
RTVSPost2010Prop46
 90
       50
102
RTVSPost2010PropOp46
 70
     1
102
RTVSPost2010Prop47
 90
       50
102
RTVSPost2010PropOp47
 70
     1
102
RTVSPost2010Prop48
 90
       50
102
RTVSPost2010PropOp48
 70
     1
102
RTVSPost2010Prop49
280
     0
102
RTVSPost2010PropOp49
 70
     1
102
RTVSPost2010Prop50
 90
       50
102
RTVSPost2010PropOp50
 70
     1
102
RTVSPost2010Prop51ColorIndex
 90
      256
102
RTVSPost2010Prop51ColorRGB
 90
-16777216
102
RTVSPost2010PropOp51
 70
     0
102
RTVSPost2010Prop52
140
1.0
102
RTVSPost2010PropOp52
 70
     0
102
RTVSPost2010Prop53
 90
        2
102
RTVSPost2010PropOp53
 70
     1
102
RTVSPost2010Prop54
  1
strokes_ogs.tif
102
RTVSPost2010PropOp54
 70
     1
102
RTVSPost2010Prop55
280
     0
102
RTVSPost2010PropOp55
 70
     1
102
RTVSPost2010Prop56
140
1.0
102
RTVSPost2010PropOp56
 70
     1
102
RTVSPost2010Prop57
140
1.0
102
RTVSPost2010PropOp57
 70
     1
102
RTVSPropertyOp0
 70
     1
102
RTVSPropertyOp1
 70
     1
102
RTVSPropertyOp2
 70
     1
102
RTVSPropertyOp3
 70
     1
102
RTVSPropertyOp4
 70
     1
102
RTVSPropertyOp5
 70
     1
102
RTVSPropertyOp6
 70
     1
102
RTVSPropertyOp7
 70
     1
102
RTVSPropertyOp8
 70
     1
102
RTVSPropertyOp9
 70
     1
102
RTVSPropertyOp10
 70
     1
102
RTVSPropertyOp11
 70
     1
102
RTVSPropertyOp12
 70
     1
102
RTVSPropertyOp13
 70
     1
102
RTVSPropertyOp14
 70
     1
102
RTVSPropertyOp15
 70
     1
102
RTVSPropertyOp16
 70
     1
102
RTVSPropertyOp17
 70
     1
102
RTVSPropertyOp18
 70
     1
102
RTVSPropertyOp19
 70
     1
102
RTVSPropertyOp20
 70
     1
102
RTVSPropertyOp21
 70
     1
102
RTVSPropertyOp22
 70
     1
102
RTVSPropertyOp23
 70
     1
102
RTVSPropertyOp24
 70
     1
102
RTVSPropertyOp25
 70
     1
102
RTVSPropertyOp26
 70
     1
102
RTVSPropertyOp27
 70
     1
102
RTVSPropertyOp28
 70
     1
102
RTVSPropertyOp29
 70
     1
102
RTVSPropertyOp30
 70
     1
102
RTVSPropertyOp31
 70
     1
102
RTVSPropertyOp32
 70
     1
102
RTVSPropertyOp33
 70
     1
102
RTVSPropertyOp34
 70
     1
102
RTVSPropertyOp35
 70
     1
102
RTVSPropertyOp36
 70
     1
102
RTVSPropertyOp37
 70
     1
102
RTVSPropertyOp38
 70
     1
102
RTVSPropertyOp39
 70
     1
102
RTVSPropertyOp40
 70
     1
102
RTVSPropertyOp41
 70
     1
102
RTVSPropertyOp42
 70
     1
102
RTVSPropertyOp43
 70
     1
102
RTVSPropertyOp44
 70
     1
102
RTVSPropertyOp45
 70
     1
102
RTVSPropertyOp46
 70
     1
102
RTVSPropertyOp47
 70
     1
102
RTVSPropertyOp48
 70
     1
102
RTVSPropertyOp49
 70
     1
102
RTVSPropertyOp50
 70
     1
102
RTVSPropertyOp51
 70
     0
102
RTVSPropertyOp52
 70
     0
102
RTVSPropertyOp53
 70
     1
102
RTVSPropertyOp54
 70
     1
102
RTVSPropertyOp55
 70
     1
102
RTVSPropertyOp56
 70
     1
102
RTVSPropertyOp57
 70
     1
102
RTVSPropertyOp58
 70
     1
102
RTVSPropertyOp59
 70
     1
102
RTVSPropertyOp60
 70
     1
102
RTVSPropertyOp61
 70
     1
102
RTVSPropertyOp62
 70
     1
  0
XRECORD
  5
1715
102
{ACAD_REACTORS
330
1714
102
}
330
1714
100
AcDbXrecord
280
     1
102
RTVSPost2010Prop28
280
     0
102
RTVSPost2010PropOp28
 70
     1
102
RTVSPost2010Prop29
280
     1
102
RTVSPost2010PropOp29
 70
     1
102
RTVSPost2010Prop30
280
     1
102
RTVSPost2010PropOp30
 70
     1
102
RTVSPost2010Prop31
280
     0
102
RTVSPost2010PropOp31
 70
     1
102
RTVSPost2010Prop32
280
     0
102
RTVSPost2010PropOp32
 70
     1
102
RTVSPost2010Prop33
280
     0
102
RTVSPost2010PropOp33
 70
     1
102
RTVSPost2010Prop34
280
     0
102
RTVSPost2010PropOp34
 70
     1
102
RTVSPost2010Prop35
280
     0
102
RTVSPost2010PropOp35
 70
     1
102
RTVSPost2010Prop36
280
     0
102
RTVSPost2010PropOp36
 70
     1
102
RTVSPost2010Prop37
 90
       50
102
RTVSPost2010PropOp37
 70
     1
102
RTVSPost2010Prop38
140
0.0
102
RTVSPost2010PropOp38
 70
     1
102
RTVSPost2010Prop39
140
1.0
102
RTVSPost2010PropOp39
 70
     1
102
RTVSPost2010Prop40
 90
        0
102
RTVSPost2010PropOp40
 70
     1
102
RTVSPost2010Prop41ColorIndex
 90
       18
102
RTVSPost2010Prop41ColorRGB
 90
        0
102
RTVSPost2010PropOp41
 70
     1
102
RTVSPost2010Prop42
 90
       50
102
RTVSPost2010PropOp42
 70
     1
102
RTVSPost2010Prop43
 90
        3
102
RTVSPost2010PropOp43
 70
     1
102
RTVSPost2010Prop44ColorIndex
 90
        5
102
RTVSPost2010Prop44ColorRGB
 90
      255
102
RTVSPost2010PropOp44
 70
     1
102
RTVSPost2010Prop45
280
     0
102
RTVSPost2010PropOp45
 70
     1
102
RTVSPost2010Prop46
 90
       50
102
RTVSPost2010PropOp46
 70
     1
102
RTVSPost2010Prop47
 90
       50
102
RTVSPost2010PropOp47
 70
     1
102
RTVSPost2010Prop48
 90
       50
102
RTVSPost2010PropOp48
 70
     1
102
RTVSPost2010Prop49
280
     0
102
RTVSPost2010PropOp49
 70
     1
102
RTVSPost2010Prop50
 90
       50
102
RTVSPost2010PropOp50
 70
     1
102
RTVSPost2010Prop51ColorIndex
 90
      256
102
RTVSPost2010Prop51ColorRGB
 90
-16777216
102
RTVSPost2010PropOp51
 70
     0
102
RTVSPost2010Prop52
140
1.0
102
RTVSPost2010PropOp52
 70
     0
102
RTVSPost2010Prop53
 90
        2
102
RTVSPost2010PropOp53
 70
     1
102
RTVSPost2010Prop54
  1
strokes_ogs.tif
102
RTVSPost2010PropOp54
 70
     1
102
RTVSPost2010Prop55
280
     0
102
RTVSPost2010PropOp55
 70
     1
102
RTVSPost2010Prop56
140
1.0
102
RTVSPost2010PropOp56
 70
     1
102
RTVSPost2010Prop57
140
1.0
102
RTVSPost2010PropOp57
 70
     1
102
RTVSPropertyOp0
 70
     1
102
RTVSPropertyOp1
 70
     1
102
RTVSPropertyOp2
 70
     1
102
RTVSPropertyOp3
 70
     1
102
RTVSPropertyOp4
 70
     1
102
RTVSPropertyOp5
 70
     1
102
RTVSPropertyOp6
 70
     1
102
RTVSPropertyOp7
 70
     1
102
RTVSPropertyOp8
 70
     1
102
RTVSPropertyOp9
 70
     1
102
RTVSPropertyOp10
 70
     1
102
RTVSPropertyOp11
 70
     1
102
RTVSPropertyOp12
 70
     1
102
RTVSPropertyOp13
 70
     1
102
RTVSPropertyOp14
 70
     1
102
RTVSPropertyOp15
 70
     1
102
RTVSPropertyOp16
 70
     1
102
RTVSPropertyOp17
 70
     1
102
RTVSPropertyOp18
 70
     1
102
RTVSPropertyOp19
 70
     1
102
RTVSPropertyOp20
 70
     1
102
RTVSPropertyOp21
 70
     1
102
RTVSPropertyOp22
 70
     1
102
RTVSPropertyOp23
 70
     1
102
RTVSPropertyOp24
 70
     1
102
RTVSPropertyOp25
 70
     1
102
RTVSPropertyOp26
 70
     1
102
RTVSPropertyOp27
 70
     1
102
RTVSPropertyOp28
 70
     1
102
RTVSPropertyOp29
 70
     1
102
RTVSPropertyOp30
 70
     1
102
RTVSPropertyOp31
 70
     1
102
RTVSPropertyOp32
 70
     1
102
RTVSPropertyOp33
 70
     1
102
RTVSPropertyOp34
 70
     1
102
RTVSPropertyOp35
 70
     1
102
RTVSPropertyOp36
 70
     1
102
RTVSPropertyOp37
 70
     1
102
RTVSPropertyOp38
 70
     1
102
RTVSPropertyOp39
 70
     1
102
RTVSPropertyOp40
 70
     1
102
RTVSPropertyOp41
 70
     1
102
RTVSPropertyOp42
 70
     1
102
RTVSPropertyOp43
 70
     1
102
RTVSPropertyOp44
 70
     1
102
RTVSPropertyOp45
 70
     1
102
RTVSPropertyOp46
 70
     1
102
RTVSPropertyOp47
 70
     1
102
RTVSPropertyOp48
 70
     1
102
RTVSPropertyOp49
 70
     1
102
RTVSPropertyOp50
 70
     1
102
RTVSPropertyOp51
 70
     0
102
RTVSPropertyOp52
 70
     0
102
RTVSPropertyOp53
 70
     1
102
RTVSPropertyOp54
 70
     1
102
RTVSPropertyOp55
 70
     1
102
RTVSPropertyOp56
 70
     1
102
RTVSPropertyOp57
 70
     1
102
RTVSPropertyOp58
 70
     1
102
RTVSPropertyOp59
 70
     1
102
RTVSPropertyOp60
 70
     1
102
RTVSPropertyOp61
 70
     1
102
RTVSPropertyOp62
 70
     1
  0
XRECORD
  5
172D
102
{ACAD_REACTORS
330
172C
102
}
330
172C
100
AcDbXrecord
280
     1
102
RTVSPost2010Prop28
280
     0
102
RTVSPost2010PropOp28
 70
     1
102
RTVSPost2010Prop29
280
     1
102
RTVSPost2010PropOp29
 70
     1
102
RTVSPost2010Prop30
280
     1
102
RTVSPost2010PropOp30
 70
     1
102
RTVSPost2010Prop31
280
     0
102
RTVSPost2010PropOp31
 70
     1
102
RTVSPost2010Prop32
280
     0
102
RTVSPost2010PropOp32
 70
     1
102
RTVSPost2010Prop33
280
     0
102
RTVSPost2010PropOp33
 70
     1
102
RTVSPost2010Prop34
280
     0
102
RTVSPost2010PropOp34
 70
     1
102
RTVSPost2010Prop35
280
     0
102
RTVSPost2010PropOp35
 70
     1
102
RTVSPost2010Prop36
280
     0
102
RTVSPost2010PropOp36
 70
     1
102
RTVSPost2010Prop37
 90
       50
102
RTVSPost2010PropOp37
 70
     1
102
RTVSPost2010Prop38
140
0.0
102
RTVSPost2010PropOp38
 70
     1
102
RTVSPost2010Prop39
140
1.0
102
RTVSPost2010PropOp39
 70
     1
102
RTVSPost2010Prop40
 90
        0
102
RTVSPost2010PropOp40
 70
     1
102
RTVSPost2010Prop41ColorIndex
 90
       18
102
RTVSPost2010Prop41ColorRGB
 90
        0
102
RTVSPost2010PropOp41
 70
     1
102
RTVSPost2010Prop42
 90
       50
102
RTVSPost2010PropOp42
 70
     1
102
RTVSPost2010Prop43
 90
        3
102
RTVSPost2010PropOp43
 70
     1
102
RTVSPost2010Prop44ColorIndex
 90
        5
102
RTVSPost2010Prop44ColorRGB
 90
      255
102
RTVSPost2010PropOp44
 70
     1
102
RTVSPost2010Prop45
280
     0
102
RTVSPost2010PropOp45
 70
     1
102
RTVSPost2010Prop46
 90
       50
102
RTVSPost2010PropOp46
 70
     1
102
RTVSPost2010Prop47
 90
       50
102
RTVSPost2010PropOp47
 70
     1
102
RTVSPost2010Prop48
 90
       50
102
RTVSPost2010PropOp48
 70
     1
102
RTVSPost2010Prop49
280
     0
102
RTVSPost2010PropOp49
 70
     1
102
RTVSPost2010Prop50
 90
       50
102
RTVSPost2010PropOp50
 70
     1
102
RTVSPost2010Prop51ColorIndex
 90
      256
102
RTVSPost2010Prop51ColorRGB
 90
-16777216
102
RTVSPost2010PropOp51
 70
     0
102
RTVSPost2010Prop52
140
1.0
102
RTVSPost2010PropOp52
 70
     0
102
RTVSPost2010Prop53
 90
        2
102
RTVSPost2010PropOp53
 70
     1
102
RTVSPost2010Prop54
  1
strokes_ogs.tif
102
RTVSPost2010PropOp54
 70
     1
102
RTVSPost2010Prop55
280
     0
102
RTVSPost2010PropOp55
 70
     1
102
RTVSPost2010Prop56
140
1.0
102
RTVSPost2010PropOp56
 70
     1
102
RTVSPost2010Prop57
140
1.0
102
RTVSPost2010PropOp57
 70
     1
102
RTVSPropertyOp0
 70
     1
102
RTVSPropertyOp1
 70
     1
102
RTVSPropertyOp2
 70
     1
102
RTVSPropertyOp3
 70
     1
102
RTVSPropertyOp4
 70
     1
102
RTVSPropertyOp5
 70
     1
102
RTVSPropertyOp6
 70
     1
102
RTVSPropertyOp7
 70
     1
102
RTVSPropertyOp8
 70
     1
102
RTVSPropertyOp9
 70
     1
102
RTVSPropertyOp10
 70
     1
102
RTVSPropertyOp11
 70
     1
102
RTVSPropertyOp12
 70
     1
102
RTVSPropertyOp13
 70
     1
102
RTVSPropertyOp14
 70
     1
102
RTVSPropertyOp15
 70
     1
102
RTVSPropertyOp16
 70
     1
102
RTVSPropertyOp17
 70
     1
102
RTVSPropertyOp18
 70
     1
102
RTVSPropertyOp19
 70
     1
102
RTVSPropertyOp20
 70
     1
102
RTVSPropertyOp21
 70
     1
102
RTVSPropertyOp22
 70
     1
102
RTVSPropertyOp23
 70
     1
102
RTVSPropertyOp24
 70
     1
102
RTVSPropertyOp25
 70
     1
102
RTVSPropertyOp26
 70
     1
102
RTVSPropertyOp27
 70
     1
102
RTVSPropertyOp28
 70
     1
102
RTVSPropertyOp29
 70
     1
102
RTVSPropertyOp30
 70
     1
102
RTVSPropertyOp31
 70
     1
102
RTVSPropertyOp32
 70
     1
102
RTVSPropertyOp33
 70
     1
102
RTVSPropertyOp34
 70
     1
102
RTVSPropertyOp35
 70
     1
102
RTVSPropertyOp36
 70
     1
102
RTVSPropertyOp37
 70
     1
102
RTVSPropertyOp38
 70
     1
102
RTVSPropertyOp39
 70
     1
102
RTVSPropertyOp40
 70
     1
102
RTVSPropertyOp41
 70
     1
102
RTVSPropertyOp42
 70
     1
102
RTVSPropertyOp43
 70
     1
102
RTVSPropertyOp44
 70
     1
102
RTVSPropertyOp45
 70
     1
102
RTVSPropertyOp46
 70
     1
102
RTVSPropertyOp47
 70
     1
102
RTVSPropertyOp48
 70
     1
102
RTVSPropertyOp49
 70
     1
102
RTVSPropertyOp50
 70
     1
102
RTVSPropertyOp51
 70
     0
102
RTVSPropertyOp52
 70
     0
102
RTVSPropertyOp53
 70
     1
102
RTVSPropertyOp54
 70
     1
102
RTVSPropertyOp55
 70
     1
102
RTVSPropertyOp56
 70
     1
102
RTVSPropertyOp57
 70
     1
102
RTVSPropertyOp58
 70
     1
102
RTVSPropertyOp59
 70
     1
102
RTVSPropertyOp60
 70
     1
102
RTVSPropertyOp61
 70
     1
102
RTVSPropertyOp62
 70
     1
  0
ENDSEC
  0
EOF
