  0
SECTION
  2
HEADER
  9
$ACADVER
  1
AC1015
  9
$ACADMAINTVER
 70
    20
  9
$DWGCODEPAGE
  3
ANSI_932
  9
$INSBASE
 10
0.0
 20
0.0
 30
0.0
  9
$EXTMIN
 10
10.0
 20
9.999999999999998
 30
0.0
  9
$EXTMAX
 10
274.875607
 20
149.0538932105521
 30
0.0
  9
$LIMMIN
 10
0.0
 20
0.0
  9
$LIMMAX
 10
396.0
 20
273.0
  9
$ORTHOMODE
 70
     1
  9
$REGENMODE
 70
     1
  9
$FILLMODE
 70
     1
  9
$QTEXTMODE
 70
     0
  9
$MIRRTEXT
 70
     1
  9
$LTSCALE
 40
20.0
  9
$ATTMODE
 70
     1
  9
$TEXTSIZE
 40
5.0
  9
$TRACEWID
 40
1.0
  9
$TEXTSTYLE
  7
STANDARD
  9
$CLAYER
  8
0
  9
$CELTYPE
  6
BYLAYER
  9
$CECOLOR
 62
   256
  9
$CELTSCALE
 40
1.0
  9
$DISPSILH
 70
     0
  9
$DIMSCALE
 40
1.0
  9
$DIMASZ
 40
3.0
  9
$DIMEXO
 40
1.0
  9
$DIMDLI
 40
10.0
  9
$DIMRND
 40
0.0
  9
$DIMDLE
 40
0.0
  9
$DIMEXE
 40
1.0
  9
$DIMTP
 40
0.0
  9
$DIMTM
 40
0.0
  9
$DIMTXT
 40
3.2
  9
$DIMCEN
 40
0.0
  9
$DIMTSZ
 40
0.0
  9
$DIMTOL
 70
     0
  9
$DIMLIM
 70
     0
  9
$DIMTIH
 70
     0
  9
$DIMTOH
 70
     0
  9
$DIMSE1
 70
     0
  9
$DIMSE2
 70
     0
  9
$DIMTAD
 70
     3
  9
$DIMZIN
 70
     8
  9
$DIMBLK
  1

  9
$DIMASO
 70
     1
  9
$DIMSHO
 70
     1
  9
$DIMPOST
  1

  9
$DIMAPOST
  1

  9
$DIMALT
 70
     0
  9
$DIMALTD
 70
     2
  9
$DIMALTF
 40
25.4
  9
$DIMLFAC
 40
1.0
  9
$DIMTOFL
 70
     1
  9
$DIMTVP
 40
0.0
  9
$DIMTIX
 70
     0
  9
$DIMSOXD
 70
     0
  9
$DIMSAH
 70
     1
  9
$DIMBLK1
  1

  9
$DIMBLK2
  1

  9
$DIMSTYLE
  2
STANDARD
  9
$DIMCLRD
 70
     0
  9
$DIMCLRE
 70
     0
  9
$DIMCLRT
 70
     0
  9
$DIMTFAC
 40
1.0
  9
$DIMGAP
 40
1.0
  9
$DIMJUST
 70
     0
  9
$DIMSD1
 70
     0
  9
$DIMSD2
 70
     0
  9
$DIMTOLJ
 70
     1
  9
$DIMTZIN
 70
     0
  9
$DIMALTZ
 70
     0
  9
$DIMALTTZ
 70
     0
  9
$DIMUPT
 70
     0
  9
$DIMDEC
 70
     4
  9
$DIMTDEC
 70
     4
  9
$DIMALTU
 70
     2
  9
$DIMALTTD
 70
     2
  9
$DIMTXSTY
  7
STANDARD
  9
$DIMAUNIT
 70
     0
  9
$DIMADEC
 70
     0
  9
$DIMALTRND
 40
0.0
  9
$DIMAZIN
 70
     0
  9
$DIMDSEP
 70
    46
  9
$DIMATFIT
 70
     3
  9
$DIMFRAC
 70
     0
  9
$DIMLDRBLK
  1

  9
$DIMLUNIT
 70
     2
  9
$DIMLWD
 70
    -2
  9
$DIMLWE
 70
    -2
  9
$DIMTMOVE
 70
     0
  9
$LUNITS
 70
     2
  9
$LUPREC
 70
     4
  9
$SKETCHINC
 40
1.0
  9
$FILLETRAD
 40
2.5
  9
$AUNITS
 70
     0
  9
$AUPREC
 70
     2
  9
$MENU
  1
.
  9
$ELEVATION
 40
0.0
  9
$PELEVATION
 40
0.0
  9
$THICKNESS
 40
0.0
  9
$LIMCHECK
 70
     0
  9
$CHAMFERA
 40
10.0
  9
$CHAMFERB
 40
10.0
  9
$CHAMFERC
 40
0.0
  9
$CHAMFERD
 40
0.0
  9
$SKPOLY
 70
     0
  9
$TDCREATE
 40
2451073.682031482
  9
$TDUCREATE
 40
2451073.307031482
  9
$TDUPDATE
 40
2457192.599084260
  9
$TDUUPDATE
 40
2457192.224084260
  9
$TDINDWG
 40
0.0000140741
  9
$TDUSRTIMER
 40
0.0000135648
  9
$USRTIMER
 70
     1
  9
$ANGBASE
 50
0.0
  9
$ANGDIR
 70
     0
  9
$PDMODE
 70
     0
  9
$PDSIZE
 40
0.0
  9
$PLINEWID
 40
0.0
  9
$SPLFRAME
 70
     0
  9
$SPLINETYPE
 70
     6
  9
$SPLINESEGS
 70
     8
  9
$HANDSEED
  5
9802
  9
$SURFTAB1
 70
     6
  9
$SURFTAB2
 70
     6
  9
$SURFTYPE
 70
     6
  9
$SURFU
 70
     6
  9
$SURFV
 70
     6
  9
$UCSBASE
  2

  9
$UCSNAME
  2

  9
$UCSORG
 10
0.0
 20
0.0
 30
0.0
  9
$UCSXDIR
 10
1.0
 20
0.0
 30
0.0
  9
$UCSYDIR
 10
0.0
 20
1.0
 30
0.0
  9
$UCSORTHOREF
  2

  9
$UCSORTHOVIEW
 70
     0
  9
$UCSORGTOP
 10
0.0
 20
0.0
 30
0.0
  9
$UCSORGBOTTOM
 10
0.0
 20
0.0
 30
0.0
  9
$UCSORGLEFT
 10
0.0
 20
0.0
 30
0.0
  9
$UCSORGRIGHT
 10
0.0
 20
0.0
 30
0.0
  9
$UCSORGFRONT
 10
0.0
 20
0.0
 30
0.0
  9
$UCSORGBACK
 10
0.0
 20
0.0
 30
0.0
  9
$PUCSBASE
  2

  9
$PUCSNAME
  2

  9
$PUCSORG
 10
0.0
 20
0.0
 30
0.0
  9
$PUCSXDIR
 10
1.0
 20
0.0
 30
0.0
  9
$PUCSYDIR
 10
0.0
 20
1.0
 30
0.0
  9
$PUCSORTHOREF
  2

  9
$PUCSORTHOVIEW
 70
     0
  9
$PUCSORGTOP
 10
0.0
 20
0.0
 30
0.0
  9
$PUCSORGBOTTOM
 10
0.0
 20
0.0
 30
0.0
  9
$PUCSORGLEFT
 10
0.0
 20
0.0
 30
0.0
  9
$PUCSORGRIGHT
 10
0.0
 20
0.0
 30
0.0
  9
$PUCSORGFRONT
 10
0.0
 20
0.0
 30
0.0
  9
$PUCSORGBACK
 10
0.0
 20
0.0
 30
0.0
  9
$USERI1
 70
     0
  9
$USERI2
 70
     0
  9
$USERI3
 70
     0
  9
$USERI4
 70
     0
  9
$USERI5
 70
     0
  9
$USERR1
 40
0.0
  9
$USERR2
 40
0.0
  9
$USERR3
 40
0.0
  9
$USERR4
 40
0.0
  9
$USERR5
 40
0.0
  9
$WORLDVIEW
 70
     1
  9
$SHADEDGE
 70
     3
  9
$SHADEDIF
 70
    70
  9
$TILEMODE
 70
     1
  9
$MAXACTVP
 70
    16
  9
$PINSBASE
 10
0.0
 20
0.0
 30
0.0
  9
$PLIMCHECK
 70
     0
  9
$PEXTMIN
 10
1.000000000000000E+20
 20
1.000000000000000E+20
 30
1.000000000000000E+20
  9
$PEXTMAX
 10
-1.000000000000000E+20
 20
-1.000000000000000E+20
 30
-1.000000000000000E+20
  9
$PLIMMIN
 10
0.0
 20
0.0
  9
$PLIMMAX
 10
420.0
 20
297.0
  9
$UNITMODE
 70
     0
  9
$VISRETAIN
 70
     0
  9
$PLINEGEN
 70
     0
  9
$PSLTSCALE
 70
     0
  9
$TREEDEPTH
 70
  3020
  9
$CMLSTYLE
  2
STANDARD
  9
$CMLJUST
 70
     0
  9
$CMLSCALE
 40
1.0
  9
$PROXYGRAPHICS
 70
     1
  9
$MEASUREMENT
 70
     0
  9
$CELWEIGHT
370
    -1
  9
$ENDCAPS
280
     0
  9
$JOINSTYLE
280
     0
  9
$LWDISPLAY
290
     0
  9
$INSUNITS
 70
     0
  9
$HYPERLINKBASE
  1

  9
$STYLESHEET
  1

  9
$XEDIT
290
     1
  9
$CEPSNTYPE
380
     0
  9
$PSTYLEMODE
290
     1
  9
$FINGERPRINTGUID
  2
{9E27434F-4ED1-49F4-B96E-52E3E74C4344}
  9
$VERSIONGUID
  2
{F205E0B5-B816-4BC1-BCD7-4DCC3B60D446}
  9
$EXTNAMES
290
     1
  9
$PSVPSCALE
 40
0.0
  9
$OLESTARTUP
290
     0
  0
ENDSEC
  0
SECTION
  2
CLASSES
  0
CLASS
  1
ACDBDICTIONARYWDFLT
  2
AcDbDictionaryWithDefault
  3
ObjectDBX Classes
 90
        0
280
     0
281
     0
  0
CLASS
  1
ACDBPLACEHOLDER
  2
AcDbPlaceHolder
  3
ObjectDBX Classes
 90
        0
280
     0
281
     0
  0
CLASS
  1
LAYOUT
  2
AcDbLayout
  3
ObjectDBX Classes
 90
        0
280
     0
281
     0
  0
CLASS
  1
DICTIONARYVAR
  2
AcDbDictionaryVar
  3
ObjectDBX Classes
 90
        0
280
     0
281
     0
  0
CLASS
  1
MATERIAL
  2
AcDbMaterial
  3
ObjectDBX Classes
 90
     1153
280
     0
281
     0
  0
CLASS
  1
VISUALSTYLE
  2
AcDbVisualStyle
  3
ObjectDBX Classes
 90
     4095
280
     0
281
     0
  0
CLASS
  1
TABLESTYLE
  2
AcDbTableStyle
  3
ObjectDBX Classes
 90
     4095
280
     0
281
     0
  0
CLASS
  1
SCALE
  2
AcDbScale
  3
ObjectDBX Classes
 90
     1153
280
     0
281
     0
  0
CLASS
  1
MLEADERSTYLE
  2
AcDbMLeaderStyle
  3
ACDB_MLEADERSTYLE_CLASS
 90
     4095
280
     0
281
     0
  0
CLASS
  1
ACDBSECTIONVIEWSTYLE
  2
AcDbSectionViewStyle
  3
ObjectDBX Classes
 90
     1025
280
     0
281
     0
  0
CLASS
  1
ACDBDETAILVIEWSTYLE
  2
AcDbDetailViewStyle
  3
ObjectDBX Classes
 90
     1025
280
     0
281
     0
  0
CLASS
  1
CELLSTYLEMAP
  2
AcDbCellStyleMap
  3
ObjectDBX Classes
 90
     1152
280
     0
281
     0
  0
ENDSEC
  0
SECTION
  2
TABLES
  0
TABLE
  2
VPORT
  5
9560
330
0
100
AcDbSymbolTable
 70
     1
  0
VPORT
  5
974B
330
9560
100
AcDbSymbolTableRecord
100
AcDbViewportTableRecord
  2
*ACTIVE
 70
     0
 10
0.0
 20
0.0
 11
1.0
 21
1.0
 12
188.0485341678075
 22
79.52433070845931
 13
0.0
 23
0.0
 14
10.0
 24
10.0
 15
10.0
 25
10.0
 16
0.0
 26
0.0
 36
1.0
 17
0.0
 27
0.0
 37
0.0
 40
152.2680767989191
 41
1.899603698811096
 42
50.0
 43
0.0
 44
0.0
 50
0.0
 51
0.0
 71
     0
 72
   100
 73
     1
 74
     0
 75
     0
 76
     0
 77
     0
 78
     0
281
     0
 65
     1
110
0.0
120
0.0
130
0.0
111
1.0
121
0.0
131
0.0
112
0.0
122
1.0
132
0.0
 79
     0
146
0.0
1001
ACAD_NAV_VCDISPLAY
1070
     3
  0
ENDTAB
  0
TABLE
  2
LTYPE
  5
955D
330
0
100
AcDbSymbolTable
 70
     4
  0
LTYPE
  5
956B
330
955D
100
AcDbSymbolTableRecord
100
AcDbLinetypeTableRecord
  2
BYBLOCK
 70
     0
  3

 72
    65
 73
     0
 40
0.0
  0
LTYPE
  5
956C
330
955D
100
AcDbSymbolTableRecord
100
AcDbLinetypeTableRecord
  2
BYLAYER
 70
     0
  3

 72
    65
 73
     0
 40
0.0
  0
LTYPE
  5
956D
330
955D
100
AcDbSymbolTableRecord
100
AcDbLinetypeTableRecord
  2
CONTINUOUS
 70
     0
  3
Solid line
 72
    65
 73
     0
 40
0.0
  0
LTYPE
  5
957B
330
955D
100
AcDbSymbolTableRecord
100
AcDbLinetypeTableRecord
  2
DASHED
 70
     0
  3
__ __ __ __ __ __ __ __ __ __ __ __ __ __ __ __
 72
    65
 73
     2
 40
0.75
 49
0.5
 74
     0
 49
-0.25
 74
     0
  0
LTYPE
  5
957C
330
955D
100
AcDbSymbolTableRecord
100
AcDbLinetypeTableRecord
  2
CENTER
 70
     0
  3
____ _ ____ _ ____ _ ____ _ ____ _ ____ _ ____ 
 72
    65
 73
     4
 40
2.0
 49
1.25
 74
     0
 49
-0.25
 74
     0
 49
0.25
 74
     0
 49
-0.25
 74
     0
  0
LTYPE
  5
957D
330
955D
100
AcDbSymbolTableRecord
100
AcDbLinetypeTableRecord
  2
PHANTOM
 70
     0
  3
______  __  __  ______  __  __  ______  __  __ 
 72
    65
 73
     6
 40
2.5
 49
1.25
 74
     0
 49
-0.25
 74
     0
 49
0.25
 74
     0
 49
-0.25
 74
     0
 49
0.25
 74
     0
 49
-0.25
 74
     0
  0
ENDTAB
  0
TABLE
  2
LAYER
  5
955A
330
0
100
AcDbSymbolTable
 70
     8
  0
LAYER
  5
9568
102
{ACAD_XDICTIONARY
360
97A6
102
}
330
955A
100
AcDbSymbolTableRecord
100
AcDbLayerTableRecord
  2
0
 70
     0
 62
     7
  6
CONTINUOUS
370
    -3
390
9754
  0
LAYER
  5
957E
102
{ACAD_XDICTIONARY
360
97A8
102
}
330
955A
100
AcDbSymbolTableRecord
100
AcDbLayerTableRecord
  2
4
 70
     0
 62
     1
  6
CENTER
370
    -3
390
9754
  0
LAYER
  5
957F
102
{ACAD_XDICTIONARY
360
97AA
102
}
330
955A
100
AcDbSymbolTableRecord
100
AcDbLayerTableRecord
  2
5
 70
     0
 62
     6
  6
PHANTOM
370
    -3
390
9754
  0
LAYER
  5
9580
102
{ACAD_XDICTIONARY
360
97AC
102
}
330
955A
100
AcDbSymbolTableRecord
100
AcDbLayerTableRecord
  2
1
 70
     0
 62
     7
  6
CONTINUOUS
370
    -3
390
9754
  0
LAYER
  5
9581
102
{ACAD_XDICTIONARY
360
97AE
102
}
330
955A
100
AcDbSymbolTableRecord
100
AcDbLayerTableRecord
  2
2
 70
     0
 62
     4
  6
CONTINUOUS
370
    -3
390
9754
  0
LAYER
  5
9582
102
{ACAD_XDICTIONARY
360
97B0
102
}
330
955A
100
AcDbSymbolTableRecord
100
AcDbLayerTableRecord
  2
3
 70
     0
 62
     2
  6
DASHED
370
    -3
390
9754
  0
LAYER
  5
9583
102
{ACAD_XDICTIONARY
360
97B2
102
}
330
955A
100
AcDbSymbolTableRecord
100
AcDbLayerTableRecord
  2
6
 70
     0
 62
     5
  6
CONTINUOUS
370
    -3
390
9754
  0
LAYER
  5
9584
102
{ACAD_XDICTIONARY
360
97B4
102
}
330
955A
100
AcDbSymbolTableRecord
100
AcDbLayerTableRecord
  2
7
 70
     0
 62
     3
  6
CONTINUOUS
370
    -3
390
9754
  0
ENDTAB
  0
TABLE
  2
STYLE
  5
955B
330
0
100
AcDbSymbolTable
 70
     1
  0
STYLE
  5
9569
330
955B
100
AcDbSymbolTableRecord
100
AcDbTextStyleTableRecord
  2
STANDARD
 70
     0
 40
0.0
 41
1.0
 50
0.0
 71
     0
 42
5.0
  3
txt
  4

  0
ENDTAB
  0
TABLE
  2
VIEW
  5
955E
330
0
100
AcDbSymbolTable
 70
     0
  0
ENDTAB
  0
TABLE
  2
UCS
  5
955F
330
0
100
AcDbSymbolTable
 70
     0
  0
ENDTAB
  0
TABLE
  2
APPID
  5
9561
330
0
100
AcDbSymbolTable
 70
     3
  0
APPID
  5
956A
330
9561
100
AcDbSymbolTableRecord
100
AcDbRegAppTableRecord
  2
ACAD
 70
     0
  0
APPID
  5
97C0
330
9561
100
AcDbSymbolTableRecord
100
AcDbRegAppTableRecord
  2
ACAD_NAV_VCDISPLAY
 70
     0
  0
APPID
  5
97F9
330
9561
100
AcDbSymbolTableRecord
100
AcDbRegAppTableRecord
  2
ACAD_MLEADERVER
 70
     0
  0
ENDTAB
  0
TABLE
  2
DIMSTYLE
  5
9562
330
0
100
AcDbSymbolTable
 70
     1
100
AcDbDimStyleTable
 71
     0
  0
DIMSTYLE
105
9586
330
9562
100
AcDbSymbolTableRecord
100
AcDbDimStyleTableRecord
  2
STANDARD
 70
     0
 41
3.0
 42
1.0
 43
10.0
 44
1.0
 73
     0
 74
     0
 77
     3
 78
     8
140
3.2
141
0.0
147
1.0
172
     1
173
     1
284
     8
285
     8
286
     8
340
9569
  0
ENDTAB
  0
TABLE
  2
BLOCK_RECORD
  5
9559
330
0
100
AcDbSymbolTable
 70
     0
  0
BLOCK_RECORD
  5
9576
102
{ACAD_XDICTIONARY
360
974E
102
}
330
9559
100
AcDbSymbolTableRecord
100
AcDbBlockTableRecord
  2
*MODEL_SPACE
340
97A2
  0
BLOCK_RECORD
  5
9572
102
{ACAD_XDICTIONARY
360
974C
102
}
330
9559
100
AcDbSymbolTableRecord
100
AcDbBlockTableRecord
  2
*PAPER_SPACE
340
97A3
  0
ENDTAB
  0
ENDSEC
  0
SECTION
  2
BLOCKS
  0
BLOCK
  5
9577
330
9576
100
AcDbEntity
  8
0
100
AcDbBlockBegin
  2
*MODEL_SPACE
 70
     0
 10
0.0
 20
0.0
 30
0.0
  3
*MODEL_SPACE
  1

  0
ENDBLK
  5
9578
330
9576
100
AcDbEntity
  8
0
100
AcDbBlockEnd
  0
BLOCK
  5
9573
330
9572
100
AcDbEntity
 67
     1
  8
0
100
AcDbBlockBegin
  2
*PAPER_SPACE
 70
     0
 10
0.0
 20
0.0
 30
0.0
  3
*PAPER_SPACE
  1

  0
ENDBLK
  5
9574
330
9572
100
AcDbEntity
 67
     1
  8
0
100
AcDbBlockEnd
  0
ENDSEC
  0
SECTION
  2
ENTITIES
  0
TEXT
  5
958E
330
9576
100
AcDbEntity
  8
7
  6
Continuous
100
AcDbText
 10
10.0
 20
18.0
 30
0.0
 40
3.0
  1
TYPE No.TL-157
100
AcDbText
  0
TEXT
  5
958F
330
9576
100
AcDbEntity
  8
7
  6
Continuous
100
AcDbText
 10
10.0
 20
26.0
 30
0.0
 40
3.0
  1
CODE No.1527
100
AcDbText
  0
TEXT
  5
9590
330
9576
100
AcDbEntity
  8
1
  6
Continuous
100
AcDbText
 10
10.0
 20
10.0
 30
0.0
 40
1.399999999999999
  1
LAYER
100
AcDbText
  0
TEXT
  5
9591
330
9576
100
AcDbEntity
  8
1
  6
Continuous
100
AcDbText
 10
17.97951099999998
 20
10.04873699999998
 30
0.0
 40
1.399999999999999
  1
1
100
AcDbText
  0
TEXT
  5
9592
330
9576
100
AcDbEntity
  8
7
  6
Continuous
100
AcDbText
 10
29.97951099999999
 20
10.04873699999998
 30
0.0
 40
1.399999999999999
  1
7
100
AcDbText
  0
TEXT
  5
9593
330
9576
100
AcDbEntity
  8
4
  6
CENTER
100
AcDbText
 10
23.97951099999999
 20
10.04873699999998
 30
0.0
 40
1.399999999999999
  1
4
100
AcDbText
  0
TEXT
  5
9594
330
9576
100
AcDbEntity
  8
3
  6
DASHED
100
AcDbText
 10
21.979511
 20
10.04873699999998
 30
0.0
 40
1.399999999999999
  1
3
100
AcDbText
  0
TEXT
  5
9595
330
9576
100
AcDbEntity
  8
2
  6
Continuous
100
AcDbText
 10
19.97951099999999
 20
10.04873699999998
 30
0.0
 40
1.399999999999999
  1
2
100
AcDbText
  0
TEXT
  5
9596
330
9576
100
AcDbEntity
  8
6
  6
Continuous
100
AcDbText
 10
27.979511
 20
10.04873699999998
 30
0.0
 40
1.399999999999999
  1
6
100
AcDbText
  0
TEXT
  5
9597
330
9576
100
AcDbEntity
  8
5
  6
PHANTOM
100
AcDbText
 10
25.97951099999999
 20
10.04873699999998
 30
0.0
 40
1.399999999999999
  1
5
100
AcDbText
  0
LINE
  5
9598
330
9576
100
AcDbEntity
  8
1
  6
Continuous
100
AcDbLine
 10
22.12181699999999
 20
97.502188
 30
0.0
 11
22.12181699999999
 21
90.60548799999999
 31
0.0
  0
LINE
  5
9599
330
9576
100
AcDbEntity
  8
1
  6
Continuous
100
AcDbLine
 10
23.321817
 20
97.502188
 30
0.0
 11
23.321817
 21
90.60548799999999
 31
0.0
  0
LINE
  5
959A
330
9576
100
AcDbEntity
  8
1
  6
Continuous
100
AcDbLine
 10
83.041517
 20
40.553688
 30
0.0
 11
93.54181700000003
 21
40.553688
 31
0.0
  0
LINE
  5
959B
330
9576
100
AcDbEntity
  8
1
  6
Continuous
100
AcDbLine
 10
83.041517
 20
47.553688
 30
0.0
 11
93.54181700000003
 21
47.553688
 31
0.0
  0
LINE
  5
959C
330
9576
100
AcDbEntity
  8
1
  6
Continuous
100
AcDbLine
 10
93.54181700000003
 20
48.803688
 30
0.0
 11
93.54181700000003
 21
39.303688
 31
0.0
  0
LINE
  5
959D
330
9576
100
AcDbEntity
  8
1
  6
Continuous
100
AcDbLine
 10
83.041517
 20
47.553688
 30
0.0
 11
83.041517
 21
44.653688
 31
0.0
  0
LINE
  5
959E
330
9576
100
AcDbEntity
  8
4
  6
CENTER
100
AcDbLine
 10
80.993717
 20
44.053688
 30
0.0
 11
118.920817
 21
44.053688
 31
0.0
  0
LINE
  5
959F
330
9576
100
AcDbEntity
  8
1
  6
Continuous
100
AcDbLine
 10
83.541517
 20
47.053688
 30
0.0
 11
93.54181700000003
 21
47.053688
 31
0.0
  0
LINE
  5
95A0
330
9576
100
AcDbEntity
  8
1
  6
Continuous
100
AcDbLine
 10
84.04151699999998
 20
46.553688
 30
0.0
 11
93.54181700000003
 21
46.553688
 31
0.0
  0
LINE
  5
95A1
330
9576
100
AcDbEntity
  8
1
  6
Continuous
100
AcDbLine
 10
84.541517
 20
46.05368799999999
 30
0.0
 11
93.54181700000003
 21
46.05368799999999
 31
0.0
  0
LINE
  5
95A2
330
9576
100
AcDbEntity
  8
1
  6
Continuous
100
AcDbLine
 10
85.04151699999999
 20
45.553688
 30
0.0
 11
93.54181700000003
 21
45.553688
 31
0.0
  0
LINE
  5
95A3
330
9576
100
AcDbEntity
  8
1
  6
Continuous
100
AcDbLine
 10
85.54181699999999
 20
45.053688
 30
0.0
 11
93.54181700000003
 21
45.053688
 31
0.0
  0
LINE
  5
95A4
330
9576
100
AcDbEntity
  8
1
  6
Continuous
100
AcDbLine
 10
97.54181700000003
 20
49.053688
 30
0.0
 11
97.54181700000003
 21
39.053688
 31
0.0
  0
LINE
  5
95A5
330
9576
100
AcDbEntity
  8
1
  6
Continuous
100
AcDbLine
 10
93.54181700000003
 20
39.303688
 30
0.0
 11
97.54181700000003
 21
39.053688
 31
0.0
  0
LINE
  5
95A6
330
9576
100
AcDbEntity
  8
1
  6
Continuous
100
AcDbLine
 10
97.54181700000003
 20
49.053688
 30
0.0
 11
93.54181700000003
 21
48.803688
 31
0.0
  0
LINE
  5
95A7
330
9576
100
AcDbEntity
  8
4
  6
CENTER
100
AcDbLine
 10
34.554317
 20
94.05318800000001
 30
0.0
 11
15.221817
 21
94.05318800000001
 31
0.0
  0
LINE
  5
95A8
330
9576
100
AcDbEntity
  8
4
  6
CENTER
100
AcDbLine
 10
22.721817
 20
101.553188
 30
0.0
 11
22.721817
 21
82.35288799999997
 31
0.0
  0
LINE
  5
95A9
330
9576
100
AcDbEntity
  8
1
  6
Continuous
100
AcDbLine
 10
69.23781700000001
 20
44.500288
 30
0.0
 11
67.737817
 21
44.500288
 31
0.0
  0
LINE
  5
95AA
330
9576
100
AcDbEntity
  8
1
  6
Continuous
100
AcDbLine
 10
69.23781700000001
 20
43.607088
 30
0.0
 11
67.737817
 21
43.607088
 31
0.0
  0
LINE
  5
95AB
330
9576
100
AcDbEntity
  8
1
  6
Continuous
100
AcDbLine
 10
67.737817
 20
39.053688
 30
0.0
 11
67.737817
 21
49.053688
 31
0.0
  0
LINE
  5
95AC
330
9576
100
AcDbEntity
  8
1
  6
Continuous
100
AcDbLine
 10
69.23781700000001
 20
43.607088
 30
0.0
 11
69.23781700000001
 21
44.500288
 31
0.0
  0
LINE
  5
95AD
330
9576
100
AcDbEntity
  8
4
  6
CENTER
100
AcDbLine
 10
71.086517
 20
44.053688
 30
0.0
 11
66.150317
 21
44.053688
 31
0.0
  0
LINE
  5
95AE
330
9576
100
AcDbEntity
  8
1
  6
Continuous
100
AcDbLine
 10
69.23781700000001
 20
49.053688
 30
0.0
 11
67.737817
 21
49.053688
 31
0.0
  0
LINE
  5
95AF
330
9576
100
AcDbEntity
  8
1
  6
Continuous
100
AcDbLine
 10
69.23781700000001
 20
39.053688
 30
0.0
 11
67.737817
 21
39.053688
 31
0.0
  0
LINE
  5
95B0
330
9576
100
AcDbEntity
  8
1
  6
Continuous
100
AcDbLine
 10
69.23781700000001
 20
88.55368799999999
 30
0.0
 11
67.737817
 21
88.55368799999999
 31
0.0
  0
LINE
  5
95B1
330
9576
100
AcDbEntity
  8
1
  6
Continuous
100
AcDbLine
 10
69.23781700000001
 20
99.553188
 30
0.0
 11
67.737817
 21
99.553188
 31
0.0
  0
LINE
  5
95B2
330
9576
100
AcDbEntity
  8
1
  6
Continuous
100
AcDbLine
 10
69.23781700000001
 20
90.86918799999999
 30
0.0
 11
67.737817
 21
90.86918799999999
 31
0.0
  0
LINE
  5
95B3
330
9576
100
AcDbEntity
  8
1
  6
Continuous
100
AcDbLine
 10
69.23781700000001
 20
91.762388
 30
0.0
 11
67.737817
 21
91.762388
 31
0.0
  0
LINE
  5
95B4
330
9576
100
AcDbEntity
  8
1
  6
Continuous
100
AcDbLine
 10
69.23781700000001
 20
96.34518800000002
 30
0.0
 11
67.737817
 21
96.34518800000002
 31
0.0
  0
LINE
  5
95B5
330
9576
100
AcDbEntity
  8
1
  6
Continuous
100
AcDbLine
 10
69.23781700000001
 20
97.238188
 30
0.0
 11
67.737817
 21
97.238188
 31
0.0
  0
LINE
  5
95B6
330
9576
100
AcDbEntity
  8
1
  6
Continuous
100
AcDbLine
 10
69.737817
 20
99.05318800000001
 30
0.0
 11
69.737817
 21
89.05368799999996
 31
0.0
  0
LINE
  5
95B7
330
9576
100
AcDbEntity
  8
1
  6
Continuous
100
AcDbLine
 10
67.737817
 20
99.553188
 30
0.0
 11
67.737817
 21
88.55368799999999
 31
0.0
  0
LINE
  5
95B8
330
9576
100
AcDbEntity
  8
4
  6
CENTER
100
AcDbLine
 10
71.54531699999998
 20
94.05318800000001
 30
0.0
 11
65.846017
 21
94.05318800000001
 31
0.0
  0
LINE
  5
95B9
330
9576
100
AcDbEntity
  8
1
  6
Continuous
100
AcDbLine
 10
18.237517
 20
97.238188
 30
0.0
 11
22.206117
 21
99.529188
 31
0.0
  0
LINE
  5
95BA
330
9576
100
AcDbEntity
  8
1
  6
Continuous
100
AcDbLine
 10
17.721817
 20
96.34518800000002
 30
0.0
 11
17.721817
 21
91.762388
 31
0.0
  0
LINE
  5
95BB
330
9576
100
AcDbEntity
  8
1
  6
Continuous
100
AcDbLine
 10
18.237517
 20
90.86918799999999
 30
0.0
 11
22.206117
 21
88.57788799999999
 31
0.0
  0
LINE
  5
95BC
330
9576
100
AcDbEntity
  8
1
  6
Continuous
100
AcDbLine
 10
23.237517
 20
88.57788799999999
 30
0.0
 11
27.206117
 21
90.86918799999999
 31
0.0
  0
LINE
  5
95BD
330
9576
100
AcDbEntity
  8
1
  6
Continuous
100
AcDbLine
 10
27.72181699999999
 20
96.34518800000002
 30
0.0
 11
27.72181699999999
 21
91.762388
 31
0.0
  0
LINE
  5
95BE
330
9576
100
AcDbEntity
  8
1
  6
Continuous
100
AcDbLine
 10
23.237517
 20
99.529188
 30
0.0
 11
27.206117
 21
97.238188
 31
0.0
  0
LINE
  5
95BF
330
9576
100
AcDbEntity
  8
1
  6
Continuous
100
AcDbLine
 10
69.23781700000001
 20
97.238188
 30
0.0
 11
69.23781700000001
 21
96.34518800000002
 31
0.0
  0
LINE
  5
95C0
330
9576
100
AcDbEntity
  8
1
  6
Continuous
100
AcDbLine
 10
69.23781700000001
 20
99.553188
 30
0.0
 11
69.737817
 21
99.05318800000001
 31
0.0
  0
LINE
  5
95C1
330
9576
100
AcDbEntity
  8
1
  6
Continuous
100
AcDbLine
 10
69.737817
 20
89.05368799999996
 30
0.0
 11
69.23781700000001
 21
88.55368799999999
 31
0.0
  0
LINE
  5
95C2
330
9576
100
AcDbEntity
  8
1
  6
Continuous
100
AcDbLine
 10
69.23781700000001
 20
91.762388
 30
0.0
 11
69.23781700000001
 21
90.86918799999999
 31
0.0
  0
LINE
  5
95C3
330
9576
100
AcDbEntity
  8
1
  6
Continuous
100
AcDbLine
 10
69.737817
 20
48.553688
 30
0.0
 11
69.737817
 21
39.553688
 31
0.0
  0
LINE
  5
95C4
330
9576
100
AcDbEntity
  8
1
  6
Continuous
100
AcDbLine
 10
69.23781700000001
 20
49.053688
 30
0.0
 11
69.737817
 21
48.553688
 31
0.0
  0
LINE
  5
95C5
330
9576
100
AcDbEntity
  8
1
  6
Continuous
100
AcDbLine
 10
69.737817
 20
39.553688
 30
0.0
 11
69.23781700000001
 21
39.053688
 31
0.0
  0
LINE
  5
95C6
330
9576
100
AcDbEntity
  8
1
  6
Continuous
100
AcDbLine
 10
103.0418169999999
 20
48.053688
 30
0.0
 11
103.0418169999999
 21
40.053688
 31
0.0
  0
LINE
  5
95C7
330
9576
100
AcDbEntity
  8
1
  6
Continuous
100
AcDbLine
 10
115.041817
 20
47.553688
 30
0.0
 11
115.041817
 21
40.553688
 31
0.0
  0
LINE
  5
95C8
330
9576
100
AcDbEntity
  8
1
  6
Continuous
100
AcDbLine
 10
113.5418169999999
 20
48.053688
 30
0.0
 11
113.5418169999999
 21
40.556488
 31
0.0
  0
LINE
  5
95C9
330
9576
100
AcDbEntity
  8
1
  6
Continuous
100
AcDbLine
 10
97.54181700000003
 20
48.053688
 30
0.0
 11
103.0418169999999
 21
48.053688
 31
0.0
  0
LINE
  5
95CA
330
9576
100
AcDbEntity
  8
1
  6
Continuous
100
AcDbLine
 10
114.5418169999999
 20
48.053688
 30
0.0
 11
115.041817
 21
47.553688
 31
0.0
  0
LINE
  5
95CB
330
9576
100
AcDbEntity
  8
1
  6
Continuous
100
AcDbLine
 10
115.041817
 20
40.553688
 30
0.0
 11
114.5418169999999
 21
40.053688
 31
0.0
  0
LINE
  5
95CC
330
9576
100
AcDbEntity
  8
1
  6
Continuous
100
AcDbLine
 10
114.5418169999999
 20
48.053688
 30
0.0
 11
114.5418169999999
 21
40.053688
 31
0.0
  0
LINE
  5
95CD
330
9576
100
AcDbEntity
  8
2
  6
Continuous
100
AcDbLine
 10
97.54181700000003
 20
47.647688
 30
0.0
 11
103.0418169999999
 21
47.647688
 31
0.0
  0
LINE
  5
95CE
330
9576
100
AcDbEntity
  8
1
  6
Continuous
100
AcDbLine
 10
177.8458169999999
 20
97.238188
 30
0.0
 11
173.8768169999999
 21
99.529188
 31
0.0
  0
LINE
  5
95CF
330
9576
100
AcDbEntity
  8
1
  6
Continuous
100
AcDbLine
 10
178.3608169999999
 20
96.34518800000002
 30
0.0
 11
178.3608169999999
 21
91.762388
 31
0.0
  0
LINE
  5
95D0
330
9576
100
AcDbEntity
  8
1
  6
Continuous
100
AcDbLine
 10
177.8458169999999
 20
90.86918799999999
 30
0.0
 11
173.8768169999999
 21
88.57788799999999
 31
0.0
  0
LINE
  5
95D1
330
9576
100
AcDbEntity
  8
1
  6
Continuous
100
AcDbLine
 10
172.8458169999999
 20
88.57788799999999
 30
0.0
 11
168.8768169999999
 21
90.86918799999999
 31
0.0
  0
LINE
  5
95D2
330
9576
100
AcDbEntity
  8
1
  6
Continuous
100
AcDbLine
 10
168.360817
 20
96.34518800000002
 30
0.0
 11
168.360817
 21
91.762388
 31
0.0
  0
LINE
  5
95D3
330
9576
100
AcDbEntity
  8
1
  6
Continuous
100
AcDbLine
 10
172.8458169999999
 20
99.529188
 30
0.0
 11
168.8768169999999
 21
97.238188
 31
0.0
  0
LINE
  5
95D4
330
9576
100
AcDbEntity
  8
1
  6
Continuous
100
AcDbLine
 10
116.041817
 20
46.553688
 30
0.0
 11
116.041817
 21
41.553688
 31
0.0
  0
LINE
  5
95D5
330
9576
100
AcDbEntity
  8
1
  6
Continuous
100
AcDbLine
 10
115.041817
 20
41.553688
 30
0.0
 11
116.041817
 21
41.553688
 31
0.0
  0
LINE
  5
95D6
330
9576
100
AcDbEntity
  8
1
  6
Continuous
100
AcDbLine
 10
115.041817
 20
46.553688
 30
0.0
 11
116.041817
 21
46.553688
 31
0.0
  0
LINE
  5
95D7
330
9576
100
AcDbEntity
  8
1
  6
Continuous
100
AcDbLine
 10
113.0418169999999
 20
46.05368799999999
 30
0.0
 11
113.5418169999999
 21
46.05368799999999
 31
0.0
  0
LINE
  5
95D8
330
9576
100
AcDbEntity
  8
1
  6
Continuous
100
AcDbLine
 10
118.041817
 20
45.25368799999998
 30
0.0
 11
118.041817
 21
42.85368799999999
 31
0.0
  0
LINE
  5
95D9
330
9576
100
AcDbEntity
  8
1
  6
Continuous
100
AcDbLine
 10
116.041817
 20
42.85368799999999
 30
0.0
 11
116.3418169999999
 21
42.85368799999999
 31
0.0
  0
LINE
  5
95DA
330
9576
100
AcDbEntity
  8
1
  6
Continuous
100
AcDbLine
 10
116.041817
 20
45.25368799999998
 30
0.0
 11
116.3418169999999
 21
45.25368799999998
 31
0.0
  0
LINE
  5
95DB
330
9576
100
AcDbEntity
  8
1
  6
Continuous
100
AcDbLine
 10
116.3418169999999
 20
45.25368799999998
 30
0.0
 11
116.3418169999999
 21
42.85368799999999
 31
0.0
  0
LINE
  5
95DC
330
9576
100
AcDbEntity
  8
1
  6
Continuous
100
AcDbLine
 10
116.3418169999999
 20
43.288688
 30
0.0
 11
116.4418169999999
 21
43.288688
 31
0.0
  0
LINE
  5
95DD
330
9576
100
AcDbEntity
  8
1
  6
Continuous
100
AcDbLine
 10
116.3418169999999
 20
44.81868799999999
 30
0.0
 11
116.4418169999999
 21
44.81868799999999
 31
0.0
  0
LINE
  5
95DE
330
9576
100
AcDbEntity
  8
1
  6
Continuous
100
AcDbLine
 10
116.841817
 20
42.85368799999999
 30
0.0
 11
118.041817
 21
42.85368799999999
 31
0.0
  0
LINE
  5
95DF
330
9576
100
AcDbEntity
  8
1
  6
Continuous
100
AcDbLine
 10
116.841817
 20
45.25368799999998
 30
0.0
 11
118.041817
 21
45.25368799999998
 31
0.0
  0
LINE
  5
95E0
330
9576
100
AcDbEntity
  8
1
  6
Continuous
100
AcDbLine
 10
103.0418169999999
 20
42.553688
 30
0.0
 11
104.0178169999999
 21
42.553688
 31
0.0
  0
LINE
  5
95E1
330
9576
100
AcDbEntity
  8
1
  6
Continuous
100
AcDbLine
 10
103.0418169999999
 20
45.553688
 30
0.0
 11
103.190817
 21
45.553688
 31
0.0
  0
LINE
  5
95E2
330
9576
100
AcDbEntity
  8
2
  6
Continuous
100
AcDbLine
 10
103.0418169999999
 20
45.283188
 30
0.0
 11
103.2648169999999
 21
45.283188
 31
0.0
  0
LINE
  5
95E3
330
9576
100
AcDbEntity
  8
2
  6
Continuous
100
AcDbLine
 10
103.0418169999999
 20
42.824188
 30
0.0
 11
103.942817
 21
42.824188
 31
0.0
  0
LINE
  5
95E4
330
9576
100
AcDbEntity
  8
1
  6
Continuous
100
AcDbLine
 10
113.0418169999999
 20
46.803688
 30
0.0
 11
113.0418169999999
 21
41.303688
 31
0.0
  0
LINE
  5
95E5
330
9576
100
AcDbEntity
  8
1
  6
Continuous
100
AcDbLine
 10
110.5438169999999
 20
46.803688
 30
0.0
 11
113.0418169999999
 21
46.803688
 31
0.0
  0
LINE
  5
95E6
330
9576
100
AcDbEntity
  8
1
  6
Continuous
100
AcDbLine
 10
103.108817
 20
45.850488
 30
0.0
 11
104.128817
 21
42.150488
 31
0.0
  0
LINE
  5
95E7
330
9576
100
AcDbEntity
  8
1
  6
Continuous
100
AcDbLine
 10
103.494817
 20
45.956788
 30
0.0
 11
104.514817
 21
42.25678799999999
 31
0.0
  0
LINE
  5
95E8
330
9576
100
AcDbEntity
  8
1
  6
Continuous
100
AcDbLine
 10
105.148817
 20
45.850488
 30
0.0
 11
106.1688169999999
 21
42.150488
 31
0.0
  0
LINE
  5
95E9
330
9576
100
AcDbEntity
  8
1
  6
Continuous
100
AcDbLine
 10
105.5348169999999
 20
45.956788
 30
0.0
 11
106.5548169999999
 21
42.25678799999999
 31
0.0
  0
LINE
  5
95EA
330
9576
100
AcDbEntity
  8
1
  6
Continuous
100
AcDbLine
 10
107.1888169999999
 20
45.850488
 30
0.0
 11
108.208817
 21
42.150488
 31
0.0
  0
LINE
  5
95EB
330
9576
100
AcDbEntity
  8
1
  6
Continuous
100
AcDbLine
 10
107.574817
 20
45.956788
 30
0.0
 11
108.5948169999999
 21
42.25678799999999
 31
0.0
  0
LINE
  5
95EC
330
9576
100
AcDbEntity
  8
1
  6
Continuous
100
AcDbLine
 10
103.108817
 20
45.956788
 30
0.0
 11
103.0418169999999
 21
45.71308799999999
 31
0.0
  0
LINE
  5
95ED
330
9576
100
AcDbEntity
  8
1
  6
Continuous
100
AcDbLine
 10
105.148817
 20
45.956788
 30
0.0
 11
105.0378169999999
 21
45.553688
 31
0.0
  0
LINE
  5
95EE
330
9576
100
AcDbEntity
  8
1
  6
Continuous
100
AcDbLine
 10
104.6258169999999
 20
42.553688
 30
0.0
 11
104.514817
 21
42.150488
 31
0.0
  0
LINE
  5
95EF
330
9576
100
AcDbEntity
  8
1
  6
Continuous
100
AcDbLine
 10
107.1888169999999
 20
45.956788
 30
0.0
 11
107.077817
 21
45.553688
 31
0.0
  0
LINE
  5
95F0
330
9576
100
AcDbEntity
  8
1
  6
Continuous
100
AcDbLine
 10
106.6658169999999
 20
42.553688
 30
0.0
 11
106.5548169999999
 21
42.150488
 31
0.0
  0
LINE
  5
95F1
330
9576
100
AcDbEntity
  8
1
  6
Continuous
100
AcDbLine
 10
108.7058169999999
 20
42.553688
 30
0.0
 11
108.5948169999999
 21
42.150488
 31
0.0
  0
LINE
  5
95F2
330
9576
100
AcDbEntity
  8
1
  6
Continuous
100
AcDbLine
 10
103.605817
 20
45.553688
 30
0.0
 11
105.2308169999998
 21
45.553688
 31
0.0
  0
LINE
  5
95F3
330
9576
100
AcDbEntity
  8
2
  6
Continuous
100
AcDbLine
 10
103.6798169999999
 20
45.283188
 30
0.0
 11
105.3048169999998
 21
45.283188
 31
0.0
  0
LINE
  5
95F4
330
9576
100
AcDbEntity
  8
2
  6
Continuous
100
AcDbLine
 10
104.3578169999999
 20
42.824188
 30
0.0
 11
105.982817
 21
42.824188
 31
0.0
  0
LINE
  5
95F5
330
9576
100
AcDbEntity
  8
1
  6
Continuous
100
AcDbLine
 10
104.432817
 20
42.553688
 30
0.0
 11
106.0578169999998
 21
42.553688
 31
0.0
  0
LINE
  5
95F6
330
9576
100
AcDbEntity
  8
1
  6
Continuous
100
AcDbLine
 10
106.4728169999999
 20
42.553688
 30
0.0
 11
108.0978169999999
 21
42.553688
 31
0.0
  0
LINE
  5
95F7
330
9576
100
AcDbEntity
  8
2
  6
Continuous
100
AcDbLine
 10
106.3978169999999
 20
42.824188
 30
0.0
 11
108.0228169999999
 21
42.824188
 31
0.0
  0
LINE
  5
95F8
330
9576
100
AcDbEntity
  8
2
  6
Continuous
100
AcDbLine
 10
105.7198169999999
 20
45.283188
 30
0.0
 11
107.344817
 21
45.283188
 31
0.0
  0
LINE
  5
95F9
330
9576
100
AcDbEntity
  8
1
  6
Continuous
100
AcDbLine
 10
105.6458169999998
 20
45.553688
 30
0.0
 11
107.270817
 21
45.553688
 31
0.0
  0
LINE
  5
95FA
330
9576
100
AcDbEntity
  8
1
  6
Continuous
100
AcDbLine
 10
107.6858169999999
 20
45.553688
 30
0.0
 11
108.961817
 21
45.553688
 31
0.0
  0
LINE
  5
95FB
330
9576
100
AcDbEntity
  8
2
  6
Continuous
100
AcDbLine
 10
107.7598169999999
 20
45.283188
 30
0.0
 11
108.815817
 21
45.283188
 31
0.0
  0
LINE
  5
95FC
330
9576
100
AcDbEntity
  8
1
  6
Continuous
100
AcDbLine
 10
108.5128169999999
 20
42.553688
 30
0.0
 11
108.961817
 21
42.553688
 31
0.0
  0
LINE
  5
95FD
330
9576
100
AcDbEntity
  8
2
  6
Continuous
100
AcDbLine
 10
108.4378169999999
 20
42.824188
 30
0.0
 11
108.815817
 21
42.824188
 31
0.0
  0
LINE
  5
95FE
330
9576
100
AcDbEntity
  8
1
  6
Continuous
100
AcDbLine
 10
19.971817
 20
88.55368799999999
 30
0.0
 11
25.471817
 21
88.55368799999999
 31
0.0
  0
LINE
  5
95FF
330
9576
100
AcDbEntity
  8
5
  6
PHANTOM
100
AcDbLine
 10
27.485017
 20
91.30368799999999
 30
0.0
 11
31.39826799999999
 21
91.30320000000001
 31
0.0
  0
LINE
  5
9600
330
9576
100
AcDbEntity
  8
5
  6
PHANTOM
100
AcDbLine
 10
27.485017
 20
96.80318800000001
 30
0.0
 11
31.398217
 21
96.80318800000001
 31
0.0
  0
LINE
  5
9601
330
9576
100
AcDbEntity
  8
1
  6
Continuous
100
AcDbLine
 10
176.1108169999999
 20
89.86788799999997
 30
0.0
 11
176.1108169999999
 21
85.377188
 31
0.0
  0
LINE
  5
9602
330
9576
100
AcDbEntity
  8
1
  6
Continuous
100
AcDbLine
 10
170.610817
 20
89.86788799999997
 30
0.0
 11
170.610817
 21
85.377188
 31
0.0
  0
LINE
  5
9603
330
9576
100
AcDbEntity
  8
1
  6
Continuous
100
AcDbLine
 10
171.2028169999999
 20
87.832088
 30
0.0
 11
175.5278169999999
 21
87.832088
 31
0.0
  0
LINE
  5
9604
330
9576
100
AcDbEntity
  8
1
  6
Continuous
100
AcDbLine
 10
83.041517
 20
90.553688
 30
0.0
 11
93.54181700000003
 21
90.553688
 31
0.0
  0
LINE
  5
9605
330
9576
100
AcDbEntity
  8
1
  6
Continuous
100
AcDbLine
 10
83.041517
 20
97.55318800000001
 30
0.0
 11
93.54181700000003
 21
97.55318800000001
 31
0.0
  0
LINE
  5
9606
330
9576
100
AcDbEntity
  8
1
  6
Continuous
100
AcDbLine
 10
93.54181700000003
 20
98.80318800000001
 30
0.0
 11
93.54181700000003
 21
89.30368799999998
 31
0.0
  0
LINE
  5
9607
330
9576
100
AcDbEntity
  8
1
  6
Continuous
100
AcDbLine
 10
83.041517
 20
97.55318800000001
 30
0.0
 11
83.041517
 21
90.553688
 31
0.0
  0
LINE
  5
9608
330
9576
100
AcDbEntity
  8
4
  6
CENTER
100
AcDbLine
 10
80.993717
 20
94.05318800000001
 30
0.0
 11
118.920817
 21
94.05318800000001
 31
0.0
  0
LINE
  5
9609
330
9576
100
AcDbEntity
  8
1
  6
Continuous
100
AcDbLine
 10
83.541517
 20
97.053188
 30
0.0
 11
93.54181700000003
 21
97.053188
 31
0.0
  0
LINE
  5
960A
330
9576
100
AcDbEntity
  8
1
  6
Continuous
100
AcDbLine
 10
84.04151699999998
 20
96.55318800000001
 30
0.0
 11
93.54181700000003
 21
96.55318800000001
 31
0.0
  0
LINE
  5
960B
330
9576
100
AcDbEntity
  8
1
  6
Continuous
100
AcDbLine
 10
84.541517
 20
96.053188
 30
0.0
 11
93.54181700000003
 21
96.053188
 31
0.0
  0
LINE
  5
960C
330
9576
100
AcDbEntity
  8
1
  6
Continuous
100
AcDbLine
 10
85.04151699999999
 20
95.553188
 30
0.0
 11
93.54181700000003
 21
95.553188
 31
0.0
  0
LINE
  5
960D
330
9576
100
AcDbEntity
  8
1
  6
Continuous
100
AcDbLine
 10
85.54181699999999
 20
95.05318800000001
 30
0.0
 11
93.54181700000003
 21
95.05318800000001
 31
0.0
  0
LINE
  5
960E
330
9576
100
AcDbEntity
  8
1
  6
Continuous
100
AcDbLine
 10
97.54181700000003
 20
99.05318800000001
 30
0.0
 11
97.54181700000003
 21
89.05368799999996
 31
0.0
  0
LINE
  5
960F
330
9576
100
AcDbEntity
  8
1
  6
Continuous
100
AcDbLine
 10
93.54181700000003
 20
89.30368799999998
 30
0.0
 11
97.54181700000003
 21
89.05368799999996
 31
0.0
  0
LINE
  5
9610
330
9576
100
AcDbEntity
  8
1
  6
Continuous
100
AcDbLine
 10
97.54181700000003
 20
99.05318800000001
 30
0.0
 11
93.54181700000003
 21
98.80318800000001
 31
0.0
  0
LINE
  5
9611
330
9576
100
AcDbEntity
  8
1
  6
Continuous
100
AcDbLine
 10
103.0418169999999
 20
98.05318800000001
 30
0.0
 11
103.0418169999999
 21
90.75368799999999
 31
0.0
  0
LINE
  5
9612
330
9576
100
AcDbEntity
  8
1
  6
Continuous
100
AcDbLine
 10
115.041817
 20
97.55318800000001
 30
0.0
 11
115.041817
 21
90.553688
 31
0.0
  0
LINE
  5
9613
330
9576
100
AcDbEntity
  8
1
  6
Continuous
100
AcDbLine
 10
113.5418169999999
 20
97.55118799999999
 30
0.0
 11
113.5418169999999
 21
90.05368799999997
 31
0.0
  0
LINE
  5
9614
330
9576
100
AcDbEntity
  8
1
  6
Continuous
100
AcDbLine
 10
97.54181700000003
 20
98.05318800000001
 30
0.0
 11
114.5418169999999
 21
98.05318800000001
 31
0.0
  0
LINE
  5
9615
330
9576
100
AcDbEntity
  8
1
  6
Continuous
100
AcDbLine
 10
97.54181700000003
 20
90.75368799999999
 30
0.0
 11
103.0418169999999
 21
90.75368799999999
 31
0.0
  0
LINE
  5
9616
330
9576
100
AcDbEntity
  8
1
  6
Continuous
100
AcDbLine
 10
113.5418169999999
 20
90.05368799999997
 30
0.0
 11
114.5418169999999
 21
90.05368799999997
 31
0.0
  0
LINE
  5
9617
330
9576
100
AcDbEntity
  8
1
  6
Continuous
100
AcDbLine
 10
114.5418169999999
 20
98.05318800000001
 30
0.0
 11
115.041817
 21
97.55318800000001
 31
0.0
  0
LINE
  5
9618
330
9576
100
AcDbEntity
  8
1
  6
Continuous
100
AcDbLine
 10
115.041817
 20
90.553688
 30
0.0
 11
114.5418169999999
 21
90.05368799999997
 31
0.0
  0
LINE
  5
9619
330
9576
100
AcDbEntity
  8
1
  6
Continuous
100
AcDbLine
 10
114.5418169999999
 20
98.05318800000001
 30
0.0
 11
114.5418169999999
 21
90.05368799999997
 31
0.0
  0
LINE
  5
961A
330
9576
100
AcDbEntity
  8
2
  6
Continuous
100
AcDbLine
 10
97.54181700000003
 20
97.647188
 30
0.0
 11
103.0418169999999
 21
97.647188
 31
0.0
  0
LINE
  5
961B
330
9576
100
AcDbEntity
  8
2
  6
Continuous
100
AcDbLine
 10
103.0418169999999
 20
97.647188
 30
0.0
 11
103.744817
 21
98.05318800000001
 31
0.0
  0
LINE
  5
961C
330
9576
100
AcDbEntity
  8
1
  6
Continuous
100
AcDbLine
 10
103.0418169999999
 20
97.55118799999999
 30
0.0
 11
113.5418169999999
 21
97.55118799999999
 31
0.0
  0
LINE
  5
961D
330
9576
100
AcDbEntity
  8
1
  6
Continuous
100
AcDbLine
 10
103.0418169999999
 20
96.84318799999999
 30
0.0
 11
113.5418169999999
 21
96.84318799999999
 31
0.0
  0
LINE
  5
961E
330
9576
100
AcDbEntity
  8
1
  6
Continuous
100
AcDbLine
 10
103.0418169999999
 20
92.11208799999999
 30
0.0
 11
104.1438169999999
 21
92.11208799999999
 31
0.0
  0
LINE
  5
961F
330
9576
100
AcDbEntity
  8
1
  6
Continuous
100
AcDbLine
 10
116.041817
 20
96.55318800000001
 30
0.0
 11
116.041817
 21
91.55368799999999
 31
0.0
  0
LINE
  5
9620
330
9576
100
AcDbEntity
  8
1
  6
Continuous
100
AcDbLine
 10
115.041817
 20
91.55368799999999
 30
0.0
 11
116.041817
 21
91.55368799999999
 31
0.0
  0
LINE
  5
9621
330
9576
100
AcDbEntity
  8
1
  6
Continuous
100
AcDbLine
 10
115.041817
 20
96.55318800000001
 30
0.0
 11
116.041817
 21
96.55318800000001
 31
0.0
  0
LINE
  5
9622
330
9576
100
AcDbEntity
  8
1
  6
Continuous
100
AcDbLine
 10
113.0418169999999
 20
92.053688
 30
0.0
 11
113.5418169999999
 21
92.053688
 31
0.0
  0
LINE
  5
9623
330
9576
100
AcDbEntity
  8
1
  6
Continuous
100
AcDbLine
 10
113.0418169999999
 20
96.053188
 30
0.0
 11
113.5418169999999
 21
96.053188
 31
0.0
  0
LINE
  5
9624
330
9576
100
AcDbEntity
  8
1
  6
Continuous
100
AcDbLine
 10
118.041817
 20
95.25318799999999
 30
0.0
 11
118.041817
 21
92.853688
 31
0.0
  0
LINE
  5
9625
330
9576
100
AcDbEntity
  8
1
  6
Continuous
100
AcDbLine
 10
116.3418169999999
 20
95.25318799999999
 30
0.0
 11
116.3418169999999
 21
92.853688
 31
0.0
  0
LINE
  5
9626
330
9576
100
AcDbEntity
  8
1
  6
Continuous
100
AcDbLine
 10
116.841817
 20
96.053188
 30
0.0
 11
116.841817
 21
92.053688
 31
0.0
  0
LINE
  5
9627
330
9576
100
AcDbEntity
  8
1
  6
Continuous
100
AcDbLine
 10
116.3418169999999
 20
93.288188
 30
0.0
 11
116.4418169999999
 21
93.288188
 31
0.0
  0
LINE
  5
9628
330
9576
100
AcDbEntity
  8
1
  6
Continuous
100
AcDbLine
 10
116.3418169999999
 20
94.818188
 30
0.0
 11
116.4418169999999
 21
94.818188
 31
0.0
  0
LINE
  5
9629
330
9576
100
AcDbEntity
  8
1
  6
Continuous
100
AcDbLine
 10
103.0418169999999
 20
92.55368799999999
 30
0.0
 11
104.0178169999999
 21
92.55368799999999
 31
0.0
  0
LINE
  5
962A
330
9576
100
AcDbEntity
  8
1
  6
Continuous
100
AcDbLine
 10
103.0418169999999
 20
95.553188
 30
0.0
 11
103.190817
 21
95.553188
 31
0.0
  0
LINE
  5
962B
330
9576
100
AcDbEntity
  8
2
  6
Continuous
100
AcDbLine
 10
103.0418169999999
 20
95.28318799999999
 30
0.0
 11
103.2648169999999
 21
95.28318799999999
 31
0.0
  0
LINE
  5
962C
330
9576
100
AcDbEntity
  8
2
  6
Continuous
100
AcDbLine
 10
103.0418169999999
 20
92.824188
 30
0.0
 11
103.942817
 21
92.824188
 31
0.0
  0
LINE
  5
962D
330
9576
100
AcDbEntity
  8
5
  6
PHANTOM
100
AcDbLine
 10
106.0418169999999
 20
96.80318800000001
 30
0.0
 11
106.0418169999999
 21
88.55368799999999
 31
0.0
  0
LINE
  5
962E
330
9576
100
AcDbEntity
  8
5
  6
PHANTOM
100
AcDbLine
 10
103.641817
 20
96.80318800000001
 30
0.0
 11
103.641817
 21
88.55368799999999
 31
0.0
  0
LINE
  5
962F
330
9576
100
AcDbEntity
  8
5
  6
PHANTOM
100
AcDbLine
 10
103.641817
 20
96.80318800000001
 30
0.0
 11
106.0418169999999
 21
96.80318800000001
 31
0.0
  0
LINE
  5
9630
330
9576
100
AcDbEntity
  8
5
  6
PHANTOM
100
AcDbLine
 10
103.641817
 20
88.55368799999999
 30
0.0
 11
101.541817
 21
85.377188
 31
0.0
  0
LINE
  5
9631
330
9576
100
AcDbEntity
  8
5
  6
PHANTOM
100
AcDbLine
 10
103.543817
 20
84.05368799999996
 30
0.0
 11
101.541817
 21
85.377188
 31
0.0
  0
LINE
  5
9632
330
9576
100
AcDbEntity
  8
5
  6
PHANTOM
100
AcDbLine
 10
105.643817
 20
87.23008799999998
 30
0.0
 11
103.543817
 21
84.05368799999996
 31
0.0
  0
LINE
  5
9633
330
9576
100
AcDbEntity
  8
1
  6
Continuous
100
AcDbLine
 10
110.6418169999999
 20
88.55368799999999
 30
0.0
 11
108.541817
 21
85.37728800000001
 31
0.0
  0
LINE
  5
9634
330
9576
100
AcDbEntity
  8
1
  6
Continuous
100
AcDbLine
 10
110.5438169999999
 20
84.05368799999996
 30
0.0
 11
108.541817
 21
85.37728800000001
 31
0.0
  0
LINE
  5
9635
330
9576
100
AcDbEntity
  8
1
  6
Continuous
100
AcDbLine
 10
112.6438169999999
 20
87.23008799999998
 30
0.0
 11
110.5438169999999
 21
84.05368799999996
 31
0.0
  0
LINE
  5
9636
330
9576
100
AcDbEntity
  8
1
  6
Continuous
100
AcDbLine
 10
110.6418169999999
 20
96.80318800000001
 30
0.0
 11
110.6418169999999
 21
88.55368799999999
 31
0.0
  0
LINE
  5
9637
330
9576
100
AcDbEntity
  8
1
  6
Continuous
100
AcDbLine
 10
113.0418169999999
 20
96.80318800000001
 30
0.0
 11
113.0418169999999
 21
88.55368799999999
 31
0.0
  0
LINE
  5
9638
330
9576
100
AcDbEntity
  8
1
  6
Continuous
100
AcDbLine
 10
110.6418169999999
 20
96.80318800000001
 30
0.0
 11
113.0418169999999
 21
96.80318800000001
 31
0.0
  0
LINE
  5
9639
330
9576
100
AcDbEntity
  8
1
  6
Continuous
100
AcDbLine
 10
110.2418169999999
 20
95.903188
 30
0.0
 11
110.2418169999999
 21
95.553188
 31
0.0
  0
LINE
  5
963A
330
9576
100
AcDbEntity
  8
1
  6
Continuous
100
AcDbLine
 10
103.108817
 20
95.850188
 30
0.0
 11
104.128817
 21
92.15048799999999
 31
0.0
  0
LINE
  5
963B
330
9576
100
AcDbEntity
  8
1
  6
Continuous
100
AcDbLine
 10
103.494817
 20
95.957188
 30
0.0
 11
104.514817
 21
92.256788
 31
0.0
  0
LINE
  5
963C
330
9576
100
AcDbEntity
  8
1
  6
Continuous
100
AcDbLine
 10
105.148817
 20
95.850188
 30
0.0
 11
106.1688169999999
 21
92.15048799999999
 31
0.0
  0
LINE
  5
963D
330
9576
100
AcDbEntity
  8
1
  6
Continuous
100
AcDbLine
 10
105.5348169999999
 20
95.957188
 30
0.0
 11
106.5548169999999
 21
92.256788
 31
0.0
  0
LINE
  5
963E
330
9576
100
AcDbEntity
  8
1
  6
Continuous
100
AcDbLine
 10
107.1888169999999
 20
95.850188
 30
0.0
 11
108.208817
 21
92.15048799999999
 31
0.0
  0
LINE
  5
963F
330
9576
100
AcDbEntity
  8
1
  6
Continuous
100
AcDbLine
 10
107.574817
 20
95.957188
 30
0.0
 11
108.5948169999999
 21
92.256788
 31
0.0
  0
LINE
  5
9640
330
9576
100
AcDbEntity
  8
1
  6
Continuous
100
AcDbLine
 10
109.2288169999999
 20
95.850188
 30
0.0
 11
110.2488169999999
 21
92.15048799999999
 31
0.0
  0
LINE
  5
9641
330
9576
100
AcDbEntity
  8
1
  6
Continuous
100
AcDbLine
 10
109.6148169999999
 20
95.957188
 30
0.0
 11
110.6348169999999
 21
92.256788
 31
0.0
  0
LINE
  5
9642
330
9576
100
AcDbEntity
  8
1
  6
Continuous
100
AcDbLine
 10
103.108817
 20
95.957188
 30
0.0
 11
103.0418169999999
 21
95.713188
 31
0.0
  0
LINE
  5
9643
330
9576
100
AcDbEntity
  8
1
  6
Continuous
100
AcDbLine
 10
105.148817
 20
95.957188
 30
0.0
 11
105.0378169999999
 21
95.553188
 31
0.0
  0
LINE
  5
9644
330
9576
100
AcDbEntity
  8
1
  6
Continuous
100
AcDbLine
 10
104.6258169999999
 20
92.55368799999999
 30
0.0
 11
104.514817
 21
92.15048799999999
 31
0.0
  0
LINE
  5
9645
330
9576
100
AcDbEntity
  8
1
  6
Continuous
100
AcDbLine
 10
107.1888169999999
 20
95.957188
 30
0.0
 11
107.077817
 21
95.553188
 31
0.0
  0
LINE
  5
9646
330
9576
100
AcDbEntity
  8
1
  6
Continuous
100
AcDbLine
 10
106.6658169999999
 20
92.55368799999999
 30
0.0
 11
106.5548169999999
 21
92.15048799999999
 31
0.0
  0
LINE
  5
9647
330
9576
100
AcDbEntity
  8
1
  6
Continuous
100
AcDbLine
 10
109.2288169999999
 20
95.957188
 30
0.0
 11
109.1178169999998
 21
95.553188
 31
0.0
  0
LINE
  5
9648
330
9576
100
AcDbEntity
  8
1
  6
Continuous
100
AcDbLine
 10
108.7058169999999
 20
92.55368799999999
 30
0.0
 11
108.5948169999999
 21
92.15048799999999
 31
0.0
  0
LINE
  5
9649
330
9576
100
AcDbEntity
  8
1
  6
Continuous
100
AcDbLine
 10
103.605817
 20
95.553188
 30
0.0
 11
105.2308169999998
 21
95.553188
 31
0.0
  0
LINE
  5
964A
330
9576
100
AcDbEntity
  8
2
  6
Continuous
100
AcDbLine
 10
103.6798169999999
 20
95.28318799999999
 30
0.0
 11
105.3048169999998
 21
95.28318799999999
 31
0.0
  0
LINE
  5
964B
330
9576
100
AcDbEntity
  8
2
  6
Continuous
100
AcDbLine
 10
104.3578169999999
 20
92.824188
 30
0.0
 11
105.982817
 21
92.824188
 31
0.0
  0
LINE
  5
964C
330
9576
100
AcDbEntity
  8
1
  6
Continuous
100
AcDbLine
 10
104.432817
 20
92.55368799999999
 30
0.0
 11
106.0578169999998
 21
92.55368799999999
 31
0.0
  0
LINE
  5
964D
330
9576
100
AcDbEntity
  8
1
  6
Continuous
100
AcDbLine
 10
104.4998169999999
 20
92.11208799999999
 30
0.0
 11
106.1838169999999
 21
92.11208799999999
 31
0.0
  0
LINE
  5
964E
330
9576
100
AcDbEntity
  8
1
  6
Continuous
100
AcDbLine
 10
106.5398169999999
 20
92.11208799999999
 30
0.0
 11
108.2238169999999
 21
92.11208799999999
 31
0.0
  0
LINE
  5
964F
330
9576
100
AcDbEntity
  8
1
  6
Continuous
100
AcDbLine
 10
106.4728169999999
 20
92.55368799999999
 30
0.0
 11
108.0978169999999
 21
92.55368799999999
 31
0.0
  0
LINE
  5
9650
330
9576
100
AcDbEntity
  8
2
  6
Continuous
100
AcDbLine
 10
106.3978169999999
 20
92.824188
 30
0.0
 11
108.0228169999999
 21
92.824188
 31
0.0
  0
LINE
  5
9651
330
9576
100
AcDbEntity
  8
2
  6
Continuous
100
AcDbLine
 10
105.7198169999999
 20
95.28318799999999
 30
0.0
 11
107.344817
 21
95.28318799999999
 31
0.0
  0
LINE
  5
9652
330
9576
100
AcDbEntity
  8
1
  6
Continuous
100
AcDbLine
 10
105.6458169999998
 20
95.553188
 30
0.0
 11
107.270817
 21
95.553188
 31
0.0
  0
LINE
  5
9653
330
9576
100
AcDbEntity
  8
1
  6
Continuous
100
AcDbLine
 10
107.6858169999999
 20
95.553188
 30
0.0
 11
109.3108169999998
 21
95.553188
 31
0.0
  0
LINE
  5
9654
330
9576
100
AcDbEntity
  8
2
  6
Continuous
100
AcDbLine
 10
107.7598169999999
 20
95.28318799999999
 30
0.0
 11
109.384817
 21
95.28318799999999
 31
0.0
  0
LINE
  5
9655
330
9576
100
AcDbEntity
  8
1
  6
Continuous
100
AcDbLine
 10
109.7258169999999
 20
95.553188
 30
0.0
 11
110.6418169999999
 21
95.553188
 31
0.0
  0
LINE
  5
9656
330
9576
100
AcDbEntity
  8
2
  6
Continuous
100
AcDbLine
 10
109.7998169999998
 20
95.28318799999999
 30
0.0
 11
110.6418169999999
 21
95.28318799999999
 31
0.0
  0
LINE
  5
9657
330
9576
100
AcDbEntity
  8
2
  6
Continuous
100
AcDbLine
 10
110.4784159999999
 20
92.824188
 30
0.0
 11
110.6418169999999
 21
92.824188
 31
0.0
  0
LINE
  5
9658
330
9576
100
AcDbEntity
  8
1
  6
Continuous
100
AcDbLine
 10
110.5528169999999
 20
92.55368799999999
 30
0.0
 11
110.6418169999999
 21
92.55368799999999
 31
0.0
  0
LINE
  5
9659
330
9576
100
AcDbEntity
  8
1
  6
Continuous
100
AcDbLine
 10
108.5798169999999
 20
92.11208799999999
 30
0.0
 11
110.2638169999998
 21
92.11208799999999
 31
0.0
  0
LINE
  5
965A
330
9576
100
AcDbEntity
  8
1
  6
Continuous
100
AcDbLine
 10
108.5128169999999
 20
92.55368799999999
 30
0.0
 11
110.137817
 21
92.55368799999999
 31
0.0
  0
LINE
  5
965B
330
9576
100
AcDbEntity
  8
2
  6
Continuous
100
AcDbLine
 10
108.4378169999999
 20
92.824188
 30
0.0
 11
110.2428169999999
 21
92.824188
 31
0.0
  0
LINE
  5
965C
330
9576
100
AcDbEntity
  8
4
  6
CENTER
100
AcDbLine
 10
165.8608169999999
 20
94.05318800000001
 30
0.0
 11
180.860817
 21
94.05318800000001
 31
0.0
  0
LINE
  5
965D
330
9576
100
AcDbEntity
  8
4
  6
CENTER
100
AcDbLine
 10
173.360817
 20
101.553188
 30
0.0
 11
173.360817
 21
81.948588
 31
0.0
  0
LINE
  5
965E
330
9576
100
AcDbEntity
  8
1
  6
Continuous
100
AcDbLine
 10
103.0418169999999
 20
45.995188
 30
0.0
 11
103.1238169999999
 21
45.995188
 31
0.0
  0
LINE
  5
965F
330
9576
100
AcDbEntity
  8
1
  6
Continuous
100
AcDbLine
 10
103.0418169999999
 20
41.264288
 30
0.0
 11
113.5418169999999
 21
41.264288
 31
0.0
  0
LINE
  5
9660
330
9576
100
AcDbEntity
  8
1
  6
Continuous
100
AcDbLine
 10
103.0418169999999
 20
40.556488
 30
0.0
 11
113.5418169999999
 21
40.556488
 31
0.0
  0
LINE
  5
9661
330
9576
100
AcDbEntity
  8
1
  6
Continuous
100
AcDbLine
 10
97.54181700000003
 20
40.053688
 30
0.0
 11
114.5418169999999
 21
40.053688
 31
0.0
  0
LINE
  5
9662
330
9576
100
AcDbEntity
  8
2
  6
Continuous
100
AcDbLine
 10
97.54181700000003
 20
40.45968799999999
 30
0.0
 11
103.0418169999999
 21
40.45968799999999
 31
0.0
  0
LINE
  5
9663
330
9576
100
AcDbEntity
  8
2
  6
Continuous
100
AcDbLine
 10
103.0418169999999
 20
40.45968799999999
 30
0.0
 11
103.744817
 21
40.053688
 31
0.0
  0
LINE
  5
9664
330
9576
100
AcDbEntity
  8
1
  6
Continuous
100
AcDbLine
 10
113.5418169999999
 20
48.053688
 30
0.0
 11
114.5418169999999
 21
48.053688
 31
0.0
  0
LINE
  5
9665
330
9576
100
AcDbEntity
  8
1
  6
Continuous
100
AcDbLine
 10
103.479817
 20
45.995188
 30
0.0
 11
105.1638169999999
 21
45.995188
 31
0.0
  0
LINE
  5
9666
330
9576
100
AcDbEntity
  8
1
  6
Continuous
100
AcDbLine
 10
105.5198169999999
 20
45.995188
 30
0.0
 11
107.2038169999999
 21
45.995188
 31
0.0
  0
LINE
  5
9667
330
9576
100
AcDbEntity
  8
1
  6
Continuous
100
AcDbLine
 10
107.5598169999999
 20
45.995188
 30
0.0
 11
109.2908169999999
 21
45.995188
 31
0.0
  0
LINE
  5
9668
330
9576
100
AcDbEntity
  8
1
  6
Continuous
100
AcDbLine
 10
110.5438169999999
 20
41.303688
 30
0.0
 11
113.0418169999999
 21
41.303688
 31
0.0
  0
LINE
  5
9669
330
9576
100
AcDbEntity
  8
1
  6
Continuous
100
AcDbLine
 10
113.0418169999999
 20
42.053688
 30
0.0
 11
113.5418169999999
 21
42.053688
 31
0.0
  0
LINE
  5
966A
330
9576
100
AcDbEntity
  8
1
  6
Continuous
100
AcDbLine
 10
83.041517
 20
147.5531879999998
 30
0.0
 11
93.54181700000003
 21
147.5531879999998
 31
0.0
  0
LINE
  5
966B
330
9576
100
AcDbEntity
  8
1
  6
Continuous
100
AcDbLine
 10
83.041517
 20
140.5531879999998
 30
0.0
 11
93.54181700000003
 21
140.5531879999998
 31
0.0
  0
LINE
  5
966C
330
9576
100
AcDbEntity
  8
1
  6
Continuous
100
AcDbLine
 10
93.54181700000003
 20
139.3031879999998
 30
0.0
 11
93.54181700000003
 21
148.8031879999998
 31
0.0
  0
LINE
  5
966D
330
9576
100
AcDbEntity
  8
1
  6
Continuous
100
AcDbLine
 10
83.041517
 20
140.5531879999998
 30
0.0
 11
83.041517
 21
143.4531879999999
 31
0.0
  0
LINE
  5
966E
330
9576
100
AcDbEntity
  8
4
  6
CENTER
100
AcDbLine
 10
80.993717
 20
144.0531879999998
 30
0.0
 11
118.920817
 21
144.0531879999998
 31
0.0
  0
LINE
  5
966F
330
9576
100
AcDbEntity
  8
1
  6
Continuous
100
AcDbLine
 10
83.541517
 20
141.0531879999998
 30
0.0
 11
93.54181700000003
 21
141.0531879999998
 31
0.0
  0
LINE
  5
9670
330
9576
100
AcDbEntity
  8
1
  6
Continuous
100
AcDbLine
 10
84.04151699999998
 20
141.5531879999998
 30
0.0
 11
93.54181700000003
 21
141.5531879999998
 31
0.0
  0
LINE
  5
9671
330
9576
100
AcDbEntity
  8
1
  6
Continuous
100
AcDbLine
 10
84.541517
 20
142.0531879999998
 30
0.0
 11
93.54181700000003
 21
142.0531879999998
 31
0.0
  0
LINE
  5
9672
330
9576
100
AcDbEntity
  8
1
  6
Continuous
100
AcDbLine
 10
85.04151699999999
 20
142.5531879999998
 30
0.0
 11
93.54181700000003
 21
142.5531879999998
 31
0.0
  0
LINE
  5
9673
330
9576
100
AcDbEntity
  8
1
  6
Continuous
100
AcDbLine
 10
85.54181699999999
 20
143.0531879999998
 30
0.0
 11
93.54181700000003
 21
143.0531879999998
 31
0.0
  0
LINE
  5
9674
330
9576
100
AcDbEntity
  8
1
  6
Continuous
100
AcDbLine
 10
97.54181700000003
 20
139.0531879999997
 30
0.0
 11
97.54181700000003
 21
149.0531879999998
 31
0.0
  0
LINE
  5
9675
330
9576
100
AcDbEntity
  8
1
  6
Continuous
100
AcDbLine
 10
93.54181700000003
 20
148.8031879999998
 30
0.0
 11
97.54181700000003
 21
149.0531879999998
 31
0.0
  0
LINE
  5
9676
330
9576
100
AcDbEntity
  8
1
  6
Continuous
100
AcDbLine
 10
97.54181700000003
 20
139.0531879999997
 30
0.0
 11
93.54181700000003
 21
139.3031879999998
 31
0.0
  0
LINE
  5
9677
330
9576
100
AcDbEntity
  8
1
  6
Continuous
100
AcDbLine
 10
69.23781700000001
 20
143.6071879999998
 30
0.0
 11
67.737817
 21
143.6071879999998
 31
0.0
  0
LINE
  5
9678
330
9576
100
AcDbEntity
  8
1
  6
Continuous
100
AcDbLine
 10
69.23781700000001
 20
144.5001879999998
 30
0.0
 11
67.737817
 21
144.5001879999998
 31
0.0
  0
LINE
  5
9679
330
9576
100
AcDbEntity
  8
1
  6
Continuous
100
AcDbLine
 10
67.737817
 20
149.0531879999998
 30
0.0
 11
67.737817
 21
139.0531879999997
 31
0.0
  0
LINE
  5
967A
330
9576
100
AcDbEntity
  8
1
  6
Continuous
100
AcDbLine
 10
69.23781700000001
 20
144.5001879999998
 30
0.0
 11
69.23781700000001
 21
143.6071879999998
 31
0.0
  0
LINE
  5
967B
330
9576
100
AcDbEntity
  8
4
  6
CENTER
100
AcDbLine
 10
71.086517
 20
144.0531879999998
 30
0.0
 11
66.150317
 21
144.0531879999998
 31
0.0
  0
LINE
  5
967C
330
9576
100
AcDbEntity
  8
1
  6
Continuous
100
AcDbLine
 10
69.23781700000001
 20
139.0531879999997
 30
0.0
 11
67.737817
 21
139.0531879999997
 31
0.0
  0
LINE
  5
967D
330
9576
100
AcDbEntity
  8
1
  6
Continuous
100
AcDbLine
 10
69.23781700000001
 20
149.0531879999998
 30
0.0
 11
67.737817
 21
149.0531879999998
 31
0.0
  0
LINE
  5
967E
330
9576
100
AcDbEntity
  8
1
  6
Continuous
100
AcDbLine
 10
69.737817
 20
139.5531879999998
 30
0.0
 11
69.737817
 21
148.5531879999998
 31
0.0
  0
LINE
  5
967F
330
9576
100
AcDbEntity
  8
1
  6
Continuous
100
AcDbLine
 10
69.23781700000001
 20
139.0531879999997
 30
0.0
 11
69.737817
 21
139.5531879999998
 31
0.0
  0
LINE
  5
9680
330
9576
100
AcDbEntity
  8
1
  6
Continuous
100
AcDbLine
 10
69.737817
 20
148.5531879999998
 30
0.0
 11
69.23781700000001
 21
149.0531879999998
 31
0.0
  0
LINE
  5
9681
330
9576
100
AcDbEntity
  8
1
  6
Continuous
100
AcDbLine
 10
103.0418169999999
 20
140.0531879999997
 30
0.0
 11
103.0418169999999
 21
148.0531879999998
 31
0.0
  0
LINE
  5
9682
330
9576
100
AcDbEntity
  8
1
  6
Continuous
100
AcDbLine
 10
115.041817
 20
140.5531879999998
 30
0.0
 11
115.041817
 21
147.5531879999998
 31
0.0
  0
LINE
  5
9683
330
9576
100
AcDbEntity
  8
1
  6
Continuous
100
AcDbLine
 10
113.5418169999999
 20
140.0531879999997
 30
0.0
 11
113.5418169999999
 21
142.1121879999998
 31
0.0
  0
LINE
  5
9684
330
9576
100
AcDbEntity
  8
1
  6
Continuous
100
AcDbLine
 10
97.54181700000003
 20
140.0531879999997
 30
0.0
 11
103.0418169999999
 21
140.0531879999997
 31
0.0
  0
LINE
  5
9685
330
9576
100
AcDbEntity
  8
1
  6
Continuous
100
AcDbLine
 10
114.5418169999999
 20
140.0531879999997
 30
0.0
 11
115.041817
 21
140.5531879999998
 31
0.0
  0
LINE
  5
9686
330
9576
100
AcDbEntity
  8
1
  6
Continuous
100
AcDbLine
 10
115.041817
 20
147.5531879999998
 30
0.0
 11
114.5418169999999
 21
148.0531879999998
 31
0.0
  0
LINE
  5
9687
330
9576
100
AcDbEntity
  8
1
  6
Continuous
100
AcDbLine
 10
114.5418169999999
 20
140.0531879999997
 30
0.0
 11
114.5418169999999
 21
148.0531879999998
 31
0.0
  0
LINE
  5
9688
330
9576
100
AcDbEntity
  8
2
  6
Continuous
100
AcDbLine
 10
97.54181700000003
 20
140.4591879999999
 30
0.0
 11
103.0418169999999
 21
140.4591879999999
 31
0.0
  0
LINE
  5
9689
330
9576
100
AcDbEntity
  8
1
  6
Continuous
100
AcDbLine
 10
116.041817
 20
141.5531879999998
 30
0.0
 11
116.041817
 21
146.5531879999998
 31
0.0
  0
LINE
  5
968A
330
9576
100
AcDbEntity
  8
1
  6
Continuous
100
AcDbLine
 10
115.041817
 20
146.5531879999998
 30
0.0
 11
116.041817
 21
146.5531879999998
 31
0.0
  0
LINE
  5
968B
330
9576
100
AcDbEntity
  8
1
  6
Continuous
100
AcDbLine
 10
115.041817
 20
141.5531879999998
 30
0.0
 11
116.041817
 21
141.5531879999998
 31
0.0
  0
LINE
  5
968C
330
9576
100
AcDbEntity
  8
1
  6
Continuous
100
AcDbLine
 10
113.0418169999999
 20
142.0531879999998
 30
0.0
 11
113.5418169999999
 21
142.0531879999998
 31
0.0
  0
LINE
  5
968D
330
9576
100
AcDbEntity
  8
1
  6
Continuous
100
AcDbLine
 10
118.041817
 20
142.8531879999999
 30
0.0
 11
118.041817
 21
145.2531879999999
 31
0.0
  0
LINE
  5
968E
330
9576
100
AcDbEntity
  8
1
  6
Continuous
100
AcDbLine
 10
116.041817
 20
145.2531879999999
 30
0.0
 11
116.3418169999999
 21
145.2531879999999
 31
0.0
  0
LINE
  5
968F
330
9576
100
AcDbEntity
  8
1
  6
Continuous
100
AcDbLine
 10
116.041817
 20
142.8531879999999
 30
0.0
 11
116.3418169999999
 21
142.8531879999999
 31
0.0
  0
LINE
  5
9690
330
9576
100
AcDbEntity
  8
1
  6
Continuous
100
AcDbLine
 10
116.3418169999999
 20
142.8531879999999
 30
0.0
 11
116.3418169999999
 21
145.2531879999999
 31
0.0
  0
LINE
  5
9691
330
9576
100
AcDbEntity
  8
1
  6
Continuous
100
AcDbLine
 10
116.3418169999999
 20
144.8181879999999
 30
0.0
 11
116.4418169999999
 21
144.8181879999999
 31
0.0
  0
LINE
  5
9692
330
9576
100
AcDbEntity
  8
1
  6
Continuous
100
AcDbLine
 10
116.3418169999999
 20
143.2881879999999
 30
0.0
 11
116.4418169999999
 21
143.2881879999999
 31
0.0
  0
LINE
  5
9693
330
9576
100
AcDbEntity
  8
1
  6
Continuous
100
AcDbLine
 10
116.841817
 20
145.2531879999999
 30
0.0
 11
118.041817
 21
145.2531879999999
 31
0.0
  0
LINE
  5
9694
330
9576
100
AcDbEntity
  8
1
  6
Continuous
100
AcDbLine
 10
116.841817
 20
142.8531879999999
 30
0.0
 11
118.041817
 21
142.8531879999999
 31
0.0
  0
LINE
  5
9695
330
9576
100
AcDbEntity
  8
1
  6
Continuous
100
AcDbLine
 10
113.0418169999999
 20
141.3031879999998
 30
0.0
 11
113.0418169999999
 21
142.1121879999998
 31
0.0
  0
LINE
  5
9696
330
9576
100
AcDbEntity
  8
1
  6
Continuous
100
AcDbLine
 10
110.5438169999999
 20
141.3031879999998
 30
0.0
 11
113.0418169999999
 21
141.3031879999998
 31
0.0
  0
LINE
  5
9697
330
9576
100
AcDbEntity
  8
1
  6
Continuous
100
AcDbLine
 10
97.54181700000003
 20
148.0531879999998
 30
0.0
 11
114.5418169999999
 21
148.0531879999998
 31
0.0
  0
LINE
  5
9698
330
9576
100
AcDbEntity
  8
2
  6
Continuous
100
AcDbLine
 10
97.54181700000003
 20
147.647188
 30
0.0
 11
103.0418169999999
 21
147.647188
 31
0.0
  0
LINE
  5
9699
330
9576
100
AcDbEntity
  8
2
  6
Continuous
100
AcDbLine
 10
103.0418169999999
 20
147.647188
 30
0.0
 11
103.744817
 21
148.0531879999998
 31
0.0
  0
LINE
  5
969A
330
9576
100
AcDbEntity
  8
1
  6
Continuous
100
AcDbLine
 10
113.5418169999999
 20
140.0531879999997
 30
0.0
 11
114.5418169999999
 21
140.0531879999997
 31
0.0
  0
LINE
  5
969B
330
9576
100
AcDbEntity
  8
1
  6
Continuous
100
AcDbLine
 10
103.0418169999999
 20
142.1121879999998
 30
0.0
 11
113.5418169999999
 21
142.1121879999998
 31
0.0
  0
LINE
  5
969C
330
9576
100
AcDbEntity
  8
1
  6
Continuous
100
AcDbLine
 10
116.041817
 20
95.25318799999999
 30
0.0
 11
116.3418169999999
 21
95.25318799999999
 31
0.0
  0
LINE
  5
969D
330
9576
100
AcDbEntity
  8
1
  6
Continuous
100
AcDbLine
 10
116.041817
 20
92.853688
 30
0.0
 11
116.3418169999999
 21
92.853688
 31
0.0
  0
LINE
  5
969E
330
9576
100
AcDbEntity
  8
1
  6
Continuous
100
AcDbLine
 10
116.841817
 20
92.853688
 30
0.0
 11
118.041817
 21
92.853688
 31
0.0
  0
LINE
  5
969F
330
9576
100
AcDbEntity
  8
1
  6
Continuous
100
AcDbLine
 10
116.841817
 20
95.25318799999999
 30
0.0
 11
118.041817
 21
95.25318799999999
 31
0.0
  0
LINE
  5
96A0
330
9576
100
AcDbEntity
  8
1
  6
Continuous
100
AcDbLine
 10
82.55591700000001
 20
143.4531879999999
 30
0.0
 11
83.541517
 21
143.4531879999999
 31
0.0
  0
LINE
  5
96A1
330
9576
100
AcDbEntity
  8
1
  6
Continuous
100
AcDbLine
 10
82.55591700000001
 20
144.653188
 30
0.0
 11
83.541517
 21
144.653188
 31
0.0
  0
LINE
  5
96A2
330
9576
100
AcDbEntity
  8
1
  6
Continuous
100
AcDbLine
 10
83.541517
 20
144.653188
 30
0.0
 11
83.541517
 21
143.4531879999999
 31
0.0
  0
LINE
  5
96A3
330
9576
100
AcDbEntity
  8
1
  6
Continuous
100
AcDbLine
 10
83.041517
 20
144.653188
 30
0.0
 11
83.041517
 21
147.5531879999998
 31
0.0
  0
LINE
  5
96A4
330
9576
100
AcDbEntity
  8
1
  6
Continuous
100
AcDbLine
 10
82.55591700000001
 20
43.453688
 30
0.0
 11
83.541517
 21
43.453688
 31
0.0
  0
LINE
  5
96A5
330
9576
100
AcDbEntity
  8
1
  6
Continuous
100
AcDbLine
 10
82.55591700000001
 20
44.653688
 30
0.0
 11
83.541517
 21
44.653688
 31
0.0
  0
LINE
  5
96A6
330
9576
100
AcDbEntity
  8
1
  6
Continuous
100
AcDbLine
 10
83.541517
 20
43.453688
 30
0.0
 11
83.541517
 21
44.653688
 31
0.0
  0
LINE
  5
96A7
330
9576
100
AcDbEntity
  8
1
  6
Continuous
100
AcDbLine
 10
83.041517
 20
43.453688
 30
0.0
 11
83.041517
 21
40.553688
 31
0.0
  0
LINE
  5
96A8
330
9576
100
AcDbEntity
  8
1
  6
Continuous
100
AcDbLine
 10
25.471817
 20
89.86788799999997
 30
0.0
 11
25.471817
 21
85.377188
 31
0.0
  0
LINE
  5
96A9
330
9576
100
AcDbEntity
  8
1
  6
Continuous
100
AcDbLine
 10
19.971817
 20
89.86788799999997
 30
0.0
 11
19.971817
 21
85.377188
 31
0.0
  0
LINE
  5
96AA
330
9576
100
AcDbEntity
  8
1
  6
Continuous
100
AcDbLine
 10
97.54181700000003
 20
41.793088
 30
0.0
 11
103.0418169999999
 21
41.793088
 31
0.0
  0
LINE
  5
96AB
330
9576
100
AcDbEntity
  8
1
  6
Continuous
100
AcDbLine
 10
97.54181700000003
 20
46.314188
 30
0.0
 11
103.0418169999999
 21
46.314188
 31
0.0
  0
LINE
  5
96AC
330
9576
100
AcDbEntity
  8
2
  6
Continuous
100
AcDbLine
 10
97.54181700000003
 20
44.41058799999999
 30
0.0
 11
103.0418169999999
 21
41.793088
 31
0.0
  0
LINE
  5
96AD
330
9576
100
AcDbEntity
  8
2
  6
Continuous
100
AcDbLine
 10
103.0418169999999
 20
46.314188
 30
0.0
 11
97.54181700000003
 21
43.696688
 31
0.0
  0
LINE
  5
96AE
330
9576
100
AcDbEntity
  8
1
  6
Continuous
100
AcDbLine
 10
174.159817
 20
94.949188
 30
0.0
 11
174.8748169999998
 21
95.36118800000002
 31
0.0
  0
LINE
  5
96AF
330
9576
100
AcDbEntity
  8
1
  6
Continuous
100
AcDbLine
 10
174.8748169999998
 20
92.74598799999999
 30
0.0
 11
174.159817
 21
93.158188
 31
0.0
  0
LINE
  5
96B0
330
9576
100
AcDbEntity
  8
1
  6
Continuous
100
AcDbLine
 10
173.360817
 20
95.25318799999999
 30
0.0
 11
173.360817
 21
95.453188
 31
0.0
  0
LINE
  5
96B1
330
9576
100
AcDbEntity
  8
1
  6
Continuous
100
AcDbLine
 10
173.360817
 20
92.653688
 30
0.0
 11
173.360817
 21
92.853688
 31
0.0
  0
LINE
  5
96B2
330
9576
100
AcDbEntity
  8
1
  6
Continuous
100
AcDbLine
 10
172.3218169999999
 20
94.653188
 30
0.0
 11
172.1488169999998
 21
94.753188
 31
0.0
  0
LINE
  5
96B3
330
9576
100
AcDbEntity
  8
1
  6
Continuous
100
AcDbLine
 10
172.1488169999998
 20
93.35318800000001
 30
0.0
 11
172.3218169999999
 21
93.45318799999999
 31
0.0
  0
LINE
  5
96B4
330
9576
100
AcDbEntity
  8
1
  6
Continuous
100
AcDbLine
 10
116.4418169999999
 20
96.053188
 30
0.0
 11
116.841817
 21
96.053188
 31
0.0
  0
LINE
  5
96B5
330
9576
100
AcDbEntity
  8
1
  6
Continuous
100
AcDbLine
 10
116.4418169999999
 20
92.053688
 30
0.0
 11
116.841817
 21
92.053688
 31
0.0
  0
LINE
  5
96B6
330
9576
100
AcDbEntity
  8
1
  6
Continuous
100
AcDbLine
 10
116.4418169999999
 20
96.053188
 30
0.0
 11
116.4418169999999
 21
92.053688
 31
0.0
  0
LINE
  5
96B7
330
9576
100
AcDbEntity
  8
1
  6
Continuous
100
AcDbLine
 10
116.841817
 20
145.5671879999998
 30
0.0
 11
116.841817
 21
142.0531879999998
 31
0.0
  0
LINE
  5
96B8
330
9576
100
AcDbEntity
  8
1
  6
Continuous
100
AcDbLine
 10
116.4418169999999
 20
145.5671879999998
 30
0.0
 11
116.4418169999999
 21
142.0531879999998
 31
0.0
  0
LINE
  5
96B9
330
9576
100
AcDbEntity
  8
1
  6
Continuous
100
AcDbLine
 10
116.4418169999999
 20
142.0531879999998
 30
0.0
 11
116.841817
 21
142.0531879999998
 31
0.0
  0
LINE
  5
96BA
330
9576
100
AcDbEntity
  8
1
  6
Continuous
100
AcDbLine
 10
116.4418169999999
 20
145.5671879999998
 30
0.0
 11
116.841817
 21
145.5671879999998
 31
0.0
  0
LINE
  5
96BB
330
9576
100
AcDbEntity
  8
1
  6
Continuous
100
AcDbLine
 10
116.4418169999999
 20
42.540388
 30
0.0
 11
116.841817
 21
42.540388
 31
0.0
  0
LINE
  5
96BC
330
9576
100
AcDbEntity
  8
1
  6
Continuous
100
AcDbLine
 10
116.841817
 20
42.540388
 30
0.0
 11
116.841817
 21
46.05368799999999
 31
0.0
  0
LINE
  5
96BD
330
9576
100
AcDbEntity
  8
1
  6
Continuous
100
AcDbLine
 10
116.4418169999999
 20
42.540388
 30
0.0
 11
116.4418169999999
 21
46.05368799999999
 31
0.0
  0
LINE
  5
96BE
330
9576
100
AcDbEntity
  8
1
  6
Continuous
100
AcDbLine
 10
116.4418169999999
 20
46.05368799999999
 30
0.0
 11
116.841817
 21
46.05368799999999
 31
0.0
  0
LINE
  5
96BF
330
9576
100
AcDbEntity
  8
1
  6
Continuous
100
AcDbLine
 10
258.6808169999998
 20
90.553688
 30
0.0
 11
248.1808169999999
 21
90.553688
 31
0.0
  0
LINE
  5
96C0
330
9576
100
AcDbEntity
  8
1
  6
Continuous
100
AcDbLine
 10
258.6808169999998
 20
97.55318800000001
 30
0.0
 11
248.1808169999999
 21
97.55318800000001
 31
0.0
  0
LINE
  5
96C1
330
9576
100
AcDbEntity
  8
1
  6
Continuous
100
AcDbLine
 10
248.1808169999999
 20
98.80318800000001
 30
0.0
 11
248.1808169999999
 21
89.30368799999998
 31
0.0
  0
LINE
  5
96C2
330
9576
100
AcDbEntity
  8
1
  6
Continuous
100
AcDbLine
 10
258.6808169999998
 20
97.55318800000001
 30
0.0
 11
258.6808169999998
 21
90.553688
 31
0.0
  0
LINE
  5
96C3
330
9576
100
AcDbEntity
  8
4
  6
CENTER
100
AcDbLine
 10
260.7288169999999
 20
94.05318800000001
 30
0.0
 11
222.8018169999999
 21
94.05318800000001
 31
0.0
  0
LINE
  5
96C4
330
9576
100
AcDbEntity
  8
1
  6
Continuous
100
AcDbLine
 10
258.1808169999998
 20
97.053188
 30
0.0
 11
248.1808169999999
 21
97.053188
 31
0.0
  0
LINE
  5
96C5
330
9576
100
AcDbEntity
  8
1
  6
Continuous
100
AcDbLine
 10
257.680817
 20
96.55318800000001
 30
0.0
 11
248.1808169999999
 21
96.55318800000001
 31
0.0
  0
LINE
  5
96C6
330
9576
100
AcDbEntity
  8
1
  6
Continuous
100
AcDbLine
 10
257.180817
 20
96.053188
 30
0.0
 11
248.1808169999999
 21
96.053188
 31
0.0
  0
LINE
  5
96C7
330
9576
100
AcDbEntity
  8
1
  6
Continuous
100
AcDbLine
 10
256.6808169999998
 20
95.553188
 30
0.0
 11
248.1808169999999
 21
95.553188
 31
0.0
  0
LINE
  5
96C8
330
9576
100
AcDbEntity
  8
1
  6
Continuous
100
AcDbLine
 10
256.1808169999998
 20
95.05318800000001
 30
0.0
 11
248.1808169999999
 21
95.05318800000001
 31
0.0
  0
LINE
  5
96C9
330
9576
100
AcDbEntity
  8
1
  6
Continuous
100
AcDbLine
 10
244.1808169999999
 20
99.05318800000001
 30
0.0
 11
244.1808169999999
 21
89.05368799999996
 31
0.0
  0
LINE
  5
96CA
330
9576
100
AcDbEntity
  8
1
  6
Continuous
100
AcDbLine
 10
248.1808169999999
 20
89.30368799999998
 30
0.0
 11
244.1808169999999
 21
89.05368799999996
 31
0.0
  0
LINE
  5
96CB
330
9576
100
AcDbEntity
  8
1
  6
Continuous
100
AcDbLine
 10
244.1808169999999
 20
99.05318800000001
 30
0.0
 11
248.1808169999999
 21
98.80318800000001
 31
0.0
  0
LINE
  5
96CC
330
9576
100
AcDbEntity
  8
1
  6
Continuous
100
AcDbLine
 10
238.680817
 20
98.05318800000001
 30
0.0
 11
238.680817
 21
90.75368799999999
 31
0.0
  0
LINE
  5
96CD
330
9576
100
AcDbEntity
  8
1
  6
Continuous
100
AcDbLine
 10
226.680817
 20
97.55318800000001
 30
0.0
 11
226.680817
 21
90.553688
 31
0.0
  0
LINE
  5
96CE
330
9576
100
AcDbEntity
  8
1
  6
Continuous
100
AcDbLine
 10
228.180817
 20
92.11208799999999
 30
0.0
 11
228.180817
 21
90.05368799999997
 31
0.0
  0
LINE
  5
96CF
330
9576
100
AcDbEntity
  8
1
  6
Continuous
100
AcDbLine
 10
244.1808169999999
 20
98.05318800000001
 30
0.0
 11
227.1808169999999
 21
98.05318800000001
 31
0.0
  0
LINE
  5
96D0
330
9576
100
AcDbEntity
  8
1
  6
Continuous
100
AcDbLine
 10
244.1808169999999
 20
90.75368799999999
 30
0.0
 11
238.680817
 21
90.75368799999999
 31
0.0
  0
LINE
  5
96D1
330
9576
100
AcDbEntity
  8
1
  6
Continuous
100
AcDbLine
 10
228.180817
 20
90.05368799999997
 30
0.0
 11
227.1808169999999
 21
90.05368799999997
 31
0.0
  0
LINE
  5
96D2
330
9576
100
AcDbEntity
  8
1
  6
Continuous
100
AcDbLine
 10
227.1808169999999
 20
98.05318800000001
 30
0.0
 11
226.680817
 21
97.55318800000001
 31
0.0
  0
LINE
  5
96D3
330
9576
100
AcDbEntity
  8
1
  6
Continuous
100
AcDbLine
 10
226.680817
 20
90.553688
 30
0.0
 11
227.1808169999999
 21
90.05368799999997
 31
0.0
  0
LINE
  5
96D4
330
9576
100
AcDbEntity
  8
1
  6
Continuous
100
AcDbLine
 10
227.1808169999999
 20
98.05318800000001
 30
0.0
 11
227.1808169999999
 21
90.05368799999997
 31
0.0
  0
LINE
  5
96D5
330
9576
100
AcDbEntity
  8
2
  6
Continuous
100
AcDbLine
 10
244.1808169999999
 20
97.647188
 30
0.0
 11
238.680817
 21
97.647188
 31
0.0
  0
LINE
  5
96D6
330
9576
100
AcDbEntity
  8
2
  6
Continuous
100
AcDbLine
 10
238.680817
 20
97.647188
 30
0.0
 11
237.9778169999999
 21
98.05318800000001
 31
0.0
  0
LINE
  5
96D7
330
9576
100
AcDbEntity
  8
1
  6
Continuous
100
AcDbLine
 10
225.6808169999999
 20
96.55318800000001
 30
0.0
 11
225.6808169999999
 21
91.55368799999999
 31
0.0
  0
LINE
  5
96D8
330
9576
100
AcDbEntity
  8
1
  6
Continuous
100
AcDbLine
 10
226.680817
 20
91.55368799999999
 30
0.0
 11
225.6808169999999
 21
91.55368799999999
 31
0.0
  0
LINE
  5
96D9
330
9576
100
AcDbEntity
  8
1
  6
Continuous
100
AcDbLine
 10
226.680817
 20
96.55318800000001
 30
0.0
 11
225.6808169999999
 21
96.55318800000001
 31
0.0
  0
LINE
  5
96DA
330
9576
100
AcDbEntity
  8
1
  6
Continuous
100
AcDbLine
 10
228.680817
 20
92.053688
 30
0.0
 11
228.180817
 21
92.053688
 31
0.0
  0
LINE
  5
96DB
330
9576
100
AcDbEntity
  8
1
  6
Continuous
100
AcDbLine
 10
223.6808169999999
 20
95.25318799999999
 30
0.0
 11
223.6808169999999
 21
92.853688
 31
0.0
  0
LINE
  5
96DC
330
9576
100
AcDbEntity
  8
1
  6
Continuous
100
AcDbLine
 10
225.3808169999998
 20
95.25318799999999
 30
0.0
 11
225.3808169999998
 21
92.853688
 31
0.0
  0
LINE
  5
96DD
330
9576
100
AcDbEntity
  8
1
  6
Continuous
100
AcDbLine
 10
224.8808169999998
 20
96.053188
 30
0.0
 11
224.8808169999998
 21
92.053688
 31
0.0
  0
LINE
  5
96DE
330
9576
100
AcDbEntity
  8
1
  6
Continuous
100
AcDbLine
 10
225.3808169999998
 20
93.288188
 30
0.0
 11
225.2808169999999
 21
93.288188
 31
0.0
  0
LINE
  5
96DF
330
9576
100
AcDbEntity
  8
1
  6
Continuous
100
AcDbLine
 10
225.3808169999998
 20
94.818188
 30
0.0
 11
225.2808169999999
 21
94.818188
 31
0.0
  0
LINE
  5
96E0
330
9576
100
AcDbEntity
  8
1
  6
Continuous
100
AcDbLine
 10
231.080817
 20
88.55368799999999
 30
0.0
 11
233.1808169999999
 21
85.377188
 31
0.0
  0
LINE
  5
96E1
330
9576
100
AcDbEntity
  8
1
  6
Continuous
100
AcDbLine
 10
231.1788169999999
 20
84.05368799999996
 30
0.0
 11
233.1808169999999
 21
85.377188
 31
0.0
  0
LINE
  5
96E2
330
9576
100
AcDbEntity
  8
1
  6
Continuous
100
AcDbLine
 10
229.0788169999999
 20
87.23008799999998
 30
0.0
 11
231.1788169999999
 21
84.05368799999996
 31
0.0
  0
LINE
  5
96E3
330
9576
100
AcDbEntity
  8
1
  6
Continuous
100
AcDbLine
 10
231.080817
 20
92.11208799999999
 30
0.0
 11
231.080817
 21
88.55368799999999
 31
0.0
  0
LINE
  5
96E4
330
9576
100
AcDbEntity
  8
1
  6
Continuous
100
AcDbLine
 10
228.680817
 20
92.11208799999999
 30
0.0
 11
228.680817
 21
88.55368799999999
 31
0.0
  0
LINE
  5
96E5
330
9576
100
AcDbEntity
  8
1
  6
Continuous
100
AcDbLine
 10
238.680817
 20
92.11208799999999
 30
0.0
 11
228.180817
 21
92.11208799999999
 31
0.0
  0
LINE
  5
96E6
330
9576
100
AcDbEntity
  8
1
  6
Continuous
100
AcDbLine
 10
225.6808169999999
 20
95.25318799999999
 30
0.0
 11
225.3808169999998
 21
95.25318799999999
 31
0.0
  0
LINE
  5
96E7
330
9576
100
AcDbEntity
  8
1
  6
Continuous
100
AcDbLine
 10
225.6808169999999
 20
92.853688
 30
0.0
 11
225.3808169999998
 21
92.853688
 31
0.0
  0
LINE
  5
96E8
330
9576
100
AcDbEntity
  8
1
  6
Continuous
100
AcDbLine
 10
224.8808169999998
 20
92.853688
 30
0.0
 11
223.6808169999999
 21
92.853688
 31
0.0
  0
LINE
  5
96E9
330
9576
100
AcDbEntity
  8
1
  6
Continuous
100
AcDbLine
 10
224.8808169999998
 20
95.25318799999999
 30
0.0
 11
223.6808169999999
 21
95.25318799999999
 31
0.0
  0
LINE
  5
96EA
330
9576
100
AcDbEntity
  8
1
  6
Continuous
100
AcDbLine
 10
225.2808169999999
 20
96.053188
 30
0.0
 11
224.8808169999998
 21
96.053188
 31
0.0
  0
LINE
  5
96EB
330
9576
100
AcDbEntity
  8
1
  6
Continuous
100
AcDbLine
 10
225.2808169999999
 20
92.053688
 30
0.0
 11
224.8808169999998
 21
92.053688
 31
0.0
  0
LINE
  5
96EC
330
9576
100
AcDbEntity
  8
1
  6
Continuous
100
AcDbLine
 10
225.2808169999999
 20
96.053188
 30
0.0
 11
225.2808169999999
 21
92.053688
 31
0.0
  0
CIRCLE
  5
96ED
330
9576
100
AcDbEntity
  8
1
  6
Continuous
100
AcDbCircle
 10
22.721817
 20
94.05318800000001
 30
0.0
 40
3.5
  0
ARC
  5
96EE
330
9576
100
AcDbEntity
  8
1
  6
Continuous
100
AcDbCircle
 10
95.041817
 20
44.053688
 30
0.0
 40
12.5
100
AcDbArc
 50
163.74
 51
177.249
  0
CIRCLE
  5
96EF
330
9576
100
AcDbEntity
  8
1
  6
Continuous
100
AcDbCircle
 10
22.721817
 20
94.05318800000001
 30
0.0
 40
4.75
  0
CIRCLE
  5
96F0
330
9576
100
AcDbEntity
  8
1
  6
Continuous
100
AcDbCircle
 10
22.721817
 20
94.05318800000001
 30
0.0
 40
5.0
  0
ARC
  5
96F1
330
9576
100
AcDbEntity
  8
1
  6
Continuous
100
AcDbCircle
 10
64.304417
 20
41.330388
 30
0.0
 40
5.43337
100
AcDbArc
 50
335.2269999999998
 51
24.77289999999999
  0
ARC
  5
96F2
330
9576
100
AcDbEntity
  8
1
  6
Continuous
100
AcDbCircle
 10
64.304417
 20
46.776988
 30
0.0
 40
5.43337
100
AcDbArc
 50
335.2269999999998
 51
24.77289999999999
  0
ARC
  5
96F3
330
9576
100
AcDbEntity
  8
1
  6
Continuous
100
AcDbCircle
 10
22.721817
 20
94.05318800000001
 30
0.0
 40
5.5
100
AcDbArc
 50
144.62
 51
155.38
  0
ARC
  5
96F4
330
9576
100
AcDbEntity
  8
1
  6
Continuous
100
AcDbCircle
 10
22.721817
 20
94.05318800000001
 30
0.0
 40
5.5
100
AcDbArc
 50
204.62
 51
215.38
  0
ARC
  5
96F5
330
9576
100
AcDbEntity
  8
1
  6
Continuous
100
AcDbCircle
 10
22.721817
 20
94.05318800000001
 30
0.0
 40
5.5
100
AcDbArc
 50
264.6199999999998
 51
275.38
  0
ARC
  5
96F6
330
9576
100
AcDbEntity
  8
1
  6
Continuous
100
AcDbCircle
 10
22.721817
 20
94.05318800000001
 30
0.0
 40
5.5
100
AcDbArc
 50
324.6199999999999
 51
335.38
  0
ARC
  5
96F7
330
9576
100
AcDbEntity
  8
1
  6
Continuous
100
AcDbCircle
 10
22.721817
 20
94.05318800000001
 30
0.0
 40
5.5
100
AcDbArc
 50
24.61999999999999
 51
35.38000000000001
  0
ARC
  5
96F8
330
9576
100
AcDbEntity
  8
1
  6
Continuous
100
AcDbCircle
 10
22.721817
 20
94.05318800000001
 30
0.0
 40
5.5
100
AcDbArc
 50
84.62000000000001
 51
95.38
  0
ARC
  5
96F9
330
9576
100
AcDbEntity
  8
1
  6
Continuous
100
AcDbCircle
 10
68.147417
 20
98.396188
 30
0.0
 40
1.59041
100
AcDbArc
 50
313.2839999999998
 51
46.716
  0
ARC
  5
96FA
330
9576
100
AcDbEntity
  8
1
  6
Continuous
100
AcDbCircle
 10
64.23781700000001
 20
94.05318800000001
 30
0.0
 40
5.5
100
AcDbArc
 50
335.38
 51
24.61999999999999
  0
ARC
  5
96FB
330
9576
100
AcDbEntity
  8
1
  6
Continuous
100
AcDbCircle
 10
68.147417
 20
89.711388
 30
0.0
 40
1.59041
100
AcDbArc
 50
313.2839999999998
 51
46.716
  0
ARC
  5
96FC
330
9576
100
AcDbEntity
  8
1
  6
Continuous
100
AcDbCircle
 10
173.360817
 20
94.05318800000001
 30
0.0
 40
5.5
100
AcDbArc
 50
24.61999999999999
 51
35.38000000000001
  0
ARC
  5
96FD
330
9576
100
AcDbEntity
  8
1
  6
Continuous
100
AcDbCircle
 10
173.360817
 20
94.05318800000001
 30
0.0
 40
5.5
100
AcDbArc
 50
324.6199999999999
 51
335.38
  0
ARC
  5
96FE
330
9576
100
AcDbEntity
  8
1
  6
Continuous
100
AcDbCircle
 10
173.360817
 20
94.05318800000001
 30
0.0
 40
5.5
100
AcDbArc
 50
264.6199999999998
 51
275.38
  0
ARC
  5
96FF
330
9576
100
AcDbEntity
  8
1
  6
Continuous
100
AcDbCircle
 10
173.360817
 20
94.05318800000001
 30
0.0
 40
5.5
100
AcDbArc
 50
204.62
 51
215.38
  0
ARC
  5
9700
330
9576
100
AcDbEntity
  8
1
  6
Continuous
100
AcDbCircle
 10
173.360817
 20
94.05318800000001
 30
0.0
 40
5.5
100
AcDbArc
 50
144.62
 51
155.38
  0
ARC
  5
9701
330
9576
100
AcDbEntity
  8
1
  6
Continuous
100
AcDbCircle
 10
173.360817
 20
94.05318800000001
 30
0.0
 40
5.5
100
AcDbArc
 50
84.62000000000001
 51
95.38
  0
CIRCLE
  5
9702
330
9576
100
AcDbEntity
  8
1
  6
Continuous
100
AcDbCircle
 10
173.360817
 20
94.05318800000001
 30
0.0
 40
5.0
  0
ARC
  5
9703
330
9576
100
AcDbEntity
  8
1
  6
Continuous
100
AcDbCircle
 10
103.301817
 20
45.903688
 30
0.0
 40
0.2
100
AcDbArc
 50
15.4122
 51
164.588
  0
ARC
  5
9704
330
9576
100
AcDbEntity
  8
1
  6
Continuous
100
AcDbCircle
 10
105.341817
 20
45.903688
 30
0.0
 40
0.2
100
AcDbArc
 50
15.4122
 51
164.588
  0
ARC
  5
9705
330
9576
100
AcDbEntity
  8
1
  6
Continuous
100
AcDbCircle
 10
107.381817
 20
45.903688
 30
0.0
 40
0.2
100
AcDbArc
 50
15.4122
 51
164.588
  0
ARC
  5
9706
330
9576
100
AcDbEntity
  8
1
  6
Continuous
100
AcDbCircle
 10
108.401817
 20
42.203688
 30
0.0
 40
0.2
100
AcDbArc
 50
195.4119999999998
 51
344.588
  0
ARC
  5
9707
330
9576
100
AcDbEntity
  8
1
  6
Continuous
100
AcDbCircle
 10
106.3618169999999
 20
42.203688
 30
0.0
 40
0.2
100
AcDbArc
 50
195.4119999999998
 51
344.588
  0
ARC
  5
9708
330
9576
100
AcDbEntity
  8
1
  6
Continuous
100
AcDbCircle
 10
104.321817
 20
42.203688
 30
0.0
 40
0.2
100
AcDbArc
 50
195.4119999999998
 51
344.588
  0
ARC
  5
9709
330
9576
100
AcDbEntity
  8
5
  6
PHANTOM
100
AcDbCircle
 10
27.879617
 20
94.05318800000001
 30
0.0
 40
3.518619999999998
100
AcDbArc
 50
308.5969999999999
 51
51.4033
  0
ARC
  5
970A
330
9576
100
AcDbEntity
  8
5
  6
PHANTOM
100
AcDbCircle
 10
29.203217
 20
94.05318800000001
 30
0.0
 40
3.518619999999998
100
AcDbArc
 50
308.5969999999999
 51
51.4033
  0
ARC
  5
970B
330
9576
100
AcDbEntity
  8
1
  6
Continuous
100
AcDbCircle
 10
95.041817
 20
94.05318800000001
 30
0.0
 40
12.5
100
AcDbArc
 50
163.74
 51
196.26
  0
ARC
  5
970C
330
9576
100
AcDbEntity
  8
5
  6
PHANTOM
100
AcDbCircle
 10
103.641817
 20
88.55368799999999
 30
0.0
 40
2.399999999999999
100
AcDbArc
 50
326.5309999999999
 51
0.0
  0
ARC
  5
970D
330
9576
100
AcDbEntity
  8
1
  6
Continuous
100
AcDbCircle
 10
110.6418169999999
 20
88.55368799999999
 30
0.0
 40
2.399999999999999
100
AcDbArc
 50
326.5309999999999
 51
0.0
  0
ARC
  5
970E
330
9576
100
AcDbEntity
  8
1
  6
Continuous
100
AcDbCircle
 10
110.4418169999999
 20
92.20368800000001
 30
0.0
 40
0.2
100
AcDbArc
 50
180.0
 51
0.00001
  0
ARC
  5
970F
330
9576
100
AcDbEntity
  8
1
  6
Continuous
100
AcDbCircle
 10
103.301817
 20
95.903188
 30
0.0
 40
0.2
100
AcDbArc
 50
15.4122
 51
164.588
  0
ARC
  5
9710
330
9576
100
AcDbEntity
  8
1
  6
Continuous
100
AcDbCircle
 10
105.341817
 20
95.903188
 30
0.0
 40
0.2
100
AcDbArc
 50
15.4122
 51
164.588
  0
ARC
  5
9711
330
9576
100
AcDbEntity
  8
1
  6
Continuous
100
AcDbCircle
 10
107.381817
 20
95.903188
 30
0.0
 40
0.2
100
AcDbArc
 50
15.4122
 51
164.588
  0
ARC
  5
9712
330
9576
100
AcDbEntity
  8
1
  6
Continuous
100
AcDbCircle
 10
109.4218169999999
 20
95.903188
 30
0.0
 40
0.2
100
AcDbArc
 50
15.4122
 51
164.588
  0
ARC
  5
9713
330
9576
100
AcDbEntity
  8
1
  6
Continuous
100
AcDbCircle
 10
108.401817
 20
92.20368800000001
 30
0.0
 40
0.2
100
AcDbArc
 50
195.4119999999998
 51
344.588
  0
ARC
  5
9714
330
9576
100
AcDbEntity
  8
1
  6
Continuous
100
AcDbCircle
 10
106.3618169999999
 20
92.20368800000001
 30
0.0
 40
0.2
100
AcDbArc
 50
195.4119999999998
 51
344.588
  0
ARC
  5
9715
330
9576
100
AcDbEntity
  8
1
  6
Continuous
100
AcDbCircle
 10
104.321817
 20
92.20368800000001
 30
0.0
 40
0.2
100
AcDbArc
 50
195.4119999999998
 51
344.588
  0
CIRCLE
  5
9716
330
9576
100
AcDbEntity
  8
1
  6
Continuous
100
AcDbCircle
 10
110.4418169999999
 20
95.903188
 30
0.0
 40
0.2
  0
ARC
  5
9717
330
9576
100
AcDbEntity
  8
1
  6
Continuous
100
AcDbCircle
 10
173.360817
 20
87.572288
 30
0.0
 40
3.518619999999998
100
AcDbArc
 50
218.597
 51
321.403
  0
ARC
  5
9718
330
9576
100
AcDbEntity
  8
1
  6
Continuous
100
AcDbCircle
 10
111.4308169999999
 20
44.053688
 30
0.0
 40
2.88972
100
AcDbArc
 50
107.89
 51
252.11
  0
ARC
  5
9719
330
9576
100
AcDbEntity
  8
1
  6
Continuous
100
AcDbCircle
 10
113.3058169999999
 20
44.053688
 30
0.0
 40
2.762709999999998
100
AcDbArc
 50
95.49899999999999
 51
264.5009999999999
  0
ARC
  5
971A
330
9576
100
AcDbEntity
  8
1
  6
Continuous
100
AcDbCircle
 10
95.041817
 20
144.0531879999998
 30
0.0
 40
12.5
100
AcDbArc
 50
163.74
 51
177.249
  0
ARC
  5
971B
330
9576
100
AcDbEntity
  8
1
  6
Continuous
100
AcDbCircle
 10
64.304417
 20
146.7771879999999
 30
0.0
 40
5.43337
100
AcDbArc
 50
335.2269999999998
 51
24.77289999999999
  0
ARC
  5
971C
330
9576
100
AcDbEntity
  8
1
  6
Continuous
100
AcDbCircle
 10
64.304417
 20
141.3301879999998
 30
0.0
 40
5.43337
100
AcDbArc
 50
335.2269999999998
 51
24.77289999999999
  0
ARC
  5
971D
330
9576
100
AcDbEntity
  8
1
  6
Continuous
100
AcDbCircle
 10
103.301817
 20
142.2031879999998
 30
0.0
 40
0.2
100
AcDbArc
 50
207.244
 51
332.7559999999999
  0
ARC
  5
971E
330
9576
100
AcDbEntity
  8
1
  6
Continuous
100
AcDbCircle
 10
105.341817
 20
142.2031879999998
 30
0.0
 40
0.2
100
AcDbArc
 50
207.244
 51
332.7559999999999
  0
ARC
  5
971F
330
9576
100
AcDbEntity
  8
1
  6
Continuous
100
AcDbCircle
 10
107.381817
 20
142.2031879999998
 30
0.0
 40
0.2
100
AcDbArc
 50
207.244
 51
332.7559999999999
  0
ARC
  5
9720
330
9576
100
AcDbEntity
  8
1
  6
Continuous
100
AcDbCircle
 10
111.4308169999999
 20
144.0531879999998
 30
0.0
 40
2.88972
100
AcDbArc
 50
222.2129999999999
 51
252.11
  0
CIRCLE
  5
9721
330
9576
100
AcDbEntity
  8
1
  6
Continuous
100
AcDbCircle
 10
173.360817
 20
94.05318800000001
 30
0.0
 40
4.0
  0
CIRCLE
  5
9722
330
9576
100
AcDbEntity
  8
1
  6
Continuous
100
AcDbCircle
 10
173.360817
 20
94.05318800000001
 30
0.0
 40
3.5
  0
CIRCLE
  5
9723
330
9576
100
AcDbEntity
  8
1
  6
Continuous
100
AcDbCircle
 10
173.360817
 20
94.05318800000001
 30
0.0
 40
2.5
  0
CIRCLE
  5
9724
330
9576
100
AcDbEntity
  8
1
  6
Continuous
100
AcDbCircle
 10
173.360817
 20
94.05318800000001
 30
0.0
 40
1.199999999999999
  0
ARC
  5
9725
330
9576
100
AcDbEntity
  8
1
  6
Continuous
100
AcDbCircle
 10
95.041817
 20
144.0531879999998
 30
0.0
 40
12.5
100
AcDbArc
 50
182.751
 51
196.26
  0
ARC
  5
9726
330
9576
100
AcDbEntity
  8
1
  6
Continuous
100
AcDbCircle
 10
95.041817
 20
44.053688
 30
0.0
 40
12.5
100
AcDbArc
 50
182.751
 51
196.26
  0
ARC
  5
9727
330
9576
100
AcDbEntity
  8
1
  6
Continuous
100
AcDbCircle
 10
22.721817
 20
88.895888
 30
0.0
 40
3.518619999999998
100
AcDbArc
 50
218.597
 51
321.403
  0
ARC
  5
9728
330
9576
100
AcDbEntity
  8
1
  6
Continuous
100
AcDbCircle
 10
22.721817
 20
87.572288
 30
0.0
 40
3.518619999999998
100
AcDbArc
 50
218.597
 51
321.403
  0
ARC
  5
9729
330
9576
100
AcDbEntity
  8
1
  6
Continuous
100
AcDbCircle
 10
173.360817
 20
94.05318800000001
 30
0.0
 40
2.0
100
AcDbArc
 50
40.8312
 51
319.1689999999999
  0
ARC
  5
972A
330
9576
100
AcDbEntity
  8
1
  6
Continuous
100
AcDbCircle
 10
173.360817
 20
94.05318800000001
 30
0.0
 40
1.399999999999999
100
AcDbArc
 50
90.0
 51
150.0
  0
ARC
  5
972B
330
9576
100
AcDbEntity
  8
1
  6
Continuous
100
AcDbCircle
 10
173.360817
 20
94.05318800000001
 30
0.0
 40
1.399999999999999
100
AcDbArc
 50
210.0
 51
270.0
  0
ARC
  5
972C
330
9576
100
AcDbEntity
  8
1
  6
Continuous
100
AcDbCircle
 10
246.6808169999999
 20
94.05318800000001
 30
0.0
 40
12.5
100
AcDbArc
 50
343.74
 51
16.2602
  0
ARC
  5
972D
330
9576
100
AcDbEntity
  8
1
  6
Continuous
100
AcDbCircle
 10
231.080817
 20
88.55368799999999
 30
0.0
 40
2.399999999999999
100
AcDbArc
 50
180.0
 51
213.4689999999999
  0
ARC
  5
972E
330
9576
100
AcDbEntity
  8
1
  6
Continuous
100
AcDbCircle
 10
231.2808169999999
 20
92.20368800000001
 30
0.0
 40
0.2
100
AcDbArc
 50
207.2429999999998
 51
332.7569999999998
  0
ARC
  5
972F
330
9576
100
AcDbEntity
  8
1
  6
Continuous
100
AcDbCircle
 10
233.320817
 20
92.20368800000001
 30
0.0
 40
0.2
100
AcDbArc
 50
207.2429999999998
 51
332.7569999999998
  0
ARC
  5
9730
330
9576
100
AcDbEntity
  8
1
  6
Continuous
100
AcDbCircle
 10
235.360817
 20
92.20368800000001
 30
0.0
 40
0.2
100
AcDbArc
 50
207.2429999999998
 51
332.7569999999998
  0
ARC
  5
9731
330
9576
100
AcDbEntity
  8
1
  6
Continuous
100
AcDbCircle
 10
237.4008169999999
 20
92.20368800000001
 30
0.0
 40
0.2
100
AcDbArc
 50
207.2429999999998
 51
332.7569999999998
  0
ARC
  5
9732
330
9576
100
AcDbEntity
  8
1
  6
Continuous
100
AcDbCircle
 10
272.5742069999999
 20
89.711388
 30
0.0
 40
1.59041
100
AcDbArc
 50
133.284
 51
226.716
  0
ARC
  5
9733
330
9576
100
AcDbEntity
  8
1
  6
Continuous
100
AcDbCircle
 10
276.4838069999999
 20
94.05318800000001
 30
0.0
 40
5.5
100
AcDbArc
 50
155.38
 51
204.62
  0
ARC
  5
9734
330
9576
100
AcDbEntity
  8
1
  6
Continuous
100
AcDbCircle
 10
272.5742069999999
 20
98.396188
 30
0.0
 40
1.59041
100
AcDbArc
 50
133.284
 51
226.716
  0
LINE
  5
9735
330
9576
100
AcDbEntity
  8
1
  6
Continuous
100
AcDbLine
 10
271.4838069999998
 20
91.762388
 30
0.0
 11
271.4838069999998
 21
90.86918799999999
 31
0.0
  0
LINE
  5
9736
330
9576
100
AcDbEntity
  8
1
  6
Continuous
100
AcDbLine
 10
270.9838069999999
 20
89.05368799999996
 30
0.0
 11
271.4838069999998
 21
88.55368799999999
 31
0.0
  0
LINE
  5
9737
330
9576
100
AcDbEntity
  8
1
  6
Continuous
100
AcDbLine
 10
271.4838069999998
 20
99.553188
 30
0.0
 11
270.9838069999999
 21
99.05318800000001
 31
0.0
  0
LINE
  5
9738
330
9576
100
AcDbEntity
  8
1
  6
Continuous
100
AcDbLine
 10
271.4838069999998
 20
97.238188
 30
0.0
 11
271.4838069999998
 21
96.34518800000002
 31
0.0
  0
LINE
  5
9739
330
9576
100
AcDbEntity
  8
4
  6
CENTER
100
AcDbLine
 10
269.1763069999999
 20
94.05318800000001
 30
0.0
 11
274.875607
 21
94.05318800000001
 31
0.0
  0
LINE
  5
973A
330
9576
100
AcDbEntity
  8
1
  6
Continuous
100
AcDbLine
 10
272.9838069999999
 20
99.553188
 30
0.0
 11
272.9838069999999
 21
88.55368799999999
 31
0.0
  0
LINE
  5
973B
330
9576
100
AcDbEntity
  8
1
  6
Continuous
100
AcDbLine
 10
270.9838069999999
 20
99.05318800000001
 30
0.0
 11
270.9838069999999
 21
89.05368799999996
 31
0.0
  0
LINE
  5
973C
330
9576
100
AcDbEntity
  8
1
  6
Continuous
100
AcDbLine
 10
271.4838069999998
 20
97.238188
 30
0.0
 11
272.9838069999999
 21
97.238188
 31
0.0
  0
LINE
  5
973D
330
9576
100
AcDbEntity
  8
1
  6
Continuous
100
AcDbLine
 10
271.4838069999998
 20
96.34518800000002
 30
0.0
 11
272.9838069999999
 21
96.34518800000002
 31
0.0
  0
LINE
  5
973E
330
9576
100
AcDbEntity
  8
1
  6
Continuous
100
AcDbLine
 10
271.4838069999998
 20
91.762388
 30
0.0
 11
272.9838069999999
 21
91.762388
 31
0.0
  0
LINE
  5
973F
330
9576
100
AcDbEntity
  8
1
  6
Continuous
100
AcDbLine
 10
271.4838069999998
 20
90.86918799999999
 30
0.0
 11
272.9838069999999
 21
90.86918799999999
 31
0.0
  0
LINE
  5
9740
330
9576
100
AcDbEntity
  8
1
  6
Continuous
100
AcDbLine
 10
271.4838069999998
 20
99.553188
 30
0.0
 11
272.9838069999999
 21
99.553188
 31
0.0
  0
LINE
  5
9741
330
9576
100
AcDbEntity
  8
1
  6
Continuous
100
AcDbLine
 10
271.4838069999998
 20
88.55368799999999
 30
0.0
 11
272.9838069999999
 21
88.55368799999999
 31
0.0
  0
ENDSEC
  0
SECTION
  2
OBJECTS
  0
DICTIONARY
  5
9564
330
0
100
AcDbDictionary
281
     1
  3
ACAD_CIP_PREVIOUS_PRODUCT_INFO
350
97A5
  3
ACAD_COLOR
350
9787
  3
ACAD_DETAILVIEWSTYLE
350
97A0
  3
ACAD_GROUP
350
9565
  3
ACAD_LAYOUT
350
9571
  3
ACAD_MATERIAL
350
9755
  3
ACAD_MLEADERSTYLE
350
979C
  3
ACAD_MLINESTYLE
350
956E
  3
ACAD_PLOTSETTINGS
350
9570
  3
ACAD_PLOTSTYLENAME
350
9753
  3
ACAD_SCALELIST
350
978A
  3
ACAD_SECTIONVIEWSTYLE
350
979E
  3
ACAD_TABLESTYLE
350
9788
  3
ACAD_VISUALSTYLE
350
976E
  3
ACDB_RECOMPOSE_DATA
350
97C3
  3
AcDbVariableDictionary
350
97B6
  3
DWGPROPS
350
97C4
  0
DICTIONARY
  5
97A6
330
9568
100
AcDbDictionary
280
     1
281
     1
  3
ADSK_XREC_LAYER_RECONCILED
360
97A7
  0
DICTIONARY
  5
97A8
330
957E
100
AcDbDictionary
280
     1
281
     1
  3
ADSK_XREC_LAYER_RECONCILED
360
97A9
  0
DICTIONARY
  5
97AA
330
957F
100
AcDbDictionary
280
     1
281
     1
  3
ADSK_XREC_LAYER_RECONCILED
360
97AB
  0
DICTIONARY
  5
97AC
330
9580
100
AcDbDictionary
280
     1
281
     1
  3
ADSK_XREC_LAYER_RECONCILED
360
97AD
  0
DICTIONARY
  5
97AE
330
9581
100
AcDbDictionary
280
     1
281
     1
  3
ADSK_XREC_LAYER_RECONCILED
360
97AF
  0
DICTIONARY
  5
97B0
330
9582
100
AcDbDictionary
280
     1
281
     1
  3
ADSK_XREC_LAYER_RECONCILED
360
97B1
  0
DICTIONARY
  5
97B2
330
9583
100
AcDbDictionary
280
     1
281
     1
  3
ADSK_XREC_LAYER_RECONCILED
360
97B3
  0
DICTIONARY
  5
97B4
330
9584
100
AcDbDictionary
280
     1
281
     1
  3
ADSK_XREC_LAYER_RECONCILED
360
97B5
  0
DICTIONARY
  5
974E
330
9576
100
AcDbDictionary
281
     1
  3
ACAD_LAYOUTSELFREF
350
974F
  0
DICTIONARY
  5
974C
330
9572
100
AcDbDictionary
281
     1
  3
ACAD_LAYOUTSELFREF
350
974D
  0
XRECORD
  5
97A5
102
{ACAD_REACTORS
330
9564
102
}
330
9564
100
AcDbXrecord
280
     1
300
ACDLT
300
2014
300
ACDLT_F_S
  0
DICTIONARY
  5
9787
102
{ACAD_REACTORS
330
9564
102
}
330
9564
100
AcDbDictionary
281
     1
  0
DICTIONARY
  5
97A0
102
{ACAD_REACTORS
330
9564
102
}
330
9564
100
AcDbDictionary
281
     1
  3
Imperial24
350
97A1
  0
DICTIONARY
  5
9565
102
{ACAD_REACTORS
330
9564
102
}
330
9564
100
AcDbDictionary
281
     1
  0
DICTIONARY
  5
9571
102
{ACAD_REACTORS
330
9564
102
}
330
9564
100
AcDbDictionary
281
     1
  3
Model
350
97A2
  3
レイアウト1
350
97A3
  0
DICTIONARY
  5
9755
102
{ACAD_REACTORS
330
9564
102
}
330
9564
100
AcDbDictionary
281
     1
  3
ByBlock
350
975E
  3
ByLayer
350
9756
  3
Global
350
9766
  0
DICTIONARY
  5
979C
102
{ACAD_REACTORS
330
9564
102
}
330
9564
100
AcDbDictionary
281
     1
  3
Standard
350
979D
  0
DICTIONARY
  5
956E
102
{ACAD_REACTORS
330
9564
102
}
330
9564
100
AcDbDictionary
281
     1
  3
STANDARD
350
956F
  0
DICTIONARY
  5
9570
102
{ACAD_REACTORS
330
9564
102
}
330
9564
100
AcDbDictionary
281
     1
  0
ACDBDICTIONARYWDFLT
  5
9753
102
{ACAD_REACTORS
330
9564
102
}
330
9564
100
AcDbDictionary
281
     1
  3
Normal
350
9754
100
AcDbDictionaryWithDefault
340
9754
  0
DICTIONARY
  5
978A
102
{ACAD_REACTORS
330
9564
102
}
330
9564
100
AcDbDictionary
281
     1
  3
A0
350
978B
  3
A1
350
978C
  3
A2
350
978D
  3
A3
350
978E
  3
A4
350
978F
  3
A5
350
9790
  3
A6
350
9791
  3
A7
350
9792
  3
A8
350
9793
  3
A9
350
9794
  3
B0
350
9795
  3
B1
350
9796
  3
B2
350
9797
  3
B3
350
9798
  3
B4
350
9799
  3
B5
350
979A
  3
B6
350
979B
  0
DICTIONARY
  5
979E
102
{ACAD_REACTORS
330
9564
102
}
330
9564
100
AcDbDictionary
281
     1
  3
Imperial24
350
979F
  0
DICTIONARY
  5
9788
102
{ACAD_REACTORS
330
9564
102
}
330
9564
100
AcDbDictionary
281
     1
  3
Standard
350
9789
  0
DICTIONARY
  5
976E
102
{ACAD_REACTORS
330
9564
102
}
330
9564
100
AcDbDictionary
281
     1
  3
2dWireframe
350
9774
  3
Basic
350
9773
  3
Brighten
350
977A
  3
ColorChange
350
977E
  3
Conceptual
350
9777
  3
Dim
350
9779
  3
EdgeColorOff
350
9786
  3
Facepattern
350
977D
  3
Flat
350
976F
  3
FlatWithEdges
350
9770
  3
Gouraud
350
9771
  3
GouraudWithEdges
350
9772
  3
Hidden
350
9776
  3
JitterOff
350
9784
  3
Linepattern
350
977C
  3
OverhangOff
350
9785
  3
Realistic
350
9778
  3
Shaded
350
9783
  3
Shaded with edges
350
9782
  3
Shades of Gray
350
977F
  3
Sketchy
350
9780
  3
Thicken
350
977B
  3
Wireframe
350
9775
  3
X-Ray
350
9781
  0
XRECORD
  5
97C3
102
{ACAD_REACTORS
330
9564
102
}
330
9564
100
AcDbXrecord
280
     1
 90
        1
330
9789
  0
DICTIONARY
  5
97B6
102
{ACAD_REACTORS
330
9564
102
}
330
9564
100
AcDbDictionary
281
     1
  3
CANNOSCALE
350
97BB
  3
CMLEADERSTYLE
350
97B8
  3
CTABLESTYLE
350
97B7
  3
CVIEWDETAILSTYLE
350
97B9
  3
CVIEWSECTIONSTYLE
350
97BA
  3
DIMASSOC
350
97BE
  3
INDEXCTL
350
97BD
  3
SORTENTS
350
97BC
  3
XCLIPFRAME
350
97BF
  0
XRECORD
  5
97C4
102
{ACAD_REACTORS
330
9564
102
}
330
9564
100
AcDbXrecord
280
     1
  1
DWGPROPS COOKIE
  2

  3

  4

  6

  7

  8
Yoshitsune
  9

300
=
301
=
302
=
303
=
304
=
305
=
306
=
307
=
308
=
309
=
 40
0.0000134143518519
 41
2451073.682031482
 42
2457192.59908426
  1

 90
        0
  0
XRECORD
  5
97A7
102
{ACAD_REACTORS
330
97A6
102
}
330
97A6
100
AcDbXrecord
280
     1
290
     1
  0
XRECORD
  5
97A9
102
{ACAD_REACTORS
330
97A8
102
}
330
97A8
100
AcDbXrecord
280
     1
290
     1
  0
XRECORD
  5
97AB
102
{ACAD_REACTORS
330
97AA
102
}
330
97AA
100
AcDbXrecord
280
     1
290
     1
  0
XRECORD
  5
97AD
102
{ACAD_REACTORS
330
97AC
102
}
330
97AC
100
AcDbXrecord
280
     1
290
     1
  0
XRECORD
  5
97AF
102
{ACAD_REACTORS
330
97AE
102
}
330
97AE
100
AcDbXrecord
280
     1
290
     1
  0
XRECORD
  5
97B1
102
{ACAD_REACTORS
330
97B0
102
}
330
97B0
100
AcDbXrecord
280
     1
290
     1
  0
XRECORD
  5
97B3
102
{ACAD_REACTORS
330
97B2
102
}
330
97B2
100
AcDbXrecord
280
     1
290
     1
  0
XRECORD
  5
97B5
102
{ACAD_REACTORS
330
97B4
102
}
330
97B4
100
AcDbXrecord
280
     1
290
     1
  0
XRECORD
  5
974F
102
{ACAD_REACTORS
330
974E
102
}
330
974E
100
AcDbXrecord
280
     1
340
9576
  0
XRECORD
  5
974D
102
{ACAD_REACTORS
330
974C
102
}
330
974C
100
AcDbXrecord
280
     1
340
9572
  0
ACDBDETAILVIEWSTYLE
  5
97A1
102
{ACAD_XDICTIONARY
360
97FC
102
}
102
{ACAD_REACTORS
330
97A0
102
}
330
97A0
100
AcDbModelDocViewStyle
 70
     0
  3
Imperial24
290
     0
100
AcDbDetailViewStyle
 70
     0
 71
     0
 90
        3
 71
     1
340
9569
 40
0.24
340
0
 40
0.24
300

 40
0.36
280
     3
 71
     2
340
956D
 90
       25
 71
     3
340
9569
 40
0.24
 90
        1
 40
0.75
 90
        1
300
%<\AcVar ViewType \f "%tc1">% %<\AcVar ViewDetailId>%\PSCALE %<\AcVar ViewScale \f "%sn">%
 71
     4
340
956D
 90
       25
340
956D
 90
       25
280
     0
  0
LAYOUT
  5
97A2
102
{ACAD_XDICTIONARY
360
97FE
102
}
102
{ACAD_REACTORS
330
9571
102
}
330
9571
100
AcDbPlotSettings
  1

  2
Canon LBP9100C
  4

  6

 40
0.0
 41
0.0
 42
0.0
 43
0.0
 44
0.0
 45
0.0
 46
0.0
 47
0.0
 48
0.0
 49
0.0
140
0.0
141
0.0
142
1.0
143
1.0
 70
  1712
 72
     0
 73
     0
 74
     0
  7

 75
     0
147
1.0
148
0.0
149
0.0
100
AcDbLayout
  1
Model
 70
     1
 71
     0
 10
0.0
 20
0.0
 11
12.0
 21
9.0
 12
0.0
 22
0.0
 32
0.0
 14
0.0
 24
0.0
 34
0.0
 15
0.0
 25
0.0
 35
0.0
146
0.0
 13
0.0
 23
0.0
 33
0.0
 16
1.0
 26
0.0
 36
0.0
 17
0.0
 27
1.0
 37
0.0
 76
     0
330
9576
331
974B
  0
LAYOUT
  5
97A3
102
{ACAD_XDICTIONARY
360
9800
102
}
102
{ACAD_REACTORS
330
9571
102
}
330
9571
100
AcDbPlotSettings
  1

  2
Canon LBP9100C
  4

  6

 40
0.0
 41
0.0
 42
0.0
 43
0.0
 44
0.0
 45
0.0
 46
0.0
 47
0.0
 48
0.0
 49
0.0
140
0.0
141
0.0
142
1.0
143
1.0
 70
   688
 72
     0
 73
     0
 74
     5
  7

 75
    16
147
1.0
148
0.0
149
0.0
100
AcDbLayout
  1
レイアウト1
 70
     0
 71
     1
 10
0.0
 20
0.0
 11
420.0
 21
297.0
 12
0.0
 22
0.0
 32
0.0
 14
1.000000000000000E+20
 24
1.000000000000000E+20
 34
1.000000000000000E+20
 15
-1.000000000000000E+20
 25
-1.000000000000000E+20
 35
-1.000000000000000E+20
146
0.0
 13
0.0
 23
0.0
 33
0.0
 16
1.0
 26
0.0
 36
0.0
 17
0.0
 27
1.0
 37
0.0
 76
     0
330
9572
  0
MATERIAL
  5
975E
102
{ACAD_XDICTIONARY
360
975F
102
}
102
{ACAD_REACTORS
330
9755
102
}
330
9755
100
AcDbMaterial
  1
ByBlock
 72
     0
 43
0.0208333333333333
 43
0.0
 43
0.0
 43
0.0
 43
0.0
 43
0.0208333333333333
 43
0.0
 43
0.0
 43
0.0
 43
0.0
 43
1.0
 43
0.0
 43
0.0
 43
0.0
 43
0.0
 43
1.0
 77
     0
 47
0.0208333333333333
 47
0.0
 47
0.0
 47
0.0
 47
0.0
 47
0.0208333333333333
 47
0.0
 47
0.0
 47
0.0
 47
0.0
 47
1.0
 47
0.0
 47
0.0
 47
0.0
 47
0.0
 47
1.0
171
     0
 49
0.0208333333333333
 49
0.0
 49
0.0
 49
0.0
 49
0.0
 49
0.0208333333333333
 49
0.0
 49
0.0
 49
0.0
 49
0.0
 49
1.0
 49
0.0
 49
0.0
 49
0.0
 49
0.0
 49
1.0
175
     0
142
0.0208333333333333
142
0.0
142
0.0
142
0.0
142
0.0
142
0.0208333333333333
142
0.0
142
0.0
142
0.0
142
0.0
142
1.0
142
0.0
142
0.0
142
0.0
142
0.0
142
1.0
179
     0
144
0.0208333333333333
144
0.0
144
0.0
144
0.0
144
0.0
144
0.0208333333333333
144
0.0
144
0.0
144
0.0
144
0.0
144
1.0
144
0.0
144
0.0
144
0.0
144
0.0
144
1.0
147
0.0208333333333333
147
0.0
147
0.0
147
0.0
147
0.0
147
0.0208333333333333
147
0.0
147
0.0
147
0.0
147
0.0
147
1.0
147
0.0
147
0.0
147
0.0
147
0.0
147
1.0
  0
MATERIAL
  5
9756
102
{ACAD_XDICTIONARY
360
9757
102
}
102
{ACAD_REACTORS
330
9755
102
}
330
9755
100
AcDbMaterial
  1
ByLayer
 72
     0
 43
0.0208333333333333
 43
0.0
 43
0.0
 43
0.0
 43
0.0
 43
0.0208333333333333
 43
0.0
 43
0.0
 43
0.0
 43
0.0
 43
1.0
 43
0.0
 43
0.0
 43
0.0
 43
0.0
 43
1.0
 77
     0
 47
0.0208333333333333
 47
0.0
 47
0.0
 47
0.0
 47
0.0
 47
0.0208333333333333
 47
0.0
 47
0.0
 47
0.0
 47
0.0
 47
1.0
 47
0.0
 47
0.0
 47
0.0
 47
0.0
 47
1.0
171
     0
 49
0.0208333333333333
 49
0.0
 49
0.0
 49
0.0
 49
0.0
 49
0.0208333333333333
 49
0.0
 49
0.0
 49
0.0
 49
0.0
 49
1.0
 49
0.0
 49
0.0
 49
0.0
 49
0.0
 49
1.0
175
     0
142
0.0208333333333333
142
0.0
142
0.0
142
0.0
142
0.0
142
0.0208333333333333
142
0.0
142
0.0
142
0.0
142
0.0
142
1.0
142
0.0
142
0.0
142
0.0
142
0.0
142
1.0
179
     0
144
0.0208333333333333
144
0.0
144
0.0
144
0.0
144
0.0
144
0.0208333333333333
144
0.0
144
0.0
144
0.0
144
0.0
144
1.0
144
0.0
144
0.0
144
0.0
144
0.0
144
1.0
147
0.0208333333333333
147
0.0
147
0.0
147
0.0
147
0.0
147
0.0208333333333333
147
0.0
147
0.0
147
0.0
147
0.0
147
1.0
147
0.0
147
0.0
147
0.0
147
0.0
147
1.0
  0
MATERIAL
  5
9766
102
{ACAD_XDICTIONARY
360
9767
102
}
102
{ACAD_REACTORS
330
9755
102
}
330
9755
100
AcDbMaterial
  1
Global
 72
     0
 43
0.0208333333333333
 43
0.0
 43
0.0
 43
0.0
 43
0.0
 43
0.0208333333333333
 43
0.0
 43
0.0
 43
0.0
 43
0.0
 43
1.0
 43
0.0
 43
0.0
 43
0.0
 43
0.0
 43
1.0
 77
     0
 47
0.0208333333333333
 47
0.0
 47
0.0
 47
0.0
 47
0.0
 47
0.0208333333333333
 47
0.0
 47
0.0
 47
0.0
 47
0.0
 47
1.0
 47
0.0
 47
0.0
 47
0.0
 47
0.0
 47
1.0
171
     0
 49
0.0208333333333333
 49
0.0
 49
0.0
 49
0.0
 49
0.0
 49
0.0208333333333333
 49
0.0
 49
0.0
 49
0.0
 49
0.0
 49
1.0
 49
0.0
 49
0.0
 49
0.0
 49
0.0
 49
1.0
175
     0
142
0.0208333333333333
142
0.0
142
0.0
142
0.0
142
0.0
142
0.0208333333333333
142
0.0
142
0.0
142
0.0
142
0.0
142
1.0
142
0.0
142
0.0
142
0.0
142
0.0
142
1.0
179
     0
144
0.0208333333333333
144
0.0
144
0.0
144
0.0
144
0.0
144
0.0208333333333333
144
0.0
144
0.0
144
0.0
144
0.0
144
1.0
144
0.0
144
0.0
144
0.0
144
0.0
144
1.0
147
0.0208333333333333
147
0.0
147
0.0
147
0.0
147
0.0
147
0.0208333333333333
147
0.0
147
0.0
147
0.0
147
0.0
147
1.0
147
0.0
147
0.0
147
0.0
147
0.0
147
1.0
  0
MLEADERSTYLE
  5
979D
102
{ACAD_REACTORS
330
979C
102
}
330
979C
100
AcDbMLeaderStyle
170
     2
171
     1
172
     0
 90
        2
 40
0.0
 41
0.0
173
     1
 91
-1056964608
340
956B
 92
       -2
290
     1
 42
0.09
291
     1
 43
0.36
  3
Standard
 44
0.18
300

342
9569
174
     1
178
     6
175
     1
176
     0
 93
-1056964608
 45
0.18
292
     0
297
     0
 46
0.18
 94
-1056964608
 47
1.0
 49
1.0
140
1.0
293
     1
141
0.0
294
     1
177
     0
142
1.0
295
     0
296
     0
143
0.125
1001
ACAD_MLEADERVER
1070
     2
  0
MLINESTYLE
  5
956F
102
{ACAD_REACTORS
330
956E
102
}
330
956E
100
AcDbMlineStyle
  2
STANDARD
 70
     0
  3

 62
   256
 51
90.0
 52
90.0
 71
     2
 49
0.5
 62
   256
  6
BYLAYER
 49
-0.5
 62
   256
  6
BYLAYER
  0
ACDBPLACEHOLDER
  5
9754
102
{ACAD_REACTORS
330
9753
102
}
330
9753
  0
SCALE
  5
978B
102
{ACAD_REACTORS
330
978A
102
}
330
978A
100
AcDbScale
 70
     0
300
1:1
140
1.0
141
1.0
290
     1
  0
SCALE
  5
978C
102
{ACAD_REACTORS
330
978A
102
}
330
978A
100
AcDbScale
 70
     0
300
1/128" = 1'-0"
140
0.0078125
141
12.0
290
     0
  0
SCALE
  5
978D
102
{ACAD_REACTORS
330
978A
102
}
330
978A
100
AcDbScale
 70
     0
300
1/64" = 1'-0"
140
0.015625
141
12.0
290
     0
  0
SCALE
  5
978E
102
{ACAD_REACTORS
330
978A
102
}
330
978A
100
AcDbScale
 70
     0
300
1/32" = 1'-0"
140
0.03125
141
12.0
290
     0
  0
SCALE
  5
978F
102
{ACAD_REACTORS
330
978A
102
}
330
978A
100
AcDbScale
 70
     0
300
1/16" = 1'-0"
140
0.0625
141
12.0
290
     0
  0
SCALE
  5
9790
102
{ACAD_REACTORS
330
978A
102
}
330
978A
100
AcDbScale
 70
     0
300
3/32" = 1'-0"
140
0.09375
141
12.0
290
     0
  0
SCALE
  5
9791
102
{ACAD_REACTORS
330
978A
102
}
330
978A
100
AcDbScale
 70
     0
300
1/8" = 1'-0"
140
0.125
141
12.0
290
     0
  0
SCALE
  5
9792
102
{ACAD_REACTORS
330
978A
102
}
330
978A
100
AcDbScale
 70
     0
300
3/16" = 1'-0"
140
0.1875
141
12.0
290
     0
  0
SCALE
  5
9793
102
{ACAD_REACTORS
330
978A
102
}
330
978A
100
AcDbScale
 70
     0
300
1/4" = 1'-0"
140
0.25
141
12.0
290
     0
  0
SCALE
  5
9794
102
{ACAD_REACTORS
330
978A
102
}
330
978A
100
AcDbScale
 70
     0
300
3/8" = 1'-0"
140
0.375
141
12.0
290
     0
  0
SCALE
  5
9795
102
{ACAD_REACTORS
330
978A
102
}
330
978A
100
AcDbScale
 70
     0
300
1/2" = 1'-0"
140
0.5
141
12.0
290
     0
  0
SCALE
  5
9796
102
{ACAD_REACTORS
330
978A
102
}
330
978A
100
AcDbScale
 70
     0
300
3/4" = 1'-0"
140
0.75
141
12.0
290
     0
  0
SCALE
  5
9797
102
{ACAD_REACTORS
330
978A
102
}
330
978A
100
AcDbScale
 70
     0
300
1" = 1'-0"
140
1.0
141
12.0
290
     0
  0
SCALE
  5
9798
102
{ACAD_REACTORS
330
978A
102
}
330
978A
100
AcDbScale
 70
     0
300
1-1/2" = 1'-0"
140
1.5
141
12.0
290
     0
  0
SCALE
  5
9799
102
{ACAD_REACTORS
330
978A
102
}
330
978A
100
AcDbScale
 70
     0
300
3" = 1'-0"
140
3.0
141
12.0
290
     0
  0
SCALE
  5
979A
102
{ACAD_REACTORS
330
978A
102
}
330
978A
100
AcDbScale
 70
     0
300
6" = 1'-0"
140
6.0
141
12.0
290
     0
  0
SCALE
  5
979B
102
{ACAD_REACTORS
330
978A
102
}
330
978A
100
AcDbScale
 70
     0
300
1'-0" = 1'-0"
140
12.0
141
12.0
290
     0
  0
ACDBSECTIONVIEWSTYLE
  5
979F
102
{ACAD_XDICTIONARY
360
97FA
102
}
102
{ACAD_REACTORS
330
979E
102
}
330
979E
100
AcDbModelDocViewStyle
 70
     0
  3
Imperial24
290
     0
100
AcDbSectionViewStyle
 70
     0
 71
     0
 90
       78
 71
     1
340
9569
 40
0.24
340
0
340
0
 40
0.24
300
I, O, Q, S, X, Z
 40
0.48
 90
        3
 40
0.18
 90
        1
 71
     2
340
956D
 90
       25
340
956D
 90
       50
 40
0.24
 40
0.0
 40
0.24
 71
     3
340
9569
 40
0.24
 90
        1
 40
0.75
 90
        1
300
%<\AcVar ViewType \f "%tc1">% %<\AcVar ViewSectionStartId>%-%<\AcVar ViewSectionEndId>%\PSCALE %<\AcVar ViewScale \f "%sn">%
 71
     4
300
ANSI31
 40
1.0
 90
        0
290
     0
290
     0
 90
        6
 40
0.0
 40
1.570796326794896
 40
0.2617993877991494
 40
1.308996938995747
 40
-0.2617993877991494
 40
1.832595714594046
  0
TABLESTYLE
  5
9789
102
{ACAD_XDICTIONARY
360
97C1
102
}
102
{ACAD_REACTORS
330
9788
102
}
330
9788
100
AcDbTableStyle
  3
Standard
 70
     0
 71
     0
 40
0.06
 41
0.06
280
     0
281
     0
  7
STANDARD
140
0.18
170
     2
 62
     0
 63
     7
283
     0
274
    -2
284
     1
 64
     0
275
    -2
285
     1
 65
     0
276
    -2
286
     1
 66
     0
277
    -2
287
     1
 67
     0
278
    -2
288
     1
 68
     0
279
    -2
289
     1
 69
     0
  7
STANDARD
140
0.25
170
     5
 62
     0
 63
     7
283
     0
274
    -2
284
     1
 64
     0
275
    -2
285
     1
 65
     0
276
    -2
286
     1
 66
     0
277
    -2
287
     1
 67
     0
278
    -2
288
     1
 68
     0
279
    -2
289
     1
 69
     0
  7
STANDARD
140
0.18
170
     5
 62
     0
 63
     7
283
     0
274
    -2
284
     1
 64
     0
275
    -2
285
     1
 65
     0
276
    -2
286
     1
 66
     0
277
    -2
287
     1
 67
     0
278
    -2
288
     1
 68
     0
279
    -2
289
     1
 69
     0
  0
VISUALSTYLE
  5
9774
102
{ACAD_XDICTIONARY
360
97D2
102
}
102
{ACAD_REACTORS
330
976E
102
}
330
976E
100
AcDbVisualStyle
  2
2dWireframe
 70
     4
 71
     0
 72
     2
 73
     0
 90
        0
 40
-0.6
 41
-30.0
 62
     5
 63
     7
 74
     1
 91
        4
 64
     7
 65
   257
 75
     1
175
     1
 42
1.0
 92
        0
 66
   257
 43
1.0
 76
     1
 77
     6
 78
     2
 67
     7
 79
     5
170
     0
171
     0
290
     0
174
     0
 93
        1
 44
0.0
173
     0
291
     0
 45
0.0
1001
ACAD
1000
AcDbSavedByObjectVersion
1070
     0
  0
VISUALSTYLE
  5
9773
102
{ACAD_XDICTIONARY
360
97D0
102
}
102
{ACAD_REACTORS
330
976E
102
}
330
976E
100
AcDbVisualStyle
  2
Basic
 70
     7
 71
     1
 72
     0
 73
     1
 90
        0
 40
-0.6
 41
-30.0
 62
     5
 63
     7
 74
     0
 91
        4
 64
     7
 65
   257
 75
     1
175
     1
 42
1.0
 92
        8
 66
     7
 43
1.0
 76
     1
 77
     6
 78
     2
 67
     7
 79
     5
170
     0
171
     0
290
     0
174
     0
 93
        1
 44
0.0
173
     0
291
     1
 45
0.0
1001
ACAD
1000
AcDbSavedByObjectVersion
1070
     0
  0
VISUALSTYLE
  5
977A
102
{ACAD_XDICTIONARY
360
97DE
102
}
102
{ACAD_REACTORS
330
976E
102
}
330
976E
100
AcDbVisualStyle
  2
Brighten
 70
    12
 71
     2
 72
     2
 73
     0
 90
        0
 40
-0.6
 41
-30.0
 62
     5
 63
     7
 74
     1
 91
        4
 64
     7
 65
   257
 75
     1
175
     1
 42
1.0
 92
        8
 66
     7
 43
1.0
 76
     1
 77
     6
 78
     2
 67
     7
 79
     5
170
     0
171
     0
290
     0
174
     0
 93
        1
 44
50.0
173
     0
291
     1
 45
0.0
1001
ACAD
1000
AcDbSavedByObjectVersion
1070
     0
  0
VISUALSTYLE
  5
977E
102
{ACAD_XDICTIONARY
360
97E6
102
}
102
{ACAD_REACTORS
330
976E
102
}
330
976E
100
AcDbVisualStyle
  2
ColorChange
 70
    16
 71
     2
 72
     2
 73
     3
 90
        0
 40
-0.6
 41
-30.0
 62
     5
 63
     8
 74
     1
 91
        4
 64
     7
 65
   257
 75
     1
175
     1
 42
1.0
 92
        8
 66
     8
 43
1.0
 76
     1
 77
     6
 78
     2
 67
     7
 79
     5
170
     0
171
     0
290
     0
174
     0
 93
        1
 44
0.0
173
     0
291
     1
 45
0.0
1001
ACAD
1000
AcDbSavedByObjectVersion
1070
     0
  0
VISUALSTYLE
  5
9777
102
{ACAD_XDICTIONARY
360
97D8
102
}
102
{ACAD_REACTORS
330
976E
102
}
330
976E
100
AcDbVisualStyle
  2
Conceptual
 70
     9
 71
     3
 72
     2
 73
     0
 90
        0
 40
-0.6
 41
-30.0
 62
     5
 63
     7
 74
     2
 91
        2
 64
     7
 65
   257
 75
     1
175
     1
 42
179.0
 92
        8
 66
     7
 43
1.0
 76
     1
 77
     6
 78
     2
 67
     7
 79
     3
170
     0
171
     0
290
     0
174
     0
 93
        1
 44
0.0
173
     0
291
     0
 45
0.0
1001
ACAD
1000
AcDbSavedByObjectVersion
1070
     0
  0
VISUALSTYLE
  5
9779
102
{ACAD_XDICTIONARY
360
97DC
102
}
102
{ACAD_REACTORS
330
976E
102
}
330
976E
100
AcDbVisualStyle
  2
Dim
 70
    11
 71
     2
 72
     2
 73
     0
 90
        0
 40
-0.6
 41
-30.0
 62
     5
 63
     7
 74
     1
 91
        4
 64
     7
 65
   257
 75
     1
175
     1
 42
1.0
 92
        8
 66
     7
 43
1.0
 76
     1
 77
     6
 78
     2
 67
     7
 79
     5
170
     0
171
     0
290
     0
174
     0
 93
        1
 44
-50.0
173
     0
291
     1
 45
0.0
1001
ACAD
1000
AcDbSavedByObjectVersion
1070
     0
  0
VISUALSTYLE
  5
9786
102
{ACAD_XDICTIONARY
360
97F6
102
}
102
{ACAD_REACTORS
330
976E
102
}
330
976E
100
AcDbVisualStyle
  2
EdgeColorOff
 70
    22
 71
     2
 72
     2
 73
     0
 90
        0
 40
-0.6
 41
-30.0
 62
     5
 63
     7
 74
     1
 91
        4
 64
     7
 65
   257
 75
     1
175
     1
 42
1.0
 92
        8
 66
     7
 43
1.0
 76
     1
 77
     6
 78
     2
 67
     7
 79
     5
170
     0
171
     0
290
     0
174
     0
 93
        1
 44
0.0
173
     0
291
     1
 45
0.0
1001
ACAD
1000
AcDbSavedByObjectVersion
1070
     0
  0
VISUALSTYLE
  5
977D
102
{ACAD_XDICTIONARY
360
97E4
102
}
102
{ACAD_REACTORS
330
976E
102
}
330
976E
100
AcDbVisualStyle
  2
Facepattern
 70
    15
 71
     2
 72
     2
 73
     0
 90
        0
 40
-0.6
 41
-30.0
 62
     5
 63
     7
 74
     1
 91
        4
 64
     7
 65
   257
 75
     1
175
     1
 42
1.0
 92
        8
 66
     7
 43
1.0
 76
     1
 77
     6
 78
     2
 67
     7
 79
     5
170
     0
171
     0
290
     0
174
     0
 93
        1
 44
0.0
173
     0
291
     1
 45
0.0
1001
ACAD
1000
AcDbSavedByObjectVersion
1070
     0
  0
VISUALSTYLE
  5
976F
102
{ACAD_XDICTIONARY
360
97C8
102
}
102
{ACAD_REACTORS
330
976E
102
}
330
976E
100
AcDbVisualStyle
  2
Flat
 70
     0
 71
     2
 72
     1
 73
     1
 90
        2
 40
-0.6
 41
30.0
 62
     5
 63
     7
 74
     0
 91
        0
 64
     7
 65
   257
 75
     1
175
     1
 42
1.0
 92
        8
 66
     7
 43
1.0
 76
     1
 77
     6
 78
     2
 67
     7
 79
     5
170
     0
171
     0
290
     0
174
     0
 93
       13
 44
0.0
173
     0
291
     1
 45
0.0
1001
ACAD
1000
AcDbSavedByObjectVersion
1070
     0
  0
VISUALSTYLE
  5
9770
102
{ACAD_XDICTIONARY
360
97CA
102
}
102
{ACAD_REACTORS
330
976E
102
}
330
976E
100
AcDbVisualStyle
  2
FlatWithEdges
 70
     1
 71
     2
 72
     1
 73
     1
 90
        2
 40
-0.6
 41
30.0
 62
     5
 63
     7
 74
     1
 91
        0
 64
     7
 65
   257
 75
     1
175
     1
 42
1.0
 92
        0
 66
   257
 43
1.0
 76
     1
 77
     6
 78
     2
 67
     7
 79
     5
170
     0
171
     0
290
     0
174
     0
 93
       13
 44
0.0
173
     0
291
     1
 45
0.0
1001
ACAD
1000
AcDbSavedByObjectVersion
1070
     0
  0
VISUALSTYLE
  5
9771
102
{ACAD_XDICTIONARY
360
97CC
102
}
102
{ACAD_REACTORS
330
976E
102
}
330
976E
100
AcDbVisualStyle
  2
Gouraud
 70
     2
 71
     2
 72
     2
 73
     1
 90
        2
 40
-0.6
 41
30.0
 62
     5
 63
     7
 74
     0
 91
        0
 64
     7
 65
   257
 75
     1
175
     1
 42
1.0
 92
        0
 66
     7
 43
1.0
 76
     1
 77
     6
 78
     2
 67
     7
 79
     5
170
     0
171
     0
290
     0
174
     0
 93
       13
 44
0.0
173
     0
291
     1
 45
0.0
1001
ACAD
1000
AcDbSavedByObjectVersion
1070
     0
  0
VISUALSTYLE
  5
9772
102
{ACAD_XDICTIONARY
360
97CE
102
}
102
{ACAD_REACTORS
330
976E
102
}
330
976E
100
AcDbVisualStyle
  2
GouraudWithEdges
 70
     3
 71
     2
 72
     2
 73
     1
 90
        2
 40
-0.6
 41
30.0
 62
     5
 63
     7
 74
     1
 91
        0
 64
     7
 65
   257
 75
     1
175
     1
 42
1.0
 92
        0
 66
   257
 43
1.0
 76
     1
 77
     6
 78
     2
 67
     7
 79
     5
170
     0
171
     0
290
     0
174
     0
 93
       13
 44
0.0
173
     0
291
     1
 45
0.0
1001
ACAD
1000
AcDbSavedByObjectVersion
1070
     0
  0
VISUALSTYLE
  5
9776
102
{ACAD_XDICTIONARY
360
97D6
102
}
102
{ACAD_REACTORS
330
976E
102
}
330
976E
100
AcDbVisualStyle
  2
Hidden
 70
     6
 71
     1
 72
     2
 73
     2
 90
        0
 40
-0.6
 41
-30.0
 62
     5
 63
     7
 74
     2
 91
        2
 64
     7
 65
   257
 75
     2
175
     1
 42
40.0
 92
        0
 66
   257
 43
1.0
 76
     1
 77
     6
 78
     2
 67
     7
 79
     3
170
     0
171
     0
290
     0
174
     0
 93
        1
 44
0.0
173
     0
291
     0
 45
0.0
1001
ACAD
1000
AcDbSavedByObjectVersion
1070
     0
  0
VISUALSTYLE
  5
9784
102
{ACAD_XDICTIONARY
360
97F2
102
}
102
{ACAD_REACTORS
330
976E
102
}
330
976E
100
AcDbVisualStyle
  2
JitterOff
 70
    20
 71
     2
 72
     2
 73
     0
 90
        0
 40
-0.6
 41
-30.0
 62
     5
 63
     7
 74
     1
 91
        4
 64
     7
 65
   257
 75
     1
175
     1
 42
1.0
 92
       10
 66
     7
 43
1.0
 76
     1
 77
     6
 78
     2
 67
     7
 79
     5
170
     0
171
     0
290
     0
174
     0
 93
        1
 44
0.0
173
     0
291
     1
 45
0.0
1001
ACAD
1000
AcDbSavedByObjectVersion
1070
     0
  0
VISUALSTYLE
  5
977C
102
{ACAD_XDICTIONARY
360
97E2
102
}
102
{ACAD_REACTORS
330
976E
102
}
330
976E
100
AcDbVisualStyle
  2
Linepattern
 70
    14
 71
     2
 72
     2
 73
     0
 90
        0
 40
-0.6
 41
-30.0
 62
     5
 63
     7
 74
     1
 91
        4
 64
     7
 65
   257
 75
     7
175
     7
 42
1.0
 92
        8
 66
     7
 43
1.0
 76
     1
 77
     6
 78
     2
 67
     7
 79
     5
170
     0
171
     0
290
     0
174
     0
 93
        1
 44
0.0
173
     0
291
     1
 45
0.0
1001
ACAD
1000
AcDbSavedByObjectVersion
1070
     0
  0
VISUALSTYLE
  5
9785
102
{ACAD_XDICTIONARY
360
97F4
102
}
102
{ACAD_REACTORS
330
976E
102
}
330
976E
100
AcDbVisualStyle
  2
OverhangOff
 70
    21
 71
     2
 72
     2
 73
     0
 90
        0
 40
-0.6
 41
-30.0
 62
     5
 63
     7
 74
     1
 91
        4
 64
     7
 65
   257
 75
     1
175
     1
 42
1.0
 92
        9
 66
     7
 43
1.0
 76
     1
 77
     6
 78
     2
 67
     7
 79
     5
170
     0
171
     0
290
     0
174
     0
 93
        1
 44
0.0
173
     0
291
     1
 45
0.0
1001
ACAD
1000
AcDbSavedByObjectVersion
1070
     0
  0
VISUALSTYLE
  5
9778
102
{ACAD_XDICTIONARY
360
97DA
102
}
102
{ACAD_REACTORS
330
976E
102
}
330
976E
100
AcDbVisualStyle
  2
Realistic
 70
     8
 71
     2
 72
     3
 73
     0
 90
        2
 40
-0.6
 41
30.0
 62
     5
 63
     7
 74
     0
 91
        0
 64
     7
 65
   257
 75
     1
175
     1
 42
1.0
 92
        8
 66
   257
 43
1.0
 76
     1
 77
     6
 78
     2
 67
     7
 79
     3
170
     0
171
     0
290
     0
174
     0
 93
       13
 44
0.0
173
     0
291
     0
 45
0.0
1001
ACAD
1000
AcDbSavedByObjectVersion
1070
     0
  0
VISUALSTYLE
  5
9783
102
{ACAD_XDICTIONARY
360
97F0
102
}
102
{ACAD_REACTORS
330
976E
102
}
330
976E
100
AcDbVisualStyle
  2
Shaded
 70
    27
 71
     2
 72
     2
 73
     1
 90
        2
 40
-0.6
 41
30.0
 62
     5
 63
     7
 74
     0
 91
        4
 64
     7
 65
   257
 75
     1
175
     1
 42
1.0
 92
        8
 66
   257
 43
1.0
 76
     1
 77
     6
 78
     2
 67
     8
 79
     3
170
     0
171
     0
290
     0
174
     0
 93
        5
 44
0.0
173
     0
291
     0
 45
0.0
1001
ACAD
1000
AcDbSavedByObjectVersion
1070
     0
  0
VISUALSTYLE
  5
9782
102
{ACAD_XDICTIONARY
360
97EE
102
}
102
{ACAD_REACTORS
330
976E
102
}
330
976E
100
AcDbVisualStyle
  2
Shaded with edges
 70
    26
 71
     2
 72
     2
 73
     1
 90
        2
 40
-0.6
 41
30.0
 62
     5
 63
     7
 74
     1
 91
       10
 64
     7
 65
   257
 75
     2
175
     1
 42
1.0
 92
        8
 66
   257
 43
1.0
 76
     1
 77
     6
 78
     2
 67
     7
 79
     3
170
     0
171
     0
290
     0
174
     0
 93
        5
 44
0.0
173
     0
291
     0
 45
0.0
1001
ACAD
1000
AcDbSavedByObjectVersion
1070
     0
  0
VISUALSTYLE
  5
977F
102
{ACAD_XDICTIONARY
360
97E8
102
}
102
{ACAD_REACTORS
330
976E
102
}
330
976E
100
AcDbVisualStyle
  2
Shades of Gray
 70
    23
 71
     2
 72
     2
 73
     3
 90
        0
 40
-0.6
 41
-30.0
 62
     5
 63
     7
 74
     2
 91
        2
 64
     7
 65
     7
 75
     1
175
     1
 42
40.0
 92
        8
 66
     7
 43
1.0
 76
     1
 77
     6
 78
     2
 67
     7
 79
     3
170
     0
171
     0
290
     0
174
     0
 93
        1
 44
0.0
173
     0
291
     0
 45
0.0
1001
ACAD
1000
AcDbSavedByObjectVersion
1070
     0
  0
VISUALSTYLE
  5
9780
102
{ACAD_XDICTIONARY
360
97EA
102
}
102
{ACAD_REACTORS
330
976E
102
}
330
976E
100
AcDbVisualStyle
  2
Sketchy
 70
    24
 71
     1
 72
     2
 73
     2
 90
        0
 40
-0.6
 41
-30.0
 62
     5
 63
     7
 74
     2
 91
        2
 64
     7
 65
     7
 75
     1
175
     1
 42
40.0
 92
       11
 66
     7
 43
1.0
 76
     1
 77
     6
 78
     2
 67
     7
 79
     6
170
     0
171
     0
290
     0
174
     0
 93
        1
 44
0.0
173
     0
291
     0
 45
0.0
1001
ACAD
1000
AcDbSavedByObjectVersion
1070
     0
  0
VISUALSTYLE
  5
977B
102
{ACAD_XDICTIONARY
360
97E0
102
}
102
{ACAD_REACTORS
330
976E
102
}
330
976E
100
AcDbVisualStyle
  2
Thicken
 70
    13
 71
     2
 72
     2
 73
     0
 90
        0
 40
-0.6
 41
-30.0
 62
     5
 63
     7
 74
     1
 91
        4
 64
     7
 65
   257
 75
     1
175
     1
 42
1.0
 92
       12
 66
     7
 43
1.0
 76
     1
 77
     6
 78
     2
 67
     7
 79
     5
170
     0
171
     0
290
     0
174
     0
 93
        1
 44
0.0
173
     0
291
     1
 45
0.0
1001
ACAD
1000
AcDbSavedByObjectVersion
1070
     0
  0
VISUALSTYLE
  5
9775
102
{ACAD_XDICTIONARY
360
97D4
102
}
102
{ACAD_REACTORS
330
976E
102
}
330
976E
100
AcDbVisualStyle
  2
Wireframe
 70
     5
 71
     0
 72
     2
 73
     0
 90
        0
 40
-0.6
 41
-30.0
 62
     5
 63
     7
 74
     1
 91
        4
 64
     7
 65
   257
 75
     1
175
     1
 42
1.0
 92
        0
 66
   257
 43
1.0
 76
     1
 77
     6
 78
     2
 67
     7
 79
     3
170
     0
171
     0
290
     0
174
     0
 93
        1
 44
0.0
173
     0
291
     0
 45
0.0
1001
ACAD
1000
AcDbSavedByObjectVersion
1070
     0
  0
VISUALSTYLE
  5
9781
102
{ACAD_XDICTIONARY
360
97EC
102
}
102
{ACAD_REACTORS
330
976E
102
}
330
976E
100
AcDbVisualStyle
  2
X-Ray
 70
    25
 71
     2
 72
     2
 73
     1
 90
        1
 40
0.5
 41
-30.0
 62
     5
 63
     7
 74
     1
 91
        0
 64
     7
 65
   257
 75
     1
175
     1
 42
1.0
 92
        8
 66
     7
 43
1.0
 76
     1
 77
     6
 78
     2
 67
     7
 79
     3
170
     0
171
     0
290
     0
174
     0
 93
       13
 44
0.0
173
     0
291
     0
 45
0.0
1001
ACAD
1000
AcDbSavedByObjectVersion
1070
     0
  0
DICTIONARYVAR
  5
97BB
102
{ACAD_REACTORS
330
97B6
102
}
330
97B6
100
DictionaryVariables
280
     0
  1
1:1
  0
DICTIONARYVAR
  5
97B8
102
{ACAD_REACTORS
330
97B6
102
}
330
97B6
100
DictionaryVariables
280
     0
  1
STANDARD
  0
DICTIONARYVAR
  5
97B7
102
{ACAD_REACTORS
330
97B6
102
}
330
97B6
100
DictionaryVariables
280
     0
  1
STANDARD
  0
DICTIONARYVAR
  5
97B9
102
{ACAD_REACTORS
330
97B6
102
}
330
97B6
100
DictionaryVariables
280
     0
  1
Imperial24
  0
DICTIONARYVAR
  5
97BA
102
{ACAD_REACTORS
330
97B6
102
}
330
97B6
100
DictionaryVariables
280
     0
  1
Imperial24
  0
DICTIONARYVAR
  5
97BE
102
{ACAD_REACTORS
330
97B6
102
}
330
97B6
100
DictionaryVariables
280
     0
  1
1
  0
DICTIONARYVAR
  5
97BD
102
{ACAD_REACTORS
330
97B6
102
}
330
97B6
100
DictionaryVariables
280
     0
  1
0
  0
DICTIONARYVAR
  5
97BC
102
{ACAD_REACTORS
330
97B6
102
}
330
97B6
100
DictionaryVariables
280
     0
  1
127
  0
DICTIONARYVAR
  5
97BF
102
{ACAD_REACTORS
330
97B6
102
}
330
97B6
100
DictionaryVariables
280
     0
  1
2
  0
DICTIONARY
  5
97FC
330
97A1
100
AcDbDictionary
280
     1
281
     1
  3
ACAD_XREC_ROUNDTRIP
360
97FD
  0
DICTIONARY
  5
97FE
330
97A2
100
AcDbDictionary
280
     1
281
     1
  3
ACAD_XREC_ROUNDTRIP
360
97FF
  0
DICTIONARY
  5
9800
330
97A3
100
AcDbDictionary
280
     1
281
     1
  3
ACAD_XREC_ROUNDTRIP
360
9801
  0
DICTIONARY
  5
975F
330
975E
100
AcDbDictionary
280
     1
281
     1
  3
ACAD_XREC_ROUNDTRIP
360
97C6
  3
BUMPTILE
360
9761
  3
DIFFUSETILE
360
9760
  3
OPACITYTILE
360
9764
  3
REFLECTIONTILE
360
9763
  3
REFRACTIONTILE
360
9765
  3
SPECULARTILE
360
9762
  0
DICTIONARY
  5
9757
330
9756
100
AcDbDictionary
280
     1
281
     1
  3
ACAD_XREC_ROUNDTRIP
360
97C5
  3
BUMPTILE
360
9759
  3
DIFFUSETILE
360
9758
  3
OPACITYTILE
360
975C
  3
REFLECTIONTILE
360
975B
  3
REFRACTIONTILE
360
975D
  3
SPECULARTILE
360
975A
  0
DICTIONARY
  5
9767
330
9766
100
AcDbDictionary
280
     1
281
     1
  3
ACAD_XREC_ROUNDTRIP
360
97C7
  3
BUMPTILE
360
9769
  3
DIFFUSETILE
360
9768
  3
OPACITYTILE
360
976C
  3
REFLECTIONTILE
360
976B
  3
REFRACTIONTILE
360
976D
  3
SPECULARTILE
360
976A
  0
DICTIONARY
  5
97FA
330
979F
100
AcDbDictionary
280
     1
281
     1
  3
ACAD_XREC_ROUNDTRIP
360
97FB
  0
DICTIONARY
  5
97C1
330
9789
100
AcDbDictionary
280
     1
281
     1
  3
ACAD_ROUNDTRIP_2008_TABLESTYLE_CELLSTYLEMAP
360
97C2
  3
ACAD_XREC_ROUNDTRIP
360
97F8
  0
DICTIONARY
  5
97D2
330
9774
100
AcDbDictionary
280
     1
281
     1
  3
ACAD_XREC_ROUNDTRIP
360
97D3
  0
DICTIONARY
  5
97D0
330
9773
100
AcDbDictionary
280
     1
281
     1
  3
ACAD_XREC_ROUNDTRIP
360
97D1
  0
DICTIONARY
  5
97DE
330
977A
100
AcDbDictionary
280
     1
281
     1
  3
ACAD_XREC_ROUNDTRIP
360
97DF
  0
DICTIONARY
  5
97E6
330
977E
100
AcDbDictionary
280
     1
281
     1
  3
ACAD_XREC_ROUNDTRIP
360
97E7
  0
DICTIONARY
  5
97D8
330
9777
100
AcDbDictionary
280
     1
281
     1
  3
ACAD_XREC_ROUNDTRIP
360
97D9
  0
DICTIONARY
  5
97DC
330
9779
100
AcDbDictionary
280
     1
281
     1
  3
ACAD_XREC_ROUNDTRIP
360
97DD
  0
DICTIONARY
  5
97F6
330
9786
100
AcDbDictionary
280
     1
281
     1
  3
ACAD_XREC_ROUNDTRIP
360
97F7
  0
DICTIONARY
  5
97E4
330
977D
100
AcDbDictionary
280
     1
281
     1
  3
ACAD_XREC_ROUNDTRIP
360
97E5
  0
DICTIONARY
  5
97C8
330
976F
100
AcDbDictionary
280
     1
281
     1
  3
ACAD_XREC_ROUNDTRIP
360
97C9
  0
DICTIONARY
  5
97CA
330
9770
100
AcDbDictionary
280
     1
281
     1
  3
ACAD_XREC_ROUNDTRIP
360
97CB
  0
DICTIONARY
  5
97CC
330
9771
100
AcDbDictionary
280
     1
281
     1
  3
ACAD_XREC_ROUNDTRIP
360
97CD
  0
DICTIONARY
  5
97CE
330
9772
100
AcDbDictionary
280
     1
281
     1
  3
ACAD_XREC_ROUNDTRIP
360
97CF
  0
DICTIONARY
  5
97D6
330
9776
100
AcDbDictionary
280
     1
281
     1
  3
ACAD_XREC_ROUNDTRIP
360
97D7
  0
DICTIONARY
  5
97F2
330
9784
100
AcDbDictionary
280
     1
281
     1
  3
ACAD_XREC_ROUNDTRIP
360
97F3
  0
DICTIONARY
  5
97E2
330
977C
100
AcDbDictionary
280
     1
281
     1
  3
ACAD_XREC_ROUNDTRIP
360
97E3
  0
DICTIONARY
  5
97F4
330
9785
100
AcDbDictionary
280
     1
281
     1
  3
ACAD_XREC_ROUNDTRIP
360
97F5
  0
DICTIONARY
  5
97DA
330
9778
100
AcDbDictionary
280
     1
281
     1
  3
ACAD_XREC_ROUNDTRIP
360
97DB
  0
DICTIONARY
  5
97F0
330
9783
100
AcDbDictionary
280
     1
281
     1
  3
ACAD_XREC_ROUNDTRIP
360
97F1
  0
DICTIONARY
  5
97EE
330
9782
100
AcDbDictionary
280
     1
281
     1
  3
ACAD_XREC_ROUNDTRIP
360
97EF
  0
DICTIONARY
  5
97E8
330
977F
100
AcDbDictionary
280
     1
281
     1
  3
ACAD_XREC_ROUNDTRIP
360
97E9
  0
DICTIONARY
  5
97EA
330
9780
100
AcDbDictionary
280
     1
281
     1
  3
ACAD_XREC_ROUNDTRIP
360
97EB
  0
DICTIONARY
  5
97E0
330
977B
100
AcDbDictionary
280
     1
281
     1
  3
ACAD_XREC_ROUNDTRIP
360
97E1
  0
DICTIONARY
  5
97D4
330
9775
100
AcDbDictionary
280
     1
281
     1
  3
ACAD_XREC_ROUNDTRIP
360
97D5
  0
DICTIONARY
  5
97EC
330
9781
100
AcDbDictionary
280
     1
281
     1
  3
ACAD_XREC_ROUNDTRIP
360
97ED
  0
XRECORD
  5
97FD
102
{ACAD_REACTORS
330
97FC
102
}
330
97FC
100
AcDbXrecord
280
     1
102
DISPLAYNAME
  1
Imperial24
102
FLAGS
 90
        0
  0
XRECORD
  5
97FF
102
{ACAD_REACTORS
330
97FE
102
}
330
97FE
100
AcDbXrecord
280
     1
102
SHADEPLOT
 70
     0
102
SHADEPLOTRESLEVEL
 70
     2
102
SHADEPLOTCUSTOMDPI
 70
   300
  0
XRECORD
  5
9801
102
{ACAD_REACTORS
330
9800
102
}
330
9800
100
AcDbXrecord
280
     1
102
SHADEPLOT
 70
     0
102
SHADEPLOTRESLEVEL
 70
     2
102
SHADEPLOTCUSTOMDPI
 70
   300
  0
XRECORD
  5
97C6
102
{ACAD_REACTORS
330
975F
102
}
330
975F
100
AcDbXrecord
280
     1
102
MATERIAL
148
0.0
149
0.0
149
0.0
 93
        0
 94
      127
282
     0
 72
     0
 77
     0
171
     0
175
     0
179
     0
273
     0
  0
XRECORD
  5
9761
102
{ACAD_REACTORS
330
975F
102
}
330
975F
100
AcDbXrecord
280
     1
270
     1
271
     1
  0
XRECORD
  5
9760
102
{ACAD_REACTORS
330
975F
102
}
330
975F
100
AcDbXrecord
280
     1
270
     1
271
     1
  0
XRECORD
  5
9764
102
{ACAD_REACTORS
330
975F
102
}
330
975F
100
AcDbXrecord
280
     1
270
     1
271
     1
  0
XRECORD
  5
9763
102
{ACAD_REACTORS
330
975F
102
}
330
975F
100
AcDbXrecord
280
     1
270
     1
271
     1
  0
XRECORD
  5
9765
102
{ACAD_REACTORS
330
975F
102
}
330
975F
100
AcDbXrecord
280
     1
270
     1
271
     1
  0
XRECORD
  5
9762
102
{ACAD_REACTORS
330
975F
102
}
330
975F
100
AcDbXrecord
280
     1
270
     1
271
     1
  0
XRECORD
  5
97C5
102
{ACAD_REACTORS
330
9757
102
}
330
9757
100
AcDbXrecord
280
     1
102
MATERIAL
148
0.0
149
0.0
149
0.0
 93
        0
 94
      127
282
     0
 72
     0
 77
     0
171
     0
175
     0
179
     0
273
     0
  0
XRECORD
  5
9759
102
{ACAD_REACTORS
330
9757
102
}
330
9757
100
AcDbXrecord
280
     1
270
     1
271
     1
  0
XRECORD
  5
9758
102
{ACAD_REACTORS
330
9757
102
}
330
9757
100
AcDbXrecord
280
     1
270
     1
271
     1
  0
XRECORD
  5
975C
102
{ACAD_REACTORS
330
9757
102
}
330
9757
100
AcDbXrecord
280
     1
270
     1
271
     1
  0
XRECORD
  5
975B
102
{ACAD_REACTORS
330
9757
102
}
330
9757
100
AcDbXrecord
280
     1
270
     1
271
     1
  0
XRECORD
  5
975D
102
{ACAD_REACTORS
330
9757
102
}
330
9757
100
AcDbXrecord
280
     1
270
     1
271
     1
  0
XRECORD
  5
975A
102
{ACAD_REACTORS
330
9757
102
}
330
9757
100
AcDbXrecord
280
     1
270
     1
271
     1
  0
XRECORD
  5
97C7
102
{ACAD_REACTORS
330
9767
102
}
330
9767
100
AcDbXrecord
280
     1
102
MATERIAL
148
0.0
149
0.0
149
0.0
 93
        0
 94
      127
282
     0
 72
     0
 77
     0
171
     0
175
     0
179
     0
273
     0
  0
XRECORD
  5
9769
102
{ACAD_REACTORS
330
9767
102
}
330
9767
100
AcDbXrecord
280
     1
270
     1
271
     1
  0
XRECORD
  5
9768
102
{ACAD_REACTORS
330
9767
102
}
330
9767
100
AcDbXrecord
280
     1
270
     1
271
     1
  0
XRECORD
  5
976C
102
{ACAD_REACTORS
330
9767
102
}
330
9767
100
AcDbXrecord
280
     1
270
     1
271
     1
  0
XRECORD
  5
976B
102
{ACAD_REACTORS
330
9767
102
}
330
9767
100
AcDbXrecord
280
     1
270
     1
271
     1
  0
XRECORD
  5
976D
102
{ACAD_REACTORS
330
9767
102
}
330
9767
100
AcDbXrecord
280
     1
270
     1
271
     1
  0
XRECORD
  5
976A
102
{ACAD_REACTORS
330
9767
102
}
330
9767
100
AcDbXrecord
280
     1
270
     1
271
     1
  0
XRECORD
  5
97FB
102
{ACAD_REACTORS
330
97FA
102
}
330
97FA
100
AcDbXrecord
280
     1
102
DISPLAYNAME
  1
Imperial24
102
FLAGS
 90
        0
  0
CELLSTYLEMAP
  5
97C2
102
{ACAD_REACTORS
330
97C1
102
}
330
97C1
100
AcDbCellStyleMap
 90
        3
300
CELLSTYLE
  1
TABLEFORMAT_BEGIN
 90
        5
170
     1
 91
        0
 92
    32768
 62
   257
 93
        1
300
CONTENTFORMAT
  1
CONTENTFORMAT_BEGIN
 90
        0
 91
        0
 92
      512
 93
        0
300

 40
0.0
140
1.0
 94
        5
 62
     0
340
9569
144
0.25
309
CONTENTFORMAT_END
171
     0
 94
        0
309
TABLEFORMAT_END
  1
CELLSTYLE_BEGIN
 90
        1
 91
        1
300
_TITLE
309
CELLSTYLE_END
300
CELLSTYLE
  1
TABLEFORMAT_BEGIN
 90
        5
170
     1
 91
        0
 92
        0
 62
   257
 93
        1
300
CONTENTFORMAT
  1
CONTENTFORMAT_BEGIN
 90
        0
 91
        0
 92
      512
 93
        0
300

 40
0.0
140
1.0
 94
        5
 62
     0
340
9569
144
0.18
309
CONTENTFORMAT_END
171
     0
 94
        0
309
TABLEFORMAT_END
  1
CELLSTYLE_BEGIN
 90
        2
 91
        1
300
_HEADER
309
CELLSTYLE_END
300
CELLSTYLE
  1
TABLEFORMAT_BEGIN
 90
        5
170
     1
 91
        0
 92
        0
 62
   257
 93
        1
300
CONTENTFORMAT
  1
CONTENTFORMAT_BEGIN
 90
        0
 91
        0
 92
      512
 93
        0
300

 40
0.0
140
1.0
 94
        2
 62
     0
340
9569
144
0.18
309
CONTENTFORMAT_END
171
     0
 94
        0
309
TABLEFORMAT_END
  1
CELLSTYLE_BEGIN
 90
        3
 91
        2
300
_DATA
309
CELLSTYLE_END
  0
XRECORD
  5
97F8
102
{ACAD_REACTORS
330
97C1
102
}
330
97C1
100
AcDbXrecord
280
     1
102
ACAD_ROUNDTRIP_PRE2007_TABLESTYLE
 90
      512
 91
        0
  1

 92
      512
 93
        0
  2

 94
      512
 95
        0
  3

  0
XRECORD
  5
97D3
102
{ACAD_REACTORS
330
97D2
102
}
330
97D2
100
AcDbXrecord
280
     1
102
RTVSPost2010Prop28
280
     1
102
RTVSPost2010PropOp28
 70
     1
102
RTVSPost2010Prop29
280
     1
102
RTVSPost2010PropOp29
 70
     1
102
RTVSPost2010Prop30
280
     0
102
RTVSPost2010PropOp30
 70
     1
102
RTVSPost2010Prop31
280
     0
102
RTVSPost2010PropOp31
 70
     1
102
RTVSPost2010Prop32
280
     0
102
RTVSPost2010PropOp32
 70
     1
102
RTVSPost2010Prop33
280
     0
102
RTVSPost2010PropOp33
 70
     1
102
RTVSPost2010Prop34
280
     0
102
RTVSPost2010PropOp34
 70
     1
102
RTVSPost2010Prop35
280
     0
102
RTVSPost2010PropOp35
 70
     1
102
RTVSPost2010Prop36
280
     0
102
RTVSPost2010PropOp36
 70
     1
102
RTVSPost2010Prop37
 90
       50
102
RTVSPost2010PropOp37
 70
     1
102
RTVSPost2010Prop38
140
0.0
102
RTVSPost2010PropOp38
 70
     1
102
RTVSPost2010Prop39
140
1.0
102
RTVSPost2010PropOp39
 70
     1
102
RTVSPost2010Prop40
 90
        0
102
RTVSPost2010PropOp40
 70
     1
102
RTVSPost2010Prop41ColorIndex
 90
       18
102
RTVSPost2010Prop41ColorRGB
 90
        0
102
RTVSPost2010PropOp41
 70
     1
102
RTVSPost2010Prop42
 90
       50
102
RTVSPost2010PropOp42
 70
     1
102
RTVSPost2010Prop43
 90
        3
102
RTVSPost2010PropOp43
 70
     1
102
RTVSPost2010Prop44ColorIndex
 90
        5
102
RTVSPost2010Prop44ColorRGB
 90
      255
102
RTVSPost2010PropOp44
 70
     1
102
RTVSPost2010Prop45
280
     0
102
RTVSPost2010PropOp45
 70
     1
102
RTVSPost2010Prop46
 90
       50
102
RTVSPost2010PropOp46
 70
     1
102
RTVSPost2010Prop47
 90
       50
102
RTVSPost2010PropOp47
 70
     1
102
RTVSPost2010Prop48
 90
       50
102
RTVSPost2010PropOp48
 70
     1
102
RTVSPost2010Prop49
280
     0
102
RTVSPost2010PropOp49
 70
     1
102
RTVSPost2010Prop50
 90
       50
102
RTVSPost2010PropOp50
 70
     1
102
RTVSPost2010Prop51ColorIndex
 90
      256
102
RTVSPost2010Prop51ColorRGB
 90
-16777216
102
RTVSPost2010PropOp51
 70
     0
102
RTVSPost2010Prop52
140
1.0
102
RTVSPost2010PropOp52
 70
     0
102
RTVSPost2010Prop53
 90
        2
102
RTVSPost2010PropOp53
 70
     1
102
RTVSPost2010Prop54
  1
strokes_ogs.tif
102
RTVSPost2010PropOp54
 70
     1
102
RTVSPost2010Prop55
280
     0
102
RTVSPost2010PropOp55
 70
     1
102
RTVSPost2010Prop56
140
1.0
102
RTVSPost2010PropOp56
 70
     1
102
RTVSPost2010Prop57
140
1.0
102
RTVSPost2010PropOp57
 70
     1
102
RTVSPropertyOp0
 70
     1
102
RTVSPropertyOp1
 70
     1
102
RTVSPropertyOp2
 70
     1
102
RTVSPropertyOp3
 70
     1
102
RTVSPropertyOp4
 70
     1
102
RTVSPropertyOp5
 70
     1
102
RTVSPropertyOp6
 70
     1
102
RTVSPropertyOp7
 70
     1
102
RTVSPropertyOp8
 70
     1
102
RTVSPropertyOp9
 70
     1
102
RTVSPropertyOp10
 70
     1
102
RTVSPropertyOp11
 70
     1
102
RTVSPropertyOp12
 70
     1
102
RTVSPropertyOp13
 70
     1
102
RTVSPropertyOp14
 70
     1
102
RTVSPropertyOp15
 70
     1
102
RTVSPropertyOp16
 70
     1
102
RTVSPropertyOp17
 70
     1
102
RTVSPropertyOp18
 70
     1
102
RTVSPropertyOp19
 70
     1
102
RTVSPropertyOp20
 70
     1
102
RTVSPropertyOp21
 70
     1
102
RTVSPropertyOp22
 70
     1
102
RTVSPropertyOp23
 70
     1
102
RTVSPropertyOp24
 70
     1
102
RTVSPropertyOp25
 70
     1
102
RTVSPropertyOp26
 70
     1
102
RTVSPropertyOp27
 70
     1
102
RTVSPropertyOp28
 70
     1
102
RTVSPropertyOp29
 70
     1
102
RTVSPropertyOp30
 70
     1
102
RTVSPropertyOp31
 70
     1
102
RTVSPropertyOp32
 70
     1
102
RTVSPropertyOp33
 70
     1
102
RTVSPropertyOp34
 70
     1
102
RTVSPropertyOp35
 70
     1
102
RTVSPropertyOp36
 70
     1
102
RTVSPropertyOp37
 70
     1
102
RTVSPropertyOp38
 70
     1
102
RTVSPropertyOp39
 70
     1
102
RTVSPropertyOp40
 70
     1
102
RTVSPropertyOp41
 70
     1
102
RTVSPropertyOp42
 70
     1
102
RTVSPropertyOp43
 70
     1
102
RTVSPropertyOp44
 70
     1
102
RTVSPropertyOp45
 70
     1
102
RTVSPropertyOp46
 70
     1
102
RTVSPropertyOp47
 70
     1
102
RTVSPropertyOp48
 70
     1
102
RTVSPropertyOp49
 70
     1
102
RTVSPropertyOp50
 70
     1
102
RTVSPropertyOp51
 70
     0
102
RTVSPropertyOp52
 70
     0
102
RTVSPropertyOp53
 70
     1
102
RTVSPropertyOp54
 70
     1
102
RTVSPropertyOp55
 70
     1
102
RTVSPropertyOp56
 70
     1
102
RTVSPropertyOp57
 70
     1
102
RTVSPropertyOp58
 70
     1
102
RTVSPropertyOp59
 70
     1
102
RTVSPropertyOp60
 70
     1
102
RTVSPropertyOp61
 70
     1
102
RTVSPropertyOp62
 70
     1
  0
XRECORD
  5
97D1
102
{ACAD_REACTORS
330
97D0
102
}
330
97D0
100
AcDbXrecord
280
     1
102
RTVSPost2010Prop28
280
     0
102
RTVSPost2010PropOp28
 70
     1
102
RTVSPost2010Prop29
280
     1
102
RTVSPost2010PropOp29
 70
     1
102
RTVSPost2010Prop30
280
     1
102
RTVSPost2010PropOp30
 70
     1
102
RTVSPost2010Prop31
280
     0
102
RTVSPost2010PropOp31
 70
     1
102
RTVSPost2010Prop32
280
     0
102
RTVSPost2010PropOp32
 70
     1
102
RTVSPost2010Prop33
280
     0
102
RTVSPost2010PropOp33
 70
     1
102
RTVSPost2010Prop34
280
     0
102
RTVSPost2010PropOp34
 70
     1
102
RTVSPost2010Prop35
280
     0
102
RTVSPost2010PropOp35
 70
     1
102
RTVSPost2010Prop36
280
     0
102
RTVSPost2010PropOp36
 70
     1
102
RTVSPost2010Prop37
 90
       50
102
RTVSPost2010PropOp37
 70
     1
102
RTVSPost2010Prop38
140
0.0
102
RTVSPost2010PropOp38
 70
     1
102
RTVSPost2010Prop39
140
1.0
102
RTVSPost2010PropOp39
 70
     1
102
RTVSPost2010Prop40
 90
        0
102
RTVSPost2010PropOp40
 70
     1
102
RTVSPost2010Prop41ColorIndex
 90
       18
102
RTVSPost2010Prop41ColorRGB
 90
        0
102
RTVSPost2010PropOp41
 70
     1
102
RTVSPost2010Prop42
 90
       50
102
RTVSPost2010PropOp42
 70
     1
102
RTVSPost2010Prop43
 90
        3
102
RTVSPost2010PropOp43
 70
     1
102
RTVSPost2010Prop44ColorIndex
 90
        5
102
RTVSPost2010Prop44ColorRGB
 90
      255
102
RTVSPost2010PropOp44
 70
     1
102
RTVSPost2010Prop45
280
     0
102
RTVSPost2010PropOp45
 70
     1
102
RTVSPost2010Prop46
 90
       50
102
RTVSPost2010PropOp46
 70
     1
102
RTVSPost2010Prop47
 90
       50
102
RTVSPost2010PropOp47
 70
     1
102
RTVSPost2010Prop48
 90
       50
102
RTVSPost2010PropOp48
 70
     1
102
RTVSPost2010Prop49
280
     0
102
RTVSPost2010PropOp49
 70
     1
102
RTVSPost2010Prop50
 90
       50
102
RTVSPost2010PropOp50
 70
     1
102
RTVSPost2010Prop51ColorIndex
 90
      256
102
RTVSPost2010Prop51ColorRGB
 90
-16777216
102
RTVSPost2010PropOp51
 70
     0
102
RTVSPost2010Prop52
140
1.0
102
RTVSPost2010PropOp52
 70
     0
102
RTVSPost2010Prop53
 90
        2
102
RTVSPost2010PropOp53
 70
     1
102
RTVSPost2010Prop54
  1
strokes_ogs.tif
102
RTVSPost2010PropOp54
 70
     1
102
RTVSPost2010Prop55
280
     0
102
RTVSPost2010PropOp55
 70
     1
102
RTVSPost2010Prop56
140
1.0
102
RTVSPost2010PropOp56
 70
     1
102
RTVSPost2010Prop57
140
1.0
102
RTVSPost2010PropOp57
 70
     1
102
RTVSPropertyOp0
 70
     1
102
RTVSPropertyOp1
 70
     1
102
RTVSPropertyOp2
 70
     1
102
RTVSPropertyOp3
 70
     1
102
RTVSPropertyOp4
 70
     1
102
RTVSPropertyOp5
 70
     1
102
RTVSPropertyOp6
 70
     1
102
RTVSPropertyOp7
 70
     1
102
RTVSPropertyOp8
 70
     1
102
RTVSPropertyOp9
 70
     1
102
RTVSPropertyOp10
 70
     1
102
RTVSPropertyOp11
 70
     1
102
RTVSPropertyOp12
 70
     1
102
RTVSPropertyOp13
 70
     1
102
RTVSPropertyOp14
 70
     1
102
RTVSPropertyOp15
 70
     1
102
RTVSPropertyOp16
 70
     1
102
RTVSPropertyOp17
 70
     1
102
RTVSPropertyOp18
 70
     1
102
RTVSPropertyOp19
 70
     1
102
RTVSPropertyOp20
 70
     1
102
RTVSPropertyOp21
 70
     1
102
RTVSPropertyOp22
 70
     1
102
RTVSPropertyOp23
 70
     1
102
RTVSPropertyOp24
 70
     1
102
RTVSPropertyOp25
 70
     1
102
RTVSPropertyOp26
 70
     1
102
RTVSPropertyOp27
 70
     1
102
RTVSPropertyOp28
 70
     1
102
RTVSPropertyOp29
 70
     1
102
RTVSPropertyOp30
 70
     1
102
RTVSPropertyOp31
 70
     1
102
RTVSPropertyOp32
 70
     1
102
RTVSPropertyOp33
 70
     1
102
RTVSPropertyOp34
 70
     1
102
RTVSPropertyOp35
 70
     1
102
RTVSPropertyOp36
 70
     1
102
RTVSPropertyOp37
 70
     1
102
RTVSPropertyOp38
 70
     1
102
RTVSPropertyOp39
 70
     1
102
RTVSPropertyOp40
 70
     1
102
RTVSPropertyOp41
 70
     1
102
RTVSPropertyOp42
 70
     1
102
RTVSPropertyOp43
 70
     1
102
RTVSPropertyOp44
 70
     1
102
RTVSPropertyOp45
 70
     1
102
RTVSPropertyOp46
 70
     1
102
RTVSPropertyOp47
 70
     1
102
RTVSPropertyOp48
 70
     1
102
RTVSPropertyOp49
 70
     1
102
RTVSPropertyOp50
 70
     1
102
RTVSPropertyOp51
 70
     0
102
RTVSPropertyOp52
 70
     0
102
RTVSPropertyOp53
 70
     1
102
RTVSPropertyOp54
 70
     1
102
RTVSPropertyOp55
 70
     1
102
RTVSPropertyOp56
 70
     1
102
RTVSPropertyOp57
 70
     1
102
RTVSPropertyOp58
 70
     1
102
RTVSPropertyOp59
 70
     1
102
RTVSPropertyOp60
 70
     1
102
RTVSPropertyOp61
 70
     1
102
RTVSPropertyOp62
 70
     1
  0
XRECORD
  5
97DF
102
{ACAD_REACTORS
330
97DE
102
}
330
97DE
100
AcDbXrecord
280
     1
102
RTVSPost2010Prop28
280
     0
102
RTVSPost2010PropOp28
 70
     1
102
RTVSPost2010Prop29
280
     1
102
RTVSPost2010PropOp29
 70
     1
102
RTVSPost2010Prop30
280
     1
102
RTVSPost2010PropOp30
 70
     1
102
RTVSPost2010Prop31
280
     0
102
RTVSPost2010PropOp31
 70
     1
102
RTVSPost2010Prop32
280
     0
102
RTVSPost2010PropOp32
 70
     1
102
RTVSPost2010Prop33
280
     0
102
RTVSPost2010PropOp33
 70
     1
102
RTVSPost2010Prop34
280
     0
102
RTVSPost2010PropOp34
 70
     1
102
RTVSPost2010Prop35
280
     0
102
RTVSPost2010PropOp35
 70
     1
102
RTVSPost2010Prop36
280
     0
102
RTVSPost2010PropOp36
 70
     1
102
RTVSPost2010Prop37
 90
       50
102
RTVSPost2010PropOp37
 70
     1
102
RTVSPost2010Prop38
140
0.0
102
RTVSPost2010PropOp38
 70
     1
102
RTVSPost2010Prop39
140
1.0
102
RTVSPost2010PropOp39
 70
     1
102
RTVSPost2010Prop40
 90
        0
102
RTVSPost2010PropOp40
 70
     1
102
RTVSPost2010Prop41ColorIndex
 90
       18
102
RTVSPost2010Prop41ColorRGB
 90
        0
102
RTVSPost2010PropOp41
 70
     1
102
RTVSPost2010Prop42
 90
       50
102
RTVSPost2010PropOp42
 70
     1
102
RTVSPost2010Prop43
 90
        3
102
RTVSPost2010PropOp43
 70
     1
102
RTVSPost2010Prop44ColorIndex
 90
        5
102
RTVSPost2010Prop44ColorRGB
 90
      255
102
RTVSPost2010PropOp44
 70
     1
102
RTVSPost2010Prop45
280
     0
102
RTVSPost2010PropOp45
 70
     1
102
RTVSPost2010Prop46
 90
       50
102
RTVSPost2010PropOp46
 70
     1
102
RTVSPost2010Prop47
 90
       50
102
RTVSPost2010PropOp47
 70
     1
102
RTVSPost2010Prop48
 90
       50
102
RTVSPost2010PropOp48
 70
     1
102
RTVSPost2010Prop49
280
     0
102
RTVSPost2010PropOp49
 70
     1
102
RTVSPost2010Prop50
 90
       50
102
RTVSPost2010PropOp50
 70
     1
102
RTVSPost2010Prop51ColorIndex
 90
      256
102
RTVSPost2010Prop51ColorRGB
 90
-16777216
102
RTVSPost2010PropOp51
 70
     0
102
RTVSPost2010Prop52
140
1.0
102
RTVSPost2010PropOp52
 70
     0
102
RTVSPost2010Prop53
 90
        2
102
RTVSPost2010PropOp53
 70
     1
102
RTVSPost2010Prop54
  1
strokes_ogs.tif
102
RTVSPost2010PropOp54
 70
     1
102
RTVSPost2010Prop55
280
     0
102
RTVSPost2010PropOp55
 70
     1
102
RTVSPost2010Prop56
140
1.0
102
RTVSPost2010PropOp56
 70
     1
102
RTVSPost2010Prop57
140
1.0
102
RTVSPost2010PropOp57
 70
     1
102
RTVSPropertyOp0
 70
     1
102
RTVSPropertyOp1
 70
     1
102
RTVSPropertyOp2
 70
     1
102
RTVSPropertyOp3
 70
     1
102
RTVSPropertyOp4
 70
     1
102
RTVSPropertyOp5
 70
     1
102
RTVSPropertyOp6
 70
     1
102
RTVSPropertyOp7
 70
     1
102
RTVSPropertyOp8
 70
     1
102
RTVSPropertyOp9
 70
     1
102
RTVSPropertyOp10
 70
     1
102
RTVSPropertyOp11
 70
     1
102
RTVSPropertyOp12
 70
     1
102
RTVSPropertyOp13
 70
     1
102
RTVSPropertyOp14
 70
     1
102
RTVSPropertyOp15
 70
     1
102
RTVSPropertyOp16
 70
     1
102
RTVSPropertyOp17
 70
     1
102
RTVSPropertyOp18
 70
     1
102
RTVSPropertyOp19
 70
     1
102
RTVSPropertyOp20
 70
     1
102
RTVSPropertyOp21
 70
     1
102
RTVSPropertyOp22
 70
     1
102
RTVSPropertyOp23
 70
     1
102
RTVSPropertyOp24
 70
     1
102
RTVSPropertyOp25
 70
     1
102
RTVSPropertyOp26
 70
     1
102
RTVSPropertyOp27
 70
     1
102
RTVSPropertyOp28
 70
     1
102
RTVSPropertyOp29
 70
     1
102
RTVSPropertyOp30
 70
     1
102
RTVSPropertyOp31
 70
     1
102
RTVSPropertyOp32
 70
     1
102
RTVSPropertyOp33
 70
     1
102
RTVSPropertyOp34
 70
     1
102
RTVSPropertyOp35
 70
     1
102
RTVSPropertyOp36
 70
     1
102
RTVSPropertyOp37
 70
     1
102
RTVSPropertyOp38
 70
     1
102
RTVSPropertyOp39
 70
     1
102
RTVSPropertyOp40
 70
     1
102
RTVSPropertyOp41
 70
     1
102
RTVSPropertyOp42
 70
     1
102
RTVSPropertyOp43
 70
     1
102
RTVSPropertyOp44
 70
     1
102
RTVSPropertyOp45
 70
     1
102
RTVSPropertyOp46
 70
     1
102
RTVSPropertyOp47
 70
     1
102
RTVSPropertyOp48
 70
     1
102
RTVSPropertyOp49
 70
     1
102
RTVSPropertyOp50
 70
     1
102
RTVSPropertyOp51
 70
     0
102
RTVSPropertyOp52
 70
     0
102
RTVSPropertyOp53
 70
     1
102
RTVSPropertyOp54
 70
     1
102
RTVSPropertyOp55
 70
     1
102
RTVSPropertyOp56
 70
     1
102
RTVSPropertyOp57
 70
     1
102
RTVSPropertyOp58
 70
     1
102
RTVSPropertyOp59
 70
     1
102
RTVSPropertyOp60
 70
     1
102
RTVSPropertyOp61
 70
     1
102
RTVSPropertyOp62
 70
     1
  0
XRECORD
  5
97E7
102
{ACAD_REACTORS
330
97E6
102
}
330
97E6
100
AcDbXrecord
280
     1
102
RTVSPost2010Prop28
280
     0
102
RTVSPost2010PropOp28
 70
     1
102
RTVSPost2010Prop29
280
     1
102
RTVSPost2010PropOp29
 70
     1
102
RTVSPost2010Prop30
280
     1
102
RTVSPost2010PropOp30
 70
     1
102
RTVSPost2010Prop31
280
     0
102
RTVSPost2010PropOp31
 70
     1
102
RTVSPost2010Prop32
280
     0
102
RTVSPost2010PropOp32
 70
     1
102
RTVSPost2010Prop33
280
     0
102
RTVSPost2010PropOp33
 70
     1
102
RTVSPost2010Prop34
280
     0
102
RTVSPost2010PropOp34
 70
     1
102
RTVSPost2010Prop35
280
     0
102
RTVSPost2010PropOp35
 70
     1
102
RTVSPost2010Prop36
280
     0
102
RTVSPost2010PropOp36
 70
     1
102
RTVSPost2010Prop37
 90
       50
102
RTVSPost2010PropOp37
 70
     1
102
RTVSPost2010Prop38
140
0.0
102
RTVSPost2010PropOp38
 70
     1
102
RTVSPost2010Prop39
140
1.0
102
RTVSPost2010PropOp39
 70
     1
102
RTVSPost2010Prop40
 90
        0
102
RTVSPost2010PropOp40
 70
     1
102
RTVSPost2010Prop41ColorIndex
 90
       18
102
RTVSPost2010Prop41ColorRGB
 90
        0
102
RTVSPost2010PropOp41
 70
     1
102
RTVSPost2010Prop42
 90
       50
102
RTVSPost2010PropOp42
 70
     1
102
RTVSPost2010Prop43
 90
        3
102
RTVSPost2010PropOp43
 70
     1
102
RTVSPost2010Prop44ColorIndex
 90
        5
102
RTVSPost2010Prop44ColorRGB
 90
      255
102
RTVSPost2010PropOp44
 70
     1
102
RTVSPost2010Prop45
280
     0
102
RTVSPost2010PropOp45
 70
     1
102
RTVSPost2010Prop46
 90
       50
102
RTVSPost2010PropOp46
 70
     1
102
RTVSPost2010Prop47
 90
       50
102
RTVSPost2010PropOp47
 70
     1
102
RTVSPost2010Prop48
 90
       50
102
RTVSPost2010PropOp48
 70
     1
102
RTVSPost2010Prop49
280
     0
102
RTVSPost2010PropOp49
 70
     1
102
RTVSPost2010Prop50
 90
       50
102
RTVSPost2010PropOp50
 70
     1
102
RTVSPost2010Prop51ColorIndex
 90
      256
102
RTVSPost2010Prop51ColorRGB
 90
-16777216
102
RTVSPost2010PropOp51
 70
     0
102
RTVSPost2010Prop52
140
1.0
102
RTVSPost2010PropOp52
 70
     0
102
RTVSPost2010Prop53
 90
        2
102
RTVSPost2010PropOp53
 70
     1
102
RTVSPost2010Prop54
  1
strokes_ogs.tif
102
RTVSPost2010PropOp54
 70
     1
102
RTVSPost2010Prop55
280
     0
102
RTVSPost2010PropOp55
 70
     1
102
RTVSPost2010Prop56
140
1.0
102
RTVSPost2010PropOp56
 70
     1
102
RTVSPost2010Prop57
140
1.0
102
RTVSPost2010PropOp57
 70
     1
102
RTVSPropertyOp0
 70
     1
102
RTVSPropertyOp1
 70
     1
102
RTVSPropertyOp2
 70
     1
102
RTVSPropertyOp3
 70
     1
102
RTVSPropertyOp4
 70
     1
102
RTVSPropertyOp5
 70
     1
102
RTVSPropertyOp6
 70
     1
102
RTVSPropertyOp7
 70
     1
102
RTVSPropertyOp8
 70
     1
102
RTVSPropertyOp9
 70
     1
102
RTVSPropertyOp10
 70
     1
102
RTVSPropertyOp11
 70
     1
102
RTVSPropertyOp12
 70
     1
102
RTVSPropertyOp13
 70
     1
102
RTVSPropertyOp14
 70
     1
102
RTVSPropertyOp15
 70
     1
102
RTVSPropertyOp16
 70
     1
102
RTVSPropertyOp17
 70
     1
102
RTVSPropertyOp18
 70
     1
102
RTVSPropertyOp19
 70
     1
102
RTVSPropertyOp20
 70
     1
102
RTVSPropertyOp21
 70
     1
102
RTVSPropertyOp22
 70
     1
102
RTVSPropertyOp23
 70
     1
102
RTVSPropertyOp24
 70
     1
102
RTVSPropertyOp25
 70
     1
102
RTVSPropertyOp26
 70
     1
102
RTVSPropertyOp27
 70
     1
102
RTVSPropertyOp28
 70
     1
102
RTVSPropertyOp29
 70
     1
102
RTVSPropertyOp30
 70
     1
102
RTVSPropertyOp31
 70
     1
102
RTVSPropertyOp32
 70
     1
102
RTVSPropertyOp33
 70
     1
102
RTVSPropertyOp34
 70
     1
102
RTVSPropertyOp35
 70
     1
102
RTVSPropertyOp36
 70
     1
102
RTVSPropertyOp37
 70
     1
102
RTVSPropertyOp38
 70
     1
102
RTVSPropertyOp39
 70
     1
102
RTVSPropertyOp40
 70
     1
102
RTVSPropertyOp41
 70
     1
102
RTVSPropertyOp42
 70
     1
102
RTVSPropertyOp43
 70
     1
102
RTVSPropertyOp44
 70
     1
102
RTVSPropertyOp45
 70
     1
102
RTVSPropertyOp46
 70
     1
102
RTVSPropertyOp47
 70
     1
102
RTVSPropertyOp48
 70
     1
102
RTVSPropertyOp49
 70
     1
102
RTVSPropertyOp50
 70
     1
102
RTVSPropertyOp51
 70
     0
102
RTVSPropertyOp52
 70
     0
102
RTVSPropertyOp53
 70
     1
102
RTVSPropertyOp54
 70
     1
102
RTVSPropertyOp55
 70
     1
102
RTVSPropertyOp56
 70
     1
102
RTVSPropertyOp57
 70
     1
102
RTVSPropertyOp58
 70
     1
102
RTVSPropertyOp59
 70
     1
102
RTVSPropertyOp60
 70
     1
102
RTVSPropertyOp61
 70
     1
102
RTVSPropertyOp62
 70
     1
  0
XRECORD
  5
97D9
102
{ACAD_REACTORS
330
97D8
102
}
330
97D8
100
AcDbXrecord
280
     1
102
RTVSPost2010Prop28
280
     0
102
RTVSPost2010PropOp28
 70
     1
102
RTVSPost2010Prop29
280
     1
102
RTVSPost2010PropOp29
 70
     1
102
RTVSPost2010Prop30
280
     1
102
RTVSPost2010PropOp30
 70
     1
102
RTVSPost2010Prop31
280
     0
102
RTVSPost2010PropOp31
 70
     1
102
RTVSPost2010Prop32
280
     0
102
RTVSPost2010PropOp32
 70
     1
102
RTVSPost2010Prop33
280
     0
102
RTVSPost2010PropOp33
 70
     1
102
RTVSPost2010Prop34
280
     0
102
RTVSPost2010PropOp34
 70
     1
102
RTVSPost2010Prop35
280
     0
102
RTVSPost2010PropOp35
 70
     1
102
RTVSPost2010Prop36
280
     0
102
RTVSPost2010PropOp36
 70
     1
102
RTVSPost2010Prop37
 90
       50
102
RTVSPost2010PropOp37
 70
     1
102
RTVSPost2010Prop38
140
0.0
102
RTVSPost2010PropOp38
 70
     1
102
RTVSPost2010Prop39
140
1.0
102
RTVSPost2010PropOp39
 70
     1
102
RTVSPost2010Prop40
 90
        0
102
RTVSPost2010PropOp40
 70
     1
102
RTVSPost2010Prop41ColorIndex
 90
       18
102
RTVSPost2010Prop41ColorRGB
 90
        0
102
RTVSPost2010PropOp41
 70
     1
102
RTVSPost2010Prop42
 90
       50
102
RTVSPost2010PropOp42
 70
     1
102
RTVSPost2010Prop43
 90
        3
102
RTVSPost2010PropOp43
 70
     1
102
RTVSPost2010Prop44ColorIndex
 90
        5
102
RTVSPost2010Prop44ColorRGB
 90
      255
102
RTVSPost2010PropOp44
 70
     1
102
RTVSPost2010Prop45
280
     0
102
RTVSPost2010PropOp45
 70
     1
102
RTVSPost2010Prop46
 90
       50
102
RTVSPost2010PropOp46
 70
     1
102
RTVSPost2010Prop47
 90
       50
102
RTVSPost2010PropOp47
 70
     1
102
RTVSPost2010Prop48
 90
       50
102
RTVSPost2010PropOp48
 70
     1
102
RTVSPost2010Prop49
280
     0
102
RTVSPost2010PropOp49
 70
     1
102
RTVSPost2010Prop50
 90
       50
102
RTVSPost2010PropOp50
 70
     1
102
RTVSPost2010Prop51ColorIndex
 90
      256
102
RTVSPost2010Prop51ColorRGB
 90
-16777216
102
RTVSPost2010PropOp51
 70
     0
102
RTVSPost2010Prop52
140
1.0
102
RTVSPost2010PropOp52
 70
     0
102
RTVSPost2010Prop53
 90
        2
102
RTVSPost2010PropOp53
 70
     1
102
RTVSPost2010Prop54
  1
strokes_ogs.tif
102
RTVSPost2010PropOp54
 70
     1
102
RTVSPost2010Prop55
280
     0
102
RTVSPost2010PropOp55
 70
     1
102
RTVSPost2010Prop56
140
1.0
102
RTVSPost2010PropOp56
 70
     1
102
RTVSPost2010Prop57
140
1.0
102
RTVSPost2010PropOp57
 70
     1
102
RTVSPropertyOp0
 70
     1
102
RTVSPropertyOp1
 70
     1
102
RTVSPropertyOp2
 70
     1
102
RTVSPropertyOp3
 70
     1
102
RTVSPropertyOp4
 70
     1
102
RTVSPropertyOp5
 70
     1
102
RTVSPropertyOp6
 70
     1
102
RTVSPropertyOp7
 70
     1
102
RTVSPropertyOp8
 70
     1
102
RTVSPropertyOp9
 70
     1
102
RTVSPropertyOp10
 70
     1
102
RTVSPropertyOp11
 70
     1
102
RTVSPropertyOp12
 70
     1
102
RTVSPropertyOp13
 70
     1
102
RTVSPropertyOp14
 70
     1
102
RTVSPropertyOp15
 70
     1
102
RTVSPropertyOp16
 70
     1
102
RTVSPropertyOp17
 70
     1
102
RTVSPropertyOp18
 70
     1
102
RTVSPropertyOp19
 70
     1
102
RTVSPropertyOp20
 70
     1
102
RTVSPropertyOp21
 70
     1
102
RTVSPropertyOp22
 70
     1
102
RTVSPropertyOp23
 70
     1
102
RTVSPropertyOp24
 70
     1
102
RTVSPropertyOp25
 70
     1
102
RTVSPropertyOp26
 70
     1
102
RTVSPropertyOp27
 70
     1
102
RTVSPropertyOp28
 70
     1
102
RTVSPropertyOp29
 70
     1
102
RTVSPropertyOp30
 70
     1
102
RTVSPropertyOp31
 70
     1
102
RTVSPropertyOp32
 70
     1
102
RTVSPropertyOp33
 70
     1
102
RTVSPropertyOp34
 70
     1
102
RTVSPropertyOp35
 70
     1
102
RTVSPropertyOp36
 70
     1
102
RTVSPropertyOp37
 70
     1
102
RTVSPropertyOp38
 70
     1
102
RTVSPropertyOp39
 70
     1
102
RTVSPropertyOp40
 70
     1
102
RTVSPropertyOp41
 70
     1
102
RTVSPropertyOp42
 70
     1
102
RTVSPropertyOp43
 70
     1
102
RTVSPropertyOp44
 70
     1
102
RTVSPropertyOp45
 70
     1
102
RTVSPropertyOp46
 70
     1
102
RTVSPropertyOp47
 70
     1
102
RTVSPropertyOp48
 70
     1
102
RTVSPropertyOp49
 70
     1
102
RTVSPropertyOp50
 70
     1
102
RTVSPropertyOp51
 70
     0
102
RTVSPropertyOp52
 70
     0
102
RTVSPropertyOp53
 70
     1
102
RTVSPropertyOp54
 70
     1
102
RTVSPropertyOp55
 70
     1
102
RTVSPropertyOp56
 70
     1
102
RTVSPropertyOp57
 70
     1
102
RTVSPropertyOp58
 70
     1
102
RTVSPropertyOp59
 70
     1
102
RTVSPropertyOp60
 70
     1
102
RTVSPropertyOp61
 70
     1
102
RTVSPropertyOp62
 70
     1
  0
XRECORD
  5
97DD
102
{ACAD_REACTORS
330
97DC
102
}
330
97DC
100
AcDbXrecord
280
     1
102
RTVSPost2010Prop28
280
     0
102
RTVSPost2010PropOp28
 70
     1
102
RTVSPost2010Prop29
280
     1
102
RTVSPost2010PropOp29
 70
     1
102
RTVSPost2010Prop30
280
     1
102
RTVSPost2010PropOp30
 70
     1
102
RTVSPost2010Prop31
280
     0
102
RTVSPost2010PropOp31
 70
     1
102
RTVSPost2010Prop32
280
     0
102
RTVSPost2010PropOp32
 70
     1
102
RTVSPost2010Prop33
280
     0
102
RTVSPost2010PropOp33
 70
     1
102
RTVSPost2010Prop34
280
     0
102
RTVSPost2010PropOp34
 70
     1
102
RTVSPost2010Prop35
280
     0
102
RTVSPost2010PropOp35
 70
     1
102
RTVSPost2010Prop36
280
     0
102
RTVSPost2010PropOp36
 70
     1
102
RTVSPost2010Prop37
 90
       50
102
RTVSPost2010PropOp37
 70
     1
102
RTVSPost2010Prop38
140
0.0
102
RTVSPost2010PropOp38
 70
     1
102
RTVSPost2010Prop39
140
1.0
102
RTVSPost2010PropOp39
 70
     1
102
RTVSPost2010Prop40
 90
        0
102
RTVSPost2010PropOp40
 70
     1
102
RTVSPost2010Prop41ColorIndex
 90
       18
102
RTVSPost2010Prop41ColorRGB
 90
        0
102
RTVSPost2010PropOp41
 70
     1
102
RTVSPost2010Prop42
 90
       50
102
RTVSPost2010PropOp42
 70
     1
102
RTVSPost2010Prop43
 90
        3
102
RTVSPost2010PropOp43
 70
     1
102
RTVSPost2010Prop44ColorIndex
 90
        5
102
RTVSPost2010Prop44ColorRGB
 90
      255
102
RTVSPost2010PropOp44
 70
     1
102
RTVSPost2010Prop45
280
     0
102
RTVSPost2010PropOp45
 70
     1
102
RTVSPost2010Prop46
 90
       50
102
RTVSPost2010PropOp46
 70
     1
102
RTVSPost2010Prop47
 90
       50
102
RTVSPost2010PropOp47
 70
     1
102
RTVSPost2010Prop48
 90
       50
102
RTVSPost2010PropOp48
 70
     1
102
RTVSPost2010Prop49
280
     0
102
RTVSPost2010PropOp49
 70
     1
102
RTVSPost2010Prop50
 90
       50
102
RTVSPost2010PropOp50
 70
     1
102
RTVSPost2010Prop51ColorIndex
 90
      256
102
RTVSPost2010Prop51ColorRGB
 90
-16777216
102
RTVSPost2010PropOp51
 70
     0
102
RTVSPost2010Prop52
140
1.0
102
RTVSPost2010PropOp52
 70
     0
102
RTVSPost2010Prop53
 90
        2
102
RTVSPost2010PropOp53
 70
     1
102
RTVSPost2010Prop54
  1
strokes_ogs.tif
102
RTVSPost2010PropOp54
 70
     1
102
RTVSPost2010Prop55
280
     0
102
RTVSPost2010PropOp55
 70
     1
102
RTVSPost2010Prop56
140
1.0
102
RTVSPost2010PropOp56
 70
     1
102
RTVSPost2010Prop57
140
1.0
102
RTVSPost2010PropOp57
 70
     1
102
RTVSPropertyOp0
 70
     1
102
RTVSPropertyOp1
 70
     1
102
RTVSPropertyOp2
 70
     1
102
RTVSPropertyOp3
 70
     1
102
RTVSPropertyOp4
 70
     1
102
RTVSPropertyOp5
 70
     1
102
RTVSPropertyOp6
 70
     1
102
RTVSPropertyOp7
 70
     1
102
RTVSPropertyOp8
 70
     1
102
RTVSPropertyOp9
 70
     1
102
RTVSPropertyOp10
 70
     1
102
RTVSPropertyOp11
 70
     1
102
RTVSPropertyOp12
 70
     1
102
RTVSPropertyOp13
 70
     1
102
RTVSPropertyOp14
 70
     1
102
RTVSPropertyOp15
 70
     1
102
RTVSPropertyOp16
 70
     1
102
RTVSPropertyOp17
 70
     1
102
RTVSPropertyOp18
 70
     1
102
RTVSPropertyOp19
 70
     1
102
RTVSPropertyOp20
 70
     1
102
RTVSPropertyOp21
 70
     1
102
RTVSPropertyOp22
 70
     1
102
RTVSPropertyOp23
 70
     1
102
RTVSPropertyOp24
 70
     1
102
RTVSPropertyOp25
 70
     1
102
RTVSPropertyOp26
 70
     1
102
RTVSPropertyOp27
 70
     1
102
RTVSPropertyOp28
 70
     1
102
RTVSPropertyOp29
 70
     1
102
RTVSPropertyOp30
 70
     1
102
RTVSPropertyOp31
 70
     1
102
RTVSPropertyOp32
 70
     1
102
RTVSPropertyOp33
 70
     1
102
RTVSPropertyOp34
 70
     1
102
RTVSPropertyOp35
 70
     1
102
RTVSPropertyOp36
 70
     1
102
RTVSPropertyOp37
 70
     1
102
RTVSPropertyOp38
 70
     1
102
RTVSPropertyOp39
 70
     1
102
RTVSPropertyOp40
 70
     1
102
RTVSPropertyOp41
 70
     1
102
RTVSPropertyOp42
 70
     1
102
RTVSPropertyOp43
 70
     1
102
RTVSPropertyOp44
 70
     1
102
RTVSPropertyOp45
 70
     1
102
RTVSPropertyOp46
 70
     1
102
RTVSPropertyOp47
 70
     1
102
RTVSPropertyOp48
 70
     1
102
RTVSPropertyOp49
 70
     1
102
RTVSPropertyOp50
 70
     1
102
RTVSPropertyOp51
 70
     0
102
RTVSPropertyOp52
 70
     0
102
RTVSPropertyOp53
 70
     1
102
RTVSPropertyOp54
 70
     1
102
RTVSPropertyOp55
 70
     1
102
RTVSPropertyOp56
 70
     1
102
RTVSPropertyOp57
 70
     1
102
RTVSPropertyOp58
 70
     1
102
RTVSPropertyOp59
 70
     1
102
RTVSPropertyOp60
 70
     1
102
RTVSPropertyOp61
 70
     1
102
RTVSPropertyOp62
 70
     1
  0
XRECORD
  5
97F7
102
{ACAD_REACTORS
330
97F6
102
}
330
97F6
100
AcDbXrecord
280
     1
102
RTVSPost2010Prop28
280
     0
102
RTVSPost2010PropOp28
 70
     1
102
RTVSPost2010Prop29
280
     1
102
RTVSPost2010PropOp29
 70
     1
102
RTVSPost2010Prop30
280
     1
102
RTVSPost2010PropOp30
 70
     1
102
RTVSPost2010Prop31
280
     0
102
RTVSPost2010PropOp31
 70
     1
102
RTVSPost2010Prop32
280
     0
102
RTVSPost2010PropOp32
 70
     1
102
RTVSPost2010Prop33
280
     0
102
RTVSPost2010PropOp33
 70
     1
102
RTVSPost2010Prop34
280
     0
102
RTVSPost2010PropOp34
 70
     1
102
RTVSPost2010Prop35
280
     0
102
RTVSPost2010PropOp35
 70
     1
102
RTVSPost2010Prop36
280
     0
102
RTVSPost2010PropOp36
 70
     1
102
RTVSPost2010Prop37
 90
       50
102
RTVSPost2010PropOp37
 70
     0
102
RTVSPost2010Prop38
140
0.0
102
RTVSPost2010PropOp38
 70
     0
102
RTVSPost2010Prop39
140
1.0
102
RTVSPost2010PropOp39
 70
     0
102
RTVSPost2010Prop40
 90
        0
102
RTVSPost2010PropOp40
 70
     0
102
RTVSPost2010Prop41ColorIndex
 90
       18
102
RTVSPost2010Prop41ColorRGB
 90
        0
102
RTVSPost2010PropOp41
 70
     0
102
RTVSPost2010Prop42
 90
       50
102
RTVSPost2010PropOp42
 70
     0
102
RTVSPost2010Prop43
 90
        3
102
RTVSPost2010PropOp43
 70
     0
102
RTVSPost2010Prop44ColorIndex
 90
        5
102
RTVSPost2010Prop44ColorRGB
 90
      255
102
RTVSPost2010PropOp44
 70
     0
102
RTVSPost2010Prop45
280
     0
102
RTVSPost2010PropOp45
 70
     1
102
RTVSPost2010Prop46
 90
       50
102
RTVSPost2010PropOp46
 70
     0
102
RTVSPost2010Prop47
 90
       50
102
RTVSPost2010PropOp47
 70
     0
102
RTVSPost2010Prop48
 90
       50
102
RTVSPost2010PropOp48
 70
     0
102
RTVSPost2010Prop49
280
     0
102
RTVSPost2010PropOp49
 70
     1
102
RTVSPost2010Prop50
 90
       50
102
RTVSPost2010PropOp50
 70
     0
102
RTVSPost2010Prop51ColorIndex
 90
      256
102
RTVSPost2010Prop51ColorRGB
 90
-16777216
102
RTVSPost2010PropOp51
 70
     0
102
RTVSPost2010Prop52
140
1.0
102
RTVSPost2010PropOp52
 70
     0
102
RTVSPost2010Prop53
 90
        2
102
RTVSPost2010PropOp53
 70
     0
102
RTVSPost2010Prop54
  1
strokes_ogs.tif
102
RTVSPost2010PropOp54
 70
     0
102
RTVSPost2010Prop55
280
     0
102
RTVSPost2010PropOp55
 70
     1
102
RTVSPost2010Prop56
140
1.0
102
RTVSPost2010PropOp56
 70
     0
102
RTVSPost2010Prop57
140
1.0
102
RTVSPost2010PropOp57
 70
     0
102
RTVSPropertyOp0
 70
     0
102
RTVSPropertyOp1
 70
     0
102
RTVSPropertyOp2
 70
     0
102
RTVSPropertyOp3
 70
     0
102
RTVSPropertyOp4
 70
     0
102
RTVSPropertyOp5
 70
     0
102
RTVSPropertyOp6
 70
     0
102
RTVSPropertyOp7
 70
     0
102
RTVSPropertyOp8
 70
     0
102
RTVSPropertyOp9
 70
     0
102
RTVSPropertyOp10
 70
     0
102
RTVSPropertyOp11
 70
     0
102
RTVSPropertyOp12
 70
     0
102
RTVSPropertyOp13
 70
     0
102
RTVSPropertyOp14
 70
     2
102
RTVSPropertyOp15
 70
     0
102
RTVSPropertyOp16
 70
     0
102
RTVSPropertyOp17
 70
     0
102
RTVSPropertyOp18
 70
     0
102
RTVSPropertyOp19
 70
     0
102
RTVSPropertyOp20
 70
     0
102
RTVSPropertyOp21
 70
     0
102
RTVSPropertyOp22
 70
     0
102
RTVSPropertyOp23
 70
     0
102
RTVSPropertyOp24
 70
     0
102
RTVSPropertyOp25
 70
     0
102
RTVSPropertyOp26
 70
     0
102
RTVSPropertyOp27
 70
     0
102
RTVSPropertyOp28
 70
     1
102
RTVSPropertyOp29
 70
     1
102
RTVSPropertyOp30
 70
     1
102
RTVSPropertyOp31
 70
     1
102
RTVSPropertyOp32
 70
     1
102
RTVSPropertyOp33
 70
     1
102
RTVSPropertyOp34
 70
     1
102
RTVSPropertyOp35
 70
     1
102
RTVSPropertyOp36
 70
     1
102
RTVSPropertyOp37
 70
     0
102
RTVSPropertyOp38
 70
     0
102
RTVSPropertyOp39
 70
     0
102
RTVSPropertyOp40
 70
     0
102
RTVSPropertyOp41
 70
     0
102
RTVSPropertyOp42
 70
     0
102
RTVSPropertyOp43
 70
     0
102
RTVSPropertyOp44
 70
     0
102
RTVSPropertyOp45
 70
     1
102
RTVSPropertyOp46
 70
     0
102
RTVSPropertyOp47
 70
     0
102
RTVSPropertyOp48
 70
     0
102
RTVSPropertyOp49
 70
     1
102
RTVSPropertyOp50
 70
     0
102
RTVSPropertyOp51
 70
     0
102
RTVSPropertyOp52
 70
     0
102
RTVSPropertyOp53
 70
     0
102
RTVSPropertyOp54
 70
     0
102
RTVSPropertyOp55
 70
     1
102
RTVSPropertyOp56
 70
     0
102
RTVSPropertyOp57
 70
     0
102
RTVSPropertyOp58
 70
     0
102
RTVSPropertyOp59
 70
     0
102
RTVSPropertyOp60
 70
     0
102
RTVSPropertyOp61
 70
     0
102
RTVSPropertyOp62
 70
     0
  0
XRECORD
  5
97E5
102
{ACAD_REACTORS
330
97E4
102
}
330
97E4
100
AcDbXrecord
280
     1
102
RTVSPost2010Prop28
280
     0
102
RTVSPost2010PropOp28
 70
     1
102
RTVSPost2010Prop29
280
     1
102
RTVSPost2010PropOp29
 70
     1
102
RTVSPost2010Prop30
280
     1
102
RTVSPost2010PropOp30
 70
     1
102
RTVSPost2010Prop31
280
     0
102
RTVSPost2010PropOp31
 70
     1
102
RTVSPost2010Prop32
280
     0
102
RTVSPost2010PropOp32
 70
     1
102
RTVSPost2010Prop33
280
     0
102
RTVSPost2010PropOp33
 70
     1
102
RTVSPost2010Prop34
280
     0
102
RTVSPost2010PropOp34
 70
     1
102
RTVSPost2010Prop35
280
     0
102
RTVSPost2010PropOp35
 70
     1
102
RTVSPost2010Prop36
280
     0
102
RTVSPost2010PropOp36
 70
     1
102
RTVSPost2010Prop37
 90
       50
102
RTVSPost2010PropOp37
 70
     1
102
RTVSPost2010Prop38
140
0.0
102
RTVSPost2010PropOp38
 70
     1
102
RTVSPost2010Prop39
140
1.0
102
RTVSPost2010PropOp39
 70
     1
102
RTVSPost2010Prop40
 90
        0
102
RTVSPost2010PropOp40
 70
     1
102
RTVSPost2010Prop41ColorIndex
 90
       18
102
RTVSPost2010Prop41ColorRGB
 90
        0
102
RTVSPost2010PropOp41
 70
     1
102
RTVSPost2010Prop42
 90
       50
102
RTVSPost2010PropOp42
 70
     1
102
RTVSPost2010Prop43
 90
        3
102
RTVSPost2010PropOp43
 70
     1
102
RTVSPost2010Prop44ColorIndex
 90
        5
102
RTVSPost2010Prop44ColorRGB
 90
      255
102
RTVSPost2010PropOp44
 70
     1
102
RTVSPost2010Prop45
280
     0
102
RTVSPost2010PropOp45
 70
     1
102
RTVSPost2010Prop46
 90
       50
102
RTVSPost2010PropOp46
 70
     1
102
RTVSPost2010Prop47
 90
       50
102
RTVSPost2010PropOp47
 70
     1
102
RTVSPost2010Prop48
 90
       50
102
RTVSPost2010PropOp48
 70
     1
102
RTVSPost2010Prop49
280
     0
102
RTVSPost2010PropOp49
 70
     1
102
RTVSPost2010Prop50
 90
       50
102
RTVSPost2010PropOp50
 70
     1
102
RTVSPost2010Prop51ColorIndex
 90
      256
102
RTVSPost2010Prop51ColorRGB
 90
-16777216
102
RTVSPost2010PropOp51
 70
     0
102
RTVSPost2010Prop52
140
1.0
102
RTVSPost2010PropOp52
 70
     0
102
RTVSPost2010Prop53
 90
        2
102
RTVSPost2010PropOp53
 70
     1
102
RTVSPost2010Prop54
  1
strokes_ogs.tif
102
RTVSPost2010PropOp54
 70
     1
102
RTVSPost2010Prop55
280
     0
102
RTVSPost2010PropOp55
 70
     1
102
RTVSPost2010Prop56
140
1.0
102
RTVSPost2010PropOp56
 70
     1
102
RTVSPost2010Prop57
140
1.0
102
RTVSPost2010PropOp57
 70
     1
102
RTVSPropertyOp0
 70
     1
102
RTVSPropertyOp1
 70
     1
102
RTVSPropertyOp2
 70
     1
102
RTVSPropertyOp3
 70
     1
102
RTVSPropertyOp4
 70
     1
102
RTVSPropertyOp5
 70
     1
102
RTVSPropertyOp6
 70
     1
102
RTVSPropertyOp7
 70
     1
102
RTVSPropertyOp8
 70
     1
102
RTVSPropertyOp9
 70
     1
102
RTVSPropertyOp10
 70
     1
102
RTVSPropertyOp11
 70
     1
102
RTVSPropertyOp12
 70
     1
102
RTVSPropertyOp13
 70
     1
102
RTVSPropertyOp14
 70
     1
102
RTVSPropertyOp15
 70
     1
102
RTVSPropertyOp16
 70
     1
102
RTVSPropertyOp17
 70
     1
102
RTVSPropertyOp18
 70
     1
102
RTVSPropertyOp19
 70
     1
102
RTVSPropertyOp20
 70
     1
102
RTVSPropertyOp21
 70
     1
102
RTVSPropertyOp22
 70
     1
102
RTVSPropertyOp23
 70
     1
102
RTVSPropertyOp24
 70
     1
102
RTVSPropertyOp25
 70
     1
102
RTVSPropertyOp26
 70
     1
102
RTVSPropertyOp27
 70
     1
102
RTVSPropertyOp28
 70
     1
102
RTVSPropertyOp29
 70
     1
102
RTVSPropertyOp30
 70
     1
102
RTVSPropertyOp31
 70
     1
102
RTVSPropertyOp32
 70
     1
102
RTVSPropertyOp33
 70
     1
102
RTVSPropertyOp34
 70
     1
102
RTVSPropertyOp35
 70
     1
102
RTVSPropertyOp36
 70
     1
102
RTVSPropertyOp37
 70
     1
102
RTVSPropertyOp38
 70
     1
102
RTVSPropertyOp39
 70
     1
102
RTVSPropertyOp40
 70
     1
102
RTVSPropertyOp41
 70
     1
102
RTVSPropertyOp42
 70
     1
102
RTVSPropertyOp43
 70
     1
102
RTVSPropertyOp44
 70
     1
102
RTVSPropertyOp45
 70
     1
102
RTVSPropertyOp46
 70
     1
102
RTVSPropertyOp47
 70
     1
102
RTVSPropertyOp48
 70
     1
102
RTVSPropertyOp49
 70
     1
102
RTVSPropertyOp50
 70
     1
102
RTVSPropertyOp51
 70
     0
102
RTVSPropertyOp52
 70
     0
102
RTVSPropertyOp53
 70
     1
102
RTVSPropertyOp54
 70
     1
102
RTVSPropertyOp55
 70
     1
102
RTVSPropertyOp56
 70
     1
102
RTVSPropertyOp57
 70
     1
102
RTVSPropertyOp58
 70
     1
102
RTVSPropertyOp59
 70
     1
102
RTVSPropertyOp60
 70
     1
102
RTVSPropertyOp61
 70
     1
102
RTVSPropertyOp62
 70
     1
  0
XRECORD
  5
97C9
102
{ACAD_REACTORS
330
97C8
102
}
330
97C8
100
AcDbXrecord
280
     1
102
RTVSPost2010Prop28
280
     0
102
RTVSPost2010PropOp28
 70
     1
102
RTVSPost2010Prop29
280
     1
102
RTVSPost2010PropOp29
 70
     1
102
RTVSPost2010Prop30
280
     1
102
RTVSPost2010PropOp30
 70
     1
102
RTVSPost2010Prop31
280
     0
102
RTVSPost2010PropOp31
 70
     1
102
RTVSPost2010Prop32
280
     0
102
RTVSPost2010PropOp32
 70
     1
102
RTVSPost2010Prop33
280
     0
102
RTVSPost2010PropOp33
 70
     1
102
RTVSPost2010Prop34
280
     0
102
RTVSPost2010PropOp34
 70
     1
102
RTVSPost2010Prop35
280
     0
102
RTVSPost2010PropOp35
 70
     1
102
RTVSPost2010Prop36
280
     0
102
RTVSPost2010PropOp36
 70
     1
102
RTVSPost2010Prop37
 90
       50
102
RTVSPost2010PropOp37
 70
     1
102
RTVSPost2010Prop38
140
0.0
102
RTVSPost2010PropOp38
 70
     1
102
RTVSPost2010Prop39
140
1.0
102
RTVSPost2010PropOp39
 70
     1
102
RTVSPost2010Prop40
 90
        0
102
RTVSPost2010PropOp40
 70
     1
102
RTVSPost2010Prop41ColorIndex
 90
       18
102
RTVSPost2010Prop41ColorRGB
 90
        0
102
RTVSPost2010PropOp41
 70
     1
102
RTVSPost2010Prop42
 90
       50
102
RTVSPost2010PropOp42
 70
     1
102
RTVSPost2010Prop43
 90
        3
102
RTVSPost2010PropOp43
 70
     1
102
RTVSPost2010Prop44ColorIndex
 90
        5
102
RTVSPost2010Prop44ColorRGB
 90
      255
102
RTVSPost2010PropOp44
 70
     1
102
RTVSPost2010Prop45
280
     0
102
RTVSPost2010PropOp45
 70
     1
102
RTVSPost2010Prop46
 90
       50
102
RTVSPost2010PropOp46
 70
     1
102
RTVSPost2010Prop47
 90
       50
102
RTVSPost2010PropOp47
 70
     1
102
RTVSPost2010Prop48
 90
       50
102
RTVSPost2010PropOp48
 70
     1
102
RTVSPost2010Prop49
280
     0
102
RTVSPost2010PropOp49
 70
     1
102
RTVSPost2010Prop50
 90
       50
102
RTVSPost2010PropOp50
 70
     1
102
RTVSPost2010Prop51ColorIndex
 90
      256
102
RTVSPost2010Prop51ColorRGB
 90
-16777216
102
RTVSPost2010PropOp51
 70
     0
102
RTVSPost2010Prop52
140
1.0
102
RTVSPost2010PropOp52
 70
     0
102
RTVSPost2010Prop53
 90
        2
102
RTVSPost2010PropOp53
 70
     1
102
RTVSPost2010Prop54
  1
strokes_ogs.tif
102
RTVSPost2010PropOp54
 70
     1
102
RTVSPost2010Prop55
280
     0
102
RTVSPost2010PropOp55
 70
     1
102
RTVSPost2010Prop56
140
1.0
102
RTVSPost2010PropOp56
 70
     1
102
RTVSPost2010Prop57
140
1.0
102
RTVSPost2010PropOp57
 70
     1
102
RTVSPropertyOp0
 70
     1
102
RTVSPropertyOp1
 70
     1
102
RTVSPropertyOp2
 70
     1
102
RTVSPropertyOp3
 70
     1
102
RTVSPropertyOp4
 70
     1
102
RTVSPropertyOp5
 70
     1
102
RTVSPropertyOp6
 70
     1
102
RTVSPropertyOp7
 70
     1
102
RTVSPropertyOp8
 70
     1
102
RTVSPropertyOp9
 70
     1
102
RTVSPropertyOp10
 70
     1
102
RTVSPropertyOp11
 70
     1
102
RTVSPropertyOp12
 70
     1
102
RTVSPropertyOp13
 70
     1
102
RTVSPropertyOp14
 70
     1
102
RTVSPropertyOp15
 70
     1
102
RTVSPropertyOp16
 70
     1
102
RTVSPropertyOp17
 70
     1
102
RTVSPropertyOp18
 70
     1
102
RTVSPropertyOp19
 70
     1
102
RTVSPropertyOp20
 70
     1
102
RTVSPropertyOp21
 70
     1
102
RTVSPropertyOp22
 70
     1
102
RTVSPropertyOp23
 70
     1
102
RTVSPropertyOp24
 70
     1
102
RTVSPropertyOp25
 70
     1
102
RTVSPropertyOp26
 70
     1
102
RTVSPropertyOp27
 70
     1
102
RTVSPropertyOp28
 70
     1
102
RTVSPropertyOp29
 70
     1
102
RTVSPropertyOp30
 70
     1
102
RTVSPropertyOp31
 70
     1
102
RTVSPropertyOp32
 70
     1
102
RTVSPropertyOp33
 70
     1
102
RTVSPropertyOp34
 70
     1
102
RTVSPropertyOp35
 70
     1
102
RTVSPropertyOp36
 70
     1
102
RTVSPropertyOp37
 70
     1
102
RTVSPropertyOp38
 70
     1
102
RTVSPropertyOp39
 70
     1
102
RTVSPropertyOp40
 70
     1
102
RTVSPropertyOp41
 70
     1
102
RTVSPropertyOp42
 70
     1
102
RTVSPropertyOp43
 70
     1
102
RTVSPropertyOp44
 70
     1
102
RTVSPropertyOp45
 70
     1
102
RTVSPropertyOp46
 70
     1
102
RTVSPropertyOp47
 70
     1
102
RTVSPropertyOp48
 70
     1
102
RTVSPropertyOp49
 70
     1
102
RTVSPropertyOp50
 70
     1
102
RTVSPropertyOp51
 70
     0
102
RTVSPropertyOp52
 70
     0
102
RTVSPropertyOp53
 70
     1
102
RTVSPropertyOp54
 70
     1
102
RTVSPropertyOp55
 70
     1
102
RTVSPropertyOp56
 70
     1
102
RTVSPropertyOp57
 70
     1
102
RTVSPropertyOp58
 70
     1
102
RTVSPropertyOp59
 70
     1
102
RTVSPropertyOp60
 70
     1
102
RTVSPropertyOp61
 70
     1
102
RTVSPropertyOp62
 70
     1
  0
XRECORD
  5
97CB
102
{ACAD_REACTORS
330
97CA
102
}
330
97CA
100
AcDbXrecord
280
     1
102
RTVSPost2010Prop28
280
     0
102
RTVSPost2010PropOp28
 70
     1
102
RTVSPost2010Prop29
280
     1
102
RTVSPost2010PropOp29
 70
     1
102
RTVSPost2010Prop30
280
     1
102
RTVSPost2010PropOp30
 70
     1
102
RTVSPost2010Prop31
280
     0
102
RTVSPost2010PropOp31
 70
     1
102
RTVSPost2010Prop32
280
     0
102
RTVSPost2010PropOp32
 70
     1
102
RTVSPost2010Prop33
280
     0
102
RTVSPost2010PropOp33
 70
     1
102
RTVSPost2010Prop34
280
     0
102
RTVSPost2010PropOp34
 70
     1
102
RTVSPost2010Prop35
280
     0
102
RTVSPost2010PropOp35
 70
     1
102
RTVSPost2010Prop36
280
     0
102
RTVSPost2010PropOp36
 70
     1
102
RTVSPost2010Prop37
 90
       50
102
RTVSPost2010PropOp37
 70
     1
102
RTVSPost2010Prop38
140
0.0
102
RTVSPost2010PropOp38
 70
     1
102
RTVSPost2010Prop39
140
1.0
102
RTVSPost2010PropOp39
 70
     1
102
RTVSPost2010Prop40
 90
        0
102
RTVSPost2010PropOp40
 70
     1
102
RTVSPost2010Prop41ColorIndex
 90
       18
102
RTVSPost2010Prop41ColorRGB
 90
        0
102
RTVSPost2010PropOp41
 70
     1
102
RTVSPost2010Prop42
 90
       50
102
RTVSPost2010PropOp42
 70
     1
102
RTVSPost2010Prop43
 90
        3
102
RTVSPost2010PropOp43
 70
     1
102
RTVSPost2010Prop44ColorIndex
 90
        5
102
RTVSPost2010Prop44ColorRGB
 90
      255
102
RTVSPost2010PropOp44
 70
     1
102
RTVSPost2010Prop45
280
     0
102
RTVSPost2010PropOp45
 70
     1
102
RTVSPost2010Prop46
 90
       50
102
RTVSPost2010PropOp46
 70
     1
102
RTVSPost2010Prop47
 90
       50
102
RTVSPost2010PropOp47
 70
     1
102
RTVSPost2010Prop48
 90
       50
102
RTVSPost2010PropOp48
 70
     1
102
RTVSPost2010Prop49
280
     0
102
RTVSPost2010PropOp49
 70
     1
102
RTVSPost2010Prop50
 90
       50
102
RTVSPost2010PropOp50
 70
     1
102
RTVSPost2010Prop51ColorIndex
 90
      256
102
RTVSPost2010Prop51ColorRGB
 90
-16777216
102
RTVSPost2010PropOp51
 70
     0
102
RTVSPost2010Prop52
140
1.0
102
RTVSPost2010PropOp52
 70
     0
102
RTVSPost2010Prop53
 90
        2
102
RTVSPost2010PropOp53
 70
     1
102
RTVSPost2010Prop54
  1
strokes_ogs.tif
102
RTVSPost2010PropOp54
 70
     1
102
RTVSPost2010Prop55
280
     0
102
RTVSPost2010PropOp55
 70
     1
102
RTVSPost2010Prop56
140
1.0
102
RTVSPost2010PropOp56
 70
     1
102
RTVSPost2010Prop57
140
1.0
102
RTVSPost2010PropOp57
 70
     1
102
RTVSPropertyOp0
 70
     1
102
RTVSPropertyOp1
 70
     1
102
RTVSPropertyOp2
 70
     1
102
RTVSPropertyOp3
 70
     1
102
RTVSPropertyOp4
 70
     1
102
RTVSPropertyOp5
 70
     1
102
RTVSPropertyOp6
 70
     1
102
RTVSPropertyOp7
 70
     1
102
RTVSPropertyOp8
 70
     1
102
RTVSPropertyOp9
 70
     1
102
RTVSPropertyOp10
 70
     1
102
RTVSPropertyOp11
 70
     1
102
RTVSPropertyOp12
 70
     1
102
RTVSPropertyOp13
 70
     1
102
RTVSPropertyOp14
 70
     1
102
RTVSPropertyOp15
 70
     1
102
RTVSPropertyOp16
 70
     1
102
RTVSPropertyOp17
 70
     1
102
RTVSPropertyOp18
 70
     1
102
RTVSPropertyOp19
 70
     1
102
RTVSPropertyOp20
 70
     1
102
RTVSPropertyOp21
 70
     1
102
RTVSPropertyOp22
 70
     1
102
RTVSPropertyOp23
 70
     1
102
RTVSPropertyOp24
 70
     1
102
RTVSPropertyOp25
 70
     1
102
RTVSPropertyOp26
 70
     1
102
RTVSPropertyOp27
 70
     1
102
RTVSPropertyOp28
 70
     1
102
RTVSPropertyOp29
 70
     1
102
RTVSPropertyOp30
 70
     1
102
RTVSPropertyOp31
 70
     1
102
RTVSPropertyOp32
 70
     1
102
RTVSPropertyOp33
 70
     1
102
RTVSPropertyOp34
 70
     1
102
RTVSPropertyOp35
 70
     1
102
RTVSPropertyOp36
 70
     1
102
RTVSPropertyOp37
 70
     1
102
RTVSPropertyOp38
 70
     1
102
RTVSPropertyOp39
 70
     1
102
RTVSPropertyOp40
 70
     1
102
RTVSPropertyOp41
 70
     1
102
RTVSPropertyOp42
 70
     1
102
RTVSPropertyOp43
 70
     1
102
RTVSPropertyOp44
 70
     1
102
RTVSPropertyOp45
 70
     1
102
RTVSPropertyOp46
 70
     1
102
RTVSPropertyOp47
 70
     1
102
RTVSPropertyOp48
 70
     1
102
RTVSPropertyOp49
 70
     1
102
RTVSPropertyOp50
 70
     1
102
RTVSPropertyOp51
 70
     0
102
RTVSPropertyOp52
 70
     0
102
RTVSPropertyOp53
 70
     1
102
RTVSPropertyOp54
 70
     1
102
RTVSPropertyOp55
 70
     1
102
RTVSPropertyOp56
 70
     1
102
RTVSPropertyOp57
 70
     1
102
RTVSPropertyOp58
 70
     1
102
RTVSPropertyOp59
 70
     1
102
RTVSPropertyOp60
 70
     1
102
RTVSPropertyOp61
 70
     1
102
RTVSPropertyOp62
 70
     1
  0
XRECORD
  5
97CD
102
{ACAD_REACTORS
330
97CC
102
}
330
97CC
100
AcDbXrecord
280
     1
102
RTVSPost2010Prop28
280
     0
102
RTVSPost2010PropOp28
 70
     1
102
RTVSPost2010Prop29
280
     1
102
RTVSPost2010PropOp29
 70
     1
102
RTVSPost2010Prop30
280
     1
102
RTVSPost2010PropOp30
 70
     1
102
RTVSPost2010Prop31
280
     0
102
RTVSPost2010PropOp31
 70
     1
102
RTVSPost2010Prop32
280
     0
102
RTVSPost2010PropOp32
 70
     1
102
RTVSPost2010Prop33
280
     0
102
RTVSPost2010PropOp33
 70
     1
102
RTVSPost2010Prop34
280
     0
102
RTVSPost2010PropOp34
 70
     1
102
RTVSPost2010Prop35
280
     0
102
RTVSPost2010PropOp35
 70
     1
102
RTVSPost2010Prop36
280
     0
102
RTVSPost2010PropOp36
 70
     1
102
RTVSPost2010Prop37
 90
       50
102
RTVSPost2010PropOp37
 70
     1
102
RTVSPost2010Prop38
140
0.0
102
RTVSPost2010PropOp38
 70
     1
102
RTVSPost2010Prop39
140
1.0
102
RTVSPost2010PropOp39
 70
     1
102
RTVSPost2010Prop40
 90
        0
102
RTVSPost2010PropOp40
 70
     1
102
RTVSPost2010Prop41ColorIndex
 90
       18
102
RTVSPost2010Prop41ColorRGB
 90
        0
102
RTVSPost2010PropOp41
 70
     1
102
RTVSPost2010Prop42
 90
       50
102
RTVSPost2010PropOp42
 70
     1
102
RTVSPost2010Prop43
 90
        3
102
RTVSPost2010PropOp43
 70
     1
102
RTVSPost2010Prop44ColorIndex
 90
        5
102
RTVSPost2010Prop44ColorRGB
 90
      255
102
RTVSPost2010PropOp44
 70
     1
102
RTVSPost2010Prop45
280
     0
102
RTVSPost2010PropOp45
 70
     1
102
RTVSPost2010Prop46
 90
       50
102
RTVSPost2010PropOp46
 70
     1
102
RTVSPost2010Prop47
 90
       50
102
RTVSPost2010PropOp47
 70
     1
102
RTVSPost2010Prop48
 90
       50
102
RTVSPost2010PropOp48
 70
     1
102
RTVSPost2010Prop49
280
     0
102
RTVSPost2010PropOp49
 70
     1
102
RTVSPost2010Prop50
 90
       50
102
RTVSPost2010PropOp50
 70
     1
102
RTVSPost2010Prop51ColorIndex
 90
      256
102
RTVSPost2010Prop51ColorRGB
 90
-16777216
102
RTVSPost2010PropOp51
 70
     0
102
RTVSPost2010Prop52
140
1.0
102
RTVSPost2010PropOp52
 70
     0
102
RTVSPost2010Prop53
 90
        2
102
RTVSPost2010PropOp53
 70
     1
102
RTVSPost2010Prop54
  1
strokes_ogs.tif
102
RTVSPost2010PropOp54
 70
     1
102
RTVSPost2010Prop55
280
     0
102
RTVSPost2010PropOp55
 70
     1
102
RTVSPost2010Prop56
140
1.0
102
RTVSPost2010PropOp56
 70
     1
102
RTVSPost2010Prop57
140
1.0
102
RTVSPost2010PropOp57
 70
     1
102
RTVSPropertyOp0
 70
     1
102
RTVSPropertyOp1
 70
     1
102
RTVSPropertyOp2
 70
     1
102
RTVSPropertyOp3
 70
     1
102
RTVSPropertyOp4
 70
     1
102
RTVSPropertyOp5
 70
     1
102
RTVSPropertyOp6
 70
     1
102
RTVSPropertyOp7
 70
     1
102
RTVSPropertyOp8
 70
     1
102
RTVSPropertyOp9
 70
     1
102
RTVSPropertyOp10
 70
     1
102
RTVSPropertyOp11
 70
     1
102
RTVSPropertyOp12
 70
     1
102
RTVSPropertyOp13
 70
     1
102
RTVSPropertyOp14
 70
     1
102
RTVSPropertyOp15
 70
     1
102
RTVSPropertyOp16
 70
     1
102
RTVSPropertyOp17
 70
     1
102
RTVSPropertyOp18
 70
     1
102
RTVSPropertyOp19
 70
     1
102
RTVSPropertyOp20
 70
     1
102
RTVSPropertyOp21
 70
     1
102
RTVSPropertyOp22
 70
     1
102
RTVSPropertyOp23
 70
     1
102
RTVSPropertyOp24
 70
     1
102
RTVSPropertyOp25
 70
     1
102
RTVSPropertyOp26
 70
     1
102
RTVSPropertyOp27
 70
     1
102
RTVSPropertyOp28
 70
     1
102
RTVSPropertyOp29
 70
     1
102
RTVSPropertyOp30
 70
     1
102
RTVSPropertyOp31
 70
     1
102
RTVSPropertyOp32
 70
     1
102
RTVSPropertyOp33
 70
     1
102
RTVSPropertyOp34
 70
     1
102
RTVSPropertyOp35
 70
     1
102
RTVSPropertyOp36
 70
     1
102
RTVSPropertyOp37
 70
     1
102
RTVSPropertyOp38
 70
     1
102
RTVSPropertyOp39
 70
     1
102
RTVSPropertyOp40
 70
     1
102
RTVSPropertyOp41
 70
     1
102
RTVSPropertyOp42
 70
     1
102
RTVSPropertyOp43
 70
     1
102
RTVSPropertyOp44
 70
     1
102
RTVSPropertyOp45
 70
     1
102
RTVSPropertyOp46
 70
     1
102
RTVSPropertyOp47
 70
     1
102
RTVSPropertyOp48
 70
     1
102
RTVSPropertyOp49
 70
     1
102
RTVSPropertyOp50
 70
     1
102
RTVSPropertyOp51
 70
     0
102
RTVSPropertyOp52
 70
     0
102
RTVSPropertyOp53
 70
     1
102
RTVSPropertyOp54
 70
     1
102
RTVSPropertyOp55
 70
     1
102
RTVSPropertyOp56
 70
     1
102
RTVSPropertyOp57
 70
     1
102
RTVSPropertyOp58
 70
     1
102
RTVSPropertyOp59
 70
     1
102
RTVSPropertyOp60
 70
     1
102
RTVSPropertyOp61
 70
     1
102
RTVSPropertyOp62
 70
     1
  0
XRECORD
  5
97CF
102
{ACAD_REACTORS
330
97CE
102
}
330
97CE
100
AcDbXrecord
280
     1
102
RTVSPost2010Prop28
280
     0
102
RTVSPost2010PropOp28
 70
     1
102
RTVSPost2010Prop29
280
     1
102
RTVSPost2010PropOp29
 70
     1
102
RTVSPost2010Prop30
280
     1
102
RTVSPost2010PropOp30
 70
     1
102
RTVSPost2010Prop31
280
     0
102
RTVSPost2010PropOp31
 70
     1
102
RTVSPost2010Prop32
280
     0
102
RTVSPost2010PropOp32
 70
     1
102
RTVSPost2010Prop33
280
     0
102
RTVSPost2010PropOp33
 70
     1
102
RTVSPost2010Prop34
280
     0
102
RTVSPost2010PropOp34
 70
     1
102
RTVSPost2010Prop35
280
     0
102
RTVSPost2010PropOp35
 70
     1
102
RTVSPost2010Prop36
280
     0
102
RTVSPost2010PropOp36
 70
     1
102
RTVSPost2010Prop37
 90
       50
102
RTVSPost2010PropOp37
 70
     1
102
RTVSPost2010Prop38
140
0.0
102
RTVSPost2010PropOp38
 70
     1
102
RTVSPost2010Prop39
140
1.0
102
RTVSPost2010PropOp39
 70
     1
102
RTVSPost2010Prop40
 90
        0
102
RTVSPost2010PropOp40
 70
     1
102
RTVSPost2010Prop41ColorIndex
 90
       18
102
RTVSPost2010Prop41ColorRGB
 90
        0
102
RTVSPost2010PropOp41
 70
     1
102
RTVSPost2010Prop42
 90
       50
102
RTVSPost2010PropOp42
 70
     1
102
RTVSPost2010Prop43
 90
        3
102
RTVSPost2010PropOp43
 70
     1
102
RTVSPost2010Prop44ColorIndex
 90
        5
102
RTVSPost2010Prop44ColorRGB
 90
      255
102
RTVSPost2010PropOp44
 70
     1
102
RTVSPost2010Prop45
280
     0
102
RTVSPost2010PropOp45
 70
     1
102
RTVSPost2010Prop46
 90
       50
102
RTVSPost2010PropOp46
 70
     1
102
RTVSPost2010Prop47
 90
       50
102
RTVSPost2010PropOp47
 70
     1
102
RTVSPost2010Prop48
 90
       50
102
RTVSPost2010PropOp48
 70
     1
102
RTVSPost2010Prop49
280
     0
102
RTVSPost2010PropOp49
 70
     1
102
RTVSPost2010Prop50
 90
       50
102
RTVSPost2010PropOp50
 70
     1
102
RTVSPost2010Prop51ColorIndex
 90
      256
102
RTVSPost2010Prop51ColorRGB
 90
-16777216
102
RTVSPost2010PropOp51
 70
     0
102
RTVSPost2010Prop52
140
1.0
102
RTVSPost2010PropOp52
 70
     0
102
RTVSPost2010Prop53
 90
        2
102
RTVSPost2010PropOp53
 70
     1
102
RTVSPost2010Prop54
  1
strokes_ogs.tif
102
RTVSPost2010PropOp54
 70
     1
102
RTVSPost2010Prop55
280
     0
102
RTVSPost2010PropOp55
 70
     1
102
RTVSPost2010Prop56
140
1.0
102
RTVSPost2010PropOp56
 70
     1
102
RTVSPost2010Prop57
140
1.0
102
RTVSPost2010PropOp57
 70
     1
102
RTVSPropertyOp0
 70
     1
102
RTVSPropertyOp1
 70
     1
102
RTVSPropertyOp2
 70
     1
102
RTVSPropertyOp3
 70
     1
102
RTVSPropertyOp4
 70
     1
102
RTVSPropertyOp5
 70
     1
102
RTVSPropertyOp6
 70
     1
102
RTVSPropertyOp7
 70
     1
102
RTVSPropertyOp8
 70
     1
102
RTVSPropertyOp9
 70
     1
102
RTVSPropertyOp10
 70
     1
102
RTVSPropertyOp11
 70
     1
102
RTVSPropertyOp12
 70
     1
102
RTVSPropertyOp13
 70
     1
102
RTVSPropertyOp14
 70
     1
102
RTVSPropertyOp15
 70
     1
102
RTVSPropertyOp16
 70
     1
102
RTVSPropertyOp17
 70
     1
102
RTVSPropertyOp18
 70
     1
102
RTVSPropertyOp19
 70
     1
102
RTVSPropertyOp20
 70
     1
102
RTVSPropertyOp21
 70
     1
102
RTVSPropertyOp22
 70
     1
102
RTVSPropertyOp23
 70
     1
102
RTVSPropertyOp24
 70
     1
102
RTVSPropertyOp25
 70
     1
102
RTVSPropertyOp26
 70
     1
102
RTVSPropertyOp27
 70
     1
102
RTVSPropertyOp28
 70
     1
102
RTVSPropertyOp29
 70
     1
102
RTVSPropertyOp30
 70
     1
102
RTVSPropertyOp31
 70
     1
102
RTVSPropertyOp32
 70
     1
102
RTVSPropertyOp33
 70
     1
102
RTVSPropertyOp34
 70
     1
102
RTVSPropertyOp35
 70
     1
102
RTVSPropertyOp36
 70
     1
102
RTVSPropertyOp37
 70
     1
102
RTVSPropertyOp38
 70
     1
102
RTVSPropertyOp39
 70
     1
102
RTVSPropertyOp40
 70
     1
102
RTVSPropertyOp41
 70
     1
102
RTVSPropertyOp42
 70
     1
102
RTVSPropertyOp43
 70
     1
102
RTVSPropertyOp44
 70
     1
102
RTVSPropertyOp45
 70
     1
102
RTVSPropertyOp46
 70
     1
102
RTVSPropertyOp47
 70
     1
102
RTVSPropertyOp48
 70
     1
102
RTVSPropertyOp49
 70
     1
102
RTVSPropertyOp50
 70
     1
102
RTVSPropertyOp51
 70
     0
102
RTVSPropertyOp52
 70
     0
102
RTVSPropertyOp53
 70
     1
102
RTVSPropertyOp54
 70
     1
102
RTVSPropertyOp55
 70
     1
102
RTVSPropertyOp56
 70
     1
102
RTVSPropertyOp57
 70
     1
102
RTVSPropertyOp58
 70
     1
102
RTVSPropertyOp59
 70
     1
102
RTVSPropertyOp60
 70
     1
102
RTVSPropertyOp61
 70
     1
102
RTVSPropertyOp62
 70
     1
  0
XRECORD
  5
97D7
102
{ACAD_REACTORS
330
97D6
102
}
330
97D6
100
AcDbXrecord
280
     1
102
RTVSPost2010Prop28
280
     0
102
RTVSPost2010PropOp28
 70
     1
102
RTVSPost2010Prop29
280
     1
102
RTVSPost2010PropOp29
 70
     1
102
RTVSPost2010Prop30
280
     1
102
RTVSPost2010PropOp30
 70
     1
102
RTVSPost2010Prop31
280
     0
102
RTVSPost2010PropOp31
 70
     1
102
RTVSPost2010Prop32
280
     0
102
RTVSPost2010PropOp32
 70
     1
102
RTVSPost2010Prop33
280
     0
102
RTVSPost2010PropOp33
 70
     1
102
RTVSPost2010Prop34
280
     0
102
RTVSPost2010PropOp34
 70
     1
102
RTVSPost2010Prop35
280
     0
102
RTVSPost2010PropOp35
 70
     1
102
RTVSPost2010Prop36
280
     0
102
RTVSPost2010PropOp36
 70
     1
102
RTVSPost2010Prop37
 90
       50
102
RTVSPost2010PropOp37
 70
     1
102
RTVSPost2010Prop38
140
0.0
102
RTVSPost2010PropOp38
 70
     1
102
RTVSPost2010Prop39
140
1.0
102
RTVSPost2010PropOp39
 70
     1
102
RTVSPost2010Prop40
 90
        0
102
RTVSPost2010PropOp40
 70
     1
102
RTVSPost2010Prop41ColorIndex
 90
       18
102
RTVSPost2010Prop41ColorRGB
 90
        0
102
RTVSPost2010PropOp41
 70
     1
102
RTVSPost2010Prop42
 90
       50
102
RTVSPost2010PropOp42
 70
     1
102
RTVSPost2010Prop43
 90
        3
102
RTVSPost2010PropOp43
 70
     1
102
RTVSPost2010Prop44ColorIndex
 90
        5
102
RTVSPost2010Prop44ColorRGB
 90
      255
102
RTVSPost2010PropOp44
 70
     1
102
RTVSPost2010Prop45
280
     0
102
RTVSPost2010PropOp45
 70
     1
102
RTVSPost2010Prop46
 90
       50
102
RTVSPost2010PropOp46
 70
     1
102
RTVSPost2010Prop47
 90
       50
102
RTVSPost2010PropOp47
 70
     1
102
RTVSPost2010Prop48
 90
       50
102
RTVSPost2010PropOp48
 70
     1
102
RTVSPost2010Prop49
280
     0
102
RTVSPost2010PropOp49
 70
     1
102
RTVSPost2010Prop50
 90
       50
102
RTVSPost2010PropOp50
 70
     1
102
RTVSPost2010Prop51ColorIndex
 90
      256
102
RTVSPost2010Prop51ColorRGB
 90
-16777216
102
RTVSPost2010PropOp51
 70
     0
102
RTVSPost2010Prop52
140
1.0
102
RTVSPost2010PropOp52
 70
     0
102
RTVSPost2010Prop53
 90
        2
102
RTVSPost2010PropOp53
 70
     1
102
RTVSPost2010Prop54
  1
strokes_ogs.tif
102
RTVSPost2010PropOp54
 70
     1
102
RTVSPost2010Prop55
280
     0
102
RTVSPost2010PropOp55
 70
     1
102
RTVSPost2010Prop56
140
1.0
102
RTVSPost2010PropOp56
 70
     1
102
RTVSPost2010Prop57
140
1.0
102
RTVSPost2010PropOp57
 70
     1
102
RTVSPropertyOp0
 70
     1
102
RTVSPropertyOp1
 70
     1
102
RTVSPropertyOp2
 70
     1
102
RTVSPropertyOp3
 70
     1
102
RTVSPropertyOp4
 70
     1
102
RTVSPropertyOp5
 70
     1
102
RTVSPropertyOp6
 70
     1
102
RTVSPropertyOp7
 70
     1
102
RTVSPropertyOp8
 70
     1
102
RTVSPropertyOp9
 70
     1
102
RTVSPropertyOp10
 70
     1
102
RTVSPropertyOp11
 70
     1
102
RTVSPropertyOp12
 70
     1
102
RTVSPropertyOp13
 70
     1
102
RTVSPropertyOp14
 70
     1
102
RTVSPropertyOp15
 70
     1
102
RTVSPropertyOp16
 70
     1
102
RTVSPropertyOp17
 70
     1
102
RTVSPropertyOp18
 70
     1
102
RTVSPropertyOp19
 70
     1
102
RTVSPropertyOp20
 70
     1
102
RTVSPropertyOp21
 70
     1
102
RTVSPropertyOp22
 70
     1
102
RTVSPropertyOp23
 70
     1
102
RTVSPropertyOp24
 70
     1
102
RTVSPropertyOp25
 70
     1
102
RTVSPropertyOp26
 70
     1
102
RTVSPropertyOp27
 70
     1
102
RTVSPropertyOp28
 70
     1
102
RTVSPropertyOp29
 70
     1
102
RTVSPropertyOp30
 70
     1
102
RTVSPropertyOp31
 70
     1
102
RTVSPropertyOp32
 70
     1
102
RTVSPropertyOp33
 70
     1
102
RTVSPropertyOp34
 70
     1
102
RTVSPropertyOp35
 70
     1
102
RTVSPropertyOp36
 70
     1
102
RTVSPropertyOp37
 70
     1
102
RTVSPropertyOp38
 70
     1
102
RTVSPropertyOp39
 70
     1
102
RTVSPropertyOp40
 70
     1
102
RTVSPropertyOp41
 70
     1
102
RTVSPropertyOp42
 70
     1
102
RTVSPropertyOp43
 70
     1
102
RTVSPropertyOp44
 70
     1
102
RTVSPropertyOp45
 70
     1
102
RTVSPropertyOp46
 70
     1
102
RTVSPropertyOp47
 70
     1
102
RTVSPropertyOp48
 70
     1
102
RTVSPropertyOp49
 70
     1
102
RTVSPropertyOp50
 70
     1
102
RTVSPropertyOp51
 70
     0
102
RTVSPropertyOp52
 70
     0
102
RTVSPropertyOp53
 70
     1
102
RTVSPropertyOp54
 70
     1
102
RTVSPropertyOp55
 70
     1
102
RTVSPropertyOp56
 70
     1
102
RTVSPropertyOp57
 70
     1
102
RTVSPropertyOp58
 70
     1
102
RTVSPropertyOp59
 70
     1
102
RTVSPropertyOp60
 70
     1
102
RTVSPropertyOp61
 70
     1
102
RTVSPropertyOp62
 70
     1
  0
XRECORD
  5
97F3
102
{ACAD_REACTORS
330
97F2
102
}
330
97F2
100
AcDbXrecord
280
     1
102
RTVSPost2010Prop28
280
     0
102
RTVSPost2010PropOp28
 70
     1
102
RTVSPost2010Prop29
280
     1
102
RTVSPost2010PropOp29
 70
     1
102
RTVSPost2010Prop30
280
     1
102
RTVSPost2010PropOp30
 70
     1
102
RTVSPost2010Prop31
280
     0
102
RTVSPost2010PropOp31
 70
     1
102
RTVSPost2010Prop32
280
     0
102
RTVSPost2010PropOp32
 70
     1
102
RTVSPost2010Prop33
280
     0
102
RTVSPost2010PropOp33
 70
     1
102
RTVSPost2010Prop34
280
     0
102
RTVSPost2010PropOp34
 70
     1
102
RTVSPost2010Prop35
280
     0
102
RTVSPost2010PropOp35
 70
     1
102
RTVSPost2010Prop36
280
     0
102
RTVSPost2010PropOp36
 70
     1
102
RTVSPost2010Prop37
 90
       50
102
RTVSPost2010PropOp37
 70
     0
102
RTVSPost2010Prop38
140
0.0
102
RTVSPost2010PropOp38
 70
     0
102
RTVSPost2010Prop39
140
1.0
102
RTVSPost2010PropOp39
 70
     0
102
RTVSPost2010Prop40
 90
        0
102
RTVSPost2010PropOp40
 70
     0
102
RTVSPost2010Prop41ColorIndex
 90
       18
102
RTVSPost2010Prop41ColorRGB
 90
        0
102
RTVSPost2010PropOp41
 70
     0
102
RTVSPost2010Prop42
 90
       50
102
RTVSPost2010PropOp42
 70
     0
102
RTVSPost2010Prop43
 90
        3
102
RTVSPost2010PropOp43
 70
     0
102
RTVSPost2010Prop44ColorIndex
 90
        5
102
RTVSPost2010Prop44ColorRGB
 90
      255
102
RTVSPost2010PropOp44
 70
     0
102
RTVSPost2010Prop45
280
     0
102
RTVSPost2010PropOp45
 70
     1
102
RTVSPost2010Prop46
 90
       50
102
RTVSPost2010PropOp46
 70
     0
102
RTVSPost2010Prop47
 90
       50
102
RTVSPost2010PropOp47
 70
     0
102
RTVSPost2010Prop48
 90
       50
102
RTVSPost2010PropOp48
 70
     0
102
RTVSPost2010Prop49
280
     0
102
RTVSPost2010PropOp49
 70
     1
102
RTVSPost2010Prop50
 90
       50
102
RTVSPost2010PropOp50
 70
     0
102
RTVSPost2010Prop51ColorIndex
 90
      256
102
RTVSPost2010Prop51ColorRGB
 90
-16777216
102
RTVSPost2010PropOp51
 70
     0
102
RTVSPost2010Prop52
140
1.0
102
RTVSPost2010PropOp52
 70
     0
102
RTVSPost2010Prop53
 90
        2
102
RTVSPost2010PropOp53
 70
     0
102
RTVSPost2010Prop54
  1
strokes_ogs.tif
102
RTVSPost2010PropOp54
 70
     0
102
RTVSPost2010Prop55
280
     0
102
RTVSPost2010PropOp55
 70
     1
102
RTVSPost2010Prop56
140
1.0
102
RTVSPost2010PropOp56
 70
     0
102
RTVSPost2010Prop57
140
1.0
102
RTVSPost2010PropOp57
 70
     0
102
RTVSPropertyOp0
 70
     0
102
RTVSPropertyOp1
 70
     0
102
RTVSPropertyOp2
 70
     0
102
RTVSPropertyOp3
 70
     0
102
RTVSPropertyOp4
 70
     0
102
RTVSPropertyOp5
 70
     0
102
RTVSPropertyOp6
 70
     0
102
RTVSPropertyOp7
 70
     0
102
RTVSPropertyOp8
 70
     0
102
RTVSPropertyOp9
 70
     0
102
RTVSPropertyOp10
 70
     0
102
RTVSPropertyOp11
 70
     0
102
RTVSPropertyOp12
 70
     0
102
RTVSPropertyOp13
 70
     0
102
RTVSPropertyOp14
 70
     2
102
RTVSPropertyOp15
 70
     0
102
RTVSPropertyOp16
 70
     0
102
RTVSPropertyOp17
 70
     0
102
RTVSPropertyOp18
 70
     0
102
RTVSPropertyOp19
 70
     0
102
RTVSPropertyOp20
 70
     0
102
RTVSPropertyOp21
 70
     0
102
RTVSPropertyOp22
 70
     0
102
RTVSPropertyOp23
 70
     0
102
RTVSPropertyOp24
 70
     0
102
RTVSPropertyOp25
 70
     0
102
RTVSPropertyOp26
 70
     0
102
RTVSPropertyOp27
 70
     0
102
RTVSPropertyOp28
 70
     1
102
RTVSPropertyOp29
 70
     1
102
RTVSPropertyOp30
 70
     1
102
RTVSPropertyOp31
 70
     1
102
RTVSPropertyOp32
 70
     1
102
RTVSPropertyOp33
 70
     1
102
RTVSPropertyOp34
 70
     1
102
RTVSPropertyOp35
 70
     1
102
RTVSPropertyOp36
 70
     1
102
RTVSPropertyOp37
 70
     0
102
RTVSPropertyOp38
 70
     0
102
RTVSPropertyOp39
 70
     0
102
RTVSPropertyOp40
 70
     0
102
RTVSPropertyOp41
 70
     0
102
RTVSPropertyOp42
 70
     0
102
RTVSPropertyOp43
 70
     0
102
RTVSPropertyOp44
 70
     0
102
RTVSPropertyOp45
 70
     1
102
RTVSPropertyOp46
 70
     0
102
RTVSPropertyOp47
 70
     0
102
RTVSPropertyOp48
 70
     0
102
RTVSPropertyOp49
 70
     1
102
RTVSPropertyOp50
 70
     0
102
RTVSPropertyOp51
 70
     0
102
RTVSPropertyOp52
 70
     0
102
RTVSPropertyOp53
 70
     0
102
RTVSPropertyOp54
 70
     0
102
RTVSPropertyOp55
 70
     1
102
RTVSPropertyOp56
 70
     0
102
RTVSPropertyOp57
 70
     0
102
RTVSPropertyOp58
 70
     0
102
RTVSPropertyOp59
 70
     0
102
RTVSPropertyOp60
 70
     0
102
RTVSPropertyOp61
 70
     0
102
RTVSPropertyOp62
 70
     0
  0
XRECORD
  5
97E3
102
{ACAD_REACTORS
330
97E2
102
}
330
97E2
100
AcDbXrecord
280
     1
102
RTVSPost2010Prop28
280
     0
102
RTVSPost2010PropOp28
 70
     1
102
RTVSPost2010Prop29
280
     1
102
RTVSPost2010PropOp29
 70
     1
102
RTVSPost2010Prop30
280
     1
102
RTVSPost2010PropOp30
 70
     1
102
RTVSPost2010Prop31
280
     0
102
RTVSPost2010PropOp31
 70
     1
102
RTVSPost2010Prop32
280
     0
102
RTVSPost2010PropOp32
 70
     1
102
RTVSPost2010Prop33
280
     0
102
RTVSPost2010PropOp33
 70
     1
102
RTVSPost2010Prop34
280
     0
102
RTVSPost2010PropOp34
 70
     1
102
RTVSPost2010Prop35
280
     0
102
RTVSPost2010PropOp35
 70
     1
102
RTVSPost2010Prop36
280
     0
102
RTVSPost2010PropOp36
 70
     1
102
RTVSPost2010Prop37
 90
       50
102
RTVSPost2010PropOp37
 70
     1
102
RTVSPost2010Prop38
140
0.0
102
RTVSPost2010PropOp38
 70
     1
102
RTVSPost2010Prop39
140
1.0
102
RTVSPost2010PropOp39
 70
     1
102
RTVSPost2010Prop40
 90
        0
102
RTVSPost2010PropOp40
 70
     1
102
RTVSPost2010Prop41ColorIndex
 90
       18
102
RTVSPost2010Prop41ColorRGB
 90
        0
102
RTVSPost2010PropOp41
 70
     1
102
RTVSPost2010Prop42
 90
       50
102
RTVSPost2010PropOp42
 70
     1
102
RTVSPost2010Prop43
 90
        3
102
RTVSPost2010PropOp43
 70
     1
102
RTVSPost2010Prop44ColorIndex
 90
        5
102
RTVSPost2010Prop44ColorRGB
 90
      255
102
RTVSPost2010PropOp44
 70
     1
102
RTVSPost2010Prop45
280
     0
102
RTVSPost2010PropOp45
 70
     1
102
RTVSPost2010Prop46
 90
       50
102
RTVSPost2010PropOp46
 70
     1
102
RTVSPost2010Prop47
 90
       50
102
RTVSPost2010PropOp47
 70
     1
102
RTVSPost2010Prop48
 90
       50
102
RTVSPost2010PropOp48
 70
     1
102
RTVSPost2010Prop49
280
     0
102
RTVSPost2010PropOp49
 70
     1
102
RTVSPost2010Prop50
 90
       50
102
RTVSPost2010PropOp50
 70
     1
102
RTVSPost2010Prop51ColorIndex
 90
      256
102
RTVSPost2010Prop51ColorRGB
 90
-16777216
102
RTVSPost2010PropOp51
 70
     0
102
RTVSPost2010Prop52
140
1.0
102
RTVSPost2010PropOp52
 70
     0
102
RTVSPost2010Prop53
 90
        2
102
RTVSPost2010PropOp53
 70
     1
102
RTVSPost2010Prop54
  1
strokes_ogs.tif
102
RTVSPost2010PropOp54
 70
     1
102
RTVSPost2010Prop55
280
     0
102
RTVSPost2010PropOp55
 70
     1
102
RTVSPost2010Prop56
140
1.0
102
RTVSPost2010PropOp56
 70
     1
102
RTVSPost2010Prop57
140
1.0
102
RTVSPost2010PropOp57
 70
     1
102
RTVSPropertyOp0
 70
     1
102
RTVSPropertyOp1
 70
     1
102
RTVSPropertyOp2
 70
     1
102
RTVSPropertyOp3
 70
     1
102
RTVSPropertyOp4
 70
     1
102
RTVSPropertyOp5
 70
     1
102
RTVSPropertyOp6
 70
     1
102
RTVSPropertyOp7
 70
     1
102
RTVSPropertyOp8
 70
     1
102
RTVSPropertyOp9
 70
     1
102
RTVSPropertyOp10
 70
     1
102
RTVSPropertyOp11
 70
     1
102
RTVSPropertyOp12
 70
     1
102
RTVSPropertyOp13
 70
     1
102
RTVSPropertyOp14
 70
     1
102
RTVSPropertyOp15
 70
     1
102
RTVSPropertyOp16
 70
     1
102
RTVSPropertyOp17
 70
     1
102
RTVSPropertyOp18
 70
     1
102
RTVSPropertyOp19
 70
     1
102
RTVSPropertyOp20
 70
     1
102
RTVSPropertyOp21
 70
     1
102
RTVSPropertyOp22
 70
     1
102
RTVSPropertyOp23
 70
     1
102
RTVSPropertyOp24
 70
     1
102
RTVSPropertyOp25
 70
     1
102
RTVSPropertyOp26
 70
     1
102
RTVSPropertyOp27
 70
     1
102
RTVSPropertyOp28
 70
     1
102
RTVSPropertyOp29
 70
     1
102
RTVSPropertyOp30
 70
     1
102
RTVSPropertyOp31
 70
     1
102
RTVSPropertyOp32
 70
     1
102
RTVSPropertyOp33
 70
     1
102
RTVSPropertyOp34
 70
     1
102
RTVSPropertyOp35
 70
     1
102
RTVSPropertyOp36
 70
     1
102
RTVSPropertyOp37
 70
     1
102
RTVSPropertyOp38
 70
     1
102
RTVSPropertyOp39
 70
     1
102
RTVSPropertyOp40
 70
     1
102
RTVSPropertyOp41
 70
     1
102
RTVSPropertyOp42
 70
     1
102
RTVSPropertyOp43
 70
     1
102
RTVSPropertyOp44
 70
     1
102
RTVSPropertyOp45
 70
     1
102
RTVSPropertyOp46
 70
     1
102
RTVSPropertyOp47
 70
     1
102
RTVSPropertyOp48
 70
     1
102
RTVSPropertyOp49
 70
     1
102
RTVSPropertyOp50
 70
     1
102
RTVSPropertyOp51
 70
     0
102
RTVSPropertyOp52
 70
     0
102
RTVSPropertyOp53
 70
     1
102
RTVSPropertyOp54
 70
     1
102
RTVSPropertyOp55
 70
     1
102
RTVSPropertyOp56
 70
     1
102
RTVSPropertyOp57
 70
     1
102
RTVSPropertyOp58
 70
     1
102
RTVSPropertyOp59
 70
     1
102
RTVSPropertyOp60
 70
     1
102
RTVSPropertyOp61
 70
     1
102
RTVSPropertyOp62
 70
     1
  0
XRECORD
  5
97F5
102
{ACAD_REACTORS
330
97F4
102
}
330
97F4
100
AcDbXrecord
280
     1
102
RTVSPost2010Prop28
280
     0
102
RTVSPost2010PropOp28
 70
     1
102
RTVSPost2010Prop29
280
     1
102
RTVSPost2010PropOp29
 70
     1
102
RTVSPost2010Prop30
280
     1
102
RTVSPost2010PropOp30
 70
     1
102
RTVSPost2010Prop31
280
     0
102
RTVSPost2010PropOp31
 70
     1
102
RTVSPost2010Prop32
280
     0
102
RTVSPost2010PropOp32
 70
     1
102
RTVSPost2010Prop33
280
     0
102
RTVSPost2010PropOp33
 70
     1
102
RTVSPost2010Prop34
280
     0
102
RTVSPost2010PropOp34
 70
     1
102
RTVSPost2010Prop35
280
     0
102
RTVSPost2010PropOp35
 70
     1
102
RTVSPost2010Prop36
280
     0
102
RTVSPost2010PropOp36
 70
     1
102
RTVSPost2010Prop37
 90
       50
102
RTVSPost2010PropOp37
 70
     0
102
RTVSPost2010Prop38
140
0.0
102
RTVSPost2010PropOp38
 70
     0
102
RTVSPost2010Prop39
140
1.0
102
RTVSPost2010PropOp39
 70
     0
102
RTVSPost2010Prop40
 90
        0
102
RTVSPost2010PropOp40
 70
     0
102
RTVSPost2010Prop41ColorIndex
 90
       18
102
RTVSPost2010Prop41ColorRGB
 90
        0
102
RTVSPost2010PropOp41
 70
     0
102
RTVSPost2010Prop42
 90
       50
102
RTVSPost2010PropOp42
 70
     0
102
RTVSPost2010Prop43
 90
        3
102
RTVSPost2010PropOp43
 70
     0
102
RTVSPost2010Prop44ColorIndex
 90
        5
102
RTVSPost2010Prop44ColorRGB
 90
      255
102
RTVSPost2010PropOp44
 70
     0
102
RTVSPost2010Prop45
280
     0
102
RTVSPost2010PropOp45
 70
     1
102
RTVSPost2010Prop46
 90
       50
102
RTVSPost2010PropOp46
 70
     0
102
RTVSPost2010Prop47
 90
       50
102
RTVSPost2010PropOp47
 70
     0
102
RTVSPost2010Prop48
 90
       50
102
RTVSPost2010PropOp48
 70
     0
102
RTVSPost2010Prop49
280
     0
102
RTVSPost2010PropOp49
 70
     1
102
RTVSPost2010Prop50
 90
       50
102
RTVSPost2010PropOp50
 70
     0
102
RTVSPost2010Prop51ColorIndex
 90
      256
102
RTVSPost2010Prop51ColorRGB
 90
-16777216
102
RTVSPost2010PropOp51
 70
     0
102
RTVSPost2010Prop52
140
1.0
102
RTVSPost2010PropOp52
 70
     0
102
RTVSPost2010Prop53
 90
        2
102
RTVSPost2010PropOp53
 70
     0
102
RTVSPost2010Prop54
  1
strokes_ogs.tif
102
RTVSPost2010PropOp54
 70
     0
102
RTVSPost2010Prop55
280
     0
102
RTVSPost2010PropOp55
 70
     1
102
RTVSPost2010Prop56
140
1.0
102
RTVSPost2010PropOp56
 70
     0
102
RTVSPost2010Prop57
140
1.0
102
RTVSPost2010PropOp57
 70
     0
102
RTVSPropertyOp0
 70
     0
102
RTVSPropertyOp1
 70
     0
102
RTVSPropertyOp2
 70
     0
102
RTVSPropertyOp3
 70
     0
102
RTVSPropertyOp4
 70
     0
102
RTVSPropertyOp5
 70
     0
102
RTVSPropertyOp6
 70
     0
102
RTVSPropertyOp7
 70
     0
102
RTVSPropertyOp8
 70
     0
102
RTVSPropertyOp9
 70
     0
102
RTVSPropertyOp10
 70
     0
102
RTVSPropertyOp11
 70
     0
102
RTVSPropertyOp12
 70
     0
102
RTVSPropertyOp13
 70
     0
102
RTVSPropertyOp14
 70
     2
102
RTVSPropertyOp15
 70
     0
102
RTVSPropertyOp16
 70
     0
102
RTVSPropertyOp17
 70
     0
102
RTVSPropertyOp18
 70
     0
102
RTVSPropertyOp19
 70
     0
102
RTVSPropertyOp20
 70
     0
102
RTVSPropertyOp21
 70
     0
102
RTVSPropertyOp22
 70
     0
102
RTVSPropertyOp23
 70
     0
102
RTVSPropertyOp24
 70
     0
102
RTVSPropertyOp25
 70
     0
102
RTVSPropertyOp26
 70
     0
102
RTVSPropertyOp27
 70
     0
102
RTVSPropertyOp28
 70
     1
102
RTVSPropertyOp29
 70
     1
102
RTVSPropertyOp30
 70
     1
102
RTVSPropertyOp31
 70
     1
102
RTVSPropertyOp32
 70
     1
102
RTVSPropertyOp33
 70
     1
102
RTVSPropertyOp34
 70
     1
102
RTVSPropertyOp35
 70
     1
102
RTVSPropertyOp36
 70
     1
102
RTVSPropertyOp37
 70
     0
102
RTVSPropertyOp38
 70
     0
102
RTVSPropertyOp39
 70
     0
102
RTVSPropertyOp40
 70
     0
102
RTVSPropertyOp41
 70
     0
102
RTVSPropertyOp42
 70
     0
102
RTVSPropertyOp43
 70
     0
102
RTVSPropertyOp44
 70
     0
102
RTVSPropertyOp45
 70
     1
102
RTVSPropertyOp46
 70
     0
102
RTVSPropertyOp47
 70
     0
102
RTVSPropertyOp48
 70
     0
102
RTVSPropertyOp49
 70
     1
102
RTVSPropertyOp50
 70
     0
102
RTVSPropertyOp51
 70
     0
102
RTVSPropertyOp52
 70
     0
102
RTVSPropertyOp53
 70
     0
102
RTVSPropertyOp54
 70
     0
102
RTVSPropertyOp55
 70
     1
102
RTVSPropertyOp56
 70
     0
102
RTVSPropertyOp57
 70
     0
102
RTVSPropertyOp58
 70
     0
102
RTVSPropertyOp59
 70
     0
102
RTVSPropertyOp60
 70
     0
102
RTVSPropertyOp61
 70
     0
102
RTVSPropertyOp62
 70
     0
  0
XRECORD
  5
97DB
102
{ACAD_REACTORS
330
97DA
102
}
330
97DA
100
AcDbXrecord
280
     1
102
RTVSPost2010Prop28
280
     0
102
RTVSPost2010PropOp28
 70
     1
102
RTVSPost2010Prop29
280
     1
102
RTVSPost2010PropOp29
 70
     1
102
RTVSPost2010Prop30
280
     1
102
RTVSPost2010PropOp30
 70
     1
102
RTVSPost2010Prop31
280
     0
102
RTVSPost2010PropOp31
 70
     1
102
RTVSPost2010Prop32
280
     0
102
RTVSPost2010PropOp32
 70
     1
102
RTVSPost2010Prop33
280
     0
102
RTVSPost2010PropOp33
 70
     1
102
RTVSPost2010Prop34
280
     0
102
RTVSPost2010PropOp34
 70
     1
102
RTVSPost2010Prop35
280
     0
102
RTVSPost2010PropOp35
 70
     1
102
RTVSPost2010Prop36
280
     0
102
RTVSPost2010PropOp36
 70
     1
102
RTVSPost2010Prop37
 90
       50
102
RTVSPost2010PropOp37
 70
     1
102
RTVSPost2010Prop38
140
0.0
102
RTVSPost2010PropOp38
 70
     1
102
RTVSPost2010Prop39
140
1.0
102
RTVSPost2010PropOp39
 70
     1
102
RTVSPost2010Prop40
 90
        0
102
RTVSPost2010PropOp40
 70
     1
102
RTVSPost2010Prop41ColorIndex
 90
       18
102
RTVSPost2010Prop41ColorRGB
 90
        0
102
RTVSPost2010PropOp41
 70
     1
102
RTVSPost2010Prop42
 90
       50
102
RTVSPost2010PropOp42
 70
     1
102
RTVSPost2010Prop43
 90
        3
102
RTVSPost2010PropOp43
 70
     1
102
RTVSPost2010Prop44ColorIndex
 90
        5
102
RTVSPost2010Prop44ColorRGB
 90
      255
102
RTVSPost2010PropOp44
 70
     1
102
RTVSPost2010Prop45
280
     0
102
RTVSPost2010PropOp45
 70
     1
102
RTVSPost2010Prop46
 90
       50
102
RTVSPost2010PropOp46
 70
     1
102
RTVSPost2010Prop47
 90
       50
102
RTVSPost2010PropOp47
 70
     1
102
RTVSPost2010Prop48
 90
       50
102
RTVSPost2010PropOp48
 70
     1
102
RTVSPost2010Prop49
280
     0
102
RTVSPost2010PropOp49
 70
     1
102
RTVSPost2010Prop50
 90
       50
102
RTVSPost2010PropOp50
 70
     1
102
RTVSPost2010Prop51ColorIndex
 90
      256
102
RTVSPost2010Prop51ColorRGB
 90
-16777216
102
RTVSPost2010PropOp51
 70
     0
102
RTVSPost2010Prop52
140
1.0
102
RTVSPost2010PropOp52
 70
     0
102
RTVSPost2010Prop53
 90
        2
102
RTVSPost2010PropOp53
 70
     1
102
RTVSPost2010Prop54
  1
strokes_ogs.tif
102
RTVSPost2010PropOp54
 70
     1
102
RTVSPost2010Prop55
280
     0
102
RTVSPost2010PropOp55
 70
     1
102
RTVSPost2010Prop56
140
1.0
102
RTVSPost2010PropOp56
 70
     1
102
RTVSPost2010Prop57
140
1.0
102
RTVSPost2010PropOp57
 70
     1
102
RTVSPropertyOp0
 70
     1
102
RTVSPropertyOp1
 70
     1
102
RTVSPropertyOp2
 70
     1
102
RTVSPropertyOp3
 70
     1
102
RTVSPropertyOp4
 70
     1
102
RTVSPropertyOp5
 70
     1
102
RTVSPropertyOp6
 70
     1
102
RTVSPropertyOp7
 70
     1
102
RTVSPropertyOp8
 70
     1
102
RTVSPropertyOp9
 70
     1
102
RTVSPropertyOp10
 70
     1
102
RTVSPropertyOp11
 70
     1
102
RTVSPropertyOp12
 70
     1
102
RTVSPropertyOp13
 70
     1
102
RTVSPropertyOp14
 70
     1
102
RTVSPropertyOp15
 70
     1
102
RTVSPropertyOp16
 70
     1
102
RTVSPropertyOp17
 70
     1
102
RTVSPropertyOp18
 70
     1
102
RTVSPropertyOp19
 70
     1
102
RTVSPropertyOp20
 70
     1
102
RTVSPropertyOp21
 70
     1
102
RTVSPropertyOp22
 70
     1
102
RTVSPropertyOp23
 70
     1
102
RTVSPropertyOp24
 70
     1
102
RTVSPropertyOp25
 70
     1
102
RTVSPropertyOp26
 70
     1
102
RTVSPropertyOp27
 70
     1
102
RTVSPropertyOp28
 70
     1
102
RTVSPropertyOp29
 70
     1
102
RTVSPropertyOp30
 70
     1
102
RTVSPropertyOp31
 70
     1
102
RTVSPropertyOp32
 70
     1
102
RTVSPropertyOp33
 70
     1
102
RTVSPropertyOp34
 70
     1
102
RTVSPropertyOp35
 70
     1
102
RTVSPropertyOp36
 70
     1
102
RTVSPropertyOp37
 70
     1
102
RTVSPropertyOp38
 70
     1
102
RTVSPropertyOp39
 70
     1
102
RTVSPropertyOp40
 70
     1
102
RTVSPropertyOp41
 70
     1
102
RTVSPropertyOp42
 70
     1
102
RTVSPropertyOp43
 70
     1
102
RTVSPropertyOp44
 70
     1
102
RTVSPropertyOp45
 70
     1
102
RTVSPropertyOp46
 70
     1
102
RTVSPropertyOp47
 70
     1
102
RTVSPropertyOp48
 70
     1
102
RTVSPropertyOp49
 70
     1
102
RTVSPropertyOp50
 70
     1
102
RTVSPropertyOp51
 70
     0
102
RTVSPropertyOp52
 70
     0
102
RTVSPropertyOp53
 70
     1
102
RTVSPropertyOp54
 70
     1
102
RTVSPropertyOp55
 70
     1
102
RTVSPropertyOp56
 70
     1
102
RTVSPropertyOp57
 70
     1
102
RTVSPropertyOp58
 70
     1
102
RTVSPropertyOp59
 70
     1
102
RTVSPropertyOp60
 70
     1
102
RTVSPropertyOp61
 70
     1
102
RTVSPropertyOp62
 70
     1
  0
XRECORD
  5
97F1
102
{ACAD_REACTORS
330
97F0
102
}
330
97F0
100
AcDbXrecord
280
     1
102
RTVSPost2010Prop28
280
     0
102
RTVSPost2010PropOp28
 70
     1
102
RTVSPost2010Prop29
280
     1
102
RTVSPost2010PropOp29
 70
     1
102
RTVSPost2010Prop30
280
     1
102
RTVSPost2010PropOp30
 70
     1
102
RTVSPost2010Prop31
280
     0
102
RTVSPost2010PropOp31
 70
     1
102
RTVSPost2010Prop32
280
     0
102
RTVSPost2010PropOp32
 70
     1
102
RTVSPost2010Prop33
280
     0
102
RTVSPost2010PropOp33
 70
     1
102
RTVSPost2010Prop34
280
     0
102
RTVSPost2010PropOp34
 70
     1
102
RTVSPost2010Prop35
280
     0
102
RTVSPost2010PropOp35
 70
     1
102
RTVSPost2010Prop36
280
     0
102
RTVSPost2010PropOp36
 70
     1
102
RTVSPost2010Prop37
 90
       50
102
RTVSPost2010PropOp37
 70
     1
102
RTVSPost2010Prop38
140
0.0
102
RTVSPost2010PropOp38
 70
     1
102
RTVSPost2010Prop39
140
1.0
102
RTVSPost2010PropOp39
 70
     1
102
RTVSPost2010Prop40
 90
        0
102
RTVSPost2010PropOp40
 70
     1
102
RTVSPost2010Prop41ColorIndex
 90
       18
102
RTVSPost2010Prop41ColorRGB
 90
        0
102
RTVSPost2010PropOp41
 70
     1
102
RTVSPost2010Prop42
 90
       50
102
RTVSPost2010PropOp42
 70
     1
102
RTVSPost2010Prop43
 90
        3
102
RTVSPost2010PropOp43
 70
     1
102
RTVSPost2010Prop44ColorIndex
 90
        5
102
RTVSPost2010Prop44ColorRGB
 90
      255
102
RTVSPost2010PropOp44
 70
     1
102
RTVSPost2010Prop45
280
     0
102
RTVSPost2010PropOp45
 70
     1
102
RTVSPost2010Prop46
 90
       50
102
RTVSPost2010PropOp46
 70
     1
102
RTVSPost2010Prop47
 90
       50
102
RTVSPost2010PropOp47
 70
     1
102
RTVSPost2010Prop48
 90
       50
102
RTVSPost2010PropOp48
 70
     1
102
RTVSPost2010Prop49
280
     0
102
RTVSPost2010PropOp49
 70
     1
102
RTVSPost2010Prop50
 90
       50
102
RTVSPost2010PropOp50
 70
     1
102
RTVSPost2010Prop51ColorIndex
 90
      256
102
RTVSPost2010Prop51ColorRGB
 90
-16777216
102
RTVSPost2010PropOp51
 70
     0
102
RTVSPost2010Prop52
140
1.0
102
RTVSPost2010PropOp52
 70
     0
102
RTVSPost2010Prop53
 90
        2
102
RTVSPost2010PropOp53
 70
     1
102
RTVSPost2010Prop54
  1
strokes_ogs.tif
102
RTVSPost2010PropOp54
 70
     1
102
RTVSPost2010Prop55
280
     0
102
RTVSPost2010PropOp55
 70
     1
102
RTVSPost2010Prop56
140
1.0
102
RTVSPost2010PropOp56
 70
     1
102
RTVSPost2010Prop57
140
1.0
102
RTVSPost2010PropOp57
 70
     1
102
RTVSPropertyOp0
 70
     1
102
RTVSPropertyOp1
 70
     1
102
RTVSPropertyOp2
 70
     1
102
RTVSPropertyOp3
 70
     1
102
RTVSPropertyOp4
 70
     1
102
RTVSPropertyOp5
 70
     1
102
RTVSPropertyOp6
 70
     1
102
RTVSPropertyOp7
 70
     1
102
RTVSPropertyOp8
 70
     1
102
RTVSPropertyOp9
 70
     1
102
RTVSPropertyOp10
 70
     1
102
RTVSPropertyOp11
 70
     1
102
RTVSPropertyOp12
 70
     1
102
RTVSPropertyOp13
 70
     1
102
RTVSPropertyOp14
 70
     1
102
RTVSPropertyOp15
 70
     1
102
RTVSPropertyOp16
 70
     1
102
RTVSPropertyOp17
 70
     1
102
RTVSPropertyOp18
 70
     1
102
RTVSPropertyOp19
 70
     1
102
RTVSPropertyOp20
 70
     1
102
RTVSPropertyOp21
 70
     1
102
RTVSPropertyOp22
 70
     1
102
RTVSPropertyOp23
 70
     1
102
RTVSPropertyOp24
 70
     1
102
RTVSPropertyOp25
 70
     1
102
RTVSPropertyOp26
 70
     1
102
RTVSPropertyOp27
 70
     1
102
RTVSPropertyOp28
 70
     1
102
RTVSPropertyOp29
 70
     1
102
RTVSPropertyOp30
 70
     1
102
RTVSPropertyOp31
 70
     1
102
RTVSPropertyOp32
 70
     1
102
RTVSPropertyOp33
 70
     1
102
RTVSPropertyOp34
 70
     1
102
RTVSPropertyOp35
 70
     1
102
RTVSPropertyOp36
 70
     1
102
RTVSPropertyOp37
 70
     1
102
RTVSPropertyOp38
 70
     1
102
RTVSPropertyOp39
 70
     1
102
RTVSPropertyOp40
 70
     1
102
RTVSPropertyOp41
 70
     1
102
RTVSPropertyOp42
 70
     1
102
RTVSPropertyOp43
 70
     1
102
RTVSPropertyOp44
 70
     1
102
RTVSPropertyOp45
 70
     1
102
RTVSPropertyOp46
 70
     1
102
RTVSPropertyOp47
 70
     1
102
RTVSPropertyOp48
 70
     1
102
RTVSPropertyOp49
 70
     1
102
RTVSPropertyOp50
 70
     1
102
RTVSPropertyOp51
 70
     0
102
RTVSPropertyOp52
 70
     0
102
RTVSPropertyOp53
 70
     1
102
RTVSPropertyOp54
 70
     1
102
RTVSPropertyOp55
 70
     1
102
RTVSPropertyOp56
 70
     1
102
RTVSPropertyOp57
 70
     1
102
RTVSPropertyOp58
 70
     1
102
RTVSPropertyOp59
 70
     1
102
RTVSPropertyOp60
 70
     1
102
RTVSPropertyOp61
 70
     1
102
RTVSPropertyOp62
 70
     1
  0
XRECORD
  5
97EF
102
{ACAD_REACTORS
330
97EE
102
}
330
97EE
100
AcDbXrecord
280
     1
102
RTVSPost2010Prop28
280
     0
102
RTVSPost2010PropOp28
 70
     1
102
RTVSPost2010Prop29
280
     1
102
RTVSPost2010PropOp29
 70
     1
102
RTVSPost2010Prop30
280
     1
102
RTVSPost2010PropOp30
 70
     1
102
RTVSPost2010Prop31
280
     0
102
RTVSPost2010PropOp31
 70
     1
102
RTVSPost2010Prop32
280
     0
102
RTVSPost2010PropOp32
 70
     1
102
RTVSPost2010Prop33
280
     0
102
RTVSPost2010PropOp33
 70
     1
102
RTVSPost2010Prop34
280
     0
102
RTVSPost2010PropOp34
 70
     1
102
RTVSPost2010Prop35
280
     0
102
RTVSPost2010PropOp35
 70
     1
102
RTVSPost2010Prop36
280
     0
102
RTVSPost2010PropOp36
 70
     1
102
RTVSPost2010Prop37
 90
       50
102
RTVSPost2010PropOp37
 70
     1
102
RTVSPost2010Prop38
140
0.0
102
RTVSPost2010PropOp38
 70
     1
102
RTVSPost2010Prop39
140
1.0
102
RTVSPost2010PropOp39
 70
     1
102
RTVSPost2010Prop40
 90
        0
102
RTVSPost2010PropOp40
 70
     1
102
RTVSPost2010Prop41ColorIndex
 90
       18
102
RTVSPost2010Prop41ColorRGB
 90
        0
102
RTVSPost2010PropOp41
 70
     1
102
RTVSPost2010Prop42
 90
       50
102
RTVSPost2010PropOp42
 70
     1
102
RTVSPost2010Prop43
 90
        3
102
RTVSPost2010PropOp43
 70
     1
102
RTVSPost2010Prop44ColorIndex
 90
        5
102
RTVSPost2010Prop44ColorRGB
 90
      255
102
RTVSPost2010PropOp44
 70
     1
102
RTVSPost2010Prop45
280
     0
102
RTVSPost2010PropOp45
 70
     1
102
RTVSPost2010Prop46
 90
       50
102
RTVSPost2010PropOp46
 70
     1
102
RTVSPost2010Prop47
 90
       50
102
RTVSPost2010PropOp47
 70
     1
102
RTVSPost2010Prop48
 90
       50
102
RTVSPost2010PropOp48
 70
     1
102
RTVSPost2010Prop49
280
     0
102
RTVSPost2010PropOp49
 70
     1
102
RTVSPost2010Prop50
 90
       50
102
RTVSPost2010PropOp50
 70
     1
102
RTVSPost2010Prop51ColorIndex
 90
      256
102
RTVSPost2010Prop51ColorRGB
 90
-16777216
102
RTVSPost2010PropOp51
 70
     0
102
RTVSPost2010Prop52
140
1.0
102
RTVSPost2010PropOp52
 70
     0
102
RTVSPost2010Prop53
 90
        2
102
RTVSPost2010PropOp53
 70
     1
102
RTVSPost2010Prop54
  1
strokes_ogs.tif
102
RTVSPost2010PropOp54
 70
     1
102
RTVSPost2010Prop55
280
     0
102
RTVSPost2010PropOp55
 70
     1
102
RTVSPost2010Prop56
140
1.0
102
RTVSPost2010PropOp56
 70
     1
102
RTVSPost2010Prop57
140
1.0
102
RTVSPost2010PropOp57
 70
     1
102
RTVSPropertyOp0
 70
     1
102
RTVSPropertyOp1
 70
     1
102
RTVSPropertyOp2
 70
     1
102
RTVSPropertyOp3
 70
     1
102
RTVSPropertyOp4
 70
     1
102
RTVSPropertyOp5
 70
     1
102
RTVSPropertyOp6
 70
     1
102
RTVSPropertyOp7
 70
     1
102
RTVSPropertyOp8
 70
     1
102
RTVSPropertyOp9
 70
     1
102
RTVSPropertyOp10
 70
     1
102
RTVSPropertyOp11
 70
     1
102
RTVSPropertyOp12
 70
     1
102
RTVSPropertyOp13
 70
     1
102
RTVSPropertyOp14
 70
     1
102
RTVSPropertyOp15
 70
     1
102
RTVSPropertyOp16
 70
     1
102
RTVSPropertyOp17
 70
     1
102
RTVSPropertyOp18
 70
     1
102
RTVSPropertyOp19
 70
     1
102
RTVSPropertyOp20
 70
     1
102
RTVSPropertyOp21
 70
     1
102
RTVSPropertyOp22
 70
     1
102
RTVSPropertyOp23
 70
     1
102
RTVSPropertyOp24
 70
     1
102
RTVSPropertyOp25
 70
     1
102
RTVSPropertyOp26
 70
     1
102
RTVSPropertyOp27
 70
     1
102
RTVSPropertyOp28
 70
     1
102
RTVSPropertyOp29
 70
     1
102
RTVSPropertyOp30
 70
     1
102
RTVSPropertyOp31
 70
     1
102
RTVSPropertyOp32
 70
     1
102
RTVSPropertyOp33
 70
     1
102
RTVSPropertyOp34
 70
     1
102
RTVSPropertyOp35
 70
     1
102
RTVSPropertyOp36
 70
     1
102
RTVSPropertyOp37
 70
     1
102
RTVSPropertyOp38
 70
     1
102
RTVSPropertyOp39
 70
     1
102
RTVSPropertyOp40
 70
     1
102
RTVSPropertyOp41
 70
     1
102
RTVSPropertyOp42
 70
     1
102
RTVSPropertyOp43
 70
     1
102
RTVSPropertyOp44
 70
     1
102
RTVSPropertyOp45
 70
     1
102
RTVSPropertyOp46
 70
     1
102
RTVSPropertyOp47
 70
     1
102
RTVSPropertyOp48
 70
     1
102
RTVSPropertyOp49
 70
     1
102
RTVSPropertyOp50
 70
     1
102
RTVSPropertyOp51
 70
     0
102
RTVSPropertyOp52
 70
     0
102
RTVSPropertyOp53
 70
     1
102
RTVSPropertyOp54
 70
     1
102
RTVSPropertyOp55
 70
     1
102
RTVSPropertyOp56
 70
     1
102
RTVSPropertyOp57
 70
     1
102
RTVSPropertyOp58
 70
     1
102
RTVSPropertyOp59
 70
     1
102
RTVSPropertyOp60
 70
     1
102
RTVSPropertyOp61
 70
     1
102
RTVSPropertyOp62
 70
     1
  0
XRECORD
  5
97E9
102
{ACAD_REACTORS
330
97E8
102
}
330
97E8
100
AcDbXrecord
280
     1
102
RTVSPost2010Prop28
280
     0
102
RTVSPost2010PropOp28
 70
     1
102
RTVSPost2010Prop29
280
     1
102
RTVSPost2010PropOp29
 70
     1
102
RTVSPost2010Prop30
280
     1
102
RTVSPost2010PropOp30
 70
     1
102
RTVSPost2010Prop31
280
     0
102
RTVSPost2010PropOp31
 70
     1
102
RTVSPost2010Prop32
280
     0
102
RTVSPost2010PropOp32
 70
     1
102
RTVSPost2010Prop33
280
     0
102
RTVSPost2010PropOp33
 70
     1
102
RTVSPost2010Prop34
280
     0
102
RTVSPost2010PropOp34
 70
     1
102
RTVSPost2010Prop35
280
     0
102
RTVSPost2010PropOp35
 70
     1
102
RTVSPost2010Prop36
280
     0
102
RTVSPost2010PropOp36
 70
     1
102
RTVSPost2010Prop37
 90
       50
102
RTVSPost2010PropOp37
 70
     1
102
RTVSPost2010Prop38
140
0.0
102
RTVSPost2010PropOp38
 70
     1
102
RTVSPost2010Prop39
140
1.0
102
RTVSPost2010PropOp39
 70
     1
102
RTVSPost2010Prop40
 90
        0
102
RTVSPost2010PropOp40
 70
     1
102
RTVSPost2010Prop41ColorIndex
 90
       18
102
RTVSPost2010Prop41ColorRGB
 90
        0
102
RTVSPost2010PropOp41
 70
     1
102
RTVSPost2010Prop42
 90
       50
102
RTVSPost2010PropOp42
 70
     1
102
RTVSPost2010Prop43
 90
        3
102
RTVSPost2010PropOp43
 70
     1
102
RTVSPost2010Prop44ColorIndex
 90
        5
102
RTVSPost2010Prop44ColorRGB
 90
      255
102
RTVSPost2010PropOp44
 70
     1
102
RTVSPost2010Prop45
280
     0
102
RTVSPost2010PropOp45
 70
     1
102
RTVSPost2010Prop46
 90
       50
102
RTVSPost2010PropOp46
 70
     1
102
RTVSPost2010Prop47
 90
       50
102
RTVSPost2010PropOp47
 70
     1
102
RTVSPost2010Prop48
 90
       50
102
RTVSPost2010PropOp48
 70
     1
102
RTVSPost2010Prop49
280
     0
102
RTVSPost2010PropOp49
 70
     1
102
RTVSPost2010Prop50
 90
       50
102
RTVSPost2010PropOp50
 70
     1
102
RTVSPost2010Prop51ColorIndex
 90
      256
102
RTVSPost2010Prop51ColorRGB
 90
-16777216
102
RTVSPost2010PropOp51
 70
     0
102
RTVSPost2010Prop52
140
1.0
102
RTVSPost2010PropOp52
 70
     0
102
RTVSPost2010Prop53
 90
        2
102
RTVSPost2010PropOp53
 70
     1
102
RTVSPost2010Prop54
  1
strokes_ogs.tif
102
RTVSPost2010PropOp54
 70
     1
102
RTVSPost2010Prop55
280
     0
102
RTVSPost2010PropOp55
 70
     1
102
RTVSPost2010Prop56
140
1.0
102
RTVSPost2010PropOp56
 70
     1
102
RTVSPost2010Prop57
140
1.0
102
RTVSPost2010PropOp57
 70
     1
102
RTVSPropertyOp0
 70
     1
102
RTVSPropertyOp1
 70
     1
102
RTVSPropertyOp2
 70
     1
102
RTVSPropertyOp3
 70
     1
102
RTVSPropertyOp4
 70
     1
102
RTVSPropertyOp5
 70
     1
102
RTVSPropertyOp6
 70
     1
102
RTVSPropertyOp7
 70
     1
102
RTVSPropertyOp8
 70
     1
102
RTVSPropertyOp9
 70
     1
102
RTVSPropertyOp10
 70
     1
102
RTVSPropertyOp11
 70
     1
102
RTVSPropertyOp12
 70
     1
102
RTVSPropertyOp13
 70
     1
102
RTVSPropertyOp14
 70
     1
102
RTVSPropertyOp15
 70
     1
102
RTVSPropertyOp16
 70
     1
102
RTVSPropertyOp17
 70
     1
102
RTVSPropertyOp18
 70
     1
102
RTVSPropertyOp19
 70
     1
102
RTVSPropertyOp20
 70
     1
102
RTVSPropertyOp21
 70
     1
102
RTVSPropertyOp22
 70
     1
102
RTVSPropertyOp23
 70
     1
102
RTVSPropertyOp24
 70
     1
102
RTVSPropertyOp25
 70
     1
102
RTVSPropertyOp26
 70
     1
102
RTVSPropertyOp27
 70
     1
102
RTVSPropertyOp28
 70
     1
102
RTVSPropertyOp29
 70
     1
102
RTVSPropertyOp30
 70
     1
102
RTVSPropertyOp31
 70
     1
102
RTVSPropertyOp32
 70
     1
102
RTVSPropertyOp33
 70
     1
102
RTVSPropertyOp34
 70
     1
102
RTVSPropertyOp35
 70
     1
102
RTVSPropertyOp36
 70
     1
102
RTVSPropertyOp37
 70
     1
102
RTVSPropertyOp38
 70
     1
102
RTVSPropertyOp39
 70
     1
102
RTVSPropertyOp40
 70
     1
102
RTVSPropertyOp41
 70
     1
102
RTVSPropertyOp42
 70
     1
102
RTVSPropertyOp43
 70
     1
102
RTVSPropertyOp44
 70
     1
102
RTVSPropertyOp45
 70
     1
102
RTVSPropertyOp46
 70
     1
102
RTVSPropertyOp47
 70
     1
102
RTVSPropertyOp48
 70
     1
102
RTVSPropertyOp49
 70
     1
102
RTVSPropertyOp50
 70
     1
102
RTVSPropertyOp51
 70
     0
102
RTVSPropertyOp52
 70
     0
102
RTVSPropertyOp53
 70
     1
102
RTVSPropertyOp54
 70
     1
102
RTVSPropertyOp55
 70
     1
102
RTVSPropertyOp56
 70
     1
102
RTVSPropertyOp57
 70
     1
102
RTVSPropertyOp58
 70
     1
102
RTVSPropertyOp59
 70
     1
102
RTVSPropertyOp60
 70
     1
102
RTVSPropertyOp61
 70
     1
102
RTVSPropertyOp62
 70
     1
  0
XRECORD
  5
97EB
102
{ACAD_REACTORS
330
97EA
102
}
330
97EA
100
AcDbXrecord
280
     1
102
RTVSPost2010Prop28
280
     0
102
RTVSPost2010PropOp28
 70
     1
102
RTVSPost2010Prop29
280
     1
102
RTVSPost2010PropOp29
 70
     1
102
RTVSPost2010Prop30
280
     1
102
RTVSPost2010PropOp30
 70
     1
102
RTVSPost2010Prop31
280
     0
102
RTVSPost2010PropOp31
 70
     1
102
RTVSPost2010Prop32
280
     0
102
RTVSPost2010PropOp32
 70
     1
102
RTVSPost2010Prop33
280
     0
102
RTVSPost2010PropOp33
 70
     1
102
RTVSPost2010Prop34
280
     0
102
RTVSPost2010PropOp34
 70
     1
102
RTVSPost2010Prop35
280
     0
102
RTVSPost2010PropOp35
 70
     1
102
RTVSPost2010Prop36
280
     0
102
RTVSPost2010PropOp36
 70
     1
102
RTVSPost2010Prop37
 90
       50
102
RTVSPost2010PropOp37
 70
     1
102
RTVSPost2010Prop38
140
0.0
102
RTVSPost2010PropOp38
 70
     1
102
RTVSPost2010Prop39
140
1.0
102
RTVSPost2010PropOp39
 70
     1
102
RTVSPost2010Prop40
 90
        0
102
RTVSPost2010PropOp40
 70
     1
102
RTVSPost2010Prop41ColorIndex
 90
       18
102
RTVSPost2010Prop41ColorRGB
 90
        0
102
RTVSPost2010PropOp41
 70
     1
102
RTVSPost2010Prop42
 90
       50
102
RTVSPost2010PropOp42
 70
     1
102
RTVSPost2010Prop43
 90
        3
102
RTVSPost2010PropOp43
 70
     1
102
RTVSPost2010Prop44ColorIndex
 90
        5
102
RTVSPost2010Prop44ColorRGB
 90
      255
102
RTVSPost2010PropOp44
 70
     1
102
RTVSPost2010Prop45
280
     0
102
RTVSPost2010PropOp45
 70
     1
102
RTVSPost2010Prop46
 90
       50
102
RTVSPost2010PropOp46
 70
     1
102
RTVSPost2010Prop47
 90
       50
102
RTVSPost2010PropOp47
 70
     1
102
RTVSPost2010Prop48
 90
       50
102
RTVSPost2010PropOp48
 70
     1
102
RTVSPost2010Prop49
280
     0
102
RTVSPost2010PropOp49
 70
     1
102
RTVSPost2010Prop50
 90
       50
102
RTVSPost2010PropOp50
 70
     1
102
RTVSPost2010Prop51ColorIndex
 90
      256
102
RTVSPost2010Prop51ColorRGB
 90
-16777216
102
RTVSPost2010PropOp51
 70
     0
102
RTVSPost2010Prop52
140
1.0
102
RTVSPost2010PropOp52
 70
     0
102
RTVSPost2010Prop53
 90
        2
102
RTVSPost2010PropOp53
 70
     1
102
RTVSPost2010Prop54
  1
strokes_ogs.tif
102
RTVSPost2010PropOp54
 70
     1
102
RTVSPost2010Prop55
280
     0
102
RTVSPost2010PropOp55
 70
     1
102
RTVSPost2010Prop56
140
1.0
102
RTVSPost2010PropOp56
 70
     1
102
RTVSPost2010Prop57
140
1.0
102
RTVSPost2010PropOp57
 70
     1
102
RTVSPropertyOp0
 70
     1
102
RTVSPropertyOp1
 70
     1
102
RTVSPropertyOp2
 70
     1
102
RTVSPropertyOp3
 70
     1
102
RTVSPropertyOp4
 70
     1
102
RTVSPropertyOp5
 70
     1
102
RTVSPropertyOp6
 70
     1
102
RTVSPropertyOp7
 70
     1
102
RTVSPropertyOp8
 70
     1
102
RTVSPropertyOp9
 70
     1
102
RTVSPropertyOp10
 70
     1
102
RTVSPropertyOp11
 70
     1
102
RTVSPropertyOp12
 70
     1
102
RTVSPropertyOp13
 70
     1
102
RTVSPropertyOp14
 70
     1
102
RTVSPropertyOp15
 70
     1
102
RTVSPropertyOp16
 70
     1
102
RTVSPropertyOp17
 70
     1
102
RTVSPropertyOp18
 70
     1
102
RTVSPropertyOp19
 70
     1
102
RTVSPropertyOp20
 70
     1
102
RTVSPropertyOp21
 70
     1
102
RTVSPropertyOp22
 70
     1
102
RTVSPropertyOp23
 70
     1
102
RTVSPropertyOp24
 70
     1
102
RTVSPropertyOp25
 70
     1
102
RTVSPropertyOp26
 70
     1
102
RTVSPropertyOp27
 70
     1
102
RTVSPropertyOp28
 70
     1
102
RTVSPropertyOp29
 70
     1
102
RTVSPropertyOp30
 70
     1
102
RTVSPropertyOp31
 70
     1
102
RTVSPropertyOp32
 70
     1
102
RTVSPropertyOp33
 70
     1
102
RTVSPropertyOp34
 70
     1
102
RTVSPropertyOp35
 70
     1
102
RTVSPropertyOp36
 70
     1
102
RTVSPropertyOp37
 70
     1
102
RTVSPropertyOp38
 70
     1
102
RTVSPropertyOp39
 70
     1
102
RTVSPropertyOp40
 70
     1
102
RTVSPropertyOp41
 70
     1
102
RTVSPropertyOp42
 70
     1
102
RTVSPropertyOp43
 70
     1
102
RTVSPropertyOp44
 70
     1
102
RTVSPropertyOp45
 70
     1
102
RTVSPropertyOp46
 70
     1
102
RTVSPropertyOp47
 70
     1
102
RTVSPropertyOp48
 70
     1
102
RTVSPropertyOp49
 70
     1
102
RTVSPropertyOp50
 70
     1
102
RTVSPropertyOp51
 70
     0
102
RTVSPropertyOp52
 70
     0
102
RTVSPropertyOp53
 70
     1
102
RTVSPropertyOp54
 70
     1
102
RTVSPropertyOp55
 70
     1
102
RTVSPropertyOp56
 70
     1
102
RTVSPropertyOp57
 70
     1
102
RTVSPropertyOp58
 70
     1
102
RTVSPropertyOp59
 70
     1
102
RTVSPropertyOp60
 70
     1
102
RTVSPropertyOp61
 70
     1
102
RTVSPropertyOp62
 70
     1
  0
XRECORD
  5
97E1
102
{ACAD_REACTORS
330
97E0
102
}
330
97E0
100
AcDbXrecord
280
     1
102
RTVSPost2010Prop28
280
     0
102
RTVSPost2010PropOp28
 70
     1
102
RTVSPost2010Prop29
280
     1
102
RTVSPost2010PropOp29
 70
     1
102
RTVSPost2010Prop30
280
     1
102
RTVSPost2010PropOp30
 70
     1
102
RTVSPost2010Prop31
280
     0
102
RTVSPost2010PropOp31
 70
     1
102
RTVSPost2010Prop32
280
     0
102
RTVSPost2010PropOp32
 70
     1
102
RTVSPost2010Prop33
280
     0
102
RTVSPost2010PropOp33
 70
     1
102
RTVSPost2010Prop34
280
     0
102
RTVSPost2010PropOp34
 70
     1
102
RTVSPost2010Prop35
280
     0
102
RTVSPost2010PropOp35
 70
     1
102
RTVSPost2010Prop36
280
     0
102
RTVSPost2010PropOp36
 70
     1
102
RTVSPost2010Prop37
 90
       50
102
RTVSPost2010PropOp37
 70
     1
102
RTVSPost2010Prop38
140
0.0
102
RTVSPost2010PropOp38
 70
     1
102
RTVSPost2010Prop39
140
1.0
102
RTVSPost2010PropOp39
 70
     1
102
RTVSPost2010Prop40
 90
        0
102
RTVSPost2010PropOp40
 70
     1
102
RTVSPost2010Prop41ColorIndex
 90
       18
102
RTVSPost2010Prop41ColorRGB
 90
        0
102
RTVSPost2010PropOp41
 70
     1
102
RTVSPost2010Prop42
 90
       50
102
RTVSPost2010PropOp42
 70
     1
102
RTVSPost2010Prop43
 90
        3
102
RTVSPost2010PropOp43
 70
     1
102
RTVSPost2010Prop44ColorIndex
 90
        5
102
RTVSPost2010Prop44ColorRGB
 90
      255
102
RTVSPost2010PropOp44
 70
     1
102
RTVSPost2010Prop45
280
     0
102
RTVSPost2010PropOp45
 70
     1
102
RTVSPost2010Prop46
 90
       50
102
RTVSPost2010PropOp46
 70
     1
102
RTVSPost2010Prop47
 90
       50
102
RTVSPost2010PropOp47
 70
     1
102
RTVSPost2010Prop48
 90
       50
102
RTVSPost2010PropOp48
 70
     1
102
RTVSPost2010Prop49
280
     0
102
RTVSPost2010PropOp49
 70
     1
102
RTVSPost2010Prop50
 90
       50
102
RTVSPost2010PropOp50
 70
     1
102
RTVSPost2010Prop51ColorIndex
 90
      256
102
RTVSPost2010Prop51ColorRGB
 90
-16777216
102
RTVSPost2010PropOp51
 70
     0
102
RTVSPost2010Prop52
140
1.0
102
RTVSPost2010PropOp52
 70
     0
102
RTVSPost2010Prop53
 90
        2
102
RTVSPost2010PropOp53
 70
     1
102
RTVSPost2010Prop54
  1
strokes_ogs.tif
102
RTVSPost2010PropOp54
 70
     1
102
RTVSPost2010Prop55
280
     0
102
RTVSPost2010PropOp55
 70
     1
102
RTVSPost2010Prop56
140
1.0
102
RTVSPost2010PropOp56
 70
     1
102
RTVSPost2010Prop57
140
1.0
102
RTVSPost2010PropOp57
 70
     1
102
RTVSPropertyOp0
 70
     1
102
RTVSPropertyOp1
 70
     1
102
RTVSPropertyOp2
 70
     1
102
RTVSPropertyOp3
 70
     1
102
RTVSPropertyOp4
 70
     1
102
RTVSPropertyOp5
 70
     1
102
RTVSPropertyOp6
 70
     1
102
RTVSPropertyOp7
 70
     1
102
RTVSPropertyOp8
 70
     1
102
RTVSPropertyOp9
 70
     1
102
RTVSPropertyOp10
 70
     1
102
RTVSPropertyOp11
 70
     1
102
RTVSPropertyOp12
 70
     1
102
RTVSPropertyOp13
 70
     1
102
RTVSPropertyOp14
 70
     1
102
RTVSPropertyOp15
 70
     1
102
RTVSPropertyOp16
 70
     1
102
RTVSPropertyOp17
 70
     1
102
RTVSPropertyOp18
 70
     1
102
RTVSPropertyOp19
 70
     1
102
RTVSPropertyOp20
 70
     1
102
RTVSPropertyOp21
 70
     1
102
RTVSPropertyOp22
 70
     1
102
RTVSPropertyOp23
 70
     1
102
RTVSPropertyOp24
 70
     1
102
RTVSPropertyOp25
 70
     1
102
RTVSPropertyOp26
 70
     1
102
RTVSPropertyOp27
 70
     1
102
RTVSPropertyOp28
 70
     1
102
RTVSPropertyOp29
 70
     1
102
RTVSPropertyOp30
 70
     1
102
RTVSPropertyOp31
 70
     1
102
RTVSPropertyOp32
 70
     1
102
RTVSPropertyOp33
 70
     1
102
RTVSPropertyOp34
 70
     1
102
RTVSPropertyOp35
 70
     1
102
RTVSPropertyOp36
 70
     1
102
RTVSPropertyOp37
 70
     1
102
RTVSPropertyOp38
 70
     1
102
RTVSPropertyOp39
 70
     1
102
RTVSPropertyOp40
 70
     1
102
RTVSPropertyOp41
 70
     1
102
RTVSPropertyOp42
 70
     1
102
RTVSPropertyOp43
 70
     1
102
RTVSPropertyOp44
 70
     1
102
RTVSPropertyOp45
 70
     1
102
RTVSPropertyOp46
 70
     1
102
RTVSPropertyOp47
 70
     1
102
RTVSPropertyOp48
 70
     1
102
RTVSPropertyOp49
 70
     1
102
RTVSPropertyOp50
 70
     1
102
RTVSPropertyOp51
 70
     0
102
RTVSPropertyOp52
 70
     0
102
RTVSPropertyOp53
 70
     1
102
RTVSPropertyOp54
 70
     1
102
RTVSPropertyOp55
 70
     1
102
RTVSPropertyOp56
 70
     1
102
RTVSPropertyOp57
 70
     1
102
RTVSPropertyOp58
 70
     1
102
RTVSPropertyOp59
 70
     1
102
RTVSPropertyOp60
 70
     1
102
RTVSPropertyOp61
 70
     1
102
RTVSPropertyOp62
 70
     1
  0
XRECORD
  5
97D5
102
{ACAD_REACTORS
330
97D4
102
}
330
97D4
100
AcDbXrecord
280
     1
102
RTVSPost2010Prop28
280
     0
102
RTVSPost2010PropOp28
 70
     1
102
RTVSPost2010Prop29
280
     1
102
RTVSPost2010PropOp29
 70
     1
102
RTVSPost2010Prop30
280
     1
102
RTVSPost2010PropOp30
 70
     1
102
RTVSPost2010Prop31
280
     0
102
RTVSPost2010PropOp31
 70
     1
102
RTVSPost2010Prop32
280
     0
102
RTVSPost2010PropOp32
 70
     1
102
RTVSPost2010Prop33
280
     0
102
RTVSPost2010PropOp33
 70
     1
102
RTVSPost2010Prop34
280
     0
102
RTVSPost2010PropOp34
 70
     1
102
RTVSPost2010Prop35
280
     0
102
RTVSPost2010PropOp35
 70
     1
102
RTVSPost2010Prop36
280
     0
102
RTVSPost2010PropOp36
 70
     1
102
RTVSPost2010Prop37
 90
       50
102
RTVSPost2010PropOp37
 70
     1
102
RTVSPost2010Prop38
140
0.0
102
RTVSPost2010PropOp38
 70
     1
102
RTVSPost2010Prop39
140
1.0
102
RTVSPost2010PropOp39
 70
     1
102
RTVSPost2010Prop40
 90
        0
102
RTVSPost2010PropOp40
 70
     1
102
RTVSPost2010Prop41ColorIndex
 90
       18
102
RTVSPost2010Prop41ColorRGB
 90
        0
102
RTVSPost2010PropOp41
 70
     1
102
RTVSPost2010Prop42
 90
       50
102
RTVSPost2010PropOp42
 70
     1
102
RTVSPost2010Prop43
 90
        3
102
RTVSPost2010PropOp43
 70
     1
102
RTVSPost2010Prop44ColorIndex
 90
        5
102
RTVSPost2010Prop44ColorRGB
 90
      255
102
RTVSPost2010PropOp44
 70
     1
102
RTVSPost2010Prop45
280
     0
102
RTVSPost2010PropOp45
 70
     1
102
RTVSPost2010Prop46
 90
       50
102
RTVSPost2010PropOp46
 70
     1
102
RTVSPost2010Prop47
 90
       50
102
RTVSPost2010PropOp47
 70
     1
102
RTVSPost2010Prop48
 90
       50
102
RTVSPost2010PropOp48
 70
     1
102
RTVSPost2010Prop49
280
     0
102
RTVSPost2010PropOp49
 70
     1
102
RTVSPost2010Prop50
 90
       50
102
RTVSPost2010PropOp50
 70
     1
102
RTVSPost2010Prop51ColorIndex
 90
      256
102
RTVSPost2010Prop51ColorRGB
 90
-16777216
102
RTVSPost2010PropOp51
 70
     0
102
RTVSPost2010Prop52
140
1.0
102
RTVSPost2010PropOp52
 70
     0
102
RTVSPost2010Prop53
 90
        2
102
RTVSPost2010PropOp53
 70
     1
102
RTVSPost2010Prop54
  1
strokes_ogs.tif
102
RTVSPost2010PropOp54
 70
     1
102
RTVSPost2010Prop55
280
     0
102
RTVSPost2010PropOp55
 70
     1
102
RTVSPost2010Prop56
140
1.0
102
RTVSPost2010PropOp56
 70
     1
102
RTVSPost2010Prop57
140
1.0
102
RTVSPost2010PropOp57
 70
     1
102
RTVSPropertyOp0
 70
     1
102
RTVSPropertyOp1
 70
     1
102
RTVSPropertyOp2
 70
     1
102
RTVSPropertyOp3
 70
     1
102
RTVSPropertyOp4
 70
     1
102
RTVSPropertyOp5
 70
     1
102
RTVSPropertyOp6
 70
     1
102
RTVSPropertyOp7
 70
     1
102
RTVSPropertyOp8
 70
     1
102
RTVSPropertyOp9
 70
     1
102
RTVSPropertyOp10
 70
     1
102
RTVSPropertyOp11
 70
     1
102
RTVSPropertyOp12
 70
     1
102
RTVSPropertyOp13
 70
     1
102
RTVSPropertyOp14
 70
     1
102
RTVSPropertyOp15
 70
     1
102
RTVSPropertyOp16
 70
     1
102
RTVSPropertyOp17
 70
     1
102
RTVSPropertyOp18
 70
     1
102
RTVSPropertyOp19
 70
     1
102
RTVSPropertyOp20
 70
     1
102
RTVSPropertyOp21
 70
     1
102
RTVSPropertyOp22
 70
     1
102
RTVSPropertyOp23
 70
     1
102
RTVSPropertyOp24
 70
     1
102
RTVSPropertyOp25
 70
     1
102
RTVSPropertyOp26
 70
     1
102
RTVSPropertyOp27
 70
     1
102
RTVSPropertyOp28
 70
     1
102
RTVSPropertyOp29
 70
     1
102
RTVSPropertyOp30
 70
     1
102
RTVSPropertyOp31
 70
     1
102
RTVSPropertyOp32
 70
     1
102
RTVSPropertyOp33
 70
     1
102
RTVSPropertyOp34
 70
     1
102
RTVSPropertyOp35
 70
     1
102
RTVSPropertyOp36
 70
     1
102
RTVSPropertyOp37
 70
     1
102
RTVSPropertyOp38
 70
     1
102
RTVSPropertyOp39
 70
     1
102
RTVSPropertyOp40
 70
     1
102
RTVSPropertyOp41
 70
     1
102
RTVSPropertyOp42
 70
     1
102
RTVSPropertyOp43
 70
     1
102
RTVSPropertyOp44
 70
     1
102
RTVSPropertyOp45
 70
     1
102
RTVSPropertyOp46
 70
     1
102
RTVSPropertyOp47
 70
     1
102
RTVSPropertyOp48
 70
     1
102
RTVSPropertyOp49
 70
     1
102
RTVSPropertyOp50
 70
     1
102
RTVSPropertyOp51
 70
     0
102
RTVSPropertyOp52
 70
     0
102
RTVSPropertyOp53
 70
     1
102
RTVSPropertyOp54
 70
     1
102
RTVSPropertyOp55
 70
     1
102
RTVSPropertyOp56
 70
     1
102
RTVSPropertyOp57
 70
     1
102
RTVSPropertyOp58
 70
     1
102
RTVSPropertyOp59
 70
     1
102
RTVSPropertyOp60
 70
     1
102
RTVSPropertyOp61
 70
     1
102
RTVSPropertyOp62
 70
     1
  0
XRECORD
  5
97ED
102
{ACAD_REACTORS
330
97EC
102
}
330
97EC
100
AcDbXrecord
280
     1
102
RTVSPost2010Prop28
280
     0
102
RTVSPost2010PropOp28
 70
     1
102
RTVSPost2010Prop29
280
     1
102
RTVSPost2010PropOp29
 70
     1
102
RTVSPost2010Prop30
280
     1
102
RTVSPost2010PropOp30
 70
     1
102
RTVSPost2010Prop31
280
     0
102
RTVSPost2010PropOp31
 70
     1
102
RTVSPost2010Prop32
280
     0
102
RTVSPost2010PropOp32
 70
     1
102
RTVSPost2010Prop33
280
     0
102
RTVSPost2010PropOp33
 70
     1
102
RTVSPost2010Prop34
280
     0
102
RTVSPost2010PropOp34
 70
     1
102
RTVSPost2010Prop35
280
     0
102
RTVSPost2010PropOp35
 70
     1
102
RTVSPost2010Prop36
280
     0
102
RTVSPost2010PropOp36
 70
     1
102
RTVSPost2010Prop37
 90
       50
102
RTVSPost2010PropOp37
 70
     1
102
RTVSPost2010Prop38
140
0.0
102
RTVSPost2010PropOp38
 70
     1
102
RTVSPost2010Prop39
140
1.0
102
RTVSPost2010PropOp39
 70
     1
102
RTVSPost2010Prop40
 90
        0
102
RTVSPost2010PropOp40
 70
     1
102
RTVSPost2010Prop41ColorIndex
 90
       18
102
RTVSPost2010Prop41ColorRGB
 90
        0
102
RTVSPost2010PropOp41
 70
     1
102
RTVSPost2010Prop42
 90
       50
102
RTVSPost2010PropOp42
 70
     1
102
RTVSPost2010Prop43
 90
        3
102
RTVSPost2010PropOp43
 70
     1
102
RTVSPost2010Prop44ColorIndex
 90
        5
102
RTVSPost2010Prop44ColorRGB
 90
      255
102
RTVSPost2010PropOp44
 70
     1
102
RTVSPost2010Prop45
280
     0
102
RTVSPost2010PropOp45
 70
     1
102
RTVSPost2010Prop46
 90
       50
102
RTVSPost2010PropOp46
 70
     1
102
RTVSPost2010Prop47
 90
       50
102
RTVSPost2010PropOp47
 70
     1
102
RTVSPost2010Prop48
 90
       50
102
RTVSPost2010PropOp48
 70
     1
102
RTVSPost2010Prop49
280
     0
102
RTVSPost2010PropOp49
 70
     1
102
RTVSPost2010Prop50
 90
       50
102
RTVSPost2010PropOp50
 70
     1
102
RTVSPost2010Prop51ColorIndex
 90
      256
102
RTVSPost2010Prop51ColorRGB
 90
-16777216
102
RTVSPost2010PropOp51
 70
     0
102
RTVSPost2010Prop52
140
1.0
102
RTVSPost2010PropOp52
 70
     0
102
RTVSPost2010Prop53
 90
        2
102
RTVSPost2010PropOp53
 70
     1
102
RTVSPost2010Prop54
  1
strokes_ogs.tif
102
RTVSPost2010PropOp54
 70
     1
102
RTVSPost2010Prop55
280
     0
102
RTVSPost2010PropOp55
 70
     1
102
RTVSPost2010Prop56
140
1.0
102
RTVSPost2010PropOp56
 70
     1
102
RTVSPost2010Prop57
140
1.0
102
RTVSPost2010PropOp57
 70
     1
102
RTVSPropertyOp0
 70
     1
102
RTVSPropertyOp1
 70
     1
102
RTVSPropertyOp2
 70
     1
102
RTVSPropertyOp3
 70
     1
102
RTVSPropertyOp4
 70
     1
102
RTVSPropertyOp5
 70
     1
102
RTVSPropertyOp6
 70
     1
102
RTVSPropertyOp7
 70
     1
102
RTVSPropertyOp8
 70
     1
102
RTVSPropertyOp9
 70
     1
102
RTVSPropertyOp10
 70
     1
102
RTVSPropertyOp11
 70
     1
102
RTVSPropertyOp12
 70
     1
102
RTVSPropertyOp13
 70
     1
102
RTVSPropertyOp14
 70
     1
102
RTVSPropertyOp15
 70
     1
102
RTVSPropertyOp16
 70
     1
102
RTVSPropertyOp17
 70
     1
102
RTVSPropertyOp18
 70
     1
102
RTVSPropertyOp19
 70
     1
102
RTVSPropertyOp20
 70
     1
102
RTVSPropertyOp21
 70
     1
102
RTVSPropertyOp22
 70
     1
102
RTVSPropertyOp23
 70
     1
102
RTVSPropertyOp24
 70
     1
102
RTVSPropertyOp25
 70
     1
102
RTVSPropertyOp26
 70
     1
102
RTVSPropertyOp27
 70
     1
102
RTVSPropertyOp28
 70
     1
102
RTVSPropertyOp29
 70
     1
102
RTVSPropertyOp30
 70
     1
102
RTVSPropertyOp31
 70
     1
102
RTVSPropertyOp32
 70
     1
102
RTVSPropertyOp33
 70
     1
102
RTVSPropertyOp34
 70
     1
102
RTVSPropertyOp35
 70
     1
102
RTVSPropertyOp36
 70
     1
102
RTVSPropertyOp37
 70
     1
102
RTVSPropertyOp38
 70
     1
102
RTVSPropertyOp39
 70
     1
102
RTVSPropertyOp40
 70
     1
102
RTVSPropertyOp41
 70
     1
102
RTVSPropertyOp42
 70
     1
102
RTVSPropertyOp43
 70
     1
102
RTVSPropertyOp44
 70
     1
102
RTVSPropertyOp45
 70
     1
102
RTVSPropertyOp46
 70
     1
102
RTVSPropertyOp47
 70
     1
102
RTVSPropertyOp48
 70
     1
102
RTVSPropertyOp49
 70
     1
102
RTVSPropertyOp50
 70
     1
102
RTVSPropertyOp51
 70
     0
102
RTVSPropertyOp52
 70
     0
102
RTVSPropertyOp53
 70
     1
102
RTVSPropertyOp54
 70
     1
102
RTVSPropertyOp55
 70
     1
102
RTVSPropertyOp56
 70
     1
102
RTVSPropertyOp57
 70
     1
102
RTVSPropertyOp58
 70
     1
102
RTVSPropertyOp59
 70
     1
102
RTVSPropertyOp60
 70
     1
102
RTVSPropertyOp61
 70
     1
102
RTVSPropertyOp62
 70
     1
  0
ENDSEC
  0
EOF
