  0
SECTION
  2
HEADER
  9
$ACADVER
  1
AC1015
  9
$ACADMAINTVER
 70
    20
  9
$DWGCODEPAGE
  3
ANSI_932
  9
$INSBASE
 10
0.0
 20
0.0
 30
0.0
  9
$EXTMIN
 10
10.0
 20
9.999999999999998
 30
0.0
  9
$EXTMAX
 10
480.4370889999998
 20
334.376152
 30
0.0
  9
$LIMMIN
 10
0.0
 20
0.0
  9
$LIMMAX
 10
495.0
 20
341.25
  9
$ORTHOMODE
 70
     1
  9
$REGENMODE
 70
     1
  9
$FILLMODE
 70
     1
  9
$QTEXTMODE
 70
     0
  9
$MIRRTEXT
 70
     1
  9
$LTSCALE
 40
20.0
  9
$ATTMODE
 70
     1
  9
$TEXTSIZE
 40
5.0
  9
$TRACEWID
 40
1.0
  9
$TEXTSTYLE
  7
STANDARD
  9
$CLAYER
  8
0
  9
$CELTYPE
  6
BYLAYER
  9
$CECOLOR
 62
   256
  9
$CELTSCALE
 40
1.0
  9
$DISPSILH
 70
     0
  9
$DIMSCALE
 40
1.0
  9
$DIMASZ
 40
3.0
  9
$DIMEXO
 40
1.0
  9
$DIMDLI
 40
10.0
  9
$DIMRND
 40
0.0
  9
$DIMDLE
 40
0.0
  9
$DIMEXE
 40
1.0
  9
$DIMTP
 40
0.0
  9
$DIMTM
 40
0.0
  9
$DIMTXT
 40
3.2
  9
$DIMCEN
 40
0.0
  9
$DIMTSZ
 40
0.0
  9
$DIMTOL
 70
     0
  9
$DIMLIM
 70
     0
  9
$DIMTIH
 70
     0
  9
$DIMTOH
 70
     0
  9
$DIMSE1
 70
     0
  9
$DIMSE2
 70
     0
  9
$DIMTAD
 70
     3
  9
$DIMZIN
 70
     8
  9
$DIMBLK
  1

  9
$DIMASO
 70
     1
  9
$DIMSHO
 70
     1
  9
$DIMPOST
  1

  9
$DIMAPOST
  1

  9
$DIMALT
 70
     0
  9
$DIMALTD
 70
     2
  9
$DIMALTF
 40
25.4
  9
$DIMLFAC
 40
1.0
  9
$DIMTOFL
 70
     1
  9
$DIMTVP
 40
0.0
  9
$DIMTIX
 70
     0
  9
$DIMSOXD
 70
     0
  9
$DIMSAH
 70
     1
  9
$DIMBLK1
  1

  9
$DIMBLK2
  1

  9
$DIMSTYLE
  2
STANDARD
  9
$DIMCLRD
 70
     0
  9
$DIMCLRE
 70
     0
  9
$DIMCLRT
 70
     0
  9
$DIMTFAC
 40
1.0
  9
$DIMGAP
 40
1.0
  9
$DIMJUST
 70
     0
  9
$DIMSD1
 70
     0
  9
$DIMSD2
 70
     0
  9
$DIMTOLJ
 70
     1
  9
$DIMTZIN
 70
     0
  9
$DIMALTZ
 70
     0
  9
$DIMALTTZ
 70
     0
  9
$DIMUPT
 70
     0
  9
$DIMDEC
 70
     4
  9
$DIMTDEC
 70
     4
  9
$DIMALTU
 70
     2
  9
$DIMALTTD
 70
     2
  9
$DIMTXSTY
  7
STANDARD
  9
$DIMAUNIT
 70
     0
  9
$DIMADEC
 70
     0
  9
$DIMALTRND
 40
0.0
  9
$DIMAZIN
 70
     0
  9
$DIMDSEP
 70
    46
  9
$DIMATFIT
 70
     3
  9
$DIMFRAC
 70
     0
  9
$DIMLDRBLK
  1

  9
$DIMLUNIT
 70
     2
  9
$DIMLWD
 70
    -2
  9
$DIMLWE
 70
    -2
  9
$DIMTMOVE
 70
     0
  9
$LUNITS
 70
     2
  9
$LUPREC
 70
     4
  9
$SKETCHINC
 40
1.0
  9
$FILLETRAD
 40
0.0
  9
$AUNITS
 70
     0
  9
$AUPREC
 70
     2
  9
$MENU
  1
.
  9
$ELEVATION
 40
0.0
  9
$PELEVATION
 40
0.0
  9
$THICKNESS
 40
0.0
  9
$LIMCHECK
 70
     0
  9
$CHAMFERA
 40
10.0
  9
$CHAMFERB
 40
10.0
  9
$CHAMFERC
 40
0.0
  9
$CHAMFERD
 40
0.0
  9
$SKPOLY
 70
     0
  9
$TDCREATE
 40
2451066.587711574
  9
$TDUCREATE
 40
2451066.212711574
  9
$TDUPDATE
 40
2457192.599211424
  9
$TDUUPDATE
 40
2457192.224211424
  9
$TDINDWG
 40
0.0000137616
  9
$TDUSRTIMER
 40
0.0000133449
  9
$USRTIMER
 70
     1
  9
$ANGBASE
 50
0.0
  9
$ANGDIR
 70
     0
  9
$PDMODE
 70
     0
  9
$PDSIZE
 40
0.0
  9
$PLINEWID
 40
0.0
  9
$SPLFRAME
 70
     0
  9
$SPLINETYPE
 70
     6
  9
$SPLINESEGS
 70
     8
  9
$HANDSEED
  5
9A37
  9
$SURFTAB1
 70
     6
  9
$SURFTAB2
 70
     6
  9
$SURFTYPE
 70
     6
  9
$SURFU
 70
     6
  9
$SURFV
 70
     6
  9
$UCSBASE
  2

  9
$UCSNAME
  2

  9
$UCSORG
 10
0.0
 20
0.0
 30
0.0
  9
$UCSXDIR
 10
1.0
 20
0.0
 30
0.0
  9
$UCSYDIR
 10
0.0
 20
1.0
 30
0.0
  9
$UCSORTHOREF
  2

  9
$UCSORTHOVIEW
 70
     0
  9
$UCSORGTOP
 10
0.0
 20
0.0
 30
0.0
  9
$UCSORGBOTTOM
 10
0.0
 20
0.0
 30
0.0
  9
$UCSORGLEFT
 10
0.0
 20
0.0
 30
0.0
  9
$UCSORGRIGHT
 10
0.0
 20
0.0
 30
0.0
  9
$UCSORGFRONT
 10
0.0
 20
0.0
 30
0.0
  9
$UCSORGBACK
 10
0.0
 20
0.0
 30
0.0
  9
$PUCSBASE
  2

  9
$PUCSNAME
  2

  9
$PUCSORG
 10
0.0
 20
0.0
 30
0.0
  9
$PUCSXDIR
 10
1.0
 20
0.0
 30
0.0
  9
$PUCSYDIR
 10
0.0
 20
1.0
 30
0.0
  9
$PUCSORTHOREF
  2

  9
$PUCSORTHOVIEW
 70
     0
  9
$PUCSORGTOP
 10
0.0
 20
0.0
 30
0.0
  9
$PUCSORGBOTTOM
 10
0.0
 20
0.0
 30
0.0
  9
$PUCSORGLEFT
 10
0.0
 20
0.0
 30
0.0
  9
$PUCSORGRIGHT
 10
0.0
 20
0.0
 30
0.0
  9
$PUCSORGFRONT
 10
0.0
 20
0.0
 30
0.0
  9
$PUCSORGBACK
 10
0.0
 20
0.0
 30
0.0
  9
$USERI1
 70
     0
  9
$USERI2
 70
     0
  9
$USERI3
 70
     0
  9
$USERI4
 70
     0
  9
$USERI5
 70
     0
  9
$USERR1
 40
0.0
  9
$USERR2
 40
0.0
  9
$USERR3
 40
0.0
  9
$USERR4
 40
0.0
  9
$USERR5
 40
0.0
  9
$WORLDVIEW
 70
     1
  9
$SHADEDGE
 70
     3
  9
$SHADEDIF
 70
    70
  9
$TILEMODE
 70
     1
  9
$MAXACTVP
 70
    16
  9
$PINSBASE
 10
0.0
 20
0.0
 30
0.0
  9
$PLIMCHECK
 70
     0
  9
$PEXTMIN
 10
1.000000000000000E+20
 20
1.000000000000000E+20
 30
1.000000000000000E+20
  9
$PEXTMAX
 10
-1.000000000000000E+20
 20
-1.000000000000000E+20
 30
-1.000000000000000E+20
  9
$PLIMMIN
 10
0.0
 20
0.0
  9
$PLIMMAX
 10
420.0
 20
297.0
  9
$UNITMODE
 70
     0
  9
$VISRETAIN
 70
     0
  9
$PLINEGEN
 70
     0
  9
$PSLTSCALE
 70
     0
  9
$TREEDEPTH
 70
  3020
  9
$CMLSTYLE
  2
STANDARD
  9
$CMLJUST
 70
     0
  9
$CMLSCALE
 40
1.0
  9
$PROXYGRAPHICS
 70
     1
  9
$MEASUREMENT
 70
     0
  9
$CELWEIGHT
370
    -1
  9
$ENDCAPS
280
     0
  9
$JOINSTYLE
280
     0
  9
$LWDISPLAY
290
     0
  9
$INSUNITS
 70
     0
  9
$HYPERLINKBASE
  1

  9
$STYLESHEET
  1

  9
$XEDIT
290
     1
  9
$CEPSNTYPE
380
     0
  9
$PSTYLEMODE
290
     1
  9
$FINGERPRINTGUID
  2
{3399FFE3-C3A8-417D-A3F8-9B7A73D4D25B}
  9
$VERSIONGUID
  2
{B18A3F53-7720-4424-B373-31B462D3B0F6}
  9
$EXTNAMES
290
     1
  9
$PSVPSCALE
 40
0.0
  9
$OLESTARTUP
290
     0
  0
ENDSEC
  0
SECTION
  2
CLASSES
  0
CLASS
  1
ACDBDICTIONARYWDFLT
  2
AcDbDictionaryWithDefault
  3
ObjectDBX Classes
 90
        0
280
     0
281
     0
  0
CLASS
  1
ACDBPLACEHOLDER
  2
AcDbPlaceHolder
  3
ObjectDBX Classes
 90
        0
280
     0
281
     0
  0
CLASS
  1
LAYOUT
  2
AcDbLayout
  3
ObjectDBX Classes
 90
        0
280
     0
281
     0
  0
CLASS
  1
DICTIONARYVAR
  2
AcDbDictionaryVar
  3
ObjectDBX Classes
 90
        0
280
     0
281
     0
  0
CLASS
  1
MATERIAL
  2
AcDbMaterial
  3
ObjectDBX Classes
 90
     1153
280
     0
281
     0
  0
CLASS
  1
VISUALSTYLE
  2
AcDbVisualStyle
  3
ObjectDBX Classes
 90
     4095
280
     0
281
     0
  0
CLASS
  1
TABLESTYLE
  2
AcDbTableStyle
  3
ObjectDBX Classes
 90
     4095
280
     0
281
     0
  0
CLASS
  1
SCALE
  2
AcDbScale
  3
ObjectDBX Classes
 90
     1153
280
     0
281
     0
  0
CLASS
  1
MLEADERSTYLE
  2
AcDbMLeaderStyle
  3
ACDB_MLEADERSTYLE_CLASS
 90
     4095
280
     0
281
     0
  0
CLASS
  1
ACDBSECTIONVIEWSTYLE
  2
AcDbSectionViewStyle
  3
ObjectDBX Classes
 90
     1025
280
     0
281
     0
  0
CLASS
  1
ACDBDETAILVIEWSTYLE
  2
AcDbDetailViewStyle
  3
ObjectDBX Classes
 90
     1025
280
     0
281
     0
  0
CLASS
  1
CELLSTYLEMAP
  2
AcDbCellStyleMap
  3
ObjectDBX Classes
 90
     1152
280
     0
281
     0
  0
ENDSEC
  0
SECTION
  2
TABLES
  0
TABLE
  2
VPORT
  5
979E
330
0
100
AcDbSymbolTable
 70
     1
  0
VPORT
  5
9980
330
979E
100
AcDbSymbolTableRecord
100
AcDbViewportTableRecord
  2
*ACTIVE
 70
     0
 10
0.0
 20
0.0
 11
1.0
 21
1.0
 12
343.4700789633329
 22
172.1871193266265
 13
0.0
 23
0.0
 14
10.0
 24
10.0
 15
10.0
 25
10.0
 16
0.0
 26
0.0
 36
1.0
 17
0.0
 27
0.0
 37
0.0
 40
328.0281726157434
 41
1.899603698811096
 42
50.0
 43
0.0
 44
0.0
 50
0.0
 51
0.0
 71
     0
 72
   100
 73
     1
 74
     0
 75
     0
 76
     0
 77
     0
 78
     0
281
     0
 65
     1
110
0.0
120
0.0
130
0.0
111
1.0
121
0.0
131
0.0
112
0.0
122
1.0
132
0.0
 79
     0
146
0.0
1001
ACAD_NAV_VCDISPLAY
1070
     3
  0
ENDTAB
  0
TABLE
  2
LTYPE
  5
979B
330
0
100
AcDbSymbolTable
 70
     4
  0
LTYPE
  5
97A9
330
979B
100
AcDbSymbolTableRecord
100
AcDbLinetypeTableRecord
  2
BYBLOCK
 70
     0
  3

 72
    65
 73
     0
 40
0.0
  0
LTYPE
  5
97AA
330
979B
100
AcDbSymbolTableRecord
100
AcDbLinetypeTableRecord
  2
BYLAYER
 70
     0
  3

 72
    65
 73
     0
 40
0.0
  0
LTYPE
  5
97AB
330
979B
100
AcDbSymbolTableRecord
100
AcDbLinetypeTableRecord
  2
CONTINUOUS
 70
     0
  3
Solid line
 72
    65
 73
     0
 40
0.0
  0
LTYPE
  5
97B9
330
979B
100
AcDbSymbolTableRecord
100
AcDbLinetypeTableRecord
  2
DASHED
 70
     0
  3
__ __ __ __ __ __ __ __ __ __ __ __ __ __ __ __
 72
    65
 73
     2
 40
0.75
 49
0.5
 74
     0
 49
-0.25
 74
     0
  0
LTYPE
  5
97BA
330
979B
100
AcDbSymbolTableRecord
100
AcDbLinetypeTableRecord
  2
CENTER
 70
     0
  3
____ _ ____ _ ____ _ ____ _ ____ _ ____ _ ____ 
 72
    65
 73
     4
 40
2.0
 49
1.25
 74
     0
 49
-0.25
 74
     0
 49
0.25
 74
     0
 49
-0.25
 74
     0
  0
LTYPE
  5
97BB
330
979B
100
AcDbSymbolTableRecord
100
AcDbLinetypeTableRecord
  2
PHANTOM
 70
     0
  3
______  __  __  ______  __  __  ______  __  __ 
 72
    65
 73
     6
 40
2.5
 49
1.25
 74
     0
 49
-0.25
 74
     0
 49
0.25
 74
     0
 49
-0.25
 74
     0
 49
0.25
 74
     0
 49
-0.25
 74
     0
  0
ENDTAB
  0
TABLE
  2
LAYER
  5
9798
330
0
100
AcDbSymbolTable
 70
     8
  0
LAYER
  5
97A6
102
{ACAD_XDICTIONARY
360
99DB
102
}
330
9798
100
AcDbSymbolTableRecord
100
AcDbLayerTableRecord
  2
0
 70
     0
 62
     7
  6
CONTINUOUS
370
    -3
390
9989
  0
LAYER
  5
97BC
102
{ACAD_XDICTIONARY
360
99DD
102
}
330
9798
100
AcDbSymbolTableRecord
100
AcDbLayerTableRecord
  2
4
 70
     0
 62
     1
  6
CENTER
370
    -3
390
9989
  0
LAYER
  5
97BD
102
{ACAD_XDICTIONARY
360
99DF
102
}
330
9798
100
AcDbSymbolTableRecord
100
AcDbLayerTableRecord
  2
5
 70
     0
 62
     6
  6
PHANTOM
370
    -3
390
9989
  0
LAYER
  5
97BE
102
{ACAD_XDICTIONARY
360
99E1
102
}
330
9798
100
AcDbSymbolTableRecord
100
AcDbLayerTableRecord
  2
1
 70
     0
 62
     7
  6
CONTINUOUS
370
    -3
390
9989
  0
LAYER
  5
97BF
102
{ACAD_XDICTIONARY
360
99E3
102
}
330
9798
100
AcDbSymbolTableRecord
100
AcDbLayerTableRecord
  2
2
 70
     0
 62
     4
  6
CONTINUOUS
370
    -3
390
9989
  0
LAYER
  5
97C0
102
{ACAD_XDICTIONARY
360
99E5
102
}
330
9798
100
AcDbSymbolTableRecord
100
AcDbLayerTableRecord
  2
3
 70
     0
 62
     2
  6
DASHED
370
    -3
390
9989
  0
LAYER
  5
97C1
102
{ACAD_XDICTIONARY
360
99E7
102
}
330
9798
100
AcDbSymbolTableRecord
100
AcDbLayerTableRecord
  2
6
 70
     0
 62
     5
  6
CONTINUOUS
370
    -3
390
9989
  0
LAYER
  5
97C2
102
{ACAD_XDICTIONARY
360
99E9
102
}
330
9798
100
AcDbSymbolTableRecord
100
AcDbLayerTableRecord
  2
7
 70
     0
 62
     3
  6
CONTINUOUS
370
    -3
390
9989
  0
ENDTAB
  0
TABLE
  2
STYLE
  5
9799
330
0
100
AcDbSymbolTable
 70
     1
  0
STYLE
  5
97A7
330
9799
100
AcDbSymbolTableRecord
100
AcDbTextStyleTableRecord
  2
STANDARD
 70
     0
 40
0.0
 41
1.0
 50
0.0
 71
     0
 42
5.0
  3
txt
  4

  0
ENDTAB
  0
TABLE
  2
VIEW
  5
979C
330
0
100
AcDbSymbolTable
 70
     0
  0
ENDTAB
  0
TABLE
  2
UCS
  5
979D
330
0
100
AcDbSymbolTable
 70
     0
  0
ENDTAB
  0
TABLE
  2
APPID
  5
979F
330
0
100
AcDbSymbolTable
 70
     3
  0
APPID
  5
97A8
330
979F
100
AcDbSymbolTableRecord
100
AcDbRegAppTableRecord
  2
ACAD
 70
     0
  0
APPID
  5
99F5
330
979F
100
AcDbSymbolTableRecord
100
AcDbRegAppTableRecord
  2
ACAD_NAV_VCDISPLAY
 70
     0
  0
APPID
  5
9A2E
330
979F
100
AcDbSymbolTableRecord
100
AcDbRegAppTableRecord
  2
ACAD_MLEADERVER
 70
     0
  0
ENDTAB
  0
TABLE
  2
DIMSTYLE
  5
97A0
330
0
100
AcDbSymbolTable
 70
     1
100
AcDbDimStyleTable
 71
     0
  0
DIMSTYLE
105
97C4
330
97A0
100
AcDbSymbolTableRecord
100
AcDbDimStyleTableRecord
  2
STANDARD
 70
     0
 41
3.0
 42
1.0
 43
10.0
 44
1.0
 73
     0
 74
     0
 77
     3
 78
     8
140
3.2
141
0.0
147
1.0
172
     1
173
     1
284
     8
285
     8
286
     8
340
97A7
  0
ENDTAB
  0
TABLE
  2
BLOCK_RECORD
  5
9797
330
0
100
AcDbSymbolTable
 70
     0
  0
BLOCK_RECORD
  5
97B4
102
{ACAD_XDICTIONARY
360
9983
102
}
330
9797
100
AcDbSymbolTableRecord
100
AcDbBlockTableRecord
  2
*MODEL_SPACE
340
99D7
  0
BLOCK_RECORD
  5
97B0
102
{ACAD_XDICTIONARY
360
9981
102
}
330
9797
100
AcDbSymbolTableRecord
100
AcDbBlockTableRecord
  2
*PAPER_SPACE
340
99D8
  0
ENDTAB
  0
ENDSEC
  0
SECTION
  2
BLOCKS
  0
BLOCK
  5
97B5
330
97B4
100
AcDbEntity
  8
0
100
AcDbBlockBegin
  2
*MODEL_SPACE
 70
     0
 10
0.0
 20
0.0
 30
0.0
  3
*MODEL_SPACE
  1

  0
ENDBLK
  5
97B6
330
97B4
100
AcDbEntity
  8
0
100
AcDbBlockEnd
  0
BLOCK
  5
97B1
330
97B0
100
AcDbEntity
 67
     1
  8
0
100
AcDbBlockBegin
  2
*PAPER_SPACE
 70
     0
 10
0.0
 20
0.0
 30
0.0
  3
*PAPER_SPACE
  1

  0
ENDBLK
  5
97B2
330
97B0
100
AcDbEntity
 67
     1
  8
0
100
AcDbBlockEnd
  0
ENDSEC
  0
SECTION
  2
ENTITIES
  0
TEXT
  5
97CC
330
97B4
100
AcDbEntity
  8
7
  6
Continuous
100
AcDbText
 10
10.0
 20
18.0
 30
0.0
 40
3.0
  1
TYPE No.TL-164
100
AcDbText
  0
TEXT
  5
97CD
330
97B4
100
AcDbEntity
  8
7
  6
Continuous
100
AcDbText
 10
10.0
 20
26.0
 30
0.0
 40
3.0
  1
CODE No.1097
100
AcDbText
  0
TEXT
  5
97CE
330
97B4
100
AcDbEntity
  8
1
  6
Continuous
100
AcDbText
 10
10.0
 20
10.0
 30
0.0
 40
1.399999999999999
  1
LAYER
100
AcDbText
  0
TEXT
  5
97CF
330
97B4
100
AcDbEntity
  8
1
  6
Continuous
100
AcDbText
 10
17.97951099999998
 20
10.04873699999998
 30
0.0
 40
1.399999999999999
  1
1
100
AcDbText
  0
TEXT
  5
97D0
330
97B4
100
AcDbEntity
  8
7
  6
Continuous
100
AcDbText
 10
29.97951099999999
 20
10.04873699999998
 30
0.0
 40
1.399999999999999
  1
7
100
AcDbText
  0
TEXT
  5
97D1
330
97B4
100
AcDbEntity
  8
4
  6
CENTER
100
AcDbText
 10
23.97951099999999
 20
10.04873699999998
 30
0.0
 40
1.399999999999999
  1
4
100
AcDbText
  0
TEXT
  5
97D2
330
97B4
100
AcDbEntity
  8
3
  6
DASHED
100
AcDbText
 10
21.979511
 20
10.04873699999998
 30
0.0
 40
1.399999999999999
  1
3
100
AcDbText
  0
TEXT
  5
97D3
330
97B4
100
AcDbEntity
  8
2
  6
Continuous
100
AcDbText
 10
19.97951099999999
 20
10.04873699999998
 30
0.0
 40
1.399999999999999
  1
2
100
AcDbText
  0
TEXT
  5
97D4
330
97B4
100
AcDbEntity
  8
6
  6
Continuous
100
AcDbText
 10
27.979511
 20
10.04873699999998
 30
0.0
 40
1.399999999999999
  1
6
100
AcDbText
  0
TEXT
  5
97D5
330
97B4
100
AcDbEntity
  8
5
  6
PHANTOM
100
AcDbText
 10
25.97951099999999
 20
10.04873699999998
 30
0.0
 40
1.399999999999999
  1
5
100
AcDbText
  0
LINE
  5
97D6
330
97B4
100
AcDbEntity
  8
1
  6
Continuous
100
AcDbLine
 10
94.247148
 20
252.961845
 30
0.0
 11
94.247148
 21
282.9618449999999
 31
0.0
  0
LINE
  5
97D7
330
97B4
100
AcDbEntity
  8
1
  6
Continuous
100
AcDbLine
 10
101.2471479999999
 20
252.961845
 30
0.0
 11
101.2471479999999
 21
282.9618449999999
 31
0.0
  0
LINE
  5
97D8
330
97B4
100
AcDbEntity
  8
1
  6
Continuous
100
AcDbLine
 10
95.24714799999999
 20
283.9618449999999
 30
0.0
 11
100.247148
 21
283.9618449999999
 31
0.0
  0
LINE
  5
97D9
330
97B4
100
AcDbEntity
  8
1
  6
Continuous
100
AcDbLine
 10
95.24714799999999
 20
251.961845
 30
0.0
 11
100.247148
 21
251.961845
 31
0.0
  0
LINE
  5
97DA
330
97B4
100
AcDbEntity
  8
1
  6
Continuous
100
AcDbLine
 10
94.247148
 20
270.9618449999999
 30
0.0
 11
101.2471479999999
 21
270.9618449999999
 31
0.0
  0
LINE
  5
97DB
330
97B4
100
AcDbEntity
  8
1
  6
Continuous
100
AcDbLine
 10
94.247148
 20
264.9618449999999
 30
0.0
 11
101.2471479999999
 21
264.9618449999999
 31
0.0
  0
LINE
  5
97DC
330
97B4
100
AcDbEntity
  8
1
  6
Continuous
100
AcDbLine
 10
94.247148
 20
270.9618449999999
 30
0.0
 11
95.147142
 21
267.9618449999999
 31
0.0
  0
LINE
  5
97DD
330
97B4
100
AcDbEntity
  8
1
  6
Continuous
100
AcDbLine
 10
95.14715700000001
 20
267.9618759999998
 30
0.0
 11
94.247148
 21
264.9618449999999
 31
0.0
  0
LINE
  5
97DE
330
97B4
100
AcDbEntity
  8
1
  6
Continuous
100
AcDbLine
 10
101.2471479999999
 20
264.9618449999999
 30
0.0
 11
100.347139
 21
267.9618759999998
 31
0.0
  0
LINE
  5
97DF
330
97B4
100
AcDbEntity
  8
1
  6
Continuous
100
AcDbLine
 10
100.347154
 20
267.9618449999999
 30
0.0
 11
101.247163
 21
270.9618759999999
 31
0.0
  0
LINE
  5
97E0
330
97B4
100
AcDbEntity
  8
4
  6
CENTER
100
AcDbLine
 10
94.247148
 20
280.4618449999999
 30
0.0
 11
101.2471479999999
 21
280.4618449999999
 31
0.0
  0
LINE
  5
97E1
330
97B4
100
AcDbEntity
  8
4
  6
CENTER
100
AcDbLine
 10
94.247148
 20
255.4618449999999
 30
0.0
 11
101.2471479999999
 21
255.4618449999999
 31
0.0
  0
LINE
  5
97E2
330
97B4
100
AcDbEntity
  8
1
  6
Continuous
100
AcDbLine
 10
191.1440599999999
 20
283.9618449999999
 30
0.0
 11
192.14406
 21
283.9618449999999
 31
0.0
  0
LINE
  5
97E3
330
97B4
100
AcDbEntity
  8
1
  6
Continuous
100
AcDbLine
 10
191.1440599999999
 20
251.961845
 30
0.0
 11
192.14406
 21
251.961845
 31
0.0
  0
LINE
  5
97E4
330
97B4
100
AcDbEntity
  8
1
  6
Continuous
100
AcDbLine
 10
192.14406
 20
251.961845
 30
0.0
 11
192.14406
 21
264.4618449999999
 31
0.0
  0
LINE
  5
97E5
330
97B4
100
AcDbEntity
  8
1
  6
Continuous
100
AcDbLine
 10
191.1440599999999
 20
271.4618449999999
 30
0.0
 11
191.1440599999999
 21
283.9618449999999
 31
0.0
  0
LINE
  5
97E6
330
97B4
100
AcDbEntity
  8
1
  6
Continuous
100
AcDbLine
 10
185.9190989999999
 20
266.9618449999999
 30
0.0
 11
188.64406
 21
266.9618449999999
 31
0.0
  0
LINE
  5
97E7
330
97B4
100
AcDbEntity
  8
1
  6
Continuous
100
AcDbLine
 10
185.9190989999999
 20
268.9618449999999
 30
0.0
 11
188.64406
 21
268.9618449999999
 31
0.0
  0
LINE
  5
97E8
330
97B4
100
AcDbEntity
  8
1
  6
Continuous
100
AcDbLine
 10
177.872316
 20
266.6756209999999
 30
0.0
 11
180.3723159999999
 21
265.1756209999999
 31
0.0
  0
LINE
  5
97E9
330
97B4
100
AcDbEntity
  8
1
  6
Continuous
100
AcDbLine
 10
184.4660199999999
 20
266.586479
 30
0.0
 11
181.870592
 21
265.149559
 31
0.0
  0
LINE
  5
97EA
330
97B4
100
AcDbEntity
  8
1
  6
Continuous
100
AcDbLine
 10
184.4660199999999
 20
269.3372729999999
 30
0.0
 11
181.870607
 21
270.7741619999998
 31
0.0
  0
LINE
  5
97EB
330
97B4
100
AcDbEntity
  8
1
  6
Continuous
100
AcDbLine
 10
177.872331
 20
269.2480699999999
 30
0.0
 11
180.372346
 21
270.7481
 31
0.0
  0
LINE
  5
97EC
330
97B4
100
AcDbEntity
  8
1
  6
Continuous
100
AcDbLine
 10
183.9816599999998
 20
268.462395
 30
0.0
 11
181.386247
 21
269.899315
 31
0.0
  0
LINE
  5
97ED
330
97B4
100
AcDbEntity
  8
1
  6
Continuous
100
AcDbLine
 10
183.9816599999998
 20
267.461327
 30
0.0
 11
181.386232
 21
266.024406
 31
0.0
  0
LINE
  5
97EE
330
97B4
100
AcDbEntity
  8
1
  6
Continuous
100
AcDbLine
 10
178.386827
 20
268.3905869999999
 30
0.0
 11
180.8868419999998
 21
269.890617
 31
0.0
  0
LINE
  5
97EF
330
97B4
100
AcDbEntity
  8
1
  6
Continuous
100
AcDbLine
 10
178.3868119999999
 20
267.5331039999999
 30
0.0
 11
180.8868119999999
 21
266.0331039999999
 31
0.0
  0
LINE
  5
97F0
330
97B4
100
AcDbEntity
  8
4
  6
CENTER
100
AcDbLine
 10
175.14406
 20
267.9618449999999
 30
0.0
 11
194.1440599999999
 21
267.9618449999999
 31
0.0
  0
LINE
  5
97F1
330
97B4
100
AcDbEntity
  8
4
  6
CENTER
100
AcDbLine
 10
189.1440599999999
 20
280.4618449999999
 30
0.0
 11
194.1440599999999
 21
280.4618449999999
 31
0.0
  0
LINE
  5
97F2
330
97B4
100
AcDbEntity
  8
4
  6
CENTER
100
AcDbLine
 10
189.1440599999999
 20
255.4618449999999
 30
0.0
 11
194.1440599999999
 21
255.4618449999999
 31
0.0
  0
LINE
  5
97F3
330
97B4
100
AcDbEntity
  8
1
  6
Continuous
100
AcDbLine
 10
36.784562
 20
41.961861
 30
0.0
 11
36.784562
 21
83.96186099999999
 31
0.0
  0
LINE
  5
97F4
330
97B4
100
AcDbEntity
  8
1
  6
Continuous
100
AcDbLine
 10
21.784562
 20
46.961861
 30
0.0
 11
21.784562
 21
78.961861
 31
0.0
  0
LINE
  5
97F5
330
97B4
100
AcDbEntity
  8
1
  6
Continuous
100
AcDbLine
 10
170.9753429999999
 20
62.96186099999999
 30
0.0
 11
174.4753429999999
 21
62.96186099999999
 31
0.0
  0
LINE
  5
97F6
330
97B4
100
AcDbEntity
  8
1
  6
Continuous
100
AcDbLine
 10
25.08456199999999
 20
86.46186099999999
 30
0.0
 11
34.284562
 21
86.46186099999999
 31
0.0
  0
LINE
  5
97F7
330
97B4
100
AcDbEntity
  8
1
  6
Continuous
100
AcDbLine
 10
25.08456199999999
 20
39.461861
 30
0.0
 11
34.284562
 21
39.461861
 31
0.0
  0
LINE
  5
97F8
330
97B4
100
AcDbEntity
  8
1
  6
Continuous
100
AcDbLine
 10
22.58456199999999
 20
41.961861
 30
0.0
 11
22.58456199999999
 21
47.661858
 31
0.0
  0
LINE
  5
97F9
330
97B4
100
AcDbEntity
  8
1
  6
Continuous
100
AcDbLine
 10
22.58456199999999
 20
45.96186099999999
 30
0.0
 11
36.784562
 21
45.96186099999999
 31
0.0
  0
LINE
  5
97FA
330
97B4
100
AcDbEntity
  8
1
  6
Continuous
100
AcDbLine
 10
22.58456199999999
 20
79.961861
 30
0.0
 11
36.784562
 21
79.961861
 31
0.0
  0
LINE
  5
97FB
330
97B4
100
AcDbEntity
  8
1
  6
Continuous
100
AcDbLine
 10
21.784562
 20
78.961861
 30
0.0
 11
36.784562
 21
78.961861
 31
0.0
  0
LINE
  5
97FC
330
97B4
100
AcDbEntity
  8
1
  6
Continuous
100
AcDbLine
 10
21.784562
 20
46.961861
 30
0.0
 11
36.784562
 21
46.961861
 31
0.0
  0
LINE
  5
97FD
330
97B4
100
AcDbEntity
  8
1
  6
Continuous
100
AcDbLine
 10
21.784562
 20
47.661858
 30
0.0
 11
22.58456199999999
 21
47.661858
 31
0.0
  0
LINE
  5
97FE
330
97B4
100
AcDbEntity
  8
1
  6
Continuous
100
AcDbLine
 10
21.784562
 20
78.26185600000002
 30
0.0
 11
22.58456199999999
 21
78.26185600000002
 31
0.0
  0
LINE
  5
97FF
330
97B4
100
AcDbEntity
  8
1
  6
Continuous
100
AcDbLine
 10
22.58456199999999
 20
78.26185600000002
 30
0.0
 11
22.58456199999999
 21
83.96186099999999
 31
0.0
  0
LINE
  5
9800
330
97B4
100
AcDbEntity
  8
4
  6
CENTER
100
AcDbLine
 10
26.984563
 20
78.461861
 30
0.0
 11
26.984563
 21
70.46186099999999
 31
0.0
  0
LINE
  5
9801
330
97B4
100
AcDbEntity
  8
4
  6
CENTER
100
AcDbLine
 10
22.984563
 20
74.461861
 30
0.0
 11
30.984563
 21
74.461861
 31
0.0
  0
LINE
  5
9802
330
97B4
100
AcDbEntity
  8
4
  6
CENTER
100
AcDbLine
 10
22.984563
 20
51.461861
 30
0.0
 11
30.984563
 21
51.461861
 31
0.0
  0
LINE
  5
9803
330
97B4
100
AcDbEntity
  8
4
  6
CENTER
100
AcDbLine
 10
26.984563
 20
47.461861
 30
0.0
 11
26.984563
 21
55.46186099999999
 31
0.0
  0
LINE
  5
9804
330
97B4
100
AcDbEntity
  8
1
  6
Continuous
100
AcDbLine
 10
31.784562
 20
67.211861
 30
0.0
 11
31.784562
 21
71.611862
 31
0.0
  0
LINE
  5
9805
330
97B4
100
AcDbEntity
  8
1
  6
Continuous
100
AcDbLine
 10
35.38456099999999
 20
67.211861
 30
0.0
 11
35.38456099999999
 21
71.611862
 31
0.0
  0
LINE
  5
9806
330
97B4
100
AcDbEntity
  8
4
  6
CENTER
100
AcDbLine
 10
30.584562
 20
67.211861
 30
0.0
 11
36.58456599999999
 21
67.211861
 31
0.0
  0
LINE
  5
9807
330
97B4
100
AcDbEntity
  8
1
  6
Continuous
100
AcDbLine
 10
35.38456099999999
 20
58.711861
 30
0.0
 11
35.38456099999999
 21
54.311859
 31
0.0
  0
LINE
  5
9808
330
97B4
100
AcDbEntity
  8
4
  6
CENTER
100
AcDbLine
 10
33.58456599999998
 20
75.41185799999998
 30
0.0
 11
33.58456599999998
 21
50.511856
 31
0.0
  0
LINE
  5
9809
330
97B4
100
AcDbEntity
  8
1
  6
Continuous
100
AcDbLine
 10
31.784562
 20
58.711861
 30
0.0
 11
31.784562
 21
54.311859
 31
0.0
  0
LINE
  5
980A
330
97B4
100
AcDbEntity
  8
4
  6
CENTER
100
AcDbLine
 10
30.584562
 20
58.711861
 30
0.0
 11
36.58456599999999
 21
58.711861
 31
0.0
  0
LINE
  5
980B
330
97B4
100
AcDbEntity
  8
1
  6
Continuous
100
AcDbLine
 10
168.2253429999998
 20
57.111862
 30
0.0
 11
168.2253429999998
 21
60.311859
 31
0.0
  0
LINE
  5
980C
330
97B4
100
AcDbEntity
  8
1
  6
Continuous
100
AcDbLine
 10
182.2253429999999
 20
79.96182199999998
 30
0.0
 11
182.2253429999999
 21
86.46186099999999
 31
0.0
  0
LINE
  5
980D
330
97B4
100
AcDbEntity
  8
1
  6
Continuous
100
AcDbLine
 10
181.5253459999999
 20
86.46186099999999
 30
0.0
 11
182.2253429999999
 21
86.46186099999999
 31
0.0
  0
LINE
  5
980E
330
97B4
100
AcDbEntity
  8
1
  6
Continuous
100
AcDbLine
 10
170.2253429999998
 20
47.96186099999999
 30
0.0
 11
170.2253429999998
 21
77.96186099999999
 31
0.0
  0
LINE
  5
980F
330
97B4
100
AcDbEntity
  8
1
  6
Continuous
100
AcDbLine
 10
181.5253459999999
 20
39.461861
 30
0.0
 11
181.5253459999999
 21
45.96186099999999
 31
0.0
  0
LINE
  5
9810
330
97B4
100
AcDbEntity
  8
1
  6
Continuous
100
AcDbLine
 10
171.2253429999998
 20
78.961861
 30
0.0
 11
179.2253429999999
 21
78.961861
 31
0.0
  0
LINE
  5
9811
330
97B4
100
AcDbEntity
  8
1
  6
Continuous
100
AcDbLine
 10
179.9253549999999
 20
46.961861
 30
0.0
 11
179.9253549999999
 21
78.961861
 31
0.0
  0
LINE
  5
9812
330
97B4
100
AcDbEntity
  8
1
  6
Continuous
100
AcDbLine
 10
170.9253549999999
 20
78.26185600000002
 30
0.0
 11
179.2253429999999
 21
78.26185600000002
 31
0.0
  0
LINE
  5
9813
330
97B4
100
AcDbEntity
  8
1
  6
Continuous
100
AcDbLine
 10
170.9253549999999
 20
47.661858
 30
0.0
 11
170.9253549999999
 21
78.26185600000002
 31
0.0
  0
LINE
  5
9814
330
97B4
100
AcDbEntity
  8
1
  6
Continuous
100
AcDbLine
 10
170.9253549999999
 20
47.661858
 30
0.0
 11
179.2253429999999
 21
47.661858
 31
0.0
  0
LINE
  5
9815
330
97B4
100
AcDbEntity
  8
1
  6
Continuous
100
AcDbLine
 10
171.2253429999998
 20
46.961861
 30
0.0
 11
179.2253429999999
 21
46.961861
 31
0.0
  0
LINE
  5
9816
330
97B4
100
AcDbEntity
  8
1
  6
Continuous
100
AcDbLine
 10
181.5253459999999
 20
39.461861
 30
0.0
 11
182.2253429999999
 21
39.461861
 31
0.0
  0
LINE
  5
9817
330
97B4
100
AcDbEntity
  8
1
  6
Continuous
100
AcDbLine
 10
182.2253429999999
 20
45.963962
 30
0.0
 11
182.2253429999999
 21
39.461861
 31
0.0
  0
LINE
  5
9818
330
97B4
100
AcDbEntity
  8
1
  6
Continuous
100
AcDbLine
 10
170.9753429999999
 20
71.461861
 30
0.0
 11
174.4753429999999
 21
71.461861
 31
0.0
  0
LINE
  5
9819
330
97B4
100
AcDbEntity
  8
1
  6
Continuous
100
AcDbLine
 10
174.4753429999999
 20
69.711861
 30
0.0
 11
174.786348
 21
69.711861
 31
0.0
  0
LINE
  5
981A
330
97B4
100
AcDbEntity
  8
1
  6
Continuous
100
AcDbLine
 10
174.4753429999999
 20
64.711861
 30
0.0
 11
175.6753549999999
 21
64.711861
 31
0.0
  0
LINE
  5
981B
330
97B4
100
AcDbEntity
  8
1
  6
Continuous
100
AcDbLine
 10
179.1753549999999
 20
62.96186099999999
 30
0.0
 11
175.6753549999999
 21
62.96186099999999
 31
0.0
  0
LINE
  5
981C
330
97B4
100
AcDbEntity
  8
1
  6
Continuous
100
AcDbLine
 10
179.1753549999999
 20
71.461861
 30
0.0
 11
175.6753549999999
 21
71.461861
 31
0.0
  0
LINE
  5
981D
330
97B4
100
AcDbEntity
  8
4
  6
CENTER
100
AcDbLine
 10
166.2253429999998
 20
58.711861
 30
0.0
 11
183.925355
 21
58.711861
 31
0.0
  0
LINE
  5
981E
330
97B4
100
AcDbEntity
  8
1
  6
Continuous
100
AcDbLine
 10
170.9753429999999
 20
54.461861
 30
0.0
 11
174.4753429999999
 21
54.461861
 31
0.0
  0
LINE
  5
981F
330
97B4
100
AcDbEntity
  8
1
  6
Continuous
100
AcDbLine
 10
174.4753429999999
 20
56.211861
 30
0.0
 11
174.786348
 21
56.211861
 31
0.0
  0
LINE
  5
9820
330
97B4
100
AcDbEntity
  8
1
  6
Continuous
100
AcDbLine
 10
174.4753429999999
 20
61.211861
 30
0.0
 11
175.6753549999999
 21
61.211861
 31
0.0
  0
LINE
  5
9821
330
97B4
100
AcDbEntity
  8
1
  6
Continuous
100
AcDbLine
 10
179.1753549999999
 20
54.461861
 30
0.0
 11
175.6753549999999
 21
54.461861
 31
0.0
  0
LINE
  5
9822
330
97B4
100
AcDbEntity
  8
1
  6
Continuous
100
AcDbLine
 10
168.2253429999998
 20
57.111862
 30
0.0
 11
170.2253429999998
 21
57.111862
 31
0.0
  0
LINE
  5
9823
330
97B4
100
AcDbEntity
  8
1
  6
Continuous
100
AcDbLine
 10
168.2253429999998
 20
60.311859
 30
0.0
 11
170.2253429999998
 21
60.311859
 31
0.0
  0
LINE
  5
9824
330
97B4
100
AcDbEntity
  8
1
  6
Continuous
100
AcDbLine
 10
168.2253429999998
 20
68.811859
 30
0.0
 11
168.2253429999998
 21
65.611862
 31
0.0
  0
LINE
  5
9825
330
97B4
100
AcDbEntity
  8
1
  6
Continuous
100
AcDbLine
 10
168.2253429999998
 20
68.811859
 30
0.0
 11
170.2253429999998
 21
68.811859
 31
0.0
  0
LINE
  5
9826
330
97B4
100
AcDbEntity
  8
1
  6
Continuous
100
AcDbLine
 10
168.2253429999998
 20
65.611862
 30
0.0
 11
170.2253429999998
 21
65.611862
 31
0.0
  0
LINE
  5
9827
330
97B4
100
AcDbEntity
  8
1
  6
Continuous
100
AcDbLine
 10
181.9253549999999
 20
57.111862
 30
0.0
 11
181.9253549999999
 21
60.311859
 31
0.0
  0
LINE
  5
9828
330
97B4
100
AcDbEntity
  8
4
  6
CENTER
100
AcDbLine
 10
181.9253549999999
 20
62.96186099999999
 30
0.0
 11
168.2253429999998
 21
62.96186099999999
 31
0.0
  0
LINE
  5
9829
330
97B4
100
AcDbEntity
  8
1
  6
Continuous
100
AcDbLine
 10
181.9253549999999
 20
57.111862
 30
0.0
 11
179.9253549999999
 21
57.111862
 31
0.0
  0
LINE
  5
982A
330
97B4
100
AcDbEntity
  8
1
  6
Continuous
100
AcDbLine
 10
181.9253549999999
 20
60.311859
 30
0.0
 11
179.9253549999999
 21
60.311859
 31
0.0
  0
LINE
  5
982B
330
97B4
100
AcDbEntity
  8
1
  6
Continuous
100
AcDbLine
 10
181.9253549999999
 20
68.811859
 30
0.0
 11
181.9253549999999
 21
65.611862
 31
0.0
  0
LINE
  5
982C
330
97B4
100
AcDbEntity
  8
1
  6
Continuous
100
AcDbLine
 10
181.9253549999999
 20
68.811859
 30
0.0
 11
179.9253549999999
 21
68.811859
 31
0.0
  0
LINE
  5
982D
330
97B4
100
AcDbEntity
  8
1
  6
Continuous
100
AcDbLine
 10
181.9253549999999
 20
65.611862
 30
0.0
 11
179.9253549999999
 21
65.611862
 31
0.0
  0
LINE
  5
982E
330
97B4
100
AcDbEntity
  8
1
  6
Continuous
100
AcDbLine
 10
181.5253459999999
 20
79.96182199999998
 30
0.0
 11
181.5253459999999
 21
86.46186099999999
 31
0.0
  0
LINE
  5
982F
330
97B4
100
AcDbEntity
  8
1
  6
Continuous
100
AcDbLine
 10
179.2253429999999
 20
75.711861
 30
0.0
 11
174.241792
 21
75.711861
 31
0.0
  0
LINE
  5
9830
330
97B4
100
AcDbEntity
  8
1
  6
Continuous
100
AcDbLine
 10
179.2253429999999
 20
73.211861
 30
0.0
 11
174.460527
 21
73.211861
 31
0.0
  0
LINE
  5
9831
330
97B4
100
AcDbEntity
  8
1
  6
Continuous
100
AcDbLine
 10
179.9253549999999
 20
75.811859
 30
0.0
 11
179.9253549999999
 21
75.811859
 31
0.0
  0
LINE
  5
9832
330
97B4
100
AcDbEntity
  8
1
  6
Continuous
100
AcDbLine
 10
179.9253549999999
 20
73.111862
 30
0.0
 11
179.9253549999999
 21
73.111862
 31
0.0
  0
LINE
  5
9833
330
97B4
100
AcDbEntity
  8
1
  6
Continuous
100
AcDbLine
 10
172.390153
 20
72.78135699999999
 30
0.0
 11
172.1014419999999
 21
76.08135199999998
 31
0.0
  0
LINE
  5
9834
330
97B4
100
AcDbEntity
  8
1
  6
Continuous
100
AcDbLine
 10
173.087495
 20
72.84236099999998
 30
0.0
 11
172.798784
 21
76.142364
 31
0.0
  0
LINE
  5
9835
330
97B4
100
AcDbEntity
  8
1
  6
Continuous
100
AcDbLine
 10
180.425355
 20
73.611862
 30
0.0
 11
180.425355
 21
75.311859
 31
0.0
  0
LINE
  5
9836
330
97B4
100
AcDbEntity
  8
4
  6
CENTER
100
AcDbLine
 10
281.040971
 20
280.4618449999999
 30
0.0
 11
274.040971
 21
280.4618449999999
 31
0.0
  0
LINE
  5
9837
330
97B4
100
AcDbEntity
  8
4
  6
CENTER
100
AcDbLine
 10
281.040971
 20
255.4618449999999
 30
0.0
 11
274.040971
 21
255.4618449999999
 31
0.0
  0
LINE
  5
9838
330
97B4
100
AcDbEntity
  8
4
  6
CENTER
100
AcDbLine
 10
283.0409709999999
 20
267.9618449999999
 30
0.0
 11
272.040971
 21
267.9618449999999
 31
0.0
  0
LINE
  5
9839
330
97B4
100
AcDbEntity
  8
4
  6
CENTER
100
AcDbLine
 10
277.540971
 20
249.961845
 30
0.0
 11
277.540971
 21
285.9618449999999
 31
0.0
  0
LINE
  5
983A
330
97B4
100
AcDbEntity
  8
1
  6
Continuous
100
AcDbLine
 10
281.040971
 20
252.961845
 30
0.0
 11
281.040971
 21
282.9618449999999
 31
0.0
  0
LINE
  5
983B
330
97B4
100
AcDbEntity
  8
1
  6
Continuous
100
AcDbLine
 10
274.040971
 20
252.961845
 30
0.0
 11
274.040971
 21
282.9618449999999
 31
0.0
  0
LINE
  5
983C
330
97B4
100
AcDbEntity
  8
1
  6
Continuous
100
AcDbLine
 10
280.040971
 20
251.961845
 30
0.0
 11
275.040971
 21
251.961845
 31
0.0
  0
LINE
  5
983D
330
97B4
100
AcDbEntity
  8
1
  6
Continuous
100
AcDbLine
 10
280.040971
 20
283.9618449999999
 30
0.0
 11
275.040971
 21
283.9618449999999
 31
0.0
  0
LINE
  5
983E
330
97B4
100
AcDbEntity
  8
1
  6
Continuous
100
AcDbLine
 10
191.1440599999999
 20
251.961845
 30
0.0
 11
191.1440599999999
 21
264.4618449999999
 31
0.0
  0
LINE
  5
983F
330
97B4
100
AcDbEntity
  8
1
  6
Continuous
100
AcDbLine
 10
192.14406
 20
271.4618449999999
 30
0.0
 11
192.14406
 21
283.9618449999999
 31
0.0
  0
LINE
  5
9840
330
97B4
100
AcDbEntity
  8
1
  6
Continuous
100
AcDbLine
 10
177.14406
 20
328.2761459999999
 30
0.0
 11
177.14406
 21
333.4761579999999
 31
0.0
  0
LINE
  5
9841
330
97B4
100
AcDbEntity
  8
1
  6
Continuous
100
AcDbLine
 10
192.14406
 20
327.3761519999998
 30
0.0
 11
192.14406
 21
334.376152
 31
0.0
  0
LINE
  5
9842
330
97B4
100
AcDbEntity
  8
1
  6
Continuous
100
AcDbLine
 10
181.1139609999999
 20
327.3761519999998
 30
0.0
 11
192.14406
 21
327.3761519999998
 31
0.0
  0
LINE
  5
9843
330
97B4
100
AcDbEntity
  8
1
  6
Continuous
100
AcDbLine
 10
181.1139
 20
334.376152
 30
0.0
 11
192.14406
 21
334.376152
 31
0.0
  0
LINE
  5
9844
330
97B4
100
AcDbEntity
  8
1
  6
Continuous
100
AcDbLine
 10
191.1440599999999
 20
327.3761519999998
 30
0.0
 11
191.1440599999999
 21
334.376152
 31
0.0
  0
LINE
  5
9845
330
97B4
100
AcDbEntity
  8
4
  6
CENTER
100
AcDbLine
 10
332.031206
 20
58.711861
 30
0.0
 11
326.0312059999999
 21
58.711861
 31
0.0
  0
LINE
  5
9846
330
97B4
100
AcDbEntity
  8
1
  6
Continuous
100
AcDbLine
 10
330.831224
 20
58.711861
 30
0.0
 11
330.831224
 21
54.311859
 31
0.0
  0
LINE
  5
9847
330
97B4
100
AcDbEntity
  8
4
  6
CENTER
100
AcDbLine
 10
329.031206
 20
75.41185799999998
 30
0.0
 11
329.031206
 21
50.511856
 31
0.0
  0
LINE
  5
9848
330
97B4
100
AcDbEntity
  8
1
  6
Continuous
100
AcDbLine
 10
327.231218
 20
58.711861
 30
0.0
 11
327.231218
 21
54.311859
 31
0.0
  0
LINE
  5
9849
330
97B4
100
AcDbEntity
  8
1
  6
Continuous
100
AcDbLine
 10
327.231218
 20
67.211861
 30
0.0
 11
327.231218
 21
71.611862
 31
0.0
  0
LINE
  5
984A
330
97B4
100
AcDbEntity
  8
1
  6
Continuous
100
AcDbLine
 10
330.831224
 20
67.211861
 30
0.0
 11
330.831224
 21
71.611862
 31
0.0
  0
LINE
  5
984B
330
97B4
100
AcDbEntity
  8
4
  6
CENTER
100
AcDbLine
 10
332.031206
 20
67.211861
 30
0.0
 11
326.0312059999999
 21
67.211861
 31
0.0
  0
LINE
  5
984C
330
97B4
100
AcDbEntity
  8
1
  6
Continuous
100
AcDbLine
 10
340.031206
 20
78.961861
 30
0.0
 11
340.031206
 21
83.96186099999999
 31
0.0
  0
LINE
  5
984D
330
97B4
100
AcDbEntity
  8
1
  6
Continuous
100
AcDbLine
 10
340.831224
 20
78.961861
 30
0.0
 11
325.831224
 21
78.961861
 31
0.0
  0
LINE
  5
984E
330
97B4
100
AcDbEntity
  8
1
  6
Continuous
100
AcDbLine
 10
340.031206
 20
41.961861
 30
0.0
 11
340.031206
 21
46.961861
 31
0.0
  0
LINE
  5
984F
330
97B4
100
AcDbEntity
  8
1
  6
Continuous
100
AcDbLine
 10
337.531206
 20
39.461861
 30
0.0
 11
328.331224
 21
39.461861
 31
0.0
  0
LINE
  5
9850
330
97B4
100
AcDbEntity
  8
1
  6
Continuous
100
AcDbLine
 10
337.531206
 20
86.46186099999999
 30
0.0
 11
328.331224
 21
86.46186099999999
 31
0.0
  0
LINE
  5
9851
330
97B4
100
AcDbEntity
  8
1
  6
Continuous
100
AcDbLine
 10
340.831224
 20
46.961861
 30
0.0
 11
325.831224
 21
46.961861
 31
0.0
  0
LINE
  5
9852
330
97B4
100
AcDbEntity
  8
1
  6
Continuous
100
AcDbLine
 10
325.831224
 20
41.961861
 30
0.0
 11
325.831224
 21
83.96186099999999
 31
0.0
  0
LINE
  5
9853
330
97B4
100
AcDbEntity
  8
1
  6
Continuous
100
AcDbLine
 10
340.831224
 20
46.961861
 30
0.0
 11
340.831224
 21
78.961861
 31
0.0
  0
LINE
  5
9854
330
97B4
100
AcDbEntity
  8
4
  6
CENTER
100
AcDbLine
 10
342.831224
 20
62.96186099999999
 30
0.0
 11
322.781206
 21
62.96186099999999
 31
0.0
  0
LINE
  5
9855
330
97B4
100
AcDbEntity
  8
1
  6
Continuous
100
AcDbLine
 10
182.2253429999999
 20
177.867973
 30
0.0
 11
182.2253429999999
 21
163.6679609999999
 31
0.0
  0
LINE
  5
9856
330
97B4
100
AcDbEntity
  8
1
  6
Continuous
100
AcDbLine
 10
168.2253429999998
 20
168.4679639999998
 30
0.0
 11
168.2253429999998
 21
165.2679669999999
 31
0.0
  0
LINE
  5
9857
330
97B4
100
AcDbEntity
  8
1
  6
Continuous
100
AcDbLine
 10
171.0253459999998
 20
178.667961
 30
0.0
 11
179.1253519999999
 21
178.667961
 31
0.0
  0
LINE
  5
9858
330
97B4
100
AcDbEntity
  8
1
  6
Continuous
100
AcDbLine
 10
170.2253429999998
 20
163.6679609999999
 30
0.0
 11
182.2253429999999
 21
163.6679609999999
 31
0.0
  0
LINE
  5
9859
330
97B4
100
AcDbEntity
  8
1
  6
Continuous
100
AcDbLine
 10
170.2253429999998
 20
177.867973
 30
0.0
 11
182.2253429999999
 21
177.867973
 31
0.0
  0
LINE
  5
985A
330
97B4
100
AcDbEntity
  8
1
  6
Continuous
100
AcDbLine
 10
170.2253429999998
 20
177.867973
 30
0.0
 11
170.2253429999998
 21
163.6679609999999
 31
0.0
  0
LINE
  5
985B
330
97B4
100
AcDbEntity
  8
1
  6
Continuous
100
AcDbLine
 10
181.5253459999999
 20
177.867973
 30
0.0
 11
181.5253459999999
 21
163.6679609999999
 31
0.0
  0
LINE
  5
985C
330
97B4
100
AcDbEntity
  8
4
  6
CENTER
100
AcDbLine
 10
166.6253519999998
 20
173.4679639999999
 30
0.0
 11
181.2253429999999
 21
173.4679639999999
 31
0.0
  0
LINE
  5
985D
330
97B4
100
AcDbEntity
  8
4
  6
CENTER
100
AcDbLine
 10
166.2253429999998
 20
166.867973
 30
0.0
 11
181.2253429999999
 21
166.867973
 31
0.0
  0
LINE
  5
985E
330
97B4
100
AcDbEntity
  8
1
  6
Continuous
100
AcDbLine
 10
168.2253429999998
 20
165.2679669999999
 30
0.0
 11
170.2253429999998
 21
165.2679669999999
 31
0.0
  0
LINE
  5
985F
330
97B4
100
AcDbEntity
  8
1
  6
Continuous
100
AcDbLine
 10
168.2253429999998
 20
168.4679639999998
 30
0.0
 11
170.2253429999998
 21
168.4679639999998
 31
0.0
  0
LINE
  5
9860
330
97B4
100
AcDbEntity
  8
1
  6
Continuous
100
AcDbLine
 10
172.352495
 20
73.211861
 30
0.0
 11
170.9253549999999
 21
73.211861
 31
0.0
  0
LINE
  5
9861
330
97B4
100
AcDbEntity
  8
1
  6
Continuous
100
AcDbLine
 10
172.133775
 20
75.711861
 30
0.0
 11
170.9253549999999
 21
75.711861
 31
0.0
  0
LINE
  5
9862
330
97B4
100
AcDbEntity
  8
1
  6
Continuous
100
AcDbLine
 10
179.2253429999999
 20
52.711861
 30
0.0
 11
174.460527
 21
52.711861
 31
0.0
  0
LINE
  5
9863
330
97B4
100
AcDbEntity
  8
4
  6
CENTER
100
AcDbLine
 10
182.4253549999999
 20
51.461861
 30
0.0
 11
166.6253519999998
 21
51.461861
 31
0.0
  0
LINE
  5
9864
330
97B4
100
AcDbEntity
  8
1
  6
Continuous
100
AcDbLine
 10
179.2253429999999
 20
50.211861
 30
0.0
 11
174.241792
 21
50.211861
 31
0.0
  0
LINE
  5
9865
330
97B4
100
AcDbEntity
  8
1
  6
Continuous
100
AcDbLine
 10
180.425355
 20
52.31185899999999
 30
0.0
 11
180.425355
 21
50.611862
 31
0.0
  0
LINE
  5
9866
330
97B4
100
AcDbEntity
  8
1
  6
Continuous
100
AcDbLine
 10
172.352495
 20
52.711861
 30
0.0
 11
170.9253549999999
 21
52.711861
 31
0.0
  0
LINE
  5
9867
330
97B4
100
AcDbEntity
  8
1
  6
Continuous
100
AcDbLine
 10
172.133775
 20
50.211861
 30
0.0
 11
170.9253549999999
 21
50.211861
 31
0.0
  0
LINE
  5
9868
330
97B4
100
AcDbEntity
  8
4
  6
CENTER
100
AcDbLine
 10
19.784562
 20
62.96186099999999
 30
0.0
 11
38.784562
 21
62.96186099999999
 31
0.0
  0
LINE
  5
9869
330
97B4
100
AcDbEntity
  8
4
  6
CENTER
100
AcDbLine
 10
22.784562
 20
82.96186099999998
 30
0.0
 11
36.484559
 21
82.96186099999998
 31
0.0
  0
LINE
  5
986A
330
97B4
100
AcDbEntity
  8
1
  6
Continuous
100
AcDbLine
 10
26.384565
 20
81.361862
 30
0.0
 11
32.88456099999999
 21
81.361862
 31
0.0
  0
LINE
  5
986B
330
97B4
100
AcDbEntity
  8
1
  6
Continuous
100
AcDbLine
 10
26.384565
 20
84.56185899999999
 30
0.0
 11
32.88456099999999
 21
84.56185899999999
 31
0.0
  0
LINE
  5
986C
330
97B4
100
AcDbEntity
  8
1
  6
Continuous
100
AcDbLine
 10
26.384565
 20
44.561859
 30
0.0
 11
32.88456099999999
 21
44.561859
 31
0.0
  0
LINE
  5
986D
330
97B4
100
AcDbEntity
  8
4
  6
CENTER
100
AcDbLine
 10
22.784562
 20
42.96186099999999
 30
0.0
 11
36.484559
 21
42.96186099999999
 31
0.0
  0
LINE
  5
986E
330
97B4
100
AcDbEntity
  8
1
  6
Continuous
100
AcDbLine
 10
26.384565
 20
41.361862
 30
0.0
 11
32.88456099999999
 21
41.361862
 31
0.0
  0
LINE
  5
986F
330
97B4
100
AcDbEntity
  8
4
  6
CENTER
100
AcDbLine
 10
103.2471479999999
 20
267.9618449999999
 30
0.0
 11
92.24714799999999
 21
267.9618449999999
 31
0.0
  0
LINE
  5
9870
330
97B4
100
AcDbEntity
  8
4
  6
CENTER
100
AcDbLine
 10
97.74714799999999
 20
249.961845
 30
0.0
 11
97.74714799999999
 21
285.9618449999999
 31
0.0
  0
LINE
  5
9871
330
97B4
100
AcDbEntity
  8
4
  6
CENTER
100
AcDbLine
 10
175.14406
 20
330.876152
 30
0.0
 11
194.1440599999999
 21
330.876152
 31
0.0
  0
LINE
  5
9872
330
97B4
100
AcDbEntity
  8
4
  6
CENTER
100
AcDbLine
 10
179.5253459999999
 20
82.96186099999998
 30
0.0
 11
184.2253429999999
 21
82.96186099999998
 31
0.0
  0
LINE
  5
9873
330
97B4
100
AcDbEntity
  8
4
  6
CENTER
100
AcDbLine
 10
179.5253459999999
 20
42.96186099999999
 30
0.0
 11
184.2253429999999
 21
42.96186099999999
 31
0.0
  0
LINE
  5
9874
330
97B4
100
AcDbEntity
  8
1
  6
Continuous
100
AcDbLine
 10
174.4753429999999
 20
54.461861
 30
0.0
 11
174.4753429999999
 21
71.461861
 31
0.0
  0
LINE
  5
9875
330
97B4
100
AcDbEntity
  8
1
  6
Continuous
100
AcDbLine
 10
175.6753549999999
 20
54.461861
 30
0.0
 11
175.6753549999999
 21
71.461861
 31
0.0
  0
LINE
  5
9876
330
97B4
100
AcDbEntity
  8
1
  6
Continuous
100
AcDbLine
 10
170.9753429999999
 20
54.461861
 30
0.0
 11
170.9753429999999
 21
71.461861
 31
0.0
  0
LINE
  5
9877
330
97B4
100
AcDbEntity
  8
1
  6
Continuous
100
AcDbLine
 10
179.1753549999999
 20
54.461861
 30
0.0
 11
179.1753549999999
 21
71.461861
 31
0.0
  0
LINE
  5
9878
330
97B4
100
AcDbEntity
  8
1
  6
Continuous
100
AcDbLine
 10
170.9253549999999
 20
57.111862
 30
0.0
 11
170.9753429999999
 21
57.111862
 31
0.0
  0
LINE
  5
9879
330
97B4
100
AcDbEntity
  8
1
  6
Continuous
100
AcDbLine
 10
170.9253549999999
 20
60.311859
 30
0.0
 11
170.9753429999999
 21
60.311859
 31
0.0
  0
LINE
  5
987A
330
97B4
100
AcDbEntity
  8
1
  6
Continuous
100
AcDbLine
 10
170.9253549999999
 20
68.811859
 30
0.0
 11
170.9753429999999
 21
68.811859
 31
0.0
  0
LINE
  5
987B
330
97B4
100
AcDbEntity
  8
1
  6
Continuous
100
AcDbLine
 10
170.9253549999999
 20
65.611862
 30
0.0
 11
170.9753429999999
 21
65.611862
 31
0.0
  0
LINE
  5
987C
330
97B4
100
AcDbEntity
  8
1
  6
Continuous
100
AcDbLine
 10
179.2253429999999
 20
60.311859
 30
0.0
 11
179.1753549999999
 21
60.311859
 31
0.0
  0
LINE
  5
987D
330
97B4
100
AcDbEntity
  8
1
  6
Continuous
100
AcDbLine
 10
179.2253429999999
 20
57.111862
 30
0.0
 11
179.1753549999999
 21
57.111862
 31
0.0
  0
LINE
  5
987E
330
97B4
100
AcDbEntity
  8
1
  6
Continuous
100
AcDbLine
 10
179.2253429999999
 20
65.611862
 30
0.0
 11
179.1753549999999
 21
65.611862
 31
0.0
  0
LINE
  5
987F
330
97B4
100
AcDbEntity
  8
1
  6
Continuous
100
AcDbLine
 10
179.2253429999999
 20
68.811859
 30
0.0
 11
179.1753549999999
 21
68.811859
 31
0.0
  0
LINE
  5
9880
330
97B4
100
AcDbEntity
  8
1
  6
Continuous
100
AcDbLine
 10
175.668413
 20
68.88120999999999
 30
0.0
 11
174.7930159999999
 21
73.211861
 31
0.0
  0
LINE
  5
9881
330
97B4
100
AcDbEntity
  8
1
  6
Continuous
100
AcDbLine
 10
174.982301
 20
68.742516
 30
0.0
 11
174.475358
 21
71.25038899999998
 31
0.0
  0
LINE
  5
9882
330
97B4
100
AcDbEntity
  8
1
  6
Continuous
100
AcDbLine
 10
174.432603
 20
71.461861
 30
0.0
 11
174.228395
 21
72.472137
 31
0.0
  0
LINE
  5
9883
330
97B4
100
AcDbEntity
  8
1
  6
Continuous
100
AcDbLine
 10
174.287675
 20
75.711861
 30
0.0
 11
174.2029129999998
 21
76.131203
 31
0.0
  0
LINE
  5
9884
330
97B4
100
AcDbEntity
  8
1
  6
Continuous
100
AcDbLine
 10
175.500505
 20
56.211861
 30
0.0
 11
175.6753549999999
 21
56.211861
 31
0.0
  0
LINE
  5
9885
330
97B4
100
AcDbEntity
  8
1
  6
Continuous
100
AcDbLine
 10
175.500505
 20
69.711861
 30
0.0
 11
175.6753549999999
 21
69.711861
 31
0.0
  0
LINE
  5
9886
330
97B4
100
AcDbEntity
  8
4
  6
CENTER
100
AcDbLine
 10
335.631212
 20
53.811859
 30
0.0
 11
335.631212
 21
49.111862
 31
0.0
  0
LINE
  5
9887
330
97B4
100
AcDbEntity
  8
4
  6
CENTER
100
AcDbLine
 10
333.281206
 20
51.461861
 30
0.0
 11
337.981218
 21
51.461861
 31
0.0
  0
LINE
  5
9888
330
97B4
100
AcDbEntity
  8
4
  6
CENTER
100
AcDbLine
 10
333.281206
 20
74.461861
 30
0.0
 11
337.981218
 21
74.461861
 31
0.0
  0
LINE
  5
9889
330
97B4
100
AcDbEntity
  8
4
  6
CENTER
100
AcDbLine
 10
335.631212
 20
72.111862
 30
0.0
 11
335.631212
 21
76.811859
 31
0.0
  0
LINE
  5
988A
330
97B4
100
AcDbEntity
  8
1
  6
Continuous
100
AcDbLine
 10
170.9753429999999
 20
162.617973
 30
0.0
 11
174.4753429999999
 21
162.617973
 31
0.0
  0
LINE
  5
988B
330
97B4
100
AcDbEntity
  8
1
  6
Continuous
100
AcDbLine
 10
170.9753429999999
 20
163.6679609999999
 30
0.0
 11
170.9753429999999
 21
162.617973
 31
0.0
  0
LINE
  5
988C
330
97B4
100
AcDbEntity
  8
1
  6
Continuous
100
AcDbLine
 10
174.4753429999999
 20
163.6679609999999
 30
0.0
 11
174.4753429999999
 21
162.617973
 31
0.0
  0
LINE
  5
988D
330
97B4
100
AcDbEntity
  8
1
  6
Continuous
100
AcDbLine
 10
179.1753549999999
 20
162.617973
 30
0.0
 11
175.6753549999999
 21
162.617973
 31
0.0
  0
LINE
  5
988E
330
97B4
100
AcDbEntity
  8
1
  6
Continuous
100
AcDbLine
 10
175.6753549999999
 20
163.6679609999999
 30
0.0
 11
175.6753549999999
 21
162.617973
 31
0.0
  0
LINE
  5
988F
330
97B4
100
AcDbEntity
  8
1
  6
Continuous
100
AcDbLine
 10
179.1753549999999
 20
163.6679609999999
 30
0.0
 11
179.1753549999999
 21
162.617973
 31
0.0
  0
LINE
  5
9890
330
97B4
100
AcDbEntity
  8
1
  6
Continuous
100
AcDbLine
 10
171.0253459999998
 20
178.667961
 30
0.0
 11
171.0253459999998
 21
177.867973
 31
0.0
  0
LINE
  5
9891
330
97B4
100
AcDbEntity
  8
4
  6
CENTER
100
AcDbLine
 10
182.4253549999999
 20
74.461861
 30
0.0
 11
166.6253519999998
 21
74.461861
 31
0.0
  0
LINE
  5
9892
330
97B4
100
AcDbEntity
  8
4
  6
CENTER
100
AcDbLine
 10
166.2253429999998
 20
67.211861
 30
0.0
 11
183.925355
 21
67.211861
 31
0.0
  0
LINE
  5
9893
330
97B4
100
AcDbEntity
  8
1
  6
Continuous
100
AcDbLine
 10
181.113954
 20
333.3761519999999
 30
0.0
 11
181.113954
 21
328.376152
 31
0.0
  0
LINE
  5
9894
330
97B4
100
AcDbEntity
  8
1
  6
Continuous
100
AcDbLine
 10
177.14406
 20
328.2761759999999
 30
0.0
 11
181.1139609999999
 21
327.3761519999998
 31
0.0
  0
LINE
  5
9895
330
97B4
100
AcDbEntity
  8
1
  6
Continuous
100
AcDbLine
 10
177.14406
 20
333.4761579999999
 30
0.0
 11
181.1139
 21
334.376152
 31
0.0
  0
LINE
  5
9896
330
97B4
100
AcDbEntity
  8
1
  6
Continuous
100
AcDbLine
 10
173.790178
 20
72.84236099999998
 30
0.0
 11
173.501466
 21
76.142364
 31
0.0
  0
LINE
  5
9897
330
97B4
100
AcDbEntity
  8
1
  6
Continuous
100
AcDbLine
 10
174.4928449999999
 20
72.84236099999998
 30
0.0
 11
174.204133
 21
76.142364
 31
0.0
  0
LINE
  5
9898
330
97B4
100
AcDbEntity
  8
1
  6
Continuous
100
AcDbLine
 10
172.402406
 20
72.715317
 30
0.0
 11
172.2599199999999
 21
73.211853
 31
0.0
  0
LINE
  5
9899
330
97B4
100
AcDbEntity
  8
1
  6
Continuous
100
AcDbLine
 10
171.6122139999999
 20
78.00689699999998
 30
0.0
 11
172.1167619999999
 21
76.218475
 31
0.0
  0
LINE
  5
989A
330
97B4
100
AcDbEntity
  8
1
  6
Continuous
100
AcDbLine
 10
171.542528
 20
75.711853
 30
0.0
 11
170.9389199999999
 21
77.81532299999998
 31
0.0
  0
LINE
  5
989B
330
97B4
100
AcDbEntity
  8
1
  6
Continuous
100
AcDbLine
 10
179.2253429999999
 20
46.961861
 30
0.0
 11
179.2253429999999
 21
78.961861
 31
0.0
  0
LINE
  5
989C
330
97B4
100
AcDbEntity
  8
1
  6
Continuous
100
AcDbLine
 10
172.3901689999999
 20
53.142357
 30
0.0
 11
172.101457
 21
49.84236899999999
 31
0.0
  0
LINE
  5
989D
330
97B4
100
AcDbEntity
  8
1
  6
Continuous
100
AcDbLine
 10
173.087495
 20
53.081352
 30
0.0
 11
172.798784
 21
49.781357
 31
0.0
  0
LINE
  5
989E
330
97B4
100
AcDbEntity
  8
1
  6
Continuous
100
AcDbLine
 10
173.790162
 20
53.081352
 30
0.0
 11
173.501451
 21
49.781357
 31
0.0
  0
LINE
  5
989F
330
97B4
100
AcDbEntity
  8
1
  6
Continuous
100
AcDbLine
 10
171.6121989999998
 20
47.916817
 30
0.0
 11
172.1167619999999
 21
49.705238
 31
0.0
  0
LINE
  5
98A0
330
97B4
100
AcDbEntity
  8
1
  6
Continuous
100
AcDbLine
 10
174.982301
 20
57.181206
 30
0.0
 11
174.475358
 21
54.67334000000001
 31
0.0
  0
LINE
  5
98A1
330
97B4
100
AcDbEntity
  8
1
  6
Continuous
100
AcDbLine
 10
174.287675
 20
50.211861
 30
0.0
 11
174.2029129999998
 21
49.792519
 31
0.0
  0
LINE
  5
98A2
330
97B4
100
AcDbEntity
  8
1
  6
Continuous
100
AcDbLine
 10
172.402406
 20
53.208405
 30
0.0
 11
172.2599199999999
 21
52.71185299999999
 31
0.0
  0
LINE
  5
98A3
330
97B4
100
AcDbEntity
  8
1
  6
Continuous
100
AcDbLine
 10
174.432603
 20
54.46185299999999
 30
0.0
 11
174.228395
 21
53.451576
 31
0.0
  0
LINE
  5
98A4
330
97B4
100
AcDbEntity
  8
1
  6
Continuous
100
AcDbLine
 10
175.668413
 20
57.04251899999999
 30
0.0
 11
174.7930159999999
 21
52.711861
 31
0.0
  0
LINE
  5
98A5
330
97B4
100
AcDbEntity
  8
1
  6
Continuous
100
AcDbLine
 10
174.4928449999999
 20
53.08136
 30
0.0
 11
174.204133
 21
49.781357
 31
0.0
  0
LINE
  5
98A6
330
97B4
100
AcDbEntity
  8
1
  6
Continuous
100
AcDbLine
 10
171.542528
 20
50.211861
 30
0.0
 11
170.9389199999999
 21
48.108398
 31
0.0
  0
LINE
  5
98A7
330
97B4
100
AcDbEntity
  8
4
  6
CENTER
100
AcDbLine
 10
175.0753489999999
 20
44.961861
 30
0.0
 11
175.0753489999999
 21
80.961861
 31
0.0
  0
LINE
  5
98A8
330
97B4
100
AcDbEntity
  8
1
  6
Continuous
100
AcDbLine
 10
185.2909249999999
 20
333.3761519999999
 30
0.0
 11
185.2909249999999
 21
328.376152
 31
0.0
  0
LINE
  5
98A9
330
97B4
100
AcDbEntity
  8
4
  6
CENTER
100
AcDbLine
 10
175.0753489999999
 20
160.617973
 30
0.0
 11
175.0753489999999
 21
180.6679609999999
 31
0.0
  0
LINE
  5
98AA
330
97B4
100
AcDbEntity
  8
1
  6
Continuous
100
AcDbLine
 10
378.695146
 20
267.5331039999999
 30
0.0
 11
376.195176
 21
266.0331039999999
 31
0.0
  0
LINE
  5
98AB
330
97B4
100
AcDbEntity
  8
1
  6
Continuous
100
AcDbLine
 10
378.695115
 20
268.390617
 30
0.0
 11
376.195146
 21
269.890617
 31
0.0
  0
LINE
  5
98AC
330
97B4
100
AcDbEntity
  8
1
  6
Continuous
100
AcDbLine
 10
373.1002669999999
 20
268.4623639999999
 30
0.0
 11
375.695726
 21
269.8992839999998
 31
0.0
  0
LINE
  5
98AD
330
97B4
100
AcDbEntity
  8
4
  6
CENTER
100
AcDbLine
 10
381.937883
 20
267.9618449999999
 30
0.0
 11
362.937883
 21
267.9618449999999
 31
0.0
  0
LINE
  5
98AE
330
97B4
100
AcDbEntity
  8
1
  6
Continuous
100
AcDbLine
 10
373.100297
 20
267.461327
 30
0.0
 11
375.695726
 21
266.024437
 31
0.0
  0
LINE
  5
98AF
330
97B4
100
AcDbEntity
  8
1
  6
Continuous
100
AcDbLine
 10
372.6159219999999
 20
269.337242
 30
0.0
 11
375.211381
 21
270.7741619999998
 31
0.0
  0
LINE
  5
98B0
330
97B4
100
AcDbEntity
  8
1
  6
Continuous
100
AcDbLine
 10
379.209611
 20
269.2481
 30
0.0
 11
376.7096419999999
 21
270.7481
 31
0.0
  0
LINE
  5
98B1
330
97B4
100
AcDbEntity
  8
1
  6
Continuous
100
AcDbLine
 10
372.6159529999998
 20
266.586479
 30
0.0
 11
375.211351
 21
265.149559
 31
0.0
  0
LINE
  5
98B2
330
97B4
100
AcDbEntity
  8
1
  6
Continuous
100
AcDbLine
 10
379.209642
 20
266.6756209999999
 30
0.0
 11
376.709672
 21
265.1756209999999
 31
0.0
  0
LINE
  5
98B3
330
97B4
100
AcDbEntity
  8
1
  6
Continuous
100
AcDbLine
 10
365.937883
 20
283.9618449999999
 30
0.0
 11
364.9378829999998
 21
283.9618449999999
 31
0.0
  0
LINE
  5
98B4
330
97B4
100
AcDbEntity
  8
4
  6
CENTER
100
AcDbLine
 10
367.937883
 20
280.4618449999999
 30
0.0
 11
362.937883
 21
280.4618449999999
 31
0.0
  0
LINE
  5
98B5
330
97B4
100
AcDbEntity
  8
1
  6
Continuous
100
AcDbLine
 10
365.937883
 20
251.961845
 30
0.0
 11
364.9378829999998
 21
251.961845
 31
0.0
  0
LINE
  5
98B6
330
97B4
100
AcDbEntity
  8
1
  6
Continuous
100
AcDbLine
 10
364.9378829999998
 20
251.961845
 30
0.0
 11
364.9378829999998
 21
264.4618449999999
 31
0.0
  0
LINE
  5
98B7
330
97B4
100
AcDbEntity
  8
1
  6
Continuous
100
AcDbLine
 10
365.937883
 20
271.4618449999999
 30
0.0
 11
365.937883
 21
283.9618449999999
 31
0.0
  0
LINE
  5
98B8
330
97B4
100
AcDbEntity
  8
4
  6
CENTER
100
AcDbLine
 10
367.937883
 20
255.4618449999999
 30
0.0
 11
362.937883
 21
255.4618449999999
 31
0.0
  0
LINE
  5
98B9
330
97B4
100
AcDbEntity
  8
1
  6
Continuous
100
AcDbLine
 10
371.162858
 20
266.9618449999999
 30
0.0
 11
368.4378829999998
 21
266.9618449999999
 31
0.0
  0
LINE
  5
98BA
330
97B4
100
AcDbEntity
  8
1
  6
Continuous
100
AcDbLine
 10
371.162858
 20
268.9618449999999
 30
0.0
 11
368.4378829999998
 21
268.9618449999999
 31
0.0
  0
LINE
  5
98BB
330
97B4
100
AcDbEntity
  8
1
  6
Continuous
100
AcDbLine
 10
365.937883
 20
251.961845
 30
0.0
 11
365.937883
 21
264.4618449999999
 31
0.0
  0
LINE
  5
98BC
330
97B4
100
AcDbEntity
  8
1
  6
Continuous
100
AcDbLine
 10
364.9378829999998
 20
271.4618449999999
 30
0.0
 11
364.9378829999998
 21
283.9618449999999
 31
0.0
  0
LINE
  5
98BD
330
97B4
100
AcDbEntity
  8
1
  6
Continuous
100
AcDbLine
 10
466.7370769999998
 20
46.961861
 30
0.0
 11
466.7370769999998
 21
78.961861
 31
0.0
  0
LINE
  5
98BE
330
97B4
100
AcDbEntity
  8
1
  6
Continuous
100
AcDbLine
 10
475.4370889999998
 20
78.961861
 30
0.0
 11
466.7370769999998
 21
78.961861
 31
0.0
  0
LINE
  5
98BF
330
97B4
100
AcDbEntity
  8
1
  6
Continuous
100
AcDbLine
 10
476.4370889999998
 20
47.96186099999999
 30
0.0
 11
476.4370889999998
 21
77.96186099999999
 31
0.0
  0
LINE
  5
98C0
330
97B4
100
AcDbEntity
  8
1
  6
Continuous
100
AcDbLine
 10
478.4370889999998
 20
57.111862
 30
0.0
 11
478.4370889999998
 21
60.311859
 31
0.0
  0
LINE
  5
98C1
330
97B4
100
AcDbEntity
  8
1
  6
Continuous
100
AcDbLine
 10
475.4370889999998
 20
46.961861
 30
0.0
 11
466.7370769999998
 21
46.961861
 31
0.0
  0
LINE
  5
98C2
330
97B4
100
AcDbEntity
  8
4
  6
CENTER
100
AcDbLine
 10
480.4370889999998
 20
67.211861
 30
0.0
 11
462.7370769999997
 21
67.211861
 31
0.0
  0
LINE
  5
98C3
330
97B4
100
AcDbEntity
  8
1
  6
Continuous
100
AcDbLine
 10
478.4370889999998
 20
57.111862
 30
0.0
 11
476.4370889999998
 21
57.111862
 31
0.0
  0
LINE
  5
98C4
330
97B4
100
AcDbEntity
  8
4
  6
CENTER
100
AcDbLine
 10
480.4370889999998
 20
58.711861
 30
0.0
 11
462.7370769999997
 21
58.711861
 31
0.0
  0
LINE
  5
98C5
330
97B4
100
AcDbEntity
  8
1
  6
Continuous
100
AcDbLine
 10
478.4370889999998
 20
60.311859
 30
0.0
 11
476.4370889999998
 21
60.311859
 31
0.0
  0
LINE
  5
98C6
330
97B4
100
AcDbEntity
  8
1
  6
Continuous
100
AcDbLine
 10
478.4370889999998
 20
68.811859
 30
0.0
 11
478.4370889999998
 21
65.611862
 31
0.0
  0
LINE
  5
98C7
330
97B4
100
AcDbEntity
  8
1
  6
Continuous
100
AcDbLine
 10
478.4370889999998
 20
68.811859
 30
0.0
 11
476.4370889999998
 21
68.811859
 31
0.0
  0
LINE
  5
98C8
330
97B4
100
AcDbEntity
  8
1
  6
Continuous
100
AcDbLine
 10
478.4370889999998
 20
65.611862
 30
0.0
 11
476.4370889999998
 21
65.611862
 31
0.0
  0
LINE
  5
98C9
330
97B4
100
AcDbEntity
  8
1
  6
Continuous
100
AcDbLine
 10
464.7370769999998
 20
57.111862
 30
0.0
 11
464.7370769999998
 21
60.311859
 31
0.0
  0
LINE
  5
98CA
330
97B4
100
AcDbEntity
  8
4
  6
CENTER
100
AcDbLine
 10
464.7370769999998
 20
62.96186099999999
 30
0.0
 11
478.4370889999998
 21
62.96186099999999
 31
0.0
  0
LINE
  5
98CB
330
97B4
100
AcDbEntity
  8
1
  6
Continuous
100
AcDbLine
 10
464.7370769999998
 20
57.111862
 30
0.0
 11
466.7370769999998
 21
57.111862
 31
0.0
  0
LINE
  5
98CC
330
97B4
100
AcDbEntity
  8
1
  6
Continuous
100
AcDbLine
 10
464.7370769999998
 20
60.311859
 30
0.0
 11
466.7370769999998
 21
60.311859
 31
0.0
  0
LINE
  5
98CD
330
97B4
100
AcDbEntity
  8
1
  6
Continuous
100
AcDbLine
 10
464.7370769999998
 20
68.811859
 30
0.0
 11
464.7370769999998
 21
65.611862
 31
0.0
  0
LINE
  5
98CE
330
97B4
100
AcDbEntity
  8
1
  6
Continuous
100
AcDbLine
 10
464.7370769999998
 20
68.811859
 30
0.0
 11
466.7370769999998
 21
68.811859
 31
0.0
  0
LINE
  5
98CF
330
97B4
100
AcDbEntity
  8
1
  6
Continuous
100
AcDbLine
 10
464.7370769999998
 20
65.611862
 30
0.0
 11
466.7370769999998
 21
65.611862
 31
0.0
  0
LINE
  5
98D0
330
97B4
100
AcDbEntity
  8
1
  6
Continuous
100
AcDbLine
 10
466.7370769999998
 20
75.811859
 30
0.0
 11
466.7370769999998
 21
75.811859
 31
0.0
  0
LINE
  5
98D1
330
97B4
100
AcDbEntity
  8
1
  6
Continuous
100
AcDbLine
 10
466.7370769999998
 20
73.111862
 30
0.0
 11
466.7370769999998
 21
73.111862
 31
0.0
  0
LINE
  5
98D2
330
97B4
100
AcDbEntity
  8
1
  6
Continuous
100
AcDbLine
 10
466.2370769999998
 20
73.611862
 30
0.0
 11
466.2370769999998
 21
75.311859
 31
0.0
  0
LINE
  5
98D3
330
97B4
100
AcDbEntity
  8
4
  6
CENTER
100
AcDbLine
 10
464.2370769999998
 20
51.461861
 30
0.0
 11
480.0370649999998
 21
51.461861
 31
0.0
  0
LINE
  5
98D4
330
97B4
100
AcDbEntity
  8
1
  6
Continuous
100
AcDbLine
 10
466.2370769999998
 20
52.31185899999999
 30
0.0
 11
466.2370769999998
 21
50.611862
 31
0.0
  0
LINE
  5
98D5
330
97B4
100
AcDbEntity
  8
4
  6
CENTER
100
AcDbLine
 10
464.2370769999998
 20
74.461861
 30
0.0
 11
480.0370649999998
 21
74.461861
 31
0.0
  0
LINE
  5
98D6
330
97B4
100
AcDbEntity
  8
4
  6
CENTER
100
AcDbLine
 10
471.5871139999999
 20
44.961861
 30
0.0
 11
471.5871139999999
 21
80.961861
 31
0.0
  0
LINE
  5
98D7
330
97B4
100
AcDbEntity
  8
1
  6
Continuous
100
AcDbLine
 10
475.6371019999998
 20
78.94165799999997
 30
0.0
 11
475.6371019999998
 21
78.26185600000002
 31
0.0
  0
LINE
  5
98D8
330
97B4
100
AcDbEntity
  8
1
  6
Continuous
100
AcDbLine
 10
475.6371019999998
 20
47.661858
 30
0.0
 11
476.391008
 21
47.661858
 31
0.0
  0
LINE
  5
98D9
330
97B4
100
AcDbEntity
  8
1
  6
Continuous
100
AcDbLine
 10
475.6371019999998
 20
78.26185600000002
 30
0.0
 11
476.391008
 21
78.26185600000002
 31
0.0
  0
LINE
  5
98DA
330
97B4
100
AcDbEntity
  8
1
  6
Continuous
100
AcDbLine
 10
475.6371019999998
 20
47.661858
 30
0.0
 11
475.6371019999998
 21
46.98206299999998
 31
0.0
  0
CIRCLE
  5
98DB
330
97B4
100
AcDbEntity
  8
1
  6
Continuous
100
AcDbCircle
 10
97.74714799999999
 20
280.4618449999999
 30
0.0
 40
1.55
  0
CIRCLE
  5
98DC
330
97B4
100
AcDbEntity
  8
1
  6
Continuous
100
AcDbCircle
 10
97.74714799999999
 20
255.4618449999999
 30
0.0
 40
1.55
  0
ARC
  5
98DD
330
97B4
100
AcDbEntity
  8
1
  6
Continuous
100
AcDbCircle
 10
95.24714799999999
 20
252.961845
 30
0.0
 40
1.0
100
AcDbArc
 50
180.000005
 51
270.000001
  0
ARC
  5
98DE
330
97B4
100
AcDbEntity
  8
1
  6
Continuous
100
AcDbCircle
 10
100.247148
 20
252.961845
 30
0.0
 40
1.0
100
AcDbArc
 50
269.9999969999999
 51
0.0
  0
ARC
  5
98DF
330
97B4
100
AcDbEntity
  8
1
  6
Continuous
100
AcDbCircle
 10
100.247148
 20
282.9618449999999
 30
0.0
 40
1.0
100
AcDbArc
 50
0.0
 51
90.00000300000001
  0
ARC
  5
98E0
330
97B4
100
AcDbEntity
  8
1
  6
Continuous
100
AcDbCircle
 10
95.24714799999999
 20
282.9618449999999
 30
0.0
 40
1.0
100
AcDbArc
 50
90.00000300000001
 51
180.000005
  0
ARC
  5
98E1
330
97B4
100
AcDbEntity
  8
1
  6
Continuous
100
AcDbCircle
 10
178.6440599999999
 20
267.9618449999999
 30
0.0
 40
1.5
100
AcDbArc
 50
120.9637569999999
 51
239.0362399999999
  0
ARC
  5
98E2
330
97B4
100
AcDbEntity
  8
1
  6
Continuous
100
AcDbCircle
 10
181.14406
 20
266.4618449999999
 30
0.0
 40
1.5
100
AcDbArc
 50
239.036243
 51
298.9704629999998
  0
ARC
  5
98E3
330
97B4
100
AcDbEntity
  8
1
  6
Continuous
100
AcDbCircle
 10
185.9190989999999
 20
263.9618449999999
 30
0.0
 40
3.0
100
AcDbArc
 50
90.00000300000001
 51
118.970462
  0
ARC
  5
98E4
330
97B4
100
AcDbEntity
  8
1
  6
Continuous
100
AcDbCircle
 10
185.9190989999999
 20
271.961845
 30
0.0
 40
3.0
100
AcDbArc
 50
241.029538
 51
269.9999969999999
  0
ARC
  5
98E5
330
97B4
100
AcDbEntity
  8
1
  6
Continuous
100
AcDbCircle
 10
181.14406
 20
269.4618449999999
 30
0.0
 40
1.5
100
AcDbArc
 50
61.029537
 51
120.9637569999999
  0
ARC
  5
98E6
330
97B4
100
AcDbEntity
  8
1
  6
Continuous
100
AcDbCircle
 10
185.9190989999999
 20
263.9618449999999
 30
0.0
 40
4.0
100
AcDbArc
 50
90.00000300000001
 51
118.970462
  0
ARC
  5
98E7
330
97B4
100
AcDbEntity
  8
1
  6
Continuous
100
AcDbCircle
 10
185.9190989999999
 20
271.961845
 30
0.0
 40
4.0
100
AcDbArc
 50
241.029538
 51
269.9999969999999
  0
ARC
  5
98E8
330
97B4
100
AcDbEntity
  8
1
  6
Continuous
100
AcDbCircle
 10
181.14406
 20
269.4618449999999
 30
0.0
 40
0.5
100
AcDbArc
 50
61.029537
 51
120.9637569999999
  0
ARC
  5
98E9
330
97B4
100
AcDbEntity
  8
1
  6
Continuous
100
AcDbCircle
 10
181.14406
 20
266.4618449999999
 30
0.0
 40
0.5
100
AcDbArc
 50
239.036243
 51
298.9704629999998
  0
ARC
  5
98EA
330
97B4
100
AcDbEntity
  8
1
  6
Continuous
100
AcDbCircle
 10
178.6440599999999
 20
267.9618449999999
 30
0.0
 40
0.5
100
AcDbArc
 50
120.9637569999999
 51
239.0362399999999
  0
ARC
  5
98EB
330
97B4
100
AcDbEntity
  8
1
  6
Continuous
100
AcDbCircle
 10
34.284562
 20
41.961861
 30
0.0
 40
2.5
100
AcDbArc
 50
269.9999969999999
 51
0.0
  0
ARC
  5
98EC
330
97B4
100
AcDbEntity
  8
1
  6
Continuous
100
AcDbCircle
 10
34.284562
 20
83.96186099999999
 30
0.0
 40
2.5
100
AcDbArc
 50
0.0
 51
90.00000300000001
  0
ARC
  5
98ED
330
97B4
100
AcDbEntity
  8
1
  6
Continuous
100
AcDbCircle
 10
25.08456199999999
 20
41.961861
 30
0.0
 40
2.5
100
AcDbArc
 50
180.000005
 51
270.000001
  0
ARC
  5
98EE
330
97B4
100
AcDbEntity
  8
1
  6
Continuous
100
AcDbCircle
 10
25.08456199999999
 20
83.96186099999999
 30
0.0
 40
2.5
100
AcDbArc
 50
90.00000300000001
 51
180.000005
  0
CIRCLE
  5
98EF
330
97B4
100
AcDbEntity
  8
1
  6
Continuous
100
AcDbCircle
 10
26.984563
 20
74.461861
 30
0.0
 40
1.9
  0
CIRCLE
  5
98F0
330
97B4
100
AcDbEntity
  8
1
  6
Continuous
100
AcDbCircle
 10
26.984563
 20
51.461861
 30
0.0
 40
1.9
  0
ARC
  5
98F1
330
97B4
100
AcDbEntity
  8
1
  6
Continuous
100
AcDbCircle
 10
33.58456599999998
 20
67.211861
 30
0.0
 40
1.8
100
AcDbArc
 50
180.000005
 51
0.00001
  0
ARC
  5
98F2
330
97B4
100
AcDbEntity
  8
1
  6
Continuous
100
AcDbCircle
 10
33.58456599999998
 20
71.611862
 30
0.0
 40
1.8
100
AcDbArc
 50
0.0
 51
180.000005
  0
CIRCLE
  5
98F3
330
97B4
100
AcDbEntity
  8
1
  6
Continuous
100
AcDbCircle
 10
33.58456599999998
 20
67.211861
 30
0.0
 40
1.6
  0
ARC
  5
98F4
330
97B4
100
AcDbEntity
  8
1
  6
Continuous
100
AcDbCircle
 10
33.58456599999998
 20
54.311859
 30
0.0
 40
1.8
100
AcDbArc
 50
180.000005
 51
0.00001
  0
ARC
  5
98F5
330
97B4
100
AcDbEntity
  8
1
  6
Continuous
100
AcDbCircle
 10
33.58456599999998
 20
58.711861
 30
0.0
 40
1.8
100
AcDbArc
 50
0.0
 51
180.000005
  0
CIRCLE
  5
98F6
330
97B4
100
AcDbEntity
  8
1
  6
Continuous
100
AcDbCircle
 10
33.58456599999998
 20
58.711861
 30
0.0
 40
1.6
  0
ARC
  5
98F7
330
97B4
100
AcDbEntity
  8
1
  6
Continuous
100
AcDbCircle
 10
33.58456599999998
 20
58.711861
 30
0.0
 40
4.25
100
AcDbArc
 50
244.94239
 51
295.0576189999998
  0
ARC
  5
98F8
330
97B4
100
AcDbEntity
  8
1
  6
Continuous
100
AcDbCircle
 10
33.58456599999998
 20
67.211861
 30
0.0
 40
4.25
100
AcDbArc
 50
318.8457979999999
 51
41.15420199999999
  0
ARC
  5
98F9
330
97B4
100
AcDbEntity
  8
1
  6
Continuous
100
AcDbCircle
 10
171.2253429999998
 20
77.96186099999999
 30
0.0
 40
1.0
100
AcDbArc
 50
90.00000300000001
 51
180.000005
  0
ARC
  5
98FA
330
97B4
100
AcDbEntity
  8
1
  6
Continuous
100
AcDbCircle
 10
171.2253429999998
 20
47.96186099999999
 30
0.0
 40
1.0
100
AcDbArc
 50
180.000005
 51
270.000001
  0
ARC
  5
98FB
330
97B4
100
AcDbEntity
  8
1
  6
Continuous
100
AcDbCircle
 10
170.5534679999999
 20
74.461861
 30
0.0
 40
1.928125
100
AcDbArc
 50
99.79818199999998
 51
260.201821
  0
CIRCLE
  5
98FC
330
97B4
100
AcDbEntity
  8
1
  6
Continuous
100
AcDbCircle
 10
175.3253489999999
 20
68.811859
 30
0.0
 40
0.35
  0
CIRCLE
  5
98FD
330
97B4
100
AcDbEntity
  8
1
  6
Continuous
100
AcDbCircle
 10
171.2753459999998
 20
77.91185799999998
 30
0.0
 40
0.35
  0
ARC
  5
98FE
330
97B4
100
AcDbEntity
  8
1
  6
Continuous
100
AcDbCircle
 10
172.738832
 20
72.811859
 30
0.0
 40
0.35
100
AcDbArc
 50
184.999994
 51
5.0
  0
ARC
  5
98FF
330
97B4
100
AcDbEntity
  8
1
  6
Continuous
100
AcDbCircle
 10
179.9253549999999
 20
75.311859
 30
0.0
 40
0.5
100
AcDbArc
 50
0.0
 51
90.00000300000001
  0
ARC
  5
9900
330
97B4
100
AcDbEntity
  8
1
  6
Continuous
100
AcDbCircle
 10
179.9253549999999
 20
73.611862
 30
0.0
 40
0.5
100
AcDbArc
 50
269.9999969999999
 51
0.0
  0
ARC
  5
9901
330
97B4
100
AcDbEntity
  8
1
  6
Continuous
100
AcDbCircle
 10
280.040971
 20
282.9618449999999
 30
0.0
 40
1.0
100
AcDbArc
 50
0.0
 51
90.00000300000001
  0
ARC
  5
9902
330
97B4
100
AcDbEntity
  8
1
  6
Continuous
100
AcDbCircle
 10
275.040971
 20
282.9618449999999
 30
0.0
 40
1.0
100
AcDbArc
 50
90.00000300000001
 51
180.000005
  0
CIRCLE
  5
9903
330
97B4
100
AcDbEntity
  8
1
  6
Continuous
100
AcDbCircle
 10
277.540971
 20
255.4618449999999
 30
0.0
 40
1.55
  0
ARC
  5
9904
330
97B4
100
AcDbEntity
  8
1
  6
Continuous
100
AcDbCircle
 10
280.040971
 20
252.961845
 30
0.0
 40
1.0
100
AcDbArc
 50
269.9999969999999
 51
0.0
  0
ARC
  5
9905
330
97B4
100
AcDbEntity
  8
1
  6
Continuous
100
AcDbCircle
 10
275.040971
 20
252.961845
 30
0.0
 40
1.0
100
AcDbArc
 50
180.000005
 51
270.000001
  0
CIRCLE
  5
9906
330
97B4
100
AcDbEntity
  8
1
  6
Continuous
100
AcDbCircle
 10
277.540971
 20
280.4618449999999
 30
0.0
 40
1.55
  0
ARC
  5
9907
330
97B4
100
AcDbEntity
  8
1
  6
Continuous
100
AcDbCircle
 10
188.64406
 20
271.4618449999999
 30
0.0
 40
2.5
100
AcDbArc
 50
269.9999969999999
 51
0.0
  0
ARC
  5
9908
330
97B4
100
AcDbEntity
  8
1
  6
Continuous
100
AcDbCircle
 10
188.64406
 20
271.4618449999999
 30
0.0
 40
3.5
100
AcDbArc
 50
269.9999969999999
 51
0.0
  0
ARC
  5
9909
330
97B4
100
AcDbEntity
  8
1
  6
Continuous
100
AcDbCircle
 10
188.64406
 20
264.4618449999999
 30
0.0
 40
2.5
100
AcDbArc
 50
0.0
 51
90.00000300000001
  0
ARC
  5
990A
330
97B4
100
AcDbEntity
  8
1
  6
Continuous
100
AcDbCircle
 10
188.64406
 20
264.4618449999999
 30
0.0
 40
3.5
100
AcDbArc
 50
0.0
 51
90.00000300000001
  0
ARC
  5
990B
330
97B4
100
AcDbEntity
  8
1
  6
Continuous
100
AcDbCircle
 10
329.031206
 20
67.211861
 30
0.0
 40
4.25
100
AcDbArc
 50
64.94238100000003
 51
115.05761
  0
CIRCLE
  5
990C
330
97B4
100
AcDbEntity
  8
1
  6
Continuous
100
AcDbCircle
 10
329.031206
 20
58.711861
 30
0.0
 40
1.6
  0
ARC
  5
990D
330
97B4
100
AcDbEntity
  8
1
  6
Continuous
100
AcDbCircle
 10
329.031206
 20
58.711861
 30
0.0
 40
1.8
100
AcDbArc
 50
0.0
 51
180.000005
  0
ARC
  5
990E
330
97B4
100
AcDbEntity
  8
1
  6
Continuous
100
AcDbCircle
 10
329.031206
 20
54.311859
 30
0.0
 40
1.8
100
AcDbArc
 50
180.000005
 51
0.00001
  0
ARC
  5
990F
330
97B4
100
AcDbEntity
  8
1
  6
Continuous
100
AcDbCircle
 10
329.031206
 20
71.611862
 30
0.0
 40
1.8
100
AcDbArc
 50
0.0
 51
180.000005
  0
ARC
  5
9910
330
97B4
100
AcDbEntity
  8
1
  6
Continuous
100
AcDbCircle
 10
329.031206
 20
58.711861
 30
0.0
 40
4.25
100
AcDbArc
 50
244.94239
 51
295.0576189999998
  0
ARC
  5
9911
330
97B4
100
AcDbEntity
  8
1
  6
Continuous
100
AcDbCircle
 10
337.531206
 20
41.961861
 30
0.0
 40
2.5
100
AcDbArc
 50
269.9999969999999
 51
0.0
  0
ARC
  5
9912
330
97B4
100
AcDbEntity
  8
1
  6
Continuous
100
AcDbCircle
 10
337.531206
 20
83.96186099999999
 30
0.0
 40
2.5
100
AcDbArc
 50
0.0
 51
90.00000300000001
  0
ARC
  5
9913
330
97B4
100
AcDbEntity
  8
1
  6
Continuous
100
AcDbCircle
 10
329.031206
 20
67.211861
 30
0.0
 40
1.8
100
AcDbArc
 50
180.000005
 51
0.00001
  0
ARC
  5
9914
330
97B4
100
AcDbEntity
  8
1
  6
Continuous
100
AcDbCircle
 10
328.331224
 20
83.96186099999999
 30
0.0
 40
2.5
100
AcDbArc
 50
90.00000300000001
 51
180.000005
  0
ARC
  5
9915
330
97B4
100
AcDbEntity
  8
1
  6
Continuous
100
AcDbCircle
 10
328.331224
 20
41.961861
 30
0.0
 40
2.5
100
AcDbArc
 50
180.000005
 51
270.000001
  0
CIRCLE
  5
9916
330
97B4
100
AcDbEntity
  8
1
  6
Continuous
100
AcDbCircle
 10
329.031206
 20
67.211861
 30
0.0
 40
1.6
  0
ARC
  5
9917
330
97B4
100
AcDbEntity
  8
1
  6
Continuous
100
AcDbCircle
 10
171.0253459999998
 20
177.867973
 30
0.0
 40
0.8
100
AcDbArc
 50
89.999999
 51
179.9999949999999
  0
ARC
  5
9918
330
97B4
100
AcDbEntity
  8
1
  6
Continuous
100
AcDbCircle
 10
170.5534679999999
 20
173.4679639999999
 30
0.0
 40
1.928125
100
AcDbArc
 50
99.798179
 51
260.2018179999999
  0
ARC
  5
9919
330
97B4
100
AcDbEntity
  8
1
  6
Continuous
100
AcDbCircle
 10
170.5534679999999
 20
51.461861
 30
0.0
 40
1.928125
100
AcDbArc
 50
99.79818199999998
 51
260.201821
  0
ARC
  5
991A
330
97B4
100
AcDbEntity
  8
1
  6
Continuous
100
AcDbCircle
 10
179.9253549999999
 20
52.31185899999999
 30
0.0
 40
0.5
100
AcDbArc
 50
0.0
 51
90.00000300000001
  0
ARC
  5
991B
330
97B4
100
AcDbEntity
  8
1
  6
Continuous
100
AcDbCircle
 10
179.9253549999999
 20
50.611862
 30
0.0
 40
0.5
100
AcDbArc
 50
269.9999969999999
 51
0.0
  0
ARC
  5
991C
330
97B4
100
AcDbEntity
  8
1
  6
Continuous
100
AcDbCircle
 10
26.384565
 20
82.96186099999998
 30
0.0
 40
1.6
100
AcDbArc
 50
90.00000300000001
 51
270.000001
  0
ARC
  5
991D
330
97B4
100
AcDbEntity
  8
1
  6
Continuous
100
AcDbCircle
 10
32.88456099999999
 20
82.96186099999998
 30
0.0
 40
1.6
100
AcDbArc
 50
269.9999969999999
 51
90.00000300000001
  0
ARC
  5
991E
330
97B4
100
AcDbEntity
  8
1
  6
Continuous
100
AcDbCircle
 10
26.384565
 20
42.96186099999999
 30
0.0
 40
1.6
100
AcDbArc
 50
90.00000300000001
 51
270.000001
  0
ARC
  5
991F
330
97B4
100
AcDbEntity
  8
1
  6
Continuous
100
AcDbCircle
 10
32.88456099999999
 20
42.96186099999999
 30
0.0
 40
1.6
100
AcDbArc
 50
269.9999969999999
 51
90.00000300000001
  0
ARC
  5
9920
330
97B4
100
AcDbEntity
  8
1
  6
Continuous
100
AcDbCircle
 10
33.58456599999998
 20
58.711861
 30
0.0
 40
4.25
100
AcDbArc
 50
318.8457979999999
 51
41.15420199999999
  0
ARC
  5
9921
330
97B4
100
AcDbEntity
  8
1
  6
Continuous
100
AcDbCircle
 10
33.58456599999998
 20
67.211861
 30
0.0
 40
4.25
100
AcDbArc
 50
64.94238100000003
 51
115.05761
  0
ARC
  5
9922
330
97B4
100
AcDbEntity
  8
1
  6
Continuous
100
AcDbCircle
 10
329.031206
 20
58.711861
 30
0.0
 40
4.25
100
AcDbArc
 50
138.8457929999999
 51
221.1542029999999
  0
ARC
  5
9923
330
97B4
100
AcDbEntity
  8
1
  6
Continuous
100
AcDbCircle
 10
329.031206
 20
67.211861
 30
0.0
 40
4.25
100
AcDbArc
 50
138.8457929999999
 51
221.1542029999999
  0
ARC
  5
9924
330
97B4
100
AcDbEntity
  8
1
  6
Continuous
100
AcDbCircle
 10
172.4501199999999
 20
76.111862
 30
0.0
 40
0.35
100
AcDbArc
 50
5.0
 51
185.0000039999999
  0
CIRCLE
  5
9925
330
97B4
100
AcDbEntity
  8
1
  6
Continuous
100
AcDbCircle
 10
335.631212
 20
51.461861
 30
0.0
 40
1.35
  0
CIRCLE
  5
9926
330
97B4
100
AcDbEntity
  8
1
  6
Continuous
100
AcDbCircle
 10
335.631212
 20
74.461861
 30
0.0
 40
1.35
  0
ARC
  5
9927
330
97B4
100
AcDbEntity
  8
1
  6
Continuous
100
AcDbCircle
 10
179.1253519999999
 20
177.867973
 30
0.0
 40
0.8
100
AcDbArc
 50
0.0
 51
90.00000300000001
  0
ARC
  5
9928
330
97B4
100
AcDbEntity
  8
1
  6
Continuous
100
AcDbCircle
 10
173.4414989999999
 20
72.811859
 30
0.0
 40
0.35
100
AcDbArc
 50
184.999994
 51
5.0
  0
ARC
  5
9929
330
97B4
100
AcDbEntity
  8
1
  6
Continuous
100
AcDbCircle
 10
173.1527879999999
 20
76.111862
 30
0.0
 40
0.35
100
AcDbArc
 50
5.0
 51
185.0000039999999
  0
ARC
  5
992A
330
97B4
100
AcDbEntity
  8
1
  6
Continuous
100
AcDbCircle
 10
173.8554699999999
 20
76.111862
 30
0.0
 40
0.35
100
AcDbArc
 50
5.0
 51
185.0000039999999
  0
ARC
  5
992B
330
97B4
100
AcDbEntity
  8
1
  6
Continuous
100
AcDbCircle
 10
174.144182
 20
72.811859
 30
0.0
 40
0.35
100
AcDbArc
 50
184.999994
 51
5.0
  0
CIRCLE
  5
992C
330
97B4
100
AcDbEntity
  8
1
  6
Continuous
100
AcDbCircle
 10
175.3253489999999
 20
57.111862
 30
0.0
 40
0.35
  0
CIRCLE
  5
992D
330
97B4
100
AcDbEntity
  8
1
  6
Continuous
100
AcDbCircle
 10
171.2753459999998
 20
48.011856
 30
0.0
 40
0.35
  0
ARC
  5
992E
330
97B4
100
AcDbEntity
  8
1
  6
Continuous
100
AcDbCircle
 10
172.738832
 20
53.111862
 30
0.0
 40
0.35
100
AcDbArc
 50
355.0
 51
175.000006
  0
ARC
  5
992F
330
97B4
100
AcDbEntity
  8
1
  6
Continuous
100
AcDbCircle
 10
173.1527879999999
 20
49.81185899999999
 30
0.0
 40
0.35
100
AcDbArc
 50
175.000006
 51
355.0000109999999
  0
ARC
  5
9930
330
97B4
100
AcDbEntity
  8
1
  6
Continuous
100
AcDbCircle
 10
173.4414989999999
 20
53.111862
 30
0.0
 40
0.35
100
AcDbArc
 50
355.0
 51
175.000006
  0
ARC
  5
9931
330
97B4
100
AcDbEntity
  8
1
  6
Continuous
100
AcDbCircle
 10
172.4501199999999
 20
49.81185899999999
 30
0.0
 40
0.35
100
AcDbArc
 50
175.000006
 51
355.0000109999999
  0
ARC
  5
9932
330
97B4
100
AcDbEntity
  8
1
  6
Continuous
100
AcDbCircle
 10
173.8554699999999
 20
49.81185899999999
 30
0.0
 40
0.35
100
AcDbArc
 50
175.000006
 51
355.0000109999999
  0
ARC
  5
9933
330
97B4
100
AcDbEntity
  8
1
  6
Continuous
100
AcDbCircle
 10
174.144182
 20
53.111862
 30
0.0
 40
0.35
100
AcDbArc
 50
355.0
 51
175.000006
  0
ARC
  5
9934
330
97B4
100
AcDbEntity
  8
1
  6
Continuous
100
AcDbCircle
 10
378.437883
 20
267.9618449999999
 30
0.0
 40
0.5
100
AcDbArc
 50
300.963759
 51
59.036241
  0
ARC
  5
9935
330
97B4
100
AcDbEntity
  8
1
  6
Continuous
100
AcDbCircle
 10
375.937883
 20
266.4618449999999
 30
0.0
 40
0.5
100
AcDbArc
 50
241.029538
 51
300.963759
  0
ARC
  5
9936
330
97B4
100
AcDbEntity
  8
1
  6
Continuous
100
AcDbCircle
 10
371.162858
 20
271.961845
 30
0.0
 40
4.0
100
AcDbArc
 50
269.9999969999999
 51
298.9704629999998
  0
ARC
  5
9937
330
97B4
100
AcDbEntity
  8
1
  6
Continuous
100
AcDbCircle
 10
371.162858
 20
263.9618449999999
 30
0.0
 40
4.0
100
AcDbArc
 50
61.029537
 51
90.00000300000001
  0
ARC
  5
9938
330
97B4
100
AcDbEntity
  8
1
  6
Continuous
100
AcDbCircle
 10
375.937883
 20
269.4618449999999
 30
0.0
 40
1.5
100
AcDbArc
 50
59.036241
 51
118.970462
  0
ARC
  5
9939
330
97B4
100
AcDbEntity
  8
1
  6
Continuous
100
AcDbCircle
 10
371.162858
 20
271.961845
 30
0.0
 40
3.0
100
AcDbArc
 50
269.9999969999999
 51
298.9704629999998
  0
ARC
  5
993A
330
97B4
100
AcDbEntity
  8
1
  6
Continuous
100
AcDbCircle
 10
371.162858
 20
263.9618449999999
 30
0.0
 40
3.0
100
AcDbArc
 50
61.029537
 51
90.00000300000001
  0
ARC
  5
993B
330
97B4
100
AcDbEntity
  8
1
  6
Continuous
100
AcDbCircle
 10
375.937883
 20
266.4618449999999
 30
0.0
 40
1.5
100
AcDbArc
 50
241.029538
 51
300.963759
  0
ARC
  5
993C
330
97B4
100
AcDbEntity
  8
1
  6
Continuous
100
AcDbCircle
 10
378.437883
 20
267.9618449999999
 30
0.0
 40
1.5
100
AcDbArc
 50
300.963759
 51
59.036241
  0
ARC
  5
993D
330
97B4
100
AcDbEntity
  8
1
  6
Continuous
100
AcDbCircle
 10
375.937883
 20
269.4618449999999
 30
0.0
 40
0.5
100
AcDbArc
 50
59.036241
 51
118.970462
  0
ARC
  5
993E
330
97B4
100
AcDbEntity
  8
1
  6
Continuous
100
AcDbCircle
 10
368.4378829999998
 20
264.4618449999999
 30
0.0
 40
3.5
100
AcDbArc
 50
90.00000300000001
 51
180.000005
  0
ARC
  5
993F
330
97B4
100
AcDbEntity
  8
1
  6
Continuous
100
AcDbCircle
 10
368.4378829999998
 20
264.4618449999999
 30
0.0
 40
2.5
100
AcDbArc
 50
90.00000300000001
 51
180.000005
  0
ARC
  5
9940
330
97B4
100
AcDbEntity
  8
1
  6
Continuous
100
AcDbCircle
 10
368.4378829999998
 20
271.4618449999999
 30
0.0
 40
2.5
100
AcDbArc
 50
179.9999909999999
 51
270.000001
  0
ARC
  5
9941
330
97B4
100
AcDbEntity
  8
1
  6
Continuous
100
AcDbCircle
 10
368.4378829999998
 20
271.4618449999999
 30
0.0
 40
3.5
100
AcDbArc
 50
179.9999909999999
 51
270.000001
  0
ARC
  5
9942
330
97B4
100
AcDbEntity
  8
1
  6
Continuous
100
AcDbCircle
 10
475.4370889999998
 20
77.96186099999999
 30
0.0
 40
1.0
100
AcDbArc
 50
0.0
 51
90.00000300000001
  0
ARC
  5
9943
330
97B4
100
AcDbEntity
  8
1
  6
Continuous
100
AcDbCircle
 10
475.4370889999998
 20
47.96186099999999
 30
0.0
 40
1.0
100
AcDbArc
 50
269.9999969999999
 51
0.0
  0
ARC
  5
9944
330
97B4
100
AcDbEntity
  8
1
  6
Continuous
100
AcDbCircle
 10
476.1089639999998
 20
74.461861
 30
0.0
 40
1.928125
100
AcDbArc
 50
279.7981839999998
 51
80.20181599999999
  0
ARC
  5
9945
330
97B4
100
AcDbEntity
  8
1
  6
Continuous
100
AcDbCircle
 10
466.7370769999998
 20
73.611862
 30
0.0
 40
0.5
100
AcDbArc
 50
179.9999909999999
 51
270.000001
  0
ARC
  5
9946
330
97B4
100
AcDbEntity
  8
1
  6
Continuous
100
AcDbCircle
 10
466.7370769999998
 20
75.311859
 30
0.0
 40
0.5
100
AcDbArc
 50
90.00000300000001
 51
180.000005
  0
ARC
  5
9947
330
97B4
100
AcDbEntity
  8
1
  6
Continuous
100
AcDbCircle
 10
476.1089639999998
 20
51.461861
 30
0.0
 40
1.928125
100
AcDbArc
 50
279.7981839999998
 51
80.20181599999999
  0
ARC
  5
9948
330
97B4
100
AcDbEntity
  8
1
  6
Continuous
100
AcDbCircle
 10
466.7370769999998
 20
52.31185899999999
 30
0.0
 40
0.5
100
AcDbArc
 50
90.00000300000001
 51
180.000005
  0
ARC
  5
9949
330
97B4
100
AcDbEntity
  8
1
  6
Continuous
100
AcDbCircle
 10
466.7370769999998
 20
50.611862
 30
0.0
 40
0.5
100
AcDbArc
 50
179.9999909999999
 51
270.000001
  0
ARC
  5
994A
330
97B4
100
AcDbEntity
  8
1
  6
Continuous
100
AcDbCircle
 10
181.5253459999999
 20
79.96182199999998
 30
0.0
 40
0.7
100
AcDbArc
 50
280.2269519999999
 51
0.0
  0
LINE
  5
994B
330
97B4
100
AcDbEntity
  8
1
  6
Continuous
100
AcDbLine
 10
185.9190989999999
 20
267.9618449999999
 30
0.0
 11
188.644059
 21
267.9618449999999
 31
0.0
  0
LINE
  5
994C
330
97B4
100
AcDbEntity
  8
1
  6
Continuous
100
AcDbLine
 10
274.040971
 20
267.9618449999999
 30
0.0
 11
281.040971
 21
267.9618449999999
 31
0.0
  0
LINE
  5
994D
330
97B4
100
AcDbEntity
  8
1
  6
Continuous
100
AcDbLine
 10
368.4378829999998
 20
267.9618449999999
 30
0.0
 11
371.162858
 21
267.9618449999999
 31
0.0
  0
LINE
  5
994E
330
97B4
100
AcDbEntity
  8
1
  6
Continuous
100
AcDbLine
 10
179.2253429999999
 20
177.867973
 30
0.0
 11
179.2253429999999
 21
163.6679609999999
 31
0.0
  0
LINE
  5
994F
330
97B4
100
AcDbEntity
  8
1
  6
Continuous
100
AcDbLine
 10
179.9253549999999
 20
78.961861
 30
0.0
 11
181.64963
 21
79.27294399999998
 31
0.0
  0
LINE
  5
9950
330
97B4
100
AcDbEntity
  8
1
  6
Continuous
100
AcDbLine
 10
181.5253459999999
 20
79.96182199999998
 30
0.0
 11
179.801072
 21
79.650739
 31
0.0
  0
ARC
  5
9951
330
97B4
100
AcDbEntity
  8
1
  6
Continuous
100
AcDbCircle
 10
179.9253549999999
 20
78.961861
 30
0.0
 40
0.7
100
AcDbArc
 50
100.2269509999998
 51
180.0
  0
ARC
  5
9952
330
97B4
100
AcDbEntity
  8
1
  6
Continuous
100
AcDbCircle
 10
181.5253459999999
 20
45.961899
 30
0.0
 40
0.7
100
AcDbArc
 50
0.0
 51
79.773048
  0
LINE
  5
9953
330
97B4
100
AcDbEntity
  8
1
  6
Continuous
100
AcDbLine
 10
179.9253549999999
 20
46.961861
 30
0.0
 11
181.64963
 21
46.650777
 31
0.0
  0
LINE
  5
9954
330
97B4
100
AcDbEntity
  8
1
  6
Continuous
100
AcDbLine
 10
181.5253459999999
 20
45.961899
 30
0.0
 11
179.801072
 21
46.272982
 31
0.0
  0
ARC
  5
9955
330
97B4
100
AcDbEntity
  8
1
  6
Continuous
100
AcDbCircle
 10
179.9253549999999
 20
46.961861
 30
0.0
 40
0.7
100
AcDbArc
 50
180.0
 51
259.773049
  0
ARC
  5
9956
330
97B4
100
AcDbEntity
  8
1
  6
Continuous
100
AcDbCircle
 10
466.7371079999998
 20
78.961861
 30
0.0
 40
0.7
100
AcDbArc
 50
0.0
 51
79.77304900000001
  0
ARC
  5
9957
330
97B4
100
AcDbEntity
  8
1
  6
Continuous
100
AcDbCircle
 10
465.1371169999999
 20
79.96182199999998
 30
0.0
 40
0.7
100
AcDbArc
 50
180.0
 51
259.773048
  0
LINE
  5
9958
330
97B4
100
AcDbEntity
  8
1
  6
Continuous
100
AcDbLine
 10
465.1371169999999
 20
79.96182199999998
 30
0.0
 11
466.861391
 21
79.650739
 31
0.0
  0
LINE
  5
9959
330
97B4
100
AcDbEntity
  8
1
  6
Continuous
100
AcDbLine
 10
466.7371079999998
 20
78.961861
 30
0.0
 11
465.012833
 21
79.27294399999998
 31
0.0
  0
LINE
  5
995A
330
97B4
100
AcDbEntity
  8
4
  6
CENTER
100
AcDbLine
 10
467.1371169999998
 20
82.96186099999998
 30
0.0
 11
462.4371199999997
 21
82.96186099999998
 31
0.0
  0
LINE
  5
995B
330
97B4
100
AcDbEntity
  8
1
  6
Continuous
100
AcDbLine
 10
465.1371169999999
 20
79.96182199999998
 30
0.0
 11
465.1371169999999
 21
86.46186099999999
 31
0.0
  0
LINE
  5
995C
330
97B4
100
AcDbEntity
  8
1
  6
Continuous
100
AcDbLine
 10
465.1371169999999
 20
86.46186099999999
 30
0.0
 11
464.43712
 21
86.46186099999999
 31
0.0
  0
LINE
  5
995D
330
97B4
100
AcDbEntity
  8
1
  6
Continuous
100
AcDbLine
 10
464.43712
 20
79.96182199999998
 30
0.0
 11
464.43712
 21
86.46186099999999
 31
0.0
  0
LINE
  5
995E
330
97B4
100
AcDbEntity
  8
1
  6
Continuous
100
AcDbLine
 10
464.43712
 20
45.963962
 30
0.0
 11
464.43712
 21
39.461861
 31
0.0
  0
LINE
  5
995F
330
97B4
100
AcDbEntity
  8
1
  6
Continuous
100
AcDbLine
 10
465.1371169999999
 20
39.461861
 30
0.0
 11
465.1371169999999
 21
45.96186099999999
 31
0.0
  0
LINE
  5
9960
330
97B4
100
AcDbEntity
  8
4
  6
CENTER
100
AcDbLine
 10
467.1371169999998
 20
42.96186099999999
 30
0.0
 11
462.4371199999997
 21
42.96186099999999
 31
0.0
  0
LINE
  5
9961
330
97B4
100
AcDbEntity
  8
1
  6
Continuous
100
AcDbLine
 10
465.1371169999999
 20
39.461861
 30
0.0
 11
464.43712
 21
39.461861
 31
0.0
  0
ARC
  5
9962
330
97B4
100
AcDbEntity
  8
1
  6
Continuous
100
AcDbCircle
 10
466.7371079999998
 20
46.961861
 30
0.0
 40
0.7
100
AcDbArc
 50
280.2269509999999
 51
0.0
  0
LINE
  5
9963
330
97B4
100
AcDbEntity
  8
1
  6
Continuous
100
AcDbLine
 10
465.1371169999999
 20
45.961899
 30
0.0
 11
466.861391
 21
46.272982
 31
0.0
  0
LINE
  5
9964
330
97B4
100
AcDbEntity
  8
1
  6
Continuous
100
AcDbLine
 10
466.7371079999998
 20
46.961861
 30
0.0
 11
465.012833
 21
46.650777
 31
0.0
  0
ARC
  5
9965
330
97B4
100
AcDbEntity
  8
1
  6
Continuous
100
AcDbCircle
 10
465.1371169999999
 20
45.961899
 30
0.0
 40
0.7
100
AcDbArc
 50
100.226952
 51
180.0
  0
LINE
  5
9966
330
97B4
100
AcDbEntity
  8
1
  6
Continuous
100
AcDbLine
 10
339.0312059999998
 20
79.376811
 30
0.0
 11
326.831224
 21
79.376811
 31
0.0
  0
LINE
  5
9967
330
97B4
100
AcDbEntity
  8
1
  6
Continuous
100
AcDbLine
 10
339.0312059999998
 20
46.54690999999998
 30
0.0
 11
326.831224
 21
46.54690999999998
 31
0.0
  0
LINE
  5
9968
330
97B4
100
AcDbEntity
  8
4
  6
CENTER
100
AcDbLine
 10
29.634563
 20
85.785566
 30
0.0
 11
29.634563
 21
79.961861
 31
0.0
  0
LINE
  5
9969
330
97B4
100
AcDbEntity
  8
4
  6
CENTER
100
AcDbLine
 10
29.634563
 20
40.13815499999997
 30
0.0
 11
29.634563
 21
45.96186099999999
 31
0.0
  0
LINE
  5
996A
330
97B4
100
AcDbEntity
  8
1
  6
Continuous
100
AcDbLine
 10
336.231222
 20
84.56185899999999
 30
0.0
 11
329.731225
 21
84.56185899999999
 31
0.0
  0
LINE
  5
996B
330
97B4
100
AcDbEntity
  8
1
  6
Continuous
100
AcDbLine
 10
336.231222
 20
81.361862
 30
0.0
 11
329.731225
 21
81.361862
 31
0.0
  0
LINE
  5
996C
330
97B4
100
AcDbEntity
  8
4
  6
CENTER
100
AcDbLine
 10
339.831224
 20
82.96186099999998
 30
0.0
 11
326.131227
 21
82.96186099999998
 31
0.0
  0
ARC
  5
996D
330
97B4
100
AcDbEntity
  8
1
  6
Continuous
100
AcDbCircle
 10
329.731225
 20
82.96186099999998
 30
0.0
 40
1.6
100
AcDbArc
 50
89.99999700000001
 51
270.0000029999998
  0
LINE
  5
996E
330
97B4
100
AcDbEntity
  8
4
  6
CENTER
100
AcDbLine
 10
332.9812229999999
 20
85.785566
 30
0.0
 11
332.9812229999999
 21
79.961861
 31
0.0
  0
ARC
  5
996F
330
97B4
100
AcDbEntity
  8
1
  6
Continuous
100
AcDbCircle
 10
336.231222
 20
82.96186099999998
 30
0.0
 40
1.6
100
AcDbArc
 50
269.999999
 51
89.99999700000001
  0
LINE
  5
9970
330
97B4
100
AcDbEntity
  8
4
  6
CENTER
100
AcDbLine
 10
332.9812229999999
 20
40.13815499999997
 30
0.0
 11
332.9812229999999
 21
45.96186099999999
 31
0.0
  0
ARC
  5
9971
330
97B4
100
AcDbEntity
  8
1
  6
Continuous
100
AcDbCircle
 10
329.731225
 20
42.96186099999999
 30
0.0
 40
1.6
100
AcDbArc
 50
89.99999700000001
 51
270.0000029999998
  0
ARC
  5
9972
330
97B4
100
AcDbEntity
  8
1
  6
Continuous
100
AcDbCircle
 10
336.231222
 20
42.96186099999999
 30
0.0
 40
1.6
100
AcDbArc
 50
269.999999
 51
89.99999700000001
  0
LINE
  5
9973
330
97B4
100
AcDbEntity
  8
1
  6
Continuous
100
AcDbLine
 10
336.231222
 20
41.361862
 30
0.0
 11
329.731225
 21
41.361862
 31
0.0
  0
LINE
  5
9974
330
97B4
100
AcDbEntity
  8
4
  6
CENTER
100
AcDbLine
 10
339.831224
 20
42.96186099999999
 30
0.0
 11
326.131227
 21
42.96186099999999
 31
0.0
  0
LINE
  5
9975
330
97B4
100
AcDbEntity
  8
1
  6
Continuous
100
AcDbLine
 10
336.231222
 20
44.561859
 30
0.0
 11
329.731225
 21
44.561859
 31
0.0
  0
LINE
  5
9976
330
97B4
100
AcDbEntity
  8
4
  6
CENTER
100
AcDbLine
 10
178.8113339999999
 20
170.8179909999998
 30
0.0
 11
184.63504
 21
170.8179909999998
 31
0.0
  0
ENDSEC
  0
SECTION
  2
OBJECTS
  0
DICTIONARY
  5
97A2
330
0
100
AcDbDictionary
281
     1
  3
ACAD_CIP_PREVIOUS_PRODUCT_INFO
350
99DA
  3
ACAD_COLOR
350
99BC
  3
ACAD_DETAILVIEWSTYLE
350
99D5
  3
ACAD_GROUP
350
97A3
  3
ACAD_LAYOUT
350
97AF
  3
ACAD_MATERIAL
350
998A
  3
ACAD_MLEADERSTYLE
350
99D1
  3
ACAD_MLINESTYLE
350
97AC
  3
ACAD_PLOTSETTINGS
350
97AE
  3
ACAD_PLOTSTYLENAME
350
9988
  3
ACAD_SCALELIST
350
99BF
  3
ACAD_SECTIONVIEWSTYLE
350
99D3
  3
ACAD_TABLESTYLE
350
99BD
  3
ACAD_VISUALSTYLE
350
99A3
  3
ACDB_RECOMPOSE_DATA
350
99F8
  3
AcDbVariableDictionary
350
99EB
  3
DWGPROPS
350
99F9
  0
DICTIONARY
  5
99DB
330
97A6
100
AcDbDictionary
280
     1
281
     1
  3
ADSK_XREC_LAYER_RECONCILED
360
99DC
  0
DICTIONARY
  5
99DD
330
97BC
100
AcDbDictionary
280
     1
281
     1
  3
ADSK_XREC_LAYER_RECONCILED
360
99DE
  0
DICTIONARY
  5
99DF
330
97BD
100
AcDbDictionary
280
     1
281
     1
  3
ADSK_XREC_LAYER_RECONCILED
360
99E0
  0
DICTIONARY
  5
99E1
330
97BE
100
AcDbDictionary
280
     1
281
     1
  3
ADSK_XREC_LAYER_RECONCILED
360
99E2
  0
DICTIONARY
  5
99E3
330
97BF
100
AcDbDictionary
280
     1
281
     1
  3
ADSK_XREC_LAYER_RECONCILED
360
99E4
  0
DICTIONARY
  5
99E5
330
97C0
100
AcDbDictionary
280
     1
281
     1
  3
ADSK_XREC_LAYER_RECONCILED
360
99E6
  0
DICTIONARY
  5
99E7
330
97C1
100
AcDbDictionary
280
     1
281
     1
  3
ADSK_XREC_LAYER_RECONCILED
360
99E8
  0
DICTIONARY
  5
99E9
330
97C2
100
AcDbDictionary
280
     1
281
     1
  3
ADSK_XREC_LAYER_RECONCILED
360
99EA
  0
DICTIONARY
  5
9983
330
97B4
100
AcDbDictionary
281
     1
  3
ACAD_LAYOUTSELFREF
350
9984
  0
DICTIONARY
  5
9981
330
97B0
100
AcDbDictionary
281
     1
  3
ACAD_LAYOUTSELFREF
350
9982
  0
XRECORD
  5
99DA
102
{ACAD_REACTORS
330
97A2
102
}
330
97A2
100
AcDbXrecord
280
     1
300
ACDLT
300
2014
300
ACDLT_F_S
  0
DICTIONARY
  5
99BC
102
{ACAD_REACTORS
330
97A2
102
}
330
97A2
100
AcDbDictionary
281
     1
  0
DICTIONARY
  5
99D5
102
{ACAD_REACTORS
330
97A2
102
}
330
97A2
100
AcDbDictionary
281
     1
  3
Imperial24
350
99D6
  0
DICTIONARY
  5
97A3
102
{ACAD_REACTORS
330
97A2
102
}
330
97A2
100
AcDbDictionary
281
     1
  0
DICTIONARY
  5
97AF
102
{ACAD_REACTORS
330
97A2
102
}
330
97A2
100
AcDbDictionary
281
     1
  3
Model
350
99D7
  3
レイアウト1
350
99D8
  0
DICTIONARY
  5
998A
102
{ACAD_REACTORS
330
97A2
102
}
330
97A2
100
AcDbDictionary
281
     1
  3
ByBlock
350
9993
  3
ByLayer
350
998B
  3
Global
350
999B
  0
DICTIONARY
  5
99D1
102
{ACAD_REACTORS
330
97A2
102
}
330
97A2
100
AcDbDictionary
281
     1
  3
Standard
350
99D2
  0
DICTIONARY
  5
97AC
102
{ACAD_REACTORS
330
97A2
102
}
330
97A2
100
AcDbDictionary
281
     1
  3
STANDARD
350
97AD
  0
DICTIONARY
  5
97AE
102
{ACAD_REACTORS
330
97A2
102
}
330
97A2
100
AcDbDictionary
281
     1
  0
ACDBDICTIONARYWDFLT
  5
9988
102
{ACAD_REACTORS
330
97A2
102
}
330
97A2
100
AcDbDictionary
281
     1
  3
Normal
350
9989
100
AcDbDictionaryWithDefault
340
9989
  0
DICTIONARY
  5
99BF
102
{ACAD_REACTORS
330
97A2
102
}
330
97A2
100
AcDbDictionary
281
     1
  3
A0
350
99C0
  3
A1
350
99C1
  3
A2
350
99C2
  3
A3
350
99C3
  3
A4
350
99C4
  3
A5
350
99C5
  3
A6
350
99C6
  3
A7
350
99C7
  3
A8
350
99C8
  3
A9
350
99C9
  3
B0
350
99CA
  3
B1
350
99CB
  3
B2
350
99CC
  3
B3
350
99CD
  3
B4
350
99CE
  3
B5
350
99CF
  3
B6
350
99D0
  0
DICTIONARY
  5
99D3
102
{ACAD_REACTORS
330
97A2
102
}
330
97A2
100
AcDbDictionary
281
     1
  3
Imperial24
350
99D4
  0
DICTIONARY
  5
99BD
102
{ACAD_REACTORS
330
97A2
102
}
330
97A2
100
AcDbDictionary
281
     1
  3
Standard
350
99BE
  0
DICTIONARY
  5
99A3
102
{ACAD_REACTORS
330
97A2
102
}
330
97A2
100
AcDbDictionary
281
     1
  3
2dWireframe
350
99A9
  3
Basic
350
99A8
  3
Brighten
350
99AF
  3
ColorChange
350
99B3
  3
Conceptual
350
99AC
  3
Dim
350
99AE
  3
EdgeColorOff
350
99BB
  3
Facepattern
350
99B2
  3
Flat
350
99A4
  3
FlatWithEdges
350
99A5
  3
Gouraud
350
99A6
  3
GouraudWithEdges
350
99A7
  3
Hidden
350
99AB
  3
JitterOff
350
99B9
  3
Linepattern
350
99B1
  3
OverhangOff
350
99BA
  3
Realistic
350
99AD
  3
Shaded
350
99B8
  3
Shaded with edges
350
99B7
  3
Shades of Gray
350
99B4
  3
Sketchy
350
99B5
  3
Thicken
350
99B0
  3
Wireframe
350
99AA
  3
X-Ray
350
99B6
  0
XRECORD
  5
99F8
102
{ACAD_REACTORS
330
97A2
102
}
330
97A2
100
AcDbXrecord
280
     1
 90
        1
330
99BE
  0
DICTIONARY
  5
99EB
102
{ACAD_REACTORS
330
97A2
102
}
330
97A2
100
AcDbDictionary
281
     1
  3
CANNOSCALE
350
99F0
  3
CMLEADERSTYLE
350
99ED
  3
CTABLESTYLE
350
99EC
  3
CVIEWDETAILSTYLE
350
99EE
  3
CVIEWSECTIONSTYLE
350
99EF
  3
DIMASSOC
350
99F3
  3
INDEXCTL
350
99F2
  3
SORTENTS
350
99F1
  3
XCLIPFRAME
350
99F4
  0
XRECORD
  5
99F9
102
{ACAD_REACTORS
330
97A2
102
}
330
97A2
100
AcDbXrecord
280
     1
  1
DWGPROPS COOKIE
  2

  3

  4

  6

  7

  8
Yoshitsune
  9

300
=
301
=
302
=
303
=
304
=
305
=
306
=
307
=
308
=
309
=
 40
0.0000131018518519
 41
2451066.587711574
 42
2457192.599211424
  1

 90
        0
  0
XRECORD
  5
99DC
102
{ACAD_REACTORS
330
99DB
102
}
330
99DB
100
AcDbXrecord
280
     1
290
     1
  0
XRECORD
  5
99DE
102
{ACAD_REACTORS
330
99DD
102
}
330
99DD
100
AcDbXrecord
280
     1
290
     1
  0
XRECORD
  5
99E0
102
{ACAD_REACTORS
330
99DF
102
}
330
99DF
100
AcDbXrecord
280
     1
290
     1
  0
XRECORD
  5
99E2
102
{ACAD_REACTORS
330
99E1
102
}
330
99E1
100
AcDbXrecord
280
     1
290
     1
  0
XRECORD
  5
99E4
102
{ACAD_REACTORS
330
99E3
102
}
330
99E3
100
AcDbXrecord
280
     1
290
     1
  0
XRECORD
  5
99E6
102
{ACAD_REACTORS
330
99E5
102
}
330
99E5
100
AcDbXrecord
280
     1
290
     1
  0
XRECORD
  5
99E8
102
{ACAD_REACTORS
330
99E7
102
}
330
99E7
100
AcDbXrecord
280
     1
290
     1
  0
XRECORD
  5
99EA
102
{ACAD_REACTORS
330
99E9
102
}
330
99E9
100
AcDbXrecord
280
     1
290
     1
  0
XRECORD
  5
9984
102
{ACAD_REACTORS
330
9983
102
}
330
9983
100
AcDbXrecord
280
     1
340
97B4
  0
XRECORD
  5
9982
102
{ACAD_REACTORS
330
9981
102
}
330
9981
100
AcDbXrecord
280
     1
340
97B0
  0
ACDBDETAILVIEWSTYLE
  5
99D6
102
{ACAD_XDICTIONARY
360
9A31
102
}
102
{ACAD_REACTORS
330
99D5
102
}
330
99D5
100
AcDbModelDocViewStyle
 70
     0
  3
Imperial24
290
     0
100
AcDbDetailViewStyle
 70
     0
 71
     0
 90
        3
 71
     1
340
97A7
 40
0.24
340
0
 40
0.24
300

 40
0.36
280
     3
 71
     2
340
97AB
 90
       25
 71
     3
340
97A7
 40
0.24
 90
        1
 40
0.75
 90
        1
300
%<\AcVar ViewType \f "%tc1">% %<\AcVar ViewDetailId>%\PSCALE %<\AcVar ViewScale \f "%sn">%
 71
     4
340
97AB
 90
       25
340
97AB
 90
       25
280
     0
  0
LAYOUT
  5
99D7
102
{ACAD_XDICTIONARY
360
9A33
102
}
102
{ACAD_REACTORS
330
97AF
102
}
330
97AF
100
AcDbPlotSettings
  1

  2
Canon LBP9100C
  4

  6

 40
0.0
 41
0.0
 42
0.0
 43
0.0
 44
0.0
 45
0.0
 46
0.0
 47
0.0
 48
0.0
 49
0.0
140
0.0
141
0.0
142
1.0
143
1.0
 70
  1712
 72
     0
 73
     0
 74
     0
  7

 75
     0
147
1.0
148
0.0
149
0.0
100
AcDbLayout
  1
Model
 70
     1
 71
     0
 10
0.0
 20
0.0
 11
12.0
 21
9.0
 12
0.0
 22
0.0
 32
0.0
 14
0.0
 24
0.0
 34
0.0
 15
0.0
 25
0.0
 35
0.0
146
0.0
 13
0.0
 23
0.0
 33
0.0
 16
1.0
 26
0.0
 36
0.0
 17
0.0
 27
1.0
 37
0.0
 76
     0
330
97B4
331
9980
  0
LAYOUT
  5
99D8
102
{ACAD_XDICTIONARY
360
9A35
102
}
102
{ACAD_REACTORS
330
97AF
102
}
330
97AF
100
AcDbPlotSettings
  1

  2
Canon LBP9100C
  4

  6

 40
0.0
 41
0.0
 42
0.0
 43
0.0
 44
0.0
 45
0.0
 46
0.0
 47
0.0
 48
0.0
 49
0.0
140
0.0
141
0.0
142
1.0
143
1.0
 70
   688
 72
     0
 73
     0
 74
     5
  7

 75
    16
147
1.0
148
0.0
149
0.0
100
AcDbLayout
  1
レイアウト1
 70
     0
 71
     1
 10
0.0
 20
0.0
 11
420.0
 21
297.0
 12
0.0
 22
0.0
 32
0.0
 14
1.000000000000000E+20
 24
1.000000000000000E+20
 34
1.000000000000000E+20
 15
-1.000000000000000E+20
 25
-1.000000000000000E+20
 35
-1.000000000000000E+20
146
0.0
 13
0.0
 23
0.0
 33
0.0
 16
1.0
 26
0.0
 36
0.0
 17
0.0
 27
1.0
 37
0.0
 76
     0
330
97B0
  0
MATERIAL
  5
9993
102
{ACAD_XDICTIONARY
360
9994
102
}
102
{ACAD_REACTORS
330
998A
102
}
330
998A
100
AcDbMaterial
  1
ByBlock
 72
     0
 43
0.0208333333333333
 43
0.0
 43
0.0
 43
0.0
 43
0.0
 43
0.0208333333333333
 43
0.0
 43
0.0
 43
0.0
 43
0.0
 43
1.0
 43
0.0
 43
0.0
 43
0.0
 43
0.0
 43
1.0
 77
     0
 47
0.0208333333333333
 47
0.0
 47
0.0
 47
0.0
 47
0.0
 47
0.0208333333333333
 47
0.0
 47
0.0
 47
0.0
 47
0.0
 47
1.0
 47
0.0
 47
0.0
 47
0.0
 47
0.0
 47
1.0
171
     0
 49
0.0208333333333333
 49
0.0
 49
0.0
 49
0.0
 49
0.0
 49
0.0208333333333333
 49
0.0
 49
0.0
 49
0.0
 49
0.0
 49
1.0
 49
0.0
 49
0.0
 49
0.0
 49
0.0
 49
1.0
175
     0
142
0.0208333333333333
142
0.0
142
0.0
142
0.0
142
0.0
142
0.0208333333333333
142
0.0
142
0.0
142
0.0
142
0.0
142
1.0
142
0.0
142
0.0
142
0.0
142
0.0
142
1.0
179
     0
144
0.0208333333333333
144
0.0
144
0.0
144
0.0
144
0.0
144
0.0208333333333333
144
0.0
144
0.0
144
0.0
144
0.0
144
1.0
144
0.0
144
0.0
144
0.0
144
0.0
144
1.0
147
0.0208333333333333
147
0.0
147
0.0
147
0.0
147
0.0
147
0.0208333333333333
147
0.0
147
0.0
147
0.0
147
0.0
147
1.0
147
0.0
147
0.0
147
0.0
147
0.0
147
1.0
  0
MATERIAL
  5
998B
102
{ACAD_XDICTIONARY
360
998C
102
}
102
{ACAD_REACTORS
330
998A
102
}
330
998A
100
AcDbMaterial
  1
ByLayer
 72
     0
 43
0.0208333333333333
 43
0.0
 43
0.0
 43
0.0
 43
0.0
 43
0.0208333333333333
 43
0.0
 43
0.0
 43
0.0
 43
0.0
 43
1.0
 43
0.0
 43
0.0
 43
0.0
 43
0.0
 43
1.0
 77
     0
 47
0.0208333333333333
 47
0.0
 47
0.0
 47
0.0
 47
0.0
 47
0.0208333333333333
 47
0.0
 47
0.0
 47
0.0
 47
0.0
 47
1.0
 47
0.0
 47
0.0
 47
0.0
 47
0.0
 47
1.0
171
     0
 49
0.0208333333333333
 49
0.0
 49
0.0
 49
0.0
 49
0.0
 49
0.0208333333333333
 49
0.0
 49
0.0
 49
0.0
 49
0.0
 49
1.0
 49
0.0
 49
0.0
 49
0.0
 49
0.0
 49
1.0
175
     0
142
0.0208333333333333
142
0.0
142
0.0
142
0.0
142
0.0
142
0.0208333333333333
142
0.0
142
0.0
142
0.0
142
0.0
142
1.0
142
0.0
142
0.0
142
0.0
142
0.0
142
1.0
179
     0
144
0.0208333333333333
144
0.0
144
0.0
144
0.0
144
0.0
144
0.0208333333333333
144
0.0
144
0.0
144
0.0
144
0.0
144
1.0
144
0.0
144
0.0
144
0.0
144
0.0
144
1.0
147
0.0208333333333333
147
0.0
147
0.0
147
0.0
147
0.0
147
0.0208333333333333
147
0.0
147
0.0
147
0.0
147
0.0
147
1.0
147
0.0
147
0.0
147
0.0
147
0.0
147
1.0
  0
MATERIAL
  5
999B
102
{ACAD_XDICTIONARY
360
999C
102
}
102
{ACAD_REACTORS
330
998A
102
}
330
998A
100
AcDbMaterial
  1
Global
 72
     0
 43
0.0208333333333333
 43
0.0
 43
0.0
 43
0.0
 43
0.0
 43
0.0208333333333333
 43
0.0
 43
0.0
 43
0.0
 43
0.0
 43
1.0
 43
0.0
 43
0.0
 43
0.0
 43
0.0
 43
1.0
 77
     0
 47
0.0208333333333333
 47
0.0
 47
0.0
 47
0.0
 47
0.0
 47
0.0208333333333333
 47
0.0
 47
0.0
 47
0.0
 47
0.0
 47
1.0
 47
0.0
 47
0.0
 47
0.0
 47
0.0
 47
1.0
171
     0
 49
0.0208333333333333
 49
0.0
 49
0.0
 49
0.0
 49
0.0
 49
0.0208333333333333
 49
0.0
 49
0.0
 49
0.0
 49
0.0
 49
1.0
 49
0.0
 49
0.0
 49
0.0
 49
0.0
 49
1.0
175
     0
142
0.0208333333333333
142
0.0
142
0.0
142
0.0
142
0.0
142
0.0208333333333333
142
0.0
142
0.0
142
0.0
142
0.0
142
1.0
142
0.0
142
0.0
142
0.0
142
0.0
142
1.0
179
     0
144
0.0208333333333333
144
0.0
144
0.0
144
0.0
144
0.0
144
0.0208333333333333
144
0.0
144
0.0
144
0.0
144
0.0
144
1.0
144
0.0
144
0.0
144
0.0
144
0.0
144
1.0
147
0.0208333333333333
147
0.0
147
0.0
147
0.0
147
0.0
147
0.0208333333333333
147
0.0
147
0.0
147
0.0
147
0.0
147
1.0
147
0.0
147
0.0
147
0.0
147
0.0
147
1.0
  0
MLEADERSTYLE
  5
99D2
102
{ACAD_REACTORS
330
99D1
102
}
330
99D1
100
AcDbMLeaderStyle
170
     2
171
     1
172
     0
 90
        2
 40
0.0
 41
0.0
173
     1
 91
-1056964608
340
97A9
 92
       -2
290
     1
 42
0.09
291
     1
 43
0.36
  3
Standard
 44
0.18
300

342
97A7
174
     1
178
     6
175
     1
176
     0
 93
-1056964608
 45
0.18
292
     0
297
     0
 46
0.18
 94
-1056964608
 47
1.0
 49
1.0
140
1.0
293
     1
141
0.0
294
     1
177
     0
142
1.0
295
     0
296
     0
143
0.125
1001
ACAD_MLEADERVER
1070
     2
  0
MLINESTYLE
  5
97AD
102
{ACAD_REACTORS
330
97AC
102
}
330
97AC
100
AcDbMlineStyle
  2
STANDARD
 70
     0
  3

 62
   256
 51
90.0
 52
90.0
 71
     2
 49
0.5
 62
   256
  6
BYLAYER
 49
-0.5
 62
   256
  6
BYLAYER
  0
ACDBPLACEHOLDER
  5
9989
102
{ACAD_REACTORS
330
9988
102
}
330
9988
  0
SCALE
  5
99C0
102
{ACAD_REACTORS
330
99BF
102
}
330
99BF
100
AcDbScale
 70
     0
300
1:1
140
1.0
141
1.0
290
     1
  0
SCALE
  5
99C1
102
{ACAD_REACTORS
330
99BF
102
}
330
99BF
100
AcDbScale
 70
     0
300
1/128" = 1'-0"
140
0.0078125
141
12.0
290
     0
  0
SCALE
  5
99C2
102
{ACAD_REACTORS
330
99BF
102
}
330
99BF
100
AcDbScale
 70
     0
300
1/64" = 1'-0"
140
0.015625
141
12.0
290
     0
  0
SCALE
  5
99C3
102
{ACAD_REACTORS
330
99BF
102
}
330
99BF
100
AcDbScale
 70
     0
300
1/32" = 1'-0"
140
0.03125
141
12.0
290
     0
  0
SCALE
  5
99C4
102
{ACAD_REACTORS
330
99BF
102
}
330
99BF
100
AcDbScale
 70
     0
300
1/16" = 1'-0"
140
0.0625
141
12.0
290
     0
  0
SCALE
  5
99C5
102
{ACAD_REACTORS
330
99BF
102
}
330
99BF
100
AcDbScale
 70
     0
300
3/32" = 1'-0"
140
0.09375
141
12.0
290
     0
  0
SCALE
  5
99C6
102
{ACAD_REACTORS
330
99BF
102
}
330
99BF
100
AcDbScale
 70
     0
300
1/8" = 1'-0"
140
0.125
141
12.0
290
     0
  0
SCALE
  5
99C7
102
{ACAD_REACTORS
330
99BF
102
}
330
99BF
100
AcDbScale
 70
     0
300
3/16" = 1'-0"
140
0.1875
141
12.0
290
     0
  0
SCALE
  5
99C8
102
{ACAD_REACTORS
330
99BF
102
}
330
99BF
100
AcDbScale
 70
     0
300
1/4" = 1'-0"
140
0.25
141
12.0
290
     0
  0
SCALE
  5
99C9
102
{ACAD_REACTORS
330
99BF
102
}
330
99BF
100
AcDbScale
 70
     0
300
3/8" = 1'-0"
140
0.375
141
12.0
290
     0
  0
SCALE
  5
99CA
102
{ACAD_REACTORS
330
99BF
102
}
330
99BF
100
AcDbScale
 70
     0
300
1/2" = 1'-0"
140
0.5
141
12.0
290
     0
  0
SCALE
  5
99CB
102
{ACAD_REACTORS
330
99BF
102
}
330
99BF
100
AcDbScale
 70
     0
300
3/4" = 1'-0"
140
0.75
141
12.0
290
     0
  0
SCALE
  5
99CC
102
{ACAD_REACTORS
330
99BF
102
}
330
99BF
100
AcDbScale
 70
     0
300
1" = 1'-0"
140
1.0
141
12.0
290
     0
  0
SCALE
  5
99CD
102
{ACAD_REACTORS
330
99BF
102
}
330
99BF
100
AcDbScale
 70
     0
300
1-1/2" = 1'-0"
140
1.5
141
12.0
290
     0
  0
SCALE
  5
99CE
102
{ACAD_REACTORS
330
99BF
102
}
330
99BF
100
AcDbScale
 70
     0
300
3" = 1'-0"
140
3.0
141
12.0
290
     0
  0
SCALE
  5
99CF
102
{ACAD_REACTORS
330
99BF
102
}
330
99BF
100
AcDbScale
 70
     0
300
6" = 1'-0"
140
6.0
141
12.0
290
     0
  0
SCALE
  5
99D0
102
{ACAD_REACTORS
330
99BF
102
}
330
99BF
100
AcDbScale
 70
     0
300
1'-0" = 1'-0"
140
12.0
141
12.0
290
     0
  0
ACDBSECTIONVIEWSTYLE
  5
99D4
102
{ACAD_XDICTIONARY
360
9A2F
102
}
102
{ACAD_REACTORS
330
99D3
102
}
330
99D3
100
AcDbModelDocViewStyle
 70
     0
  3
Imperial24
290
     0
100
AcDbSectionViewStyle
 70
     0
 71
     0
 90
       78
 71
     1
340
97A7
 40
0.24
340
0
340
0
 40
0.24
300
I, O, Q, S, X, Z
 40
0.48
 90
        3
 40
0.18
 90
        1
 71
     2
340
97AB
 90
       25
340
97AB
 90
       50
 40
0.24
 40
0.0
 40
0.24
 71
     3
340
97A7
 40
0.24
 90
        1
 40
0.75
 90
        1
300
%<\AcVar ViewType \f "%tc1">% %<\AcVar ViewSectionStartId>%-%<\AcVar ViewSectionEndId>%\PSCALE %<\AcVar ViewScale \f "%sn">%
 71
     4
300
ANSI31
 40
1.0
 90
        0
290
     0
290
     0
 90
        6
 40
0.0
 40
1.570796326794896
 40
0.2617993877991494
 40
1.308996938995747
 40
-0.2617993877991494
 40
1.832595714594046
  0
TABLESTYLE
  5
99BE
102
{ACAD_XDICTIONARY
360
99F6
102
}
102
{ACAD_REACTORS
330
99BD
102
}
330
99BD
100
AcDbTableStyle
  3
Standard
 70
     0
 71
     0
 40
0.06
 41
0.06
280
     0
281
     0
  7
STANDARD
140
0.18
170
     2
 62
     0
 63
     7
283
     0
274
    -2
284
     1
 64
     0
275
    -2
285
     1
 65
     0
276
    -2
286
     1
 66
     0
277
    -2
287
     1
 67
     0
278
    -2
288
     1
 68
     0
279
    -2
289
     1
 69
     0
  7
STANDARD
140
0.25
170
     5
 62
     0
 63
     7
283
     0
274
    -2
284
     1
 64
     0
275
    -2
285
     1
 65
     0
276
    -2
286
     1
 66
     0
277
    -2
287
     1
 67
     0
278
    -2
288
     1
 68
     0
279
    -2
289
     1
 69
     0
  7
STANDARD
140
0.18
170
     5
 62
     0
 63
     7
283
     0
274
    -2
284
     1
 64
     0
275
    -2
285
     1
 65
     0
276
    -2
286
     1
 66
     0
277
    -2
287
     1
 67
     0
278
    -2
288
     1
 68
     0
279
    -2
289
     1
 69
     0
  0
VISUALSTYLE
  5
99A9
102
{ACAD_XDICTIONARY
360
9A07
102
}
102
{ACAD_REACTORS
330
99A3
102
}
330
99A3
100
AcDbVisualStyle
  2
2dWireframe
 70
     4
 71
     0
 72
     2
 73
     0
 90
        0
 40
-0.6
 41
-30.0
 62
     5
 63
     7
 74
     1
 91
        4
 64
     7
 65
   257
 75
     1
175
     1
 42
1.0
 92
        0
 66
   257
 43
1.0
 76
     1
 77
     6
 78
     2
 67
     7
 79
     5
170
     0
171
     0
290
     0
174
     0
 93
        1
 44
0.0
173
     0
291
     0
 45
0.0
1001
ACAD
1000
AcDbSavedByObjectVersion
1070
     0
  0
VISUALSTYLE
  5
99A8
102
{ACAD_XDICTIONARY
360
9A05
102
}
102
{ACAD_REACTORS
330
99A3
102
}
330
99A3
100
AcDbVisualStyle
  2
Basic
 70
     7
 71
     1
 72
     0
 73
     1
 90
        0
 40
-0.6
 41
-30.0
 62
     5
 63
     7
 74
     0
 91
        4
 64
     7
 65
   257
 75
     1
175
     1
 42
1.0
 92
        8
 66
     7
 43
1.0
 76
     1
 77
     6
 78
     2
 67
     7
 79
     5
170
     0
171
     0
290
     0
174
     0
 93
        1
 44
0.0
173
     0
291
     1
 45
0.0
1001
ACAD
1000
AcDbSavedByObjectVersion
1070
     0
  0
VISUALSTYLE
  5
99AF
102
{ACAD_XDICTIONARY
360
9A13
102
}
102
{ACAD_REACTORS
330
99A3
102
}
330
99A3
100
AcDbVisualStyle
  2
Brighten
 70
    12
 71
     2
 72
     2
 73
     0
 90
        0
 40
-0.6
 41
-30.0
 62
     5
 63
     7
 74
     1
 91
        4
 64
     7
 65
   257
 75
     1
175
     1
 42
1.0
 92
        8
 66
     7
 43
1.0
 76
     1
 77
     6
 78
     2
 67
     7
 79
     5
170
     0
171
     0
290
     0
174
     0
 93
        1
 44
50.0
173
     0
291
     1
 45
0.0
1001
ACAD
1000
AcDbSavedByObjectVersion
1070
     0
  0
VISUALSTYLE
  5
99B3
102
{ACAD_XDICTIONARY
360
9A1B
102
}
102
{ACAD_REACTORS
330
99A3
102
}
330
99A3
100
AcDbVisualStyle
  2
ColorChange
 70
    16
 71
     2
 72
     2
 73
     3
 90
        0
 40
-0.6
 41
-30.0
 62
     5
 63
     8
 74
     1
 91
        4
 64
     7
 65
   257
 75
     1
175
     1
 42
1.0
 92
        8
 66
     8
 43
1.0
 76
     1
 77
     6
 78
     2
 67
     7
 79
     5
170
     0
171
     0
290
     0
174
     0
 93
        1
 44
0.0
173
     0
291
     1
 45
0.0
1001
ACAD
1000
AcDbSavedByObjectVersion
1070
     0
  0
VISUALSTYLE
  5
99AC
102
{ACAD_XDICTIONARY
360
9A0D
102
}
102
{ACAD_REACTORS
330
99A3
102
}
330
99A3
100
AcDbVisualStyle
  2
Conceptual
 70
     9
 71
     3
 72
     2
 73
     0
 90
        0
 40
-0.6
 41
-30.0
 62
     5
 63
     7
 74
     2
 91
        2
 64
     7
 65
   257
 75
     1
175
     1
 42
179.0
 92
        8
 66
     7
 43
1.0
 76
     1
 77
     6
 78
     2
 67
     7
 79
     3
170
     0
171
     0
290
     0
174
     0
 93
        1
 44
0.0
173
     0
291
     0
 45
0.0
1001
ACAD
1000
AcDbSavedByObjectVersion
1070
     0
  0
VISUALSTYLE
  5
99AE
102
{ACAD_XDICTIONARY
360
9A11
102
}
102
{ACAD_REACTORS
330
99A3
102
}
330
99A3
100
AcDbVisualStyle
  2
Dim
 70
    11
 71
     2
 72
     2
 73
     0
 90
        0
 40
-0.6
 41
-30.0
 62
     5
 63
     7
 74
     1
 91
        4
 64
     7
 65
   257
 75
     1
175
     1
 42
1.0
 92
        8
 66
     7
 43
1.0
 76
     1
 77
     6
 78
     2
 67
     7
 79
     5
170
     0
171
     0
290
     0
174
     0
 93
        1
 44
-50.0
173
     0
291
     1
 45
0.0
1001
ACAD
1000
AcDbSavedByObjectVersion
1070
     0
  0
VISUALSTYLE
  5
99BB
102
{ACAD_XDICTIONARY
360
9A2B
102
}
102
{ACAD_REACTORS
330
99A3
102
}
330
99A3
100
AcDbVisualStyle
  2
EdgeColorOff
 70
    22
 71
     2
 72
     2
 73
     0
 90
        0
 40
-0.6
 41
-30.0
 62
     5
 63
     7
 74
     1
 91
        4
 64
     7
 65
   257
 75
     1
175
     1
 42
1.0
 92
        8
 66
     7
 43
1.0
 76
     1
 77
     6
 78
     2
 67
     7
 79
     5
170
     0
171
     0
290
     0
174
     0
 93
        1
 44
0.0
173
     0
291
     1
 45
0.0
1001
ACAD
1000
AcDbSavedByObjectVersion
1070
     0
  0
VISUALSTYLE
  5
99B2
102
{ACAD_XDICTIONARY
360
9A19
102
}
102
{ACAD_REACTORS
330
99A3
102
}
330
99A3
100
AcDbVisualStyle
  2
Facepattern
 70
    15
 71
     2
 72
     2
 73
     0
 90
        0
 40
-0.6
 41
-30.0
 62
     5
 63
     7
 74
     1
 91
        4
 64
     7
 65
   257
 75
     1
175
     1
 42
1.0
 92
        8
 66
     7
 43
1.0
 76
     1
 77
     6
 78
     2
 67
     7
 79
     5
170
     0
171
     0
290
     0
174
     0
 93
        1
 44
0.0
173
     0
291
     1
 45
0.0
1001
ACAD
1000
AcDbSavedByObjectVersion
1070
     0
  0
VISUALSTYLE
  5
99A4
102
{ACAD_XDICTIONARY
360
99FD
102
}
102
{ACAD_REACTORS
330
99A3
102
}
330
99A3
100
AcDbVisualStyle
  2
Flat
 70
     0
 71
     2
 72
     1
 73
     1
 90
        2
 40
-0.6
 41
30.0
 62
     5
 63
     7
 74
     0
 91
        0
 64
     7
 65
   257
 75
     1
175
     1
 42
1.0
 92
        8
 66
     7
 43
1.0
 76
     1
 77
     6
 78
     2
 67
     7
 79
     5
170
     0
171
     0
290
     0
174
     0
 93
       13
 44
0.0
173
     0
291
     1
 45
0.0
1001
ACAD
1000
AcDbSavedByObjectVersion
1070
     0
  0
VISUALSTYLE
  5
99A5
102
{ACAD_XDICTIONARY
360
99FF
102
}
102
{ACAD_REACTORS
330
99A3
102
}
330
99A3
100
AcDbVisualStyle
  2
FlatWithEdges
 70
     1
 71
     2
 72
     1
 73
     1
 90
        2
 40
-0.6
 41
30.0
 62
     5
 63
     7
 74
     1
 91
        0
 64
     7
 65
   257
 75
     1
175
     1
 42
1.0
 92
        0
 66
   257
 43
1.0
 76
     1
 77
     6
 78
     2
 67
     7
 79
     5
170
     0
171
     0
290
     0
174
     0
 93
       13
 44
0.0
173
     0
291
     1
 45
0.0
1001
ACAD
1000
AcDbSavedByObjectVersion
1070
     0
  0
VISUALSTYLE
  5
99A6
102
{ACAD_XDICTIONARY
360
9A01
102
}
102
{ACAD_REACTORS
330
99A3
102
}
330
99A3
100
AcDbVisualStyle
  2
Gouraud
 70
     2
 71
     2
 72
     2
 73
     1
 90
        2
 40
-0.6
 41
30.0
 62
     5
 63
     7
 74
     0
 91
        0
 64
     7
 65
   257
 75
     1
175
     1
 42
1.0
 92
        0
 66
     7
 43
1.0
 76
     1
 77
     6
 78
     2
 67
     7
 79
     5
170
     0
171
     0
290
     0
174
     0
 93
       13
 44
0.0
173
     0
291
     1
 45
0.0
1001
ACAD
1000
AcDbSavedByObjectVersion
1070
     0
  0
VISUALSTYLE
  5
99A7
102
{ACAD_XDICTIONARY
360
9A03
102
}
102
{ACAD_REACTORS
330
99A3
102
}
330
99A3
100
AcDbVisualStyle
  2
GouraudWithEdges
 70
     3
 71
     2
 72
     2
 73
     1
 90
        2
 40
-0.6
 41
30.0
 62
     5
 63
     7
 74
     1
 91
        0
 64
     7
 65
   257
 75
     1
175
     1
 42
1.0
 92
        0
 66
   257
 43
1.0
 76
     1
 77
     6
 78
     2
 67
     7
 79
     5
170
     0
171
     0
290
     0
174
     0
 93
       13
 44
0.0
173
     0
291
     1
 45
0.0
1001
ACAD
1000
AcDbSavedByObjectVersion
1070
     0
  0
VISUALSTYLE
  5
99AB
102
{ACAD_XDICTIONARY
360
9A0B
102
}
102
{ACAD_REACTORS
330
99A3
102
}
330
99A3
100
AcDbVisualStyle
  2
Hidden
 70
     6
 71
     1
 72
     2
 73
     2
 90
        0
 40
-0.6
 41
-30.0
 62
     5
 63
     7
 74
     2
 91
        2
 64
     7
 65
   257
 75
     2
175
     1
 42
40.0
 92
        0
 66
   257
 43
1.0
 76
     1
 77
     6
 78
     2
 67
     7
 79
     3
170
     0
171
     0
290
     0
174
     0
 93
        1
 44
0.0
173
     0
291
     0
 45
0.0
1001
ACAD
1000
AcDbSavedByObjectVersion
1070
     0
  0
VISUALSTYLE
  5
99B9
102
{ACAD_XDICTIONARY
360
9A27
102
}
102
{ACAD_REACTORS
330
99A3
102
}
330
99A3
100
AcDbVisualStyle
  2
JitterOff
 70
    20
 71
     2
 72
     2
 73
     0
 90
        0
 40
-0.6
 41
-30.0
 62
     5
 63
     7
 74
     1
 91
        4
 64
     7
 65
   257
 75
     1
175
     1
 42
1.0
 92
       10
 66
     7
 43
1.0
 76
     1
 77
     6
 78
     2
 67
     7
 79
     5
170
     0
171
     0
290
     0
174
     0
 93
        1
 44
0.0
173
     0
291
     1
 45
0.0
1001
ACAD
1000
AcDbSavedByObjectVersion
1070
     0
  0
VISUALSTYLE
  5
99B1
102
{ACAD_XDICTIONARY
360
9A17
102
}
102
{ACAD_REACTORS
330
99A3
102
}
330
99A3
100
AcDbVisualStyle
  2
Linepattern
 70
    14
 71
     2
 72
     2
 73
     0
 90
        0
 40
-0.6
 41
-30.0
 62
     5
 63
     7
 74
     1
 91
        4
 64
     7
 65
   257
 75
     7
175
     7
 42
1.0
 92
        8
 66
     7
 43
1.0
 76
     1
 77
     6
 78
     2
 67
     7
 79
     5
170
     0
171
     0
290
     0
174
     0
 93
        1
 44
0.0
173
     0
291
     1
 45
0.0
1001
ACAD
1000
AcDbSavedByObjectVersion
1070
     0
  0
VISUALSTYLE
  5
99BA
102
{ACAD_XDICTIONARY
360
9A29
102
}
102
{ACAD_REACTORS
330
99A3
102
}
330
99A3
100
AcDbVisualStyle
  2
OverhangOff
 70
    21
 71
     2
 72
     2
 73
     0
 90
        0
 40
-0.6
 41
-30.0
 62
     5
 63
     7
 74
     1
 91
        4
 64
     7
 65
   257
 75
     1
175
     1
 42
1.0
 92
        9
 66
     7
 43
1.0
 76
     1
 77
     6
 78
     2
 67
     7
 79
     5
170
     0
171
     0
290
     0
174
     0
 93
        1
 44
0.0
173
     0
291
     1
 45
0.0
1001
ACAD
1000
AcDbSavedByObjectVersion
1070
     0
  0
VISUALSTYLE
  5
99AD
102
{ACAD_XDICTIONARY
360
9A0F
102
}
102
{ACAD_REACTORS
330
99A3
102
}
330
99A3
100
AcDbVisualStyle
  2
Realistic
 70
     8
 71
     2
 72
     3
 73
     0
 90
        2
 40
-0.6
 41
30.0
 62
     5
 63
     7
 74
     0
 91
        0
 64
     7
 65
   257
 75
     1
175
     1
 42
1.0
 92
        8
 66
   257
 43
1.0
 76
     1
 77
     6
 78
     2
 67
     7
 79
     3
170
     0
171
     0
290
     0
174
     0
 93
       13
 44
0.0
173
     0
291
     0
 45
0.0
1001
ACAD
1000
AcDbSavedByObjectVersion
1070
     0
  0
VISUALSTYLE
  5
99B8
102
{ACAD_XDICTIONARY
360
9A25
102
}
102
{ACAD_REACTORS
330
99A3
102
}
330
99A3
100
AcDbVisualStyle
  2
Shaded
 70
    27
 71
     2
 72
     2
 73
     1
 90
        2
 40
-0.6
 41
30.0
 62
     5
 63
     7
 74
     0
 91
        4
 64
     7
 65
   257
 75
     1
175
     1
 42
1.0
 92
        8
 66
   257
 43
1.0
 76
     1
 77
     6
 78
     2
 67
     8
 79
     3
170
     0
171
     0
290
     0
174
     0
 93
        5
 44
0.0
173
     0
291
     0
 45
0.0
1001
ACAD
1000
AcDbSavedByObjectVersion
1070
     0
  0
VISUALSTYLE
  5
99B7
102
{ACAD_XDICTIONARY
360
9A23
102
}
102
{ACAD_REACTORS
330
99A3
102
}
330
99A3
100
AcDbVisualStyle
  2
Shaded with edges
 70
    26
 71
     2
 72
     2
 73
     1
 90
        2
 40
-0.6
 41
30.0
 62
     5
 63
     7
 74
     1
 91
       10
 64
     7
 65
   257
 75
     2
175
     1
 42
1.0
 92
        8
 66
   257
 43
1.0
 76
     1
 77
     6
 78
     2
 67
     7
 79
     3
170
     0
171
     0
290
     0
174
     0
 93
        5
 44
0.0
173
     0
291
     0
 45
0.0
1001
ACAD
1000
AcDbSavedByObjectVersion
1070
     0
  0
VISUALSTYLE
  5
99B4
102
{ACAD_XDICTIONARY
360
9A1D
102
}
102
{ACAD_REACTORS
330
99A3
102
}
330
99A3
100
AcDbVisualStyle
  2
Shades of Gray
 70
    23
 71
     2
 72
     2
 73
     3
 90
        0
 40
-0.6
 41
-30.0
 62
     5
 63
     7
 74
     2
 91
        2
 64
     7
 65
     7
 75
     1
175
     1
 42
40.0
 92
        8
 66
     7
 43
1.0
 76
     1
 77
     6
 78
     2
 67
     7
 79
     3
170
     0
171
     0
290
     0
174
     0
 93
        1
 44
0.0
173
     0
291
     0
 45
0.0
1001
ACAD
1000
AcDbSavedByObjectVersion
1070
     0
  0
VISUALSTYLE
  5
99B5
102
{ACAD_XDICTIONARY
360
9A1F
102
}
102
{ACAD_REACTORS
330
99A3
102
}
330
99A3
100
AcDbVisualStyle
  2
Sketchy
 70
    24
 71
     1
 72
     2
 73
     2
 90
        0
 40
-0.6
 41
-30.0
 62
     5
 63
     7
 74
     2
 91
        2
 64
     7
 65
     7
 75
     1
175
     1
 42
40.0
 92
       11
 66
     7
 43
1.0
 76
     1
 77
     6
 78
     2
 67
     7
 79
     6
170
     0
171
     0
290
     0
174
     0
 93
        1
 44
0.0
173
     0
291
     0
 45
0.0
1001
ACAD
1000
AcDbSavedByObjectVersion
1070
     0
  0
VISUALSTYLE
  5
99B0
102
{ACAD_XDICTIONARY
360
9A15
102
}
102
{ACAD_REACTORS
330
99A3
102
}
330
99A3
100
AcDbVisualStyle
  2
Thicken
 70
    13
 71
     2
 72
     2
 73
     0
 90
        0
 40
-0.6
 41
-30.0
 62
     5
 63
     7
 74
     1
 91
        4
 64
     7
 65
   257
 75
     1
175
     1
 42
1.0
 92
       12
 66
     7
 43
1.0
 76
     1
 77
     6
 78
     2
 67
     7
 79
     5
170
     0
171
     0
290
     0
174
     0
 93
        1
 44
0.0
173
     0
291
     1
 45
0.0
1001
ACAD
1000
AcDbSavedByObjectVersion
1070
     0
  0
VISUALSTYLE
  5
99AA
102
{ACAD_XDICTIONARY
360
9A09
102
}
102
{ACAD_REACTORS
330
99A3
102
}
330
99A3
100
AcDbVisualStyle
  2
Wireframe
 70
     5
 71
     0
 72
     2
 73
     0
 90
        0
 40
-0.6
 41
-30.0
 62
     5
 63
     7
 74
     1
 91
        4
 64
     7
 65
   257
 75
     1
175
     1
 42
1.0
 92
        0
 66
   257
 43
1.0
 76
     1
 77
     6
 78
     2
 67
     7
 79
     3
170
     0
171
     0
290
     0
174
     0
 93
        1
 44
0.0
173
     0
291
     0
 45
0.0
1001
ACAD
1000
AcDbSavedByObjectVersion
1070
     0
  0
VISUALSTYLE
  5
99B6
102
{ACAD_XDICTIONARY
360
9A21
102
}
102
{ACAD_REACTORS
330
99A3
102
}
330
99A3
100
AcDbVisualStyle
  2
X-Ray
 70
    25
 71
     2
 72
     2
 73
     1
 90
        1
 40
0.5
 41
-30.0
 62
     5
 63
     7
 74
     1
 91
        0
 64
     7
 65
   257
 75
     1
175
     1
 42
1.0
 92
        8
 66
     7
 43
1.0
 76
     1
 77
     6
 78
     2
 67
     7
 79
     3
170
     0
171
     0
290
     0
174
     0
 93
       13
 44
0.0
173
     0
291
     0
 45
0.0
1001
ACAD
1000
AcDbSavedByObjectVersion
1070
     0
  0
DICTIONARYVAR
  5
99F0
102
{ACAD_REACTORS
330
99EB
102
}
330
99EB
100
DictionaryVariables
280
     0
  1
1:1
  0
DICTIONARYVAR
  5
99ED
102
{ACAD_REACTORS
330
99EB
102
}
330
99EB
100
DictionaryVariables
280
     0
  1
STANDARD
  0
DICTIONARYVAR
  5
99EC
102
{ACAD_REACTORS
330
99EB
102
}
330
99EB
100
DictionaryVariables
280
     0
  1
STANDARD
  0
DICTIONARYVAR
  5
99EE
102
{ACAD_REACTORS
330
99EB
102
}
330
99EB
100
DictionaryVariables
280
     0
  1
Imperial24
  0
DICTIONARYVAR
  5
99EF
102
{ACAD_REACTORS
330
99EB
102
}
330
99EB
100
DictionaryVariables
280
     0
  1
Imperial24
  0
DICTIONARYVAR
  5
99F3
102
{ACAD_REACTORS
330
99EB
102
}
330
99EB
100
DictionaryVariables
280
     0
  1
1
  0
DICTIONARYVAR
  5
99F2
102
{ACAD_REACTORS
330
99EB
102
}
330
99EB
100
DictionaryVariables
280
     0
  1
0
  0
DICTIONARYVAR
  5
99F1
102
{ACAD_REACTORS
330
99EB
102
}
330
99EB
100
DictionaryVariables
280
     0
  1
127
  0
DICTIONARYVAR
  5
99F4
102
{ACAD_REACTORS
330
99EB
102
}
330
99EB
100
DictionaryVariables
280
     0
  1
2
  0
DICTIONARY
  5
9A31
330
99D6
100
AcDbDictionary
280
     1
281
     1
  3
ACAD_XREC_ROUNDTRIP
360
9A32
  0
DICTIONARY
  5
9A33
330
99D7
100
AcDbDictionary
280
     1
281
     1
  3
ACAD_XREC_ROUNDTRIP
360
9A34
  0
DICTIONARY
  5
9A35
330
99D8
100
AcDbDictionary
280
     1
281
     1
  3
ACAD_XREC_ROUNDTRIP
360
9A36
  0
DICTIONARY
  5
9994
330
9993
100
AcDbDictionary
280
     1
281
     1
  3
ACAD_XREC_ROUNDTRIP
360
99FB
  3
BUMPTILE
360
9996
  3
DIFFUSETILE
360
9995
  3
OPACITYTILE
360
9999
  3
REFLECTIONTILE
360
9998
  3
REFRACTIONTILE
360
999A
  3
SPECULARTILE
360
9997
  0
DICTIONARY
  5
998C
330
998B
100
AcDbDictionary
280
     1
281
     1
  3
ACAD_XREC_ROUNDTRIP
360
99FA
  3
BUMPTILE
360
998E
  3
DIFFUSETILE
360
998D
  3
OPACITYTILE
360
9991
  3
REFLECTIONTILE
360
9990
  3
REFRACTIONTILE
360
9992
  3
SPECULARTILE
360
998F
  0
DICTIONARY
  5
999C
330
999B
100
AcDbDictionary
280
     1
281
     1
  3
ACAD_XREC_ROUNDTRIP
360
99FC
  3
BUMPTILE
360
999E
  3
DIFFUSETILE
360
999D
  3
OPACITYTILE
360
99A1
  3
REFLECTIONTILE
360
99A0
  3
REFRACTIONTILE
360
99A2
  3
SPECULARTILE
360
999F
  0
DICTIONARY
  5
9A2F
330
99D4
100
AcDbDictionary
280
     1
281
     1
  3
ACAD_XREC_ROUNDTRIP
360
9A30
  0
DICTIONARY
  5
99F6
330
99BE
100
AcDbDictionary
280
     1
281
     1
  3
ACAD_ROUNDTRIP_2008_TABLESTYLE_CELLSTYLEMAP
360
99F7
  3
ACAD_XREC_ROUNDTRIP
360
9A2D
  0
DICTIONARY
  5
9A07
330
99A9
100
AcDbDictionary
280
     1
281
     1
  3
ACAD_XREC_ROUNDTRIP
360
9A08
  0
DICTIONARY
  5
9A05
330
99A8
100
AcDbDictionary
280
     1
281
     1
  3
ACAD_XREC_ROUNDTRIP
360
9A06
  0
DICTIONARY
  5
9A13
330
99AF
100
AcDbDictionary
280
     1
281
     1
  3
ACAD_XREC_ROUNDTRIP
360
9A14
  0
DICTIONARY
  5
9A1B
330
99B3
100
AcDbDictionary
280
     1
281
     1
  3
ACAD_XREC_ROUNDTRIP
360
9A1C
  0
DICTIONARY
  5
9A0D
330
99AC
100
AcDbDictionary
280
     1
281
     1
  3
ACAD_XREC_ROUNDTRIP
360
9A0E
  0
DICTIONARY
  5
9A11
330
99AE
100
AcDbDictionary
280
     1
281
     1
  3
ACAD_XREC_ROUNDTRIP
360
9A12
  0
DICTIONARY
  5
9A2B
330
99BB
100
AcDbDictionary
280
     1
281
     1
  3
ACAD_XREC_ROUNDTRIP
360
9A2C
  0
DICTIONARY
  5
9A19
330
99B2
100
AcDbDictionary
280
     1
281
     1
  3
ACAD_XREC_ROUNDTRIP
360
9A1A
  0
DICTIONARY
  5
99FD
330
99A4
100
AcDbDictionary
280
     1
281
     1
  3
ACAD_XREC_ROUNDTRIP
360
99FE
  0
DICTIONARY
  5
99FF
330
99A5
100
AcDbDictionary
280
     1
281
     1
  3
ACAD_XREC_ROUNDTRIP
360
9A00
  0
DICTIONARY
  5
9A01
330
99A6
100
AcDbDictionary
280
     1
281
     1
  3
ACAD_XREC_ROUNDTRIP
360
9A02
  0
DICTIONARY
  5
9A03
330
99A7
100
AcDbDictionary
280
     1
281
     1
  3
ACAD_XREC_ROUNDTRIP
360
9A04
  0
DICTIONARY
  5
9A0B
330
99AB
100
AcDbDictionary
280
     1
281
     1
  3
ACAD_XREC_ROUNDTRIP
360
9A0C
  0
DICTIONARY
  5
9A27
330
99B9
100
AcDbDictionary
280
     1
281
     1
  3
ACAD_XREC_ROUNDTRIP
360
9A28
  0
DICTIONARY
  5
9A17
330
99B1
100
AcDbDictionary
280
     1
281
     1
  3
ACAD_XREC_ROUNDTRIP
360
9A18
  0
DICTIONARY
  5
9A29
330
99BA
100
AcDbDictionary
280
     1
281
     1
  3
ACAD_XREC_ROUNDTRIP
360
9A2A
  0
DICTIONARY
  5
9A0F
330
99AD
100
AcDbDictionary
280
     1
281
     1
  3
ACAD_XREC_ROUNDTRIP
360
9A10
  0
DICTIONARY
  5
9A25
330
99B8
100
AcDbDictionary
280
     1
281
     1
  3
ACAD_XREC_ROUNDTRIP
360
9A26
  0
DICTIONARY
  5
9A23
330
99B7
100
AcDbDictionary
280
     1
281
     1
  3
ACAD_XREC_ROUNDTRIP
360
9A24
  0
DICTIONARY
  5
9A1D
330
99B4
100
AcDbDictionary
280
     1
281
     1
  3
ACAD_XREC_ROUNDTRIP
360
9A1E
  0
DICTIONARY
  5
9A1F
330
99B5
100
AcDbDictionary
280
     1
281
     1
  3
ACAD_XREC_ROUNDTRIP
360
9A20
  0
DICTIONARY
  5
9A15
330
99B0
100
AcDbDictionary
280
     1
281
     1
  3
ACAD_XREC_ROUNDTRIP
360
9A16
  0
DICTIONARY
  5
9A09
330
99AA
100
AcDbDictionary
280
     1
281
     1
  3
ACAD_XREC_ROUNDTRIP
360
9A0A
  0
DICTIONARY
  5
9A21
330
99B6
100
AcDbDictionary
280
     1
281
     1
  3
ACAD_XREC_ROUNDTRIP
360
9A22
  0
XRECORD
  5
9A32
102
{ACAD_REACTORS
330
9A31
102
}
330
9A31
100
AcDbXrecord
280
     1
102
DISPLAYNAME
  1
Imperial24
102
FLAGS
 90
        0
  0
XRECORD
  5
9A34
102
{ACAD_REACTORS
330
9A33
102
}
330
9A33
100
AcDbXrecord
280
     1
102
SHADEPLOT
 70
     0
102
SHADEPLOTRESLEVEL
 70
     2
102
SHADEPLOTCUSTOMDPI
 70
   300
  0
XRECORD
  5
9A36
102
{ACAD_REACTORS
330
9A35
102
}
330
9A35
100
AcDbXrecord
280
     1
102
SHADEPLOT
 70
     0
102
SHADEPLOTRESLEVEL
 70
     2
102
SHADEPLOTCUSTOMDPI
 70
   300
  0
XRECORD
  5
99FB
102
{ACAD_REACTORS
330
9994
102
}
330
9994
100
AcDbXrecord
280
     1
102
MATERIAL
148
0.0
149
0.0
149
0.0
 93
        0
 94
      127
282
     0
 72
     0
 77
     0
171
     0
175
     0
179
     0
273
     0
  0
XRECORD
  5
9996
102
{ACAD_REACTORS
330
9994
102
}
330
9994
100
AcDbXrecord
280
     1
270
     1
271
     1
  0
XRECORD
  5
9995
102
{ACAD_REACTORS
330
9994
102
}
330
9994
100
AcDbXrecord
280
     1
270
     1
271
     1
  0
XRECORD
  5
9999
102
{ACAD_REACTORS
330
9994
102
}
330
9994
100
AcDbXrecord
280
     1
270
     1
271
     1
  0
XRECORD
  5
9998
102
{ACAD_REACTORS
330
9994
102
}
330
9994
100
AcDbXrecord
280
     1
270
     1
271
     1
  0
XRECORD
  5
999A
102
{ACAD_REACTORS
330
9994
102
}
330
9994
100
AcDbXrecord
280
     1
270
     1
271
     1
  0
XRECORD
  5
9997
102
{ACAD_REACTORS
330
9994
102
}
330
9994
100
AcDbXrecord
280
     1
270
     1
271
     1
  0
XRECORD
  5
99FA
102
{ACAD_REACTORS
330
998C
102
}
330
998C
100
AcDbXrecord
280
     1
102
MATERIAL
148
0.0
149
0.0
149
0.0
 93
        0
 94
      127
282
     0
 72
     0
 77
     0
171
     0
175
     0
179
     0
273
     0
  0
XRECORD
  5
998E
102
{ACAD_REACTORS
330
998C
102
}
330
998C
100
AcDbXrecord
280
     1
270
     1
271
     1
  0
XRECORD
  5
998D
102
{ACAD_REACTORS
330
998C
102
}
330
998C
100
AcDbXrecord
280
     1
270
     1
271
     1
  0
XRECORD
  5
9991
102
{ACAD_REACTORS
330
998C
102
}
330
998C
100
AcDbXrecord
280
     1
270
     1
271
     1
  0
XRECORD
  5
9990
102
{ACAD_REACTORS
330
998C
102
}
330
998C
100
AcDbXrecord
280
     1
270
     1
271
     1
  0
XRECORD
  5
9992
102
{ACAD_REACTORS
330
998C
102
}
330
998C
100
AcDbXrecord
280
     1
270
     1
271
     1
  0
XRECORD
  5
998F
102
{ACAD_REACTORS
330
998C
102
}
330
998C
100
AcDbXrecord
280
     1
270
     1
271
     1
  0
XRECORD
  5
99FC
102
{ACAD_REACTORS
330
999C
102
}
330
999C
100
AcDbXrecord
280
     1
102
MATERIAL
148
0.0
149
0.0
149
0.0
 93
        0
 94
      127
282
     0
 72
     0
 77
     0
171
     0
175
     0
179
     0
273
     0
  0
XRECORD
  5
999E
102
{ACAD_REACTORS
330
999C
102
}
330
999C
100
AcDbXrecord
280
     1
270
     1
271
     1
  0
XRECORD
  5
999D
102
{ACAD_REACTORS
330
999C
102
}
330
999C
100
AcDbXrecord
280
     1
270
     1
271
     1
  0
XRECORD
  5
99A1
102
{ACAD_REACTORS
330
999C
102
}
330
999C
100
AcDbXrecord
280
     1
270
     1
271
     1
  0
XRECORD
  5
99A0
102
{ACAD_REACTORS
330
999C
102
}
330
999C
100
AcDbXrecord
280
     1
270
     1
271
     1
  0
XRECORD
  5
99A2
102
{ACAD_REACTORS
330
999C
102
}
330
999C
100
AcDbXrecord
280
     1
270
     1
271
     1
  0
XRECORD
  5
999F
102
{ACAD_REACTORS
330
999C
102
}
330
999C
100
AcDbXrecord
280
     1
270
     1
271
     1
  0
XRECORD
  5
9A30
102
{ACAD_REACTORS
330
9A2F
102
}
330
9A2F
100
AcDbXrecord
280
     1
102
DISPLAYNAME
  1
Imperial24
102
FLAGS
 90
        0
  0
CELLSTYLEMAP
  5
99F7
102
{ACAD_REACTORS
330
99F6
102
}
330
99F6
100
AcDbCellStyleMap
 90
        3
300
CELLSTYLE
  1
TABLEFORMAT_BEGIN
 90
        5
170
     1
 91
        0
 92
    32768
 62
   257
 93
        1
300
CONTENTFORMAT
  1
CONTENTFORMAT_BEGIN
 90
        0
 91
        0
 92
      512
 93
        0
300

 40
0.0
140
1.0
 94
        5
 62
     0
340
97A7
144
0.25
309
CONTENTFORMAT_END
171
     0
 94
        0
309
TABLEFORMAT_END
  1
CELLSTYLE_BEGIN
 90
        1
 91
        1
300
_TITLE
309
CELLSTYLE_END
300
CELLSTYLE
  1
TABLEFORMAT_BEGIN
 90
        5
170
     1
 91
        0
 92
        0
 62
   257
 93
        1
300
CONTENTFORMAT
  1
CONTENTFORMAT_BEGIN
 90
        0
 91
        0
 92
      512
 93
        0
300

 40
0.0
140
1.0
 94
        5
 62
     0
340
97A7
144
0.18
309
CONTENTFORMAT_END
171
     0
 94
        0
309
TABLEFORMAT_END
  1
CELLSTYLE_BEGIN
 90
        2
 91
        1
300
_HEADER
309
CELLSTYLE_END
300
CELLSTYLE
  1
TABLEFORMAT_BEGIN
 90
        5
170
     1
 91
        0
 92
        0
 62
   257
 93
        1
300
CONTENTFORMAT
  1
CONTENTFORMAT_BEGIN
 90
        0
 91
        0
 92
      512
 93
        0
300

 40
0.0
140
1.0
 94
        2
 62
     0
340
97A7
144
0.18
309
CONTENTFORMAT_END
171
     0
 94
        0
309
TABLEFORMAT_END
  1
CELLSTYLE_BEGIN
 90
        3
 91
        2
300
_DATA
309
CELLSTYLE_END
  0
XRECORD
  5
9A2D
102
{ACAD_REACTORS
330
99F6
102
}
330
99F6
100
AcDbXrecord
280
     1
102
ACAD_ROUNDTRIP_PRE2007_TABLESTYLE
 90
      512
 91
        0
  1

 92
      512
 93
        0
  2

 94
      512
 95
        0
  3

  0
XRECORD
  5
9A08
102
{ACAD_REACTORS
330
9A07
102
}
330
9A07
100
AcDbXrecord
280
     1
102
RTVSPost2010Prop28
280
     1
102
RTVSPost2010PropOp28
 70
     1
102
RTVSPost2010Prop29
280
     1
102
RTVSPost2010PropOp29
 70
     1
102
RTVSPost2010Prop30
280
     0
102
RTVSPost2010PropOp30
 70
     1
102
RTVSPost2010Prop31
280
     0
102
RTVSPost2010PropOp31
 70
     1
102
RTVSPost2010Prop32
280
     0
102
RTVSPost2010PropOp32
 70
     1
102
RTVSPost2010Prop33
280
     0
102
RTVSPost2010PropOp33
 70
     1
102
RTVSPost2010Prop34
280
     0
102
RTVSPost2010PropOp34
 70
     1
102
RTVSPost2010Prop35
280
     0
102
RTVSPost2010PropOp35
 70
     1
102
RTVSPost2010Prop36
280
     0
102
RTVSPost2010PropOp36
 70
     1
102
RTVSPost2010Prop37
 90
       50
102
RTVSPost2010PropOp37
 70
     1
102
RTVSPost2010Prop38
140
0.0
102
RTVSPost2010PropOp38
 70
     1
102
RTVSPost2010Prop39
140
1.0
102
RTVSPost2010PropOp39
 70
     1
102
RTVSPost2010Prop40
 90
        0
102
RTVSPost2010PropOp40
 70
     1
102
RTVSPost2010Prop41ColorIndex
 90
       18
102
RTVSPost2010Prop41ColorRGB
 90
        0
102
RTVSPost2010PropOp41
 70
     1
102
RTVSPost2010Prop42
 90
       50
102
RTVSPost2010PropOp42
 70
     1
102
RTVSPost2010Prop43
 90
        3
102
RTVSPost2010PropOp43
 70
     1
102
RTVSPost2010Prop44ColorIndex
 90
        5
102
RTVSPost2010Prop44ColorRGB
 90
      255
102
RTVSPost2010PropOp44
 70
     1
102
RTVSPost2010Prop45
280
     0
102
RTVSPost2010PropOp45
 70
     1
102
RTVSPost2010Prop46
 90
       50
102
RTVSPost2010PropOp46
 70
     1
102
RTVSPost2010Prop47
 90
       50
102
RTVSPost2010PropOp47
 70
     1
102
RTVSPost2010Prop48
 90
       50
102
RTVSPost2010PropOp48
 70
     1
102
RTVSPost2010Prop49
280
     0
102
RTVSPost2010PropOp49
 70
     1
102
RTVSPost2010Prop50
 90
       50
102
RTVSPost2010PropOp50
 70
     1
102
RTVSPost2010Prop51ColorIndex
 90
      256
102
RTVSPost2010Prop51ColorRGB
 90
-16777216
102
RTVSPost2010PropOp51
 70
     0
102
RTVSPost2010Prop52
140
1.0
102
RTVSPost2010PropOp52
 70
     0
102
RTVSPost2010Prop53
 90
        2
102
RTVSPost2010PropOp53
 70
     1
102
RTVSPost2010Prop54
  1
strokes_ogs.tif
102
RTVSPost2010PropOp54
 70
     1
102
RTVSPost2010Prop55
280
     0
102
RTVSPost2010PropOp55
 70
     1
102
RTVSPost2010Prop56
140
1.0
102
RTVSPost2010PropOp56
 70
     1
102
RTVSPost2010Prop57
140
1.0
102
RTVSPost2010PropOp57
 70
     1
102
RTVSPropertyOp0
 70
     1
102
RTVSPropertyOp1
 70
     1
102
RTVSPropertyOp2
 70
     1
102
RTVSPropertyOp3
 70
     1
102
RTVSPropertyOp4
 70
     1
102
RTVSPropertyOp5
 70
     1
102
RTVSPropertyOp6
 70
     1
102
RTVSPropertyOp7
 70
     1
102
RTVSPropertyOp8
 70
     1
102
RTVSPropertyOp9
 70
     1
102
RTVSPropertyOp10
 70
     1
102
RTVSPropertyOp11
 70
     1
102
RTVSPropertyOp12
 70
     1
102
RTVSPropertyOp13
 70
     1
102
RTVSPropertyOp14
 70
     1
102
RTVSPropertyOp15
 70
     1
102
RTVSPropertyOp16
 70
     1
102
RTVSPropertyOp17
 70
     1
102
RTVSPropertyOp18
 70
     1
102
RTVSPropertyOp19
 70
     1
102
RTVSPropertyOp20
 70
     1
102
RTVSPropertyOp21
 70
     1
102
RTVSPropertyOp22
 70
     1
102
RTVSPropertyOp23
 70
     1
102
RTVSPropertyOp24
 70
     1
102
RTVSPropertyOp25
 70
     1
102
RTVSPropertyOp26
 70
     1
102
RTVSPropertyOp27
 70
     1
102
RTVSPropertyOp28
 70
     1
102
RTVSPropertyOp29
 70
     1
102
RTVSPropertyOp30
 70
     1
102
RTVSPropertyOp31
 70
     1
102
RTVSPropertyOp32
 70
     1
102
RTVSPropertyOp33
 70
     1
102
RTVSPropertyOp34
 70
     1
102
RTVSPropertyOp35
 70
     1
102
RTVSPropertyOp36
 70
     1
102
RTVSPropertyOp37
 70
     1
102
RTVSPropertyOp38
 70
     1
102
RTVSPropertyOp39
 70
     1
102
RTVSPropertyOp40
 70
     1
102
RTVSPropertyOp41
 70
     1
102
RTVSPropertyOp42
 70
     1
102
RTVSPropertyOp43
 70
     1
102
RTVSPropertyOp44
 70
     1
102
RTVSPropertyOp45
 70
     1
102
RTVSPropertyOp46
 70
     1
102
RTVSPropertyOp47
 70
     1
102
RTVSPropertyOp48
 70
     1
102
RTVSPropertyOp49
 70
     1
102
RTVSPropertyOp50
 70
     1
102
RTVSPropertyOp51
 70
     0
102
RTVSPropertyOp52
 70
     0
102
RTVSPropertyOp53
 70
     1
102
RTVSPropertyOp54
 70
     1
102
RTVSPropertyOp55
 70
     1
102
RTVSPropertyOp56
 70
     1
102
RTVSPropertyOp57
 70
     1
102
RTVSPropertyOp58
 70
     1
102
RTVSPropertyOp59
 70
     1
102
RTVSPropertyOp60
 70
     1
102
RTVSPropertyOp61
 70
     1
102
RTVSPropertyOp62
 70
     1
  0
XRECORD
  5
9A06
102
{ACAD_REACTORS
330
9A05
102
}
330
9A05
100
AcDbXrecord
280
     1
102
RTVSPost2010Prop28
280
     0
102
RTVSPost2010PropOp28
 70
     1
102
RTVSPost2010Prop29
280
     1
102
RTVSPost2010PropOp29
 70
     1
102
RTVSPost2010Prop30
280
     1
102
RTVSPost2010PropOp30
 70
     1
102
RTVSPost2010Prop31
280
     0
102
RTVSPost2010PropOp31
 70
     1
102
RTVSPost2010Prop32
280
     0
102
RTVSPost2010PropOp32
 70
     1
102
RTVSPost2010Prop33
280
     0
102
RTVSPost2010PropOp33
 70
     1
102
RTVSPost2010Prop34
280
     0
102
RTVSPost2010PropOp34
 70
     1
102
RTVSPost2010Prop35
280
     0
102
RTVSPost2010PropOp35
 70
     1
102
RTVSPost2010Prop36
280
     0
102
RTVSPost2010PropOp36
 70
     1
102
RTVSPost2010Prop37
 90
       50
102
RTVSPost2010PropOp37
 70
     1
102
RTVSPost2010Prop38
140
0.0
102
RTVSPost2010PropOp38
 70
     1
102
RTVSPost2010Prop39
140
1.0
102
RTVSPost2010PropOp39
 70
     1
102
RTVSPost2010Prop40
 90
        0
102
RTVSPost2010PropOp40
 70
     1
102
RTVSPost2010Prop41ColorIndex
 90
       18
102
RTVSPost2010Prop41ColorRGB
 90
        0
102
RTVSPost2010PropOp41
 70
     1
102
RTVSPost2010Prop42
 90
       50
102
RTVSPost2010PropOp42
 70
     1
102
RTVSPost2010Prop43
 90
        3
102
RTVSPost2010PropOp43
 70
     1
102
RTVSPost2010Prop44ColorIndex
 90
        5
102
RTVSPost2010Prop44ColorRGB
 90
      255
102
RTVSPost2010PropOp44
 70
     1
102
RTVSPost2010Prop45
280
     0
102
RTVSPost2010PropOp45
 70
     1
102
RTVSPost2010Prop46
 90
       50
102
RTVSPost2010PropOp46
 70
     1
102
RTVSPost2010Prop47
 90
       50
102
RTVSPost2010PropOp47
 70
     1
102
RTVSPost2010Prop48
 90
       50
102
RTVSPost2010PropOp48
 70
     1
102
RTVSPost2010Prop49
280
     0
102
RTVSPost2010PropOp49
 70
     1
102
RTVSPost2010Prop50
 90
       50
102
RTVSPost2010PropOp50
 70
     1
102
RTVSPost2010Prop51ColorIndex
 90
      256
102
RTVSPost2010Prop51ColorRGB
 90
-16777216
102
RTVSPost2010PropOp51
 70
     0
102
RTVSPost2010Prop52
140
1.0
102
RTVSPost2010PropOp52
 70
     0
102
RTVSPost2010Prop53
 90
        2
102
RTVSPost2010PropOp53
 70
     1
102
RTVSPost2010Prop54
  1
strokes_ogs.tif
102
RTVSPost2010PropOp54
 70
     1
102
RTVSPost2010Prop55
280
     0
102
RTVSPost2010PropOp55
 70
     1
102
RTVSPost2010Prop56
140
1.0
102
RTVSPost2010PropOp56
 70
     1
102
RTVSPost2010Prop57
140
1.0
102
RTVSPost2010PropOp57
 70
     1
102
RTVSPropertyOp0
 70
     1
102
RTVSPropertyOp1
 70
     1
102
RTVSPropertyOp2
 70
     1
102
RTVSPropertyOp3
 70
     1
102
RTVSPropertyOp4
 70
     1
102
RTVSPropertyOp5
 70
     1
102
RTVSPropertyOp6
 70
     1
102
RTVSPropertyOp7
 70
     1
102
RTVSPropertyOp8
 70
     1
102
RTVSPropertyOp9
 70
     1
102
RTVSPropertyOp10
 70
     1
102
RTVSPropertyOp11
 70
     1
102
RTVSPropertyOp12
 70
     1
102
RTVSPropertyOp13
 70
     1
102
RTVSPropertyOp14
 70
     1
102
RTVSPropertyOp15
 70
     1
102
RTVSPropertyOp16
 70
     1
102
RTVSPropertyOp17
 70
     1
102
RTVSPropertyOp18
 70
     1
102
RTVSPropertyOp19
 70
     1
102
RTVSPropertyOp20
 70
     1
102
RTVSPropertyOp21
 70
     1
102
RTVSPropertyOp22
 70
     1
102
RTVSPropertyOp23
 70
     1
102
RTVSPropertyOp24
 70
     1
102
RTVSPropertyOp25
 70
     1
102
RTVSPropertyOp26
 70
     1
102
RTVSPropertyOp27
 70
     1
102
RTVSPropertyOp28
 70
     1
102
RTVSPropertyOp29
 70
     1
102
RTVSPropertyOp30
 70
     1
102
RTVSPropertyOp31
 70
     1
102
RTVSPropertyOp32
 70
     1
102
RTVSPropertyOp33
 70
     1
102
RTVSPropertyOp34
 70
     1
102
RTVSPropertyOp35
 70
     1
102
RTVSPropertyOp36
 70
     1
102
RTVSPropertyOp37
 70
     1
102
RTVSPropertyOp38
 70
     1
102
RTVSPropertyOp39
 70
     1
102
RTVSPropertyOp40
 70
     1
102
RTVSPropertyOp41
 70
     1
102
RTVSPropertyOp42
 70
     1
102
RTVSPropertyOp43
 70
     1
102
RTVSPropertyOp44
 70
     1
102
RTVSPropertyOp45
 70
     1
102
RTVSPropertyOp46
 70
     1
102
RTVSPropertyOp47
 70
     1
102
RTVSPropertyOp48
 70
     1
102
RTVSPropertyOp49
 70
     1
102
RTVSPropertyOp50
 70
     1
102
RTVSPropertyOp51
 70
     0
102
RTVSPropertyOp52
 70
     0
102
RTVSPropertyOp53
 70
     1
102
RTVSPropertyOp54
 70
     1
102
RTVSPropertyOp55
 70
     1
102
RTVSPropertyOp56
 70
     1
102
RTVSPropertyOp57
 70
     1
102
RTVSPropertyOp58
 70
     1
102
RTVSPropertyOp59
 70
     1
102
RTVSPropertyOp60
 70
     1
102
RTVSPropertyOp61
 70
     1
102
RTVSPropertyOp62
 70
     1
  0
XRECORD
  5
9A14
102
{ACAD_REACTORS
330
9A13
102
}
330
9A13
100
AcDbXrecord
280
     1
102
RTVSPost2010Prop28
280
     0
102
RTVSPost2010PropOp28
 70
     1
102
RTVSPost2010Prop29
280
     1
102
RTVSPost2010PropOp29
 70
     1
102
RTVSPost2010Prop30
280
     1
102
RTVSPost2010PropOp30
 70
     1
102
RTVSPost2010Prop31
280
     0
102
RTVSPost2010PropOp31
 70
     1
102
RTVSPost2010Prop32
280
     0
102
RTVSPost2010PropOp32
 70
     1
102
RTVSPost2010Prop33
280
     0
102
RTVSPost2010PropOp33
 70
     1
102
RTVSPost2010Prop34
280
     0
102
RTVSPost2010PropOp34
 70
     1
102
RTVSPost2010Prop35
280
     0
102
RTVSPost2010PropOp35
 70
     1
102
RTVSPost2010Prop36
280
     0
102
RTVSPost2010PropOp36
 70
     1
102
RTVSPost2010Prop37
 90
       50
102
RTVSPost2010PropOp37
 70
     1
102
RTVSPost2010Prop38
140
0.0
102
RTVSPost2010PropOp38
 70
     1
102
RTVSPost2010Prop39
140
1.0
102
RTVSPost2010PropOp39
 70
     1
102
RTVSPost2010Prop40
 90
        0
102
RTVSPost2010PropOp40
 70
     1
102
RTVSPost2010Prop41ColorIndex
 90
       18
102
RTVSPost2010Prop41ColorRGB
 90
        0
102
RTVSPost2010PropOp41
 70
     1
102
RTVSPost2010Prop42
 90
       50
102
RTVSPost2010PropOp42
 70
     1
102
RTVSPost2010Prop43
 90
        3
102
RTVSPost2010PropOp43
 70
     1
102
RTVSPost2010Prop44ColorIndex
 90
        5
102
RTVSPost2010Prop44ColorRGB
 90
      255
102
RTVSPost2010PropOp44
 70
     1
102
RTVSPost2010Prop45
280
     0
102
RTVSPost2010PropOp45
 70
     1
102
RTVSPost2010Prop46
 90
       50
102
RTVSPost2010PropOp46
 70
     1
102
RTVSPost2010Prop47
 90
       50
102
RTVSPost2010PropOp47
 70
     1
102
RTVSPost2010Prop48
 90
       50
102
RTVSPost2010PropOp48
 70
     1
102
RTVSPost2010Prop49
280
     0
102
RTVSPost2010PropOp49
 70
     1
102
RTVSPost2010Prop50
 90
       50
102
RTVSPost2010PropOp50
 70
     1
102
RTVSPost2010Prop51ColorIndex
 90
      256
102
RTVSPost2010Prop51ColorRGB
 90
-16777216
102
RTVSPost2010PropOp51
 70
     0
102
RTVSPost2010Prop52
140
1.0
102
RTVSPost2010PropOp52
 70
     0
102
RTVSPost2010Prop53
 90
        2
102
RTVSPost2010PropOp53
 70
     1
102
RTVSPost2010Prop54
  1
strokes_ogs.tif
102
RTVSPost2010PropOp54
 70
     1
102
RTVSPost2010Prop55
280
     0
102
RTVSPost2010PropOp55
 70
     1
102
RTVSPost2010Prop56
140
1.0
102
RTVSPost2010PropOp56
 70
     1
102
RTVSPost2010Prop57
140
1.0
102
RTVSPost2010PropOp57
 70
     1
102
RTVSPropertyOp0
 70
     1
102
RTVSPropertyOp1
 70
     1
102
RTVSPropertyOp2
 70
     1
102
RTVSPropertyOp3
 70
     1
102
RTVSPropertyOp4
 70
     1
102
RTVSPropertyOp5
 70
     1
102
RTVSPropertyOp6
 70
     1
102
RTVSPropertyOp7
 70
     1
102
RTVSPropertyOp8
 70
     1
102
RTVSPropertyOp9
 70
     1
102
RTVSPropertyOp10
 70
     1
102
RTVSPropertyOp11
 70
     1
102
RTVSPropertyOp12
 70
     1
102
RTVSPropertyOp13
 70
     1
102
RTVSPropertyOp14
 70
     1
102
RTVSPropertyOp15
 70
     1
102
RTVSPropertyOp16
 70
     1
102
RTVSPropertyOp17
 70
     1
102
RTVSPropertyOp18
 70
     1
102
RTVSPropertyOp19
 70
     1
102
RTVSPropertyOp20
 70
     1
102
RTVSPropertyOp21
 70
     1
102
RTVSPropertyOp22
 70
     1
102
RTVSPropertyOp23
 70
     1
102
RTVSPropertyOp24
 70
     1
102
RTVSPropertyOp25
 70
     1
102
RTVSPropertyOp26
 70
     1
102
RTVSPropertyOp27
 70
     1
102
RTVSPropertyOp28
 70
     1
102
RTVSPropertyOp29
 70
     1
102
RTVSPropertyOp30
 70
     1
102
RTVSPropertyOp31
 70
     1
102
RTVSPropertyOp32
 70
     1
102
RTVSPropertyOp33
 70
     1
102
RTVSPropertyOp34
 70
     1
102
RTVSPropertyOp35
 70
     1
102
RTVSPropertyOp36
 70
     1
102
RTVSPropertyOp37
 70
     1
102
RTVSPropertyOp38
 70
     1
102
RTVSPropertyOp39
 70
     1
102
RTVSPropertyOp40
 70
     1
102
RTVSPropertyOp41
 70
     1
102
RTVSPropertyOp42
 70
     1
102
RTVSPropertyOp43
 70
     1
102
RTVSPropertyOp44
 70
     1
102
RTVSPropertyOp45
 70
     1
102
RTVSPropertyOp46
 70
     1
102
RTVSPropertyOp47
 70
     1
102
RTVSPropertyOp48
 70
     1
102
RTVSPropertyOp49
 70
     1
102
RTVSPropertyOp50
 70
     1
102
RTVSPropertyOp51
 70
     0
102
RTVSPropertyOp52
 70
     0
102
RTVSPropertyOp53
 70
     1
102
RTVSPropertyOp54
 70
     1
102
RTVSPropertyOp55
 70
     1
102
RTVSPropertyOp56
 70
     1
102
RTVSPropertyOp57
 70
     1
102
RTVSPropertyOp58
 70
     1
102
RTVSPropertyOp59
 70
     1
102
RTVSPropertyOp60
 70
     1
102
RTVSPropertyOp61
 70
     1
102
RTVSPropertyOp62
 70
     1
  0
XRECORD
  5
9A1C
102
{ACAD_REACTORS
330
9A1B
102
}
330
9A1B
100
AcDbXrecord
280
     1
102
RTVSPost2010Prop28
280
     0
102
RTVSPost2010PropOp28
 70
     1
102
RTVSPost2010Prop29
280
     1
102
RTVSPost2010PropOp29
 70
     1
102
RTVSPost2010Prop30
280
     1
102
RTVSPost2010PropOp30
 70
     1
102
RTVSPost2010Prop31
280
     0
102
RTVSPost2010PropOp31
 70
     1
102
RTVSPost2010Prop32
280
     0
102
RTVSPost2010PropOp32
 70
     1
102
RTVSPost2010Prop33
280
     0
102
RTVSPost2010PropOp33
 70
     1
102
RTVSPost2010Prop34
280
     0
102
RTVSPost2010PropOp34
 70
     1
102
RTVSPost2010Prop35
280
     0
102
RTVSPost2010PropOp35
 70
     1
102
RTVSPost2010Prop36
280
     0
102
RTVSPost2010PropOp36
 70
     1
102
RTVSPost2010Prop37
 90
       50
102
RTVSPost2010PropOp37
 70
     1
102
RTVSPost2010Prop38
140
0.0
102
RTVSPost2010PropOp38
 70
     1
102
RTVSPost2010Prop39
140
1.0
102
RTVSPost2010PropOp39
 70
     1
102
RTVSPost2010Prop40
 90
        0
102
RTVSPost2010PropOp40
 70
     1
102
RTVSPost2010Prop41ColorIndex
 90
       18
102
RTVSPost2010Prop41ColorRGB
 90
        0
102
RTVSPost2010PropOp41
 70
     1
102
RTVSPost2010Prop42
 90
       50
102
RTVSPost2010PropOp42
 70
     1
102
RTVSPost2010Prop43
 90
        3
102
RTVSPost2010PropOp43
 70
     1
102
RTVSPost2010Prop44ColorIndex
 90
        5
102
RTVSPost2010Prop44ColorRGB
 90
      255
102
RTVSPost2010PropOp44
 70
     1
102
RTVSPost2010Prop45
280
     0
102
RTVSPost2010PropOp45
 70
     1
102
RTVSPost2010Prop46
 90
       50
102
RTVSPost2010PropOp46
 70
     1
102
RTVSPost2010Prop47
 90
       50
102
RTVSPost2010PropOp47
 70
     1
102
RTVSPost2010Prop48
 90
       50
102
RTVSPost2010PropOp48
 70
     1
102
RTVSPost2010Prop49
280
     0
102
RTVSPost2010PropOp49
 70
     1
102
RTVSPost2010Prop50
 90
       50
102
RTVSPost2010PropOp50
 70
     1
102
RTVSPost2010Prop51ColorIndex
 90
      256
102
RTVSPost2010Prop51ColorRGB
 90
-16777216
102
RTVSPost2010PropOp51
 70
     0
102
RTVSPost2010Prop52
140
1.0
102
RTVSPost2010PropOp52
 70
     0
102
RTVSPost2010Prop53
 90
        2
102
RTVSPost2010PropOp53
 70
     1
102
RTVSPost2010Prop54
  1
strokes_ogs.tif
102
RTVSPost2010PropOp54
 70
     1
102
RTVSPost2010Prop55
280
     0
102
RTVSPost2010PropOp55
 70
     1
102
RTVSPost2010Prop56
140
1.0
102
RTVSPost2010PropOp56
 70
     1
102
RTVSPost2010Prop57
140
1.0
102
RTVSPost2010PropOp57
 70
     1
102
RTVSPropertyOp0
 70
     1
102
RTVSPropertyOp1
 70
     1
102
RTVSPropertyOp2
 70
     1
102
RTVSPropertyOp3
 70
     1
102
RTVSPropertyOp4
 70
     1
102
RTVSPropertyOp5
 70
     1
102
RTVSPropertyOp6
 70
     1
102
RTVSPropertyOp7
 70
     1
102
RTVSPropertyOp8
 70
     1
102
RTVSPropertyOp9
 70
     1
102
RTVSPropertyOp10
 70
     1
102
RTVSPropertyOp11
 70
     1
102
RTVSPropertyOp12
 70
     1
102
RTVSPropertyOp13
 70
     1
102
RTVSPropertyOp14
 70
     1
102
RTVSPropertyOp15
 70
     1
102
RTVSPropertyOp16
 70
     1
102
RTVSPropertyOp17
 70
     1
102
RTVSPropertyOp18
 70
     1
102
RTVSPropertyOp19
 70
     1
102
RTVSPropertyOp20
 70
     1
102
RTVSPropertyOp21
 70
     1
102
RTVSPropertyOp22
 70
     1
102
RTVSPropertyOp23
 70
     1
102
RTVSPropertyOp24
 70
     1
102
RTVSPropertyOp25
 70
     1
102
RTVSPropertyOp26
 70
     1
102
RTVSPropertyOp27
 70
     1
102
RTVSPropertyOp28
 70
     1
102
RTVSPropertyOp29
 70
     1
102
RTVSPropertyOp30
 70
     1
102
RTVSPropertyOp31
 70
     1
102
RTVSPropertyOp32
 70
     1
102
RTVSPropertyOp33
 70
     1
102
RTVSPropertyOp34
 70
     1
102
RTVSPropertyOp35
 70
     1
102
RTVSPropertyOp36
 70
     1
102
RTVSPropertyOp37
 70
     1
102
RTVSPropertyOp38
 70
     1
102
RTVSPropertyOp39
 70
     1
102
RTVSPropertyOp40
 70
     1
102
RTVSPropertyOp41
 70
     1
102
RTVSPropertyOp42
 70
     1
102
RTVSPropertyOp43
 70
     1
102
RTVSPropertyOp44
 70
     1
102
RTVSPropertyOp45
 70
     1
102
RTVSPropertyOp46
 70
     1
102
RTVSPropertyOp47
 70
     1
102
RTVSPropertyOp48
 70
     1
102
RTVSPropertyOp49
 70
     1
102
RTVSPropertyOp50
 70
     1
102
RTVSPropertyOp51
 70
     0
102
RTVSPropertyOp52
 70
     0
102
RTVSPropertyOp53
 70
     1
102
RTVSPropertyOp54
 70
     1
102
RTVSPropertyOp55
 70
     1
102
RTVSPropertyOp56
 70
     1
102
RTVSPropertyOp57
 70
     1
102
RTVSPropertyOp58
 70
     1
102
RTVSPropertyOp59
 70
     1
102
RTVSPropertyOp60
 70
     1
102
RTVSPropertyOp61
 70
     1
102
RTVSPropertyOp62
 70
     1
  0
XRECORD
  5
9A0E
102
{ACAD_REACTORS
330
9A0D
102
}
330
9A0D
100
AcDbXrecord
280
     1
102
RTVSPost2010Prop28
280
     0
102
RTVSPost2010PropOp28
 70
     1
102
RTVSPost2010Prop29
280
     1
102
RTVSPost2010PropOp29
 70
     1
102
RTVSPost2010Prop30
280
     1
102
RTVSPost2010PropOp30
 70
     1
102
RTVSPost2010Prop31
280
     0
102
RTVSPost2010PropOp31
 70
     1
102
RTVSPost2010Prop32
280
     0
102
RTVSPost2010PropOp32
 70
     1
102
RTVSPost2010Prop33
280
     0
102
RTVSPost2010PropOp33
 70
     1
102
RTVSPost2010Prop34
280
     0
102
RTVSPost2010PropOp34
 70
     1
102
RTVSPost2010Prop35
280
     0
102
RTVSPost2010PropOp35
 70
     1
102
RTVSPost2010Prop36
280
     0
102
RTVSPost2010PropOp36
 70
     1
102
RTVSPost2010Prop37
 90
       50
102
RTVSPost2010PropOp37
 70
     1
102
RTVSPost2010Prop38
140
0.0
102
RTVSPost2010PropOp38
 70
     1
102
RTVSPost2010Prop39
140
1.0
102
RTVSPost2010PropOp39
 70
     1
102
RTVSPost2010Prop40
 90
        0
102
RTVSPost2010PropOp40
 70
     1
102
RTVSPost2010Prop41ColorIndex
 90
       18
102
RTVSPost2010Prop41ColorRGB
 90
        0
102
RTVSPost2010PropOp41
 70
     1
102
RTVSPost2010Prop42
 90
       50
102
RTVSPost2010PropOp42
 70
     1
102
RTVSPost2010Prop43
 90
        3
102
RTVSPost2010PropOp43
 70
     1
102
RTVSPost2010Prop44ColorIndex
 90
        5
102
RTVSPost2010Prop44ColorRGB
 90
      255
102
RTVSPost2010PropOp44
 70
     1
102
RTVSPost2010Prop45
280
     0
102
RTVSPost2010PropOp45
 70
     1
102
RTVSPost2010Prop46
 90
       50
102
RTVSPost2010PropOp46
 70
     1
102
RTVSPost2010Prop47
 90
       50
102
RTVSPost2010PropOp47
 70
     1
102
RTVSPost2010Prop48
 90
       50
102
RTVSPost2010PropOp48
 70
     1
102
RTVSPost2010Prop49
280
     0
102
RTVSPost2010PropOp49
 70
     1
102
RTVSPost2010Prop50
 90
       50
102
RTVSPost2010PropOp50
 70
     1
102
RTVSPost2010Prop51ColorIndex
 90
      256
102
RTVSPost2010Prop51ColorRGB
 90
-16777216
102
RTVSPost2010PropOp51
 70
     0
102
RTVSPost2010Prop52
140
1.0
102
RTVSPost2010PropOp52
 70
     0
102
RTVSPost2010Prop53
 90
        2
102
RTVSPost2010PropOp53
 70
     1
102
RTVSPost2010Prop54
  1
strokes_ogs.tif
102
RTVSPost2010PropOp54
 70
     1
102
RTVSPost2010Prop55
280
     0
102
RTVSPost2010PropOp55
 70
     1
102
RTVSPost2010Prop56
140
1.0
102
RTVSPost2010PropOp56
 70
     1
102
RTVSPost2010Prop57
140
1.0
102
RTVSPost2010PropOp57
 70
     1
102
RTVSPropertyOp0
 70
     1
102
RTVSPropertyOp1
 70
     1
102
RTVSPropertyOp2
 70
     1
102
RTVSPropertyOp3
 70
     1
102
RTVSPropertyOp4
 70
     1
102
RTVSPropertyOp5
 70
     1
102
RTVSPropertyOp6
 70
     1
102
RTVSPropertyOp7
 70
     1
102
RTVSPropertyOp8
 70
     1
102
RTVSPropertyOp9
 70
     1
102
RTVSPropertyOp10
 70
     1
102
RTVSPropertyOp11
 70
     1
102
RTVSPropertyOp12
 70
     1
102
RTVSPropertyOp13
 70
     1
102
RTVSPropertyOp14
 70
     1
102
RTVSPropertyOp15
 70
     1
102
RTVSPropertyOp16
 70
     1
102
RTVSPropertyOp17
 70
     1
102
RTVSPropertyOp18
 70
     1
102
RTVSPropertyOp19
 70
     1
102
RTVSPropertyOp20
 70
     1
102
RTVSPropertyOp21
 70
     1
102
RTVSPropertyOp22
 70
     1
102
RTVSPropertyOp23
 70
     1
102
RTVSPropertyOp24
 70
     1
102
RTVSPropertyOp25
 70
     1
102
RTVSPropertyOp26
 70
     1
102
RTVSPropertyOp27
 70
     1
102
RTVSPropertyOp28
 70
     1
102
RTVSPropertyOp29
 70
     1
102
RTVSPropertyOp30
 70
     1
102
RTVSPropertyOp31
 70
     1
102
RTVSPropertyOp32
 70
     1
102
RTVSPropertyOp33
 70
     1
102
RTVSPropertyOp34
 70
     1
102
RTVSPropertyOp35
 70
     1
102
RTVSPropertyOp36
 70
     1
102
RTVSPropertyOp37
 70
     1
102
RTVSPropertyOp38
 70
     1
102
RTVSPropertyOp39
 70
     1
102
RTVSPropertyOp40
 70
     1
102
RTVSPropertyOp41
 70
     1
102
RTVSPropertyOp42
 70
     1
102
RTVSPropertyOp43
 70
     1
102
RTVSPropertyOp44
 70
     1
102
RTVSPropertyOp45
 70
     1
102
RTVSPropertyOp46
 70
     1
102
RTVSPropertyOp47
 70
     1
102
RTVSPropertyOp48
 70
     1
102
RTVSPropertyOp49
 70
     1
102
RTVSPropertyOp50
 70
     1
102
RTVSPropertyOp51
 70
     0
102
RTVSPropertyOp52
 70
     0
102
RTVSPropertyOp53
 70
     1
102
RTVSPropertyOp54
 70
     1
102
RTVSPropertyOp55
 70
     1
102
RTVSPropertyOp56
 70
     1
102
RTVSPropertyOp57
 70
     1
102
RTVSPropertyOp58
 70
     1
102
RTVSPropertyOp59
 70
     1
102
RTVSPropertyOp60
 70
     1
102
RTVSPropertyOp61
 70
     1
102
RTVSPropertyOp62
 70
     1
  0
XRECORD
  5
9A12
102
{ACAD_REACTORS
330
9A11
102
}
330
9A11
100
AcDbXrecord
280
     1
102
RTVSPost2010Prop28
280
     0
102
RTVSPost2010PropOp28
 70
     1
102
RTVSPost2010Prop29
280
     1
102
RTVSPost2010PropOp29
 70
     1
102
RTVSPost2010Prop30
280
     1
102
RTVSPost2010PropOp30
 70
     1
102
RTVSPost2010Prop31
280
     0
102
RTVSPost2010PropOp31
 70
     1
102
RTVSPost2010Prop32
280
     0
102
RTVSPost2010PropOp32
 70
     1
102
RTVSPost2010Prop33
280
     0
102
RTVSPost2010PropOp33
 70
     1
102
RTVSPost2010Prop34
280
     0
102
RTVSPost2010PropOp34
 70
     1
102
RTVSPost2010Prop35
280
     0
102
RTVSPost2010PropOp35
 70
     1
102
RTVSPost2010Prop36
280
     0
102
RTVSPost2010PropOp36
 70
     1
102
RTVSPost2010Prop37
 90
       50
102
RTVSPost2010PropOp37
 70
     1
102
RTVSPost2010Prop38
140
0.0
102
RTVSPost2010PropOp38
 70
     1
102
RTVSPost2010Prop39
140
1.0
102
RTVSPost2010PropOp39
 70
     1
102
RTVSPost2010Prop40
 90
        0
102
RTVSPost2010PropOp40
 70
     1
102
RTVSPost2010Prop41ColorIndex
 90
       18
102
RTVSPost2010Prop41ColorRGB
 90
        0
102
RTVSPost2010PropOp41
 70
     1
102
RTVSPost2010Prop42
 90
       50
102
RTVSPost2010PropOp42
 70
     1
102
RTVSPost2010Prop43
 90
        3
102
RTVSPost2010PropOp43
 70
     1
102
RTVSPost2010Prop44ColorIndex
 90
        5
102
RTVSPost2010Prop44ColorRGB
 90
      255
102
RTVSPost2010PropOp44
 70
     1
102
RTVSPost2010Prop45
280
     0
102
RTVSPost2010PropOp45
 70
     1
102
RTVSPost2010Prop46
 90
       50
102
RTVSPost2010PropOp46
 70
     1
102
RTVSPost2010Prop47
 90
       50
102
RTVSPost2010PropOp47
 70
     1
102
RTVSPost2010Prop48
 90
       50
102
RTVSPost2010PropOp48
 70
     1
102
RTVSPost2010Prop49
280
     0
102
RTVSPost2010PropOp49
 70
     1
102
RTVSPost2010Prop50
 90
       50
102
RTVSPost2010PropOp50
 70
     1
102
RTVSPost2010Prop51ColorIndex
 90
      256
102
RTVSPost2010Prop51ColorRGB
 90
-16777216
102
RTVSPost2010PropOp51
 70
     0
102
RTVSPost2010Prop52
140
1.0
102
RTVSPost2010PropOp52
 70
     0
102
RTVSPost2010Prop53
 90
        2
102
RTVSPost2010PropOp53
 70
     1
102
RTVSPost2010Prop54
  1
strokes_ogs.tif
102
RTVSPost2010PropOp54
 70
     1
102
RTVSPost2010Prop55
280
     0
102
RTVSPost2010PropOp55
 70
     1
102
RTVSPost2010Prop56
140
1.0
102
RTVSPost2010PropOp56
 70
     1
102
RTVSPost2010Prop57
140
1.0
102
RTVSPost2010PropOp57
 70
     1
102
RTVSPropertyOp0
 70
     1
102
RTVSPropertyOp1
 70
     1
102
RTVSPropertyOp2
 70
     1
102
RTVSPropertyOp3
 70
     1
102
RTVSPropertyOp4
 70
     1
102
RTVSPropertyOp5
 70
     1
102
RTVSPropertyOp6
 70
     1
102
RTVSPropertyOp7
 70
     1
102
RTVSPropertyOp8
 70
     1
102
RTVSPropertyOp9
 70
     1
102
RTVSPropertyOp10
 70
     1
102
RTVSPropertyOp11
 70
     1
102
RTVSPropertyOp12
 70
     1
102
RTVSPropertyOp13
 70
     1
102
RTVSPropertyOp14
 70
     1
102
RTVSPropertyOp15
 70
     1
102
RTVSPropertyOp16
 70
     1
102
RTVSPropertyOp17
 70
     1
102
RTVSPropertyOp18
 70
     1
102
RTVSPropertyOp19
 70
     1
102
RTVSPropertyOp20
 70
     1
102
RTVSPropertyOp21
 70
     1
102
RTVSPropertyOp22
 70
     1
102
RTVSPropertyOp23
 70
     1
102
RTVSPropertyOp24
 70
     1
102
RTVSPropertyOp25
 70
     1
102
RTVSPropertyOp26
 70
     1
102
RTVSPropertyOp27
 70
     1
102
RTVSPropertyOp28
 70
     1
102
RTVSPropertyOp29
 70
     1
102
RTVSPropertyOp30
 70
     1
102
RTVSPropertyOp31
 70
     1
102
RTVSPropertyOp32
 70
     1
102
RTVSPropertyOp33
 70
     1
102
RTVSPropertyOp34
 70
     1
102
RTVSPropertyOp35
 70
     1
102
RTVSPropertyOp36
 70
     1
102
RTVSPropertyOp37
 70
     1
102
RTVSPropertyOp38
 70
     1
102
RTVSPropertyOp39
 70
     1
102
RTVSPropertyOp40
 70
     1
102
RTVSPropertyOp41
 70
     1
102
RTVSPropertyOp42
 70
     1
102
RTVSPropertyOp43
 70
     1
102
RTVSPropertyOp44
 70
     1
102
RTVSPropertyOp45
 70
     1
102
RTVSPropertyOp46
 70
     1
102
RTVSPropertyOp47
 70
     1
102
RTVSPropertyOp48
 70
     1
102
RTVSPropertyOp49
 70
     1
102
RTVSPropertyOp50
 70
     1
102
RTVSPropertyOp51
 70
     0
102
RTVSPropertyOp52
 70
     0
102
RTVSPropertyOp53
 70
     1
102
RTVSPropertyOp54
 70
     1
102
RTVSPropertyOp55
 70
     1
102
RTVSPropertyOp56
 70
     1
102
RTVSPropertyOp57
 70
     1
102
RTVSPropertyOp58
 70
     1
102
RTVSPropertyOp59
 70
     1
102
RTVSPropertyOp60
 70
     1
102
RTVSPropertyOp61
 70
     1
102
RTVSPropertyOp62
 70
     1
  0
XRECORD
  5
9A2C
102
{ACAD_REACTORS
330
9A2B
102
}
330
9A2B
100
AcDbXrecord
280
     1
102
RTVSPost2010Prop28
280
     0
102
RTVSPost2010PropOp28
 70
     1
102
RTVSPost2010Prop29
280
     1
102
RTVSPost2010PropOp29
 70
     1
102
RTVSPost2010Prop30
280
     1
102
RTVSPost2010PropOp30
 70
     1
102
RTVSPost2010Prop31
280
     0
102
RTVSPost2010PropOp31
 70
     1
102
RTVSPost2010Prop32
280
     0
102
RTVSPost2010PropOp32
 70
     1
102
RTVSPost2010Prop33
280
     0
102
RTVSPost2010PropOp33
 70
     1
102
RTVSPost2010Prop34
280
     0
102
RTVSPost2010PropOp34
 70
     1
102
RTVSPost2010Prop35
280
     0
102
RTVSPost2010PropOp35
 70
     1
102
RTVSPost2010Prop36
280
     0
102
RTVSPost2010PropOp36
 70
     1
102
RTVSPost2010Prop37
 90
       50
102
RTVSPost2010PropOp37
 70
     0
102
RTVSPost2010Prop38
140
0.0
102
RTVSPost2010PropOp38
 70
     0
102
RTVSPost2010Prop39
140
1.0
102
RTVSPost2010PropOp39
 70
     0
102
RTVSPost2010Prop40
 90
        0
102
RTVSPost2010PropOp40
 70
     0
102
RTVSPost2010Prop41ColorIndex
 90
       18
102
RTVSPost2010Prop41ColorRGB
 90
        0
102
RTVSPost2010PropOp41
 70
     0
102
RTVSPost2010Prop42
 90
       50
102
RTVSPost2010PropOp42
 70
     0
102
RTVSPost2010Prop43
 90
        3
102
RTVSPost2010PropOp43
 70
     0
102
RTVSPost2010Prop44ColorIndex
 90
        5
102
RTVSPost2010Prop44ColorRGB
 90
      255
102
RTVSPost2010PropOp44
 70
     0
102
RTVSPost2010Prop45
280
     0
102
RTVSPost2010PropOp45
 70
     1
102
RTVSPost2010Prop46
 90
       50
102
RTVSPost2010PropOp46
 70
     0
102
RTVSPost2010Prop47
 90
       50
102
RTVSPost2010PropOp47
 70
     0
102
RTVSPost2010Prop48
 90
       50
102
RTVSPost2010PropOp48
 70
     0
102
RTVSPost2010Prop49
280
     0
102
RTVSPost2010PropOp49
 70
     1
102
RTVSPost2010Prop50
 90
       50
102
RTVSPost2010PropOp50
 70
     0
102
RTVSPost2010Prop51ColorIndex
 90
      256
102
RTVSPost2010Prop51ColorRGB
 90
-16777216
102
RTVSPost2010PropOp51
 70
     0
102
RTVSPost2010Prop52
140
1.0
102
RTVSPost2010PropOp52
 70
     0
102
RTVSPost2010Prop53
 90
        2
102
RTVSPost2010PropOp53
 70
     0
102
RTVSPost2010Prop54
  1
strokes_ogs.tif
102
RTVSPost2010PropOp54
 70
     0
102
RTVSPost2010Prop55
280
     0
102
RTVSPost2010PropOp55
 70
     1
102
RTVSPost2010Prop56
140
1.0
102
RTVSPost2010PropOp56
 70
     0
102
RTVSPost2010Prop57
140
1.0
102
RTVSPost2010PropOp57
 70
     0
102
RTVSPropertyOp0
 70
     0
102
RTVSPropertyOp1
 70
     0
102
RTVSPropertyOp2
 70
     0
102
RTVSPropertyOp3
 70
     0
102
RTVSPropertyOp4
 70
     0
102
RTVSPropertyOp5
 70
     0
102
RTVSPropertyOp6
 70
     0
102
RTVSPropertyOp7
 70
     0
102
RTVSPropertyOp8
 70
     0
102
RTVSPropertyOp9
 70
     0
102
RTVSPropertyOp10
 70
     0
102
RTVSPropertyOp11
 70
     0
102
RTVSPropertyOp12
 70
     0
102
RTVSPropertyOp13
 70
     0
102
RTVSPropertyOp14
 70
     2
102
RTVSPropertyOp15
 70
     0
102
RTVSPropertyOp16
 70
     0
102
RTVSPropertyOp17
 70
     0
102
RTVSPropertyOp18
 70
     0
102
RTVSPropertyOp19
 70
     0
102
RTVSPropertyOp20
 70
     0
102
RTVSPropertyOp21
 70
     0
102
RTVSPropertyOp22
 70
     0
102
RTVSPropertyOp23
 70
     0
102
RTVSPropertyOp24
 70
     0
102
RTVSPropertyOp25
 70
     0
102
RTVSPropertyOp26
 70
     0
102
RTVSPropertyOp27
 70
     0
102
RTVSPropertyOp28
 70
     1
102
RTVSPropertyOp29
 70
     1
102
RTVSPropertyOp30
 70
     1
102
RTVSPropertyOp31
 70
     1
102
RTVSPropertyOp32
 70
     1
102
RTVSPropertyOp33
 70
     1
102
RTVSPropertyOp34
 70
     1
102
RTVSPropertyOp35
 70
     1
102
RTVSPropertyOp36
 70
     1
102
RTVSPropertyOp37
 70
     0
102
RTVSPropertyOp38
 70
     0
102
RTVSPropertyOp39
 70
     0
102
RTVSPropertyOp40
 70
     0
102
RTVSPropertyOp41
 70
     0
102
RTVSPropertyOp42
 70
     0
102
RTVSPropertyOp43
 70
     0
102
RTVSPropertyOp44
 70
     0
102
RTVSPropertyOp45
 70
     1
102
RTVSPropertyOp46
 70
     0
102
RTVSPropertyOp47
 70
     0
102
RTVSPropertyOp48
 70
     0
102
RTVSPropertyOp49
 70
     1
102
RTVSPropertyOp50
 70
     0
102
RTVSPropertyOp51
 70
     0
102
RTVSPropertyOp52
 70
     0
102
RTVSPropertyOp53
 70
     0
102
RTVSPropertyOp54
 70
     0
102
RTVSPropertyOp55
 70
     1
102
RTVSPropertyOp56
 70
     0
102
RTVSPropertyOp57
 70
     0
102
RTVSPropertyOp58
 70
     0
102
RTVSPropertyOp59
 70
     0
102
RTVSPropertyOp60
 70
     0
102
RTVSPropertyOp61
 70
     0
102
RTVSPropertyOp62
 70
     0
  0
XRECORD
  5
9A1A
102
{ACAD_REACTORS
330
9A19
102
}
330
9A19
100
AcDbXrecord
280
     1
102
RTVSPost2010Prop28
280
     0
102
RTVSPost2010PropOp28
 70
     1
102
RTVSPost2010Prop29
280
     1
102
RTVSPost2010PropOp29
 70
     1
102
RTVSPost2010Prop30
280
     1
102
RTVSPost2010PropOp30
 70
     1
102
RTVSPost2010Prop31
280
     0
102
RTVSPost2010PropOp31
 70
     1
102
RTVSPost2010Prop32
280
     0
102
RTVSPost2010PropOp32
 70
     1
102
RTVSPost2010Prop33
280
     0
102
RTVSPost2010PropOp33
 70
     1
102
RTVSPost2010Prop34
280
     0
102
RTVSPost2010PropOp34
 70
     1
102
RTVSPost2010Prop35
280
     0
102
RTVSPost2010PropOp35
 70
     1
102
RTVSPost2010Prop36
280
     0
102
RTVSPost2010PropOp36
 70
     1
102
RTVSPost2010Prop37
 90
       50
102
RTVSPost2010PropOp37
 70
     1
102
RTVSPost2010Prop38
140
0.0
102
RTVSPost2010PropOp38
 70
     1
102
RTVSPost2010Prop39
140
1.0
102
RTVSPost2010PropOp39
 70
     1
102
RTVSPost2010Prop40
 90
        0
102
RTVSPost2010PropOp40
 70
     1
102
RTVSPost2010Prop41ColorIndex
 90
       18
102
RTVSPost2010Prop41ColorRGB
 90
        0
102
RTVSPost2010PropOp41
 70
     1
102
RTVSPost2010Prop42
 90
       50
102
RTVSPost2010PropOp42
 70
     1
102
RTVSPost2010Prop43
 90
        3
102
RTVSPost2010PropOp43
 70
     1
102
RTVSPost2010Prop44ColorIndex
 90
        5
102
RTVSPost2010Prop44ColorRGB
 90
      255
102
RTVSPost2010PropOp44
 70
     1
102
RTVSPost2010Prop45
280
     0
102
RTVSPost2010PropOp45
 70
     1
102
RTVSPost2010Prop46
 90
       50
102
RTVSPost2010PropOp46
 70
     1
102
RTVSPost2010Prop47
 90
       50
102
RTVSPost2010PropOp47
 70
     1
102
RTVSPost2010Prop48
 90
       50
102
RTVSPost2010PropOp48
 70
     1
102
RTVSPost2010Prop49
280
     0
102
RTVSPost2010PropOp49
 70
     1
102
RTVSPost2010Prop50
 90
       50
102
RTVSPost2010PropOp50
 70
     1
102
RTVSPost2010Prop51ColorIndex
 90
      256
102
RTVSPost2010Prop51ColorRGB
 90
-16777216
102
RTVSPost2010PropOp51
 70
     0
102
RTVSPost2010Prop52
140
1.0
102
RTVSPost2010PropOp52
 70
     0
102
RTVSPost2010Prop53
 90
        2
102
RTVSPost2010PropOp53
 70
     1
102
RTVSPost2010Prop54
  1
strokes_ogs.tif
102
RTVSPost2010PropOp54
 70
     1
102
RTVSPost2010Prop55
280
     0
102
RTVSPost2010PropOp55
 70
     1
102
RTVSPost2010Prop56
140
1.0
102
RTVSPost2010PropOp56
 70
     1
102
RTVSPost2010Prop57
140
1.0
102
RTVSPost2010PropOp57
 70
     1
102
RTVSPropertyOp0
 70
     1
102
RTVSPropertyOp1
 70
     1
102
RTVSPropertyOp2
 70
     1
102
RTVSPropertyOp3
 70
     1
102
RTVSPropertyOp4
 70
     1
102
RTVSPropertyOp5
 70
     1
102
RTVSPropertyOp6
 70
     1
102
RTVSPropertyOp7
 70
     1
102
RTVSPropertyOp8
 70
     1
102
RTVSPropertyOp9
 70
     1
102
RTVSPropertyOp10
 70
     1
102
RTVSPropertyOp11
 70
     1
102
RTVSPropertyOp12
 70
     1
102
RTVSPropertyOp13
 70
     1
102
RTVSPropertyOp14
 70
     1
102
RTVSPropertyOp15
 70
     1
102
RTVSPropertyOp16
 70
     1
102
RTVSPropertyOp17
 70
     1
102
RTVSPropertyOp18
 70
     1
102
RTVSPropertyOp19
 70
     1
102
RTVSPropertyOp20
 70
     1
102
RTVSPropertyOp21
 70
     1
102
RTVSPropertyOp22
 70
     1
102
RTVSPropertyOp23
 70
     1
102
RTVSPropertyOp24
 70
     1
102
RTVSPropertyOp25
 70
     1
102
RTVSPropertyOp26
 70
     1
102
RTVSPropertyOp27
 70
     1
102
RTVSPropertyOp28
 70
     1
102
RTVSPropertyOp29
 70
     1
102
RTVSPropertyOp30
 70
     1
102
RTVSPropertyOp31
 70
     1
102
RTVSPropertyOp32
 70
     1
102
RTVSPropertyOp33
 70
     1
102
RTVSPropertyOp34
 70
     1
102
RTVSPropertyOp35
 70
     1
102
RTVSPropertyOp36
 70
     1
102
RTVSPropertyOp37
 70
     1
102
RTVSPropertyOp38
 70
     1
102
RTVSPropertyOp39
 70
     1
102
RTVSPropertyOp40
 70
     1
102
RTVSPropertyOp41
 70
     1
102
RTVSPropertyOp42
 70
     1
102
RTVSPropertyOp43
 70
     1
102
RTVSPropertyOp44
 70
     1
102
RTVSPropertyOp45
 70
     1
102
RTVSPropertyOp46
 70
     1
102
RTVSPropertyOp47
 70
     1
102
RTVSPropertyOp48
 70
     1
102
RTVSPropertyOp49
 70
     1
102
RTVSPropertyOp50
 70
     1
102
RTVSPropertyOp51
 70
     0
102
RTVSPropertyOp52
 70
     0
102
RTVSPropertyOp53
 70
     1
102
RTVSPropertyOp54
 70
     1
102
RTVSPropertyOp55
 70
     1
102
RTVSPropertyOp56
 70
     1
102
RTVSPropertyOp57
 70
     1
102
RTVSPropertyOp58
 70
     1
102
RTVSPropertyOp59
 70
     1
102
RTVSPropertyOp60
 70
     1
102
RTVSPropertyOp61
 70
     1
102
RTVSPropertyOp62
 70
     1
  0
XRECORD
  5
99FE
102
{ACAD_REACTORS
330
99FD
102
}
330
99FD
100
AcDbXrecord
280
     1
102
RTVSPost2010Prop28
280
     0
102
RTVSPost2010PropOp28
 70
     1
102
RTVSPost2010Prop29
280
     1
102
RTVSPost2010PropOp29
 70
     1
102
RTVSPost2010Prop30
280
     1
102
RTVSPost2010PropOp30
 70
     1
102
RTVSPost2010Prop31
280
     0
102
RTVSPost2010PropOp31
 70
     1
102
RTVSPost2010Prop32
280
     0
102
RTVSPost2010PropOp32
 70
     1
102
RTVSPost2010Prop33
280
     0
102
RTVSPost2010PropOp33
 70
     1
102
RTVSPost2010Prop34
280
     0
102
RTVSPost2010PropOp34
 70
     1
102
RTVSPost2010Prop35
280
     0
102
RTVSPost2010PropOp35
 70
     1
102
RTVSPost2010Prop36
280
     0
102
RTVSPost2010PropOp36
 70
     1
102
RTVSPost2010Prop37
 90
       50
102
RTVSPost2010PropOp37
 70
     1
102
RTVSPost2010Prop38
140
0.0
102
RTVSPost2010PropOp38
 70
     1
102
RTVSPost2010Prop39
140
1.0
102
RTVSPost2010PropOp39
 70
     1
102
RTVSPost2010Prop40
 90
        0
102
RTVSPost2010PropOp40
 70
     1
102
RTVSPost2010Prop41ColorIndex
 90
       18
102
RTVSPost2010Prop41ColorRGB
 90
        0
102
RTVSPost2010PropOp41
 70
     1
102
RTVSPost2010Prop42
 90
       50
102
RTVSPost2010PropOp42
 70
     1
102
RTVSPost2010Prop43
 90
        3
102
RTVSPost2010PropOp43
 70
     1
102
RTVSPost2010Prop44ColorIndex
 90
        5
102
RTVSPost2010Prop44ColorRGB
 90
      255
102
RTVSPost2010PropOp44
 70
     1
102
RTVSPost2010Prop45
280
     0
102
RTVSPost2010PropOp45
 70
     1
102
RTVSPost2010Prop46
 90
       50
102
RTVSPost2010PropOp46
 70
     1
102
RTVSPost2010Prop47
 90
       50
102
RTVSPost2010PropOp47
 70
     1
102
RTVSPost2010Prop48
 90
       50
102
RTVSPost2010PropOp48
 70
     1
102
RTVSPost2010Prop49
280
     0
102
RTVSPost2010PropOp49
 70
     1
102
RTVSPost2010Prop50
 90
       50
102
RTVSPost2010PropOp50
 70
     1
102
RTVSPost2010Prop51ColorIndex
 90
      256
102
RTVSPost2010Prop51ColorRGB
 90
-16777216
102
RTVSPost2010PropOp51
 70
     0
102
RTVSPost2010Prop52
140
1.0
102
RTVSPost2010PropOp52
 70
     0
102
RTVSPost2010Prop53
 90
        2
102
RTVSPost2010PropOp53
 70
     1
102
RTVSPost2010Prop54
  1
strokes_ogs.tif
102
RTVSPost2010PropOp54
 70
     1
102
RTVSPost2010Prop55
280
     0
102
RTVSPost2010PropOp55
 70
     1
102
RTVSPost2010Prop56
140
1.0
102
RTVSPost2010PropOp56
 70
     1
102
RTVSPost2010Prop57
140
1.0
102
RTVSPost2010PropOp57
 70
     1
102
RTVSPropertyOp0
 70
     1
102
RTVSPropertyOp1
 70
     1
102
RTVSPropertyOp2
 70
     1
102
RTVSPropertyOp3
 70
     1
102
RTVSPropertyOp4
 70
     1
102
RTVSPropertyOp5
 70
     1
102
RTVSPropertyOp6
 70
     1
102
RTVSPropertyOp7
 70
     1
102
RTVSPropertyOp8
 70
     1
102
RTVSPropertyOp9
 70
     1
102
RTVSPropertyOp10
 70
     1
102
RTVSPropertyOp11
 70
     1
102
RTVSPropertyOp12
 70
     1
102
RTVSPropertyOp13
 70
     1
102
RTVSPropertyOp14
 70
     1
102
RTVSPropertyOp15
 70
     1
102
RTVSPropertyOp16
 70
     1
102
RTVSPropertyOp17
 70
     1
102
RTVSPropertyOp18
 70
     1
102
RTVSPropertyOp19
 70
     1
102
RTVSPropertyOp20
 70
     1
102
RTVSPropertyOp21
 70
     1
102
RTVSPropertyOp22
 70
     1
102
RTVSPropertyOp23
 70
     1
102
RTVSPropertyOp24
 70
     1
102
RTVSPropertyOp25
 70
     1
102
RTVSPropertyOp26
 70
     1
102
RTVSPropertyOp27
 70
     1
102
RTVSPropertyOp28
 70
     1
102
RTVSPropertyOp29
 70
     1
102
RTVSPropertyOp30
 70
     1
102
RTVSPropertyOp31
 70
     1
102
RTVSPropertyOp32
 70
     1
102
RTVSPropertyOp33
 70
     1
102
RTVSPropertyOp34
 70
     1
102
RTVSPropertyOp35
 70
     1
102
RTVSPropertyOp36
 70
     1
102
RTVSPropertyOp37
 70
     1
102
RTVSPropertyOp38
 70
     1
102
RTVSPropertyOp39
 70
     1
102
RTVSPropertyOp40
 70
     1
102
RTVSPropertyOp41
 70
     1
102
RTVSPropertyOp42
 70
     1
102
RTVSPropertyOp43
 70
     1
102
RTVSPropertyOp44
 70
     1
102
RTVSPropertyOp45
 70
     1
102
RTVSPropertyOp46
 70
     1
102
RTVSPropertyOp47
 70
     1
102
RTVSPropertyOp48
 70
     1
102
RTVSPropertyOp49
 70
     1
102
RTVSPropertyOp50
 70
     1
102
RTVSPropertyOp51
 70
     0
102
RTVSPropertyOp52
 70
     0
102
RTVSPropertyOp53
 70
     1
102
RTVSPropertyOp54
 70
     1
102
RTVSPropertyOp55
 70
     1
102
RTVSPropertyOp56
 70
     1
102
RTVSPropertyOp57
 70
     1
102
RTVSPropertyOp58
 70
     1
102
RTVSPropertyOp59
 70
     1
102
RTVSPropertyOp60
 70
     1
102
RTVSPropertyOp61
 70
     1
102
RTVSPropertyOp62
 70
     1
  0
XRECORD
  5
9A00
102
{ACAD_REACTORS
330
99FF
102
}
330
99FF
100
AcDbXrecord
280
     1
102
RTVSPost2010Prop28
280
     0
102
RTVSPost2010PropOp28
 70
     1
102
RTVSPost2010Prop29
280
     1
102
RTVSPost2010PropOp29
 70
     1
102
RTVSPost2010Prop30
280
     1
102
RTVSPost2010PropOp30
 70
     1
102
RTVSPost2010Prop31
280
     0
102
RTVSPost2010PropOp31
 70
     1
102
RTVSPost2010Prop32
280
     0
102
RTVSPost2010PropOp32
 70
     1
102
RTVSPost2010Prop33
280
     0
102
RTVSPost2010PropOp33
 70
     1
102
RTVSPost2010Prop34
280
     0
102
RTVSPost2010PropOp34
 70
     1
102
RTVSPost2010Prop35
280
     0
102
RTVSPost2010PropOp35
 70
     1
102
RTVSPost2010Prop36
280
     0
102
RTVSPost2010PropOp36
 70
     1
102
RTVSPost2010Prop37
 90
       50
102
RTVSPost2010PropOp37
 70
     1
102
RTVSPost2010Prop38
140
0.0
102
RTVSPost2010PropOp38
 70
     1
102
RTVSPost2010Prop39
140
1.0
102
RTVSPost2010PropOp39
 70
     1
102
RTVSPost2010Prop40
 90
        0
102
RTVSPost2010PropOp40
 70
     1
102
RTVSPost2010Prop41ColorIndex
 90
       18
102
RTVSPost2010Prop41ColorRGB
 90
        0
102
RTVSPost2010PropOp41
 70
     1
102
RTVSPost2010Prop42
 90
       50
102
RTVSPost2010PropOp42
 70
     1
102
RTVSPost2010Prop43
 90
        3
102
RTVSPost2010PropOp43
 70
     1
102
RTVSPost2010Prop44ColorIndex
 90
        5
102
RTVSPost2010Prop44ColorRGB
 90
      255
102
RTVSPost2010PropOp44
 70
     1
102
RTVSPost2010Prop45
280
     0
102
RTVSPost2010PropOp45
 70
     1
102
RTVSPost2010Prop46
 90
       50
102
RTVSPost2010PropOp46
 70
     1
102
RTVSPost2010Prop47
 90
       50
102
RTVSPost2010PropOp47
 70
     1
102
RTVSPost2010Prop48
 90
       50
102
RTVSPost2010PropOp48
 70
     1
102
RTVSPost2010Prop49
280
     0
102
RTVSPost2010PropOp49
 70
     1
102
RTVSPost2010Prop50
 90
       50
102
RTVSPost2010PropOp50
 70
     1
102
RTVSPost2010Prop51ColorIndex
 90
      256
102
RTVSPost2010Prop51ColorRGB
 90
-16777216
102
RTVSPost2010PropOp51
 70
     0
102
RTVSPost2010Prop52
140
1.0
102
RTVSPost2010PropOp52
 70
     0
102
RTVSPost2010Prop53
 90
        2
102
RTVSPost2010PropOp53
 70
     1
102
RTVSPost2010Prop54
  1
strokes_ogs.tif
102
RTVSPost2010PropOp54
 70
     1
102
RTVSPost2010Prop55
280
     0
102
RTVSPost2010PropOp55
 70
     1
102
RTVSPost2010Prop56
140
1.0
102
RTVSPost2010PropOp56
 70
     1
102
RTVSPost2010Prop57
140
1.0
102
RTVSPost2010PropOp57
 70
     1
102
RTVSPropertyOp0
 70
     1
102
RTVSPropertyOp1
 70
     1
102
RTVSPropertyOp2
 70
     1
102
RTVSPropertyOp3
 70
     1
102
RTVSPropertyOp4
 70
     1
102
RTVSPropertyOp5
 70
     1
102
RTVSPropertyOp6
 70
     1
102
RTVSPropertyOp7
 70
     1
102
RTVSPropertyOp8
 70
     1
102
RTVSPropertyOp9
 70
     1
102
RTVSPropertyOp10
 70
     1
102
RTVSPropertyOp11
 70
     1
102
RTVSPropertyOp12
 70
     1
102
RTVSPropertyOp13
 70
     1
102
RTVSPropertyOp14
 70
     1
102
RTVSPropertyOp15
 70
     1
102
RTVSPropertyOp16
 70
     1
102
RTVSPropertyOp17
 70
     1
102
RTVSPropertyOp18
 70
     1
102
RTVSPropertyOp19
 70
     1
102
RTVSPropertyOp20
 70
     1
102
RTVSPropertyOp21
 70
     1
102
RTVSPropertyOp22
 70
     1
102
RTVSPropertyOp23
 70
     1
102
RTVSPropertyOp24
 70
     1
102
RTVSPropertyOp25
 70
     1
102
RTVSPropertyOp26
 70
     1
102
RTVSPropertyOp27
 70
     1
102
RTVSPropertyOp28
 70
     1
102
RTVSPropertyOp29
 70
     1
102
RTVSPropertyOp30
 70
     1
102
RTVSPropertyOp31
 70
     1
102
RTVSPropertyOp32
 70
     1
102
RTVSPropertyOp33
 70
     1
102
RTVSPropertyOp34
 70
     1
102
RTVSPropertyOp35
 70
     1
102
RTVSPropertyOp36
 70
     1
102
RTVSPropertyOp37
 70
     1
102
RTVSPropertyOp38
 70
     1
102
RTVSPropertyOp39
 70
     1
102
RTVSPropertyOp40
 70
     1
102
RTVSPropertyOp41
 70
     1
102
RTVSPropertyOp42
 70
     1
102
RTVSPropertyOp43
 70
     1
102
RTVSPropertyOp44
 70
     1
102
RTVSPropertyOp45
 70
     1
102
RTVSPropertyOp46
 70
     1
102
RTVSPropertyOp47
 70
     1
102
RTVSPropertyOp48
 70
     1
102
RTVSPropertyOp49
 70
     1
102
RTVSPropertyOp50
 70
     1
102
RTVSPropertyOp51
 70
     0
102
RTVSPropertyOp52
 70
     0
102
RTVSPropertyOp53
 70
     1
102
RTVSPropertyOp54
 70
     1
102
RTVSPropertyOp55
 70
     1
102
RTVSPropertyOp56
 70
     1
102
RTVSPropertyOp57
 70
     1
102
RTVSPropertyOp58
 70
     1
102
RTVSPropertyOp59
 70
     1
102
RTVSPropertyOp60
 70
     1
102
RTVSPropertyOp61
 70
     1
102
RTVSPropertyOp62
 70
     1
  0
XRECORD
  5
9A02
102
{ACAD_REACTORS
330
9A01
102
}
330
9A01
100
AcDbXrecord
280
     1
102
RTVSPost2010Prop28
280
     0
102
RTVSPost2010PropOp28
 70
     1
102
RTVSPost2010Prop29
280
     1
102
RTVSPost2010PropOp29
 70
     1
102
RTVSPost2010Prop30
280
     1
102
RTVSPost2010PropOp30
 70
     1
102
RTVSPost2010Prop31
280
     0
102
RTVSPost2010PropOp31
 70
     1
102
RTVSPost2010Prop32
280
     0
102
RTVSPost2010PropOp32
 70
     1
102
RTVSPost2010Prop33
280
     0
102
RTVSPost2010PropOp33
 70
     1
102
RTVSPost2010Prop34
280
     0
102
RTVSPost2010PropOp34
 70
     1
102
RTVSPost2010Prop35
280
     0
102
RTVSPost2010PropOp35
 70
     1
102
RTVSPost2010Prop36
280
     0
102
RTVSPost2010PropOp36
 70
     1
102
RTVSPost2010Prop37
 90
       50
102
RTVSPost2010PropOp37
 70
     1
102
RTVSPost2010Prop38
140
0.0
102
RTVSPost2010PropOp38
 70
     1
102
RTVSPost2010Prop39
140
1.0
102
RTVSPost2010PropOp39
 70
     1
102
RTVSPost2010Prop40
 90
        0
102
RTVSPost2010PropOp40
 70
     1
102
RTVSPost2010Prop41ColorIndex
 90
       18
102
RTVSPost2010Prop41ColorRGB
 90
        0
102
RTVSPost2010PropOp41
 70
     1
102
RTVSPost2010Prop42
 90
       50
102
RTVSPost2010PropOp42
 70
     1
102
RTVSPost2010Prop43
 90
        3
102
RTVSPost2010PropOp43
 70
     1
102
RTVSPost2010Prop44ColorIndex
 90
        5
102
RTVSPost2010Prop44ColorRGB
 90
      255
102
RTVSPost2010PropOp44
 70
     1
102
RTVSPost2010Prop45
280
     0
102
RTVSPost2010PropOp45
 70
     1
102
RTVSPost2010Prop46
 90
       50
102
RTVSPost2010PropOp46
 70
     1
102
RTVSPost2010Prop47
 90
       50
102
RTVSPost2010PropOp47
 70
     1
102
RTVSPost2010Prop48
 90
       50
102
RTVSPost2010PropOp48
 70
     1
102
RTVSPost2010Prop49
280
     0
102
RTVSPost2010PropOp49
 70
     1
102
RTVSPost2010Prop50
 90
       50
102
RTVSPost2010PropOp50
 70
     1
102
RTVSPost2010Prop51ColorIndex
 90
      256
102
RTVSPost2010Prop51ColorRGB
 90
-16777216
102
RTVSPost2010PropOp51
 70
     0
102
RTVSPost2010Prop52
140
1.0
102
RTVSPost2010PropOp52
 70
     0
102
RTVSPost2010Prop53
 90
        2
102
RTVSPost2010PropOp53
 70
     1
102
RTVSPost2010Prop54
  1
strokes_ogs.tif
102
RTVSPost2010PropOp54
 70
     1
102
RTVSPost2010Prop55
280
     0
102
RTVSPost2010PropOp55
 70
     1
102
RTVSPost2010Prop56
140
1.0
102
RTVSPost2010PropOp56
 70
     1
102
RTVSPost2010Prop57
140
1.0
102
RTVSPost2010PropOp57
 70
     1
102
RTVSPropertyOp0
 70
     1
102
RTVSPropertyOp1
 70
     1
102
RTVSPropertyOp2
 70
     1
102
RTVSPropertyOp3
 70
     1
102
RTVSPropertyOp4
 70
     1
102
RTVSPropertyOp5
 70
     1
102
RTVSPropertyOp6
 70
     1
102
RTVSPropertyOp7
 70
     1
102
RTVSPropertyOp8
 70
     1
102
RTVSPropertyOp9
 70
     1
102
RTVSPropertyOp10
 70
     1
102
RTVSPropertyOp11
 70
     1
102
RTVSPropertyOp12
 70
     1
102
RTVSPropertyOp13
 70
     1
102
RTVSPropertyOp14
 70
     1
102
RTVSPropertyOp15
 70
     1
102
RTVSPropertyOp16
 70
     1
102
RTVSPropertyOp17
 70
     1
102
RTVSPropertyOp18
 70
     1
102
RTVSPropertyOp19
 70
     1
102
RTVSPropertyOp20
 70
     1
102
RTVSPropertyOp21
 70
     1
102
RTVSPropertyOp22
 70
     1
102
RTVSPropertyOp23
 70
     1
102
RTVSPropertyOp24
 70
     1
102
RTVSPropertyOp25
 70
     1
102
RTVSPropertyOp26
 70
     1
102
RTVSPropertyOp27
 70
     1
102
RTVSPropertyOp28
 70
     1
102
RTVSPropertyOp29
 70
     1
102
RTVSPropertyOp30
 70
     1
102
RTVSPropertyOp31
 70
     1
102
RTVSPropertyOp32
 70
     1
102
RTVSPropertyOp33
 70
     1
102
RTVSPropertyOp34
 70
     1
102
RTVSPropertyOp35
 70
     1
102
RTVSPropertyOp36
 70
     1
102
RTVSPropertyOp37
 70
     1
102
RTVSPropertyOp38
 70
     1
102
RTVSPropertyOp39
 70
     1
102
RTVSPropertyOp40
 70
     1
102
RTVSPropertyOp41
 70
     1
102
RTVSPropertyOp42
 70
     1
102
RTVSPropertyOp43
 70
     1
102
RTVSPropertyOp44
 70
     1
102
RTVSPropertyOp45
 70
     1
102
RTVSPropertyOp46
 70
     1
102
RTVSPropertyOp47
 70
     1
102
RTVSPropertyOp48
 70
     1
102
RTVSPropertyOp49
 70
     1
102
RTVSPropertyOp50
 70
     1
102
RTVSPropertyOp51
 70
     0
102
RTVSPropertyOp52
 70
     0
102
RTVSPropertyOp53
 70
     1
102
RTVSPropertyOp54
 70
     1
102
RTVSPropertyOp55
 70
     1
102
RTVSPropertyOp56
 70
     1
102
RTVSPropertyOp57
 70
     1
102
RTVSPropertyOp58
 70
     1
102
RTVSPropertyOp59
 70
     1
102
RTVSPropertyOp60
 70
     1
102
RTVSPropertyOp61
 70
     1
102
RTVSPropertyOp62
 70
     1
  0
XRECORD
  5
9A04
102
{ACAD_REACTORS
330
9A03
102
}
330
9A03
100
AcDbXrecord
280
     1
102
RTVSPost2010Prop28
280
     0
102
RTVSPost2010PropOp28
 70
     1
102
RTVSPost2010Prop29
280
     1
102
RTVSPost2010PropOp29
 70
     1
102
RTVSPost2010Prop30
280
     1
102
RTVSPost2010PropOp30
 70
     1
102
RTVSPost2010Prop31
280
     0
102
RTVSPost2010PropOp31
 70
     1
102
RTVSPost2010Prop32
280
     0
102
RTVSPost2010PropOp32
 70
     1
102
RTVSPost2010Prop33
280
     0
102
RTVSPost2010PropOp33
 70
     1
102
RTVSPost2010Prop34
280
     0
102
RTVSPost2010PropOp34
 70
     1
102
RTVSPost2010Prop35
280
     0
102
RTVSPost2010PropOp35
 70
     1
102
RTVSPost2010Prop36
280
     0
102
RTVSPost2010PropOp36
 70
     1
102
RTVSPost2010Prop37
 90
       50
102
RTVSPost2010PropOp37
 70
     1
102
RTVSPost2010Prop38
140
0.0
102
RTVSPost2010PropOp38
 70
     1
102
RTVSPost2010Prop39
140
1.0
102
RTVSPost2010PropOp39
 70
     1
102
RTVSPost2010Prop40
 90
        0
102
RTVSPost2010PropOp40
 70
     1
102
RTVSPost2010Prop41ColorIndex
 90
       18
102
RTVSPost2010Prop41ColorRGB
 90
        0
102
RTVSPost2010PropOp41
 70
     1
102
RTVSPost2010Prop42
 90
       50
102
RTVSPost2010PropOp42
 70
     1
102
RTVSPost2010Prop43
 90
        3
102
RTVSPost2010PropOp43
 70
     1
102
RTVSPost2010Prop44ColorIndex
 90
        5
102
RTVSPost2010Prop44ColorRGB
 90
      255
102
RTVSPost2010PropOp44
 70
     1
102
RTVSPost2010Prop45
280
     0
102
RTVSPost2010PropOp45
 70
     1
102
RTVSPost2010Prop46
 90
       50
102
RTVSPost2010PropOp46
 70
     1
102
RTVSPost2010Prop47
 90
       50
102
RTVSPost2010PropOp47
 70
     1
102
RTVSPost2010Prop48
 90
       50
102
RTVSPost2010PropOp48
 70
     1
102
RTVSPost2010Prop49
280
     0
102
RTVSPost2010PropOp49
 70
     1
102
RTVSPost2010Prop50
 90
       50
102
RTVSPost2010PropOp50
 70
     1
102
RTVSPost2010Prop51ColorIndex
 90
      256
102
RTVSPost2010Prop51ColorRGB
 90
-16777216
102
RTVSPost2010PropOp51
 70
     0
102
RTVSPost2010Prop52
140
1.0
102
RTVSPost2010PropOp52
 70
     0
102
RTVSPost2010Prop53
 90
        2
102
RTVSPost2010PropOp53
 70
     1
102
RTVSPost2010Prop54
  1
strokes_ogs.tif
102
RTVSPost2010PropOp54
 70
     1
102
RTVSPost2010Prop55
280
     0
102
RTVSPost2010PropOp55
 70
     1
102
RTVSPost2010Prop56
140
1.0
102
RTVSPost2010PropOp56
 70
     1
102
RTVSPost2010Prop57
140
1.0
102
RTVSPost2010PropOp57
 70
     1
102
RTVSPropertyOp0
 70
     1
102
RTVSPropertyOp1
 70
     1
102
RTVSPropertyOp2
 70
     1
102
RTVSPropertyOp3
 70
     1
102
RTVSPropertyOp4
 70
     1
102
RTVSPropertyOp5
 70
     1
102
RTVSPropertyOp6
 70
     1
102
RTVSPropertyOp7
 70
     1
102
RTVSPropertyOp8
 70
     1
102
RTVSPropertyOp9
 70
     1
102
RTVSPropertyOp10
 70
     1
102
RTVSPropertyOp11
 70
     1
102
RTVSPropertyOp12
 70
     1
102
RTVSPropertyOp13
 70
     1
102
RTVSPropertyOp14
 70
     1
102
RTVSPropertyOp15
 70
     1
102
RTVSPropertyOp16
 70
     1
102
RTVSPropertyOp17
 70
     1
102
RTVSPropertyOp18
 70
     1
102
RTVSPropertyOp19
 70
     1
102
RTVSPropertyOp20
 70
     1
102
RTVSPropertyOp21
 70
     1
102
RTVSPropertyOp22
 70
     1
102
RTVSPropertyOp23
 70
     1
102
RTVSPropertyOp24
 70
     1
102
RTVSPropertyOp25
 70
     1
102
RTVSPropertyOp26
 70
     1
102
RTVSPropertyOp27
 70
     1
102
RTVSPropertyOp28
 70
     1
102
RTVSPropertyOp29
 70
     1
102
RTVSPropertyOp30
 70
     1
102
RTVSPropertyOp31
 70
     1
102
RTVSPropertyOp32
 70
     1
102
RTVSPropertyOp33
 70
     1
102
RTVSPropertyOp34
 70
     1
102
RTVSPropertyOp35
 70
     1
102
RTVSPropertyOp36
 70
     1
102
RTVSPropertyOp37
 70
     1
102
RTVSPropertyOp38
 70
     1
102
RTVSPropertyOp39
 70
     1
102
RTVSPropertyOp40
 70
     1
102
RTVSPropertyOp41
 70
     1
102
RTVSPropertyOp42
 70
     1
102
RTVSPropertyOp43
 70
     1
102
RTVSPropertyOp44
 70
     1
102
RTVSPropertyOp45
 70
     1
102
RTVSPropertyOp46
 70
     1
102
RTVSPropertyOp47
 70
     1
102
RTVSPropertyOp48
 70
     1
102
RTVSPropertyOp49
 70
     1
102
RTVSPropertyOp50
 70
     1
102
RTVSPropertyOp51
 70
     0
102
RTVSPropertyOp52
 70
     0
102
RTVSPropertyOp53
 70
     1
102
RTVSPropertyOp54
 70
     1
102
RTVSPropertyOp55
 70
     1
102
RTVSPropertyOp56
 70
     1
102
RTVSPropertyOp57
 70
     1
102
RTVSPropertyOp58
 70
     1
102
RTVSPropertyOp59
 70
     1
102
RTVSPropertyOp60
 70
     1
102
RTVSPropertyOp61
 70
     1
102
RTVSPropertyOp62
 70
     1
  0
XRECORD
  5
9A0C
102
{ACAD_REACTORS
330
9A0B
102
}
330
9A0B
100
AcDbXrecord
280
     1
102
RTVSPost2010Prop28
280
     0
102
RTVSPost2010PropOp28
 70
     1
102
RTVSPost2010Prop29
280
     1
102
RTVSPost2010PropOp29
 70
     1
102
RTVSPost2010Prop30
280
     1
102
RTVSPost2010PropOp30
 70
     1
102
RTVSPost2010Prop31
280
     0
102
RTVSPost2010PropOp31
 70
     1
102
RTVSPost2010Prop32
280
     0
102
RTVSPost2010PropOp32
 70
     1
102
RTVSPost2010Prop33
280
     0
102
RTVSPost2010PropOp33
 70
     1
102
RTVSPost2010Prop34
280
     0
102
RTVSPost2010PropOp34
 70
     1
102
RTVSPost2010Prop35
280
     0
102
RTVSPost2010PropOp35
 70
     1
102
RTVSPost2010Prop36
280
     0
102
RTVSPost2010PropOp36
 70
     1
102
RTVSPost2010Prop37
 90
       50
102
RTVSPost2010PropOp37
 70
     1
102
RTVSPost2010Prop38
140
0.0
102
RTVSPost2010PropOp38
 70
     1
102
RTVSPost2010Prop39
140
1.0
102
RTVSPost2010PropOp39
 70
     1
102
RTVSPost2010Prop40
 90
        0
102
RTVSPost2010PropOp40
 70
     1
102
RTVSPost2010Prop41ColorIndex
 90
       18
102
RTVSPost2010Prop41ColorRGB
 90
        0
102
RTVSPost2010PropOp41
 70
     1
102
RTVSPost2010Prop42
 90
       50
102
RTVSPost2010PropOp42
 70
     1
102
RTVSPost2010Prop43
 90
        3
102
RTVSPost2010PropOp43
 70
     1
102
RTVSPost2010Prop44ColorIndex
 90
        5
102
RTVSPost2010Prop44ColorRGB
 90
      255
102
RTVSPost2010PropOp44
 70
     1
102
RTVSPost2010Prop45
280
     0
102
RTVSPost2010PropOp45
 70
     1
102
RTVSPost2010Prop46
 90
       50
102
RTVSPost2010PropOp46
 70
     1
102
RTVSPost2010Prop47
 90
       50
102
RTVSPost2010PropOp47
 70
     1
102
RTVSPost2010Prop48
 90
       50
102
RTVSPost2010PropOp48
 70
     1
102
RTVSPost2010Prop49
280
     0
102
RTVSPost2010PropOp49
 70
     1
102
RTVSPost2010Prop50
 90
       50
102
RTVSPost2010PropOp50
 70
     1
102
RTVSPost2010Prop51ColorIndex
 90
      256
102
RTVSPost2010Prop51ColorRGB
 90
-16777216
102
RTVSPost2010PropOp51
 70
     0
102
RTVSPost2010Prop52
140
1.0
102
RTVSPost2010PropOp52
 70
     0
102
RTVSPost2010Prop53
 90
        2
102
RTVSPost2010PropOp53
 70
     1
102
RTVSPost2010Prop54
  1
strokes_ogs.tif
102
RTVSPost2010PropOp54
 70
     1
102
RTVSPost2010Prop55
280
     0
102
RTVSPost2010PropOp55
 70
     1
102
RTVSPost2010Prop56
140
1.0
102
RTVSPost2010PropOp56
 70
     1
102
RTVSPost2010Prop57
140
1.0
102
RTVSPost2010PropOp57
 70
     1
102
RTVSPropertyOp0
 70
     1
102
RTVSPropertyOp1
 70
     1
102
RTVSPropertyOp2
 70
     1
102
RTVSPropertyOp3
 70
     1
102
RTVSPropertyOp4
 70
     1
102
RTVSPropertyOp5
 70
     1
102
RTVSPropertyOp6
 70
     1
102
RTVSPropertyOp7
 70
     1
102
RTVSPropertyOp8
 70
     1
102
RTVSPropertyOp9
 70
     1
102
RTVSPropertyOp10
 70
     1
102
RTVSPropertyOp11
 70
     1
102
RTVSPropertyOp12
 70
     1
102
RTVSPropertyOp13
 70
     1
102
RTVSPropertyOp14
 70
     1
102
RTVSPropertyOp15
 70
     1
102
RTVSPropertyOp16
 70
     1
102
RTVSPropertyOp17
 70
     1
102
RTVSPropertyOp18
 70
     1
102
RTVSPropertyOp19
 70
     1
102
RTVSPropertyOp20
 70
     1
102
RTVSPropertyOp21
 70
     1
102
RTVSPropertyOp22
 70
     1
102
RTVSPropertyOp23
 70
     1
102
RTVSPropertyOp24
 70
     1
102
RTVSPropertyOp25
 70
     1
102
RTVSPropertyOp26
 70
     1
102
RTVSPropertyOp27
 70
     1
102
RTVSPropertyOp28
 70
     1
102
RTVSPropertyOp29
 70
     1
102
RTVSPropertyOp30
 70
     1
102
RTVSPropertyOp31
 70
     1
102
RTVSPropertyOp32
 70
     1
102
RTVSPropertyOp33
 70
     1
102
RTVSPropertyOp34
 70
     1
102
RTVSPropertyOp35
 70
     1
102
RTVSPropertyOp36
 70
     1
102
RTVSPropertyOp37
 70
     1
102
RTVSPropertyOp38
 70
     1
102
RTVSPropertyOp39
 70
     1
102
RTVSPropertyOp40
 70
     1
102
RTVSPropertyOp41
 70
     1
102
RTVSPropertyOp42
 70
     1
102
RTVSPropertyOp43
 70
     1
102
RTVSPropertyOp44
 70
     1
102
RTVSPropertyOp45
 70
     1
102
RTVSPropertyOp46
 70
     1
102
RTVSPropertyOp47
 70
     1
102
RTVSPropertyOp48
 70
     1
102
RTVSPropertyOp49
 70
     1
102
RTVSPropertyOp50
 70
     1
102
RTVSPropertyOp51
 70
     0
102
RTVSPropertyOp52
 70
     0
102
RTVSPropertyOp53
 70
     1
102
RTVSPropertyOp54
 70
     1
102
RTVSPropertyOp55
 70
     1
102
RTVSPropertyOp56
 70
     1
102
RTVSPropertyOp57
 70
     1
102
RTVSPropertyOp58
 70
     1
102
RTVSPropertyOp59
 70
     1
102
RTVSPropertyOp60
 70
     1
102
RTVSPropertyOp61
 70
     1
102
RTVSPropertyOp62
 70
     1
  0
XRECORD
  5
9A28
102
{ACAD_REACTORS
330
9A27
102
}
330
9A27
100
AcDbXrecord
280
     1
102
RTVSPost2010Prop28
280
     0
102
RTVSPost2010PropOp28
 70
     1
102
RTVSPost2010Prop29
280
     1
102
RTVSPost2010PropOp29
 70
     1
102
RTVSPost2010Prop30
280
     1
102
RTVSPost2010PropOp30
 70
     1
102
RTVSPost2010Prop31
280
     0
102
RTVSPost2010PropOp31
 70
     1
102
RTVSPost2010Prop32
280
     0
102
RTVSPost2010PropOp32
 70
     1
102
RTVSPost2010Prop33
280
     0
102
RTVSPost2010PropOp33
 70
     1
102
RTVSPost2010Prop34
280
     0
102
RTVSPost2010PropOp34
 70
     1
102
RTVSPost2010Prop35
280
     0
102
RTVSPost2010PropOp35
 70
     1
102
RTVSPost2010Prop36
280
     0
102
RTVSPost2010PropOp36
 70
     1
102
RTVSPost2010Prop37
 90
       50
102
RTVSPost2010PropOp37
 70
     0
102
RTVSPost2010Prop38
140
0.0
102
RTVSPost2010PropOp38
 70
     0
102
RTVSPost2010Prop39
140
1.0
102
RTVSPost2010PropOp39
 70
     0
102
RTVSPost2010Prop40
 90
        0
102
RTVSPost2010PropOp40
 70
     0
102
RTVSPost2010Prop41ColorIndex
 90
       18
102
RTVSPost2010Prop41ColorRGB
 90
        0
102
RTVSPost2010PropOp41
 70
     0
102
RTVSPost2010Prop42
 90
       50
102
RTVSPost2010PropOp42
 70
     0
102
RTVSPost2010Prop43
 90
        3
102
RTVSPost2010PropOp43
 70
     0
102
RTVSPost2010Prop44ColorIndex
 90
        5
102
RTVSPost2010Prop44ColorRGB
 90
      255
102
RTVSPost2010PropOp44
 70
     0
102
RTVSPost2010Prop45
280
     0
102
RTVSPost2010PropOp45
 70
     1
102
RTVSPost2010Prop46
 90
       50
102
RTVSPost2010PropOp46
 70
     0
102
RTVSPost2010Prop47
 90
       50
102
RTVSPost2010PropOp47
 70
     0
102
RTVSPost2010Prop48
 90
       50
102
RTVSPost2010PropOp48
 70
     0
102
RTVSPost2010Prop49
280
     0
102
RTVSPost2010PropOp49
 70
     1
102
RTVSPost2010Prop50
 90
       50
102
RTVSPost2010PropOp50
 70
     0
102
RTVSPost2010Prop51ColorIndex
 90
      256
102
RTVSPost2010Prop51ColorRGB
 90
-16777216
102
RTVSPost2010PropOp51
 70
     0
102
RTVSPost2010Prop52
140
1.0
102
RTVSPost2010PropOp52
 70
     0
102
RTVSPost2010Prop53
 90
        2
102
RTVSPost2010PropOp53
 70
     0
102
RTVSPost2010Prop54
  1
strokes_ogs.tif
102
RTVSPost2010PropOp54
 70
     0
102
RTVSPost2010Prop55
280
     0
102
RTVSPost2010PropOp55
 70
     1
102
RTVSPost2010Prop56
140
1.0
102
RTVSPost2010PropOp56
 70
     0
102
RTVSPost2010Prop57
140
1.0
102
RTVSPost2010PropOp57
 70
     0
102
RTVSPropertyOp0
 70
     0
102
RTVSPropertyOp1
 70
     0
102
RTVSPropertyOp2
 70
     0
102
RTVSPropertyOp3
 70
     0
102
RTVSPropertyOp4
 70
     0
102
RTVSPropertyOp5
 70
     0
102
RTVSPropertyOp6
 70
     0
102
RTVSPropertyOp7
 70
     0
102
RTVSPropertyOp8
 70
     0
102
RTVSPropertyOp9
 70
     0
102
RTVSPropertyOp10
 70
     0
102
RTVSPropertyOp11
 70
     0
102
RTVSPropertyOp12
 70
     0
102
RTVSPropertyOp13
 70
     0
102
RTVSPropertyOp14
 70
     2
102
RTVSPropertyOp15
 70
     0
102
RTVSPropertyOp16
 70
     0
102
RTVSPropertyOp17
 70
     0
102
RTVSPropertyOp18
 70
     0
102
RTVSPropertyOp19
 70
     0
102
RTVSPropertyOp20
 70
     0
102
RTVSPropertyOp21
 70
     0
102
RTVSPropertyOp22
 70
     0
102
RTVSPropertyOp23
 70
     0
102
RTVSPropertyOp24
 70
     0
102
RTVSPropertyOp25
 70
     0
102
RTVSPropertyOp26
 70
     0
102
RTVSPropertyOp27
 70
     0
102
RTVSPropertyOp28
 70
     1
102
RTVSPropertyOp29
 70
     1
102
RTVSPropertyOp30
 70
     1
102
RTVSPropertyOp31
 70
     1
102
RTVSPropertyOp32
 70
     1
102
RTVSPropertyOp33
 70
     1
102
RTVSPropertyOp34
 70
     1
102
RTVSPropertyOp35
 70
     1
102
RTVSPropertyOp36
 70
     1
102
RTVSPropertyOp37
 70
     0
102
RTVSPropertyOp38
 70
     0
102
RTVSPropertyOp39
 70
     0
102
RTVSPropertyOp40
 70
     0
102
RTVSPropertyOp41
 70
     0
102
RTVSPropertyOp42
 70
     0
102
RTVSPropertyOp43
 70
     0
102
RTVSPropertyOp44
 70
     0
102
RTVSPropertyOp45
 70
     1
102
RTVSPropertyOp46
 70
     0
102
RTVSPropertyOp47
 70
     0
102
RTVSPropertyOp48
 70
     0
102
RTVSPropertyOp49
 70
     1
102
RTVSPropertyOp50
 70
     0
102
RTVSPropertyOp51
 70
     0
102
RTVSPropertyOp52
 70
     0
102
RTVSPropertyOp53
 70
     0
102
RTVSPropertyOp54
 70
     0
102
RTVSPropertyOp55
 70
     1
102
RTVSPropertyOp56
 70
     0
102
RTVSPropertyOp57
 70
     0
102
RTVSPropertyOp58
 70
     0
102
RTVSPropertyOp59
 70
     0
102
RTVSPropertyOp60
 70
     0
102
RTVSPropertyOp61
 70
     0
102
RTVSPropertyOp62
 70
     0
  0
XRECORD
  5
9A18
102
{ACAD_REACTORS
330
9A17
102
}
330
9A17
100
AcDbXrecord
280
     1
102
RTVSPost2010Prop28
280
     0
102
RTVSPost2010PropOp28
 70
     1
102
RTVSPost2010Prop29
280
     1
102
RTVSPost2010PropOp29
 70
     1
102
RTVSPost2010Prop30
280
     1
102
RTVSPost2010PropOp30
 70
     1
102
RTVSPost2010Prop31
280
     0
102
RTVSPost2010PropOp31
 70
     1
102
RTVSPost2010Prop32
280
     0
102
RTVSPost2010PropOp32
 70
     1
102
RTVSPost2010Prop33
280
     0
102
RTVSPost2010PropOp33
 70
     1
102
RTVSPost2010Prop34
280
     0
102
RTVSPost2010PropOp34
 70
     1
102
RTVSPost2010Prop35
280
     0
102
RTVSPost2010PropOp35
 70
     1
102
RTVSPost2010Prop36
280
     0
102
RTVSPost2010PropOp36
 70
     1
102
RTVSPost2010Prop37
 90
       50
102
RTVSPost2010PropOp37
 70
     1
102
RTVSPost2010Prop38
140
0.0
102
RTVSPost2010PropOp38
 70
     1
102
RTVSPost2010Prop39
140
1.0
102
RTVSPost2010PropOp39
 70
     1
102
RTVSPost2010Prop40
 90
        0
102
RTVSPost2010PropOp40
 70
     1
102
RTVSPost2010Prop41ColorIndex
 90
       18
102
RTVSPost2010Prop41ColorRGB
 90
        0
102
RTVSPost2010PropOp41
 70
     1
102
RTVSPost2010Prop42
 90
       50
102
RTVSPost2010PropOp42
 70
     1
102
RTVSPost2010Prop43
 90
        3
102
RTVSPost2010PropOp43
 70
     1
102
RTVSPost2010Prop44ColorIndex
 90
        5
102
RTVSPost2010Prop44ColorRGB
 90
      255
102
RTVSPost2010PropOp44
 70
     1
102
RTVSPost2010Prop45
280
     0
102
RTVSPost2010PropOp45
 70
     1
102
RTVSPost2010Prop46
 90
       50
102
RTVSPost2010PropOp46
 70
     1
102
RTVSPost2010Prop47
 90
       50
102
RTVSPost2010PropOp47
 70
     1
102
RTVSPost2010Prop48
 90
       50
102
RTVSPost2010PropOp48
 70
     1
102
RTVSPost2010Prop49
280
     0
102
RTVSPost2010PropOp49
 70
     1
102
RTVSPost2010Prop50
 90
       50
102
RTVSPost2010PropOp50
 70
     1
102
RTVSPost2010Prop51ColorIndex
 90
      256
102
RTVSPost2010Prop51ColorRGB
 90
-16777216
102
RTVSPost2010PropOp51
 70
     0
102
RTVSPost2010Prop52
140
1.0
102
RTVSPost2010PropOp52
 70
     0
102
RTVSPost2010Prop53
 90
        2
102
RTVSPost2010PropOp53
 70
     1
102
RTVSPost2010Prop54
  1
strokes_ogs.tif
102
RTVSPost2010PropOp54
 70
     1
102
RTVSPost2010Prop55
280
     0
102
RTVSPost2010PropOp55
 70
     1
102
RTVSPost2010Prop56
140
1.0
102
RTVSPost2010PropOp56
 70
     1
102
RTVSPost2010Prop57
140
1.0
102
RTVSPost2010PropOp57
 70
     1
102
RTVSPropertyOp0
 70
     1
102
RTVSPropertyOp1
 70
     1
102
RTVSPropertyOp2
 70
     1
102
RTVSPropertyOp3
 70
     1
102
RTVSPropertyOp4
 70
     1
102
RTVSPropertyOp5
 70
     1
102
RTVSPropertyOp6
 70
     1
102
RTVSPropertyOp7
 70
     1
102
RTVSPropertyOp8
 70
     1
102
RTVSPropertyOp9
 70
     1
102
RTVSPropertyOp10
 70
     1
102
RTVSPropertyOp11
 70
     1
102
RTVSPropertyOp12
 70
     1
102
RTVSPropertyOp13
 70
     1
102
RTVSPropertyOp14
 70
     1
102
RTVSPropertyOp15
 70
     1
102
RTVSPropertyOp16
 70
     1
102
RTVSPropertyOp17
 70
     1
102
RTVSPropertyOp18
 70
     1
102
RTVSPropertyOp19
 70
     1
102
RTVSPropertyOp20
 70
     1
102
RTVSPropertyOp21
 70
     1
102
RTVSPropertyOp22
 70
     1
102
RTVSPropertyOp23
 70
     1
102
RTVSPropertyOp24
 70
     1
102
RTVSPropertyOp25
 70
     1
102
RTVSPropertyOp26
 70
     1
102
RTVSPropertyOp27
 70
     1
102
RTVSPropertyOp28
 70
     1
102
RTVSPropertyOp29
 70
     1
102
RTVSPropertyOp30
 70
     1
102
RTVSPropertyOp31
 70
     1
102
RTVSPropertyOp32
 70
     1
102
RTVSPropertyOp33
 70
     1
102
RTVSPropertyOp34
 70
     1
102
RTVSPropertyOp35
 70
     1
102
RTVSPropertyOp36
 70
     1
102
RTVSPropertyOp37
 70
     1
102
RTVSPropertyOp38
 70
     1
102
RTVSPropertyOp39
 70
     1
102
RTVSPropertyOp40
 70
     1
102
RTVSPropertyOp41
 70
     1
102
RTVSPropertyOp42
 70
     1
102
RTVSPropertyOp43
 70
     1
102
RTVSPropertyOp44
 70
     1
102
RTVSPropertyOp45
 70
     1
102
RTVSPropertyOp46
 70
     1
102
RTVSPropertyOp47
 70
     1
102
RTVSPropertyOp48
 70
     1
102
RTVSPropertyOp49
 70
     1
102
RTVSPropertyOp50
 70
     1
102
RTVSPropertyOp51
 70
     0
102
RTVSPropertyOp52
 70
     0
102
RTVSPropertyOp53
 70
     1
102
RTVSPropertyOp54
 70
     1
102
RTVSPropertyOp55
 70
     1
102
RTVSPropertyOp56
 70
     1
102
RTVSPropertyOp57
 70
     1
102
RTVSPropertyOp58
 70
     1
102
RTVSPropertyOp59
 70
     1
102
RTVSPropertyOp60
 70
     1
102
RTVSPropertyOp61
 70
     1
102
RTVSPropertyOp62
 70
     1
  0
XRECORD
  5
9A2A
102
{ACAD_REACTORS
330
9A29
102
}
330
9A29
100
AcDbXrecord
280
     1
102
RTVSPost2010Prop28
280
     0
102
RTVSPost2010PropOp28
 70
     1
102
RTVSPost2010Prop29
280
     1
102
RTVSPost2010PropOp29
 70
     1
102
RTVSPost2010Prop30
280
     1
102
RTVSPost2010PropOp30
 70
     1
102
RTVSPost2010Prop31
280
     0
102
RTVSPost2010PropOp31
 70
     1
102
RTVSPost2010Prop32
280
     0
102
RTVSPost2010PropOp32
 70
     1
102
RTVSPost2010Prop33
280
     0
102
RTVSPost2010PropOp33
 70
     1
102
RTVSPost2010Prop34
280
     0
102
RTVSPost2010PropOp34
 70
     1
102
RTVSPost2010Prop35
280
     0
102
RTVSPost2010PropOp35
 70
     1
102
RTVSPost2010Prop36
280
     0
102
RTVSPost2010PropOp36
 70
     1
102
RTVSPost2010Prop37
 90
       50
102
RTVSPost2010PropOp37
 70
     0
102
RTVSPost2010Prop38
140
0.0
102
RTVSPost2010PropOp38
 70
     0
102
RTVSPost2010Prop39
140
1.0
102
RTVSPost2010PropOp39
 70
     0
102
RTVSPost2010Prop40
 90
        0
102
RTVSPost2010PropOp40
 70
     0
102
RTVSPost2010Prop41ColorIndex
 90
       18
102
RTVSPost2010Prop41ColorRGB
 90
        0
102
RTVSPost2010PropOp41
 70
     0
102
RTVSPost2010Prop42
 90
       50
102
RTVSPost2010PropOp42
 70
     0
102
RTVSPost2010Prop43
 90
        3
102
RTVSPost2010PropOp43
 70
     0
102
RTVSPost2010Prop44ColorIndex
 90
        5
102
RTVSPost2010Prop44ColorRGB
 90
      255
102
RTVSPost2010PropOp44
 70
     0
102
RTVSPost2010Prop45
280
     0
102
RTVSPost2010PropOp45
 70
     1
102
RTVSPost2010Prop46
 90
       50
102
RTVSPost2010PropOp46
 70
     0
102
RTVSPost2010Prop47
 90
       50
102
RTVSPost2010PropOp47
 70
     0
102
RTVSPost2010Prop48
 90
       50
102
RTVSPost2010PropOp48
 70
     0
102
RTVSPost2010Prop49
280
     0
102
RTVSPost2010PropOp49
 70
     1
102
RTVSPost2010Prop50
 90
       50
102
RTVSPost2010PropOp50
 70
     0
102
RTVSPost2010Prop51ColorIndex
 90
      256
102
RTVSPost2010Prop51ColorRGB
 90
-16777216
102
RTVSPost2010PropOp51
 70
     0
102
RTVSPost2010Prop52
140
1.0
102
RTVSPost2010PropOp52
 70
     0
102
RTVSPost2010Prop53
 90
        2
102
RTVSPost2010PropOp53
 70
     0
102
RTVSPost2010Prop54
  1
strokes_ogs.tif
102
RTVSPost2010PropOp54
 70
     0
102
RTVSPost2010Prop55
280
     0
102
RTVSPost2010PropOp55
 70
     1
102
RTVSPost2010Prop56
140
1.0
102
RTVSPost2010PropOp56
 70
     0
102
RTVSPost2010Prop57
140
1.0
102
RTVSPost2010PropOp57
 70
     0
102
RTVSPropertyOp0
 70
     0
102
RTVSPropertyOp1
 70
     0
102
RTVSPropertyOp2
 70
     0
102
RTVSPropertyOp3
 70
     0
102
RTVSPropertyOp4
 70
     0
102
RTVSPropertyOp5
 70
     0
102
RTVSPropertyOp6
 70
     0
102
RTVSPropertyOp7
 70
     0
102
RTVSPropertyOp8
 70
     0
102
RTVSPropertyOp9
 70
     0
102
RTVSPropertyOp10
 70
     0
102
RTVSPropertyOp11
 70
     0
102
RTVSPropertyOp12
 70
     0
102
RTVSPropertyOp13
 70
     0
102
RTVSPropertyOp14
 70
     2
102
RTVSPropertyOp15
 70
     0
102
RTVSPropertyOp16
 70
     0
102
RTVSPropertyOp17
 70
     0
102
RTVSPropertyOp18
 70
     0
102
RTVSPropertyOp19
 70
     0
102
RTVSPropertyOp20
 70
     0
102
RTVSPropertyOp21
 70
     0
102
RTVSPropertyOp22
 70
     0
102
RTVSPropertyOp23
 70
     0
102
RTVSPropertyOp24
 70
     0
102
RTVSPropertyOp25
 70
     0
102
RTVSPropertyOp26
 70
     0
102
RTVSPropertyOp27
 70
     0
102
RTVSPropertyOp28
 70
     1
102
RTVSPropertyOp29
 70
     1
102
RTVSPropertyOp30
 70
     1
102
RTVSPropertyOp31
 70
     1
102
RTVSPropertyOp32
 70
     1
102
RTVSPropertyOp33
 70
     1
102
RTVSPropertyOp34
 70
     1
102
RTVSPropertyOp35
 70
     1
102
RTVSPropertyOp36
 70
     1
102
RTVSPropertyOp37
 70
     0
102
RTVSPropertyOp38
 70
     0
102
RTVSPropertyOp39
 70
     0
102
RTVSPropertyOp40
 70
     0
102
RTVSPropertyOp41
 70
     0
102
RTVSPropertyOp42
 70
     0
102
RTVSPropertyOp43
 70
     0
102
RTVSPropertyOp44
 70
     0
102
RTVSPropertyOp45
 70
     1
102
RTVSPropertyOp46
 70
     0
102
RTVSPropertyOp47
 70
     0
102
RTVSPropertyOp48
 70
     0
102
RTVSPropertyOp49
 70
     1
102
RTVSPropertyOp50
 70
     0
102
RTVSPropertyOp51
 70
     0
102
RTVSPropertyOp52
 70
     0
102
RTVSPropertyOp53
 70
     0
102
RTVSPropertyOp54
 70
     0
102
RTVSPropertyOp55
 70
     1
102
RTVSPropertyOp56
 70
     0
102
RTVSPropertyOp57
 70
     0
102
RTVSPropertyOp58
 70
     0
102
RTVSPropertyOp59
 70
     0
102
RTVSPropertyOp60
 70
     0
102
RTVSPropertyOp61
 70
     0
102
RTVSPropertyOp62
 70
     0
  0
XRECORD
  5
9A10
102
{ACAD_REACTORS
330
9A0F
102
}
330
9A0F
100
AcDbXrecord
280
     1
102
RTVSPost2010Prop28
280
     0
102
RTVSPost2010PropOp28
 70
     1
102
RTVSPost2010Prop29
280
     1
102
RTVSPost2010PropOp29
 70
     1
102
RTVSPost2010Prop30
280
     1
102
RTVSPost2010PropOp30
 70
     1
102
RTVSPost2010Prop31
280
     0
102
RTVSPost2010PropOp31
 70
     1
102
RTVSPost2010Prop32
280
     0
102
RTVSPost2010PropOp32
 70
     1
102
RTVSPost2010Prop33
280
     0
102
RTVSPost2010PropOp33
 70
     1
102
RTVSPost2010Prop34
280
     0
102
RTVSPost2010PropOp34
 70
     1
102
RTVSPost2010Prop35
280
     0
102
RTVSPost2010PropOp35
 70
     1
102
RTVSPost2010Prop36
280
     0
102
RTVSPost2010PropOp36
 70
     1
102
RTVSPost2010Prop37
 90
       50
102
RTVSPost2010PropOp37
 70
     1
102
RTVSPost2010Prop38
140
0.0
102
RTVSPost2010PropOp38
 70
     1
102
RTVSPost2010Prop39
140
1.0
102
RTVSPost2010PropOp39
 70
     1
102
RTVSPost2010Prop40
 90
        0
102
RTVSPost2010PropOp40
 70
     1
102
RTVSPost2010Prop41ColorIndex
 90
       18
102
RTVSPost2010Prop41ColorRGB
 90
        0
102
RTVSPost2010PropOp41
 70
     1
102
RTVSPost2010Prop42
 90
       50
102
RTVSPost2010PropOp42
 70
     1
102
RTVSPost2010Prop43
 90
        3
102
RTVSPost2010PropOp43
 70
     1
102
RTVSPost2010Prop44ColorIndex
 90
        5
102
RTVSPost2010Prop44ColorRGB
 90
      255
102
RTVSPost2010PropOp44
 70
     1
102
RTVSPost2010Prop45
280
     0
102
RTVSPost2010PropOp45
 70
     1
102
RTVSPost2010Prop46
 90
       50
102
RTVSPost2010PropOp46
 70
     1
102
RTVSPost2010Prop47
 90
       50
102
RTVSPost2010PropOp47
 70
     1
102
RTVSPost2010Prop48
 90
       50
102
RTVSPost2010PropOp48
 70
     1
102
RTVSPost2010Prop49
280
     0
102
RTVSPost2010PropOp49
 70
     1
102
RTVSPost2010Prop50
 90
       50
102
RTVSPost2010PropOp50
 70
     1
102
RTVSPost2010Prop51ColorIndex
 90
      256
102
RTVSPost2010Prop51ColorRGB
 90
-16777216
102
RTVSPost2010PropOp51
 70
     0
102
RTVSPost2010Prop52
140
1.0
102
RTVSPost2010PropOp52
 70
     0
102
RTVSPost2010Prop53
 90
        2
102
RTVSPost2010PropOp53
 70
     1
102
RTVSPost2010Prop54
  1
strokes_ogs.tif
102
RTVSPost2010PropOp54
 70
     1
102
RTVSPost2010Prop55
280
     0
102
RTVSPost2010PropOp55
 70
     1
102
RTVSPost2010Prop56
140
1.0
102
RTVSPost2010PropOp56
 70
     1
102
RTVSPost2010Prop57
140
1.0
102
RTVSPost2010PropOp57
 70
     1
102
RTVSPropertyOp0
 70
     1
102
RTVSPropertyOp1
 70
     1
102
RTVSPropertyOp2
 70
     1
102
RTVSPropertyOp3
 70
     1
102
RTVSPropertyOp4
 70
     1
102
RTVSPropertyOp5
 70
     1
102
RTVSPropertyOp6
 70
     1
102
RTVSPropertyOp7
 70
     1
102
RTVSPropertyOp8
 70
     1
102
RTVSPropertyOp9
 70
     1
102
RTVSPropertyOp10
 70
     1
102
RTVSPropertyOp11
 70
     1
102
RTVSPropertyOp12
 70
     1
102
RTVSPropertyOp13
 70
     1
102
RTVSPropertyOp14
 70
     1
102
RTVSPropertyOp15
 70
     1
102
RTVSPropertyOp16
 70
     1
102
RTVSPropertyOp17
 70
     1
102
RTVSPropertyOp18
 70
     1
102
RTVSPropertyOp19
 70
     1
102
RTVSPropertyOp20
 70
     1
102
RTVSPropertyOp21
 70
     1
102
RTVSPropertyOp22
 70
     1
102
RTVSPropertyOp23
 70
     1
102
RTVSPropertyOp24
 70
     1
102
RTVSPropertyOp25
 70
     1
102
RTVSPropertyOp26
 70
     1
102
RTVSPropertyOp27
 70
     1
102
RTVSPropertyOp28
 70
     1
102
RTVSPropertyOp29
 70
     1
102
RTVSPropertyOp30
 70
     1
102
RTVSPropertyOp31
 70
     1
102
RTVSPropertyOp32
 70
     1
102
RTVSPropertyOp33
 70
     1
102
RTVSPropertyOp34
 70
     1
102
RTVSPropertyOp35
 70
     1
102
RTVSPropertyOp36
 70
     1
102
RTVSPropertyOp37
 70
     1
102
RTVSPropertyOp38
 70
     1
102
RTVSPropertyOp39
 70
     1
102
RTVSPropertyOp40
 70
     1
102
RTVSPropertyOp41
 70
     1
102
RTVSPropertyOp42
 70
     1
102
RTVSPropertyOp43
 70
     1
102
RTVSPropertyOp44
 70
     1
102
RTVSPropertyOp45
 70
     1
102
RTVSPropertyOp46
 70
     1
102
RTVSPropertyOp47
 70
     1
102
RTVSPropertyOp48
 70
     1
102
RTVSPropertyOp49
 70
     1
102
RTVSPropertyOp50
 70
     1
102
RTVSPropertyOp51
 70
     0
102
RTVSPropertyOp52
 70
     0
102
RTVSPropertyOp53
 70
     1
102
RTVSPropertyOp54
 70
     1
102
RTVSPropertyOp55
 70
     1
102
RTVSPropertyOp56
 70
     1
102
RTVSPropertyOp57
 70
     1
102
RTVSPropertyOp58
 70
     1
102
RTVSPropertyOp59
 70
     1
102
RTVSPropertyOp60
 70
     1
102
RTVSPropertyOp61
 70
     1
102
RTVSPropertyOp62
 70
     1
  0
XRECORD
  5
9A26
102
{ACAD_REACTORS
330
9A25
102
}
330
9A25
100
AcDbXrecord
280
     1
102
RTVSPost2010Prop28
280
     0
102
RTVSPost2010PropOp28
 70
     1
102
RTVSPost2010Prop29
280
     1
102
RTVSPost2010PropOp29
 70
     1
102
RTVSPost2010Prop30
280
     1
102
RTVSPost2010PropOp30
 70
     1
102
RTVSPost2010Prop31
280
     0
102
RTVSPost2010PropOp31
 70
     1
102
RTVSPost2010Prop32
280
     0
102
RTVSPost2010PropOp32
 70
     1
102
RTVSPost2010Prop33
280
     0
102
RTVSPost2010PropOp33
 70
     1
102
RTVSPost2010Prop34
280
     0
102
RTVSPost2010PropOp34
 70
     1
102
RTVSPost2010Prop35
280
     0
102
RTVSPost2010PropOp35
 70
     1
102
RTVSPost2010Prop36
280
     0
102
RTVSPost2010PropOp36
 70
     1
102
RTVSPost2010Prop37
 90
       50
102
RTVSPost2010PropOp37
 70
     1
102
RTVSPost2010Prop38
140
0.0
102
RTVSPost2010PropOp38
 70
     1
102
RTVSPost2010Prop39
140
1.0
102
RTVSPost2010PropOp39
 70
     1
102
RTVSPost2010Prop40
 90
        0
102
RTVSPost2010PropOp40
 70
     1
102
RTVSPost2010Prop41ColorIndex
 90
       18
102
RTVSPost2010Prop41ColorRGB
 90
        0
102
RTVSPost2010PropOp41
 70
     1
102
RTVSPost2010Prop42
 90
       50
102
RTVSPost2010PropOp42
 70
     1
102
RTVSPost2010Prop43
 90
        3
102
RTVSPost2010PropOp43
 70
     1
102
RTVSPost2010Prop44ColorIndex
 90
        5
102
RTVSPost2010Prop44ColorRGB
 90
      255
102
RTVSPost2010PropOp44
 70
     1
102
RTVSPost2010Prop45
280
     0
102
RTVSPost2010PropOp45
 70
     1
102
RTVSPost2010Prop46
 90
       50
102
RTVSPost2010PropOp46
 70
     1
102
RTVSPost2010Prop47
 90
       50
102
RTVSPost2010PropOp47
 70
     1
102
RTVSPost2010Prop48
 90
       50
102
RTVSPost2010PropOp48
 70
     1
102
RTVSPost2010Prop49
280
     0
102
RTVSPost2010PropOp49
 70
     1
102
RTVSPost2010Prop50
 90
       50
102
RTVSPost2010PropOp50
 70
     1
102
RTVSPost2010Prop51ColorIndex
 90
      256
102
RTVSPost2010Prop51ColorRGB
 90
-16777216
102
RTVSPost2010PropOp51
 70
     0
102
RTVSPost2010Prop52
140
1.0
102
RTVSPost2010PropOp52
 70
     0
102
RTVSPost2010Prop53
 90
        2
102
RTVSPost2010PropOp53
 70
     1
102
RTVSPost2010Prop54
  1
strokes_ogs.tif
102
RTVSPost2010PropOp54
 70
     1
102
RTVSPost2010Prop55
280
     0
102
RTVSPost2010PropOp55
 70
     1
102
RTVSPost2010Prop56
140
1.0
102
RTVSPost2010PropOp56
 70
     1
102
RTVSPost2010Prop57
140
1.0
102
RTVSPost2010PropOp57
 70
     1
102
RTVSPropertyOp0
 70
     1
102
RTVSPropertyOp1
 70
     1
102
RTVSPropertyOp2
 70
     1
102
RTVSPropertyOp3
 70
     1
102
RTVSPropertyOp4
 70
     1
102
RTVSPropertyOp5
 70
     1
102
RTVSPropertyOp6
 70
     1
102
RTVSPropertyOp7
 70
     1
102
RTVSPropertyOp8
 70
     1
102
RTVSPropertyOp9
 70
     1
102
RTVSPropertyOp10
 70
     1
102
RTVSPropertyOp11
 70
     1
102
RTVSPropertyOp12
 70
     1
102
RTVSPropertyOp13
 70
     1
102
RTVSPropertyOp14
 70
     1
102
RTVSPropertyOp15
 70
     1
102
RTVSPropertyOp16
 70
     1
102
RTVSPropertyOp17
 70
     1
102
RTVSPropertyOp18
 70
     1
102
RTVSPropertyOp19
 70
     1
102
RTVSPropertyOp20
 70
     1
102
RTVSPropertyOp21
 70
     1
102
RTVSPropertyOp22
 70
     1
102
RTVSPropertyOp23
 70
     1
102
RTVSPropertyOp24
 70
     1
102
RTVSPropertyOp25
 70
     1
102
RTVSPropertyOp26
 70
     1
102
RTVSPropertyOp27
 70
     1
102
RTVSPropertyOp28
 70
     1
102
RTVSPropertyOp29
 70
     1
102
RTVSPropertyOp30
 70
     1
102
RTVSPropertyOp31
 70
     1
102
RTVSPropertyOp32
 70
     1
102
RTVSPropertyOp33
 70
     1
102
RTVSPropertyOp34
 70
     1
102
RTVSPropertyOp35
 70
     1
102
RTVSPropertyOp36
 70
     1
102
RTVSPropertyOp37
 70
     1
102
RTVSPropertyOp38
 70
     1
102
RTVSPropertyOp39
 70
     1
102
RTVSPropertyOp40
 70
     1
102
RTVSPropertyOp41
 70
     1
102
RTVSPropertyOp42
 70
     1
102
RTVSPropertyOp43
 70
     1
102
RTVSPropertyOp44
 70
     1
102
RTVSPropertyOp45
 70
     1
102
RTVSPropertyOp46
 70
     1
102
RTVSPropertyOp47
 70
     1
102
RTVSPropertyOp48
 70
     1
102
RTVSPropertyOp49
 70
     1
102
RTVSPropertyOp50
 70
     1
102
RTVSPropertyOp51
 70
     0
102
RTVSPropertyOp52
 70
     0
102
RTVSPropertyOp53
 70
     1
102
RTVSPropertyOp54
 70
     1
102
RTVSPropertyOp55
 70
     1
102
RTVSPropertyOp56
 70
     1
102
RTVSPropertyOp57
 70
     1
102
RTVSPropertyOp58
 70
     1
102
RTVSPropertyOp59
 70
     1
102
RTVSPropertyOp60
 70
     1
102
RTVSPropertyOp61
 70
     1
102
RTVSPropertyOp62
 70
     1
  0
XRECORD
  5
9A24
102
{ACAD_REACTORS
330
9A23
102
}
330
9A23
100
AcDbXrecord
280
     1
102
RTVSPost2010Prop28
280
     0
102
RTVSPost2010PropOp28
 70
     1
102
RTVSPost2010Prop29
280
     1
102
RTVSPost2010PropOp29
 70
     1
102
RTVSPost2010Prop30
280
     1
102
RTVSPost2010PropOp30
 70
     1
102
RTVSPost2010Prop31
280
     0
102
RTVSPost2010PropOp31
 70
     1
102
RTVSPost2010Prop32
280
     0
102
RTVSPost2010PropOp32
 70
     1
102
RTVSPost2010Prop33
280
     0
102
RTVSPost2010PropOp33
 70
     1
102
RTVSPost2010Prop34
280
     0
102
RTVSPost2010PropOp34
 70
     1
102
RTVSPost2010Prop35
280
     0
102
RTVSPost2010PropOp35
 70
     1
102
RTVSPost2010Prop36
280
     0
102
RTVSPost2010PropOp36
 70
     1
102
RTVSPost2010Prop37
 90
       50
102
RTVSPost2010PropOp37
 70
     1
102
RTVSPost2010Prop38
140
0.0
102
RTVSPost2010PropOp38
 70
     1
102
RTVSPost2010Prop39
140
1.0
102
RTVSPost2010PropOp39
 70
     1
102
RTVSPost2010Prop40
 90
        0
102
RTVSPost2010PropOp40
 70
     1
102
RTVSPost2010Prop41ColorIndex
 90
       18
102
RTVSPost2010Prop41ColorRGB
 90
        0
102
RTVSPost2010PropOp41
 70
     1
102
RTVSPost2010Prop42
 90
       50
102
RTVSPost2010PropOp42
 70
     1
102
RTVSPost2010Prop43
 90
        3
102
RTVSPost2010PropOp43
 70
     1
102
RTVSPost2010Prop44ColorIndex
 90
        5
102
RTVSPost2010Prop44ColorRGB
 90
      255
102
RTVSPost2010PropOp44
 70
     1
102
RTVSPost2010Prop45
280
     0
102
RTVSPost2010PropOp45
 70
     1
102
RTVSPost2010Prop46
 90
       50
102
RTVSPost2010PropOp46
 70
     1
102
RTVSPost2010Prop47
 90
       50
102
RTVSPost2010PropOp47
 70
     1
102
RTVSPost2010Prop48
 90
       50
102
RTVSPost2010PropOp48
 70
     1
102
RTVSPost2010Prop49
280
     0
102
RTVSPost2010PropOp49
 70
     1
102
RTVSPost2010Prop50
 90
       50
102
RTVSPost2010PropOp50
 70
     1
102
RTVSPost2010Prop51ColorIndex
 90
      256
102
RTVSPost2010Prop51ColorRGB
 90
-16777216
102
RTVSPost2010PropOp51
 70
     0
102
RTVSPost2010Prop52
140
1.0
102
RTVSPost2010PropOp52
 70
     0
102
RTVSPost2010Prop53
 90
        2
102
RTVSPost2010PropOp53
 70
     1
102
RTVSPost2010Prop54
  1
strokes_ogs.tif
102
RTVSPost2010PropOp54
 70
     1
102
RTVSPost2010Prop55
280
     0
102
RTVSPost2010PropOp55
 70
     1
102
RTVSPost2010Prop56
140
1.0
102
RTVSPost2010PropOp56
 70
     1
102
RTVSPost2010Prop57
140
1.0
102
RTVSPost2010PropOp57
 70
     1
102
RTVSPropertyOp0
 70
     1
102
RTVSPropertyOp1
 70
     1
102
RTVSPropertyOp2
 70
     1
102
RTVSPropertyOp3
 70
     1
102
RTVSPropertyOp4
 70
     1
102
RTVSPropertyOp5
 70
     1
102
RTVSPropertyOp6
 70
     1
102
RTVSPropertyOp7
 70
     1
102
RTVSPropertyOp8
 70
     1
102
RTVSPropertyOp9
 70
     1
102
RTVSPropertyOp10
 70
     1
102
RTVSPropertyOp11
 70
     1
102
RTVSPropertyOp12
 70
     1
102
RTVSPropertyOp13
 70
     1
102
RTVSPropertyOp14
 70
     1
102
RTVSPropertyOp15
 70
     1
102
RTVSPropertyOp16
 70
     1
102
RTVSPropertyOp17
 70
     1
102
RTVSPropertyOp18
 70
     1
102
RTVSPropertyOp19
 70
     1
102
RTVSPropertyOp20
 70
     1
102
RTVSPropertyOp21
 70
     1
102
RTVSPropertyOp22
 70
     1
102
RTVSPropertyOp23
 70
     1
102
RTVSPropertyOp24
 70
     1
102
RTVSPropertyOp25
 70
     1
102
RTVSPropertyOp26
 70
     1
102
RTVSPropertyOp27
 70
     1
102
RTVSPropertyOp28
 70
     1
102
RTVSPropertyOp29
 70
     1
102
RTVSPropertyOp30
 70
     1
102
RTVSPropertyOp31
 70
     1
102
RTVSPropertyOp32
 70
     1
102
RTVSPropertyOp33
 70
     1
102
RTVSPropertyOp34
 70
     1
102
RTVSPropertyOp35
 70
     1
102
RTVSPropertyOp36
 70
     1
102
RTVSPropertyOp37
 70
     1
102
RTVSPropertyOp38
 70
     1
102
RTVSPropertyOp39
 70
     1
102
RTVSPropertyOp40
 70
     1
102
RTVSPropertyOp41
 70
     1
102
RTVSPropertyOp42
 70
     1
102
RTVSPropertyOp43
 70
     1
102
RTVSPropertyOp44
 70
     1
102
RTVSPropertyOp45
 70
     1
102
RTVSPropertyOp46
 70
     1
102
RTVSPropertyOp47
 70
     1
102
RTVSPropertyOp48
 70
     1
102
RTVSPropertyOp49
 70
     1
102
RTVSPropertyOp50
 70
     1
102
RTVSPropertyOp51
 70
     0
102
RTVSPropertyOp52
 70
     0
102
RTVSPropertyOp53
 70
     1
102
RTVSPropertyOp54
 70
     1
102
RTVSPropertyOp55
 70
     1
102
RTVSPropertyOp56
 70
     1
102
RTVSPropertyOp57
 70
     1
102
RTVSPropertyOp58
 70
     1
102
RTVSPropertyOp59
 70
     1
102
RTVSPropertyOp60
 70
     1
102
RTVSPropertyOp61
 70
     1
102
RTVSPropertyOp62
 70
     1
  0
XRECORD
  5
9A1E
102
{ACAD_REACTORS
330
9A1D
102
}
330
9A1D
100
AcDbXrecord
280
     1
102
RTVSPost2010Prop28
280
     0
102
RTVSPost2010PropOp28
 70
     1
102
RTVSPost2010Prop29
280
     1
102
RTVSPost2010PropOp29
 70
     1
102
RTVSPost2010Prop30
280
     1
102
RTVSPost2010PropOp30
 70
     1
102
RTVSPost2010Prop31
280
     0
102
RTVSPost2010PropOp31
 70
     1
102
RTVSPost2010Prop32
280
     0
102
RTVSPost2010PropOp32
 70
     1
102
RTVSPost2010Prop33
280
     0
102
RTVSPost2010PropOp33
 70
     1
102
RTVSPost2010Prop34
280
     0
102
RTVSPost2010PropOp34
 70
     1
102
RTVSPost2010Prop35
280
     0
102
RTVSPost2010PropOp35
 70
     1
102
RTVSPost2010Prop36
280
     0
102
RTVSPost2010PropOp36
 70
     1
102
RTVSPost2010Prop37
 90
       50
102
RTVSPost2010PropOp37
 70
     1
102
RTVSPost2010Prop38
140
0.0
102
RTVSPost2010PropOp38
 70
     1
102
RTVSPost2010Prop39
140
1.0
102
RTVSPost2010PropOp39
 70
     1
102
RTVSPost2010Prop40
 90
        0
102
RTVSPost2010PropOp40
 70
     1
102
RTVSPost2010Prop41ColorIndex
 90
       18
102
RTVSPost2010Prop41ColorRGB
 90
        0
102
RTVSPost2010PropOp41
 70
     1
102
RTVSPost2010Prop42
 90
       50
102
RTVSPost2010PropOp42
 70
     1
102
RTVSPost2010Prop43
 90
        3
102
RTVSPost2010PropOp43
 70
     1
102
RTVSPost2010Prop44ColorIndex
 90
        5
102
RTVSPost2010Prop44ColorRGB
 90
      255
102
RTVSPost2010PropOp44
 70
     1
102
RTVSPost2010Prop45
280
     0
102
RTVSPost2010PropOp45
 70
     1
102
RTVSPost2010Prop46
 90
       50
102
RTVSPost2010PropOp46
 70
     1
102
RTVSPost2010Prop47
 90
       50
102
RTVSPost2010PropOp47
 70
     1
102
RTVSPost2010Prop48
 90
       50
102
RTVSPost2010PropOp48
 70
     1
102
RTVSPost2010Prop49
280
     0
102
RTVSPost2010PropOp49
 70
     1
102
RTVSPost2010Prop50
 90
       50
102
RTVSPost2010PropOp50
 70
     1
102
RTVSPost2010Prop51ColorIndex
 90
      256
102
RTVSPost2010Prop51ColorRGB
 90
-16777216
102
RTVSPost2010PropOp51
 70
     0
102
RTVSPost2010Prop52
140
1.0
102
RTVSPost2010PropOp52
 70
     0
102
RTVSPost2010Prop53
 90
        2
102
RTVSPost2010PropOp53
 70
     1
102
RTVSPost2010Prop54
  1
strokes_ogs.tif
102
RTVSPost2010PropOp54
 70
     1
102
RTVSPost2010Prop55
280
     0
102
RTVSPost2010PropOp55
 70
     1
102
RTVSPost2010Prop56
140
1.0
102
RTVSPost2010PropOp56
 70
     1
102
RTVSPost2010Prop57
140
1.0
102
RTVSPost2010PropOp57
 70
     1
102
RTVSPropertyOp0
 70
     1
102
RTVSPropertyOp1
 70
     1
102
RTVSPropertyOp2
 70
     1
102
RTVSPropertyOp3
 70
     1
102
RTVSPropertyOp4
 70
     1
102
RTVSPropertyOp5
 70
     1
102
RTVSPropertyOp6
 70
     1
102
RTVSPropertyOp7
 70
     1
102
RTVSPropertyOp8
 70
     1
102
RTVSPropertyOp9
 70
     1
102
RTVSPropertyOp10
 70
     1
102
RTVSPropertyOp11
 70
     1
102
RTVSPropertyOp12
 70
     1
102
RTVSPropertyOp13
 70
     1
102
RTVSPropertyOp14
 70
     1
102
RTVSPropertyOp15
 70
     1
102
RTVSPropertyOp16
 70
     1
102
RTVSPropertyOp17
 70
     1
102
RTVSPropertyOp18
 70
     1
102
RTVSPropertyOp19
 70
     1
102
RTVSPropertyOp20
 70
     1
102
RTVSPropertyOp21
 70
     1
102
RTVSPropertyOp22
 70
     1
102
RTVSPropertyOp23
 70
     1
102
RTVSPropertyOp24
 70
     1
102
RTVSPropertyOp25
 70
     1
102
RTVSPropertyOp26
 70
     1
102
RTVSPropertyOp27
 70
     1
102
RTVSPropertyOp28
 70
     1
102
RTVSPropertyOp29
 70
     1
102
RTVSPropertyOp30
 70
     1
102
RTVSPropertyOp31
 70
     1
102
RTVSPropertyOp32
 70
     1
102
RTVSPropertyOp33
 70
     1
102
RTVSPropertyOp34
 70
     1
102
RTVSPropertyOp35
 70
     1
102
RTVSPropertyOp36
 70
     1
102
RTVSPropertyOp37
 70
     1
102
RTVSPropertyOp38
 70
     1
102
RTVSPropertyOp39
 70
     1
102
RTVSPropertyOp40
 70
     1
102
RTVSPropertyOp41
 70
     1
102
RTVSPropertyOp42
 70
     1
102
RTVSPropertyOp43
 70
     1
102
RTVSPropertyOp44
 70
     1
102
RTVSPropertyOp45
 70
     1
102
RTVSPropertyOp46
 70
     1
102
RTVSPropertyOp47
 70
     1
102
RTVSPropertyOp48
 70
     1
102
RTVSPropertyOp49
 70
     1
102
RTVSPropertyOp50
 70
     1
102
RTVSPropertyOp51
 70
     0
102
RTVSPropertyOp52
 70
     0
102
RTVSPropertyOp53
 70
     1
102
RTVSPropertyOp54
 70
     1
102
RTVSPropertyOp55
 70
     1
102
RTVSPropertyOp56
 70
     1
102
RTVSPropertyOp57
 70
     1
102
RTVSPropertyOp58
 70
     1
102
RTVSPropertyOp59
 70
     1
102
RTVSPropertyOp60
 70
     1
102
RTVSPropertyOp61
 70
     1
102
RTVSPropertyOp62
 70
     1
  0
XRECORD
  5
9A20
102
{ACAD_REACTORS
330
9A1F
102
}
330
9A1F
100
AcDbXrecord
280
     1
102
RTVSPost2010Prop28
280
     0
102
RTVSPost2010PropOp28
 70
     1
102
RTVSPost2010Prop29
280
     1
102
RTVSPost2010PropOp29
 70
     1
102
RTVSPost2010Prop30
280
     1
102
RTVSPost2010PropOp30
 70
     1
102
RTVSPost2010Prop31
280
     0
102
RTVSPost2010PropOp31
 70
     1
102
RTVSPost2010Prop32
280
     0
102
RTVSPost2010PropOp32
 70
     1
102
RTVSPost2010Prop33
280
     0
102
RTVSPost2010PropOp33
 70
     1
102
RTVSPost2010Prop34
280
     0
102
RTVSPost2010PropOp34
 70
     1
102
RTVSPost2010Prop35
280
     0
102
RTVSPost2010PropOp35
 70
     1
102
RTVSPost2010Prop36
280
     0
102
RTVSPost2010PropOp36
 70
     1
102
RTVSPost2010Prop37
 90
       50
102
RTVSPost2010PropOp37
 70
     1
102
RTVSPost2010Prop38
140
0.0
102
RTVSPost2010PropOp38
 70
     1
102
RTVSPost2010Prop39
140
1.0
102
RTVSPost2010PropOp39
 70
     1
102
RTVSPost2010Prop40
 90
        0
102
RTVSPost2010PropOp40
 70
     1
102
RTVSPost2010Prop41ColorIndex
 90
       18
102
RTVSPost2010Prop41ColorRGB
 90
        0
102
RTVSPost2010PropOp41
 70
     1
102
RTVSPost2010Prop42
 90
       50
102
RTVSPost2010PropOp42
 70
     1
102
RTVSPost2010Prop43
 90
        3
102
RTVSPost2010PropOp43
 70
     1
102
RTVSPost2010Prop44ColorIndex
 90
        5
102
RTVSPost2010Prop44ColorRGB
 90
      255
102
RTVSPost2010PropOp44
 70
     1
102
RTVSPost2010Prop45
280
     0
102
RTVSPost2010PropOp45
 70
     1
102
RTVSPost2010Prop46
 90
       50
102
RTVSPost2010PropOp46
 70
     1
102
RTVSPost2010Prop47
 90
       50
102
RTVSPost2010PropOp47
 70
     1
102
RTVSPost2010Prop48
 90
       50
102
RTVSPost2010PropOp48
 70
     1
102
RTVSPost2010Prop49
280
     0
102
RTVSPost2010PropOp49
 70
     1
102
RTVSPost2010Prop50
 90
       50
102
RTVSPost2010PropOp50
 70
     1
102
RTVSPost2010Prop51ColorIndex
 90
      256
102
RTVSPost2010Prop51ColorRGB
 90
-16777216
102
RTVSPost2010PropOp51
 70
     0
102
RTVSPost2010Prop52
140
1.0
102
RTVSPost2010PropOp52
 70
     0
102
RTVSPost2010Prop53
 90
        2
102
RTVSPost2010PropOp53
 70
     1
102
RTVSPost2010Prop54
  1
strokes_ogs.tif
102
RTVSPost2010PropOp54
 70
     1
102
RTVSPost2010Prop55
280
     0
102
RTVSPost2010PropOp55
 70
     1
102
RTVSPost2010Prop56
140
1.0
102
RTVSPost2010PropOp56
 70
     1
102
RTVSPost2010Prop57
140
1.0
102
RTVSPost2010PropOp57
 70
     1
102
RTVSPropertyOp0
 70
     1
102
RTVSPropertyOp1
 70
     1
102
RTVSPropertyOp2
 70
     1
102
RTVSPropertyOp3
 70
     1
102
RTVSPropertyOp4
 70
     1
102
RTVSPropertyOp5
 70
     1
102
RTVSPropertyOp6
 70
     1
102
RTVSPropertyOp7
 70
     1
102
RTVSPropertyOp8
 70
     1
102
RTVSPropertyOp9
 70
     1
102
RTVSPropertyOp10
 70
     1
102
RTVSPropertyOp11
 70
     1
102
RTVSPropertyOp12
 70
     1
102
RTVSPropertyOp13
 70
     1
102
RTVSPropertyOp14
 70
     1
102
RTVSPropertyOp15
 70
     1
102
RTVSPropertyOp16
 70
     1
102
RTVSPropertyOp17
 70
     1
102
RTVSPropertyOp18
 70
     1
102
RTVSPropertyOp19
 70
     1
102
RTVSPropertyOp20
 70
     1
102
RTVSPropertyOp21
 70
     1
102
RTVSPropertyOp22
 70
     1
102
RTVSPropertyOp23
 70
     1
102
RTVSPropertyOp24
 70
     1
102
RTVSPropertyOp25
 70
     1
102
RTVSPropertyOp26
 70
     1
102
RTVSPropertyOp27
 70
     1
102
RTVSPropertyOp28
 70
     1
102
RTVSPropertyOp29
 70
     1
102
RTVSPropertyOp30
 70
     1
102
RTVSPropertyOp31
 70
     1
102
RTVSPropertyOp32
 70
     1
102
RTVSPropertyOp33
 70
     1
102
RTVSPropertyOp34
 70
     1
102
RTVSPropertyOp35
 70
     1
102
RTVSPropertyOp36
 70
     1
102
RTVSPropertyOp37
 70
     1
102
RTVSPropertyOp38
 70
     1
102
RTVSPropertyOp39
 70
     1
102
RTVSPropertyOp40
 70
     1
102
RTVSPropertyOp41
 70
     1
102
RTVSPropertyOp42
 70
     1
102
RTVSPropertyOp43
 70
     1
102
RTVSPropertyOp44
 70
     1
102
RTVSPropertyOp45
 70
     1
102
RTVSPropertyOp46
 70
     1
102
RTVSPropertyOp47
 70
     1
102
RTVSPropertyOp48
 70
     1
102
RTVSPropertyOp49
 70
     1
102
RTVSPropertyOp50
 70
     1
102
RTVSPropertyOp51
 70
     0
102
RTVSPropertyOp52
 70
     0
102
RTVSPropertyOp53
 70
     1
102
RTVSPropertyOp54
 70
     1
102
RTVSPropertyOp55
 70
     1
102
RTVSPropertyOp56
 70
     1
102
RTVSPropertyOp57
 70
     1
102
RTVSPropertyOp58
 70
     1
102
RTVSPropertyOp59
 70
     1
102
RTVSPropertyOp60
 70
     1
102
RTVSPropertyOp61
 70
     1
102
RTVSPropertyOp62
 70
     1
  0
XRECORD
  5
9A16
102
{ACAD_REACTORS
330
9A15
102
}
330
9A15
100
AcDbXrecord
280
     1
102
RTVSPost2010Prop28
280
     0
102
RTVSPost2010PropOp28
 70
     1
102
RTVSPost2010Prop29
280
     1
102
RTVSPost2010PropOp29
 70
     1
102
RTVSPost2010Prop30
280
     1
102
RTVSPost2010PropOp30
 70
     1
102
RTVSPost2010Prop31
280
     0
102
RTVSPost2010PropOp31
 70
     1
102
RTVSPost2010Prop32
280
     0
102
RTVSPost2010PropOp32
 70
     1
102
RTVSPost2010Prop33
280
     0
102
RTVSPost2010PropOp33
 70
     1
102
RTVSPost2010Prop34
280
     0
102
RTVSPost2010PropOp34
 70
     1
102
RTVSPost2010Prop35
280
     0
102
RTVSPost2010PropOp35
 70
     1
102
RTVSPost2010Prop36
280
     0
102
RTVSPost2010PropOp36
 70
     1
102
RTVSPost2010Prop37
 90
       50
102
RTVSPost2010PropOp37
 70
     1
102
RTVSPost2010Prop38
140
0.0
102
RTVSPost2010PropOp38
 70
     1
102
RTVSPost2010Prop39
140
1.0
102
RTVSPost2010PropOp39
 70
     1
102
RTVSPost2010Prop40
 90
        0
102
RTVSPost2010PropOp40
 70
     1
102
RTVSPost2010Prop41ColorIndex
 90
       18
102
RTVSPost2010Prop41ColorRGB
 90
        0
102
RTVSPost2010PropOp41
 70
     1
102
RTVSPost2010Prop42
 90
       50
102
RTVSPost2010PropOp42
 70
     1
102
RTVSPost2010Prop43
 90
        3
102
RTVSPost2010PropOp43
 70
     1
102
RTVSPost2010Prop44ColorIndex
 90
        5
102
RTVSPost2010Prop44ColorRGB
 90
      255
102
RTVSPost2010PropOp44
 70
     1
102
RTVSPost2010Prop45
280
     0
102
RTVSPost2010PropOp45
 70
     1
102
RTVSPost2010Prop46
 90
       50
102
RTVSPost2010PropOp46
 70
     1
102
RTVSPost2010Prop47
 90
       50
102
RTVSPost2010PropOp47
 70
     1
102
RTVSPost2010Prop48
 90
       50
102
RTVSPost2010PropOp48
 70
     1
102
RTVSPost2010Prop49
280
     0
102
RTVSPost2010PropOp49
 70
     1
102
RTVSPost2010Prop50
 90
       50
102
RTVSPost2010PropOp50
 70
     1
102
RTVSPost2010Prop51ColorIndex
 90
      256
102
RTVSPost2010Prop51ColorRGB
 90
-16777216
102
RTVSPost2010PropOp51
 70
     0
102
RTVSPost2010Prop52
140
1.0
102
RTVSPost2010PropOp52
 70
     0
102
RTVSPost2010Prop53
 90
        2
102
RTVSPost2010PropOp53
 70
     1
102
RTVSPost2010Prop54
  1
strokes_ogs.tif
102
RTVSPost2010PropOp54
 70
     1
102
RTVSPost2010Prop55
280
     0
102
RTVSPost2010PropOp55
 70
     1
102
RTVSPost2010Prop56
140
1.0
102
RTVSPost2010PropOp56
 70
     1
102
RTVSPost2010Prop57
140
1.0
102
RTVSPost2010PropOp57
 70
     1
102
RTVSPropertyOp0
 70
     1
102
RTVSPropertyOp1
 70
     1
102
RTVSPropertyOp2
 70
     1
102
RTVSPropertyOp3
 70
     1
102
RTVSPropertyOp4
 70
     1
102
RTVSPropertyOp5
 70
     1
102
RTVSPropertyOp6
 70
     1
102
RTVSPropertyOp7
 70
     1
102
RTVSPropertyOp8
 70
     1
102
RTVSPropertyOp9
 70
     1
102
RTVSPropertyOp10
 70
     1
102
RTVSPropertyOp11
 70
     1
102
RTVSPropertyOp12
 70
     1
102
RTVSPropertyOp13
 70
     1
102
RTVSPropertyOp14
 70
     1
102
RTVSPropertyOp15
 70
     1
102
RTVSPropertyOp16
 70
     1
102
RTVSPropertyOp17
 70
     1
102
RTVSPropertyOp18
 70
     1
102
RTVSPropertyOp19
 70
     1
102
RTVSPropertyOp20
 70
     1
102
RTVSPropertyOp21
 70
     1
102
RTVSPropertyOp22
 70
     1
102
RTVSPropertyOp23
 70
     1
102
RTVSPropertyOp24
 70
     1
102
RTVSPropertyOp25
 70
     1
102
RTVSPropertyOp26
 70
     1
102
RTVSPropertyOp27
 70
     1
102
RTVSPropertyOp28
 70
     1
102
RTVSPropertyOp29
 70
     1
102
RTVSPropertyOp30
 70
     1
102
RTVSPropertyOp31
 70
     1
102
RTVSPropertyOp32
 70
     1
102
RTVSPropertyOp33
 70
     1
102
RTVSPropertyOp34
 70
     1
102
RTVSPropertyOp35
 70
     1
102
RTVSPropertyOp36
 70
     1
102
RTVSPropertyOp37
 70
     1
102
RTVSPropertyOp38
 70
     1
102
RTVSPropertyOp39
 70
     1
102
RTVSPropertyOp40
 70
     1
102
RTVSPropertyOp41
 70
     1
102
RTVSPropertyOp42
 70
     1
102
RTVSPropertyOp43
 70
     1
102
RTVSPropertyOp44
 70
     1
102
RTVSPropertyOp45
 70
     1
102
RTVSPropertyOp46
 70
     1
102
RTVSPropertyOp47
 70
     1
102
RTVSPropertyOp48
 70
     1
102
RTVSPropertyOp49
 70
     1
102
RTVSPropertyOp50
 70
     1
102
RTVSPropertyOp51
 70
     0
102
RTVSPropertyOp52
 70
     0
102
RTVSPropertyOp53
 70
     1
102
RTVSPropertyOp54
 70
     1
102
RTVSPropertyOp55
 70
     1
102
RTVSPropertyOp56
 70
     1
102
RTVSPropertyOp57
 70
     1
102
RTVSPropertyOp58
 70
     1
102
RTVSPropertyOp59
 70
     1
102
RTVSPropertyOp60
 70
     1
102
RTVSPropertyOp61
 70
     1
102
RTVSPropertyOp62
 70
     1
  0
XRECORD
  5
9A0A
102
{ACAD_REACTORS
330
9A09
102
}
330
9A09
100
AcDbXrecord
280
     1
102
RTVSPost2010Prop28
280
     0
102
RTVSPost2010PropOp28
 70
     1
102
RTVSPost2010Prop29
280
     1
102
RTVSPost2010PropOp29
 70
     1
102
RTVSPost2010Prop30
280
     1
102
RTVSPost2010PropOp30
 70
     1
102
RTVSPost2010Prop31
280
     0
102
RTVSPost2010PropOp31
 70
     1
102
RTVSPost2010Prop32
280
     0
102
RTVSPost2010PropOp32
 70
     1
102
RTVSPost2010Prop33
280
     0
102
RTVSPost2010PropOp33
 70
     1
102
RTVSPost2010Prop34
280
     0
102
RTVSPost2010PropOp34
 70
     1
102
RTVSPost2010Prop35
280
     0
102
RTVSPost2010PropOp35
 70
     1
102
RTVSPost2010Prop36
280
     0
102
RTVSPost2010PropOp36
 70
     1
102
RTVSPost2010Prop37
 90
       50
102
RTVSPost2010PropOp37
 70
     1
102
RTVSPost2010Prop38
140
0.0
102
RTVSPost2010PropOp38
 70
     1
102
RTVSPost2010Prop39
140
1.0
102
RTVSPost2010PropOp39
 70
     1
102
RTVSPost2010Prop40
 90
        0
102
RTVSPost2010PropOp40
 70
     1
102
RTVSPost2010Prop41ColorIndex
 90
       18
102
RTVSPost2010Prop41ColorRGB
 90
        0
102
RTVSPost2010PropOp41
 70
     1
102
RTVSPost2010Prop42
 90
       50
102
RTVSPost2010PropOp42
 70
     1
102
RTVSPost2010Prop43
 90
        3
102
RTVSPost2010PropOp43
 70
     1
102
RTVSPost2010Prop44ColorIndex
 90
        5
102
RTVSPost2010Prop44ColorRGB
 90
      255
102
RTVSPost2010PropOp44
 70
     1
102
RTVSPost2010Prop45
280
     0
102
RTVSPost2010PropOp45
 70
     1
102
RTVSPost2010Prop46
 90
       50
102
RTVSPost2010PropOp46
 70
     1
102
RTVSPost2010Prop47
 90
       50
102
RTVSPost2010PropOp47
 70
     1
102
RTVSPost2010Prop48
 90
       50
102
RTVSPost2010PropOp48
 70
     1
102
RTVSPost2010Prop49
280
     0
102
RTVSPost2010PropOp49
 70
     1
102
RTVSPost2010Prop50
 90
       50
102
RTVSPost2010PropOp50
 70
     1
102
RTVSPost2010Prop51ColorIndex
 90
      256
102
RTVSPost2010Prop51ColorRGB
 90
-16777216
102
RTVSPost2010PropOp51
 70
     0
102
RTVSPost2010Prop52
140
1.0
102
RTVSPost2010PropOp52
 70
     0
102
RTVSPost2010Prop53
 90
        2
102
RTVSPost2010PropOp53
 70
     1
102
RTVSPost2010Prop54
  1
strokes_ogs.tif
102
RTVSPost2010PropOp54
 70
     1
102
RTVSPost2010Prop55
280
     0
102
RTVSPost2010PropOp55
 70
     1
102
RTVSPost2010Prop56
140
1.0
102
RTVSPost2010PropOp56
 70
     1
102
RTVSPost2010Prop57
140
1.0
102
RTVSPost2010PropOp57
 70
     1
102
RTVSPropertyOp0
 70
     1
102
RTVSPropertyOp1
 70
     1
102
RTVSPropertyOp2
 70
     1
102
RTVSPropertyOp3
 70
     1
102
RTVSPropertyOp4
 70
     1
102
RTVSPropertyOp5
 70
     1
102
RTVSPropertyOp6
 70
     1
102
RTVSPropertyOp7
 70
     1
102
RTVSPropertyOp8
 70
     1
102
RTVSPropertyOp9
 70
     1
102
RTVSPropertyOp10
 70
     1
102
RTVSPropertyOp11
 70
     1
102
RTVSPropertyOp12
 70
     1
102
RTVSPropertyOp13
 70
     1
102
RTVSPropertyOp14
 70
     1
102
RTVSPropertyOp15
 70
     1
102
RTVSPropertyOp16
 70
     1
102
RTVSPropertyOp17
 70
     1
102
RTVSPropertyOp18
 70
     1
102
RTVSPropertyOp19
 70
     1
102
RTVSPropertyOp20
 70
     1
102
RTVSPropertyOp21
 70
     1
102
RTVSPropertyOp22
 70
     1
102
RTVSPropertyOp23
 70
     1
102
RTVSPropertyOp24
 70
     1
102
RTVSPropertyOp25
 70
     1
102
RTVSPropertyOp26
 70
     1
102
RTVSPropertyOp27
 70
     1
102
RTVSPropertyOp28
 70
     1
102
RTVSPropertyOp29
 70
     1
102
RTVSPropertyOp30
 70
     1
102
RTVSPropertyOp31
 70
     1
102
RTVSPropertyOp32
 70
     1
102
RTVSPropertyOp33
 70
     1
102
RTVSPropertyOp34
 70
     1
102
RTVSPropertyOp35
 70
     1
102
RTVSPropertyOp36
 70
     1
102
RTVSPropertyOp37
 70
     1
102
RTVSPropertyOp38
 70
     1
102
RTVSPropertyOp39
 70
     1
102
RTVSPropertyOp40
 70
     1
102
RTVSPropertyOp41
 70
     1
102
RTVSPropertyOp42
 70
     1
102
RTVSPropertyOp43
 70
     1
102
RTVSPropertyOp44
 70
     1
102
RTVSPropertyOp45
 70
     1
102
RTVSPropertyOp46
 70
     1
102
RTVSPropertyOp47
 70
     1
102
RTVSPropertyOp48
 70
     1
102
RTVSPropertyOp49
 70
     1
102
RTVSPropertyOp50
 70
     1
102
RTVSPropertyOp51
 70
     0
102
RTVSPropertyOp52
 70
     0
102
RTVSPropertyOp53
 70
     1
102
RTVSPropertyOp54
 70
     1
102
RTVSPropertyOp55
 70
     1
102
RTVSPropertyOp56
 70
     1
102
RTVSPropertyOp57
 70
     1
102
RTVSPropertyOp58
 70
     1
102
RTVSPropertyOp59
 70
     1
102
RTVSPropertyOp60
 70
     1
102
RTVSPropertyOp61
 70
     1
102
RTVSPropertyOp62
 70
     1
  0
XRECORD
  5
9A22
102
{ACAD_REACTORS
330
9A21
102
}
330
9A21
100
AcDbXrecord
280
     1
102
RTVSPost2010Prop28
280
     0
102
RTVSPost2010PropOp28
 70
     1
102
RTVSPost2010Prop29
280
     1
102
RTVSPost2010PropOp29
 70
     1
102
RTVSPost2010Prop30
280
     1
102
RTVSPost2010PropOp30
 70
     1
102
RTVSPost2010Prop31
280
     0
102
RTVSPost2010PropOp31
 70
     1
102
RTVSPost2010Prop32
280
     0
102
RTVSPost2010PropOp32
 70
     1
102
RTVSPost2010Prop33
280
     0
102
RTVSPost2010PropOp33
 70
     1
102
RTVSPost2010Prop34
280
     0
102
RTVSPost2010PropOp34
 70
     1
102
RTVSPost2010Prop35
280
     0
102
RTVSPost2010PropOp35
 70
     1
102
RTVSPost2010Prop36
280
     0
102
RTVSPost2010PropOp36
 70
     1
102
RTVSPost2010Prop37
 90
       50
102
RTVSPost2010PropOp37
 70
     1
102
RTVSPost2010Prop38
140
0.0
102
RTVSPost2010PropOp38
 70
     1
102
RTVSPost2010Prop39
140
1.0
102
RTVSPost2010PropOp39
 70
     1
102
RTVSPost2010Prop40
 90
        0
102
RTVSPost2010PropOp40
 70
     1
102
RTVSPost2010Prop41ColorIndex
 90
       18
102
RTVSPost2010Prop41ColorRGB
 90
        0
102
RTVSPost2010PropOp41
 70
     1
102
RTVSPost2010Prop42
 90
       50
102
RTVSPost2010PropOp42
 70
     1
102
RTVSPost2010Prop43
 90
        3
102
RTVSPost2010PropOp43
 70
     1
102
RTVSPost2010Prop44ColorIndex
 90
        5
102
RTVSPost2010Prop44ColorRGB
 90
      255
102
RTVSPost2010PropOp44
 70
     1
102
RTVSPost2010Prop45
280
     0
102
RTVSPost2010PropOp45
 70
     1
102
RTVSPost2010Prop46
 90
       50
102
RTVSPost2010PropOp46
 70
     1
102
RTVSPost2010Prop47
 90
       50
102
RTVSPost2010PropOp47
 70
     1
102
RTVSPost2010Prop48
 90
       50
102
RTVSPost2010PropOp48
 70
     1
102
RTVSPost2010Prop49
280
     0
102
RTVSPost2010PropOp49
 70
     1
102
RTVSPost2010Prop50
 90
       50
102
RTVSPost2010PropOp50
 70
     1
102
RTVSPost2010Prop51ColorIndex
 90
      256
102
RTVSPost2010Prop51ColorRGB
 90
-16777216
102
RTVSPost2010PropOp51
 70
     0
102
RTVSPost2010Prop52
140
1.0
102
RTVSPost2010PropOp52
 70
     0
102
RTVSPost2010Prop53
 90
        2
102
RTVSPost2010PropOp53
 70
     1
102
RTVSPost2010Prop54
  1
strokes_ogs.tif
102
RTVSPost2010PropOp54
 70
     1
102
RTVSPost2010Prop55
280
     0
102
RTVSPost2010PropOp55
 70
     1
102
RTVSPost2010Prop56
140
1.0
102
RTVSPost2010PropOp56
 70
     1
102
RTVSPost2010Prop57
140
1.0
102
RTVSPost2010PropOp57
 70
     1
102
RTVSPropertyOp0
 70
     1
102
RTVSPropertyOp1
 70
     1
102
RTVSPropertyOp2
 70
     1
102
RTVSPropertyOp3
 70
     1
102
RTVSPropertyOp4
 70
     1
102
RTVSPropertyOp5
 70
     1
102
RTVSPropertyOp6
 70
     1
102
RTVSPropertyOp7
 70
     1
102
RTVSPropertyOp8
 70
     1
102
RTVSPropertyOp9
 70
     1
102
RTVSPropertyOp10
 70
     1
102
RTVSPropertyOp11
 70
     1
102
RTVSPropertyOp12
 70
     1
102
RTVSPropertyOp13
 70
     1
102
RTVSPropertyOp14
 70
     1
102
RTVSPropertyOp15
 70
     1
102
RTVSPropertyOp16
 70
     1
102
RTVSPropertyOp17
 70
     1
102
RTVSPropertyOp18
 70
     1
102
RTVSPropertyOp19
 70
     1
102
RTVSPropertyOp20
 70
     1
102
RTVSPropertyOp21
 70
     1
102
RTVSPropertyOp22
 70
     1
102
RTVSPropertyOp23
 70
     1
102
RTVSPropertyOp24
 70
     1
102
RTVSPropertyOp25
 70
     1
102
RTVSPropertyOp26
 70
     1
102
RTVSPropertyOp27
 70
     1
102
RTVSPropertyOp28
 70
     1
102
RTVSPropertyOp29
 70
     1
102
RTVSPropertyOp30
 70
     1
102
RTVSPropertyOp31
 70
     1
102
RTVSPropertyOp32
 70
     1
102
RTVSPropertyOp33
 70
     1
102
RTVSPropertyOp34
 70
     1
102
RTVSPropertyOp35
 70
     1
102
RTVSPropertyOp36
 70
     1
102
RTVSPropertyOp37
 70
     1
102
RTVSPropertyOp38
 70
     1
102
RTVSPropertyOp39
 70
     1
102
RTVSPropertyOp40
 70
     1
102
RTVSPropertyOp41
 70
     1
102
RTVSPropertyOp42
 70
     1
102
RTVSPropertyOp43
 70
     1
102
RTVSPropertyOp44
 70
     1
102
RTVSPropertyOp45
 70
     1
102
RTVSPropertyOp46
 70
     1
102
RTVSPropertyOp47
 70
     1
102
RTVSPropertyOp48
 70
     1
102
RTVSPropertyOp49
 70
     1
102
RTVSPropertyOp50
 70
     1
102
RTVSPropertyOp51
 70
     0
102
RTVSPropertyOp52
 70
     0
102
RTVSPropertyOp53
 70
     1
102
RTVSPropertyOp54
 70
     1
102
RTVSPropertyOp55
 70
     1
102
RTVSPropertyOp56
 70
     1
102
RTVSPropertyOp57
 70
     1
102
RTVSPropertyOp58
 70
     1
102
RTVSPropertyOp59
 70
     1
102
RTVSPropertyOp60
 70
     1
102
RTVSPropertyOp61
 70
     1
102
RTVSPropertyOp62
 70
     1
  0
ENDSEC
  0
EOF
