  0
SECTION
  2
HEADER
  9
$ACADVER
  1
AC1015
  9
$ACADMAINTVER
 70
    20
  9
$DWGCODEPAGE
  3
ANSI_932
  9
$INSBASE
 10
0.0
 20
0.0
 30
0.0
  9
$EXTMIN
 10
10.0
 20
9.999999999999998
 30
0.0
  9
$EXTMAX
 10
365.0513419999999
 20
327.7455529999999
 30
0.0
  9
$LIMMIN
 10
0.0
 20
0.0
  9
$LIMMAX
 10
495.0
 20
341.25
  9
$ORTHOMODE
 70
     1
  9
$REGENMODE
 70
     1
  9
$FILLMODE
 70
     1
  9
$QTEXTMODE
 70
     0
  9
$MIRRTEXT
 70
     1
  9
$LTSCALE
 40
20.0
  9
$ATTMODE
 70
     1
  9
$TEXTSIZE
 40
5.0
  9
$TRACEWID
 40
1.0
  9
$TEXTSTYLE
  7
STANDARD
  9
$CLAYER
  8
0
  9
$CELTYPE
  6
BYLAYER
  9
$CECOLOR
 62
   256
  9
$CELTSCALE
 40
1.0
  9
$DISPSILH
 70
     0
  9
$DIMSCALE
 40
1.0
  9
$DIMASZ
 40
3.0
  9
$DIMEXO
 40
1.0
  9
$DIMDLI
 40
10.0
  9
$DIMRND
 40
0.0
  9
$DIMDLE
 40
0.0
  9
$DIMEXE
 40
1.0
  9
$DIMTP
 40
0.0
  9
$DIMTM
 40
0.0
  9
$DIMTXT
 40
3.2
  9
$DIMCEN
 40
0.0
  9
$DIMTSZ
 40
0.0
  9
$DIMTOL
 70
     0
  9
$DIMLIM
 70
     0
  9
$DIMTIH
 70
     0
  9
$DIMTOH
 70
     0
  9
$DIMSE1
 70
     0
  9
$DIMSE2
 70
     0
  9
$DIMTAD
 70
     3
  9
$DIMZIN
 70
     8
  9
$DIMBLK
  1

  9
$DIMASO
 70
     1
  9
$DIMSHO
 70
     1
  9
$DIMPOST
  1

  9
$DIMAPOST
  1

  9
$DIMALT
 70
     0
  9
$DIMALTD
 70
     2
  9
$DIMALTF
 40
25.4
  9
$DIMLFAC
 40
1.0
  9
$DIMTOFL
 70
     1
  9
$DIMTVP
 40
0.0
  9
$DIMTIX
 70
     0
  9
$DIMSOXD
 70
     0
  9
$DIMSAH
 70
     1
  9
$DIMBLK1
  1

  9
$DIMBLK2
  1

  9
$DIMSTYLE
  2
STANDARD
  9
$DIMCLRD
 70
     0
  9
$DIMCLRE
 70
     0
  9
$DIMCLRT
 70
     0
  9
$DIMTFAC
 40
1.0
  9
$DIMGAP
 40
1.0
  9
$DIMJUST
 70
     0
  9
$DIMSD1
 70
     0
  9
$DIMSD2
 70
     0
  9
$DIMTOLJ
 70
     1
  9
$DIMTZIN
 70
     0
  9
$DIMALTZ
 70
     0
  9
$DIMALTTZ
 70
     0
  9
$DIMUPT
 70
     0
  9
$DIMDEC
 70
     4
  9
$DIMTDEC
 70
     4
  9
$DIMALTU
 70
     2
  9
$DIMALTTD
 70
     2
  9
$DIMTXSTY
  7
STANDARD
  9
$DIMAUNIT
 70
     0
  9
$DIMADEC
 70
     0
  9
$DIMALTRND
 40
0.0
  9
$DIMAZIN
 70
     0
  9
$DIMDSEP
 70
    46
  9
$DIMATFIT
 70
     3
  9
$DIMFRAC
 70
     0
  9
$DIMLDRBLK
  1

  9
$DIMLUNIT
 70
     2
  9
$DIMLWD
 70
    -2
  9
$DIMLWE
 70
    -2
  9
$DIMTMOVE
 70
     0
  9
$LUNITS
 70
     2
  9
$LUPREC
 70
     4
  9
$SKETCHINC
 40
1.0
  9
$FILLETRAD
 40
2.5
  9
$AUNITS
 70
     0
  9
$AUPREC
 70
     2
  9
$MENU
  1
.
  9
$ELEVATION
 40
0.0
  9
$PELEVATION
 40
0.0
  9
$THICKNESS
 40
0.0
  9
$LIMCHECK
 70
     0
  9
$CHAMFERA
 40
10.0
  9
$CHAMFERB
 40
10.0
  9
$CHAMFERC
 40
0.0
  9
$CHAMFERD
 40
0.0
  9
$SKPOLY
 70
     0
  9
$TDCREATE
 40
2451073.686124884
  9
$TDUCREATE
 40
2451073.311124884
  9
$TDUPDATE
 40
2457192.599828206
  9
$TDUUPDATE
 40
2457192.224828206
  9
$TDINDWG
 40
0.0000139352
  9
$TDUSRTIMER
 40
0.0000131597
  9
$USRTIMER
 70
     1
  9
$ANGBASE
 50
0.0
  9
$ANGDIR
 70
     0
  9
$PDMODE
 70
     0
  9
$PDSIZE
 40
0.0
  9
$PLINEWID
 40
0.0
  9
$SPLFRAME
 70
     0
  9
$SPLINETYPE
 70
     6
  9
$SPLINESEGS
 70
     8
  9
$HANDSEED
  5
97C8
  9
$SURFTAB1
 70
     6
  9
$SURFTAB2
 70
     6
  9
$SURFTYPE
 70
     6
  9
$SURFU
 70
     6
  9
$SURFV
 70
     6
  9
$UCSBASE
  2

  9
$UCSNAME
  2

  9
$UCSORG
 10
0.0
 20
0.0
 30
0.0
  9
$UCSXDIR
 10
1.0
 20
0.0
 30
0.0
  9
$UCSYDIR
 10
0.0
 20
1.0
 30
0.0
  9
$UCSORTHOREF
  2

  9
$UCSORTHOVIEW
 70
     0
  9
$UCSORGTOP
 10
0.0
 20
0.0
 30
0.0
  9
$UCSORGBOTTOM
 10
0.0
 20
0.0
 30
0.0
  9
$UCSORGLEFT
 10
0.0
 20
0.0
 30
0.0
  9
$UCSORGRIGHT
 10
0.0
 20
0.0
 30
0.0
  9
$UCSORGFRONT
 10
0.0
 20
0.0
 30
0.0
  9
$UCSORGBACK
 10
0.0
 20
0.0
 30
0.0
  9
$PUCSBASE
  2

  9
$PUCSNAME
  2

  9
$PUCSORG
 10
0.0
 20
0.0
 30
0.0
  9
$PUCSXDIR
 10
1.0
 20
0.0
 30
0.0
  9
$PUCSYDIR
 10
0.0
 20
1.0
 30
0.0
  9
$PUCSORTHOREF
  2

  9
$PUCSORTHOVIEW
 70
     0
  9
$PUCSORGTOP
 10
0.0
 20
0.0
 30
0.0
  9
$PUCSORGBOTTOM
 10
0.0
 20
0.0
 30
0.0
  9
$PUCSORGLEFT
 10
0.0
 20
0.0
 30
0.0
  9
$PUCSORGRIGHT
 10
0.0
 20
0.0
 30
0.0
  9
$PUCSORGFRONT
 10
0.0
 20
0.0
 30
0.0
  9
$PUCSORGBACK
 10
0.0
 20
0.0
 30
0.0
  9
$USERI1
 70
     0
  9
$USERI2
 70
     0
  9
$USERI3
 70
     0
  9
$USERI4
 70
     0
  9
$USERI5
 70
     0
  9
$USERR1
 40
0.0
  9
$USERR2
 40
0.0
  9
$USERR3
 40
0.0
  9
$USERR4
 40
0.0
  9
$USERR5
 40
0.0
  9
$WORLDVIEW
 70
     1
  9
$SHADEDGE
 70
     3
  9
$SHADEDIF
 70
    70
  9
$TILEMODE
 70
     1
  9
$MAXACTVP
 70
    16
  9
$PINSBASE
 10
0.0
 20
0.0
 30
0.0
  9
$PLIMCHECK
 70
     0
  9
$PEXTMIN
 10
1.000000000000000E+20
 20
1.000000000000000E+20
 30
1.000000000000000E+20
  9
$PEXTMAX
 10
-1.000000000000000E+20
 20
-1.000000000000000E+20
 30
-1.000000000000000E+20
  9
$PLIMMIN
 10
0.0
 20
0.0
  9
$PLIMMAX
 10
420.0
 20
297.0
  9
$UNITMODE
 70
     0
  9
$VISRETAIN
 70
     0
  9
$PLINEGEN
 70
     0
  9
$PSLTSCALE
 70
     0
  9
$TREEDEPTH
 70
  3020
  9
$CMLSTYLE
  2
STANDARD
  9
$CMLJUST
 70
     0
  9
$CMLSCALE
 40
1.0
  9
$PROXYGRAPHICS
 70
     1
  9
$MEASUREMENT
 70
     0
  9
$CELWEIGHT
370
    -1
  9
$ENDCAPS
280
     0
  9
$JOINSTYLE
280
     0
  9
$LWDISPLAY
290
     0
  9
$INSUNITS
 70
     0
  9
$HYPERLINKBASE
  1

  9
$STYLESHEET
  1

  9
$XEDIT
290
     1
  9
$CEPSNTYPE
380
     0
  9
$PSTYLEMODE
290
     1
  9
$FINGERPRINTGUID
  2
{FE24598D-33E2-4E26-9370-AE0C484C6687}
  9
$VERSIONGUID
  2
{F7EB8260-503F-4335-83DD-B783C760ADC6}
  9
$EXTNAMES
290
     1
  9
$PSVPSCALE
 40
0.0
  9
$OLESTARTUP
290
     0
  0
ENDSEC
  0
SECTION
  2
CLASSES
  0
CLASS
  1
ACDBDICTIONARYWDFLT
  2
AcDbDictionaryWithDefault
  3
ObjectDBX Classes
 90
        0
280
     0
281
     0
  0
CLASS
  1
ACDBPLACEHOLDER
  2
AcDbPlaceHolder
  3
ObjectDBX Classes
 90
        0
280
     0
281
     0
  0
CLASS
  1
LAYOUT
  2
AcDbLayout
  3
ObjectDBX Classes
 90
        0
280
     0
281
     0
  0
CLASS
  1
DICTIONARYVAR
  2
AcDbDictionaryVar
  3
ObjectDBX Classes
 90
        0
280
     0
281
     0
  0
CLASS
  1
MATERIAL
  2
AcDbMaterial
  3
ObjectDBX Classes
 90
     1153
280
     0
281
     0
  0
CLASS
  1
VISUALSTYLE
  2
AcDbVisualStyle
  3
ObjectDBX Classes
 90
     4095
280
     0
281
     0
  0
CLASS
  1
TABLESTYLE
  2
AcDbTableStyle
  3
ObjectDBX Classes
 90
     4095
280
     0
281
     0
  0
CLASS
  1
SCALE
  2
AcDbScale
  3
ObjectDBX Classes
 90
     1153
280
     0
281
     0
  0
CLASS
  1
MLEADERSTYLE
  2
AcDbMLeaderStyle
  3
ACDB_MLEADERSTYLE_CLASS
 90
     4095
280
     0
281
     0
  0
CLASS
  1
ACDBSECTIONVIEWSTYLE
  2
AcDbSectionViewStyle
  3
ObjectDBX Classes
 90
     1025
280
     0
281
     0
  0
CLASS
  1
ACDBDETAILVIEWSTYLE
  2
AcDbDetailViewStyle
  3
ObjectDBX Classes
 90
     1025
280
     0
281
     0
  0
CLASS
  1
CELLSTYLEMAP
  2
AcDbCellStyleMap
  3
ObjectDBX Classes
 90
     1152
280
     0
281
     0
  0
ENDSEC
  0
SECTION
  2
TABLES
  0
TABLE
  2
VPORT
  5
9536
330
0
100
AcDbSymbolTable
 70
     1
  0
VPORT
  5
9711
330
9536
100
AcDbSymbolTableRecord
100
AcDbViewportTableRecord
  2
*ACTIVE
 70
     0
 10
0.0
 20
0.0
 11
1.0
 21
1.0
 12
283.7724387272931
 22
168.867617445931
 13
0.0
 23
0.0
 14
10.0
 24
10.0
 15
10.0
 25
10.0
 16
0.0
 26
0.0
 36
1.0
 17
0.0
 27
0.0
 37
0.0
 40
321.3149154632994
 41
1.899603698811096
 42
50.0
 43
0.0
 44
0.0
 50
0.0
 51
0.0
 71
     0
 72
   100
 73
     1
 74
     0
 75
     0
 76
     0
 77
     0
 78
     0
281
     0
 65
     1
110
0.0
120
0.0
130
0.0
111
1.0
121
0.0
131
0.0
112
0.0
122
1.0
132
0.0
 79
     0
146
0.0
1001
ACAD_NAV_VCDISPLAY
1070
     3
  0
ENDTAB
  0
TABLE
  2
LTYPE
  5
9533
330
0
100
AcDbSymbolTable
 70
     4
  0
LTYPE
  5
9541
330
9533
100
AcDbSymbolTableRecord
100
AcDbLinetypeTableRecord
  2
BYBLOCK
 70
     0
  3

 72
    65
 73
     0
 40
0.0
  0
LTYPE
  5
9542
330
9533
100
AcDbSymbolTableRecord
100
AcDbLinetypeTableRecord
  2
BYLAYER
 70
     0
  3

 72
    65
 73
     0
 40
0.0
  0
LTYPE
  5
9543
330
9533
100
AcDbSymbolTableRecord
100
AcDbLinetypeTableRecord
  2
CONTINUOUS
 70
     0
  3
Solid line
 72
    65
 73
     0
 40
0.0
  0
LTYPE
  5
9551
330
9533
100
AcDbSymbolTableRecord
100
AcDbLinetypeTableRecord
  2
DASHED
 70
     0
  3
__ __ __ __ __ __ __ __ __ __ __ __ __ __ __ __
 72
    65
 73
     2
 40
0.75
 49
0.5
 74
     0
 49
-0.25
 74
     0
  0
LTYPE
  5
9552
330
9533
100
AcDbSymbolTableRecord
100
AcDbLinetypeTableRecord
  2
CENTER
 70
     0
  3
____ _ ____ _ ____ _ ____ _ ____ _ ____ _ ____ 
 72
    65
 73
     4
 40
2.0
 49
1.25
 74
     0
 49
-0.25
 74
     0
 49
0.25
 74
     0
 49
-0.25
 74
     0
  0
LTYPE
  5
9553
330
9533
100
AcDbSymbolTableRecord
100
AcDbLinetypeTableRecord
  2
PHANTOM
 70
     0
  3
______  __  __  ______  __  __  ______  __  __ 
 72
    65
 73
     6
 40
2.5
 49
1.25
 74
     0
 49
-0.25
 74
     0
 49
0.25
 74
     0
 49
-0.25
 74
     0
 49
0.25
 74
     0
 49
-0.25
 74
     0
  0
ENDTAB
  0
TABLE
  2
LAYER
  5
9530
330
0
100
AcDbSymbolTable
 70
     8
  0
LAYER
  5
953E
102
{ACAD_XDICTIONARY
360
976C
102
}
330
9530
100
AcDbSymbolTableRecord
100
AcDbLayerTableRecord
  2
0
 70
     0
 62
     7
  6
CONTINUOUS
370
    -3
390
971A
  0
LAYER
  5
9554
102
{ACAD_XDICTIONARY
360
976E
102
}
330
9530
100
AcDbSymbolTableRecord
100
AcDbLayerTableRecord
  2
4
 70
     0
 62
     1
  6
CENTER
370
    -3
390
971A
  0
LAYER
  5
9555
102
{ACAD_XDICTIONARY
360
9770
102
}
330
9530
100
AcDbSymbolTableRecord
100
AcDbLayerTableRecord
  2
5
 70
     0
 62
     6
  6
PHANTOM
370
    -3
390
971A
  0
LAYER
  5
9556
102
{ACAD_XDICTIONARY
360
9772
102
}
330
9530
100
AcDbSymbolTableRecord
100
AcDbLayerTableRecord
  2
1
 70
     0
 62
     7
  6
CONTINUOUS
370
    -3
390
971A
  0
LAYER
  5
9557
102
{ACAD_XDICTIONARY
360
9774
102
}
330
9530
100
AcDbSymbolTableRecord
100
AcDbLayerTableRecord
  2
2
 70
     0
 62
     4
  6
CONTINUOUS
370
    -3
390
971A
  0
LAYER
  5
9558
102
{ACAD_XDICTIONARY
360
9776
102
}
330
9530
100
AcDbSymbolTableRecord
100
AcDbLayerTableRecord
  2
3
 70
     0
 62
     2
  6
DASHED
370
    -3
390
971A
  0
LAYER
  5
9559
102
{ACAD_XDICTIONARY
360
9778
102
}
330
9530
100
AcDbSymbolTableRecord
100
AcDbLayerTableRecord
  2
6
 70
     0
 62
     5
  6
CONTINUOUS
370
    -3
390
971A
  0
LAYER
  5
955A
102
{ACAD_XDICTIONARY
360
977A
102
}
330
9530
100
AcDbSymbolTableRecord
100
AcDbLayerTableRecord
  2
7
 70
     0
 62
     3
  6
CONTINUOUS
370
    -3
390
971A
  0
ENDTAB
  0
TABLE
  2
STYLE
  5
9531
330
0
100
AcDbSymbolTable
 70
     1
  0
STYLE
  5
953F
330
9531
100
AcDbSymbolTableRecord
100
AcDbTextStyleTableRecord
  2
STANDARD
 70
     0
 40
0.0
 41
1.0
 50
0.0
 71
     0
 42
5.0
  3
txt
  4

  0
ENDTAB
  0
TABLE
  2
VIEW
  5
9534
330
0
100
AcDbSymbolTable
 70
     0
  0
ENDTAB
  0
TABLE
  2
UCS
  5
9535
330
0
100
AcDbSymbolTable
 70
     0
  0
ENDTAB
  0
TABLE
  2
APPID
  5
9537
330
0
100
AcDbSymbolTable
 70
     3
  0
APPID
  5
9540
330
9537
100
AcDbSymbolTableRecord
100
AcDbRegAppTableRecord
  2
ACAD
 70
     0
  0
APPID
  5
9786
330
9537
100
AcDbSymbolTableRecord
100
AcDbRegAppTableRecord
  2
ACAD_NAV_VCDISPLAY
 70
     0
  0
APPID
  5
97BF
330
9537
100
AcDbSymbolTableRecord
100
AcDbRegAppTableRecord
  2
ACAD_MLEADERVER
 70
     0
  0
ENDTAB
  0
TABLE
  2
DIMSTYLE
  5
9538
330
0
100
AcDbSymbolTable
 70
     1
100
AcDbDimStyleTable
 71
     0
  0
DIMSTYLE
105
955C
330
9538
100
AcDbSymbolTableRecord
100
AcDbDimStyleTableRecord
  2
STANDARD
 70
     0
 41
3.0
 42
1.0
 43
10.0
 44
1.0
 73
     0
 74
     0
 77
     3
 78
     8
140
3.2
141
0.0
147
1.0
172
     1
173
     1
284
     8
285
     8
286
     8
340
953F
  0
ENDTAB
  0
TABLE
  2
BLOCK_RECORD
  5
952F
330
0
100
AcDbSymbolTable
 70
     0
  0
BLOCK_RECORD
  5
954C
102
{ACAD_XDICTIONARY
360
9714
102
}
330
952F
100
AcDbSymbolTableRecord
100
AcDbBlockTableRecord
  2
*MODEL_SPACE
340
9768
  0
BLOCK_RECORD
  5
9548
102
{ACAD_XDICTIONARY
360
9712
102
}
330
952F
100
AcDbSymbolTableRecord
100
AcDbBlockTableRecord
  2
*PAPER_SPACE
340
9769
  0
ENDTAB
  0
ENDSEC
  0
SECTION
  2
BLOCKS
  0
BLOCK
  5
954D
330
954C
100
AcDbEntity
  8
0
100
AcDbBlockBegin
  2
*MODEL_SPACE
 70
     0
 10
0.0
 20
0.0
 30
0.0
  3
*MODEL_SPACE
  1

  0
ENDBLK
  5
954E
330
954C
100
AcDbEntity
  8
0
100
AcDbBlockEnd
  0
BLOCK
  5
9549
330
9548
100
AcDbEntity
 67
     1
  8
0
100
AcDbBlockBegin
  2
*PAPER_SPACE
 70
     0
 10
0.0
 20
0.0
 30
0.0
  3
*PAPER_SPACE
  1

  0
ENDBLK
  5
954A
330
9548
100
AcDbEntity
 67
     1
  8
0
100
AcDbBlockEnd
  0
ENDSEC
  0
SECTION
  2
ENTITIES
  0
TEXT
  5
9564
330
954C
100
AcDbEntity
  8
7
  6
Continuous
100
AcDbText
 10
10.0
 20
18.0
 30
0.0
 40
3.0
  1
TYPE No.TL-197
100
AcDbText
  0
TEXT
  5
9565
330
954C
100
AcDbEntity
  8
7
  6
Continuous
100
AcDbText
 10
10.0
 20
26.0
 30
0.0
 40
3.0
  1
CODE No.1534
100
AcDbText
  0
TEXT
  5
9566
330
954C
100
AcDbEntity
  8
1
  6
Continuous
100
AcDbText
 10
10.0
 20
10.0
 30
0.0
 40
1.399999999999999
  1
LAYER
100
AcDbText
  0
TEXT
  5
9567
330
954C
100
AcDbEntity
  8
1
  6
Continuous
100
AcDbText
 10
17.97951099999998
 20
10.04873699999998
 30
0.0
 40
1.399999999999999
  1
1
100
AcDbText
  0
TEXT
  5
9568
330
954C
100
AcDbEntity
  8
7
  6
Continuous
100
AcDbText
 10
29.97951099999999
 20
10.04873699999998
 30
0.0
 40
1.399999999999999
  1
7
100
AcDbText
  0
TEXT
  5
9569
330
954C
100
AcDbEntity
  8
4
  6
CENTER
100
AcDbText
 10
23.97951099999999
 20
10.04873699999998
 30
0.0
 40
1.399999999999999
  1
4
100
AcDbText
  0
TEXT
  5
956A
330
954C
100
AcDbEntity
  8
3
  6
DASHED
100
AcDbText
 10
21.979511
 20
10.04873699999998
 30
0.0
 40
1.399999999999999
  1
3
100
AcDbText
  0
TEXT
  5
956B
330
954C
100
AcDbEntity
  8
2
  6
Continuous
100
AcDbText
 10
19.97951099999999
 20
10.04873699999998
 30
0.0
 40
1.399999999999999
  1
2
100
AcDbText
  0
TEXT
  5
956C
330
954C
100
AcDbEntity
  8
6
  6
Continuous
100
AcDbText
 10
27.979511
 20
10.04873699999998
 30
0.0
 40
1.399999999999999
  1
6
100
AcDbText
  0
TEXT
  5
956D
330
954C
100
AcDbEntity
  8
5
  6
PHANTOM
100
AcDbText
 10
25.97951099999999
 20
10.04873699999998
 30
0.0
 40
1.399999999999999
  1
5
100
AcDbText
  0
LINE
  5
956E
330
954C
100
AcDbEntity
  8
1
  6
Continuous
100
AcDbLine
 10
21.793369
 20
182.5481659999999
 30
0.0
 11
39.893368
 21
182.5481659999999
 31
0.0
  0
LINE
  5
956F
330
954C
100
AcDbEntity
  8
1
  6
Continuous
100
AcDbLine
 10
15.843365
 20
180.9481749999999
 30
0.0
 11
45.843365
 21
180.9481749999999
 31
0.0
  0
LINE
  5
9570
330
954C
100
AcDbEntity
  8
1
  6
Continuous
100
AcDbLine
 10
20.19337099999999
 20
172.9481749999999
 30
0.0
 11
20.19337099999999
 21
168.9481749999998
 31
0.0
  0
LINE
  5
9571
330
954C
100
AcDbEntity
  8
1
  6
Continuous
100
AcDbLine
 10
21.793369
 20
180.9481749999999
 30
0.0
 11
21.793369
 21
168.9481749999998
 31
0.0
  0
LINE
  5
9572
330
954C
100
AcDbEntity
  8
1
  6
Continuous
100
AcDbLine
 10
15.843365
 20
172.9481749999999
 30
0.0
 11
21.793369
 21
172.9481749999999
 31
0.0
  0
LINE
  5
9573
330
954C
100
AcDbEntity
  8
1
  6
Continuous
100
AcDbLine
 10
20.19337099999999
 20
168.9481749999998
 30
0.0
 11
21.793369
 21
168.9481749999998
 31
0.0
  0
LINE
  5
9574
330
954C
100
AcDbEntity
  8
1
  6
Continuous
100
AcDbLine
 10
39.893368
 20
168.9481749999998
 30
0.0
 11
41.49337399999999
 21
168.9481749999998
 31
0.0
  0
LINE
  5
9575
330
954C
100
AcDbEntity
  8
1
  6
Continuous
100
AcDbLine
 10
39.893368
 20
172.9481749999999
 30
0.0
 11
45.843365
 21
172.9481749999999
 31
0.0
  0
LINE
  5
9576
330
954C
100
AcDbEntity
  8
1
  6
Continuous
100
AcDbLine
 10
199.629376
 20
182.5481659999999
 30
0.0
 11
191.629376
 21
182.5481659999999
 31
0.0
  0
LINE
  5
9577
330
954C
100
AcDbEntity
  8
1
  6
Continuous
100
AcDbLine
 10
191.629376
 20
180.9481749999999
 30
0.0
 11
189.629376
 21
180.9481749999999
 31
0.0
  0
LINE
  5
9578
330
954C
100
AcDbEntity
  8
1
  6
Continuous
100
AcDbLine
 10
199.629376
 20
182.5481659999999
 30
0.0
 11
199.629376
 21
172.9481749999999
 31
0.0
  0
LINE
  5
9579
330
954C
100
AcDbEntity
  8
1
  6
Continuous
100
AcDbLine
 10
191.629376
 20
182.5481659999999
 30
0.0
 11
191.629376
 21
180.9481749999999
 31
0.0
  0
LINE
  5
957A
330
954C
100
AcDbEntity
  8
1
  6
Continuous
100
AcDbLine
 10
189.629376
 20
180.9481749999999
 30
0.0
 11
189.629376
 21
172.9481749999999
 31
0.0
  0
LINE
  5
957B
330
954C
100
AcDbEntity
  8
1
  6
Continuous
100
AcDbLine
 10
191.229382
 20
180.9481749999999
 30
0.0
 11
191.229382
 21
172.9481749999999
 31
0.0
  0
LINE
  5
957C
330
954C
100
AcDbEntity
  8
1
  6
Continuous
100
AcDbLine
 10
191.629376
 20
172.9481749999999
 30
0.0
 11
188.129376
 21
172.9481749999999
 31
0.0
  0
LINE
  5
957D
330
954C
100
AcDbEntity
  8
4
  6
CENTER
100
AcDbLine
 10
199.1293759999998
 20
172.9481749999999
 30
0.0
 11
192.129376
 21
172.9481749999999
 31
0.0
  0
LINE
  5
957E
330
954C
100
AcDbEntity
  8
1
  6
Continuous
100
AcDbLine
 10
41.49337399999999
 20
302.7455529999999
 30
0.0
 11
20.19337099999999
 21
302.7455529999999
 31
0.0
  0
LINE
  5
957F
330
954C
100
AcDbEntity
  8
1
  6
Continuous
100
AcDbLine
 10
49.84336500000001
 20
292.7455529999999
 30
0.0
 11
41.49337399999999
 21
292.7455529999999
 31
0.0
  0
LINE
  5
9580
330
954C
100
AcDbEntity
  8
1
  6
Continuous
100
AcDbLine
 10
41.49337399999999
 20
294.7455529999999
 30
0.0
 11
20.19337099999999
 21
294.7455529999999
 31
0.0
  0
LINE
  5
9581
330
954C
100
AcDbEntity
  8
1
  6
Continuous
100
AcDbLine
 10
41.49337399999999
 20
302.7455529999999
 30
0.0
 11
41.49337399999999
 21
294.345529
 31
0.0
  0
LINE
  5
9582
330
954C
100
AcDbEntity
  8
1
  6
Continuous
100
AcDbLine
 10
20.19337099999999
 20
302.7455529999999
 30
0.0
 11
20.19337099999999
 21
294.345529
 31
0.0
  0
LINE
  5
9583
330
954C
100
AcDbEntity
  8
1
  6
Continuous
100
AcDbLine
 10
11.84336499999999
 20
294.345529
 30
0.0
 11
11.84336499999999
 21
292.7455529999999
 31
0.0
  0
LINE
  5
9584
330
954C
100
AcDbEntity
  8
1
  6
Continuous
100
AcDbLine
 10
49.84336500000001
 20
294.345529
 30
0.0
 11
49.84336500000001
 21
292.7455529999999
 31
0.0
  0
LINE
  5
9585
330
954C
100
AcDbEntity
  8
1
  6
Continuous
100
AcDbLine
 10
49.84336500000001
 20
294.345529
 30
0.0
 11
41.49337399999999
 21
294.345529
 31
0.0
  0
LINE
  5
9586
330
954C
100
AcDbEntity
  8
1
  6
Continuous
100
AcDbLine
 10
21.793369
 20
294.7455529999999
 30
0.0
 11
21.793369
 21
294.345529
 31
0.0
  0
LINE
  5
9587
330
954C
100
AcDbEntity
  8
1
  6
Continuous
100
AcDbLine
 10
39.893368
 20
294.7455529999999
 30
0.0
 11
39.893368
 21
294.345529
 31
0.0
  0
LINE
  5
9588
330
954C
100
AcDbEntity
  8
1
  6
Continuous
100
AcDbLine
 10
20.19337099999999
 20
292.7455529999999
 30
0.0
 11
11.84336499999999
 21
292.7455529999999
 31
0.0
  0
LINE
  5
9589
330
954C
100
AcDbEntity
  8
1
  6
Continuous
100
AcDbLine
 10
20.19337099999999
 20
294.345529
 30
0.0
 11
11.84336499999999
 21
294.345529
 31
0.0
  0
LINE
  5
958A
330
954C
100
AcDbEntity
  8
1
  6
Continuous
100
AcDbLine
 10
31.09336499999999
 20
298.7455529999999
 30
0.0
 11
24.593365
 21
298.7455529999999
 31
0.0
  0
LINE
  5
958B
330
954C
100
AcDbEntity
  8
1
  6
Continuous
100
AcDbLine
 10
31.09336499999999
 20
296.7455529999999
 30
0.0
 11
24.593365
 21
296.7455529999999
 31
0.0
  0
LINE
  5
958C
330
954C
100
AcDbEntity
  8
4
  6
CENTER
100
AcDbLine
 10
27.843365
 20
184.5481659999999
 30
0.0
 11
27.843365
 21
175.8481689999999
 31
0.0
  0
LINE
  5
958D
330
954C
100
AcDbEntity
  8
1
  6
Continuous
100
AcDbLine
 10
30.954945
 20
180.9481749999999
 30
0.0
 11
30.93182800000001
 21
180.680978
 31
0.0
  0
LINE
  5
958E
330
954C
100
AcDbEntity
  8
1
  6
Continuous
100
AcDbLine
 10
29.34897199999999
 20
180.948159
 30
0.0
 11
29.337788
 21
180.818887
 31
0.0
  0
LINE
  5
958F
330
954C
100
AcDbEntity
  8
1
  6
Continuous
100
AcDbLine
 10
24.593365
 20
298.7455529999999
 30
0.0
 11
24.593365
 21
296.7455529999999
 31
0.0
  0
LINE
  5
9590
330
954C
100
AcDbEntity
  8
1
  6
Continuous
100
AcDbLine
 10
31.09336499999999
 20
298.7455529999999
 30
0.0
 11
31.09336499999999
 21
296.7455529999999
 31
0.0
  0
LINE
  5
9591
330
954C
100
AcDbEntity
  8
1
  6
Continuous
100
AcDbLine
 10
29.487392
 20
298.7455529999999
 30
0.0
 11
29.487392
 21
296.7455529999999
 31
0.0
  0
LINE
  5
9592
330
954C
100
AcDbEntity
  8
1
  6
Continuous
100
AcDbLine
 10
26.199345
 20
298.7455529999999
 30
0.0
 11
26.199345
 21
296.7455529999999
 31
0.0
  0
LINE
  5
9593
330
954C
100
AcDbEntity
  8
1
  6
Continuous
100
AcDbLine
 10
26.337757
 20
180.948159
 30
0.0
 11
26.34894199999999
 21
180.818887
 31
0.0
  0
LINE
  5
9594
330
954C
100
AcDbEntity
  8
1
  6
Continuous
100
AcDbLine
 10
24.73179299999999
 20
180.9481749999999
 30
0.0
 11
24.75490199999999
 21
180.680978
 31
0.0
  0
LINE
  5
9595
330
954C
100
AcDbEntity
  8
4
  6
CENTER
100
AcDbLine
 10
30.843365
 20
187.5481659999999
 30
0.0
 11
30.843365
 21
163.9481749999999
 31
0.0
  0
LINE
  5
9596
330
954C
100
AcDbEntity
  8
1
  6
Continuous
100
AcDbLine
 10
337.0013539999998
 20
180.9481749999999
 30
0.0
 11
337.0013539999998
 21
168.9481749999998
 31
0.0
  0
LINE
  5
9597
330
954C
100
AcDbEntity
  8
1
  6
Continuous
100
AcDbLine
 10
355.10136
 20
180.9481749999999
 30
0.0
 11
355.10136
 21
168.9481749999998
 31
0.0
  0
LINE
  5
9598
330
954C
100
AcDbEntity
  8
1
  6
Continuous
100
AcDbLine
 10
335.4013479999999
 20
180.9481749999999
 30
0.0
 11
335.4013479999999
 21
168.9481749999998
 31
0.0
  0
LINE
  5
9599
330
954C
100
AcDbEntity
  8
1
  6
Continuous
100
AcDbLine
 10
356.701366
 20
180.9481749999999
 30
0.0
 11
356.701366
 21
168.9481749999998
 31
0.0
  0
LINE
  5
959A
330
954C
100
AcDbEntity
  8
1
  6
Continuous
100
AcDbLine
 10
356.701366
 20
168.9481749999998
 30
0.0
 11
355.10136
 21
168.9481749999998
 31
0.0
  0
LINE
  5
959B
330
954C
100
AcDbEntity
  8
1
  6
Continuous
100
AcDbLine
 10
361.0513419999999
 20
180.9481749999999
 30
0.0
 11
356.701366
 21
180.9481749999999
 31
0.0
  0
LINE
  5
959C
330
954C
100
AcDbEntity
  8
1
  6
Continuous
100
AcDbLine
 10
355.10136
 20
182.5481659999999
 30
0.0
 11
337.0013539999998
 21
182.5481659999999
 31
0.0
  0
LINE
  5
959D
330
954C
100
AcDbEntity
  8
1
  6
Continuous
100
AcDbLine
 10
337.0013539999998
 20
168.9481749999998
 30
0.0
 11
335.4013479999999
 21
168.9481749999998
 31
0.0
  0
LINE
  5
959E
330
954C
100
AcDbEntity
  8
4
  6
CENTER
100
AcDbLine
 10
361.0513419999999
 20
180.4481749999999
 30
0.0
 11
361.0513419999999
 21
173.448175
 31
0.0
  0
LINE
  5
959F
330
954C
100
AcDbEntity
  8
4
  6
CENTER
100
AcDbLine
 10
331.0513419999999
 20
180.4481749999999
 30
0.0
 11
331.0513419999999
 21
173.448175
 31
0.0
  0
LINE
  5
95A0
330
954C
100
AcDbEntity
  8
1
  6
Continuous
100
AcDbLine
 10
347.5457569999999
 20
180.948159
 30
0.0
 11
347.5569269999998
 21
180.818887
 31
0.0
  0
LINE
  5
95A1
330
954C
100
AcDbEntity
  8
1
  6
Continuous
100
AcDbLine
 10
345.93977
 20
180.9481749999999
 30
0.0
 11
345.9629019999999
 21
180.680978
 31
0.0
  0
LINE
  5
95A2
330
954C
100
AcDbEntity
  8
1
  6
Continuous
100
AcDbLine
 10
350.556957
 20
180.9481749999999
 30
0.0
 11
350.5457569999999
 21
180.818887
 31
0.0
  0
LINE
  5
95A3
330
954C
100
AcDbEntity
  8
1
  6
Continuous
100
AcDbLine
 10
352.1629139999998
 20
180.948159
 30
0.0
 11
352.139813
 21
180.680978
 31
0.0
  0
LINE
  5
95A4
330
954C
100
AcDbEntity
  8
4
  6
CENTER
100
AcDbLine
 10
349.0513419999999
 20
184.5481659999999
 30
0.0
 11
349.0513419999999
 21
175.8481689999999
 31
0.0
  0
LINE
  5
95A5
330
954C
100
AcDbEntity
  8
4
  6
CENTER
100
AcDbLine
 10
346.0513419999998
 20
187.5481659999999
 30
0.0
 11
346.0513419999998
 21
163.9481749999999
 31
0.0
  0
LINE
  5
95A6
330
954C
100
AcDbEntity
  8
1
  6
Continuous
100
AcDbLine
 10
335.4013479999999
 20
180.9481749999999
 30
0.0
 11
331.0513419999999
 21
180.9481749999999
 31
0.0
  0
LINE
  5
95A7
330
954C
100
AcDbEntity
  8
1
  6
Continuous
100
AcDbLine
 10
355.10136
 20
180.9481749999999
 30
0.0
 11
337.0013539999998
 21
180.9481749999999
 31
0.0
  0
LINE
  5
95A8
330
954C
100
AcDbEntity
  8
4
  6
CENTER
100
AcDbLine
 10
30.843365
 20
327.7455529999999
 30
0.0
 11
30.843365
 21
274.2455529999999
 31
0.0
  0
LINE
  5
95A9
330
954C
100
AcDbEntity
  8
4
  6
CENTER
100
AcDbLine
 10
48.093365
 20
298.7455529999999
 30
0.0
 11
13.59336499999999
 21
298.7455529999999
 31
0.0
  0
LINE
  5
95AA
330
954C
100
AcDbEntity
  8
1
  6
Continuous
100
AcDbLine
 10
22.84336499999999
 20
322.7455529999998
 30
0.0
 11
22.84336499999999
 21
302.7455529999999
 31
0.0
  0
LINE
  5
95AB
330
954C
100
AcDbEntity
  8
1
  6
Continuous
100
AcDbLine
 10
38.84336499999999
 20
322.7455529999998
 30
0.0
 11
38.84336499999999
 21
302.7455529999999
 31
0.0
  0
LINE
  5
95AC
330
954C
100
AcDbEntity
  8
1
  6
Continuous
100
AcDbLine
 10
38.84336499999999
 20
279.2455529999999
 30
0.0
 11
22.84336499999999
 21
279.2455529999999
 31
0.0
  0
LINE
  5
95AD
330
954C
100
AcDbEntity
  8
1
  6
Continuous
100
AcDbLine
 10
38.84336499999999
 20
322.7455529999998
 30
0.0
 11
22.84336499999999
 21
322.7455529999998
 31
0.0
  0
LINE
  5
95AE
330
954C
100
AcDbEntity
  8
1
  6
Continuous
100
AcDbLine
 10
38.84336499999999
 20
312.7455529999999
 30
0.0
 11
22.84336499999999
 21
312.7455529999999
 31
0.0
  0
LINE
  5
95AF
330
954C
100
AcDbEntity
  8
1
  6
Continuous
100
AcDbLine
 10
38.84336499999999
 20
290.2455529999999
 30
0.0
 11
22.84336499999999
 21
290.2455529999999
 31
0.0
  0
LINE
  5
95B0
330
954C
100
AcDbEntity
  8
1
  6
Continuous
100
AcDbLine
 10
38.84336499999999
 20
284.2455529999999
 30
0.0
 11
22.84336499999999
 21
284.2455529999999
 31
0.0
  0
LINE
  5
95B1
330
954C
100
AcDbEntity
  8
1
  6
Continuous
100
AcDbLine
 10
34.84336499999999
 20
293.7455529999999
 30
0.0
 11
26.84336500000001
 21
293.7455529999999
 31
0.0
  0
LINE
  5
95B2
330
954C
100
AcDbEntity
  8
1
  6
Continuous
100
AcDbLine
 10
34.84336499999999
 20
303.7455529999999
 30
0.0
 11
34.604717
 21
303.7455529999999
 31
0.0
  0
LINE
  5
95B3
330
954C
100
AcDbEntity
  8
1
  6
Continuous
100
AcDbLine
 10
34.84336499999999
 20
305.7455529999999
 30
0.0
 11
34.84336499999999
 21
302.7455529999999
 31
0.0
  0
LINE
  5
95B4
330
954C
100
AcDbEntity
  8
1
  6
Continuous
100
AcDbLine
 10
26.84336500000001
 20
305.7455529999999
 30
0.0
 11
26.84336500000001
 21
302.7455529999999
 31
0.0
  0
LINE
  5
95B5
330
954C
100
AcDbEntity
  8
1
  6
Continuous
100
AcDbLine
 10
34.84336499999999
 20
305.7455529999999
 30
0.0
 11
26.84336500000001
 21
305.7455529999999
 31
0.0
  0
LINE
  5
95B6
330
954C
100
AcDbEntity
  8
1
  6
Continuous
100
AcDbLine
 10
38.84336499999999
 20
168.9481749999998
 30
0.0
 11
22.84336499999999
 21
168.9481749999998
 31
0.0
  0
LINE
  5
95B7
330
954C
100
AcDbEntity
  8
1
  6
Continuous
100
AcDbLine
 10
38.84336499999999
 20
179.9481749999999
 30
0.0
 11
22.84336499999999
 21
179.9481749999999
 31
0.0
  0
LINE
  5
95B8
330
954C
100
AcDbEntity
  8
1
  6
Continuous
100
AcDbLine
 10
38.84336499999999
 20
179.9481749999999
 30
0.0
 11
38.84336499999999
 21
168.9481749999998
 31
0.0
  0
LINE
  5
95B9
330
954C
100
AcDbEntity
  8
1
  6
Continuous
100
AcDbLine
 10
22.84336499999999
 20
179.9481749999999
 30
0.0
 11
22.84336499999999
 21
168.9481749999998
 31
0.0
  0
LINE
  5
95BA
330
954C
100
AcDbEntity
  8
1
  6
Continuous
100
AcDbLine
 10
39.84336499999999
 20
175.9481749999999
 30
0.0
 11
39.84336499999999
 21
169.9481749999999
 31
0.0
  0
LINE
  5
95BB
330
954C
100
AcDbEntity
  8
1
  6
Continuous
100
AcDbLine
 10
39.84336499999999
 20
175.948159
 30
0.0
 11
38.84336499999999
 21
176.948159
 31
0.0
  0
LINE
  5
95BC
330
954C
100
AcDbEntity
  8
1
  6
Continuous
100
AcDbLine
 10
39.84336499999999
 20
169.9481749999999
 30
0.0
 11
38.84337199999999
 21
168.9481749999998
 31
0.0
  0
LINE
  5
95BD
330
954C
100
AcDbEntity
  8
1
  6
Continuous
100
AcDbLine
 10
21.843365
 20
175.9481749999999
 30
0.0
 11
21.843365
 21
169.9481749999999
 31
0.0
  0
LINE
  5
95BE
330
954C
100
AcDbEntity
  8
1
  6
Continuous
100
AcDbLine
 10
21.843365
 20
175.948159
 30
0.0
 11
22.84336499999999
 21
176.9481749999999
 31
0.0
  0
LINE
  5
95BF
330
954C
100
AcDbEntity
  8
1
  6
Continuous
100
AcDbLine
 10
21.84337199999999
 20
169.9481749999999
 30
0.0
 11
22.84337199999999
 21
168.9481749999998
 31
0.0
  0
LINE
  5
95C0
330
954C
100
AcDbEntity
  8
1
  6
Continuous
100
AcDbLine
 10
176.129376
 20
177.4481749999999
 30
0.0
 11
176.129376
 21
171.448175
 31
0.0
  0
LINE
  5
95C1
330
954C
100
AcDbEntity
  8
4
  6
CENTER
100
AcDbLine
 10
195.629376
 20
187.5481659999999
 30
0.0
 11
195.629376
 21
163.9481749999999
 31
0.0
  0
LINE
  5
95C2
330
954C
100
AcDbEntity
  8
1
  6
Continuous
100
AcDbLine
 10
209.629376
 20
177.9481749999999
 30
0.0
 11
199.629376
 21
177.9481749999999
 31
0.0
  0
LINE
  5
95C3
330
954C
100
AcDbEntity
  8
1
  6
Continuous
100
AcDbLine
 10
211.629376
 20
168.9481749999998
 30
0.0
 11
209.629376
 21
168.9481749999998
 31
0.0
  0
LINE
  5
95C4
330
954C
100
AcDbEntity
  8
1
  6
Continuous
100
AcDbLine
 10
209.629376
 20
172.9481749999999
 30
0.0
 11
201.286236
 21
172.9481749999999
 31
0.0
  0
LINE
  5
95C5
330
954C
100
AcDbEntity
  8
1
  6
Continuous
100
AcDbLine
 10
209.629376
 20
172.9481749999999
 30
0.0
 11
209.629376
 21
168.9481749999998
 31
0.0
  0
LINE
  5
95C6
330
954C
100
AcDbEntity
  8
1
  6
Continuous
100
AcDbLine
 10
211.6294059999999
 20
168.9481749999998
 30
0.0
 11
218.473614
 21
172.135095
 31
0.0
  0
LINE
  5
95C7
330
954C
100
AcDbEntity
  8
1
  6
Continuous
100
AcDbLine
 10
209.629376
 20
177.9481749999999
 30
0.0
 11
218.101177
 21
175.8917319999999
 31
0.0
  0
LINE
  5
95C8
330
954C
100
AcDbEntity
  8
1
  6
Continuous
100
AcDbLine
 10
181.129376
 20
177.4481749999999
 30
0.0
 11
181.129376
 21
176.0712059999999
 31
0.0
  0
LINE
  5
95C9
330
954C
100
AcDbEntity
  8
1
  6
Continuous
100
AcDbLine
 10
188.129376
 20
172.9481589999998
 30
0.0
 11
179.647778
 21
169.1650019999999
 31
0.0
  0
LINE
  5
95CA
330
954C
100
AcDbEntity
  8
1
  6
Continuous
100
AcDbLine
 10
187.0648309999999
 20
177.9481749999999
 30
0.0
 11
181.83308
 21
175.614572
 31
0.0
  0
LINE
  5
95CB
330
954C
100
AcDbEntity
  8
1
  6
Continuous
100
AcDbLine
 10
354.0513419999999
 20
179.9481749999999
 30
0.0
 11
354.0513419999999
 21
168.9481749999998
 31
0.0
  0
LINE
  5
95CC
330
954C
100
AcDbEntity
  8
1
  6
Continuous
100
AcDbLine
 10
338.0513419999999
 20
179.9481749999999
 30
0.0
 11
338.0513419999999
 21
168.9481749999998
 31
0.0
  0
LINE
  5
95CD
330
954C
100
AcDbEntity
  8
1
  6
Continuous
100
AcDbLine
 10
338.0513419999999
 20
179.9481749999999
 30
0.0
 11
346.1170769999998
 21
179.9481749999999
 31
0.0
  0
LINE
  5
95CE
330
954C
100
AcDbEntity
  8
1
  6
Continuous
100
AcDbLine
 10
338.0513419999999
 20
168.9481749999998
 30
0.0
 11
354.0513419999999
 21
168.9481749999998
 31
0.0
  0
LINE
  5
95CF
330
954C
100
AcDbEntity
  8
1
  6
Continuous
100
AcDbLine
 10
337.0513419999999
 20
175.9481749999999
 30
0.0
 11
337.0513419999999
 21
169.9481749999999
 31
0.0
  0
LINE
  5
95D0
330
954C
100
AcDbEntity
  8
1
  6
Continuous
100
AcDbLine
 10
337.0513419999999
 20
175.948159
 30
0.0
 11
338.0513419999999
 21
176.948159
 31
0.0
  0
LINE
  5
95D1
330
954C
100
AcDbEntity
  8
1
  6
Continuous
100
AcDbLine
 10
337.051373
 20
169.9481749999999
 30
0.0
 11
338.051373
 21
168.9481749999998
 31
0.0
  0
LINE
  5
95D2
330
954C
100
AcDbEntity
  8
1
  6
Continuous
100
AcDbLine
 10
355.0513419999999
 20
175.9481749999999
 30
0.0
 11
355.0513419999999
 21
169.9481749999999
 31
0.0
  0
LINE
  5
95D3
330
954C
100
AcDbEntity
  8
1
  6
Continuous
100
AcDbLine
 10
355.0513419999999
 20
175.948159
 30
0.0
 11
354.0513419999999
 21
176.9481749999999
 31
0.0
  0
LINE
  5
95D4
330
954C
100
AcDbEntity
  8
1
  6
Continuous
100
AcDbLine
 10
355.0513419999999
 20
169.9481749999999
 30
0.0
 11
354.0513419999999
 21
168.9481749999998
 31
0.0
  0
LINE
  5
95D5
330
954C
100
AcDbEntity
  8
1
  6
Continuous
100
AcDbLine
 10
338.0513419999999
 20
177.7313469999998
 30
0.0
 11
354.0513419999999
 21
177.7313469999998
 31
0.0
  0
LINE
  5
95D6
330
954C
100
AcDbEntity
  8
1
  6
Continuous
100
AcDbLine
 10
339.0513419999999
 20
175.6749049999999
 30
0.0
 11
353.0513419999999
 21
175.6749049999999
 31
0.0
  0
LINE
  5
95D7
330
954C
100
AcDbEntity
  8
1
  6
Continuous
100
AcDbLine
 10
339.0513419999999
 20
171.9182519999999
 30
0.0
 11
353.0513419999999
 21
171.9182519999999
 31
0.0
  0
LINE
  5
95D8
330
954C
100
AcDbEntity
  8
4
  6
CENTER
100
AcDbLine
 10
30.843365
 20
87.13929099999999
 30
0.0
 11
30.843365
 21
33.639291
 31
0.0
  0
LINE
  5
95D9
330
954C
100
AcDbEntity
  8
4
  6
CENTER
100
AcDbLine
 10
16.593365
 20
62.639291
 30
0.0
 11
45.09336499999998
 21
62.639291
 31
0.0
  0
LINE
  5
95DA
330
954C
100
AcDbEntity
  8
1
  6
Continuous
100
AcDbLine
 10
22.84336499999999
 20
82.13929099999999
 30
0.0
 11
38.84336499999999
 21
82.13929099999999
 31
0.0
  0
LINE
  5
95DB
330
954C
100
AcDbEntity
  8
1
  6
Continuous
100
AcDbLine
 10
22.84336499999999
 20
38.639291
 30
0.0
 11
38.84336499999999
 21
38.639291
 31
0.0
  0
LINE
  5
95DC
330
954C
100
AcDbEntity
  8
1
  6
Continuous
100
AcDbLine
 10
22.84336499999999
 20
82.13929099999999
 30
0.0
 11
22.84336499999999
 21
38.639291
 31
0.0
  0
LINE
  5
95DD
330
954C
100
AcDbEntity
  8
1
  6
Continuous
100
AcDbLine
 10
38.84336499999999
 20
82.13929099999999
 30
0.0
 11
38.84336499999999
 21
38.639291
 31
0.0
  0
LINE
  5
95DE
330
954C
100
AcDbEntity
  8
1
  6
Continuous
100
AcDbLine
 10
22.84336499999999
 20
72.139291
 30
0.0
 11
38.84336499999999
 21
72.139291
 31
0.0
  0
LINE
  5
95DF
330
954C
100
AcDbEntity
  8
1
  6
Continuous
100
AcDbLine
 10
21.843365
 20
65.639291
 30
0.0
 11
21.843365
 21
59.639291
 31
0.0
  0
LINE
  5
95E0
330
954C
100
AcDbEntity
  8
1
  6
Continuous
100
AcDbLine
 10
39.84336499999999
 20
65.639291
 30
0.0
 11
38.84336499999999
 21
66.639291
 31
0.0
  0
LINE
  5
95E1
330
954C
100
AcDbEntity
  8
1
  6
Continuous
100
AcDbLine
 10
39.84336499999999
 20
65.639291
 30
0.0
 11
39.84336499999999
 21
59.639291
 31
0.0
  0
LINE
  5
95E2
330
954C
100
AcDbEntity
  8
1
  6
Continuous
100
AcDbLine
 10
21.843365
 20
65.639291
 30
0.0
 11
22.84336499999999
 21
66.639291
 31
0.0
  0
LINE
  5
95E3
330
954C
100
AcDbEntity
  8
1
  6
Continuous
100
AcDbLine
 10
21.843365
 20
59.639283
 30
0.0
 11
22.84336499999999
 21
58.639283
 31
0.0
  0
LINE
  5
95E4
330
954C
100
AcDbEntity
  8
1
  6
Continuous
100
AcDbLine
 10
39.84336499999999
 20
59.639283
 30
0.0
 11
38.84337199999999
 21
58.639291
 31
0.0
  0
LINE
  5
95E5
330
954C
100
AcDbEntity
  8
1
  6
Continuous
100
AcDbLine
 10
26.84336500000001
 20
57.639291
 30
0.0
 11
34.84336499999999
 21
57.639291
 31
0.0
  0
LINE
  5
95E6
330
954C
100
AcDbEntity
  8
1
  6
Continuous
100
AcDbLine
 10
26.84336500000001
 20
67.639291
 30
0.0
 11
26.84336500000001
 21
57.639291
 31
0.0
  0
LINE
  5
95E7
330
954C
100
AcDbEntity
  8
1
  6
Continuous
100
AcDbLine
 10
34.84336499999999
 20
67.639291
 30
0.0
 11
34.84336499999999
 21
57.639291
 31
0.0
  0
LINE
  5
95E8
330
954C
100
AcDbEntity
  8
1
  6
Continuous
100
AcDbLine
 10
22.84336499999999
 20
50.639291
 30
0.0
 11
38.84336499999999
 21
50.639291
 31
0.0
  0
LINE
  5
95E9
330
954C
100
AcDbEntity
  8
1
  6
Continuous
100
AcDbLine
 10
35.34336500000001
 20
58.063348
 30
0.0
 11
38.34336500000001
 21
58.063348
 31
0.0
  0
LINE
  5
95EA
330
954C
100
AcDbEntity
  8
1
  6
Continuous
100
AcDbLine
 10
35.34336500000001
 20
67.322641
 30
0.0
 11
38.34336500000001
 21
67.322641
 31
0.0
  0
LINE
  5
95EB
330
954C
100
AcDbEntity
  8
1
  6
Continuous
100
AcDbLine
 10
26.34336499999999
 20
58.063348
 30
0.0
 11
23.343365
 21
58.063348
 31
0.0
  0
LINE
  5
95EC
330
954C
100
AcDbEntity
  8
1
  6
Continuous
100
AcDbLine
 10
26.34336499999999
 20
67.322641
 30
0.0
 11
23.343365
 21
67.322641
 31
0.0
  0
LINE
  5
95ED
330
954C
100
AcDbEntity
  8
1
  6
Continuous
100
AcDbLine
 10
26.84336500000001
 20
67.639291
 30
0.0
 11
34.84336499999999
 21
67.639291
 31
0.0
  0
LINE
  5
95EE
330
954C
100
AcDbEntity
  8
1
  6
Continuous
100
AcDbLine
 10
34.604725
 20
57.639291
 30
0.0
 11
33.40379699999999
 21
64.450067
 31
0.0
  0
LINE
  5
95EF
330
954C
100
AcDbEntity
  8
1
  6
Continuous
100
AcDbLine
 10
33.89390999999999
 20
57.639291
 30
0.0
 11
32.69298899999999
 21
64.450067
 31
0.0
  0
LINE
  5
95F0
330
954C
100
AcDbEntity
  8
1
  6
Continuous
100
AcDbLine
 10
32.62077
 20
60.828515
 30
0.0
 11
31.982189
 21
64.450067
 31
0.0
  0
LINE
  5
95F1
330
954C
100
AcDbEntity
  8
1
  6
Continuous
100
AcDbLine
 10
31.909977
 20
60.828515
 30
0.0
 11
31.27139699999998
 21
64.450067
 31
0.0
  0
LINE
  5
95F2
330
954C
100
AcDbEntity
  8
1
  6
Continuous
100
AcDbLine
 10
31.199177
 20
60.828515
 30
0.0
 11
30.56060399999999
 21
64.450067
 31
0.0
  0
LINE
  5
95F3
330
954C
100
AcDbEntity
  8
1
  6
Continuous
100
AcDbLine
 10
30.48838400000001
 20
60.828515
 30
0.0
 11
29.84980399999999
 21
64.450067
 31
0.0
  0
LINE
  5
95F4
330
954C
100
AcDbEntity
  8
1
  6
Continuous
100
AcDbLine
 10
29.777569
 20
60.828508
 30
0.0
 11
29.138996
 21
64.450067
 31
0.0
  0
LINE
  5
95F5
330
954C
100
AcDbEntity
  8
1
  6
Continuous
100
AcDbLine
 10
29.066776
 20
60.828515
 30
0.0
 11
28.428196
 21
64.450067
 31
0.0
  0
LINE
  5
95F6
330
954C
100
AcDbEntity
  8
1
  6
Continuous
100
AcDbLine
 10
28.355984
 20
60.828515
 30
0.0
 11
27.71740300000001
 21
64.450067
 31
0.0
  0
LINE
  5
95F7
330
954C
100
AcDbEntity
  8
1
  6
Continuous
100
AcDbLine
 10
19.593365
 20
297.720529
 30
0.0
 11
19.64336799999999
 21
297.720529
 31
0.0
  0
LINE
  5
95F8
330
954C
100
AcDbEntity
  8
1
  6
Continuous
100
AcDbLine
 10
18.89336799999998
 20
300.2455229999998
 30
0.0
 11
18.59337199999998
 21
299.945535
 31
0.0
  0
LINE
  5
95F9
330
954C
100
AcDbEntity
  8
1
  6
Continuous
100
AcDbLine
 10
19.593365
 20
299.770547
 30
0.0
 11
19.64336799999999
 21
299.770547
 31
0.0
  0
LINE
  5
95FA
330
954C
100
AcDbEntity
  8
1
  6
Continuous
100
AcDbLine
 10
43.09336499999999
 20
297.545541
 30
0.0
 11
42.793377
 21
297.2455529999999
 31
0.0
  0
LINE
  5
95FB
330
954C
100
AcDbEntity
  8
1
  6
Continuous
100
AcDbLine
 10
42.793362
 20
300.2455229999998
 30
0.0
 11
43.09336499999999
 21
299.945535
 31
0.0
  0
LINE
  5
95FC
330
954C
100
AcDbEntity
  8
1
  6
Continuous
100
AcDbLine
 10
18.59337199999998
 20
297.545541
 30
0.0
 11
18.89337499999999
 21
297.2455529999999
 31
0.0
  0
LINE
  5
95FD
330
954C
100
AcDbEntity
  8
1
  6
Continuous
100
AcDbLine
 10
41.59336500000001
 20
297.2455529999999
 30
0.0
 11
41.49337399999999
 21
297.2455529999999
 31
0.0
  0
LINE
  5
95FE
330
954C
100
AcDbEntity
  8
1
  6
Continuous
100
AcDbLine
 10
41.59336500000001
 20
300.2455529999999
 30
0.0
 11
41.49337399999999
 21
300.2455529999999
 31
0.0
  0
LINE
  5
95FF
330
954C
100
AcDbEntity
  8
1
  6
Continuous
100
AcDbLine
 10
42.093365
 20
297.720529
 30
0.0
 11
42.043362
 21
297.720529
 31
0.0
  0
LINE
  5
9600
330
954C
100
AcDbEntity
  8
1
  6
Continuous
100
AcDbLine
 10
42.093365
 20
299.770547
 30
0.0
 11
42.043362
 21
299.770547
 31
0.0
  0
LINE
  5
9601
330
954C
100
AcDbEntity
  8
1
  6
Continuous
100
AcDbLine
 10
42.793362
 20
300.2455529999999
 30
0.0
 11
42.793362
 21
297.2455529999999
 31
0.0
  0
LINE
  5
9602
330
954C
100
AcDbEntity
  8
1
  6
Continuous
100
AcDbLine
 10
43.09336499999999
 20
299.945535
 30
0.0
 11
43.09336499999999
 21
297.545541
 31
0.0
  0
LINE
  5
9603
330
954C
100
AcDbEntity
  8
1
  6
Continuous
100
AcDbLine
 10
42.093365
 20
300.2455529999999
 30
0.0
 11
42.093365
 21
297.2455529999999
 31
0.0
  0
LINE
  5
9604
330
954C
100
AcDbEntity
  8
1
  6
Continuous
100
AcDbLine
 10
20.09336499999999
 20
300.2455529999999
 30
0.0
 11
20.09336499999999
 21
297.2455529999999
 31
0.0
  0
LINE
  5
9605
330
954C
100
AcDbEntity
  8
1
  6
Continuous
100
AcDbLine
 10
41.59336500000001
 20
300.2455529999999
 30
0.0
 11
41.59336500000001
 21
297.2455529999999
 31
0.0
  0
LINE
  5
9606
330
954C
100
AcDbEntity
  8
1
  6
Continuous
100
AcDbLine
 10
42.793362
 20
297.2455529999999
 30
0.0
 11
42.093365
 21
297.2455529999999
 31
0.0
  0
LINE
  5
9607
330
954C
100
AcDbEntity
  8
1
  6
Continuous
100
AcDbLine
 10
42.793362
 20
300.2455529999999
 30
0.0
 11
42.093365
 21
300.2455529999999
 31
0.0
  0
LINE
  5
9608
330
954C
100
AcDbEntity
  8
1
  6
Continuous
100
AcDbLine
 10
18.89336799999998
 20
300.2455529999999
 30
0.0
 11
18.89336799999998
 21
297.2455529999999
 31
0.0
  0
LINE
  5
9609
330
954C
100
AcDbEntity
  8
1
  6
Continuous
100
AcDbLine
 10
18.59336499999999
 20
299.945535
 30
0.0
 11
18.59336499999999
 21
297.545541
 31
0.0
  0
LINE
  5
960A
330
954C
100
AcDbEntity
  8
1
  6
Continuous
100
AcDbLine
 10
19.593365
 20
300.2455529999999
 30
0.0
 11
19.593365
 21
297.2455529999999
 31
0.0
  0
LINE
  5
960B
330
954C
100
AcDbEntity
  8
1
  6
Continuous
100
AcDbLine
 10
18.89336799999998
 20
297.2455529999999
 30
0.0
 11
19.593365
 21
297.2455529999999
 31
0.0
  0
LINE
  5
960C
330
954C
100
AcDbEntity
  8
1
  6
Continuous
100
AcDbLine
 10
18.89336799999998
 20
300.2455529999999
 30
0.0
 11
19.593365
 21
300.2455529999999
 31
0.0
  0
LINE
  5
960D
330
954C
100
AcDbEntity
  8
1
  6
Continuous
100
AcDbLine
 10
39.893368
 20
180.9481749999999
 30
0.0
 11
39.893368
 21
168.9481749999998
 31
0.0
  0
LINE
  5
960E
330
954C
100
AcDbEntity
  8
1
  6
Continuous
100
AcDbLine
 10
41.49337399999999
 20
172.9481749999999
 30
0.0
 11
41.49337399999999
 21
168.9481749999998
 31
0.0
  0
LINE
  5
960F
330
954C
100
AcDbEntity
  8
1
  6
Continuous
100
AcDbLine
 10
42.793362
 20
171.448175
 30
0.0
 11
42.793362
 21
172.9481749999999
 31
0.0
  0
LINE
  5
9610
330
954C
100
AcDbEntity
  8
1
  6
Continuous
100
AcDbLine
 10
19.593365
 20
171.448175
 30
0.0
 11
19.593365
 21
172.9481749999999
 31
0.0
  0
LINE
  5
9611
330
954C
100
AcDbEntity
  8
1
  6
Continuous
100
AcDbLine
 10
20.09336499999999
 20
171.448175
 30
0.0
 11
20.09336499999999
 21
172.9481749999999
 31
0.0
  0
LINE
  5
9612
330
954C
100
AcDbEntity
  8
1
  6
Continuous
100
AcDbLine
 10
41.59336500000001
 20
171.448175
 30
0.0
 11
41.59336500000001
 21
172.9481749999999
 31
0.0
  0
LINE
  5
9613
330
954C
100
AcDbEntity
  8
1
  6
Continuous
100
AcDbLine
 10
18.89336799999998
 20
171.448175
 30
0.0
 11
18.89336799999998
 21
172.9481749999999
 31
0.0
  0
LINE
  5
9614
330
954C
100
AcDbEntity
  8
1
  6
Continuous
100
AcDbLine
 10
18.59336499999999
 20
171.748162
 30
0.0
 11
18.59336499999999
 21
172.9481749999999
 31
0.0
  0
LINE
  5
9615
330
954C
100
AcDbEntity
  8
1
  6
Continuous
100
AcDbLine
 10
19.593365
 20
171.9231659999999
 30
0.0
 11
19.64336799999999
 21
171.9231659999999
 31
0.0
  0
LINE
  5
9616
330
954C
100
AcDbEntity
  8
1
  6
Continuous
100
AcDbLine
 10
20.09336499999999
 20
171.448175
 30
0.0
 11
20.19337099999999
 21
171.448175
 31
0.0
  0
LINE
  5
9617
330
954C
100
AcDbEntity
  8
1
  6
Continuous
100
AcDbLine
 10
42.793362
 20
171.448175
 30
0.0
 11
42.093365
 21
171.448175
 31
0.0
  0
LINE
  5
9618
330
954C
100
AcDbEntity
  8
1
  6
Continuous
100
AcDbLine
 10
42.093365
 20
171.448175
 30
0.0
 11
42.093365
 21
172.9481749999999
 31
0.0
  0
LINE
  5
9619
330
954C
100
AcDbEntity
  8
1
  6
Continuous
100
AcDbLine
 10
43.09336499999999
 20
171.748162
 30
0.0
 11
43.09336499999999
 21
172.9481749999999
 31
0.0
  0
LINE
  5
961A
330
954C
100
AcDbEntity
  8
1
  6
Continuous
100
AcDbLine
 10
42.793362
 20
171.448175
 30
0.0
 11
43.09336499999999
 21
171.7481779999999
 31
0.0
  0
LINE
  5
961B
330
954C
100
AcDbEntity
  8
1
  6
Continuous
100
AcDbLine
 10
42.093365
 20
171.9231659999999
 30
0.0
 11
42.043362
 21
171.9231659999999
 31
0.0
  0
LINE
  5
961C
330
954C
100
AcDbEntity
  8
1
  6
Continuous
100
AcDbLine
 10
18.89336799999998
 20
171.448175
 30
0.0
 11
19.593365
 21
171.448175
 31
0.0
  0
LINE
  5
961D
330
954C
100
AcDbEntity
  8
1
  6
Continuous
100
AcDbLine
 10
18.89336799999998
 20
171.448175
 30
0.0
 11
18.59336499999999
 21
171.748162
 31
0.0
  0
LINE
  5
961E
330
954C
100
AcDbEntity
  8
1
  6
Continuous
100
AcDbLine
 10
21.793369
 20
174.448175
 30
0.0
 11
21.843365
 21
174.448175
 31
0.0
  0
LINE
  5
961F
330
954C
100
AcDbEntity
  8
1
  6
Continuous
100
AcDbLine
 10
361.0513419999999
 20
172.9481749999999
 30
0.0
 11
358.3013419999999
 21
172.9481749999999
 31
0.0
  0
LINE
  5
9620
330
954C
100
AcDbEntity
  8
1
  6
Continuous
100
AcDbLine
 10
333.8013419999999
 20
172.9481749999999
 30
0.0
 11
331.0513419999999
 21
172.9481749999999
 31
0.0
  0
LINE
  5
9621
330
954C
100
AcDbEntity
  8
1
  6
Continuous
100
AcDbLine
 10
334.801342
 20
173.9731689999999
 30
0.0
 11
334.8513599999999
 21
173.9731689999999
 31
0.0
  0
LINE
  5
9622
330
954C
100
AcDbEntity
  8
1
  6
Continuous
100
AcDbLine
 10
333.8013419999999
 20
171.748162
 30
0.0
 11
333.8013419999999
 21
174.1481719999999
 31
0.0
  0
LINE
  5
9623
330
954C
100
AcDbEntity
  8
1
  6
Continuous
100
AcDbLine
 10
334.801342
 20
171.448175
 30
0.0
 11
334.801342
 21
174.448175
 31
0.0
  0
LINE
  5
9624
330
954C
100
AcDbEntity
  8
1
  6
Continuous
100
AcDbLine
 10
334.10136
 20
174.448175
 30
0.0
 11
334.801342
 21
174.448175
 31
0.0
  0
LINE
  5
9625
330
954C
100
AcDbEntity
  8
1
  6
Continuous
100
AcDbLine
 10
334.10136
 20
171.448175
 30
0.0
 11
334.801342
 21
171.448175
 31
0.0
  0
LINE
  5
9626
330
954C
100
AcDbEntity
  8
1
  6
Continuous
100
AcDbLine
 10
356.8013419999999
 20
171.448175
 30
0.0
 11
356.701366
 21
171.448175
 31
0.0
  0
LINE
  5
9627
330
954C
100
AcDbEntity
  8
1
  6
Continuous
100
AcDbLine
 10
357.3013419999999
 20
171.9231659999999
 30
0.0
 11
357.251354
 21
171.9231659999999
 31
0.0
  0
LINE
  5
9628
330
954C
100
AcDbEntity
  8
1
  6
Continuous
100
AcDbLine
 10
358.3013419999999
 20
171.748162
 30
0.0
 11
358.3013419999999
 21
174.1481719999999
 31
0.0
  0
LINE
  5
9629
330
954C
100
AcDbEntity
  8
1
  6
Continuous
100
AcDbLine
 10
358.0013539999998
 20
171.448175
 30
0.0
 11
358.0013539999998
 21
174.448175
 31
0.0
  0
LINE
  5
962A
330
954C
100
AcDbEntity
  8
1
  6
Continuous
100
AcDbLine
 10
335.3013419999999
 20
171.448175
 30
0.0
 11
335.3013419999999
 21
174.448175
 31
0.0
  0
LINE
  5
962B
330
954C
100
AcDbEntity
  8
1
  6
Continuous
100
AcDbLine
 10
358.0013539999998
 20
174.448175
 30
0.0
 11
357.3013419999999
 21
174.448175
 31
0.0
  0
LINE
  5
962C
330
954C
100
AcDbEntity
  8
1
  6
Continuous
100
AcDbLine
 10
356.8013419999999
 20
171.448175
 30
0.0
 11
356.8013419999999
 21
174.448175
 31
0.0
  0
LINE
  5
962D
330
954C
100
AcDbEntity
  8
1
  6
Continuous
100
AcDbLine
 10
357.3013419999999
 20
171.448175
 30
0.0
 11
357.3013419999999
 21
174.448175
 31
0.0
  0
LINE
  5
962E
330
954C
100
AcDbEntity
  8
1
  6
Continuous
100
AcDbLine
 10
334.10136
 20
171.448175
 30
0.0
 11
334.10136
 21
174.448175
 31
0.0
  0
LINE
  5
962F
330
954C
100
AcDbEntity
  8
1
  6
Continuous
100
AcDbLine
 10
334.10136
 20
171.448175
 30
0.0
 11
333.801373
 21
171.748162
 31
0.0
  0
LINE
  5
9630
330
954C
100
AcDbEntity
  8
1
  6
Continuous
100
AcDbLine
 10
334.801342
 20
171.9231659999999
 30
0.0
 11
334.8513599999999
 21
171.9231659999999
 31
0.0
  0
LINE
  5
9631
330
954C
100
AcDbEntity
  8
1
  6
Continuous
100
AcDbLine
 10
358.0013539999998
 20
171.448175
 30
0.0
 11
357.3013419999999
 21
171.448175
 31
0.0
  0
LINE
  5
9632
330
954C
100
AcDbEntity
  8
1
  6
Continuous
100
AcDbLine
 10
358.301373
 20
174.1481719999999
 30
0.0
 11
358.0013539999998
 21
174.448175
 31
0.0
  0
LINE
  5
9633
330
954C
100
AcDbEntity
  8
1
  6
Continuous
100
AcDbLine
 10
333.801373
 20
174.1481719999999
 30
0.0
 11
334.10136
 21
174.448175
 31
0.0
  0
LINE
  5
9634
330
954C
100
AcDbEntity
  8
1
  6
Continuous
100
AcDbLine
 10
358.0013539999998
 20
171.448175
 30
0.0
 11
358.301373
 21
171.7481779999999
 31
0.0
  0
LINE
  5
9635
330
954C
100
AcDbEntity
  8
1
  6
Continuous
100
AcDbLine
 10
356.8013419999999
 20
174.448175
 30
0.0
 11
356.701366
 21
174.448175
 31
0.0
  0
LINE
  5
9636
330
954C
100
AcDbEntity
  8
1
  6
Continuous
100
AcDbLine
 10
357.3013419999999
 20
173.9731689999999
 30
0.0
 11
357.251354
 21
173.9731689999999
 31
0.0
  0
LINE
  5
9637
330
954C
100
AcDbEntity
  8
1
  6
Continuous
100
AcDbLine
 10
41.49337399999999
 20
58.639291
 30
0.0
 11
38.84336499999999
 21
58.639291
 31
0.0
  0
LINE
  5
9638
330
954C
100
AcDbEntity
  8
1
  6
Continuous
100
AcDbLine
 10
41.49337399999999
 20
58.639291
 30
0.0
 11
41.49337399999999
 21
67.039293
 31
0.0
  0
LINE
  5
9639
330
954C
100
AcDbEntity
  8
1
  6
Continuous
100
AcDbLine
 10
41.49337399999999
 20
66.639291
 30
0.0
 11
38.84336499999999
 21
66.639291
 31
0.0
  0
LINE
  5
963A
330
954C
100
AcDbEntity
  8
1
  6
Continuous
100
AcDbLine
 10
49.84336500000001
 20
68.639291
 30
0.0
 11
41.49337399999999
 21
68.639291
 31
0.0
  0
LINE
  5
963B
330
954C
100
AcDbEntity
  8
1
  6
Continuous
100
AcDbLine
 10
20.19337099999999
 20
58.639291
 30
0.0
 11
20.19337099999999
 21
67.039293
 31
0.0
  0
LINE
  5
963C
330
954C
100
AcDbEntity
  8
1
  6
Continuous
100
AcDbLine
 10
11.84336499999999
 20
67.039293
 30
0.0
 11
11.84336499999999
 21
68.639291
 31
0.0
  0
LINE
  5
963D
330
954C
100
AcDbEntity
  8
1
  6
Continuous
100
AcDbLine
 10
49.84336500000001
 20
67.039293
 30
0.0
 11
49.84336500000001
 21
68.639291
 31
0.0
  0
LINE
  5
963E
330
954C
100
AcDbEntity
  8
1
  6
Continuous
100
AcDbLine
 10
49.84336500000001
 20
67.039293
 30
0.0
 11
41.49337399999999
 21
67.039293
 31
0.0
  0
LINE
  5
963F
330
954C
100
AcDbEntity
  8
1
  6
Continuous
100
AcDbLine
 10
21.793369
 20
58.639291
 30
0.0
 11
21.793369
 21
67.039293
 31
0.0
  0
LINE
  5
9640
330
954C
100
AcDbEntity
  8
1
  6
Continuous
100
AcDbLine
 10
39.893368
 20
58.639291
 30
0.0
 11
39.893368
 21
67.039293
 31
0.0
  0
LINE
  5
9641
330
954C
100
AcDbEntity
  8
1
  6
Continuous
100
AcDbLine
 10
20.19337099999999
 20
68.639291
 30
0.0
 11
11.84336499999999
 21
68.639291
 31
0.0
  0
LINE
  5
9642
330
954C
100
AcDbEntity
  8
1
  6
Continuous
100
AcDbLine
 10
20.19337099999999
 20
67.039293
 30
0.0
 11
11.84336499999999
 21
67.039293
 31
0.0
  0
LINE
  5
9643
330
954C
100
AcDbEntity
  8
1
  6
Continuous
100
AcDbLine
 10
30.68176699999999
 20
64.639291
 30
0.0
 11
30.46086499999999
 21
64.639291
 31
0.0
  0
LINE
  5
9644
330
954C
100
AcDbEntity
  8
1
  6
Continuous
100
AcDbLine
 10
19.593365
 20
63.664293
 30
0.0
 11
19.64336799999999
 21
63.664293
 31
0.0
  0
LINE
  5
9645
330
954C
100
AcDbEntity
  8
1
  6
Continuous
100
AcDbLine
 10
18.89336799999998
 20
61.139291
 30
0.0
 11
18.59336499999999
 21
61.43928599999998
 31
0.0
  0
LINE
  5
9646
330
954C
100
AcDbEntity
  8
1
  6
Continuous
100
AcDbLine
 10
19.593365
 20
61.614289
 30
0.0
 11
19.64336799999999
 21
61.614289
 31
0.0
  0
LINE
  5
9647
330
954C
100
AcDbEntity
  8
1
  6
Continuous
100
AcDbLine
 10
43.09336499999999
 20
63.839288
 30
0.0
 11
42.793362
 21
64.13928299999999
 31
0.0
  0
LINE
  5
9648
330
954C
100
AcDbEntity
  8
1
  6
Continuous
100
AcDbLine
 10
42.793377
 20
61.139291
 30
0.0
 11
43.09336499999999
 21
61.43928599999998
 31
0.0
  0
LINE
  5
9649
330
954C
100
AcDbEntity
  8
1
  6
Continuous
100
AcDbLine
 10
18.59336499999999
 20
63.839288
 30
0.0
 11
18.89336799999998
 21
64.139291
 31
0.0
  0
LINE
  5
964A
330
954C
100
AcDbEntity
  8
1
  6
Continuous
100
AcDbLine
 10
41.59336500000001
 20
64.139291
 30
0.0
 11
41.49337399999999
 21
64.139291
 31
0.0
  0
LINE
  5
964B
330
954C
100
AcDbEntity
  8
1
  6
Continuous
100
AcDbLine
 10
41.59336500000001
 20
61.139291
 30
0.0
 11
41.49337399999999
 21
61.139291
 31
0.0
  0
LINE
  5
964C
330
954C
100
AcDbEntity
  8
1
  6
Continuous
100
AcDbLine
 10
42.093365
 20
63.664293
 30
0.0
 11
42.043362
 21
63.664293
 31
0.0
  0
LINE
  5
964D
330
954C
100
AcDbEntity
  8
1
  6
Continuous
100
AcDbLine
 10
42.093365
 20
61.614289
 30
0.0
 11
42.043362
 21
61.614289
 31
0.0
  0
LINE
  5
964E
330
954C
100
AcDbEntity
  8
1
  6
Continuous
100
AcDbLine
 10
42.793362
 20
61.139291
 30
0.0
 11
42.793362
 21
64.139291
 31
0.0
  0
LINE
  5
964F
330
954C
100
AcDbEntity
  8
1
  6
Continuous
100
AcDbLine
 10
43.09336499999999
 20
61.43928599999998
 30
0.0
 11
43.09336499999999
 21
63.839288
 31
0.0
  0
LINE
  5
9650
330
954C
100
AcDbEntity
  8
1
  6
Continuous
100
AcDbLine
 10
42.093365
 20
61.139291
 30
0.0
 11
42.093365
 21
64.139291
 31
0.0
  0
LINE
  5
9651
330
954C
100
AcDbEntity
  8
1
  6
Continuous
100
AcDbLine
 10
20.09336499999999
 20
61.139291
 30
0.0
 11
20.09336499999999
 21
64.139291
 31
0.0
  0
LINE
  5
9652
330
954C
100
AcDbEntity
  8
1
  6
Continuous
100
AcDbLine
 10
41.59336500000001
 20
61.139291
 30
0.0
 11
41.59336500000001
 21
64.139291
 31
0.0
  0
LINE
  5
9653
330
954C
100
AcDbEntity
  8
1
  6
Continuous
100
AcDbLine
 10
42.793362
 20
64.139291
 30
0.0
 11
42.093365
 21
64.139291
 31
0.0
  0
LINE
  5
9654
330
954C
100
AcDbEntity
  8
1
  6
Continuous
100
AcDbLine
 10
42.793362
 20
61.139291
 30
0.0
 11
42.093365
 21
61.139291
 31
0.0
  0
LINE
  5
9655
330
954C
100
AcDbEntity
  8
1
  6
Continuous
100
AcDbLine
 10
18.89336799999998
 20
61.139291
 30
0.0
 11
18.89336799999998
 21
64.139291
 31
0.0
  0
LINE
  5
9656
330
954C
100
AcDbEntity
  8
1
  6
Continuous
100
AcDbLine
 10
18.59336499999999
 20
61.43928599999998
 30
0.0
 11
18.59336499999999
 21
63.839288
 31
0.0
  0
LINE
  5
9657
330
954C
100
AcDbEntity
  8
1
  6
Continuous
100
AcDbLine
 10
19.593365
 20
61.139291
 30
0.0
 11
19.593365
 21
64.139291
 31
0.0
  0
LINE
  5
9658
330
954C
100
AcDbEntity
  8
1
  6
Continuous
100
AcDbLine
 10
18.89336799999998
 20
64.139291
 30
0.0
 11
19.593365
 21
64.139291
 31
0.0
  0
LINE
  5
9659
330
954C
100
AcDbEntity
  8
1
  6
Continuous
100
AcDbLine
 10
18.89336799999998
 20
61.139291
 30
0.0
 11
19.593365
 21
61.139291
 31
0.0
  0
LINE
  5
965A
330
954C
100
AcDbEntity
  8
1
  6
Continuous
100
AcDbLine
 10
34.84336499999999
 20
58.639291
 30
0.0
 11
34.428387
 21
58.639291
 31
0.0
  0
LINE
  5
965B
330
954C
100
AcDbEntity
  8
1
  6
Continuous
100
AcDbLine
 10
34.84336499999999
 20
66.639291
 30
0.0
 11
26.84336500000001
 21
66.639291
 31
0.0
  0
LINE
  5
965C
330
954C
100
AcDbEntity
  8
1
  6
Continuous
100
AcDbLine
 10
20.19337099999999
 20
61.139291
 30
0.0
 11
20.09336499999999
 21
61.139291
 31
0.0
  0
LINE
  5
965D
330
954C
100
AcDbEntity
  8
1
  6
Continuous
100
AcDbLine
 10
20.19337099999999
 20
64.139291
 30
0.0
 11
20.09336499999999
 21
64.139291
 31
0.0
  0
LINE
  5
965E
330
954C
100
AcDbEntity
  8
1
  6
Continuous
100
AcDbLine
 10
21.843365
 20
61.139291
 30
0.0
 11
21.793369
 21
61.139291
 31
0.0
  0
LINE
  5
965F
330
954C
100
AcDbEntity
  8
1
  6
Continuous
100
AcDbLine
 10
21.843365
 20
64.139291
 30
0.0
 11
21.793369
 21
64.139291
 31
0.0
  0
LINE
  5
9660
330
954C
100
AcDbEntity
  8
1
  6
Continuous
100
AcDbLine
 10
34.84336499999999
 20
61.139291
 30
0.0
 11
33.98756799999999
 21
61.139291
 31
0.0
  0
LINE
  5
9661
330
954C
100
AcDbEntity
  8
1
  6
Continuous
100
AcDbLine
 10
34.84336499999999
 20
64.139291
 30
0.0
 11
33.45859199999999
 21
64.139291
 31
0.0
  0
LINE
  5
9662
330
954C
100
AcDbEntity
  8
1
  6
Continuous
100
AcDbLine
 10
39.893368
 20
64.139291
 30
0.0
 11
39.84336499999999
 21
64.139291
 31
0.0
  0
LINE
  5
9663
330
954C
100
AcDbEntity
  8
1
  6
Continuous
100
AcDbLine
 10
39.893368
 20
61.139291
 30
0.0
 11
39.84336499999999
 21
61.139291
 31
0.0
  0
LINE
  5
9664
330
954C
100
AcDbEntity
  8
1
  6
Continuous
100
AcDbLine
 10
27.645176
 20
60.828515
 30
0.0
 11
27.028034
 21
64.32851499999999
 31
0.0
  0
LINE
  5
9665
330
954C
100
AcDbEntity
  8
1
  6
Continuous
100
AcDbLine
 10
30.71069
 20
304.2455529999998
 30
0.0
 11
33.665112
 21
304.7664879999999
 31
0.0
  0
LINE
  5
9666
330
954C
100
AcDbEntity
  8
1
  6
Continuous
100
AcDbLine
 10
30.589138
 20
304.934884
 30
0.0
 11
30.71069
 21
304.2455529999998
 31
0.0
  0
LINE
  5
9667
330
954C
100
AcDbEntity
  8
1
  6
Continuous
100
AcDbLine
 10
30.589138
 20
304.934884
 30
0.0
 11
33.54356
 21
305.45585
 31
0.0
  0
LINE
  5
9668
330
954C
100
AcDbEntity
  8
1
  6
Continuous
100
AcDbLine
 10
34.012661
 20
304.418954
 30
0.0
 11
33.717594
 21
302.745523
 31
0.0
  0
LINE
  5
9669
330
954C
100
AcDbEntity
  8
1
  6
Continuous
100
AcDbLine
 10
34.70202299999999
 20
304.2974029999998
 30
0.0
 11
34.428387
 21
302.7455529999999
 31
0.0
  0
LINE
  5
966A
330
954C
100
AcDbEntity
  8
1
  6
Continuous
100
AcDbLine
 10
20.19337099999999
 20
300.2455529999999
 30
0.0
 11
20.09336499999999
 21
300.2455529999999
 31
0.0
  0
LINE
  5
966B
330
954C
100
AcDbEntity
  8
1
  6
Continuous
100
AcDbLine
 10
20.19337099999999
 20
297.2455529999999
 30
0.0
 11
20.09336499999999
 21
297.2455529999999
 31
0.0
  0
LINE
  5
966C
330
954C
100
AcDbEntity
  8
1
  6
Continuous
100
AcDbLine
 10
33.893917
 20
303.7455529999999
 30
0.0
 11
26.84336500000001
 21
303.7455529999999
 31
0.0
  0
LINE
  5
966D
330
954C
100
AcDbEntity
  8
1
  6
Continuous
100
AcDbLine
 10
27.061405
 20
64.139291
 30
0.0
 11
26.84336500000001
 21
64.139291
 31
0.0
  0
LINE
  5
966E
330
954C
100
AcDbEntity
  8
1
  6
Continuous
100
AcDbLine
 10
27.590382
 20
61.139291
 30
0.0
 11
26.84336500000001
 21
61.139291
 31
0.0
  0
LINE
  5
966F
330
954C
100
AcDbEntity
  8
1
  6
Continuous
100
AcDbLine
 10
335.4013479999999
 20
174.448175
 30
0.0
 11
335.3013419999999
 21
174.448175
 31
0.0
  0
LINE
  5
9670
330
954C
100
AcDbEntity
  8
1
  6
Continuous
100
AcDbLine
 10
335.4013479999999
 20
171.448175
 30
0.0
 11
335.3013419999999
 21
171.448175
 31
0.0
  0
LINE
  5
9671
330
954C
100
AcDbEntity
  8
1
  6
Continuous
100
AcDbLine
 10
337.0513419999999
 20
174.448175
 30
0.0
 11
337.0013539999998
 21
174.448175
 31
0.0
  0
LINE
  5
9672
330
954C
100
AcDbEntity
  8
1
  6
Continuous
100
AcDbLine
 10
337.0513419999999
 20
171.448175
 30
0.0
 11
337.0013539999998
 21
171.448175
 31
0.0
  0
LINE
  5
9673
330
954C
100
AcDbEntity
  8
1
  6
Continuous
100
AcDbLine
 10
355.10136
 20
174.448175
 30
0.0
 11
355.0513419999999
 21
174.448175
 31
0.0
  0
LINE
  5
9674
330
954C
100
AcDbEntity
  8
1
  6
Continuous
100
AcDbLine
 10
355.10136
 20
171.448175
 30
0.0
 11
355.0513419999999
 21
171.448175
 31
0.0
  0
LINE
  5
9675
330
954C
100
AcDbEntity
  8
1
  6
Continuous
100
AcDbLine
 10
38.84336499999999
 20
294.7455529999999
 30
0.0
 11
38.84336499999999
 21
279.2455529999999
 31
0.0
  0
LINE
  5
9676
330
954C
100
AcDbEntity
  8
1
  6
Continuous
100
AcDbLine
 10
22.84336499999999
 20
294.7455529999999
 30
0.0
 11
22.84336499999999
 21
279.2455529999999
 31
0.0
  0
LINE
  5
9677
330
954C
100
AcDbEntity
  8
1
  6
Continuous
100
AcDbLine
 10
34.84336499999999
 20
294.7455529999999
 30
0.0
 11
34.84336499999999
 21
293.7455529999999
 31
0.0
  0
LINE
  5
9678
330
954C
100
AcDbEntity
  8
1
  6
Continuous
100
AcDbLine
 10
26.84336500000001
 20
294.7455529999999
 30
0.0
 11
26.84336500000001
 21
293.7455529999999
 31
0.0
  0
LINE
  5
9679
330
954C
100
AcDbEntity
  8
1
  6
Continuous
100
AcDbLine
 10
347.933331
 20
179.9481749999999
 30
0.0
 11
350.1693839999999
 21
179.9481749999999
 31
0.0
  0
LINE
  5
967A
330
954C
100
AcDbEntity
  8
1
  6
Continuous
100
AcDbLine
 10
351.985638
 20
179.9481749999999
 30
0.0
 11
354.0513419999999
 21
179.9481749999999
 31
0.0
  0
LINE
  5
967B
330
954C
100
AcDbEntity
  8
1
  6
Continuous
100
AcDbLine
 10
189.629376
 20
177.9481749999999
 30
0.0
 11
187.0648309999999
 21
177.9481749999999
 31
0.0
  0
LINE
  5
967C
330
954C
100
AcDbEntity
  8
1
  6
Continuous
100
AcDbLine
 10
21.793369
 20
171.448175
 30
0.0
 11
21.843365
 21
171.448175
 31
0.0
  0
LINE
  5
967D
330
954C
100
AcDbEntity
  8
1
  6
Continuous
100
AcDbLine
 10
39.84336499999999
 20
171.448175
 30
0.0
 11
39.893368
 21
171.448175
 31
0.0
  0
LINE
  5
967E
330
954C
100
AcDbEntity
  8
1
  6
Continuous
100
AcDbLine
 10
41.49337399999999
 20
171.448175
 30
0.0
 11
41.59336500000001
 21
171.448175
 31
0.0
  0
LINE
  5
967F
330
954C
100
AcDbEntity
  8
1
  6
Continuous
100
AcDbLine
 10
39.84336499999999
 20
174.448175
 30
0.0
 11
39.893368
 21
174.448175
 31
0.0
  0
LINE
  5
9680
330
954C
100
AcDbEntity
  8
1
  6
Continuous
100
AcDbLine
 10
197.216839
 20
172.9481749999999
 30
0.0
 11
197.129376
 21
172.9481749999999
 31
0.0
  0
LINE
  5
9681
330
954C
100
AcDbEntity
  8
1
  6
Continuous
100
AcDbLine
 10
197.1384699999999
 20
171.2797789999999
 30
0.0
 11
196.750561
 21
171.9516989999999
 31
0.0
  0
LINE
  5
9682
330
954C
100
AcDbEntity
  8
1
  6
Continuous
100
AcDbLine
 10
194.5081899999999
 20
171.951684
 30
0.0
 11
194.120281
 21
171.2797789999999
 31
0.0
  0
LINE
  5
9683
330
954C
100
AcDbEntity
  8
1
  6
Continuous
100
AcDbLine
 10
195.1163449999999
 20
174.357705
 30
0.0
 11
195.0864369999999
 21
174.439889
 31
0.0
  0
LINE
  5
9684
330
954C
100
AcDbEntity
  8
1
  6
Continuous
100
AcDbLine
 10
196.172314
 20
174.439889
 30
0.0
 11
196.1424069999999
 21
174.357705
 31
0.0
  0
LINE
  5
9685
330
954C
100
AcDbEntity
  8
1
  6
Continuous
100
AcDbLine
 10
194.129376
 20
172.9481749999999
 30
0.0
 11
194.041943
 21
172.9481749999999
 31
0.0
  0
LINE
  5
9686
330
954C
100
AcDbEntity
  8
1
  6
Continuous
100
AcDbLine
 10
356.85136
 20
175.448175
 30
0.0
 11
357.251354
 21
175.448175
 31
0.0
  0
LINE
  5
9687
330
954C
100
AcDbEntity
  8
1
  6
Continuous
100
AcDbLine
 10
356.85136
 20
171.1797879999998
 30
0.0
 11
357.251354
 21
171.1797879999998
 31
0.0
  0
LINE
  5
9688
330
954C
100
AcDbEntity
  8
1
  6
Continuous
100
AcDbLine
 10
356.85136
 20
175.448175
 30
0.0
 11
356.85136
 21
171.1797879999998
 31
0.0
  0
LINE
  5
9689
330
954C
100
AcDbEntity
  8
1
  6
Continuous
100
AcDbLine
 10
357.251354
 20
175.448175
 30
0.0
 11
357.251354
 21
171.1797879999998
 31
0.0
  0
LINE
  5
968A
330
954C
100
AcDbEntity
  8
1
  6
Continuous
100
AcDbLine
 10
19.64336799999999
 20
301.2455529999999
 30
0.0
 11
19.64336799999999
 21
296.2455529999999
 31
0.0
  0
LINE
  5
968B
330
954C
100
AcDbEntity
  8
1
  6
Continuous
100
AcDbLine
 10
20.04336899999999
 20
301.2455529999999
 30
0.0
 11
20.04336899999999
 21
296.2455529999999
 31
0.0
  0
LINE
  5
968C
330
954C
100
AcDbEntity
  8
1
  6
Continuous
100
AcDbLine
 10
20.04336899999999
 20
301.2455529999999
 30
0.0
 11
19.64336799999999
 21
301.2455529999999
 31
0.0
  0
LINE
  5
968D
330
954C
100
AcDbEntity
  8
1
  6
Continuous
100
AcDbLine
 10
20.04336899999999
 20
296.2455529999999
 30
0.0
 11
19.64336799999999
 21
296.2455529999999
 31
0.0
  0
LINE
  5
968E
330
954C
100
AcDbEntity
  8
1
  6
Continuous
100
AcDbLine
 10
41.643368
 20
296.2455529999999
 30
0.0
 11
42.043362
 21
296.2455529999999
 31
0.0
  0
LINE
  5
968F
330
954C
100
AcDbEntity
  8
1
  6
Continuous
100
AcDbLine
 10
41.643368
 20
301.2455529999999
 30
0.0
 11
42.043362
 21
301.2455529999999
 31
0.0
  0
LINE
  5
9690
330
954C
100
AcDbEntity
  8
1
  6
Continuous
100
AcDbLine
 10
41.643368
 20
301.2455529999999
 30
0.0
 11
41.643368
 21
296.2455529999999
 31
0.0
  0
LINE
  5
9691
330
954C
100
AcDbEntity
  8
1
  6
Continuous
100
AcDbLine
 10
42.043362
 20
301.2455529999999
 30
0.0
 11
42.043362
 21
296.2455529999999
 31
0.0
  0
LINE
  5
9692
330
954C
100
AcDbEntity
  8
1
  6
Continuous
100
AcDbLine
 10
41.643368
 20
60.139291
 30
0.0
 11
42.043362
 21
60.139291
 31
0.0
  0
LINE
  5
9693
330
954C
100
AcDbEntity
  8
1
  6
Continuous
100
AcDbLine
 10
41.643368
 20
65.139291
 30
0.0
 11
42.043362
 21
65.139291
 31
0.0
  0
LINE
  5
9694
330
954C
100
AcDbEntity
  8
1
  6
Continuous
100
AcDbLine
 10
41.643368
 20
60.139291
 30
0.0
 11
41.643368
 21
65.139291
 31
0.0
  0
LINE
  5
9695
330
954C
100
AcDbEntity
  8
1
  6
Continuous
100
AcDbLine
 10
42.043362
 20
60.139291
 30
0.0
 11
42.043362
 21
65.139291
 31
0.0
  0
LINE
  5
9696
330
954C
100
AcDbEntity
  8
1
  6
Continuous
100
AcDbLine
 10
20.04336899999999
 20
65.139291
 30
0.0
 11
19.64336799999999
 21
65.139291
 31
0.0
  0
LINE
  5
9697
330
954C
100
AcDbEntity
  8
1
  6
Continuous
100
AcDbLine
 10
20.04336899999999
 20
60.139291
 30
0.0
 11
19.64336799999999
 21
60.139291
 31
0.0
  0
LINE
  5
9698
330
954C
100
AcDbEntity
  8
1
  6
Continuous
100
AcDbLine
 10
20.04336899999999
 20
60.139291
 30
0.0
 11
20.04336899999999
 21
65.139291
 31
0.0
  0
LINE
  5
9699
330
954C
100
AcDbEntity
  8
1
  6
Continuous
100
AcDbLine
 10
19.64336799999999
 20
60.139291
 30
0.0
 11
19.64336799999999
 21
65.139291
 31
0.0
  0
LINE
  5
969A
330
954C
100
AcDbEntity
  8
1
  6
Continuous
100
AcDbLine
 10
334.8513599999999
 20
175.448175
 30
0.0
 11
334.8513599999999
 21
171.1797879999998
 31
0.0
  0
LINE
  5
969B
330
954C
100
AcDbEntity
  8
1
  6
Continuous
100
AcDbLine
 10
335.2513539999999
 20
175.448175
 30
0.0
 11
335.2513539999999
 21
171.1797879999998
 31
0.0
  0
LINE
  5
969C
330
954C
100
AcDbEntity
  8
1
  6
Continuous
100
AcDbLine
 10
335.2513539999999
 20
171.1797879999998
 30
0.0
 11
334.8513599999999
 21
171.1797879999998
 31
0.0
  0
LINE
  5
969D
330
954C
100
AcDbEntity
  8
1
  6
Continuous
100
AcDbLine
 10
335.2513539999999
 20
175.448175
 30
0.0
 11
334.8513599999999
 21
175.448175
 31
0.0
  0
LINE
  5
969E
330
954C
100
AcDbEntity
  8
1
  6
Continuous
100
AcDbLine
 10
41.643368
 20
171.1797879999998
 30
0.0
 11
42.043362
 21
171.1797879999998
 31
0.0
  0
LINE
  5
969F
330
954C
100
AcDbEntity
  8
1
  6
Continuous
100
AcDbLine
 10
41.643368
 20
172.9481749999999
 30
0.0
 11
41.643368
 21
171.1797879999998
 31
0.0
  0
LINE
  5
96A0
330
954C
100
AcDbEntity
  8
1
  6
Continuous
100
AcDbLine
 10
42.043362
 20
172.9481749999999
 30
0.0
 11
42.043362
 21
171.1797879999998
 31
0.0
  0
LINE
  5
96A1
330
954C
100
AcDbEntity
  8
1
  6
Continuous
100
AcDbLine
 10
19.64336799999999
 20
172.9481749999999
 30
0.0
 11
19.64336799999999
 21
171.1797879999998
 31
0.0
  0
LINE
  5
96A2
330
954C
100
AcDbEntity
  8
1
  6
Continuous
100
AcDbLine
 10
20.04336899999999
 20
172.9481749999999
 30
0.0
 11
20.04336899999999
 21
171.1797879999998
 31
0.0
  0
LINE
  5
96A3
330
954C
100
AcDbEntity
  8
1
  6
Continuous
100
AcDbLine
 10
20.04336899999999
 20
171.1797879999998
 30
0.0
 11
19.64336799999999
 21
171.1797879999998
 31
0.0
  0
LINE
  5
96A4
330
954C
100
AcDbEntity
  8
1
  6
Continuous
100
AcDbLine
 10
20.04336899999999
 20
171.9231659999999
 30
0.0
 11
20.09336499999999
 21
171.9231659999999
 31
0.0
  0
LINE
  5
96A5
330
954C
100
AcDbEntity
  8
1
  6
Continuous
100
AcDbLine
 10
41.643368
 20
171.9231659999999
 30
0.0
 11
41.59336500000001
 21
171.9231659999999
 31
0.0
  0
LINE
  5
96A6
330
954C
100
AcDbEntity
  8
1
  6
Continuous
100
AcDbLine
 10
335.2513539999999
 20
173.9731689999999
 30
0.0
 11
335.3013419999999
 21
173.9731689999999
 31
0.0
  0
LINE
  5
96A7
330
954C
100
AcDbEntity
  8
1
  6
Continuous
100
AcDbLine
 10
335.2513539999999
 20
171.9231659999999
 30
0.0
 11
335.3013419999999
 21
171.9231659999999
 31
0.0
  0
LINE
  5
96A8
330
954C
100
AcDbEntity
  8
1
  6
Continuous
100
AcDbLine
 10
356.85136
 20
173.9731689999999
 30
0.0
 11
356.8013419999999
 21
173.9731689999999
 31
0.0
  0
LINE
  5
96A9
330
954C
100
AcDbEntity
  8
1
  6
Continuous
100
AcDbLine
 10
356.85136
 20
171.9231659999999
 30
0.0
 11
356.8013419999999
 21
171.9231659999999
 31
0.0
  0
LINE
  5
96AA
330
954C
100
AcDbEntity
  8
1
  6
Continuous
100
AcDbLine
 10
20.04336899999999
 20
61.614289
 30
0.0
 11
20.09336499999999
 21
61.614289
 31
0.0
  0
LINE
  5
96AB
330
954C
100
AcDbEntity
  8
1
  6
Continuous
100
AcDbLine
 10
20.04336899999999
 20
63.664293
 30
0.0
 11
20.09336499999999
 21
63.664293
 31
0.0
  0
LINE
  5
96AC
330
954C
100
AcDbEntity
  8
1
  6
Continuous
100
AcDbLine
 10
41.643368
 20
61.614289
 30
0.0
 11
41.59336500000001
 21
61.614289
 31
0.0
  0
LINE
  5
96AD
330
954C
100
AcDbEntity
  8
1
  6
Continuous
100
AcDbLine
 10
41.643368
 20
63.664293
 30
0.0
 11
41.59336500000001
 21
63.664293
 31
0.0
  0
LINE
  5
96AE
330
954C
100
AcDbEntity
  8
1
  6
Continuous
100
AcDbLine
 10
41.643368
 20
299.770547
 30
0.0
 11
41.59336500000001
 21
299.770547
 31
0.0
  0
LINE
  5
96AF
330
954C
100
AcDbEntity
  8
1
  6
Continuous
100
AcDbLine
 10
41.643368
 20
297.720529
 30
0.0
 11
41.59336500000001
 21
297.720529
 31
0.0
  0
LINE
  5
96B0
330
954C
100
AcDbEntity
  8
1
  6
Continuous
100
AcDbLine
 10
20.04336899999999
 20
299.770547
 30
0.0
 11
20.09336499999999
 21
299.770547
 31
0.0
  0
LINE
  5
96B1
330
954C
100
AcDbEntity
  8
1
  6
Continuous
100
AcDbLine
 10
20.04336899999999
 20
297.720529
 30
0.0
 11
20.09336499999999
 21
297.720529
 31
0.0
  0
LINE
  5
96B2
330
954C
100
AcDbEntity
  8
1
  6
Continuous
100
AcDbLine
 10
22.84336499999999
 20
66.639291
 30
0.0
 11
20.19337099999999
 21
66.639291
 31
0.0
  0
LINE
  5
96B3
330
954C
100
AcDbEntity
  8
1
  6
Continuous
100
AcDbLine
 10
22.84336499999999
 20
58.639291
 30
0.0
 11
20.19337099999999
 21
58.639291
 31
0.0
  0
LINE
  5
96B4
330
954C
100
AcDbEntity
  8
1
  6
Continuous
100
AcDbLine
 10
33.717587
 20
58.639291
 30
0.0
 11
26.84336500000001
 21
58.639291
 31
0.0
  0
LINE
  5
96B5
330
954C
100
AcDbEntity
  8
4
  6
CENTER
100
AcDbLine
 10
333.8013419999999
 20
172.9481749999999
 30
0.0
 11
358.3013419999999
 21
172.9481749999999
 31
0.0
  0
LINE
  5
96B6
330
954C
100
AcDbEntity
  8
4
  6
CENTER
100
AcDbLine
 10
21.793369
 20
172.9481749999999
 30
0.0
 11
39.893368
 21
172.9481749999999
 31
0.0
  0
LINE
  5
96B7
330
954C
100
AcDbEntity
  8
4
  6
CENTER
100
AcDbLine
 10
15.843365
 20
180.4481749999999
 30
0.0
 11
15.843365
 21
173.448175
 31
0.0
  0
LINE
  5
96B8
330
954C
100
AcDbEntity
  8
4
  6
CENTER
100
AcDbLine
 10
12.34336499999999
 20
176.9481749999999
 30
0.0
 11
19.34336499999998
 21
176.9481749999999
 31
0.0
  0
LINE
  5
96B9
330
954C
100
AcDbEntity
  8
4
  6
CENTER
100
AcDbLine
 10
45.843365
 20
180.4481749999999
 30
0.0
 11
45.843365
 21
173.448175
 31
0.0
  0
LINE
  5
96BA
330
954C
100
AcDbEntity
  8
4
  6
CENTER
100
AcDbLine
 10
49.343365
 20
176.9481749999999
 30
0.0
 11
42.343365
 21
176.9481749999999
 31
0.0
  0
LINE
  5
96BB
330
954C
100
AcDbEntity
  8
4
  6
CENTER
100
AcDbLine
 10
327.5513419999999
 20
176.9481749999999
 30
0.0
 11
334.5513419999999
 21
176.9481749999999
 31
0.0
  0
LINE
  5
96BC
330
954C
100
AcDbEntity
  8
4
  6
CENTER
100
AcDbLine
 10
364.5513419999999
 20
176.9481749999999
 30
0.0
 11
357.551342
 21
176.9481749999999
 31
0.0
  0
LINE
  5
96BD
330
954C
100
AcDbEntity
  8
1
  6
Continuous
100
AcDbLine
 10
27.12777299999999
 20
64.639291
 30
0.0
 11
26.84336500000001
 21
64.639291
 31
0.0
  0
LINE
  5
96BE
330
954C
100
AcDbEntity
  8
1
  6
Continuous
100
AcDbLine
 10
27.838566
 20
64.639291
 30
0.0
 11
27.61767199999999
 21
64.639291
 31
0.0
  0
LINE
  5
96BF
330
954C
100
AcDbEntity
  8
1
  6
Continuous
100
AcDbLine
 10
28.549366
 20
64.639291
 30
0.0
 11
28.328465
 21
64.639291
 31
0.0
  0
LINE
  5
96C0
330
954C
100
AcDbEntity
  8
1
  6
Continuous
100
AcDbLine
 10
29.260166
 20
64.639291
 30
0.0
 11
29.03926500000001
 21
64.639291
 31
0.0
  0
LINE
  5
96C1
330
954C
100
AcDbEntity
  8
1
  6
Continuous
100
AcDbLine
 10
29.97096599999999
 20
64.639291
 30
0.0
 11
29.750065
 21
64.639291
 31
0.0
  0
LINE
  5
96C2
330
954C
100
AcDbEntity
  8
1
  6
Continuous
100
AcDbLine
 10
22.84336499999999
 20
74.139291
 30
0.0
 11
38.84336499999999
 21
74.139291
 31
0.0
  0
LINE
  5
96C3
330
954C
100
AcDbEntity
  8
4
  6
CENTER
100
AcDbLine
 10
15.843365
 20
70.639291
 30
0.0
 11
15.843365
 21
65.039293
 31
0.0
  0
LINE
  5
96C4
330
954C
100
AcDbEntity
  8
4
  6
CENTER
100
AcDbLine
 10
45.843365
 20
70.639291
 30
0.0
 11
45.843365
 21
65.039293
 31
0.0
  0
LINE
  5
96C5
330
954C
100
AcDbEntity
  8
4
  6
CENTER
100
AcDbLine
 10
27.843365
 20
300.7455529999999
 30
0.0
 11
27.843365
 21
294.7455529999999
 31
0.0
  0
LINE
  5
96C6
330
954C
100
AcDbEntity
  8
4
  6
CENTER
100
AcDbLine
 10
15.843365
 20
296.345529
 30
0.0
 11
15.843365
 21
290.7455529999999
 31
0.0
  0
LINE
  5
96C7
330
954C
100
AcDbEntity
  8
4
  6
CENTER
100
AcDbLine
 10
45.843365
 20
296.345529
 30
0.0
 11
45.843365
 21
290.7455529999999
 31
0.0
  0
ARC
  5
96C8
330
954C
100
AcDbEntity
  8
1
  6
Continuous
100
AcDbCircle
 10
21.793369
 20
180.9481749999999
 30
0.0
 40
1.6
100
AcDbArc
 50
90.00000300000001
 51
180.000005
  0
ARC
  5
96C9
330
954C
100
AcDbEntity
  8
1
  6
Continuous
100
AcDbCircle
 10
15.843365
 20
176.9481749999999
 30
0.0
 40
4.0
100
AcDbArc
 50
90.00000300000001
 51
270.000001
  0
ARC
  5
96CA
330
954C
100
AcDbEntity
  8
1
  6
Continuous
100
AcDbCircle
 10
45.843365
 20
176.9481749999999
 30
0.0
 40
4.0
100
AcDbArc
 50
269.9999969999999
 51
90.00000300000001
  0
CIRCLE
  5
96CB
330
954C
100
AcDbEntity
  8
2
  6
Continuous
100
AcDbCircle
 10
15.843365
 20
176.9481749999999
 30
0.0
 40
1.5
  0
CIRCLE
  5
96CC
330
954C
100
AcDbEntity
  8
1
  6
Continuous
100
AcDbCircle
 10
15.843365
 20
176.9481749999999
 30
0.0
 40
1.2295
  0
CIRCLE
  5
96CD
330
954C
100
AcDbEntity
  8
2
  6
Continuous
100
AcDbCircle
 10
45.843365
 20
176.9481749999999
 30
0.0
 40
1.5
  0
CIRCLE
  5
96CE
330
954C
100
AcDbEntity
  8
1
  6
Continuous
100
AcDbCircle
 10
45.843365
 20
176.9481749999999
 30
0.0
 40
1.2295
  0
ARC
  5
96CF
330
954C
100
AcDbEntity
  8
1
  6
Continuous
100
AcDbCircle
 10
27.843365
 20
180.9481749999999
 30
0.0
 40
1.5
100
AcDbArc
 50
184.944519
 51
221.810315
  0
ARC
  5
96D0
330
954C
100
AcDbEntity
  8
1
  6
Continuous
100
AcDbCircle
 10
195.629376
 20
172.9481749999999
 30
0.0
 40
4.0
100
AcDbArc
 50
179.9999909999999
 51
0.00001
  0
ARC
  5
96D1
330
954C
100
AcDbEntity
  8
1
  6
Continuous
100
AcDbCircle
 10
20.19337099999999
 20
294.345529
 30
0.0
 40
1.6
100
AcDbArc
 50
269.9999969999999
 51
0.0
  0
ARC
  5
96D2
330
954C
100
AcDbEntity
  8
1
  6
Continuous
100
AcDbCircle
 10
41.49337399999999
 20
294.345529
 30
0.0
 40
1.6
100
AcDbArc
 50
179.9999909999999
 51
270.000001
  0
ARC
  5
96D3
330
954C
100
AcDbEntity
  8
1
  6
Continuous
100
AcDbCircle
 10
27.843365
 20
180.9481749999999
 30
0.0
 40
3.1
100
AcDbArc
 50
184.944519
 51
198.819065
  0
ARC
  5
96D4
330
954C
100
AcDbEntity
  8
1
  6
Continuous
100
AcDbCircle
 10
355.10136
 20
180.9481749999999
 30
0.0
 40
1.6
100
AcDbArc
 50
0.0
 51
90.00000300000001
  0
ARC
  5
96D5
330
954C
100
AcDbEntity
  8
1
  6
Continuous
100
AcDbCircle
 10
337.0013539999998
 20
180.9481749999999
 30
0.0
 40
1.6
100
AcDbArc
 50
90.00000300000001
 51
180.000005
  0
ARC
  5
96D6
330
954C
100
AcDbEntity
  8
1
  6
Continuous
100
AcDbCircle
 10
331.0513419999999
 20
176.9481749999999
 30
0.0
 40
4.0
100
AcDbArc
 50
90.00000300000001
 51
270.000001
  0
ARC
  5
96D7
330
954C
100
AcDbEntity
  8
1
  6
Continuous
100
AcDbCircle
 10
361.0513419999999
 20
176.9481749999999
 30
0.0
 40
4.0
100
AcDbArc
 50
269.9999969999999
 51
90.00000300000001
  0
CIRCLE
  5
96D8
330
954C
100
AcDbEntity
  8
2
  6
Continuous
100
AcDbCircle
 10
361.0513419999999
 20
176.9481749999999
 30
0.0
 40
1.5
  0
CIRCLE
  5
96D9
330
954C
100
AcDbEntity
  8
1
  6
Continuous
100
AcDbCircle
 10
361.0513419999999
 20
176.9481749999999
 30
0.0
 40
1.2295
  0
CIRCLE
  5
96DA
330
954C
100
AcDbEntity
  8
2
  6
Continuous
100
AcDbCircle
 10
331.0513419999999
 20
176.9481749999999
 30
0.0
 40
1.5
  0
CIRCLE
  5
96DB
330
954C
100
AcDbEntity
  8
1
  6
Continuous
100
AcDbCircle
 10
331.0513419999999
 20
176.9481749999999
 30
0.0
 40
1.2295
  0
ARC
  5
96DC
330
954C
100
AcDbEntity
  8
1
  6
Continuous
100
AcDbCircle
 10
349.0513419999999
 20
180.9481749999999
 30
0.0
 40
1.5
100
AcDbArc
 50
184.944519
 51
355.0554859999999
  0
ARC
  5
96DD
330
954C
100
AcDbEntity
  8
1
  6
Continuous
100
AcDbCircle
 10
349.0513419999999
 20
180.9481749999999
 30
0.0
 40
3.1
100
AcDbArc
 50
184.944519
 51
355.0554859999999
  0
ARC
  5
96DE
330
954C
100
AcDbEntity
  8
1
  6
Continuous
100
AcDbCircle
 10
217.6293759999999
 20
173.9481749999999
 30
0.0
 40
2.0
100
AcDbArc
 50
294.968348
 51
76.355914
  0
ARC
  5
96DF
330
954C
100
AcDbEntity
  8
1
  6
Continuous
100
AcDbCircle
 10
201.286236
 20
170.9481749999999
 30
0.0
 40
2.0
100
AcDbArc
 50
90.00000300000001
 51
160.528775
  0
ARC
  5
96E0
330
954C
100
AcDbEntity
  8
1
  6
Continuous
100
AcDbCircle
 10
178.629376
 20
177.4481749999999
 30
0.0
 40
2.5
100
AcDbArc
 50
0.0
 51
180.000005
  0
ARC
  5
96E1
330
954C
100
AcDbEntity
  8
1
  6
Continuous
100
AcDbCircle
 10
189.9725149999999
 20
170.9481749999999
 30
0.0
 40
2.0
100
AcDbArc
 50
19.47122
 51
90.00000300000001
  0
ARC
  5
96E2
330
954C
100
AcDbEntity
  8
1
  6
Continuous
100
AcDbCircle
 10
178.629376
 20
171.448175
 30
0.0
 40
2.5
100
AcDbArc
 50
179.9999909999999
 51
294.0389879999999
  0
ARC
  5
96E3
330
954C
100
AcDbEntity
  8
1
  6
Continuous
100
AcDbCircle
 10
181.629376
 20
176.0712059999999
 30
0.0
 40
0.5
100
AcDbArc
 50
179.9999909999999
 51
294.0389879999999
  0
CIRCLE
  5
96E4
330
954C
100
AcDbEntity
  8
1
  6
Continuous
100
AcDbCircle
 10
195.629376
 20
172.9481749999999
 30
0.0
 40
1.5
  0
CIRCLE
  5
96E5
330
954C
100
AcDbEntity
  8
1
  6
Continuous
100
AcDbCircle
 10
195.629376
 20
172.9481749999999
 30
0.0
 40
1.199999999999999
  0
ARC
  5
96E6
330
954C
100
AcDbEntity
  8
1
  6
Continuous
100
AcDbCircle
 10
33.059109
 20
64.389291
 30
0.0
 40
0.35
100
AcDbArc
 50
10.0
 51
190.0000029999999
  0
ARC
  5
96E7
330
954C
100
AcDbEntity
  8
1
  6
Continuous
100
AcDbCircle
 10
32.348309
 20
64.389291
 30
0.0
 40
0.35
100
AcDbArc
 50
10.0
 51
190.0000029999999
  0
ARC
  5
96E8
330
954C
100
AcDbEntity
  8
1
  6
Continuous
100
AcDbCircle
 10
31.637508
 20
64.389291
 30
0.0
 40
0.35
100
AcDbArc
 50
10.0
 51
190.0000029999999
  0
ARC
  5
96E9
330
954C
100
AcDbEntity
  8
1
  6
Continuous
100
AcDbCircle
 10
30.926716
 20
64.389291
 30
0.0
 40
0.35
100
AcDbArc
 50
10.0
 51
190.0000029999999
  0
ARC
  5
96EA
330
954C
100
AcDbEntity
  8
1
  6
Continuous
100
AcDbCircle
 10
30.21591599999998
 20
64.389291
 30
0.0
 40
0.35
100
AcDbArc
 50
10.0
 51
190.0000029999999
  0
ARC
  5
96EB
330
954C
100
AcDbEntity
  8
1
  6
Continuous
100
AcDbCircle
 10
29.505116
 20
64.389291
 30
0.0
 40
0.35
100
AcDbArc
 50
10.0
 51
190.0000029999999
  0
ARC
  5
96EC
330
954C
100
AcDbEntity
  8
1
  6
Continuous
100
AcDbCircle
 10
28.794315
 20
64.389291
 30
0.0
 40
0.35
100
AcDbArc
 50
10.0
 51
190.0000029999999
  0
ARC
  5
96ED
330
954C
100
AcDbEntity
  8
1
  6
Continuous
100
AcDbCircle
 10
28.083515
 20
64.389291
 30
0.0
 40
0.35
100
AcDbArc
 50
10.0
 51
190.0000029999999
  0
ARC
  5
96EE
330
954C
100
AcDbEntity
  8
1
  6
Continuous
100
AcDbCircle
 10
32.965458
 20
60.889291
 30
0.0
 40
0.35
100
AcDbArc
 50
190.000007
 51
10.0
  0
ARC
  5
96EF
330
954C
100
AcDbEntity
  8
1
  6
Continuous
100
AcDbCircle
 10
32.254658
 20
60.889291
 30
0.0
 40
0.35
100
AcDbArc
 50
190.000007
 51
10.0
  0
ARC
  5
96F0
330
954C
100
AcDbEntity
  8
1
  6
Continuous
100
AcDbCircle
 10
31.543858
 20
60.889291
 30
0.0
 40
0.35
100
AcDbArc
 50
190.000007
 51
10.0
  0
ARC
  5
96F1
330
954C
100
AcDbEntity
  8
1
  6
Continuous
100
AcDbCircle
 10
30.833057
 20
60.889291
 30
0.0
 40
0.35
100
AcDbArc
 50
190.000007
 51
10.0
  0
ARC
  5
96F2
330
954C
100
AcDbEntity
  8
1
  6
Continuous
100
AcDbCircle
 10
30.122257
 20
60.889291
 30
0.0
 40
0.35
100
AcDbArc
 50
190.000007
 51
10.0
  0
ARC
  5
96F3
330
954C
100
AcDbEntity
  8
1
  6
Continuous
100
AcDbCircle
 10
29.411465
 20
60.889291
 30
0.0
 40
0.35
100
AcDbArc
 50
190.000007
 51
10.0
  0
ARC
  5
96F4
330
954C
100
AcDbEntity
  8
1
  6
Continuous
100
AcDbCircle
 10
28.700665
 20
60.889291
 30
0.0
 40
0.35
100
AcDbArc
 50
190.000007
 51
10.0
  0
ARC
  5
96F5
330
954C
100
AcDbEntity
  8
1
  6
Continuous
100
AcDbCircle
 10
39.893368
 20
180.9481749999999
 30
0.0
 40
1.6
100
AcDbArc
 50
0.0
 51
90.00000300000001
  0
ARC
  5
96F6
330
954C
100
AcDbEntity
  8
1
  6
Continuous
100
AcDbCircle
 10
41.49337399999999
 20
67.039293
 30
0.0
 40
1.6
100
AcDbArc
 50
90.00000300000001
 51
180.000005
  0
ARC
  5
96F7
330
954C
100
AcDbEntity
  8
1
  6
Continuous
100
AcDbCircle
 10
20.19337099999999
 20
67.039293
 30
0.0
 40
1.6
100
AcDbArc
 50
0.0
 51
90.00000300000001
  0
ARC
  5
96F8
330
954C
100
AcDbEntity
  8
1
  6
Continuous
100
AcDbCircle
 10
27.989864
 20
60.889291
 30
0.0
 40
0.35
100
AcDbArc
 50
190.000007
 51
10.0
  0
ARC
  5
96F9
330
954C
100
AcDbEntity
  8
1
  6
Continuous
100
AcDbCircle
 10
27.37272299999998
 20
64.389291
 30
0.0
 40
0.35
100
AcDbArc
 50
10.0
 51
190.0000029999999
  0
ARC
  5
96FA
330
954C
100
AcDbEntity
  8
1
  6
Continuous
100
AcDbCircle
 10
33.717213
 20
304.4710479999999
 30
0.0
 40
1.0
100
AcDbArc
 50
350.0
 51
100.000001
  0
ARC
  5
96FB
330
954C
100
AcDbEntity
  8
1
  6
Continuous
100
AcDbCircle
 10
33.717213
 20
304.4710479999999
 30
0.0
 40
0.3
100
AcDbArc
 50
350.0
 51
100.000001
  0
ARC
  5
96FC
330
954C
100
AcDbEntity
  8
1
  6
Continuous
100
AcDbCircle
 10
27.843365
 20
180.9481749999999
 30
0.0
 40
3.1
100
AcDbArc
 50
341.1809369999998
 51
355.0554859999999
  0
ARC
  5
96FD
330
954C
100
AcDbEntity
  8
1
  6
Continuous
100
AcDbCircle
 10
27.843365
 20
180.9481749999999
 30
0.0
 40
1.5
100
AcDbArc
 50
318.1896829999999
 51
355.0554859999999
  0
ARC
  5
96FE
330
954C
100
AcDbEntity
  8
1
  6
Continuous
100
AcDbCircle
 10
195.629376
 20
172.9481749999999
 30
0.0
 40
2.5
100
AcDbArc
 50
317.0072069999998
 51
222.992822
  0
ARC
  5
96FF
330
954C
100
AcDbEntity
  8
1
  6
Continuous
100
AcDbCircle
 10
195.629376
 20
172.9481749999999
 30
0.0
 40
1.8
100
AcDbArc
 50
117.1807739999999
 51
172.8192359999999
  0
ARC
  5
9700
330
954C
100
AcDbEntity
  8
1
  6
Continuous
100
AcDbCircle
 10
195.629376
 20
172.9481749999999
 30
0.0
 40
1.8
100
AcDbArc
 50
7.180749999999997
 51
62.819196
  0
ARC
  5
9701
330
954C
100
AcDbEntity
  8
1
  6
Continuous
100
AcDbCircle
 10
193.9470639999999
 20
171.3797849999999
 30
0.0
 40
0.2
100
AcDbArc
 50
222.992757
 51
329.9998319999999
  0
ARC
  5
9702
330
954C
100
AcDbEntity
  8
1
  6
Continuous
100
AcDbCircle
 10
197.3116879999999
 20
171.3797849999999
 30
0.0
 40
0.2
100
AcDbArc
 50
209.9999209999999
 51
317.0072549999998
  0
ARC
  5
9703
330
954C
100
AcDbEntity
  8
1
  6
Continuous
100
AcDbCircle
 10
196.360272
 20
174.371484
 30
0.0
 40
0.2
100
AcDbArc
 50
62.81911400000001
 51
160.000228
  0
ARC
  5
9704
330
954C
100
AcDbEntity
  8
1
  6
Continuous
100
AcDbCircle
 10
197.216839
 20
173.1481719999999
 30
0.0
 40
0.2
100
AcDbArc
 50
269.9999969999999
 51
7.180572999999999
  0
ARC
  5
9705
330
954C
100
AcDbEntity
  8
1
  6
Continuous
100
AcDbCircle
 10
194.8985099999999
 20
174.371484
 30
0.0
 40
0.2
100
AcDbArc
 50
20.00008699999998
 51
117.1808699999998
  0
ARC
  5
9706
330
954C
100
AcDbEntity
  8
1
  6
Continuous
100
AcDbCircle
 10
194.041943
 20
173.1481719999999
 30
0.0
 40
0.2
100
AcDbArc
 50
172.819413
 51
269.999973
  0
LINE
  5
9707
330
954C
100
AcDbEntity
  8
4
  6
CENTER
100
AcDbLine
 10
27.843365
 20
67.14761700000001
 30
0.0
 11
27.843365
 21
58.44761999999999
 31
0.0
  0
ENDSEC
  0
SECTION
  2
OBJECTS
  0
DICTIONARY
  5
953A
330
0
100
AcDbDictionary
281
     1
  3
ACAD_CIP_PREVIOUS_PRODUCT_INFO
350
976B
  3
ACAD_COLOR
350
974D
  3
ACAD_DETAILVIEWSTYLE
350
9766
  3
ACAD_GROUP
350
953B
  3
ACAD_LAYOUT
350
9547
  3
ACAD_MATERIAL
350
971B
  3
ACAD_MLEADERSTYLE
350
9762
  3
ACAD_MLINESTYLE
350
9544
  3
ACAD_PLOTSETTINGS
350
9546
  3
ACAD_PLOTSTYLENAME
350
9719
  3
ACAD_SCALELIST
350
9750
  3
ACAD_SECTIONVIEWSTYLE
350
9764
  3
ACAD_TABLESTYLE
350
974E
  3
ACAD_VISUALSTYLE
350
9734
  3
ACDB_RECOMPOSE_DATA
350
9789
  3
AcDbVariableDictionary
350
977C
  3
DWGPROPS
350
978A
  0
DICTIONARY
  5
976C
330
953E
100
AcDbDictionary
280
     1
281
     1
  3
ADSK_XREC_LAYER_RECONCILED
360
976D
  0
DICTIONARY
  5
976E
330
9554
100
AcDbDictionary
280
     1
281
     1
  3
ADSK_XREC_LAYER_RECONCILED
360
976F
  0
DICTIONARY
  5
9770
330
9555
100
AcDbDictionary
280
     1
281
     1
  3
ADSK_XREC_LAYER_RECONCILED
360
9771
  0
DICTIONARY
  5
9772
330
9556
100
AcDbDictionary
280
     1
281
     1
  3
ADSK_XREC_LAYER_RECONCILED
360
9773
  0
DICTIONARY
  5
9774
330
9557
100
AcDbDictionary
280
     1
281
     1
  3
ADSK_XREC_LAYER_RECONCILED
360
9775
  0
DICTIONARY
  5
9776
330
9558
100
AcDbDictionary
280
     1
281
     1
  3
ADSK_XREC_LAYER_RECONCILED
360
9777
  0
DICTIONARY
  5
9778
330
9559
100
AcDbDictionary
280
     1
281
     1
  3
ADSK_XREC_LAYER_RECONCILED
360
9779
  0
DICTIONARY
  5
977A
330
955A
100
AcDbDictionary
280
     1
281
     1
  3
ADSK_XREC_LAYER_RECONCILED
360
977B
  0
DICTIONARY
  5
9714
330
954C
100
AcDbDictionary
281
     1
  3
ACAD_LAYOUTSELFREF
350
9715
  0
DICTIONARY
  5
9712
330
9548
100
AcDbDictionary
281
     1
  3
ACAD_LAYOUTSELFREF
350
9713
  0
XRECORD
  5
976B
102
{ACAD_REACTORS
330
953A
102
}
330
953A
100
AcDbXrecord
280
     1
300
ACDLT
300
2014
300
ACDLT_F_S
  0
DICTIONARY
  5
974D
102
{ACAD_REACTORS
330
953A
102
}
330
953A
100
AcDbDictionary
281
     1
  0
DICTIONARY
  5
9766
102
{ACAD_REACTORS
330
953A
102
}
330
953A
100
AcDbDictionary
281
     1
  3
Imperial24
350
9767
  0
DICTIONARY
  5
953B
102
{ACAD_REACTORS
330
953A
102
}
330
953A
100
AcDbDictionary
281
     1
  0
DICTIONARY
  5
9547
102
{ACAD_REACTORS
330
953A
102
}
330
953A
100
AcDbDictionary
281
     1
  3
Model
350
9768
  3
レイアウト1
350
9769
  0
DICTIONARY
  5
971B
102
{ACAD_REACTORS
330
953A
102
}
330
953A
100
AcDbDictionary
281
     1
  3
ByBlock
350
9724
  3
ByLayer
350
971C
  3
Global
350
972C
  0
DICTIONARY
  5
9762
102
{ACAD_REACTORS
330
953A
102
}
330
953A
100
AcDbDictionary
281
     1
  3
Standard
350
9763
  0
DICTIONARY
  5
9544
102
{ACAD_REACTORS
330
953A
102
}
330
953A
100
AcDbDictionary
281
     1
  3
STANDARD
350
9545
  0
DICTIONARY
  5
9546
102
{ACAD_REACTORS
330
953A
102
}
330
953A
100
AcDbDictionary
281
     1
  0
ACDBDICTIONARYWDFLT
  5
9719
102
{ACAD_REACTORS
330
953A
102
}
330
953A
100
AcDbDictionary
281
     1
  3
Normal
350
971A
100
AcDbDictionaryWithDefault
340
971A
  0
DICTIONARY
  5
9750
102
{ACAD_REACTORS
330
953A
102
}
330
953A
100
AcDbDictionary
281
     1
  3
A0
350
9751
  3
A1
350
9752
  3
A2
350
9753
  3
A3
350
9754
  3
A4
350
9755
  3
A5
350
9756
  3
A6
350
9757
  3
A7
350
9758
  3
A8
350
9759
  3
A9
350
975A
  3
B0
350
975B
  3
B1
350
975C
  3
B2
350
975D
  3
B3
350
975E
  3
B4
350
975F
  3
B5
350
9760
  3
B6
350
9761
  0
DICTIONARY
  5
9764
102
{ACAD_REACTORS
330
953A
102
}
330
953A
100
AcDbDictionary
281
     1
  3
Imperial24
350
9765
  0
DICTIONARY
  5
974E
102
{ACAD_REACTORS
330
953A
102
}
330
953A
100
AcDbDictionary
281
     1
  3
Standard
350
974F
  0
DICTIONARY
  5
9734
102
{ACAD_REACTORS
330
953A
102
}
330
953A
100
AcDbDictionary
281
     1
  3
2dWireframe
350
973A
  3
Basic
350
9739
  3
Brighten
350
9740
  3
ColorChange
350
9744
  3
Conceptual
350
973D
  3
Dim
350
973F
  3
EdgeColorOff
350
974C
  3
Facepattern
350
9743
  3
Flat
350
9735
  3
FlatWithEdges
350
9736
  3
Gouraud
350
9737
  3
GouraudWithEdges
350
9738
  3
Hidden
350
973C
  3
JitterOff
350
974A
  3
Linepattern
350
9742
  3
OverhangOff
350
974B
  3
Realistic
350
973E
  3
Shaded
350
9749
  3
Shaded with edges
350
9748
  3
Shades of Gray
350
9745
  3
Sketchy
350
9746
  3
Thicken
350
9741
  3
Wireframe
350
973B
  3
X-Ray
350
9747
  0
XRECORD
  5
9789
102
{ACAD_REACTORS
330
953A
102
}
330
953A
100
AcDbXrecord
280
     1
 90
        1
330
974F
  0
DICTIONARY
  5
977C
102
{ACAD_REACTORS
330
953A
102
}
330
953A
100
AcDbDictionary
281
     1
  3
CANNOSCALE
350
9781
  3
CMLEADERSTYLE
350
977E
  3
CTABLESTYLE
350
977D
  3
CVIEWDETAILSTYLE
350
977F
  3
CVIEWSECTIONSTYLE
350
9780
  3
DIMASSOC
350
9784
  3
INDEXCTL
350
9783
  3
SORTENTS
350
9782
  3
XCLIPFRAME
350
9785
  0
XRECORD
  5
978A
102
{ACAD_REACTORS
330
953A
102
}
330
953A
100
AcDbXrecord
280
     1
  1
DWGPROPS COOKIE
  2

  3

  4

  6

  7

  8
Yoshitsune
  9

300
=
301
=
302
=
303
=
304
=
305
=
306
=
307
=
308
=
309
=
 40
0.0000132060185185
 41
2451073.686124884
 42
2457192.599828206
  1

 90
        0
  0
XRECORD
  5
976D
102
{ACAD_REACTORS
330
976C
102
}
330
976C
100
AcDbXrecord
280
     1
290
     1
  0
XRECORD
  5
976F
102
{ACAD_REACTORS
330
976E
102
}
330
976E
100
AcDbXrecord
280
     1
290
     1
  0
XRECORD
  5
9771
102
{ACAD_REACTORS
330
9770
102
}
330
9770
100
AcDbXrecord
280
     1
290
     1
  0
XRECORD
  5
9773
102
{ACAD_REACTORS
330
9772
102
}
330
9772
100
AcDbXrecord
280
     1
290
     1
  0
XRECORD
  5
9775
102
{ACAD_REACTORS
330
9774
102
}
330
9774
100
AcDbXrecord
280
     1
290
     1
  0
XRECORD
  5
9777
102
{ACAD_REACTORS
330
9776
102
}
330
9776
100
AcDbXrecord
280
     1
290
     1
  0
XRECORD
  5
9779
102
{ACAD_REACTORS
330
9778
102
}
330
9778
100
AcDbXrecord
280
     1
290
     1
  0
XRECORD
  5
977B
102
{ACAD_REACTORS
330
977A
102
}
330
977A
100
AcDbXrecord
280
     1
290
     1
  0
XRECORD
  5
9715
102
{ACAD_REACTORS
330
9714
102
}
330
9714
100
AcDbXrecord
280
     1
340
954C
  0
XRECORD
  5
9713
102
{ACAD_REACTORS
330
9712
102
}
330
9712
100
AcDbXrecord
280
     1
340
9548
  0
ACDBDETAILVIEWSTYLE
  5
9767
102
{ACAD_XDICTIONARY
360
97C2
102
}
102
{ACAD_REACTORS
330
9766
102
}
330
9766
100
AcDbModelDocViewStyle
 70
     0
  3
Imperial24
290
     0
100
AcDbDetailViewStyle
 70
     0
 71
     0
 90
        3
 71
     1
340
953F
 40
0.24
340
0
 40
0.24
300

 40
0.36
280
     3
 71
     2
340
9543
 90
       25
 71
     3
340
953F
 40
0.24
 90
        1
 40
0.75
 90
        1
300
%<\AcVar ViewType \f "%tc1">% %<\AcVar ViewDetailId>%\PSCALE %<\AcVar ViewScale \f "%sn">%
 71
     4
340
9543
 90
       25
340
9543
 90
       25
280
     0
  0
LAYOUT
  5
9768
102
{ACAD_XDICTIONARY
360
97C4
102
}
102
{ACAD_REACTORS
330
9547
102
}
330
9547
100
AcDbPlotSettings
  1

  2
Canon LBP9100C
  4

  6

 40
0.0
 41
0.0
 42
0.0
 43
0.0
 44
0.0
 45
0.0
 46
0.0
 47
0.0
 48
0.0
 49
0.0
140
0.0
141
0.0
142
1.0
143
1.0
 70
  1712
 72
     0
 73
     0
 74
     0
  7

 75
     0
147
1.0
148
0.0
149
0.0
100
AcDbLayout
  1
Model
 70
     1
 71
     0
 10
0.0
 20
0.0
 11
12.0
 21
9.0
 12
0.0
 22
0.0
 32
0.0
 14
0.0
 24
0.0
 34
0.0
 15
0.0
 25
0.0
 35
0.0
146
0.0
 13
0.0
 23
0.0
 33
0.0
 16
1.0
 26
0.0
 36
0.0
 17
0.0
 27
1.0
 37
0.0
 76
     0
330
954C
331
9711
  0
LAYOUT
  5
9769
102
{ACAD_XDICTIONARY
360
97C6
102
}
102
{ACAD_REACTORS
330
9547
102
}
330
9547
100
AcDbPlotSettings
  1

  2
Canon LBP9100C
  4

  6

 40
0.0
 41
0.0
 42
0.0
 43
0.0
 44
0.0
 45
0.0
 46
0.0
 47
0.0
 48
0.0
 49
0.0
140
0.0
141
0.0
142
1.0
143
1.0
 70
   688
 72
     0
 73
     0
 74
     5
  7

 75
    16
147
1.0
148
0.0
149
0.0
100
AcDbLayout
  1
レイアウト1
 70
     0
 71
     1
 10
0.0
 20
0.0
 11
420.0
 21
297.0
 12
0.0
 22
0.0
 32
0.0
 14
1.000000000000000E+20
 24
1.000000000000000E+20
 34
1.000000000000000E+20
 15
-1.000000000000000E+20
 25
-1.000000000000000E+20
 35
-1.000000000000000E+20
146
0.0
 13
0.0
 23
0.0
 33
0.0
 16
1.0
 26
0.0
 36
0.0
 17
0.0
 27
1.0
 37
0.0
 76
     0
330
9548
  0
MATERIAL
  5
9724
102
{ACAD_XDICTIONARY
360
9725
102
}
102
{ACAD_REACTORS
330
971B
102
}
330
971B
100
AcDbMaterial
  1
ByBlock
 72
     0
 43
0.0208333333333333
 43
0.0
 43
0.0
 43
0.0
 43
0.0
 43
0.0208333333333333
 43
0.0
 43
0.0
 43
0.0
 43
0.0
 43
1.0
 43
0.0
 43
0.0
 43
0.0
 43
0.0
 43
1.0
 77
     0
 47
0.0208333333333333
 47
0.0
 47
0.0
 47
0.0
 47
0.0
 47
0.0208333333333333
 47
0.0
 47
0.0
 47
0.0
 47
0.0
 47
1.0
 47
0.0
 47
0.0
 47
0.0
 47
0.0
 47
1.0
171
     0
 49
0.0208333333333333
 49
0.0
 49
0.0
 49
0.0
 49
0.0
 49
0.0208333333333333
 49
0.0
 49
0.0
 49
0.0
 49
0.0
 49
1.0
 49
0.0
 49
0.0
 49
0.0
 49
0.0
 49
1.0
175
     0
142
0.0208333333333333
142
0.0
142
0.0
142
0.0
142
0.0
142
0.0208333333333333
142
0.0
142
0.0
142
0.0
142
0.0
142
1.0
142
0.0
142
0.0
142
0.0
142
0.0
142
1.0
179
     0
144
0.0208333333333333
144
0.0
144
0.0
144
0.0
144
0.0
144
0.0208333333333333
144
0.0
144
0.0
144
0.0
144
0.0
144
1.0
144
0.0
144
0.0
144
0.0
144
0.0
144
1.0
147
0.0208333333333333
147
0.0
147
0.0
147
0.0
147
0.0
147
0.0208333333333333
147
0.0
147
0.0
147
0.0
147
0.0
147
1.0
147
0.0
147
0.0
147
0.0
147
0.0
147
1.0
  0
MATERIAL
  5
971C
102
{ACAD_XDICTIONARY
360
971D
102
}
102
{ACAD_REACTORS
330
971B
102
}
330
971B
100
AcDbMaterial
  1
ByLayer
 72
     0
 43
0.0208333333333333
 43
0.0
 43
0.0
 43
0.0
 43
0.0
 43
0.0208333333333333
 43
0.0
 43
0.0
 43
0.0
 43
0.0
 43
1.0
 43
0.0
 43
0.0
 43
0.0
 43
0.0
 43
1.0
 77
     0
 47
0.0208333333333333
 47
0.0
 47
0.0
 47
0.0
 47
0.0
 47
0.0208333333333333
 47
0.0
 47
0.0
 47
0.0
 47
0.0
 47
1.0
 47
0.0
 47
0.0
 47
0.0
 47
0.0
 47
1.0
171
     0
 49
0.0208333333333333
 49
0.0
 49
0.0
 49
0.0
 49
0.0
 49
0.0208333333333333
 49
0.0
 49
0.0
 49
0.0
 49
0.0
 49
1.0
 49
0.0
 49
0.0
 49
0.0
 49
0.0
 49
1.0
175
     0
142
0.0208333333333333
142
0.0
142
0.0
142
0.0
142
0.0
142
0.0208333333333333
142
0.0
142
0.0
142
0.0
142
0.0
142
1.0
142
0.0
142
0.0
142
0.0
142
0.0
142
1.0
179
     0
144
0.0208333333333333
144
0.0
144
0.0
144
0.0
144
0.0
144
0.0208333333333333
144
0.0
144
0.0
144
0.0
144
0.0
144
1.0
144
0.0
144
0.0
144
0.0
144
0.0
144
1.0
147
0.0208333333333333
147
0.0
147
0.0
147
0.0
147
0.0
147
0.0208333333333333
147
0.0
147
0.0
147
0.0
147
0.0
147
1.0
147
0.0
147
0.0
147
0.0
147
0.0
147
1.0
  0
MATERIAL
  5
972C
102
{ACAD_XDICTIONARY
360
972D
102
}
102
{ACAD_REACTORS
330
971B
102
}
330
971B
100
AcDbMaterial
  1
Global
 72
     0
 43
0.0208333333333333
 43
0.0
 43
0.0
 43
0.0
 43
0.0
 43
0.0208333333333333
 43
0.0
 43
0.0
 43
0.0
 43
0.0
 43
1.0
 43
0.0
 43
0.0
 43
0.0
 43
0.0
 43
1.0
 77
     0
 47
0.0208333333333333
 47
0.0
 47
0.0
 47
0.0
 47
0.0
 47
0.0208333333333333
 47
0.0
 47
0.0
 47
0.0
 47
0.0
 47
1.0
 47
0.0
 47
0.0
 47
0.0
 47
0.0
 47
1.0
171
     0
 49
0.0208333333333333
 49
0.0
 49
0.0
 49
0.0
 49
0.0
 49
0.0208333333333333
 49
0.0
 49
0.0
 49
0.0
 49
0.0
 49
1.0
 49
0.0
 49
0.0
 49
0.0
 49
0.0
 49
1.0
175
     0
142
0.0208333333333333
142
0.0
142
0.0
142
0.0
142
0.0
142
0.0208333333333333
142
0.0
142
0.0
142
0.0
142
0.0
142
1.0
142
0.0
142
0.0
142
0.0
142
0.0
142
1.0
179
     0
144
0.0208333333333333
144
0.0
144
0.0
144
0.0
144
0.0
144
0.0208333333333333
144
0.0
144
0.0
144
0.0
144
0.0
144
1.0
144
0.0
144
0.0
144
0.0
144
0.0
144
1.0
147
0.0208333333333333
147
0.0
147
0.0
147
0.0
147
0.0
147
0.0208333333333333
147
0.0
147
0.0
147
0.0
147
0.0
147
1.0
147
0.0
147
0.0
147
0.0
147
0.0
147
1.0
  0
MLEADERSTYLE
  5
9763
102
{ACAD_REACTORS
330
9762
102
}
330
9762
100
AcDbMLeaderStyle
170
     2
171
     1
172
     0
 90
        2
 40
0.0
 41
0.0
173
     1
 91
-1056964608
340
9541
 92
       -2
290
     1
 42
0.09
291
     1
 43
0.36
  3
Standard
 44
0.18
300

342
953F
174
     1
178
     6
175
     1
176
     0
 93
-1056964608
 45
0.18
292
     0
297
     0
 46
0.18
 94
-1056964608
 47
1.0
 49
1.0
140
1.0
293
     1
141
0.0
294
     1
177
     0
142
1.0
295
     0
296
     0
143
0.125
1001
ACAD_MLEADERVER
1070
     2
  0
MLINESTYLE
  5
9545
102
{ACAD_REACTORS
330
9544
102
}
330
9544
100
AcDbMlineStyle
  2
STANDARD
 70
     0
  3

 62
   256
 51
90.0
 52
90.0
 71
     2
 49
0.5
 62
   256
  6
BYLAYER
 49
-0.5
 62
   256
  6
BYLAYER
  0
ACDBPLACEHOLDER
  5
971A
102
{ACAD_REACTORS
330
9719
102
}
330
9719
  0
SCALE
  5
9751
102
{ACAD_REACTORS
330
9750
102
}
330
9750
100
AcDbScale
 70
     0
300
1:1
140
1.0
141
1.0
290
     1
  0
SCALE
  5
9752
102
{ACAD_REACTORS
330
9750
102
}
330
9750
100
AcDbScale
 70
     0
300
1/128" = 1'-0"
140
0.0078125
141
12.0
290
     0
  0
SCALE
  5
9753
102
{ACAD_REACTORS
330
9750
102
}
330
9750
100
AcDbScale
 70
     0
300
1/64" = 1'-0"
140
0.015625
141
12.0
290
     0
  0
SCALE
  5
9754
102
{ACAD_REACTORS
330
9750
102
}
330
9750
100
AcDbScale
 70
     0
300
1/32" = 1'-0"
140
0.03125
141
12.0
290
     0
  0
SCALE
  5
9755
102
{ACAD_REACTORS
330
9750
102
}
330
9750
100
AcDbScale
 70
     0
300
1/16" = 1'-0"
140
0.0625
141
12.0
290
     0
  0
SCALE
  5
9756
102
{ACAD_REACTORS
330
9750
102
}
330
9750
100
AcDbScale
 70
     0
300
3/32" = 1'-0"
140
0.09375
141
12.0
290
     0
  0
SCALE
  5
9757
102
{ACAD_REACTORS
330
9750
102
}
330
9750
100
AcDbScale
 70
     0
300
1/8" = 1'-0"
140
0.125
141
12.0
290
     0
  0
SCALE
  5
9758
102
{ACAD_REACTORS
330
9750
102
}
330
9750
100
AcDbScale
 70
     0
300
3/16" = 1'-0"
140
0.1875
141
12.0
290
     0
  0
SCALE
  5
9759
102
{ACAD_REACTORS
330
9750
102
}
330
9750
100
AcDbScale
 70
     0
300
1/4" = 1'-0"
140
0.25
141
12.0
290
     0
  0
SCALE
  5
975A
102
{ACAD_REACTORS
330
9750
102
}
330
9750
100
AcDbScale
 70
     0
300
3/8" = 1'-0"
140
0.375
141
12.0
290
     0
  0
SCALE
  5
975B
102
{ACAD_REACTORS
330
9750
102
}
330
9750
100
AcDbScale
 70
     0
300
1/2" = 1'-0"
140
0.5
141
12.0
290
     0
  0
SCALE
  5
975C
102
{ACAD_REACTORS
330
9750
102
}
330
9750
100
AcDbScale
 70
     0
300
3/4" = 1'-0"
140
0.75
141
12.0
290
     0
  0
SCALE
  5
975D
102
{ACAD_REACTORS
330
9750
102
}
330
9750
100
AcDbScale
 70
     0
300
1" = 1'-0"
140
1.0
141
12.0
290
     0
  0
SCALE
  5
975E
102
{ACAD_REACTORS
330
9750
102
}
330
9750
100
AcDbScale
 70
     0
300
1-1/2" = 1'-0"
140
1.5
141
12.0
290
     0
  0
SCALE
  5
975F
102
{ACAD_REACTORS
330
9750
102
}
330
9750
100
AcDbScale
 70
     0
300
3" = 1'-0"
140
3.0
141
12.0
290
     0
  0
SCALE
  5
9760
102
{ACAD_REACTORS
330
9750
102
}
330
9750
100
AcDbScale
 70
     0
300
6" = 1'-0"
140
6.0
141
12.0
290
     0
  0
SCALE
  5
9761
102
{ACAD_REACTORS
330
9750
102
}
330
9750
100
AcDbScale
 70
     0
300
1'-0" = 1'-0"
140
12.0
141
12.0
290
     0
  0
ACDBSECTIONVIEWSTYLE
  5
9765
102
{ACAD_XDICTIONARY
360
97C0
102
}
102
{ACAD_REACTORS
330
9764
102
}
330
9764
100
AcDbModelDocViewStyle
 70
     0
  3
Imperial24
290
     0
100
AcDbSectionViewStyle
 70
     0
 71
     0
 90
       78
 71
     1
340
953F
 40
0.24
340
0
340
0
 40
0.24
300
I, O, Q, S, X, Z
 40
0.48
 90
        3
 40
0.18
 90
        1
 71
     2
340
9543
 90
       25
340
9543
 90
       50
 40
0.24
 40
0.0
 40
0.24
 71
     3
340
953F
 40
0.24
 90
        1
 40
0.75
 90
        1
300
%<\AcVar ViewType \f "%tc1">% %<\AcVar ViewSectionStartId>%-%<\AcVar ViewSectionEndId>%\PSCALE %<\AcVar ViewScale \f "%sn">%
 71
     4
300
ANSI31
 40
1.0
 90
        0
290
     0
290
     0
 90
        6
 40
0.0
 40
1.570796326794896
 40
0.2617993877991494
 40
1.308996938995747
 40
-0.2617993877991494
 40
1.832595714594046
  0
TABLESTYLE
  5
974F
102
{ACAD_XDICTIONARY
360
9787
102
}
102
{ACAD_REACTORS
330
974E
102
}
330
974E
100
AcDbTableStyle
  3
Standard
 70
     0
 71
     0
 40
0.06
 41
0.06
280
     0
281
     0
  7
STANDARD
140
0.18
170
     2
 62
     0
 63
     7
283
     0
274
    -2
284
     1
 64
     0
275
    -2
285
     1
 65
     0
276
    -2
286
     1
 66
     0
277
    -2
287
     1
 67
     0
278
    -2
288
     1
 68
     0
279
    -2
289
     1
 69
     0
  7
STANDARD
140
0.25
170
     5
 62
     0
 63
     7
283
     0
274
    -2
284
     1
 64
     0
275
    -2
285
     1
 65
     0
276
    -2
286
     1
 66
     0
277
    -2
287
     1
 67
     0
278
    -2
288
     1
 68
     0
279
    -2
289
     1
 69
     0
  7
STANDARD
140
0.18
170
     5
 62
     0
 63
     7
283
     0
274
    -2
284
     1
 64
     0
275
    -2
285
     1
 65
     0
276
    -2
286
     1
 66
     0
277
    -2
287
     1
 67
     0
278
    -2
288
     1
 68
     0
279
    -2
289
     1
 69
     0
  0
VISUALSTYLE
  5
973A
102
{ACAD_XDICTIONARY
360
9798
102
}
102
{ACAD_REACTORS
330
9734
102
}
330
9734
100
AcDbVisualStyle
  2
2dWireframe
 70
     4
 71
     0
 72
     2
 73
     0
 90
        0
 40
-0.6
 41
-30.0
 62
     5
 63
     7
 74
     1
 91
        4
 64
     7
 65
   257
 75
     1
175
     1
 42
1.0
 92
        0
 66
   257
 43
1.0
 76
     1
 77
     6
 78
     2
 67
     7
 79
     5
170
     0
171
     0
290
     0
174
     0
 93
        1
 44
0.0
173
     0
291
     0
 45
0.0
1001
ACAD
1000
AcDbSavedByObjectVersion
1070
     0
  0
VISUALSTYLE
  5
9739
102
{ACAD_XDICTIONARY
360
9796
102
}
102
{ACAD_REACTORS
330
9734
102
}
330
9734
100
AcDbVisualStyle
  2
Basic
 70
     7
 71
     1
 72
     0
 73
     1
 90
        0
 40
-0.6
 41
-30.0
 62
     5
 63
     7
 74
     0
 91
        4
 64
     7
 65
   257
 75
     1
175
     1
 42
1.0
 92
        8
 66
     7
 43
1.0
 76
     1
 77
     6
 78
     2
 67
     7
 79
     5
170
     0
171
     0
290
     0
174
     0
 93
        1
 44
0.0
173
     0
291
     1
 45
0.0
1001
ACAD
1000
AcDbSavedByObjectVersion
1070
     0
  0
VISUALSTYLE
  5
9740
102
{ACAD_XDICTIONARY
360
97A4
102
}
102
{ACAD_REACTORS
330
9734
102
}
330
9734
100
AcDbVisualStyle
  2
Brighten
 70
    12
 71
     2
 72
     2
 73
     0
 90
        0
 40
-0.6
 41
-30.0
 62
     5
 63
     7
 74
     1
 91
        4
 64
     7
 65
   257
 75
     1
175
     1
 42
1.0
 92
        8
 66
     7
 43
1.0
 76
     1
 77
     6
 78
     2
 67
     7
 79
     5
170
     0
171
     0
290
     0
174
     0
 93
        1
 44
50.0
173
     0
291
     1
 45
0.0
1001
ACAD
1000
AcDbSavedByObjectVersion
1070
     0
  0
VISUALSTYLE
  5
9744
102
{ACAD_XDICTIONARY
360
97AC
102
}
102
{ACAD_REACTORS
330
9734
102
}
330
9734
100
AcDbVisualStyle
  2
ColorChange
 70
    16
 71
     2
 72
     2
 73
     3
 90
        0
 40
-0.6
 41
-30.0
 62
     5
 63
     8
 74
     1
 91
        4
 64
     7
 65
   257
 75
     1
175
     1
 42
1.0
 92
        8
 66
     8
 43
1.0
 76
     1
 77
     6
 78
     2
 67
     7
 79
     5
170
     0
171
     0
290
     0
174
     0
 93
        1
 44
0.0
173
     0
291
     1
 45
0.0
1001
ACAD
1000
AcDbSavedByObjectVersion
1070
     0
  0
VISUALSTYLE
  5
973D
102
{ACAD_XDICTIONARY
360
979E
102
}
102
{ACAD_REACTORS
330
9734
102
}
330
9734
100
AcDbVisualStyle
  2
Conceptual
 70
     9
 71
     3
 72
     2
 73
     0
 90
        0
 40
-0.6
 41
-30.0
 62
     5
 63
     7
 74
     2
 91
        2
 64
     7
 65
   257
 75
     1
175
     1
 42
179.0
 92
        8
 66
     7
 43
1.0
 76
     1
 77
     6
 78
     2
 67
     7
 79
     3
170
     0
171
     0
290
     0
174
     0
 93
        1
 44
0.0
173
     0
291
     0
 45
0.0
1001
ACAD
1000
AcDbSavedByObjectVersion
1070
     0
  0
VISUALSTYLE
  5
973F
102
{ACAD_XDICTIONARY
360
97A2
102
}
102
{ACAD_REACTORS
330
9734
102
}
330
9734
100
AcDbVisualStyle
  2
Dim
 70
    11
 71
     2
 72
     2
 73
     0
 90
        0
 40
-0.6
 41
-30.0
 62
     5
 63
     7
 74
     1
 91
        4
 64
     7
 65
   257
 75
     1
175
     1
 42
1.0
 92
        8
 66
     7
 43
1.0
 76
     1
 77
     6
 78
     2
 67
     7
 79
     5
170
     0
171
     0
290
     0
174
     0
 93
        1
 44
-50.0
173
     0
291
     1
 45
0.0
1001
ACAD
1000
AcDbSavedByObjectVersion
1070
     0
  0
VISUALSTYLE
  5
974C
102
{ACAD_XDICTIONARY
360
97BC
102
}
102
{ACAD_REACTORS
330
9734
102
}
330
9734
100
AcDbVisualStyle
  2
EdgeColorOff
 70
    22
 71
     2
 72
     2
 73
     0
 90
        0
 40
-0.6
 41
-30.0
 62
     5
 63
     7
 74
     1
 91
        4
 64
     7
 65
   257
 75
     1
175
     1
 42
1.0
 92
        8
 66
     7
 43
1.0
 76
     1
 77
     6
 78
     2
 67
     7
 79
     5
170
     0
171
     0
290
     0
174
     0
 93
        1
 44
0.0
173
     0
291
     1
 45
0.0
1001
ACAD
1000
AcDbSavedByObjectVersion
1070
     0
  0
VISUALSTYLE
  5
9743
102
{ACAD_XDICTIONARY
360
97AA
102
}
102
{ACAD_REACTORS
330
9734
102
}
330
9734
100
AcDbVisualStyle
  2
Facepattern
 70
    15
 71
     2
 72
     2
 73
     0
 90
        0
 40
-0.6
 41
-30.0
 62
     5
 63
     7
 74
     1
 91
        4
 64
     7
 65
   257
 75
     1
175
     1
 42
1.0
 92
        8
 66
     7
 43
1.0
 76
     1
 77
     6
 78
     2
 67
     7
 79
     5
170
     0
171
     0
290
     0
174
     0
 93
        1
 44
0.0
173
     0
291
     1
 45
0.0
1001
ACAD
1000
AcDbSavedByObjectVersion
1070
     0
  0
VISUALSTYLE
  5
9735
102
{ACAD_XDICTIONARY
360
978E
102
}
102
{ACAD_REACTORS
330
9734
102
}
330
9734
100
AcDbVisualStyle
  2
Flat
 70
     0
 71
     2
 72
     1
 73
     1
 90
        2
 40
-0.6
 41
30.0
 62
     5
 63
     7
 74
     0
 91
        0
 64
     7
 65
   257
 75
     1
175
     1
 42
1.0
 92
        8
 66
     7
 43
1.0
 76
     1
 77
     6
 78
     2
 67
     7
 79
     5
170
     0
171
     0
290
     0
174
     0
 93
       13
 44
0.0
173
     0
291
     1
 45
0.0
1001
ACAD
1000
AcDbSavedByObjectVersion
1070
     0
  0
VISUALSTYLE
  5
9736
102
{ACAD_XDICTIONARY
360
9790
102
}
102
{ACAD_REACTORS
330
9734
102
}
330
9734
100
AcDbVisualStyle
  2
FlatWithEdges
 70
     1
 71
     2
 72
     1
 73
     1
 90
        2
 40
-0.6
 41
30.0
 62
     5
 63
     7
 74
     1
 91
        0
 64
     7
 65
   257
 75
     1
175
     1
 42
1.0
 92
        0
 66
   257
 43
1.0
 76
     1
 77
     6
 78
     2
 67
     7
 79
     5
170
     0
171
     0
290
     0
174
     0
 93
       13
 44
0.0
173
     0
291
     1
 45
0.0
1001
ACAD
1000
AcDbSavedByObjectVersion
1070
     0
  0
VISUALSTYLE
  5
9737
102
{ACAD_XDICTIONARY
360
9792
102
}
102
{ACAD_REACTORS
330
9734
102
}
330
9734
100
AcDbVisualStyle
  2
Gouraud
 70
     2
 71
     2
 72
     2
 73
     1
 90
        2
 40
-0.6
 41
30.0
 62
     5
 63
     7
 74
     0
 91
        0
 64
     7
 65
   257
 75
     1
175
     1
 42
1.0
 92
        0
 66
     7
 43
1.0
 76
     1
 77
     6
 78
     2
 67
     7
 79
     5
170
     0
171
     0
290
     0
174
     0
 93
       13
 44
0.0
173
     0
291
     1
 45
0.0
1001
ACAD
1000
AcDbSavedByObjectVersion
1070
     0
  0
VISUALSTYLE
  5
9738
102
{ACAD_XDICTIONARY
360
9794
102
}
102
{ACAD_REACTORS
330
9734
102
}
330
9734
100
AcDbVisualStyle
  2
GouraudWithEdges
 70
     3
 71
     2
 72
     2
 73
     1
 90
        2
 40
-0.6
 41
30.0
 62
     5
 63
     7
 74
     1
 91
        0
 64
     7
 65
   257
 75
     1
175
     1
 42
1.0
 92
        0
 66
   257
 43
1.0
 76
     1
 77
     6
 78
     2
 67
     7
 79
     5
170
     0
171
     0
290
     0
174
     0
 93
       13
 44
0.0
173
     0
291
     1
 45
0.0
1001
ACAD
1000
AcDbSavedByObjectVersion
1070
     0
  0
VISUALSTYLE
  5
973C
102
{ACAD_XDICTIONARY
360
979C
102
}
102
{ACAD_REACTORS
330
9734
102
}
330
9734
100
AcDbVisualStyle
  2
Hidden
 70
     6
 71
     1
 72
     2
 73
     2
 90
        0
 40
-0.6
 41
-30.0
 62
     5
 63
     7
 74
     2
 91
        2
 64
     7
 65
   257
 75
     2
175
     1
 42
40.0
 92
        0
 66
   257
 43
1.0
 76
     1
 77
     6
 78
     2
 67
     7
 79
     3
170
     0
171
     0
290
     0
174
     0
 93
        1
 44
0.0
173
     0
291
     0
 45
0.0
1001
ACAD
1000
AcDbSavedByObjectVersion
1070
     0
  0
VISUALSTYLE
  5
974A
102
{ACAD_XDICTIONARY
360
97B8
102
}
102
{ACAD_REACTORS
330
9734
102
}
330
9734
100
AcDbVisualStyle
  2
JitterOff
 70
    20
 71
     2
 72
     2
 73
     0
 90
        0
 40
-0.6
 41
-30.0
 62
     5
 63
     7
 74
     1
 91
        4
 64
     7
 65
   257
 75
     1
175
     1
 42
1.0
 92
       10
 66
     7
 43
1.0
 76
     1
 77
     6
 78
     2
 67
     7
 79
     5
170
     0
171
     0
290
     0
174
     0
 93
        1
 44
0.0
173
     0
291
     1
 45
0.0
1001
ACAD
1000
AcDbSavedByObjectVersion
1070
     0
  0
VISUALSTYLE
  5
9742
102
{ACAD_XDICTIONARY
360
97A8
102
}
102
{ACAD_REACTORS
330
9734
102
}
330
9734
100
AcDbVisualStyle
  2
Linepattern
 70
    14
 71
     2
 72
     2
 73
     0
 90
        0
 40
-0.6
 41
-30.0
 62
     5
 63
     7
 74
     1
 91
        4
 64
     7
 65
   257
 75
     7
175
     7
 42
1.0
 92
        8
 66
     7
 43
1.0
 76
     1
 77
     6
 78
     2
 67
     7
 79
     5
170
     0
171
     0
290
     0
174
     0
 93
        1
 44
0.0
173
     0
291
     1
 45
0.0
1001
ACAD
1000
AcDbSavedByObjectVersion
1070
     0
  0
VISUALSTYLE
  5
974B
102
{ACAD_XDICTIONARY
360
97BA
102
}
102
{ACAD_REACTORS
330
9734
102
}
330
9734
100
AcDbVisualStyle
  2
OverhangOff
 70
    21
 71
     2
 72
     2
 73
     0
 90
        0
 40
-0.6
 41
-30.0
 62
     5
 63
     7
 74
     1
 91
        4
 64
     7
 65
   257
 75
     1
175
     1
 42
1.0
 92
        9
 66
     7
 43
1.0
 76
     1
 77
     6
 78
     2
 67
     7
 79
     5
170
     0
171
     0
290
     0
174
     0
 93
        1
 44
0.0
173
     0
291
     1
 45
0.0
1001
ACAD
1000
AcDbSavedByObjectVersion
1070
     0
  0
VISUALSTYLE
  5
973E
102
{ACAD_XDICTIONARY
360
97A0
102
}
102
{ACAD_REACTORS
330
9734
102
}
330
9734
100
AcDbVisualStyle
  2
Realistic
 70
     8
 71
     2
 72
     3
 73
     0
 90
        2
 40
-0.6
 41
30.0
 62
     5
 63
     7
 74
     0
 91
        0
 64
     7
 65
   257
 75
     1
175
     1
 42
1.0
 92
        8
 66
   257
 43
1.0
 76
     1
 77
     6
 78
     2
 67
     7
 79
     3
170
     0
171
     0
290
     0
174
     0
 93
       13
 44
0.0
173
     0
291
     0
 45
0.0
1001
ACAD
1000
AcDbSavedByObjectVersion
1070
     0
  0
VISUALSTYLE
  5
9749
102
{ACAD_XDICTIONARY
360
97B6
102
}
102
{ACAD_REACTORS
330
9734
102
}
330
9734
100
AcDbVisualStyle
  2
Shaded
 70
    27
 71
     2
 72
     2
 73
     1
 90
        2
 40
-0.6
 41
30.0
 62
     5
 63
     7
 74
     0
 91
        4
 64
     7
 65
   257
 75
     1
175
     1
 42
1.0
 92
        8
 66
   257
 43
1.0
 76
     1
 77
     6
 78
     2
 67
     8
 79
     3
170
     0
171
     0
290
     0
174
     0
 93
        5
 44
0.0
173
     0
291
     0
 45
0.0
1001
ACAD
1000
AcDbSavedByObjectVersion
1070
     0
  0
VISUALSTYLE
  5
9748
102
{ACAD_XDICTIONARY
360
97B4
102
}
102
{ACAD_REACTORS
330
9734
102
}
330
9734
100
AcDbVisualStyle
  2
Shaded with edges
 70
    26
 71
     2
 72
     2
 73
     1
 90
        2
 40
-0.6
 41
30.0
 62
     5
 63
     7
 74
     1
 91
       10
 64
     7
 65
   257
 75
     2
175
     1
 42
1.0
 92
        8
 66
   257
 43
1.0
 76
     1
 77
     6
 78
     2
 67
     7
 79
     3
170
     0
171
     0
290
     0
174
     0
 93
        5
 44
0.0
173
     0
291
     0
 45
0.0
1001
ACAD
1000
AcDbSavedByObjectVersion
1070
     0
  0
VISUALSTYLE
  5
9745
102
{ACAD_XDICTIONARY
360
97AE
102
}
102
{ACAD_REACTORS
330
9734
102
}
330
9734
100
AcDbVisualStyle
  2
Shades of Gray
 70
    23
 71
     2
 72
     2
 73
     3
 90
        0
 40
-0.6
 41
-30.0
 62
     5
 63
     7
 74
     2
 91
        2
 64
     7
 65
     7
 75
     1
175
     1
 42
40.0
 92
        8
 66
     7
 43
1.0
 76
     1
 77
     6
 78
     2
 67
     7
 79
     3
170
     0
171
     0
290
     0
174
     0
 93
        1
 44
0.0
173
     0
291
     0
 45
0.0
1001
ACAD
1000
AcDbSavedByObjectVersion
1070
     0
  0
VISUALSTYLE
  5
9746
102
{ACAD_XDICTIONARY
360
97B0
102
}
102
{ACAD_REACTORS
330
9734
102
}
330
9734
100
AcDbVisualStyle
  2
Sketchy
 70
    24
 71
     1
 72
     2
 73
     2
 90
        0
 40
-0.6
 41
-30.0
 62
     5
 63
     7
 74
     2
 91
        2
 64
     7
 65
     7
 75
     1
175
     1
 42
40.0
 92
       11
 66
     7
 43
1.0
 76
     1
 77
     6
 78
     2
 67
     7
 79
     6
170
     0
171
     0
290
     0
174
     0
 93
        1
 44
0.0
173
     0
291
     0
 45
0.0
1001
ACAD
1000
AcDbSavedByObjectVersion
1070
     0
  0
VISUALSTYLE
  5
9741
102
{ACAD_XDICTIONARY
360
97A6
102
}
102
{ACAD_REACTORS
330
9734
102
}
330
9734
100
AcDbVisualStyle
  2
Thicken
 70
    13
 71
     2
 72
     2
 73
     0
 90
        0
 40
-0.6
 41
-30.0
 62
     5
 63
     7
 74
     1
 91
        4
 64
     7
 65
   257
 75
     1
175
     1
 42
1.0
 92
       12
 66
     7
 43
1.0
 76
     1
 77
     6
 78
     2
 67
     7
 79
     5
170
     0
171
     0
290
     0
174
     0
 93
        1
 44
0.0
173
     0
291
     1
 45
0.0
1001
ACAD
1000
AcDbSavedByObjectVersion
1070
     0
  0
VISUALSTYLE
  5
973B
102
{ACAD_XDICTIONARY
360
979A
102
}
102
{ACAD_REACTORS
330
9734
102
}
330
9734
100
AcDbVisualStyle
  2
Wireframe
 70
     5
 71
     0
 72
     2
 73
     0
 90
        0
 40
-0.6
 41
-30.0
 62
     5
 63
     7
 74
     1
 91
        4
 64
     7
 65
   257
 75
     1
175
     1
 42
1.0
 92
        0
 66
   257
 43
1.0
 76
     1
 77
     6
 78
     2
 67
     7
 79
     3
170
     0
171
     0
290
     0
174
     0
 93
        1
 44
0.0
173
     0
291
     0
 45
0.0
1001
ACAD
1000
AcDbSavedByObjectVersion
1070
     0
  0
VISUALSTYLE
  5
9747
102
{ACAD_XDICTIONARY
360
97B2
102
}
102
{ACAD_REACTORS
330
9734
102
}
330
9734
100
AcDbVisualStyle
  2
X-Ray
 70
    25
 71
     2
 72
     2
 73
     1
 90
        1
 40
0.5
 41
-30.0
 62
     5
 63
     7
 74
     1
 91
        0
 64
     7
 65
   257
 75
     1
175
     1
 42
1.0
 92
        8
 66
     7
 43
1.0
 76
     1
 77
     6
 78
     2
 67
     7
 79
     3
170
     0
171
     0
290
     0
174
     0
 93
       13
 44
0.0
173
     0
291
     0
 45
0.0
1001
ACAD
1000
AcDbSavedByObjectVersion
1070
     0
  0
DICTIONARYVAR
  5
9781
102
{ACAD_REACTORS
330
977C
102
}
330
977C
100
DictionaryVariables
280
     0
  1
1:1
  0
DICTIONARYVAR
  5
977E
102
{ACAD_REACTORS
330
977C
102
}
330
977C
100
DictionaryVariables
280
     0
  1
STANDARD
  0
DICTIONARYVAR
  5
977D
102
{ACAD_REACTORS
330
977C
102
}
330
977C
100
DictionaryVariables
280
     0
  1
STANDARD
  0
DICTIONARYVAR
  5
977F
102
{ACAD_REACTORS
330
977C
102
}
330
977C
100
DictionaryVariables
280
     0
  1
Imperial24
  0
DICTIONARYVAR
  5
9780
102
{ACAD_REACTORS
330
977C
102
}
330
977C
100
DictionaryVariables
280
     0
  1
Imperial24
  0
DICTIONARYVAR
  5
9784
102
{ACAD_REACTORS
330
977C
102
}
330
977C
100
DictionaryVariables
280
     0
  1
1
  0
DICTIONARYVAR
  5
9783
102
{ACAD_REACTORS
330
977C
102
}
330
977C
100
DictionaryVariables
280
     0
  1
0
  0
DICTIONARYVAR
  5
9782
102
{ACAD_REACTORS
330
977C
102
}
330
977C
100
DictionaryVariables
280
     0
  1
127
  0
DICTIONARYVAR
  5
9785
102
{ACAD_REACTORS
330
977C
102
}
330
977C
100
DictionaryVariables
280
     0
  1
2
  0
DICTIONARY
  5
97C2
330
9767
100
AcDbDictionary
280
     1
281
     1
  3
ACAD_XREC_ROUNDTRIP
360
97C3
  0
DICTIONARY
  5
97C4
330
9768
100
AcDbDictionary
280
     1
281
     1
  3
ACAD_XREC_ROUNDTRIP
360
97C5
  0
DICTIONARY
  5
97C6
330
9769
100
AcDbDictionary
280
     1
281
     1
  3
ACAD_XREC_ROUNDTRIP
360
97C7
  0
DICTIONARY
  5
9725
330
9724
100
AcDbDictionary
280
     1
281
     1
  3
ACAD_XREC_ROUNDTRIP
360
978C
  3
BUMPTILE
360
9727
  3
DIFFUSETILE
360
9726
  3
OPACITYTILE
360
972A
  3
REFLECTIONTILE
360
9729
  3
REFRACTIONTILE
360
972B
  3
SPECULARTILE
360
9728
  0
DICTIONARY
  5
971D
330
971C
100
AcDbDictionary
280
     1
281
     1
  3
ACAD_XREC_ROUNDTRIP
360
978B
  3
BUMPTILE
360
971F
  3
DIFFUSETILE
360
971E
  3
OPACITYTILE
360
9722
  3
REFLECTIONTILE
360
9721
  3
REFRACTIONTILE
360
9723
  3
SPECULARTILE
360
9720
  0
DICTIONARY
  5
972D
330
972C
100
AcDbDictionary
280
     1
281
     1
  3
ACAD_XREC_ROUNDTRIP
360
978D
  3
BUMPTILE
360
972F
  3
DIFFUSETILE
360
972E
  3
OPACITYTILE
360
9732
  3
REFLECTIONTILE
360
9731
  3
REFRACTIONTILE
360
9733
  3
SPECULARTILE
360
9730
  0
DICTIONARY
  5
97C0
330
9765
100
AcDbDictionary
280
     1
281
     1
  3
ACAD_XREC_ROUNDTRIP
360
97C1
  0
DICTIONARY
  5
9787
330
974F
100
AcDbDictionary
280
     1
281
     1
  3
ACAD_ROUNDTRIP_2008_TABLESTYLE_CELLSTYLEMAP
360
9788
  3
ACAD_XREC_ROUNDTRIP
360
97BE
  0
DICTIONARY
  5
9798
330
973A
100
AcDbDictionary
280
     1
281
     1
  3
ACAD_XREC_ROUNDTRIP
360
9799
  0
DICTIONARY
  5
9796
330
9739
100
AcDbDictionary
280
     1
281
     1
  3
ACAD_XREC_ROUNDTRIP
360
9797
  0
DICTIONARY
  5
97A4
330
9740
100
AcDbDictionary
280
     1
281
     1
  3
ACAD_XREC_ROUNDTRIP
360
97A5
  0
DICTIONARY
  5
97AC
330
9744
100
AcDbDictionary
280
     1
281
     1
  3
ACAD_XREC_ROUNDTRIP
360
97AD
  0
DICTIONARY
  5
979E
330
973D
100
AcDbDictionary
280
     1
281
     1
  3
ACAD_XREC_ROUNDTRIP
360
979F
  0
DICTIONARY
  5
97A2
330
973F
100
AcDbDictionary
280
     1
281
     1
  3
ACAD_XREC_ROUNDTRIP
360
97A3
  0
DICTIONARY
  5
97BC
330
974C
100
AcDbDictionary
280
     1
281
     1
  3
ACAD_XREC_ROUNDTRIP
360
97BD
  0
DICTIONARY
  5
97AA
330
9743
100
AcDbDictionary
280
     1
281
     1
  3
ACAD_XREC_ROUNDTRIP
360
97AB
  0
DICTIONARY
  5
978E
330
9735
100
AcDbDictionary
280
     1
281
     1
  3
ACAD_XREC_ROUNDTRIP
360
978F
  0
DICTIONARY
  5
9790
330
9736
100
AcDbDictionary
280
     1
281
     1
  3
ACAD_XREC_ROUNDTRIP
360
9791
  0
DICTIONARY
  5
9792
330
9737
100
AcDbDictionary
280
     1
281
     1
  3
ACAD_XREC_ROUNDTRIP
360
9793
  0
DICTIONARY
  5
9794
330
9738
100
AcDbDictionary
280
     1
281
     1
  3
ACAD_XREC_ROUNDTRIP
360
9795
  0
DICTIONARY
  5
979C
330
973C
100
AcDbDictionary
280
     1
281
     1
  3
ACAD_XREC_ROUNDTRIP
360
979D
  0
DICTIONARY
  5
97B8
330
974A
100
AcDbDictionary
280
     1
281
     1
  3
ACAD_XREC_ROUNDTRIP
360
97B9
  0
DICTIONARY
  5
97A8
330
9742
100
AcDbDictionary
280
     1
281
     1
  3
ACAD_XREC_ROUNDTRIP
360
97A9
  0
DICTIONARY
  5
97BA
330
974B
100
AcDbDictionary
280
     1
281
     1
  3
ACAD_XREC_ROUNDTRIP
360
97BB
  0
DICTIONARY
  5
97A0
330
973E
100
AcDbDictionary
280
     1
281
     1
  3
ACAD_XREC_ROUNDTRIP
360
97A1
  0
DICTIONARY
  5
97B6
330
9749
100
AcDbDictionary
280
     1
281
     1
  3
ACAD_XREC_ROUNDTRIP
360
97B7
  0
DICTIONARY
  5
97B4
330
9748
100
AcDbDictionary
280
     1
281
     1
  3
ACAD_XREC_ROUNDTRIP
360
97B5
  0
DICTIONARY
  5
97AE
330
9745
100
AcDbDictionary
280
     1
281
     1
  3
ACAD_XREC_ROUNDTRIP
360
97AF
  0
DICTIONARY
  5
97B0
330
9746
100
AcDbDictionary
280
     1
281
     1
  3
ACAD_XREC_ROUNDTRIP
360
97B1
  0
DICTIONARY
  5
97A6
330
9741
100
AcDbDictionary
280
     1
281
     1
  3
ACAD_XREC_ROUNDTRIP
360
97A7
  0
DICTIONARY
  5
979A
330
973B
100
AcDbDictionary
280
     1
281
     1
  3
ACAD_XREC_ROUNDTRIP
360
979B
  0
DICTIONARY
  5
97B2
330
9747
100
AcDbDictionary
280
     1
281
     1
  3
ACAD_XREC_ROUNDTRIP
360
97B3
  0
XRECORD
  5
97C3
102
{ACAD_REACTORS
330
97C2
102
}
330
97C2
100
AcDbXrecord
280
     1
102
DISPLAYNAME
  1
Imperial24
102
FLAGS
 90
        0
  0
XRECORD
  5
97C5
102
{ACAD_REACTORS
330
97C4
102
}
330
97C4
100
AcDbXrecord
280
     1
102
SHADEPLOT
 70
     0
102
SHADEPLOTRESLEVEL
 70
     2
102
SHADEPLOTCUSTOMDPI
 70
   300
  0
XRECORD
  5
97C7
102
{ACAD_REACTORS
330
97C6
102
}
330
97C6
100
AcDbXrecord
280
     1
102
SHADEPLOT
 70
     0
102
SHADEPLOTRESLEVEL
 70
     2
102
SHADEPLOTCUSTOMDPI
 70
   300
  0
XRECORD
  5
978C
102
{ACAD_REACTORS
330
9725
102
}
330
9725
100
AcDbXrecord
280
     1
102
MATERIAL
148
0.0
149
0.0
149
0.0
 93
        0
 94
      127
282
     0
 72
     0
 77
     0
171
     0
175
     0
179
     0
273
     0
  0
XRECORD
  5
9727
102
{ACAD_REACTORS
330
9725
102
}
330
9725
100
AcDbXrecord
280
     1
270
     1
271
     1
  0
XRECORD
  5
9726
102
{ACAD_REACTORS
330
9725
102
}
330
9725
100
AcDbXrecord
280
     1
270
     1
271
     1
  0
XRECORD
  5
972A
102
{ACAD_REACTORS
330
9725
102
}
330
9725
100
AcDbXrecord
280
     1
270
     1
271
     1
  0
XRECORD
  5
9729
102
{ACAD_REACTORS
330
9725
102
}
330
9725
100
AcDbXrecord
280
     1
270
     1
271
     1
  0
XRECORD
  5
972B
102
{ACAD_REACTORS
330
9725
102
}
330
9725
100
AcDbXrecord
280
     1
270
     1
271
     1
  0
XRECORD
  5
9728
102
{ACAD_REACTORS
330
9725
102
}
330
9725
100
AcDbXrecord
280
     1
270
     1
271
     1
  0
XRECORD
  5
978B
102
{ACAD_REACTORS
330
971D
102
}
330
971D
100
AcDbXrecord
280
     1
102
MATERIAL
148
0.0
149
0.0
149
0.0
 93
        0
 94
      127
282
     0
 72
     0
 77
     0
171
     0
175
     0
179
     0
273
     0
  0
XRECORD
  5
971F
102
{ACAD_REACTORS
330
971D
102
}
330
971D
100
AcDbXrecord
280
     1
270
     1
271
     1
  0
XRECORD
  5
971E
102
{ACAD_REACTORS
330
971D
102
}
330
971D
100
AcDbXrecord
280
     1
270
     1
271
     1
  0
XRECORD
  5
9722
102
{ACAD_REACTORS
330
971D
102
}
330
971D
100
AcDbXrecord
280
     1
270
     1
271
     1
  0
XRECORD
  5
9721
102
{ACAD_REACTORS
330
971D
102
}
330
971D
100
AcDbXrecord
280
     1
270
     1
271
     1
  0
XRECORD
  5
9723
102
{ACAD_REACTORS
330
971D
102
}
330
971D
100
AcDbXrecord
280
     1
270
     1
271
     1
  0
XRECORD
  5
9720
102
{ACAD_REACTORS
330
971D
102
}
330
971D
100
AcDbXrecord
280
     1
270
     1
271
     1
  0
XRECORD
  5
978D
102
{ACAD_REACTORS
330
972D
102
}
330
972D
100
AcDbXrecord
280
     1
102
MATERIAL
148
0.0
149
0.0
149
0.0
 93
        0
 94
      127
282
     0
 72
     0
 77
     0
171
     0
175
     0
179
     0
273
     0
  0
XRECORD
  5
972F
102
{ACAD_REACTORS
330
972D
102
}
330
972D
100
AcDbXrecord
280
     1
270
     1
271
     1
  0
XRECORD
  5
972E
102
{ACAD_REACTORS
330
972D
102
}
330
972D
100
AcDbXrecord
280
     1
270
     1
271
     1
  0
XRECORD
  5
9732
102
{ACAD_REACTORS
330
972D
102
}
330
972D
100
AcDbXrecord
280
     1
270
     1
271
     1
  0
XRECORD
  5
9731
102
{ACAD_REACTORS
330
972D
102
}
330
972D
100
AcDbXrecord
280
     1
270
     1
271
     1
  0
XRECORD
  5
9733
102
{ACAD_REACTORS
330
972D
102
}
330
972D
100
AcDbXrecord
280
     1
270
     1
271
     1
  0
XRECORD
  5
9730
102
{ACAD_REACTORS
330
972D
102
}
330
972D
100
AcDbXrecord
280
     1
270
     1
271
     1
  0
XRECORD
  5
97C1
102
{ACAD_REACTORS
330
97C0
102
}
330
97C0
100
AcDbXrecord
280
     1
102
DISPLAYNAME
  1
Imperial24
102
FLAGS
 90
        0
  0
CELLSTYLEMAP
  5
9788
102
{ACAD_REACTORS
330
9787
102
}
330
9787
100
AcDbCellStyleMap
 90
        3
300
CELLSTYLE
  1
TABLEFORMAT_BEGIN
 90
        5
170
     1
 91
        0
 92
    32768
 62
   257
 93
        1
300
CONTENTFORMAT
  1
CONTENTFORMAT_BEGIN
 90
        0
 91
        0
 92
      512
 93
        0
300

 40
0.0
140
1.0
 94
        5
 62
     0
340
953F
144
0.25
309
CONTENTFORMAT_END
171
     0
 94
        0
309
TABLEFORMAT_END
  1
CELLSTYLE_BEGIN
 90
        1
 91
        1
300
_TITLE
309
CELLSTYLE_END
300
CELLSTYLE
  1
TABLEFORMAT_BEGIN
 90
        5
170
     1
 91
        0
 92
        0
 62
   257
 93
        1
300
CONTENTFORMAT
  1
CONTENTFORMAT_BEGIN
 90
        0
 91
        0
 92
      512
 93
        0
300

 40
0.0
140
1.0
 94
        5
 62
     0
340
953F
144
0.18
309
CONTENTFORMAT_END
171
     0
 94
        0
309
TABLEFORMAT_END
  1
CELLSTYLE_BEGIN
 90
        2
 91
        1
300
_HEADER
309
CELLSTYLE_END
300
CELLSTYLE
  1
TABLEFORMAT_BEGIN
 90
        5
170
     1
 91
        0
 92
        0
 62
   257
 93
        1
300
CONTENTFORMAT
  1
CONTENTFORMAT_BEGIN
 90
        0
 91
        0
 92
      512
 93
        0
300

 40
0.0
140
1.0
 94
        2
 62
     0
340
953F
144
0.18
309
CONTENTFORMAT_END
171
     0
 94
        0
309
TABLEFORMAT_END
  1
CELLSTYLE_BEGIN
 90
        3
 91
        2
300
_DATA
309
CELLSTYLE_END
  0
XRECORD
  5
97BE
102
{ACAD_REACTORS
330
9787
102
}
330
9787
100
AcDbXrecord
280
     1
102
ACAD_ROUNDTRIP_PRE2007_TABLESTYLE
 90
      512
 91
        0
  1

 92
      512
 93
        0
  2

 94
      512
 95
        0
  3

  0
XRECORD
  5
9799
102
{ACAD_REACTORS
330
9798
102
}
330
9798
100
AcDbXrecord
280
     1
102
RTVSPost2010Prop28
280
     1
102
RTVSPost2010PropOp28
 70
     1
102
RTVSPost2010Prop29
280
     1
102
RTVSPost2010PropOp29
 70
     1
102
RTVSPost2010Prop30
280
     0
102
RTVSPost2010PropOp30
 70
     1
102
RTVSPost2010Prop31
280
     0
102
RTVSPost2010PropOp31
 70
     1
102
RTVSPost2010Prop32
280
     0
102
RTVSPost2010PropOp32
 70
     1
102
RTVSPost2010Prop33
280
     0
102
RTVSPost2010PropOp33
 70
     1
102
RTVSPost2010Prop34
280
     0
102
RTVSPost2010PropOp34
 70
     1
102
RTVSPost2010Prop35
280
     0
102
RTVSPost2010PropOp35
 70
     1
102
RTVSPost2010Prop36
280
     0
102
RTVSPost2010PropOp36
 70
     1
102
RTVSPost2010Prop37
 90
       50
102
RTVSPost2010PropOp37
 70
     1
102
RTVSPost2010Prop38
140
0.0
102
RTVSPost2010PropOp38
 70
     1
102
RTVSPost2010Prop39
140
1.0
102
RTVSPost2010PropOp39
 70
     1
102
RTVSPost2010Prop40
 90
        0
102
RTVSPost2010PropOp40
 70
     1
102
RTVSPost2010Prop41ColorIndex
 90
       18
102
RTVSPost2010Prop41ColorRGB
 90
        0
102
RTVSPost2010PropOp41
 70
     1
102
RTVSPost2010Prop42
 90
       50
102
RTVSPost2010PropOp42
 70
     1
102
RTVSPost2010Prop43
 90
        3
102
RTVSPost2010PropOp43
 70
     1
102
RTVSPost2010Prop44ColorIndex
 90
        5
102
RTVSPost2010Prop44ColorRGB
 90
      255
102
RTVSPost2010PropOp44
 70
     1
102
RTVSPost2010Prop45
280
     0
102
RTVSPost2010PropOp45
 70
     1
102
RTVSPost2010Prop46
 90
       50
102
RTVSPost2010PropOp46
 70
     1
102
RTVSPost2010Prop47
 90
       50
102
RTVSPost2010PropOp47
 70
     1
102
RTVSPost2010Prop48
 90
       50
102
RTVSPost2010PropOp48
 70
     1
102
RTVSPost2010Prop49
280
     0
102
RTVSPost2010PropOp49
 70
     1
102
RTVSPost2010Prop50
 90
       50
102
RTVSPost2010PropOp50
 70
     1
102
RTVSPost2010Prop51ColorIndex
 90
      256
102
RTVSPost2010Prop51ColorRGB
 90
-16777216
102
RTVSPost2010PropOp51
 70
     0
102
RTVSPost2010Prop52
140
1.0
102
RTVSPost2010PropOp52
 70
     0
102
RTVSPost2010Prop53
 90
        2
102
RTVSPost2010PropOp53
 70
     1
102
RTVSPost2010Prop54
  1
strokes_ogs.tif
102
RTVSPost2010PropOp54
 70
     1
102
RTVSPost2010Prop55
280
     0
102
RTVSPost2010PropOp55
 70
     1
102
RTVSPost2010Prop56
140
1.0
102
RTVSPost2010PropOp56
 70
     1
102
RTVSPost2010Prop57
140
1.0
102
RTVSPost2010PropOp57
 70
     1
102
RTVSPropertyOp0
 70
     1
102
RTVSPropertyOp1
 70
     1
102
RTVSPropertyOp2
 70
     1
102
RTVSPropertyOp3
 70
     1
102
RTVSPropertyOp4
 70
     1
102
RTVSPropertyOp5
 70
     1
102
RTVSPropertyOp6
 70
     1
102
RTVSPropertyOp7
 70
     1
102
RTVSPropertyOp8
 70
     1
102
RTVSPropertyOp9
 70
     1
102
RTVSPropertyOp10
 70
     1
102
RTVSPropertyOp11
 70
     1
102
RTVSPropertyOp12
 70
     1
102
RTVSPropertyOp13
 70
     1
102
RTVSPropertyOp14
 70
     1
102
RTVSPropertyOp15
 70
     1
102
RTVSPropertyOp16
 70
     1
102
RTVSPropertyOp17
 70
     1
102
RTVSPropertyOp18
 70
     1
102
RTVSPropertyOp19
 70
     1
102
RTVSPropertyOp20
 70
     1
102
RTVSPropertyOp21
 70
     1
102
RTVSPropertyOp22
 70
     1
102
RTVSPropertyOp23
 70
     1
102
RTVSPropertyOp24
 70
     1
102
RTVSPropertyOp25
 70
     1
102
RTVSPropertyOp26
 70
     1
102
RTVSPropertyOp27
 70
     1
102
RTVSPropertyOp28
 70
     1
102
RTVSPropertyOp29
 70
     1
102
RTVSPropertyOp30
 70
     1
102
RTVSPropertyOp31
 70
     1
102
RTVSPropertyOp32
 70
     1
102
RTVSPropertyOp33
 70
     1
102
RTVSPropertyOp34
 70
     1
102
RTVSPropertyOp35
 70
     1
102
RTVSPropertyOp36
 70
     1
102
RTVSPropertyOp37
 70
     1
102
RTVSPropertyOp38
 70
     1
102
RTVSPropertyOp39
 70
     1
102
RTVSPropertyOp40
 70
     1
102
RTVSPropertyOp41
 70
     1
102
RTVSPropertyOp42
 70
     1
102
RTVSPropertyOp43
 70
     1
102
RTVSPropertyOp44
 70
     1
102
RTVSPropertyOp45
 70
     1
102
RTVSPropertyOp46
 70
     1
102
RTVSPropertyOp47
 70
     1
102
RTVSPropertyOp48
 70
     1
102
RTVSPropertyOp49
 70
     1
102
RTVSPropertyOp50
 70
     1
102
RTVSPropertyOp51
 70
     0
102
RTVSPropertyOp52
 70
     0
102
RTVSPropertyOp53
 70
     1
102
RTVSPropertyOp54
 70
     1
102
RTVSPropertyOp55
 70
     1
102
RTVSPropertyOp56
 70
     1
102
RTVSPropertyOp57
 70
     1
102
RTVSPropertyOp58
 70
     1
102
RTVSPropertyOp59
 70
     1
102
RTVSPropertyOp60
 70
     1
102
RTVSPropertyOp61
 70
     1
102
RTVSPropertyOp62
 70
     1
  0
XRECORD
  5
9797
102
{ACAD_REACTORS
330
9796
102
}
330
9796
100
AcDbXrecord
280
     1
102
RTVSPost2010Prop28
280
     0
102
RTVSPost2010PropOp28
 70
     1
102
RTVSPost2010Prop29
280
     1
102
RTVSPost2010PropOp29
 70
     1
102
RTVSPost2010Prop30
280
     1
102
RTVSPost2010PropOp30
 70
     1
102
RTVSPost2010Prop31
280
     0
102
RTVSPost2010PropOp31
 70
     1
102
RTVSPost2010Prop32
280
     0
102
RTVSPost2010PropOp32
 70
     1
102
RTVSPost2010Prop33
280
     0
102
RTVSPost2010PropOp33
 70
     1
102
RTVSPost2010Prop34
280
     0
102
RTVSPost2010PropOp34
 70
     1
102
RTVSPost2010Prop35
280
     0
102
RTVSPost2010PropOp35
 70
     1
102
RTVSPost2010Prop36
280
     0
102
RTVSPost2010PropOp36
 70
     1
102
RTVSPost2010Prop37
 90
       50
102
RTVSPost2010PropOp37
 70
     1
102
RTVSPost2010Prop38
140
0.0
102
RTVSPost2010PropOp38
 70
     1
102
RTVSPost2010Prop39
140
1.0
102
RTVSPost2010PropOp39
 70
     1
102
RTVSPost2010Prop40
 90
        0
102
RTVSPost2010PropOp40
 70
     1
102
RTVSPost2010Prop41ColorIndex
 90
       18
102
RTVSPost2010Prop41ColorRGB
 90
        0
102
RTVSPost2010PropOp41
 70
     1
102
RTVSPost2010Prop42
 90
       50
102
RTVSPost2010PropOp42
 70
     1
102
RTVSPost2010Prop43
 90
        3
102
RTVSPost2010PropOp43
 70
     1
102
RTVSPost2010Prop44ColorIndex
 90
        5
102
RTVSPost2010Prop44ColorRGB
 90
      255
102
RTVSPost2010PropOp44
 70
     1
102
RTVSPost2010Prop45
280
     0
102
RTVSPost2010PropOp45
 70
     1
102
RTVSPost2010Prop46
 90
       50
102
RTVSPost2010PropOp46
 70
     1
102
RTVSPost2010Prop47
 90
       50
102
RTVSPost2010PropOp47
 70
     1
102
RTVSPost2010Prop48
 90
       50
102
RTVSPost2010PropOp48
 70
     1
102
RTVSPost2010Prop49
280
     0
102
RTVSPost2010PropOp49
 70
     1
102
RTVSPost2010Prop50
 90
       50
102
RTVSPost2010PropOp50
 70
     1
102
RTVSPost2010Prop51ColorIndex
 90
      256
102
RTVSPost2010Prop51ColorRGB
 90
-16777216
102
RTVSPost2010PropOp51
 70
     0
102
RTVSPost2010Prop52
140
1.0
102
RTVSPost2010PropOp52
 70
     0
102
RTVSPost2010Prop53
 90
        2
102
RTVSPost2010PropOp53
 70
     1
102
RTVSPost2010Prop54
  1
strokes_ogs.tif
102
RTVSPost2010PropOp54
 70
     1
102
RTVSPost2010Prop55
280
     0
102
RTVSPost2010PropOp55
 70
     1
102
RTVSPost2010Prop56
140
1.0
102
RTVSPost2010PropOp56
 70
     1
102
RTVSPost2010Prop57
140
1.0
102
RTVSPost2010PropOp57
 70
     1
102
RTVSPropertyOp0
 70
     1
102
RTVSPropertyOp1
 70
     1
102
RTVSPropertyOp2
 70
     1
102
RTVSPropertyOp3
 70
     1
102
RTVSPropertyOp4
 70
     1
102
RTVSPropertyOp5
 70
     1
102
RTVSPropertyOp6
 70
     1
102
RTVSPropertyOp7
 70
     1
102
RTVSPropertyOp8
 70
     1
102
RTVSPropertyOp9
 70
     1
102
RTVSPropertyOp10
 70
     1
102
RTVSPropertyOp11
 70
     1
102
RTVSPropertyOp12
 70
     1
102
RTVSPropertyOp13
 70
     1
102
RTVSPropertyOp14
 70
     1
102
RTVSPropertyOp15
 70
     1
102
RTVSPropertyOp16
 70
     1
102
RTVSPropertyOp17
 70
     1
102
RTVSPropertyOp18
 70
     1
102
RTVSPropertyOp19
 70
     1
102
RTVSPropertyOp20
 70
     1
102
RTVSPropertyOp21
 70
     1
102
RTVSPropertyOp22
 70
     1
102
RTVSPropertyOp23
 70
     1
102
RTVSPropertyOp24
 70
     1
102
RTVSPropertyOp25
 70
     1
102
RTVSPropertyOp26
 70
     1
102
RTVSPropertyOp27
 70
     1
102
RTVSPropertyOp28
 70
     1
102
RTVSPropertyOp29
 70
     1
102
RTVSPropertyOp30
 70
     1
102
RTVSPropertyOp31
 70
     1
102
RTVSPropertyOp32
 70
     1
102
RTVSPropertyOp33
 70
     1
102
RTVSPropertyOp34
 70
     1
102
RTVSPropertyOp35
 70
     1
102
RTVSPropertyOp36
 70
     1
102
RTVSPropertyOp37
 70
     1
102
RTVSPropertyOp38
 70
     1
102
RTVSPropertyOp39
 70
     1
102
RTVSPropertyOp40
 70
     1
102
RTVSPropertyOp41
 70
     1
102
RTVSPropertyOp42
 70
     1
102
RTVSPropertyOp43
 70
     1
102
RTVSPropertyOp44
 70
     1
102
RTVSPropertyOp45
 70
     1
102
RTVSPropertyOp46
 70
     1
102
RTVSPropertyOp47
 70
     1
102
RTVSPropertyOp48
 70
     1
102
RTVSPropertyOp49
 70
     1
102
RTVSPropertyOp50
 70
     1
102
RTVSPropertyOp51
 70
     0
102
RTVSPropertyOp52
 70
     0
102
RTVSPropertyOp53
 70
     1
102
RTVSPropertyOp54
 70
     1
102
RTVSPropertyOp55
 70
     1
102
RTVSPropertyOp56
 70
     1
102
RTVSPropertyOp57
 70
     1
102
RTVSPropertyOp58
 70
     1
102
RTVSPropertyOp59
 70
     1
102
RTVSPropertyOp60
 70
     1
102
RTVSPropertyOp61
 70
     1
102
RTVSPropertyOp62
 70
     1
  0
XRECORD
  5
97A5
102
{ACAD_REACTORS
330
97A4
102
}
330
97A4
100
AcDbXrecord
280
     1
102
RTVSPost2010Prop28
280
     0
102
RTVSPost2010PropOp28
 70
     1
102
RTVSPost2010Prop29
280
     1
102
RTVSPost2010PropOp29
 70
     1
102
RTVSPost2010Prop30
280
     1
102
RTVSPost2010PropOp30
 70
     1
102
RTVSPost2010Prop31
280
     0
102
RTVSPost2010PropOp31
 70
     1
102
RTVSPost2010Prop32
280
     0
102
RTVSPost2010PropOp32
 70
     1
102
RTVSPost2010Prop33
280
     0
102
RTVSPost2010PropOp33
 70
     1
102
RTVSPost2010Prop34
280
     0
102
RTVSPost2010PropOp34
 70
     1
102
RTVSPost2010Prop35
280
     0
102
RTVSPost2010PropOp35
 70
     1
102
RTVSPost2010Prop36
280
     0
102
RTVSPost2010PropOp36
 70
     1
102
RTVSPost2010Prop37
 90
       50
102
RTVSPost2010PropOp37
 70
     1
102
RTVSPost2010Prop38
140
0.0
102
RTVSPost2010PropOp38
 70
     1
102
RTVSPost2010Prop39
140
1.0
102
RTVSPost2010PropOp39
 70
     1
102
RTVSPost2010Prop40
 90
        0
102
RTVSPost2010PropOp40
 70
     1
102
RTVSPost2010Prop41ColorIndex
 90
       18
102
RTVSPost2010Prop41ColorRGB
 90
        0
102
RTVSPost2010PropOp41
 70
     1
102
RTVSPost2010Prop42
 90
       50
102
RTVSPost2010PropOp42
 70
     1
102
RTVSPost2010Prop43
 90
        3
102
RTVSPost2010PropOp43
 70
     1
102
RTVSPost2010Prop44ColorIndex
 90
        5
102
RTVSPost2010Prop44ColorRGB
 90
      255
102
RTVSPost2010PropOp44
 70
     1
102
RTVSPost2010Prop45
280
     0
102
RTVSPost2010PropOp45
 70
     1
102
RTVSPost2010Prop46
 90
       50
102
RTVSPost2010PropOp46
 70
     1
102
RTVSPost2010Prop47
 90
       50
102
RTVSPost2010PropOp47
 70
     1
102
RTVSPost2010Prop48
 90
       50
102
RTVSPost2010PropOp48
 70
     1
102
RTVSPost2010Prop49
280
     0
102
RTVSPost2010PropOp49
 70
     1
102
RTVSPost2010Prop50
 90
       50
102
RTVSPost2010PropOp50
 70
     1
102
RTVSPost2010Prop51ColorIndex
 90
      256
102
RTVSPost2010Prop51ColorRGB
 90
-16777216
102
RTVSPost2010PropOp51
 70
     0
102
RTVSPost2010Prop52
140
1.0
102
RTVSPost2010PropOp52
 70
     0
102
RTVSPost2010Prop53
 90
        2
102
RTVSPost2010PropOp53
 70
     1
102
RTVSPost2010Prop54
  1
strokes_ogs.tif
102
RTVSPost2010PropOp54
 70
     1
102
RTVSPost2010Prop55
280
     0
102
RTVSPost2010PropOp55
 70
     1
102
RTVSPost2010Prop56
140
1.0
102
RTVSPost2010PropOp56
 70
     1
102
RTVSPost2010Prop57
140
1.0
102
RTVSPost2010PropOp57
 70
     1
102
RTVSPropertyOp0
 70
     1
102
RTVSPropertyOp1
 70
     1
102
RTVSPropertyOp2
 70
     1
102
RTVSPropertyOp3
 70
     1
102
RTVSPropertyOp4
 70
     1
102
RTVSPropertyOp5
 70
     1
102
RTVSPropertyOp6
 70
     1
102
RTVSPropertyOp7
 70
     1
102
RTVSPropertyOp8
 70
     1
102
RTVSPropertyOp9
 70
     1
102
RTVSPropertyOp10
 70
     1
102
RTVSPropertyOp11
 70
     1
102
RTVSPropertyOp12
 70
     1
102
RTVSPropertyOp13
 70
     1
102
RTVSPropertyOp14
 70
     1
102
RTVSPropertyOp15
 70
     1
102
RTVSPropertyOp16
 70
     1
102
RTVSPropertyOp17
 70
     1
102
RTVSPropertyOp18
 70
     1
102
RTVSPropertyOp19
 70
     1
102
RTVSPropertyOp20
 70
     1
102
RTVSPropertyOp21
 70
     1
102
RTVSPropertyOp22
 70
     1
102
RTVSPropertyOp23
 70
     1
102
RTVSPropertyOp24
 70
     1
102
RTVSPropertyOp25
 70
     1
102
RTVSPropertyOp26
 70
     1
102
RTVSPropertyOp27
 70
     1
102
RTVSPropertyOp28
 70
     1
102
RTVSPropertyOp29
 70
     1
102
RTVSPropertyOp30
 70
     1
102
RTVSPropertyOp31
 70
     1
102
RTVSPropertyOp32
 70
     1
102
RTVSPropertyOp33
 70
     1
102
RTVSPropertyOp34
 70
     1
102
RTVSPropertyOp35
 70
     1
102
RTVSPropertyOp36
 70
     1
102
RTVSPropertyOp37
 70
     1
102
RTVSPropertyOp38
 70
     1
102
RTVSPropertyOp39
 70
     1
102
RTVSPropertyOp40
 70
     1
102
RTVSPropertyOp41
 70
     1
102
RTVSPropertyOp42
 70
     1
102
RTVSPropertyOp43
 70
     1
102
RTVSPropertyOp44
 70
     1
102
RTVSPropertyOp45
 70
     1
102
RTVSPropertyOp46
 70
     1
102
RTVSPropertyOp47
 70
     1
102
RTVSPropertyOp48
 70
     1
102
RTVSPropertyOp49
 70
     1
102
RTVSPropertyOp50
 70
     1
102
RTVSPropertyOp51
 70
     0
102
RTVSPropertyOp52
 70
     0
102
RTVSPropertyOp53
 70
     1
102
RTVSPropertyOp54
 70
     1
102
RTVSPropertyOp55
 70
     1
102
RTVSPropertyOp56
 70
     1
102
RTVSPropertyOp57
 70
     1
102
RTVSPropertyOp58
 70
     1
102
RTVSPropertyOp59
 70
     1
102
RTVSPropertyOp60
 70
     1
102
RTVSPropertyOp61
 70
     1
102
RTVSPropertyOp62
 70
     1
  0
XRECORD
  5
97AD
102
{ACAD_REACTORS
330
97AC
102
}
330
97AC
100
AcDbXrecord
280
     1
102
RTVSPost2010Prop28
280
     0
102
RTVSPost2010PropOp28
 70
     1
102
RTVSPost2010Prop29
280
     1
102
RTVSPost2010PropOp29
 70
     1
102
RTVSPost2010Prop30
280
     1
102
RTVSPost2010PropOp30
 70
     1
102
RTVSPost2010Prop31
280
     0
102
RTVSPost2010PropOp31
 70
     1
102
RTVSPost2010Prop32
280
     0
102
RTVSPost2010PropOp32
 70
     1
102
RTVSPost2010Prop33
280
     0
102
RTVSPost2010PropOp33
 70
     1
102
RTVSPost2010Prop34
280
     0
102
RTVSPost2010PropOp34
 70
     1
102
RTVSPost2010Prop35
280
     0
102
RTVSPost2010PropOp35
 70
     1
102
RTVSPost2010Prop36
280
     0
102
RTVSPost2010PropOp36
 70
     1
102
RTVSPost2010Prop37
 90
       50
102
RTVSPost2010PropOp37
 70
     1
102
RTVSPost2010Prop38
140
0.0
102
RTVSPost2010PropOp38
 70
     1
102
RTVSPost2010Prop39
140
1.0
102
RTVSPost2010PropOp39
 70
     1
102
RTVSPost2010Prop40
 90
        0
102
RTVSPost2010PropOp40
 70
     1
102
RTVSPost2010Prop41ColorIndex
 90
       18
102
RTVSPost2010Prop41ColorRGB
 90
        0
102
RTVSPost2010PropOp41
 70
     1
102
RTVSPost2010Prop42
 90
       50
102
RTVSPost2010PropOp42
 70
     1
102
RTVSPost2010Prop43
 90
        3
102
RTVSPost2010PropOp43
 70
     1
102
RTVSPost2010Prop44ColorIndex
 90
        5
102
RTVSPost2010Prop44ColorRGB
 90
      255
102
RTVSPost2010PropOp44
 70
     1
102
RTVSPost2010Prop45
280
     0
102
RTVSPost2010PropOp45
 70
     1
102
RTVSPost2010Prop46
 90
       50
102
RTVSPost2010PropOp46
 70
     1
102
RTVSPost2010Prop47
 90
       50
102
RTVSPost2010PropOp47
 70
     1
102
RTVSPost2010Prop48
 90
       50
102
RTVSPost2010PropOp48
 70
     1
102
RTVSPost2010Prop49
280
     0
102
RTVSPost2010PropOp49
 70
     1
102
RTVSPost2010Prop50
 90
       50
102
RTVSPost2010PropOp50
 70
     1
102
RTVSPost2010Prop51ColorIndex
 90
      256
102
RTVSPost2010Prop51ColorRGB
 90
-16777216
102
RTVSPost2010PropOp51
 70
     0
102
RTVSPost2010Prop52
140
1.0
102
RTVSPost2010PropOp52
 70
     0
102
RTVSPost2010Prop53
 90
        2
102
RTVSPost2010PropOp53
 70
     1
102
RTVSPost2010Prop54
  1
strokes_ogs.tif
102
RTVSPost2010PropOp54
 70
     1
102
RTVSPost2010Prop55
280
     0
102
RTVSPost2010PropOp55
 70
     1
102
RTVSPost2010Prop56
140
1.0
102
RTVSPost2010PropOp56
 70
     1
102
RTVSPost2010Prop57
140
1.0
102
RTVSPost2010PropOp57
 70
     1
102
RTVSPropertyOp0
 70
     1
102
RTVSPropertyOp1
 70
     1
102
RTVSPropertyOp2
 70
     1
102
RTVSPropertyOp3
 70
     1
102
RTVSPropertyOp4
 70
     1
102
RTVSPropertyOp5
 70
     1
102
RTVSPropertyOp6
 70
     1
102
RTVSPropertyOp7
 70
     1
102
RTVSPropertyOp8
 70
     1
102
RTVSPropertyOp9
 70
     1
102
RTVSPropertyOp10
 70
     1
102
RTVSPropertyOp11
 70
     1
102
RTVSPropertyOp12
 70
     1
102
RTVSPropertyOp13
 70
     1
102
RTVSPropertyOp14
 70
     1
102
RTVSPropertyOp15
 70
     1
102
RTVSPropertyOp16
 70
     1
102
RTVSPropertyOp17
 70
     1
102
RTVSPropertyOp18
 70
     1
102
RTVSPropertyOp19
 70
     1
102
RTVSPropertyOp20
 70
     1
102
RTVSPropertyOp21
 70
     1
102
RTVSPropertyOp22
 70
     1
102
RTVSPropertyOp23
 70
     1
102
RTVSPropertyOp24
 70
     1
102
RTVSPropertyOp25
 70
     1
102
RTVSPropertyOp26
 70
     1
102
RTVSPropertyOp27
 70
     1
102
RTVSPropertyOp28
 70
     1
102
RTVSPropertyOp29
 70
     1
102
RTVSPropertyOp30
 70
     1
102
RTVSPropertyOp31
 70
     1
102
RTVSPropertyOp32
 70
     1
102
RTVSPropertyOp33
 70
     1
102
RTVSPropertyOp34
 70
     1
102
RTVSPropertyOp35
 70
     1
102
RTVSPropertyOp36
 70
     1
102
RTVSPropertyOp37
 70
     1
102
RTVSPropertyOp38
 70
     1
102
RTVSPropertyOp39
 70
     1
102
RTVSPropertyOp40
 70
     1
102
RTVSPropertyOp41
 70
     1
102
RTVSPropertyOp42
 70
     1
102
RTVSPropertyOp43
 70
     1
102
RTVSPropertyOp44
 70
     1
102
RTVSPropertyOp45
 70
     1
102
RTVSPropertyOp46
 70
     1
102
RTVSPropertyOp47
 70
     1
102
RTVSPropertyOp48
 70
     1
102
RTVSPropertyOp49
 70
     1
102
RTVSPropertyOp50
 70
     1
102
RTVSPropertyOp51
 70
     0
102
RTVSPropertyOp52
 70
     0
102
RTVSPropertyOp53
 70
     1
102
RTVSPropertyOp54
 70
     1
102
RTVSPropertyOp55
 70
     1
102
RTVSPropertyOp56
 70
     1
102
RTVSPropertyOp57
 70
     1
102
RTVSPropertyOp58
 70
     1
102
RTVSPropertyOp59
 70
     1
102
RTVSPropertyOp60
 70
     1
102
RTVSPropertyOp61
 70
     1
102
RTVSPropertyOp62
 70
     1
  0
XRECORD
  5
979F
102
{ACAD_REACTORS
330
979E
102
}
330
979E
100
AcDbXrecord
280
     1
102
RTVSPost2010Prop28
280
     0
102
RTVSPost2010PropOp28
 70
     1
102
RTVSPost2010Prop29
280
     1
102
RTVSPost2010PropOp29
 70
     1
102
RTVSPost2010Prop30
280
     1
102
RTVSPost2010PropOp30
 70
     1
102
RTVSPost2010Prop31
280
     0
102
RTVSPost2010PropOp31
 70
     1
102
RTVSPost2010Prop32
280
     0
102
RTVSPost2010PropOp32
 70
     1
102
RTVSPost2010Prop33
280
     0
102
RTVSPost2010PropOp33
 70
     1
102
RTVSPost2010Prop34
280
     0
102
RTVSPost2010PropOp34
 70
     1
102
RTVSPost2010Prop35
280
     0
102
RTVSPost2010PropOp35
 70
     1
102
RTVSPost2010Prop36
280
     0
102
RTVSPost2010PropOp36
 70
     1
102
RTVSPost2010Prop37
 90
       50
102
RTVSPost2010PropOp37
 70
     1
102
RTVSPost2010Prop38
140
0.0
102
RTVSPost2010PropOp38
 70
     1
102
RTVSPost2010Prop39
140
1.0
102
RTVSPost2010PropOp39
 70
     1
102
RTVSPost2010Prop40
 90
        0
102
RTVSPost2010PropOp40
 70
     1
102
RTVSPost2010Prop41ColorIndex
 90
       18
102
RTVSPost2010Prop41ColorRGB
 90
        0
102
RTVSPost2010PropOp41
 70
     1
102
RTVSPost2010Prop42
 90
       50
102
RTVSPost2010PropOp42
 70
     1
102
RTVSPost2010Prop43
 90
        3
102
RTVSPost2010PropOp43
 70
     1
102
RTVSPost2010Prop44ColorIndex
 90
        5
102
RTVSPost2010Prop44ColorRGB
 90
      255
102
RTVSPost2010PropOp44
 70
     1
102
RTVSPost2010Prop45
280
     0
102
RTVSPost2010PropOp45
 70
     1
102
RTVSPost2010Prop46
 90
       50
102
RTVSPost2010PropOp46
 70
     1
102
RTVSPost2010Prop47
 90
       50
102
RTVSPost2010PropOp47
 70
     1
102
RTVSPost2010Prop48
 90
       50
102
RTVSPost2010PropOp48
 70
     1
102
RTVSPost2010Prop49
280
     0
102
RTVSPost2010PropOp49
 70
     1
102
RTVSPost2010Prop50
 90
       50
102
RTVSPost2010PropOp50
 70
     1
102
RTVSPost2010Prop51ColorIndex
 90
      256
102
RTVSPost2010Prop51ColorRGB
 90
-16777216
102
RTVSPost2010PropOp51
 70
     0
102
RTVSPost2010Prop52
140
1.0
102
RTVSPost2010PropOp52
 70
     0
102
RTVSPost2010Prop53
 90
        2
102
RTVSPost2010PropOp53
 70
     1
102
RTVSPost2010Prop54
  1
strokes_ogs.tif
102
RTVSPost2010PropOp54
 70
     1
102
RTVSPost2010Prop55
280
     0
102
RTVSPost2010PropOp55
 70
     1
102
RTVSPost2010Prop56
140
1.0
102
RTVSPost2010PropOp56
 70
     1
102
RTVSPost2010Prop57
140
1.0
102
RTVSPost2010PropOp57
 70
     1
102
RTVSPropertyOp0
 70
     1
102
RTVSPropertyOp1
 70
     1
102
RTVSPropertyOp2
 70
     1
102
RTVSPropertyOp3
 70
     1
102
RTVSPropertyOp4
 70
     1
102
RTVSPropertyOp5
 70
     1
102
RTVSPropertyOp6
 70
     1
102
RTVSPropertyOp7
 70
     1
102
RTVSPropertyOp8
 70
     1
102
RTVSPropertyOp9
 70
     1
102
RTVSPropertyOp10
 70
     1
102
RTVSPropertyOp11
 70
     1
102
RTVSPropertyOp12
 70
     1
102
RTVSPropertyOp13
 70
     1
102
RTVSPropertyOp14
 70
     1
102
RTVSPropertyOp15
 70
     1
102
RTVSPropertyOp16
 70
     1
102
RTVSPropertyOp17
 70
     1
102
RTVSPropertyOp18
 70
     1
102
RTVSPropertyOp19
 70
     1
102
RTVSPropertyOp20
 70
     1
102
RTVSPropertyOp21
 70
     1
102
RTVSPropertyOp22
 70
     1
102
RTVSPropertyOp23
 70
     1
102
RTVSPropertyOp24
 70
     1
102
RTVSPropertyOp25
 70
     1
102
RTVSPropertyOp26
 70
     1
102
RTVSPropertyOp27
 70
     1
102
RTVSPropertyOp28
 70
     1
102
RTVSPropertyOp29
 70
     1
102
RTVSPropertyOp30
 70
     1
102
RTVSPropertyOp31
 70
     1
102
RTVSPropertyOp32
 70
     1
102
RTVSPropertyOp33
 70
     1
102
RTVSPropertyOp34
 70
     1
102
RTVSPropertyOp35
 70
     1
102
RTVSPropertyOp36
 70
     1
102
RTVSPropertyOp37
 70
     1
102
RTVSPropertyOp38
 70
     1
102
RTVSPropertyOp39
 70
     1
102
RTVSPropertyOp40
 70
     1
102
RTVSPropertyOp41
 70
     1
102
RTVSPropertyOp42
 70
     1
102
RTVSPropertyOp43
 70
     1
102
RTVSPropertyOp44
 70
     1
102
RTVSPropertyOp45
 70
     1
102
RTVSPropertyOp46
 70
     1
102
RTVSPropertyOp47
 70
     1
102
RTVSPropertyOp48
 70
     1
102
RTVSPropertyOp49
 70
     1
102
RTVSPropertyOp50
 70
     1
102
RTVSPropertyOp51
 70
     0
102
RTVSPropertyOp52
 70
     0
102
RTVSPropertyOp53
 70
     1
102
RTVSPropertyOp54
 70
     1
102
RTVSPropertyOp55
 70
     1
102
RTVSPropertyOp56
 70
     1
102
RTVSPropertyOp57
 70
     1
102
RTVSPropertyOp58
 70
     1
102
RTVSPropertyOp59
 70
     1
102
RTVSPropertyOp60
 70
     1
102
RTVSPropertyOp61
 70
     1
102
RTVSPropertyOp62
 70
     1
  0
XRECORD
  5
97A3
102
{ACAD_REACTORS
330
97A2
102
}
330
97A2
100
AcDbXrecord
280
     1
102
RTVSPost2010Prop28
280
     0
102
RTVSPost2010PropOp28
 70
     1
102
RTVSPost2010Prop29
280
     1
102
RTVSPost2010PropOp29
 70
     1
102
RTVSPost2010Prop30
280
     1
102
RTVSPost2010PropOp30
 70
     1
102
RTVSPost2010Prop31
280
     0
102
RTVSPost2010PropOp31
 70
     1
102
RTVSPost2010Prop32
280
     0
102
RTVSPost2010PropOp32
 70
     1
102
RTVSPost2010Prop33
280
     0
102
RTVSPost2010PropOp33
 70
     1
102
RTVSPost2010Prop34
280
     0
102
RTVSPost2010PropOp34
 70
     1
102
RTVSPost2010Prop35
280
     0
102
RTVSPost2010PropOp35
 70
     1
102
RTVSPost2010Prop36
280
     0
102
RTVSPost2010PropOp36
 70
     1
102
RTVSPost2010Prop37
 90
       50
102
RTVSPost2010PropOp37
 70
     1
102
RTVSPost2010Prop38
140
0.0
102
RTVSPost2010PropOp38
 70
     1
102
RTVSPost2010Prop39
140
1.0
102
RTVSPost2010PropOp39
 70
     1
102
RTVSPost2010Prop40
 90
        0
102
RTVSPost2010PropOp40
 70
     1
102
RTVSPost2010Prop41ColorIndex
 90
       18
102
RTVSPost2010Prop41ColorRGB
 90
        0
102
RTVSPost2010PropOp41
 70
     1
102
RTVSPost2010Prop42
 90
       50
102
RTVSPost2010PropOp42
 70
     1
102
RTVSPost2010Prop43
 90
        3
102
RTVSPost2010PropOp43
 70
     1
102
RTVSPost2010Prop44ColorIndex
 90
        5
102
RTVSPost2010Prop44ColorRGB
 90
      255
102
RTVSPost2010PropOp44
 70
     1
102
RTVSPost2010Prop45
280
     0
102
RTVSPost2010PropOp45
 70
     1
102
RTVSPost2010Prop46
 90
       50
102
RTVSPost2010PropOp46
 70
     1
102
RTVSPost2010Prop47
 90
       50
102
RTVSPost2010PropOp47
 70
     1
102
RTVSPost2010Prop48
 90
       50
102
RTVSPost2010PropOp48
 70
     1
102
RTVSPost2010Prop49
280
     0
102
RTVSPost2010PropOp49
 70
     1
102
RTVSPost2010Prop50
 90
       50
102
RTVSPost2010PropOp50
 70
     1
102
RTVSPost2010Prop51ColorIndex
 90
      256
102
RTVSPost2010Prop51ColorRGB
 90
-16777216
102
RTVSPost2010PropOp51
 70
     0
102
RTVSPost2010Prop52
140
1.0
102
RTVSPost2010PropOp52
 70
     0
102
RTVSPost2010Prop53
 90
        2
102
RTVSPost2010PropOp53
 70
     1
102
RTVSPost2010Prop54
  1
strokes_ogs.tif
102
RTVSPost2010PropOp54
 70
     1
102
RTVSPost2010Prop55
280
     0
102
RTVSPost2010PropOp55
 70
     1
102
RTVSPost2010Prop56
140
1.0
102
RTVSPost2010PropOp56
 70
     1
102
RTVSPost2010Prop57
140
1.0
102
RTVSPost2010PropOp57
 70
     1
102
RTVSPropertyOp0
 70
     1
102
RTVSPropertyOp1
 70
     1
102
RTVSPropertyOp2
 70
     1
102
RTVSPropertyOp3
 70
     1
102
RTVSPropertyOp4
 70
     1
102
RTVSPropertyOp5
 70
     1
102
RTVSPropertyOp6
 70
     1
102
RTVSPropertyOp7
 70
     1
102
RTVSPropertyOp8
 70
     1
102
RTVSPropertyOp9
 70
     1
102
RTVSPropertyOp10
 70
     1
102
RTVSPropertyOp11
 70
     1
102
RTVSPropertyOp12
 70
     1
102
RTVSPropertyOp13
 70
     1
102
RTVSPropertyOp14
 70
     1
102
RTVSPropertyOp15
 70
     1
102
RTVSPropertyOp16
 70
     1
102
RTVSPropertyOp17
 70
     1
102
RTVSPropertyOp18
 70
     1
102
RTVSPropertyOp19
 70
     1
102
RTVSPropertyOp20
 70
     1
102
RTVSPropertyOp21
 70
     1
102
RTVSPropertyOp22
 70
     1
102
RTVSPropertyOp23
 70
     1
102
RTVSPropertyOp24
 70
     1
102
RTVSPropertyOp25
 70
     1
102
RTVSPropertyOp26
 70
     1
102
RTVSPropertyOp27
 70
     1
102
RTVSPropertyOp28
 70
     1
102
RTVSPropertyOp29
 70
     1
102
RTVSPropertyOp30
 70
     1
102
RTVSPropertyOp31
 70
     1
102
RTVSPropertyOp32
 70
     1
102
RTVSPropertyOp33
 70
     1
102
RTVSPropertyOp34
 70
     1
102
RTVSPropertyOp35
 70
     1
102
RTVSPropertyOp36
 70
     1
102
RTVSPropertyOp37
 70
     1
102
RTVSPropertyOp38
 70
     1
102
RTVSPropertyOp39
 70
     1
102
RTVSPropertyOp40
 70
     1
102
RTVSPropertyOp41
 70
     1
102
RTVSPropertyOp42
 70
     1
102
RTVSPropertyOp43
 70
     1
102
RTVSPropertyOp44
 70
     1
102
RTVSPropertyOp45
 70
     1
102
RTVSPropertyOp46
 70
     1
102
RTVSPropertyOp47
 70
     1
102
RTVSPropertyOp48
 70
     1
102
RTVSPropertyOp49
 70
     1
102
RTVSPropertyOp50
 70
     1
102
RTVSPropertyOp51
 70
     0
102
RTVSPropertyOp52
 70
     0
102
RTVSPropertyOp53
 70
     1
102
RTVSPropertyOp54
 70
     1
102
RTVSPropertyOp55
 70
     1
102
RTVSPropertyOp56
 70
     1
102
RTVSPropertyOp57
 70
     1
102
RTVSPropertyOp58
 70
     1
102
RTVSPropertyOp59
 70
     1
102
RTVSPropertyOp60
 70
     1
102
RTVSPropertyOp61
 70
     1
102
RTVSPropertyOp62
 70
     1
  0
XRECORD
  5
97BD
102
{ACAD_REACTORS
330
97BC
102
}
330
97BC
100
AcDbXrecord
280
     1
102
RTVSPost2010Prop28
280
     0
102
RTVSPost2010PropOp28
 70
     1
102
RTVSPost2010Prop29
280
     1
102
RTVSPost2010PropOp29
 70
     1
102
RTVSPost2010Prop30
280
     1
102
RTVSPost2010PropOp30
 70
     1
102
RTVSPost2010Prop31
280
     0
102
RTVSPost2010PropOp31
 70
     1
102
RTVSPost2010Prop32
280
     0
102
RTVSPost2010PropOp32
 70
     1
102
RTVSPost2010Prop33
280
     0
102
RTVSPost2010PropOp33
 70
     1
102
RTVSPost2010Prop34
280
     0
102
RTVSPost2010PropOp34
 70
     1
102
RTVSPost2010Prop35
280
     0
102
RTVSPost2010PropOp35
 70
     1
102
RTVSPost2010Prop36
280
     0
102
RTVSPost2010PropOp36
 70
     1
102
RTVSPost2010Prop37
 90
       50
102
RTVSPost2010PropOp37
 70
     0
102
RTVSPost2010Prop38
140
0.0
102
RTVSPost2010PropOp38
 70
     0
102
RTVSPost2010Prop39
140
1.0
102
RTVSPost2010PropOp39
 70
     0
102
RTVSPost2010Prop40
 90
        0
102
RTVSPost2010PropOp40
 70
     0
102
RTVSPost2010Prop41ColorIndex
 90
       18
102
RTVSPost2010Prop41ColorRGB
 90
        0
102
RTVSPost2010PropOp41
 70
     0
102
RTVSPost2010Prop42
 90
       50
102
RTVSPost2010PropOp42
 70
     0
102
RTVSPost2010Prop43
 90
        3
102
RTVSPost2010PropOp43
 70
     0
102
RTVSPost2010Prop44ColorIndex
 90
        5
102
RTVSPost2010Prop44ColorRGB
 90
      255
102
RTVSPost2010PropOp44
 70
     0
102
RTVSPost2010Prop45
280
     0
102
RTVSPost2010PropOp45
 70
     1
102
RTVSPost2010Prop46
 90
       50
102
RTVSPost2010PropOp46
 70
     0
102
RTVSPost2010Prop47
 90
       50
102
RTVSPost2010PropOp47
 70
     0
102
RTVSPost2010Prop48
 90
       50
102
RTVSPost2010PropOp48
 70
     0
102
RTVSPost2010Prop49
280
     0
102
RTVSPost2010PropOp49
 70
     1
102
RTVSPost2010Prop50
 90
       50
102
RTVSPost2010PropOp50
 70
     0
102
RTVSPost2010Prop51ColorIndex
 90
      256
102
RTVSPost2010Prop51ColorRGB
 90
-16777216
102
RTVSPost2010PropOp51
 70
     0
102
RTVSPost2010Prop52
140
1.0
102
RTVSPost2010PropOp52
 70
     0
102
RTVSPost2010Prop53
 90
        2
102
RTVSPost2010PropOp53
 70
     0
102
RTVSPost2010Prop54
  1
strokes_ogs.tif
102
RTVSPost2010PropOp54
 70
     0
102
RTVSPost2010Prop55
280
     0
102
RTVSPost2010PropOp55
 70
     1
102
RTVSPost2010Prop56
140
1.0
102
RTVSPost2010PropOp56
 70
     0
102
RTVSPost2010Prop57
140
1.0
102
RTVSPost2010PropOp57
 70
     0
102
RTVSPropertyOp0
 70
     0
102
RTVSPropertyOp1
 70
     0
102
RTVSPropertyOp2
 70
     0
102
RTVSPropertyOp3
 70
     0
102
RTVSPropertyOp4
 70
     0
102
RTVSPropertyOp5
 70
     0
102
RTVSPropertyOp6
 70
     0
102
RTVSPropertyOp7
 70
     0
102
RTVSPropertyOp8
 70
     0
102
RTVSPropertyOp9
 70
     0
102
RTVSPropertyOp10
 70
     0
102
RTVSPropertyOp11
 70
     0
102
RTVSPropertyOp12
 70
     0
102
RTVSPropertyOp13
 70
     0
102
RTVSPropertyOp14
 70
     2
102
RTVSPropertyOp15
 70
     0
102
RTVSPropertyOp16
 70
     0
102
RTVSPropertyOp17
 70
     0
102
RTVSPropertyOp18
 70
     0
102
RTVSPropertyOp19
 70
     0
102
RTVSPropertyOp20
 70
     0
102
RTVSPropertyOp21
 70
     0
102
RTVSPropertyOp22
 70
     0
102
RTVSPropertyOp23
 70
     0
102
RTVSPropertyOp24
 70
     0
102
RTVSPropertyOp25
 70
     0
102
RTVSPropertyOp26
 70
     0
102
RTVSPropertyOp27
 70
     0
102
RTVSPropertyOp28
 70
     1
102
RTVSPropertyOp29
 70
     1
102
RTVSPropertyOp30
 70
     1
102
RTVSPropertyOp31
 70
     1
102
RTVSPropertyOp32
 70
     1
102
RTVSPropertyOp33
 70
     1
102
RTVSPropertyOp34
 70
     1
102
RTVSPropertyOp35
 70
     1
102
RTVSPropertyOp36
 70
     1
102
RTVSPropertyOp37
 70
     0
102
RTVSPropertyOp38
 70
     0
102
RTVSPropertyOp39
 70
     0
102
RTVSPropertyOp40
 70
     0
102
RTVSPropertyOp41
 70
     0
102
RTVSPropertyOp42
 70
     0
102
RTVSPropertyOp43
 70
     0
102
RTVSPropertyOp44
 70
     0
102
RTVSPropertyOp45
 70
     1
102
RTVSPropertyOp46
 70
     0
102
RTVSPropertyOp47
 70
     0
102
RTVSPropertyOp48
 70
     0
102
RTVSPropertyOp49
 70
     1
102
RTVSPropertyOp50
 70
     0
102
RTVSPropertyOp51
 70
     0
102
RTVSPropertyOp52
 70
     0
102
RTVSPropertyOp53
 70
     0
102
RTVSPropertyOp54
 70
     0
102
RTVSPropertyOp55
 70
     1
102
RTVSPropertyOp56
 70
     0
102
RTVSPropertyOp57
 70
     0
102
RTVSPropertyOp58
 70
     0
102
RTVSPropertyOp59
 70
     0
102
RTVSPropertyOp60
 70
     0
102
RTVSPropertyOp61
 70
     0
102
RTVSPropertyOp62
 70
     0
  0
XRECORD
  5
97AB
102
{ACAD_REACTORS
330
97AA
102
}
330
97AA
100
AcDbXrecord
280
     1
102
RTVSPost2010Prop28
280
     0
102
RTVSPost2010PropOp28
 70
     1
102
RTVSPost2010Prop29
280
     1
102
RTVSPost2010PropOp29
 70
     1
102
RTVSPost2010Prop30
280
     1
102
RTVSPost2010PropOp30
 70
     1
102
RTVSPost2010Prop31
280
     0
102
RTVSPost2010PropOp31
 70
     1
102
RTVSPost2010Prop32
280
     0
102
RTVSPost2010PropOp32
 70
     1
102
RTVSPost2010Prop33
280
     0
102
RTVSPost2010PropOp33
 70
     1
102
RTVSPost2010Prop34
280
     0
102
RTVSPost2010PropOp34
 70
     1
102
RTVSPost2010Prop35
280
     0
102
RTVSPost2010PropOp35
 70
     1
102
RTVSPost2010Prop36
280
     0
102
RTVSPost2010PropOp36
 70
     1
102
RTVSPost2010Prop37
 90
       50
102
RTVSPost2010PropOp37
 70
     1
102
RTVSPost2010Prop38
140
0.0
102
RTVSPost2010PropOp38
 70
     1
102
RTVSPost2010Prop39
140
1.0
102
RTVSPost2010PropOp39
 70
     1
102
RTVSPost2010Prop40
 90
        0
102
RTVSPost2010PropOp40
 70
     1
102
RTVSPost2010Prop41ColorIndex
 90
       18
102
RTVSPost2010Prop41ColorRGB
 90
        0
102
RTVSPost2010PropOp41
 70
     1
102
RTVSPost2010Prop42
 90
       50
102
RTVSPost2010PropOp42
 70
     1
102
RTVSPost2010Prop43
 90
        3
102
RTVSPost2010PropOp43
 70
     1
102
RTVSPost2010Prop44ColorIndex
 90
        5
102
RTVSPost2010Prop44ColorRGB
 90
      255
102
RTVSPost2010PropOp44
 70
     1
102
RTVSPost2010Prop45
280
     0
102
RTVSPost2010PropOp45
 70
     1
102
RTVSPost2010Prop46
 90
       50
102
RTVSPost2010PropOp46
 70
     1
102
RTVSPost2010Prop47
 90
       50
102
RTVSPost2010PropOp47
 70
     1
102
RTVSPost2010Prop48
 90
       50
102
RTVSPost2010PropOp48
 70
     1
102
RTVSPost2010Prop49
280
     0
102
RTVSPost2010PropOp49
 70
     1
102
RTVSPost2010Prop50
 90
       50
102
RTVSPost2010PropOp50
 70
     1
102
RTVSPost2010Prop51ColorIndex
 90
      256
102
RTVSPost2010Prop51ColorRGB
 90
-16777216
102
RTVSPost2010PropOp51
 70
     0
102
RTVSPost2010Prop52
140
1.0
102
RTVSPost2010PropOp52
 70
     0
102
RTVSPost2010Prop53
 90
        2
102
RTVSPost2010PropOp53
 70
     1
102
RTVSPost2010Prop54
  1
strokes_ogs.tif
102
RTVSPost2010PropOp54
 70
     1
102
RTVSPost2010Prop55
280
     0
102
RTVSPost2010PropOp55
 70
     1
102
RTVSPost2010Prop56
140
1.0
102
RTVSPost2010PropOp56
 70
     1
102
RTVSPost2010Prop57
140
1.0
102
RTVSPost2010PropOp57
 70
     1
102
RTVSPropertyOp0
 70
     1
102
RTVSPropertyOp1
 70
     1
102
RTVSPropertyOp2
 70
     1
102
RTVSPropertyOp3
 70
     1
102
RTVSPropertyOp4
 70
     1
102
RTVSPropertyOp5
 70
     1
102
RTVSPropertyOp6
 70
     1
102
RTVSPropertyOp7
 70
     1
102
RTVSPropertyOp8
 70
     1
102
RTVSPropertyOp9
 70
     1
102
RTVSPropertyOp10
 70
     1
102
RTVSPropertyOp11
 70
     1
102
RTVSPropertyOp12
 70
     1
102
RTVSPropertyOp13
 70
     1
102
RTVSPropertyOp14
 70
     1
102
RTVSPropertyOp15
 70
     1
102
RTVSPropertyOp16
 70
     1
102
RTVSPropertyOp17
 70
     1
102
RTVSPropertyOp18
 70
     1
102
RTVSPropertyOp19
 70
     1
102
RTVSPropertyOp20
 70
     1
102
RTVSPropertyOp21
 70
     1
102
RTVSPropertyOp22
 70
     1
102
RTVSPropertyOp23
 70
     1
102
RTVSPropertyOp24
 70
     1
102
RTVSPropertyOp25
 70
     1
102
RTVSPropertyOp26
 70
     1
102
RTVSPropertyOp27
 70
     1
102
RTVSPropertyOp28
 70
     1
102
RTVSPropertyOp29
 70
     1
102
RTVSPropertyOp30
 70
     1
102
RTVSPropertyOp31
 70
     1
102
RTVSPropertyOp32
 70
     1
102
RTVSPropertyOp33
 70
     1
102
RTVSPropertyOp34
 70
     1
102
RTVSPropertyOp35
 70
     1
102
RTVSPropertyOp36
 70
     1
102
RTVSPropertyOp37
 70
     1
102
RTVSPropertyOp38
 70
     1
102
RTVSPropertyOp39
 70
     1
102
RTVSPropertyOp40
 70
     1
102
RTVSPropertyOp41
 70
     1
102
RTVSPropertyOp42
 70
     1
102
RTVSPropertyOp43
 70
     1
102
RTVSPropertyOp44
 70
     1
102
RTVSPropertyOp45
 70
     1
102
RTVSPropertyOp46
 70
     1
102
RTVSPropertyOp47
 70
     1
102
RTVSPropertyOp48
 70
     1
102
RTVSPropertyOp49
 70
     1
102
RTVSPropertyOp50
 70
     1
102
RTVSPropertyOp51
 70
     0
102
RTVSPropertyOp52
 70
     0
102
RTVSPropertyOp53
 70
     1
102
RTVSPropertyOp54
 70
     1
102
RTVSPropertyOp55
 70
     1
102
RTVSPropertyOp56
 70
     1
102
RTVSPropertyOp57
 70
     1
102
RTVSPropertyOp58
 70
     1
102
RTVSPropertyOp59
 70
     1
102
RTVSPropertyOp60
 70
     1
102
RTVSPropertyOp61
 70
     1
102
RTVSPropertyOp62
 70
     1
  0
XRECORD
  5
978F
102
{ACAD_REACTORS
330
978E
102
}
330
978E
100
AcDbXrecord
280
     1
102
RTVSPost2010Prop28
280
     0
102
RTVSPost2010PropOp28
 70
     1
102
RTVSPost2010Prop29
280
     1
102
RTVSPost2010PropOp29
 70
     1
102
RTVSPost2010Prop30
280
     1
102
RTVSPost2010PropOp30
 70
     1
102
RTVSPost2010Prop31
280
     0
102
RTVSPost2010PropOp31
 70
     1
102
RTVSPost2010Prop32
280
     0
102
RTVSPost2010PropOp32
 70
     1
102
RTVSPost2010Prop33
280
     0
102
RTVSPost2010PropOp33
 70
     1
102
RTVSPost2010Prop34
280
     0
102
RTVSPost2010PropOp34
 70
     1
102
RTVSPost2010Prop35
280
     0
102
RTVSPost2010PropOp35
 70
     1
102
RTVSPost2010Prop36
280
     0
102
RTVSPost2010PropOp36
 70
     1
102
RTVSPost2010Prop37
 90
       50
102
RTVSPost2010PropOp37
 70
     1
102
RTVSPost2010Prop38
140
0.0
102
RTVSPost2010PropOp38
 70
     1
102
RTVSPost2010Prop39
140
1.0
102
RTVSPost2010PropOp39
 70
     1
102
RTVSPost2010Prop40
 90
        0
102
RTVSPost2010PropOp40
 70
     1
102
RTVSPost2010Prop41ColorIndex
 90
       18
102
RTVSPost2010Prop41ColorRGB
 90
        0
102
RTVSPost2010PropOp41
 70
     1
102
RTVSPost2010Prop42
 90
       50
102
RTVSPost2010PropOp42
 70
     1
102
RTVSPost2010Prop43
 90
        3
102
RTVSPost2010PropOp43
 70
     1
102
RTVSPost2010Prop44ColorIndex
 90
        5
102
RTVSPost2010Prop44ColorRGB
 90
      255
102
RTVSPost2010PropOp44
 70
     1
102
RTVSPost2010Prop45
280
     0
102
RTVSPost2010PropOp45
 70
     1
102
RTVSPost2010Prop46
 90
       50
102
RTVSPost2010PropOp46
 70
     1
102
RTVSPost2010Prop47
 90
       50
102
RTVSPost2010PropOp47
 70
     1
102
RTVSPost2010Prop48
 90
       50
102
RTVSPost2010PropOp48
 70
     1
102
RTVSPost2010Prop49
280
     0
102
RTVSPost2010PropOp49
 70
     1
102
RTVSPost2010Prop50
 90
       50
102
RTVSPost2010PropOp50
 70
     1
102
RTVSPost2010Prop51ColorIndex
 90
      256
102
RTVSPost2010Prop51ColorRGB
 90
-16777216
102
RTVSPost2010PropOp51
 70
     0
102
RTVSPost2010Prop52
140
1.0
102
RTVSPost2010PropOp52
 70
     0
102
RTVSPost2010Prop53
 90
        2
102
RTVSPost2010PropOp53
 70
     1
102
RTVSPost2010Prop54
  1
strokes_ogs.tif
102
RTVSPost2010PropOp54
 70
     1
102
RTVSPost2010Prop55
280
     0
102
RTVSPost2010PropOp55
 70
     1
102
RTVSPost2010Prop56
140
1.0
102
RTVSPost2010PropOp56
 70
     1
102
RTVSPost2010Prop57
140
1.0
102
RTVSPost2010PropOp57
 70
     1
102
RTVSPropertyOp0
 70
     1
102
RTVSPropertyOp1
 70
     1
102
RTVSPropertyOp2
 70
     1
102
RTVSPropertyOp3
 70
     1
102
RTVSPropertyOp4
 70
     1
102
RTVSPropertyOp5
 70
     1
102
RTVSPropertyOp6
 70
     1
102
RTVSPropertyOp7
 70
     1
102
RTVSPropertyOp8
 70
     1
102
RTVSPropertyOp9
 70
     1
102
RTVSPropertyOp10
 70
     1
102
RTVSPropertyOp11
 70
     1
102
RTVSPropertyOp12
 70
     1
102
RTVSPropertyOp13
 70
     1
102
RTVSPropertyOp14
 70
     1
102
RTVSPropertyOp15
 70
     1
102
RTVSPropertyOp16
 70
     1
102
RTVSPropertyOp17
 70
     1
102
RTVSPropertyOp18
 70
     1
102
RTVSPropertyOp19
 70
     1
102
RTVSPropertyOp20
 70
     1
102
RTVSPropertyOp21
 70
     1
102
RTVSPropertyOp22
 70
     1
102
RTVSPropertyOp23
 70
     1
102
RTVSPropertyOp24
 70
     1
102
RTVSPropertyOp25
 70
     1
102
RTVSPropertyOp26
 70
     1
102
RTVSPropertyOp27
 70
     1
102
RTVSPropertyOp28
 70
     1
102
RTVSPropertyOp29
 70
     1
102
RTVSPropertyOp30
 70
     1
102
RTVSPropertyOp31
 70
     1
102
RTVSPropertyOp32
 70
     1
102
RTVSPropertyOp33
 70
     1
102
RTVSPropertyOp34
 70
     1
102
RTVSPropertyOp35
 70
     1
102
RTVSPropertyOp36
 70
     1
102
RTVSPropertyOp37
 70
     1
102
RTVSPropertyOp38
 70
     1
102
RTVSPropertyOp39
 70
     1
102
RTVSPropertyOp40
 70
     1
102
RTVSPropertyOp41
 70
     1
102
RTVSPropertyOp42
 70
     1
102
RTVSPropertyOp43
 70
     1
102
RTVSPropertyOp44
 70
     1
102
RTVSPropertyOp45
 70
     1
102
RTVSPropertyOp46
 70
     1
102
RTVSPropertyOp47
 70
     1
102
RTVSPropertyOp48
 70
     1
102
RTVSPropertyOp49
 70
     1
102
RTVSPropertyOp50
 70
     1
102
RTVSPropertyOp51
 70
     0
102
RTVSPropertyOp52
 70
     0
102
RTVSPropertyOp53
 70
     1
102
RTVSPropertyOp54
 70
     1
102
RTVSPropertyOp55
 70
     1
102
RTVSPropertyOp56
 70
     1
102
RTVSPropertyOp57
 70
     1
102
RTVSPropertyOp58
 70
     1
102
RTVSPropertyOp59
 70
     1
102
RTVSPropertyOp60
 70
     1
102
RTVSPropertyOp61
 70
     1
102
RTVSPropertyOp62
 70
     1
  0
XRECORD
  5
9791
102
{ACAD_REACTORS
330
9790
102
}
330
9790
100
AcDbXrecord
280
     1
102
RTVSPost2010Prop28
280
     0
102
RTVSPost2010PropOp28
 70
     1
102
RTVSPost2010Prop29
280
     1
102
RTVSPost2010PropOp29
 70
     1
102
RTVSPost2010Prop30
280
     1
102
RTVSPost2010PropOp30
 70
     1
102
RTVSPost2010Prop31
280
     0
102
RTVSPost2010PropOp31
 70
     1
102
RTVSPost2010Prop32
280
     0
102
RTVSPost2010PropOp32
 70
     1
102
RTVSPost2010Prop33
280
     0
102
RTVSPost2010PropOp33
 70
     1
102
RTVSPost2010Prop34
280
     0
102
RTVSPost2010PropOp34
 70
     1
102
RTVSPost2010Prop35
280
     0
102
RTVSPost2010PropOp35
 70
     1
102
RTVSPost2010Prop36
280
     0
102
RTVSPost2010PropOp36
 70
     1
102
RTVSPost2010Prop37
 90
       50
102
RTVSPost2010PropOp37
 70
     1
102
RTVSPost2010Prop38
140
0.0
102
RTVSPost2010PropOp38
 70
     1
102
RTVSPost2010Prop39
140
1.0
102
RTVSPost2010PropOp39
 70
     1
102
RTVSPost2010Prop40
 90
        0
102
RTVSPost2010PropOp40
 70
     1
102
RTVSPost2010Prop41ColorIndex
 90
       18
102
RTVSPost2010Prop41ColorRGB
 90
        0
102
RTVSPost2010PropOp41
 70
     1
102
RTVSPost2010Prop42
 90
       50
102
RTVSPost2010PropOp42
 70
     1
102
RTVSPost2010Prop43
 90
        3
102
RTVSPost2010PropOp43
 70
     1
102
RTVSPost2010Prop44ColorIndex
 90
        5
102
RTVSPost2010Prop44ColorRGB
 90
      255
102
RTVSPost2010PropOp44
 70
     1
102
RTVSPost2010Prop45
280
     0
102
RTVSPost2010PropOp45
 70
     1
102
RTVSPost2010Prop46
 90
       50
102
RTVSPost2010PropOp46
 70
     1
102
RTVSPost2010Prop47
 90
       50
102
RTVSPost2010PropOp47
 70
     1
102
RTVSPost2010Prop48
 90
       50
102
RTVSPost2010PropOp48
 70
     1
102
RTVSPost2010Prop49
280
     0
102
RTVSPost2010PropOp49
 70
     1
102
RTVSPost2010Prop50
 90
       50
102
RTVSPost2010PropOp50
 70
     1
102
RTVSPost2010Prop51ColorIndex
 90
      256
102
RTVSPost2010Prop51ColorRGB
 90
-16777216
102
RTVSPost2010PropOp51
 70
     0
102
RTVSPost2010Prop52
140
1.0
102
RTVSPost2010PropOp52
 70
     0
102
RTVSPost2010Prop53
 90
        2
102
RTVSPost2010PropOp53
 70
     1
102
RTVSPost2010Prop54
  1
strokes_ogs.tif
102
RTVSPost2010PropOp54
 70
     1
102
RTVSPost2010Prop55
280
     0
102
RTVSPost2010PropOp55
 70
     1
102
RTVSPost2010Prop56
140
1.0
102
RTVSPost2010PropOp56
 70
     1
102
RTVSPost2010Prop57
140
1.0
102
RTVSPost2010PropOp57
 70
     1
102
RTVSPropertyOp0
 70
     1
102
RTVSPropertyOp1
 70
     1
102
RTVSPropertyOp2
 70
     1
102
RTVSPropertyOp3
 70
     1
102
RTVSPropertyOp4
 70
     1
102
RTVSPropertyOp5
 70
     1
102
RTVSPropertyOp6
 70
     1
102
RTVSPropertyOp7
 70
     1
102
RTVSPropertyOp8
 70
     1
102
RTVSPropertyOp9
 70
     1
102
RTVSPropertyOp10
 70
     1
102
RTVSPropertyOp11
 70
     1
102
RTVSPropertyOp12
 70
     1
102
RTVSPropertyOp13
 70
     1
102
RTVSPropertyOp14
 70
     1
102
RTVSPropertyOp15
 70
     1
102
RTVSPropertyOp16
 70
     1
102
RTVSPropertyOp17
 70
     1
102
RTVSPropertyOp18
 70
     1
102
RTVSPropertyOp19
 70
     1
102
RTVSPropertyOp20
 70
     1
102
RTVSPropertyOp21
 70
     1
102
RTVSPropertyOp22
 70
     1
102
RTVSPropertyOp23
 70
     1
102
RTVSPropertyOp24
 70
     1
102
RTVSPropertyOp25
 70
     1
102
RTVSPropertyOp26
 70
     1
102
RTVSPropertyOp27
 70
     1
102
RTVSPropertyOp28
 70
     1
102
RTVSPropertyOp29
 70
     1
102
RTVSPropertyOp30
 70
     1
102
RTVSPropertyOp31
 70
     1
102
RTVSPropertyOp32
 70
     1
102
RTVSPropertyOp33
 70
     1
102
RTVSPropertyOp34
 70
     1
102
RTVSPropertyOp35
 70
     1
102
RTVSPropertyOp36
 70
     1
102
RTVSPropertyOp37
 70
     1
102
RTVSPropertyOp38
 70
     1
102
RTVSPropertyOp39
 70
     1
102
RTVSPropertyOp40
 70
     1
102
RTVSPropertyOp41
 70
     1
102
RTVSPropertyOp42
 70
     1
102
RTVSPropertyOp43
 70
     1
102
RTVSPropertyOp44
 70
     1
102
RTVSPropertyOp45
 70
     1
102
RTVSPropertyOp46
 70
     1
102
RTVSPropertyOp47
 70
     1
102
RTVSPropertyOp48
 70
     1
102
RTVSPropertyOp49
 70
     1
102
RTVSPropertyOp50
 70
     1
102
RTVSPropertyOp51
 70
     0
102
RTVSPropertyOp52
 70
     0
102
RTVSPropertyOp53
 70
     1
102
RTVSPropertyOp54
 70
     1
102
RTVSPropertyOp55
 70
     1
102
RTVSPropertyOp56
 70
     1
102
RTVSPropertyOp57
 70
     1
102
RTVSPropertyOp58
 70
     1
102
RTVSPropertyOp59
 70
     1
102
RTVSPropertyOp60
 70
     1
102
RTVSPropertyOp61
 70
     1
102
RTVSPropertyOp62
 70
     1
  0
XRECORD
  5
9793
102
{ACAD_REACTORS
330
9792
102
}
330
9792
100
AcDbXrecord
280
     1
102
RTVSPost2010Prop28
280
     0
102
RTVSPost2010PropOp28
 70
     1
102
RTVSPost2010Prop29
280
     1
102
RTVSPost2010PropOp29
 70
     1
102
RTVSPost2010Prop30
280
     1
102
RTVSPost2010PropOp30
 70
     1
102
RTVSPost2010Prop31
280
     0
102
RTVSPost2010PropOp31
 70
     1
102
RTVSPost2010Prop32
280
     0
102
RTVSPost2010PropOp32
 70
     1
102
RTVSPost2010Prop33
280
     0
102
RTVSPost2010PropOp33
 70
     1
102
RTVSPost2010Prop34
280
     0
102
RTVSPost2010PropOp34
 70
     1
102
RTVSPost2010Prop35
280
     0
102
RTVSPost2010PropOp35
 70
     1
102
RTVSPost2010Prop36
280
     0
102
RTVSPost2010PropOp36
 70
     1
102
RTVSPost2010Prop37
 90
       50
102
RTVSPost2010PropOp37
 70
     1
102
RTVSPost2010Prop38
140
0.0
102
RTVSPost2010PropOp38
 70
     1
102
RTVSPost2010Prop39
140
1.0
102
RTVSPost2010PropOp39
 70
     1
102
RTVSPost2010Prop40
 90
        0
102
RTVSPost2010PropOp40
 70
     1
102
RTVSPost2010Prop41ColorIndex
 90
       18
102
RTVSPost2010Prop41ColorRGB
 90
        0
102
RTVSPost2010PropOp41
 70
     1
102
RTVSPost2010Prop42
 90
       50
102
RTVSPost2010PropOp42
 70
     1
102
RTVSPost2010Prop43
 90
        3
102
RTVSPost2010PropOp43
 70
     1
102
RTVSPost2010Prop44ColorIndex
 90
        5
102
RTVSPost2010Prop44ColorRGB
 90
      255
102
RTVSPost2010PropOp44
 70
     1
102
RTVSPost2010Prop45
280
     0
102
RTVSPost2010PropOp45
 70
     1
102
RTVSPost2010Prop46
 90
       50
102
RTVSPost2010PropOp46
 70
     1
102
RTVSPost2010Prop47
 90
       50
102
RTVSPost2010PropOp47
 70
     1
102
RTVSPost2010Prop48
 90
       50
102
RTVSPost2010PropOp48
 70
     1
102
RTVSPost2010Prop49
280
     0
102
RTVSPost2010PropOp49
 70
     1
102
RTVSPost2010Prop50
 90
       50
102
RTVSPost2010PropOp50
 70
     1
102
RTVSPost2010Prop51ColorIndex
 90
      256
102
RTVSPost2010Prop51ColorRGB
 90
-16777216
102
RTVSPost2010PropOp51
 70
     0
102
RTVSPost2010Prop52
140
1.0
102
RTVSPost2010PropOp52
 70
     0
102
RTVSPost2010Prop53
 90
        2
102
RTVSPost2010PropOp53
 70
     1
102
RTVSPost2010Prop54
  1
strokes_ogs.tif
102
RTVSPost2010PropOp54
 70
     1
102
RTVSPost2010Prop55
280
     0
102
RTVSPost2010PropOp55
 70
     1
102
RTVSPost2010Prop56
140
1.0
102
RTVSPost2010PropOp56
 70
     1
102
RTVSPost2010Prop57
140
1.0
102
RTVSPost2010PropOp57
 70
     1
102
RTVSPropertyOp0
 70
     1
102
RTVSPropertyOp1
 70
     1
102
RTVSPropertyOp2
 70
     1
102
RTVSPropertyOp3
 70
     1
102
RTVSPropertyOp4
 70
     1
102
RTVSPropertyOp5
 70
     1
102
RTVSPropertyOp6
 70
     1
102
RTVSPropertyOp7
 70
     1
102
RTVSPropertyOp8
 70
     1
102
RTVSPropertyOp9
 70
     1
102
RTVSPropertyOp10
 70
     1
102
RTVSPropertyOp11
 70
     1
102
RTVSPropertyOp12
 70
     1
102
RTVSPropertyOp13
 70
     1
102
RTVSPropertyOp14
 70
     1
102
RTVSPropertyOp15
 70
     1
102
RTVSPropertyOp16
 70
     1
102
RTVSPropertyOp17
 70
     1
102
RTVSPropertyOp18
 70
     1
102
RTVSPropertyOp19
 70
     1
102
RTVSPropertyOp20
 70
     1
102
RTVSPropertyOp21
 70
     1
102
RTVSPropertyOp22
 70
     1
102
RTVSPropertyOp23
 70
     1
102
RTVSPropertyOp24
 70
     1
102
RTVSPropertyOp25
 70
     1
102
RTVSPropertyOp26
 70
     1
102
RTVSPropertyOp27
 70
     1
102
RTVSPropertyOp28
 70
     1
102
RTVSPropertyOp29
 70
     1
102
RTVSPropertyOp30
 70
     1
102
RTVSPropertyOp31
 70
     1
102
RTVSPropertyOp32
 70
     1
102
RTVSPropertyOp33
 70
     1
102
RTVSPropertyOp34
 70
     1
102
RTVSPropertyOp35
 70
     1
102
RTVSPropertyOp36
 70
     1
102
RTVSPropertyOp37
 70
     1
102
RTVSPropertyOp38
 70
     1
102
RTVSPropertyOp39
 70
     1
102
RTVSPropertyOp40
 70
     1
102
RTVSPropertyOp41
 70
     1
102
RTVSPropertyOp42
 70
     1
102
RTVSPropertyOp43
 70
     1
102
RTVSPropertyOp44
 70
     1
102
RTVSPropertyOp45
 70
     1
102
RTVSPropertyOp46
 70
     1
102
RTVSPropertyOp47
 70
     1
102
RTVSPropertyOp48
 70
     1
102
RTVSPropertyOp49
 70
     1
102
RTVSPropertyOp50
 70
     1
102
RTVSPropertyOp51
 70
     0
102
RTVSPropertyOp52
 70
     0
102
RTVSPropertyOp53
 70
     1
102
RTVSPropertyOp54
 70
     1
102
RTVSPropertyOp55
 70
     1
102
RTVSPropertyOp56
 70
     1
102
RTVSPropertyOp57
 70
     1
102
RTVSPropertyOp58
 70
     1
102
RTVSPropertyOp59
 70
     1
102
RTVSPropertyOp60
 70
     1
102
RTVSPropertyOp61
 70
     1
102
RTVSPropertyOp62
 70
     1
  0
XRECORD
  5
9795
102
{ACAD_REACTORS
330
9794
102
}
330
9794
100
AcDbXrecord
280
     1
102
RTVSPost2010Prop28
280
     0
102
RTVSPost2010PropOp28
 70
     1
102
RTVSPost2010Prop29
280
     1
102
RTVSPost2010PropOp29
 70
     1
102
RTVSPost2010Prop30
280
     1
102
RTVSPost2010PropOp30
 70
     1
102
RTVSPost2010Prop31
280
     0
102
RTVSPost2010PropOp31
 70
     1
102
RTVSPost2010Prop32
280
     0
102
RTVSPost2010PropOp32
 70
     1
102
RTVSPost2010Prop33
280
     0
102
RTVSPost2010PropOp33
 70
     1
102
RTVSPost2010Prop34
280
     0
102
RTVSPost2010PropOp34
 70
     1
102
RTVSPost2010Prop35
280
     0
102
RTVSPost2010PropOp35
 70
     1
102
RTVSPost2010Prop36
280
     0
102
RTVSPost2010PropOp36
 70
     1
102
RTVSPost2010Prop37
 90
       50
102
RTVSPost2010PropOp37
 70
     1
102
RTVSPost2010Prop38
140
0.0
102
RTVSPost2010PropOp38
 70
     1
102
RTVSPost2010Prop39
140
1.0
102
RTVSPost2010PropOp39
 70
     1
102
RTVSPost2010Prop40
 90
        0
102
RTVSPost2010PropOp40
 70
     1
102
RTVSPost2010Prop41ColorIndex
 90
       18
102
RTVSPost2010Prop41ColorRGB
 90
        0
102
RTVSPost2010PropOp41
 70
     1
102
RTVSPost2010Prop42
 90
       50
102
RTVSPost2010PropOp42
 70
     1
102
RTVSPost2010Prop43
 90
        3
102
RTVSPost2010PropOp43
 70
     1
102
RTVSPost2010Prop44ColorIndex
 90
        5
102
RTVSPost2010Prop44ColorRGB
 90
      255
102
RTVSPost2010PropOp44
 70
     1
102
RTVSPost2010Prop45
280
     0
102
RTVSPost2010PropOp45
 70
     1
102
RTVSPost2010Prop46
 90
       50
102
RTVSPost2010PropOp46
 70
     1
102
RTVSPost2010Prop47
 90
       50
102
RTVSPost2010PropOp47
 70
     1
102
RTVSPost2010Prop48
 90
       50
102
RTVSPost2010PropOp48
 70
     1
102
RTVSPost2010Prop49
280
     0
102
RTVSPost2010PropOp49
 70
     1
102
RTVSPost2010Prop50
 90
       50
102
RTVSPost2010PropOp50
 70
     1
102
RTVSPost2010Prop51ColorIndex
 90
      256
102
RTVSPost2010Prop51ColorRGB
 90
-16777216
102
RTVSPost2010PropOp51
 70
     0
102
RTVSPost2010Prop52
140
1.0
102
RTVSPost2010PropOp52
 70
     0
102
RTVSPost2010Prop53
 90
        2
102
RTVSPost2010PropOp53
 70
     1
102
RTVSPost2010Prop54
  1
strokes_ogs.tif
102
RTVSPost2010PropOp54
 70
     1
102
RTVSPost2010Prop55
280
     0
102
RTVSPost2010PropOp55
 70
     1
102
RTVSPost2010Prop56
140
1.0
102
RTVSPost2010PropOp56
 70
     1
102
RTVSPost2010Prop57
140
1.0
102
RTVSPost2010PropOp57
 70
     1
102
RTVSPropertyOp0
 70
     1
102
RTVSPropertyOp1
 70
     1
102
RTVSPropertyOp2
 70
     1
102
RTVSPropertyOp3
 70
     1
102
RTVSPropertyOp4
 70
     1
102
RTVSPropertyOp5
 70
     1
102
RTVSPropertyOp6
 70
     1
102
RTVSPropertyOp7
 70
     1
102
RTVSPropertyOp8
 70
     1
102
RTVSPropertyOp9
 70
     1
102
RTVSPropertyOp10
 70
     1
102
RTVSPropertyOp11
 70
     1
102
RTVSPropertyOp12
 70
     1
102
RTVSPropertyOp13
 70
     1
102
RTVSPropertyOp14
 70
     1
102
RTVSPropertyOp15
 70
     1
102
RTVSPropertyOp16
 70
     1
102
RTVSPropertyOp17
 70
     1
102
RTVSPropertyOp18
 70
     1
102
RTVSPropertyOp19
 70
     1
102
RTVSPropertyOp20
 70
     1
102
RTVSPropertyOp21
 70
     1
102
RTVSPropertyOp22
 70
     1
102
RTVSPropertyOp23
 70
     1
102
RTVSPropertyOp24
 70
     1
102
RTVSPropertyOp25
 70
     1
102
RTVSPropertyOp26
 70
     1
102
RTVSPropertyOp27
 70
     1
102
RTVSPropertyOp28
 70
     1
102
RTVSPropertyOp29
 70
     1
102
RTVSPropertyOp30
 70
     1
102
RTVSPropertyOp31
 70
     1
102
RTVSPropertyOp32
 70
     1
102
RTVSPropertyOp33
 70
     1
102
RTVSPropertyOp34
 70
     1
102
RTVSPropertyOp35
 70
     1
102
RTVSPropertyOp36
 70
     1
102
RTVSPropertyOp37
 70
     1
102
RTVSPropertyOp38
 70
     1
102
RTVSPropertyOp39
 70
     1
102
RTVSPropertyOp40
 70
     1
102
RTVSPropertyOp41
 70
     1
102
RTVSPropertyOp42
 70
     1
102
RTVSPropertyOp43
 70
     1
102
RTVSPropertyOp44
 70
     1
102
RTVSPropertyOp45
 70
     1
102
RTVSPropertyOp46
 70
     1
102
RTVSPropertyOp47
 70
     1
102
RTVSPropertyOp48
 70
     1
102
RTVSPropertyOp49
 70
     1
102
RTVSPropertyOp50
 70
     1
102
RTVSPropertyOp51
 70
     0
102
RTVSPropertyOp52
 70
     0
102
RTVSPropertyOp53
 70
     1
102
RTVSPropertyOp54
 70
     1
102
RTVSPropertyOp55
 70
     1
102
RTVSPropertyOp56
 70
     1
102
RTVSPropertyOp57
 70
     1
102
RTVSPropertyOp58
 70
     1
102
RTVSPropertyOp59
 70
     1
102
RTVSPropertyOp60
 70
     1
102
RTVSPropertyOp61
 70
     1
102
RTVSPropertyOp62
 70
     1
  0
XRECORD
  5
979D
102
{ACAD_REACTORS
330
979C
102
}
330
979C
100
AcDbXrecord
280
     1
102
RTVSPost2010Prop28
280
     0
102
RTVSPost2010PropOp28
 70
     1
102
RTVSPost2010Prop29
280
     1
102
RTVSPost2010PropOp29
 70
     1
102
RTVSPost2010Prop30
280
     1
102
RTVSPost2010PropOp30
 70
     1
102
RTVSPost2010Prop31
280
     0
102
RTVSPost2010PropOp31
 70
     1
102
RTVSPost2010Prop32
280
     0
102
RTVSPost2010PropOp32
 70
     1
102
RTVSPost2010Prop33
280
     0
102
RTVSPost2010PropOp33
 70
     1
102
RTVSPost2010Prop34
280
     0
102
RTVSPost2010PropOp34
 70
     1
102
RTVSPost2010Prop35
280
     0
102
RTVSPost2010PropOp35
 70
     1
102
RTVSPost2010Prop36
280
     0
102
RTVSPost2010PropOp36
 70
     1
102
RTVSPost2010Prop37
 90
       50
102
RTVSPost2010PropOp37
 70
     1
102
RTVSPost2010Prop38
140
0.0
102
RTVSPost2010PropOp38
 70
     1
102
RTVSPost2010Prop39
140
1.0
102
RTVSPost2010PropOp39
 70
     1
102
RTVSPost2010Prop40
 90
        0
102
RTVSPost2010PropOp40
 70
     1
102
RTVSPost2010Prop41ColorIndex
 90
       18
102
RTVSPost2010Prop41ColorRGB
 90
        0
102
RTVSPost2010PropOp41
 70
     1
102
RTVSPost2010Prop42
 90
       50
102
RTVSPost2010PropOp42
 70
     1
102
RTVSPost2010Prop43
 90
        3
102
RTVSPost2010PropOp43
 70
     1
102
RTVSPost2010Prop44ColorIndex
 90
        5
102
RTVSPost2010Prop44ColorRGB
 90
      255
102
RTVSPost2010PropOp44
 70
     1
102
RTVSPost2010Prop45
280
     0
102
RTVSPost2010PropOp45
 70
     1
102
RTVSPost2010Prop46
 90
       50
102
RTVSPost2010PropOp46
 70
     1
102
RTVSPost2010Prop47
 90
       50
102
RTVSPost2010PropOp47
 70
     1
102
RTVSPost2010Prop48
 90
       50
102
RTVSPost2010PropOp48
 70
     1
102
RTVSPost2010Prop49
280
     0
102
RTVSPost2010PropOp49
 70
     1
102
RTVSPost2010Prop50
 90
       50
102
RTVSPost2010PropOp50
 70
     1
102
RTVSPost2010Prop51ColorIndex
 90
      256
102
RTVSPost2010Prop51ColorRGB
 90
-16777216
102
RTVSPost2010PropOp51
 70
     0
102
RTVSPost2010Prop52
140
1.0
102
RTVSPost2010PropOp52
 70
     0
102
RTVSPost2010Prop53
 90
        2
102
RTVSPost2010PropOp53
 70
     1
102
RTVSPost2010Prop54
  1
strokes_ogs.tif
102
RTVSPost2010PropOp54
 70
     1
102
RTVSPost2010Prop55
280
     0
102
RTVSPost2010PropOp55
 70
     1
102
RTVSPost2010Prop56
140
1.0
102
RTVSPost2010PropOp56
 70
     1
102
RTVSPost2010Prop57
140
1.0
102
RTVSPost2010PropOp57
 70
     1
102
RTVSPropertyOp0
 70
     1
102
RTVSPropertyOp1
 70
     1
102
RTVSPropertyOp2
 70
     1
102
RTVSPropertyOp3
 70
     1
102
RTVSPropertyOp4
 70
     1
102
RTVSPropertyOp5
 70
     1
102
RTVSPropertyOp6
 70
     1
102
RTVSPropertyOp7
 70
     1
102
RTVSPropertyOp8
 70
     1
102
RTVSPropertyOp9
 70
     1
102
RTVSPropertyOp10
 70
     1
102
RTVSPropertyOp11
 70
     1
102
RTVSPropertyOp12
 70
     1
102
RTVSPropertyOp13
 70
     1
102
RTVSPropertyOp14
 70
     1
102
RTVSPropertyOp15
 70
     1
102
RTVSPropertyOp16
 70
     1
102
RTVSPropertyOp17
 70
     1
102
RTVSPropertyOp18
 70
     1
102
RTVSPropertyOp19
 70
     1
102
RTVSPropertyOp20
 70
     1
102
RTVSPropertyOp21
 70
     1
102
RTVSPropertyOp22
 70
     1
102
RTVSPropertyOp23
 70
     1
102
RTVSPropertyOp24
 70
     1
102
RTVSPropertyOp25
 70
     1
102
RTVSPropertyOp26
 70
     1
102
RTVSPropertyOp27
 70
     1
102
RTVSPropertyOp28
 70
     1
102
RTVSPropertyOp29
 70
     1
102
RTVSPropertyOp30
 70
     1
102
RTVSPropertyOp31
 70
     1
102
RTVSPropertyOp32
 70
     1
102
RTVSPropertyOp33
 70
     1
102
RTVSPropertyOp34
 70
     1
102
RTVSPropertyOp35
 70
     1
102
RTVSPropertyOp36
 70
     1
102
RTVSPropertyOp37
 70
     1
102
RTVSPropertyOp38
 70
     1
102
RTVSPropertyOp39
 70
     1
102
RTVSPropertyOp40
 70
     1
102
RTVSPropertyOp41
 70
     1
102
RTVSPropertyOp42
 70
     1
102
RTVSPropertyOp43
 70
     1
102
RTVSPropertyOp44
 70
     1
102
RTVSPropertyOp45
 70
     1
102
RTVSPropertyOp46
 70
     1
102
RTVSPropertyOp47
 70
     1
102
RTVSPropertyOp48
 70
     1
102
RTVSPropertyOp49
 70
     1
102
RTVSPropertyOp50
 70
     1
102
RTVSPropertyOp51
 70
     0
102
RTVSPropertyOp52
 70
     0
102
RTVSPropertyOp53
 70
     1
102
RTVSPropertyOp54
 70
     1
102
RTVSPropertyOp55
 70
     1
102
RTVSPropertyOp56
 70
     1
102
RTVSPropertyOp57
 70
     1
102
RTVSPropertyOp58
 70
     1
102
RTVSPropertyOp59
 70
     1
102
RTVSPropertyOp60
 70
     1
102
RTVSPropertyOp61
 70
     1
102
RTVSPropertyOp62
 70
     1
  0
XRECORD
  5
97B9
102
{ACAD_REACTORS
330
97B8
102
}
330
97B8
100
AcDbXrecord
280
     1
102
RTVSPost2010Prop28
280
     0
102
RTVSPost2010PropOp28
 70
     1
102
RTVSPost2010Prop29
280
     1
102
RTVSPost2010PropOp29
 70
     1
102
RTVSPost2010Prop30
280
     1
102
RTVSPost2010PropOp30
 70
     1
102
RTVSPost2010Prop31
280
     0
102
RTVSPost2010PropOp31
 70
     1
102
RTVSPost2010Prop32
280
     0
102
RTVSPost2010PropOp32
 70
     1
102
RTVSPost2010Prop33
280
     0
102
RTVSPost2010PropOp33
 70
     1
102
RTVSPost2010Prop34
280
     0
102
RTVSPost2010PropOp34
 70
     1
102
RTVSPost2010Prop35
280
     0
102
RTVSPost2010PropOp35
 70
     1
102
RTVSPost2010Prop36
280
     0
102
RTVSPost2010PropOp36
 70
     1
102
RTVSPost2010Prop37
 90
       50
102
RTVSPost2010PropOp37
 70
     0
102
RTVSPost2010Prop38
140
0.0
102
RTVSPost2010PropOp38
 70
     0
102
RTVSPost2010Prop39
140
1.0
102
RTVSPost2010PropOp39
 70
     0
102
RTVSPost2010Prop40
 90
        0
102
RTVSPost2010PropOp40
 70
     0
102
RTVSPost2010Prop41ColorIndex
 90
       18
102
RTVSPost2010Prop41ColorRGB
 90
        0
102
RTVSPost2010PropOp41
 70
     0
102
RTVSPost2010Prop42
 90
       50
102
RTVSPost2010PropOp42
 70
     0
102
RTVSPost2010Prop43
 90
        3
102
RTVSPost2010PropOp43
 70
     0
102
RTVSPost2010Prop44ColorIndex
 90
        5
102
RTVSPost2010Prop44ColorRGB
 90
      255
102
RTVSPost2010PropOp44
 70
     0
102
RTVSPost2010Prop45
280
     0
102
RTVSPost2010PropOp45
 70
     1
102
RTVSPost2010Prop46
 90
       50
102
RTVSPost2010PropOp46
 70
     0
102
RTVSPost2010Prop47
 90
       50
102
RTVSPost2010PropOp47
 70
     0
102
RTVSPost2010Prop48
 90
       50
102
RTVSPost2010PropOp48
 70
     0
102
RTVSPost2010Prop49
280
     0
102
RTVSPost2010PropOp49
 70
     1
102
RTVSPost2010Prop50
 90
       50
102
RTVSPost2010PropOp50
 70
     0
102
RTVSPost2010Prop51ColorIndex
 90
      256
102
RTVSPost2010Prop51ColorRGB
 90
-16777216
102
RTVSPost2010PropOp51
 70
     0
102
RTVSPost2010Prop52
140
1.0
102
RTVSPost2010PropOp52
 70
     0
102
RTVSPost2010Prop53
 90
        2
102
RTVSPost2010PropOp53
 70
     0
102
RTVSPost2010Prop54
  1
strokes_ogs.tif
102
RTVSPost2010PropOp54
 70
     0
102
RTVSPost2010Prop55
280
     0
102
RTVSPost2010PropOp55
 70
     1
102
RTVSPost2010Prop56
140
1.0
102
RTVSPost2010PropOp56
 70
     0
102
RTVSPost2010Prop57
140
1.0
102
RTVSPost2010PropOp57
 70
     0
102
RTVSPropertyOp0
 70
     0
102
RTVSPropertyOp1
 70
     0
102
RTVSPropertyOp2
 70
     0
102
RTVSPropertyOp3
 70
     0
102
RTVSPropertyOp4
 70
     0
102
RTVSPropertyOp5
 70
     0
102
RTVSPropertyOp6
 70
     0
102
RTVSPropertyOp7
 70
     0
102
RTVSPropertyOp8
 70
     0
102
RTVSPropertyOp9
 70
     0
102
RTVSPropertyOp10
 70
     0
102
RTVSPropertyOp11
 70
     0
102
RTVSPropertyOp12
 70
     0
102
RTVSPropertyOp13
 70
     0
102
RTVSPropertyOp14
 70
     2
102
RTVSPropertyOp15
 70
     0
102
RTVSPropertyOp16
 70
     0
102
RTVSPropertyOp17
 70
     0
102
RTVSPropertyOp18
 70
     0
102
RTVSPropertyOp19
 70
     0
102
RTVSPropertyOp20
 70
     0
102
RTVSPropertyOp21
 70
     0
102
RTVSPropertyOp22
 70
     0
102
RTVSPropertyOp23
 70
     0
102
RTVSPropertyOp24
 70
     0
102
RTVSPropertyOp25
 70
     0
102
RTVSPropertyOp26
 70
     0
102
RTVSPropertyOp27
 70
     0
102
RTVSPropertyOp28
 70
     1
102
RTVSPropertyOp29
 70
     1
102
RTVSPropertyOp30
 70
     1
102
RTVSPropertyOp31
 70
     1
102
RTVSPropertyOp32
 70
     1
102
RTVSPropertyOp33
 70
     1
102
RTVSPropertyOp34
 70
     1
102
RTVSPropertyOp35
 70
     1
102
RTVSPropertyOp36
 70
     1
102
RTVSPropertyOp37
 70
     0
102
RTVSPropertyOp38
 70
     0
102
RTVSPropertyOp39
 70
     0
102
RTVSPropertyOp40
 70
     0
102
RTVSPropertyOp41
 70
     0
102
RTVSPropertyOp42
 70
     0
102
RTVSPropertyOp43
 70
     0
102
RTVSPropertyOp44
 70
     0
102
RTVSPropertyOp45
 70
     1
102
RTVSPropertyOp46
 70
     0
102
RTVSPropertyOp47
 70
     0
102
RTVSPropertyOp48
 70
     0
102
RTVSPropertyOp49
 70
     1
102
RTVSPropertyOp50
 70
     0
102
RTVSPropertyOp51
 70
     0
102
RTVSPropertyOp52
 70
     0
102
RTVSPropertyOp53
 70
     0
102
RTVSPropertyOp54
 70
     0
102
RTVSPropertyOp55
 70
     1
102
RTVSPropertyOp56
 70
     0
102
RTVSPropertyOp57
 70
     0
102
RTVSPropertyOp58
 70
     0
102
RTVSPropertyOp59
 70
     0
102
RTVSPropertyOp60
 70
     0
102
RTVSPropertyOp61
 70
     0
102
RTVSPropertyOp62
 70
     0
  0
XRECORD
  5
97A9
102
{ACAD_REACTORS
330
97A8
102
}
330
97A8
100
AcDbXrecord
280
     1
102
RTVSPost2010Prop28
280
     0
102
RTVSPost2010PropOp28
 70
     1
102
RTVSPost2010Prop29
280
     1
102
RTVSPost2010PropOp29
 70
     1
102
RTVSPost2010Prop30
280
     1
102
RTVSPost2010PropOp30
 70
     1
102
RTVSPost2010Prop31
280
     0
102
RTVSPost2010PropOp31
 70
     1
102
RTVSPost2010Prop32
280
     0
102
RTVSPost2010PropOp32
 70
     1
102
RTVSPost2010Prop33
280
     0
102
RTVSPost2010PropOp33
 70
     1
102
RTVSPost2010Prop34
280
     0
102
RTVSPost2010PropOp34
 70
     1
102
RTVSPost2010Prop35
280
     0
102
RTVSPost2010PropOp35
 70
     1
102
RTVSPost2010Prop36
280
     0
102
RTVSPost2010PropOp36
 70
     1
102
RTVSPost2010Prop37
 90
       50
102
RTVSPost2010PropOp37
 70
     1
102
RTVSPost2010Prop38
140
0.0
102
RTVSPost2010PropOp38
 70
     1
102
RTVSPost2010Prop39
140
1.0
102
RTVSPost2010PropOp39
 70
     1
102
RTVSPost2010Prop40
 90
        0
102
RTVSPost2010PropOp40
 70
     1
102
RTVSPost2010Prop41ColorIndex
 90
       18
102
RTVSPost2010Prop41ColorRGB
 90
        0
102
RTVSPost2010PropOp41
 70
     1
102
RTVSPost2010Prop42
 90
       50
102
RTVSPost2010PropOp42
 70
     1
102
RTVSPost2010Prop43
 90
        3
102
RTVSPost2010PropOp43
 70
     1
102
RTVSPost2010Prop44ColorIndex
 90
        5
102
RTVSPost2010Prop44ColorRGB
 90
      255
102
RTVSPost2010PropOp44
 70
     1
102
RTVSPost2010Prop45
280
     0
102
RTVSPost2010PropOp45
 70
     1
102
RTVSPost2010Prop46
 90
       50
102
RTVSPost2010PropOp46
 70
     1
102
RTVSPost2010Prop47
 90
       50
102
RTVSPost2010PropOp47
 70
     1
102
RTVSPost2010Prop48
 90
       50
102
RTVSPost2010PropOp48
 70
     1
102
RTVSPost2010Prop49
280
     0
102
RTVSPost2010PropOp49
 70
     1
102
RTVSPost2010Prop50
 90
       50
102
RTVSPost2010PropOp50
 70
     1
102
RTVSPost2010Prop51ColorIndex
 90
      256
102
RTVSPost2010Prop51ColorRGB
 90
-16777216
102
RTVSPost2010PropOp51
 70
     0
102
RTVSPost2010Prop52
140
1.0
102
RTVSPost2010PropOp52
 70
     0
102
RTVSPost2010Prop53
 90
        2
102
RTVSPost2010PropOp53
 70
     1
102
RTVSPost2010Prop54
  1
strokes_ogs.tif
102
RTVSPost2010PropOp54
 70
     1
102
RTVSPost2010Prop55
280
     0
102
RTVSPost2010PropOp55
 70
     1
102
RTVSPost2010Prop56
140
1.0
102
RTVSPost2010PropOp56
 70
     1
102
RTVSPost2010Prop57
140
1.0
102
RTVSPost2010PropOp57
 70
     1
102
RTVSPropertyOp0
 70
     1
102
RTVSPropertyOp1
 70
     1
102
RTVSPropertyOp2
 70
     1
102
RTVSPropertyOp3
 70
     1
102
RTVSPropertyOp4
 70
     1
102
RTVSPropertyOp5
 70
     1
102
RTVSPropertyOp6
 70
     1
102
RTVSPropertyOp7
 70
     1
102
RTVSPropertyOp8
 70
     1
102
RTVSPropertyOp9
 70
     1
102
RTVSPropertyOp10
 70
     1
102
RTVSPropertyOp11
 70
     1
102
RTVSPropertyOp12
 70
     1
102
RTVSPropertyOp13
 70
     1
102
RTVSPropertyOp14
 70
     1
102
RTVSPropertyOp15
 70
     1
102
RTVSPropertyOp16
 70
     1
102
RTVSPropertyOp17
 70
     1
102
RTVSPropertyOp18
 70
     1
102
RTVSPropertyOp19
 70
     1
102
RTVSPropertyOp20
 70
     1
102
RTVSPropertyOp21
 70
     1
102
RTVSPropertyOp22
 70
     1
102
RTVSPropertyOp23
 70
     1
102
RTVSPropertyOp24
 70
     1
102
RTVSPropertyOp25
 70
     1
102
RTVSPropertyOp26
 70
     1
102
RTVSPropertyOp27
 70
     1
102
RTVSPropertyOp28
 70
     1
102
RTVSPropertyOp29
 70
     1
102
RTVSPropertyOp30
 70
     1
102
RTVSPropertyOp31
 70
     1
102
RTVSPropertyOp32
 70
     1
102
RTVSPropertyOp33
 70
     1
102
RTVSPropertyOp34
 70
     1
102
RTVSPropertyOp35
 70
     1
102
RTVSPropertyOp36
 70
     1
102
RTVSPropertyOp37
 70
     1
102
RTVSPropertyOp38
 70
     1
102
RTVSPropertyOp39
 70
     1
102
RTVSPropertyOp40
 70
     1
102
RTVSPropertyOp41
 70
     1
102
RTVSPropertyOp42
 70
     1
102
RTVSPropertyOp43
 70
     1
102
RTVSPropertyOp44
 70
     1
102
RTVSPropertyOp45
 70
     1
102
RTVSPropertyOp46
 70
     1
102
RTVSPropertyOp47
 70
     1
102
RTVSPropertyOp48
 70
     1
102
RTVSPropertyOp49
 70
     1
102
RTVSPropertyOp50
 70
     1
102
RTVSPropertyOp51
 70
     0
102
RTVSPropertyOp52
 70
     0
102
RTVSPropertyOp53
 70
     1
102
RTVSPropertyOp54
 70
     1
102
RTVSPropertyOp55
 70
     1
102
RTVSPropertyOp56
 70
     1
102
RTVSPropertyOp57
 70
     1
102
RTVSPropertyOp58
 70
     1
102
RTVSPropertyOp59
 70
     1
102
RTVSPropertyOp60
 70
     1
102
RTVSPropertyOp61
 70
     1
102
RTVSPropertyOp62
 70
     1
  0
XRECORD
  5
97BB
102
{ACAD_REACTORS
330
97BA
102
}
330
97BA
100
AcDbXrecord
280
     1
102
RTVSPost2010Prop28
280
     0
102
RTVSPost2010PropOp28
 70
     1
102
RTVSPost2010Prop29
280
     1
102
RTVSPost2010PropOp29
 70
     1
102
RTVSPost2010Prop30
280
     1
102
RTVSPost2010PropOp30
 70
     1
102
RTVSPost2010Prop31
280
     0
102
RTVSPost2010PropOp31
 70
     1
102
RTVSPost2010Prop32
280
     0
102
RTVSPost2010PropOp32
 70
     1
102
RTVSPost2010Prop33
280
     0
102
RTVSPost2010PropOp33
 70
     1
102
RTVSPost2010Prop34
280
     0
102
RTVSPost2010PropOp34
 70
     1
102
RTVSPost2010Prop35
280
     0
102
RTVSPost2010PropOp35
 70
     1
102
RTVSPost2010Prop36
280
     0
102
RTVSPost2010PropOp36
 70
     1
102
RTVSPost2010Prop37
 90
       50
102
RTVSPost2010PropOp37
 70
     0
102
RTVSPost2010Prop38
140
0.0
102
RTVSPost2010PropOp38
 70
     0
102
RTVSPost2010Prop39
140
1.0
102
RTVSPost2010PropOp39
 70
     0
102
RTVSPost2010Prop40
 90
        0
102
RTVSPost2010PropOp40
 70
     0
102
RTVSPost2010Prop41ColorIndex
 90
       18
102
RTVSPost2010Prop41ColorRGB
 90
        0
102
RTVSPost2010PropOp41
 70
     0
102
RTVSPost2010Prop42
 90
       50
102
RTVSPost2010PropOp42
 70
     0
102
RTVSPost2010Prop43
 90
        3
102
RTVSPost2010PropOp43
 70
     0
102
RTVSPost2010Prop44ColorIndex
 90
        5
102
RTVSPost2010Prop44ColorRGB
 90
      255
102
RTVSPost2010PropOp44
 70
     0
102
RTVSPost2010Prop45
280
     0
102
RTVSPost2010PropOp45
 70
     1
102
RTVSPost2010Prop46
 90
       50
102
RTVSPost2010PropOp46
 70
     0
102
RTVSPost2010Prop47
 90
       50
102
RTVSPost2010PropOp47
 70
     0
102
RTVSPost2010Prop48
 90
       50
102
RTVSPost2010PropOp48
 70
     0
102
RTVSPost2010Prop49
280
     0
102
RTVSPost2010PropOp49
 70
     1
102
RTVSPost2010Prop50
 90
       50
102
RTVSPost2010PropOp50
 70
     0
102
RTVSPost2010Prop51ColorIndex
 90
      256
102
RTVSPost2010Prop51ColorRGB
 90
-16777216
102
RTVSPost2010PropOp51
 70
     0
102
RTVSPost2010Prop52
140
1.0
102
RTVSPost2010PropOp52
 70
     0
102
RTVSPost2010Prop53
 90
        2
102
RTVSPost2010PropOp53
 70
     0
102
RTVSPost2010Prop54
  1
strokes_ogs.tif
102
RTVSPost2010PropOp54
 70
     0
102
RTVSPost2010Prop55
280
     0
102
RTVSPost2010PropOp55
 70
     1
102
RTVSPost2010Prop56
140
1.0
102
RTVSPost2010PropOp56
 70
     0
102
RTVSPost2010Prop57
140
1.0
102
RTVSPost2010PropOp57
 70
     0
102
RTVSPropertyOp0
 70
     0
102
RTVSPropertyOp1
 70
     0
102
RTVSPropertyOp2
 70
     0
102
RTVSPropertyOp3
 70
     0
102
RTVSPropertyOp4
 70
     0
102
RTVSPropertyOp5
 70
     0
102
RTVSPropertyOp6
 70
     0
102
RTVSPropertyOp7
 70
     0
102
RTVSPropertyOp8
 70
     0
102
RTVSPropertyOp9
 70
     0
102
RTVSPropertyOp10
 70
     0
102
RTVSPropertyOp11
 70
     0
102
RTVSPropertyOp12
 70
     0
102
RTVSPropertyOp13
 70
     0
102
RTVSPropertyOp14
 70
     2
102
RTVSPropertyOp15
 70
     0
102
RTVSPropertyOp16
 70
     0
102
RTVSPropertyOp17
 70
     0
102
RTVSPropertyOp18
 70
     0
102
RTVSPropertyOp19
 70
     0
102
RTVSPropertyOp20
 70
     0
102
RTVSPropertyOp21
 70
     0
102
RTVSPropertyOp22
 70
     0
102
RTVSPropertyOp23
 70
     0
102
RTVSPropertyOp24
 70
     0
102
RTVSPropertyOp25
 70
     0
102
RTVSPropertyOp26
 70
     0
102
RTVSPropertyOp27
 70
     0
102
RTVSPropertyOp28
 70
     1
102
RTVSPropertyOp29
 70
     1
102
RTVSPropertyOp30
 70
     1
102
RTVSPropertyOp31
 70
     1
102
RTVSPropertyOp32
 70
     1
102
RTVSPropertyOp33
 70
     1
102
RTVSPropertyOp34
 70
     1
102
RTVSPropertyOp35
 70
     1
102
RTVSPropertyOp36
 70
     1
102
RTVSPropertyOp37
 70
     0
102
RTVSPropertyOp38
 70
     0
102
RTVSPropertyOp39
 70
     0
102
RTVSPropertyOp40
 70
     0
102
RTVSPropertyOp41
 70
     0
102
RTVSPropertyOp42
 70
     0
102
RTVSPropertyOp43
 70
     0
102
RTVSPropertyOp44
 70
     0
102
RTVSPropertyOp45
 70
     1
102
RTVSPropertyOp46
 70
     0
102
RTVSPropertyOp47
 70
     0
102
RTVSPropertyOp48
 70
     0
102
RTVSPropertyOp49
 70
     1
102
RTVSPropertyOp50
 70
     0
102
RTVSPropertyOp51
 70
     0
102
RTVSPropertyOp52
 70
     0
102
RTVSPropertyOp53
 70
     0
102
RTVSPropertyOp54
 70
     0
102
RTVSPropertyOp55
 70
     1
102
RTVSPropertyOp56
 70
     0
102
RTVSPropertyOp57
 70
     0
102
RTVSPropertyOp58
 70
     0
102
RTVSPropertyOp59
 70
     0
102
RTVSPropertyOp60
 70
     0
102
RTVSPropertyOp61
 70
     0
102
RTVSPropertyOp62
 70
     0
  0
XRECORD
  5
97A1
102
{ACAD_REACTORS
330
97A0
102
}
330
97A0
100
AcDbXrecord
280
     1
102
RTVSPost2010Prop28
280
     0
102
RTVSPost2010PropOp28
 70
     1
102
RTVSPost2010Prop29
280
     1
102
RTVSPost2010PropOp29
 70
     1
102
RTVSPost2010Prop30
280
     1
102
RTVSPost2010PropOp30
 70
     1
102
RTVSPost2010Prop31
280
     0
102
RTVSPost2010PropOp31
 70
     1
102
RTVSPost2010Prop32
280
     0
102
RTVSPost2010PropOp32
 70
     1
102
RTVSPost2010Prop33
280
     0
102
RTVSPost2010PropOp33
 70
     1
102
RTVSPost2010Prop34
280
     0
102
RTVSPost2010PropOp34
 70
     1
102
RTVSPost2010Prop35
280
     0
102
RTVSPost2010PropOp35
 70
     1
102
RTVSPost2010Prop36
280
     0
102
RTVSPost2010PropOp36
 70
     1
102
RTVSPost2010Prop37
 90
       50
102
RTVSPost2010PropOp37
 70
     1
102
RTVSPost2010Prop38
140
0.0
102
RTVSPost2010PropOp38
 70
     1
102
RTVSPost2010Prop39
140
1.0
102
RTVSPost2010PropOp39
 70
     1
102
RTVSPost2010Prop40
 90
        0
102
RTVSPost2010PropOp40
 70
     1
102
RTVSPost2010Prop41ColorIndex
 90
       18
102
RTVSPost2010Prop41ColorRGB
 90
        0
102
RTVSPost2010PropOp41
 70
     1
102
RTVSPost2010Prop42
 90
       50
102
RTVSPost2010PropOp42
 70
     1
102
RTVSPost2010Prop43
 90
        3
102
RTVSPost2010PropOp43
 70
     1
102
RTVSPost2010Prop44ColorIndex
 90
        5
102
RTVSPost2010Prop44ColorRGB
 90
      255
102
RTVSPost2010PropOp44
 70
     1
102
RTVSPost2010Prop45
280
     0
102
RTVSPost2010PropOp45
 70
     1
102
RTVSPost2010Prop46
 90
       50
102
RTVSPost2010PropOp46
 70
     1
102
RTVSPost2010Prop47
 90
       50
102
RTVSPost2010PropOp47
 70
     1
102
RTVSPost2010Prop48
 90
       50
102
RTVSPost2010PropOp48
 70
     1
102
RTVSPost2010Prop49
280
     0
102
RTVSPost2010PropOp49
 70
     1
102
RTVSPost2010Prop50
 90
       50
102
RTVSPost2010PropOp50
 70
     1
102
RTVSPost2010Prop51ColorIndex
 90
      256
102
RTVSPost2010Prop51ColorRGB
 90
-16777216
102
RTVSPost2010PropOp51
 70
     0
102
RTVSPost2010Prop52
140
1.0
102
RTVSPost2010PropOp52
 70
     0
102
RTVSPost2010Prop53
 90
        2
102
RTVSPost2010PropOp53
 70
     1
102
RTVSPost2010Prop54
  1
strokes_ogs.tif
102
RTVSPost2010PropOp54
 70
     1
102
RTVSPost2010Prop55
280
     0
102
RTVSPost2010PropOp55
 70
     1
102
RTVSPost2010Prop56
140
1.0
102
RTVSPost2010PropOp56
 70
     1
102
RTVSPost2010Prop57
140
1.0
102
RTVSPost2010PropOp57
 70
     1
102
RTVSPropertyOp0
 70
     1
102
RTVSPropertyOp1
 70
     1
102
RTVSPropertyOp2
 70
     1
102
RTVSPropertyOp3
 70
     1
102
RTVSPropertyOp4
 70
     1
102
RTVSPropertyOp5
 70
     1
102
RTVSPropertyOp6
 70
     1
102
RTVSPropertyOp7
 70
     1
102
RTVSPropertyOp8
 70
     1
102
RTVSPropertyOp9
 70
     1
102
RTVSPropertyOp10
 70
     1
102
RTVSPropertyOp11
 70
     1
102
RTVSPropertyOp12
 70
     1
102
RTVSPropertyOp13
 70
     1
102
RTVSPropertyOp14
 70
     1
102
RTVSPropertyOp15
 70
     1
102
RTVSPropertyOp16
 70
     1
102
RTVSPropertyOp17
 70
     1
102
RTVSPropertyOp18
 70
     1
102
RTVSPropertyOp19
 70
     1
102
RTVSPropertyOp20
 70
     1
102
RTVSPropertyOp21
 70
     1
102
RTVSPropertyOp22
 70
     1
102
RTVSPropertyOp23
 70
     1
102
RTVSPropertyOp24
 70
     1
102
RTVSPropertyOp25
 70
     1
102
RTVSPropertyOp26
 70
     1
102
RTVSPropertyOp27
 70
     1
102
RTVSPropertyOp28
 70
     1
102
RTVSPropertyOp29
 70
     1
102
RTVSPropertyOp30
 70
     1
102
RTVSPropertyOp31
 70
     1
102
RTVSPropertyOp32
 70
     1
102
RTVSPropertyOp33
 70
     1
102
RTVSPropertyOp34
 70
     1
102
RTVSPropertyOp35
 70
     1
102
RTVSPropertyOp36
 70
     1
102
RTVSPropertyOp37
 70
     1
102
RTVSPropertyOp38
 70
     1
102
RTVSPropertyOp39
 70
     1
102
RTVSPropertyOp40
 70
     1
102
RTVSPropertyOp41
 70
     1
102
RTVSPropertyOp42
 70
     1
102
RTVSPropertyOp43
 70
     1
102
RTVSPropertyOp44
 70
     1
102
RTVSPropertyOp45
 70
     1
102
RTVSPropertyOp46
 70
     1
102
RTVSPropertyOp47
 70
     1
102
RTVSPropertyOp48
 70
     1
102
RTVSPropertyOp49
 70
     1
102
RTVSPropertyOp50
 70
     1
102
RTVSPropertyOp51
 70
     0
102
RTVSPropertyOp52
 70
     0
102
RTVSPropertyOp53
 70
     1
102
RTVSPropertyOp54
 70
     1
102
RTVSPropertyOp55
 70
     1
102
RTVSPropertyOp56
 70
     1
102
RTVSPropertyOp57
 70
     1
102
RTVSPropertyOp58
 70
     1
102
RTVSPropertyOp59
 70
     1
102
RTVSPropertyOp60
 70
     1
102
RTVSPropertyOp61
 70
     1
102
RTVSPropertyOp62
 70
     1
  0
XRECORD
  5
97B7
102
{ACAD_REACTORS
330
97B6
102
}
330
97B6
100
AcDbXrecord
280
     1
102
RTVSPost2010Prop28
280
     0
102
RTVSPost2010PropOp28
 70
     1
102
RTVSPost2010Prop29
280
     1
102
RTVSPost2010PropOp29
 70
     1
102
RTVSPost2010Prop30
280
     1
102
RTVSPost2010PropOp30
 70
     1
102
RTVSPost2010Prop31
280
     0
102
RTVSPost2010PropOp31
 70
     1
102
RTVSPost2010Prop32
280
     0
102
RTVSPost2010PropOp32
 70
     1
102
RTVSPost2010Prop33
280
     0
102
RTVSPost2010PropOp33
 70
     1
102
RTVSPost2010Prop34
280
     0
102
RTVSPost2010PropOp34
 70
     1
102
RTVSPost2010Prop35
280
     0
102
RTVSPost2010PropOp35
 70
     1
102
RTVSPost2010Prop36
280
     0
102
RTVSPost2010PropOp36
 70
     1
102
RTVSPost2010Prop37
 90
       50
102
RTVSPost2010PropOp37
 70
     1
102
RTVSPost2010Prop38
140
0.0
102
RTVSPost2010PropOp38
 70
     1
102
RTVSPost2010Prop39
140
1.0
102
RTVSPost2010PropOp39
 70
     1
102
RTVSPost2010Prop40
 90
        0
102
RTVSPost2010PropOp40
 70
     1
102
RTVSPost2010Prop41ColorIndex
 90
       18
102
RTVSPost2010Prop41ColorRGB
 90
        0
102
RTVSPost2010PropOp41
 70
     1
102
RTVSPost2010Prop42
 90
       50
102
RTVSPost2010PropOp42
 70
     1
102
RTVSPost2010Prop43
 90
        3
102
RTVSPost2010PropOp43
 70
     1
102
RTVSPost2010Prop44ColorIndex
 90
        5
102
RTVSPost2010Prop44ColorRGB
 90
      255
102
RTVSPost2010PropOp44
 70
     1
102
RTVSPost2010Prop45
280
     0
102
RTVSPost2010PropOp45
 70
     1
102
RTVSPost2010Prop46
 90
       50
102
RTVSPost2010PropOp46
 70
     1
102
RTVSPost2010Prop47
 90
       50
102
RTVSPost2010PropOp47
 70
     1
102
RTVSPost2010Prop48
 90
       50
102
RTVSPost2010PropOp48
 70
     1
102
RTVSPost2010Prop49
280
     0
102
RTVSPost2010PropOp49
 70
     1
102
RTVSPost2010Prop50
 90
       50
102
RTVSPost2010PropOp50
 70
     1
102
RTVSPost2010Prop51ColorIndex
 90
      256
102
RTVSPost2010Prop51ColorRGB
 90
-16777216
102
RTVSPost2010PropOp51
 70
     0
102
RTVSPost2010Prop52
140
1.0
102
RTVSPost2010PropOp52
 70
     0
102
RTVSPost2010Prop53
 90
        2
102
RTVSPost2010PropOp53
 70
     1
102
RTVSPost2010Prop54
  1
strokes_ogs.tif
102
RTVSPost2010PropOp54
 70
     1
102
RTVSPost2010Prop55
280
     0
102
RTVSPost2010PropOp55
 70
     1
102
RTVSPost2010Prop56
140
1.0
102
RTVSPost2010PropOp56
 70
     1
102
RTVSPost2010Prop57
140
1.0
102
RTVSPost2010PropOp57
 70
     1
102
RTVSPropertyOp0
 70
     1
102
RTVSPropertyOp1
 70
     1
102
RTVSPropertyOp2
 70
     1
102
RTVSPropertyOp3
 70
     1
102
RTVSPropertyOp4
 70
     1
102
RTVSPropertyOp5
 70
     1
102
RTVSPropertyOp6
 70
     1
102
RTVSPropertyOp7
 70
     1
102
RTVSPropertyOp8
 70
     1
102
RTVSPropertyOp9
 70
     1
102
RTVSPropertyOp10
 70
     1
102
RTVSPropertyOp11
 70
     1
102
RTVSPropertyOp12
 70
     1
102
RTVSPropertyOp13
 70
     1
102
RTVSPropertyOp14
 70
     1
102
RTVSPropertyOp15
 70
     1
102
RTVSPropertyOp16
 70
     1
102
RTVSPropertyOp17
 70
     1
102
RTVSPropertyOp18
 70
     1
102
RTVSPropertyOp19
 70
     1
102
RTVSPropertyOp20
 70
     1
102
RTVSPropertyOp21
 70
     1
102
RTVSPropertyOp22
 70
     1
102
RTVSPropertyOp23
 70
     1
102
RTVSPropertyOp24
 70
     1
102
RTVSPropertyOp25
 70
     1
102
RTVSPropertyOp26
 70
     1
102
RTVSPropertyOp27
 70
     1
102
RTVSPropertyOp28
 70
     1
102
RTVSPropertyOp29
 70
     1
102
RTVSPropertyOp30
 70
     1
102
RTVSPropertyOp31
 70
     1
102
RTVSPropertyOp32
 70
     1
102
RTVSPropertyOp33
 70
     1
102
RTVSPropertyOp34
 70
     1
102
RTVSPropertyOp35
 70
     1
102
RTVSPropertyOp36
 70
     1
102
RTVSPropertyOp37
 70
     1
102
RTVSPropertyOp38
 70
     1
102
RTVSPropertyOp39
 70
     1
102
RTVSPropertyOp40
 70
     1
102
RTVSPropertyOp41
 70
     1
102
RTVSPropertyOp42
 70
     1
102
RTVSPropertyOp43
 70
     1
102
RTVSPropertyOp44
 70
     1
102
RTVSPropertyOp45
 70
     1
102
RTVSPropertyOp46
 70
     1
102
RTVSPropertyOp47
 70
     1
102
RTVSPropertyOp48
 70
     1
102
RTVSPropertyOp49
 70
     1
102
RTVSPropertyOp50
 70
     1
102
RTVSPropertyOp51
 70
     0
102
RTVSPropertyOp52
 70
     0
102
RTVSPropertyOp53
 70
     1
102
RTVSPropertyOp54
 70
     1
102
RTVSPropertyOp55
 70
     1
102
RTVSPropertyOp56
 70
     1
102
RTVSPropertyOp57
 70
     1
102
RTVSPropertyOp58
 70
     1
102
RTVSPropertyOp59
 70
     1
102
RTVSPropertyOp60
 70
     1
102
RTVSPropertyOp61
 70
     1
102
RTVSPropertyOp62
 70
     1
  0
XRECORD
  5
97B5
102
{ACAD_REACTORS
330
97B4
102
}
330
97B4
100
AcDbXrecord
280
     1
102
RTVSPost2010Prop28
280
     0
102
RTVSPost2010PropOp28
 70
     1
102
RTVSPost2010Prop29
280
     1
102
RTVSPost2010PropOp29
 70
     1
102
RTVSPost2010Prop30
280
     1
102
RTVSPost2010PropOp30
 70
     1
102
RTVSPost2010Prop31
280
     0
102
RTVSPost2010PropOp31
 70
     1
102
RTVSPost2010Prop32
280
     0
102
RTVSPost2010PropOp32
 70
     1
102
RTVSPost2010Prop33
280
     0
102
RTVSPost2010PropOp33
 70
     1
102
RTVSPost2010Prop34
280
     0
102
RTVSPost2010PropOp34
 70
     1
102
RTVSPost2010Prop35
280
     0
102
RTVSPost2010PropOp35
 70
     1
102
RTVSPost2010Prop36
280
     0
102
RTVSPost2010PropOp36
 70
     1
102
RTVSPost2010Prop37
 90
       50
102
RTVSPost2010PropOp37
 70
     1
102
RTVSPost2010Prop38
140
0.0
102
RTVSPost2010PropOp38
 70
     1
102
RTVSPost2010Prop39
140
1.0
102
RTVSPost2010PropOp39
 70
     1
102
RTVSPost2010Prop40
 90
        0
102
RTVSPost2010PropOp40
 70
     1
102
RTVSPost2010Prop41ColorIndex
 90
       18
102
RTVSPost2010Prop41ColorRGB
 90
        0
102
RTVSPost2010PropOp41
 70
     1
102
RTVSPost2010Prop42
 90
       50
102
RTVSPost2010PropOp42
 70
     1
102
RTVSPost2010Prop43
 90
        3
102
RTVSPost2010PropOp43
 70
     1
102
RTVSPost2010Prop44ColorIndex
 90
        5
102
RTVSPost2010Prop44ColorRGB
 90
      255
102
RTVSPost2010PropOp44
 70
     1
102
RTVSPost2010Prop45
280
     0
102
RTVSPost2010PropOp45
 70
     1
102
RTVSPost2010Prop46
 90
       50
102
RTVSPost2010PropOp46
 70
     1
102
RTVSPost2010Prop47
 90
       50
102
RTVSPost2010PropOp47
 70
     1
102
RTVSPost2010Prop48
 90
       50
102
RTVSPost2010PropOp48
 70
     1
102
RTVSPost2010Prop49
280
     0
102
RTVSPost2010PropOp49
 70
     1
102
RTVSPost2010Prop50
 90
       50
102
RTVSPost2010PropOp50
 70
     1
102
RTVSPost2010Prop51ColorIndex
 90
      256
102
RTVSPost2010Prop51ColorRGB
 90
-16777216
102
RTVSPost2010PropOp51
 70
     0
102
RTVSPost2010Prop52
140
1.0
102
RTVSPost2010PropOp52
 70
     0
102
RTVSPost2010Prop53
 90
        2
102
RTVSPost2010PropOp53
 70
     1
102
RTVSPost2010Prop54
  1
strokes_ogs.tif
102
RTVSPost2010PropOp54
 70
     1
102
RTVSPost2010Prop55
280
     0
102
RTVSPost2010PropOp55
 70
     1
102
RTVSPost2010Prop56
140
1.0
102
RTVSPost2010PropOp56
 70
     1
102
RTVSPost2010Prop57
140
1.0
102
RTVSPost2010PropOp57
 70
     1
102
RTVSPropertyOp0
 70
     1
102
RTVSPropertyOp1
 70
     1
102
RTVSPropertyOp2
 70
     1
102
RTVSPropertyOp3
 70
     1
102
RTVSPropertyOp4
 70
     1
102
RTVSPropertyOp5
 70
     1
102
RTVSPropertyOp6
 70
     1
102
RTVSPropertyOp7
 70
     1
102
RTVSPropertyOp8
 70
     1
102
RTVSPropertyOp9
 70
     1
102
RTVSPropertyOp10
 70
     1
102
RTVSPropertyOp11
 70
     1
102
RTVSPropertyOp12
 70
     1
102
RTVSPropertyOp13
 70
     1
102
RTVSPropertyOp14
 70
     1
102
RTVSPropertyOp15
 70
     1
102
RTVSPropertyOp16
 70
     1
102
RTVSPropertyOp17
 70
     1
102
RTVSPropertyOp18
 70
     1
102
RTVSPropertyOp19
 70
     1
102
RTVSPropertyOp20
 70
     1
102
RTVSPropertyOp21
 70
     1
102
RTVSPropertyOp22
 70
     1
102
RTVSPropertyOp23
 70
     1
102
RTVSPropertyOp24
 70
     1
102
RTVSPropertyOp25
 70
     1
102
RTVSPropertyOp26
 70
     1
102
RTVSPropertyOp27
 70
     1
102
RTVSPropertyOp28
 70
     1
102
RTVSPropertyOp29
 70
     1
102
RTVSPropertyOp30
 70
     1
102
RTVSPropertyOp31
 70
     1
102
RTVSPropertyOp32
 70
     1
102
RTVSPropertyOp33
 70
     1
102
RTVSPropertyOp34
 70
     1
102
RTVSPropertyOp35
 70
     1
102
RTVSPropertyOp36
 70
     1
102
RTVSPropertyOp37
 70
     1
102
RTVSPropertyOp38
 70
     1
102
RTVSPropertyOp39
 70
     1
102
RTVSPropertyOp40
 70
     1
102
RTVSPropertyOp41
 70
     1
102
RTVSPropertyOp42
 70
     1
102
RTVSPropertyOp43
 70
     1
102
RTVSPropertyOp44
 70
     1
102
RTVSPropertyOp45
 70
     1
102
RTVSPropertyOp46
 70
     1
102
RTVSPropertyOp47
 70
     1
102
RTVSPropertyOp48
 70
     1
102
RTVSPropertyOp49
 70
     1
102
RTVSPropertyOp50
 70
     1
102
RTVSPropertyOp51
 70
     0
102
RTVSPropertyOp52
 70
     0
102
RTVSPropertyOp53
 70
     1
102
RTVSPropertyOp54
 70
     1
102
RTVSPropertyOp55
 70
     1
102
RTVSPropertyOp56
 70
     1
102
RTVSPropertyOp57
 70
     1
102
RTVSPropertyOp58
 70
     1
102
RTVSPropertyOp59
 70
     1
102
RTVSPropertyOp60
 70
     1
102
RTVSPropertyOp61
 70
     1
102
RTVSPropertyOp62
 70
     1
  0
XRECORD
  5
97AF
102
{ACAD_REACTORS
330
97AE
102
}
330
97AE
100
AcDbXrecord
280
     1
102
RTVSPost2010Prop28
280
     0
102
RTVSPost2010PropOp28
 70
     1
102
RTVSPost2010Prop29
280
     1
102
RTVSPost2010PropOp29
 70
     1
102
RTVSPost2010Prop30
280
     1
102
RTVSPost2010PropOp30
 70
     1
102
RTVSPost2010Prop31
280
     0
102
RTVSPost2010PropOp31
 70
     1
102
RTVSPost2010Prop32
280
     0
102
RTVSPost2010PropOp32
 70
     1
102
RTVSPost2010Prop33
280
     0
102
RTVSPost2010PropOp33
 70
     1
102
RTVSPost2010Prop34
280
     0
102
RTVSPost2010PropOp34
 70
     1
102
RTVSPost2010Prop35
280
     0
102
RTVSPost2010PropOp35
 70
     1
102
RTVSPost2010Prop36
280
     0
102
RTVSPost2010PropOp36
 70
     1
102
RTVSPost2010Prop37
 90
       50
102
RTVSPost2010PropOp37
 70
     1
102
RTVSPost2010Prop38
140
0.0
102
RTVSPost2010PropOp38
 70
     1
102
RTVSPost2010Prop39
140
1.0
102
RTVSPost2010PropOp39
 70
     1
102
RTVSPost2010Prop40
 90
        0
102
RTVSPost2010PropOp40
 70
     1
102
RTVSPost2010Prop41ColorIndex
 90
       18
102
RTVSPost2010Prop41ColorRGB
 90
        0
102
RTVSPost2010PropOp41
 70
     1
102
RTVSPost2010Prop42
 90
       50
102
RTVSPost2010PropOp42
 70
     1
102
RTVSPost2010Prop43
 90
        3
102
RTVSPost2010PropOp43
 70
     1
102
RTVSPost2010Prop44ColorIndex
 90
        5
102
RTVSPost2010Prop44ColorRGB
 90
      255
102
RTVSPost2010PropOp44
 70
     1
102
RTVSPost2010Prop45
280
     0
102
RTVSPost2010PropOp45
 70
     1
102
RTVSPost2010Prop46
 90
       50
102
RTVSPost2010PropOp46
 70
     1
102
RTVSPost2010Prop47
 90
       50
102
RTVSPost2010PropOp47
 70
     1
102
RTVSPost2010Prop48
 90
       50
102
RTVSPost2010PropOp48
 70
     1
102
RTVSPost2010Prop49
280
     0
102
RTVSPost2010PropOp49
 70
     1
102
RTVSPost2010Prop50
 90
       50
102
RTVSPost2010PropOp50
 70
     1
102
RTVSPost2010Prop51ColorIndex
 90
      256
102
RTVSPost2010Prop51ColorRGB
 90
-16777216
102
RTVSPost2010PropOp51
 70
     0
102
RTVSPost2010Prop52
140
1.0
102
RTVSPost2010PropOp52
 70
     0
102
RTVSPost2010Prop53
 90
        2
102
RTVSPost2010PropOp53
 70
     1
102
RTVSPost2010Prop54
  1
strokes_ogs.tif
102
RTVSPost2010PropOp54
 70
     1
102
RTVSPost2010Prop55
280
     0
102
RTVSPost2010PropOp55
 70
     1
102
RTVSPost2010Prop56
140
1.0
102
RTVSPost2010PropOp56
 70
     1
102
RTVSPost2010Prop57
140
1.0
102
RTVSPost2010PropOp57
 70
     1
102
RTVSPropertyOp0
 70
     1
102
RTVSPropertyOp1
 70
     1
102
RTVSPropertyOp2
 70
     1
102
RTVSPropertyOp3
 70
     1
102
RTVSPropertyOp4
 70
     1
102
RTVSPropertyOp5
 70
     1
102
RTVSPropertyOp6
 70
     1
102
RTVSPropertyOp7
 70
     1
102
RTVSPropertyOp8
 70
     1
102
RTVSPropertyOp9
 70
     1
102
RTVSPropertyOp10
 70
     1
102
RTVSPropertyOp11
 70
     1
102
RTVSPropertyOp12
 70
     1
102
RTVSPropertyOp13
 70
     1
102
RTVSPropertyOp14
 70
     1
102
RTVSPropertyOp15
 70
     1
102
RTVSPropertyOp16
 70
     1
102
RTVSPropertyOp17
 70
     1
102
RTVSPropertyOp18
 70
     1
102
RTVSPropertyOp19
 70
     1
102
RTVSPropertyOp20
 70
     1
102
RTVSPropertyOp21
 70
     1
102
RTVSPropertyOp22
 70
     1
102
RTVSPropertyOp23
 70
     1
102
RTVSPropertyOp24
 70
     1
102
RTVSPropertyOp25
 70
     1
102
RTVSPropertyOp26
 70
     1
102
RTVSPropertyOp27
 70
     1
102
RTVSPropertyOp28
 70
     1
102
RTVSPropertyOp29
 70
     1
102
RTVSPropertyOp30
 70
     1
102
RTVSPropertyOp31
 70
     1
102
RTVSPropertyOp32
 70
     1
102
RTVSPropertyOp33
 70
     1
102
RTVSPropertyOp34
 70
     1
102
RTVSPropertyOp35
 70
     1
102
RTVSPropertyOp36
 70
     1
102
RTVSPropertyOp37
 70
     1
102
RTVSPropertyOp38
 70
     1
102
RTVSPropertyOp39
 70
     1
102
RTVSPropertyOp40
 70
     1
102
RTVSPropertyOp41
 70
     1
102
RTVSPropertyOp42
 70
     1
102
RTVSPropertyOp43
 70
     1
102
RTVSPropertyOp44
 70
     1
102
RTVSPropertyOp45
 70
     1
102
RTVSPropertyOp46
 70
     1
102
RTVSPropertyOp47
 70
     1
102
RTVSPropertyOp48
 70
     1
102
RTVSPropertyOp49
 70
     1
102
RTVSPropertyOp50
 70
     1
102
RTVSPropertyOp51
 70
     0
102
RTVSPropertyOp52
 70
     0
102
RTVSPropertyOp53
 70
     1
102
RTVSPropertyOp54
 70
     1
102
RTVSPropertyOp55
 70
     1
102
RTVSPropertyOp56
 70
     1
102
RTVSPropertyOp57
 70
     1
102
RTVSPropertyOp58
 70
     1
102
RTVSPropertyOp59
 70
     1
102
RTVSPropertyOp60
 70
     1
102
RTVSPropertyOp61
 70
     1
102
RTVSPropertyOp62
 70
     1
  0
XRECORD
  5
97B1
102
{ACAD_REACTORS
330
97B0
102
}
330
97B0
100
AcDbXrecord
280
     1
102
RTVSPost2010Prop28
280
     0
102
RTVSPost2010PropOp28
 70
     1
102
RTVSPost2010Prop29
280
     1
102
RTVSPost2010PropOp29
 70
     1
102
RTVSPost2010Prop30
280
     1
102
RTVSPost2010PropOp30
 70
     1
102
RTVSPost2010Prop31
280
     0
102
RTVSPost2010PropOp31
 70
     1
102
RTVSPost2010Prop32
280
     0
102
RTVSPost2010PropOp32
 70
     1
102
RTVSPost2010Prop33
280
     0
102
RTVSPost2010PropOp33
 70
     1
102
RTVSPost2010Prop34
280
     0
102
RTVSPost2010PropOp34
 70
     1
102
RTVSPost2010Prop35
280
     0
102
RTVSPost2010PropOp35
 70
     1
102
RTVSPost2010Prop36
280
     0
102
RTVSPost2010PropOp36
 70
     1
102
RTVSPost2010Prop37
 90
       50
102
RTVSPost2010PropOp37
 70
     1
102
RTVSPost2010Prop38
140
0.0
102
RTVSPost2010PropOp38
 70
     1
102
RTVSPost2010Prop39
140
1.0
102
RTVSPost2010PropOp39
 70
     1
102
RTVSPost2010Prop40
 90
        0
102
RTVSPost2010PropOp40
 70
     1
102
RTVSPost2010Prop41ColorIndex
 90
       18
102
RTVSPost2010Prop41ColorRGB
 90
        0
102
RTVSPost2010PropOp41
 70
     1
102
RTVSPost2010Prop42
 90
       50
102
RTVSPost2010PropOp42
 70
     1
102
RTVSPost2010Prop43
 90
        3
102
RTVSPost2010PropOp43
 70
     1
102
RTVSPost2010Prop44ColorIndex
 90
        5
102
RTVSPost2010Prop44ColorRGB
 90
      255
102
RTVSPost2010PropOp44
 70
     1
102
RTVSPost2010Prop45
280
     0
102
RTVSPost2010PropOp45
 70
     1
102
RTVSPost2010Prop46
 90
       50
102
RTVSPost2010PropOp46
 70
     1
102
RTVSPost2010Prop47
 90
       50
102
RTVSPost2010PropOp47
 70
     1
102
RTVSPost2010Prop48
 90
       50
102
RTVSPost2010PropOp48
 70
     1
102
RTVSPost2010Prop49
280
     0
102
RTVSPost2010PropOp49
 70
     1
102
RTVSPost2010Prop50
 90
       50
102
RTVSPost2010PropOp50
 70
     1
102
RTVSPost2010Prop51ColorIndex
 90
      256
102
RTVSPost2010Prop51ColorRGB
 90
-16777216
102
RTVSPost2010PropOp51
 70
     0
102
RTVSPost2010Prop52
140
1.0
102
RTVSPost2010PropOp52
 70
     0
102
RTVSPost2010Prop53
 90
        2
102
RTVSPost2010PropOp53
 70
     1
102
RTVSPost2010Prop54
  1
strokes_ogs.tif
102
RTVSPost2010PropOp54
 70
     1
102
RTVSPost2010Prop55
280
     0
102
RTVSPost2010PropOp55
 70
     1
102
RTVSPost2010Prop56
140
1.0
102
RTVSPost2010PropOp56
 70
     1
102
RTVSPost2010Prop57
140
1.0
102
RTVSPost2010PropOp57
 70
     1
102
RTVSPropertyOp0
 70
     1
102
RTVSPropertyOp1
 70
     1
102
RTVSPropertyOp2
 70
     1
102
RTVSPropertyOp3
 70
     1
102
RTVSPropertyOp4
 70
     1
102
RTVSPropertyOp5
 70
     1
102
RTVSPropertyOp6
 70
     1
102
RTVSPropertyOp7
 70
     1
102
RTVSPropertyOp8
 70
     1
102
RTVSPropertyOp9
 70
     1
102
RTVSPropertyOp10
 70
     1
102
RTVSPropertyOp11
 70
     1
102
RTVSPropertyOp12
 70
     1
102
RTVSPropertyOp13
 70
     1
102
RTVSPropertyOp14
 70
     1
102
RTVSPropertyOp15
 70
     1
102
RTVSPropertyOp16
 70
     1
102
RTVSPropertyOp17
 70
     1
102
RTVSPropertyOp18
 70
     1
102
RTVSPropertyOp19
 70
     1
102
RTVSPropertyOp20
 70
     1
102
RTVSPropertyOp21
 70
     1
102
RTVSPropertyOp22
 70
     1
102
RTVSPropertyOp23
 70
     1
102
RTVSPropertyOp24
 70
     1
102
RTVSPropertyOp25
 70
     1
102
RTVSPropertyOp26
 70
     1
102
RTVSPropertyOp27
 70
     1
102
RTVSPropertyOp28
 70
     1
102
RTVSPropertyOp29
 70
     1
102
RTVSPropertyOp30
 70
     1
102
RTVSPropertyOp31
 70
     1
102
RTVSPropertyOp32
 70
     1
102
RTVSPropertyOp33
 70
     1
102
RTVSPropertyOp34
 70
     1
102
RTVSPropertyOp35
 70
     1
102
RTVSPropertyOp36
 70
     1
102
RTVSPropertyOp37
 70
     1
102
RTVSPropertyOp38
 70
     1
102
RTVSPropertyOp39
 70
     1
102
RTVSPropertyOp40
 70
     1
102
RTVSPropertyOp41
 70
     1
102
RTVSPropertyOp42
 70
     1
102
RTVSPropertyOp43
 70
     1
102
RTVSPropertyOp44
 70
     1
102
RTVSPropertyOp45
 70
     1
102
RTVSPropertyOp46
 70
     1
102
RTVSPropertyOp47
 70
     1
102
RTVSPropertyOp48
 70
     1
102
RTVSPropertyOp49
 70
     1
102
RTVSPropertyOp50
 70
     1
102
RTVSPropertyOp51
 70
     0
102
RTVSPropertyOp52
 70
     0
102
RTVSPropertyOp53
 70
     1
102
RTVSPropertyOp54
 70
     1
102
RTVSPropertyOp55
 70
     1
102
RTVSPropertyOp56
 70
     1
102
RTVSPropertyOp57
 70
     1
102
RTVSPropertyOp58
 70
     1
102
RTVSPropertyOp59
 70
     1
102
RTVSPropertyOp60
 70
     1
102
RTVSPropertyOp61
 70
     1
102
RTVSPropertyOp62
 70
     1
  0
XRECORD
  5
97A7
102
{ACAD_REACTORS
330
97A6
102
}
330
97A6
100
AcDbXrecord
280
     1
102
RTVSPost2010Prop28
280
     0
102
RTVSPost2010PropOp28
 70
     1
102
RTVSPost2010Prop29
280
     1
102
RTVSPost2010PropOp29
 70
     1
102
RTVSPost2010Prop30
280
     1
102
RTVSPost2010PropOp30
 70
     1
102
RTVSPost2010Prop31
280
     0
102
RTVSPost2010PropOp31
 70
     1
102
RTVSPost2010Prop32
280
     0
102
RTVSPost2010PropOp32
 70
     1
102
RTVSPost2010Prop33
280
     0
102
RTVSPost2010PropOp33
 70
     1
102
RTVSPost2010Prop34
280
     0
102
RTVSPost2010PropOp34
 70
     1
102
RTVSPost2010Prop35
280
     0
102
RTVSPost2010PropOp35
 70
     1
102
RTVSPost2010Prop36
280
     0
102
RTVSPost2010PropOp36
 70
     1
102
RTVSPost2010Prop37
 90
       50
102
RTVSPost2010PropOp37
 70
     1
102
RTVSPost2010Prop38
140
0.0
102
RTVSPost2010PropOp38
 70
     1
102
RTVSPost2010Prop39
140
1.0
102
RTVSPost2010PropOp39
 70
     1
102
RTVSPost2010Prop40
 90
        0
102
RTVSPost2010PropOp40
 70
     1
102
RTVSPost2010Prop41ColorIndex
 90
       18
102
RTVSPost2010Prop41ColorRGB
 90
        0
102
RTVSPost2010PropOp41
 70
     1
102
RTVSPost2010Prop42
 90
       50
102
RTVSPost2010PropOp42
 70
     1
102
RTVSPost2010Prop43
 90
        3
102
RTVSPost2010PropOp43
 70
     1
102
RTVSPost2010Prop44ColorIndex
 90
        5
102
RTVSPost2010Prop44ColorRGB
 90
      255
102
RTVSPost2010PropOp44
 70
     1
102
RTVSPost2010Prop45
280
     0
102
RTVSPost2010PropOp45
 70
     1
102
RTVSPost2010Prop46
 90
       50
102
RTVSPost2010PropOp46
 70
     1
102
RTVSPost2010Prop47
 90
       50
102
RTVSPost2010PropOp47
 70
     1
102
RTVSPost2010Prop48
 90
       50
102
RTVSPost2010PropOp48
 70
     1
102
RTVSPost2010Prop49
280
     0
102
RTVSPost2010PropOp49
 70
     1
102
RTVSPost2010Prop50
 90
       50
102
RTVSPost2010PropOp50
 70
     1
102
RTVSPost2010Prop51ColorIndex
 90
      256
102
RTVSPost2010Prop51ColorRGB
 90
-16777216
102
RTVSPost2010PropOp51
 70
     0
102
RTVSPost2010Prop52
140
1.0
102
RTVSPost2010PropOp52
 70
     0
102
RTVSPost2010Prop53
 90
        2
102
RTVSPost2010PropOp53
 70
     1
102
RTVSPost2010Prop54
  1
strokes_ogs.tif
102
RTVSPost2010PropOp54
 70
     1
102
RTVSPost2010Prop55
280
     0
102
RTVSPost2010PropOp55
 70
     1
102
RTVSPost2010Prop56
140
1.0
102
RTVSPost2010PropOp56
 70
     1
102
RTVSPost2010Prop57
140
1.0
102
RTVSPost2010PropOp57
 70
     1
102
RTVSPropertyOp0
 70
     1
102
RTVSPropertyOp1
 70
     1
102
RTVSPropertyOp2
 70
     1
102
RTVSPropertyOp3
 70
     1
102
RTVSPropertyOp4
 70
     1
102
RTVSPropertyOp5
 70
     1
102
RTVSPropertyOp6
 70
     1
102
RTVSPropertyOp7
 70
     1
102
RTVSPropertyOp8
 70
     1
102
RTVSPropertyOp9
 70
     1
102
RTVSPropertyOp10
 70
     1
102
RTVSPropertyOp11
 70
     1
102
RTVSPropertyOp12
 70
     1
102
RTVSPropertyOp13
 70
     1
102
RTVSPropertyOp14
 70
     1
102
RTVSPropertyOp15
 70
     1
102
RTVSPropertyOp16
 70
     1
102
RTVSPropertyOp17
 70
     1
102
RTVSPropertyOp18
 70
     1
102
RTVSPropertyOp19
 70
     1
102
RTVSPropertyOp20
 70
     1
102
RTVSPropertyOp21
 70
     1
102
RTVSPropertyOp22
 70
     1
102
RTVSPropertyOp23
 70
     1
102
RTVSPropertyOp24
 70
     1
102
RTVSPropertyOp25
 70
     1
102
RTVSPropertyOp26
 70
     1
102
RTVSPropertyOp27
 70
     1
102
RTVSPropertyOp28
 70
     1
102
RTVSPropertyOp29
 70
     1
102
RTVSPropertyOp30
 70
     1
102
RTVSPropertyOp31
 70
     1
102
RTVSPropertyOp32
 70
     1
102
RTVSPropertyOp33
 70
     1
102
RTVSPropertyOp34
 70
     1
102
RTVSPropertyOp35
 70
     1
102
RTVSPropertyOp36
 70
     1
102
RTVSPropertyOp37
 70
     1
102
RTVSPropertyOp38
 70
     1
102
RTVSPropertyOp39
 70
     1
102
RTVSPropertyOp40
 70
     1
102
RTVSPropertyOp41
 70
     1
102
RTVSPropertyOp42
 70
     1
102
RTVSPropertyOp43
 70
     1
102
RTVSPropertyOp44
 70
     1
102
RTVSPropertyOp45
 70
     1
102
RTVSPropertyOp46
 70
     1
102
RTVSPropertyOp47
 70
     1
102
RTVSPropertyOp48
 70
     1
102
RTVSPropertyOp49
 70
     1
102
RTVSPropertyOp50
 70
     1
102
RTVSPropertyOp51
 70
     0
102
RTVSPropertyOp52
 70
     0
102
RTVSPropertyOp53
 70
     1
102
RTVSPropertyOp54
 70
     1
102
RTVSPropertyOp55
 70
     1
102
RTVSPropertyOp56
 70
     1
102
RTVSPropertyOp57
 70
     1
102
RTVSPropertyOp58
 70
     1
102
RTVSPropertyOp59
 70
     1
102
RTVSPropertyOp60
 70
     1
102
RTVSPropertyOp61
 70
     1
102
RTVSPropertyOp62
 70
     1
  0
XRECORD
  5
979B
102
{ACAD_REACTORS
330
979A
102
}
330
979A
100
AcDbXrecord
280
     1
102
RTVSPost2010Prop28
280
     0
102
RTVSPost2010PropOp28
 70
     1
102
RTVSPost2010Prop29
280
     1
102
RTVSPost2010PropOp29
 70
     1
102
RTVSPost2010Prop30
280
     1
102
RTVSPost2010PropOp30
 70
     1
102
RTVSPost2010Prop31
280
     0
102
RTVSPost2010PropOp31
 70
     1
102
RTVSPost2010Prop32
280
     0
102
RTVSPost2010PropOp32
 70
     1
102
RTVSPost2010Prop33
280
     0
102
RTVSPost2010PropOp33
 70
     1
102
RTVSPost2010Prop34
280
     0
102
RTVSPost2010PropOp34
 70
     1
102
RTVSPost2010Prop35
280
     0
102
RTVSPost2010PropOp35
 70
     1
102
RTVSPost2010Prop36
280
     0
102
RTVSPost2010PropOp36
 70
     1
102
RTVSPost2010Prop37
 90
       50
102
RTVSPost2010PropOp37
 70
     1
102
RTVSPost2010Prop38
140
0.0
102
RTVSPost2010PropOp38
 70
     1
102
RTVSPost2010Prop39
140
1.0
102
RTVSPost2010PropOp39
 70
     1
102
RTVSPost2010Prop40
 90
        0
102
RTVSPost2010PropOp40
 70
     1
102
RTVSPost2010Prop41ColorIndex
 90
       18
102
RTVSPost2010Prop41ColorRGB
 90
        0
102
RTVSPost2010PropOp41
 70
     1
102
RTVSPost2010Prop42
 90
       50
102
RTVSPost2010PropOp42
 70
     1
102
RTVSPost2010Prop43
 90
        3
102
RTVSPost2010PropOp43
 70
     1
102
RTVSPost2010Prop44ColorIndex
 90
        5
102
RTVSPost2010Prop44ColorRGB
 90
      255
102
RTVSPost2010PropOp44
 70
     1
102
RTVSPost2010Prop45
280
     0
102
RTVSPost2010PropOp45
 70
     1
102
RTVSPost2010Prop46
 90
       50
102
RTVSPost2010PropOp46
 70
     1
102
RTVSPost2010Prop47
 90
       50
102
RTVSPost2010PropOp47
 70
     1
102
RTVSPost2010Prop48
 90
       50
102
RTVSPost2010PropOp48
 70
     1
102
RTVSPost2010Prop49
280
     0
102
RTVSPost2010PropOp49
 70
     1
102
RTVSPost2010Prop50
 90
       50
102
RTVSPost2010PropOp50
 70
     1
102
RTVSPost2010Prop51ColorIndex
 90
      256
102
RTVSPost2010Prop51ColorRGB
 90
-16777216
102
RTVSPost2010PropOp51
 70
     0
102
RTVSPost2010Prop52
140
1.0
102
RTVSPost2010PropOp52
 70
     0
102
RTVSPost2010Prop53
 90
        2
102
RTVSPost2010PropOp53
 70
     1
102
RTVSPost2010Prop54
  1
strokes_ogs.tif
102
RTVSPost2010PropOp54
 70
     1
102
RTVSPost2010Prop55
280
     0
102
RTVSPost2010PropOp55
 70
     1
102
RTVSPost2010Prop56
140
1.0
102
RTVSPost2010PropOp56
 70
     1
102
RTVSPost2010Prop57
140
1.0
102
RTVSPost2010PropOp57
 70
     1
102
RTVSPropertyOp0
 70
     1
102
RTVSPropertyOp1
 70
     1
102
RTVSPropertyOp2
 70
     1
102
RTVSPropertyOp3
 70
     1
102
RTVSPropertyOp4
 70
     1
102
RTVSPropertyOp5
 70
     1
102
RTVSPropertyOp6
 70
     1
102
RTVSPropertyOp7
 70
     1
102
RTVSPropertyOp8
 70
     1
102
RTVSPropertyOp9
 70
     1
102
RTVSPropertyOp10
 70
     1
102
RTVSPropertyOp11
 70
     1
102
RTVSPropertyOp12
 70
     1
102
RTVSPropertyOp13
 70
     1
102
RTVSPropertyOp14
 70
     1
102
RTVSPropertyOp15
 70
     1
102
RTVSPropertyOp16
 70
     1
102
RTVSPropertyOp17
 70
     1
102
RTVSPropertyOp18
 70
     1
102
RTVSPropertyOp19
 70
     1
102
RTVSPropertyOp20
 70
     1
102
RTVSPropertyOp21
 70
     1
102
RTVSPropertyOp22
 70
     1
102
RTVSPropertyOp23
 70
     1
102
RTVSPropertyOp24
 70
     1
102
RTVSPropertyOp25
 70
     1
102
RTVSPropertyOp26
 70
     1
102
RTVSPropertyOp27
 70
     1
102
RTVSPropertyOp28
 70
     1
102
RTVSPropertyOp29
 70
     1
102
RTVSPropertyOp30
 70
     1
102
RTVSPropertyOp31
 70
     1
102
RTVSPropertyOp32
 70
     1
102
RTVSPropertyOp33
 70
     1
102
RTVSPropertyOp34
 70
     1
102
RTVSPropertyOp35
 70
     1
102
RTVSPropertyOp36
 70
     1
102
RTVSPropertyOp37
 70
     1
102
RTVSPropertyOp38
 70
     1
102
RTVSPropertyOp39
 70
     1
102
RTVSPropertyOp40
 70
     1
102
RTVSPropertyOp41
 70
     1
102
RTVSPropertyOp42
 70
     1
102
RTVSPropertyOp43
 70
     1
102
RTVSPropertyOp44
 70
     1
102
RTVSPropertyOp45
 70
     1
102
RTVSPropertyOp46
 70
     1
102
RTVSPropertyOp47
 70
     1
102
RTVSPropertyOp48
 70
     1
102
RTVSPropertyOp49
 70
     1
102
RTVSPropertyOp50
 70
     1
102
RTVSPropertyOp51
 70
     0
102
RTVSPropertyOp52
 70
     0
102
RTVSPropertyOp53
 70
     1
102
RTVSPropertyOp54
 70
     1
102
RTVSPropertyOp55
 70
     1
102
RTVSPropertyOp56
 70
     1
102
RTVSPropertyOp57
 70
     1
102
RTVSPropertyOp58
 70
     1
102
RTVSPropertyOp59
 70
     1
102
RTVSPropertyOp60
 70
     1
102
RTVSPropertyOp61
 70
     1
102
RTVSPropertyOp62
 70
     1
  0
XRECORD
  5
97B3
102
{ACAD_REACTORS
330
97B2
102
}
330
97B2
100
AcDbXrecord
280
     1
102
RTVSPost2010Prop28
280
     0
102
RTVSPost2010PropOp28
 70
     1
102
RTVSPost2010Prop29
280
     1
102
RTVSPost2010PropOp29
 70
     1
102
RTVSPost2010Prop30
280
     1
102
RTVSPost2010PropOp30
 70
     1
102
RTVSPost2010Prop31
280
     0
102
RTVSPost2010PropOp31
 70
     1
102
RTVSPost2010Prop32
280
     0
102
RTVSPost2010PropOp32
 70
     1
102
RTVSPost2010Prop33
280
     0
102
RTVSPost2010PropOp33
 70
     1
102
RTVSPost2010Prop34
280
     0
102
RTVSPost2010PropOp34
 70
     1
102
RTVSPost2010Prop35
280
     0
102
RTVSPost2010PropOp35
 70
     1
102
RTVSPost2010Prop36
280
     0
102
RTVSPost2010PropOp36
 70
     1
102
RTVSPost2010Prop37
 90
       50
102
RTVSPost2010PropOp37
 70
     1
102
RTVSPost2010Prop38
140
0.0
102
RTVSPost2010PropOp38
 70
     1
102
RTVSPost2010Prop39
140
1.0
102
RTVSPost2010PropOp39
 70
     1
102
RTVSPost2010Prop40
 90
        0
102
RTVSPost2010PropOp40
 70
     1
102
RTVSPost2010Prop41ColorIndex
 90
       18
102
RTVSPost2010Prop41ColorRGB
 90
        0
102
RTVSPost2010PropOp41
 70
     1
102
RTVSPost2010Prop42
 90
       50
102
RTVSPost2010PropOp42
 70
     1
102
RTVSPost2010Prop43
 90
        3
102
RTVSPost2010PropOp43
 70
     1
102
RTVSPost2010Prop44ColorIndex
 90
        5
102
RTVSPost2010Prop44ColorRGB
 90
      255
102
RTVSPost2010PropOp44
 70
     1
102
RTVSPost2010Prop45
280
     0
102
RTVSPost2010PropOp45
 70
     1
102
RTVSPost2010Prop46
 90
       50
102
RTVSPost2010PropOp46
 70
     1
102
RTVSPost2010Prop47
 90
       50
102
RTVSPost2010PropOp47
 70
     1
102
RTVSPost2010Prop48
 90
       50
102
RTVSPost2010PropOp48
 70
     1
102
RTVSPost2010Prop49
280
     0
102
RTVSPost2010PropOp49
 70
     1
102
RTVSPost2010Prop50
 90
       50
102
RTVSPost2010PropOp50
 70
     1
102
RTVSPost2010Prop51ColorIndex
 90
      256
102
RTVSPost2010Prop51ColorRGB
 90
-16777216
102
RTVSPost2010PropOp51
 70
     0
102
RTVSPost2010Prop52
140
1.0
102
RTVSPost2010PropOp52
 70
     0
102
RTVSPost2010Prop53
 90
        2
102
RTVSPost2010PropOp53
 70
     1
102
RTVSPost2010Prop54
  1
strokes_ogs.tif
102
RTVSPost2010PropOp54
 70
     1
102
RTVSPost2010Prop55
280
     0
102
RTVSPost2010PropOp55
 70
     1
102
RTVSPost2010Prop56
140
1.0
102
RTVSPost2010PropOp56
 70
     1
102
RTVSPost2010Prop57
140
1.0
102
RTVSPost2010PropOp57
 70
     1
102
RTVSPropertyOp0
 70
     1
102
RTVSPropertyOp1
 70
     1
102
RTVSPropertyOp2
 70
     1
102
RTVSPropertyOp3
 70
     1
102
RTVSPropertyOp4
 70
     1
102
RTVSPropertyOp5
 70
     1
102
RTVSPropertyOp6
 70
     1
102
RTVSPropertyOp7
 70
     1
102
RTVSPropertyOp8
 70
     1
102
RTVSPropertyOp9
 70
     1
102
RTVSPropertyOp10
 70
     1
102
RTVSPropertyOp11
 70
     1
102
RTVSPropertyOp12
 70
     1
102
RTVSPropertyOp13
 70
     1
102
RTVSPropertyOp14
 70
     1
102
RTVSPropertyOp15
 70
     1
102
RTVSPropertyOp16
 70
     1
102
RTVSPropertyOp17
 70
     1
102
RTVSPropertyOp18
 70
     1
102
RTVSPropertyOp19
 70
     1
102
RTVSPropertyOp20
 70
     1
102
RTVSPropertyOp21
 70
     1
102
RTVSPropertyOp22
 70
     1
102
RTVSPropertyOp23
 70
     1
102
RTVSPropertyOp24
 70
     1
102
RTVSPropertyOp25
 70
     1
102
RTVSPropertyOp26
 70
     1
102
RTVSPropertyOp27
 70
     1
102
RTVSPropertyOp28
 70
     1
102
RTVSPropertyOp29
 70
     1
102
RTVSPropertyOp30
 70
     1
102
RTVSPropertyOp31
 70
     1
102
RTVSPropertyOp32
 70
     1
102
RTVSPropertyOp33
 70
     1
102
RTVSPropertyOp34
 70
     1
102
RTVSPropertyOp35
 70
     1
102
RTVSPropertyOp36
 70
     1
102
RTVSPropertyOp37
 70
     1
102
RTVSPropertyOp38
 70
     1
102
RTVSPropertyOp39
 70
     1
102
RTVSPropertyOp40
 70
     1
102
RTVSPropertyOp41
 70
     1
102
RTVSPropertyOp42
 70
     1
102
RTVSPropertyOp43
 70
     1
102
RTVSPropertyOp44
 70
     1
102
RTVSPropertyOp45
 70
     1
102
RTVSPropertyOp46
 70
     1
102
RTVSPropertyOp47
 70
     1
102
RTVSPropertyOp48
 70
     1
102
RTVSPropertyOp49
 70
     1
102
RTVSPropertyOp50
 70
     1
102
RTVSPropertyOp51
 70
     0
102
RTVSPropertyOp52
 70
     0
102
RTVSPropertyOp53
 70
     1
102
RTVSPropertyOp54
 70
     1
102
RTVSPropertyOp55
 70
     1
102
RTVSPropertyOp56
 70
     1
102
RTVSPropertyOp57
 70
     1
102
RTVSPropertyOp58
 70
     1
102
RTVSPropertyOp59
 70
     1
102
RTVSPropertyOp60
 70
     1
102
RTVSPropertyOp61
 70
     1
102
RTVSPropertyOp62
 70
     1
  0
ENDSEC
  0
EOF
