  0
SECTION
  2
HEADER
  9
$ACADVER
  1
AC1015
  9
$ACADMAINTVER
 70
    20
  9
$DWGCODEPAGE
  3
ANSI_932
  9
$INSBASE
 10
0.0
 20
0.0
 30
0.0
  9
$EXTMIN
 10
5.243928999999998
 20
9.999999999999998
 30
0.0
  9
$EXTMAX
 10
331.5273
 20
132.0750009999999
 30
0.0
  9
$LIMMIN
 10
0.0
 20
0.0
  9
$LIMMAX
 10
396.0
 20
273.0
  9
$ORTHOMODE
 70
     1
  9
$REGENMODE
 70
     1
  9
$FILLMODE
 70
     1
  9
$QTEXTMODE
 70
     0
  9
$MIRRTEXT
 70
     1
  9
$LTSCALE
 40
20.0
  9
$ATTMODE
 70
     1
  9
$TEXTSIZE
 40
5.0
  9
$TRACEWID
 40
1.0
  9
$TEXTSTYLE
  7
STANDARD
  9
$CLAYER
  8
0
  9
$CELTYPE
  6
BYLAYER
  9
$CECOLOR
 62
   256
  9
$CELTSCALE
 40
1.0
  9
$DISPSILH
 70
     0
  9
$DIMSCALE
 40
1.0
  9
$DIMASZ
 40
3.0
  9
$DIMEXO
 40
1.0
  9
$DIMDLI
 40
10.0
  9
$DIMRND
 40
0.0
  9
$DIMDLE
 40
0.0
  9
$DIMEXE
 40
1.0
  9
$DIMTP
 40
0.0
  9
$DIMTM
 40
0.0
  9
$DIMTXT
 40
3.2
  9
$DIMCEN
 40
0.0
  9
$DIMTSZ
 40
0.0
  9
$DIMTOL
 70
     0
  9
$DIMLIM
 70
     0
  9
$DIMTIH
 70
     0
  9
$DIMTOH
 70
     0
  9
$DIMSE1
 70
     0
  9
$DIMSE2
 70
     0
  9
$DIMTAD
 70
     3
  9
$DIMZIN
 70
     8
  9
$DIMBLK
  1

  9
$DIMASO
 70
     1
  9
$DIMSHO
 70
     1
  9
$DIMPOST
  1

  9
$DIMAPOST
  1

  9
$DIMALT
 70
     0
  9
$DIMALTD
 70
     2
  9
$DIMALTF
 40
25.4
  9
$DIMLFAC
 40
1.0
  9
$DIMTOFL
 70
     1
  9
$DIMTVP
 40
0.0
  9
$DIMTIX
 70
     0
  9
$DIMSOXD
 70
     0
  9
$DIMSAH
 70
     1
  9
$DIMBLK1
  1

  9
$DIMBLK2
  1

  9
$DIMSTYLE
  2
STANDARD
  9
$DIMCLRD
 70
     0
  9
$DIMCLRE
 70
     0
  9
$DIMCLRT
 70
     0
  9
$DIMTFAC
 40
1.0
  9
$DIMGAP
 40
1.0
  9
$DIMJUST
 70
     0
  9
$DIMSD1
 70
     0
  9
$DIMSD2
 70
     0
  9
$DIMTOLJ
 70
     1
  9
$DIMTZIN
 70
     0
  9
$DIMALTZ
 70
     0
  9
$DIMALTTZ
 70
     0
  9
$DIMUPT
 70
     0
  9
$DIMDEC
 70
     4
  9
$DIMTDEC
 70
     4
  9
$DIMALTU
 70
     2
  9
$DIMALTTD
 70
     2
  9
$DIMTXSTY
  7
STANDARD
  9
$DIMAUNIT
 70
     0
  9
$DIMADEC
 70
     0
  9
$DIMALTRND
 40
0.0
  9
$DIMAZIN
 70
     0
  9
$DIMDSEP
 70
    46
  9
$DIMATFIT
 70
     3
  9
$DIMFRAC
 70
     0
  9
$DIMLDRBLK
  1

  9
$DIMLUNIT
 70
     2
  9
$DIMLWD
 70
    -2
  9
$DIMLWE
 70
    -2
  9
$DIMTMOVE
 70
     0
  9
$LUNITS
 70
     2
  9
$LUPREC
 70
     4
  9
$SKETCHINC
 40
1.0
  9
$FILLETRAD
 40
0.0
  9
$AUNITS
 70
     0
  9
$AUPREC
 70
     2
  9
$MENU
  1
.
  9
$ELEVATION
 40
0.0
  9
$PELEVATION
 40
0.0
  9
$THICKNESS
 40
0.0
  9
$LIMCHECK
 70
     0
  9
$CHAMFERA
 40
10.0
  9
$CHAMFERB
 40
10.0
  9
$CHAMFERC
 40
0.0
  9
$CHAMFERD
 40
0.0
  9
$SKPOLY
 70
     0
  9
$TDCREATE
 40
2451074.409723727
  9
$TDUCREATE
 40
2451074.034723727
  9
$TDUPDATE
 40
2457192.600681910
  9
$TDUUPDATE
 40
2457192.225681910
  9
$TDINDWG
 40
0.0000145139
  9
$TDUSRTIMER
 40
0.0000140394
  9
$USRTIMER
 70
     1
  9
$ANGBASE
 50
0.0
  9
$ANGDIR
 70
     0
  9
$PDMODE
 70
     0
  9
$PDSIZE
 40
0.0
  9
$PLINEWID
 40
0.0
  9
$SPLFRAME
 70
     0
  9
$SPLINETYPE
 70
     6
  9
$SPLINESEGS
 70
     8
  9
$HANDSEED
  5
9A24
  9
$SURFTAB1
 70
     6
  9
$SURFTAB2
 70
     6
  9
$SURFTYPE
 70
     6
  9
$SURFU
 70
     6
  9
$SURFV
 70
     6
  9
$UCSBASE
  2

  9
$UCSNAME
  2

  9
$UCSORG
 10
0.0
 20
0.0
 30
0.0
  9
$UCSXDIR
 10
1.0
 20
0.0
 30
0.0
  9
$UCSYDIR
 10
0.0
 20
1.0
 30
0.0
  9
$UCSORTHOREF
  2

  9
$UCSORTHOVIEW
 70
     0
  9
$UCSORGTOP
 10
0.0
 20
0.0
 30
0.0
  9
$UCSORGBOTTOM
 10
0.0
 20
0.0
 30
0.0
  9
$UCSORGLEFT
 10
0.0
 20
0.0
 30
0.0
  9
$UCSORGRIGHT
 10
0.0
 20
0.0
 30
0.0
  9
$UCSORGFRONT
 10
0.0
 20
0.0
 30
0.0
  9
$UCSORGBACK
 10
0.0
 20
0.0
 30
0.0
  9
$PUCSBASE
  2

  9
$PUCSNAME
  2

  9
$PUCSORG
 10
0.0
 20
0.0
 30
0.0
  9
$PUCSXDIR
 10
1.0
 20
0.0
 30
0.0
  9
$PUCSYDIR
 10
0.0
 20
1.0
 30
0.0
  9
$PUCSORTHOREF
  2

  9
$PUCSORTHOVIEW
 70
     0
  9
$PUCSORGTOP
 10
0.0
 20
0.0
 30
0.0
  9
$PUCSORGBOTTOM
 10
0.0
 20
0.0
 30
0.0
  9
$PUCSORGLEFT
 10
0.0
 20
0.0
 30
0.0
  9
$PUCSORGRIGHT
 10
0.0
 20
0.0
 30
0.0
  9
$PUCSORGFRONT
 10
0.0
 20
0.0
 30
0.0
  9
$PUCSORGBACK
 10
0.0
 20
0.0
 30
0.0
  9
$USERI1
 70
     0
  9
$USERI2
 70
     0
  9
$USERI3
 70
     0
  9
$USERI4
 70
     0
  9
$USERI5
 70
     0
  9
$USERR1
 40
0.0
  9
$USERR2
 40
0.0
  9
$USERR3
 40
0.0
  9
$USERR4
 40
0.0
  9
$USERR5
 40
0.0
  9
$WORLDVIEW
 70
     1
  9
$SHADEDGE
 70
     3
  9
$SHADEDIF
 70
    70
  9
$TILEMODE
 70
     1
  9
$MAXACTVP
 70
    16
  9
$PINSBASE
 10
0.0
 20
0.0
 30
0.0
  9
$PLIMCHECK
 70
     0
  9
$PEXTMIN
 10
1.000000000000000E+20
 20
1.000000000000000E+20
 30
1.000000000000000E+20
  9
$PEXTMAX
 10
-1.000000000000000E+20
 20
-1.000000000000000E+20
 30
-1.000000000000000E+20
  9
$PLIMMIN
 10
0.0
 20
0.0
  9
$PLIMMAX
 10
420.0
 20
297.0
  9
$UNITMODE
 70
     0
  9
$VISRETAIN
 70
     0
  9
$PLINEGEN
 70
     0
  9
$PSLTSCALE
 70
     0
  9
$TREEDEPTH
 70
  3020
  9
$CMLSTYLE
  2
STANDARD
  9
$CMLJUST
 70
     0
  9
$CMLSCALE
 40
1.0
  9
$PROXYGRAPHICS
 70
     1
  9
$MEASUREMENT
 70
     0
  9
$CELWEIGHT
370
    -1
  9
$ENDCAPS
280
     0
  9
$JOINSTYLE
280
     0
  9
$LWDISPLAY
290
     0
  9
$INSUNITS
 70
     0
  9
$HYPERLINKBASE
  1

  9
$STYLESHEET
  1

  9
$XEDIT
290
     1
  9
$CEPSNTYPE
380
     0
  9
$PSTYLEMODE
290
     1
  9
$FINGERPRINTGUID
  2
{BF2E0731-A786-466B-9C16-F3692475FD91}
  9
$VERSIONGUID
  2
{A775327E-6F25-488D-81D9-799980D20E8B}
  9
$EXTNAMES
290
     1
  9
$PSVPSCALE
 40
0.0
  9
$OLESTARTUP
290
     0
  0
ENDSEC
  0
SECTION
  2
CLASSES
  0
CLASS
  1
ACDBDICTIONARYWDFLT
  2
AcDbDictionaryWithDefault
  3
ObjectDBX Classes
 90
        0
280
     0
281
     0
  0
CLASS
  1
ACDBPLACEHOLDER
  2
AcDbPlaceHolder
  3
ObjectDBX Classes
 90
        0
280
     0
281
     0
  0
CLASS
  1
LAYOUT
  2
AcDbLayout
  3
ObjectDBX Classes
 90
        0
280
     0
281
     0
  0
CLASS
  1
DICTIONARYVAR
  2
AcDbDictionaryVar
  3
ObjectDBX Classes
 90
        0
280
     0
281
     0
  0
CLASS
  1
MATERIAL
  2
AcDbMaterial
  3
ObjectDBX Classes
 90
     1153
280
     0
281
     0
  0
CLASS
  1
VISUALSTYLE
  2
AcDbVisualStyle
  3
ObjectDBX Classes
 90
     4095
280
     0
281
     0
  0
CLASS
  1
TABLESTYLE
  2
AcDbTableStyle
  3
ObjectDBX Classes
 90
     4095
280
     0
281
     0
  0
CLASS
  1
SCALE
  2
AcDbScale
  3
ObjectDBX Classes
 90
     1153
280
     0
281
     0
  0
CLASS
  1
MLEADERSTYLE
  2
AcDbMLeaderStyle
  3
ACDB_MLEADERSTYLE_CLASS
 90
     4095
280
     0
281
     0
  0
CLASS
  1
ACDBSECTIONVIEWSTYLE
  2
AcDbSectionViewStyle
  3
ObjectDBX Classes
 90
     1025
280
     0
281
     0
  0
CLASS
  1
ACDBDETAILVIEWSTYLE
  2
AcDbDetailViewStyle
  3
ObjectDBX Classes
 90
     1025
280
     0
281
     0
  0
CLASS
  1
CELLSTYLEMAP
  2
AcDbCellStyleMap
  3
ObjectDBX Classes
 90
     1152
280
     0
281
     0
  0
ENDSEC
  0
SECTION
  2
TABLES
  0
TABLE
  2
VPORT
  5
971E
330
0
100
AcDbSymbolTable
 70
     1
  0
VPORT
  5
996D
330
971E
100
AcDbSymbolTableRecord
100
AcDbViewportTableRecord
  2
*ACTIVE
 70
     0
 10
0.0
 20
0.0
 11
1.0
 21
1.0
 12
224.5610851072511
 22
71.03682001742623
 13
0.0
 23
0.0
 14
10.0
 24
10.0
 15
10.0
 25
10.0
 16
0.0
 26
0.0
 36
1.0
 17
0.0
 27
0.0
 37
0.0
 40
187.5738478608403
 41
1.899603698811096
 42
50.0
 43
0.0
 44
0.0
 50
0.0
 51
0.0
 71
     0
 72
   100
 73
     1
 74
     0
 75
     0
 76
     0
 77
     0
 78
     0
281
     0
 65
     1
110
0.0
120
0.0
130
0.0
111
1.0
121
0.0
131
0.0
112
0.0
122
1.0
132
0.0
 79
     0
146
0.0
1001
ACAD_NAV_VCDISPLAY
1070
     3
  0
ENDTAB
  0
TABLE
  2
LTYPE
  5
971B
330
0
100
AcDbSymbolTable
 70
     4
  0
LTYPE
  5
9729
330
971B
100
AcDbSymbolTableRecord
100
AcDbLinetypeTableRecord
  2
BYBLOCK
 70
     0
  3

 72
    65
 73
     0
 40
0.0
  0
LTYPE
  5
972A
330
971B
100
AcDbSymbolTableRecord
100
AcDbLinetypeTableRecord
  2
BYLAYER
 70
     0
  3

 72
    65
 73
     0
 40
0.0
  0
LTYPE
  5
972B
330
971B
100
AcDbSymbolTableRecord
100
AcDbLinetypeTableRecord
  2
CONTINUOUS
 70
     0
  3
Solid line
 72
    65
 73
     0
 40
0.0
  0
LTYPE
  5
9739
330
971B
100
AcDbSymbolTableRecord
100
AcDbLinetypeTableRecord
  2
DASHED
 70
     0
  3
__ __ __ __ __ __ __ __ __ __ __ __ __ __ __ __
 72
    65
 73
     2
 40
0.75
 49
0.5
 74
     0
 49
-0.25
 74
     0
  0
LTYPE
  5
973A
330
971B
100
AcDbSymbolTableRecord
100
AcDbLinetypeTableRecord
  2
CENTER
 70
     0
  3
____ _ ____ _ ____ _ ____ _ ____ _ ____ _ ____ 
 72
    65
 73
     4
 40
2.0
 49
1.25
 74
     0
 49
-0.25
 74
     0
 49
0.25
 74
     0
 49
-0.25
 74
     0
  0
LTYPE
  5
973B
330
971B
100
AcDbSymbolTableRecord
100
AcDbLinetypeTableRecord
  2
PHANTOM
 70
     0
  3
______  __  __  ______  __  __  ______  __  __ 
 72
    65
 73
     6
 40
2.5
 49
1.25
 74
     0
 49
-0.25
 74
     0
 49
0.25
 74
     0
 49
-0.25
 74
     0
 49
0.25
 74
     0
 49
-0.25
 74
     0
  0
ENDTAB
  0
TABLE
  2
LAYER
  5
9718
330
0
100
AcDbSymbolTable
 70
     8
  0
LAYER
  5
9726
102
{ACAD_XDICTIONARY
360
99C8
102
}
330
9718
100
AcDbSymbolTableRecord
100
AcDbLayerTableRecord
  2
0
 70
     0
 62
     7
  6
CONTINUOUS
370
    -3
390
9976
  0
LAYER
  5
973C
102
{ACAD_XDICTIONARY
360
99CA
102
}
330
9718
100
AcDbSymbolTableRecord
100
AcDbLayerTableRecord
  2
4
 70
     0
 62
     1
  6
CENTER
370
    -3
390
9976
  0
LAYER
  5
973D
102
{ACAD_XDICTIONARY
360
99CC
102
}
330
9718
100
AcDbSymbolTableRecord
100
AcDbLayerTableRecord
  2
5
 70
     0
 62
     6
  6
PHANTOM
370
    -3
390
9976
  0
LAYER
  5
973E
102
{ACAD_XDICTIONARY
360
99CE
102
}
330
9718
100
AcDbSymbolTableRecord
100
AcDbLayerTableRecord
  2
1
 70
     0
 62
     7
  6
CONTINUOUS
370
    -3
390
9976
  0
LAYER
  5
973F
102
{ACAD_XDICTIONARY
360
99D0
102
}
330
9718
100
AcDbSymbolTableRecord
100
AcDbLayerTableRecord
  2
2
 70
     0
 62
     4
  6
CONTINUOUS
370
    -3
390
9976
  0
LAYER
  5
9740
102
{ACAD_XDICTIONARY
360
99D2
102
}
330
9718
100
AcDbSymbolTableRecord
100
AcDbLayerTableRecord
  2
3
 70
     0
 62
     2
  6
DASHED
370
    -3
390
9976
  0
LAYER
  5
9741
102
{ACAD_XDICTIONARY
360
99D4
102
}
330
9718
100
AcDbSymbolTableRecord
100
AcDbLayerTableRecord
  2
6
 70
     0
 62
     5
  6
CONTINUOUS
370
    -3
390
9976
  0
LAYER
  5
9742
102
{ACAD_XDICTIONARY
360
99D6
102
}
330
9718
100
AcDbSymbolTableRecord
100
AcDbLayerTableRecord
  2
7
 70
     0
 62
     3
  6
CONTINUOUS
370
    -3
390
9976
  0
ENDTAB
  0
TABLE
  2
STYLE
  5
9719
330
0
100
AcDbSymbolTable
 70
     1
  0
STYLE
  5
9727
330
9719
100
AcDbSymbolTableRecord
100
AcDbTextStyleTableRecord
  2
STANDARD
 70
     0
 40
0.0
 41
1.0
 50
0.0
 71
     0
 42
5.0
  3
txt
  4

  0
ENDTAB
  0
TABLE
  2
VIEW
  5
971C
330
0
100
AcDbSymbolTable
 70
     0
  0
ENDTAB
  0
TABLE
  2
UCS
  5
971D
330
0
100
AcDbSymbolTable
 70
     0
  0
ENDTAB
  0
TABLE
  2
APPID
  5
971F
330
0
100
AcDbSymbolTable
 70
     3
  0
APPID
  5
9728
330
971F
100
AcDbSymbolTableRecord
100
AcDbRegAppTableRecord
  2
ACAD
 70
     0
  0
APPID
  5
99E2
330
971F
100
AcDbSymbolTableRecord
100
AcDbRegAppTableRecord
  2
ACAD_NAV_VCDISPLAY
 70
     0
  0
APPID
  5
9A1B
330
971F
100
AcDbSymbolTableRecord
100
AcDbRegAppTableRecord
  2
ACAD_MLEADERVER
 70
     0
  0
ENDTAB
  0
TABLE
  2
DIMSTYLE
  5
9720
330
0
100
AcDbSymbolTable
 70
     1
100
AcDbDimStyleTable
 71
     0
  0
DIMSTYLE
105
9744
330
9720
100
AcDbSymbolTableRecord
100
AcDbDimStyleTableRecord
  2
STANDARD
 70
     0
 41
3.0
 42
1.0
 43
10.0
 44
1.0
 73
     0
 74
     0
 77
     3
 78
     8
140
3.2
141
0.0
147
1.0
172
     1
173
     1
284
     8
285
     8
286
     8
340
9727
  0
ENDTAB
  0
TABLE
  2
BLOCK_RECORD
  5
9717
330
0
100
AcDbSymbolTable
 70
     0
  0
BLOCK_RECORD
  5
9734
102
{ACAD_XDICTIONARY
360
9970
102
}
330
9717
100
AcDbSymbolTableRecord
100
AcDbBlockTableRecord
  2
*MODEL_SPACE
340
99C4
  0
BLOCK_RECORD
  5
9730
102
{ACAD_XDICTIONARY
360
996E
102
}
330
9717
100
AcDbSymbolTableRecord
100
AcDbBlockTableRecord
  2
*PAPER_SPACE
340
99C5
  0
ENDTAB
  0
ENDSEC
  0
SECTION
  2
BLOCKS
  0
BLOCK
  5
9735
330
9734
100
AcDbEntity
  8
0
100
AcDbBlockBegin
  2
*MODEL_SPACE
 70
     0
 10
0.0
 20
0.0
 30
0.0
  3
*MODEL_SPACE
  1

  0
ENDBLK
  5
9736
330
9734
100
AcDbEntity
  8
0
100
AcDbBlockEnd
  0
BLOCK
  5
9731
330
9730
100
AcDbEntity
 67
     1
  8
0
100
AcDbBlockBegin
  2
*PAPER_SPACE
 70
     0
 10
0.0
 20
0.0
 30
0.0
  3
*PAPER_SPACE
  1

  0
ENDBLK
  5
9732
330
9730
100
AcDbEntity
 67
     1
  8
0
100
AcDbBlockEnd
  0
ENDSEC
  0
SECTION
  2
ENTITIES
  0
TEXT
  5
974C
330
9734
100
AcDbEntity
  8
7
  6
Continuous
100
AcDbText
 10
10.0
 20
18.0
 30
0.0
 40
3.0
  1
TYPE No.TL-245
100
AcDbText
  0
TEXT
  5
974D
330
9734
100
AcDbEntity
  8
7
  6
Continuous
100
AcDbText
 10
10.0
 20
26.0
 30
0.0
 40
3.0
  1
CODE No.1710
100
AcDbText
  0
TEXT
  5
974E
330
9734
100
AcDbEntity
  8
1
  6
Continuous
100
AcDbText
 10
10.0
 20
10.0
 30
0.0
 40
1.399999999999999
  1
LAYER
100
AcDbText
  0
TEXT
  5
974F
330
9734
100
AcDbEntity
  8
1
  6
Continuous
100
AcDbText
 10
17.97951099999998
 20
10.04873699999998
 30
0.0
 40
1.399999999999999
  1
1
100
AcDbText
  0
TEXT
  5
9750
330
9734
100
AcDbEntity
  8
7
  6
Continuous
100
AcDbText
 10
29.97951099999999
 20
10.04873699999998
 30
0.0
 40
1.399999999999999
  1
7
100
AcDbText
  0
TEXT
  5
9751
330
9734
100
AcDbEntity
  8
4
  6
CENTER
100
AcDbText
 10
23.97951099999999
 20
10.04873699999998
 30
0.0
 40
1.399999999999999
  1
4
100
AcDbText
  0
TEXT
  5
9752
330
9734
100
AcDbEntity
  8
3
  6
DASHED
100
AcDbText
 10
21.979511
 20
10.04873699999998
 30
0.0
 40
1.399999999999999
  1
3
100
AcDbText
  0
TEXT
  5
9753
330
9734
100
AcDbEntity
  8
2
  6
Continuous
100
AcDbText
 10
19.97951099999999
 20
10.04873699999998
 30
0.0
 40
1.399999999999999
  1
2
100
AcDbText
  0
TEXT
  5
9754
330
9734
100
AcDbEntity
  8
6
  6
Continuous
100
AcDbText
 10
27.979511
 20
10.04873699999998
 30
0.0
 40
1.399999999999999
  1
6
100
AcDbText
  0
TEXT
  5
9755
330
9734
100
AcDbEntity
  8
5
  6
PHANTOM
100
AcDbText
 10
25.97951099999999
 20
10.04873699999998
 30
0.0
 40
1.399999999999999
  1
5
100
AcDbText
  0
LINE
  5
9756
330
9734
100
AcDbEntity
  8
4
  6
CENTER
100
AcDbLine
 10
14.5821
 20
51.075501
 30
0.0
 11
41.9918
 21
51.075501
 31
0.0
  0
LINE
  5
9757
330
9734
100
AcDbEntity
  8
4
  6
CENTER
100
AcDbLine
 10
28.5799
 20
65.81430400000001
 30
0.0
 11
28.5799
 21
36.19234799999999
 31
0.0
  0
LINE
  5
9758
330
9734
100
AcDbEntity
  8
1
  6
Continuous
100
AcDbLine
 10
81.53749999999998
 20
62.075501
 30
0.0
 11
82.53749999999998
 21
62.075501
 31
0.0
  0
LINE
  5
9759
330
9734
100
AcDbEntity
  8
1
  6
Continuous
100
AcDbLine
 10
82.53749999999998
 20
62.075501
 30
0.0
 11
82.53749999999998
 21
40.075501
 31
0.0
  0
LINE
  5
975A
330
9734
100
AcDbEntity
  8
1
  6
Continuous
100
AcDbLine
 10
81.53749999999998
 20
40.075501
 30
0.0
 11
82.53749999999998
 21
40.075501
 31
0.0
  0
LINE
  5
975B
330
9734
100
AcDbEntity
  8
1
  6
Continuous
100
AcDbLine
 10
95.53729999999999
 20
42.475501
 30
0.0
 11
96.9373
 21
42.475501
 31
0.0
  0
LINE
  5
975C
330
9734
100
AcDbEntity
  8
1
  6
Continuous
100
AcDbLine
 10
80.53749999999999
 20
61.075501
 30
0.0
 11
80.53749999999999
 21
41.075501
 31
0.0
  0
LINE
  5
975D
330
9734
100
AcDbEntity
  8
1
  6
Continuous
100
AcDbLine
 10
81.53749999999998
 20
62.075501
 30
0.0
 11
80.53749999999999
 21
61.075501
 31
0.0
  0
LINE
  5
975E
330
9734
100
AcDbEntity
  8
1
  6
Continuous
100
AcDbLine
 10
81.53749999999998
 20
40.075501
 30
0.0
 11
80.53749999999999
 21
41.075501
 31
0.0
  0
LINE
  5
975F
330
9734
100
AcDbEntity
  8
1
  6
Continuous
100
AcDbLine
 10
96.9373
 20
59.675501
 30
0.0
 11
96.9373
 21
42.475501
 31
0.0
  0
LINE
  5
9760
330
9734
100
AcDbEntity
  8
1
  6
Continuous
100
AcDbLine
 10
81.53749999999998
 20
62.075501
 30
0.0
 11
81.53749999999998
 21
40.075501
 31
0.0
  0
LINE
  5
9761
330
9734
100
AcDbEntity
  8
1
  6
Continuous
100
AcDbLine
 10
94.63729999999999
 20
56.35190099999999
 30
0.0
 11
82.53749999999998
 21
56.35190099999999
 31
0.0
  0
LINE
  5
9762
330
9734
100
AcDbEntity
  8
1
  6
Continuous
100
AcDbLine
 10
94.63729999999999
 20
45.79920099999998
 30
0.0
 11
82.53749999999998
 21
45.79920099999998
 31
0.0
  0
LINE
  5
9763
330
9734
100
AcDbEntity
  8
1
  6
Continuous
100
AcDbLine
 10
96.9373
 20
59.675501
 30
0.0
 11
95.53729999999999
 21
59.675501
 31
0.0
  0
LINE
  5
9764
330
9734
100
AcDbEntity
  8
1
  6
Continuous
100
AcDbLine
 10
95.53729999999999
 20
59.675501
 30
0.0
 11
95.53729999999999
 21
54.47403000000001
 31
0.0
  0
LINE
  5
9765
330
9734
100
AcDbEntity
  8
1
  6
Continuous
100
AcDbLine
 10
83.1503
 20
60.575501
 30
0.0
 11
83.1503
 21
56.35190099999999
 31
0.0
  0
LINE
  5
9766
330
9734
100
AcDbEntity
  8
1
  6
Continuous
100
AcDbLine
 10
94.63729999999999
 20
60.575501
 30
0.0
 11
94.63729999999999
 21
56.35190099999999
 31
0.0
  0
LINE
  5
9767
330
9734
100
AcDbEntity
  8
1
  6
Continuous
100
AcDbLine
 10
94.63729999999999
 20
56.35190099999999
 30
0.0
 11
95.53729999999999
 21
54.47403000000001
 31
0.0
  0
LINE
  5
9768
330
9734
100
AcDbEntity
  8
1
  6
Continuous
100
AcDbLine
 10
95.53729999999999
 20
47.67697199999999
 30
0.0
 11
94.63729999999999
 21
45.79920099999998
 31
0.0
  0
LINE
  5
9769
330
9734
100
AcDbEntity
  8
1
  6
Continuous
100
AcDbLine
 10
83.1503
 20
45.79920099999998
 30
0.0
 11
83.1503
 21
41.575501
 31
0.0
  0
LINE
  5
976A
330
9734
100
AcDbEntity
  8
1
  6
Continuous
100
AcDbLine
 10
94.63729999999999
 20
45.79920099999998
 30
0.0
 11
94.63729999999999
 21
41.575501
 31
0.0
  0
LINE
  5
976B
330
9734
100
AcDbEntity
  8
1
  6
Continuous
100
AcDbLine
 10
95.53729999999999
 20
47.67697199999999
 30
0.0
 11
95.53729999999999
 21
42.475501
 31
0.0
  0
LINE
  5
976C
330
9734
100
AcDbEntity
  8
1
  6
Continuous
100
AcDbLine
 10
98.33730000000002
 20
58.775501
 30
0.0
 11
98.33730000000002
 21
44.775501
 31
0.0
  0
LINE
  5
976D
330
9734
100
AcDbEntity
  8
1
  6
Continuous
100
AcDbLine
 10
97.5373
 20
55.727901
 30
0.0
 11
97.5373
 21
46.423101
 31
0.0
  0
LINE
  5
976E
330
9734
100
AcDbEntity
  8
2
  6
Continuous
100
AcDbLine
 10
96.9373
 20
54.47403000000001
 30
0.0
 11
82.53749999999998
 21
45.79920099999998
 31
0.0
  0
LINE
  5
976F
330
9734
100
AcDbEntity
  8
2
  6
Continuous
100
AcDbLine
 10
82.53749999999998
 20
56.35190099999999
 30
0.0
 11
96.9373
 21
47.67697199999999
 31
0.0
  0
LINE
  5
9770
330
9734
100
AcDbEntity
  8
1
  6
Continuous
100
AcDbLine
 10
96.9373
 20
57.075501
 30
0.0
 11
98.33730000000002
 21
57.075501
 31
0.0
  0
LINE
  5
9771
330
9734
100
AcDbEntity
  8
1
  6
Continuous
100
AcDbLine
 10
98.33730000000002
 20
45.075501
 30
0.0
 11
96.9373
 21
45.075501
 31
0.0
  0
LINE
  5
9772
330
9734
100
AcDbEntity
  8
4
  6
CENTER
100
AcDbLine
 10
78.13219999999998
 20
51.075501
 30
0.0
 11
112.3983
 21
51.075501
 31
0.0
  0
LINE
  5
9773
330
9734
100
AcDbEntity
  8
1
  6
Continuous
100
AcDbLine
 10
99.4373
 20
58.780101
 30
0.0
 11
96.9373
 21
58.780101
 31
0.0
  0
LINE
  5
9774
330
9734
100
AcDbEntity
  8
1
  6
Continuous
100
AcDbLine
 10
99.4373
 20
43.37100099999999
 30
0.0
 11
96.9373
 21
43.37100099999999
 31
0.0
  0
LINE
  5
9775
330
9734
100
AcDbEntity
  8
1
  6
Continuous
100
AcDbLine
 10
97.5373
 20
55.80050100000001
 30
0.0
 11
98.33730000000002
 21
55.80050100000001
 31
0.0
  0
LINE
  5
9776
330
9734
100
AcDbEntity
  8
1
  6
Continuous
100
AcDbLine
 10
97.5373
 20
46.35050099999999
 30
0.0
 11
98.33730000000002
 21
46.35050099999999
 31
0.0
  0
LINE
  5
9777
330
9734
100
AcDbEntity
  8
1
  6
Continuous
100
AcDbLine
 10
99.93729999999999
 20
47.575501
 30
0.0
 11
109.0373
 21
47.575501
 31
0.0
  0
LINE
  5
9778
330
9734
100
AcDbEntity
  8
1
  6
Continuous
100
AcDbLine
 10
99.93729999999999
 20
54.575501
 30
0.0
 11
109.0373
 21
54.575501
 31
0.0
  0
LINE
  5
9779
330
9734
100
AcDbEntity
  8
1
  6
Continuous
100
AcDbLine
 10
110.0373
 20
53.575501
 30
0.0
 11
110.0373
 21
48.575501
 31
0.0
  0
LINE
  5
977A
330
9734
100
AcDbEntity
  8
1
  6
Continuous
100
AcDbLine
 10
110.0373
 20
53.575401
 30
0.0
 11
109.0373
 21
54.575401
 31
0.0
  0
LINE
  5
977B
330
9734
100
AcDbEntity
  8
1
  6
Continuous
100
AcDbLine
 10
109.0373
 20
47.57540099999999
 30
0.0
 11
110.0373
 21
48.575401
 31
0.0
  0
LINE
  5
977C
330
9734
100
AcDbEntity
  8
1
  6
Continuous
100
AcDbLine
 10
99.93729999999999
 20
53.14190100000001
 30
0.0
 11
110.0373
 21
53.14190100000001
 31
0.0
  0
LINE
  5
977D
330
9734
100
AcDbEntity
  8
1
  6
Continuous
100
AcDbLine
 10
110.0373
 20
49.009101
 30
0.0
 11
99.93729999999999
 21
49.009101
 31
0.0
  0
LINE
  5
977E
330
9734
100
AcDbEntity
  8
2
  6
Continuous
100
AcDbLine
 10
99.93729999999999
 20
52.576701
 30
0.0
 11
110.0373
 21
49.009101
 31
0.0
  0
LINE
  5
977F
330
9734
100
AcDbEntity
  8
2
  6
Continuous
100
AcDbLine
 10
110.0373
 20
53.14190100000001
 30
0.0
 11
99.93729999999999
 21
49.574201
 31
0.0
  0
LINE
  5
9780
330
9734
100
AcDbEntity
  8
1
  6
Continuous
100
AcDbLine
 10
99.4373
 20
58.780101
 30
0.0
 11
99.4373
 21
58.775501
 31
0.0
  0
LINE
  5
9781
330
9734
100
AcDbEntity
  8
1
  6
Continuous
100
AcDbLine
 10
197.5473
 20
48.575501
 30
0.0
 11
198.8302999999999
 21
48.575501
 31
0.0
  0
LINE
  5
9782
330
9734
100
AcDbEntity
  8
1
  6
Continuous
100
AcDbLine
 10
98.33730000000002
 20
58.775501
 30
0.0
 11
99.93729999999999
 21
58.775501
 31
0.0
  0
LINE
  5
9783
330
9734
100
AcDbEntity
  8
1
  6
Continuous
100
AcDbLine
 10
98.33730000000002
 20
44.775501
 30
0.0
 11
99.93729999999999
 21
44.775501
 31
0.0
  0
LINE
  5
9784
330
9734
100
AcDbEntity
  8
1
  6
Continuous
100
AcDbLine
 10
99.93729999999999
 20
58.775501
 30
0.0
 11
99.93729999999999
 21
44.775501
 31
0.0
  0
LINE
  5
9785
330
9734
100
AcDbEntity
  8
1
  6
Continuous
100
AcDbLine
 10
98.33730000000002
 20
48.575501
 30
0.0
 11
99.93729999999999
 21
48.575501
 31
0.0
  0
LINE
  5
9786
330
9734
100
AcDbEntity
  8
1
  6
Continuous
100
AcDbLine
 10
139.5642999999998
 20
54.730001
 30
0.0
 11
139.5642999999998
 21
54.344801
 31
0.0
  0
LINE
  5
9787
330
9734
100
AcDbEntity
  8
1
  6
Continuous
100
AcDbLine
 10
141.5643
 20
54.37220100000001
 30
0.0
 11
141.5643
 21
53.987101
 31
0.0
  0
LINE
  5
9788
330
9734
100
AcDbEntity
  8
1
  6
Continuous
100
AcDbLine
 10
140.1642999999999
 20
57.575501
 30
0.0
 11
140.1642999999999
 21
44.575501
 31
0.0
  0
LINE
  5
9789
330
9734
100
AcDbEntity
  8
1
  6
Continuous
100
AcDbLine
 10
140.9643
 20
44.575501
 30
0.0
 11
140.9643
 21
57.575501
 31
0.0
  0
LINE
  5
978A
330
9734
100
AcDbEntity
  8
1
  6
Continuous
100
AcDbLine
 10
140.1642999999999
 20
57.575501
 30
0.0
 11
140.9643
 21
57.575501
 31
0.0
  0
LINE
  5
978B
330
9734
100
AcDbEntity
  8
1
  6
Continuous
100
AcDbLine
 10
140.1642999999999
 20
44.575501
 30
0.0
 11
140.9643
 21
44.575501
 31
0.0
  0
LINE
  5
978C
330
9734
100
AcDbEntity
  8
1
  6
Continuous
100
AcDbLine
 10
139.5642999999998
 20
54.729901
 30
0.0
 11
140.1642999999999
 21
54.622601
 31
0.0
  0
LINE
  5
978D
330
9734
100
AcDbEntity
  8
1
  6
Continuous
100
AcDbLine
 10
139.9633
 20
53.592801
 30
0.0
 11
140.1642999999999
 21
53.498601
 31
0.0
  0
LINE
  5
978E
330
9734
100
AcDbEntity
  8
1
  6
Continuous
100
AcDbLine
 10
140.0432999999999
 20
51.77420099999999
 30
0.0
 11
140.1653
 21
51.704001
 31
0.0
  0
LINE
  5
978F
330
9734
100
AcDbEntity
  8
1
  6
Continuous
100
AcDbLine
 10
139.5653
 20
49.395801
 30
0.0
 11
140.1642999999999
 21
49.114801
 31
0.0
  0
LINE
  5
9790
330
9734
100
AcDbEntity
  8
1
  6
Continuous
100
AcDbLine
 10
139.5653
 20
47.778701
 30
0.0
 11
140.1642999999999
 21
47.671401
 31
0.0
  0
LINE
  5
9791
330
9734
100
AcDbEntity
  8
1
  6
Continuous
100
AcDbLine
 10
139.5653
 20
54.344701
 30
0.0
 11
140.1642999999999
 21
54.23740099999999
 31
0.0
  0
LINE
  5
9792
330
9734
100
AcDbEntity
  8
1
  6
Continuous
100
AcDbLine
 10
139.5672999999999
 20
53.147701
 30
0.0
 11
140.1642999999999
 21
52.868101
 31
0.0
  0
LINE
  5
9793
330
9734
100
AcDbEntity
  8
1
  6
Continuous
100
AcDbLine
 10
139.6442999999998
 20
51.080901
 30
0.0
 11
140.1653
 21
50.779601
 31
0.0
  0
LINE
  5
9794
330
9734
100
AcDbEntity
  8
1
  6
Continuous
100
AcDbLine
 10
139.5653
 20
48.934401
 30
0.0
 11
140.1642999999999
 21
48.653401
 31
0.0
  0
LINE
  5
9795
330
9734
100
AcDbEntity
  8
1
  6
Continuous
100
AcDbLine
 10
139.5653
 20
47.40060099999999
 30
0.0
 11
140.1642999999999
 21
47.293401
 31
0.0
  0
LINE
  5
9796
330
9734
100
AcDbEntity
  8
1
  6
Continuous
100
AcDbLine
 10
139.5642999999998
 20
49.395801
 30
0.0
 11
139.5642999999998
 21
48.93450099999999
 31
0.0
  0
LINE
  5
9797
330
9734
100
AcDbEntity
  8
1
  6
Continuous
100
AcDbLine
 10
139.5642999999998
 20
47.77880099999999
 30
0.0
 11
139.5642999999998
 21
47.40070099999999
 31
0.0
  0
LINE
  5
9798
330
9734
100
AcDbEntity
  8
1
  6
Continuous
100
AcDbLine
 10
139.5792999999999
 20
53.160801
 30
0.0
 11
139.9753
 21
53.605901
 31
0.0
  0
LINE
  5
9799
330
9734
100
AcDbEntity
  8
1
  6
Continuous
100
AcDbLine
 10
141.1692999999999
 20
52.397801
 30
0.0
 11
141.5653
 21
52.843001
 31
0.0
  0
LINE
  5
979A
330
9734
100
AcDbEntity
  8
1
  6
Continuous
100
AcDbLine
 10
139.6442999999998
 20
51.081001
 30
0.0
 11
140.0432999999999
 21
51.774101
 31
0.0
  0
LINE
  5
979B
330
9734
100
AcDbEntity
  8
1
  6
Continuous
100
AcDbLine
 10
141.6442999999999
 20
50.84780099999999
 30
0.0
 11
141.3393
 21
50.09950100000001
 31
0.0
  0
LINE
  5
979C
330
9734
100
AcDbEntity
  8
1
  6
Continuous
100
AcDbLine
 10
140.9643
 20
54.479601
 30
0.0
 11
141.5643
 21
54.37220100000001
 31
0.0
  0
LINE
  5
979D
330
9734
100
AcDbEntity
  8
1
  6
Continuous
100
AcDbLine
 10
140.9643
 20
54.094401
 30
0.0
 11
141.5653
 21
53.987101
 31
0.0
  0
LINE
  5
979E
330
9734
100
AcDbEntity
  8
1
  6
Continuous
100
AcDbLine
 10
140.9653
 20
53.123901
 30
0.0
 11
141.5653
 21
52.843001
 31
0.0
  0
LINE
  5
979F
330
9734
100
AcDbEntity
  8
1
  6
Continuous
100
AcDbLine
 10
140.9643
 20
52.493401
 30
0.0
 11
141.1692999999999
 21
52.397801
 31
0.0
  0
LINE
  5
97A0
330
9734
100
AcDbEntity
  8
1
  6
Continuous
100
AcDbLine
 10
140.9643
 20
51.24100099999999
 30
0.0
 11
141.6442999999999
 21
50.84780099999999
 31
0.0
  0
LINE
  5
97A1
330
9734
100
AcDbEntity
  8
1
  6
Continuous
100
AcDbLine
 10
140.9643
 20
50.31660099999999
 30
0.0
 11
141.3393
 21
50.099601
 31
0.0
  0
LINE
  5
97A2
330
9734
100
AcDbEntity
  8
1
  6
Continuous
100
AcDbLine
 10
140.9643
 20
48.740201
 30
0.0
 11
141.5653
 21
48.459201
 31
0.0
  0
LINE
  5
97A3
330
9734
100
AcDbEntity
  8
1
  6
Continuous
100
AcDbLine
 10
140.9643
 20
48.278801
 30
0.0
 11
141.1782999999998
 21
48.179001
 31
0.0
  0
LINE
  5
97A4
330
9734
100
AcDbEntity
  8
1
  6
Continuous
100
AcDbLine
 10
140.9643
 20
47.528401
 30
0.0
 11
141.5653
 21
47.421001
 31
0.0
  0
LINE
  5
97A5
330
9734
100
AcDbEntity
  8
1
  6
Continuous
100
AcDbLine
 10
140.9643
 20
47.150201
 30
0.0
 11
141.1553
 21
47.116101
 31
0.0
  0
LINE
  5
97A6
330
9734
100
AcDbEntity
  8
1
  6
Continuous
100
AcDbLine
 10
204.8302999999999
 20
63.775401
 30
0.0
 11
193.8312999999999
 21
57.42550099999998
 31
0.0
  0
LINE
  5
97A7
330
9734
100
AcDbEntity
  8
1
  6
Continuous
100
AcDbLine
 10
193.8312999999999
 20
57.42550099999998
 30
0.0
 11
193.8312999999999
 21
44.725501
 31
0.0
  0
LINE
  5
97A8
330
9734
100
AcDbEntity
  8
1
  6
Continuous
100
AcDbLine
 10
193.8312999999999
 20
44.725501
 30
0.0
 11
204.8302999999999
 21
38.37550099999999
 31
0.0
  0
LINE
  5
97A9
330
9734
100
AcDbEntity
  8
1
  6
Continuous
100
AcDbLine
 10
204.8302999999999
 20
38.37550099999999
 30
0.0
 11
215.8283
 21
44.725501
 31
0.0
  0
LINE
  5
97AA
330
9734
100
AcDbEntity
  8
1
  6
Continuous
100
AcDbLine
 10
215.8283
 20
44.725501
 30
0.0
 11
215.8283
 21
57.42550099999998
 31
0.0
  0
LINE
  5
97AB
330
9734
100
AcDbEntity
  8
1
  6
Continuous
100
AcDbLine
 10
215.8283
 20
57.42550099999998
 30
0.0
 11
204.8302999999999
 21
63.775501
 31
0.0
  0
LINE
  5
97AC
330
9734
100
AcDbEntity
  8
1
  6
Continuous
100
AcDbLine
 10
124.9213
 20
63.775501
 30
0.0
 11
124.9213
 21
38.37550099999999
 31
0.0
  0
LINE
  5
97AD
330
9734
100
AcDbEntity
  8
1
  6
Continuous
100
AcDbLine
 10
128.4213
 20
60.775601
 30
0.0
 11
128.4213
 21
41.37540099999998
 31
0.0
  0
LINE
  5
97AE
330
9734
100
AcDbEntity
  8
1
  6
Continuous
100
AcDbLine
 10
124.9213
 20
63.775501
 30
0.0
 11
127.5242999999999
 21
63.775501
 31
0.0
  0
LINE
  5
97AF
330
9734
100
AcDbEntity
  8
1
  6
Continuous
100
AcDbLine
 10
124.9213
 20
57.42550099999998
 30
0.0
 11
127.5242999999999
 21
57.42550099999998
 31
0.0
  0
LINE
  5
97B0
330
9734
100
AcDbEntity
  8
4
  6
CENTER
100
AcDbLine
 10
121.5113
 20
51.075501
 30
0.0
 11
160.9573
 21
51.075501
 31
0.0
  0
LINE
  5
97B1
330
9734
100
AcDbEntity
  8
1
  6
Continuous
100
AcDbLine
 10
124.9213
 20
38.37550099999999
 30
0.0
 11
127.5242999999999
 21
38.37550099999999
 31
0.0
  0
LINE
  5
97B2
330
9734
100
AcDbEntity
  8
1
  6
Continuous
100
AcDbLine
 10
124.9213
 20
44.725501
 30
0.0
 11
127.5242999999999
 21
44.725501
 31
0.0
  0
LINE
  5
97B3
330
9734
100
AcDbEntity
  8
1
  6
Continuous
100
AcDbLine
 10
204.8302999999999
 20
57.42550099999998
 30
0.0
 11
199.3303
 21
54.25050099999999
 31
0.0
  0
LINE
  5
97B4
330
9734
100
AcDbEntity
  8
1
  6
Continuous
100
AcDbLine
 10
199.3303
 20
54.25050099999999
 30
0.0
 11
199.3303
 21
47.900501
 31
0.0
  0
LINE
  5
97B5
330
9734
100
AcDbEntity
  8
1
  6
Continuous
100
AcDbLine
 10
199.3303
 20
47.900401
 30
0.0
 11
204.8302999999999
 21
44.725501
 31
0.0
  0
LINE
  5
97B6
330
9734
100
AcDbEntity
  8
1
  6
Continuous
100
AcDbLine
 10
204.8302999999999
 20
44.72540099999998
 30
0.0
 11
210.3292999999999
 21
47.900501
 31
0.0
  0
LINE
  5
97B7
330
9734
100
AcDbEntity
  8
1
  6
Continuous
100
AcDbLine
 10
210.3292999999999
 20
47.900501
 30
0.0
 11
210.3292999999999
 21
54.25050099999999
 31
0.0
  0
LINE
  5
97B8
330
9734
100
AcDbEntity
  8
1
  6
Continuous
100
AcDbLine
 10
210.3292999999999
 20
54.25050099999999
 30
0.0
 11
204.8302999999999
 21
57.42550099999998
 31
0.0
  0
LINE
  5
97B9
330
9734
100
AcDbEntity
  8
1
  6
Continuous
100
AcDbLine
 10
152.5852999999998
 20
55.81680099999999
 30
0.0
 11
152.5852999999998
 21
46.461101
 31
0.0
  0
LINE
  5
97BA
330
9734
100
AcDbEntity
  8
1
  6
Continuous
100
AcDbLine
 10
156.7853
 20
55.81680099999999
 30
0.0
 11
156.7853
 21
46.461101
 31
0.0
  0
LINE
  5
97BB
330
9734
100
AcDbEntity
  8
1
  6
Continuous
100
AcDbLine
 10
153.2823
 20
57.42550099999998
 30
0.0
 11
156.0883
 21
57.42550099999998
 31
0.0
  0
LINE
  5
97BC
330
9734
100
AcDbEntity
  8
1
  6
Continuous
100
AcDbLine
 10
153.2083
 20
54.25050099999999
 30
0.0
 11
156.1622999999999
 21
54.25050099999999
 31
0.0
  0
LINE
  5
97BD
330
9734
100
AcDbEntity
  8
1
  6
Continuous
100
AcDbLine
 10
153.2823
 20
44.725501
 30
0.0
 11
156.0883
 21
44.725501
 31
0.0
  0
LINE
  5
97BE
330
9734
100
AcDbEntity
  8
1
  6
Continuous
100
AcDbLine
 10
153.2083
 20
47.900501
 30
0.0
 11
156.1622999999999
 21
47.900501
 31
0.0
  0
LINE
  5
97BF
330
9734
100
AcDbEntity
  8
1
  6
Continuous
100
AcDbLine
 10
48.2809
 20
118.575001
 30
0.0
 11
47.65209999999998
 21
118.575001
 31
0.0
  0
LINE
  5
97C0
330
9734
100
AcDbEntity
  8
1
  6
Continuous
100
AcDbLine
 10
48.2809
 20
123.575001
 30
0.0
 11
47.65209999999998
 21
123.575001
 31
0.0
  0
LINE
  5
97C1
330
9734
100
AcDbEntity
  8
1
  6
Continuous
100
AcDbLine
 10
49.5799
 20
122.825001
 30
0.0
 11
49.5799
 21
119.325001
 31
0.0
  0
LINE
  5
97C2
330
9734
100
AcDbEntity
  8
1
  6
Continuous
100
AcDbLine
 10
49.5799
 20
122.825001
 30
0.0
 11
48.2809
 21
123.575001
 31
0.0
  0
LINE
  5
97C3
330
9734
100
AcDbEntity
  8
1
  6
Continuous
100
AcDbLine
 10
46.0799
 20
118.700001
 30
0.0
 11
46.0799
 21
123.450001
 31
0.0
  0
LINE
  5
97C4
330
9734
100
AcDbEntity
  8
1
  6
Continuous
100
AcDbLine
 10
47.5799
 20
118.700001
 30
0.0
 11
47.5799
 21
123.450001
 31
0.0
  0
LINE
  5
97C5
330
9734
100
AcDbEntity
  8
1
  6
Continuous
100
AcDbLine
 10
43.0799
 20
118.700001
 30
0.0
 11
43.0799
 21
123.450001
 31
0.0
  0
LINE
  5
97C6
330
9734
100
AcDbEntity
  8
1
  6
Continuous
100
AcDbLine
 10
44.5799
 20
118.700001
 30
0.0
 11
44.5799
 21
123.450001
 31
0.0
  0
LINE
  5
97C7
330
9734
100
AcDbEntity
  8
1
  6
Continuous
100
AcDbLine
 10
40.0799
 20
118.700001
 30
0.0
 11
40.0799
 21
123.450001
 31
0.0
  0
LINE
  5
97C8
330
9734
100
AcDbEntity
  8
1
  6
Continuous
100
AcDbLine
 10
41.5799
 20
118.700001
 30
0.0
 11
41.5799
 21
123.450001
 31
0.0
  0
LINE
  5
97C9
330
9734
100
AcDbEntity
  8
1
  6
Continuous
100
AcDbLine
 10
37.07990000000001
 20
118.700001
 30
0.0
 11
37.07990000000001
 21
123.450001
 31
0.0
  0
LINE
  5
97CA
330
9734
100
AcDbEntity
  8
1
  6
Continuous
100
AcDbLine
 10
38.5799
 20
118.700001
 30
0.0
 11
38.5799
 21
123.450001
 31
0.0
  0
LINE
  5
97CB
330
9734
100
AcDbEntity
  8
1
  6
Continuous
100
AcDbLine
 10
49.5799
 20
119.325001
 30
0.0
 11
48.2809
 21
118.575001
 31
0.0
  0
LINE
  5
97CC
330
9734
100
AcDbEntity
  8
1
  6
Continuous
100
AcDbLine
 10
47.5799
 20
123.450001
 30
0.0
 11
46.0799
 21
123.450001
 31
0.0
  0
LINE
  5
97CD
330
9734
100
AcDbEntity
  8
1
  6
Continuous
100
AcDbLine
 10
47.5799
 20
118.700001
 30
0.0
 11
46.0799
 21
118.700001
 31
0.0
  0
LINE
  5
97CE
330
9734
100
AcDbEntity
  8
1
  6
Continuous
100
AcDbLine
 10
44.5799
 20
123.450001
 30
0.0
 11
43.0799
 21
123.450001
 31
0.0
  0
LINE
  5
97CF
330
9734
100
AcDbEntity
  8
1
  6
Continuous
100
AcDbLine
 10
44.5799
 20
118.700001
 30
0.0
 11
43.0799
 21
118.700001
 31
0.0
  0
LINE
  5
97D0
330
9734
100
AcDbEntity
  8
1
  6
Continuous
100
AcDbLine
 10
41.5799
 20
123.450001
 30
0.0
 11
40.0799
 21
123.450001
 31
0.0
  0
LINE
  5
97D1
330
9734
100
AcDbEntity
  8
1
  6
Continuous
100
AcDbLine
 10
41.5799
 20
118.700001
 30
0.0
 11
40.0799
 21
118.700001
 31
0.0
  0
LINE
  5
97D2
330
9734
100
AcDbEntity
  8
1
  6
Continuous
100
AcDbLine
 10
38.5799
 20
123.450001
 30
0.0
 11
37.07990000000001
 21
123.450001
 31
0.0
  0
LINE
  5
97D3
330
9734
100
AcDbEntity
  8
1
  6
Continuous
100
AcDbLine
 10
38.5799
 20
118.700001
 30
0.0
 11
37.07990000000001
 21
118.700001
 31
0.0
  0
LINE
  5
97D4
330
9734
100
AcDbEntity
  8
1
  6
Continuous
100
AcDbLine
 10
46.0078
 20
123.575001
 30
0.0
 11
44.65209999999999
 21
123.575001
 31
0.0
  0
LINE
  5
97D5
330
9734
100
AcDbEntity
  8
1
  6
Continuous
100
AcDbLine
 10
43.0078
 20
123.575001
 30
0.0
 11
41.6521
 21
123.575001
 31
0.0
  0
LINE
  5
97D6
330
9734
100
AcDbEntity
  8
1
  6
Continuous
100
AcDbLine
 10
40.0078
 20
123.575001
 30
0.0
 11
38.65209999999999
 21
123.575001
 31
0.0
  0
LINE
  5
97D7
330
9734
100
AcDbEntity
  8
1
  6
Continuous
100
AcDbLine
 10
37.0078
 20
123.575001
 30
0.0
 11
30.5799
 21
123.575001
 31
0.0
  0
LINE
  5
97D8
330
9734
100
AcDbEntity
  8
1
  6
Continuous
100
AcDbLine
 10
46.0078
 20
118.575001
 30
0.0
 11
44.65209999999999
 21
118.575001
 31
0.0
  0
LINE
  5
97D9
330
9734
100
AcDbEntity
  8
1
  6
Continuous
100
AcDbLine
 10
43.0078
 20
118.575001
 30
0.0
 11
41.6521
 21
118.575001
 31
0.0
  0
LINE
  5
97DA
330
9734
100
AcDbEntity
  8
1
  6
Continuous
100
AcDbLine
 10
40.0078
 20
118.575001
 30
0.0
 11
38.65209999999999
 21
118.575001
 31
0.0
  0
LINE
  5
97DB
330
9734
100
AcDbEntity
  8
1
  6
Continuous
100
AcDbLine
 10
37.0078
 20
118.575001
 30
0.0
 11
30.5799
 21
118.575001
 31
0.0
  0
LINE
  5
97DC
330
9734
100
AcDbEntity
  8
1
  6
Continuous
100
AcDbLine
 10
48.2809
 20
123.575001
 30
0.0
 11
48.2809
 21
118.575001
 31
0.0
  0
LINE
  5
97DD
330
9734
100
AcDbEntity
  8
1
  6
Continuous
100
AcDbLine
 10
47.5799
 20
123.450001
 30
0.0
 11
47.65209999999998
 21
123.575001
 31
0.0
  0
LINE
  5
97DE
330
9734
100
AcDbEntity
  8
1
  6
Continuous
100
AcDbLine
 10
46.0799
 20
123.450001
 30
0.0
 11
45.74799999999998
 21
124.025001
 31
0.0
  0
LINE
  5
97DF
330
9734
100
AcDbEntity
  8
1
  6
Continuous
100
AcDbLine
 10
47.5799
 20
118.700001
 30
0.0
 11
47.65209999999998
 21
118.575001
 31
0.0
  0
LINE
  5
97E0
330
9734
100
AcDbEntity
  8
1
  6
Continuous
100
AcDbLine
 10
46.0799
 20
118.700001
 30
0.0
 11
46.0078
 21
118.575001
 31
0.0
  0
LINE
  5
97E1
330
9734
100
AcDbEntity
  8
1
  6
Continuous
100
AcDbLine
 10
47.65209999999998
 20
123.575001
 30
0.0
 11
47.65209999999998
 21
118.575001
 31
0.0
  0
LINE
  5
97E2
330
9734
100
AcDbEntity
  8
1
  6
Continuous
100
AcDbLine
 10
46.0078
 20
123.575001
 30
0.0
 11
46.0078
 21
118.575001
 31
0.0
  0
LINE
  5
97E3
330
9734
100
AcDbEntity
  8
1
  6
Continuous
100
AcDbLine
 10
44.5799
 20
123.450001
 30
0.0
 11
44.9119
 21
124.025001
 31
0.0
  0
LINE
  5
97E4
330
9734
100
AcDbEntity
  8
1
  6
Continuous
100
AcDbLine
 10
43.0799
 20
123.450001
 30
0.0
 11
42.74799999999999
 21
124.025001
 31
0.0
  0
LINE
  5
97E5
330
9734
100
AcDbEntity
  8
1
  6
Continuous
100
AcDbLine
 10
44.5799
 20
118.700001
 30
0.0
 11
44.65209999999999
 21
118.575001
 31
0.0
  0
LINE
  5
97E6
330
9734
100
AcDbEntity
  8
1
  6
Continuous
100
AcDbLine
 10
43.0799
 20
118.700001
 30
0.0
 11
43.0078
 21
118.575001
 31
0.0
  0
LINE
  5
97E7
330
9734
100
AcDbEntity
  8
1
  6
Continuous
100
AcDbLine
 10
44.65209999999999
 20
123.575001
 30
0.0
 11
44.65209999999999
 21
118.575001
 31
0.0
  0
LINE
  5
97E8
330
9734
100
AcDbEntity
  8
1
  6
Continuous
100
AcDbLine
 10
43.0078
 20
123.575001
 30
0.0
 11
43.0078
 21
118.575001
 31
0.0
  0
LINE
  5
97E9
330
9734
100
AcDbEntity
  8
1
  6
Continuous
100
AcDbLine
 10
41.9119
 20
124.025001
 30
0.0
 11
41.5799
 21
123.450001
 31
0.0
  0
LINE
  5
97EA
330
9734
100
AcDbEntity
  8
1
  6
Continuous
100
AcDbLine
 10
39.748
 20
124.025001
 30
0.0
 11
40.0799
 21
123.450001
 31
0.0
  0
LINE
  5
97EB
330
9734
100
AcDbEntity
  8
1
  6
Continuous
100
AcDbLine
 10
41.5799
 20
118.700001
 30
0.0
 11
41.6521
 21
118.575001
 31
0.0
  0
LINE
  5
97EC
330
9734
100
AcDbEntity
  8
1
  6
Continuous
100
AcDbLine
 10
40.0799
 20
118.700001
 30
0.0
 11
40.0078
 21
118.575001
 31
0.0
  0
LINE
  5
97ED
330
9734
100
AcDbEntity
  8
1
  6
Continuous
100
AcDbLine
 10
41.6521
 20
123.575001
 30
0.0
 11
41.6521
 21
118.575001
 31
0.0
  0
LINE
  5
97EE
330
9734
100
AcDbEntity
  8
1
  6
Continuous
100
AcDbLine
 10
40.0078
 20
123.575001
 30
0.0
 11
40.0078
 21
118.575001
 31
0.0
  0
LINE
  5
97EF
330
9734
100
AcDbEntity
  8
1
  6
Continuous
100
AcDbLine
 10
38.9119
 20
124.025001
 30
0.0
 11
38.5799
 21
123.450001
 31
0.0
  0
LINE
  5
97F0
330
9734
100
AcDbEntity
  8
1
  6
Continuous
100
AcDbLine
 10
37.07990000000001
 20
123.450001
 30
0.0
 11
36.74799999999999
 21
124.025001
 31
0.0
  0
LINE
  5
97F1
330
9734
100
AcDbEntity
  8
1
  6
Continuous
100
AcDbLine
 10
38.5799
 20
118.700001
 30
0.0
 11
38.65209999999999
 21
118.575001
 31
0.0
  0
LINE
  5
97F2
330
9734
100
AcDbEntity
  8
1
  6
Continuous
100
AcDbLine
 10
37.07990000000001
 20
118.700001
 30
0.0
 11
37.0078
 21
118.575001
 31
0.0
  0
LINE
  5
97F3
330
9734
100
AcDbEntity
  8
1
  6
Continuous
100
AcDbLine
 10
38.65209999999999
 20
123.575001
 30
0.0
 11
38.65209999999999
 21
118.575001
 31
0.0
  0
LINE
  5
97F4
330
9734
100
AcDbEntity
  8
1
  6
Continuous
100
AcDbLine
 10
37.0078
 20
123.575001
 30
0.0
 11
37.0078
 21
118.575001
 31
0.0
  0
LINE
  5
97F5
330
9734
100
AcDbEntity
  8
1
  6
Continuous
100
AcDbLine
 10
30.5799
 20
124.025001
 30
0.0
 11
36.74799999999999
 21
124.025001
 31
0.0
  0
LINE
  5
97F6
330
9734
100
AcDbEntity
  8
1
  6
Continuous
100
AcDbLine
 10
44.9119
 20
124.025001
 30
0.0
 11
45.74799999999998
 21
124.025001
 31
0.0
  0
LINE
  5
97F7
330
9734
100
AcDbEntity
  8
1
  6
Continuous
100
AcDbLine
 10
41.9119
 20
124.025001
 30
0.0
 11
42.74799999999999
 21
124.025001
 31
0.0
  0
LINE
  5
97F8
330
9734
100
AcDbEntity
  8
1
  6
Continuous
100
AcDbLine
 10
38.9119
 20
124.025001
 30
0.0
 11
39.748
 21
124.025001
 31
0.0
  0
LINE
  5
97F9
330
9734
100
AcDbEntity
  8
1
  6
Continuous
100
AcDbLine
 10
30.5799
 20
124.0750009999999
 30
0.0
 11
30.5799
 21
109.075001
 31
0.0
  0
LINE
  5
97FA
330
9734
100
AcDbEntity
  8
1
  6
Continuous
100
AcDbLine
 10
8.5799
 20
124.0750009999999
 30
0.0
 11
8.5799
 21
119.075001
 31
0.0
  0
LINE
  5
97FB
330
9734
100
AcDbEntity
  8
1
  6
Continuous
100
AcDbLine
 10
29.07989999999999
 20
107.5750009999999
 30
0.0
 11
18.0799
 21
107.5750009999999
 31
0.0
  0
LINE
  5
97FC
330
9734
100
AcDbEntity
  8
1
  6
Continuous
100
AcDbLine
 10
30.5799
 20
109.075001
 30
0.0
 11
29.07989999999999
 21
107.5750009999999
 31
0.0
  0
LINE
  5
97FD
330
9734
100
AcDbEntity
  8
1
  6
Continuous
100
AcDbLine
 10
10.0799
 20
117.575001
 30
0.0
 11
10.0799
 21
115.5750009999999
 31
0.0
  0
LINE
  5
97FE
330
9734
100
AcDbEntity
  8
1
  6
Continuous
100
AcDbLine
 10
10.0799
 20
115.5750009999999
 30
0.0
 11
18.0799
 21
107.5750009999999
 31
0.0
  0
LINE
  5
97FF
330
9734
100
AcDbEntity
  8
1
  6
Continuous
100
AcDbLine
 10
29.07989999999999
 20
125.575001
 30
0.0
 11
10.0799
 21
125.575001
 31
0.0
  0
LINE
  5
9800
330
9734
100
AcDbEntity
  8
1
  6
Continuous
100
AcDbLine
 10
30.5799
 20
124.0750009999999
 30
0.0
 11
8.5799
 21
124.0750009999999
 31
0.0
  0
LINE
  5
9801
330
9734
100
AcDbEntity
  8
1
  6
Continuous
100
AcDbLine
 10
29.07989999999999
 20
125.575001
 30
0.0
 11
30.5799
 21
124.0750009999999
 31
0.0
  0
LINE
  5
9802
330
9734
100
AcDbEntity
  8
1
  6
Continuous
100
AcDbLine
 10
8.5799
 20
124.0750009999999
 30
0.0
 11
10.0799
 21
125.575001
 31
0.0
  0
LINE
  5
9803
330
9734
100
AcDbEntity
  8
1
  6
Continuous
100
AcDbLine
 10
30.5799
 20
119.075001
 30
0.0
 11
8.5799
 21
119.075001
 31
0.0
  0
LINE
  5
9804
330
9734
100
AcDbEntity
  8
1
  6
Continuous
100
AcDbLine
 10
10.0799
 20
117.575001
 30
0.0
 11
8.5799
 21
119.075001
 31
0.0
  0
LINE
  5
9805
330
9734
100
AcDbEntity
  8
1
  6
Continuous
100
AcDbLine
 10
30.5799
 20
118.575001
 30
0.0
 11
9.0799
 21
118.575001
 31
0.0
  0
LINE
  5
9806
330
9734
100
AcDbEntity
  8
1
  6
Continuous
100
AcDbLine
 10
29.5799
 20
108.075001
 30
0.0
 11
17.57989999999999
 21
108.075001
 31
0.0
  0
LINE
  5
9807
330
9734
100
AcDbEntity
  8
1
  6
Continuous
100
AcDbLine
 10
15.0799
 20
117.575001
 30
0.0
 11
12.5799
 21
117.575001
 31
0.0
  0
LINE
  5
9808
330
9734
100
AcDbEntity
  8
1
  6
Continuous
100
AcDbLine
 10
12.0799
 20
117.075001
 30
0.0
 11
12.0799
 21
116.611001
 31
0.0
  0
LINE
  5
9809
330
9734
100
AcDbEntity
  8
1
  6
Continuous
100
AcDbLine
 10
15.5799
 20
117.075001
 30
0.0
 11
15.5799
 21
114.111001
 31
0.0
  0
LINE
  5
980A
330
9734
100
AcDbEntity
  8
1
  6
Continuous
100
AcDbLine
 10
12.2264
 20
116.257001
 30
0.0
 11
14.7264
 21
113.757001
 31
0.0
  0
LINE
  5
980B
330
9734
100
AcDbEntity
  8
4
  6
CENTER
100
AcDbLine
 10
204.8302999999999
 20
65.99520099999999
 30
0.0
 11
204.8302999999999
 21
36.31140099999999
 31
0.0
  0
LINE
  5
980C
330
9734
100
AcDbEntity
  8
4
  6
CENTER
100
AcDbLine
 10
189.2073
 20
51.075501
 30
0.0
 11
219.6433
 21
51.075501
 31
0.0
  0
LINE
  5
980D
330
9734
100
AcDbEntity
  8
1
  6
Continuous
100
AcDbLine
 10
212.7302999999999
 20
45.799101
 30
0.0
 11
212.7302999999999
 21
56.35190099999999
 31
0.0
  0
LINE
  5
980E
330
9734
100
AcDbEntity
  8
1
  6
Continuous
100
AcDbLine
 10
196.9303
 20
45.79920099999998
 30
0.0
 11
196.9303
 21
56.35190099999999
 31
0.0
  0
LINE
  5
980F
330
9734
100
AcDbEntity
  8
4
  6
CENTER
100
AcDbLine
 10
195.0853
 20
41.330601
 30
0.0
 11
214.9053
 21
61.15110099999998
 31
0.0
  0
LINE
  5
9810
330
9734
100
AcDbEntity
  8
4
  6
CENTER
100
AcDbLine
 10
214.3583
 20
41.547401
 30
0.0
 11
194.4433
 21
61.461801
 31
0.0
  0
LINE
  5
9811
330
9734
100
AcDbEntity
  8
1
  6
Continuous
100
AcDbLine
 10
209.2493
 20
58.323301
 30
0.0
 11
212.0773
 21
55.494801
 31
0.0
  0
LINE
  5
9812
330
9734
100
AcDbEntity
  8
1
  6
Continuous
100
AcDbLine
 10
212.2902999999999
 20
55.707101
 30
0.0
 11
212.0773
 21
55.49490099999999
 31
0.0
  0
LINE
  5
9813
330
9734
100
AcDbEntity
  8
1
  6
Continuous
100
AcDbLine
 10
209.2493
 20
58.323301
 30
0.0
 11
209.4612999999999
 21
58.535401
 31
0.0
  0
LINE
  5
9814
330
9734
100
AcDbEntity
  8
1
  6
Continuous
100
AcDbLine
 10
212.2902999999999
 20
55.707101
 30
0.0
 11
212.4693
 21
56.722801
 31
0.0
  0
LINE
  5
9815
330
9734
100
AcDbEntity
  8
1
  6
Continuous
100
AcDbLine
 10
209.4612999999999
 20
58.53550099999999
 30
0.0
 11
210.4773
 21
58.71470099999999
 31
0.0
  0
LINE
  5
9816
330
9734
100
AcDbEntity
  8
1
  6
Continuous
100
AcDbLine
 10
209.4612999999999
 20
58.53550099999999
 30
0.0
 11
212.2902999999999
 21
55.707101
 31
0.0
  0
LINE
  5
9817
330
9734
100
AcDbEntity
  8
1
  6
Continuous
100
AcDbLine
 10
197.5823
 20
46.656001
 30
0.0
 11
200.4103
 21
43.827601
 31
0.0
  0
LINE
  5
9818
330
9734
100
AcDbEntity
  8
1
  6
Continuous
100
AcDbLine
 10
200.1983
 20
43.615501
 30
0.0
 11
200.4103
 21
43.827701
 31
0.0
  0
LINE
  5
9819
330
9734
100
AcDbEntity
  8
1
  6
Continuous
100
AcDbLine
 10
197.5823
 20
46.656101
 30
0.0
 11
197.3703
 21
46.444001
 31
0.0
  0
LINE
  5
981A
330
9734
100
AcDbEntity
  8
1
  6
Continuous
100
AcDbLine
 10
200.1983
 20
43.615501
 30
0.0
 11
199.1823
 21
43.436301
 31
0.0
  0
LINE
  5
981B
330
9734
100
AcDbEntity
  8
1
  6
Continuous
100
AcDbLine
 10
197.3703
 20
46.44390099999998
 30
0.0
 11
197.1903
 21
45.42810099999999
 31
0.0
  0
LINE
  5
981C
330
9734
100
AcDbEntity
  8
1
  6
Continuous
100
AcDbLine
 10
197.3703
 20
46.444001
 30
0.0
 11
200.1983
 21
43.615401
 31
0.0
  0
LINE
  5
981D
330
9734
100
AcDbEntity
  8
1
  6
Continuous
100
AcDbLine
 10
212.0773
 20
46.656001
 30
0.0
 11
209.2493
 21
43.827701
 31
0.0
  0
LINE
  5
981E
330
9734
100
AcDbEntity
  8
1
  6
Continuous
100
AcDbLine
 10
212.2902999999999
 20
46.444001
 30
0.0
 11
212.0773
 21
46.656101
 31
0.0
  0
LINE
  5
981F
330
9734
100
AcDbEntity
  8
1
  6
Continuous
100
AcDbLine
 10
209.2493
 20
43.827701
 30
0.0
 11
209.4612999999999
 21
43.615501
 31
0.0
  0
LINE
  5
9820
330
9734
100
AcDbEntity
  8
1
  6
Continuous
100
AcDbLine
 10
212.2902999999999
 20
46.444001
 30
0.0
 11
212.4693
 21
45.428201
 31
0.0
  0
LINE
  5
9821
330
9734
100
AcDbEntity
  8
1
  6
Continuous
100
AcDbLine
 10
209.4612999999999
 20
43.615501
 30
0.0
 11
210.4773
 21
43.43620099999998
 31
0.0
  0
LINE
  5
9822
330
9734
100
AcDbEntity
  8
1
  6
Continuous
100
AcDbLine
 10
209.4612999999999
 20
43.615401
 30
0.0
 11
212.2902999999999
 21
46.444001
 31
0.0
  0
LINE
  5
9823
330
9734
100
AcDbEntity
  8
1
  6
Continuous
100
AcDbLine
 10
200.4103
 20
58.323301
 30
0.0
 11
197.5823
 21
55.49490099999999
 31
0.0
  0
LINE
  5
9824
330
9734
100
AcDbEntity
  8
1
  6
Continuous
100
AcDbLine
 10
200.1983
 20
58.535401
 30
0.0
 11
200.4103
 21
58.323301
 31
0.0
  0
LINE
  5
9825
330
9734
100
AcDbEntity
  8
1
  6
Continuous
100
AcDbLine
 10
197.5823
 20
55.49490099999999
 30
0.0
 11
197.3703
 21
55.707101
 31
0.0
  0
LINE
  5
9826
330
9734
100
AcDbEntity
  8
1
  6
Continuous
100
AcDbLine
 10
200.1983
 20
58.53550099999999
 30
0.0
 11
199.1823
 21
58.71470099999999
 31
0.0
  0
LINE
  5
9827
330
9734
100
AcDbEntity
  8
1
  6
Continuous
100
AcDbLine
 10
197.3703
 20
55.707101
 30
0.0
 11
197.1903
 21
56.722801
 31
0.0
  0
LINE
  5
9828
330
9734
100
AcDbEntity
  8
1
  6
Continuous
100
AcDbLine
 10
197.3703
 20
55.70700099999999
 30
0.0
 11
200.1983
 21
58.535401
 31
0.0
  0
LINE
  5
9829
330
9734
100
AcDbEntity
  8
1
  6
Continuous
100
AcDbLine
 10
207.3303
 20
45.075501
 30
0.0
 11
207.3303
 21
43.37100099999999
 31
0.0
  0
LINE
  5
982A
330
9734
100
AcDbEntity
  8
1
  6
Continuous
100
AcDbLine
 10
207.3303
 20
57.075501
 30
0.0
 11
207.3303
 21
58.780101
 31
0.0
  0
LINE
  5
982B
330
9734
100
AcDbEntity
  8
4
  6
CENTER
100
AcDbLine
 10
77.6498
 20
121.0750009999999
 30
0.0
 11
111.7083
 21
121.0750009999999
 31
0.0
  0
LINE
  5
982C
330
9734
100
AcDbEntity
  8
1
  6
Continuous
100
AcDbLine
 10
81.53749999999998
 20
110.075001
 30
0.0
 11
82.53749999999998
 21
110.075001
 31
0.0
  0
LINE
  5
982D
330
9734
100
AcDbEntity
  8
1
  6
Continuous
100
AcDbLine
 10
81.53749999999998
 20
132.0750009999999
 30
0.0
 11
82.53749999999998
 21
132.0750009999999
 31
0.0
  0
LINE
  5
982E
330
9734
100
AcDbEntity
  8
1
  6
Continuous
100
AcDbLine
 10
82.53749999999998
 20
132.0750009999999
 30
0.0
 11
82.53749999999998
 21
110.075001
 31
0.0
  0
LINE
  5
982F
330
9734
100
AcDbEntity
  8
1
  6
Continuous
100
AcDbLine
 10
80.53749999999999
 20
131.0750009999999
 30
0.0
 11
80.53749999999999
 21
111.075001
 31
0.0
  0
LINE
  5
9830
330
9734
100
AcDbEntity
  8
1
  6
Continuous
100
AcDbLine
 10
80.53749999999999
 20
131.0750009999999
 30
0.0
 11
81.53749999999998
 21
132.0750009999999
 31
0.0
  0
LINE
  5
9831
330
9734
100
AcDbEntity
  8
1
  6
Continuous
100
AcDbLine
 10
80.53749999999999
 20
111.075001
 30
0.0
 11
81.53749999999998
 21
110.075001
 31
0.0
  0
LINE
  5
9832
330
9734
100
AcDbEntity
  8
1
  6
Continuous
100
AcDbLine
 10
99.4373
 20
128.9750009999999
 30
0.0
 11
99.4373
 21
123.575001
 31
0.0
  0
LINE
  5
9833
330
9734
100
AcDbEntity
  8
1
  6
Continuous
100
AcDbLine
 10
96.9373
 20
123.575001
 30
0.0
 11
99.4373
 21
123.575001
 31
0.0
  0
LINE
  5
9834
330
9734
100
AcDbEntity
  8
1
  6
Continuous
100
AcDbLine
 10
81.53749999999998
 20
132.0750009999999
 30
0.0
 11
81.53749999999998
 21
110.075001
 31
0.0
  0
LINE
  5
9835
330
9734
100
AcDbEntity
  8
1
  6
Continuous
100
AcDbLine
 10
95.53729999999999
 20
128.9750009999999
 30
0.0
 11
95.53729999999999
 21
113.1750009999999
 31
0.0
  0
LINE
  5
9836
330
9734
100
AcDbEntity
  8
1
  6
Continuous
100
AcDbLine
 10
83.1503
 20
128.9750009999999
 30
0.0
 11
83.1503
 21
113.1750009999999
 31
0.0
  0
LINE
  5
9837
330
9734
100
AcDbEntity
  8
1
  6
Continuous
100
AcDbLine
 10
110.0373
 20
123.775001
 30
0.0
 11
110.0373
 21
118.375001
 31
0.0
  0
LINE
  5
9838
330
9734
100
AcDbEntity
  8
1
  6
Continuous
100
AcDbLine
 10
98.33730000000002
 20
116.350001
 30
0.0
 11
97.5373
 21
116.350001
 31
0.0
  0
LINE
  5
9839
330
9734
100
AcDbEntity
  8
1
  6
Continuous
100
AcDbLine
 10
109.0373
 20
123.775001
 30
0.0
 11
109.0373
 21
118.375001
 31
0.0
  0
LINE
  5
983A
330
9734
100
AcDbEntity
  8
1
  6
Continuous
100
AcDbLine
 10
80.03749999999998
 20
55.975501
 30
0.0
 11
80.03749999999998
 21
46.17550099999998
 31
0.0
  0
LINE
  5
983B
330
9734
100
AcDbEntity
  8
1
  6
Continuous
100
AcDbLine
 10
80.53749999999999
 20
56.575401
 30
0.0
 11
80.03749999999998
 21
55.97540099999999
 31
0.0
  0
LINE
  5
983C
330
9734
100
AcDbEntity
  8
1
  6
Continuous
100
AcDbLine
 10
80.03749999999998
 20
46.17550099999998
 30
0.0
 11
80.53749999999999
 21
45.57540099999999
 31
0.0
  0
LINE
  5
983D
330
9734
100
AcDbEntity
  8
1
  6
Continuous
100
AcDbLine
 10
97.5373
 20
116.4250009999999
 30
0.0
 11
97.5373
 21
123.575001
 31
0.0
  0
LINE
  5
983E
330
9734
100
AcDbEntity
  8
1
  6
Continuous
100
AcDbLine
 10
99.4373
 20
127.375001
 30
0.0
 11
99.93729999999999
 21
127.375001
 31
0.0
  0
LINE
  5
983F
330
9734
100
AcDbEntity
  8
1
  6
Continuous
100
AcDbLine
 10
98.33730000000002
 20
113.3750009999999
 30
0.0
 11
99.93729999999999
 21
113.3750009999999
 31
0.0
  0
LINE
  5
9840
330
9734
100
AcDbEntity
  8
1
  6
Continuous
100
AcDbLine
 10
98.33730000000002
 20
123.575001
 30
0.0
 11
98.33730000000002
 21
113.3750009999999
 31
0.0
  0
LINE
  5
9841
330
9734
100
AcDbEntity
  8
1
  6
Continuous
100
AcDbLine
 10
99.93729999999999
 20
127.375001
 30
0.0
 11
99.93729999999999
 21
113.3750009999999
 31
0.0
  0
LINE
  5
9842
330
9734
100
AcDbEntity
  8
1
  6
Continuous
100
AcDbLine
 10
139.5642999999998
 20
124.730001
 30
0.0
 11
139.5642999999998
 21
124.3450009999999
 31
0.0
  0
LINE
  5
9843
330
9734
100
AcDbEntity
  8
1
  6
Continuous
100
AcDbLine
 10
141.5643
 20
124.372001
 30
0.0
 11
141.5643
 21
123.987001
 31
0.0
  0
LINE
  5
9844
330
9734
100
AcDbEntity
  8
1
  6
Continuous
100
AcDbLine
 10
140.1642999999999
 20
127.575001
 30
0.0
 11
140.1642999999999
 21
115.6080009999999
 31
0.0
  0
LINE
  5
9845
330
9734
100
AcDbEntity
  8
1
  6
Continuous
100
AcDbLine
 10
140.9643
 20
127.575001
 30
0.0
 11
140.9643
 21
114.5750009999999
 31
0.0
  0
LINE
  5
9846
330
9734
100
AcDbEntity
  8
1
  6
Continuous
100
AcDbLine
 10
140.1642999999999
 20
115.6080009999999
 30
0.0
 11
140.1642999999999
 21
114.5750009999999
 31
0.0
  0
LINE
  5
9847
330
9734
100
AcDbEntity
  8
1
  6
Continuous
100
AcDbLine
 10
140.1642999999999
 20
127.575001
 30
0.0
 11
140.9643
 21
127.575001
 31
0.0
  0
LINE
  5
9848
330
9734
100
AcDbEntity
  8
1
  6
Continuous
100
AcDbLine
 10
140.1642999999999
 20
114.5750009999999
 30
0.0
 11
140.9643
 21
114.5750009999999
 31
0.0
  0
LINE
  5
9849
330
9734
100
AcDbEntity
  8
1
  6
Continuous
100
AcDbLine
 10
139.5653
 20
124.730001
 30
0.0
 11
140.1653
 21
124.623001
 31
0.0
  0
LINE
  5
984A
330
9734
100
AcDbEntity
  8
1
  6
Continuous
100
AcDbLine
 10
139.9633
 20
123.593001
 30
0.0
 11
140.1653
 21
123.499001
 31
0.0
  0
LINE
  5
984B
330
9734
100
AcDbEntity
  8
1
  6
Continuous
100
AcDbLine
 10
140.0432999999999
 20
121.7740009999999
 30
0.0
 11
140.1642999999999
 21
121.704001
 31
0.0
  0
LINE
  5
984C
330
9734
100
AcDbEntity
  8
1
  6
Continuous
100
AcDbLine
 10
139.5653
 20
119.396001
 30
0.0
 11
140.1653
 21
119.115001
 31
0.0
  0
LINE
  5
984D
330
9734
100
AcDbEntity
  8
1
  6
Continuous
100
AcDbLine
 10
139.5653
 20
117.779001
 30
0.0
 11
140.1653
 21
117.671001
 31
0.0
  0
LINE
  5
984E
330
9734
100
AcDbEntity
  8
1
  6
Continuous
100
AcDbLine
 10
139.5653
 20
124.3450009999999
 30
0.0
 11
140.1653
 21
124.237001
 31
0.0
  0
LINE
  5
984F
330
9734
100
AcDbEntity
  8
1
  6
Continuous
100
AcDbLine
 10
139.5672999999999
 20
123.148001
 30
0.0
 11
140.1642999999999
 21
122.868001
 31
0.0
  0
LINE
  5
9850
330
9734
100
AcDbEntity
  8
1
  6
Continuous
100
AcDbLine
 10
139.6442999999998
 20
121.081001
 30
0.0
 11
140.1642999999999
 21
120.7800009999999
 31
0.0
  0
LINE
  5
9851
330
9734
100
AcDbEntity
  8
1
  6
Continuous
100
AcDbLine
 10
139.5653
 20
118.934001
 30
0.0
 11
140.1653
 21
118.653001
 31
0.0
  0
LINE
  5
9852
330
9734
100
AcDbEntity
  8
1
  6
Continuous
100
AcDbLine
 10
139.5653
 20
117.4010009999999
 30
0.0
 11
140.1653
 21
117.2930009999999
 31
0.0
  0
LINE
  5
9853
330
9734
100
AcDbEntity
  8
1
  6
Continuous
100
AcDbLine
 10
139.5642999999998
 20
119.396001
 30
0.0
 11
139.5642999999998
 21
118.934001
 31
0.0
  0
LINE
  5
9854
330
9734
100
AcDbEntity
  8
1
  6
Continuous
100
AcDbLine
 10
139.5642999999998
 20
117.779001
 30
0.0
 11
139.5642999999998
 21
117.4010009999999
 31
0.0
  0
LINE
  5
9855
330
9734
100
AcDbEntity
  8
1
  6
Continuous
100
AcDbLine
 10
139.5792999999999
 20
123.161001
 30
0.0
 11
139.9753
 21
123.606001
 31
0.0
  0
LINE
  5
9856
330
9734
100
AcDbEntity
  8
1
  6
Continuous
100
AcDbLine
 10
141.1692999999999
 20
122.398001
 30
0.0
 11
141.5643
 21
122.843001
 31
0.0
  0
LINE
  5
9857
330
9734
100
AcDbEntity
  8
1
  6
Continuous
100
AcDbLine
 10
139.6442999999998
 20
121.081001
 30
0.0
 11
140.0432999999999
 21
121.7740009999999
 31
0.0
  0
LINE
  5
9858
330
9734
100
AcDbEntity
  8
1
  6
Continuous
100
AcDbLine
 10
141.6442999999999
 20
120.8480009999999
 30
0.0
 11
141.3393
 21
120.100001
 31
0.0
  0
LINE
  5
9859
330
9734
100
AcDbEntity
  8
1
  6
Continuous
100
AcDbLine
 10
140.9643
 20
123.124001
 30
0.0
 11
141.5653
 21
122.843001
 31
0.0
  0
LINE
  5
985A
330
9734
100
AcDbEntity
  8
1
  6
Continuous
100
AcDbLine
 10
140.9643
 20
122.493001
 30
0.0
 11
141.1692999999999
 21
122.398001
 31
0.0
  0
LINE
  5
985B
330
9734
100
AcDbEntity
  8
1
  6
Continuous
100
AcDbLine
 10
140.9653
 20
124.094001
 30
0.0
 11
141.5653
 21
123.987001
 31
0.0
  0
LINE
  5
985C
330
9734
100
AcDbEntity
  8
1
  6
Continuous
100
AcDbLine
 10
140.9653
 20
124.479001
 30
0.0
 11
141.5653
 21
124.372001
 31
0.0
  0
LINE
  5
985D
330
9734
100
AcDbEntity
  8
1
  6
Continuous
100
AcDbLine
 10
140.9643
 20
121.2410009999999
 30
0.0
 11
141.6442999999999
 21
120.8480009999999
 31
0.0
  0
LINE
  5
985E
330
9734
100
AcDbEntity
  8
1
  6
Continuous
100
AcDbLine
 10
140.9643
 20
120.317001
 30
0.0
 11
141.3393
 21
120.100001
 31
0.0
  0
LINE
  5
985F
330
9734
100
AcDbEntity
  8
1
  6
Continuous
100
AcDbLine
 10
140.9643
 20
118.740001
 30
0.0
 11
141.5653
 21
118.4590009999999
 31
0.0
  0
LINE
  5
9860
330
9734
100
AcDbEntity
  8
1
  6
Continuous
100
AcDbLine
 10
140.9653
 20
118.2790009999998
 30
0.0
 11
141.1782999999998
 21
118.179001
 31
0.0
  0
LINE
  5
9861
330
9734
100
AcDbEntity
  8
1
  6
Continuous
100
AcDbLine
 10
140.9653
 20
117.528001
 30
0.0
 11
141.5653
 21
117.421001
 31
0.0
  0
LINE
  5
9862
330
9734
100
AcDbEntity
  8
1
  6
Continuous
100
AcDbLine
 10
140.9643
 20
117.150001
 30
0.0
 11
141.1553
 21
117.1160009999999
 31
0.0
  0
LINE
  5
9863
330
9734
100
AcDbEntity
  8
1
  6
Continuous
100
AcDbLine
 10
110.0373
 20
123.775001
 30
0.0
 11
99.93729999999999
 21
123.775001
 31
0.0
  0
LINE
  5
9864
330
9734
100
AcDbEntity
  8
1
  6
Continuous
100
AcDbLine
 10
110.0373
 20
118.375001
 30
0.0
 11
99.93729999999999
 21
118.375001
 31
0.0
  0
LINE
  5
9865
330
9734
100
AcDbEntity
  8
1
  6
Continuous
100
AcDbLine
 10
153.3223
 20
126.575001
 30
0.0
 11
156.0492999999999
 21
126.575001
 31
0.0
  0
LINE
  5
9866
330
9734
100
AcDbEntity
  8
1
  6
Continuous
100
AcDbLine
 10
153.3223
 20
115.576001
 30
0.0
 11
156.0492999999999
 21
115.576001
 31
0.0
  0
LINE
  5
9867
330
9734
100
AcDbEntity
  8
1
  6
Continuous
100
AcDbLine
 10
156.7853
 20
118.326001
 30
0.0
 11
156.7853
 21
123.825001
 31
0.0
  0
LINE
  5
9868
330
9734
100
AcDbEntity
  8
1
  6
Continuous
100
AcDbLine
 10
152.5852999999998
 20
118.326001
 30
0.0
 11
152.5852999999998
 21
123.825001
 31
0.0
  0
LINE
  5
9869
330
9734
100
AcDbEntity
  8
1
  6
Continuous
100
AcDbLine
 10
153.3223
 20
121.0750009999999
 30
0.0
 11
156.0492999999999
 21
121.0750009999999
 31
0.0
  0
LINE
  5
986A
330
9734
100
AcDbEntity
  8
1
  6
Continuous
100
AcDbLine
 10
126.9483
 20
132.074001
 30
0.0
 11
124.9213
 21
132.074001
 31
0.0
  0
LINE
  5
986B
330
9734
100
AcDbEntity
  8
1
  6
Continuous
100
AcDbLine
 10
126.9483
 20
110.0770009999999
 30
0.0
 11
124.9213
 21
110.0770009999999
 31
0.0
  0
LINE
  5
986C
330
9734
100
AcDbEntity
  8
1
  6
Continuous
100
AcDbLine
 10
124.9213
 20
132.074001
 30
0.0
 11
124.9213
 21
110.0770009999999
 31
0.0
  0
LINE
  5
986D
330
9734
100
AcDbEntity
  8
1
  6
Continuous
100
AcDbLine
 10
128.4213
 20
126.575001
 30
0.0
 11
128.4213
 21
115.576001
 31
0.0
  0
LINE
  5
986E
330
9734
100
AcDbEntity
  8
1
  6
Continuous
100
AcDbLine
 10
126.9483
 20
121.0750009999999
 30
0.0
 11
124.9213
 21
121.0750009999999
 31
0.0
  0
LINE
  5
986F
330
9734
100
AcDbEntity
  8
1
  6
Continuous
100
AcDbLine
 10
82.53749999999998
 20
128.9750009999999
 30
0.0
 11
99.4373
 21
128.9750009999999
 31
0.0
  0
LINE
  5
9870
330
9734
100
AcDbEntity
  8
1
  6
Continuous
100
AcDbLine
 10
82.53749999999998
 20
113.1750009999999
 30
0.0
 11
96.9373
 21
113.1750009999999
 31
0.0
  0
LINE
  5
9871
330
9734
100
AcDbEntity
  8
1
  6
Continuous
100
AcDbLine
 10
80.03749999999998
 20
116.1750009999999
 30
0.0
 11
80.53749999999999
 21
115.5750009999999
 31
0.0
  0
LINE
  5
9872
330
9734
100
AcDbEntity
  8
1
  6
Continuous
100
AcDbLine
 10
80.03749999999998
 20
125.975001
 30
0.0
 11
80.03749999999998
 21
116.1750009999999
 31
0.0
  0
LINE
  5
9873
330
9734
100
AcDbEntity
  8
1
  6
Continuous
100
AcDbLine
 10
80.53749999999999
 20
126.575001
 30
0.0
 11
80.03749999999998
 21
125.975001
 31
0.0
  0
LINE
  5
9874
330
9734
100
AcDbEntity
  8
1
  6
Continuous
100
AcDbLine
 10
109.0373
 20
54.575501
 30
0.0
 11
109.0373
 21
53.14190100000001
 31
0.0
  0
LINE
  5
9875
330
9734
100
AcDbEntity
  8
1
  6
Continuous
100
AcDbLine
 10
109.0373
 20
49.009101
 30
0.0
 11
109.0373
 21
47.57540099999999
 31
0.0
  0
LINE
  5
9876
330
9734
100
AcDbEntity
  8
2
  6
Continuous
100
AcDbLine
 10
99.93729999999999
 20
47.98150099999999
 30
0.0
 11
109.4432999999998
 21
47.98150099999999
 31
0.0
  0
LINE
  5
9877
330
9734
100
AcDbEntity
  8
2
  6
Continuous
100
AcDbLine
 10
99.93729999999999
 20
54.16950100000001
 30
0.0
 11
109.4432999999998
 21
54.16950100000001
 31
0.0
  0
LINE
  5
9878
330
9734
100
AcDbEntity
  8
2
  6
Continuous
100
AcDbLine
 10
83.1503
 20
60.034001
 30
0.0
 11
95.17879999999999
 21
60.034001
 31
0.0
  0
LINE
  5
9879
330
9734
100
AcDbEntity
  8
2
  6
Continuous
100
AcDbLine
 10
83.1503
 20
42.117001
 30
0.0
 11
95.17879999999999
 21
42.117001
 31
0.0
  0
LINE
  5
987A
330
9734
100
AcDbEntity
  8
2
  6
Continuous
100
AcDbLine
 10
82.53749999999998
 20
60.38760100000001
 30
0.0
 11
83.1503
 21
60.034001
 31
0.0
  0
LINE
  5
987B
330
9734
100
AcDbEntity
  8
2
  6
Continuous
100
AcDbLine
 10
82.53749999999998
 20
41.763301
 30
0.0
 11
83.1503
 21
42.117001
 31
0.0
  0
LINE
  5
987C
330
9734
100
AcDbEntity
  8
4
  6
CENTER
100
AcDbLine
 10
121.5113
 20
121.0750009999999
 30
0.0
 11
160.9573
 21
121.0750009999999
 31
0.0
  0
LINE
  5
987D
330
9734
100
AcDbEntity
  8
1
  6
Continuous
100
AcDbLine
 10
207.5303
 20
53.302601
 30
0.0
 11
207.5303
 21
48.848401
 31
0.0
  0
LINE
  5
987E
330
9734
100
AcDbEntity
  8
1
  6
Continuous
100
AcDbLine
 10
202.1303
 20
53.302601
 30
0.0
 11
202.1303
 21
48.848401
 31
0.0
  0
LINE
  5
987F
330
9734
100
AcDbEntity
  8
1
  6
Continuous
100
AcDbLine
 10
312.7223
 20
59.675501
 30
0.0
 11
312.7223
 21
42.475501
 31
0.0
  0
LINE
  5
9880
330
9734
100
AcDbEntity
  8
4
  6
CENTER
100
AcDbLine
 10
331.5273
 20
51.075501
 30
0.0
 11
297.2612999999999
 21
51.075501
 31
0.0
  0
LINE
  5
9881
330
9734
100
AcDbEntity
  8
1
  6
Continuous
100
AcDbLine
 10
310.2223
 20
58.780101
 30
0.0
 11
312.7223
 21
58.780101
 31
0.0
  0
LINE
  5
9882
330
9734
100
AcDbEntity
  8
1
  6
Continuous
100
AcDbLine
 10
310.2223
 20
43.37100099999999
 30
0.0
 11
312.7223
 21
43.37100099999999
 31
0.0
  0
LINE
  5
9883
330
9734
100
AcDbEntity
  8
1
  6
Continuous
100
AcDbLine
 10
309.7223
 20
47.575501
 30
0.0
 11
300.6222999999998
 21
47.575501
 31
0.0
  0
LINE
  5
9884
330
9734
100
AcDbEntity
  8
1
  6
Continuous
100
AcDbLine
 10
309.7223
 20
54.575501
 30
0.0
 11
300.6222999999998
 21
54.575501
 31
0.0
  0
LINE
  5
9885
330
9734
100
AcDbEntity
  8
1
  6
Continuous
100
AcDbLine
 10
299.6223
 20
53.575501
 30
0.0
 11
299.6223
 21
48.575501
 31
0.0
  0
LINE
  5
9886
330
9734
100
AcDbEntity
  8
1
  6
Continuous
100
AcDbLine
 10
299.6223
 20
53.575501
 30
0.0
 11
300.6222999999998
 21
54.575501
 31
0.0
  0
LINE
  5
9887
330
9734
100
AcDbEntity
  8
1
  6
Continuous
100
AcDbLine
 10
300.6222999999998
 20
47.57540099999999
 30
0.0
 11
299.6223
 21
48.575401
 31
0.0
  0
LINE
  5
9888
330
9734
100
AcDbEntity
  8
1
  6
Continuous
100
AcDbLine
 10
309.7223
 20
53.14190100000001
 30
0.0
 11
299.6223
 21
53.14190100000001
 31
0.0
  0
LINE
  5
9889
330
9734
100
AcDbEntity
  8
1
  6
Continuous
100
AcDbLine
 10
299.6223
 20
49.009101
 30
0.0
 11
309.7223
 21
49.009101
 31
0.0
  0
LINE
  5
988A
330
9734
100
AcDbEntity
  8
2
  6
Continuous
100
AcDbLine
 10
309.7223
 20
52.576701
 30
0.0
 11
299.6223
 21
49.009101
 31
0.0
  0
LINE
  5
988B
330
9734
100
AcDbEntity
  8
2
  6
Continuous
100
AcDbLine
 10
299.6223
 20
53.14190100000001
 30
0.0
 11
309.7223
 21
49.574201
 31
0.0
  0
LINE
  5
988C
330
9734
100
AcDbEntity
  8
1
  6
Continuous
100
AcDbLine
 10
310.2223
 20
58.780101
 30
0.0
 11
310.2223
 21
43.37100099999999
 31
0.0
  0
LINE
  5
988D
330
9734
100
AcDbEntity
  8
1
  6
Continuous
100
AcDbLine
 10
310.2223
 20
58.775501
 30
0.0
 11
309.7223
 21
58.775501
 31
0.0
  0
LINE
  5
988E
330
9734
100
AcDbEntity
  8
1
  6
Continuous
100
AcDbLine
 10
310.2223
 20
44.775501
 30
0.0
 11
309.7223
 21
44.775501
 31
0.0
  0
LINE
  5
988F
330
9734
100
AcDbEntity
  8
1
  6
Continuous
100
AcDbLine
 10
309.7223
 20
58.775501
 30
0.0
 11
309.7223
 21
44.775501
 31
0.0
  0
LINE
  5
9890
330
9734
100
AcDbEntity
  8
1
  6
Continuous
100
AcDbLine
 10
270.0953
 20
54.730001
 30
0.0
 11
270.0953
 21
54.344801
 31
0.0
  0
LINE
  5
9891
330
9734
100
AcDbEntity
  8
1
  6
Continuous
100
AcDbLine
 10
268.0953
 20
54.37220100000001
 30
0.0
 11
268.0953
 21
53.987101
 31
0.0
  0
LINE
  5
9892
330
9734
100
AcDbEntity
  8
1
  6
Continuous
100
AcDbLine
 10
269.4952999999998
 20
57.575501
 30
0.0
 11
269.4952999999998
 21
44.575501
 31
0.0
  0
LINE
  5
9893
330
9734
100
AcDbEntity
  8
1
  6
Continuous
100
AcDbLine
 10
268.6952999999999
 20
44.575501
 30
0.0
 11
268.6952999999999
 21
57.575501
 31
0.0
  0
LINE
  5
9894
330
9734
100
AcDbEntity
  8
1
  6
Continuous
100
AcDbLine
 10
269.4952999999998
 20
57.575501
 30
0.0
 11
268.6952999999999
 21
57.575501
 31
0.0
  0
LINE
  5
9895
330
9734
100
AcDbEntity
  8
1
  6
Continuous
100
AcDbLine
 10
269.4952999999998
 20
44.575501
 30
0.0
 11
268.6952999999999
 21
44.575501
 31
0.0
  0
LINE
  5
9896
330
9734
100
AcDbEntity
  8
1
  6
Continuous
100
AcDbLine
 10
270.0953
 20
54.729901
 30
0.0
 11
269.4952999999998
 21
54.622601
 31
0.0
  0
LINE
  5
9897
330
9734
100
AcDbEntity
  8
1
  6
Continuous
100
AcDbLine
 10
269.6963
 20
53.592801
 30
0.0
 11
269.4952999999998
 21
53.498601
 31
0.0
  0
LINE
  5
9898
330
9734
100
AcDbEntity
  8
1
  6
Continuous
100
AcDbLine
 10
269.6163
 20
51.77420099999999
 30
0.0
 11
269.4952999999998
 21
51.703901
 31
0.0
  0
LINE
  5
9899
330
9734
100
AcDbEntity
  8
1
  6
Continuous
100
AcDbLine
 10
270.0953
 20
49.395701
 30
0.0
 11
269.4952999999998
 21
49.11470099999998
 31
0.0
  0
LINE
  5
989A
330
9734
100
AcDbEntity
  8
1
  6
Continuous
100
AcDbLine
 10
270.0953
 20
47.778701
 30
0.0
 11
269.4952999999998
 21
47.671401
 31
0.0
  0
LINE
  5
989B
330
9734
100
AcDbEntity
  8
1
  6
Continuous
100
AcDbLine
 10
270.0953
 20
54.344701
 30
0.0
 11
269.4952999999998
 21
54.237501
 31
0.0
  0
LINE
  5
989C
330
9734
100
AcDbEntity
  8
1
  6
Continuous
100
AcDbLine
 10
270.0923
 20
53.147601
 30
0.0
 11
269.4952999999998
 21
52.868101
 31
0.0
  0
LINE
  5
989D
330
9734
100
AcDbEntity
  8
1
  6
Continuous
100
AcDbLine
 10
270.0153
 20
51.080901
 30
0.0
 11
269.4952999999998
 21
50.779601
 31
0.0
  0
LINE
  5
989E
330
9734
100
AcDbEntity
  8
1
  6
Continuous
100
AcDbLine
 10
270.0953
 20
48.934401
 30
0.0
 11
269.4952999999998
 21
48.653401
 31
0.0
  0
LINE
  5
989F
330
9734
100
AcDbEntity
  8
1
  6
Continuous
100
AcDbLine
 10
270.0953
 20
47.40060099999999
 30
0.0
 11
269.4952999999998
 21
47.293401
 31
0.0
  0
LINE
  5
98A0
330
9734
100
AcDbEntity
  8
1
  6
Continuous
100
AcDbLine
 10
270.0953
 20
49.395801
 30
0.0
 11
270.0953
 21
48.93450099999999
 31
0.0
  0
LINE
  5
98A1
330
9734
100
AcDbEntity
  8
1
  6
Continuous
100
AcDbLine
 10
270.0953
 20
47.77880099999999
 30
0.0
 11
270.0953
 21
47.40070099999999
 31
0.0
  0
LINE
  5
98A2
330
9734
100
AcDbEntity
  8
1
  6
Continuous
100
AcDbLine
 10
270.0803
 20
53.160801
 30
0.0
 11
269.6843
 21
53.606001
 31
0.0
  0
LINE
  5
98A3
330
9734
100
AcDbEntity
  8
1
  6
Continuous
100
AcDbLine
 10
268.4913
 20
52.397801
 30
0.0
 11
268.0953
 21
52.843001
 31
0.0
  0
LINE
  5
98A4
330
9734
100
AcDbEntity
  8
1
  6
Continuous
100
AcDbLine
 10
270.0153
 20
51.081001
 30
0.0
 11
269.6163
 21
51.77420099999999
 31
0.0
  0
LINE
  5
98A5
330
9734
100
AcDbEntity
  8
1
  6
Continuous
100
AcDbLine
 10
268.0153
 20
50.84780099999999
 30
0.0
 11
268.3202999999999
 21
50.09950100000001
 31
0.0
  0
LINE
  5
98A6
330
9734
100
AcDbEntity
  8
1
  6
Continuous
100
AcDbLine
 10
268.6952999999999
 20
54.479601
 30
0.0
 11
268.0953
 21
54.37220100000001
 31
0.0
  0
LINE
  5
98A7
330
9734
100
AcDbEntity
  8
1
  6
Continuous
100
AcDbLine
 10
268.6952999999999
 20
54.094401
 30
0.0
 11
268.0953
 21
53.987101
 31
0.0
  0
LINE
  5
98A8
330
9734
100
AcDbEntity
  8
1
  6
Continuous
100
AcDbLine
 10
268.6952999999999
 20
53.123901
 30
0.0
 11
268.0953
 21
52.843001
 31
0.0
  0
LINE
  5
98A9
330
9734
100
AcDbEntity
  8
1
  6
Continuous
100
AcDbLine
 10
268.6952999999999
 20
52.493401
 30
0.0
 11
268.4913
 21
52.397801
 31
0.0
  0
LINE
  5
98AA
330
9734
100
AcDbEntity
  8
1
  6
Continuous
100
AcDbLine
 10
268.6952999999999
 20
51.24100099999999
 30
0.0
 11
268.0153
 21
50.847701
 31
0.0
  0
LINE
  5
98AB
330
9734
100
AcDbEntity
  8
1
  6
Continuous
100
AcDbLine
 10
268.6952999999999
 20
50.31660099999999
 30
0.0
 11
268.3202999999999
 21
50.099601
 31
0.0
  0
LINE
  5
98AC
330
9734
100
AcDbEntity
  8
1
  6
Continuous
100
AcDbLine
 10
268.6952999999999
 20
48.740101
 30
0.0
 11
268.0953
 21
48.45910100000001
 31
0.0
  0
LINE
  5
98AD
330
9734
100
AcDbEntity
  8
1
  6
Continuous
100
AcDbLine
 10
268.6952999999999
 20
48.278801
 30
0.0
 11
268.4812999999999
 21
48.179001
 31
0.0
  0
LINE
  5
98AE
330
9734
100
AcDbEntity
  8
1
  6
Continuous
100
AcDbLine
 10
268.6952999999999
 20
47.528401
 30
0.0
 11
268.0953
 21
47.421101
 31
0.0
  0
LINE
  5
98AF
330
9734
100
AcDbEntity
  8
1
  6
Continuous
100
AcDbLine
 10
268.6952999999999
 20
47.150201
 30
0.0
 11
268.5042999999998
 21
47.116101
 31
0.0
  0
LINE
  5
98B0
330
9734
100
AcDbEntity
  8
1
  6
Continuous
100
AcDbLine
 10
284.7382999999999
 20
63.775501
 30
0.0
 11
284.7382999999999
 21
38.37550099999999
 31
0.0
  0
LINE
  5
98B1
330
9734
100
AcDbEntity
  8
1
  6
Continuous
100
AcDbLine
 10
281.2383
 20
60.775601
 30
0.0
 11
281.2383
 21
41.37540099999998
 31
0.0
  0
LINE
  5
98B2
330
9734
100
AcDbEntity
  8
1
  6
Continuous
100
AcDbLine
 10
284.7382999999999
 20
63.775501
 30
0.0
 11
282.1352999999998
 21
63.775501
 31
0.0
  0
LINE
  5
98B3
330
9734
100
AcDbEntity
  8
1
  6
Continuous
100
AcDbLine
 10
284.7382999999999
 20
57.42550099999998
 30
0.0
 11
282.1352999999998
 21
57.42550099999998
 31
0.0
  0
LINE
  5
98B4
330
9734
100
AcDbEntity
  8
4
  6
CENTER
100
AcDbLine
 10
288.1483
 20
51.075501
 30
0.0
 11
248.7023
 21
51.075501
 31
0.0
  0
LINE
  5
98B5
330
9734
100
AcDbEntity
  8
1
  6
Continuous
100
AcDbLine
 10
284.7382999999999
 20
38.37550099999999
 30
0.0
 11
282.1352999999998
 21
38.37550099999999
 31
0.0
  0
LINE
  5
98B6
330
9734
100
AcDbEntity
  8
1
  6
Continuous
100
AcDbLine
 10
284.7382999999999
 20
44.725501
 30
0.0
 11
282.1352999999998
 21
44.725501
 31
0.0
  0
LINE
  5
98B7
330
9734
100
AcDbEntity
  8
1
  6
Continuous
100
AcDbLine
 10
257.0742999999998
 20
55.81680099999999
 30
0.0
 11
257.0742999999998
 21
46.461101
 31
0.0
  0
LINE
  5
98B8
330
9734
100
AcDbEntity
  8
1
  6
Continuous
100
AcDbLine
 10
252.8742999999999
 20
55.81680099999999
 30
0.0
 11
252.8742999999999
 21
46.461101
 31
0.0
  0
LINE
  5
98B9
330
9734
100
AcDbEntity
  8
1
  6
Continuous
100
AcDbLine
 10
256.3772999999998
 20
57.42550099999998
 30
0.0
 11
253.5713
 21
57.42550099999998
 31
0.0
  0
LINE
  5
98BA
330
9734
100
AcDbEntity
  8
1
  6
Continuous
100
AcDbLine
 10
256.4513
 20
54.25050099999999
 30
0.0
 11
253.4972999999999
 21
54.25050099999999
 31
0.0
  0
LINE
  5
98BB
330
9734
100
AcDbEntity
  8
1
  6
Continuous
100
AcDbLine
 10
256.3772999999998
 20
44.725501
 30
0.0
 11
253.5713
 21
44.725501
 31
0.0
  0
LINE
  5
98BC
330
9734
100
AcDbEntity
  8
1
  6
Continuous
100
AcDbLine
 10
256.4513
 20
47.900501
 30
0.0
 11
253.4972999999999
 21
47.900501
 31
0.0
  0
LINE
  5
98BD
330
9734
100
AcDbEntity
  8
1
  6
Continuous
100
AcDbLine
 10
300.6222999999998
 20
54.575501
 30
0.0
 11
300.6222999999998
 21
53.14190100000001
 31
0.0
  0
LINE
  5
98BE
330
9734
100
AcDbEntity
  8
1
  6
Continuous
100
AcDbLine
 10
300.6222999999998
 20
49.009101
 30
0.0
 11
300.6222999999998
 21
47.57540099999999
 31
0.0
  0
LINE
  5
98BF
330
9734
100
AcDbEntity
  8
2
  6
Continuous
100
AcDbLine
 10
309.7223
 20
47.98150099999999
 30
0.0
 11
300.2162999999999
 21
47.98150099999999
 31
0.0
  0
LINE
  5
98C0
330
9734
100
AcDbEntity
  8
2
  6
Continuous
100
AcDbLine
 10
309.7223
 20
54.16950100000001
 30
0.0
 11
300.2162999999999
 21
54.16950100000001
 31
0.0
  0
LINE
  5
98C1
330
9734
100
AcDbEntity
  8
1
  6
Continuous
100
AcDbLine
 10
99.4373
 20
44.775501
 30
0.0
 11
99.4373
 21
43.37100099999999
 31
0.0
  0
LINE
  5
98C2
330
9734
100
AcDbEntity
  8
1
  6
Continuous
100
AcDbLine
 10
39.5784
 20
44.725501
 30
0.0
 11
28.5799
 21
38.37550099999999
 31
0.0
  0
LINE
  5
98C3
330
9734
100
AcDbEntity
  8
1
  6
Continuous
100
AcDbLine
 10
28.5799
 20
38.37550099999999
 30
0.0
 11
17.5814
 21
44.725501
 31
0.0
  0
LINE
  5
98C4
330
9734
100
AcDbEntity
  8
1
  6
Continuous
100
AcDbLine
 10
17.5814
 20
44.725501
 30
0.0
 11
17.5814
 21
57.42550099999998
 31
0.0
  0
LINE
  5
98C5
330
9734
100
AcDbEntity
  8
1
  6
Continuous
100
AcDbLine
 10
17.5814
 20
57.42550099999998
 30
0.0
 11
28.5799
 21
63.775501
 31
0.0
  0
LINE
  5
98C6
330
9734
100
AcDbEntity
  8
1
  6
Continuous
100
AcDbLine
 10
28.5799
 20
63.775501
 30
0.0
 11
39.5784
 21
57.42550099999998
 31
0.0
  0
LINE
  5
98C7
330
9734
100
AcDbEntity
  8
1
  6
Continuous
100
AcDbLine
 10
39.5784
 20
57.42550099999998
 30
0.0
 11
39.5784
 21
44.725501
 31
0.0
  0
CIRCLE
  5
98C8
330
9734
100
AcDbEntity
  8
1
  6
Continuous
100
AcDbCircle
 10
28.5799
 20
51.075501
 30
0.0
 40
11.0
  0
CIRCLE
  5
98C9
330
9734
100
AcDbEntity
  8
1
  6
Continuous
100
AcDbCircle
 10
28.5799
 20
51.075501
 30
0.0
 40
10.0
  0
CIRCLE
  5
98CA
330
9734
100
AcDbEntity
  8
1
  6
Continuous
100
AcDbCircle
 10
28.5799
 20
51.075501
 30
0.0
 40
5.599999999999997
  0
ARC
  5
98CB
330
9734
100
AcDbEntity
  8
1
  6
Continuous
100
AcDbCircle
 10
28.5799
 20
51.075501
 30
0.0
 40
2.551
100
AcDbArc
 50
101.2499999999999
 51
78.74960000000001
  0
CIRCLE
  5
98CC
330
9734
100
AcDbEntity
  8
1
  6
Continuous
100
AcDbCircle
 10
28.5799
 20
51.075501
 30
0.0
 40
4.9
  0
ARC
  5
98CD
330
9734
100
AcDbEntity
  8
1
  6
Continuous
100
AcDbCircle
 10
28.5799
 20
51.075501
 30
0.0
 40
2.85
100
AcDbArc
 50
98.50920000000003
 51
81.49079999999996
  0
ARC
  5
98CE
330
9734
100
AcDbEntity
  8
1
  6
Continuous
100
AcDbCircle
 10
28.5799
 20
53.62550099999999
 30
0.0
 40
0.5
100
AcDbArc
 50
354.374
 51
185.514
  0
CIRCLE
  5
98CF
330
9734
100
AcDbEntity
  8
1
  6
Continuous
100
AcDbCircle
 10
28.5799
 20
51.075501
 30
0.0
 40
1.25
  0
ARC
  5
98D0
330
9734
100
AcDbEntity
  8
1
  6
Continuous
100
AcDbCircle
 10
30.34769999999999
 20
52.843301
 30
0.0
 40
1.0
100
AcDbArc
 50
180.0
 51
270.0
  0
ARC
  5
98D1
330
9734
100
AcDbEntity
  8
1
  6
Continuous
100
AcDbCircle
 10
26.8121
 20
52.843301
 30
0.0
 40
1.0
100
AcDbArc
 50
270.0
 51
0.0
  0
ARC
  5
98D2
330
9734
100
AcDbEntity
  8
1
  6
Continuous
100
AcDbCircle
 10
26.8121
 20
49.30780099999999
 30
0.0
 40
1.0
100
AcDbArc
 50
0.0
 51
90.0
  0
ARC
  5
98D3
330
9734
100
AcDbEntity
  8
1
  6
Continuous
100
AcDbCircle
 10
30.34769999999999
 20
49.30780099999999
 30
0.0
 40
1.0
100
AcDbArc
 50
90.0
 51
180.0
  0
ARC
  5
98D4
330
9734
100
AcDbEntity
  8
1
  6
Continuous
100
AcDbCircle
 10
97.23730000000001
 20
55.727901
 30
0.0
 40
0.3
100
AcDbArc
 50
0.0
 51
180.0
  0
ARC
  5
98D5
330
9734
100
AcDbEntity
  8
1
  6
Continuous
100
AcDbCircle
 10
97.23730000000001
 20
46.423101
 30
0.0
 40
0.3
100
AcDbArc
 50
180.0
 51
0.00001
  0
ARC
  5
98D6
330
9734
100
AcDbEntity
  8
1
  6
Continuous
100
AcDbCircle
 10
204.8302999999999
 20
51.075501
 30
0.0
 40
7.7
100
AcDbArc
 50
71.05410000000002
 51
198.946
  0
CIRCLE
  5
98D7
330
9734
100
AcDbEntity
  8
1
  6
Continuous
100
AcDbCircle
 10
204.8302999999999
 20
51.075501
 30
0.0
 40
6.5
  0
ARC
  5
98D8
330
9734
100
AcDbEntity
  8
1
  6
Continuous
100
AcDbCircle
 10
139.1283
 20
56.514301
 30
0.0
 40
1.837099999999999
100
AcDbArc
 50
283.7559999999998
 51
304.361
  0
ARC
  5
98D9
330
9734
100
AcDbEntity
  8
1
  6
Continuous
100
AcDbCircle
 10
141.7433
 20
55.376401
 30
0.0
 40
1.02
100
AcDbArc
 50
220.1979999999999
 51
259.887
  0
ARC
  5
98DA
330
9734
100
AcDbEntity
  8
1
  6
Continuous
100
AcDbCircle
 10
139.0992999999998
 20
56.56850099999999
 30
0.0
 40
3.0987
100
AcDbArc
 50
286.201
 51
290.1159999999998
  0
ARC
  5
98DB
330
9734
100
AcDbEntity
  8
1
  6
Continuous
100
AcDbCircle
 10
136.1253
 20
55.736001
 30
0.0
 40
4.3083
100
AcDbArc
 50
323.293
 51
339.6459999999998
  0
ARC
  5
98DC
330
9734
100
AcDbEntity
  8
1
  6
Continuous
100
AcDbCircle
 10
135.8773
 20
52.917901
 30
0.0
 40
4.287499999999997
100
AcDbArc
 50
342.6549999999999
 51
359.3339999999998
  0
ARC
  5
98DD
330
9734
100
AcDbEntity
  8
1
  6
Continuous
100
AcDbCircle
 10
138.9432999999999
 20
47.865301
 30
0.0
 40
1.236599999999999
100
AcDbArc
 50
350.983
 51
59.83789999999999
  0
ARC
  5
98DE
330
9734
100
AcDbEntity
  8
1
  6
Continuous
100
AcDbCircle
 10
141.9073
 20
47.57990099999999
 30
0.0
 40
0.9435999999999999
100
AcDbArc
 50
111.261
 51
183.1289999999999
  0
ARC
  5
98DF
330
9734
100
AcDbEntity
  8
1
  6
Continuous
100
AcDbCircle
 10
141.8962999999999
 20
46.548901
 30
0.0
 40
0.9332
100
AcDbArc
 50
110.826
 51
183.124
  0
ARC
  5
98E0
330
9734
100
AcDbEntity
  8
1
  6
Continuous
100
AcDbCircle
 10
142.2333
 20
45.328701
 30
0.0
 40
2.0872
100
AcDbArc
 50
121.081
 51
127.4229999999999
  0
ARC
  5
98E1
330
9734
100
AcDbEntity
  8
1
  6
Continuous
100
AcDbCircle
 10
137.7572999999999
 20
45.79900099999998
 30
0.0
 40
2.415099999999998
100
AcDbArc
 50
355.4669999999999
 51
41.5448
  0
ARC
  5
98E2
330
9734
100
AcDbEntity
  8
1
  6
Continuous
100
AcDbCircle
 10
141.1983
 20
49.075301
 30
0.0
 40
1.0341
100
AcDbArc
 50
82.1314
 51
103.0399999999999
  0
CIRCLE
  5
98E3
330
9734
100
AcDbEntity
  8
1
  6
Continuous
100
AcDbCircle
 10
204.8302999999999
 20
51.075501
 30
0.0
 40
10.5
  0
ARC
  5
98E4
330
9734
100
AcDbEntity
  8
1
  6
Continuous
100
AcDbCircle
 10
122.3722999999999
 20
60.600501
 30
0.0
 40
6.0517
100
AcDbArc
 50
328.356
 51
31.64440000000001
  0
ARC
  5
98E5
330
9734
100
AcDbEntity
  8
1
  6
Continuous
100
AcDbCircle
 10
122.3722999999999
 20
41.55050099999999
 30
0.0
 40
6.0517
100
AcDbArc
 50
328.356
 51
31.64440000000001
  0
ARC
  5
98E6
330
9734
100
AcDbEntity
  8
1
  6
Continuous
100
AcDbCircle
 10
105.5023
 20
51.075501
 30
0.0
 40
22.9192
100
AcDbArc
 50
343.915
 51
16.0848
  0
ARC
  5
98E7
330
9734
100
AcDbEntity
  8
1
  6
Continuous
100
AcDbCircle
 10
148.8172999999999
 20
51.160401
 30
0.0
 40
7.9683
100
AcDbArc
 50
0.6920000000000001
 51
22.81779999999999
  0
ARC
  5
98E8
330
9734
100
AcDbEntity
  8
1
  6
Continuous
100
AcDbCircle
 10
154.8263
 20
55.801301
 30
0.0
 40
2.241099999999998
100
AcDbArc
 50
133.553
 51
223.7849999999999
  0
ARC
  5
98E9
330
9734
100
AcDbEntity
  8
1
  6
Continuous
100
AcDbCircle
 10
160.5533
 20
51.160401
 30
0.0
 40
7.9683
100
AcDbArc
 50
157.1819999999999
 51
188.734
  0
ARC
  5
98EA
330
9734
100
AcDbEntity
  8
1
  6
Continuous
100
AcDbCircle
 10
154.5442999999998
 20
55.801301
 30
0.0
 40
2.241099999999998
100
AcDbArc
 50
316.215
 51
46.4467
  0
CIRCLE
  5
98EB
330
9734
100
AcDbEntity
  8
1
  6
Continuous
100
AcDbCircle
 10
204.8302999999999
 20
51.075501
 30
0.0
 40
5.4
  0
ARC
  5
98EC
330
9734
100
AcDbEntity
  8
1
  6
Continuous
100
AcDbCircle
 10
148.8172999999999
 20
50.99060099999999
 30
0.0
 40
7.9683
100
AcDbArc
 50
337.1819999999999
 51
359.308
  0
ARC
  5
98ED
330
9734
100
AcDbEntity
  8
1
  6
Continuous
100
AcDbCircle
 10
154.8263
 20
46.349701
 30
0.0
 40
2.241099999999998
100
AcDbArc
 50
136.2149999999997
 51
226.447
  0
ARC
  5
98EE
330
9734
100
AcDbEntity
  8
1
  6
Continuous
100
AcDbCircle
 10
160.5533
 20
50.99060099999999
 30
0.0
 40
7.9683
100
AcDbArc
 50
171.2659999999999
 51
202.818
  0
ARC
  5
98EF
330
9734
100
AcDbEntity
  8
1
  6
Continuous
100
AcDbCircle
 10
154.5442999999998
 20
46.349701
 30
0.0
 40
2.241099999999998
100
AcDbArc
 50
313.553
 51
43.7854
  0
ARC
  5
98F0
330
9734
100
AcDbEntity
  8
1
  6
Continuous
100
AcDbCircle
 10
15.0799
 20
117.075001
 30
0.0
 40
0.5
100
AcDbArc
 50
0.0
 51
90.0
  0
ARC
  5
98F1
330
9734
100
AcDbEntity
  8
1
  6
Continuous
100
AcDbCircle
 10
12.5799
 20
116.611001
 30
0.0
 40
0.5
100
AcDbArc
 50
180.0
 51
225.0
  0
ARC
  5
98F2
330
9734
100
AcDbEntity
  8
1
  6
Continuous
100
AcDbCircle
 10
12.5799
 20
117.075001
 30
0.0
 40
0.5
100
AcDbArc
 50
90.0
 51
180.0
  0
ARC
  5
98F3
330
9734
100
AcDbEntity
  8
1
  6
Continuous
100
AcDbCircle
 10
204.8302999999999
 20
51.075501
 30
0.0
 40
8.099999999999997
100
AcDbArc
 50
12.7587
 51
167.2409999999999
  0
ARC
  5
98F4
330
9734
100
AcDbEntity
  8
1
  6
Continuous
100
AcDbCircle
 10
204.8302999999999
 20
51.075501
 30
0.0
 40
8.599999999999997
100
AcDbArc
 50
23.27709999999999
 51
31.5523
  0
ARC
  5
98F5
330
9734
100
AcDbEntity
  8
1
  6
Continuous
100
AcDbCircle
 10
204.8302999999999
 20
51.075501
 30
0.0
 40
9.5
100
AcDbArc
 50
33.7387
 51
146.2609999999999
  0
ARC
  5
98F6
330
9734
100
AcDbEntity
  8
2
  6
Continuous
100
AcDbCircle
 10
204.8302999999999
 20
51.075501
 30
0.0
 40
9.5
100
AcDbArc
 50
146.2609999999999
 51
213.7389999999998
  0
ARC
  5
98F7
330
9734
100
AcDbEntity
  8
1
  6
Continuous
100
AcDbCircle
 10
204.8302999999999
 20
51.075501
 30
0.0
 40
8.599999999999997
100
AcDbArc
 50
203.277
 51
211.552
  0
ARC
  5
98F8
330
9734
100
AcDbEntity
  8
1
  6
Continuous
100
AcDbCircle
 10
204.8302999999999
 20
51.075501
 30
0.0
 40
8.099999999999997
100
AcDbArc
 50
192.759
 51
347.2409999999999
  0
ARC
  5
98F9
330
9734
100
AcDbEntity
  8
1
  6
Continuous
100
AcDbCircle
 10
204.8302999999999
 20
51.075501
 30
0.0
 40
8.599999999999997
100
AcDbArc
 50
58.44769999999999
 51
121.552
  0
ARC
  5
98FA
330
9734
100
AcDbEntity
  8
1
  6
Continuous
100
AcDbCircle
 10
204.8302999999999
 20
51.075501
 30
0.0
 40
8.599999999999997
100
AcDbArc
 50
328.4479999999998
 51
336.723
  0
ARC
  5
98FB
330
9734
100
AcDbEntity
  8
1
  6
Continuous
100
AcDbCircle
 10
204.8302999999999
 20
51.075501
 30
0.0
 40
8.599999999999997
100
AcDbArc
 50
238.4479999999999
 51
301.552
  0
ARC
  5
98FC
330
9734
100
AcDbEntity
  8
1
  6
Continuous
100
AcDbCircle
 10
204.8302999999999
 20
51.075501
 30
0.0
 40
8.599999999999997
100
AcDbArc
 50
148.4479999999998
 51
156.7229999999999
  0
CIRCLE
  5
98FD
330
9734
100
AcDbEntity
  8
1
  6
Continuous
100
AcDbCircle
 10
204.8302999999999
 20
51.075501
 30
0.0
 40
1.25
  0
CIRCLE
  5
98FE
330
9734
100
AcDbEntity
  8
1
  6
Continuous
100
AcDbCircle
 10
204.8302999999999
 20
51.075501
 30
0.0
 40
2.399999999999999
  0
ARC
  5
98FF
330
9734
100
AcDbEntity
  8
1
  6
Continuous
100
AcDbCircle
 10
97.13729999999999
 20
116.4250009999999
 30
0.0
 40
0.4
100
AcDbArc
 50
239.9999999999999
 51
0.0
  0
ARC
  5
9900
330
9734
100
AcDbEntity
  8
1
  6
Continuous
100
AcDbCircle
 10
139.1283
 20
126.5140009999999
 30
0.0
 40
1.837099999999999
100
AcDbArc
 50
283.7559999999998
 51
304.361
  0
ARC
  5
9901
330
9734
100
AcDbEntity
  8
1
  6
Continuous
100
AcDbCircle
 10
139.0992999999998
 20
126.568001
 30
0.0
 40
3.0987
100
AcDbArc
 50
286.201
 51
290.1159999999998
  0
ARC
  5
9902
330
9734
100
AcDbEntity
  8
1
  6
Continuous
100
AcDbCircle
 10
136.1253
 20
125.7360009999999
 30
0.0
 40
4.3083
100
AcDbArc
 50
323.293
 51
339.6459999999998
  0
ARC
  5
9903
330
9734
100
AcDbEntity
  8
1
  6
Continuous
100
AcDbCircle
 10
135.8773
 20
122.918001
 30
0.0
 40
4.287499999999997
100
AcDbArc
 50
342.6549999999999
 51
359.3339999999998
  0
ARC
  5
9904
330
9734
100
AcDbEntity
  8
1
  6
Continuous
100
AcDbCircle
 10
138.9432999999999
 20
117.865001
 30
0.0
 40
1.236599999999999
100
AcDbArc
 50
9.017089999999999
 51
59.83789999999999
  0
ARC
  5
9905
330
9734
100
AcDbEntity
  8
1
  6
Continuous
100
AcDbCircle
 10
141.9073
 20
117.5800009999999
 30
0.0
 40
0.9435999999999999
100
AcDbArc
 50
111.261
 51
176.8709999999999
  0
ARC
  5
9906
330
9734
100
AcDbEntity
  8
1
  6
Continuous
100
AcDbCircle
 10
141.8962999999999
 20
116.549001
 30
0.0
 40
0.9332
100
AcDbArc
 50
110.826
 51
183.124
  0
ARC
  5
9907
330
9734
100
AcDbEntity
  8
1
  6
Continuous
100
AcDbCircle
 10
142.2333
 20
115.329001
 30
0.0
 40
2.0872
100
AcDbArc
 50
121.081
 51
127.4229999999999
  0
ARC
  5
9908
330
9734
100
AcDbEntity
  8
1
  6
Continuous
100
AcDbCircle
 10
137.7572999999999
 20
115.799001
 30
0.0
 40
2.415099999999998
100
AcDbArc
 50
355.4669999999999
 51
41.5448
  0
ARC
  5
9909
330
9734
100
AcDbEntity
  8
1
  6
Continuous
100
AcDbCircle
 10
141.1983
 20
119.075001
 30
0.0
 40
1.0341
100
AcDbArc
 50
82.1314
 51
103.0399999999999
  0
ARC
  5
990A
330
9734
100
AcDbEntity
  8
1
  6
Continuous
100
AcDbCircle
 10
151.2863
 20
123.825001
 30
0.0
 40
5.499299999999997
100
AcDbArc
 50
330.0
 51
30.0
  0
ARC
  5
990B
330
9734
100
AcDbEntity
  8
1
  6
Continuous
100
AcDbCircle
 10
158.0852999999999
 20
123.825001
 30
0.0
 40
5.499299999999997
100
AcDbArc
 50
150.0
 51
210.0
  0
ARC
  5
990C
330
9734
100
AcDbEntity
  8
1
  6
Continuous
100
AcDbCircle
 10
151.2863
 20
118.326001
 30
0.0
 40
5.499299999999997
100
AcDbArc
 50
330.0
 51
30.0
  0
ARC
  5
990D
330
9734
100
AcDbEntity
  8
1
  6
Continuous
100
AcDbCircle
 10
158.0852999999999
 20
118.326001
 30
0.0
 40
5.499299999999997
100
AcDbArc
 50
150.0
 51
210.0
  0
ARC
  5
990E
330
9734
100
AcDbEntity
  8
1
  6
Continuous
100
AcDbCircle
 10
117.4233
 20
115.576001
 30
0.0
 40
10.99849999999998
100
AcDbArc
 50
330.0
 51
30.0
  0
ARC
  5
990F
330
9734
100
AcDbEntity
  8
1
  6
Continuous
100
AcDbCircle
 10
117.4233
 20
126.575001
 30
0.0
 40
10.99849999999998
100
AcDbArc
 50
330.0
 51
30.0
  0
ARC
  5
9910
330
9734
100
AcDbEntity
  8
1
  6
Continuous
100
AcDbCircle
 10
15.0799
 20
114.111001
 30
0.0
 40
0.5
100
AcDbArc
 50
225.0
 51
0.0
  0
ARC
  5
9911
330
9734
100
AcDbEntity
  8
2
  6
Continuous
100
AcDbCircle
 10
204.8302999999999
 20
51.075501
 30
0.0
 40
3.5
100
AcDbArc
 50
320.4820000000002
 51
39.51769999999999
  0
ARC
  5
9912
330
9734
100
AcDbEntity
  8
1
  6
Continuous
100
AcDbCircle
 10
204.8302999999999
 20
51.075501
 30
0.0
 40
3.093999999999998
100
AcDbArc
 50
330.769
 51
29.23109999999999
  0
ARC
  5
9913
330
9734
100
AcDbEntity
  8
2
  6
Continuous
100
AcDbCircle
 10
204.8302999999999
 20
51.075501
 30
0.0
 40
3.5
100
AcDbArc
 50
140.4819999999999
 51
219.518
  0
ARC
  5
9914
330
9734
100
AcDbEntity
  8
1
  6
Continuous
100
AcDbCircle
 10
204.8302999999999
 20
51.075501
 30
0.0
 40
3.093999999999998
100
AcDbArc
 50
150.769
 51
209.231
  0
ARC
  5
9915
330
9734
100
AcDbEntity
  8
2
  6
Continuous
100
AcDbCircle
 10
204.8302999999999
 20
51.075501
 30
0.0
 40
3.093999999999998
100
AcDbArc
 50
209.231
 51
330.769
  0
ARC
  5
9916
330
9734
100
AcDbEntity
  8
1
  6
Continuous
100
AcDbCircle
 10
204.8302999999999
 20
51.075501
 30
0.0
 40
3.5
100
AcDbArc
 50
219.518
 51
320.4820000000002
  0
ARC
  5
9917
330
9734
100
AcDbEntity
  8
2
  6
Continuous
100
AcDbCircle
 10
204.8302999999999
 20
51.075501
 30
0.0
 40
3.093999999999998
100
AcDbArc
 50
29.23109999999999
 51
150.769
  0
ARC
  5
9918
330
9734
100
AcDbEntity
  8
1
  6
Continuous
100
AcDbCircle
 10
204.8302999999999
 20
51.075501
 30
0.0
 40
3.5
100
AcDbArc
 50
39.51769999999999
 51
140.4819999999999
  0
ARC
  5
9919
330
9734
100
AcDbEntity
  8
2
  6
Continuous
100
AcDbCircle
 10
204.8302999999999
 20
51.075501
 30
0.0
 40
8.9585
100
AcDbArc
 50
28.1345
 51
33.0882
  0
ARC
  5
991A
330
9734
100
AcDbEntity
  8
1
  6
Continuous
100
AcDbCircle
 10
204.8302999999999
 20
51.075501
 30
0.0
 40
9.5
100
AcDbArc
 50
213.7389999999998
 51
326.2609999999999
  0
ARC
  5
991B
330
9734
100
AcDbEntity
  8
2
  6
Continuous
100
AcDbCircle
 10
204.8302999999999
 20
51.075501
 30
0.0
 40
9.5
100
AcDbArc
 50
326.2609999999999
 51
33.73879999999999
  0
ARC
  5
991C
330
9734
100
AcDbEntity
  8
1
  6
Continuous
100
AcDbCircle
 10
204.8302999999999
 20
51.075501
 30
0.0
 40
8.9585
100
AcDbArc
 50
331.8659999999998
 51
28.1345
  0
ARC
  5
991D
330
9734
100
AcDbEntity
  8
2
  6
Continuous
100
AcDbCircle
 10
204.8302999999999
 20
51.075501
 30
0.0
 40
8.9585
100
AcDbArc
 50
326.912
 51
331.8659999999998
  0
ARC
  5
991E
330
9734
100
AcDbEntity
  8
2
  6
Continuous
100
AcDbCircle
 10
204.8302999999999
 20
51.075501
 30
0.0
 40
8.9585
100
AcDbArc
 50
236.9119999999998
 51
303.0879999999999
  0
ARC
  5
991F
330
9734
100
AcDbEntity
  8
2
  6
Continuous
100
AcDbCircle
 10
204.8302999999999
 20
51.075501
 30
0.0
 40
8.9585
100
AcDbArc
 50
208.1339999999999
 51
213.0879999999999
  0
ARC
  5
9920
330
9734
100
AcDbEntity
  8
1
  6
Continuous
100
AcDbCircle
 10
204.8302999999999
 20
51.075501
 30
0.0
 40
8.9585
100
AcDbArc
 50
151.866
 51
208.1339999999999
  0
ARC
  5
9921
330
9734
100
AcDbEntity
  8
2
  6
Continuous
100
AcDbCircle
 10
204.8302999999999
 20
51.075501
 30
0.0
 40
8.9585
100
AcDbArc
 50
146.912
 51
151.866
  0
ARC
  5
9922
330
9734
100
AcDbEntity
  8
2
  6
Continuous
100
AcDbCircle
 10
204.8302999999999
 20
51.075501
 30
0.0
 40
8.9585
100
AcDbArc
 50
56.91189999999998
 51
123.0879999999999
  0
ARC
  5
9923
330
9734
100
AcDbEntity
  8
1
  6
Continuous
100
AcDbCircle
 10
270.5323
 20
56.514301
 30
0.0
 40
1.837099999999999
100
AcDbArc
 50
235.639
 51
256.244
  0
ARC
  5
9924
330
9734
100
AcDbEntity
  8
1
  6
Continuous
100
AcDbCircle
 10
267.9162999999999
 20
55.376401
 30
0.0
 40
1.02
100
AcDbArc
 50
280.113
 51
319.802
  0
ARC
  5
9925
330
9734
100
AcDbEntity
  8
1
  6
Continuous
100
AcDbCircle
 10
270.5602999999999
 20
56.56850099999999
 30
0.0
 40
3.0987
100
AcDbArc
 50
249.8839999999999
 51
253.799
  0
ARC
  5
9926
330
9734
100
AcDbEntity
  8
1
  6
Continuous
100
AcDbCircle
 10
273.5342999999999
 20
55.736001
 30
0.0
 40
4.3083
100
AcDbArc
 50
200.354
 51
216.7069999999999
  0
ARC
  5
9927
330
9734
100
AcDbEntity
  8
1
  6
Continuous
100
AcDbCircle
 10
273.7823
 20
52.917901
 30
0.0
 40
4.287499999999997
100
AcDbArc
 50
180.6659999999999
 51
197.3449999999999
  0
ARC
  5
9928
330
9734
100
AcDbEntity
  8
1
  6
Continuous
100
AcDbCircle
 10
270.7162999999998
 20
47.865301
 30
0.0
 40
1.236599999999999
100
AcDbArc
 50
120.162
 51
189.0169999999999
  0
ARC
  5
9929
330
9734
100
AcDbEntity
  8
1
  6
Continuous
100
AcDbCircle
 10
267.7533
 20
47.57990099999999
 30
0.0
 40
0.9435999999999999
100
AcDbArc
 50
356.8709999999999
 51
68.73909999999999
  0
ARC
  5
992A
330
9734
100
AcDbEntity
  8
1
  6
Continuous
100
AcDbCircle
 10
267.7633
 20
46.548901
 30
0.0
 40
0.9332
100
AcDbArc
 50
356.8759999999999
 51
69.1738
  0
ARC
  5
992B
330
9734
100
AcDbEntity
  8
1
  6
Continuous
100
AcDbCircle
 10
267.4263
 20
45.328701
 30
0.0
 40
2.0872
100
AcDbArc
 50
52.5767
 51
58.919
  0
ARC
  5
992C
330
9734
100
AcDbEntity
  8
1
  6
Continuous
100
AcDbCircle
 10
271.9023
 20
45.79900099999998
 30
0.0
 40
2.415099999999998
100
AcDbArc
 50
138.455
 51
184.533
  0
ARC
  5
992D
330
9734
100
AcDbEntity
  8
1
  6
Continuous
100
AcDbCircle
 10
268.4613
 20
49.075301
 30
0.0
 40
1.0341
100
AcDbArc
 50
76.9595
 51
97.8686
  0
ARC
  5
992E
330
9734
100
AcDbEntity
  8
1
  6
Continuous
100
AcDbCircle
 10
287.2873
 20
60.600501
 30
0.0
 40
6.0517
100
AcDbArc
 50
148.3559999999999
 51
211.6439999999998
  0
ARC
  5
992F
330
9734
100
AcDbEntity
  8
1
  6
Continuous
100
AcDbCircle
 10
287.2873
 20
41.55050099999999
 30
0.0
 40
6.0517
100
AcDbArc
 50
148.3559999999999
 51
211.6439999999998
  0
ARC
  5
9930
330
9734
100
AcDbEntity
  8
1
  6
Continuous
100
AcDbCircle
 10
304.1573
 20
51.075501
 30
0.0
 40
22.9192
100
AcDbArc
 50
163.915
 51
196.085
  0
ARC
  5
9931
330
9734
100
AcDbEntity
  8
1
  6
Continuous
100
AcDbCircle
 10
260.8423
 20
51.160401
 30
0.0
 40
7.9683
100
AcDbArc
 50
157.1819999999999
 51
179.3079999999999
  0
ARC
  5
9932
330
9734
100
AcDbEntity
  8
1
  6
Continuous
100
AcDbCircle
 10
254.8332999999999
 20
55.801301
 30
0.0
 40
2.241099999999998
100
AcDbArc
 50
316.215
 51
46.4467
  0
ARC
  5
9933
330
9734
100
AcDbEntity
  8
1
  6
Continuous
100
AcDbCircle
 10
249.1063
 20
51.160401
 30
0.0
 40
7.9683
100
AcDbArc
 50
351.266
 51
22.81779999999999
  0
ARC
  5
9934
330
9734
100
AcDbEntity
  8
1
  6
Continuous
100
AcDbCircle
 10
255.1152999999999
 20
55.801301
 30
0.0
 40
2.241099999999998
100
AcDbArc
 50
133.553
 51
223.7849999999999
  0
ARC
  5
9935
330
9734
100
AcDbEntity
  8
1
  6
Continuous
100
AcDbCircle
 10
260.8423
 20
50.99060099999999
 30
0.0
 40
7.9683
100
AcDbArc
 50
180.692
 51
202.818
  0
ARC
  5
9936
330
9734
100
AcDbEntity
  8
1
  6
Continuous
100
AcDbCircle
 10
254.8332999999999
 20
46.349701
 30
0.0
 40
2.241099999999998
100
AcDbArc
 50
313.553
 51
43.7854
  0
ARC
  5
9937
330
9734
100
AcDbEntity
  8
1
  6
Continuous
100
AcDbCircle
 10
249.1063
 20
50.99060099999999
 30
0.0
 40
7.9683
100
AcDbArc
 50
337.1819999999999
 51
8.734110000000001
  0
ARC
  5
9938
330
9734
100
AcDbEntity
  8
1
  6
Continuous
100
AcDbCircle
 10
255.1152999999999
 20
46.349701
 30
0.0
 40
2.241099999999998
100
AcDbArc
 50
136.2149999999997
 51
226.447
  0
LINE
  5
9939
330
9734
100
AcDbEntity
  8
1
  6
Continuous
100
AcDbLine
 10
96.9373
 20
113.1750009999999
 30
0.0
 11
96.9373
 21
123.575001
 31
0.0
  0
LINE
  5
993A
330
9734
100
AcDbEntity
  8
1
  6
Continuous
100
AcDbLine
 10
82.53749999999998
 20
41.575501
 30
0.0
 11
94.63729999999999
 21
41.575501
 31
0.0
  0
LINE
  5
993B
330
9734
100
AcDbEntity
  8
1
  6
Continuous
100
AcDbLine
 10
82.53749999999998
 20
60.575501
 30
0.0
 11
94.63729999999999
 21
60.575501
 31
0.0
  0
LINE
  5
993C
330
9734
100
AcDbEntity
  8
1
  6
Continuous
100
AcDbLine
 10
94.63729999999999
 20
60.575501
 30
0.0
 11
95.53729999999999
 21
59.675501
 31
0.0
  0
LINE
  5
993D
330
9734
100
AcDbEntity
  8
1
  6
Continuous
100
AcDbLine
 10
94.63729999999999
 20
41.575501
 30
0.0
 11
95.53729999999999
 21
42.475501
 31
0.0
  0
LINE
  5
993E
330
9734
100
AcDbEntity
  8
1
  6
Continuous
100
AcDbLine
 10
94.63729999999999
 20
113.1750009999999
 30
0.0
 11
94.63729999999999
 21
128.9750009999999
 31
0.0
  0
LINE
  5
993F
330
9734
100
AcDbEntity
  8
1
  6
Continuous
100
AcDbLine
 10
96.9373
 20
54.47403000000001
 30
0.0
 11
95.53729999999999
 21
54.47403000000001
 31
0.0
  0
LINE
  5
9940
330
9734
100
AcDbEntity
  8
1
  6
Continuous
100
AcDbLine
 10
96.9373
 20
47.67697199999999
 30
0.0
 11
95.53729999999999
 21
47.67697199999999
 31
0.0
  0
LINE
  5
9941
330
9734
100
AcDbEntity
  8
1
  6
Continuous
100
AcDbLine
 10
314.1223
 20
47.67697199999999
 30
0.0
 11
314.1223
 21
42.475501
 31
0.0
  0
LINE
  5
9942
330
9734
100
AcDbEntity
  8
1
  6
Continuous
100
AcDbLine
 10
315.0222999999999
 20
45.79920099999998
 30
0.0
 11
315.0222999999999
 21
41.575501
 31
0.0
  0
LINE
  5
9943
330
9734
100
AcDbEntity
  8
1
  6
Continuous
100
AcDbLine
 10
326.5093
 20
45.79920099999998
 30
0.0
 11
326.5093
 21
41.575501
 31
0.0
  0
LINE
  5
9944
330
9734
100
AcDbEntity
  8
1
  6
Continuous
100
AcDbLine
 10
328.1220999999998
 20
62.075501
 30
0.0
 11
328.1220999999998
 21
40.075501
 31
0.0
  0
LINE
  5
9945
330
9734
100
AcDbEntity
  8
1
  6
Continuous
100
AcDbLine
 10
329.1221
 20
61.075501
 30
0.0
 11
329.1221
 21
41.075501
 31
0.0
  0
LINE
  5
9946
330
9734
100
AcDbEntity
  8
1
  6
Continuous
100
AcDbLine
 10
327.1221
 20
62.075501
 30
0.0
 11
327.1221
 21
40.075501
 31
0.0
  0
LINE
  5
9947
330
9734
100
AcDbEntity
  8
1
  6
Continuous
100
AcDbLine
 10
315.0222999999999
 20
41.575501
 30
0.0
 11
314.1223
 21
42.475501
 31
0.0
  0
LINE
  5
9948
330
9734
100
AcDbEntity
  8
1
  6
Continuous
100
AcDbLine
 10
327.1221
 20
41.575501
 30
0.0
 11
315.0222999999999
 21
41.575501
 31
0.0
  0
LINE
  5
9949
330
9734
100
AcDbEntity
  8
2
  6
Continuous
100
AcDbLine
 10
327.1221
 20
41.763301
 30
0.0
 11
326.5093
 21
42.117001
 31
0.0
  0
LINE
  5
994A
330
9734
100
AcDbEntity
  8
2
  6
Continuous
100
AcDbLine
 10
326.5093
 20
42.117001
 30
0.0
 11
314.4807999999998
 21
42.117001
 31
0.0
  0
LINE
  5
994B
330
9734
100
AcDbEntity
  8
1
  6
Continuous
100
AcDbLine
 10
328.1220999999998
 20
40.075501
 30
0.0
 11
329.1221
 21
41.075501
 31
0.0
  0
LINE
  5
994C
330
9734
100
AcDbEntity
  8
1
  6
Continuous
100
AcDbLine
 10
328.1220999999998
 20
40.075501
 30
0.0
 11
327.1221
 21
40.075501
 31
0.0
  0
LINE
  5
994D
330
9734
100
AcDbEntity
  8
1
  6
Continuous
100
AcDbLine
 10
314.1223
 20
47.67697199999999
 30
0.0
 11
315.0222999999999
 21
45.79920099999998
 31
0.0
  0
LINE
  5
994E
330
9734
100
AcDbEntity
  8
1
  6
Continuous
100
AcDbLine
 10
315.0222999999999
 20
45.79920099999998
 30
0.0
 11
327.1221
 21
45.79920099999998
 31
0.0
  0
LINE
  5
994F
330
9734
100
AcDbEntity
  8
1
  6
Continuous
100
AcDbLine
 10
315.0222999999999
 20
56.35190099999999
 30
0.0
 11
314.1223
 21
54.47403000000001
 31
0.0
  0
LINE
  5
9950
330
9734
100
AcDbEntity
  8
1
  6
Continuous
100
AcDbLine
 10
315.0222999999999
 20
56.35190099999999
 30
0.0
 11
327.1221
 21
56.35190099999999
 31
0.0
  0
LINE
  5
9951
330
9734
100
AcDbEntity
  8
1
  6
Continuous
100
AcDbLine
 10
314.1223
 20
59.675501
 30
0.0
 11
314.1223
 21
54.47403000000001
 31
0.0
  0
LINE
  5
9952
330
9734
100
AcDbEntity
  8
1
  6
Continuous
100
AcDbLine
 10
315.0222999999999
 20
60.575501
 30
0.0
 11
314.1223
 21
59.675501
 31
0.0
  0
LINE
  5
9953
330
9734
100
AcDbEntity
  8
1
  6
Continuous
100
AcDbLine
 10
327.1221
 20
60.575501
 30
0.0
 11
315.0222999999999
 21
60.575501
 31
0.0
  0
LINE
  5
9954
330
9734
100
AcDbEntity
  8
2
  6
Continuous
100
AcDbLine
 10
327.1221
 20
60.38760100000001
 30
0.0
 11
326.5093
 21
60.034001
 31
0.0
  0
LINE
  5
9955
330
9734
100
AcDbEntity
  8
2
  6
Continuous
100
AcDbLine
 10
326.5093
 20
60.034001
 30
0.0
 11
314.4807999999998
 21
60.034001
 31
0.0
  0
LINE
  5
9956
330
9734
100
AcDbEntity
  8
1
  6
Continuous
100
AcDbLine
 10
329.6221
 20
46.17550099999998
 30
0.0
 11
329.1221
 21
45.57540099999999
 31
0.0
  0
LINE
  5
9957
330
9734
100
AcDbEntity
  8
1
  6
Continuous
100
AcDbLine
 10
329.1221
 20
56.575401
 30
0.0
 11
329.6221
 21
55.97540099999999
 31
0.0
  0
LINE
  5
9958
330
9734
100
AcDbEntity
  8
1
  6
Continuous
100
AcDbLine
 10
329.6221
 20
55.975501
 30
0.0
 11
329.6221
 21
46.17550099999998
 31
0.0
  0
LINE
  5
9959
330
9734
100
AcDbEntity
  8
1
  6
Continuous
100
AcDbLine
 10
315.0222999999999
 20
60.575501
 30
0.0
 11
315.0222999999999
 21
56.35190099999999
 31
0.0
  0
LINE
  5
995A
330
9734
100
AcDbEntity
  8
1
  6
Continuous
100
AcDbLine
 10
326.5093
 20
60.575501
 30
0.0
 11
326.5093
 21
56.35190099999999
 31
0.0
  0
LINE
  5
995B
330
9734
100
AcDbEntity
  8
1
  6
Continuous
100
AcDbLine
 10
328.1220999999998
 20
62.075501
 30
0.0
 11
329.1221
 21
61.075501
 31
0.0
  0
LINE
  5
995C
330
9734
100
AcDbEntity
  8
1
  6
Continuous
100
AcDbLine
 10
328.1220999999998
 20
62.075501
 30
0.0
 11
327.1221
 21
62.075501
 31
0.0
  0
LINE
  5
995D
330
9734
100
AcDbEntity
  8
1
  6
Continuous
100
AcDbLine
 10
314.1223
 20
42.475501
 30
0.0
 11
312.7223
 21
42.475501
 31
0.0
  0
LINE
  5
995E
330
9734
100
AcDbEntity
  8
1
  6
Continuous
100
AcDbLine
 10
312.7223
 20
59.675501
 30
0.0
 11
314.1223
 21
59.675501
 31
0.0
  0
LINE
  5
995F
330
9734
100
AcDbEntity
  8
1
  6
Continuous
100
AcDbLine
 10
314.1223
 20
47.67697199999999
 30
0.0
 11
312.7223
 21
47.67697199999999
 31
0.0
  0
LINE
  5
9960
330
9734
100
AcDbEntity
  8
1
  6
Continuous
100
AcDbLine
 10
314.1223
 20
54.47403000000001
 30
0.0
 11
312.7223
 21
54.47403000000001
 31
0.0
  0
LINE
  5
9961
330
9734
100
AcDbEntity
  8
2
  6
Continuous
100
AcDbLine
 10
312.7223
 20
54.47403000000001
 30
0.0
 11
327.1221
 21
45.79920099999998
 31
0.0
  0
LINE
  5
9962
330
9734
100
AcDbEntity
  8
2
  6
Continuous
100
AcDbLine
 10
327.1221
 20
56.35190099999999
 30
0.0
 11
312.7223
 21
47.67697199999999
 31
0.0
  0
LINE
  5
9963
330
9734
100
AcDbEntity
  8
4
  6
CENTER
100
AcDbLine
 10
5.243928999999998
 20
121.0750009999999
 30
0.0
 11
52.518004
 21
121.0750009999999
 31
0.0
  0
ENDSEC
  0
SECTION
  2
OBJECTS
  0
DICTIONARY
  5
9722
330
0
100
AcDbDictionary
281
     1
  3
ACAD_CIP_PREVIOUS_PRODUCT_INFO
350
99C7
  3
ACAD_COLOR
350
99A9
  3
ACAD_DETAILVIEWSTYLE
350
99C2
  3
ACAD_GROUP
350
9723
  3
ACAD_LAYOUT
350
972F
  3
ACAD_MATERIAL
350
9977
  3
ACAD_MLEADERSTYLE
350
99BE
  3
ACAD_MLINESTYLE
350
972C
  3
ACAD_PLOTSETTINGS
350
972E
  3
ACAD_PLOTSTYLENAME
350
9975
  3
ACAD_SCALELIST
350
99AC
  3
ACAD_SECTIONVIEWSTYLE
350
99C0
  3
ACAD_TABLESTYLE
350
99AA
  3
ACAD_VISUALSTYLE
350
9990
  3
ACDB_RECOMPOSE_DATA
350
99E5
  3
AcDbVariableDictionary
350
99D8
  3
DWGPROPS
350
99E6
  0
DICTIONARY
  5
99C8
330
9726
100
AcDbDictionary
280
     1
281
     1
  3
ADSK_XREC_LAYER_RECONCILED
360
99C9
  0
DICTIONARY
  5
99CA
330
973C
100
AcDbDictionary
280
     1
281
     1
  3
ADSK_XREC_LAYER_RECONCILED
360
99CB
  0
DICTIONARY
  5
99CC
330
973D
100
AcDbDictionary
280
     1
281
     1
  3
ADSK_XREC_LAYER_RECONCILED
360
99CD
  0
DICTIONARY
  5
99CE
330
973E
100
AcDbDictionary
280
     1
281
     1
  3
ADSK_XREC_LAYER_RECONCILED
360
99CF
  0
DICTIONARY
  5
99D0
330
973F
100
AcDbDictionary
280
     1
281
     1
  3
ADSK_XREC_LAYER_RECONCILED
360
99D1
  0
DICTIONARY
  5
99D2
330
9740
100
AcDbDictionary
280
     1
281
     1
  3
ADSK_XREC_LAYER_RECONCILED
360
99D3
  0
DICTIONARY
  5
99D4
330
9741
100
AcDbDictionary
280
     1
281
     1
  3
ADSK_XREC_LAYER_RECONCILED
360
99D5
  0
DICTIONARY
  5
99D6
330
9742
100
AcDbDictionary
280
     1
281
     1
  3
ADSK_XREC_LAYER_RECONCILED
360
99D7
  0
DICTIONARY
  5
9970
330
9734
100
AcDbDictionary
281
     1
  3
ACAD_LAYOUTSELFREF
350
9971
  0
DICTIONARY
  5
996E
330
9730
100
AcDbDictionary
281
     1
  3
ACAD_LAYOUTSELFREF
350
996F
  0
XRECORD
  5
99C7
102
{ACAD_REACTORS
330
9722
102
}
330
9722
100
AcDbXrecord
280
     1
300
ACDLT
300
2014
300
ACDLT_F_S
  0
DICTIONARY
  5
99A9
102
{ACAD_REACTORS
330
9722
102
}
330
9722
100
AcDbDictionary
281
     1
  0
DICTIONARY
  5
99C2
102
{ACAD_REACTORS
330
9722
102
}
330
9722
100
AcDbDictionary
281
     1
  3
Imperial24
350
99C3
  0
DICTIONARY
  5
9723
102
{ACAD_REACTORS
330
9722
102
}
330
9722
100
AcDbDictionary
281
     1
  0
DICTIONARY
  5
972F
102
{ACAD_REACTORS
330
9722
102
}
330
9722
100
AcDbDictionary
281
     1
  3
Model
350
99C4
  3
レイアウト1
350
99C5
  0
DICTIONARY
  5
9977
102
{ACAD_REACTORS
330
9722
102
}
330
9722
100
AcDbDictionary
281
     1
  3
ByBlock
350
9980
  3
ByLayer
350
9978
  3
Global
350
9988
  0
DICTIONARY
  5
99BE
102
{ACAD_REACTORS
330
9722
102
}
330
9722
100
AcDbDictionary
281
     1
  3
Standard
350
99BF
  0
DICTIONARY
  5
972C
102
{ACAD_REACTORS
330
9722
102
}
330
9722
100
AcDbDictionary
281
     1
  3
STANDARD
350
972D
  0
DICTIONARY
  5
972E
102
{ACAD_REACTORS
330
9722
102
}
330
9722
100
AcDbDictionary
281
     1
  0
ACDBDICTIONARYWDFLT
  5
9975
102
{ACAD_REACTORS
330
9722
102
}
330
9722
100
AcDbDictionary
281
     1
  3
Normal
350
9976
100
AcDbDictionaryWithDefault
340
9976
  0
DICTIONARY
  5
99AC
102
{ACAD_REACTORS
330
9722
102
}
330
9722
100
AcDbDictionary
281
     1
  3
A0
350
99AD
  3
A1
350
99AE
  3
A2
350
99AF
  3
A3
350
99B0
  3
A4
350
99B1
  3
A5
350
99B2
  3
A6
350
99B3
  3
A7
350
99B4
  3
A8
350
99B5
  3
A9
350
99B6
  3
B0
350
99B7
  3
B1
350
99B8
  3
B2
350
99B9
  3
B3
350
99BA
  3
B4
350
99BB
  3
B5
350
99BC
  3
B6
350
99BD
  0
DICTIONARY
  5
99C0
102
{ACAD_REACTORS
330
9722
102
}
330
9722
100
AcDbDictionary
281
     1
  3
Imperial24
350
99C1
  0
DICTIONARY
  5
99AA
102
{ACAD_REACTORS
330
9722
102
}
330
9722
100
AcDbDictionary
281
     1
  3
Standard
350
99AB
  0
DICTIONARY
  5
9990
102
{ACAD_REACTORS
330
9722
102
}
330
9722
100
AcDbDictionary
281
     1
  3
2dWireframe
350
9996
  3
Basic
350
9995
  3
Brighten
350
999C
  3
ColorChange
350
99A0
  3
Conceptual
350
9999
  3
Dim
350
999B
  3
EdgeColorOff
350
99A8
  3
Facepattern
350
999F
  3
Flat
350
9991
  3
FlatWithEdges
350
9992
  3
Gouraud
350
9993
  3
GouraudWithEdges
350
9994
  3
Hidden
350
9998
  3
JitterOff
350
99A6
  3
Linepattern
350
999E
  3
OverhangOff
350
99A7
  3
Realistic
350
999A
  3
Shaded
350
99A5
  3
Shaded with edges
350
99A4
  3
Shades of Gray
350
99A1
  3
Sketchy
350
99A2
  3
Thicken
350
999D
  3
Wireframe
350
9997
  3
X-Ray
350
99A3
  0
XRECORD
  5
99E5
102
{ACAD_REACTORS
330
9722
102
}
330
9722
100
AcDbXrecord
280
     1
 90
        1
330
99AB
  0
DICTIONARY
  5
99D8
102
{ACAD_REACTORS
330
9722
102
}
330
9722
100
AcDbDictionary
281
     1
  3
CANNOSCALE
350
99DD
  3
CMLEADERSTYLE
350
99DA
  3
CTABLESTYLE
350
99D9
  3
CVIEWDETAILSTYLE
350
99DB
  3
CVIEWSECTIONSTYLE
350
99DC
  3
DIMASSOC
350
99E0
  3
INDEXCTL
350
99DF
  3
SORTENTS
350
99DE
  3
XCLIPFRAME
350
99E1
  0
XRECORD
  5
99E6
102
{ACAD_REACTORS
330
9722
102
}
330
9722
100
AcDbXrecord
280
     1
  1
DWGPROPS COOKIE
  2

  3

  4

  6

  7

  8
Yoshitsune
  9

300
=
301
=
302
=
303
=
304
=
305
=
306
=
307
=
308
=
309
=
 40
0.0000137962962963
 41
2451074.409723727
 42
2457192.60068191
  1

 90
        0
  0
XRECORD
  5
99C9
102
{ACAD_REACTORS
330
99C8
102
}
330
99C8
100
AcDbXrecord
280
     1
290
     1
  0
XRECORD
  5
99CB
102
{ACAD_REACTORS
330
99CA
102
}
330
99CA
100
AcDbXrecord
280
     1
290
     1
  0
XRECORD
  5
99CD
102
{ACAD_REACTORS
330
99CC
102
}
330
99CC
100
AcDbXrecord
280
     1
290
     1
  0
XRECORD
  5
99CF
102
{ACAD_REACTORS
330
99CE
102
}
330
99CE
100
AcDbXrecord
280
     1
290
     1
  0
XRECORD
  5
99D1
102
{ACAD_REACTORS
330
99D0
102
}
330
99D0
100
AcDbXrecord
280
     1
290
     1
  0
XRECORD
  5
99D3
102
{ACAD_REACTORS
330
99D2
102
}
330
99D2
100
AcDbXrecord
280
     1
290
     1
  0
XRECORD
  5
99D5
102
{ACAD_REACTORS
330
99D4
102
}
330
99D4
100
AcDbXrecord
280
     1
290
     1
  0
XRECORD
  5
99D7
102
{ACAD_REACTORS
330
99D6
102
}
330
99D6
100
AcDbXrecord
280
     1
290
     1
  0
XRECORD
  5
9971
102
{ACAD_REACTORS
330
9970
102
}
330
9970
100
AcDbXrecord
280
     1
340
9734
  0
XRECORD
  5
996F
102
{ACAD_REACTORS
330
996E
102
}
330
996E
100
AcDbXrecord
280
     1
340
9730
  0
ACDBDETAILVIEWSTYLE
  5
99C3
102
{ACAD_XDICTIONARY
360
9A1E
102
}
102
{ACAD_REACTORS
330
99C2
102
}
330
99C2
100
AcDbModelDocViewStyle
 70
     0
  3
Imperial24
290
     0
100
AcDbDetailViewStyle
 70
     0
 71
     0
 90
        3
 71
     1
340
9727
 40
0.24
340
0
 40
0.24
300

 40
0.36
280
     3
 71
     2
340
972B
 90
       25
 71
     3
340
9727
 40
0.24
 90
        1
 40
0.75
 90
        1
300
%<\AcVar ViewType \f "%tc1">% %<\AcVar ViewDetailId>%\PSCALE %<\AcVar ViewScale \f "%sn">%
 71
     4
340
972B
 90
       25
340
972B
 90
       25
280
     0
  0
LAYOUT
  5
99C4
102
{ACAD_XDICTIONARY
360
9A20
102
}
102
{ACAD_REACTORS
330
972F
102
}
330
972F
100
AcDbPlotSettings
  1

  2
Canon LBP9100C
  4

  6

 40
0.0
 41
0.0
 42
0.0
 43
0.0
 44
0.0
 45
0.0
 46
0.0
 47
0.0
 48
0.0
 49
0.0
140
0.0
141
0.0
142
1.0
143
1.0
 70
  1712
 72
     0
 73
     0
 74
     0
  7

 75
     0
147
1.0
148
0.0
149
0.0
100
AcDbLayout
  1
Model
 70
     1
 71
     0
 10
0.0
 20
0.0
 11
12.0
 21
9.0
 12
0.0
 22
0.0
 32
0.0
 14
0.0
 24
0.0
 34
0.0
 15
0.0
 25
0.0
 35
0.0
146
0.0
 13
0.0
 23
0.0
 33
0.0
 16
1.0
 26
0.0
 36
0.0
 17
0.0
 27
1.0
 37
0.0
 76
     0
330
9734
331
996D
  0
LAYOUT
  5
99C5
102
{ACAD_XDICTIONARY
360
9A22
102
}
102
{ACAD_REACTORS
330
972F
102
}
330
972F
100
AcDbPlotSettings
  1

  2
Canon LBP9100C
  4

  6

 40
0.0
 41
0.0
 42
0.0
 43
0.0
 44
0.0
 45
0.0
 46
0.0
 47
0.0
 48
0.0
 49
0.0
140
0.0
141
0.0
142
1.0
143
1.0
 70
   688
 72
     0
 73
     0
 74
     5
  7

 75
    16
147
1.0
148
0.0
149
0.0
100
AcDbLayout
  1
レイアウト1
 70
     0
 71
     1
 10
0.0
 20
0.0
 11
420.0
 21
297.0
 12
0.0
 22
0.0
 32
0.0
 14
1.000000000000000E+20
 24
1.000000000000000E+20
 34
1.000000000000000E+20
 15
-1.000000000000000E+20
 25
-1.000000000000000E+20
 35
-1.000000000000000E+20
146
0.0
 13
0.0
 23
0.0
 33
0.0
 16
1.0
 26
0.0
 36
0.0
 17
0.0
 27
1.0
 37
0.0
 76
     0
330
9730
  0
MATERIAL
  5
9980
102
{ACAD_XDICTIONARY
360
9981
102
}
102
{ACAD_REACTORS
330
9977
102
}
330
9977
100
AcDbMaterial
  1
ByBlock
 72
     0
 43
0.0208333333333333
 43
0.0
 43
0.0
 43
0.0
 43
0.0
 43
0.0208333333333333
 43
0.0
 43
0.0
 43
0.0
 43
0.0
 43
1.0
 43
0.0
 43
0.0
 43
0.0
 43
0.0
 43
1.0
 77
     0
 47
0.0208333333333333
 47
0.0
 47
0.0
 47
0.0
 47
0.0
 47
0.0208333333333333
 47
0.0
 47
0.0
 47
0.0
 47
0.0
 47
1.0
 47
0.0
 47
0.0
 47
0.0
 47
0.0
 47
1.0
171
     0
 49
0.0208333333333333
 49
0.0
 49
0.0
 49
0.0
 49
0.0
 49
0.0208333333333333
 49
0.0
 49
0.0
 49
0.0
 49
0.0
 49
1.0
 49
0.0
 49
0.0
 49
0.0
 49
0.0
 49
1.0
175
     0
142
0.0208333333333333
142
0.0
142
0.0
142
0.0
142
0.0
142
0.0208333333333333
142
0.0
142
0.0
142
0.0
142
0.0
142
1.0
142
0.0
142
0.0
142
0.0
142
0.0
142
1.0
179
     0
144
0.0208333333333333
144
0.0
144
0.0
144
0.0
144
0.0
144
0.0208333333333333
144
0.0
144
0.0
144
0.0
144
0.0
144
1.0
144
0.0
144
0.0
144
0.0
144
0.0
144
1.0
147
0.0208333333333333
147
0.0
147
0.0
147
0.0
147
0.0
147
0.0208333333333333
147
0.0
147
0.0
147
0.0
147
0.0
147
1.0
147
0.0
147
0.0
147
0.0
147
0.0
147
1.0
  0
MATERIAL
  5
9978
102
{ACAD_XDICTIONARY
360
9979
102
}
102
{ACAD_REACTORS
330
9977
102
}
330
9977
100
AcDbMaterial
  1
ByLayer
 72
     0
 43
0.0208333333333333
 43
0.0
 43
0.0
 43
0.0
 43
0.0
 43
0.0208333333333333
 43
0.0
 43
0.0
 43
0.0
 43
0.0
 43
1.0
 43
0.0
 43
0.0
 43
0.0
 43
0.0
 43
1.0
 77
     0
 47
0.0208333333333333
 47
0.0
 47
0.0
 47
0.0
 47
0.0
 47
0.0208333333333333
 47
0.0
 47
0.0
 47
0.0
 47
0.0
 47
1.0
 47
0.0
 47
0.0
 47
0.0
 47
0.0
 47
1.0
171
     0
 49
0.0208333333333333
 49
0.0
 49
0.0
 49
0.0
 49
0.0
 49
0.0208333333333333
 49
0.0
 49
0.0
 49
0.0
 49
0.0
 49
1.0
 49
0.0
 49
0.0
 49
0.0
 49
0.0
 49
1.0
175
     0
142
0.0208333333333333
142
0.0
142
0.0
142
0.0
142
0.0
142
0.0208333333333333
142
0.0
142
0.0
142
0.0
142
0.0
142
1.0
142
0.0
142
0.0
142
0.0
142
0.0
142
1.0
179
     0
144
0.0208333333333333
144
0.0
144
0.0
144
0.0
144
0.0
144
0.0208333333333333
144
0.0
144
0.0
144
0.0
144
0.0
144
1.0
144
0.0
144
0.0
144
0.0
144
0.0
144
1.0
147
0.0208333333333333
147
0.0
147
0.0
147
0.0
147
0.0
147
0.0208333333333333
147
0.0
147
0.0
147
0.0
147
0.0
147
1.0
147
0.0
147
0.0
147
0.0
147
0.0
147
1.0
  0
MATERIAL
  5
9988
102
{ACAD_XDICTIONARY
360
9989
102
}
102
{ACAD_REACTORS
330
9977
102
}
330
9977
100
AcDbMaterial
  1
Global
 72
     0
 43
0.0208333333333333
 43
0.0
 43
0.0
 43
0.0
 43
0.0
 43
0.0208333333333333
 43
0.0
 43
0.0
 43
0.0
 43
0.0
 43
1.0
 43
0.0
 43
0.0
 43
0.0
 43
0.0
 43
1.0
 77
     0
 47
0.0208333333333333
 47
0.0
 47
0.0
 47
0.0
 47
0.0
 47
0.0208333333333333
 47
0.0
 47
0.0
 47
0.0
 47
0.0
 47
1.0
 47
0.0
 47
0.0
 47
0.0
 47
0.0
 47
1.0
171
     0
 49
0.0208333333333333
 49
0.0
 49
0.0
 49
0.0
 49
0.0
 49
0.0208333333333333
 49
0.0
 49
0.0
 49
0.0
 49
0.0
 49
1.0
 49
0.0
 49
0.0
 49
0.0
 49
0.0
 49
1.0
175
     0
142
0.0208333333333333
142
0.0
142
0.0
142
0.0
142
0.0
142
0.0208333333333333
142
0.0
142
0.0
142
0.0
142
0.0
142
1.0
142
0.0
142
0.0
142
0.0
142
0.0
142
1.0
179
     0
144
0.0208333333333333
144
0.0
144
0.0
144
0.0
144
0.0
144
0.0208333333333333
144
0.0
144
0.0
144
0.0
144
0.0
144
1.0
144
0.0
144
0.0
144
0.0
144
0.0
144
1.0
147
0.0208333333333333
147
0.0
147
0.0
147
0.0
147
0.0
147
0.0208333333333333
147
0.0
147
0.0
147
0.0
147
0.0
147
1.0
147
0.0
147
0.0
147
0.0
147
0.0
147
1.0
  0
MLEADERSTYLE
  5
99BF
102
{ACAD_REACTORS
330
99BE
102
}
330
99BE
100
AcDbMLeaderStyle
170
     2
171
     1
172
     0
 90
        2
 40
0.0
 41
0.0
173
     1
 91
-1056964608
340
9729
 92
       -2
290
     1
 42
0.09
291
     1
 43
0.36
  3
Standard
 44
0.18
300

342
9727
174
     1
178
     6
175
     1
176
     0
 93
-1056964608
 45
0.18
292
     0
297
     0
 46
0.18
 94
-1056964608
 47
1.0
 49
1.0
140
1.0
293
     1
141
0.0
294
     1
177
     0
142
1.0
295
     0
296
     0
143
0.125
1001
ACAD_MLEADERVER
1070
     2
  0
MLINESTYLE
  5
972D
102
{ACAD_REACTORS
330
972C
102
}
330
972C
100
AcDbMlineStyle
  2
STANDARD
 70
     0
  3

 62
   256
 51
90.0
 52
90.0
 71
     2
 49
0.5
 62
   256
  6
BYLAYER
 49
-0.5
 62
   256
  6
BYLAYER
  0
ACDBPLACEHOLDER
  5
9976
102
{ACAD_REACTORS
330
9975
102
}
330
9975
  0
SCALE
  5
99AD
102
{ACAD_REACTORS
330
99AC
102
}
330
99AC
100
AcDbScale
 70
     0
300
1:1
140
1.0
141
1.0
290
     1
  0
SCALE
  5
99AE
102
{ACAD_REACTORS
330
99AC
102
}
330
99AC
100
AcDbScale
 70
     0
300
1/128" = 1'-0"
140
0.0078125
141
12.0
290
     0
  0
SCALE
  5
99AF
102
{ACAD_REACTORS
330
99AC
102
}
330
99AC
100
AcDbScale
 70
     0
300
1/64" = 1'-0"
140
0.015625
141
12.0
290
     0
  0
SCALE
  5
99B0
102
{ACAD_REACTORS
330
99AC
102
}
330
99AC
100
AcDbScale
 70
     0
300
1/32" = 1'-0"
140
0.03125
141
12.0
290
     0
  0
SCALE
  5
99B1
102
{ACAD_REACTORS
330
99AC
102
}
330
99AC
100
AcDbScale
 70
     0
300
1/16" = 1'-0"
140
0.0625
141
12.0
290
     0
  0
SCALE
  5
99B2
102
{ACAD_REACTORS
330
99AC
102
}
330
99AC
100
AcDbScale
 70
     0
300
3/32" = 1'-0"
140
0.09375
141
12.0
290
     0
  0
SCALE
  5
99B3
102
{ACAD_REACTORS
330
99AC
102
}
330
99AC
100
AcDbScale
 70
     0
300
1/8" = 1'-0"
140
0.125
141
12.0
290
     0
  0
SCALE
  5
99B4
102
{ACAD_REACTORS
330
99AC
102
}
330
99AC
100
AcDbScale
 70
     0
300
3/16" = 1'-0"
140
0.1875
141
12.0
290
     0
  0
SCALE
  5
99B5
102
{ACAD_REACTORS
330
99AC
102
}
330
99AC
100
AcDbScale
 70
     0
300
1/4" = 1'-0"
140
0.25
141
12.0
290
     0
  0
SCALE
  5
99B6
102
{ACAD_REACTORS
330
99AC
102
}
330
99AC
100
AcDbScale
 70
     0
300
3/8" = 1'-0"
140
0.375
141
12.0
290
     0
  0
SCALE
  5
99B7
102
{ACAD_REACTORS
330
99AC
102
}
330
99AC
100
AcDbScale
 70
     0
300
1/2" = 1'-0"
140
0.5
141
12.0
290
     0
  0
SCALE
  5
99B8
102
{ACAD_REACTORS
330
99AC
102
}
330
99AC
100
AcDbScale
 70
     0
300
3/4" = 1'-0"
140
0.75
141
12.0
290
     0
  0
SCALE
  5
99B9
102
{ACAD_REACTORS
330
99AC
102
}
330
99AC
100
AcDbScale
 70
     0
300
1" = 1'-0"
140
1.0
141
12.0
290
     0
  0
SCALE
  5
99BA
102
{ACAD_REACTORS
330
99AC
102
}
330
99AC
100
AcDbScale
 70
     0
300
1-1/2" = 1'-0"
140
1.5
141
12.0
290
     0
  0
SCALE
  5
99BB
102
{ACAD_REACTORS
330
99AC
102
}
330
99AC
100
AcDbScale
 70
     0
300
3" = 1'-0"
140
3.0
141
12.0
290
     0
  0
SCALE
  5
99BC
102
{ACAD_REACTORS
330
99AC
102
}
330
99AC
100
AcDbScale
 70
     0
300
6" = 1'-0"
140
6.0
141
12.0
290
     0
  0
SCALE
  5
99BD
102
{ACAD_REACTORS
330
99AC
102
}
330
99AC
100
AcDbScale
 70
     0
300
1'-0" = 1'-0"
140
12.0
141
12.0
290
     0
  0
ACDBSECTIONVIEWSTYLE
  5
99C1
102
{ACAD_XDICTIONARY
360
9A1C
102
}
102
{ACAD_REACTORS
330
99C0
102
}
330
99C0
100
AcDbModelDocViewStyle
 70
     0
  3
Imperial24
290
     0
100
AcDbSectionViewStyle
 70
     0
 71
     0
 90
       78
 71
     1
340
9727
 40
0.24
340
0
340
0
 40
0.24
300
I, O, Q, S, X, Z
 40
0.48
 90
        3
 40
0.18
 90
        1
 71
     2
340
972B
 90
       25
340
972B
 90
       50
 40
0.24
 40
0.0
 40
0.24
 71
     3
340
9727
 40
0.24
 90
        1
 40
0.75
 90
        1
300
%<\AcVar ViewType \f "%tc1">% %<\AcVar ViewSectionStartId>%-%<\AcVar ViewSectionEndId>%\PSCALE %<\AcVar ViewScale \f "%sn">%
 71
     4
300
ANSI31
 40
1.0
 90
        0
290
     0
290
     0
 90
        6
 40
0.0
 40
1.570796326794896
 40
0.2617993877991494
 40
1.308996938995747
 40
-0.2617993877991494
 40
1.832595714594046
  0
TABLESTYLE
  5
99AB
102
{ACAD_XDICTIONARY
360
99E3
102
}
102
{ACAD_REACTORS
330
99AA
102
}
330
99AA
100
AcDbTableStyle
  3
Standard
 70
     0
 71
     0
 40
0.06
 41
0.06
280
     0
281
     0
  7
STANDARD
140
0.18
170
     2
 62
     0
 63
     7
283
     0
274
    -2
284
     1
 64
     0
275
    -2
285
     1
 65
     0
276
    -2
286
     1
 66
     0
277
    -2
287
     1
 67
     0
278
    -2
288
     1
 68
     0
279
    -2
289
     1
 69
     0
  7
STANDARD
140
0.25
170
     5
 62
     0
 63
     7
283
     0
274
    -2
284
     1
 64
     0
275
    -2
285
     1
 65
     0
276
    -2
286
     1
 66
     0
277
    -2
287
     1
 67
     0
278
    -2
288
     1
 68
     0
279
    -2
289
     1
 69
     0
  7
STANDARD
140
0.18
170
     5
 62
     0
 63
     7
283
     0
274
    -2
284
     1
 64
     0
275
    -2
285
     1
 65
     0
276
    -2
286
     1
 66
     0
277
    -2
287
     1
 67
     0
278
    -2
288
     1
 68
     0
279
    -2
289
     1
 69
     0
  0
VISUALSTYLE
  5
9996
102
{ACAD_XDICTIONARY
360
99F4
102
}
102
{ACAD_REACTORS
330
9990
102
}
330
9990
100
AcDbVisualStyle
  2
2dWireframe
 70
     4
 71
     0
 72
     2
 73
     0
 90
        0
 40
-0.6
 41
-30.0
 62
     5
 63
     7
 74
     1
 91
        4
 64
     7
 65
   257
 75
     1
175
     1
 42
1.0
 92
        0
 66
   257
 43
1.0
 76
     1
 77
     6
 78
     2
 67
     7
 79
     5
170
     0
171
     0
290
     0
174
     0
 93
        1
 44
0.0
173
     0
291
     0
 45
0.0
1001
ACAD
1000
AcDbSavedByObjectVersion
1070
     0
  0
VISUALSTYLE
  5
9995
102
{ACAD_XDICTIONARY
360
99F2
102
}
102
{ACAD_REACTORS
330
9990
102
}
330
9990
100
AcDbVisualStyle
  2
Basic
 70
     7
 71
     1
 72
     0
 73
     1
 90
        0
 40
-0.6
 41
-30.0
 62
     5
 63
     7
 74
     0
 91
        4
 64
     7
 65
   257
 75
     1
175
     1
 42
1.0
 92
        8
 66
     7
 43
1.0
 76
     1
 77
     6
 78
     2
 67
     7
 79
     5
170
     0
171
     0
290
     0
174
     0
 93
        1
 44
0.0
173
     0
291
     1
 45
0.0
1001
ACAD
1000
AcDbSavedByObjectVersion
1070
     0
  0
VISUALSTYLE
  5
999C
102
{ACAD_XDICTIONARY
360
9A00
102
}
102
{ACAD_REACTORS
330
9990
102
}
330
9990
100
AcDbVisualStyle
  2
Brighten
 70
    12
 71
     2
 72
     2
 73
     0
 90
        0
 40
-0.6
 41
-30.0
 62
     5
 63
     7
 74
     1
 91
        4
 64
     7
 65
   257
 75
     1
175
     1
 42
1.0
 92
        8
 66
     7
 43
1.0
 76
     1
 77
     6
 78
     2
 67
     7
 79
     5
170
     0
171
     0
290
     0
174
     0
 93
        1
 44
50.0
173
     0
291
     1
 45
0.0
1001
ACAD
1000
AcDbSavedByObjectVersion
1070
     0
  0
VISUALSTYLE
  5
99A0
102
{ACAD_XDICTIONARY
360
9A08
102
}
102
{ACAD_REACTORS
330
9990
102
}
330
9990
100
AcDbVisualStyle
  2
ColorChange
 70
    16
 71
     2
 72
     2
 73
     3
 90
        0
 40
-0.6
 41
-30.0
 62
     5
 63
     8
 74
     1
 91
        4
 64
     7
 65
   257
 75
     1
175
     1
 42
1.0
 92
        8
 66
     8
 43
1.0
 76
     1
 77
     6
 78
     2
 67
     7
 79
     5
170
     0
171
     0
290
     0
174
     0
 93
        1
 44
0.0
173
     0
291
     1
 45
0.0
1001
ACAD
1000
AcDbSavedByObjectVersion
1070
     0
  0
VISUALSTYLE
  5
9999
102
{ACAD_XDICTIONARY
360
99FA
102
}
102
{ACAD_REACTORS
330
9990
102
}
330
9990
100
AcDbVisualStyle
  2
Conceptual
 70
     9
 71
     3
 72
     2
 73
     0
 90
        0
 40
-0.6
 41
-30.0
 62
     5
 63
     7
 74
     2
 91
        2
 64
     7
 65
   257
 75
     1
175
     1
 42
179.0
 92
        8
 66
     7
 43
1.0
 76
     1
 77
     6
 78
     2
 67
     7
 79
     3
170
     0
171
     0
290
     0
174
     0
 93
        1
 44
0.0
173
     0
291
     0
 45
0.0
1001
ACAD
1000
AcDbSavedByObjectVersion
1070
     0
  0
VISUALSTYLE
  5
999B
102
{ACAD_XDICTIONARY
360
99FE
102
}
102
{ACAD_REACTORS
330
9990
102
}
330
9990
100
AcDbVisualStyle
  2
Dim
 70
    11
 71
     2
 72
     2
 73
     0
 90
        0
 40
-0.6
 41
-30.0
 62
     5
 63
     7
 74
     1
 91
        4
 64
     7
 65
   257
 75
     1
175
     1
 42
1.0
 92
        8
 66
     7
 43
1.0
 76
     1
 77
     6
 78
     2
 67
     7
 79
     5
170
     0
171
     0
290
     0
174
     0
 93
        1
 44
-50.0
173
     0
291
     1
 45
0.0
1001
ACAD
1000
AcDbSavedByObjectVersion
1070
     0
  0
VISUALSTYLE
  5
99A8
102
{ACAD_XDICTIONARY
360
9A18
102
}
102
{ACAD_REACTORS
330
9990
102
}
330
9990
100
AcDbVisualStyle
  2
EdgeColorOff
 70
    22
 71
     2
 72
     2
 73
     0
 90
        0
 40
-0.6
 41
-30.0
 62
     5
 63
     7
 74
     1
 91
        4
 64
     7
 65
   257
 75
     1
175
     1
 42
1.0
 92
        8
 66
     7
 43
1.0
 76
     1
 77
     6
 78
     2
 67
     7
 79
     5
170
     0
171
     0
290
     0
174
     0
 93
        1
 44
0.0
173
     0
291
     1
 45
0.0
1001
ACAD
1000
AcDbSavedByObjectVersion
1070
     0
  0
VISUALSTYLE
  5
999F
102
{ACAD_XDICTIONARY
360
9A06
102
}
102
{ACAD_REACTORS
330
9990
102
}
330
9990
100
AcDbVisualStyle
  2
Facepattern
 70
    15
 71
     2
 72
     2
 73
     0
 90
        0
 40
-0.6
 41
-30.0
 62
     5
 63
     7
 74
     1
 91
        4
 64
     7
 65
   257
 75
     1
175
     1
 42
1.0
 92
        8
 66
     7
 43
1.0
 76
     1
 77
     6
 78
     2
 67
     7
 79
     5
170
     0
171
     0
290
     0
174
     0
 93
        1
 44
0.0
173
     0
291
     1
 45
0.0
1001
ACAD
1000
AcDbSavedByObjectVersion
1070
     0
  0
VISUALSTYLE
  5
9991
102
{ACAD_XDICTIONARY
360
99EA
102
}
102
{ACAD_REACTORS
330
9990
102
}
330
9990
100
AcDbVisualStyle
  2
Flat
 70
     0
 71
     2
 72
     1
 73
     1
 90
        2
 40
-0.6
 41
30.0
 62
     5
 63
     7
 74
     0
 91
        0
 64
     7
 65
   257
 75
     1
175
     1
 42
1.0
 92
        8
 66
     7
 43
1.0
 76
     1
 77
     6
 78
     2
 67
     7
 79
     5
170
     0
171
     0
290
     0
174
     0
 93
       13
 44
0.0
173
     0
291
     1
 45
0.0
1001
ACAD
1000
AcDbSavedByObjectVersion
1070
     0
  0
VISUALSTYLE
  5
9992
102
{ACAD_XDICTIONARY
360
99EC
102
}
102
{ACAD_REACTORS
330
9990
102
}
330
9990
100
AcDbVisualStyle
  2
FlatWithEdges
 70
     1
 71
     2
 72
     1
 73
     1
 90
        2
 40
-0.6
 41
30.0
 62
     5
 63
     7
 74
     1
 91
        0
 64
     7
 65
   257
 75
     1
175
     1
 42
1.0
 92
        0
 66
   257
 43
1.0
 76
     1
 77
     6
 78
     2
 67
     7
 79
     5
170
     0
171
     0
290
     0
174
     0
 93
       13
 44
0.0
173
     0
291
     1
 45
0.0
1001
ACAD
1000
AcDbSavedByObjectVersion
1070
     0
  0
VISUALSTYLE
  5
9993
102
{ACAD_XDICTIONARY
360
99EE
102
}
102
{ACAD_REACTORS
330
9990
102
}
330
9990
100
AcDbVisualStyle
  2
Gouraud
 70
     2
 71
     2
 72
     2
 73
     1
 90
        2
 40
-0.6
 41
30.0
 62
     5
 63
     7
 74
     0
 91
        0
 64
     7
 65
   257
 75
     1
175
     1
 42
1.0
 92
        0
 66
     7
 43
1.0
 76
     1
 77
     6
 78
     2
 67
     7
 79
     5
170
     0
171
     0
290
     0
174
     0
 93
       13
 44
0.0
173
     0
291
     1
 45
0.0
1001
ACAD
1000
AcDbSavedByObjectVersion
1070
     0
  0
VISUALSTYLE
  5
9994
102
{ACAD_XDICTIONARY
360
99F0
102
}
102
{ACAD_REACTORS
330
9990
102
}
330
9990
100
AcDbVisualStyle
  2
GouraudWithEdges
 70
     3
 71
     2
 72
     2
 73
     1
 90
        2
 40
-0.6
 41
30.0
 62
     5
 63
     7
 74
     1
 91
        0
 64
     7
 65
   257
 75
     1
175
     1
 42
1.0
 92
        0
 66
   257
 43
1.0
 76
     1
 77
     6
 78
     2
 67
     7
 79
     5
170
     0
171
     0
290
     0
174
     0
 93
       13
 44
0.0
173
     0
291
     1
 45
0.0
1001
ACAD
1000
AcDbSavedByObjectVersion
1070
     0
  0
VISUALSTYLE
  5
9998
102
{ACAD_XDICTIONARY
360
99F8
102
}
102
{ACAD_REACTORS
330
9990
102
}
330
9990
100
AcDbVisualStyle
  2
Hidden
 70
     6
 71
     1
 72
     2
 73
     2
 90
        0
 40
-0.6
 41
-30.0
 62
     5
 63
     7
 74
     2
 91
        2
 64
     7
 65
   257
 75
     2
175
     1
 42
40.0
 92
        0
 66
   257
 43
1.0
 76
     1
 77
     6
 78
     2
 67
     7
 79
     3
170
     0
171
     0
290
     0
174
     0
 93
        1
 44
0.0
173
     0
291
     0
 45
0.0
1001
ACAD
1000
AcDbSavedByObjectVersion
1070
     0
  0
VISUALSTYLE
  5
99A6
102
{ACAD_XDICTIONARY
360
9A14
102
}
102
{ACAD_REACTORS
330
9990
102
}
330
9990
100
AcDbVisualStyle
  2
JitterOff
 70
    20
 71
     2
 72
     2
 73
     0
 90
        0
 40
-0.6
 41
-30.0
 62
     5
 63
     7
 74
     1
 91
        4
 64
     7
 65
   257
 75
     1
175
     1
 42
1.0
 92
       10
 66
     7
 43
1.0
 76
     1
 77
     6
 78
     2
 67
     7
 79
     5
170
     0
171
     0
290
     0
174
     0
 93
        1
 44
0.0
173
     0
291
     1
 45
0.0
1001
ACAD
1000
AcDbSavedByObjectVersion
1070
     0
  0
VISUALSTYLE
  5
999E
102
{ACAD_XDICTIONARY
360
9A04
102
}
102
{ACAD_REACTORS
330
9990
102
}
330
9990
100
AcDbVisualStyle
  2
Linepattern
 70
    14
 71
     2
 72
     2
 73
     0
 90
        0
 40
-0.6
 41
-30.0
 62
     5
 63
     7
 74
     1
 91
        4
 64
     7
 65
   257
 75
     7
175
     7
 42
1.0
 92
        8
 66
     7
 43
1.0
 76
     1
 77
     6
 78
     2
 67
     7
 79
     5
170
     0
171
     0
290
     0
174
     0
 93
        1
 44
0.0
173
     0
291
     1
 45
0.0
1001
ACAD
1000
AcDbSavedByObjectVersion
1070
     0
  0
VISUALSTYLE
  5
99A7
102
{ACAD_XDICTIONARY
360
9A16
102
}
102
{ACAD_REACTORS
330
9990
102
}
330
9990
100
AcDbVisualStyle
  2
OverhangOff
 70
    21
 71
     2
 72
     2
 73
     0
 90
        0
 40
-0.6
 41
-30.0
 62
     5
 63
     7
 74
     1
 91
        4
 64
     7
 65
   257
 75
     1
175
     1
 42
1.0
 92
        9
 66
     7
 43
1.0
 76
     1
 77
     6
 78
     2
 67
     7
 79
     5
170
     0
171
     0
290
     0
174
     0
 93
        1
 44
0.0
173
     0
291
     1
 45
0.0
1001
ACAD
1000
AcDbSavedByObjectVersion
1070
     0
  0
VISUALSTYLE
  5
999A
102
{ACAD_XDICTIONARY
360
99FC
102
}
102
{ACAD_REACTORS
330
9990
102
}
330
9990
100
AcDbVisualStyle
  2
Realistic
 70
     8
 71
     2
 72
     3
 73
     0
 90
        2
 40
-0.6
 41
30.0
 62
     5
 63
     7
 74
     0
 91
        0
 64
     7
 65
   257
 75
     1
175
     1
 42
1.0
 92
        8
 66
   257
 43
1.0
 76
     1
 77
     6
 78
     2
 67
     7
 79
     3
170
     0
171
     0
290
     0
174
     0
 93
       13
 44
0.0
173
     0
291
     0
 45
0.0
1001
ACAD
1000
AcDbSavedByObjectVersion
1070
     0
  0
VISUALSTYLE
  5
99A5
102
{ACAD_XDICTIONARY
360
9A12
102
}
102
{ACAD_REACTORS
330
9990
102
}
330
9990
100
AcDbVisualStyle
  2
Shaded
 70
    27
 71
     2
 72
     2
 73
     1
 90
        2
 40
-0.6
 41
30.0
 62
     5
 63
     7
 74
     0
 91
        4
 64
     7
 65
   257
 75
     1
175
     1
 42
1.0
 92
        8
 66
   257
 43
1.0
 76
     1
 77
     6
 78
     2
 67
     8
 79
     3
170
     0
171
     0
290
     0
174
     0
 93
        5
 44
0.0
173
     0
291
     0
 45
0.0
1001
ACAD
1000
AcDbSavedByObjectVersion
1070
     0
  0
VISUALSTYLE
  5
99A4
102
{ACAD_XDICTIONARY
360
9A10
102
}
102
{ACAD_REACTORS
330
9990
102
}
330
9990
100
AcDbVisualStyle
  2
Shaded with edges
 70
    26
 71
     2
 72
     2
 73
     1
 90
        2
 40
-0.6
 41
30.0
 62
     5
 63
     7
 74
     1
 91
       10
 64
     7
 65
   257
 75
     2
175
     1
 42
1.0
 92
        8
 66
   257
 43
1.0
 76
     1
 77
     6
 78
     2
 67
     7
 79
     3
170
     0
171
     0
290
     0
174
     0
 93
        5
 44
0.0
173
     0
291
     0
 45
0.0
1001
ACAD
1000
AcDbSavedByObjectVersion
1070
     0
  0
VISUALSTYLE
  5
99A1
102
{ACAD_XDICTIONARY
360
9A0A
102
}
102
{ACAD_REACTORS
330
9990
102
}
330
9990
100
AcDbVisualStyle
  2
Shades of Gray
 70
    23
 71
     2
 72
     2
 73
     3
 90
        0
 40
-0.6
 41
-30.0
 62
     5
 63
     7
 74
     2
 91
        2
 64
     7
 65
     7
 75
     1
175
     1
 42
40.0
 92
        8
 66
     7
 43
1.0
 76
     1
 77
     6
 78
     2
 67
     7
 79
     3
170
     0
171
     0
290
     0
174
     0
 93
        1
 44
0.0
173
     0
291
     0
 45
0.0
1001
ACAD
1000
AcDbSavedByObjectVersion
1070
     0
  0
VISUALSTYLE
  5
99A2
102
{ACAD_XDICTIONARY
360
9A0C
102
}
102
{ACAD_REACTORS
330
9990
102
}
330
9990
100
AcDbVisualStyle
  2
Sketchy
 70
    24
 71
     1
 72
     2
 73
     2
 90
        0
 40
-0.6
 41
-30.0
 62
     5
 63
     7
 74
     2
 91
        2
 64
     7
 65
     7
 75
     1
175
     1
 42
40.0
 92
       11
 66
     7
 43
1.0
 76
     1
 77
     6
 78
     2
 67
     7
 79
     6
170
     0
171
     0
290
     0
174
     0
 93
        1
 44
0.0
173
     0
291
     0
 45
0.0
1001
ACAD
1000
AcDbSavedByObjectVersion
1070
     0
  0
VISUALSTYLE
  5
999D
102
{ACAD_XDICTIONARY
360
9A02
102
}
102
{ACAD_REACTORS
330
9990
102
}
330
9990
100
AcDbVisualStyle
  2
Thicken
 70
    13
 71
     2
 72
     2
 73
     0
 90
        0
 40
-0.6
 41
-30.0
 62
     5
 63
     7
 74
     1
 91
        4
 64
     7
 65
   257
 75
     1
175
     1
 42
1.0
 92
       12
 66
     7
 43
1.0
 76
     1
 77
     6
 78
     2
 67
     7
 79
     5
170
     0
171
     0
290
     0
174
     0
 93
        1
 44
0.0
173
     0
291
     1
 45
0.0
1001
ACAD
1000
AcDbSavedByObjectVersion
1070
     0
  0
VISUALSTYLE
  5
9997
102
{ACAD_XDICTIONARY
360
99F6
102
}
102
{ACAD_REACTORS
330
9990
102
}
330
9990
100
AcDbVisualStyle
  2
Wireframe
 70
     5
 71
     0
 72
     2
 73
     0
 90
        0
 40
-0.6
 41
-30.0
 62
     5
 63
     7
 74
     1
 91
        4
 64
     7
 65
   257
 75
     1
175
     1
 42
1.0
 92
        0
 66
   257
 43
1.0
 76
     1
 77
     6
 78
     2
 67
     7
 79
     3
170
     0
171
     0
290
     0
174
     0
 93
        1
 44
0.0
173
     0
291
     0
 45
0.0
1001
ACAD
1000
AcDbSavedByObjectVersion
1070
     0
  0
VISUALSTYLE
  5
99A3
102
{ACAD_XDICTIONARY
360
9A0E
102
}
102
{ACAD_REACTORS
330
9990
102
}
330
9990
100
AcDbVisualStyle
  2
X-Ray
 70
    25
 71
     2
 72
     2
 73
     1
 90
        1
 40
0.5
 41
-30.0
 62
     5
 63
     7
 74
     1
 91
        0
 64
     7
 65
   257
 75
     1
175
     1
 42
1.0
 92
        8
 66
     7
 43
1.0
 76
     1
 77
     6
 78
     2
 67
     7
 79
     3
170
     0
171
     0
290
     0
174
     0
 93
       13
 44
0.0
173
     0
291
     0
 45
0.0
1001
ACAD
1000
AcDbSavedByObjectVersion
1070
     0
  0
DICTIONARYVAR
  5
99DD
102
{ACAD_REACTORS
330
99D8
102
}
330
99D8
100
DictionaryVariables
280
     0
  1
1:1
  0
DICTIONARYVAR
  5
99DA
102
{ACAD_REACTORS
330
99D8
102
}
330
99D8
100
DictionaryVariables
280
     0
  1
STANDARD
  0
DICTIONARYVAR
  5
99D9
102
{ACAD_REACTORS
330
99D8
102
}
330
99D8
100
DictionaryVariables
280
     0
  1
STANDARD
  0
DICTIONARYVAR
  5
99DB
102
{ACAD_REACTORS
330
99D8
102
}
330
99D8
100
DictionaryVariables
280
     0
  1
Imperial24
  0
DICTIONARYVAR
  5
99DC
102
{ACAD_REACTORS
330
99D8
102
}
330
99D8
100
DictionaryVariables
280
     0
  1
Imperial24
  0
DICTIONARYVAR
  5
99E0
102
{ACAD_REACTORS
330
99D8
102
}
330
99D8
100
DictionaryVariables
280
     0
  1
1
  0
DICTIONARYVAR
  5
99DF
102
{ACAD_REACTORS
330
99D8
102
}
330
99D8
100
DictionaryVariables
280
     0
  1
0
  0
DICTIONARYVAR
  5
99DE
102
{ACAD_REACTORS
330
99D8
102
}
330
99D8
100
DictionaryVariables
280
     0
  1
127
  0
DICTIONARYVAR
  5
99E1
102
{ACAD_REACTORS
330
99D8
102
}
330
99D8
100
DictionaryVariables
280
     0
  1
2
  0
DICTIONARY
  5
9A1E
330
99C3
100
AcDbDictionary
280
     1
281
     1
  3
ACAD_XREC_ROUNDTRIP
360
9A1F
  0
DICTIONARY
  5
9A20
330
99C4
100
AcDbDictionary
280
     1
281
     1
  3
ACAD_XREC_ROUNDTRIP
360
9A21
  0
DICTIONARY
  5
9A22
330
99C5
100
AcDbDictionary
280
     1
281
     1
  3
ACAD_XREC_ROUNDTRIP
360
9A23
  0
DICTIONARY
  5
9981
330
9980
100
AcDbDictionary
280
     1
281
     1
  3
ACAD_XREC_ROUNDTRIP
360
99E8
  3
BUMPTILE
360
9983
  3
DIFFUSETILE
360
9982
  3
OPACITYTILE
360
9986
  3
REFLECTIONTILE
360
9985
  3
REFRACTIONTILE
360
9987
  3
SPECULARTILE
360
9984
  0
DICTIONARY
  5
9979
330
9978
100
AcDbDictionary
280
     1
281
     1
  3
ACAD_XREC_ROUNDTRIP
360
99E7
  3
BUMPTILE
360
997B
  3
DIFFUSETILE
360
997A
  3
OPACITYTILE
360
997E
  3
REFLECTIONTILE
360
997D
  3
REFRACTIONTILE
360
997F
  3
SPECULARTILE
360
997C
  0
DICTIONARY
  5
9989
330
9988
100
AcDbDictionary
280
     1
281
     1
  3
ACAD_XREC_ROUNDTRIP
360
99E9
  3
BUMPTILE
360
998B
  3
DIFFUSETILE
360
998A
  3
OPACITYTILE
360
998E
  3
REFLECTIONTILE
360
998D
  3
REFRACTIONTILE
360
998F
  3
SPECULARTILE
360
998C
  0
DICTIONARY
  5
9A1C
330
99C1
100
AcDbDictionary
280
     1
281
     1
  3
ACAD_XREC_ROUNDTRIP
360
9A1D
  0
DICTIONARY
  5
99E3
330
99AB
100
AcDbDictionary
280
     1
281
     1
  3
ACAD_ROUNDTRIP_2008_TABLESTYLE_CELLSTYLEMAP
360
99E4
  3
ACAD_XREC_ROUNDTRIP
360
9A1A
  0
DICTIONARY
  5
99F4
330
9996
100
AcDbDictionary
280
     1
281
     1
  3
ACAD_XREC_ROUNDTRIP
360
99F5
  0
DICTIONARY
  5
99F2
330
9995
100
AcDbDictionary
280
     1
281
     1
  3
ACAD_XREC_ROUNDTRIP
360
99F3
  0
DICTIONARY
  5
9A00
330
999C
100
AcDbDictionary
280
     1
281
     1
  3
ACAD_XREC_ROUNDTRIP
360
9A01
  0
DICTIONARY
  5
9A08
330
99A0
100
AcDbDictionary
280
     1
281
     1
  3
ACAD_XREC_ROUNDTRIP
360
9A09
  0
DICTIONARY
  5
99FA
330
9999
100
AcDbDictionary
280
     1
281
     1
  3
ACAD_XREC_ROUNDTRIP
360
99FB
  0
DICTIONARY
  5
99FE
330
999B
100
AcDbDictionary
280
     1
281
     1
  3
ACAD_XREC_ROUNDTRIP
360
99FF
  0
DICTIONARY
  5
9A18
330
99A8
100
AcDbDictionary
280
     1
281
     1
  3
ACAD_XREC_ROUNDTRIP
360
9A19
  0
DICTIONARY
  5
9A06
330
999F
100
AcDbDictionary
280
     1
281
     1
  3
ACAD_XREC_ROUNDTRIP
360
9A07
  0
DICTIONARY
  5
99EA
330
9991
100
AcDbDictionary
280
     1
281
     1
  3
ACAD_XREC_ROUNDTRIP
360
99EB
  0
DICTIONARY
  5
99EC
330
9992
100
AcDbDictionary
280
     1
281
     1
  3
ACAD_XREC_ROUNDTRIP
360
99ED
  0
DICTIONARY
  5
99EE
330
9993
100
AcDbDictionary
280
     1
281
     1
  3
ACAD_XREC_ROUNDTRIP
360
99EF
  0
DICTIONARY
  5
99F0
330
9994
100
AcDbDictionary
280
     1
281
     1
  3
ACAD_XREC_ROUNDTRIP
360
99F1
  0
DICTIONARY
  5
99F8
330
9998
100
AcDbDictionary
280
     1
281
     1
  3
ACAD_XREC_ROUNDTRIP
360
99F9
  0
DICTIONARY
  5
9A14
330
99A6
100
AcDbDictionary
280
     1
281
     1
  3
ACAD_XREC_ROUNDTRIP
360
9A15
  0
DICTIONARY
  5
9A04
330
999E
100
AcDbDictionary
280
     1
281
     1
  3
ACAD_XREC_ROUNDTRIP
360
9A05
  0
DICTIONARY
  5
9A16
330
99A7
100
AcDbDictionary
280
     1
281
     1
  3
ACAD_XREC_ROUNDTRIP
360
9A17
  0
DICTIONARY
  5
99FC
330
999A
100
AcDbDictionary
280
     1
281
     1
  3
ACAD_XREC_ROUNDTRIP
360
99FD
  0
DICTIONARY
  5
9A12
330
99A5
100
AcDbDictionary
280
     1
281
     1
  3
ACAD_XREC_ROUNDTRIP
360
9A13
  0
DICTIONARY
  5
9A10
330
99A4
100
AcDbDictionary
280
     1
281
     1
  3
ACAD_XREC_ROUNDTRIP
360
9A11
  0
DICTIONARY
  5
9A0A
330
99A1
100
AcDbDictionary
280
     1
281
     1
  3
ACAD_XREC_ROUNDTRIP
360
9A0B
  0
DICTIONARY
  5
9A0C
330
99A2
100
AcDbDictionary
280
     1
281
     1
  3
ACAD_XREC_ROUNDTRIP
360
9A0D
  0
DICTIONARY
  5
9A02
330
999D
100
AcDbDictionary
280
     1
281
     1
  3
ACAD_XREC_ROUNDTRIP
360
9A03
  0
DICTIONARY
  5
99F6
330
9997
100
AcDbDictionary
280
     1
281
     1
  3
ACAD_XREC_ROUNDTRIP
360
99F7
  0
DICTIONARY
  5
9A0E
330
99A3
100
AcDbDictionary
280
     1
281
     1
  3
ACAD_XREC_ROUNDTRIP
360
9A0F
  0
XRECORD
  5
9A1F
102
{ACAD_REACTORS
330
9A1E
102
}
330
9A1E
100
AcDbXrecord
280
     1
102
DISPLAYNAME
  1
Imperial24
102
FLAGS
 90
        0
  0
XRECORD
  5
9A21
102
{ACAD_REACTORS
330
9A20
102
}
330
9A20
100
AcDbXrecord
280
     1
102
SHADEPLOT
 70
     0
102
SHADEPLOTRESLEVEL
 70
     2
102
SHADEPLOTCUSTOMDPI
 70
   300
  0
XRECORD
  5
9A23
102
{ACAD_REACTORS
330
9A22
102
}
330
9A22
100
AcDbXrecord
280
     1
102
SHADEPLOT
 70
     0
102
SHADEPLOTRESLEVEL
 70
     2
102
SHADEPLOTCUSTOMDPI
 70
   300
  0
XRECORD
  5
99E8
102
{ACAD_REACTORS
330
9981
102
}
330
9981
100
AcDbXrecord
280
     1
102
MATERIAL
148
0.0
149
0.0
149
0.0
 93
        0
 94
      127
282
     0
 72
     0
 77
     0
171
     0
175
     0
179
     0
273
     0
  0
XRECORD
  5
9983
102
{ACAD_REACTORS
330
9981
102
}
330
9981
100
AcDbXrecord
280
     1
270
     1
271
     1
  0
XRECORD
  5
9982
102
{ACAD_REACTORS
330
9981
102
}
330
9981
100
AcDbXrecord
280
     1
270
     1
271
     1
  0
XRECORD
  5
9986
102
{ACAD_REACTORS
330
9981
102
}
330
9981
100
AcDbXrecord
280
     1
270
     1
271
     1
  0
XRECORD
  5
9985
102
{ACAD_REACTORS
330
9981
102
}
330
9981
100
AcDbXrecord
280
     1
270
     1
271
     1
  0
XRECORD
  5
9987
102
{ACAD_REACTORS
330
9981
102
}
330
9981
100
AcDbXrecord
280
     1
270
     1
271
     1
  0
XRECORD
  5
9984
102
{ACAD_REACTORS
330
9981
102
}
330
9981
100
AcDbXrecord
280
     1
270
     1
271
     1
  0
XRECORD
  5
99E7
102
{ACAD_REACTORS
330
9979
102
}
330
9979
100
AcDbXrecord
280
     1
102
MATERIAL
148
0.0
149
0.0
149
0.0
 93
        0
 94
      127
282
     0
 72
     0
 77
     0
171
     0
175
     0
179
     0
273
     0
  0
XRECORD
  5
997B
102
{ACAD_REACTORS
330
9979
102
}
330
9979
100
AcDbXrecord
280
     1
270
     1
271
     1
  0
XRECORD
  5
997A
102
{ACAD_REACTORS
330
9979
102
}
330
9979
100
AcDbXrecord
280
     1
270
     1
271
     1
  0
XRECORD
  5
997E
102
{ACAD_REACTORS
330
9979
102
}
330
9979
100
AcDbXrecord
280
     1
270
     1
271
     1
  0
XRECORD
  5
997D
102
{ACAD_REACTORS
330
9979
102
}
330
9979
100
AcDbXrecord
280
     1
270
     1
271
     1
  0
XRECORD
  5
997F
102
{ACAD_REACTORS
330
9979
102
}
330
9979
100
AcDbXrecord
280
     1
270
     1
271
     1
  0
XRECORD
  5
997C
102
{ACAD_REACTORS
330
9979
102
}
330
9979
100
AcDbXrecord
280
     1
270
     1
271
     1
  0
XRECORD
  5
99E9
102
{ACAD_REACTORS
330
9989
102
}
330
9989
100
AcDbXrecord
280
     1
102
MATERIAL
148
0.0
149
0.0
149
0.0
 93
        0
 94
      127
282
     0
 72
     0
 77
     0
171
     0
175
     0
179
     0
273
     0
  0
XRECORD
  5
998B
102
{ACAD_REACTORS
330
9989
102
}
330
9989
100
AcDbXrecord
280
     1
270
     1
271
     1
  0
XRECORD
  5
998A
102
{ACAD_REACTORS
330
9989
102
}
330
9989
100
AcDbXrecord
280
     1
270
     1
271
     1
  0
XRECORD
  5
998E
102
{ACAD_REACTORS
330
9989
102
}
330
9989
100
AcDbXrecord
280
     1
270
     1
271
     1
  0
XRECORD
  5
998D
102
{ACAD_REACTORS
330
9989
102
}
330
9989
100
AcDbXrecord
280
     1
270
     1
271
     1
  0
XRECORD
  5
998F
102
{ACAD_REACTORS
330
9989
102
}
330
9989
100
AcDbXrecord
280
     1
270
     1
271
     1
  0
XRECORD
  5
998C
102
{ACAD_REACTORS
330
9989
102
}
330
9989
100
AcDbXrecord
280
     1
270
     1
271
     1
  0
XRECORD
  5
9A1D
102
{ACAD_REACTORS
330
9A1C
102
}
330
9A1C
100
AcDbXrecord
280
     1
102
DISPLAYNAME
  1
Imperial24
102
FLAGS
 90
        0
  0
CELLSTYLEMAP
  5
99E4
102
{ACAD_REACTORS
330
99E3
102
}
330
99E3
100
AcDbCellStyleMap
 90
        3
300
CELLSTYLE
  1
TABLEFORMAT_BEGIN
 90
        5
170
     1
 91
        0
 92
    32768
 62
   257
 93
        1
300
CONTENTFORMAT
  1
CONTENTFORMAT_BEGIN
 90
        0
 91
        0
 92
      512
 93
        0
300

 40
0.0
140
1.0
 94
        5
 62
     0
340
9727
144
0.25
309
CONTENTFORMAT_END
171
     0
 94
        0
309
TABLEFORMAT_END
  1
CELLSTYLE_BEGIN
 90
        1
 91
        1
300
_TITLE
309
CELLSTYLE_END
300
CELLSTYLE
  1
TABLEFORMAT_BEGIN
 90
        5
170
     1
 91
        0
 92
        0
 62
   257
 93
        1
300
CONTENTFORMAT
  1
CONTENTFORMAT_BEGIN
 90
        0
 91
        0
 92
      512
 93
        0
300

 40
0.0
140
1.0
 94
        5
 62
     0
340
9727
144
0.18
309
CONTENTFORMAT_END
171
     0
 94
        0
309
TABLEFORMAT_END
  1
CELLSTYLE_BEGIN
 90
        2
 91
        1
300
_HEADER
309
CELLSTYLE_END
300
CELLSTYLE
  1
TABLEFORMAT_BEGIN
 90
        5
170
     1
 91
        0
 92
        0
 62
   257
 93
        1
300
CONTENTFORMAT
  1
CONTENTFORMAT_BEGIN
 90
        0
 91
        0
 92
      512
 93
        0
300

 40
0.0
140
1.0
 94
        2
 62
     0
340
9727
144
0.18
309
CONTENTFORMAT_END
171
     0
 94
        0
309
TABLEFORMAT_END
  1
CELLSTYLE_BEGIN
 90
        3
 91
        2
300
_DATA
309
CELLSTYLE_END
  0
XRECORD
  5
9A1A
102
{ACAD_REACTORS
330
99E3
102
}
330
99E3
100
AcDbXrecord
280
     1
102
ACAD_ROUNDTRIP_PRE2007_TABLESTYLE
 90
      512
 91
        0
  1

 92
      512
 93
        0
  2

 94
      512
 95
        0
  3

  0
XRECORD
  5
99F5
102
{ACAD_REACTORS
330
99F4
102
}
330
99F4
100
AcDbXrecord
280
     1
102
RTVSPost2010Prop28
280
     1
102
RTVSPost2010PropOp28
 70
     1
102
RTVSPost2010Prop29
280
     1
102
RTVSPost2010PropOp29
 70
     1
102
RTVSPost2010Prop30
280
     0
102
RTVSPost2010PropOp30
 70
     1
102
RTVSPost2010Prop31
280
     0
102
RTVSPost2010PropOp31
 70
     1
102
RTVSPost2010Prop32
280
     0
102
RTVSPost2010PropOp32
 70
     1
102
RTVSPost2010Prop33
280
     0
102
RTVSPost2010PropOp33
 70
     1
102
RTVSPost2010Prop34
280
     0
102
RTVSPost2010PropOp34
 70
     1
102
RTVSPost2010Prop35
280
     0
102
RTVSPost2010PropOp35
 70
     1
102
RTVSPost2010Prop36
280
     0
102
RTVSPost2010PropOp36
 70
     1
102
RTVSPost2010Prop37
 90
       50
102
RTVSPost2010PropOp37
 70
     1
102
RTVSPost2010Prop38
140
0.0
102
RTVSPost2010PropOp38
 70
     1
102
RTVSPost2010Prop39
140
1.0
102
RTVSPost2010PropOp39
 70
     1
102
RTVSPost2010Prop40
 90
        0
102
RTVSPost2010PropOp40
 70
     1
102
RTVSPost2010Prop41ColorIndex
 90
       18
102
RTVSPost2010Prop41ColorRGB
 90
        0
102
RTVSPost2010PropOp41
 70
     1
102
RTVSPost2010Prop42
 90
       50
102
RTVSPost2010PropOp42
 70
     1
102
RTVSPost2010Prop43
 90
        3
102
RTVSPost2010PropOp43
 70
     1
102
RTVSPost2010Prop44ColorIndex
 90
        5
102
RTVSPost2010Prop44ColorRGB
 90
      255
102
RTVSPost2010PropOp44
 70
     1
102
RTVSPost2010Prop45
280
     0
102
RTVSPost2010PropOp45
 70
     1
102
RTVSPost2010Prop46
 90
       50
102
RTVSPost2010PropOp46
 70
     1
102
RTVSPost2010Prop47
 90
       50
102
RTVSPost2010PropOp47
 70
     1
102
RTVSPost2010Prop48
 90
       50
102
RTVSPost2010PropOp48
 70
     1
102
RTVSPost2010Prop49
280
     0
102
RTVSPost2010PropOp49
 70
     1
102
RTVSPost2010Prop50
 90
       50
102
RTVSPost2010PropOp50
 70
     1
102
RTVSPost2010Prop51ColorIndex
 90
      256
102
RTVSPost2010Prop51ColorRGB
 90
-16777216
102
RTVSPost2010PropOp51
 70
     0
102
RTVSPost2010Prop52
140
1.0
102
RTVSPost2010PropOp52
 70
     0
102
RTVSPost2010Prop53
 90
        2
102
RTVSPost2010PropOp53
 70
     1
102
RTVSPost2010Prop54
  1
strokes_ogs.tif
102
RTVSPost2010PropOp54
 70
     1
102
RTVSPost2010Prop55
280
     0
102
RTVSPost2010PropOp55
 70
     1
102
RTVSPost2010Prop56
140
1.0
102
RTVSPost2010PropOp56
 70
     1
102
RTVSPost2010Prop57
140
1.0
102
RTVSPost2010PropOp57
 70
     1
102
RTVSPropertyOp0
 70
     1
102
RTVSPropertyOp1
 70
     1
102
RTVSPropertyOp2
 70
     1
102
RTVSPropertyOp3
 70
     1
102
RTVSPropertyOp4
 70
     1
102
RTVSPropertyOp5
 70
     1
102
RTVSPropertyOp6
 70
     1
102
RTVSPropertyOp7
 70
     1
102
RTVSPropertyOp8
 70
     1
102
RTVSPropertyOp9
 70
     1
102
RTVSPropertyOp10
 70
     1
102
RTVSPropertyOp11
 70
     1
102
RTVSPropertyOp12
 70
     1
102
RTVSPropertyOp13
 70
     1
102
RTVSPropertyOp14
 70
     1
102
RTVSPropertyOp15
 70
     1
102
RTVSPropertyOp16
 70
     1
102
RTVSPropertyOp17
 70
     1
102
RTVSPropertyOp18
 70
     1
102
RTVSPropertyOp19
 70
     1
102
RTVSPropertyOp20
 70
     1
102
RTVSPropertyOp21
 70
     1
102
RTVSPropertyOp22
 70
     1
102
RTVSPropertyOp23
 70
     1
102
RTVSPropertyOp24
 70
     1
102
RTVSPropertyOp25
 70
     1
102
RTVSPropertyOp26
 70
     1
102
RTVSPropertyOp27
 70
     1
102
RTVSPropertyOp28
 70
     1
102
RTVSPropertyOp29
 70
     1
102
RTVSPropertyOp30
 70
     1
102
RTVSPropertyOp31
 70
     1
102
RTVSPropertyOp32
 70
     1
102
RTVSPropertyOp33
 70
     1
102
RTVSPropertyOp34
 70
     1
102
RTVSPropertyOp35
 70
     1
102
RTVSPropertyOp36
 70
     1
102
RTVSPropertyOp37
 70
     1
102
RTVSPropertyOp38
 70
     1
102
RTVSPropertyOp39
 70
     1
102
RTVSPropertyOp40
 70
     1
102
RTVSPropertyOp41
 70
     1
102
RTVSPropertyOp42
 70
     1
102
RTVSPropertyOp43
 70
     1
102
RTVSPropertyOp44
 70
     1
102
RTVSPropertyOp45
 70
     1
102
RTVSPropertyOp46
 70
     1
102
RTVSPropertyOp47
 70
     1
102
RTVSPropertyOp48
 70
     1
102
RTVSPropertyOp49
 70
     1
102
RTVSPropertyOp50
 70
     1
102
RTVSPropertyOp51
 70
     0
102
RTVSPropertyOp52
 70
     0
102
RTVSPropertyOp53
 70
     1
102
RTVSPropertyOp54
 70
     1
102
RTVSPropertyOp55
 70
     1
102
RTVSPropertyOp56
 70
     1
102
RTVSPropertyOp57
 70
     1
102
RTVSPropertyOp58
 70
     1
102
RTVSPropertyOp59
 70
     1
102
RTVSPropertyOp60
 70
     1
102
RTVSPropertyOp61
 70
     1
102
RTVSPropertyOp62
 70
     1
  0
XRECORD
  5
99F3
102
{ACAD_REACTORS
330
99F2
102
}
330
99F2
100
AcDbXrecord
280
     1
102
RTVSPost2010Prop28
280
     0
102
RTVSPost2010PropOp28
 70
     1
102
RTVSPost2010Prop29
280
     1
102
RTVSPost2010PropOp29
 70
     1
102
RTVSPost2010Prop30
280
     1
102
RTVSPost2010PropOp30
 70
     1
102
RTVSPost2010Prop31
280
     0
102
RTVSPost2010PropOp31
 70
     1
102
RTVSPost2010Prop32
280
     0
102
RTVSPost2010PropOp32
 70
     1
102
RTVSPost2010Prop33
280
     0
102
RTVSPost2010PropOp33
 70
     1
102
RTVSPost2010Prop34
280
     0
102
RTVSPost2010PropOp34
 70
     1
102
RTVSPost2010Prop35
280
     0
102
RTVSPost2010PropOp35
 70
     1
102
RTVSPost2010Prop36
280
     0
102
RTVSPost2010PropOp36
 70
     1
102
RTVSPost2010Prop37
 90
       50
102
RTVSPost2010PropOp37
 70
     1
102
RTVSPost2010Prop38
140
0.0
102
RTVSPost2010PropOp38
 70
     1
102
RTVSPost2010Prop39
140
1.0
102
RTVSPost2010PropOp39
 70
     1
102
RTVSPost2010Prop40
 90
        0
102
RTVSPost2010PropOp40
 70
     1
102
RTVSPost2010Prop41ColorIndex
 90
       18
102
RTVSPost2010Prop41ColorRGB
 90
        0
102
RTVSPost2010PropOp41
 70
     1
102
RTVSPost2010Prop42
 90
       50
102
RTVSPost2010PropOp42
 70
     1
102
RTVSPost2010Prop43
 90
        3
102
RTVSPost2010PropOp43
 70
     1
102
RTVSPost2010Prop44ColorIndex
 90
        5
102
RTVSPost2010Prop44ColorRGB
 90
      255
102
RTVSPost2010PropOp44
 70
     1
102
RTVSPost2010Prop45
280
     0
102
RTVSPost2010PropOp45
 70
     1
102
RTVSPost2010Prop46
 90
       50
102
RTVSPost2010PropOp46
 70
     1
102
RTVSPost2010Prop47
 90
       50
102
RTVSPost2010PropOp47
 70
     1
102
RTVSPost2010Prop48
 90
       50
102
RTVSPost2010PropOp48
 70
     1
102
RTVSPost2010Prop49
280
     0
102
RTVSPost2010PropOp49
 70
     1
102
RTVSPost2010Prop50
 90
       50
102
RTVSPost2010PropOp50
 70
     1
102
RTVSPost2010Prop51ColorIndex
 90
      256
102
RTVSPost2010Prop51ColorRGB
 90
-16777216
102
RTVSPost2010PropOp51
 70
     0
102
RTVSPost2010Prop52
140
1.0
102
RTVSPost2010PropOp52
 70
     0
102
RTVSPost2010Prop53
 90
        2
102
RTVSPost2010PropOp53
 70
     1
102
RTVSPost2010Prop54
  1
strokes_ogs.tif
102
RTVSPost2010PropOp54
 70
     1
102
RTVSPost2010Prop55
280
     0
102
RTVSPost2010PropOp55
 70
     1
102
RTVSPost2010Prop56
140
1.0
102
RTVSPost2010PropOp56
 70
     1
102
RTVSPost2010Prop57
140
1.0
102
RTVSPost2010PropOp57
 70
     1
102
RTVSPropertyOp0
 70
     1
102
RTVSPropertyOp1
 70
     1
102
RTVSPropertyOp2
 70
     1
102
RTVSPropertyOp3
 70
     1
102
RTVSPropertyOp4
 70
     1
102
RTVSPropertyOp5
 70
     1
102
RTVSPropertyOp6
 70
     1
102
RTVSPropertyOp7
 70
     1
102
RTVSPropertyOp8
 70
     1
102
RTVSPropertyOp9
 70
     1
102
RTVSPropertyOp10
 70
     1
102
RTVSPropertyOp11
 70
     1
102
RTVSPropertyOp12
 70
     1
102
RTVSPropertyOp13
 70
     1
102
RTVSPropertyOp14
 70
     1
102
RTVSPropertyOp15
 70
     1
102
RTVSPropertyOp16
 70
     1
102
RTVSPropertyOp17
 70
     1
102
RTVSPropertyOp18
 70
     1
102
RTVSPropertyOp19
 70
     1
102
RTVSPropertyOp20
 70
     1
102
RTVSPropertyOp21
 70
     1
102
RTVSPropertyOp22
 70
     1
102
RTVSPropertyOp23
 70
     1
102
RTVSPropertyOp24
 70
     1
102
RTVSPropertyOp25
 70
     1
102
RTVSPropertyOp26
 70
     1
102
RTVSPropertyOp27
 70
     1
102
RTVSPropertyOp28
 70
     1
102
RTVSPropertyOp29
 70
     1
102
RTVSPropertyOp30
 70
     1
102
RTVSPropertyOp31
 70
     1
102
RTVSPropertyOp32
 70
     1
102
RTVSPropertyOp33
 70
     1
102
RTVSPropertyOp34
 70
     1
102
RTVSPropertyOp35
 70
     1
102
RTVSPropertyOp36
 70
     1
102
RTVSPropertyOp37
 70
     1
102
RTVSPropertyOp38
 70
     1
102
RTVSPropertyOp39
 70
     1
102
RTVSPropertyOp40
 70
     1
102
RTVSPropertyOp41
 70
     1
102
RTVSPropertyOp42
 70
     1
102
RTVSPropertyOp43
 70
     1
102
RTVSPropertyOp44
 70
     1
102
RTVSPropertyOp45
 70
     1
102
RTVSPropertyOp46
 70
     1
102
RTVSPropertyOp47
 70
     1
102
RTVSPropertyOp48
 70
     1
102
RTVSPropertyOp49
 70
     1
102
RTVSPropertyOp50
 70
     1
102
RTVSPropertyOp51
 70
     0
102
RTVSPropertyOp52
 70
     0
102
RTVSPropertyOp53
 70
     1
102
RTVSPropertyOp54
 70
     1
102
RTVSPropertyOp55
 70
     1
102
RTVSPropertyOp56
 70
     1
102
RTVSPropertyOp57
 70
     1
102
RTVSPropertyOp58
 70
     1
102
RTVSPropertyOp59
 70
     1
102
RTVSPropertyOp60
 70
     1
102
RTVSPropertyOp61
 70
     1
102
RTVSPropertyOp62
 70
     1
  0
XRECORD
  5
9A01
102
{ACAD_REACTORS
330
9A00
102
}
330
9A00
100
AcDbXrecord
280
     1
102
RTVSPost2010Prop28
280
     0
102
RTVSPost2010PropOp28
 70
     1
102
RTVSPost2010Prop29
280
     1
102
RTVSPost2010PropOp29
 70
     1
102
RTVSPost2010Prop30
280
     1
102
RTVSPost2010PropOp30
 70
     1
102
RTVSPost2010Prop31
280
     0
102
RTVSPost2010PropOp31
 70
     1
102
RTVSPost2010Prop32
280
     0
102
RTVSPost2010PropOp32
 70
     1
102
RTVSPost2010Prop33
280
     0
102
RTVSPost2010PropOp33
 70
     1
102
RTVSPost2010Prop34
280
     0
102
RTVSPost2010PropOp34
 70
     1
102
RTVSPost2010Prop35
280
     0
102
RTVSPost2010PropOp35
 70
     1
102
RTVSPost2010Prop36
280
     0
102
RTVSPost2010PropOp36
 70
     1
102
RTVSPost2010Prop37
 90
       50
102
RTVSPost2010PropOp37
 70
     1
102
RTVSPost2010Prop38
140
0.0
102
RTVSPost2010PropOp38
 70
     1
102
RTVSPost2010Prop39
140
1.0
102
RTVSPost2010PropOp39
 70
     1
102
RTVSPost2010Prop40
 90
        0
102
RTVSPost2010PropOp40
 70
     1
102
RTVSPost2010Prop41ColorIndex
 90
       18
102
RTVSPost2010Prop41ColorRGB
 90
        0
102
RTVSPost2010PropOp41
 70
     1
102
RTVSPost2010Prop42
 90
       50
102
RTVSPost2010PropOp42
 70
     1
102
RTVSPost2010Prop43
 90
        3
102
RTVSPost2010PropOp43
 70
     1
102
RTVSPost2010Prop44ColorIndex
 90
        5
102
RTVSPost2010Prop44ColorRGB
 90
      255
102
RTVSPost2010PropOp44
 70
     1
102
RTVSPost2010Prop45
280
     0
102
RTVSPost2010PropOp45
 70
     1
102
RTVSPost2010Prop46
 90
       50
102
RTVSPost2010PropOp46
 70
     1
102
RTVSPost2010Prop47
 90
       50
102
RTVSPost2010PropOp47
 70
     1
102
RTVSPost2010Prop48
 90
       50
102
RTVSPost2010PropOp48
 70
     1
102
RTVSPost2010Prop49
280
     0
102
RTVSPost2010PropOp49
 70
     1
102
RTVSPost2010Prop50
 90
       50
102
RTVSPost2010PropOp50
 70
     1
102
RTVSPost2010Prop51ColorIndex
 90
      256
102
RTVSPost2010Prop51ColorRGB
 90
-16777216
102
RTVSPost2010PropOp51
 70
     0
102
RTVSPost2010Prop52
140
1.0
102
RTVSPost2010PropOp52
 70
     0
102
RTVSPost2010Prop53
 90
        2
102
RTVSPost2010PropOp53
 70
     1
102
RTVSPost2010Prop54
  1
strokes_ogs.tif
102
RTVSPost2010PropOp54
 70
     1
102
RTVSPost2010Prop55
280
     0
102
RTVSPost2010PropOp55
 70
     1
102
RTVSPost2010Prop56
140
1.0
102
RTVSPost2010PropOp56
 70
     1
102
RTVSPost2010Prop57
140
1.0
102
RTVSPost2010PropOp57
 70
     1
102
RTVSPropertyOp0
 70
     1
102
RTVSPropertyOp1
 70
     1
102
RTVSPropertyOp2
 70
     1
102
RTVSPropertyOp3
 70
     1
102
RTVSPropertyOp4
 70
     1
102
RTVSPropertyOp5
 70
     1
102
RTVSPropertyOp6
 70
     1
102
RTVSPropertyOp7
 70
     1
102
RTVSPropertyOp8
 70
     1
102
RTVSPropertyOp9
 70
     1
102
RTVSPropertyOp10
 70
     1
102
RTVSPropertyOp11
 70
     1
102
RTVSPropertyOp12
 70
     1
102
RTVSPropertyOp13
 70
     1
102
RTVSPropertyOp14
 70
     1
102
RTVSPropertyOp15
 70
     1
102
RTVSPropertyOp16
 70
     1
102
RTVSPropertyOp17
 70
     1
102
RTVSPropertyOp18
 70
     1
102
RTVSPropertyOp19
 70
     1
102
RTVSPropertyOp20
 70
     1
102
RTVSPropertyOp21
 70
     1
102
RTVSPropertyOp22
 70
     1
102
RTVSPropertyOp23
 70
     1
102
RTVSPropertyOp24
 70
     1
102
RTVSPropertyOp25
 70
     1
102
RTVSPropertyOp26
 70
     1
102
RTVSPropertyOp27
 70
     1
102
RTVSPropertyOp28
 70
     1
102
RTVSPropertyOp29
 70
     1
102
RTVSPropertyOp30
 70
     1
102
RTVSPropertyOp31
 70
     1
102
RTVSPropertyOp32
 70
     1
102
RTVSPropertyOp33
 70
     1
102
RTVSPropertyOp34
 70
     1
102
RTVSPropertyOp35
 70
     1
102
RTVSPropertyOp36
 70
     1
102
RTVSPropertyOp37
 70
     1
102
RTVSPropertyOp38
 70
     1
102
RTVSPropertyOp39
 70
     1
102
RTVSPropertyOp40
 70
     1
102
RTVSPropertyOp41
 70
     1
102
RTVSPropertyOp42
 70
     1
102
RTVSPropertyOp43
 70
     1
102
RTVSPropertyOp44
 70
     1
102
RTVSPropertyOp45
 70
     1
102
RTVSPropertyOp46
 70
     1
102
RTVSPropertyOp47
 70
     1
102
RTVSPropertyOp48
 70
     1
102
RTVSPropertyOp49
 70
     1
102
RTVSPropertyOp50
 70
     1
102
RTVSPropertyOp51
 70
     0
102
RTVSPropertyOp52
 70
     0
102
RTVSPropertyOp53
 70
     1
102
RTVSPropertyOp54
 70
     1
102
RTVSPropertyOp55
 70
     1
102
RTVSPropertyOp56
 70
     1
102
RTVSPropertyOp57
 70
     1
102
RTVSPropertyOp58
 70
     1
102
RTVSPropertyOp59
 70
     1
102
RTVSPropertyOp60
 70
     1
102
RTVSPropertyOp61
 70
     1
102
RTVSPropertyOp62
 70
     1
  0
XRECORD
  5
9A09
102
{ACAD_REACTORS
330
9A08
102
}
330
9A08
100
AcDbXrecord
280
     1
102
RTVSPost2010Prop28
280
     0
102
RTVSPost2010PropOp28
 70
     1
102
RTVSPost2010Prop29
280
     1
102
RTVSPost2010PropOp29
 70
     1
102
RTVSPost2010Prop30
280
     1
102
RTVSPost2010PropOp30
 70
     1
102
RTVSPost2010Prop31
280
     0
102
RTVSPost2010PropOp31
 70
     1
102
RTVSPost2010Prop32
280
     0
102
RTVSPost2010PropOp32
 70
     1
102
RTVSPost2010Prop33
280
     0
102
RTVSPost2010PropOp33
 70
     1
102
RTVSPost2010Prop34
280
     0
102
RTVSPost2010PropOp34
 70
     1
102
RTVSPost2010Prop35
280
     0
102
RTVSPost2010PropOp35
 70
     1
102
RTVSPost2010Prop36
280
     0
102
RTVSPost2010PropOp36
 70
     1
102
RTVSPost2010Prop37
 90
       50
102
RTVSPost2010PropOp37
 70
     1
102
RTVSPost2010Prop38
140
0.0
102
RTVSPost2010PropOp38
 70
     1
102
RTVSPost2010Prop39
140
1.0
102
RTVSPost2010PropOp39
 70
     1
102
RTVSPost2010Prop40
 90
        0
102
RTVSPost2010PropOp40
 70
     1
102
RTVSPost2010Prop41ColorIndex
 90
       18
102
RTVSPost2010Prop41ColorRGB
 90
        0
102
RTVSPost2010PropOp41
 70
     1
102
RTVSPost2010Prop42
 90
       50
102
RTVSPost2010PropOp42
 70
     1
102
RTVSPost2010Prop43
 90
        3
102
RTVSPost2010PropOp43
 70
     1
102
RTVSPost2010Prop44ColorIndex
 90
        5
102
RTVSPost2010Prop44ColorRGB
 90
      255
102
RTVSPost2010PropOp44
 70
     1
102
RTVSPost2010Prop45
280
     0
102
RTVSPost2010PropOp45
 70
     1
102
RTVSPost2010Prop46
 90
       50
102
RTVSPost2010PropOp46
 70
     1
102
RTVSPost2010Prop47
 90
       50
102
RTVSPost2010PropOp47
 70
     1
102
RTVSPost2010Prop48
 90
       50
102
RTVSPost2010PropOp48
 70
     1
102
RTVSPost2010Prop49
280
     0
102
RTVSPost2010PropOp49
 70
     1
102
RTVSPost2010Prop50
 90
       50
102
RTVSPost2010PropOp50
 70
     1
102
RTVSPost2010Prop51ColorIndex
 90
      256
102
RTVSPost2010Prop51ColorRGB
 90
-16777216
102
RTVSPost2010PropOp51
 70
     0
102
RTVSPost2010Prop52
140
1.0
102
RTVSPost2010PropOp52
 70
     0
102
RTVSPost2010Prop53
 90
        2
102
RTVSPost2010PropOp53
 70
     1
102
RTVSPost2010Prop54
  1
strokes_ogs.tif
102
RTVSPost2010PropOp54
 70
     1
102
RTVSPost2010Prop55
280
     0
102
RTVSPost2010PropOp55
 70
     1
102
RTVSPost2010Prop56
140
1.0
102
RTVSPost2010PropOp56
 70
     1
102
RTVSPost2010Prop57
140
1.0
102
RTVSPost2010PropOp57
 70
     1
102
RTVSPropertyOp0
 70
     1
102
RTVSPropertyOp1
 70
     1
102
RTVSPropertyOp2
 70
     1
102
RTVSPropertyOp3
 70
     1
102
RTVSPropertyOp4
 70
     1
102
RTVSPropertyOp5
 70
     1
102
RTVSPropertyOp6
 70
     1
102
RTVSPropertyOp7
 70
     1
102
RTVSPropertyOp8
 70
     1
102
RTVSPropertyOp9
 70
     1
102
RTVSPropertyOp10
 70
     1
102
RTVSPropertyOp11
 70
     1
102
RTVSPropertyOp12
 70
     1
102
RTVSPropertyOp13
 70
     1
102
RTVSPropertyOp14
 70
     1
102
RTVSPropertyOp15
 70
     1
102
RTVSPropertyOp16
 70
     1
102
RTVSPropertyOp17
 70
     1
102
RTVSPropertyOp18
 70
     1
102
RTVSPropertyOp19
 70
     1
102
RTVSPropertyOp20
 70
     1
102
RTVSPropertyOp21
 70
     1
102
RTVSPropertyOp22
 70
     1
102
RTVSPropertyOp23
 70
     1
102
RTVSPropertyOp24
 70
     1
102
RTVSPropertyOp25
 70
     1
102
RTVSPropertyOp26
 70
     1
102
RTVSPropertyOp27
 70
     1
102
RTVSPropertyOp28
 70
     1
102
RTVSPropertyOp29
 70
     1
102
RTVSPropertyOp30
 70
     1
102
RTVSPropertyOp31
 70
     1
102
RTVSPropertyOp32
 70
     1
102
RTVSPropertyOp33
 70
     1
102
RTVSPropertyOp34
 70
     1
102
RTVSPropertyOp35
 70
     1
102
RTVSPropertyOp36
 70
     1
102
RTVSPropertyOp37
 70
     1
102
RTVSPropertyOp38
 70
     1
102
RTVSPropertyOp39
 70
     1
102
RTVSPropertyOp40
 70
     1
102
RTVSPropertyOp41
 70
     1
102
RTVSPropertyOp42
 70
     1
102
RTVSPropertyOp43
 70
     1
102
RTVSPropertyOp44
 70
     1
102
RTVSPropertyOp45
 70
     1
102
RTVSPropertyOp46
 70
     1
102
RTVSPropertyOp47
 70
     1
102
RTVSPropertyOp48
 70
     1
102
RTVSPropertyOp49
 70
     1
102
RTVSPropertyOp50
 70
     1
102
RTVSPropertyOp51
 70
     0
102
RTVSPropertyOp52
 70
     0
102
RTVSPropertyOp53
 70
     1
102
RTVSPropertyOp54
 70
     1
102
RTVSPropertyOp55
 70
     1
102
RTVSPropertyOp56
 70
     1
102
RTVSPropertyOp57
 70
     1
102
RTVSPropertyOp58
 70
     1
102
RTVSPropertyOp59
 70
     1
102
RTVSPropertyOp60
 70
     1
102
RTVSPropertyOp61
 70
     1
102
RTVSPropertyOp62
 70
     1
  0
XRECORD
  5
99FB
102
{ACAD_REACTORS
330
99FA
102
}
330
99FA
100
AcDbXrecord
280
     1
102
RTVSPost2010Prop28
280
     0
102
RTVSPost2010PropOp28
 70
     1
102
RTVSPost2010Prop29
280
     1
102
RTVSPost2010PropOp29
 70
     1
102
RTVSPost2010Prop30
280
     1
102
RTVSPost2010PropOp30
 70
     1
102
RTVSPost2010Prop31
280
     0
102
RTVSPost2010PropOp31
 70
     1
102
RTVSPost2010Prop32
280
     0
102
RTVSPost2010PropOp32
 70
     1
102
RTVSPost2010Prop33
280
     0
102
RTVSPost2010PropOp33
 70
     1
102
RTVSPost2010Prop34
280
     0
102
RTVSPost2010PropOp34
 70
     1
102
RTVSPost2010Prop35
280
     0
102
RTVSPost2010PropOp35
 70
     1
102
RTVSPost2010Prop36
280
     0
102
RTVSPost2010PropOp36
 70
     1
102
RTVSPost2010Prop37
 90
       50
102
RTVSPost2010PropOp37
 70
     1
102
RTVSPost2010Prop38
140
0.0
102
RTVSPost2010PropOp38
 70
     1
102
RTVSPost2010Prop39
140
1.0
102
RTVSPost2010PropOp39
 70
     1
102
RTVSPost2010Prop40
 90
        0
102
RTVSPost2010PropOp40
 70
     1
102
RTVSPost2010Prop41ColorIndex
 90
       18
102
RTVSPost2010Prop41ColorRGB
 90
        0
102
RTVSPost2010PropOp41
 70
     1
102
RTVSPost2010Prop42
 90
       50
102
RTVSPost2010PropOp42
 70
     1
102
RTVSPost2010Prop43
 90
        3
102
RTVSPost2010PropOp43
 70
     1
102
RTVSPost2010Prop44ColorIndex
 90
        5
102
RTVSPost2010Prop44ColorRGB
 90
      255
102
RTVSPost2010PropOp44
 70
     1
102
RTVSPost2010Prop45
280
     0
102
RTVSPost2010PropOp45
 70
     1
102
RTVSPost2010Prop46
 90
       50
102
RTVSPost2010PropOp46
 70
     1
102
RTVSPost2010Prop47
 90
       50
102
RTVSPost2010PropOp47
 70
     1
102
RTVSPost2010Prop48
 90
       50
102
RTVSPost2010PropOp48
 70
     1
102
RTVSPost2010Prop49
280
     0
102
RTVSPost2010PropOp49
 70
     1
102
RTVSPost2010Prop50
 90
       50
102
RTVSPost2010PropOp50
 70
     1
102
RTVSPost2010Prop51ColorIndex
 90
      256
102
RTVSPost2010Prop51ColorRGB
 90
-16777216
102
RTVSPost2010PropOp51
 70
     0
102
RTVSPost2010Prop52
140
1.0
102
RTVSPost2010PropOp52
 70
     0
102
RTVSPost2010Prop53
 90
        2
102
RTVSPost2010PropOp53
 70
     1
102
RTVSPost2010Prop54
  1
strokes_ogs.tif
102
RTVSPost2010PropOp54
 70
     1
102
RTVSPost2010Prop55
280
     0
102
RTVSPost2010PropOp55
 70
     1
102
RTVSPost2010Prop56
140
1.0
102
RTVSPost2010PropOp56
 70
     1
102
RTVSPost2010Prop57
140
1.0
102
RTVSPost2010PropOp57
 70
     1
102
RTVSPropertyOp0
 70
     1
102
RTVSPropertyOp1
 70
     1
102
RTVSPropertyOp2
 70
     1
102
RTVSPropertyOp3
 70
     1
102
RTVSPropertyOp4
 70
     1
102
RTVSPropertyOp5
 70
     1
102
RTVSPropertyOp6
 70
     1
102
RTVSPropertyOp7
 70
     1
102
RTVSPropertyOp8
 70
     1
102
RTVSPropertyOp9
 70
     1
102
RTVSPropertyOp10
 70
     1
102
RTVSPropertyOp11
 70
     1
102
RTVSPropertyOp12
 70
     1
102
RTVSPropertyOp13
 70
     1
102
RTVSPropertyOp14
 70
     1
102
RTVSPropertyOp15
 70
     1
102
RTVSPropertyOp16
 70
     1
102
RTVSPropertyOp17
 70
     1
102
RTVSPropertyOp18
 70
     1
102
RTVSPropertyOp19
 70
     1
102
RTVSPropertyOp20
 70
     1
102
RTVSPropertyOp21
 70
     1
102
RTVSPropertyOp22
 70
     1
102
RTVSPropertyOp23
 70
     1
102
RTVSPropertyOp24
 70
     1
102
RTVSPropertyOp25
 70
     1
102
RTVSPropertyOp26
 70
     1
102
RTVSPropertyOp27
 70
     1
102
RTVSPropertyOp28
 70
     1
102
RTVSPropertyOp29
 70
     1
102
RTVSPropertyOp30
 70
     1
102
RTVSPropertyOp31
 70
     1
102
RTVSPropertyOp32
 70
     1
102
RTVSPropertyOp33
 70
     1
102
RTVSPropertyOp34
 70
     1
102
RTVSPropertyOp35
 70
     1
102
RTVSPropertyOp36
 70
     1
102
RTVSPropertyOp37
 70
     1
102
RTVSPropertyOp38
 70
     1
102
RTVSPropertyOp39
 70
     1
102
RTVSPropertyOp40
 70
     1
102
RTVSPropertyOp41
 70
     1
102
RTVSPropertyOp42
 70
     1
102
RTVSPropertyOp43
 70
     1
102
RTVSPropertyOp44
 70
     1
102
RTVSPropertyOp45
 70
     1
102
RTVSPropertyOp46
 70
     1
102
RTVSPropertyOp47
 70
     1
102
RTVSPropertyOp48
 70
     1
102
RTVSPropertyOp49
 70
     1
102
RTVSPropertyOp50
 70
     1
102
RTVSPropertyOp51
 70
     0
102
RTVSPropertyOp52
 70
     0
102
RTVSPropertyOp53
 70
     1
102
RTVSPropertyOp54
 70
     1
102
RTVSPropertyOp55
 70
     1
102
RTVSPropertyOp56
 70
     1
102
RTVSPropertyOp57
 70
     1
102
RTVSPropertyOp58
 70
     1
102
RTVSPropertyOp59
 70
     1
102
RTVSPropertyOp60
 70
     1
102
RTVSPropertyOp61
 70
     1
102
RTVSPropertyOp62
 70
     1
  0
XRECORD
  5
99FF
102
{ACAD_REACTORS
330
99FE
102
}
330
99FE
100
AcDbXrecord
280
     1
102
RTVSPost2010Prop28
280
     0
102
RTVSPost2010PropOp28
 70
     1
102
RTVSPost2010Prop29
280
     1
102
RTVSPost2010PropOp29
 70
     1
102
RTVSPost2010Prop30
280
     1
102
RTVSPost2010PropOp30
 70
     1
102
RTVSPost2010Prop31
280
     0
102
RTVSPost2010PropOp31
 70
     1
102
RTVSPost2010Prop32
280
     0
102
RTVSPost2010PropOp32
 70
     1
102
RTVSPost2010Prop33
280
     0
102
RTVSPost2010PropOp33
 70
     1
102
RTVSPost2010Prop34
280
     0
102
RTVSPost2010PropOp34
 70
     1
102
RTVSPost2010Prop35
280
     0
102
RTVSPost2010PropOp35
 70
     1
102
RTVSPost2010Prop36
280
     0
102
RTVSPost2010PropOp36
 70
     1
102
RTVSPost2010Prop37
 90
       50
102
RTVSPost2010PropOp37
 70
     1
102
RTVSPost2010Prop38
140
0.0
102
RTVSPost2010PropOp38
 70
     1
102
RTVSPost2010Prop39
140
1.0
102
RTVSPost2010PropOp39
 70
     1
102
RTVSPost2010Prop40
 90
        0
102
RTVSPost2010PropOp40
 70
     1
102
RTVSPost2010Prop41ColorIndex
 90
       18
102
RTVSPost2010Prop41ColorRGB
 90
        0
102
RTVSPost2010PropOp41
 70
     1
102
RTVSPost2010Prop42
 90
       50
102
RTVSPost2010PropOp42
 70
     1
102
RTVSPost2010Prop43
 90
        3
102
RTVSPost2010PropOp43
 70
     1
102
RTVSPost2010Prop44ColorIndex
 90
        5
102
RTVSPost2010Prop44ColorRGB
 90
      255
102
RTVSPost2010PropOp44
 70
     1
102
RTVSPost2010Prop45
280
     0
102
RTVSPost2010PropOp45
 70
     1
102
RTVSPost2010Prop46
 90
       50
102
RTVSPost2010PropOp46
 70
     1
102
RTVSPost2010Prop47
 90
       50
102
RTVSPost2010PropOp47
 70
     1
102
RTVSPost2010Prop48
 90
       50
102
RTVSPost2010PropOp48
 70
     1
102
RTVSPost2010Prop49
280
     0
102
RTVSPost2010PropOp49
 70
     1
102
RTVSPost2010Prop50
 90
       50
102
RTVSPost2010PropOp50
 70
     1
102
RTVSPost2010Prop51ColorIndex
 90
      256
102
RTVSPost2010Prop51ColorRGB
 90
-16777216
102
RTVSPost2010PropOp51
 70
     0
102
RTVSPost2010Prop52
140
1.0
102
RTVSPost2010PropOp52
 70
     0
102
RTVSPost2010Prop53
 90
        2
102
RTVSPost2010PropOp53
 70
     1
102
RTVSPost2010Prop54
  1
strokes_ogs.tif
102
RTVSPost2010PropOp54
 70
     1
102
RTVSPost2010Prop55
280
     0
102
RTVSPost2010PropOp55
 70
     1
102
RTVSPost2010Prop56
140
1.0
102
RTVSPost2010PropOp56
 70
     1
102
RTVSPost2010Prop57
140
1.0
102
RTVSPost2010PropOp57
 70
     1
102
RTVSPropertyOp0
 70
     1
102
RTVSPropertyOp1
 70
     1
102
RTVSPropertyOp2
 70
     1
102
RTVSPropertyOp3
 70
     1
102
RTVSPropertyOp4
 70
     1
102
RTVSPropertyOp5
 70
     1
102
RTVSPropertyOp6
 70
     1
102
RTVSPropertyOp7
 70
     1
102
RTVSPropertyOp8
 70
     1
102
RTVSPropertyOp9
 70
     1
102
RTVSPropertyOp10
 70
     1
102
RTVSPropertyOp11
 70
     1
102
RTVSPropertyOp12
 70
     1
102
RTVSPropertyOp13
 70
     1
102
RTVSPropertyOp14
 70
     1
102
RTVSPropertyOp15
 70
     1
102
RTVSPropertyOp16
 70
     1
102
RTVSPropertyOp17
 70
     1
102
RTVSPropertyOp18
 70
     1
102
RTVSPropertyOp19
 70
     1
102
RTVSPropertyOp20
 70
     1
102
RTVSPropertyOp21
 70
     1
102
RTVSPropertyOp22
 70
     1
102
RTVSPropertyOp23
 70
     1
102
RTVSPropertyOp24
 70
     1
102
RTVSPropertyOp25
 70
     1
102
RTVSPropertyOp26
 70
     1
102
RTVSPropertyOp27
 70
     1
102
RTVSPropertyOp28
 70
     1
102
RTVSPropertyOp29
 70
     1
102
RTVSPropertyOp30
 70
     1
102
RTVSPropertyOp31
 70
     1
102
RTVSPropertyOp32
 70
     1
102
RTVSPropertyOp33
 70
     1
102
RTVSPropertyOp34
 70
     1
102
RTVSPropertyOp35
 70
     1
102
RTVSPropertyOp36
 70
     1
102
RTVSPropertyOp37
 70
     1
102
RTVSPropertyOp38
 70
     1
102
RTVSPropertyOp39
 70
     1
102
RTVSPropertyOp40
 70
     1
102
RTVSPropertyOp41
 70
     1
102
RTVSPropertyOp42
 70
     1
102
RTVSPropertyOp43
 70
     1
102
RTVSPropertyOp44
 70
     1
102
RTVSPropertyOp45
 70
     1
102
RTVSPropertyOp46
 70
     1
102
RTVSPropertyOp47
 70
     1
102
RTVSPropertyOp48
 70
     1
102
RTVSPropertyOp49
 70
     1
102
RTVSPropertyOp50
 70
     1
102
RTVSPropertyOp51
 70
     0
102
RTVSPropertyOp52
 70
     0
102
RTVSPropertyOp53
 70
     1
102
RTVSPropertyOp54
 70
     1
102
RTVSPropertyOp55
 70
     1
102
RTVSPropertyOp56
 70
     1
102
RTVSPropertyOp57
 70
     1
102
RTVSPropertyOp58
 70
     1
102
RTVSPropertyOp59
 70
     1
102
RTVSPropertyOp60
 70
     1
102
RTVSPropertyOp61
 70
     1
102
RTVSPropertyOp62
 70
     1
  0
XRECORD
  5
9A19
102
{ACAD_REACTORS
330
9A18
102
}
330
9A18
100
AcDbXrecord
280
     1
102
RTVSPost2010Prop28
280
     0
102
RTVSPost2010PropOp28
 70
     1
102
RTVSPost2010Prop29
280
     1
102
RTVSPost2010PropOp29
 70
     1
102
RTVSPost2010Prop30
280
     1
102
RTVSPost2010PropOp30
 70
     1
102
RTVSPost2010Prop31
280
     0
102
RTVSPost2010PropOp31
 70
     1
102
RTVSPost2010Prop32
280
     0
102
RTVSPost2010PropOp32
 70
     1
102
RTVSPost2010Prop33
280
     0
102
RTVSPost2010PropOp33
 70
     1
102
RTVSPost2010Prop34
280
     0
102
RTVSPost2010PropOp34
 70
     1
102
RTVSPost2010Prop35
280
     0
102
RTVSPost2010PropOp35
 70
     1
102
RTVSPost2010Prop36
280
     0
102
RTVSPost2010PropOp36
 70
     1
102
RTVSPost2010Prop37
 90
       50
102
RTVSPost2010PropOp37
 70
     0
102
RTVSPost2010Prop38
140
0.0
102
RTVSPost2010PropOp38
 70
     0
102
RTVSPost2010Prop39
140
1.0
102
RTVSPost2010PropOp39
 70
     0
102
RTVSPost2010Prop40
 90
        0
102
RTVSPost2010PropOp40
 70
     0
102
RTVSPost2010Prop41ColorIndex
 90
       18
102
RTVSPost2010Prop41ColorRGB
 90
        0
102
RTVSPost2010PropOp41
 70
     0
102
RTVSPost2010Prop42
 90
       50
102
RTVSPost2010PropOp42
 70
     0
102
RTVSPost2010Prop43
 90
        3
102
RTVSPost2010PropOp43
 70
     0
102
RTVSPost2010Prop44ColorIndex
 90
        5
102
RTVSPost2010Prop44ColorRGB
 90
      255
102
RTVSPost2010PropOp44
 70
     0
102
RTVSPost2010Prop45
280
     0
102
RTVSPost2010PropOp45
 70
     1
102
RTVSPost2010Prop46
 90
       50
102
RTVSPost2010PropOp46
 70
     0
102
RTVSPost2010Prop47
 90
       50
102
RTVSPost2010PropOp47
 70
     0
102
RTVSPost2010Prop48
 90
       50
102
RTVSPost2010PropOp48
 70
     0
102
RTVSPost2010Prop49
280
     0
102
RTVSPost2010PropOp49
 70
     1
102
RTVSPost2010Prop50
 90
       50
102
RTVSPost2010PropOp50
 70
     0
102
RTVSPost2010Prop51ColorIndex
 90
      256
102
RTVSPost2010Prop51ColorRGB
 90
-16777216
102
RTVSPost2010PropOp51
 70
     0
102
RTVSPost2010Prop52
140
1.0
102
RTVSPost2010PropOp52
 70
     0
102
RTVSPost2010Prop53
 90
        2
102
RTVSPost2010PropOp53
 70
     0
102
RTVSPost2010Prop54
  1
strokes_ogs.tif
102
RTVSPost2010PropOp54
 70
     0
102
RTVSPost2010Prop55
280
     0
102
RTVSPost2010PropOp55
 70
     1
102
RTVSPost2010Prop56
140
1.0
102
RTVSPost2010PropOp56
 70
     0
102
RTVSPost2010Prop57
140
1.0
102
RTVSPost2010PropOp57
 70
     0
102
RTVSPropertyOp0
 70
     0
102
RTVSPropertyOp1
 70
     0
102
RTVSPropertyOp2
 70
     0
102
RTVSPropertyOp3
 70
     0
102
RTVSPropertyOp4
 70
     0
102
RTVSPropertyOp5
 70
     0
102
RTVSPropertyOp6
 70
     0
102
RTVSPropertyOp7
 70
     0
102
RTVSPropertyOp8
 70
     0
102
RTVSPropertyOp9
 70
     0
102
RTVSPropertyOp10
 70
     0
102
RTVSPropertyOp11
 70
     0
102
RTVSPropertyOp12
 70
     0
102
RTVSPropertyOp13
 70
     0
102
RTVSPropertyOp14
 70
     2
102
RTVSPropertyOp15
 70
     0
102
RTVSPropertyOp16
 70
     0
102
RTVSPropertyOp17
 70
     0
102
RTVSPropertyOp18
 70
     0
102
RTVSPropertyOp19
 70
     0
102
RTVSPropertyOp20
 70
     0
102
RTVSPropertyOp21
 70
     0
102
RTVSPropertyOp22
 70
     0
102
RTVSPropertyOp23
 70
     0
102
RTVSPropertyOp24
 70
     0
102
RTVSPropertyOp25
 70
     0
102
RTVSPropertyOp26
 70
     0
102
RTVSPropertyOp27
 70
     0
102
RTVSPropertyOp28
 70
     1
102
RTVSPropertyOp29
 70
     1
102
RTVSPropertyOp30
 70
     1
102
RTVSPropertyOp31
 70
     1
102
RTVSPropertyOp32
 70
     1
102
RTVSPropertyOp33
 70
     1
102
RTVSPropertyOp34
 70
     1
102
RTVSPropertyOp35
 70
     1
102
RTVSPropertyOp36
 70
     1
102
RTVSPropertyOp37
 70
     0
102
RTVSPropertyOp38
 70
     0
102
RTVSPropertyOp39
 70
     0
102
RTVSPropertyOp40
 70
     0
102
RTVSPropertyOp41
 70
     0
102
RTVSPropertyOp42
 70
     0
102
RTVSPropertyOp43
 70
     0
102
RTVSPropertyOp44
 70
     0
102
RTVSPropertyOp45
 70
     1
102
RTVSPropertyOp46
 70
     0
102
RTVSPropertyOp47
 70
     0
102
RTVSPropertyOp48
 70
     0
102
RTVSPropertyOp49
 70
     1
102
RTVSPropertyOp50
 70
     0
102
RTVSPropertyOp51
 70
     0
102
RTVSPropertyOp52
 70
     0
102
RTVSPropertyOp53
 70
     0
102
RTVSPropertyOp54
 70
     0
102
RTVSPropertyOp55
 70
     1
102
RTVSPropertyOp56
 70
     0
102
RTVSPropertyOp57
 70
     0
102
RTVSPropertyOp58
 70
     0
102
RTVSPropertyOp59
 70
     0
102
RTVSPropertyOp60
 70
     0
102
RTVSPropertyOp61
 70
     0
102
RTVSPropertyOp62
 70
     0
  0
XRECORD
  5
9A07
102
{ACAD_REACTORS
330
9A06
102
}
330
9A06
100
AcDbXrecord
280
     1
102
RTVSPost2010Prop28
280
     0
102
RTVSPost2010PropOp28
 70
     1
102
RTVSPost2010Prop29
280
     1
102
RTVSPost2010PropOp29
 70
     1
102
RTVSPost2010Prop30
280
     1
102
RTVSPost2010PropOp30
 70
     1
102
RTVSPost2010Prop31
280
     0
102
RTVSPost2010PropOp31
 70
     1
102
RTVSPost2010Prop32
280
     0
102
RTVSPost2010PropOp32
 70
     1
102
RTVSPost2010Prop33
280
     0
102
RTVSPost2010PropOp33
 70
     1
102
RTVSPost2010Prop34
280
     0
102
RTVSPost2010PropOp34
 70
     1
102
RTVSPost2010Prop35
280
     0
102
RTVSPost2010PropOp35
 70
     1
102
RTVSPost2010Prop36
280
     0
102
RTVSPost2010PropOp36
 70
     1
102
RTVSPost2010Prop37
 90
       50
102
RTVSPost2010PropOp37
 70
     1
102
RTVSPost2010Prop38
140
0.0
102
RTVSPost2010PropOp38
 70
     1
102
RTVSPost2010Prop39
140
1.0
102
RTVSPost2010PropOp39
 70
     1
102
RTVSPost2010Prop40
 90
        0
102
RTVSPost2010PropOp40
 70
     1
102
RTVSPost2010Prop41ColorIndex
 90
       18
102
RTVSPost2010Prop41ColorRGB
 90
        0
102
RTVSPost2010PropOp41
 70
     1
102
RTVSPost2010Prop42
 90
       50
102
RTVSPost2010PropOp42
 70
     1
102
RTVSPost2010Prop43
 90
        3
102
RTVSPost2010PropOp43
 70
     1
102
RTVSPost2010Prop44ColorIndex
 90
        5
102
RTVSPost2010Prop44ColorRGB
 90
      255
102
RTVSPost2010PropOp44
 70
     1
102
RTVSPost2010Prop45
280
     0
102
RTVSPost2010PropOp45
 70
     1
102
RTVSPost2010Prop46
 90
       50
102
RTVSPost2010PropOp46
 70
     1
102
RTVSPost2010Prop47
 90
       50
102
RTVSPost2010PropOp47
 70
     1
102
RTVSPost2010Prop48
 90
       50
102
RTVSPost2010PropOp48
 70
     1
102
RTVSPost2010Prop49
280
     0
102
RTVSPost2010PropOp49
 70
     1
102
RTVSPost2010Prop50
 90
       50
102
RTVSPost2010PropOp50
 70
     1
102
RTVSPost2010Prop51ColorIndex
 90
      256
102
RTVSPost2010Prop51ColorRGB
 90
-16777216
102
RTVSPost2010PropOp51
 70
     0
102
RTVSPost2010Prop52
140
1.0
102
RTVSPost2010PropOp52
 70
     0
102
RTVSPost2010Prop53
 90
        2
102
RTVSPost2010PropOp53
 70
     1
102
RTVSPost2010Prop54
  1
strokes_ogs.tif
102
RTVSPost2010PropOp54
 70
     1
102
RTVSPost2010Prop55
280
     0
102
RTVSPost2010PropOp55
 70
     1
102
RTVSPost2010Prop56
140
1.0
102
RTVSPost2010PropOp56
 70
     1
102
RTVSPost2010Prop57
140
1.0
102
RTVSPost2010PropOp57
 70
     1
102
RTVSPropertyOp0
 70
     1
102
RTVSPropertyOp1
 70
     1
102
RTVSPropertyOp2
 70
     1
102
RTVSPropertyOp3
 70
     1
102
RTVSPropertyOp4
 70
     1
102
RTVSPropertyOp5
 70
     1
102
RTVSPropertyOp6
 70
     1
102
RTVSPropertyOp7
 70
     1
102
RTVSPropertyOp8
 70
     1
102
RTVSPropertyOp9
 70
     1
102
RTVSPropertyOp10
 70
     1
102
RTVSPropertyOp11
 70
     1
102
RTVSPropertyOp12
 70
     1
102
RTVSPropertyOp13
 70
     1
102
RTVSPropertyOp14
 70
     1
102
RTVSPropertyOp15
 70
     1
102
RTVSPropertyOp16
 70
     1
102
RTVSPropertyOp17
 70
     1
102
RTVSPropertyOp18
 70
     1
102
RTVSPropertyOp19
 70
     1
102
RTVSPropertyOp20
 70
     1
102
RTVSPropertyOp21
 70
     1
102
RTVSPropertyOp22
 70
     1
102
RTVSPropertyOp23
 70
     1
102
RTVSPropertyOp24
 70
     1
102
RTVSPropertyOp25
 70
     1
102
RTVSPropertyOp26
 70
     1
102
RTVSPropertyOp27
 70
     1
102
RTVSPropertyOp28
 70
     1
102
RTVSPropertyOp29
 70
     1
102
RTVSPropertyOp30
 70
     1
102
RTVSPropertyOp31
 70
     1
102
RTVSPropertyOp32
 70
     1
102
RTVSPropertyOp33
 70
     1
102
RTVSPropertyOp34
 70
     1
102
RTVSPropertyOp35
 70
     1
102
RTVSPropertyOp36
 70
     1
102
RTVSPropertyOp37
 70
     1
102
RTVSPropertyOp38
 70
     1
102
RTVSPropertyOp39
 70
     1
102
RTVSPropertyOp40
 70
     1
102
RTVSPropertyOp41
 70
     1
102
RTVSPropertyOp42
 70
     1
102
RTVSPropertyOp43
 70
     1
102
RTVSPropertyOp44
 70
     1
102
RTVSPropertyOp45
 70
     1
102
RTVSPropertyOp46
 70
     1
102
RTVSPropertyOp47
 70
     1
102
RTVSPropertyOp48
 70
     1
102
RTVSPropertyOp49
 70
     1
102
RTVSPropertyOp50
 70
     1
102
RTVSPropertyOp51
 70
     0
102
RTVSPropertyOp52
 70
     0
102
RTVSPropertyOp53
 70
     1
102
RTVSPropertyOp54
 70
     1
102
RTVSPropertyOp55
 70
     1
102
RTVSPropertyOp56
 70
     1
102
RTVSPropertyOp57
 70
     1
102
RTVSPropertyOp58
 70
     1
102
RTVSPropertyOp59
 70
     1
102
RTVSPropertyOp60
 70
     1
102
RTVSPropertyOp61
 70
     1
102
RTVSPropertyOp62
 70
     1
  0
XRECORD
  5
99EB
102
{ACAD_REACTORS
330
99EA
102
}
330
99EA
100
AcDbXrecord
280
     1
102
RTVSPost2010Prop28
280
     0
102
RTVSPost2010PropOp28
 70
     1
102
RTVSPost2010Prop29
280
     1
102
RTVSPost2010PropOp29
 70
     1
102
RTVSPost2010Prop30
280
     1
102
RTVSPost2010PropOp30
 70
     1
102
RTVSPost2010Prop31
280
     0
102
RTVSPost2010PropOp31
 70
     1
102
RTVSPost2010Prop32
280
     0
102
RTVSPost2010PropOp32
 70
     1
102
RTVSPost2010Prop33
280
     0
102
RTVSPost2010PropOp33
 70
     1
102
RTVSPost2010Prop34
280
     0
102
RTVSPost2010PropOp34
 70
     1
102
RTVSPost2010Prop35
280
     0
102
RTVSPost2010PropOp35
 70
     1
102
RTVSPost2010Prop36
280
     0
102
RTVSPost2010PropOp36
 70
     1
102
RTVSPost2010Prop37
 90
       50
102
RTVSPost2010PropOp37
 70
     1
102
RTVSPost2010Prop38
140
0.0
102
RTVSPost2010PropOp38
 70
     1
102
RTVSPost2010Prop39
140
1.0
102
RTVSPost2010PropOp39
 70
     1
102
RTVSPost2010Prop40
 90
        0
102
RTVSPost2010PropOp40
 70
     1
102
RTVSPost2010Prop41ColorIndex
 90
       18
102
RTVSPost2010Prop41ColorRGB
 90
        0
102
RTVSPost2010PropOp41
 70
     1
102
RTVSPost2010Prop42
 90
       50
102
RTVSPost2010PropOp42
 70
     1
102
RTVSPost2010Prop43
 90
        3
102
RTVSPost2010PropOp43
 70
     1
102
RTVSPost2010Prop44ColorIndex
 90
        5
102
RTVSPost2010Prop44ColorRGB
 90
      255
102
RTVSPost2010PropOp44
 70
     1
102
RTVSPost2010Prop45
280
     0
102
RTVSPost2010PropOp45
 70
     1
102
RTVSPost2010Prop46
 90
       50
102
RTVSPost2010PropOp46
 70
     1
102
RTVSPost2010Prop47
 90
       50
102
RTVSPost2010PropOp47
 70
     1
102
RTVSPost2010Prop48
 90
       50
102
RTVSPost2010PropOp48
 70
     1
102
RTVSPost2010Prop49
280
     0
102
RTVSPost2010PropOp49
 70
     1
102
RTVSPost2010Prop50
 90
       50
102
RTVSPost2010PropOp50
 70
     1
102
RTVSPost2010Prop51ColorIndex
 90
      256
102
RTVSPost2010Prop51ColorRGB
 90
-16777216
102
RTVSPost2010PropOp51
 70
     0
102
RTVSPost2010Prop52
140
1.0
102
RTVSPost2010PropOp52
 70
     0
102
RTVSPost2010Prop53
 90
        2
102
RTVSPost2010PropOp53
 70
     1
102
RTVSPost2010Prop54
  1
strokes_ogs.tif
102
RTVSPost2010PropOp54
 70
     1
102
RTVSPost2010Prop55
280
     0
102
RTVSPost2010PropOp55
 70
     1
102
RTVSPost2010Prop56
140
1.0
102
RTVSPost2010PropOp56
 70
     1
102
RTVSPost2010Prop57
140
1.0
102
RTVSPost2010PropOp57
 70
     1
102
RTVSPropertyOp0
 70
     1
102
RTVSPropertyOp1
 70
     1
102
RTVSPropertyOp2
 70
     1
102
RTVSPropertyOp3
 70
     1
102
RTVSPropertyOp4
 70
     1
102
RTVSPropertyOp5
 70
     1
102
RTVSPropertyOp6
 70
     1
102
RTVSPropertyOp7
 70
     1
102
RTVSPropertyOp8
 70
     1
102
RTVSPropertyOp9
 70
     1
102
RTVSPropertyOp10
 70
     1
102
RTVSPropertyOp11
 70
     1
102
RTVSPropertyOp12
 70
     1
102
RTVSPropertyOp13
 70
     1
102
RTVSPropertyOp14
 70
     1
102
RTVSPropertyOp15
 70
     1
102
RTVSPropertyOp16
 70
     1
102
RTVSPropertyOp17
 70
     1
102
RTVSPropertyOp18
 70
     1
102
RTVSPropertyOp19
 70
     1
102
RTVSPropertyOp20
 70
     1
102
RTVSPropertyOp21
 70
     1
102
RTVSPropertyOp22
 70
     1
102
RTVSPropertyOp23
 70
     1
102
RTVSPropertyOp24
 70
     1
102
RTVSPropertyOp25
 70
     1
102
RTVSPropertyOp26
 70
     1
102
RTVSPropertyOp27
 70
     1
102
RTVSPropertyOp28
 70
     1
102
RTVSPropertyOp29
 70
     1
102
RTVSPropertyOp30
 70
     1
102
RTVSPropertyOp31
 70
     1
102
RTVSPropertyOp32
 70
     1
102
RTVSPropertyOp33
 70
     1
102
RTVSPropertyOp34
 70
     1
102
RTVSPropertyOp35
 70
     1
102
RTVSPropertyOp36
 70
     1
102
RTVSPropertyOp37
 70
     1
102
RTVSPropertyOp38
 70
     1
102
RTVSPropertyOp39
 70
     1
102
RTVSPropertyOp40
 70
     1
102
RTVSPropertyOp41
 70
     1
102
RTVSPropertyOp42
 70
     1
102
RTVSPropertyOp43
 70
     1
102
RTVSPropertyOp44
 70
     1
102
RTVSPropertyOp45
 70
     1
102
RTVSPropertyOp46
 70
     1
102
RTVSPropertyOp47
 70
     1
102
RTVSPropertyOp48
 70
     1
102
RTVSPropertyOp49
 70
     1
102
RTVSPropertyOp50
 70
     1
102
RTVSPropertyOp51
 70
     0
102
RTVSPropertyOp52
 70
     0
102
RTVSPropertyOp53
 70
     1
102
RTVSPropertyOp54
 70
     1
102
RTVSPropertyOp55
 70
     1
102
RTVSPropertyOp56
 70
     1
102
RTVSPropertyOp57
 70
     1
102
RTVSPropertyOp58
 70
     1
102
RTVSPropertyOp59
 70
     1
102
RTVSPropertyOp60
 70
     1
102
RTVSPropertyOp61
 70
     1
102
RTVSPropertyOp62
 70
     1
  0
XRECORD
  5
99ED
102
{ACAD_REACTORS
330
99EC
102
}
330
99EC
100
AcDbXrecord
280
     1
102
RTVSPost2010Prop28
280
     0
102
RTVSPost2010PropOp28
 70
     1
102
RTVSPost2010Prop29
280
     1
102
RTVSPost2010PropOp29
 70
     1
102
RTVSPost2010Prop30
280
     1
102
RTVSPost2010PropOp30
 70
     1
102
RTVSPost2010Prop31
280
     0
102
RTVSPost2010PropOp31
 70
     1
102
RTVSPost2010Prop32
280
     0
102
RTVSPost2010PropOp32
 70
     1
102
RTVSPost2010Prop33
280
     0
102
RTVSPost2010PropOp33
 70
     1
102
RTVSPost2010Prop34
280
     0
102
RTVSPost2010PropOp34
 70
     1
102
RTVSPost2010Prop35
280
     0
102
RTVSPost2010PropOp35
 70
     1
102
RTVSPost2010Prop36
280
     0
102
RTVSPost2010PropOp36
 70
     1
102
RTVSPost2010Prop37
 90
       50
102
RTVSPost2010PropOp37
 70
     1
102
RTVSPost2010Prop38
140
0.0
102
RTVSPost2010PropOp38
 70
     1
102
RTVSPost2010Prop39
140
1.0
102
RTVSPost2010PropOp39
 70
     1
102
RTVSPost2010Prop40
 90
        0
102
RTVSPost2010PropOp40
 70
     1
102
RTVSPost2010Prop41ColorIndex
 90
       18
102
RTVSPost2010Prop41ColorRGB
 90
        0
102
RTVSPost2010PropOp41
 70
     1
102
RTVSPost2010Prop42
 90
       50
102
RTVSPost2010PropOp42
 70
     1
102
RTVSPost2010Prop43
 90
        3
102
RTVSPost2010PropOp43
 70
     1
102
RTVSPost2010Prop44ColorIndex
 90
        5
102
RTVSPost2010Prop44ColorRGB
 90
      255
102
RTVSPost2010PropOp44
 70
     1
102
RTVSPost2010Prop45
280
     0
102
RTVSPost2010PropOp45
 70
     1
102
RTVSPost2010Prop46
 90
       50
102
RTVSPost2010PropOp46
 70
     1
102
RTVSPost2010Prop47
 90
       50
102
RTVSPost2010PropOp47
 70
     1
102
RTVSPost2010Prop48
 90
       50
102
RTVSPost2010PropOp48
 70
     1
102
RTVSPost2010Prop49
280
     0
102
RTVSPost2010PropOp49
 70
     1
102
RTVSPost2010Prop50
 90
       50
102
RTVSPost2010PropOp50
 70
     1
102
RTVSPost2010Prop51ColorIndex
 90
      256
102
RTVSPost2010Prop51ColorRGB
 90
-16777216
102
RTVSPost2010PropOp51
 70
     0
102
RTVSPost2010Prop52
140
1.0
102
RTVSPost2010PropOp52
 70
     0
102
RTVSPost2010Prop53
 90
        2
102
RTVSPost2010PropOp53
 70
     1
102
RTVSPost2010Prop54
  1
strokes_ogs.tif
102
RTVSPost2010PropOp54
 70
     1
102
RTVSPost2010Prop55
280
     0
102
RTVSPost2010PropOp55
 70
     1
102
RTVSPost2010Prop56
140
1.0
102
RTVSPost2010PropOp56
 70
     1
102
RTVSPost2010Prop57
140
1.0
102
RTVSPost2010PropOp57
 70
     1
102
RTVSPropertyOp0
 70
     1
102
RTVSPropertyOp1
 70
     1
102
RTVSPropertyOp2
 70
     1
102
RTVSPropertyOp3
 70
     1
102
RTVSPropertyOp4
 70
     1
102
RTVSPropertyOp5
 70
     1
102
RTVSPropertyOp6
 70
     1
102
RTVSPropertyOp7
 70
     1
102
RTVSPropertyOp8
 70
     1
102
RTVSPropertyOp9
 70
     1
102
RTVSPropertyOp10
 70
     1
102
RTVSPropertyOp11
 70
     1
102
RTVSPropertyOp12
 70
     1
102
RTVSPropertyOp13
 70
     1
102
RTVSPropertyOp14
 70
     1
102
RTVSPropertyOp15
 70
     1
102
RTVSPropertyOp16
 70
     1
102
RTVSPropertyOp17
 70
     1
102
RTVSPropertyOp18
 70
     1
102
RTVSPropertyOp19
 70
     1
102
RTVSPropertyOp20
 70
     1
102
RTVSPropertyOp21
 70
     1
102
RTVSPropertyOp22
 70
     1
102
RTVSPropertyOp23
 70
     1
102
RTVSPropertyOp24
 70
     1
102
RTVSPropertyOp25
 70
     1
102
RTVSPropertyOp26
 70
     1
102
RTVSPropertyOp27
 70
     1
102
RTVSPropertyOp28
 70
     1
102
RTVSPropertyOp29
 70
     1
102
RTVSPropertyOp30
 70
     1
102
RTVSPropertyOp31
 70
     1
102
RTVSPropertyOp32
 70
     1
102
RTVSPropertyOp33
 70
     1
102
RTVSPropertyOp34
 70
     1
102
RTVSPropertyOp35
 70
     1
102
RTVSPropertyOp36
 70
     1
102
RTVSPropertyOp37
 70
     1
102
RTVSPropertyOp38
 70
     1
102
RTVSPropertyOp39
 70
     1
102
RTVSPropertyOp40
 70
     1
102
RTVSPropertyOp41
 70
     1
102
RTVSPropertyOp42
 70
     1
102
RTVSPropertyOp43
 70
     1
102
RTVSPropertyOp44
 70
     1
102
RTVSPropertyOp45
 70
     1
102
RTVSPropertyOp46
 70
     1
102
RTVSPropertyOp47
 70
     1
102
RTVSPropertyOp48
 70
     1
102
RTVSPropertyOp49
 70
     1
102
RTVSPropertyOp50
 70
     1
102
RTVSPropertyOp51
 70
     0
102
RTVSPropertyOp52
 70
     0
102
RTVSPropertyOp53
 70
     1
102
RTVSPropertyOp54
 70
     1
102
RTVSPropertyOp55
 70
     1
102
RTVSPropertyOp56
 70
     1
102
RTVSPropertyOp57
 70
     1
102
RTVSPropertyOp58
 70
     1
102
RTVSPropertyOp59
 70
     1
102
RTVSPropertyOp60
 70
     1
102
RTVSPropertyOp61
 70
     1
102
RTVSPropertyOp62
 70
     1
  0
XRECORD
  5
99EF
102
{ACAD_REACTORS
330
99EE
102
}
330
99EE
100
AcDbXrecord
280
     1
102
RTVSPost2010Prop28
280
     0
102
RTVSPost2010PropOp28
 70
     1
102
RTVSPost2010Prop29
280
     1
102
RTVSPost2010PropOp29
 70
     1
102
RTVSPost2010Prop30
280
     1
102
RTVSPost2010PropOp30
 70
     1
102
RTVSPost2010Prop31
280
     0
102
RTVSPost2010PropOp31
 70
     1
102
RTVSPost2010Prop32
280
     0
102
RTVSPost2010PropOp32
 70
     1
102
RTVSPost2010Prop33
280
     0
102
RTVSPost2010PropOp33
 70
     1
102
RTVSPost2010Prop34
280
     0
102
RTVSPost2010PropOp34
 70
     1
102
RTVSPost2010Prop35
280
     0
102
RTVSPost2010PropOp35
 70
     1
102
RTVSPost2010Prop36
280
     0
102
RTVSPost2010PropOp36
 70
     1
102
RTVSPost2010Prop37
 90
       50
102
RTVSPost2010PropOp37
 70
     1
102
RTVSPost2010Prop38
140
0.0
102
RTVSPost2010PropOp38
 70
     1
102
RTVSPost2010Prop39
140
1.0
102
RTVSPost2010PropOp39
 70
     1
102
RTVSPost2010Prop40
 90
        0
102
RTVSPost2010PropOp40
 70
     1
102
RTVSPost2010Prop41ColorIndex
 90
       18
102
RTVSPost2010Prop41ColorRGB
 90
        0
102
RTVSPost2010PropOp41
 70
     1
102
RTVSPost2010Prop42
 90
       50
102
RTVSPost2010PropOp42
 70
     1
102
RTVSPost2010Prop43
 90
        3
102
RTVSPost2010PropOp43
 70
     1
102
RTVSPost2010Prop44ColorIndex
 90
        5
102
RTVSPost2010Prop44ColorRGB
 90
      255
102
RTVSPost2010PropOp44
 70
     1
102
RTVSPost2010Prop45
280
     0
102
RTVSPost2010PropOp45
 70
     1
102
RTVSPost2010Prop46
 90
       50
102
RTVSPost2010PropOp46
 70
     1
102
RTVSPost2010Prop47
 90
       50
102
RTVSPost2010PropOp47
 70
     1
102
RTVSPost2010Prop48
 90
       50
102
RTVSPost2010PropOp48
 70
     1
102
RTVSPost2010Prop49
280
     0
102
RTVSPost2010PropOp49
 70
     1
102
RTVSPost2010Prop50
 90
       50
102
RTVSPost2010PropOp50
 70
     1
102
RTVSPost2010Prop51ColorIndex
 90
      256
102
RTVSPost2010Prop51ColorRGB
 90
-16777216
102
RTVSPost2010PropOp51
 70
     0
102
RTVSPost2010Prop52
140
1.0
102
RTVSPost2010PropOp52
 70
     0
102
RTVSPost2010Prop53
 90
        2
102
RTVSPost2010PropOp53
 70
     1
102
RTVSPost2010Prop54
  1
strokes_ogs.tif
102
RTVSPost2010PropOp54
 70
     1
102
RTVSPost2010Prop55
280
     0
102
RTVSPost2010PropOp55
 70
     1
102
RTVSPost2010Prop56
140
1.0
102
RTVSPost2010PropOp56
 70
     1
102
RTVSPost2010Prop57
140
1.0
102
RTVSPost2010PropOp57
 70
     1
102
RTVSPropertyOp0
 70
     1
102
RTVSPropertyOp1
 70
     1
102
RTVSPropertyOp2
 70
     1
102
RTVSPropertyOp3
 70
     1
102
RTVSPropertyOp4
 70
     1
102
RTVSPropertyOp5
 70
     1
102
RTVSPropertyOp6
 70
     1
102
RTVSPropertyOp7
 70
     1
102
RTVSPropertyOp8
 70
     1
102
RTVSPropertyOp9
 70
     1
102
RTVSPropertyOp10
 70
     1
102
RTVSPropertyOp11
 70
     1
102
RTVSPropertyOp12
 70
     1
102
RTVSPropertyOp13
 70
     1
102
RTVSPropertyOp14
 70
     1
102
RTVSPropertyOp15
 70
     1
102
RTVSPropertyOp16
 70
     1
102
RTVSPropertyOp17
 70
     1
102
RTVSPropertyOp18
 70
     1
102
RTVSPropertyOp19
 70
     1
102
RTVSPropertyOp20
 70
     1
102
RTVSPropertyOp21
 70
     1
102
RTVSPropertyOp22
 70
     1
102
RTVSPropertyOp23
 70
     1
102
RTVSPropertyOp24
 70
     1
102
RTVSPropertyOp25
 70
     1
102
RTVSPropertyOp26
 70
     1
102
RTVSPropertyOp27
 70
     1
102
RTVSPropertyOp28
 70
     1
102
RTVSPropertyOp29
 70
     1
102
RTVSPropertyOp30
 70
     1
102
RTVSPropertyOp31
 70
     1
102
RTVSPropertyOp32
 70
     1
102
RTVSPropertyOp33
 70
     1
102
RTVSPropertyOp34
 70
     1
102
RTVSPropertyOp35
 70
     1
102
RTVSPropertyOp36
 70
     1
102
RTVSPropertyOp37
 70
     1
102
RTVSPropertyOp38
 70
     1
102
RTVSPropertyOp39
 70
     1
102
RTVSPropertyOp40
 70
     1
102
RTVSPropertyOp41
 70
     1
102
RTVSPropertyOp42
 70
     1
102
RTVSPropertyOp43
 70
     1
102
RTVSPropertyOp44
 70
     1
102
RTVSPropertyOp45
 70
     1
102
RTVSPropertyOp46
 70
     1
102
RTVSPropertyOp47
 70
     1
102
RTVSPropertyOp48
 70
     1
102
RTVSPropertyOp49
 70
     1
102
RTVSPropertyOp50
 70
     1
102
RTVSPropertyOp51
 70
     0
102
RTVSPropertyOp52
 70
     0
102
RTVSPropertyOp53
 70
     1
102
RTVSPropertyOp54
 70
     1
102
RTVSPropertyOp55
 70
     1
102
RTVSPropertyOp56
 70
     1
102
RTVSPropertyOp57
 70
     1
102
RTVSPropertyOp58
 70
     1
102
RTVSPropertyOp59
 70
     1
102
RTVSPropertyOp60
 70
     1
102
RTVSPropertyOp61
 70
     1
102
RTVSPropertyOp62
 70
     1
  0
XRECORD
  5
99F1
102
{ACAD_REACTORS
330
99F0
102
}
330
99F0
100
AcDbXrecord
280
     1
102
RTVSPost2010Prop28
280
     0
102
RTVSPost2010PropOp28
 70
     1
102
RTVSPost2010Prop29
280
     1
102
RTVSPost2010PropOp29
 70
     1
102
RTVSPost2010Prop30
280
     1
102
RTVSPost2010PropOp30
 70
     1
102
RTVSPost2010Prop31
280
     0
102
RTVSPost2010PropOp31
 70
     1
102
RTVSPost2010Prop32
280
     0
102
RTVSPost2010PropOp32
 70
     1
102
RTVSPost2010Prop33
280
     0
102
RTVSPost2010PropOp33
 70
     1
102
RTVSPost2010Prop34
280
     0
102
RTVSPost2010PropOp34
 70
     1
102
RTVSPost2010Prop35
280
     0
102
RTVSPost2010PropOp35
 70
     1
102
RTVSPost2010Prop36
280
     0
102
RTVSPost2010PropOp36
 70
     1
102
RTVSPost2010Prop37
 90
       50
102
RTVSPost2010PropOp37
 70
     1
102
RTVSPost2010Prop38
140
0.0
102
RTVSPost2010PropOp38
 70
     1
102
RTVSPost2010Prop39
140
1.0
102
RTVSPost2010PropOp39
 70
     1
102
RTVSPost2010Prop40
 90
        0
102
RTVSPost2010PropOp40
 70
     1
102
RTVSPost2010Prop41ColorIndex
 90
       18
102
RTVSPost2010Prop41ColorRGB
 90
        0
102
RTVSPost2010PropOp41
 70
     1
102
RTVSPost2010Prop42
 90
       50
102
RTVSPost2010PropOp42
 70
     1
102
RTVSPost2010Prop43
 90
        3
102
RTVSPost2010PropOp43
 70
     1
102
RTVSPost2010Prop44ColorIndex
 90
        5
102
RTVSPost2010Prop44ColorRGB
 90
      255
102
RTVSPost2010PropOp44
 70
     1
102
RTVSPost2010Prop45
280
     0
102
RTVSPost2010PropOp45
 70
     1
102
RTVSPost2010Prop46
 90
       50
102
RTVSPost2010PropOp46
 70
     1
102
RTVSPost2010Prop47
 90
       50
102
RTVSPost2010PropOp47
 70
     1
102
RTVSPost2010Prop48
 90
       50
102
RTVSPost2010PropOp48
 70
     1
102
RTVSPost2010Prop49
280
     0
102
RTVSPost2010PropOp49
 70
     1
102
RTVSPost2010Prop50
 90
       50
102
RTVSPost2010PropOp50
 70
     1
102
RTVSPost2010Prop51ColorIndex
 90
      256
102
RTVSPost2010Prop51ColorRGB
 90
-16777216
102
RTVSPost2010PropOp51
 70
     0
102
RTVSPost2010Prop52
140
1.0
102
RTVSPost2010PropOp52
 70
     0
102
RTVSPost2010Prop53
 90
        2
102
RTVSPost2010PropOp53
 70
     1
102
RTVSPost2010Prop54
  1
strokes_ogs.tif
102
RTVSPost2010PropOp54
 70
     1
102
RTVSPost2010Prop55
280
     0
102
RTVSPost2010PropOp55
 70
     1
102
RTVSPost2010Prop56
140
1.0
102
RTVSPost2010PropOp56
 70
     1
102
RTVSPost2010Prop57
140
1.0
102
RTVSPost2010PropOp57
 70
     1
102
RTVSPropertyOp0
 70
     1
102
RTVSPropertyOp1
 70
     1
102
RTVSPropertyOp2
 70
     1
102
RTVSPropertyOp3
 70
     1
102
RTVSPropertyOp4
 70
     1
102
RTVSPropertyOp5
 70
     1
102
RTVSPropertyOp6
 70
     1
102
RTVSPropertyOp7
 70
     1
102
RTVSPropertyOp8
 70
     1
102
RTVSPropertyOp9
 70
     1
102
RTVSPropertyOp10
 70
     1
102
RTVSPropertyOp11
 70
     1
102
RTVSPropertyOp12
 70
     1
102
RTVSPropertyOp13
 70
     1
102
RTVSPropertyOp14
 70
     1
102
RTVSPropertyOp15
 70
     1
102
RTVSPropertyOp16
 70
     1
102
RTVSPropertyOp17
 70
     1
102
RTVSPropertyOp18
 70
     1
102
RTVSPropertyOp19
 70
     1
102
RTVSPropertyOp20
 70
     1
102
RTVSPropertyOp21
 70
     1
102
RTVSPropertyOp22
 70
     1
102
RTVSPropertyOp23
 70
     1
102
RTVSPropertyOp24
 70
     1
102
RTVSPropertyOp25
 70
     1
102
RTVSPropertyOp26
 70
     1
102
RTVSPropertyOp27
 70
     1
102
RTVSPropertyOp28
 70
     1
102
RTVSPropertyOp29
 70
     1
102
RTVSPropertyOp30
 70
     1
102
RTVSPropertyOp31
 70
     1
102
RTVSPropertyOp32
 70
     1
102
RTVSPropertyOp33
 70
     1
102
RTVSPropertyOp34
 70
     1
102
RTVSPropertyOp35
 70
     1
102
RTVSPropertyOp36
 70
     1
102
RTVSPropertyOp37
 70
     1
102
RTVSPropertyOp38
 70
     1
102
RTVSPropertyOp39
 70
     1
102
RTVSPropertyOp40
 70
     1
102
RTVSPropertyOp41
 70
     1
102
RTVSPropertyOp42
 70
     1
102
RTVSPropertyOp43
 70
     1
102
RTVSPropertyOp44
 70
     1
102
RTVSPropertyOp45
 70
     1
102
RTVSPropertyOp46
 70
     1
102
RTVSPropertyOp47
 70
     1
102
RTVSPropertyOp48
 70
     1
102
RTVSPropertyOp49
 70
     1
102
RTVSPropertyOp50
 70
     1
102
RTVSPropertyOp51
 70
     0
102
RTVSPropertyOp52
 70
     0
102
RTVSPropertyOp53
 70
     1
102
RTVSPropertyOp54
 70
     1
102
RTVSPropertyOp55
 70
     1
102
RTVSPropertyOp56
 70
     1
102
RTVSPropertyOp57
 70
     1
102
RTVSPropertyOp58
 70
     1
102
RTVSPropertyOp59
 70
     1
102
RTVSPropertyOp60
 70
     1
102
RTVSPropertyOp61
 70
     1
102
RTVSPropertyOp62
 70
     1
  0
XRECORD
  5
99F9
102
{ACAD_REACTORS
330
99F8
102
}
330
99F8
100
AcDbXrecord
280
     1
102
RTVSPost2010Prop28
280
     0
102
RTVSPost2010PropOp28
 70
     1
102
RTVSPost2010Prop29
280
     1
102
RTVSPost2010PropOp29
 70
     1
102
RTVSPost2010Prop30
280
     1
102
RTVSPost2010PropOp30
 70
     1
102
RTVSPost2010Prop31
280
     0
102
RTVSPost2010PropOp31
 70
     1
102
RTVSPost2010Prop32
280
     0
102
RTVSPost2010PropOp32
 70
     1
102
RTVSPost2010Prop33
280
     0
102
RTVSPost2010PropOp33
 70
     1
102
RTVSPost2010Prop34
280
     0
102
RTVSPost2010PropOp34
 70
     1
102
RTVSPost2010Prop35
280
     0
102
RTVSPost2010PropOp35
 70
     1
102
RTVSPost2010Prop36
280
     0
102
RTVSPost2010PropOp36
 70
     1
102
RTVSPost2010Prop37
 90
       50
102
RTVSPost2010PropOp37
 70
     1
102
RTVSPost2010Prop38
140
0.0
102
RTVSPost2010PropOp38
 70
     1
102
RTVSPost2010Prop39
140
1.0
102
RTVSPost2010PropOp39
 70
     1
102
RTVSPost2010Prop40
 90
        0
102
RTVSPost2010PropOp40
 70
     1
102
RTVSPost2010Prop41ColorIndex
 90
       18
102
RTVSPost2010Prop41ColorRGB
 90
        0
102
RTVSPost2010PropOp41
 70
     1
102
RTVSPost2010Prop42
 90
       50
102
RTVSPost2010PropOp42
 70
     1
102
RTVSPost2010Prop43
 90
        3
102
RTVSPost2010PropOp43
 70
     1
102
RTVSPost2010Prop44ColorIndex
 90
        5
102
RTVSPost2010Prop44ColorRGB
 90
      255
102
RTVSPost2010PropOp44
 70
     1
102
RTVSPost2010Prop45
280
     0
102
RTVSPost2010PropOp45
 70
     1
102
RTVSPost2010Prop46
 90
       50
102
RTVSPost2010PropOp46
 70
     1
102
RTVSPost2010Prop47
 90
       50
102
RTVSPost2010PropOp47
 70
     1
102
RTVSPost2010Prop48
 90
       50
102
RTVSPost2010PropOp48
 70
     1
102
RTVSPost2010Prop49
280
     0
102
RTVSPost2010PropOp49
 70
     1
102
RTVSPost2010Prop50
 90
       50
102
RTVSPost2010PropOp50
 70
     1
102
RTVSPost2010Prop51ColorIndex
 90
      256
102
RTVSPost2010Prop51ColorRGB
 90
-16777216
102
RTVSPost2010PropOp51
 70
     0
102
RTVSPost2010Prop52
140
1.0
102
RTVSPost2010PropOp52
 70
     0
102
RTVSPost2010Prop53
 90
        2
102
RTVSPost2010PropOp53
 70
     1
102
RTVSPost2010Prop54
  1
strokes_ogs.tif
102
RTVSPost2010PropOp54
 70
     1
102
RTVSPost2010Prop55
280
     0
102
RTVSPost2010PropOp55
 70
     1
102
RTVSPost2010Prop56
140
1.0
102
RTVSPost2010PropOp56
 70
     1
102
RTVSPost2010Prop57
140
1.0
102
RTVSPost2010PropOp57
 70
     1
102
RTVSPropertyOp0
 70
     1
102
RTVSPropertyOp1
 70
     1
102
RTVSPropertyOp2
 70
     1
102
RTVSPropertyOp3
 70
     1
102
RTVSPropertyOp4
 70
     1
102
RTVSPropertyOp5
 70
     1
102
RTVSPropertyOp6
 70
     1
102
RTVSPropertyOp7
 70
     1
102
RTVSPropertyOp8
 70
     1
102
RTVSPropertyOp9
 70
     1
102
RTVSPropertyOp10
 70
     1
102
RTVSPropertyOp11
 70
     1
102
RTVSPropertyOp12
 70
     1
102
RTVSPropertyOp13
 70
     1
102
RTVSPropertyOp14
 70
     1
102
RTVSPropertyOp15
 70
     1
102
RTVSPropertyOp16
 70
     1
102
RTVSPropertyOp17
 70
     1
102
RTVSPropertyOp18
 70
     1
102
RTVSPropertyOp19
 70
     1
102
RTVSPropertyOp20
 70
     1
102
RTVSPropertyOp21
 70
     1
102
RTVSPropertyOp22
 70
     1
102
RTVSPropertyOp23
 70
     1
102
RTVSPropertyOp24
 70
     1
102
RTVSPropertyOp25
 70
     1
102
RTVSPropertyOp26
 70
     1
102
RTVSPropertyOp27
 70
     1
102
RTVSPropertyOp28
 70
     1
102
RTVSPropertyOp29
 70
     1
102
RTVSPropertyOp30
 70
     1
102
RTVSPropertyOp31
 70
     1
102
RTVSPropertyOp32
 70
     1
102
RTVSPropertyOp33
 70
     1
102
RTVSPropertyOp34
 70
     1
102
RTVSPropertyOp35
 70
     1
102
RTVSPropertyOp36
 70
     1
102
RTVSPropertyOp37
 70
     1
102
RTVSPropertyOp38
 70
     1
102
RTVSPropertyOp39
 70
     1
102
RTVSPropertyOp40
 70
     1
102
RTVSPropertyOp41
 70
     1
102
RTVSPropertyOp42
 70
     1
102
RTVSPropertyOp43
 70
     1
102
RTVSPropertyOp44
 70
     1
102
RTVSPropertyOp45
 70
     1
102
RTVSPropertyOp46
 70
     1
102
RTVSPropertyOp47
 70
     1
102
RTVSPropertyOp48
 70
     1
102
RTVSPropertyOp49
 70
     1
102
RTVSPropertyOp50
 70
     1
102
RTVSPropertyOp51
 70
     0
102
RTVSPropertyOp52
 70
     0
102
RTVSPropertyOp53
 70
     1
102
RTVSPropertyOp54
 70
     1
102
RTVSPropertyOp55
 70
     1
102
RTVSPropertyOp56
 70
     1
102
RTVSPropertyOp57
 70
     1
102
RTVSPropertyOp58
 70
     1
102
RTVSPropertyOp59
 70
     1
102
RTVSPropertyOp60
 70
     1
102
RTVSPropertyOp61
 70
     1
102
RTVSPropertyOp62
 70
     1
  0
XRECORD
  5
9A15
102
{ACAD_REACTORS
330
9A14
102
}
330
9A14
100
AcDbXrecord
280
     1
102
RTVSPost2010Prop28
280
     0
102
RTVSPost2010PropOp28
 70
     1
102
RTVSPost2010Prop29
280
     1
102
RTVSPost2010PropOp29
 70
     1
102
RTVSPost2010Prop30
280
     1
102
RTVSPost2010PropOp30
 70
     1
102
RTVSPost2010Prop31
280
     0
102
RTVSPost2010PropOp31
 70
     1
102
RTVSPost2010Prop32
280
     0
102
RTVSPost2010PropOp32
 70
     1
102
RTVSPost2010Prop33
280
     0
102
RTVSPost2010PropOp33
 70
     1
102
RTVSPost2010Prop34
280
     0
102
RTVSPost2010PropOp34
 70
     1
102
RTVSPost2010Prop35
280
     0
102
RTVSPost2010PropOp35
 70
     1
102
RTVSPost2010Prop36
280
     0
102
RTVSPost2010PropOp36
 70
     1
102
RTVSPost2010Prop37
 90
       50
102
RTVSPost2010PropOp37
 70
     0
102
RTVSPost2010Prop38
140
0.0
102
RTVSPost2010PropOp38
 70
     0
102
RTVSPost2010Prop39
140
1.0
102
RTVSPost2010PropOp39
 70
     0
102
RTVSPost2010Prop40
 90
        0
102
RTVSPost2010PropOp40
 70
     0
102
RTVSPost2010Prop41ColorIndex
 90
       18
102
RTVSPost2010Prop41ColorRGB
 90
        0
102
RTVSPost2010PropOp41
 70
     0
102
RTVSPost2010Prop42
 90
       50
102
RTVSPost2010PropOp42
 70
     0
102
RTVSPost2010Prop43
 90
        3
102
RTVSPost2010PropOp43
 70
     0
102
RTVSPost2010Prop44ColorIndex
 90
        5
102
RTVSPost2010Prop44ColorRGB
 90
      255
102
RTVSPost2010PropOp44
 70
     0
102
RTVSPost2010Prop45
280
     0
102
RTVSPost2010PropOp45
 70
     1
102
RTVSPost2010Prop46
 90
       50
102
RTVSPost2010PropOp46
 70
     0
102
RTVSPost2010Prop47
 90
       50
102
RTVSPost2010PropOp47
 70
     0
102
RTVSPost2010Prop48
 90
       50
102
RTVSPost2010PropOp48
 70
     0
102
RTVSPost2010Prop49
280
     0
102
RTVSPost2010PropOp49
 70
     1
102
RTVSPost2010Prop50
 90
       50
102
RTVSPost2010PropOp50
 70
     0
102
RTVSPost2010Prop51ColorIndex
 90
      256
102
RTVSPost2010Prop51ColorRGB
 90
-16777216
102
RTVSPost2010PropOp51
 70
     0
102
RTVSPost2010Prop52
140
1.0
102
RTVSPost2010PropOp52
 70
     0
102
RTVSPost2010Prop53
 90
        2
102
RTVSPost2010PropOp53
 70
     0
102
RTVSPost2010Prop54
  1
strokes_ogs.tif
102
RTVSPost2010PropOp54
 70
     0
102
RTVSPost2010Prop55
280
     0
102
RTVSPost2010PropOp55
 70
     1
102
RTVSPost2010Prop56
140
1.0
102
RTVSPost2010PropOp56
 70
     0
102
RTVSPost2010Prop57
140
1.0
102
RTVSPost2010PropOp57
 70
     0
102
RTVSPropertyOp0
 70
     0
102
RTVSPropertyOp1
 70
     0
102
RTVSPropertyOp2
 70
     0
102
RTVSPropertyOp3
 70
     0
102
RTVSPropertyOp4
 70
     0
102
RTVSPropertyOp5
 70
     0
102
RTVSPropertyOp6
 70
     0
102
RTVSPropertyOp7
 70
     0
102
RTVSPropertyOp8
 70
     0
102
RTVSPropertyOp9
 70
     0
102
RTVSPropertyOp10
 70
     0
102
RTVSPropertyOp11
 70
     0
102
RTVSPropertyOp12
 70
     0
102
RTVSPropertyOp13
 70
     0
102
RTVSPropertyOp14
 70
     2
102
RTVSPropertyOp15
 70
     0
102
RTVSPropertyOp16
 70
     0
102
RTVSPropertyOp17
 70
     0
102
RTVSPropertyOp18
 70
     0
102
RTVSPropertyOp19
 70
     0
102
RTVSPropertyOp20
 70
     0
102
RTVSPropertyOp21
 70
     0
102
RTVSPropertyOp22
 70
     0
102
RTVSPropertyOp23
 70
     0
102
RTVSPropertyOp24
 70
     0
102
RTVSPropertyOp25
 70
     0
102
RTVSPropertyOp26
 70
     0
102
RTVSPropertyOp27
 70
     0
102
RTVSPropertyOp28
 70
     1
102
RTVSPropertyOp29
 70
     1
102
RTVSPropertyOp30
 70
     1
102
RTVSPropertyOp31
 70
     1
102
RTVSPropertyOp32
 70
     1
102
RTVSPropertyOp33
 70
     1
102
RTVSPropertyOp34
 70
     1
102
RTVSPropertyOp35
 70
     1
102
RTVSPropertyOp36
 70
     1
102
RTVSPropertyOp37
 70
     0
102
RTVSPropertyOp38
 70
     0
102
RTVSPropertyOp39
 70
     0
102
RTVSPropertyOp40
 70
     0
102
RTVSPropertyOp41
 70
     0
102
RTVSPropertyOp42
 70
     0
102
RTVSPropertyOp43
 70
     0
102
RTVSPropertyOp44
 70
     0
102
RTVSPropertyOp45
 70
     1
102
RTVSPropertyOp46
 70
     0
102
RTVSPropertyOp47
 70
     0
102
RTVSPropertyOp48
 70
     0
102
RTVSPropertyOp49
 70
     1
102
RTVSPropertyOp50
 70
     0
102
RTVSPropertyOp51
 70
     0
102
RTVSPropertyOp52
 70
     0
102
RTVSPropertyOp53
 70
     0
102
RTVSPropertyOp54
 70
     0
102
RTVSPropertyOp55
 70
     1
102
RTVSPropertyOp56
 70
     0
102
RTVSPropertyOp57
 70
     0
102
RTVSPropertyOp58
 70
     0
102
RTVSPropertyOp59
 70
     0
102
RTVSPropertyOp60
 70
     0
102
RTVSPropertyOp61
 70
     0
102
RTVSPropertyOp62
 70
     0
  0
XRECORD
  5
9A05
102
{ACAD_REACTORS
330
9A04
102
}
330
9A04
100
AcDbXrecord
280
     1
102
RTVSPost2010Prop28
280
     0
102
RTVSPost2010PropOp28
 70
     1
102
RTVSPost2010Prop29
280
     1
102
RTVSPost2010PropOp29
 70
     1
102
RTVSPost2010Prop30
280
     1
102
RTVSPost2010PropOp30
 70
     1
102
RTVSPost2010Prop31
280
     0
102
RTVSPost2010PropOp31
 70
     1
102
RTVSPost2010Prop32
280
     0
102
RTVSPost2010PropOp32
 70
     1
102
RTVSPost2010Prop33
280
     0
102
RTVSPost2010PropOp33
 70
     1
102
RTVSPost2010Prop34
280
     0
102
RTVSPost2010PropOp34
 70
     1
102
RTVSPost2010Prop35
280
     0
102
RTVSPost2010PropOp35
 70
     1
102
RTVSPost2010Prop36
280
     0
102
RTVSPost2010PropOp36
 70
     1
102
RTVSPost2010Prop37
 90
       50
102
RTVSPost2010PropOp37
 70
     1
102
RTVSPost2010Prop38
140
0.0
102
RTVSPost2010PropOp38
 70
     1
102
RTVSPost2010Prop39
140
1.0
102
RTVSPost2010PropOp39
 70
     1
102
RTVSPost2010Prop40
 90
        0
102
RTVSPost2010PropOp40
 70
     1
102
RTVSPost2010Prop41ColorIndex
 90
       18
102
RTVSPost2010Prop41ColorRGB
 90
        0
102
RTVSPost2010PropOp41
 70
     1
102
RTVSPost2010Prop42
 90
       50
102
RTVSPost2010PropOp42
 70
     1
102
RTVSPost2010Prop43
 90
        3
102
RTVSPost2010PropOp43
 70
     1
102
RTVSPost2010Prop44ColorIndex
 90
        5
102
RTVSPost2010Prop44ColorRGB
 90
      255
102
RTVSPost2010PropOp44
 70
     1
102
RTVSPost2010Prop45
280
     0
102
RTVSPost2010PropOp45
 70
     1
102
RTVSPost2010Prop46
 90
       50
102
RTVSPost2010PropOp46
 70
     1
102
RTVSPost2010Prop47
 90
       50
102
RTVSPost2010PropOp47
 70
     1
102
RTVSPost2010Prop48
 90
       50
102
RTVSPost2010PropOp48
 70
     1
102
RTVSPost2010Prop49
280
     0
102
RTVSPost2010PropOp49
 70
     1
102
RTVSPost2010Prop50
 90
       50
102
RTVSPost2010PropOp50
 70
     1
102
RTVSPost2010Prop51ColorIndex
 90
      256
102
RTVSPost2010Prop51ColorRGB
 90
-16777216
102
RTVSPost2010PropOp51
 70
     0
102
RTVSPost2010Prop52
140
1.0
102
RTVSPost2010PropOp52
 70
     0
102
RTVSPost2010Prop53
 90
        2
102
RTVSPost2010PropOp53
 70
     1
102
RTVSPost2010Prop54
  1
strokes_ogs.tif
102
RTVSPost2010PropOp54
 70
     1
102
RTVSPost2010Prop55
280
     0
102
RTVSPost2010PropOp55
 70
     1
102
RTVSPost2010Prop56
140
1.0
102
RTVSPost2010PropOp56
 70
     1
102
RTVSPost2010Prop57
140
1.0
102
RTVSPost2010PropOp57
 70
     1
102
RTVSPropertyOp0
 70
     1
102
RTVSPropertyOp1
 70
     1
102
RTVSPropertyOp2
 70
     1
102
RTVSPropertyOp3
 70
     1
102
RTVSPropertyOp4
 70
     1
102
RTVSPropertyOp5
 70
     1
102
RTVSPropertyOp6
 70
     1
102
RTVSPropertyOp7
 70
     1
102
RTVSPropertyOp8
 70
     1
102
RTVSPropertyOp9
 70
     1
102
RTVSPropertyOp10
 70
     1
102
RTVSPropertyOp11
 70
     1
102
RTVSPropertyOp12
 70
     1
102
RTVSPropertyOp13
 70
     1
102
RTVSPropertyOp14
 70
     1
102
RTVSPropertyOp15
 70
     1
102
RTVSPropertyOp16
 70
     1
102
RTVSPropertyOp17
 70
     1
102
RTVSPropertyOp18
 70
     1
102
RTVSPropertyOp19
 70
     1
102
RTVSPropertyOp20
 70
     1
102
RTVSPropertyOp21
 70
     1
102
RTVSPropertyOp22
 70
     1
102
RTVSPropertyOp23
 70
     1
102
RTVSPropertyOp24
 70
     1
102
RTVSPropertyOp25
 70
     1
102
RTVSPropertyOp26
 70
     1
102
RTVSPropertyOp27
 70
     1
102
RTVSPropertyOp28
 70
     1
102
RTVSPropertyOp29
 70
     1
102
RTVSPropertyOp30
 70
     1
102
RTVSPropertyOp31
 70
     1
102
RTVSPropertyOp32
 70
     1
102
RTVSPropertyOp33
 70
     1
102
RTVSPropertyOp34
 70
     1
102
RTVSPropertyOp35
 70
     1
102
RTVSPropertyOp36
 70
     1
102
RTVSPropertyOp37
 70
     1
102
RTVSPropertyOp38
 70
     1
102
RTVSPropertyOp39
 70
     1
102
RTVSPropertyOp40
 70
     1
102
RTVSPropertyOp41
 70
     1
102
RTVSPropertyOp42
 70
     1
102
RTVSPropertyOp43
 70
     1
102
RTVSPropertyOp44
 70
     1
102
RTVSPropertyOp45
 70
     1
102
RTVSPropertyOp46
 70
     1
102
RTVSPropertyOp47
 70
     1
102
RTVSPropertyOp48
 70
     1
102
RTVSPropertyOp49
 70
     1
102
RTVSPropertyOp50
 70
     1
102
RTVSPropertyOp51
 70
     0
102
RTVSPropertyOp52
 70
     0
102
RTVSPropertyOp53
 70
     1
102
RTVSPropertyOp54
 70
     1
102
RTVSPropertyOp55
 70
     1
102
RTVSPropertyOp56
 70
     1
102
RTVSPropertyOp57
 70
     1
102
RTVSPropertyOp58
 70
     1
102
RTVSPropertyOp59
 70
     1
102
RTVSPropertyOp60
 70
     1
102
RTVSPropertyOp61
 70
     1
102
RTVSPropertyOp62
 70
     1
  0
XRECORD
  5
9A17
102
{ACAD_REACTORS
330
9A16
102
}
330
9A16
100
AcDbXrecord
280
     1
102
RTVSPost2010Prop28
280
     0
102
RTVSPost2010PropOp28
 70
     1
102
RTVSPost2010Prop29
280
     1
102
RTVSPost2010PropOp29
 70
     1
102
RTVSPost2010Prop30
280
     1
102
RTVSPost2010PropOp30
 70
     1
102
RTVSPost2010Prop31
280
     0
102
RTVSPost2010PropOp31
 70
     1
102
RTVSPost2010Prop32
280
     0
102
RTVSPost2010PropOp32
 70
     1
102
RTVSPost2010Prop33
280
     0
102
RTVSPost2010PropOp33
 70
     1
102
RTVSPost2010Prop34
280
     0
102
RTVSPost2010PropOp34
 70
     1
102
RTVSPost2010Prop35
280
     0
102
RTVSPost2010PropOp35
 70
     1
102
RTVSPost2010Prop36
280
     0
102
RTVSPost2010PropOp36
 70
     1
102
RTVSPost2010Prop37
 90
       50
102
RTVSPost2010PropOp37
 70
     0
102
RTVSPost2010Prop38
140
0.0
102
RTVSPost2010PropOp38
 70
     0
102
RTVSPost2010Prop39
140
1.0
102
RTVSPost2010PropOp39
 70
     0
102
RTVSPost2010Prop40
 90
        0
102
RTVSPost2010PropOp40
 70
     0
102
RTVSPost2010Prop41ColorIndex
 90
       18
102
RTVSPost2010Prop41ColorRGB
 90
        0
102
RTVSPost2010PropOp41
 70
     0
102
RTVSPost2010Prop42
 90
       50
102
RTVSPost2010PropOp42
 70
     0
102
RTVSPost2010Prop43
 90
        3
102
RTVSPost2010PropOp43
 70
     0
102
RTVSPost2010Prop44ColorIndex
 90
        5
102
RTVSPost2010Prop44ColorRGB
 90
      255
102
RTVSPost2010PropOp44
 70
     0
102
RTVSPost2010Prop45
280
     0
102
RTVSPost2010PropOp45
 70
     1
102
RTVSPost2010Prop46
 90
       50
102
RTVSPost2010PropOp46
 70
     0
102
RTVSPost2010Prop47
 90
       50
102
RTVSPost2010PropOp47
 70
     0
102
RTVSPost2010Prop48
 90
       50
102
RTVSPost2010PropOp48
 70
     0
102
RTVSPost2010Prop49
280
     0
102
RTVSPost2010PropOp49
 70
     1
102
RTVSPost2010Prop50
 90
       50
102
RTVSPost2010PropOp50
 70
     0
102
RTVSPost2010Prop51ColorIndex
 90
      256
102
RTVSPost2010Prop51ColorRGB
 90
-16777216
102
RTVSPost2010PropOp51
 70
     0
102
RTVSPost2010Prop52
140
1.0
102
RTVSPost2010PropOp52
 70
     0
102
RTVSPost2010Prop53
 90
        2
102
RTVSPost2010PropOp53
 70
     0
102
RTVSPost2010Prop54
  1
strokes_ogs.tif
102
RTVSPost2010PropOp54
 70
     0
102
RTVSPost2010Prop55
280
     0
102
RTVSPost2010PropOp55
 70
     1
102
RTVSPost2010Prop56
140
1.0
102
RTVSPost2010PropOp56
 70
     0
102
RTVSPost2010Prop57
140
1.0
102
RTVSPost2010PropOp57
 70
     0
102
RTVSPropertyOp0
 70
     0
102
RTVSPropertyOp1
 70
     0
102
RTVSPropertyOp2
 70
     0
102
RTVSPropertyOp3
 70
     0
102
RTVSPropertyOp4
 70
     0
102
RTVSPropertyOp5
 70
     0
102
RTVSPropertyOp6
 70
     0
102
RTVSPropertyOp7
 70
     0
102
RTVSPropertyOp8
 70
     0
102
RTVSPropertyOp9
 70
     0
102
RTVSPropertyOp10
 70
     0
102
RTVSPropertyOp11
 70
     0
102
RTVSPropertyOp12
 70
     0
102
RTVSPropertyOp13
 70
     0
102
RTVSPropertyOp14
 70
     2
102
RTVSPropertyOp15
 70
     0
102
RTVSPropertyOp16
 70
     0
102
RTVSPropertyOp17
 70
     0
102
RTVSPropertyOp18
 70
     0
102
RTVSPropertyOp19
 70
     0
102
RTVSPropertyOp20
 70
     0
102
RTVSPropertyOp21
 70
     0
102
RTVSPropertyOp22
 70
     0
102
RTVSPropertyOp23
 70
     0
102
RTVSPropertyOp24
 70
     0
102
RTVSPropertyOp25
 70
     0
102
RTVSPropertyOp26
 70
     0
102
RTVSPropertyOp27
 70
     0
102
RTVSPropertyOp28
 70
     1
102
RTVSPropertyOp29
 70
     1
102
RTVSPropertyOp30
 70
     1
102
RTVSPropertyOp31
 70
     1
102
RTVSPropertyOp32
 70
     1
102
RTVSPropertyOp33
 70
     1
102
RTVSPropertyOp34
 70
     1
102
RTVSPropertyOp35
 70
     1
102
RTVSPropertyOp36
 70
     1
102
RTVSPropertyOp37
 70
     0
102
RTVSPropertyOp38
 70
     0
102
RTVSPropertyOp39
 70
     0
102
RTVSPropertyOp40
 70
     0
102
RTVSPropertyOp41
 70
     0
102
RTVSPropertyOp42
 70
     0
102
RTVSPropertyOp43
 70
     0
102
RTVSPropertyOp44
 70
     0
102
RTVSPropertyOp45
 70
     1
102
RTVSPropertyOp46
 70
     0
102
RTVSPropertyOp47
 70
     0
102
RTVSPropertyOp48
 70
     0
102
RTVSPropertyOp49
 70
     1
102
RTVSPropertyOp50
 70
     0
102
RTVSPropertyOp51
 70
     0
102
RTVSPropertyOp52
 70
     0
102
RTVSPropertyOp53
 70
     0
102
RTVSPropertyOp54
 70
     0
102
RTVSPropertyOp55
 70
     1
102
RTVSPropertyOp56
 70
     0
102
RTVSPropertyOp57
 70
     0
102
RTVSPropertyOp58
 70
     0
102
RTVSPropertyOp59
 70
     0
102
RTVSPropertyOp60
 70
     0
102
RTVSPropertyOp61
 70
     0
102
RTVSPropertyOp62
 70
     0
  0
XRECORD
  5
99FD
102
{ACAD_REACTORS
330
99FC
102
}
330
99FC
100
AcDbXrecord
280
     1
102
RTVSPost2010Prop28
280
     0
102
RTVSPost2010PropOp28
 70
     1
102
RTVSPost2010Prop29
280
     1
102
RTVSPost2010PropOp29
 70
     1
102
RTVSPost2010Prop30
280
     1
102
RTVSPost2010PropOp30
 70
     1
102
RTVSPost2010Prop31
280
     0
102
RTVSPost2010PropOp31
 70
     1
102
RTVSPost2010Prop32
280
     0
102
RTVSPost2010PropOp32
 70
     1
102
RTVSPost2010Prop33
280
     0
102
RTVSPost2010PropOp33
 70
     1
102
RTVSPost2010Prop34
280
     0
102
RTVSPost2010PropOp34
 70
     1
102
RTVSPost2010Prop35
280
     0
102
RTVSPost2010PropOp35
 70
     1
102
RTVSPost2010Prop36
280
     0
102
RTVSPost2010PropOp36
 70
     1
102
RTVSPost2010Prop37
 90
       50
102
RTVSPost2010PropOp37
 70
     1
102
RTVSPost2010Prop38
140
0.0
102
RTVSPost2010PropOp38
 70
     1
102
RTVSPost2010Prop39
140
1.0
102
RTVSPost2010PropOp39
 70
     1
102
RTVSPost2010Prop40
 90
        0
102
RTVSPost2010PropOp40
 70
     1
102
RTVSPost2010Prop41ColorIndex
 90
       18
102
RTVSPost2010Prop41ColorRGB
 90
        0
102
RTVSPost2010PropOp41
 70
     1
102
RTVSPost2010Prop42
 90
       50
102
RTVSPost2010PropOp42
 70
     1
102
RTVSPost2010Prop43
 90
        3
102
RTVSPost2010PropOp43
 70
     1
102
RTVSPost2010Prop44ColorIndex
 90
        5
102
RTVSPost2010Prop44ColorRGB
 90
      255
102
RTVSPost2010PropOp44
 70
     1
102
RTVSPost2010Prop45
280
     0
102
RTVSPost2010PropOp45
 70
     1
102
RTVSPost2010Prop46
 90
       50
102
RTVSPost2010PropOp46
 70
     1
102
RTVSPost2010Prop47
 90
       50
102
RTVSPost2010PropOp47
 70
     1
102
RTVSPost2010Prop48
 90
       50
102
RTVSPost2010PropOp48
 70
     1
102
RTVSPost2010Prop49
280
     0
102
RTVSPost2010PropOp49
 70
     1
102
RTVSPost2010Prop50
 90
       50
102
RTVSPost2010PropOp50
 70
     1
102
RTVSPost2010Prop51ColorIndex
 90
      256
102
RTVSPost2010Prop51ColorRGB
 90
-16777216
102
RTVSPost2010PropOp51
 70
     0
102
RTVSPost2010Prop52
140
1.0
102
RTVSPost2010PropOp52
 70
     0
102
RTVSPost2010Prop53
 90
        2
102
RTVSPost2010PropOp53
 70
     1
102
RTVSPost2010Prop54
  1
strokes_ogs.tif
102
RTVSPost2010PropOp54
 70
     1
102
RTVSPost2010Prop55
280
     0
102
RTVSPost2010PropOp55
 70
     1
102
RTVSPost2010Prop56
140
1.0
102
RTVSPost2010PropOp56
 70
     1
102
RTVSPost2010Prop57
140
1.0
102
RTVSPost2010PropOp57
 70
     1
102
RTVSPropertyOp0
 70
     1
102
RTVSPropertyOp1
 70
     1
102
RTVSPropertyOp2
 70
     1
102
RTVSPropertyOp3
 70
     1
102
RTVSPropertyOp4
 70
     1
102
RTVSPropertyOp5
 70
     1
102
RTVSPropertyOp6
 70
     1
102
RTVSPropertyOp7
 70
     1
102
RTVSPropertyOp8
 70
     1
102
RTVSPropertyOp9
 70
     1
102
RTVSPropertyOp10
 70
     1
102
RTVSPropertyOp11
 70
     1
102
RTVSPropertyOp12
 70
     1
102
RTVSPropertyOp13
 70
     1
102
RTVSPropertyOp14
 70
     1
102
RTVSPropertyOp15
 70
     1
102
RTVSPropertyOp16
 70
     1
102
RTVSPropertyOp17
 70
     1
102
RTVSPropertyOp18
 70
     1
102
RTVSPropertyOp19
 70
     1
102
RTVSPropertyOp20
 70
     1
102
RTVSPropertyOp21
 70
     1
102
RTVSPropertyOp22
 70
     1
102
RTVSPropertyOp23
 70
     1
102
RTVSPropertyOp24
 70
     1
102
RTVSPropertyOp25
 70
     1
102
RTVSPropertyOp26
 70
     1
102
RTVSPropertyOp27
 70
     1
102
RTVSPropertyOp28
 70
     1
102
RTVSPropertyOp29
 70
     1
102
RTVSPropertyOp30
 70
     1
102
RTVSPropertyOp31
 70
     1
102
RTVSPropertyOp32
 70
     1
102
RTVSPropertyOp33
 70
     1
102
RTVSPropertyOp34
 70
     1
102
RTVSPropertyOp35
 70
     1
102
RTVSPropertyOp36
 70
     1
102
RTVSPropertyOp37
 70
     1
102
RTVSPropertyOp38
 70
     1
102
RTVSPropertyOp39
 70
     1
102
RTVSPropertyOp40
 70
     1
102
RTVSPropertyOp41
 70
     1
102
RTVSPropertyOp42
 70
     1
102
RTVSPropertyOp43
 70
     1
102
RTVSPropertyOp44
 70
     1
102
RTVSPropertyOp45
 70
     1
102
RTVSPropertyOp46
 70
     1
102
RTVSPropertyOp47
 70
     1
102
RTVSPropertyOp48
 70
     1
102
RTVSPropertyOp49
 70
     1
102
RTVSPropertyOp50
 70
     1
102
RTVSPropertyOp51
 70
     0
102
RTVSPropertyOp52
 70
     0
102
RTVSPropertyOp53
 70
     1
102
RTVSPropertyOp54
 70
     1
102
RTVSPropertyOp55
 70
     1
102
RTVSPropertyOp56
 70
     1
102
RTVSPropertyOp57
 70
     1
102
RTVSPropertyOp58
 70
     1
102
RTVSPropertyOp59
 70
     1
102
RTVSPropertyOp60
 70
     1
102
RTVSPropertyOp61
 70
     1
102
RTVSPropertyOp62
 70
     1
  0
XRECORD
  5
9A13
102
{ACAD_REACTORS
330
9A12
102
}
330
9A12
100
AcDbXrecord
280
     1
102
RTVSPost2010Prop28
280
     0
102
RTVSPost2010PropOp28
 70
     1
102
RTVSPost2010Prop29
280
     1
102
RTVSPost2010PropOp29
 70
     1
102
RTVSPost2010Prop30
280
     1
102
RTVSPost2010PropOp30
 70
     1
102
RTVSPost2010Prop31
280
     0
102
RTVSPost2010PropOp31
 70
     1
102
RTVSPost2010Prop32
280
     0
102
RTVSPost2010PropOp32
 70
     1
102
RTVSPost2010Prop33
280
     0
102
RTVSPost2010PropOp33
 70
     1
102
RTVSPost2010Prop34
280
     0
102
RTVSPost2010PropOp34
 70
     1
102
RTVSPost2010Prop35
280
     0
102
RTVSPost2010PropOp35
 70
     1
102
RTVSPost2010Prop36
280
     0
102
RTVSPost2010PropOp36
 70
     1
102
RTVSPost2010Prop37
 90
       50
102
RTVSPost2010PropOp37
 70
     1
102
RTVSPost2010Prop38
140
0.0
102
RTVSPost2010PropOp38
 70
     1
102
RTVSPost2010Prop39
140
1.0
102
RTVSPost2010PropOp39
 70
     1
102
RTVSPost2010Prop40
 90
        0
102
RTVSPost2010PropOp40
 70
     1
102
RTVSPost2010Prop41ColorIndex
 90
       18
102
RTVSPost2010Prop41ColorRGB
 90
        0
102
RTVSPost2010PropOp41
 70
     1
102
RTVSPost2010Prop42
 90
       50
102
RTVSPost2010PropOp42
 70
     1
102
RTVSPost2010Prop43
 90
        3
102
RTVSPost2010PropOp43
 70
     1
102
RTVSPost2010Prop44ColorIndex
 90
        5
102
RTVSPost2010Prop44ColorRGB
 90
      255
102
RTVSPost2010PropOp44
 70
     1
102
RTVSPost2010Prop45
280
     0
102
RTVSPost2010PropOp45
 70
     1
102
RTVSPost2010Prop46
 90
       50
102
RTVSPost2010PropOp46
 70
     1
102
RTVSPost2010Prop47
 90
       50
102
RTVSPost2010PropOp47
 70
     1
102
RTVSPost2010Prop48
 90
       50
102
RTVSPost2010PropOp48
 70
     1
102
RTVSPost2010Prop49
280
     0
102
RTVSPost2010PropOp49
 70
     1
102
RTVSPost2010Prop50
 90
       50
102
RTVSPost2010PropOp50
 70
     1
102
RTVSPost2010Prop51ColorIndex
 90
      256
102
RTVSPost2010Prop51ColorRGB
 90
-16777216
102
RTVSPost2010PropOp51
 70
     0
102
RTVSPost2010Prop52
140
1.0
102
RTVSPost2010PropOp52
 70
     0
102
RTVSPost2010Prop53
 90
        2
102
RTVSPost2010PropOp53
 70
     1
102
RTVSPost2010Prop54
  1
strokes_ogs.tif
102
RTVSPost2010PropOp54
 70
     1
102
RTVSPost2010Prop55
280
     0
102
RTVSPost2010PropOp55
 70
     1
102
RTVSPost2010Prop56
140
1.0
102
RTVSPost2010PropOp56
 70
     1
102
RTVSPost2010Prop57
140
1.0
102
RTVSPost2010PropOp57
 70
     1
102
RTVSPropertyOp0
 70
     1
102
RTVSPropertyOp1
 70
     1
102
RTVSPropertyOp2
 70
     1
102
RTVSPropertyOp3
 70
     1
102
RTVSPropertyOp4
 70
     1
102
RTVSPropertyOp5
 70
     1
102
RTVSPropertyOp6
 70
     1
102
RTVSPropertyOp7
 70
     1
102
RTVSPropertyOp8
 70
     1
102
RTVSPropertyOp9
 70
     1
102
RTVSPropertyOp10
 70
     1
102
RTVSPropertyOp11
 70
     1
102
RTVSPropertyOp12
 70
     1
102
RTVSPropertyOp13
 70
     1
102
RTVSPropertyOp14
 70
     1
102
RTVSPropertyOp15
 70
     1
102
RTVSPropertyOp16
 70
     1
102
RTVSPropertyOp17
 70
     1
102
RTVSPropertyOp18
 70
     1
102
RTVSPropertyOp19
 70
     1
102
RTVSPropertyOp20
 70
     1
102
RTVSPropertyOp21
 70
     1
102
RTVSPropertyOp22
 70
     1
102
RTVSPropertyOp23
 70
     1
102
RTVSPropertyOp24
 70
     1
102
RTVSPropertyOp25
 70
     1
102
RTVSPropertyOp26
 70
     1
102
RTVSPropertyOp27
 70
     1
102
RTVSPropertyOp28
 70
     1
102
RTVSPropertyOp29
 70
     1
102
RTVSPropertyOp30
 70
     1
102
RTVSPropertyOp31
 70
     1
102
RTVSPropertyOp32
 70
     1
102
RTVSPropertyOp33
 70
     1
102
RTVSPropertyOp34
 70
     1
102
RTVSPropertyOp35
 70
     1
102
RTVSPropertyOp36
 70
     1
102
RTVSPropertyOp37
 70
     1
102
RTVSPropertyOp38
 70
     1
102
RTVSPropertyOp39
 70
     1
102
RTVSPropertyOp40
 70
     1
102
RTVSPropertyOp41
 70
     1
102
RTVSPropertyOp42
 70
     1
102
RTVSPropertyOp43
 70
     1
102
RTVSPropertyOp44
 70
     1
102
RTVSPropertyOp45
 70
     1
102
RTVSPropertyOp46
 70
     1
102
RTVSPropertyOp47
 70
     1
102
RTVSPropertyOp48
 70
     1
102
RTVSPropertyOp49
 70
     1
102
RTVSPropertyOp50
 70
     1
102
RTVSPropertyOp51
 70
     0
102
RTVSPropertyOp52
 70
     0
102
RTVSPropertyOp53
 70
     1
102
RTVSPropertyOp54
 70
     1
102
RTVSPropertyOp55
 70
     1
102
RTVSPropertyOp56
 70
     1
102
RTVSPropertyOp57
 70
     1
102
RTVSPropertyOp58
 70
     1
102
RTVSPropertyOp59
 70
     1
102
RTVSPropertyOp60
 70
     1
102
RTVSPropertyOp61
 70
     1
102
RTVSPropertyOp62
 70
     1
  0
XRECORD
  5
9A11
102
{ACAD_REACTORS
330
9A10
102
}
330
9A10
100
AcDbXrecord
280
     1
102
RTVSPost2010Prop28
280
     0
102
RTVSPost2010PropOp28
 70
     1
102
RTVSPost2010Prop29
280
     1
102
RTVSPost2010PropOp29
 70
     1
102
RTVSPost2010Prop30
280
     1
102
RTVSPost2010PropOp30
 70
     1
102
RTVSPost2010Prop31
280
     0
102
RTVSPost2010PropOp31
 70
     1
102
RTVSPost2010Prop32
280
     0
102
RTVSPost2010PropOp32
 70
     1
102
RTVSPost2010Prop33
280
     0
102
RTVSPost2010PropOp33
 70
     1
102
RTVSPost2010Prop34
280
     0
102
RTVSPost2010PropOp34
 70
     1
102
RTVSPost2010Prop35
280
     0
102
RTVSPost2010PropOp35
 70
     1
102
RTVSPost2010Prop36
280
     0
102
RTVSPost2010PropOp36
 70
     1
102
RTVSPost2010Prop37
 90
       50
102
RTVSPost2010PropOp37
 70
     1
102
RTVSPost2010Prop38
140
0.0
102
RTVSPost2010PropOp38
 70
     1
102
RTVSPost2010Prop39
140
1.0
102
RTVSPost2010PropOp39
 70
     1
102
RTVSPost2010Prop40
 90
        0
102
RTVSPost2010PropOp40
 70
     1
102
RTVSPost2010Prop41ColorIndex
 90
       18
102
RTVSPost2010Prop41ColorRGB
 90
        0
102
RTVSPost2010PropOp41
 70
     1
102
RTVSPost2010Prop42
 90
       50
102
RTVSPost2010PropOp42
 70
     1
102
RTVSPost2010Prop43
 90
        3
102
RTVSPost2010PropOp43
 70
     1
102
RTVSPost2010Prop44ColorIndex
 90
        5
102
RTVSPost2010Prop44ColorRGB
 90
      255
102
RTVSPost2010PropOp44
 70
     1
102
RTVSPost2010Prop45
280
     0
102
RTVSPost2010PropOp45
 70
     1
102
RTVSPost2010Prop46
 90
       50
102
RTVSPost2010PropOp46
 70
     1
102
RTVSPost2010Prop47
 90
       50
102
RTVSPost2010PropOp47
 70
     1
102
RTVSPost2010Prop48
 90
       50
102
RTVSPost2010PropOp48
 70
     1
102
RTVSPost2010Prop49
280
     0
102
RTVSPost2010PropOp49
 70
     1
102
RTVSPost2010Prop50
 90
       50
102
RTVSPost2010PropOp50
 70
     1
102
RTVSPost2010Prop51ColorIndex
 90
      256
102
RTVSPost2010Prop51ColorRGB
 90
-16777216
102
RTVSPost2010PropOp51
 70
     0
102
RTVSPost2010Prop52
140
1.0
102
RTVSPost2010PropOp52
 70
     0
102
RTVSPost2010Prop53
 90
        2
102
RTVSPost2010PropOp53
 70
     1
102
RTVSPost2010Prop54
  1
strokes_ogs.tif
102
RTVSPost2010PropOp54
 70
     1
102
RTVSPost2010Prop55
280
     0
102
RTVSPost2010PropOp55
 70
     1
102
RTVSPost2010Prop56
140
1.0
102
RTVSPost2010PropOp56
 70
     1
102
RTVSPost2010Prop57
140
1.0
102
RTVSPost2010PropOp57
 70
     1
102
RTVSPropertyOp0
 70
     1
102
RTVSPropertyOp1
 70
     1
102
RTVSPropertyOp2
 70
     1
102
RTVSPropertyOp3
 70
     1
102
RTVSPropertyOp4
 70
     1
102
RTVSPropertyOp5
 70
     1
102
RTVSPropertyOp6
 70
     1
102
RTVSPropertyOp7
 70
     1
102
RTVSPropertyOp8
 70
     1
102
RTVSPropertyOp9
 70
     1
102
RTVSPropertyOp10
 70
     1
102
RTVSPropertyOp11
 70
     1
102
RTVSPropertyOp12
 70
     1
102
RTVSPropertyOp13
 70
     1
102
RTVSPropertyOp14
 70
     1
102
RTVSPropertyOp15
 70
     1
102
RTVSPropertyOp16
 70
     1
102
RTVSPropertyOp17
 70
     1
102
RTVSPropertyOp18
 70
     1
102
RTVSPropertyOp19
 70
     1
102
RTVSPropertyOp20
 70
     1
102
RTVSPropertyOp21
 70
     1
102
RTVSPropertyOp22
 70
     1
102
RTVSPropertyOp23
 70
     1
102
RTVSPropertyOp24
 70
     1
102
RTVSPropertyOp25
 70
     1
102
RTVSPropertyOp26
 70
     1
102
RTVSPropertyOp27
 70
     1
102
RTVSPropertyOp28
 70
     1
102
RTVSPropertyOp29
 70
     1
102
RTVSPropertyOp30
 70
     1
102
RTVSPropertyOp31
 70
     1
102
RTVSPropertyOp32
 70
     1
102
RTVSPropertyOp33
 70
     1
102
RTVSPropertyOp34
 70
     1
102
RTVSPropertyOp35
 70
     1
102
RTVSPropertyOp36
 70
     1
102
RTVSPropertyOp37
 70
     1
102
RTVSPropertyOp38
 70
     1
102
RTVSPropertyOp39
 70
     1
102
RTVSPropertyOp40
 70
     1
102
RTVSPropertyOp41
 70
     1
102
RTVSPropertyOp42
 70
     1
102
RTVSPropertyOp43
 70
     1
102
RTVSPropertyOp44
 70
     1
102
RTVSPropertyOp45
 70
     1
102
RTVSPropertyOp46
 70
     1
102
RTVSPropertyOp47
 70
     1
102
RTVSPropertyOp48
 70
     1
102
RTVSPropertyOp49
 70
     1
102
RTVSPropertyOp50
 70
     1
102
RTVSPropertyOp51
 70
     0
102
RTVSPropertyOp52
 70
     0
102
RTVSPropertyOp53
 70
     1
102
RTVSPropertyOp54
 70
     1
102
RTVSPropertyOp55
 70
     1
102
RTVSPropertyOp56
 70
     1
102
RTVSPropertyOp57
 70
     1
102
RTVSPropertyOp58
 70
     1
102
RTVSPropertyOp59
 70
     1
102
RTVSPropertyOp60
 70
     1
102
RTVSPropertyOp61
 70
     1
102
RTVSPropertyOp62
 70
     1
  0
XRECORD
  5
9A0B
102
{ACAD_REACTORS
330
9A0A
102
}
330
9A0A
100
AcDbXrecord
280
     1
102
RTVSPost2010Prop28
280
     0
102
RTVSPost2010PropOp28
 70
     1
102
RTVSPost2010Prop29
280
     1
102
RTVSPost2010PropOp29
 70
     1
102
RTVSPost2010Prop30
280
     1
102
RTVSPost2010PropOp30
 70
     1
102
RTVSPost2010Prop31
280
     0
102
RTVSPost2010PropOp31
 70
     1
102
RTVSPost2010Prop32
280
     0
102
RTVSPost2010PropOp32
 70
     1
102
RTVSPost2010Prop33
280
     0
102
RTVSPost2010PropOp33
 70
     1
102
RTVSPost2010Prop34
280
     0
102
RTVSPost2010PropOp34
 70
     1
102
RTVSPost2010Prop35
280
     0
102
RTVSPost2010PropOp35
 70
     1
102
RTVSPost2010Prop36
280
     0
102
RTVSPost2010PropOp36
 70
     1
102
RTVSPost2010Prop37
 90
       50
102
RTVSPost2010PropOp37
 70
     1
102
RTVSPost2010Prop38
140
0.0
102
RTVSPost2010PropOp38
 70
     1
102
RTVSPost2010Prop39
140
1.0
102
RTVSPost2010PropOp39
 70
     1
102
RTVSPost2010Prop40
 90
        0
102
RTVSPost2010PropOp40
 70
     1
102
RTVSPost2010Prop41ColorIndex
 90
       18
102
RTVSPost2010Prop41ColorRGB
 90
        0
102
RTVSPost2010PropOp41
 70
     1
102
RTVSPost2010Prop42
 90
       50
102
RTVSPost2010PropOp42
 70
     1
102
RTVSPost2010Prop43
 90
        3
102
RTVSPost2010PropOp43
 70
     1
102
RTVSPost2010Prop44ColorIndex
 90
        5
102
RTVSPost2010Prop44ColorRGB
 90
      255
102
RTVSPost2010PropOp44
 70
     1
102
RTVSPost2010Prop45
280
     0
102
RTVSPost2010PropOp45
 70
     1
102
RTVSPost2010Prop46
 90
       50
102
RTVSPost2010PropOp46
 70
     1
102
RTVSPost2010Prop47
 90
       50
102
RTVSPost2010PropOp47
 70
     1
102
RTVSPost2010Prop48
 90
       50
102
RTVSPost2010PropOp48
 70
     1
102
RTVSPost2010Prop49
280
     0
102
RTVSPost2010PropOp49
 70
     1
102
RTVSPost2010Prop50
 90
       50
102
RTVSPost2010PropOp50
 70
     1
102
RTVSPost2010Prop51ColorIndex
 90
      256
102
RTVSPost2010Prop51ColorRGB
 90
-16777216
102
RTVSPost2010PropOp51
 70
     0
102
RTVSPost2010Prop52
140
1.0
102
RTVSPost2010PropOp52
 70
     0
102
RTVSPost2010Prop53
 90
        2
102
RTVSPost2010PropOp53
 70
     1
102
RTVSPost2010Prop54
  1
strokes_ogs.tif
102
RTVSPost2010PropOp54
 70
     1
102
RTVSPost2010Prop55
280
     0
102
RTVSPost2010PropOp55
 70
     1
102
RTVSPost2010Prop56
140
1.0
102
RTVSPost2010PropOp56
 70
     1
102
RTVSPost2010Prop57
140
1.0
102
RTVSPost2010PropOp57
 70
     1
102
RTVSPropertyOp0
 70
     1
102
RTVSPropertyOp1
 70
     1
102
RTVSPropertyOp2
 70
     1
102
RTVSPropertyOp3
 70
     1
102
RTVSPropertyOp4
 70
     1
102
RTVSPropertyOp5
 70
     1
102
RTVSPropertyOp6
 70
     1
102
RTVSPropertyOp7
 70
     1
102
RTVSPropertyOp8
 70
     1
102
RTVSPropertyOp9
 70
     1
102
RTVSPropertyOp10
 70
     1
102
RTVSPropertyOp11
 70
     1
102
RTVSPropertyOp12
 70
     1
102
RTVSPropertyOp13
 70
     1
102
RTVSPropertyOp14
 70
     1
102
RTVSPropertyOp15
 70
     1
102
RTVSPropertyOp16
 70
     1
102
RTVSPropertyOp17
 70
     1
102
RTVSPropertyOp18
 70
     1
102
RTVSPropertyOp19
 70
     1
102
RTVSPropertyOp20
 70
     1
102
RTVSPropertyOp21
 70
     1
102
RTVSPropertyOp22
 70
     1
102
RTVSPropertyOp23
 70
     1
102
RTVSPropertyOp24
 70
     1
102
RTVSPropertyOp25
 70
     1
102
RTVSPropertyOp26
 70
     1
102
RTVSPropertyOp27
 70
     1
102
RTVSPropertyOp28
 70
     1
102
RTVSPropertyOp29
 70
     1
102
RTVSPropertyOp30
 70
     1
102
RTVSPropertyOp31
 70
     1
102
RTVSPropertyOp32
 70
     1
102
RTVSPropertyOp33
 70
     1
102
RTVSPropertyOp34
 70
     1
102
RTVSPropertyOp35
 70
     1
102
RTVSPropertyOp36
 70
     1
102
RTVSPropertyOp37
 70
     1
102
RTVSPropertyOp38
 70
     1
102
RTVSPropertyOp39
 70
     1
102
RTVSPropertyOp40
 70
     1
102
RTVSPropertyOp41
 70
     1
102
RTVSPropertyOp42
 70
     1
102
RTVSPropertyOp43
 70
     1
102
RTVSPropertyOp44
 70
     1
102
RTVSPropertyOp45
 70
     1
102
RTVSPropertyOp46
 70
     1
102
RTVSPropertyOp47
 70
     1
102
RTVSPropertyOp48
 70
     1
102
RTVSPropertyOp49
 70
     1
102
RTVSPropertyOp50
 70
     1
102
RTVSPropertyOp51
 70
     0
102
RTVSPropertyOp52
 70
     0
102
RTVSPropertyOp53
 70
     1
102
RTVSPropertyOp54
 70
     1
102
RTVSPropertyOp55
 70
     1
102
RTVSPropertyOp56
 70
     1
102
RTVSPropertyOp57
 70
     1
102
RTVSPropertyOp58
 70
     1
102
RTVSPropertyOp59
 70
     1
102
RTVSPropertyOp60
 70
     1
102
RTVSPropertyOp61
 70
     1
102
RTVSPropertyOp62
 70
     1
  0
XRECORD
  5
9A0D
102
{ACAD_REACTORS
330
9A0C
102
}
330
9A0C
100
AcDbXrecord
280
     1
102
RTVSPost2010Prop28
280
     0
102
RTVSPost2010PropOp28
 70
     1
102
RTVSPost2010Prop29
280
     1
102
RTVSPost2010PropOp29
 70
     1
102
RTVSPost2010Prop30
280
     1
102
RTVSPost2010PropOp30
 70
     1
102
RTVSPost2010Prop31
280
     0
102
RTVSPost2010PropOp31
 70
     1
102
RTVSPost2010Prop32
280
     0
102
RTVSPost2010PropOp32
 70
     1
102
RTVSPost2010Prop33
280
     0
102
RTVSPost2010PropOp33
 70
     1
102
RTVSPost2010Prop34
280
     0
102
RTVSPost2010PropOp34
 70
     1
102
RTVSPost2010Prop35
280
     0
102
RTVSPost2010PropOp35
 70
     1
102
RTVSPost2010Prop36
280
     0
102
RTVSPost2010PropOp36
 70
     1
102
RTVSPost2010Prop37
 90
       50
102
RTVSPost2010PropOp37
 70
     1
102
RTVSPost2010Prop38
140
0.0
102
RTVSPost2010PropOp38
 70
     1
102
RTVSPost2010Prop39
140
1.0
102
RTVSPost2010PropOp39
 70
     1
102
RTVSPost2010Prop40
 90
        0
102
RTVSPost2010PropOp40
 70
     1
102
RTVSPost2010Prop41ColorIndex
 90
       18
102
RTVSPost2010Prop41ColorRGB
 90
        0
102
RTVSPost2010PropOp41
 70
     1
102
RTVSPost2010Prop42
 90
       50
102
RTVSPost2010PropOp42
 70
     1
102
RTVSPost2010Prop43
 90
        3
102
RTVSPost2010PropOp43
 70
     1
102
RTVSPost2010Prop44ColorIndex
 90
        5
102
RTVSPost2010Prop44ColorRGB
 90
      255
102
RTVSPost2010PropOp44
 70
     1
102
RTVSPost2010Prop45
280
     0
102
RTVSPost2010PropOp45
 70
     1
102
RTVSPost2010Prop46
 90
       50
102
RTVSPost2010PropOp46
 70
     1
102
RTVSPost2010Prop47
 90
       50
102
RTVSPost2010PropOp47
 70
     1
102
RTVSPost2010Prop48
 90
       50
102
RTVSPost2010PropOp48
 70
     1
102
RTVSPost2010Prop49
280
     0
102
RTVSPost2010PropOp49
 70
     1
102
RTVSPost2010Prop50
 90
       50
102
RTVSPost2010PropOp50
 70
     1
102
RTVSPost2010Prop51ColorIndex
 90
      256
102
RTVSPost2010Prop51ColorRGB
 90
-16777216
102
RTVSPost2010PropOp51
 70
     0
102
RTVSPost2010Prop52
140
1.0
102
RTVSPost2010PropOp52
 70
     0
102
RTVSPost2010Prop53
 90
        2
102
RTVSPost2010PropOp53
 70
     1
102
RTVSPost2010Prop54
  1
strokes_ogs.tif
102
RTVSPost2010PropOp54
 70
     1
102
RTVSPost2010Prop55
280
     0
102
RTVSPost2010PropOp55
 70
     1
102
RTVSPost2010Prop56
140
1.0
102
RTVSPost2010PropOp56
 70
     1
102
RTVSPost2010Prop57
140
1.0
102
RTVSPost2010PropOp57
 70
     1
102
RTVSPropertyOp0
 70
     1
102
RTVSPropertyOp1
 70
     1
102
RTVSPropertyOp2
 70
     1
102
RTVSPropertyOp3
 70
     1
102
RTVSPropertyOp4
 70
     1
102
RTVSPropertyOp5
 70
     1
102
RTVSPropertyOp6
 70
     1
102
RTVSPropertyOp7
 70
     1
102
RTVSPropertyOp8
 70
     1
102
RTVSPropertyOp9
 70
     1
102
RTVSPropertyOp10
 70
     1
102
RTVSPropertyOp11
 70
     1
102
RTVSPropertyOp12
 70
     1
102
RTVSPropertyOp13
 70
     1
102
RTVSPropertyOp14
 70
     1
102
RTVSPropertyOp15
 70
     1
102
RTVSPropertyOp16
 70
     1
102
RTVSPropertyOp17
 70
     1
102
RTVSPropertyOp18
 70
     1
102
RTVSPropertyOp19
 70
     1
102
RTVSPropertyOp20
 70
     1
102
RTVSPropertyOp21
 70
     1
102
RTVSPropertyOp22
 70
     1
102
RTVSPropertyOp23
 70
     1
102
RTVSPropertyOp24
 70
     1
102
RTVSPropertyOp25
 70
     1
102
RTVSPropertyOp26
 70
     1
102
RTVSPropertyOp27
 70
     1
102
RTVSPropertyOp28
 70
     1
102
RTVSPropertyOp29
 70
     1
102
RTVSPropertyOp30
 70
     1
102
RTVSPropertyOp31
 70
     1
102
RTVSPropertyOp32
 70
     1
102
RTVSPropertyOp33
 70
     1
102
RTVSPropertyOp34
 70
     1
102
RTVSPropertyOp35
 70
     1
102
RTVSPropertyOp36
 70
     1
102
RTVSPropertyOp37
 70
     1
102
RTVSPropertyOp38
 70
     1
102
RTVSPropertyOp39
 70
     1
102
RTVSPropertyOp40
 70
     1
102
RTVSPropertyOp41
 70
     1
102
RTVSPropertyOp42
 70
     1
102
RTVSPropertyOp43
 70
     1
102
RTVSPropertyOp44
 70
     1
102
RTVSPropertyOp45
 70
     1
102
RTVSPropertyOp46
 70
     1
102
RTVSPropertyOp47
 70
     1
102
RTVSPropertyOp48
 70
     1
102
RTVSPropertyOp49
 70
     1
102
RTVSPropertyOp50
 70
     1
102
RTVSPropertyOp51
 70
     0
102
RTVSPropertyOp52
 70
     0
102
RTVSPropertyOp53
 70
     1
102
RTVSPropertyOp54
 70
     1
102
RTVSPropertyOp55
 70
     1
102
RTVSPropertyOp56
 70
     1
102
RTVSPropertyOp57
 70
     1
102
RTVSPropertyOp58
 70
     1
102
RTVSPropertyOp59
 70
     1
102
RTVSPropertyOp60
 70
     1
102
RTVSPropertyOp61
 70
     1
102
RTVSPropertyOp62
 70
     1
  0
XRECORD
  5
9A03
102
{ACAD_REACTORS
330
9A02
102
}
330
9A02
100
AcDbXrecord
280
     1
102
RTVSPost2010Prop28
280
     0
102
RTVSPost2010PropOp28
 70
     1
102
RTVSPost2010Prop29
280
     1
102
RTVSPost2010PropOp29
 70
     1
102
RTVSPost2010Prop30
280
     1
102
RTVSPost2010PropOp30
 70
     1
102
RTVSPost2010Prop31
280
     0
102
RTVSPost2010PropOp31
 70
     1
102
RTVSPost2010Prop32
280
     0
102
RTVSPost2010PropOp32
 70
     1
102
RTVSPost2010Prop33
280
     0
102
RTVSPost2010PropOp33
 70
     1
102
RTVSPost2010Prop34
280
     0
102
RTVSPost2010PropOp34
 70
     1
102
RTVSPost2010Prop35
280
     0
102
RTVSPost2010PropOp35
 70
     1
102
RTVSPost2010Prop36
280
     0
102
RTVSPost2010PropOp36
 70
     1
102
RTVSPost2010Prop37
 90
       50
102
RTVSPost2010PropOp37
 70
     1
102
RTVSPost2010Prop38
140
0.0
102
RTVSPost2010PropOp38
 70
     1
102
RTVSPost2010Prop39
140
1.0
102
RTVSPost2010PropOp39
 70
     1
102
RTVSPost2010Prop40
 90
        0
102
RTVSPost2010PropOp40
 70
     1
102
RTVSPost2010Prop41ColorIndex
 90
       18
102
RTVSPost2010Prop41ColorRGB
 90
        0
102
RTVSPost2010PropOp41
 70
     1
102
RTVSPost2010Prop42
 90
       50
102
RTVSPost2010PropOp42
 70
     1
102
RTVSPost2010Prop43
 90
        3
102
RTVSPost2010PropOp43
 70
     1
102
RTVSPost2010Prop44ColorIndex
 90
        5
102
RTVSPost2010Prop44ColorRGB
 90
      255
102
RTVSPost2010PropOp44
 70
     1
102
RTVSPost2010Prop45
280
     0
102
RTVSPost2010PropOp45
 70
     1
102
RTVSPost2010Prop46
 90
       50
102
RTVSPost2010PropOp46
 70
     1
102
RTVSPost2010Prop47
 90
       50
102
RTVSPost2010PropOp47
 70
     1
102
RTVSPost2010Prop48
 90
       50
102
RTVSPost2010PropOp48
 70
     1
102
RTVSPost2010Prop49
280
     0
102
RTVSPost2010PropOp49
 70
     1
102
RTVSPost2010Prop50
 90
       50
102
RTVSPost2010PropOp50
 70
     1
102
RTVSPost2010Prop51ColorIndex
 90
      256
102
RTVSPost2010Prop51ColorRGB
 90
-16777216
102
RTVSPost2010PropOp51
 70
     0
102
RTVSPost2010Prop52
140
1.0
102
RTVSPost2010PropOp52
 70
     0
102
RTVSPost2010Prop53
 90
        2
102
RTVSPost2010PropOp53
 70
     1
102
RTVSPost2010Prop54
  1
strokes_ogs.tif
102
RTVSPost2010PropOp54
 70
     1
102
RTVSPost2010Prop55
280
     0
102
RTVSPost2010PropOp55
 70
     1
102
RTVSPost2010Prop56
140
1.0
102
RTVSPost2010PropOp56
 70
     1
102
RTVSPost2010Prop57
140
1.0
102
RTVSPost2010PropOp57
 70
     1
102
RTVSPropertyOp0
 70
     1
102
RTVSPropertyOp1
 70
     1
102
RTVSPropertyOp2
 70
     1
102
RTVSPropertyOp3
 70
     1
102
RTVSPropertyOp4
 70
     1
102
RTVSPropertyOp5
 70
     1
102
RTVSPropertyOp6
 70
     1
102
RTVSPropertyOp7
 70
     1
102
RTVSPropertyOp8
 70
     1
102
RTVSPropertyOp9
 70
     1
102
RTVSPropertyOp10
 70
     1
102
RTVSPropertyOp11
 70
     1
102
RTVSPropertyOp12
 70
     1
102
RTVSPropertyOp13
 70
     1
102
RTVSPropertyOp14
 70
     1
102
RTVSPropertyOp15
 70
     1
102
RTVSPropertyOp16
 70
     1
102
RTVSPropertyOp17
 70
     1
102
RTVSPropertyOp18
 70
     1
102
RTVSPropertyOp19
 70
     1
102
RTVSPropertyOp20
 70
     1
102
RTVSPropertyOp21
 70
     1
102
RTVSPropertyOp22
 70
     1
102
RTVSPropertyOp23
 70
     1
102
RTVSPropertyOp24
 70
     1
102
RTVSPropertyOp25
 70
     1
102
RTVSPropertyOp26
 70
     1
102
RTVSPropertyOp27
 70
     1
102
RTVSPropertyOp28
 70
     1
102
RTVSPropertyOp29
 70
     1
102
RTVSPropertyOp30
 70
     1
102
RTVSPropertyOp31
 70
     1
102
RTVSPropertyOp32
 70
     1
102
RTVSPropertyOp33
 70
     1
102
RTVSPropertyOp34
 70
     1
102
RTVSPropertyOp35
 70
     1
102
RTVSPropertyOp36
 70
     1
102
RTVSPropertyOp37
 70
     1
102
RTVSPropertyOp38
 70
     1
102
RTVSPropertyOp39
 70
     1
102
RTVSPropertyOp40
 70
     1
102
RTVSPropertyOp41
 70
     1
102
RTVSPropertyOp42
 70
     1
102
RTVSPropertyOp43
 70
     1
102
RTVSPropertyOp44
 70
     1
102
RTVSPropertyOp45
 70
     1
102
RTVSPropertyOp46
 70
     1
102
RTVSPropertyOp47
 70
     1
102
RTVSPropertyOp48
 70
     1
102
RTVSPropertyOp49
 70
     1
102
RTVSPropertyOp50
 70
     1
102
RTVSPropertyOp51
 70
     0
102
RTVSPropertyOp52
 70
     0
102
RTVSPropertyOp53
 70
     1
102
RTVSPropertyOp54
 70
     1
102
RTVSPropertyOp55
 70
     1
102
RTVSPropertyOp56
 70
     1
102
RTVSPropertyOp57
 70
     1
102
RTVSPropertyOp58
 70
     1
102
RTVSPropertyOp59
 70
     1
102
RTVSPropertyOp60
 70
     1
102
RTVSPropertyOp61
 70
     1
102
RTVSPropertyOp62
 70
     1
  0
XRECORD
  5
99F7
102
{ACAD_REACTORS
330
99F6
102
}
330
99F6
100
AcDbXrecord
280
     1
102
RTVSPost2010Prop28
280
     0
102
RTVSPost2010PropOp28
 70
     1
102
RTVSPost2010Prop29
280
     1
102
RTVSPost2010PropOp29
 70
     1
102
RTVSPost2010Prop30
280
     1
102
RTVSPost2010PropOp30
 70
     1
102
RTVSPost2010Prop31
280
     0
102
RTVSPost2010PropOp31
 70
     1
102
RTVSPost2010Prop32
280
     0
102
RTVSPost2010PropOp32
 70
     1
102
RTVSPost2010Prop33
280
     0
102
RTVSPost2010PropOp33
 70
     1
102
RTVSPost2010Prop34
280
     0
102
RTVSPost2010PropOp34
 70
     1
102
RTVSPost2010Prop35
280
     0
102
RTVSPost2010PropOp35
 70
     1
102
RTVSPost2010Prop36
280
     0
102
RTVSPost2010PropOp36
 70
     1
102
RTVSPost2010Prop37
 90
       50
102
RTVSPost2010PropOp37
 70
     1
102
RTVSPost2010Prop38
140
0.0
102
RTVSPost2010PropOp38
 70
     1
102
RTVSPost2010Prop39
140
1.0
102
RTVSPost2010PropOp39
 70
     1
102
RTVSPost2010Prop40
 90
        0
102
RTVSPost2010PropOp40
 70
     1
102
RTVSPost2010Prop41ColorIndex
 90
       18
102
RTVSPost2010Prop41ColorRGB
 90
        0
102
RTVSPost2010PropOp41
 70
     1
102
RTVSPost2010Prop42
 90
       50
102
RTVSPost2010PropOp42
 70
     1
102
RTVSPost2010Prop43
 90
        3
102
RTVSPost2010PropOp43
 70
     1
102
RTVSPost2010Prop44ColorIndex
 90
        5
102
RTVSPost2010Prop44ColorRGB
 90
      255
102
RTVSPost2010PropOp44
 70
     1
102
RTVSPost2010Prop45
280
     0
102
RTVSPost2010PropOp45
 70
     1
102
RTVSPost2010Prop46
 90
       50
102
RTVSPost2010PropOp46
 70
     1
102
RTVSPost2010Prop47
 90
       50
102
RTVSPost2010PropOp47
 70
     1
102
RTVSPost2010Prop48
 90
       50
102
RTVSPost2010PropOp48
 70
     1
102
RTVSPost2010Prop49
280
     0
102
RTVSPost2010PropOp49
 70
     1
102
RTVSPost2010Prop50
 90
       50
102
RTVSPost2010PropOp50
 70
     1
102
RTVSPost2010Prop51ColorIndex
 90
      256
102
RTVSPost2010Prop51ColorRGB
 90
-16777216
102
RTVSPost2010PropOp51
 70
     0
102
RTVSPost2010Prop52
140
1.0
102
RTVSPost2010PropOp52
 70
     0
102
RTVSPost2010Prop53
 90
        2
102
RTVSPost2010PropOp53
 70
     1
102
RTVSPost2010Prop54
  1
strokes_ogs.tif
102
RTVSPost2010PropOp54
 70
     1
102
RTVSPost2010Prop55
280
     0
102
RTVSPost2010PropOp55
 70
     1
102
RTVSPost2010Prop56
140
1.0
102
RTVSPost2010PropOp56
 70
     1
102
RTVSPost2010Prop57
140
1.0
102
RTVSPost2010PropOp57
 70
     1
102
RTVSPropertyOp0
 70
     1
102
RTVSPropertyOp1
 70
     1
102
RTVSPropertyOp2
 70
     1
102
RTVSPropertyOp3
 70
     1
102
RTVSPropertyOp4
 70
     1
102
RTVSPropertyOp5
 70
     1
102
RTVSPropertyOp6
 70
     1
102
RTVSPropertyOp7
 70
     1
102
RTVSPropertyOp8
 70
     1
102
RTVSPropertyOp9
 70
     1
102
RTVSPropertyOp10
 70
     1
102
RTVSPropertyOp11
 70
     1
102
RTVSPropertyOp12
 70
     1
102
RTVSPropertyOp13
 70
     1
102
RTVSPropertyOp14
 70
     1
102
RTVSPropertyOp15
 70
     1
102
RTVSPropertyOp16
 70
     1
102
RTVSPropertyOp17
 70
     1
102
RTVSPropertyOp18
 70
     1
102
RTVSPropertyOp19
 70
     1
102
RTVSPropertyOp20
 70
     1
102
RTVSPropertyOp21
 70
     1
102
RTVSPropertyOp22
 70
     1
102
RTVSPropertyOp23
 70
     1
102
RTVSPropertyOp24
 70
     1
102
RTVSPropertyOp25
 70
     1
102
RTVSPropertyOp26
 70
     1
102
RTVSPropertyOp27
 70
     1
102
RTVSPropertyOp28
 70
     1
102
RTVSPropertyOp29
 70
     1
102
RTVSPropertyOp30
 70
     1
102
RTVSPropertyOp31
 70
     1
102
RTVSPropertyOp32
 70
     1
102
RTVSPropertyOp33
 70
     1
102
RTVSPropertyOp34
 70
     1
102
RTVSPropertyOp35
 70
     1
102
RTVSPropertyOp36
 70
     1
102
RTVSPropertyOp37
 70
     1
102
RTVSPropertyOp38
 70
     1
102
RTVSPropertyOp39
 70
     1
102
RTVSPropertyOp40
 70
     1
102
RTVSPropertyOp41
 70
     1
102
RTVSPropertyOp42
 70
     1
102
RTVSPropertyOp43
 70
     1
102
RTVSPropertyOp44
 70
     1
102
RTVSPropertyOp45
 70
     1
102
RTVSPropertyOp46
 70
     1
102
RTVSPropertyOp47
 70
     1
102
RTVSPropertyOp48
 70
     1
102
RTVSPropertyOp49
 70
     1
102
RTVSPropertyOp50
 70
     1
102
RTVSPropertyOp51
 70
     0
102
RTVSPropertyOp52
 70
     0
102
RTVSPropertyOp53
 70
     1
102
RTVSPropertyOp54
 70
     1
102
RTVSPropertyOp55
 70
     1
102
RTVSPropertyOp56
 70
     1
102
RTVSPropertyOp57
 70
     1
102
RTVSPropertyOp58
 70
     1
102
RTVSPropertyOp59
 70
     1
102
RTVSPropertyOp60
 70
     1
102
RTVSPropertyOp61
 70
     1
102
RTVSPropertyOp62
 70
     1
  0
XRECORD
  5
9A0F
102
{ACAD_REACTORS
330
9A0E
102
}
330
9A0E
100
AcDbXrecord
280
     1
102
RTVSPost2010Prop28
280
     0
102
RTVSPost2010PropOp28
 70
     1
102
RTVSPost2010Prop29
280
     1
102
RTVSPost2010PropOp29
 70
     1
102
RTVSPost2010Prop30
280
     1
102
RTVSPost2010PropOp30
 70
     1
102
RTVSPost2010Prop31
280
     0
102
RTVSPost2010PropOp31
 70
     1
102
RTVSPost2010Prop32
280
     0
102
RTVSPost2010PropOp32
 70
     1
102
RTVSPost2010Prop33
280
     0
102
RTVSPost2010PropOp33
 70
     1
102
RTVSPost2010Prop34
280
     0
102
RTVSPost2010PropOp34
 70
     1
102
RTVSPost2010Prop35
280
     0
102
RTVSPost2010PropOp35
 70
     1
102
RTVSPost2010Prop36
280
     0
102
RTVSPost2010PropOp36
 70
     1
102
RTVSPost2010Prop37
 90
       50
102
RTVSPost2010PropOp37
 70
     1
102
RTVSPost2010Prop38
140
0.0
102
RTVSPost2010PropOp38
 70
     1
102
RTVSPost2010Prop39
140
1.0
102
RTVSPost2010PropOp39
 70
     1
102
RTVSPost2010Prop40
 90
        0
102
RTVSPost2010PropOp40
 70
     1
102
RTVSPost2010Prop41ColorIndex
 90
       18
102
RTVSPost2010Prop41ColorRGB
 90
        0
102
RTVSPost2010PropOp41
 70
     1
102
RTVSPost2010Prop42
 90
       50
102
RTVSPost2010PropOp42
 70
     1
102
RTVSPost2010Prop43
 90
        3
102
RTVSPost2010PropOp43
 70
     1
102
RTVSPost2010Prop44ColorIndex
 90
        5
102
RTVSPost2010Prop44ColorRGB
 90
      255
102
RTVSPost2010PropOp44
 70
     1
102
RTVSPost2010Prop45
280
     0
102
RTVSPost2010PropOp45
 70
     1
102
RTVSPost2010Prop46
 90
       50
102
RTVSPost2010PropOp46
 70
     1
102
RTVSPost2010Prop47
 90
       50
102
RTVSPost2010PropOp47
 70
     1
102
RTVSPost2010Prop48
 90
       50
102
RTVSPost2010PropOp48
 70
     1
102
RTVSPost2010Prop49
280
     0
102
RTVSPost2010PropOp49
 70
     1
102
RTVSPost2010Prop50
 90
       50
102
RTVSPost2010PropOp50
 70
     1
102
RTVSPost2010Prop51ColorIndex
 90
      256
102
RTVSPost2010Prop51ColorRGB
 90
-16777216
102
RTVSPost2010PropOp51
 70
     0
102
RTVSPost2010Prop52
140
1.0
102
RTVSPost2010PropOp52
 70
     0
102
RTVSPost2010Prop53
 90
        2
102
RTVSPost2010PropOp53
 70
     1
102
RTVSPost2010Prop54
  1
strokes_ogs.tif
102
RTVSPost2010PropOp54
 70
     1
102
RTVSPost2010Prop55
280
     0
102
RTVSPost2010PropOp55
 70
     1
102
RTVSPost2010Prop56
140
1.0
102
RTVSPost2010PropOp56
 70
     1
102
RTVSPost2010Prop57
140
1.0
102
RTVSPost2010PropOp57
 70
     1
102
RTVSPropertyOp0
 70
     1
102
RTVSPropertyOp1
 70
     1
102
RTVSPropertyOp2
 70
     1
102
RTVSPropertyOp3
 70
     1
102
RTVSPropertyOp4
 70
     1
102
RTVSPropertyOp5
 70
     1
102
RTVSPropertyOp6
 70
     1
102
RTVSPropertyOp7
 70
     1
102
RTVSPropertyOp8
 70
     1
102
RTVSPropertyOp9
 70
     1
102
RTVSPropertyOp10
 70
     1
102
RTVSPropertyOp11
 70
     1
102
RTVSPropertyOp12
 70
     1
102
RTVSPropertyOp13
 70
     1
102
RTVSPropertyOp14
 70
     1
102
RTVSPropertyOp15
 70
     1
102
RTVSPropertyOp16
 70
     1
102
RTVSPropertyOp17
 70
     1
102
RTVSPropertyOp18
 70
     1
102
RTVSPropertyOp19
 70
     1
102
RTVSPropertyOp20
 70
     1
102
RTVSPropertyOp21
 70
     1
102
RTVSPropertyOp22
 70
     1
102
RTVSPropertyOp23
 70
     1
102
RTVSPropertyOp24
 70
     1
102
RTVSPropertyOp25
 70
     1
102
RTVSPropertyOp26
 70
     1
102
RTVSPropertyOp27
 70
     1
102
RTVSPropertyOp28
 70
     1
102
RTVSPropertyOp29
 70
     1
102
RTVSPropertyOp30
 70
     1
102
RTVSPropertyOp31
 70
     1
102
RTVSPropertyOp32
 70
     1
102
RTVSPropertyOp33
 70
     1
102
RTVSPropertyOp34
 70
     1
102
RTVSPropertyOp35
 70
     1
102
RTVSPropertyOp36
 70
     1
102
RTVSPropertyOp37
 70
     1
102
RTVSPropertyOp38
 70
     1
102
RTVSPropertyOp39
 70
     1
102
RTVSPropertyOp40
 70
     1
102
RTVSPropertyOp41
 70
     1
102
RTVSPropertyOp42
 70
     1
102
RTVSPropertyOp43
 70
     1
102
RTVSPropertyOp44
 70
     1
102
RTVSPropertyOp45
 70
     1
102
RTVSPropertyOp46
 70
     1
102
RTVSPropertyOp47
 70
     1
102
RTVSPropertyOp48
 70
     1
102
RTVSPropertyOp49
 70
     1
102
RTVSPropertyOp50
 70
     1
102
RTVSPropertyOp51
 70
     0
102
RTVSPropertyOp52
 70
     0
102
RTVSPropertyOp53
 70
     1
102
RTVSPropertyOp54
 70
     1
102
RTVSPropertyOp55
 70
     1
102
RTVSPropertyOp56
 70
     1
102
RTVSPropertyOp57
 70
     1
102
RTVSPropertyOp58
 70
     1
102
RTVSPropertyOp59
 70
     1
102
RTVSPropertyOp60
 70
     1
102
RTVSPropertyOp61
 70
     1
102
RTVSPropertyOp62
 70
     1
  0
ENDSEC
  0
EOF
