  0
SECTION
  2
HEADER
  9
$ACADVER
  1
AC1015
  9
$ACADMAINTVER
 70
    20
  9
$DWGCODEPAGE
  3
ANSI_932
  9
$INSBASE
 10
0.0
 20
0.0
 30
0.0
  9
$EXTMIN
 10
9.384043999999999
 20
9.999999999999998
 30
0.0
  9
$EXTMAX
 10
375.2820039999999
 20
259.208141
 30
0.0
  9
$LIMMIN
 10
0.0
 20
0.0
  9
$LIMMAX
 10
396.0
 20
273.0
  9
$ORTHOMODE
 70
     1
  9
$REGENMODE
 70
     1
  9
$FILLMODE
 70
     1
  9
$QTEXTMODE
 70
     0
  9
$MIRRTEXT
 70
     1
  9
$LTSCALE
 40
20.0
  9
$ATTMODE
 70
     1
  9
$TEXTSIZE
 40
5.0
  9
$TRACEWID
 40
1.0
  9
$TEXTSTYLE
  7
STANDARD
  9
$CLAYER
  8
0
  9
$CELTYPE
  6
BYLAYER
  9
$CECOLOR
 62
   256
  9
$CELTSCALE
 40
1.0
  9
$DISPSILH
 70
     0
  9
$DIMSCALE
 40
1.0
  9
$DIMASZ
 40
3.0
  9
$DIMEXO
 40
1.0
  9
$DIMDLI
 40
10.0
  9
$DIMRND
 40
0.0
  9
$DIMDLE
 40
0.0
  9
$DIMEXE
 40
1.0
  9
$DIMTP
 40
0.0
  9
$DIMTM
 40
0.0
  9
$DIMTXT
 40
3.2
  9
$DIMCEN
 40
0.0
  9
$DIMTSZ
 40
0.0
  9
$DIMTOL
 70
     0
  9
$DIMLIM
 70
     0
  9
$DIMTIH
 70
     0
  9
$DIMTOH
 70
     0
  9
$DIMSE1
 70
     0
  9
$DIMSE2
 70
     0
  9
$DIMTAD
 70
     3
  9
$DIMZIN
 70
     8
  9
$DIMBLK
  1

  9
$DIMASO
 70
     1
  9
$DIMSHO
 70
     1
  9
$DIMPOST
  1

  9
$DIMAPOST
  1

  9
$DIMALT
 70
     0
  9
$DIMALTD
 70
     2
  9
$DIMALTF
 40
25.4
  9
$DIMLFAC
 40
1.0
  9
$DIMTOFL
 70
     1
  9
$DIMTVP
 40
0.0
  9
$DIMTIX
 70
     0
  9
$DIMSOXD
 70
     0
  9
$DIMSAH
 70
     1
  9
$DIMBLK1
  1

  9
$DIMBLK2
  1

  9
$DIMSTYLE
  2
STANDARD
  9
$DIMCLRD
 70
     0
  9
$DIMCLRE
 70
     0
  9
$DIMCLRT
 70
     0
  9
$DIMTFAC
 40
1.0
  9
$DIMGAP
 40
1.0
  9
$DIMJUST
 70
     0
  9
$DIMSD1
 70
     0
  9
$DIMSD2
 70
     0
  9
$DIMTOLJ
 70
     1
  9
$DIMTZIN
 70
     0
  9
$DIMALTZ
 70
     0
  9
$DIMALTTZ
 70
     0
  9
$DIMUPT
 70
     0
  9
$DIMDEC
 70
     4
  9
$DIMTDEC
 70
     4
  9
$DIMALTU
 70
     2
  9
$DIMALTTD
 70
     2
  9
$DIMTXSTY
  7
STANDARD
  9
$DIMAUNIT
 70
     0
  9
$DIMADEC
 70
     0
  9
$DIMALTRND
 40
0.0
  9
$DIMAZIN
 70
     0
  9
$DIMDSEP
 70
    46
  9
$DIMATFIT
 70
     3
  9
$DIMFRAC
 70
     0
  9
$DIMLDRBLK
  1

  9
$DIMLUNIT
 70
     2
  9
$DIMLWD
 70
    -2
  9
$DIMLWE
 70
    -2
  9
$DIMTMOVE
 70
     0
  9
$LUNITS
 70
     2
  9
$LUPREC
 70
     4
  9
$SKETCHINC
 40
1.0
  9
$FILLETRAD
 40
2.5
  9
$AUNITS
 70
     0
  9
$AUPREC
 70
     2
  9
$MENU
  1
.
  9
$ELEVATION
 40
0.0
  9
$PELEVATION
 40
0.0
  9
$THICKNESS
 40
0.0
  9
$LIMCHECK
 70
     0
  9
$CHAMFERA
 40
10.0
  9
$CHAMFERB
 40
10.0
  9
$CHAMFERC
 40
0.0
  9
$CHAMFERD
 40
0.0
  9
$SKPOLY
 70
     0
  9
$TDCREATE
 40
2450955.746136690
  9
$TDUCREATE
 40
2450955.371136690
  9
$TDUPDATE
 40
2457192.600711887
  9
$TDUUPDATE
 40
2457192.225711887
  9
$TDINDWG
 40
0.0000142477
  9
$TDUSRTIMER
 40
0.0000139236
  9
$USRTIMER
 70
     1
  9
$ANGBASE
 50
0.0
  9
$ANGDIR
 70
     0
  9
$PDMODE
 70
     0
  9
$PDSIZE
 40
0.0
  9
$PLINEWID
 40
0.0
  9
$SPLFRAME
 70
     0
  9
$SPLINETYPE
 70
     6
  9
$SPLINESEGS
 70
     8
  9
$HANDSEED
  5
5B9
  9
$SURFTAB1
 70
     6
  9
$SURFTAB2
 70
     6
  9
$SURFTYPE
 70
     6
  9
$SURFU
 70
     6
  9
$SURFV
 70
     6
  9
$UCSBASE
  2

  9
$UCSNAME
  2

  9
$UCSORG
 10
0.0
 20
0.0
 30
0.0
  9
$UCSXDIR
 10
1.0
 20
0.0
 30
0.0
  9
$UCSYDIR
 10
0.0
 20
1.0
 30
0.0
  9
$UCSORTHOREF
  2

  9
$UCSORTHOVIEW
 70
     0
  9
$UCSORGTOP
 10
0.0
 20
0.0
 30
0.0
  9
$UCSORGBOTTOM
 10
0.0
 20
0.0
 30
0.0
  9
$UCSORGLEFT
 10
0.0
 20
0.0
 30
0.0
  9
$UCSORGRIGHT
 10
0.0
 20
0.0
 30
0.0
  9
$UCSORGFRONT
 10
0.0
 20
0.0
 30
0.0
  9
$UCSORGBACK
 10
0.0
 20
0.0
 30
0.0
  9
$PUCSBASE
  2

  9
$PUCSNAME
  2

  9
$PUCSORG
 10
0.0
 20
0.0
 30
0.0
  9
$PUCSXDIR
 10
1.0
 20
0.0
 30
0.0
  9
$PUCSYDIR
 10
0.0
 20
1.0
 30
0.0
  9
$PUCSORTHOREF
  2

  9
$PUCSORTHOVIEW
 70
     0
  9
$PUCSORGTOP
 10
0.0
 20
0.0
 30
0.0
  9
$PUCSORGBOTTOM
 10
0.0
 20
0.0
 30
0.0
  9
$PUCSORGLEFT
 10
0.0
 20
0.0
 30
0.0
  9
$PUCSORGRIGHT
 10
0.0
 20
0.0
 30
0.0
  9
$PUCSORGFRONT
 10
0.0
 20
0.0
 30
0.0
  9
$PUCSORGBACK
 10
0.0
 20
0.0
 30
0.0
  9
$USERI1
 70
     0
  9
$USERI2
 70
     0
  9
$USERI3
 70
     0
  9
$USERI4
 70
     0
  9
$USERI5
 70
     0
  9
$USERR1
 40
0.0
  9
$USERR2
 40
0.0
  9
$USERR3
 40
0.0
  9
$USERR4
 40
0.0
  9
$USERR5
 40
0.0
  9
$WORLDVIEW
 70
     1
  9
$SHADEDGE
 70
     3
  9
$SHADEDIF
 70
    70
  9
$TILEMODE
 70
     1
  9
$MAXACTVP
 70
    16
  9
$PINSBASE
 10
0.0
 20
0.0
 30
0.0
  9
$PLIMCHECK
 70
     0
  9
$PEXTMIN
 10
1.000000000000000E+20
 20
1.000000000000000E+20
 30
1.000000000000000E+20
  9
$PEXTMAX
 10
-1.000000000000000E+20
 20
-1.000000000000000E+20
 30
-1.000000000000000E+20
  9
$PLIMMIN
 10
0.0
 20
0.0
  9
$PLIMMAX
 10
420.0
 20
297.0
  9
$UNITMODE
 70
     0
  9
$VISRETAIN
 70
     0
  9
$PLINEGEN
 70
     0
  9
$PSLTSCALE
 70
     0
  9
$TREEDEPTH
 70
  3020
  9
$CMLSTYLE
  2
STANDARD
  9
$CMLJUST
 70
     0
  9
$CMLSCALE
 40
1.0
  9
$PROXYGRAPHICS
 70
     1
  9
$MEASUREMENT
 70
     0
  9
$CELWEIGHT
370
    -1
  9
$ENDCAPS
280
     0
  9
$JOINSTYLE
280
     0
  9
$LWDISPLAY
290
     0
  9
$INSUNITS
 70
     0
  9
$HYPERLINKBASE
  1

  9
$STYLESHEET
  1

  9
$XEDIT
290
     1
  9
$CEPSNTYPE
380
     0
  9
$PSTYLEMODE
290
     1
  9
$FINGERPRINTGUID
  2
{AD63E599-1194-4B71-BBA8-7B104559909D}
  9
$VERSIONGUID
  2
{1F0E5EA2-D109-4708-AD9D-8E0486EF1459}
  9
$EXTNAMES
290
     1
  9
$PSVPSCALE
 40
0.0
  9
$OLESTARTUP
290
     0
  0
ENDSEC
  0
SECTION
  2
CLASSES
  0
CLASS
  1
ACDBDICTIONARYWDFLT
  2
AcDbDictionaryWithDefault
  3
ObjectDBX Classes
 90
        0
280
     0
281
     0
  0
CLASS
  1
ACDBPLACEHOLDER
  2
AcDbPlaceHolder
  3
ObjectDBX Classes
 90
        0
280
     0
281
     0
  0
CLASS
  1
LAYOUT
  2
AcDbLayout
  3
ObjectDBX Classes
 90
        0
280
     0
281
     0
  0
CLASS
  1
DICTIONARYVAR
  2
AcDbDictionaryVar
  3
ObjectDBX Classes
 90
        0
280
     0
281
     0
  0
CLASS
  1
MATERIAL
  2
AcDbMaterial
  3
ObjectDBX Classes
 90
     1153
280
     0
281
     0
  0
CLASS
  1
VISUALSTYLE
  2
AcDbVisualStyle
  3
ObjectDBX Classes
 90
     4095
280
     0
281
     0
  0
CLASS
  1
TABLESTYLE
  2
AcDbTableStyle
  3
ObjectDBX Classes
 90
     4095
280
     0
281
     0
  0
CLASS
  1
SCALE
  2
AcDbScale
  3
ObjectDBX Classes
 90
     1153
280
     0
281
     0
  0
CLASS
  1
MLEADERSTYLE
  2
AcDbMLeaderStyle
  3
ACDB_MLEADERSTYLE_CLASS
 90
     4095
280
     0
281
     0
  0
CLASS
  1
ACDBSECTIONVIEWSTYLE
  2
AcDbSectionViewStyle
  3
ObjectDBX Classes
 90
     1025
280
     0
281
     0
  0
CLASS
  1
ACDBDETAILVIEWSTYLE
  2
AcDbDetailViewStyle
  3
ObjectDBX Classes
 90
     1025
280
     0
281
     0
  0
CLASS
  1
CELLSTYLEMAP
  2
AcDbCellStyleMap
  3
ObjectDBX Classes
 90
     1152
280
     0
281
     0
  0
ENDSEC
  0
SECTION
  2
TABLES
  0
TABLE
  2
VPORT
  5
284
330
0
100
AcDbSymbolTable
 70
     1
  0
VPORT
  5
502
330
284
100
AcDbSymbolTableRecord
100
AcDbViewportTableRecord
  2
*ACTIVE
 70
     0
 10
0.0
 20
0.0
 11
1.0
 21
1.0
 12
267.8226889619391
 22
134.6046301500226
 13
0.0
 23
0.0
 14
10.0
 24
10.0
 15
10.0
 25
10.0
 16
0.0
 26
0.0
 36
1.0
 17
0.0
 27
0.0
 37
0.0
 40
252.0183058312385
 41
1.899603698811096
 42
50.0
 43
0.0
 44
0.0
 50
0.0
 51
0.0
 71
     0
 72
   100
 73
     1
 74
     0
 75
     0
 76
     0
 77
     0
 78
     0
281
     0
 65
     1
110
0.0
120
0.0
130
0.0
111
1.0
121
0.0
131
0.0
112
0.0
122
1.0
132
0.0
 79
     0
146
0.0
1001
ACAD_NAV_VCDISPLAY
1070
     3
  0
ENDTAB
  0
TABLE
  2
LTYPE
  5
281
330
0
100
AcDbSymbolTable
 70
     4
  0
LTYPE
  5
28F
330
281
100
AcDbSymbolTableRecord
100
AcDbLinetypeTableRecord
  2
BYBLOCK
 70
     0
  3

 72
    65
 73
     0
 40
0.0
  0
LTYPE
  5
290
330
281
100
AcDbSymbolTableRecord
100
AcDbLinetypeTableRecord
  2
BYLAYER
 70
     0
  3

 72
    65
 73
     0
 40
0.0
  0
LTYPE
  5
291
330
281
100
AcDbSymbolTableRecord
100
AcDbLinetypeTableRecord
  2
CONTINUOUS
 70
     0
  3
Solid line
 72
    65
 73
     0
 40
0.0
  0
LTYPE
  5
29F
330
281
100
AcDbSymbolTableRecord
100
AcDbLinetypeTableRecord
  2
DASHED
 70
     0
  3
__ __ __ __ __ __ __ __ __ __ __ __ __ __ __ __
 72
    65
 73
     2
 40
0.75
 49
0.5
 74
     0
 49
-0.25
 74
     0
  0
LTYPE
  5
2A0
330
281
100
AcDbSymbolTableRecord
100
AcDbLinetypeTableRecord
  2
CENTER
 70
     0
  3
____ _ ____ _ ____ _ ____ _ ____ _ ____ _ ____ 
 72
    65
 73
     4
 40
2.0
 49
1.25
 74
     0
 49
-0.25
 74
     0
 49
0.25
 74
     0
 49
-0.25
 74
     0
  0
LTYPE
  5
2A1
330
281
100
AcDbSymbolTableRecord
100
AcDbLinetypeTableRecord
  2
PHANTOM
 70
     0
  3
______  __  __  ______  __  __  ______  __  __ 
 72
    65
 73
     6
 40
2.5
 49
1.25
 74
     0
 49
-0.25
 74
     0
 49
0.25
 74
     0
 49
-0.25
 74
     0
 49
0.25
 74
     0
 49
-0.25
 74
     0
  0
ENDTAB
  0
TABLE
  2
LAYER
  5
27E
330
0
100
AcDbSymbolTable
 70
     8
  0
LAYER
  5
28C
102
{ACAD_XDICTIONARY
360
55D
102
}
330
27E
100
AcDbSymbolTableRecord
100
AcDbLayerTableRecord
  2
0
 70
     0
 62
     7
  6
CONTINUOUS
370
    -3
390
50B
  0
LAYER
  5
2A2
102
{ACAD_XDICTIONARY
360
55F
102
}
330
27E
100
AcDbSymbolTableRecord
100
AcDbLayerTableRecord
  2
4
 70
     0
 62
     1
  6
CENTER
370
    -3
390
50B
  0
LAYER
  5
2A3
102
{ACAD_XDICTIONARY
360
561
102
}
330
27E
100
AcDbSymbolTableRecord
100
AcDbLayerTableRecord
  2
5
 70
     0
 62
     6
  6
PHANTOM
370
    -3
390
50B
  0
LAYER
  5
2A4
102
{ACAD_XDICTIONARY
360
563
102
}
330
27E
100
AcDbSymbolTableRecord
100
AcDbLayerTableRecord
  2
1
 70
     0
 62
     7
  6
CONTINUOUS
370
    -3
390
50B
  0
LAYER
  5
2A5
102
{ACAD_XDICTIONARY
360
565
102
}
330
27E
100
AcDbSymbolTableRecord
100
AcDbLayerTableRecord
  2
2
 70
     0
 62
     4
  6
CONTINUOUS
370
    -3
390
50B
  0
LAYER
  5
2A6
102
{ACAD_XDICTIONARY
360
567
102
}
330
27E
100
AcDbSymbolTableRecord
100
AcDbLayerTableRecord
  2
3
 70
     0
 62
     2
  6
DASHED
370
    -3
390
50B
  0
LAYER
  5
2A7
102
{ACAD_XDICTIONARY
360
569
102
}
330
27E
100
AcDbSymbolTableRecord
100
AcDbLayerTableRecord
  2
6
 70
     0
 62
     5
  6
CONTINUOUS
370
    -3
390
50B
  0
LAYER
  5
2A8
102
{ACAD_XDICTIONARY
360
56B
102
}
330
27E
100
AcDbSymbolTableRecord
100
AcDbLayerTableRecord
  2
7
 70
     0
 62
     3
  6
CONTINUOUS
370
    -3
390
50B
  0
ENDTAB
  0
TABLE
  2
STYLE
  5
27F
330
0
100
AcDbSymbolTable
 70
     1
  0
STYLE
  5
28D
330
27F
100
AcDbSymbolTableRecord
100
AcDbTextStyleTableRecord
  2
STANDARD
 70
     0
 40
0.0
 41
1.0
 50
0.0
 71
     0
 42
5.0
  3
txt
  4

  0
ENDTAB
  0
TABLE
  2
VIEW
  5
282
330
0
100
AcDbSymbolTable
 70
     0
  0
ENDTAB
  0
TABLE
  2
UCS
  5
283
330
0
100
AcDbSymbolTable
 70
     0
  0
ENDTAB
  0
TABLE
  2
APPID
  5
285
330
0
100
AcDbSymbolTable
 70
     3
  0
APPID
  5
28E
330
285
100
AcDbSymbolTableRecord
100
AcDbRegAppTableRecord
  2
ACAD
 70
     0
  0
APPID
  5
577
330
285
100
AcDbSymbolTableRecord
100
AcDbRegAppTableRecord
  2
ACAD_NAV_VCDISPLAY
 70
     0
  0
APPID
  5
5B0
330
285
100
AcDbSymbolTableRecord
100
AcDbRegAppTableRecord
  2
ACAD_MLEADERVER
 70
     0
  0
ENDTAB
  0
TABLE
  2
DIMSTYLE
  5
286
330
0
100
AcDbSymbolTable
 70
     1
100
AcDbDimStyleTable
 71
     0
  0
DIMSTYLE
105
2AA
330
286
100
AcDbSymbolTableRecord
100
AcDbDimStyleTableRecord
  2
STANDARD
 70
     0
 41
3.0
 42
1.0
 43
10.0
 44
1.0
 73
     0
 74
     0
 77
     3
 78
     8
140
3.2
141
0.0
147
1.0
172
     1
173
     1
284
     8
285
     8
286
     8
340
28D
  0
ENDTAB
  0
TABLE
  2
BLOCK_RECORD
  5
27D
330
0
100
AcDbSymbolTable
 70
     0
  0
BLOCK_RECORD
  5
29A
102
{ACAD_XDICTIONARY
360
505
102
}
330
27D
100
AcDbSymbolTableRecord
100
AcDbBlockTableRecord
  2
*MODEL_SPACE
340
559
  0
BLOCK_RECORD
  5
296
102
{ACAD_XDICTIONARY
360
503
102
}
330
27D
100
AcDbSymbolTableRecord
100
AcDbBlockTableRecord
  2
*PAPER_SPACE
340
55A
  0
ENDTAB
  0
ENDSEC
  0
SECTION
  2
BLOCKS
  0
BLOCK
  5
29B
330
29A
100
AcDbEntity
  8
0
100
AcDbBlockBegin
  2
*MODEL_SPACE
 70
     0
 10
0.0
 20
0.0
 30
0.0
  3
*MODEL_SPACE
  1

  0
ENDBLK
  5
29C
330
29A
100
AcDbEntity
  8
0
100
AcDbBlockEnd
  0
BLOCK
  5
297
330
296
100
AcDbEntity
 67
     1
  8
0
100
AcDbBlockBegin
  2
*PAPER_SPACE
 70
     0
 10
0.0
 20
0.0
 30
0.0
  3
*PAPER_SPACE
  1

  0
ENDBLK
  5
298
330
296
100
AcDbEntity
 67
     1
  8
0
100
AcDbBlockEnd
  0
ENDSEC
  0
SECTION
  2
ENTITIES
  0
TEXT
  5
2B2
330
29A
100
AcDbEntity
  8
7
  6
Continuous
100
AcDbText
 10
10.0
 20
18.0
 30
0.0
 40
3.0
  1
TYPE No.TL-249
100
AcDbText
  0
TEXT
  5
2B3
330
29A
100
AcDbEntity
  8
7
  6
Continuous
100
AcDbText
 10
10.0
 20
26.0
 30
0.0
 40
3.0
  1
CODE No.1720
100
AcDbText
  0
TEXT
  5
2B4
330
29A
100
AcDbEntity
  8
1
  6
Continuous
100
AcDbText
 10
10.0
 20
10.0
 30
0.0
 40
1.399999999999999
  1
LAYER
100
AcDbText
  0
TEXT
  5
2B5
330
29A
100
AcDbEntity
  8
1
  6
Continuous
100
AcDbText
 10
17.97951099999998
 20
10.04873699999998
 30
0.0
 40
1.399999999999999
  1
1
100
AcDbText
  0
TEXT
  5
2B6
330
29A
100
AcDbEntity
  8
7
  6
Continuous
100
AcDbText
 10
29.97951099999999
 20
10.04873699999998
 30
0.0
 40
1.399999999999999
  1
7
100
AcDbText
  0
TEXT
  5
2B7
330
29A
100
AcDbEntity
  8
4
  6
CENTER
100
AcDbText
 10
23.97951099999999
 20
10.04873699999998
 30
0.0
 40
1.399999999999999
  1
4
100
AcDbText
  0
TEXT
  5
2B8
330
29A
100
AcDbEntity
  8
3
  6
DASHED
100
AcDbText
 10
21.979511
 20
10.04873699999998
 30
0.0
 40
1.399999999999999
  1
3
100
AcDbText
  0
TEXT
  5
2B9
330
29A
100
AcDbEntity
  8
2
  6
Continuous
100
AcDbText
 10
19.97951099999999
 20
10.04873699999998
 30
0.0
 40
1.399999999999999
  1
2
100
AcDbText
  0
TEXT
  5
2BA
330
29A
100
AcDbEntity
  8
6
  6
Continuous
100
AcDbText
 10
27.979511
 20
10.04873699999998
 30
0.0
 40
1.399999999999999
  1
6
100
AcDbText
  0
TEXT
  5
2BB
330
29A
100
AcDbEntity
  8
5
  6
PHANTOM
100
AcDbText
 10
25.97951099999999
 20
10.04873699999998
 30
0.0
 40
1.399999999999999
  1
5
100
AcDbText
  0
LINE
  5
2BC
330
29A
100
AcDbEntity
  8
1
  6
Continuous
100
AcDbLine
 10
144.3222419999998
 20
254.208141
 30
0.0
 11
133.5222389999999
 21
254.208141
 31
0.0
  0
LINE
  5
2BD
330
29A
100
AcDbEntity
  8
4
  6
CENTER
100
AcDbLine
 10
124.3222419999999
 20
259.208141
 30
0.0
 11
124.3222419999999
 21
229.0081359999998
 31
0.0
  0
LINE
  5
2BE
330
29A
100
AcDbEntity
  8
1
  6
Continuous
100
AcDbLine
 10
132.322242
 20
234.0081359999998
 30
0.0
 11
116.3222419999998
 21
234.0081359999998
 31
0.0
  0
LINE
  5
2BF
330
29A
100
AcDbEntity
  8
1
  6
Continuous
100
AcDbLine
 10
144.3222419999998
 20
254.208141
 30
0.0
 11
144.3222419999998
 21
253.0081399999999
 31
0.0
  0
LINE
  5
2C0
330
29A
100
AcDbEntity
  8
1
  6
Continuous
100
AcDbLine
 10
104.3222419999999
 20
254.208141
 30
0.0
 11
104.3222419999999
 21
253.0081399999999
 31
0.0
  0
LINE
  5
2C1
330
29A
100
AcDbEntity
  8
1
  6
Continuous
100
AcDbLine
 10
115.1222289999999
 20
253.0081399999999
 30
0.0
 11
104.3222419999999
 21
253.0081399999999
 31
0.0
  0
LINE
  5
2C2
330
29A
100
AcDbEntity
  8
1
  6
Continuous
100
AcDbLine
 10
116.3222419999998
 20
253.0081399999999
 30
0.0
 11
116.3222419999998
 21
244.042526
 31
0.0
  0
LINE
  5
2C3
330
29A
100
AcDbEntity
  8
1
  6
Continuous
100
AcDbLine
 10
132.322242
 20
253.0081399999999
 30
0.0
 11
132.322242
 21
244.042526
 31
0.0
  0
LINE
  5
2C4
330
29A
100
AcDbEntity
  8
1
  6
Continuous
100
AcDbLine
 10
115.1222289999999
 20
253.0081399999999
 30
0.0
 11
115.1222289999999
 21
244.2139549999999
 31
0.0
  0
LINE
  5
2C5
330
29A
100
AcDbEntity
  8
1
  6
Continuous
100
AcDbLine
 10
133.5222389999999
 20
253.0081399999999
 30
0.0
 11
133.5222389999999
 21
244.2139549999999
 31
0.0
  0
LINE
  5
2C6
330
29A
100
AcDbEntity
  8
1
  6
Continuous
100
AcDbLine
 10
132.322242
 20
235.208141
 30
0.0
 11
132.0722419999998
 21
235.208141
 31
0.0
  0
LINE
  5
2C7
330
29A
100
AcDbEntity
  8
1
  6
Continuous
100
AcDbLine
 10
144.3222419999998
 20
253.0081399999999
 30
0.0
 11
133.5222389999999
 21
253.0081399999999
 31
0.0
  0
LINE
  5
2C8
330
29A
100
AcDbEntity
  8
1
  6
Continuous
100
AcDbLine
 10
115.1222289999999
 20
254.208141
 30
0.0
 11
104.3222419999999
 21
254.208141
 31
0.0
  0
LINE
  5
2C9
330
29A
100
AcDbEntity
  8
1
  6
Continuous
100
AcDbLine
 10
134.5222389999999
 20
242.408138
 30
0.0
 11
133.8222419999999
 21
242.408138
 31
0.0
  0
LINE
  5
2CA
330
29A
100
AcDbEntity
  8
1
  6
Continuous
100
AcDbLine
 10
114.1222289999999
 20
242.408138
 30
0.0
 11
114.8222419999999
 21
242.408138
 31
0.0
  0
LINE
  5
2CB
330
29A
100
AcDbEntity
  8
1
  6
Continuous
100
AcDbLine
 10
114.1222289999999
 20
241.208141
 30
0.0
 11
115.1222289999999
 21
241.208141
 31
0.0
  0
LINE
  5
2CC
330
29A
100
AcDbEntity
  8
1
  6
Continuous
100
AcDbLine
 10
104.3222419999999
 20
153.45496
 30
0.0
 11
104.3222419999999
 21
128.45496
 31
0.0
  0
LINE
  5
2CD
330
29A
100
AcDbEntity
  8
1
  6
Continuous
100
AcDbLine
 10
144.3222419999998
 20
153.45496
 30
0.0
 11
144.3222419999998
 21
128.45496
 31
0.0
  0
LINE
  5
2CE
330
29A
100
AcDbEntity
  8
1
  6
Continuous
100
AcDbLine
 10
106.8222419999999
 20
155.9549599999998
 30
0.0
 11
116.3222419999998
 21
155.9549599999998
 31
0.0
  0
LINE
  5
2CF
330
29A
100
AcDbEntity
  8
1
  6
Continuous
100
AcDbLine
 10
106.8222419999999
 20
125.95496
 30
0.0
 11
141.822242
 21
125.95496
 31
0.0
  0
LINE
  5
2D0
330
29A
100
AcDbEntity
  8
4
  6
CENTER
100
AcDbLine
 10
124.3222419999999
 20
179.2841219999999
 30
0.0
 11
124.3222419999999
 21
120.95496
 31
0.0
  0
LINE
  5
2D1
330
29A
100
AcDbEntity
  8
1
  6
Continuous
100
AcDbLine
 10
116.3222419999998
 20
155.9549599999998
 30
0.0
 11
116.3222419999998
 21
145.95496
 31
0.0
  0
LINE
  5
2D2
330
29A
100
AcDbEntity
  8
1
  6
Continuous
100
AcDbLine
 10
132.322242
 20
155.9549599999998
 30
0.0
 11
132.322242
 21
145.95496
 31
0.0
  0
LINE
  5
2D3
330
29A
100
AcDbEntity
  8
1
  6
Continuous
100
AcDbLine
 10
115.1222289999999
 20
145.95496
 30
0.0
 11
117.707862
 21
145.95496
 31
0.0
  0
LINE
  5
2D4
330
29A
100
AcDbEntity
  8
1
  6
Continuous
100
AcDbLine
 10
132.322242
 20
155.9549599999998
 30
0.0
 11
141.822242
 21
155.9549599999998
 31
0.0
  0
LINE
  5
2D5
330
29A
100
AcDbEntity
  8
1
  6
Continuous
100
AcDbLine
 10
130.936606
 20
145.95496
 30
0.0
 11
133.5222389999999
 21
145.95496
 31
0.0
  0
LINE
  5
2D6
330
29A
100
AcDbEntity
  8
1
  6
Continuous
100
AcDbLine
 10
133.0722419999998
 20
138.4549599999998
 30
0.0
 11
133.0722419999998
 21
134.45496
 31
0.0
  0
LINE
  5
2D7
330
29A
100
AcDbEntity
  8
1
  6
Continuous
100
AcDbLine
 10
115.5722419999999
 20
138.4549599999998
 30
0.0
 11
115.5722419999999
 21
134.45496
 31
0.0
  0
LINE
  5
2D8
330
29A
100
AcDbEntity
  8
1
  6
Continuous
100
AcDbLine
 10
111.9222319999999
 20
138.4549599999998
 30
0.0
 11
115.5722419999999
 21
138.4549599999998
 31
0.0
  0
LINE
  5
2D9
330
29A
100
AcDbEntity
  8
1
  6
Continuous
100
AcDbLine
 10
111.9222319999999
 20
134.45496
 30
0.0
 11
115.5722419999999
 21
134.45496
 31
0.0
  0
LINE
  5
2DA
330
29A
100
AcDbEntity
  8
1
  6
Continuous
100
AcDbLine
 10
133.0722419999998
 20
138.4549599999998
 30
0.0
 11
136.722235
 21
138.4549599999998
 31
0.0
  0
LINE
  5
2DB
330
29A
100
AcDbEntity
  8
1
  6
Continuous
100
AcDbLine
 10
133.0722419999998
 20
134.45496
 30
0.0
 11
136.722235
 21
134.45496
 31
0.0
  0
LINE
  5
2DC
330
29A
100
AcDbEntity
  8
1
  6
Continuous
100
AcDbLine
 10
115.1222289999999
 20
155.9549599999998
 30
0.0
 11
115.1222289999999
 21
125.95496
 31
0.0
  0
LINE
  5
2DD
330
29A
100
AcDbEntity
  8
1
  6
Continuous
100
AcDbLine
 10
133.5222389999999
 20
155.9549599999998
 30
0.0
 11
133.5222389999999
 21
125.95496
 31
0.0
  0
LINE
  5
2DE
330
29A
100
AcDbEntity
  8
4
  6
CENTER
100
AcDbLine
 10
139.3222419999998
 20
151.9549599999998
 30
0.0
 11
139.3222419999998
 21
135.95496
 31
0.0
  0
LINE
  5
2DF
330
29A
100
AcDbEntity
  8
4
  6
CENTER
100
AcDbLine
 10
134.8222419999999
 20
143.95496
 30
0.0
 11
143.8222419999999
 21
143.95496
 31
0.0
  0
LINE
  5
2E0
330
29A
100
AcDbEntity
  8
1
  6
Continuous
100
AcDbLine
 10
141.822242
 20
147.45496
 30
0.0
 11
141.822242
 21
140.4549599999998
 31
0.0
  0
LINE
  5
2E1
330
29A
100
AcDbEntity
  8
1
  6
Continuous
100
AcDbLine
 10
136.8222419999999
 20
147.45496
 30
0.0
 11
136.8222419999999
 21
140.4549599999998
 31
0.0
  0
LINE
  5
2E2
330
29A
100
AcDbEntity
  8
1
  6
Continuous
100
AcDbLine
 10
111.8222419999999
 20
147.45496
 30
0.0
 11
111.8222419999999
 21
140.4549599999998
 31
0.0
  0
LINE
  5
2E3
330
29A
100
AcDbEntity
  8
1
  6
Continuous
100
AcDbLine
 10
106.8222419999999
 20
147.45496
 30
0.0
 11
106.8222419999999
 21
140.4549599999998
 31
0.0
  0
LINE
  5
2E4
330
29A
100
AcDbEntity
  8
4
  6
CENTER
100
AcDbLine
 10
113.8222419999999
 20
143.95496
 30
0.0
 11
104.822242
 21
143.95496
 31
0.0
  0
LINE
  5
2E5
330
29A
100
AcDbEntity
  8
4
  6
CENTER
100
AcDbLine
 10
109.3222419999999
 20
151.9549599999998
 30
0.0
 11
109.3222419999999
 21
135.95496
 31
0.0
  0
LINE
  5
2E6
330
29A
100
AcDbEntity
  8
1
  6
Continuous
100
AcDbLine
 10
236.7485259999999
 20
155.9549599999998
 30
0.0
 11
252.7485259999999
 21
155.9549599999998
 31
0.0
  0
LINE
  5
2E7
330
29A
100
AcDbEntity
  8
1
  6
Continuous
100
AcDbLine
 10
232.548514
 20
125.95496
 30
0.0
 11
252.7485259999999
 21
125.95496
 31
0.0
  0
LINE
  5
2E8
330
29A
100
AcDbEntity
  8
1
  6
Continuous
100
AcDbLine
 10
252.7485259999999
 20
155.9549599999998
 30
0.0
 11
252.7485259999999
 21
125.95496
 31
0.0
  0
LINE
  5
2E9
330
29A
100
AcDbEntity
  8
1
  6
Continuous
100
AcDbLine
 10
233.2485259999999
 20
152.45496
 30
0.0
 11
233.2485259999999
 21
145.95496
 31
0.0
  0
LINE
  5
2EA
330
29A
100
AcDbEntity
  8
1
  6
Continuous
100
AcDbLine
 10
232.548514
 20
145.95496
 30
0.0
 11
232.548514
 21
125.95496
 31
0.0
  0
LINE
  5
2EB
330
29A
100
AcDbEntity
  8
1
  6
Continuous
100
AcDbLine
 10
232.548514
 20
145.95496
 30
0.0
 11
233.2485259999999
 21
145.95496
 31
0.0
  0
LINE
  5
2EC
330
29A
100
AcDbEntity
  8
1
  6
Continuous
100
AcDbLine
 10
251.548514
 20
155.9549599999998
 30
0.0
 11
251.548514
 21
125.95496
 31
0.0
  0
LINE
  5
2ED
330
29A
100
AcDbEntity
  8
4
  6
CENTER
100
AcDbLine
 10
238.7485259999999
 20
155.45496
 30
0.0
 11
238.7485259999999
 21
149.45496
 31
0.0
  0
LINE
  5
2EE
330
29A
100
AcDbEntity
  8
4
  6
CENTER
100
AcDbLine
 10
235.7485259999999
 20
152.45496
 30
0.0
 11
241.7485259999998
 21
152.45496
 31
0.0
  0
LINE
  5
2EF
330
29A
100
AcDbEntity
  8
4
  6
CENTER
100
AcDbLine
 10
249.2485259999999
 20
141.4549599999998
 30
0.0
 11
249.2485259999999
 21
134.45496
 31
0.0
  0
LINE
  5
2F0
330
29A
100
AcDbEntity
  8
4
  6
CENTER
100
AcDbLine
 10
245.7485259999999
 20
137.95496
 30
0.0
 11
252.7485259999999
 21
137.95496
 31
0.0
  0
LINE
  5
2F1
330
29A
100
AcDbEntity
  8
1
  6
Continuous
100
AcDbLine
 10
232.548514
 20
138.4549599999998
 30
0.0
 11
240.9485389999999
 21
138.4549599999998
 31
0.0
  0
LINE
  5
2F2
330
29A
100
AcDbEntity
  8
1
  6
Continuous
100
AcDbLine
 10
232.548514
 20
134.45496
 30
0.0
 11
240.9485389999999
 21
134.45496
 31
0.0
  0
LINE
  5
2F3
330
29A
100
AcDbEntity
  8
1
  6
Continuous
100
AcDbLine
 10
240.9485389999999
 20
138.4549599999998
 30
0.0
 11
240.9485389999999
 21
134.45496
 31
0.0
  0
LINE
  5
2F4
330
29A
100
AcDbEntity
  8
1
  6
Continuous
100
AcDbLine
 10
235.7485259999999
 20
138.4549599999998
 30
0.0
 11
235.7485259999999
 21
134.45496
 31
0.0
  0
LINE
  5
2F5
330
29A
100
AcDbEntity
  8
4
  6
CENTER
100
AcDbLine
 10
18.38404399999999
 20
137.95496
 30
0.0
 11
11.38404399999999
 21
137.95496
 31
0.0
  0
LINE
  5
2F6
330
29A
100
AcDbEntity
  8
1
  6
Continuous
100
AcDbLine
 10
23.184043
 20
138.4549599999998
 30
0.0
 11
23.184043
 21
134.45496
 31
0.0
  0
LINE
  5
2F7
330
29A
100
AcDbEntity
  8
1
  6
Continuous
100
AcDbLine
 10
31.584044
 20
134.45496
 30
0.0
 11
23.184043
 21
134.45496
 31
0.0
  0
LINE
  5
2F8
330
29A
100
AcDbEntity
  8
1
  6
Continuous
100
AcDbLine
 10
31.584044
 20
138.4549599999998
 30
0.0
 11
23.184043
 21
138.4549599999998
 31
0.0
  0
LINE
  5
2F9
330
29A
100
AcDbEntity
  8
4
  6
CENTER
100
AcDbLine
 10
14.884044
 20
141.4549599999998
 30
0.0
 11
14.884044
 21
134.45496
 31
0.0
  0
LINE
  5
2FA
330
29A
100
AcDbEntity
  8
4
  6
CENTER
100
AcDbLine
 10
28.38404399999999
 20
152.45496
 30
0.0
 11
22.38404399999998
 21
152.45496
 31
0.0
  0
LINE
  5
2FB
330
29A
100
AcDbEntity
  8
4
  6
CENTER
100
AcDbLine
 10
25.384044
 20
155.45496
 30
0.0
 11
25.384044
 21
149.45496
 31
0.0
  0
LINE
  5
2FC
330
29A
100
AcDbEntity
  8
1
  6
Continuous
100
AcDbLine
 10
12.584044
 20
155.9549599999998
 30
0.0
 11
12.584044
 21
125.95496
 31
0.0
  0
LINE
  5
2FD
330
29A
100
AcDbEntity
  8
1
  6
Continuous
100
AcDbLine
 10
31.584044
 20
145.95496
 30
0.0
 11
30.88404399999999
 21
145.95496
 31
0.0
  0
LINE
  5
2FE
330
29A
100
AcDbEntity
  8
1
  6
Continuous
100
AcDbLine
 10
31.584044
 20
145.95496
 30
0.0
 11
31.584044
 21
125.95496
 31
0.0
  0
LINE
  5
2FF
330
29A
100
AcDbEntity
  8
1
  6
Continuous
100
AcDbLine
 10
30.88404399999999
 20
152.45496
 30
0.0
 11
30.88404399999999
 21
145.95496
 31
0.0
  0
LINE
  5
300
330
29A
100
AcDbEntity
  8
1
  6
Continuous
100
AcDbLine
 10
11.38404399999999
 20
155.9549599999998
 30
0.0
 11
11.38404399999999
 21
125.95496
 31
0.0
  0
LINE
  5
301
330
29A
100
AcDbEntity
  8
1
  6
Continuous
100
AcDbLine
 10
31.584044
 20
125.95496
 30
0.0
 11
11.38404399999999
 21
125.95496
 31
0.0
  0
LINE
  5
302
330
29A
100
AcDbEntity
  8
1
  6
Continuous
100
AcDbLine
 10
27.384044
 20
155.9549599999998
 30
0.0
 11
11.38404399999999
 21
155.9549599999998
 31
0.0
  0
LINE
  5
303
330
29A
100
AcDbEntity
  8
1
  6
Continuous
100
AcDbLine
 10
130.472235
 20
172.732425
 30
0.0
 11
130.472235
 21
145.5696749999999
 31
0.0
  0
LINE
  5
304
330
29A
100
AcDbEntity
  8
1
  6
Continuous
100
AcDbLine
 10
118.1722319999999
 20
172.732425
 30
0.0
 11
118.1722319999999
 21
145.5696749999999
 31
0.0
  0
LINE
  5
305
330
29A
100
AcDbEntity
  8
1
  6
Continuous
100
AcDbLine
 10
116.5722419999999
 20
172.684131
 30
0.0
 11
116.5722419999999
 21
145.95496
 31
0.0
  0
LINE
  5
306
330
29A
100
AcDbEntity
  8
1
  6
Continuous
100
AcDbLine
 10
132.0722419999998
 20
172.684131
 30
0.0
 11
132.0722419999998
 21
145.95496
 31
0.0
  0
LINE
  5
307
330
29A
100
AcDbEntity
  8
1
  6
Continuous
100
AcDbLine
 10
118.1722319999999
 20
234.208141
 30
0.0
 11
118.1722319999999
 21
239.1199069999999
 31
0.0
  0
LINE
  5
308
330
29A
100
AcDbEntity
  8
1
  6
Continuous
100
AcDbLine
 10
130.472235
 20
234.208141
 30
0.0
 11
130.472235
 21
239.1199069999999
 31
0.0
  0
LINE
  5
309
330
29A
100
AcDbEntity
  8
1
  6
Continuous
100
AcDbLine
 10
116.5722419999999
 20
234.208141
 30
0.0
 11
116.5722419999999
 21
253.2081409999999
 31
0.0
  0
LINE
  5
30A
330
29A
100
AcDbEntity
  8
1
  6
Continuous
100
AcDbLine
 10
132.0722419999998
 20
234.208141
 30
0.0
 11
132.0722419999998
 21
253.2081409999999
 31
0.0
  0
LINE
  5
30B
330
29A
100
AcDbEntity
  8
1
  6
Continuous
100
AcDbLine
 10
113.1222289999999
 20
151.45496
 30
0.0
 11
113.1222289999999
 21
138.4549599999998
 31
0.0
  0
LINE
  5
30C
330
29A
100
AcDbEntity
  8
1
  6
Continuous
100
AcDbLine
 10
119.122229
 20
153.45496
 30
0.0
 11
119.122229
 21
151.45496
 31
0.0
  0
LINE
  5
30D
330
29A
100
AcDbEntity
  8
1
  6
Continuous
100
AcDbLine
 10
116.3222419999998
 20
151.45496
 30
0.0
 11
116.5722419999999
 21
151.45496
 31
0.0
  0
LINE
  5
30E
330
29A
100
AcDbEntity
  8
1
  6
Continuous
100
AcDbLine
 10
132.322242
 20
153.45496
 30
0.0
 11
132.0722419999998
 21
153.45496
 31
0.0
  0
LINE
  5
30F
330
29A
100
AcDbEntity
  8
1
  6
Continuous
100
AcDbLine
 10
135.5222389999999
 20
151.45496
 30
0.0
 11
135.5222389999999
 21
138.4549599999998
 31
0.0
  0
LINE
  5
310
330
29A
100
AcDbEntity
  8
1
  6
Continuous
100
AcDbLine
 10
129.5222389999999
 20
153.45496
 30
0.0
 11
129.5222389999999
 21
151.45496
 31
0.0
  0
LINE
  5
311
330
29A
100
AcDbEntity
  8
1
  6
Continuous
100
AcDbLine
 10
132.322242
 20
151.45496
 30
0.0
 11
132.0722419999998
 21
151.45496
 31
0.0
  0
LINE
  5
312
330
29A
100
AcDbEntity
  8
4
  6
CENTER
100
AcDbLine
 10
249.5485139999999
 20
143.95496
 30
0.0
 11
254.7485259999999
 21
143.95496
 31
0.0
  0
LINE
  5
313
330
29A
100
AcDbEntity
  8
4
  6
CENTER
100
AcDbLine
 10
9.384043999999999
 20
143.95496
 30
0.0
 11
14.584044
 21
143.95496
 31
0.0
  0
LINE
  5
314
330
29A
100
AcDbEntity
  8
4
  6
CENTER
100
AcDbLine
 10
345.2820039999999
 20
137.95496
 30
0.0
 11
365.2820039999999
 21
137.95496
 31
0.0
  0
LINE
  5
315
330
29A
100
AcDbEntity
  8
4
  6
CENTER
100
AcDbLine
 10
355.2820039999998
 20
179.2841219999999
 30
0.0
 11
355.2820039999998
 21
120.95496
 31
0.0
  0
LINE
  5
316
330
29A
100
AcDbEntity
  8
1
  6
Continuous
100
AcDbLine
 10
347.2820039999998
 20
139.4549599999998
 30
0.0
 11
354.681998
 21
139.4549599999998
 31
0.0
  0
LINE
  5
317
330
29A
100
AcDbEntity
  8
1
  6
Continuous
100
AcDbLine
 10
347.2820039999998
 20
136.4549599999998
 30
0.0
 11
354.681998
 21
136.4549599999998
 31
0.0
  0
LINE
  5
318
330
29A
100
AcDbEntity
  8
1
  6
Continuous
100
AcDbLine
 10
115.1222289999999
 20
42.134815
 30
0.0
 11
104.3222419999999
 21
42.134815
 31
0.0
  0
LINE
  5
319
330
29A
100
AcDbEntity
  8
1
  6
Continuous
100
AcDbLine
 10
104.3222419999999
 20
40.934803
 30
0.0
 11
104.3222419999999
 21
42.134815
 31
0.0
  0
LINE
  5
31A
330
29A
100
AcDbEntity
  8
1
  6
Continuous
100
AcDbLine
 10
132.322242
 20
42.134815
 30
0.0
 11
132.322242
 21
59.934803
 31
0.0
  0
LINE
  5
31B
330
29A
100
AcDbEntity
  8
1
  6
Continuous
100
AcDbLine
 10
116.3222419999998
 20
42.134815
 30
0.0
 11
116.3222419999998
 21
59.934803
 31
0.0
  0
LINE
  5
31C
330
29A
100
AcDbEntity
  8
1
  6
Continuous
100
AcDbLine
 10
115.1222289999999
 20
42.134815
 30
0.0
 11
115.1222289999999
 21
59.934803
 31
0.0
  0
LINE
  5
31D
330
29A
100
AcDbEntity
  8
1
  6
Continuous
100
AcDbLine
 10
132.322242
 20
59.934803
 30
0.0
 11
116.3222419999998
 21
59.934803
 31
0.0
  0
LINE
  5
31E
330
29A
100
AcDbEntity
  8
1
  6
Continuous
100
AcDbLine
 10
144.3222419999998
 20
42.134815
 30
0.0
 11
133.5222389999999
 21
42.134815
 31
0.0
  0
LINE
  5
31F
330
29A
100
AcDbEntity
  8
1
  6
Continuous
100
AcDbLine
 10
144.3222419999998
 20
40.934803
 30
0.0
 11
144.3222419999998
 21
42.134815
 31
0.0
  0
LINE
  5
320
330
29A
100
AcDbEntity
  8
1
  6
Continuous
100
AcDbLine
 10
132.322242
 20
61.134815
 30
0.0
 11
116.3222419999998
 21
61.134815
 31
0.0
  0
LINE
  5
321
330
29A
100
AcDbEntity
  8
4
  6
CENTER
100
AcDbLine
 10
124.3222419999999
 20
35.934803
 30
0.0
 11
124.3222419999999
 21
66.134815
 31
0.0
  0
LINE
  5
322
330
29A
100
AcDbEntity
  8
1
  6
Continuous
100
AcDbLine
 10
133.5222389999999
 20
42.134815
 30
0.0
 11
133.5222389999999
 21
59.934803
 31
0.0
  0
LINE
  5
323
330
29A
100
AcDbEntity
  8
1
  6
Continuous
100
AcDbLine
 10
144.3222419999998
 20
40.934803
 30
0.0
 11
133.5222389999999
 21
40.934803
 31
0.0
  0
LINE
  5
324
330
29A
100
AcDbEntity
  8
1
  6
Continuous
100
AcDbLine
 10
117.707862
 20
60.13481500000001
 30
0.0
 11
117.707862
 21
60.934803
 31
0.0
  0
LINE
  5
325
330
29A
100
AcDbEntity
  8
1
  6
Continuous
100
AcDbLine
 10
130.936606
 20
60.13481500000001
 30
0.0
 11
130.936606
 21
60.934803
 31
0.0
  0
LINE
  5
326
330
29A
100
AcDbEntity
  8
1
  6
Continuous
100
AcDbLine
 10
114.1222289999999
 20
52.73482099999998
 30
0.0
 11
114.8222419999999
 21
52.73482099999998
 31
0.0
  0
LINE
  5
327
330
29A
100
AcDbEntity
  8
1
  6
Continuous
100
AcDbLine
 10
114.1222289999999
 20
53.934803
 30
0.0
 11
115.1222289999999
 21
53.934803
 31
0.0
  0
LINE
  5
328
330
29A
100
AcDbEntity
  8
1
  6
Continuous
100
AcDbLine
 10
134.5222389999999
 20
52.73482099999998
 30
0.0
 11
133.8222419999999
 21
52.73482099999998
 31
0.0
  0
LINE
  5
329
330
29A
100
AcDbEntity
  8
1
  6
Continuous
100
AcDbLine
 10
134.5222389999999
 20
53.934803
 30
0.0
 11
133.5222389999999
 21
53.934803
 31
0.0
  0
LINE
  5
32A
330
29A
100
AcDbEntity
  8
1
  6
Continuous
100
AcDbLine
 10
115.1222289999999
 20
40.934803
 30
0.0
 11
104.3222419999999
 21
40.934803
 31
0.0
  0
LINE
  5
32B
330
29A
100
AcDbEntity
  8
4
  6
CENTER
100
AcDbLine
 10
340.2820039999999
 20
151.9549599999998
 30
0.0
 11
340.2820039999999
 21
135.95496
 31
0.0
  0
LINE
  5
32C
330
29A
100
AcDbEntity
  8
4
  6
CENTER
100
AcDbLine
 10
344.7820039999998
 20
143.95496
 30
0.0
 11
335.782004
 21
143.95496
 31
0.0
  0
LINE
  5
32D
330
29A
100
AcDbEntity
  8
1
  6
Continuous
100
AcDbLine
 10
337.7820039999999
 20
147.45496
 30
0.0
 11
337.7820039999999
 21
140.4549599999998
 31
0.0
  0
LINE
  5
32E
330
29A
100
AcDbEntity
  8
1
  6
Continuous
100
AcDbLine
 10
342.7820039999998
 20
147.45496
 30
0.0
 11
342.7820039999998
 21
140.4549599999998
 31
0.0
  0
LINE
  5
32F
330
29A
100
AcDbEntity
  8
1
  6
Continuous
100
AcDbLine
 10
367.7820039999998
 20
147.45496
 30
0.0
 11
367.7820039999998
 21
140.4549599999998
 31
0.0
  0
LINE
  5
330
330
29A
100
AcDbEntity
  8
1
  6
Continuous
100
AcDbLine
 10
372.7820039999999
 20
147.45496
 30
0.0
 11
372.7820039999999
 21
140.4549599999998
 31
0.0
  0
LINE
  5
331
330
29A
100
AcDbEntity
  8
4
  6
CENTER
100
AcDbLine
 10
365.7820039999998
 20
143.95496
 30
0.0
 11
374.7820039999999
 21
143.95496
 31
0.0
  0
LINE
  5
332
330
29A
100
AcDbEntity
  8
4
  6
CENTER
100
AcDbLine
 10
370.2820039999999
 20
151.9549599999998
 30
0.0
 11
370.2820039999999
 21
135.95496
 31
0.0
  0
LINE
  5
333
330
29A
100
AcDbEntity
  8
1
  6
Continuous
100
AcDbLine
 10
363.2820039999999
 20
155.9549599999998
 30
0.0
 11
372.7820039999999
 21
155.9549599999998
 31
0.0
  0
LINE
  5
334
330
29A
100
AcDbEntity
  8
1
  6
Continuous
100
AcDbLine
 10
363.0320039999999
 20
145.95496
 30
0.0
 11
363.2820039999999
 21
145.95496
 31
0.0
  0
LINE
  5
335
330
29A
100
AcDbEntity
  8
1
  6
Continuous
100
AcDbLine
 10
347.2820039999998
 20
145.95496
 30
0.0
 11
347.5320039999999
 21
145.95496
 31
0.0
  0
LINE
  5
336
330
29A
100
AcDbEntity
  8
1
  6
Continuous
100
AcDbLine
 10
363.2820039999999
 20
155.9549599999998
 30
0.0
 11
363.2820039999999
 21
125.95496
 31
0.0
  0
LINE
  5
337
330
29A
100
AcDbEntity
  8
1
  6
Continuous
100
AcDbLine
 10
347.2820039999998
 20
155.9549599999998
 30
0.0
 11
347.2820039999998
 21
125.95496
 31
0.0
  0
LINE
  5
338
330
29A
100
AcDbEntity
  8
1
  6
Continuous
100
AcDbLine
 10
375.2820039999999
 20
153.45496
 30
0.0
 11
375.2820039999999
 21
128.45496
 31
0.0
  0
LINE
  5
339
330
29A
100
AcDbEntity
  8
1
  6
Continuous
100
AcDbLine
 10
337.7820039999999
 20
125.95496
 30
0.0
 11
372.7820039999999
 21
125.95496
 31
0.0
  0
LINE
  5
33A
330
29A
100
AcDbEntity
  8
1
  6
Continuous
100
AcDbLine
 10
337.7820039999999
 20
155.9549599999998
 30
0.0
 11
347.2820039999998
 21
155.9549599999998
 31
0.0
  0
LINE
  5
33B
330
29A
100
AcDbEntity
  8
1
  6
Continuous
100
AcDbLine
 10
335.2820039999999
 20
153.45496
 30
0.0
 11
335.2820039999999
 21
128.45496
 31
0.0
  0
LINE
  5
33C
330
29A
100
AcDbEntity
  8
1
  6
Continuous
100
AcDbLine
 10
132.322242
 20
42.934803
 30
0.0
 11
132.0722419999998
 21
42.934803
 31
0.0
  0
LINE
  5
33D
330
29A
100
AcDbEntity
  8
1
  6
Continuous
100
AcDbLine
 10
132.322242
 20
45.934803
 30
0.0
 11
132.0722419999998
 21
45.934803
 31
0.0
  0
LINE
  5
33E
330
29A
100
AcDbEntity
  8
1
  6
Continuous
100
AcDbLine
 10
113.3222419999998
 20
46.184803
 30
0.0
 11
113.3222419999998
 21
42.684803
 31
0.0
  0
LINE
  5
33F
330
29A
100
AcDbEntity
  8
4
  6
CENTER
100
AcDbLine
 10
137.3222419999999
 20
44.434803
 30
0.0
 11
111.3222419999999
 21
44.434803
 31
0.0
  0
LINE
  5
340
330
29A
100
AcDbEntity
  8
1
  6
Continuous
100
AcDbLine
 10
363.2820039999999
 20
153.45496
 30
0.0
 11
363.0320039999999
 21
153.45496
 31
0.0
  0
LINE
  5
341
330
29A
100
AcDbEntity
  8
1
  6
Continuous
100
AcDbLine
 10
360.482016
 20
153.45496
 30
0.0
 11
360.482016
 21
151.45496
 31
0.0
  0
LINE
  5
342
330
29A
100
AcDbEntity
  8
1
  6
Continuous
100
AcDbLine
 10
363.2820039999999
 20
151.45496
 30
0.0
 11
363.0320039999999
 21
151.45496
 31
0.0
  0
LINE
  5
343
330
29A
100
AcDbEntity
  8
1
  6
Continuous
100
AcDbLine
 10
347.2820039999998
 20
153.45496
 30
0.0
 11
347.5320039999999
 21
153.45496
 31
0.0
  0
LINE
  5
344
330
29A
100
AcDbEntity
  8
1
  6
Continuous
100
AcDbLine
 10
347.2820039999998
 20
151.45496
 30
0.0
 11
347.5320039999999
 21
151.45496
 31
0.0
  0
LINE
  5
345
330
29A
100
AcDbEntity
  8
1
  6
Continuous
100
AcDbLine
 10
350.081992
 20
153.45496
 30
0.0
 11
350.081992
 21
151.45496
 31
0.0
  0
LINE
  5
346
330
29A
100
AcDbEntity
  8
1
  6
Continuous
100
AcDbLine
 10
237.7485259999999
 20
131.45496
 30
0.0
 11
233.7485259999999
 21
131.45496
 31
0.0
  0
LINE
  5
347
330
29A
100
AcDbEntity
  8
1
  6
Continuous
100
AcDbLine
 10
237.7485259999999
 20
133.45496
 30
0.0
 11
237.7485259999999
 21
134.45496
 31
0.0
  0
LINE
  5
348
330
29A
100
AcDbEntity
  8
1
  6
Continuous
100
AcDbLine
 10
239.7485259999999
 20
133.45496
 30
0.0
 11
239.7485259999999
 21
134.45496
 31
0.0
  0
LINE
  5
349
330
29A
100
AcDbEntity
  8
1
  6
Continuous
100
AcDbLine
 10
237.7485259999999
 20
133.45496
 30
0.0
 11
233.7485259999999
 21
133.45496
 31
0.0
  0
LINE
  5
34A
330
29A
100
AcDbEntity
  8
1
  6
Continuous
100
AcDbLine
 10
233.7485259999999
 20
131.45496
 30
0.0
 11
233.7485259999999
 21
133.45496
 31
0.0
  0
LINE
  5
34B
330
29A
100
AcDbEntity
  8
1
  6
Continuous
100
AcDbLine
 10
30.384044
 20
131.45496
 30
0.0
 11
30.384044
 21
133.45496
 31
0.0
  0
LINE
  5
34C
330
29A
100
AcDbEntity
  8
1
  6
Continuous
100
AcDbLine
 10
26.384044
 20
133.45496
 30
0.0
 11
30.384044
 21
133.45496
 31
0.0
  0
LINE
  5
34D
330
29A
100
AcDbEntity
  8
1
  6
Continuous
100
AcDbLine
 10
26.384044
 20
133.45496
 30
0.0
 11
26.384044
 21
134.45496
 31
0.0
  0
LINE
  5
34E
330
29A
100
AcDbEntity
  8
1
  6
Continuous
100
AcDbLine
 10
26.384044
 20
131.45496
 30
0.0
 11
30.384044
 21
131.45496
 31
0.0
  0
LINE
  5
34F
330
29A
100
AcDbEntity
  8
1
  6
Continuous
100
AcDbLine
 10
24.384044
 20
133.45496
 30
0.0
 11
24.384044
 21
134.45496
 31
0.0
  0
LINE
  5
350
330
29A
100
AcDbEntity
  8
1
  6
Continuous
100
AcDbLine
 10
11.38404399999999
 20
168.6104639999998
 30
0.0
 11
20.033178
 21
173.6296749999999
 31
0.0
  0
LINE
  5
351
330
29A
100
AcDbEntity
  8
1
  6
Continuous
100
AcDbLine
 10
11.38404399999999
 20
168.6104639999998
 30
0.0
 11
18.72821
 21
155.9549599999998
 31
0.0
  0
LINE
  5
352
330
29A
100
AcDbEntity
  8
1
  6
Continuous
100
AcDbLine
 10
20.033178
 20
173.6296749999999
 30
0.0
 11
30.573524
 21
155.4664889999999
 31
0.0
  0
LINE
  5
353
330
29A
100
AcDbEntity
  8
1
  6
Continuous
100
AcDbLine
 10
130.472235
 20
53.136127
 30
0.0
 11
126.6384189999999
 21
53.136127
 31
0.0
  0
LINE
  5
354
330
29A
100
AcDbEntity
  8
1
  6
Continuous
100
AcDbLine
 10
130.472235
 20
51.136127
 30
0.0
 11
127.841971
 21
51.136127
 31
0.0
  0
LINE
  5
355
330
29A
100
AcDbEntity
  8
1
  6
Continuous
100
AcDbLine
 10
133.8222419999999
 20
53.386127
 30
0.0
 11
133.8222419999999
 21
50.886127
 31
0.0
  0
LINE
  5
356
330
29A
100
AcDbEntity
  8
1
  6
Continuous
100
AcDbLine
 10
114.8222419999999
 20
53.386127
 30
0.0
 11
114.8222419999999
 21
50.886127
 31
0.0
  0
LINE
  5
357
330
29A
100
AcDbEntity
  8
4
  6
CENTER
100
AcDbLine
 10
135.8222419999999
 20
52.136127
 30
0.0
 11
112.8222419999999
 21
52.136127
 31
0.0
  0
LINE
  5
358
330
29A
100
AcDbEntity
  8
1
  6
Continuous
100
AcDbLine
 10
114.8222419999999
 20
241.7568089999999
 30
0.0
 11
114.8222419999999
 21
244.256813
 31
0.0
  0
LINE
  5
359
330
29A
100
AcDbEntity
  8
4
  6
CENTER
100
AcDbLine
 10
135.8222419999999
 20
243.0068089999998
 30
0.0
 11
112.8222419999999
 21
243.0068089999998
 31
0.0
  0
LINE
  5
35A
330
29A
100
AcDbEntity
  8
1
  6
Continuous
100
AcDbLine
 10
133.8222419999999
 20
241.7568089999999
 30
0.0
 11
133.8222419999999
 21
244.256813
 31
0.0
  0
LINE
  5
35B
330
29A
100
AcDbEntity
  8
1
  6
Continuous
100
AcDbLine
 10
132.322242
 20
249.208141
 30
0.0
 11
132.0722419999998
 21
249.208141
 31
0.0
  0
LINE
  5
35C
330
29A
100
AcDbEntity
  8
1
  6
Continuous
100
AcDbLine
 10
132.322242
 20
252.208141
 30
0.0
 11
132.0722419999998
 21
252.208141
 31
0.0
  0
LINE
  5
35D
330
29A
100
AcDbEntity
  8
1
  6
Continuous
100
AcDbLine
 10
114.822226
 20
244.256813
 30
0.0
 11
116.5722419999999
 21
244.006809
 31
0.0
  0
LINE
  5
35E
330
29A
100
AcDbEntity
  8
1
  6
Continuous
100
AcDbLine
 10
114.822226
 20
241.7568089999999
 30
0.0
 11
116.572226
 21
242.006809
 31
0.0
  0
LINE
  5
35F
330
29A
100
AcDbEntity
  8
1
  6
Continuous
100
AcDbLine
 10
133.8222259999998
 20
241.7568089999999
 30
0.0
 11
132.0722419999998
 21
242.006809
 31
0.0
  0
LINE
  5
360
330
29A
100
AcDbEntity
  8
1
  6
Continuous
100
AcDbLine
 10
133.8222419999999
 20
244.256813
 30
0.0
 11
132.0722259999998
 21
244.0068129999999
 31
0.0
  0
LINE
  5
361
330
29A
100
AcDbEntity
  8
1
  6
Continuous
100
AcDbLine
 10
114.8222419999999
 20
158.984714
 30
0.0
 11
114.8222419999999
 21
159.984714
 31
0.0
  0
LINE
  5
362
330
29A
100
AcDbEntity
  8
4
  6
CENTER
100
AcDbLine
 10
112.8222419999999
 20
159.4847139999999
 30
0.0
 11
135.8222419999999
 21
159.4847139999999
 31
0.0
  0
LINE
  5
363
330
29A
100
AcDbEntity
  8
1
  6
Continuous
100
AcDbLine
 10
114.8222419999999
 20
159.984714
 30
0.0
 11
116.5722419999999
 21
159.984714
 31
0.0
  0
LINE
  5
364
330
29A
100
AcDbEntity
  8
1
  6
Continuous
100
AcDbLine
 10
114.8222419999999
 20
158.984714
 30
0.0
 11
116.5722419999999
 21
158.984714
 31
0.0
  0
LINE
  5
365
330
29A
100
AcDbEntity
  8
1
  6
Continuous
100
AcDbLine
 10
133.8222419999999
 20
158.984714
 30
0.0
 11
132.0722419999998
 21
158.984714
 31
0.0
  0
LINE
  5
366
330
29A
100
AcDbEntity
  8
1
  6
Continuous
100
AcDbLine
 10
133.8222419999999
 20
159.984714
 30
0.0
 11
132.0722419999998
 21
159.984714
 31
0.0
  0
LINE
  5
367
330
29A
100
AcDbEntity
  8
1
  6
Continuous
100
AcDbLine
 10
133.8222419999999
 20
158.984714
 30
0.0
 11
133.8222419999999
 21
159.984714
 31
0.0
  0
LINE
  5
368
330
29A
100
AcDbEntity
  8
1
  6
Continuous
100
AcDbLine
 10
133.8222419999999
 20
53.38615799999999
 30
0.0
 11
133.5222389999999
 21
53.343281
 31
0.0
  0
LINE
  5
369
330
29A
100
AcDbEntity
  8
1
  6
Continuous
100
AcDbLine
 10
114.8222419999999
 20
50.886127
 30
0.0
 11
115.1222449999998
 21
50.929004
 31
0.0
  0
LINE
  5
36A
330
29A
100
AcDbEntity
  8
1
  6
Continuous
100
AcDbLine
 10
114.822226
 20
53.38615799999999
 30
0.0
 11
115.1222289999999
 21
53.343281
 31
0.0
  0
LINE
  5
36B
330
29A
100
AcDbEntity
  8
1
  6
Continuous
100
AcDbLine
 10
133.8222259999998
 20
50.886158
 30
0.0
 11
133.5222389999999
 21
50.929004
 31
0.0
  0
LINE
  5
36C
330
29A
100
AcDbEntity
  8
1
  6
Continuous
100
AcDbLine
 10
113.3222259999999
 20
46.184803
 30
0.0
 11
115.1222289999999
 21
45.934803
 31
0.0
  0
LINE
  5
36D
330
29A
100
AcDbEntity
  8
1
  6
Continuous
100
AcDbLine
 10
113.3222419999998
 20
42.684803
 30
0.0
 11
115.1222289999999
 21
42.934803
 31
0.0
  0
LINE
  5
36E
330
29A
100
AcDbEntity
  8
1
  6
Continuous
100
AcDbLine
 10
135.3222419999999
 20
46.184803
 30
0.0
 11
135.3222419999999
 21
42.684803
 31
0.0
  0
LINE
  5
36F
330
29A
100
AcDbEntity
  8
1
  6
Continuous
100
AcDbLine
 10
135.322226
 20
42.684803
 30
0.0
 11
133.5222389999999
 21
42.934803
 31
0.0
  0
LINE
  5
370
330
29A
100
AcDbEntity
  8
1
  6
Continuous
100
AcDbLine
 10
135.3222419999999
 20
46.184803
 30
0.0
 11
133.522223
 21
45.934803
 31
0.0
  0
LINE
  5
371
330
29A
100
AcDbEntity
  8
1
  6
Continuous
100
AcDbLine
 10
113.3222419999998
 20
252.458141
 30
0.0
 11
113.3222419999998
 21
248.9581409999999
 31
0.0
  0
LINE
  5
372
330
29A
100
AcDbEntity
  8
1
  6
Continuous
100
AcDbLine
 10
135.322226
 20
252.4581369999999
 30
0.0
 11
133.5222389999999
 21
252.2081369999999
 31
0.0
  0
LINE
  5
373
330
29A
100
AcDbEntity
  8
1
  6
Continuous
100
AcDbLine
 10
113.3222419999998
 20
248.9581409999999
 30
0.0
 11
115.1222449999998
 21
249.208141
 31
0.0
  0
LINE
  5
374
330
29A
100
AcDbEntity
  8
1
  6
Continuous
100
AcDbLine
 10
113.3222419999998
 20
252.4581369999999
 30
0.0
 11
115.1222449999998
 21
252.2081369999999
 31
0.0
  0
LINE
  5
375
330
29A
100
AcDbEntity
  8
1
  6
Continuous
100
AcDbLine
 10
135.3222419999999
 20
252.458141
 30
0.0
 11
135.3222419999999
 21
248.9581409999999
 31
0.0
  0
LINE
  5
376
330
29A
100
AcDbEntity
  8
1
  6
Continuous
100
AcDbLine
 10
135.322226
 20
248.9581409999999
 30
0.0
 11
133.5222389999999
 21
249.208141
 31
0.0
  0
LINE
  5
377
330
29A
100
AcDbEntity
  8
1
  6
Continuous
100
AcDbLine
 10
247.747702
 20
138.8549529999999
 30
0.0
 11
250.7493499999999
 21
138.8549529999999
 31
0.0
  0
LINE
  5
378
330
29A
100
AcDbEntity
  8
1
  6
Continuous
100
AcDbLine
 10
247.747702
 20
137.0549499999999
 30
0.0
 11
250.7493499999999
 21
137.0549499999999
 31
0.0
  0
LINE
  5
379
330
29A
100
AcDbEntity
  8
1
  6
Continuous
100
AcDbLine
 10
16.384879
 20
138.8549529999999
 30
0.0
 11
13.383212
 21
138.8549529999999
 31
0.0
  0
LINE
  5
37A
330
29A
100
AcDbEntity
  8
1
  6
Continuous
100
AcDbLine
 10
16.384879
 20
137.0549499999999
 30
0.0
 11
13.383212
 21
137.0549499999999
 31
0.0
  0
LINE
  5
37B
330
29A
100
AcDbEntity
  8
1
  6
Continuous
100
AcDbLine
 10
115.1222289999999
 20
59.934803
 30
0.0
 11
113.1222289999999
 21
59.934803
 31
0.0
  0
LINE
  5
37C
330
29A
100
AcDbEntity
  8
1
  6
Continuous
100
AcDbLine
 10
113.1222289999999
 20
59.934803
 30
0.0
 11
113.1222289999999
 21
54.934803
 31
0.0
  0
LINE
  5
37D
330
29A
100
AcDbEntity
  8
1
  6
Continuous
100
AcDbLine
 10
135.5222389999999
 20
59.934803
 30
0.0
 11
135.5222389999999
 21
54.934803
 31
0.0
  0
LINE
  5
37E
330
29A
100
AcDbEntity
  8
1
  6
Continuous
100
AcDbLine
 10
133.5222389999999
 20
59.934803
 30
0.0
 11
135.5222389999999
 21
59.934803
 31
0.0
  0
LINE
  5
37F
330
29A
100
AcDbEntity
  8
1
  6
Continuous
100
AcDbLine
 10
115.1222289999999
 20
235.208141
 30
0.0
 11
113.1222289999999
 21
235.208141
 31
0.0
  0
LINE
  5
380
330
29A
100
AcDbEntity
  8
1
  6
Continuous
100
AcDbLine
 10
113.1222289999999
 20
237.874805
 30
0.0
 11
113.1222289999999
 21
235.208141
 31
0.0
  0
LINE
  5
381
330
29A
100
AcDbEntity
  8
1
  6
Continuous
100
AcDbLine
 10
116.5722419999999
 20
239.208141
 30
0.0
 11
116.3222419999998
 21
239.208141
 31
0.0
  0
LINE
  5
382
330
29A
100
AcDbEntity
  8
1
  6
Continuous
100
AcDbLine
 10
132.0722419999998
 20
239.208141
 30
0.0
 11
132.322242
 21
239.208141
 31
0.0
  0
LINE
  5
383
330
29A
100
AcDbEntity
  8
1
  6
Continuous
100
AcDbLine
 10
132.0722419999998
 20
241.208141
 30
0.0
 11
132.322242
 21
241.208141
 31
0.0
  0
LINE
  5
384
330
29A
100
AcDbEntity
  8
1
  6
Continuous
100
AcDbLine
 10
135.5222389999999
 20
237.874805
 30
0.0
 11
135.5222389999999
 21
235.208141
 31
0.0
  0
LINE
  5
385
330
29A
100
AcDbEntity
  8
1
  6
Continuous
100
AcDbLine
 10
133.5222389999999
 20
235.208141
 30
0.0
 11
135.5222389999999
 21
235.208141
 31
0.0
  0
LINE
  5
386
330
29A
100
AcDbEntity
  8
1
  6
Continuous
100
AcDbLine
 10
133.5222389999999
 20
237.2081329999998
 30
0.0
 11
135.3222419999999
 21
239.608135
 31
0.0
  0
LINE
  5
387
330
29A
100
AcDbEntity
  8
1
  6
Continuous
100
AcDbLine
 10
134.4822299999999
 20
236.4881399999999
 30
0.0
 11
136.2822329999999
 21
238.8881339999998
 31
0.0
  0
LINE
  5
388
330
29A
100
AcDbEntity
  8
1
  6
Continuous
100
AcDbLine
 10
133.5222389999999
 20
237.2081329999998
 30
0.0
 11
134.4822299999999
 21
236.4881399999999
 31
0.0
  0
LINE
  5
389
330
29A
100
AcDbEntity
  8
1
  6
Continuous
100
AcDbLine
 10
115.1222289999999
 20
237.208141
 30
0.0
 11
113.3222259999999
 21
239.608143
 31
0.0
  0
LINE
  5
38A
330
29A
100
AcDbEntity
  8
1
  6
Continuous
100
AcDbLine
 10
114.1622379999999
 20
236.4881399999999
 30
0.0
 11
112.362235
 21
238.8881409999999
 31
0.0
  0
LINE
  5
38B
330
29A
100
AcDbEntity
  8
1
  6
Continuous
100
AcDbLine
 10
115.1222289999999
 20
237.208141
 30
0.0
 11
114.1622379999999
 21
236.4881399999999
 31
0.0
  0
LINE
  5
38C
330
29A
100
AcDbEntity
  8
1
  6
Continuous
100
AcDbLine
 10
113.1222449999998
 20
57.26814599999999
 30
0.0
 11
112.362235
 21
56.25481
 31
0.0
  0
LINE
  5
38D
330
29A
100
AcDbEntity
  8
1
  6
Continuous
100
AcDbLine
 10
135.5222389999999
 20
57.26814599999999
 30
0.0
 11
136.2822329999999
 21
56.25484100000001
 31
0.0
  0
LINE
  5
38E
330
29A
100
AcDbEntity
  8
1
  6
Continuous
100
AcDbLine
 10
114.1622379999999
 20
138.4549599999998
 30
0.0
 11
114.1622379999999
 21
134.45496
 31
0.0
  0
LINE
  5
38F
330
29A
100
AcDbEntity
  8
1
  6
Continuous
100
AcDbLine
 10
113.1222289999999
 20
134.45496
 30
0.0
 11
113.1222289999999
 21
132.45496
 31
0.0
  0
LINE
  5
390
330
29A
100
AcDbEntity
  8
1
  6
Continuous
100
AcDbLine
 10
134.4822299999999
 20
138.4549599999998
 30
0.0
 11
134.4822299999999
 21
134.45496
 31
0.0
  0
LINE
  5
391
330
29A
100
AcDbEntity
  8
1
  6
Continuous
100
AcDbLine
 10
135.5222389999999
 20
134.45496
 30
0.0
 11
135.5222389999999
 21
132.45496
 31
0.0
  0
LINE
  5
392
330
29A
100
AcDbEntity
  8
1
  6
Continuous
100
AcDbLine
 10
29.104045
 20
138.4549599999998
 30
0.0
 11
29.104045
 21
134.45496
 31
0.0
  0
LINE
  5
393
330
29A
100
AcDbEntity
  8
1
  6
Continuous
100
AcDbLine
 10
30.384044
 20
138.4549599999998
 30
0.0
 11
30.384044
 21
134.45496
 31
0.0
  0
LINE
  5
394
330
29A
100
AcDbEntity
  8
1
  6
Continuous
100
AcDbLine
 10
233.7485259999999
 20
138.4549599999998
 30
0.0
 11
233.7485259999999
 21
134.45496
 31
0.0
  0
LINE
  5
395
330
29A
100
AcDbEntity
  8
1
  6
Continuous
100
AcDbLine
 10
252.7485259999999
 20
168.6104659999998
 30
0.0
 11
244.0994059999999
 21
173.6296709999998
 31
0.0
  0
LINE
  5
396
330
29A
100
AcDbEntity
  8
1
  6
Continuous
100
AcDbLine
 10
252.7485259999999
 20
168.6104659999998
 30
0.0
 11
245.4043439999999
 21
155.9549599999998
 31
0.0
  0
LINE
  5
397
330
29A
100
AcDbEntity
  8
1
  6
Continuous
100
AcDbLine
 10
244.0994059999999
 20
173.6296709999998
 30
0.0
 11
233.559045
 21
155.466472
 31
0.0
  0
LINE
  5
398
330
29A
100
AcDbEntity
  8
1
  6
Continuous
100
AcDbLine
 10
118.1722319999999
 20
160.4847139999999
 30
0.0
 11
123.722235
 21
160.4847139999999
 31
0.0
  0
LINE
  5
399
330
29A
100
AcDbEntity
  8
1
  6
Continuous
100
AcDbLine
 10
118.1722319999999
 20
158.4847139999999
 30
0.0
 11
123.722235
 21
158.4847139999999
 31
0.0
  0
LINE
  5
39A
330
29A
100
AcDbEntity
  8
4
  6
CENTER
100
AcDbLine
 10
20.754721
 20
161.4398899999999
 30
0.0
 11
20.754721
 21
155.4398899999999
 31
0.0
  0
LINE
  5
39B
330
29A
100
AcDbEntity
  8
4
  6
CENTER
100
AcDbLine
 10
17.75472099999999
 20
158.43989
 30
0.0
 11
23.754721
 21
158.43989
 31
0.0
  0
LINE
  5
39C
330
29A
100
AcDbEntity
  8
1
  6
Continuous
100
AcDbLine
 10
19.51560299999998
 20
158.6044489999999
 30
0.0
 11
21.71798099999999
 21
159.236529
 31
0.0
  0
LINE
  5
39D
330
29A
100
AcDbEntity
  8
1
  6
Continuous
100
AcDbLine
 10
19.79146599999999
 20
157.643252
 30
0.0
 11
21.99384299999999
 21
158.2753319999999
 31
0.0
  0
LINE
  5
39E
330
29A
100
AcDbEntity
  8
1
  6
Continuous
100
AcDbLine
 10
244.341096
 20
157.6432549999998
 30
0.0
 11
242.1387139999999
 21
158.275336
 31
0.0
  0
LINE
  5
39F
330
29A
100
AcDbEntity
  8
1
  6
Continuous
100
AcDbLine
 10
244.616958
 20
158.604452
 30
0.0
 11
242.4145769999999
 21
159.2365329999998
 31
0.0
  0
LINE
  5
3A0
330
29A
100
AcDbEntity
  8
4
  6
CENTER
100
AcDbLine
 10
246.377851
 20
158.43989
 30
0.0
 11
240.3778509999999
 21
158.43989
 31
0.0
  0
LINE
  5
3A1
330
29A
100
AcDbEntity
  8
4
  6
CENTER
100
AcDbLine
 10
243.3778509999999
 20
161.4398899999999
 30
0.0
 11
243.3778509999999
 21
155.4398899999999
 31
0.0
  0
LINE
  5
3A2
330
29A
100
AcDbEntity
  8
1
  6
Continuous
100
AcDbLine
 10
116.5722419999999
 20
147.8963659999998
 30
0.0
 11
118.1722319999999
 21
147.8963659999998
 31
0.0
  0
LINE
  5
3A3
330
29A
100
AcDbEntity
  8
1
  6
Continuous
100
AcDbLine
 10
130.472235
 20
147.8963659999998
 30
0.0
 11
132.0722419999998
 21
147.8963659999998
 31
0.0
  0
LINE
  5
3A4
330
29A
100
AcDbEntity
  8
1
  6
Continuous
100
AcDbLine
 10
118.1722319999999
 20
174.284122
 30
0.0
 11
130.472235
 21
174.284122
 31
0.0
  0
LINE
  5
3A5
330
29A
100
AcDbEntity
  8
1
  6
Continuous
100
AcDbLine
 10
118.1722319999999
 20
170.293949
 30
0.0
 11
130.472235
 21
170.293949
 31
0.0
  0
LINE
  5
3A6
330
29A
100
AcDbEntity
  8
1
  6
Continuous
100
AcDbLine
 10
118.1722319999999
 20
172.732425
 30
0.0
 11
130.472235
 21
172.732425
 31
0.0
  0
LINE
  5
3A7
330
29A
100
AcDbEntity
  8
1
  6
Continuous
100
AcDbLine
 10
130.472235
 20
56.02306
 30
0.0
 11
118.1722319999999
 21
56.02306
 31
0.0
  0
LINE
  5
3A8
330
29A
100
AcDbEntity
  8
1
  6
Continuous
100
AcDbLine
 10
130.472235
 20
46.32490899999999
 30
0.0
 11
127.9173649999999
 21
46.32490899999999
 31
0.0
  0
LINE
  5
3A9
330
29A
100
AcDbEntity
  8
1
  6
Continuous
100
AcDbLine
 10
132.0722419999998
 20
41.934803
 30
0.0
 11
130.472235
 21
41.934803
 31
0.0
  0
LINE
  5
3AA
330
29A
100
AcDbEntity
  8
1
  6
Continuous
100
AcDbLine
 10
118.1722319999999
 20
41.934803
 30
0.0
 11
116.5722419999999
 21
41.934803
 31
0.0
  0
LINE
  5
3AB
330
29A
100
AcDbEntity
  8
1
  6
Continuous
100
AcDbLine
 10
132.0722419999998
 20
58.835987
 30
0.0
 11
130.472235
 21
58.835987
 31
0.0
  0
LINE
  5
3AC
330
29A
100
AcDbEntity
  8
1
  6
Continuous
100
AcDbLine
 10
118.1722319999999
 20
58.835987
 30
0.0
 11
116.5722419999999
 21
58.835987
 31
0.0
  0
LINE
  5
3AD
330
29A
100
AcDbEntity
  8
1
  6
Continuous
100
AcDbLine
 10
117.872229
 20
56.219379
 30
0.0
 11
116.872229
 21
56.219379
 31
0.0
  0
LINE
  5
3AE
330
29A
100
AcDbEntity
  8
1
  6
Continuous
100
AcDbLine
 10
130.7722389999999
 20
56.219379
 30
0.0
 11
131.7722389999999
 21
56.219379
 31
0.0
  0
LINE
  5
3AF
330
29A
100
AcDbEntity
  8
1
  6
Continuous
100
AcDbLine
 10
118.1722319999999
 20
249.208198
 30
0.0
 11
130.472235
 21
249.208198
 31
0.0
  0
LINE
  5
3B0
330
29A
100
AcDbEntity
  8
1
  6
Continuous
100
AcDbLine
 10
118.1722319999999
 20
239.1199069999999
 30
0.0
 11
130.472235
 21
239.1199069999999
 31
0.0
  0
LINE
  5
3B1
330
29A
100
AcDbEntity
  8
1
  6
Continuous
100
AcDbLine
 10
118.1722319999999
 20
239.5100589999999
 30
0.0
 11
130.472235
 21
239.5100589999999
 31
0.0
  0
LINE
  5
3B2
330
29A
100
AcDbEntity
  8
1
  6
Continuous
100
AcDbLine
 10
116.5722419999999
 20
253.2081409999999
 30
0.0
 11
118.1722319999999
 21
253.2081409999999
 31
0.0
  0
LINE
  5
3B3
330
29A
100
AcDbEntity
  8
1
  6
Continuous
100
AcDbLine
 10
130.472235
 20
253.2081409999999
 30
0.0
 11
132.0722419999998
 21
253.2081409999999
 31
0.0
  0
LINE
  5
3B4
330
29A
100
AcDbEntity
  8
1
  6
Continuous
100
AcDbLine
 10
118.1722319999999
 20
249.208198
 30
0.0
 11
118.1722319999999
 21
253.2081409999999
 31
0.0
  0
LINE
  5
3B5
330
29A
100
AcDbEntity
  8
1
  6
Continuous
100
AcDbLine
 10
130.472235
 20
249.208198
 30
0.0
 11
130.472235
 21
253.2081409999999
 31
0.0
  0
LINE
  5
3B6
330
29A
100
AcDbEntity
  8
1
  6
Continuous
100
AcDbLine
 10
116.5722419999999
 20
234.208141
 30
0.0
 11
118.1722319999999
 21
234.208141
 31
0.0
  0
LINE
  5
3B7
330
29A
100
AcDbEntity
  8
1
  6
Continuous
100
AcDbLine
 10
130.472235
 20
234.208141
 30
0.0
 11
132.0722419999998
 21
234.208141
 31
0.0
  0
LINE
  5
3B8
330
29A
100
AcDbEntity
  8
1
  6
Continuous
100
AcDbLine
 10
116.872229
 20
252.2533299999998
 30
0.0
 11
117.872229
 21
252.2533299999998
 31
0.0
  0
LINE
  5
3B9
330
29A
100
AcDbEntity
  8
1
  6
Continuous
100
AcDbLine
 10
131.7722389999999
 20
252.2533299999998
 30
0.0
 11
130.7722389999999
 21
252.2533299999998
 31
0.0
  0
LINE
  5
3BA
330
29A
100
AcDbEntity
  8
1
  6
Continuous
100
AcDbLine
 10
345.7820039999999
 20
158.984714
 30
0.0
 11
347.5320039999999
 21
158.984714
 31
0.0
  0
LINE
  5
3BB
330
29A
100
AcDbEntity
  8
1
  6
Continuous
100
AcDbLine
 10
364.7820039999999
 20
158.984714
 30
0.0
 11
363.0320039999999
 21
158.984714
 31
0.0
  0
LINE
  5
3BC
330
29A
100
AcDbEntity
  8
1
  6
Continuous
100
AcDbLine
 10
347.5320039999999
 20
172.684131
 30
0.0
 11
347.5320039999999
 21
139.4549599999998
 31
0.0
  0
LINE
  5
3BD
330
29A
100
AcDbEntity
  8
1
  6
Continuous
100
AcDbLine
 10
361.431998
 20
170.293949
 30
0.0
 11
361.431998
 21
139.4549599999998
 31
0.0
  0
LINE
  5
3BE
330
29A
100
AcDbEntity
  8
1
  6
Continuous
100
AcDbLine
 10
363.0320039999999
 20
172.684131
 30
0.0
 11
363.0320039999999
 21
139.4549599999998
 31
0.0
  0
LINE
  5
3BF
330
29A
100
AcDbEntity
  8
1
  6
Continuous
100
AcDbLine
 10
361.431998
 20
174.284122
 30
0.0
 11
349.1320099999999
 21
174.284122
 31
0.0
  0
LINE
  5
3C0
330
29A
100
AcDbEntity
  8
1
  6
Continuous
100
AcDbLine
 10
349.1320099999999
 20
170.293949
 30
0.0
 11
349.1320099999999
 21
139.4549599999998
 31
0.0
  0
LINE
  5
3C1
330
29A
100
AcDbEntity
  8
1
  6
Continuous
100
AcDbLine
 10
364.7820039999999
 20
159.984714
 30
0.0
 11
363.0320039999999
 21
159.984714
 31
0.0
  0
LINE
  5
3C2
330
29A
100
AcDbEntity
  8
1
  6
Continuous
100
AcDbLine
 10
345.7820039999999
 20
159.984714
 30
0.0
 11
347.5320039999999
 21
159.984714
 31
0.0
  0
LINE
  5
3C3
330
29A
100
AcDbEntity
  8
1
  6
Continuous
100
AcDbLine
 10
345.7820039999999
 20
158.984714
 30
0.0
 11
345.7820039999999
 21
159.984714
 31
0.0
  0
LINE
  5
3C4
330
29A
100
AcDbEntity
  8
1
  6
Continuous
100
AcDbLine
 10
364.7820039999999
 20
158.984714
 30
0.0
 11
364.7820039999999
 21
159.984714
 31
0.0
  0
LINE
  5
3C5
330
29A
100
AcDbEntity
  8
4
  6
CENTER
100
AcDbLine
 10
366.7820039999999
 20
159.4847139999999
 30
0.0
 11
343.7820039999999
 21
159.4847139999999
 31
0.0
  0
LINE
  5
3C6
330
29A
100
AcDbEntity
  8
1
  6
Continuous
100
AcDbLine
 10
361.431998
 20
158.4847139999999
 30
0.0
 11
355.8820099999999
 21
158.4847139999999
 31
0.0
  0
LINE
  5
3C7
330
29A
100
AcDbEntity
  8
1
  6
Continuous
100
AcDbLine
 10
361.431998
 20
160.4847139999999
 30
0.0
 11
355.8820099999999
 21
160.4847139999999
 31
0.0
  0
LINE
  5
3C8
330
29A
100
AcDbEntity
  8
1
  6
Continuous
100
AcDbLine
 10
349.1320099999999
 20
171.8456459999999
 30
0.0
 11
361.431998
 21
171.8456459999999
 31
0.0
  0
LINE
  5
3C9
330
29A
100
AcDbEntity
  8
1
  6
Continuous
100
AcDbLine
 10
349.1320099999999
 20
170.293949
 30
0.0
 11
361.431998
 21
170.293949
 31
0.0
  0
LINE
  5
3CA
330
29A
100
AcDbEntity
  8
1
  6
Continuous
100
AcDbLine
 10
116.5722419999999
 20
235.208141
 30
0.0
 11
116.3222419999998
 21
235.208141
 31
0.0
  0
LINE
  5
3CB
330
29A
100
AcDbEntity
  8
1
  6
Continuous
100
AcDbLine
 10
130.472235
 20
235.208141
 30
0.0
 11
118.1722319999999
 21
235.208141
 31
0.0
  0
LINE
  5
3CC
330
29A
100
AcDbEntity
  8
1
  6
Continuous
100
AcDbLine
 10
115.1222289999999
 20
239.208141
 30
0.0
 11
114.1222289999999
 21
239.208141
 31
0.0
  0
LINE
  5
3CD
330
29A
100
AcDbEntity
  8
1
  6
Continuous
100
AcDbLine
 10
116.3222419999998
 20
241.208141
 30
0.0
 11
116.5722419999999
 21
241.208141
 31
0.0
  0
LINE
  5
3CE
330
29A
100
AcDbEntity
  8
1
  6
Continuous
100
AcDbLine
 10
133.5222389999999
 20
239.208141
 30
0.0
 11
134.5222389999999
 21
239.208141
 31
0.0
  0
LINE
  5
3CF
330
29A
100
AcDbEntity
  8
1
  6
Continuous
100
AcDbLine
 10
133.5222389999999
 20
241.208141
 30
0.0
 11
134.5222389999999
 21
241.208141
 31
0.0
  0
LINE
  5
3D0
330
29A
100
AcDbEntity
  8
1
  6
Continuous
100
AcDbLine
 10
132.322242
 20
241.9710959999999
 30
0.0
 11
132.322242
 21
235.208141
 31
0.0
  0
LINE
  5
3D1
330
29A
100
AcDbEntity
  8
1
  6
Continuous
100
AcDbLine
 10
133.5222389999999
 20
241.799671
 30
0.0
 11
133.5222389999999
 21
235.208141
 31
0.0
  0
LINE
  5
3D2
330
29A
100
AcDbEntity
  8
1
  6
Continuous
100
AcDbLine
 10
116.3222419999998
 20
241.9710959999999
 30
0.0
 11
116.3222419999998
 21
235.208141
 31
0.0
  0
LINE
  5
3D3
330
29A
100
AcDbEntity
  8
1
  6
Continuous
100
AcDbLine
 10
115.1222289999999
 20
241.799671
 30
0.0
 11
115.1222289999999
 21
235.208141
 31
0.0
  0
LINE
  5
3D4
330
29A
100
AcDbEntity
  8
1
  6
Continuous
100
AcDbLine
 10
116.5722419999999
 20
249.208141
 30
0.0
 11
116.3222419999998
 21
249.208141
 31
0.0
  0
LINE
  5
3D5
330
29A
100
AcDbEntity
  8
1
  6
Continuous
100
AcDbLine
 10
116.5722419999999
 20
252.208141
 30
0.0
 11
116.3222419999998
 21
252.208141
 31
0.0
  0
LINE
  5
3D6
330
29A
100
AcDbEntity
  8
1
  6
Continuous
100
AcDbLine
 10
130.472235
 20
252.208141
 30
0.0
 11
125.965735
 21
252.208141
 31
0.0
  0
LINE
  5
3D7
330
29A
100
AcDbEntity
  8
1
  6
Continuous
100
AcDbLine
 10
26.384044
 20
138.4549599999998
 30
0.0
 11
26.384044
 21
152.45496
 31
0.0
  0
LINE
  5
3D8
330
29A
100
AcDbEntity
  8
1
  6
Continuous
100
AcDbLine
 10
24.384044
 20
138.4549599999998
 30
0.0
 11
24.384044
 21
152.45496
 31
0.0
  0
LINE
  5
3D9
330
29A
100
AcDbEntity
  8
1
  6
Continuous
100
AcDbLine
 10
130.472235
 20
153.45496
 30
0.0
 11
129.5222389999999
 21
153.45496
 31
0.0
  0
LINE
  5
3DA
330
29A
100
AcDbEntity
  8
1
  6
Continuous
100
AcDbLine
 10
130.472235
 20
151.45496
 30
0.0
 11
129.5222389999999
 21
151.45496
 31
0.0
  0
LINE
  5
3DB
330
29A
100
AcDbEntity
  8
1
  6
Continuous
100
AcDbLine
 10
118.1722319999999
 20
153.45496
 30
0.0
 11
119.122229
 21
153.45496
 31
0.0
  0
LINE
  5
3DC
330
29A
100
AcDbEntity
  8
1
  6
Continuous
100
AcDbLine
 10
118.1722319999999
 20
151.45496
 30
0.0
 11
119.122229
 21
151.45496
 31
0.0
  0
LINE
  5
3DD
330
29A
100
AcDbEntity
  8
1
  6
Continuous
100
AcDbLine
 10
116.3222419999998
 20
153.45496
 30
0.0
 11
116.5722419999999
 21
153.45496
 31
0.0
  0
LINE
  5
3DE
330
29A
100
AcDbEntity
  8
1
  6
Continuous
100
AcDbLine
 10
237.7485259999999
 20
138.4549599999998
 30
0.0
 11
237.7485259999999
 21
152.45496
 31
0.0
  0
LINE
  5
3DF
330
29A
100
AcDbEntity
  8
1
  6
Continuous
100
AcDbLine
 10
239.7485259999999
 20
138.4549599999998
 30
0.0
 11
239.7485259999999
 21
152.45496
 31
0.0
  0
LINE
  5
3E0
330
29A
100
AcDbEntity
  8
1
  6
Continuous
100
AcDbLine
 10
132.322242
 20
53.171863
 30
0.0
 11
132.0722419999998
 21
53.136158
 31
0.0
  0
LINE
  5
3E1
330
29A
100
AcDbEntity
  8
1
  6
Continuous
100
AcDbLine
 10
132.322226
 20
51.10042199999998
 30
0.0
 11
132.0722259999998
 21
51.136127
 31
0.0
  0
LINE
  5
3E2
330
29A
100
AcDbEntity
  8
1
  6
Continuous
100
AcDbLine
 10
116.3222259999999
 20
53.171863
 30
0.0
 11
116.572226
 21
53.136158
 31
0.0
  0
LINE
  5
3E3
330
29A
100
AcDbEntity
  8
1
  6
Continuous
100
AcDbLine
 10
116.3222419999998
 20
51.10042199999998
 30
0.0
 11
116.5722419999999
 21
51.136127
 31
0.0
  0
LINE
  5
3E4
330
29A
100
AcDbEntity
  8
1
  6
Continuous
100
AcDbLine
 10
130.472235
 20
45.934803
 30
0.0
 11
124.9222319999999
 21
45.934803
 31
0.0
  0
LINE
  5
3E5
330
29A
100
AcDbEntity
  8
1
  6
Continuous
100
AcDbLine
 10
130.472235
 20
42.934803
 30
0.0
 11
124.9222319999999
 21
42.934803
 31
0.0
  0
LINE
  5
3E6
330
29A
100
AcDbEntity
  8
1
  6
Continuous
100
AcDbLine
 10
116.5722419999999
 20
42.934803
 30
0.0
 11
116.3222419999998
 21
42.934803
 31
0.0
  0
LINE
  5
3E7
330
29A
100
AcDbEntity
  8
1
  6
Continuous
100
AcDbLine
 10
132.0722419999998
 20
59.934803
 30
0.0
 11
132.0722419999998
 21
41.934803
 31
0.0
  0
LINE
  5
3E8
330
29A
100
AcDbEntity
  8
1
  6
Continuous
100
AcDbLine
 10
130.472235
 20
59.934803
 30
0.0
 11
130.472235
 21
41.934803
 31
0.0
  0
LINE
  5
3E9
330
29A
100
AcDbEntity
  8
1
  6
Continuous
100
AcDbLine
 10
118.1722319999999
 20
59.934803
 30
0.0
 11
118.1722319999999
 21
41.934803
 31
0.0
  0
LINE
  5
3EA
330
29A
100
AcDbEntity
  8
1
  6
Continuous
100
AcDbLine
 10
116.5722419999999
 20
59.934803
 30
0.0
 11
116.5722419999999
 21
41.934803
 31
0.0
  0
LINE
  5
3EB
330
29A
100
AcDbEntity
  8
1
  6
Continuous
100
AcDbLine
 10
349.1320099999999
 20
153.45496
 30
0.0
 11
350.081992
 21
153.45496
 31
0.0
  0
LINE
  5
3EC
330
29A
100
AcDbEntity
  8
1
  6
Continuous
100
AcDbLine
 10
349.1320099999999
 20
151.45496
 30
0.0
 11
350.081992
 21
151.45496
 31
0.0
  0
LINE
  5
3ED
330
29A
100
AcDbEntity
  8
1
  6
Continuous
100
AcDbLine
 10
361.431998
 20
153.45496
 30
0.0
 11
360.482016
 21
153.45496
 31
0.0
  0
LINE
  5
3EE
330
29A
100
AcDbEntity
  8
1
  6
Continuous
100
AcDbLine
 10
361.431998
 20
151.45496
 30
0.0
 11
360.482016
 21
151.45496
 31
0.0
  0
LINE
  5
3EF
330
29A
100
AcDbEntity
  8
1
  6
Continuous
100
AcDbLine
 10
347.5320039999999
 20
156.4896889999999
 30
0.0
 11
349.1320099999999
 21
156.4896889999999
 31
0.0
  0
LINE
  5
3F0
330
29A
100
AcDbEntity
  8
1
  6
Continuous
100
AcDbLine
 10
361.431998
 20
156.4896889999999
 30
0.0
 11
363.0320039999999
 21
156.4896889999999
 31
0.0
  0
LINE
  5
3F1
330
29A
100
AcDbEntity
  8
1
  6
Continuous
100
AcDbLine
 10
358.2297279999999
 20
154.952671
 30
0.0
 11
352.2297279999999
 21
154.4277379999998
 31
0.0
  0
LINE
  5
3F2
330
29A
100
AcDbEntity
  8
1
  6
Continuous
100
AcDbLine
 10
358.334311
 20
153.757236
 30
0.0
 11
352.334311
 21
153.232303
 31
0.0
  0
LINE
  5
3F3
330
29A
100
AcDbEntity
  8
1
  6
Continuous
100
AcDbLine
 10
354.681998
 20
161.1665069999999
 30
0.0
 11
354.681998
 21
156.95496
 31
0.0
  0
LINE
  5
3F4
330
29A
100
AcDbEntity
  8
1
  6
Continuous
100
AcDbLine
 10
355.8820099999999
 20
161.1665069999999
 30
0.0
 11
355.8820099999999
 21
156.95496
 31
0.0
  0
LINE
  5
3F5
330
29A
100
AcDbEntity
  8
1
  6
Continuous
100
AcDbLine
 10
357.8820099999999
 20
154.9549599999998
 30
0.0
 11
358.2820039999999
 21
154.9549599999998
 31
0.0
  0
LINE
  5
3F6
330
29A
100
AcDbEntity
  8
1
  6
Continuous
100
AcDbLine
 10
355.8820099999999
 20
135.8549529999999
 30
0.0
 11
355.8820099999999
 21
140.0665009999999
 31
0.0
  0
LINE
  5
3F7
330
29A
100
AcDbEntity
  8
1
  6
Continuous
100
AcDbLine
 10
354.681998
 20
135.8549529999999
 30
0.0
 11
354.681998
 21
140.0665009999999
 31
0.0
  0
LINE
  5
3F8
330
29A
100
AcDbEntity
  8
1
  6
Continuous
100
AcDbLine
 10
358.3342809999999
 20
143.264225
 30
0.0
 11
357.898459
 21
143.266468
 31
0.0
  0
LINE
  5
3F9
330
29A
100
AcDbEntity
  8
1
  6
Continuous
100
AcDbLine
 10
357.8820099999999
 20
142.066501
 30
0.0
 11
358.2820039999999
 21
142.066501
 31
0.0
  0
LINE
  5
3FA
330
29A
100
AcDbEntity
  8
1
  6
Continuous
100
AcDbLine
 10
358.2297279999999
 20
153.502659
 30
0.0
 11
352.2297279999999
 21
152.9777259999999
 31
0.0
  0
LINE
  5
3FB
330
29A
100
AcDbEntity
  8
1
  6
Continuous
100
AcDbLine
 10
358.334311
 20
152.3072239999999
 30
0.0
 11
352.334311
 21
151.7822909999999
 31
0.0
  0
LINE
  5
3FC
330
29A
100
AcDbEntity
  8
1
  6
Continuous
100
AcDbLine
 10
358.334311
 20
150.8572419999999
 30
0.0
 11
352.334311
 21
150.332309
 31
0.0
  0
LINE
  5
3FD
330
29A
100
AcDbEntity
  8
1
  6
Continuous
100
AcDbLine
 10
358.2297279999999
 20
152.052677
 30
0.0
 11
352.2297279999999
 21
151.527744
 31
0.0
  0
LINE
  5
3FE
330
29A
100
AcDbEntity
  8
1
  6
Continuous
100
AcDbLine
 10
358.2297279999999
 20
150.602665
 30
0.0
 11
352.2297279999999
 21
150.077732
 31
0.0
  0
LINE
  5
3FF
330
29A
100
AcDbEntity
  8
1
  6
Continuous
100
AcDbLine
 10
358.334311
 20
149.40723
 30
0.0
 11
352.334311
 21
148.882297
 31
0.0
  0
LINE
  5
400
330
29A
100
AcDbEntity
  8
1
  6
Continuous
100
AcDbLine
 10
358.334311
 20
147.957233
 30
0.0
 11
352.334311
 21
147.4323
 31
0.0
  0
LINE
  5
401
330
29A
100
AcDbEntity
  8
1
  6
Continuous
100
AcDbLine
 10
358.2297279999999
 20
149.1526679999998
 30
0.0
 11
352.2297279999999
 21
148.6277349999998
 31
0.0
  0
LINE
  5
402
330
29A
100
AcDbEntity
  8
1
  6
Continuous
100
AcDbLine
 10
358.2297279999999
 20
147.702671
 30
0.0
 11
352.2297279999999
 21
147.1777379999998
 31
0.0
  0
LINE
  5
403
330
29A
100
AcDbEntity
  8
1
  6
Continuous
100
AcDbLine
 10
358.334311
 20
146.507236
 30
0.0
 11
352.334311
 21
145.982303
 31
0.0
  0
LINE
  5
404
330
29A
100
AcDbEntity
  8
1
  6
Continuous
100
AcDbLine
 10
358.334311
 20
145.0572239999999
 30
0.0
 11
352.334311
 21
144.5323059999998
 31
0.0
  0
LINE
  5
405
330
29A
100
AcDbEntity
  8
1
  6
Continuous
100
AcDbLine
 10
358.2297279999999
 20
146.2526589999999
 30
0.0
 11
352.2297279999999
 21
145.7277259999998
 31
0.0
  0
LINE
  5
406
330
29A
100
AcDbEntity
  8
1
  6
Continuous
100
AcDbLine
 10
358.2297279999999
 20
144.802677
 30
0.0
 11
352.2297279999999
 21
144.2777439999999
 31
0.0
  0
LINE
  5
407
330
29A
100
AcDbEntity
  8
1
  6
Continuous
100
AcDbLine
 10
358.334311
 20
143.6072419999999
 30
0.0
 11
352.334311
 21
143.082309
 31
0.0
  0
LINE
  5
408
330
29A
100
AcDbEntity
  8
1
  6
Continuous
100
AcDbLine
 10
357.2863679999999
 20
144.965564
 30
0.0
 11
358.3734349999998
 21
144.797962
 31
0.0
  0
LINE
  5
409
330
29A
100
AcDbEntity
  8
1
  6
Continuous
100
AcDbLine
 10
352.1905740000002
 20
144.537021
 30
0.0
 11
353.277671
 21
144.3694189999999
 31
0.0
  0
LINE
  5
40A
330
29A
100
AcDbEntity
  8
1
  6
Continuous
100
AcDbLine
 10
356.9985259999999
 20
143.4903749999998
 30
0.0
 11
358.382987
 21
143.256092
 31
0.0
  0
LINE
  5
40B
330
29A
100
AcDbEntity
  8
1
  6
Continuous
100
AcDbLine
 10
352.1818759999999
 20
143.0884279999999
 30
0.0
 11
355.780234
 21
142.4794799999999
 31
0.0
  0
LINE
  5
40C
330
29A
100
AcDbEntity
  8
1
  6
Continuous
100
AcDbLine
 10
357.2863679999999
 20
153.6655609999999
 30
0.0
 11
358.3734349999998
 21
153.497959
 31
0.0
  0
LINE
  5
40D
330
29A
100
AcDbEntity
  8
1
  6
Continuous
100
AcDbLine
 10
352.1905740000002
 20
153.237018
 30
0.0
 11
353.277671
 21
153.0694159999999
 31
0.0
  0
LINE
  5
40E
330
29A
100
AcDbEntity
  8
1
  6
Continuous
100
AcDbLine
 10
357.2863679999999
 20
152.215549
 30
0.0
 11
358.3734349999998
 21
152.0479469999999
 31
0.0
  0
LINE
  5
40F
330
29A
100
AcDbEntity
  8
1
  6
Continuous
100
AcDbLine
 10
352.1905740000002
 20
151.787021
 30
0.0
 11
353.277671
 21
151.619419
 31
0.0
  0
LINE
  5
410
330
29A
100
AcDbEntity
  8
1
  6
Continuous
100
AcDbLine
 10
357.2863679999999
 20
150.7655369999999
 30
0.0
 11
358.3734349999998
 21
150.59795
 31
0.0
  0
LINE
  5
411
330
29A
100
AcDbEntity
  8
1
  6
Continuous
100
AcDbLine
 10
352.1905740000002
 20
150.33704
 30
0.0
 11
353.277671
 21
150.1694369999999
 31
0.0
  0
LINE
  5
412
330
29A
100
AcDbEntity
  8
1
  6
Continuous
100
AcDbLine
 10
357.2863679999999
 20
149.315571
 30
0.0
 11
358.3734349999998
 21
149.1479679999999
 31
0.0
  0
LINE
  5
413
330
29A
100
AcDbEntity
  8
1
  6
Continuous
100
AcDbLine
 10
352.1905740000002
 20
148.8870269999999
 30
0.0
 11
353.277671
 21
148.7194249999998
 31
0.0
  0
LINE
  5
414
330
29A
100
AcDbEntity
  8
1
  6
Continuous
100
AcDbLine
 10
357.2863679999999
 20
147.8655579999999
 30
0.0
 11
358.3734349999998
 21
147.697956
 31
0.0
  0
LINE
  5
415
330
29A
100
AcDbEntity
  8
1
  6
Continuous
100
AcDbLine
 10
352.1905740000002
 20
147.4370309999999
 30
0.0
 11
353.277671
 21
147.2694129999998
 31
0.0
  0
LINE
  5
416
330
29A
100
AcDbEntity
  8
1
  6
Continuous
100
AcDbLine
 10
357.2863679999999
 20
146.415546
 30
0.0
 11
358.3734349999998
 21
146.2479439999999
 31
0.0
  0
LINE
  5
417
330
29A
100
AcDbEntity
  8
1
  6
Continuous
100
AcDbLine
 10
352.1905740000002
 20
145.9870339999999
 30
0.0
 11
353.277671
 21
145.819431
 31
0.0
  0
LINE
  5
418
330
29A
100
AcDbEntity
  8
1
  6
Continuous
100
AcDbLine
 10
127.413657
 20
151.034427
 30
0.0
 11
126.326575
 21
151.20203
 31
0.0
  0
LINE
  5
419
330
29A
100
AcDbEntity
  8
1
  6
Continuous
100
AcDbLine
 10
122.3178929999999
 20
150.6059149999998
 30
0.0
 11
121.230811
 21
150.773517
 31
0.0
  0
LINE
  5
41A
330
29A
100
AcDbEntity
  8
1
  6
Continuous
100
AcDbLine
 10
127.413657
 20
149.5844299999999
 30
0.0
 11
126.326575
 21
149.752033
 31
0.0
  0
LINE
  5
41B
330
29A
100
AcDbEntity
  8
1
  6
Continuous
100
AcDbLine
 10
122.3178929999999
 20
149.1559029999999
 30
0.0
 11
121.230811
 21
149.323505
 31
0.0
  0
LINE
  5
41C
330
29A
100
AcDbEntity
  8
1
  6
Continuous
100
AcDbLine
 10
127.413657
 20
148.1344329999998
 30
0.0
 11
126.326575
 21
148.3020359999999
 31
0.0
  0
LINE
  5
41D
330
29A
100
AcDbEntity
  8
1
  6
Continuous
100
AcDbLine
 10
122.3178929999999
 20
147.705906
 30
0.0
 11
121.230811
 21
147.8735079999999
 31
0.0
  0
LINE
  5
41E
330
29A
100
AcDbEntity
  8
1
  6
Continuous
100
AcDbLine
 10
127.413657
 20
146.6844209999998
 30
0.0
 11
126.326575
 21
146.8520239999998
 31
0.0
  0
LINE
  5
41F
330
29A
100
AcDbEntity
  8
1
  6
Continuous
100
AcDbLine
 10
122.3178929999999
 20
146.255909
 30
0.0
 11
121.230811
 21
146.4235109999999
 31
0.0
  0
LINE
  5
420
330
29A
100
AcDbEntity
  8
1
  6
Continuous
100
AcDbLine
 10
127.413657
 20
145.2344239999999
 30
0.0
 11
126.326575
 21
145.4020419999999
 31
0.0
  0
LINE
  5
421
330
29A
100
AcDbEntity
  8
1
  6
Continuous
100
AcDbLine
 10
122.3178929999999
 20
144.805912
 30
0.0
 11
121.230811
 21
144.973514
 31
0.0
  0
LINE
  5
422
330
29A
100
AcDbEntity
  8
1
  6
Continuous
100
AcDbLine
 10
127.0643989999999
 20
143.838276
 30
0.0
 11
126.326575
 21
143.95203
 31
0.0
  0
LINE
  5
423
330
29A
100
AcDbEntity
  8
1
  6
Continuous
100
AcDbLine
 10
127.42237
 20
153.933033
 30
0.0
 11
123.8240419999999
 21
154.5419799999999
 31
0.0
  0
LINE
  5
424
330
29A
100
AcDbEntity
  8
1
  6
Continuous
100
AcDbLine
 10
122.605735
 20
153.531101
 30
0.0
 11
121.2212889999999
 21
153.765384
 31
0.0
  0
LINE
  5
425
330
29A
100
AcDbEntity
  8
1
  6
Continuous
100
AcDbLine
 10
127.413657
 20
152.4844399999998
 30
0.0
 11
126.32656
 21
152.6520419999999
 31
0.0
  0
LINE
  5
426
330
29A
100
AcDbEntity
  8
1
  6
Continuous
100
AcDbLine
 10
122.3178929999999
 20
152.0558959999999
 30
0.0
 11
121.230811
 21
152.223514
 31
0.0
  0
LINE
  5
427
330
29A
100
AcDbEntity
  8
1
  6
Continuous
100
AcDbLine
 10
121.26995
 20
153.414234
 30
0.0
 11
127.2699499999998
 21
153.939167
 31
0.0
  0
LINE
  5
428
330
29A
100
AcDbEntity
  8
1
  6
Continuous
100
AcDbLine
 10
121.374533
 20
152.2187839999999
 30
0.0
 11
127.374533
 21
152.7437169999998
 31
0.0
  0
LINE
  5
429
330
29A
100
AcDbEntity
  8
1
  6
Continuous
100
AcDbLine
 10
121.374533
 20
150.7687869999998
 30
0.0
 11
127.374533
 21
151.29372
 31
0.0
  0
LINE
  5
42A
330
29A
100
AcDbEntity
  8
1
  6
Continuous
100
AcDbLine
 10
121.26995
 20
151.964222
 30
0.0
 11
127.2699499999998
 21
152.489155
 31
0.0
  0
LINE
  5
42B
330
29A
100
AcDbEntity
  8
1
  6
Continuous
100
AcDbLine
 10
121.269934
 20
150.5142089999999
 30
0.0
 11
127.269934
 21
151.0391419999999
 31
0.0
  0
LINE
  5
42C
330
29A
100
AcDbEntity
  8
1
  6
Continuous
100
AcDbLine
 10
121.374533
 20
149.3187899999998
 30
0.0
 11
127.374533
 21
149.843723
 31
0.0
  0
LINE
  5
42D
330
29A
100
AcDbEntity
  8
1
  6
Continuous
100
AcDbLine
 10
121.374533
 20
147.8687929999999
 30
0.0
 11
127.374533
 21
148.3937259999999
 31
0.0
  0
LINE
  5
42E
330
29A
100
AcDbEntity
  8
1
  6
Continuous
100
AcDbLine
 10
121.269934
 20
149.064228
 30
0.0
 11
127.269934
 21
149.5891609999999
 31
0.0
  0
LINE
  5
42F
330
29A
100
AcDbEntity
  8
1
  6
Continuous
100
AcDbLine
 10
121.26995
 20
147.614216
 30
0.0
 11
127.2699499999998
 21
148.139148
 31
0.0
  0
LINE
  5
430
330
29A
100
AcDbEntity
  8
1
  6
Continuous
100
AcDbLine
 10
121.374533
 20
146.4187959999998
 30
0.0
 11
127.374533
 21
146.9437289999999
 31
0.0
  0
LINE
  5
431
330
29A
100
AcDbEntity
  8
1
  6
Continuous
100
AcDbLine
 10
121.374533
 20
144.9687839999999
 30
0.0
 11
127.374533
 21
145.493717
 31
0.0
  0
LINE
  5
432
330
29A
100
AcDbEntity
  8
1
  6
Continuous
100
AcDbLine
 10
121.26995
 20
146.164234
 30
0.0
 11
127.2699499999998
 21
146.689167
 31
0.0
  0
LINE
  5
433
330
29A
100
AcDbEntity
  8
1
  6
Continuous
100
AcDbLine
 10
121.26995
 20
144.714222
 30
0.0
 11
127.2699499999998
 21
145.239155
 31
0.0
  0
LINE
  5
434
330
29A
100
AcDbEntity
  8
1
  6
Continuous
100
AcDbLine
 10
122.518882
 20
143.6189149999998
 30
0.0
 11
127.374533
 21
144.04372
 31
0.0
  0
LINE
  5
435
330
29A
100
AcDbEntity
  8
1
  6
Continuous
100
AcDbLine
 10
121.722235
 20
154.9549599999998
 30
0.0
 11
121.3222419999999
 21
154.9549599999998
 31
0.0
  0
LINE
  5
436
330
29A
100
AcDbEntity
  8
1
  6
Continuous
100
AcDbLine
 10
121.26995
 20
153.757236
 30
0.0
 11
121.705787
 21
153.7549929999999
 31
0.0
  0
LINE
  5
437
330
29A
100
AcDbEntity
  8
1
  6
Continuous
100
AcDbLine
 10
124.9222319999999
 20
161.1665069999999
 30
0.0
 11
124.9222319999999
 21
156.95496
 31
0.0
  0
LINE
  5
438
330
29A
100
AcDbEntity
  8
1
  6
Continuous
100
AcDbLine
 10
123.722235
 20
161.1665069999999
 30
0.0
 11
123.722235
 21
156.95496
 31
0.0
  0
LINE
  5
439
330
29A
100
AcDbEntity
  8
1
  6
Continuous
100
AcDbLine
 10
123.6834629999999
 20
143.475376
 30
0.0
 11
126.684256
 21
143.7379029999999
 31
0.0
  0
LINE
  5
43A
330
29A
100
AcDbEntity
  8
1
  6
Continuous
100
AcDbLine
 10
123.722235
 20
253.405014
 30
0.0
 11
123.722235
 21
252.5548399999999
 31
0.0
  0
LINE
  5
43B
330
29A
100
AcDbEntity
  8
1
  6
Continuous
100
AcDbLine
 10
123.722235
 20
41.737934
 30
0.0
 11
123.722235
 21
47.737934
 31
0.0
  0
LINE
  5
43C
330
29A
100
AcDbEntity
  8
1
  6
Continuous
100
AcDbLine
 10
124.9222319999999
 20
41.737934
 30
0.0
 11
124.9222319999999
 21
47.737934
 31
0.0
  0
LINE
  5
43D
330
29A
100
AcDbEntity
  8
1
  6
Continuous
100
AcDbLine
 10
123.722235
 20
53.399524
 30
0.0
 11
123.722235
 21
54.6646
 31
0.0
  0
LINE
  5
43E
330
29A
100
AcDbEntity
  8
1
  6
Continuous
100
AcDbLine
 10
124.912207
 20
54.77388399999998
 30
0.0
 11
124.942298
 21
54.61134699999998
 31
0.0
  0
LINE
  5
43F
330
29A
100
AcDbEntity
  8
1
  6
Continuous
100
AcDbLine
 10
123.722235
 20
42.934803
 30
0.0
 11
118.1722319999999
 21
42.934803
 31
0.0
  0
LINE
  5
440
330
29A
100
AcDbEntity
  8
1
  6
Continuous
100
AcDbLine
 10
120.727103
 20
46.32490899999999
 30
0.0
 11
118.1722319999999
 21
46.32490899999999
 31
0.0
  0
LINE
  5
441
330
29A
100
AcDbEntity
  8
1
  6
Continuous
100
AcDbLine
 10
122.8523779999999
 20
53.136127
 30
0.0
 11
118.1722319999999
 21
53.136127
 31
0.0
  0
LINE
  5
442
330
29A
100
AcDbEntity
  8
1
  6
Continuous
100
AcDbLine
 10
120.959861
 20
51.136127
 30
0.0
 11
118.1722319999999
 21
51.136127
 31
0.0
  0
LINE
  5
443
330
29A
100
AcDbEntity
  8
1
  6
Continuous
100
AcDbLine
 10
124.9222319999999
 20
160.4847139999999
 30
0.0
 11
130.472235
 21
160.4847139999999
 31
0.0
  0
LINE
  5
444
330
29A
100
AcDbEntity
  8
1
  6
Continuous
100
AcDbLine
 10
124.9222319999999
 20
158.4847139999999
 30
0.0
 11
130.472235
 21
158.4847139999999
 31
0.0
  0
LINE
  5
445
330
29A
100
AcDbEntity
  8
1
  6
Continuous
100
AcDbLine
 10
354.681998
 20
160.4847139999999
 30
0.0
 11
349.1320099999999
 21
160.4847139999999
 31
0.0
  0
LINE
  5
446
330
29A
100
AcDbEntity
  8
1
  6
Continuous
100
AcDbLine
 10
354.681998
 20
158.4847139999999
 30
0.0
 11
349.1320099999999
 21
158.4847139999999
 31
0.0
  0
LINE
  5
447
330
29A
100
AcDbEntity
  8
1
  6
Continuous
100
AcDbLine
 10
355.8820099999999
 20
136.4549599999998
 30
0.0
 11
363.2820039999999
 21
136.4549599999998
 31
0.0
  0
LINE
  5
448
330
29A
100
AcDbEntity
  8
1
  6
Continuous
100
AcDbLine
 10
355.8820099999999
 20
139.4549599999998
 30
0.0
 11
363.2820039999999
 21
139.4549599999998
 31
0.0
  0
LINE
  5
449
330
29A
100
AcDbEntity
  8
4
  6
CENTER
100
AcDbLine
 10
137.3222419999999
 20
250.708141
 30
0.0
 11
111.3222419999999
 21
250.708141
 31
0.0
  0
LINE
  5
44A
330
29A
100
AcDbEntity
  8
1
  6
Continuous
100
AcDbLine
 10
122.678733
 20
252.208141
 30
0.0
 11
118.1722319999999
 21
252.208141
 31
0.0
  0
LINE
  5
44B
330
29A
100
AcDbEntity
  8
1
  6
Continuous
100
AcDbLine
 10
132.0662909999998
 20
155.9549599999998
 30
0.0
 11
132.0662909999998
 21
145.95496
 31
0.0
  0
LINE
  5
44C
330
29A
100
AcDbEntity
  8
1
  6
Continuous
100
AcDbLine
 10
116.5722419999999
 20
45.934803
 30
0.0
 11
116.3222419999998
 21
45.934803
 31
0.0
  0
LINE
  5
44D
330
29A
100
AcDbEntity
  8
1
  6
Continuous
100
AcDbLine
 10
123.722235
 20
45.934803
 30
0.0
 11
118.1722319999999
 21
45.934803
 31
0.0
  0
LINE
  5
44E
330
29A
100
AcDbEntity
  8
4
  6
CENTER
100
AcDbLine
 10
109.3222419999999
 20
251.00814
 30
0.0
 11
109.3222419999999
 21
256.208141
 31
0.0
  0
LINE
  5
44F
330
29A
100
AcDbEntity
  8
4
  6
CENTER
100
AcDbLine
 10
139.3222419999998
 20
251.00814
 30
0.0
 11
139.3222419999998
 21
256.208141
 31
0.0
  0
LINE
  5
450
330
29A
100
AcDbEntity
  8
4
  6
CENTER
100
AcDbLine
 10
109.3222419999999
 20
38.934803
 30
0.0
 11
109.3222419999999
 21
44.134815
 31
0.0
  0
LINE
  5
451
330
29A
100
AcDbEntity
  8
4
  6
CENTER
100
AcDbLine
 10
139.3222419999998
 20
38.934803
 30
0.0
 11
139.3222419999998
 21
44.134815
 31
0.0
  0
LINE
  5
452
330
29A
100
AcDbEntity
  8
1
  6
Continuous
100
AcDbLine
 10
111.9222319999999
 20
138.4549599999998
 30
0.0
 11
111.9222319999999
 21
134.45496
 31
0.0
  0
LINE
  5
453
330
29A
100
AcDbEntity
  8
1
  6
Continuous
100
AcDbLine
 10
136.722235
 20
138.4549599999998
 30
0.0
 11
136.722235
 21
134.45496
 31
0.0
  0
ARC
  5
454
330
29A
100
AcDbEntity
  8
1
  6
Continuous
100
AcDbCircle
 10
115.1222289999999
 20
253.0081399999999
 30
0.0
 40
1.199999999999999
100
AcDbArc
 50
0.0
 51
90.00000300000001
  0
ARC
  5
455
330
29A
100
AcDbEntity
  8
1
  6
Continuous
100
AcDbCircle
 10
133.5222389999999
 20
253.0081399999999
 30
0.0
 40
1.199999999999999
100
AcDbArc
 50
89.999999
 51
180.000009
  0
ARC
  5
456
330
29A
100
AcDbEntity
  8
1
  6
Continuous
100
AcDbCircle
 10
132.322242
 20
235.208141
 30
0.0
 40
1.199999999999999
100
AcDbArc
 50
269.9999969999999
 51
0.0
  0
ARC
  5
457
330
29A
100
AcDbEntity
  8
1
  6
Continuous
100
AcDbCircle
 10
116.3222419999998
 20
235.208141
 30
0.0
 40
1.199999999999999
100
AcDbArc
 50
179.9999949999999
 51
269.9999969999999
  0
ARC
  5
458
330
29A
100
AcDbEntity
  8
1
  6
Continuous
100
AcDbCircle
 10
106.8222419999999
 20
153.45496
 30
0.0
 40
2.5
100
AcDbArc
 50
90.00000300000001
 51
180.000005
  0
ARC
  5
459
330
29A
100
AcDbEntity
  8
1
  6
Continuous
100
AcDbCircle
 10
141.822242
 20
153.45496
 30
0.0
 40
2.5
100
AcDbArc
 50
0.0
 51
90.00000300000001
  0
ARC
  5
45A
330
29A
100
AcDbEntity
  8
1
  6
Continuous
100
AcDbCircle
 10
141.822242
 20
128.45496
 30
0.0
 40
2.5
100
AcDbArc
 50
269.9999969999999
 51
0.0
  0
ARC
  5
45B
330
29A
100
AcDbEntity
  8
1
  6
Continuous
100
AcDbCircle
 10
106.8222419999999
 20
128.45496
 30
0.0
 40
2.5
100
AcDbArc
 50
179.9999909999999
 51
270.000001
  0
ARC
  5
45C
330
29A
100
AcDbEntity
  8
1
  6
Continuous
100
AcDbCircle
 10
124.3222419999999
 20
153.45496
 30
0.0
 40
10.0
100
AcDbArc
 50
228.5903839999999
 51
311.409621
  0
ARC
  5
45D
330
29A
100
AcDbEntity
  8
1
  6
Continuous
100
AcDbCircle
 10
139.3222419999998
 20
147.45496
 30
0.0
 40
2.5
100
AcDbArc
 50
0.0
 51
180.000005
  0
ARC
  5
45E
330
29A
100
AcDbEntity
  8
1
  6
Continuous
100
AcDbCircle
 10
139.3222419999998
 20
140.4549599999998
 30
0.0
 40
2.5
100
AcDbArc
 50
179.9999909999999
 51
0.00001
  0
ARC
  5
45F
330
29A
100
AcDbEntity
  8
1
  6
Continuous
100
AcDbCircle
 10
109.3222419999999
 20
147.45496
 30
0.0
 40
2.5
100
AcDbArc
 50
0.0
 51
180.000005
  0
ARC
  5
460
330
29A
100
AcDbEntity
  8
1
  6
Continuous
100
AcDbCircle
 10
109.3222419999999
 20
140.4549599999998
 30
0.0
 40
2.5
100
AcDbArc
 50
179.9999909999999
 51
0.00001
  0
ARC
  5
461
330
29A
100
AcDbEntity
  8
1
  6
Continuous
100
AcDbCircle
 10
236.7485259999999
 20
152.45496
 30
0.0
 40
3.5
100
AcDbArc
 50
90.00000300000001
 51
180.000005
  0
ARC
  5
462
330
29A
100
AcDbEntity
  8
1
  6
Continuous
100
AcDbCircle
 10
249.2485259999999
 20
137.95496
 30
0.0
 40
1.6
100
AcDbArc
 50
34.228865
 51
145.7711399999998
  0
ARC
  5
463
330
29A
100
AcDbEntity
  8
1
  6
Continuous
100
AcDbCircle
 10
14.884044
 20
137.95496
 30
0.0
 40
1.6
100
AcDbArc
 50
34.228865
 51
145.7711399999998
  0
ARC
  5
464
330
29A
100
AcDbEntity
  8
1
  6
Continuous
100
AcDbCircle
 10
27.384044
 20
152.45496
 30
0.0
 40
3.5
100
AcDbArc
 50
0.0
 51
90.00000300000001
  0
ARC
  5
465
330
29A
100
AcDbEntity
  8
1
  6
Continuous
100
AcDbCircle
 10
238.7485259999999
 20
152.45496
 30
0.0
 40
1.1
100
AcDbArc
 50
0.0
 51
204.619982
  0
ARC
  5
466
330
29A
100
AcDbEntity
  8
1
  6
Continuous
100
AcDbCircle
 10
115.1222289999999
 20
151.45496
 30
0.0
 40
2.0
100
AcDbArc
 50
90.00000300000001
 51
180.000005
  0
CIRCLE
  5
467
330
29A
100
AcDbEntity
  8
1
  6
Continuous
100
AcDbCircle
 10
114.1222289999999
 20
132.45496
 30
0.0
 40
1.0
  0
ARC
  5
468
330
29A
100
AcDbEntity
  8
1
  6
Continuous
100
AcDbCircle
 10
133.5222389999999
 20
151.45496
 30
0.0
 40
2.0
100
AcDbArc
 50
0.0
 51
90.00000300000001
  0
CIRCLE
  5
469
330
29A
100
AcDbEntity
  8
1
  6
Continuous
100
AcDbCircle
 10
134.5222389999999
 20
132.45496
 30
0.0
 40
1.0
  0
ARC
  5
46A
330
29A
100
AcDbEntity
  8
1
  6
Continuous
100
AcDbCircle
 10
116.3222419999998
 20
59.934803
 30
0.0
 40
1.199999999999999
100
AcDbArc
 50
89.999999
 51
180.000009
  0
ARC
  5
46B
330
29A
100
AcDbEntity
  8
1
  6
Continuous
100
AcDbCircle
 10
133.5222389999999
 20
42.134815
 30
0.0
 40
1.199999999999999
100
AcDbArc
 50
179.9999949999999
 51
269.9999969999999
  0
ARC
  5
46C
330
29A
100
AcDbEntity
  8
1
  6
Continuous
100
AcDbCircle
 10
132.322242
 20
59.934803
 30
0.0
 40
1.199999999999999
100
AcDbArc
 50
0.0
 51
90.00000300000001
  0
ARC
  5
46D
330
29A
100
AcDbEntity
  8
1
  6
Continuous
100
AcDbCircle
 10
115.1222289999999
 20
42.134815
 30
0.0
 40
1.199999999999999
100
AcDbArc
 50
269.9999969999999
 51
0.0
  0
ARC
  5
46E
330
29A
100
AcDbEntity
  8
1
  6
Continuous
100
AcDbCircle
 10
370.2820039999999
 20
147.45496
 30
0.0
 40
2.5
100
AcDbArc
 50
0.0
 51
180.000005
  0
ARC
  5
46F
330
29A
100
AcDbEntity
  8
1
  6
Continuous
100
AcDbCircle
 10
340.2820039999999
 20
140.4549599999998
 30
0.0
 40
2.5
100
AcDbArc
 50
179.9999909999999
 51
0.00001
  0
ARC
  5
470
330
29A
100
AcDbEntity
  8
1
  6
Continuous
100
AcDbCircle
 10
370.2820039999999
 20
140.4549599999998
 30
0.0
 40
2.5
100
AcDbArc
 50
179.9999909999999
 51
0.00001
  0
ARC
  5
471
330
29A
100
AcDbEntity
  8
1
  6
Continuous
100
AcDbCircle
 10
340.2820039999999
 20
147.45496
 30
0.0
 40
2.5
100
AcDbArc
 50
0.0
 51
180.000005
  0
ARC
  5
472
330
29A
100
AcDbEntity
  8
1
  6
Continuous
100
AcDbCircle
 10
355.2820039999998
 20
153.45496
 30
0.0
 40
10.0
100
AcDbArc
 50
232.0480859999999
 51
249.786182
  0
ARC
  5
473
330
29A
100
AcDbEntity
  8
1
  6
Continuous
100
AcDbCircle
 10
372.7820039999999
 20
128.45496
 30
0.0
 40
2.5
100
AcDbArc
 50
269.9999969999999
 51
0.0
  0
ARC
  5
474
330
29A
100
AcDbEntity
  8
1
  6
Continuous
100
AcDbCircle
 10
372.7820039999999
 20
153.45496
 30
0.0
 40
2.5
100
AcDbArc
 50
0.0
 51
90.00000300000001
  0
ARC
  5
475
330
29A
100
AcDbEntity
  8
1
  6
Continuous
100
AcDbCircle
 10
337.7820039999999
 20
128.45496
 30
0.0
 40
2.5
100
AcDbArc
 50
179.9999909999999
 51
270.000001
  0
ARC
  5
476
330
29A
100
AcDbEntity
  8
1
  6
Continuous
100
AcDbCircle
 10
337.7820039999999
 20
153.45496
 30
0.0
 40
2.5
100
AcDbArc
 50
90.00000300000001
 51
180.000005
  0
ARC
  5
477
330
29A
100
AcDbEntity
  8
1
  6
Continuous
100
AcDbCircle
 10
249.2485259999999
 20
137.95496
 30
0.0
 40
1.5
100
AcDbArc
 50
216.8699029999999
 51
323.1301029999999
  0
ARC
  5
478
330
29A
100
AcDbEntity
  8
1
  6
Continuous
100
AcDbCircle
 10
237.7485259999999
 20
133.45496
 30
0.0
 40
2.0
100
AcDbArc
 50
269.9999969999999
 51
0.0
  0
ARC
  5
479
330
29A
100
AcDbEntity
  8
1
  6
Continuous
100
AcDbCircle
 10
238.7485259999999
 20
152.45496
 30
0.0
 40
1.0
100
AcDbArc
 50
0.0
 51
180.000005
  0
ARC
  5
47A
330
29A
100
AcDbEntity
  8
1
  6
Continuous
100
AcDbCircle
 10
26.384044
 20
133.45496
 30
0.0
 40
2.0
100
AcDbArc
 50
179.9999909999999
 51
270.000001
  0
ARC
  5
47B
330
29A
100
AcDbEntity
  8
1
  6
Continuous
100
AcDbCircle
 10
25.384044
 20
152.45496
 30
0.0
 40
1.0
100
AcDbArc
 50
0.0
 51
180.000005
  0
ARC
  5
47C
330
29A
100
AcDbEntity
  8
1
  6
Continuous
100
AcDbCircle
 10
25.384044
 20
152.45496
 30
0.0
 40
6.0
100
AcDbArc
 50
336.443536
 51
30.127183
  0
ARC
  5
47D
330
29A
100
AcDbEntity
  8
1
  6
Continuous
100
AcDbCircle
 10
25.384044
 20
152.45496
 30
0.0
 40
1.1
100
AcDbArc
 50
335.380023
 51
204.619982
  0
ARC
  5
47E
330
29A
100
AcDbEntity
  8
1
  6
Continuous
100
AcDbCircle
 10
249.2485259999999
 20
137.95496
 30
0.0
 40
1.75
100
AcDbArc
 50
149.050273
 51
210.949723
  0
ARC
  5
47F
330
29A
100
AcDbEntity
  8
1
  6
Continuous
100
AcDbCircle
 10
249.2485259999999
 20
137.95496
 30
0.0
 40
1.75
100
AcDbArc
 50
329.050278
 51
30.94972199999999
  0
ARC
  5
480
330
29A
100
AcDbEntity
  8
1
  6
Continuous
100
AcDbCircle
 10
249.2485259999999
 20
137.95496
 30
0.0
 40
1.5
100
AcDbArc
 50
36.86989699999998
 51
143.130097
  0
ARC
  5
481
330
29A
100
AcDbEntity
  8
1
  6
Continuous
100
AcDbCircle
 10
14.884044
 20
137.95496
 30
0.0
 40
1.75
100
AcDbArc
 50
149.050273
 51
210.949723
  0
ARC
  5
482
330
29A
100
AcDbEntity
  8
1
  6
Continuous
100
AcDbCircle
 10
14.884044
 20
137.95496
 30
0.0
 40
1.5
100
AcDbArc
 50
36.86989699999998
 51
143.130097
  0
ARC
  5
483
330
29A
100
AcDbEntity
  8
1
  6
Continuous
100
AcDbCircle
 10
14.884044
 20
137.95496
 30
0.0
 40
1.75
100
AcDbArc
 50
329.050278
 51
30.94972199999999
  0
ARC
  5
484
330
29A
100
AcDbEntity
  8
1
  6
Continuous
100
AcDbCircle
 10
14.884044
 20
137.95496
 30
0.0
 40
1.5
100
AcDbArc
 50
216.8699029999999
 51
323.1301029999999
  0
ARC
  5
485
330
29A
100
AcDbEntity
  8
1
  6
Continuous
100
AcDbCircle
 10
114.1222289999999
 20
54.934803
 30
0.0
 40
1.0
100
AcDbArc
 50
179.9999949999999
 51
0.0
  0
ARC
  5
486
330
29A
100
AcDbEntity
  8
1
  6
Continuous
100
AcDbCircle
 10
134.5222389999999
 20
54.934803
 30
0.0
 40
1.0
100
AcDbArc
 50
179.9999949999999
 51
0.0
  0
ARC
  5
487
330
29A
100
AcDbEntity
  8
1
  6
Continuous
100
AcDbCircle
 10
114.1222289999999
 20
240.208141
 30
0.0
 40
1.0
100
AcDbArc
 50
89.999999
 51
269.9999969999999
  0
ARC
  5
488
330
29A
100
AcDbEntity
  8
1
  6
Continuous
100
AcDbCircle
 10
134.5222389999999
 20
240.208141
 30
0.0
 40
1.0
100
AcDbArc
 50
269.9999969999999
 51
90.00000300000001
  0
ARC
  5
489
330
29A
100
AcDbEntity
  8
1
  6
Continuous
100
AcDbCircle
 10
134.5222389999999
 20
240.208141
 30
0.0
 40
2.2
100
AcDbArc
 50
323.1300919999999
 51
90.00000300000001
  0
ARC
  5
48A
330
29A
100
AcDbEntity
  8
1
  6
Continuous
100
AcDbCircle
 10
114.1222289999999
 20
240.208141
 30
0.0
 40
2.2
100
AcDbArc
 50
89.999999
 51
216.8699029999999
  0
ARC
  5
48B
330
29A
100
AcDbEntity
  8
1
  6
Continuous
100
AcDbCircle
 10
114.1222289999999
 20
54.934803
 30
0.0
 40
2.2
100
AcDbArc
 50
143.130087
 51
269.9999969999999
  0
ARC
  5
48C
330
29A
100
AcDbEntity
  8
1
  6
Continuous
100
AcDbCircle
 10
134.5222389999999
 20
54.934803
 30
0.0
 40
2.2
100
AcDbArc
 50
269.9999969999999
 51
36.869908
  0
ARC
  5
48D
330
29A
100
AcDbEntity
  8
1
  6
Continuous
100
AcDbCircle
 10
238.7485259999999
 20
152.45496
 30
0.0
 40
6.0
100
AcDbArc
 50
149.8728319999999
 51
203.556464
  0
ARC
  5
48E
330
29A
100
AcDbEntity
  8
1
  6
Continuous
100
AcDbCircle
 10
20.754721
 20
158.43989
 30
0.0
 40
1.1
100
AcDbArc
 50
223.0491199999999
 51
348.9777409999998
  0
ARC
  5
48F
330
29A
100
AcDbEntity
  8
1
  6
Continuous
100
AcDbCircle
 10
20.754721
 20
158.43989
 30
0.0
 40
1.0
100
AcDbArc
 50
226.0134359999999
 51
346.0134319999998
  0
ARC
  5
490
330
29A
100
AcDbEntity
  8
1
  6
Continuous
100
AcDbCircle
 10
20.754721
 20
158.43989
 30
0.0
 40
1.25
100
AcDbArc
 50
172.4352559999999
 51
219.591606
  0
ARC
  5
491
330
29A
100
AcDbEntity
  8
1
  6
Continuous
100
AcDbCircle
 10
20.754721
 20
158.43989
 30
0.0
 40
1.25
100
AcDbArc
 50
352.4352549999999
 51
39.591612
  0
ARC
  5
492
330
29A
100
AcDbEntity
  8
1
  6
Continuous
100
AcDbCircle
 10
20.754721
 20
158.43989
 30
0.0
 40
1.0
100
AcDbArc
 50
46.013434
 51
166.013431
  0
ARC
  5
493
330
29A
100
AcDbEntity
  8
1
  6
Continuous
100
AcDbCircle
 10
20.754721
 20
158.43989
 30
0.0
 40
1.1
100
AcDbArc
 50
43.04912499999999
 51
168.9777459999999
  0
ARC
  5
494
330
29A
100
AcDbEntity
  8
1
  6
Continuous
100
AcDbCircle
 10
243.3778509999999
 20
158.43989
 30
0.0
 40
1.1
100
AcDbArc
 50
11.02227199999999
 51
136.9508929999998
  0
ARC
  5
495
330
29A
100
AcDbEntity
  8
1
  6
Continuous
100
AcDbCircle
 10
243.3778509999999
 20
158.43989
 30
0.0
 40
1.0
100
AcDbArc
 50
13.98658099999999
 51
133.986577
  0
ARC
  5
496
330
29A
100
AcDbEntity
  8
1
  6
Continuous
100
AcDbCircle
 10
243.3778509999999
 20
158.43989
 30
0.0
 40
1.25
100
AcDbArc
 50
140.4084029999999
 51
187.5647529999999
  0
ARC
  5
497
330
29A
100
AcDbEntity
  8
1
  6
Continuous
100
AcDbCircle
 10
243.3778509999999
 20
158.43989
 30
0.0
 40
1.25
100
AcDbArc
 50
320.4084009999998
 51
7.564758
  0
ARC
  5
498
330
29A
100
AcDbEntity
  8
1
  6
Continuous
100
AcDbCircle
 10
243.3778509999999
 20
158.43989
 30
0.0
 40
1.0
100
AcDbArc
 50
193.9865819999999
 51
313.9865789999999
  0
ARC
  5
499
330
29A
100
AcDbEntity
  8
1
  6
Continuous
100
AcDbCircle
 10
243.3778509999999
 20
158.43989
 30
0.0
 40
1.1
100
AcDbArc
 50
191.0222669999999
 51
316.9508879999999
  0
ARC
  5
49A
330
29A
100
AcDbEntity
  8
1
  6
Continuous
100
AcDbCircle
 10
118.1722319999999
 20
172.684131
 30
0.0
 40
1.6
100
AcDbArc
 50
90.00000300000001
 51
180.000005
  0
ARC
  5
49B
330
29A
100
AcDbEntity
  8
1
  6
Continuous
100
AcDbCircle
 10
130.472235
 20
172.684131
 30
0.0
 40
1.6
100
AcDbArc
 50
0.0
 51
90.00000300000001
  0
ARC
  5
49C
330
29A
100
AcDbEntity
  8
1
  6
Continuous
100
AcDbCircle
 10
118.1722319999999
 20
247.608196
 30
0.0
 40
1.6
100
AcDbArc
 50
89.999999
 51
180.000009
  0
ARC
  5
49D
330
29A
100
AcDbEntity
  8
1
  6
Continuous
100
AcDbCircle
 10
130.472235
 20
247.608196
 30
0.0
 40
1.6
100
AcDbArc
 50
0.0
 51
90.00000300000001
  0
ARC
  5
49E
330
29A
100
AcDbEntity
  8
1
  6
Continuous
100
AcDbCircle
 10
118.1722319999999
 20
237.910061
 30
0.0
 40
1.6
100
AcDbArc
 50
89.999999
 51
180.000009
  0
ARC
  5
49F
330
29A
100
AcDbEntity
  8
1
  6
Continuous
100
AcDbCircle
 10
130.472235
 20
237.910061
 30
0.0
 40
1.6
100
AcDbArc
 50
0.0
 51
90.00000300000001
  0
ARC
  5
4A0
330
29A
100
AcDbEntity
  8
1
  6
Continuous
100
AcDbCircle
 10
349.1320099999999
 20
172.684131
 30
0.0
 40
1.6
100
AcDbArc
 50
90.00000300000001
 51
180.000005
  0
ARC
  5
4A1
330
29A
100
AcDbEntity
  8
1
  6
Continuous
100
AcDbCircle
 10
361.431998
 20
172.684131
 30
0.0
 40
1.6
100
AcDbArc
 50
0.0
 51
90.00000300000001
  0
ARC
  5
4A2
330
29A
100
AcDbEntity
  8
1
  6
Continuous
100
AcDbCircle
 10
349.1320099999999
 20
170.2456399999999
 30
0.0
 40
1.6
100
AcDbArc
 50
90.00000300000001
 51
180.000005
  0
ARC
  5
4A3
330
29A
100
AcDbEntity
  8
1
  6
Continuous
100
AcDbCircle
 10
361.431998
 20
170.2456399999999
 30
0.0
 40
1.6
100
AcDbArc
 50
0.0
 51
90.00000300000001
  0
ARC
  5
4A4
330
29A
100
AcDbEntity
  8
1
  6
Continuous
100
AcDbCircle
 10
238.7485259999999
 20
152.45496
 30
0.0
 40
1.1
100
AcDbArc
 50
335.380023
 51
0.0
  0
ARC
  5
4A5
330
29A
100
AcDbEntity
  8
1
  6
Continuous
100
AcDbCircle
 10
14.884044
 20
137.95496
 30
0.0
 40
1.6
100
AcDbArc
 50
214.2288599999999
 51
325.771135
  0
ARC
  5
4A6
330
29A
100
AcDbEntity
  8
1
  6
Continuous
100
AcDbCircle
 10
249.2485259999999
 20
137.95496
 30
0.0
 40
1.6
100
AcDbArc
 50
214.2288599999999
 51
325.771135
  0
ARC
  5
4A7
330
29A
100
AcDbEntity
  8
1
  6
Continuous
100
AcDbCircle
 10
358.2820039999999
 20
154.3549529999999
 30
0.0
 40
0.6
100
AcDbArc
 50
275.0000029999998
 51
95.000002
  0
ARC
  5
4A8
330
29A
100
AcDbEntity
  8
1
  6
Continuous
100
AcDbCircle
 10
352.2820039999999
 20
153.8300209999999
 30
0.0
 40
0.6
100
AcDbArc
 50
95.000002
 51
275.000027
  0
ARC
  5
4A9
330
29A
100
AcDbEntity
  8
1
  6
Continuous
100
AcDbCircle
 10
355.2820039999998
 20
161.1665069999999
 30
0.0
 40
0.6
100
AcDbArc
 50
0.0
 51
180.000005
  0
ARC
  5
4AA
330
29A
100
AcDbEntity
  8
1
  6
Continuous
100
AcDbCircle
 10
357.8820099999999
 20
156.95496
 30
0.0
 40
3.2
100
AcDbArc
 50
179.9999909999999
 51
224.257199
  0
ARC
  5
4AB
330
29A
100
AcDbEntity
  8
1
  6
Continuous
100
AcDbCircle
 10
357.8820099999999
 20
156.95496
 30
0.0
 40
2.0
100
AcDbArc
 50
179.9999909999999
 51
270.000001
  0
ARC
  5
4AC
330
29A
100
AcDbEntity
  8
1
  6
Continuous
100
AcDbCircle
 10
355.2820039999998
 20
135.8549529999999
 30
0.0
 40
0.6
100
AcDbArc
 50
179.9999909999999
 51
0.00001
  0
ARC
  5
4AD
330
29A
100
AcDbEntity
  8
1
  6
Continuous
100
AcDbCircle
 10
357.8820099999999
 20
140.0665009999999
 30
0.0
 40
3.2
100
AcDbArc
 50
89.705416
 51
180.000005
  0
ARC
  5
4AE
330
29A
100
AcDbEntity
  8
1
  6
Continuous
100
AcDbCircle
 10
357.8820099999999
 20
140.0665009999999
 30
0.0
 40
2.0
100
AcDbArc
 50
89.99999599999998
 51
180.000005
  0
ARC
  5
4AF
330
29A
100
AcDbEntity
  8
1
  6
Continuous
100
AcDbCircle
 10
358.2830109999999
 20
142.665485
 30
0.0
 40
0.5989860000000001
100
AcDbArc
 50
269.9999839999999
 51
89.705416
  0
ARC
  5
4B0
330
29A
100
AcDbEntity
  8
1
  6
Continuous
100
AcDbCircle
 10
352.2820039999999
 20
152.3800239999999
 30
0.0
 40
0.6
100
AcDbArc
 50
95.000002
 51
275.000027
  0
ARC
  5
4B1
330
29A
100
AcDbEntity
  8
1
  6
Continuous
100
AcDbCircle
 10
358.2820039999999
 20
152.9049569999999
 30
0.0
 40
0.6
100
AcDbArc
 50
275.0000029999998
 51
95.000002
  0
ARC
  5
4B2
330
29A
100
AcDbEntity
  8
1
  6
Continuous
100
AcDbCircle
 10
358.2820039999999
 20
151.45496
 30
0.0
 40
0.6
100
AcDbArc
 50
275.0000029999998
 51
95.000002
  0
ARC
  5
4B3
330
29A
100
AcDbEntity
  8
1
  6
Continuous
100
AcDbCircle
 10
352.2820039999999
 20
150.9300269999999
 30
0.0
 40
0.6
100
AcDbArc
 50
95.000002
 51
275.000027
  0
ARC
  5
4B4
330
29A
100
AcDbEntity
  8
1
  6
Continuous
100
AcDbCircle
 10
352.2820039999999
 20
149.4800149999998
 30
0.0
 40
0.6
100
AcDbArc
 50
95.000002
 51
275.000027
  0
ARC
  5
4B5
330
29A
100
AcDbEntity
  8
1
  6
Continuous
100
AcDbCircle
 10
358.2820039999999
 20
150.0049469999999
 30
0.0
 40
0.6
100
AcDbArc
 50
275.0000029999998
 51
95.000002
  0
ARC
  5
4B6
330
29A
100
AcDbEntity
  8
1
  6
Continuous
100
AcDbCircle
 10
358.2820039999999
 20
148.5549499999999
 30
0.0
 40
0.6
100
AcDbArc
 50
275.0000029999998
 51
95.000002
  0
ARC
  5
4B7
330
29A
100
AcDbEntity
  8
1
  6
Continuous
100
AcDbCircle
 10
352.2820039999999
 20
148.0300179999999
 30
0.0
 40
0.6
100
AcDbArc
 50
95.000002
 51
275.000027
  0
ARC
  5
4B8
330
29A
100
AcDbEntity
  8
1
  6
Continuous
100
AcDbCircle
 10
352.2820039999999
 20
146.5800209999999
 30
0.0
 40
0.6
100
AcDbArc
 50
95.000002
 51
275.000027
  0
ARC
  5
4B9
330
29A
100
AcDbEntity
  8
1
  6
Continuous
100
AcDbCircle
 10
358.2820039999999
 20
147.1049529999999
 30
0.0
 40
0.6
100
AcDbArc
 50
275.0000029999998
 51
95.000002
  0
ARC
  5
4BA
330
29A
100
AcDbEntity
  8
1
  6
Continuous
100
AcDbCircle
 10
358.2820039999999
 20
145.6549569999999
 30
0.0
 40
0.6
100
AcDbArc
 50
275.0000029999998
 51
95.000002
  0
ARC
  5
4BB
330
29A
100
AcDbEntity
  8
1
  6
Continuous
100
AcDbCircle
 10
352.2820039999999
 20
145.1300239999999
 30
0.0
 40
0.6
100
AcDbArc
 50
95.000002
 51
275.000027
  0
ARC
  5
4BC
330
29A
100
AcDbEntity
  8
1
  6
Continuous
100
AcDbCircle
 10
352.2820039999999
 20
143.6800269999999
 30
0.0
 40
0.6
100
AcDbArc
 50
95.000002
 51
275.000027
  0
ARC
  5
4BD
330
29A
100
AcDbEntity
  8
1
  6
Continuous
100
AcDbCircle
 10
358.2820039999999
 20
144.2049599999998
 30
0.0
 40
0.6
100
AcDbArc
 50
275.0000029999998
 51
95.000002
  0
ARC
  5
4BE
330
29A
100
AcDbEntity
  8
1
  6
Continuous
100
AcDbCircle
 10
243.467438
 20
157.0427569999999
 30
0.0
 40
3.6
100
AcDbArc
 50
342.412265
 51
21.77416099999998
  0
ARC
  5
4BF
330
29A
100
AcDbEntity
  8
1
  6
Continuous
100
AcDbCircle
 10
243.467438
 20
157.0427569999999
 30
0.0
 40
2.399999999999999
100
AcDbArc
 50
333.0476889999999
 51
352.1249669999999
  0
ARC
  5
4C0
330
29A
100
AcDbEntity
  8
1
  6
Continuous
100
AcDbCircle
 10
121.3222419999999
 20
147.0164979999998
 30
0.0
 40
0.6
100
AcDbArc
 50
95.000002
 51
275.0
  0
ARC
  5
4C1
330
29A
100
AcDbEntity
  8
1
  6
Continuous
100
AcDbCircle
 10
127.3222419999999
 20
147.5414309999999
 30
0.0
 40
0.6
100
AcDbArc
 50
275.0000029999998
 51
95.000022
  0
ARC
  5
4C2
330
29A
100
AcDbEntity
  8
1
  6
Continuous
100
AcDbCircle
 10
127.3222419999999
 20
146.0914339999999
 30
0.0
 40
0.6
100
AcDbArc
 50
275.0000029999998
 51
95.000022
  0
ARC
  5
4C3
330
29A
100
AcDbEntity
  8
1
  6
Continuous
100
AcDbCircle
 10
121.3222419999999
 20
145.5665009999998
 30
0.0
 40
0.6
100
AcDbArc
 50
95.000002
 51
275.0
  0
ARC
  5
4C4
330
29A
100
AcDbEntity
  8
1
  6
Continuous
100
AcDbCircle
 10
121.3222419999999
 20
144.116504
 30
0.0
 40
0.6
100
AcDbArc
 50
95.000002
 51
179.1499739999999
  0
ARC
  5
4C5
330
29A
100
AcDbEntity
  8
1
  6
Continuous
100
AcDbCircle
 10
127.3222419999999
 20
144.641437
 30
0.0
 40
0.6
100
AcDbArc
 50
275.0000029999998
 51
95.000022
  0
ARC
  5
4C6
330
29A
100
AcDbEntity
  8
1
  6
Continuous
100
AcDbCircle
 10
121.3212189999999
 20
154.355961
 30
0.0
 40
0.5989860000000001
100
AcDbArc
 50
89.99998900000001
 51
269.7054279999999
  0
ARC
  5
4C7
330
29A
100
AcDbEntity
  8
1
  6
Continuous
100
AcDbCircle
 10
121.722235
 20
156.95496
 30
0.0
 40
2.0
100
AcDbArc
 50
269.9999969999999
 51
0.0
  0
ARC
  5
4C8
330
29A
100
AcDbEntity
  8
1
  6
Continuous
100
AcDbCircle
 10
121.722235
 20
156.95496
 30
0.0
 40
3.2
100
AcDbArc
 50
269.705418
 51
0.0
  0
ARC
  5
4C9
330
29A
100
AcDbEntity
  8
1
  6
Continuous
100
AcDbCircle
 10
124.3222419999999
 20
161.1665069999999
 30
0.0
 40
0.6
100
AcDbArc
 50
0.0
 51
180.000005
  0
ARC
  5
4CA
330
29A
100
AcDbEntity
  8
1
  6
Continuous
100
AcDbCircle
 10
121.3222419999999
 20
152.8165009999999
 30
0.0
 40
0.6
100
AcDbArc
 50
95.000002
 51
275.0
  0
ARC
  5
4CB
330
29A
100
AcDbEntity
  8
1
  6
Continuous
100
AcDbCircle
 10
127.3222419999999
 20
153.341434
 30
0.0
 40
0.6
100
AcDbArc
 50
275.0000029999998
 51
95.000022
  0
ARC
  5
4CC
330
29A
100
AcDbEntity
  8
1
  6
Continuous
100
AcDbCircle
 10
127.3222419999999
 20
151.891437
 30
0.0
 40
0.6
100
AcDbArc
 50
275.0000029999998
 51
95.000022
  0
ARC
  5
4CD
330
29A
100
AcDbEntity
  8
1
  6
Continuous
100
AcDbCircle
 10
121.3222419999999
 20
151.366504
 30
0.0
 40
0.6
100
AcDbArc
 50
95.000002
 51
275.0
  0
ARC
  5
4CE
330
29A
100
AcDbEntity
  8
1
  6
Continuous
100
AcDbCircle
 10
121.3222419999999
 20
149.916507
 30
0.0
 40
0.6
100
AcDbArc
 50
95.000002
 51
275.0
  0
ARC
  5
4CF
330
29A
100
AcDbEntity
  8
1
  6
Continuous
100
AcDbCircle
 10
127.3222419999999
 20
150.4414399999998
 30
0.0
 40
0.6
100
AcDbArc
 50
275.0000029999998
 51
95.000022
  0
ARC
  5
4D0
330
29A
100
AcDbEntity
  8
1
  6
Continuous
100
AcDbCircle
 10
127.3222419999999
 20
148.9914429999998
 30
0.0
 40
0.6
100
AcDbArc
 50
275.0000029999998
 51
95.000022
  0
ARC
  5
4D1
330
29A
100
AcDbEntity
  8
1
  6
Continuous
100
AcDbCircle
 10
121.3222419999999
 20
148.4665099999998
 30
0.0
 40
0.6
100
AcDbArc
 50
95.000002
 51
275.0
  0
ARC
  5
4D2
330
29A
100
AcDbEntity
  8
1
  6
Continuous
100
AcDbCircle
 10
124.3222419999999
 20
253.405014
 30
0.0
 40
0.6
100
AcDbArc
 50
34.47206400000001
 51
214.472069
  0
ARC
  5
4D3
330
29A
100
AcDbEntity
  8
1
  6
Continuous
100
AcDbCircle
 10
124.3222419999999
 20
248.155941
 30
0.0
 40
3.6
100
AcDbArc
 50
16.995304
 51
163.0046909999998
  0
ARC
  5
4D4
330
29A
100
AcDbEntity
  8
1
  6
Continuous
100
AcDbCircle
 10
124.3222419999999
 20
247.30669
 30
0.0
 40
3.6
100
AcDbArc
 50
31.88365099999999
 51
148.116354
  0
ARC
  5
4D5
330
29A
100
AcDbEntity
  8
1
  6
Continuous
100
AcDbCircle
 10
124.3222419999999
 20
246.457439
 30
0.0
 40
3.6
100
AcDbArc
 50
49.82688899999999
 51
130.1731059999999
  0
ARC
  5
4D6
330
29A
100
AcDbEntity
  8
1
  6
Continuous
100
AcDbCircle
 10
124.3222419999999
 20
249.0051919999999
 30
0.0
 40
3.6
100
AcDbArc
 50
3.232654
 51
176.767345
  0
ARC
  5
4D7
330
29A
100
AcDbEntity
  8
1
  6
Continuous
100
AcDbCircle
 10
124.3359289999999
 20
249.54068
 30
0.0
 40
3.6
100
AcDbArc
 50
354.70081
 51
63.41030100000001
  0
ARC
  5
4D8
330
29A
100
AcDbEntity
  8
1
  6
Continuous
100
AcDbCircle
 10
127.2900759999999
 20
255.4426299999998
 30
0.0
 40
3.0
100
AcDbArc
 50
214.472069
 51
243.4102959999999
  0
ARC
  5
4D9
330
29A
100
AcDbEntity
  8
1
  6
Continuous
100
AcDbCircle
 10
127.2900759999999
 20
255.4426299999998
 30
0.0
 40
4.2
100
AcDbArc
 50
214.472069
 51
222.5405439999998
  0
ARC
  5
4DA
330
29A
100
AcDbEntity
  8
1
  6
Continuous
100
AcDbCircle
 10
124.3222419999999
 20
41.737934
 30
0.0
 40
0.6
100
AcDbArc
 50
179.9999949999999
 51
0.0
  0
ARC
  5
4DB
330
29A
100
AcDbEntity
  8
1
  6
Continuous
100
AcDbCircle
 10
124.3222419999999
 20
46.137775
 30
0.0
 40
3.6
100
AcDbArc
 50
242.836574
 51
260.405931
  0
ARC
  5
4DC
330
29A
100
AcDbEntity
  8
1
  6
Continuous
100
AcDbCircle
 10
124.3222419999999
 20
46.66804899999998
 30
0.0
 40
3.6
100
AcDbArc
 50
355.7762009999998
 51
184.2238109999999
  0
ARC
  5
4DD
330
29A
100
AcDbEntity
  8
1
  6
Continuous
100
AcDbCircle
 10
124.3222419999999
 20
47.19835299999998
 30
0.0
 40
3.6
100
AcDbArc
 50
355.776146
 51
184.223839
  0
ARC
  5
4DE
330
29A
100
AcDbEntity
  8
1
  6
Continuous
100
AcDbCircle
 10
124.3222419999999
 20
48.789264
 30
0.0
 40
3.6
100
AcDbArc
 50
307.542146
 51
311.8057719999999
  0
ARC
  5
4DF
330
29A
100
AcDbEntity
  8
1
  6
Continuous
100
AcDbCircle
 10
124.3222419999999
 20
49.319568
 30
0.0
 40
3.6
100
AcDbArc
 50
229.130748
 51
250.0871339999999
  0
ARC
  5
4E0
330
29A
100
AcDbEntity
  8
1
  6
Continuous
100
AcDbCircle
 10
124.3222419999999
 20
49.84987199999999
 30
0.0
 40
3.6
100
AcDbArc
 50
279.5940709999999
 51
308.2830399999999
  0
ARC
  5
4E1
330
29A
100
AcDbEntity
  8
1
  6
Continuous
100
AcDbCircle
 10
124.3222419999999
 20
47.737934
 30
0.0
 40
0.6
100
AcDbArc
 50
359.9999899999998
 51
180.000009
  0
ARC
  5
4E2
330
29A
100
AcDbEntity
  8
1
  6
Continuous
100
AcDbCircle
 10
125.9222319999999
 20
41.825
 30
0.0
 40
1.0
100
AcDbArc
 50
110.3543999999998
 51
180.000009
  0
ARC
  5
4E3
330
29A
100
AcDbEntity
  8
1
  6
Continuous
100
AcDbCircle
 10
124.3222419999999
 20
46.137775
 30
0.0
 40
2.399999999999999
100
AcDbArc
 50
355.149162
 51
184.8508359999999
  0
ARC
  5
4E4
330
29A
100
AcDbEntity
  8
1
  6
Continuous
100
AcDbCircle
 10
124.3222419999999
 20
54.6646
 30
0.0
 40
0.6
100
AcDbArc
 50
10.49312699999999
 51
174.734079
  0
ARC
  5
4E5
330
29A
100
AcDbEntity
  8
1
  6
Continuous
100
AcDbCircle
 10
124.3222419999999
 20
50.38017599999999
 30
0.0
 40
3.6
100
AcDbArc
 50
355.776159
 51
67.975689
  0
ARC
  5
4E6
330
29A
100
AcDbEntity
  8
1
  6
Continuous
100
AcDbCircle
 10
126.122229
 20
54.829914
 30
0.0
 40
1.199999999999999
100
AcDbArc
 50
191.2261759999999
 51
247.975691
  0
ARC
  5
4E7
330
29A
100
AcDbEntity
  8
1
  6
Continuous
100
AcDbCircle
 10
126.122229
 20
54.829914
 30
0.0
 40
2.399999999999999
100
AcDbArc
 50
182.6322679999999
 51
215.205467
  0
ARC
  5
4E8
330
29A
100
AcDbEntity
  8
1
  6
Continuous
100
AcDbCircle
 10
124.3222419999999
 20
49.84987199999999
 30
0.0
 40
3.6
100
AcDbArc
 50
355.776146
 51
184.223839
  0
ARC
  5
4E9
330
29A
100
AcDbEntity
  8
1
  6
Continuous
100
AcDbCircle
 10
124.3222419999999
 20
49.319568
 30
0.0
 40
3.6
100
AcDbArc
 50
355.776146
 51
184.223839
  0
ARC
  5
4EA
330
29A
100
AcDbEntity
  8
1
  6
Continuous
100
AcDbCircle
 10
124.3222419999999
 20
48.789264
 30
0.0
 40
3.6
100
AcDbArc
 50
355.776146
 51
184.223839
  0
ARC
  5
4EB
330
29A
100
AcDbEntity
  8
1
  6
Continuous
100
AcDbCircle
 10
124.3222419999999
 20
48.25896
 30
0.0
 40
3.6
100
AcDbArc
 50
355.776146
 51
184.223839
  0
ARC
  5
4EC
330
29A
100
AcDbEntity
  8
1
  6
Continuous
100
AcDbCircle
 10
124.3222419999999
 20
47.728656
 30
0.0
 40
3.6
100
AcDbArc
 50
355.776146
 51
184.223839
  0
ARC
  5
4ED
330
29A
100
AcDbEntity
  8
1
  6
Continuous
100
AcDbCircle
 10
124.3222419999999
 20
50.38017599999999
 30
0.0
 40
3.6
100
AcDbArc
 50
279.5940709999999
 51
304.4176489999999
  0
ARC
  5
4EE
330
29A
100
AcDbEntity
  8
1
  6
Continuous
100
AcDbCircle
 10
124.3222419999999
 20
50.38017599999999
 30
0.0
 40
3.6
100
AcDbArc
 50
235.5823529999999
 51
260.405931
  0
ARC
  5
4EF
330
29A
100
AcDbEntity
  8
1
  6
Continuous
100
AcDbCircle
 10
124.3222419999999
 20
49.84987199999999
 30
0.0
 40
3.6
100
AcDbArc
 50
231.716958
 51
260.405931
  0
ARC
  5
4F0
330
29A
100
AcDbEntity
  8
1
  6
Continuous
100
AcDbCircle
 10
124.3222419999999
 20
49.319568
 30
0.0
 40
3.6
100
AcDbArc
 50
229.130748
 51
250.0871339999999
  0
ARC
  5
4F1
330
29A
100
AcDbEntity
  8
1
  6
Continuous
100
AcDbCircle
 10
124.3222419999999
 20
48.789264
 30
0.0
 40
3.6
100
AcDbArc
 50
228.194233
 51
232.457856
  0
ARC
  5
4F2
330
29A
100
AcDbEntity
  8
1
  6
Continuous
100
AcDbCircle
 10
124.3222419999999
 20
46.137775
 30
0.0
 40
3.6
100
AcDbArc
 50
290.3544049999998
 51
297.1634209999999
  0
ARC
  5
4F3
330
29A
100
AcDbEntity
  8
1
  6
Continuous
100
AcDbCircle
 10
124.3222419999999
 20
46.137775
 30
0.0
 40
3.6
100
AcDbArc
 50
356.7682449999999
 51
183.2317399999999
  0
ARC
  5
4F4
330
29A
100
AcDbEntity
  8
1
  6
Continuous
100
AcDbCircle
 10
355.2820039999998
 20
153.45496
 30
0.0
 40
10.0
100
AcDbArc
 50
291.0658989999999
 51
307.95192
  0
ARC
  5
4F5
330
29A
100
AcDbEntity
  8
1
  6
Continuous
100
AcDbCircle
 10
20.665135
 20
157.0427569999999
 30
0.0
 40
3.6
100
AcDbArc
 50
158.2258539999999
 51
197.587735
  0
ARC
  5
4F6
330
29A
100
AcDbEntity
  8
1
  6
Continuous
100
AcDbCircle
 10
20.665135
 20
157.0427569999999
 30
0.0
 40
2.399999999999999
100
AcDbArc
 50
187.8750489999999
 51
206.95231
  0
ARC
  5
4F7
330
29A
100
AcDbEntity
  8
1
  6
Continuous
100
AcDbCircle
 10
124.3222419999999
 20
49.319568
 30
0.0
 40
3.6
100
AcDbArc
 50
289.9128609999999
 51
310.869254
  0
ARC
  5
4F8
330
29A
100
AcDbEntity
  8
1
  6
Continuous
100
AcDbCircle
 10
124.3222419999999
 20
49.319568
 30
0.0
 40
3.6
100
AcDbArc
 50
355.776146
 51
184.223839
  0
ENDSEC
  0
SECTION
  2
OBJECTS
  0
DICTIONARY
  5
288
330
0
100
AcDbDictionary
281
     1
  3
ACAD_CIP_PREVIOUS_PRODUCT_INFO
350
55C
  3
ACAD_COLOR
350
53E
  3
ACAD_DETAILVIEWSTYLE
350
557
  3
ACAD_GROUP
350
289
  3
ACAD_LAYOUT
350
295
  3
ACAD_MATERIAL
350
50C
  3
ACAD_MLEADERSTYLE
350
553
  3
ACAD_MLINESTYLE
350
292
  3
ACAD_PLOTSETTINGS
350
294
  3
ACAD_PLOTSTYLENAME
350
50A
  3
ACAD_SCALELIST
350
541
  3
ACAD_SECTIONVIEWSTYLE
350
555
  3
ACAD_TABLESTYLE
350
53F
  3
ACAD_VISUALSTYLE
350
525
  3
ACDB_RECOMPOSE_DATA
350
57A
  3
AcDbVariableDictionary
350
56D
  3
DWGPROPS
350
57B
  0
DICTIONARY
  5
55D
330
28C
100
AcDbDictionary
280
     1
281
     1
  3
ADSK_XREC_LAYER_RECONCILED
360
55E
  0
DICTIONARY
  5
55F
330
2A2
100
AcDbDictionary
280
     1
281
     1
  3
ADSK_XREC_LAYER_RECONCILED
360
560
  0
DICTIONARY
  5
561
330
2A3
100
AcDbDictionary
280
     1
281
     1
  3
ADSK_XREC_LAYER_RECONCILED
360
562
  0
DICTIONARY
  5
563
330
2A4
100
AcDbDictionary
280
     1
281
     1
  3
ADSK_XREC_LAYER_RECONCILED
360
564
  0
DICTIONARY
  5
565
330
2A5
100
AcDbDictionary
280
     1
281
     1
  3
ADSK_XREC_LAYER_RECONCILED
360
566
  0
DICTIONARY
  5
567
330
2A6
100
AcDbDictionary
280
     1
281
     1
  3
ADSK_XREC_LAYER_RECONCILED
360
568
  0
DICTIONARY
  5
569
330
2A7
100
AcDbDictionary
280
     1
281
     1
  3
ADSK_XREC_LAYER_RECONCILED
360
56A
  0
DICTIONARY
  5
56B
330
2A8
100
AcDbDictionary
280
     1
281
     1
  3
ADSK_XREC_LAYER_RECONCILED
360
56C
  0
DICTIONARY
  5
505
330
29A
100
AcDbDictionary
281
     1
  3
ACAD_LAYOUTSELFREF
350
506
  0
DICTIONARY
  5
503
330
296
100
AcDbDictionary
281
     1
  3
ACAD_LAYOUTSELFREF
350
504
  0
XRECORD
  5
55C
102
{ACAD_REACTORS
330
288
102
}
330
288
100
AcDbXrecord
280
     1
300
ACDLT
300
2014
300
ACDLT_F_S
  0
DICTIONARY
  5
53E
102
{ACAD_REACTORS
330
288
102
}
330
288
100
AcDbDictionary
281
     1
  0
DICTIONARY
  5
557
102
{ACAD_REACTORS
330
288
102
}
330
288
100
AcDbDictionary
281
     1
  3
Imperial24
350
558
  0
DICTIONARY
  5
289
102
{ACAD_REACTORS
330
288
102
}
330
288
100
AcDbDictionary
281
     1
  0
DICTIONARY
  5
295
102
{ACAD_REACTORS
330
288
102
}
330
288
100
AcDbDictionary
281
     1
  3
Model
350
559
  3
レイアウト1
350
55A
  0
DICTIONARY
  5
50C
102
{ACAD_REACTORS
330
288
102
}
330
288
100
AcDbDictionary
281
     1
  3
ByBlock
350
515
  3
ByLayer
350
50D
  3
Global
350
51D
  0
DICTIONARY
  5
553
102
{ACAD_REACTORS
330
288
102
}
330
288
100
AcDbDictionary
281
     1
  3
Standard
350
554
  0
DICTIONARY
  5
292
102
{ACAD_REACTORS
330
288
102
}
330
288
100
AcDbDictionary
281
     1
  3
STANDARD
350
293
  0
DICTIONARY
  5
294
102
{ACAD_REACTORS
330
288
102
}
330
288
100
AcDbDictionary
281
     1
  0
ACDBDICTIONARYWDFLT
  5
50A
102
{ACAD_REACTORS
330
288
102
}
330
288
100
AcDbDictionary
281
     1
  3
Normal
350
50B
100
AcDbDictionaryWithDefault
340
50B
  0
DICTIONARY
  5
541
102
{ACAD_REACTORS
330
288
102
}
330
288
100
AcDbDictionary
281
     1
  3
A0
350
542
  3
A1
350
543
  3
A2
350
544
  3
A3
350
545
  3
A4
350
546
  3
A5
350
547
  3
A6
350
548
  3
A7
350
549
  3
A8
350
54A
  3
A9
350
54B
  3
B0
350
54C
  3
B1
350
54D
  3
B2
350
54E
  3
B3
350
54F
  3
B4
350
550
  3
B5
350
551
  3
B6
350
552
  0
DICTIONARY
  5
555
102
{ACAD_REACTORS
330
288
102
}
330
288
100
AcDbDictionary
281
     1
  3
Imperial24
350
556
  0
DICTIONARY
  5
53F
102
{ACAD_REACTORS
330
288
102
}
330
288
100
AcDbDictionary
281
     1
  3
Standard
350
540
  0
DICTIONARY
  5
525
102
{ACAD_REACTORS
330
288
102
}
330
288
100
AcDbDictionary
281
     1
  3
2dWireframe
350
52B
  3
Basic
350
52A
  3
Brighten
350
531
  3
ColorChange
350
535
  3
Conceptual
350
52E
  3
Dim
350
530
  3
EdgeColorOff
350
53D
  3
Facepattern
350
534
  3
Flat
350
526
  3
FlatWithEdges
350
527
  3
Gouraud
350
528
  3
GouraudWithEdges
350
529
  3
Hidden
350
52D
  3
JitterOff
350
53B
  3
Linepattern
350
533
  3
OverhangOff
350
53C
  3
Realistic
350
52F
  3
Shaded
350
53A
  3
Shaded with edges
350
539
  3
Shades of Gray
350
536
  3
Sketchy
350
537
  3
Thicken
350
532
  3
Wireframe
350
52C
  3
X-Ray
350
538
  0
XRECORD
  5
57A
102
{ACAD_REACTORS
330
288
102
}
330
288
100
AcDbXrecord
280
     1
 90
        1
330
540
  0
DICTIONARY
  5
56D
102
{ACAD_REACTORS
330
288
102
}
330
288
100
AcDbDictionary
281
     1
  3
CANNOSCALE
350
572
  3
CMLEADERSTYLE
350
56F
  3
CTABLESTYLE
350
56E
  3
CVIEWDETAILSTYLE
350
570
  3
CVIEWSECTIONSTYLE
350
571
  3
DIMASSOC
350
575
  3
INDEXCTL
350
574
  3
SORTENTS
350
573
  3
XCLIPFRAME
350
576
  0
XRECORD
  5
57B
102
{ACAD_REACTORS
330
288
102
}
330
288
100
AcDbXrecord
280
     1
  1
DWGPROPS COOKIE
  2

  3

  4

  6

  7

  8
Yoshitsune
  9

300
=
301
=
302
=
303
=
304
=
305
=
306
=
307
=
308
=
309
=
 40
0.000013599537037
 41
2450955.74613669
 42
2457192.600711887
  1

 90
        0
  0
XRECORD
  5
55E
102
{ACAD_REACTORS
330
55D
102
}
330
55D
100
AcDbXrecord
280
     1
290
     1
  0
XRECORD
  5
560
102
{ACAD_REACTORS
330
55F
102
}
330
55F
100
AcDbXrecord
280
     1
290
     1
  0
XRECORD
  5
562
102
{ACAD_REACTORS
330
561
102
}
330
561
100
AcDbXrecord
280
     1
290
     1
  0
XRECORD
  5
564
102
{ACAD_REACTORS
330
563
102
}
330
563
100
AcDbXrecord
280
     1
290
     1
  0
XRECORD
  5
566
102
{ACAD_REACTORS
330
565
102
}
330
565
100
AcDbXrecord
280
     1
290
     1
  0
XRECORD
  5
568
102
{ACAD_REACTORS
330
567
102
}
330
567
100
AcDbXrecord
280
     1
290
     1
  0
XRECORD
  5
56A
102
{ACAD_REACTORS
330
569
102
}
330
569
100
AcDbXrecord
280
     1
290
     1
  0
XRECORD
  5
56C
102
{ACAD_REACTORS
330
56B
102
}
330
56B
100
AcDbXrecord
280
     1
290
     1
  0
XRECORD
  5
506
102
{ACAD_REACTORS
330
505
102
}
330
505
100
AcDbXrecord
280
     1
340
29A
  0
XRECORD
  5
504
102
{ACAD_REACTORS
330
503
102
}
330
503
100
AcDbXrecord
280
     1
340
296
  0
ACDBDETAILVIEWSTYLE
  5
558
102
{ACAD_XDICTIONARY
360
5B3
102
}
102
{ACAD_REACTORS
330
557
102
}
330
557
100
AcDbModelDocViewStyle
 70
     0
  3
Imperial24
290
     0
100
AcDbDetailViewStyle
 70
     0
 71
     0
 90
        3
 71
     1
340
28D
 40
0.24
340
0
 40
0.24
300

 40
0.36
280
     3
 71
     2
340
291
 90
       25
 71
     3
340
28D
 40
0.24
 90
        1
 40
0.75
 90
        1
300
%<\AcVar ViewType \f "%tc1">% %<\AcVar ViewDetailId>%\PSCALE %<\AcVar ViewScale \f "%sn">%
 71
     4
340
291
 90
       25
340
291
 90
       25
280
     0
  0
LAYOUT
  5
559
102
{ACAD_XDICTIONARY
360
5B5
102
}
102
{ACAD_REACTORS
330
295
102
}
330
295
100
AcDbPlotSettings
  1

  2
Canon LBP9100C
  4

  6

 40
0.0
 41
0.0
 42
0.0
 43
0.0
 44
0.0
 45
0.0
 46
0.0
 47
0.0
 48
0.0
 49
0.0
140
0.0
141
0.0
142
1.0
143
1.0
 70
  1712
 72
     0
 73
     0
 74
     0
  7

 75
     0
147
1.0
148
0.0
149
0.0
100
AcDbLayout
  1
Model
 70
     1
 71
     0
 10
0.0
 20
0.0
 11
12.0
 21
9.0
 12
0.0
 22
0.0
 32
0.0
 14
0.0
 24
0.0
 34
0.0
 15
0.0
 25
0.0
 35
0.0
146
0.0
 13
0.0
 23
0.0
 33
0.0
 16
1.0
 26
0.0
 36
0.0
 17
0.0
 27
1.0
 37
0.0
 76
     0
330
29A
331
502
  0
LAYOUT
  5
55A
102
{ACAD_XDICTIONARY
360
5B7
102
}
102
{ACAD_REACTORS
330
295
102
}
330
295
100
AcDbPlotSettings
  1

  2
Canon LBP9100C
  4

  6

 40
0.0
 41
0.0
 42
0.0
 43
0.0
 44
0.0
 45
0.0
 46
0.0
 47
0.0
 48
0.0
 49
0.0
140
0.0
141
0.0
142
1.0
143
1.0
 70
   688
 72
     0
 73
     0
 74
     5
  7

 75
    16
147
1.0
148
0.0
149
0.0
100
AcDbLayout
  1
レイアウト1
 70
     0
 71
     1
 10
0.0
 20
0.0
 11
420.0
 21
297.0
 12
0.0
 22
0.0
 32
0.0
 14
1.000000000000000E+20
 24
1.000000000000000E+20
 34
1.000000000000000E+20
 15
-1.000000000000000E+20
 25
-1.000000000000000E+20
 35
-1.000000000000000E+20
146
0.0
 13
0.0
 23
0.0
 33
0.0
 16
1.0
 26
0.0
 36
0.0
 17
0.0
 27
1.0
 37
0.0
 76
     0
330
296
  0
MATERIAL
  5
515
102
{ACAD_XDICTIONARY
360
516
102
}
102
{ACAD_REACTORS
330
50C
102
}
330
50C
100
AcDbMaterial
  1
ByBlock
 72
     0
 43
0.0208333333333333
 43
0.0
 43
0.0
 43
0.0
 43
0.0
 43
0.0208333333333333
 43
0.0
 43
0.0
 43
0.0
 43
0.0
 43
1.0
 43
0.0
 43
0.0
 43
0.0
 43
0.0
 43
1.0
 77
     0
 47
0.0208333333333333
 47
0.0
 47
0.0
 47
0.0
 47
0.0
 47
0.0208333333333333
 47
0.0
 47
0.0
 47
0.0
 47
0.0
 47
1.0
 47
0.0
 47
0.0
 47
0.0
 47
0.0
 47
1.0
171
     0
 49
0.0208333333333333
 49
0.0
 49
0.0
 49
0.0
 49
0.0
 49
0.0208333333333333
 49
0.0
 49
0.0
 49
0.0
 49
0.0
 49
1.0
 49
0.0
 49
0.0
 49
0.0
 49
0.0
 49
1.0
175
     0
142
0.0208333333333333
142
0.0
142
0.0
142
0.0
142
0.0
142
0.0208333333333333
142
0.0
142
0.0
142
0.0
142
0.0
142
1.0
142
0.0
142
0.0
142
0.0
142
0.0
142
1.0
179
     0
144
0.0208333333333333
144
0.0
144
0.0
144
0.0
144
0.0
144
0.0208333333333333
144
0.0
144
0.0
144
0.0
144
0.0
144
1.0
144
0.0
144
0.0
144
0.0
144
0.0
144
1.0
147
0.0208333333333333
147
0.0
147
0.0
147
0.0
147
0.0
147
0.0208333333333333
147
0.0
147
0.0
147
0.0
147
0.0
147
1.0
147
0.0
147
0.0
147
0.0
147
0.0
147
1.0
  0
MATERIAL
  5
50D
102
{ACAD_XDICTIONARY
360
50E
102
}
102
{ACAD_REACTORS
330
50C
102
}
330
50C
100
AcDbMaterial
  1
ByLayer
 72
     0
 43
0.0208333333333333
 43
0.0
 43
0.0
 43
0.0
 43
0.0
 43
0.0208333333333333
 43
0.0
 43
0.0
 43
0.0
 43
0.0
 43
1.0
 43
0.0
 43
0.0
 43
0.0
 43
0.0
 43
1.0
 77
     0
 47
0.0208333333333333
 47
0.0
 47
0.0
 47
0.0
 47
0.0
 47
0.0208333333333333
 47
0.0
 47
0.0
 47
0.0
 47
0.0
 47
1.0
 47
0.0
 47
0.0
 47
0.0
 47
0.0
 47
1.0
171
     0
 49
0.0208333333333333
 49
0.0
 49
0.0
 49
0.0
 49
0.0
 49
0.0208333333333333
 49
0.0
 49
0.0
 49
0.0
 49
0.0
 49
1.0
 49
0.0
 49
0.0
 49
0.0
 49
0.0
 49
1.0
175
     0
142
0.0208333333333333
142
0.0
142
0.0
142
0.0
142
0.0
142
0.0208333333333333
142
0.0
142
0.0
142
0.0
142
0.0
142
1.0
142
0.0
142
0.0
142
0.0
142
0.0
142
1.0
179
     0
144
0.0208333333333333
144
0.0
144
0.0
144
0.0
144
0.0
144
0.0208333333333333
144
0.0
144
0.0
144
0.0
144
0.0
144
1.0
144
0.0
144
0.0
144
0.0
144
0.0
144
1.0
147
0.0208333333333333
147
0.0
147
0.0
147
0.0
147
0.0
147
0.0208333333333333
147
0.0
147
0.0
147
0.0
147
0.0
147
1.0
147
0.0
147
0.0
147
0.0
147
0.0
147
1.0
  0
MATERIAL
  5
51D
102
{ACAD_XDICTIONARY
360
51E
102
}
102
{ACAD_REACTORS
330
50C
102
}
330
50C
100
AcDbMaterial
  1
Global
 72
     0
 43
0.0208333333333333
 43
0.0
 43
0.0
 43
0.0
 43
0.0
 43
0.0208333333333333
 43
0.0
 43
0.0
 43
0.0
 43
0.0
 43
1.0
 43
0.0
 43
0.0
 43
0.0
 43
0.0
 43
1.0
 77
     0
 47
0.0208333333333333
 47
0.0
 47
0.0
 47
0.0
 47
0.0
 47
0.0208333333333333
 47
0.0
 47
0.0
 47
0.0
 47
0.0
 47
1.0
 47
0.0
 47
0.0
 47
0.0
 47
0.0
 47
1.0
171
     0
 49
0.0208333333333333
 49
0.0
 49
0.0
 49
0.0
 49
0.0
 49
0.0208333333333333
 49
0.0
 49
0.0
 49
0.0
 49
0.0
 49
1.0
 49
0.0
 49
0.0
 49
0.0
 49
0.0
 49
1.0
175
     0
142
0.0208333333333333
142
0.0
142
0.0
142
0.0
142
0.0
142
0.0208333333333333
142
0.0
142
0.0
142
0.0
142
0.0
142
1.0
142
0.0
142
0.0
142
0.0
142
0.0
142
1.0
179
     0
144
0.0208333333333333
144
0.0
144
0.0
144
0.0
144
0.0
144
0.0208333333333333
144
0.0
144
0.0
144
0.0
144
0.0
144
1.0
144
0.0
144
0.0
144
0.0
144
0.0
144
1.0
147
0.0208333333333333
147
0.0
147
0.0
147
0.0
147
0.0
147
0.0208333333333333
147
0.0
147
0.0
147
0.0
147
0.0
147
1.0
147
0.0
147
0.0
147
0.0
147
0.0
147
1.0
  0
MLEADERSTYLE
  5
554
102
{ACAD_REACTORS
330
553
102
}
330
553
100
AcDbMLeaderStyle
170
     2
171
     1
172
     0
 90
        2
 40
0.0
 41
0.0
173
     1
 91
-1056964608
340
28F
 92
       -2
290
     1
 42
0.09
291
     1
 43
0.36
  3
Standard
 44
0.18
300

342
28D
174
     1
178
     6
175
     1
176
     0
 93
-1056964608
 45
0.18
292
     0
297
     0
 46
0.18
 94
-1056964608
 47
1.0
 49
1.0
140
1.0
293
     1
141
0.0
294
     1
177
     0
142
1.0
295
     0
296
     0
143
0.125
1001
ACAD_MLEADERVER
1070
     2
  0
MLINESTYLE
  5
293
102
{ACAD_REACTORS
330
292
102
}
330
292
100
AcDbMlineStyle
  2
STANDARD
 70
     0
  3

 62
   256
 51
90.0
 52
90.0
 71
     2
 49
0.5
 62
   256
  6
BYLAYER
 49
-0.5
 62
   256
  6
BYLAYER
  0
ACDBPLACEHOLDER
  5
50B
102
{ACAD_REACTORS
330
50A
102
}
330
50A
  0
SCALE
  5
542
102
{ACAD_REACTORS
330
541
102
}
330
541
100
AcDbScale
 70
     0
300
1:1
140
1.0
141
1.0
290
     1
  0
SCALE
  5
543
102
{ACAD_REACTORS
330
541
102
}
330
541
100
AcDbScale
 70
     0
300
1/128" = 1'-0"
140
0.0078125
141
12.0
290
     0
  0
SCALE
  5
544
102
{ACAD_REACTORS
330
541
102
}
330
541
100
AcDbScale
 70
     0
300
1/64" = 1'-0"
140
0.015625
141
12.0
290
     0
  0
SCALE
  5
545
102
{ACAD_REACTORS
330
541
102
}
330
541
100
AcDbScale
 70
     0
300
1/32" = 1'-0"
140
0.03125
141
12.0
290
     0
  0
SCALE
  5
546
102
{ACAD_REACTORS
330
541
102
}
330
541
100
AcDbScale
 70
     0
300
1/16" = 1'-0"
140
0.0625
141
12.0
290
     0
  0
SCALE
  5
547
102
{ACAD_REACTORS
330
541
102
}
330
541
100
AcDbScale
 70
     0
300
3/32" = 1'-0"
140
0.09375
141
12.0
290
     0
  0
SCALE
  5
548
102
{ACAD_REACTORS
330
541
102
}
330
541
100
AcDbScale
 70
     0
300
1/8" = 1'-0"
140
0.125
141
12.0
290
     0
  0
SCALE
  5
549
102
{ACAD_REACTORS
330
541
102
}
330
541
100
AcDbScale
 70
     0
300
3/16" = 1'-0"
140
0.1875
141
12.0
290
     0
  0
SCALE
  5
54A
102
{ACAD_REACTORS
330
541
102
}
330
541
100
AcDbScale
 70
     0
300
1/4" = 1'-0"
140
0.25
141
12.0
290
     0
  0
SCALE
  5
54B
102
{ACAD_REACTORS
330
541
102
}
330
541
100
AcDbScale
 70
     0
300
3/8" = 1'-0"
140
0.375
141
12.0
290
     0
  0
SCALE
  5
54C
102
{ACAD_REACTORS
330
541
102
}
330
541
100
AcDbScale
 70
     0
300
1/2" = 1'-0"
140
0.5
141
12.0
290
     0
  0
SCALE
  5
54D
102
{ACAD_REACTORS
330
541
102
}
330
541
100
AcDbScale
 70
     0
300
3/4" = 1'-0"
140
0.75
141
12.0
290
     0
  0
SCALE
  5
54E
102
{ACAD_REACTORS
330
541
102
}
330
541
100
AcDbScale
 70
     0
300
1" = 1'-0"
140
1.0
141
12.0
290
     0
  0
SCALE
  5
54F
102
{ACAD_REACTORS
330
541
102
}
330
541
100
AcDbScale
 70
     0
300
1-1/2" = 1'-0"
140
1.5
141
12.0
290
     0
  0
SCALE
  5
550
102
{ACAD_REACTORS
330
541
102
}
330
541
100
AcDbScale
 70
     0
300
3" = 1'-0"
140
3.0
141
12.0
290
     0
  0
SCALE
  5
551
102
{ACAD_REACTORS
330
541
102
}
330
541
100
AcDbScale
 70
     0
300
6" = 1'-0"
140
6.0
141
12.0
290
     0
  0
SCALE
  5
552
102
{ACAD_REACTORS
330
541
102
}
330
541
100
AcDbScale
 70
     0
300
1'-0" = 1'-0"
140
12.0
141
12.0
290
     0
  0
ACDBSECTIONVIEWSTYLE
  5
556
102
{ACAD_XDICTIONARY
360
5B1
102
}
102
{ACAD_REACTORS
330
555
102
}
330
555
100
AcDbModelDocViewStyle
 70
     0
  3
Imperial24
290
     0
100
AcDbSectionViewStyle
 70
     0
 71
     0
 90
       78
 71
     1
340
28D
 40
0.24
340
0
340
0
 40
0.24
300
I, O, Q, S, X, Z
 40
0.48
 90
        3
 40
0.18
 90
        1
 71
     2
340
291
 90
       25
340
291
 90
       50
 40
0.24
 40
0.0
 40
0.24
 71
     3
340
28D
 40
0.24
 90
        1
 40
0.75
 90
        1
300
%<\AcVar ViewType \f "%tc1">% %<\AcVar ViewSectionStartId>%-%<\AcVar ViewSectionEndId>%\PSCALE %<\AcVar ViewScale \f "%sn">%
 71
     4
300
ANSI31
 40
1.0
 90
        0
290
     0
290
     0
 90
        6
 40
0.0
 40
1.570796326794896
 40
0.2617993877991494
 40
1.308996938995747
 40
-0.2617993877991494
 40
1.832595714594046
  0
TABLESTYLE
  5
540
102
{ACAD_XDICTIONARY
360
578
102
}
102
{ACAD_REACTORS
330
53F
102
}
330
53F
100
AcDbTableStyle
  3
Standard
 70
     0
 71
     0
 40
0.06
 41
0.06
280
     0
281
     0
  7
STANDARD
140
0.18
170
     2
 62
     0
 63
     7
283
     0
274
    -2
284
     1
 64
     0
275
    -2
285
     1
 65
     0
276
    -2
286
     1
 66
     0
277
    -2
287
     1
 67
     0
278
    -2
288
     1
 68
     0
279
    -2
289
     1
 69
     0
  7
STANDARD
140
0.25
170
     5
 62
     0
 63
     7
283
     0
274
    -2
284
     1
 64
     0
275
    -2
285
     1
 65
     0
276
    -2
286
     1
 66
     0
277
    -2
287
     1
 67
     0
278
    -2
288
     1
 68
     0
279
    -2
289
     1
 69
     0
  7
STANDARD
140
0.18
170
     5
 62
     0
 63
     7
283
     0
274
    -2
284
     1
 64
     0
275
    -2
285
     1
 65
     0
276
    -2
286
     1
 66
     0
277
    -2
287
     1
 67
     0
278
    -2
288
     1
 68
     0
279
    -2
289
     1
 69
     0
  0
VISUALSTYLE
  5
52B
102
{ACAD_XDICTIONARY
360
589
102
}
102
{ACAD_REACTORS
330
525
102
}
330
525
100
AcDbVisualStyle
  2
2dWireframe
 70
     4
 71
     0
 72
     2
 73
     0
 90
        0
 40
-0.6
 41
-30.0
 62
     5
 63
     7
 74
     1
 91
        4
 64
     7
 65
   257
 75
     1
175
     1
 42
1.0
 92
        0
 66
   257
 43
1.0
 76
     1
 77
     6
 78
     2
 67
     7
 79
     5
170
     0
171
     0
290
     0
174
     0
 93
        1
 44
0.0
173
     0
291
     0
 45
0.0
1001
ACAD
1000
AcDbSavedByObjectVersion
1070
     0
  0
VISUALSTYLE
  5
52A
102
{ACAD_XDICTIONARY
360
587
102
}
102
{ACAD_REACTORS
330
525
102
}
330
525
100
AcDbVisualStyle
  2
Basic
 70
     7
 71
     1
 72
     0
 73
     1
 90
        0
 40
-0.6
 41
-30.0
 62
     5
 63
     7
 74
     0
 91
        4
 64
     7
 65
   257
 75
     1
175
     1
 42
1.0
 92
        8
 66
     7
 43
1.0
 76
     1
 77
     6
 78
     2
 67
     7
 79
     5
170
     0
171
     0
290
     0
174
     0
 93
        1
 44
0.0
173
     0
291
     1
 45
0.0
1001
ACAD
1000
AcDbSavedByObjectVersion
1070
     0
  0
VISUALSTYLE
  5
531
102
{ACAD_XDICTIONARY
360
595
102
}
102
{ACAD_REACTORS
330
525
102
}
330
525
100
AcDbVisualStyle
  2
Brighten
 70
    12
 71
     2
 72
     2
 73
     0
 90
        0
 40
-0.6
 41
-30.0
 62
     5
 63
     7
 74
     1
 91
        4
 64
     7
 65
   257
 75
     1
175
     1
 42
1.0
 92
        8
 66
     7
 43
1.0
 76
     1
 77
     6
 78
     2
 67
     7
 79
     5
170
     0
171
     0
290
     0
174
     0
 93
        1
 44
50.0
173
     0
291
     1
 45
0.0
1001
ACAD
1000
AcDbSavedByObjectVersion
1070
     0
  0
VISUALSTYLE
  5
535
102
{ACAD_XDICTIONARY
360
59D
102
}
102
{ACAD_REACTORS
330
525
102
}
330
525
100
AcDbVisualStyle
  2
ColorChange
 70
    16
 71
     2
 72
     2
 73
     3
 90
        0
 40
-0.6
 41
-30.0
 62
     5
 63
     8
 74
     1
 91
        4
 64
     7
 65
   257
 75
     1
175
     1
 42
1.0
 92
        8
 66
     8
 43
1.0
 76
     1
 77
     6
 78
     2
 67
     7
 79
     5
170
     0
171
     0
290
     0
174
     0
 93
        1
 44
0.0
173
     0
291
     1
 45
0.0
1001
ACAD
1000
AcDbSavedByObjectVersion
1070
     0
  0
VISUALSTYLE
  5
52E
102
{ACAD_XDICTIONARY
360
58F
102
}
102
{ACAD_REACTORS
330
525
102
}
330
525
100
AcDbVisualStyle
  2
Conceptual
 70
     9
 71
     3
 72
     2
 73
     0
 90
        0
 40
-0.6
 41
-30.0
 62
     5
 63
     7
 74
     2
 91
        2
 64
     7
 65
   257
 75
     1
175
     1
 42
179.0
 92
        8
 66
     7
 43
1.0
 76
     1
 77
     6
 78
     2
 67
     7
 79
     3
170
     0
171
     0
290
     0
174
     0
 93
        1
 44
0.0
173
     0
291
     0
 45
0.0
1001
ACAD
1000
AcDbSavedByObjectVersion
1070
     0
  0
VISUALSTYLE
  5
530
102
{ACAD_XDICTIONARY
360
593
102
}
102
{ACAD_REACTORS
330
525
102
}
330
525
100
AcDbVisualStyle
  2
Dim
 70
    11
 71
     2
 72
     2
 73
     0
 90
        0
 40
-0.6
 41
-30.0
 62
     5
 63
     7
 74
     1
 91
        4
 64
     7
 65
   257
 75
     1
175
     1
 42
1.0
 92
        8
 66
     7
 43
1.0
 76
     1
 77
     6
 78
     2
 67
     7
 79
     5
170
     0
171
     0
290
     0
174
     0
 93
        1
 44
-50.0
173
     0
291
     1
 45
0.0
1001
ACAD
1000
AcDbSavedByObjectVersion
1070
     0
  0
VISUALSTYLE
  5
53D
102
{ACAD_XDICTIONARY
360
5AD
102
}
102
{ACAD_REACTORS
330
525
102
}
330
525
100
AcDbVisualStyle
  2
EdgeColorOff
 70
    22
 71
     2
 72
     2
 73
     0
 90
        0
 40
-0.6
 41
-30.0
 62
     5
 63
     7
 74
     1
 91
        4
 64
     7
 65
   257
 75
     1
175
     1
 42
1.0
 92
        8
 66
     7
 43
1.0
 76
     1
 77
     6
 78
     2
 67
     7
 79
     5
170
     0
171
     0
290
     0
174
     0
 93
        1
 44
0.0
173
     0
291
     1
 45
0.0
1001
ACAD
1000
AcDbSavedByObjectVersion
1070
     0
  0
VISUALSTYLE
  5
534
102
{ACAD_XDICTIONARY
360
59B
102
}
102
{ACAD_REACTORS
330
525
102
}
330
525
100
AcDbVisualStyle
  2
Facepattern
 70
    15
 71
     2
 72
     2
 73
     0
 90
        0
 40
-0.6
 41
-30.0
 62
     5
 63
     7
 74
     1
 91
        4
 64
     7
 65
   257
 75
     1
175
     1
 42
1.0
 92
        8
 66
     7
 43
1.0
 76
     1
 77
     6
 78
     2
 67
     7
 79
     5
170
     0
171
     0
290
     0
174
     0
 93
        1
 44
0.0
173
     0
291
     1
 45
0.0
1001
ACAD
1000
AcDbSavedByObjectVersion
1070
     0
  0
VISUALSTYLE
  5
526
102
{ACAD_XDICTIONARY
360
57F
102
}
102
{ACAD_REACTORS
330
525
102
}
330
525
100
AcDbVisualStyle
  2
Flat
 70
     0
 71
     2
 72
     1
 73
     1
 90
        2
 40
-0.6
 41
30.0
 62
     5
 63
     7
 74
     0
 91
        0
 64
     7
 65
   257
 75
     1
175
     1
 42
1.0
 92
        8
 66
     7
 43
1.0
 76
     1
 77
     6
 78
     2
 67
     7
 79
     5
170
     0
171
     0
290
     0
174
     0
 93
       13
 44
0.0
173
     0
291
     1
 45
0.0
1001
ACAD
1000
AcDbSavedByObjectVersion
1070
     0
  0
VISUALSTYLE
  5
527
102
{ACAD_XDICTIONARY
360
581
102
}
102
{ACAD_REACTORS
330
525
102
}
330
525
100
AcDbVisualStyle
  2
FlatWithEdges
 70
     1
 71
     2
 72
     1
 73
     1
 90
        2
 40
-0.6
 41
30.0
 62
     5
 63
     7
 74
     1
 91
        0
 64
     7
 65
   257
 75
     1
175
     1
 42
1.0
 92
        0
 66
   257
 43
1.0
 76
     1
 77
     6
 78
     2
 67
     7
 79
     5
170
     0
171
     0
290
     0
174
     0
 93
       13
 44
0.0
173
     0
291
     1
 45
0.0
1001
ACAD
1000
AcDbSavedByObjectVersion
1070
     0
  0
VISUALSTYLE
  5
528
102
{ACAD_XDICTIONARY
360
583
102
}
102
{ACAD_REACTORS
330
525
102
}
330
525
100
AcDbVisualStyle
  2
Gouraud
 70
     2
 71
     2
 72
     2
 73
     1
 90
        2
 40
-0.6
 41
30.0
 62
     5
 63
     7
 74
     0
 91
        0
 64
     7
 65
   257
 75
     1
175
     1
 42
1.0
 92
        0
 66
     7
 43
1.0
 76
     1
 77
     6
 78
     2
 67
     7
 79
     5
170
     0
171
     0
290
     0
174
     0
 93
       13
 44
0.0
173
     0
291
     1
 45
0.0
1001
ACAD
1000
AcDbSavedByObjectVersion
1070
     0
  0
VISUALSTYLE
  5
529
102
{ACAD_XDICTIONARY
360
585
102
}
102
{ACAD_REACTORS
330
525
102
}
330
525
100
AcDbVisualStyle
  2
GouraudWithEdges
 70
     3
 71
     2
 72
     2
 73
     1
 90
        2
 40
-0.6
 41
30.0
 62
     5
 63
     7
 74
     1
 91
        0
 64
     7
 65
   257
 75
     1
175
     1
 42
1.0
 92
        0
 66
   257
 43
1.0
 76
     1
 77
     6
 78
     2
 67
     7
 79
     5
170
     0
171
     0
290
     0
174
     0
 93
       13
 44
0.0
173
     0
291
     1
 45
0.0
1001
ACAD
1000
AcDbSavedByObjectVersion
1070
     0
  0
VISUALSTYLE
  5
52D
102
{ACAD_XDICTIONARY
360
58D
102
}
102
{ACAD_REACTORS
330
525
102
}
330
525
100
AcDbVisualStyle
  2
Hidden
 70
     6
 71
     1
 72
     2
 73
     2
 90
        0
 40
-0.6
 41
-30.0
 62
     5
 63
     7
 74
     2
 91
        2
 64
     7
 65
   257
 75
     2
175
     1
 42
40.0
 92
        0
 66
   257
 43
1.0
 76
     1
 77
     6
 78
     2
 67
     7
 79
     3
170
     0
171
     0
290
     0
174
     0
 93
        1
 44
0.0
173
     0
291
     0
 45
0.0
1001
ACAD
1000
AcDbSavedByObjectVersion
1070
     0
  0
VISUALSTYLE
  5
53B
102
{ACAD_XDICTIONARY
360
5A9
102
}
102
{ACAD_REACTORS
330
525
102
}
330
525
100
AcDbVisualStyle
  2
JitterOff
 70
    20
 71
     2
 72
     2
 73
     0
 90
        0
 40
-0.6
 41
-30.0
 62
     5
 63
     7
 74
     1
 91
        4
 64
     7
 65
   257
 75
     1
175
     1
 42
1.0
 92
       10
 66
     7
 43
1.0
 76
     1
 77
     6
 78
     2
 67
     7
 79
     5
170
     0
171
     0
290
     0
174
     0
 93
        1
 44
0.0
173
     0
291
     1
 45
0.0
1001
ACAD
1000
AcDbSavedByObjectVersion
1070
     0
  0
VISUALSTYLE
  5
533
102
{ACAD_XDICTIONARY
360
599
102
}
102
{ACAD_REACTORS
330
525
102
}
330
525
100
AcDbVisualStyle
  2
Linepattern
 70
    14
 71
     2
 72
     2
 73
     0
 90
        0
 40
-0.6
 41
-30.0
 62
     5
 63
     7
 74
     1
 91
        4
 64
     7
 65
   257
 75
     7
175
     7
 42
1.0
 92
        8
 66
     7
 43
1.0
 76
     1
 77
     6
 78
     2
 67
     7
 79
     5
170
     0
171
     0
290
     0
174
     0
 93
        1
 44
0.0
173
     0
291
     1
 45
0.0
1001
ACAD
1000
AcDbSavedByObjectVersion
1070
     0
  0
VISUALSTYLE
  5
53C
102
{ACAD_XDICTIONARY
360
5AB
102
}
102
{ACAD_REACTORS
330
525
102
}
330
525
100
AcDbVisualStyle
  2
OverhangOff
 70
    21
 71
     2
 72
     2
 73
     0
 90
        0
 40
-0.6
 41
-30.0
 62
     5
 63
     7
 74
     1
 91
        4
 64
     7
 65
   257
 75
     1
175
     1
 42
1.0
 92
        9
 66
     7
 43
1.0
 76
     1
 77
     6
 78
     2
 67
     7
 79
     5
170
     0
171
     0
290
     0
174
     0
 93
        1
 44
0.0
173
     0
291
     1
 45
0.0
1001
ACAD
1000
AcDbSavedByObjectVersion
1070
     0
  0
VISUALSTYLE
  5
52F
102
{ACAD_XDICTIONARY
360
591
102
}
102
{ACAD_REACTORS
330
525
102
}
330
525
100
AcDbVisualStyle
  2
Realistic
 70
     8
 71
     2
 72
     3
 73
     0
 90
        2
 40
-0.6
 41
30.0
 62
     5
 63
     7
 74
     0
 91
        0
 64
     7
 65
   257
 75
     1
175
     1
 42
1.0
 92
        8
 66
   257
 43
1.0
 76
     1
 77
     6
 78
     2
 67
     7
 79
     3
170
     0
171
     0
290
     0
174
     0
 93
       13
 44
0.0
173
     0
291
     0
 45
0.0
1001
ACAD
1000
AcDbSavedByObjectVersion
1070
     0
  0
VISUALSTYLE
  5
53A
102
{ACAD_XDICTIONARY
360
5A7
102
}
102
{ACAD_REACTORS
330
525
102
}
330
525
100
AcDbVisualStyle
  2
Shaded
 70
    27
 71
     2
 72
     2
 73
     1
 90
        2
 40
-0.6
 41
30.0
 62
     5
 63
     7
 74
     0
 91
        4
 64
     7
 65
   257
 75
     1
175
     1
 42
1.0
 92
        8
 66
   257
 43
1.0
 76
     1
 77
     6
 78
     2
 67
     8
 79
     3
170
     0
171
     0
290
     0
174
     0
 93
        5
 44
0.0
173
     0
291
     0
 45
0.0
1001
ACAD
1000
AcDbSavedByObjectVersion
1070
     0
  0
VISUALSTYLE
  5
539
102
{ACAD_XDICTIONARY
360
5A5
102
}
102
{ACAD_REACTORS
330
525
102
}
330
525
100
AcDbVisualStyle
  2
Shaded with edges
 70
    26
 71
     2
 72
     2
 73
     1
 90
        2
 40
-0.6
 41
30.0
 62
     5
 63
     7
 74
     1
 91
       10
 64
     7
 65
   257
 75
     2
175
     1
 42
1.0
 92
        8
 66
   257
 43
1.0
 76
     1
 77
     6
 78
     2
 67
     7
 79
     3
170
     0
171
     0
290
     0
174
     0
 93
        5
 44
0.0
173
     0
291
     0
 45
0.0
1001
ACAD
1000
AcDbSavedByObjectVersion
1070
     0
  0
VISUALSTYLE
  5
536
102
{ACAD_XDICTIONARY
360
59F
102
}
102
{ACAD_REACTORS
330
525
102
}
330
525
100
AcDbVisualStyle
  2
Shades of Gray
 70
    23
 71
     2
 72
     2
 73
     3
 90
        0
 40
-0.6
 41
-30.0
 62
     5
 63
     7
 74
     2
 91
        2
 64
     7
 65
     7
 75
     1
175
     1
 42
40.0
 92
        8
 66
     7
 43
1.0
 76
     1
 77
     6
 78
     2
 67
     7
 79
     3
170
     0
171
     0
290
     0
174
     0
 93
        1
 44
0.0
173
     0
291
     0
 45
0.0
1001
ACAD
1000
AcDbSavedByObjectVersion
1070
     0
  0
VISUALSTYLE
  5
537
102
{ACAD_XDICTIONARY
360
5A1
102
}
102
{ACAD_REACTORS
330
525
102
}
330
525
100
AcDbVisualStyle
  2
Sketchy
 70
    24
 71
     1
 72
     2
 73
     2
 90
        0
 40
-0.6
 41
-30.0
 62
     5
 63
     7
 74
     2
 91
        2
 64
     7
 65
     7
 75
     1
175
     1
 42
40.0
 92
       11
 66
     7
 43
1.0
 76
     1
 77
     6
 78
     2
 67
     7
 79
     6
170
     0
171
     0
290
     0
174
     0
 93
        1
 44
0.0
173
     0
291
     0
 45
0.0
1001
ACAD
1000
AcDbSavedByObjectVersion
1070
     0
  0
VISUALSTYLE
  5
532
102
{ACAD_XDICTIONARY
360
597
102
}
102
{ACAD_REACTORS
330
525
102
}
330
525
100
AcDbVisualStyle
  2
Thicken
 70
    13
 71
     2
 72
     2
 73
     0
 90
        0
 40
-0.6
 41
-30.0
 62
     5
 63
     7
 74
     1
 91
        4
 64
     7
 65
   257
 75
     1
175
     1
 42
1.0
 92
       12
 66
     7
 43
1.0
 76
     1
 77
     6
 78
     2
 67
     7
 79
     5
170
     0
171
     0
290
     0
174
     0
 93
        1
 44
0.0
173
     0
291
     1
 45
0.0
1001
ACAD
1000
AcDbSavedByObjectVersion
1070
     0
  0
VISUALSTYLE
  5
52C
102
{ACAD_XDICTIONARY
360
58B
102
}
102
{ACAD_REACTORS
330
525
102
}
330
525
100
AcDbVisualStyle
  2
Wireframe
 70
     5
 71
     0
 72
     2
 73
     0
 90
        0
 40
-0.6
 41
-30.0
 62
     5
 63
     7
 74
     1
 91
        4
 64
     7
 65
   257
 75
     1
175
     1
 42
1.0
 92
        0
 66
   257
 43
1.0
 76
     1
 77
     6
 78
     2
 67
     7
 79
     3
170
     0
171
     0
290
     0
174
     0
 93
        1
 44
0.0
173
     0
291
     0
 45
0.0
1001
ACAD
1000
AcDbSavedByObjectVersion
1070
     0
  0
VISUALSTYLE
  5
538
102
{ACAD_XDICTIONARY
360
5A3
102
}
102
{ACAD_REACTORS
330
525
102
}
330
525
100
AcDbVisualStyle
  2
X-Ray
 70
    25
 71
     2
 72
     2
 73
     1
 90
        1
 40
0.5
 41
-30.0
 62
     5
 63
     7
 74
     1
 91
        0
 64
     7
 65
   257
 75
     1
175
     1
 42
1.0
 92
        8
 66
     7
 43
1.0
 76
     1
 77
     6
 78
     2
 67
     7
 79
     3
170
     0
171
     0
290
     0
174
     0
 93
       13
 44
0.0
173
     0
291
     0
 45
0.0
1001
ACAD
1000
AcDbSavedByObjectVersion
1070
     0
  0
DICTIONARYVAR
  5
572
102
{ACAD_REACTORS
330
56D
102
}
330
56D
100
DictionaryVariables
280
     0
  1
1:1
  0
DICTIONARYVAR
  5
56F
102
{ACAD_REACTORS
330
56D
102
}
330
56D
100
DictionaryVariables
280
     0
  1
STANDARD
  0
DICTIONARYVAR
  5
56E
102
{ACAD_REACTORS
330
56D
102
}
330
56D
100
DictionaryVariables
280
     0
  1
STANDARD
  0
DICTIONARYVAR
  5
570
102
{ACAD_REACTORS
330
56D
102
}
330
56D
100
DictionaryVariables
280
     0
  1
Imperial24
  0
DICTIONARYVAR
  5
571
102
{ACAD_REACTORS
330
56D
102
}
330
56D
100
DictionaryVariables
280
     0
  1
Imperial24
  0
DICTIONARYVAR
  5
575
102
{ACAD_REACTORS
330
56D
102
}
330
56D
100
DictionaryVariables
280
     0
  1
1
  0
DICTIONARYVAR
  5
574
102
{ACAD_REACTORS
330
56D
102
}
330
56D
100
DictionaryVariables
280
     0
  1
0
  0
DICTIONARYVAR
  5
573
102
{ACAD_REACTORS
330
56D
102
}
330
56D
100
DictionaryVariables
280
     0
  1
127
  0
DICTIONARYVAR
  5
576
102
{ACAD_REACTORS
330
56D
102
}
330
56D
100
DictionaryVariables
280
     0
  1
2
  0
DICTIONARY
  5
5B3
330
558
100
AcDbDictionary
280
     1
281
     1
  3
ACAD_XREC_ROUNDTRIP
360
5B4
  0
DICTIONARY
  5
5B5
330
559
100
AcDbDictionary
280
     1
281
     1
  3
ACAD_XREC_ROUNDTRIP
360
5B6
  0
DICTIONARY
  5
5B7
330
55A
100
AcDbDictionary
280
     1
281
     1
  3
ACAD_XREC_ROUNDTRIP
360
5B8
  0
DICTIONARY
  5
516
330
515
100
AcDbDictionary
280
     1
281
     1
  3
ACAD_XREC_ROUNDTRIP
360
57D
  3
BUMPTILE
360
518
  3
DIFFUSETILE
360
517
  3
OPACITYTILE
360
51B
  3
REFLECTIONTILE
360
51A
  3
REFRACTIONTILE
360
51C
  3
SPECULARTILE
360
519
  0
DICTIONARY
  5
50E
330
50D
100
AcDbDictionary
280
     1
281
     1
  3
ACAD_XREC_ROUNDTRIP
360
57C
  3
BUMPTILE
360
510
  3
DIFFUSETILE
360
50F
  3
OPACITYTILE
360
513
  3
REFLECTIONTILE
360
512
  3
REFRACTIONTILE
360
514
  3
SPECULARTILE
360
511
  0
DICTIONARY
  5
51E
330
51D
100
AcDbDictionary
280
     1
281
     1
  3
ACAD_XREC_ROUNDTRIP
360
57E
  3
BUMPTILE
360
520
  3
DIFFUSETILE
360
51F
  3
OPACITYTILE
360
523
  3
REFLECTIONTILE
360
522
  3
REFRACTIONTILE
360
524
  3
SPECULARTILE
360
521
  0
DICTIONARY
  5
5B1
330
556
100
AcDbDictionary
280
     1
281
     1
  3
ACAD_XREC_ROUNDTRIP
360
5B2
  0
DICTIONARY
  5
578
330
540
100
AcDbDictionary
280
     1
281
     1
  3
ACAD_ROUNDTRIP_2008_TABLESTYLE_CELLSTYLEMAP
360
579
  3
ACAD_XREC_ROUNDTRIP
360
5AF
  0
DICTIONARY
  5
589
330
52B
100
AcDbDictionary
280
     1
281
     1
  3
ACAD_XREC_ROUNDTRIP
360
58A
  0
DICTIONARY
  5
587
330
52A
100
AcDbDictionary
280
     1
281
     1
  3
ACAD_XREC_ROUNDTRIP
360
588
  0
DICTIONARY
  5
595
330
531
100
AcDbDictionary
280
     1
281
     1
  3
ACAD_XREC_ROUNDTRIP
360
596
  0
DICTIONARY
  5
59D
330
535
100
AcDbDictionary
280
     1
281
     1
  3
ACAD_XREC_ROUNDTRIP
360
59E
  0
DICTIONARY
  5
58F
330
52E
100
AcDbDictionary
280
     1
281
     1
  3
ACAD_XREC_ROUNDTRIP
360
590
  0
DICTIONARY
  5
593
330
530
100
AcDbDictionary
280
     1
281
     1
  3
ACAD_XREC_ROUNDTRIP
360
594
  0
DICTIONARY
  5
5AD
330
53D
100
AcDbDictionary
280
     1
281
     1
  3
ACAD_XREC_ROUNDTRIP
360
5AE
  0
DICTIONARY
  5
59B
330
534
100
AcDbDictionary
280
     1
281
     1
  3
ACAD_XREC_ROUNDTRIP
360
59C
  0
DICTIONARY
  5
57F
330
526
100
AcDbDictionary
280
     1
281
     1
  3
ACAD_XREC_ROUNDTRIP
360
580
  0
DICTIONARY
  5
581
330
527
100
AcDbDictionary
280
     1
281
     1
  3
ACAD_XREC_ROUNDTRIP
360
582
  0
DICTIONARY
  5
583
330
528
100
AcDbDictionary
280
     1
281
     1
  3
ACAD_XREC_ROUNDTRIP
360
584
  0
DICTIONARY
  5
585
330
529
100
AcDbDictionary
280
     1
281
     1
  3
ACAD_XREC_ROUNDTRIP
360
586
  0
DICTIONARY
  5
58D
330
52D
100
AcDbDictionary
280
     1
281
     1
  3
ACAD_XREC_ROUNDTRIP
360
58E
  0
DICTIONARY
  5
5A9
330
53B
100
AcDbDictionary
280
     1
281
     1
  3
ACAD_XREC_ROUNDTRIP
360
5AA
  0
DICTIONARY
  5
599
330
533
100
AcDbDictionary
280
     1
281
     1
  3
ACAD_XREC_ROUNDTRIP
360
59A
  0
DICTIONARY
  5
5AB
330
53C
100
AcDbDictionary
280
     1
281
     1
  3
ACAD_XREC_ROUNDTRIP
360
5AC
  0
DICTIONARY
  5
591
330
52F
100
AcDbDictionary
280
     1
281
     1
  3
ACAD_XREC_ROUNDTRIP
360
592
  0
DICTIONARY
  5
5A7
330
53A
100
AcDbDictionary
280
     1
281
     1
  3
ACAD_XREC_ROUNDTRIP
360
5A8
  0
DICTIONARY
  5
5A5
330
539
100
AcDbDictionary
280
     1
281
     1
  3
ACAD_XREC_ROUNDTRIP
360
5A6
  0
DICTIONARY
  5
59F
330
536
100
AcDbDictionary
280
     1
281
     1
  3
ACAD_XREC_ROUNDTRIP
360
5A0
  0
DICTIONARY
  5
5A1
330
537
100
AcDbDictionary
280
     1
281
     1
  3
ACAD_XREC_ROUNDTRIP
360
5A2
  0
DICTIONARY
  5
597
330
532
100
AcDbDictionary
280
     1
281
     1
  3
ACAD_XREC_ROUNDTRIP
360
598
  0
DICTIONARY
  5
58B
330
52C
100
AcDbDictionary
280
     1
281
     1
  3
ACAD_XREC_ROUNDTRIP
360
58C
  0
DICTIONARY
  5
5A3
330
538
100
AcDbDictionary
280
     1
281
     1
  3
ACAD_XREC_ROUNDTRIP
360
5A4
  0
XRECORD
  5
5B4
102
{ACAD_REACTORS
330
5B3
102
}
330
5B3
100
AcDbXrecord
280
     1
102
DISPLAYNAME
  1
Imperial24
102
FLAGS
 90
        0
  0
XRECORD
  5
5B6
102
{ACAD_REACTORS
330
5B5
102
}
330
5B5
100
AcDbXrecord
280
     1
102
SHADEPLOT
 70
     0
102
SHADEPLOTRESLEVEL
 70
     2
102
SHADEPLOTCUSTOMDPI
 70
   300
  0
XRECORD
  5
5B8
102
{ACAD_REACTORS
330
5B7
102
}
330
5B7
100
AcDbXrecord
280
     1
102
SHADEPLOT
 70
     0
102
SHADEPLOTRESLEVEL
 70
     2
102
SHADEPLOTCUSTOMDPI
 70
   300
  0
XRECORD
  5
57D
102
{ACAD_REACTORS
330
516
102
}
330
516
100
AcDbXrecord
280
     1
102
MATERIAL
148
0.0
149
0.0
149
0.0
 93
        0
 94
      127
282
     0
 72
     0
 77
     0
171
     0
175
     0
179
     0
273
     0
  0
XRECORD
  5
518
102
{ACAD_REACTORS
330
516
102
}
330
516
100
AcDbXrecord
280
     1
270
     1
271
     1
  0
XRECORD
  5
517
102
{ACAD_REACTORS
330
516
102
}
330
516
100
AcDbXrecord
280
     1
270
     1
271
     1
  0
XRECORD
  5
51B
102
{ACAD_REACTORS
330
516
102
}
330
516
100
AcDbXrecord
280
     1
270
     1
271
     1
  0
XRECORD
  5
51A
102
{ACAD_REACTORS
330
516
102
}
330
516
100
AcDbXrecord
280
     1
270
     1
271
     1
  0
XRECORD
  5
51C
102
{ACAD_REACTORS
330
516
102
}
330
516
100
AcDbXrecord
280
     1
270
     1
271
     1
  0
XRECORD
  5
519
102
{ACAD_REACTORS
330
516
102
}
330
516
100
AcDbXrecord
280
     1
270
     1
271
     1
  0
XRECORD
  5
57C
102
{ACAD_REACTORS
330
50E
102
}
330
50E
100
AcDbXrecord
280
     1
102
MATERIAL
148
0.0
149
0.0
149
0.0
 93
        0
 94
      127
282
     0
 72
     0
 77
     0
171
     0
175
     0
179
     0
273
     0
  0
XRECORD
  5
510
102
{ACAD_REACTORS
330
50E
102
}
330
50E
100
AcDbXrecord
280
     1
270
     1
271
     1
  0
XRECORD
  5
50F
102
{ACAD_REACTORS
330
50E
102
}
330
50E
100
AcDbXrecord
280
     1
270
     1
271
     1
  0
XRECORD
  5
513
102
{ACAD_REACTORS
330
50E
102
}
330
50E
100
AcDbXrecord
280
     1
270
     1
271
     1
  0
XRECORD
  5
512
102
{ACAD_REACTORS
330
50E
102
}
330
50E
100
AcDbXrecord
280
     1
270
     1
271
     1
  0
XRECORD
  5
514
102
{ACAD_REACTORS
330
50E
102
}
330
50E
100
AcDbXrecord
280
     1
270
     1
271
     1
  0
XRECORD
  5
511
102
{ACAD_REACTORS
330
50E
102
}
330
50E
100
AcDbXrecord
280
     1
270
     1
271
     1
  0
XRECORD
  5
57E
102
{ACAD_REACTORS
330
51E
102
}
330
51E
100
AcDbXrecord
280
     1
102
MATERIAL
148
0.0
149
0.0
149
0.0
 93
        0
 94
      127
282
     0
 72
     0
 77
     0
171
     0
175
     0
179
     0
273
     0
  0
XRECORD
  5
520
102
{ACAD_REACTORS
330
51E
102
}
330
51E
100
AcDbXrecord
280
     1
270
     1
271
     1
  0
XRECORD
  5
51F
102
{ACAD_REACTORS
330
51E
102
}
330
51E
100
AcDbXrecord
280
     1
270
     1
271
     1
  0
XRECORD
  5
523
102
{ACAD_REACTORS
330
51E
102
}
330
51E
100
AcDbXrecord
280
     1
270
     1
271
     1
  0
XRECORD
  5
522
102
{ACAD_REACTORS
330
51E
102
}
330
51E
100
AcDbXrecord
280
     1
270
     1
271
     1
  0
XRECORD
  5
524
102
{ACAD_REACTORS
330
51E
102
}
330
51E
100
AcDbXrecord
280
     1
270
     1
271
     1
  0
XRECORD
  5
521
102
{ACAD_REACTORS
330
51E
102
}
330
51E
100
AcDbXrecord
280
     1
270
     1
271
     1
  0
XRECORD
  5
5B2
102
{ACAD_REACTORS
330
5B1
102
}
330
5B1
100
AcDbXrecord
280
     1
102
DISPLAYNAME
  1
Imperial24
102
FLAGS
 90
        0
  0
CELLSTYLEMAP
  5
579
102
{ACAD_REACTORS
330
578
102
}
330
578
100
AcDbCellStyleMap
 90
        3
300
CELLSTYLE
  1
TABLEFORMAT_BEGIN
 90
        5
170
     1
 91
        0
 92
    32768
 62
   257
 93
        1
300
CONTENTFORMAT
  1
CONTENTFORMAT_BEGIN
 90
        0
 91
        0
 92
      512
 93
        0
300

 40
0.0
140
1.0
 94
        5
 62
     0
340
28D
144
0.25
309
CONTENTFORMAT_END
171
     0
 94
        0
309
TABLEFORMAT_END
  1
CELLSTYLE_BEGIN
 90
        1
 91
        1
300
_TITLE
309
CELLSTYLE_END
300
CELLSTYLE
  1
TABLEFORMAT_BEGIN
 90
        5
170
     1
 91
        0
 92
        0
 62
   257
 93
        1
300
CONTENTFORMAT
  1
CONTENTFORMAT_BEGIN
 90
        0
 91
        0
 92
      512
 93
        0
300

 40
0.0
140
1.0
 94
        5
 62
     0
340
28D
144
0.18
309
CONTENTFORMAT_END
171
     0
 94
        0
309
TABLEFORMAT_END
  1
CELLSTYLE_BEGIN
 90
        2
 91
        1
300
_HEADER
309
CELLSTYLE_END
300
CELLSTYLE
  1
TABLEFORMAT_BEGIN
 90
        5
170
     1
 91
        0
 92
        0
 62
   257
 93
        1
300
CONTENTFORMAT
  1
CONTENTFORMAT_BEGIN
 90
        0
 91
        0
 92
      512
 93
        0
300

 40
0.0
140
1.0
 94
        2
 62
     0
340
28D
144
0.18
309
CONTENTFORMAT_END
171
     0
 94
        0
309
TABLEFORMAT_END
  1
CELLSTYLE_BEGIN
 90
        3
 91
        2
300
_DATA
309
CELLSTYLE_END
  0
XRECORD
  5
5AF
102
{ACAD_REACTORS
330
578
102
}
330
578
100
AcDbXrecord
280
     1
102
ACAD_ROUNDTRIP_PRE2007_TABLESTYLE
 90
      512
 91
        0
  1

 92
      512
 93
        0
  2

 94
      512
 95
        0
  3

  0
XRECORD
  5
58A
102
{ACAD_REACTORS
330
589
102
}
330
589
100
AcDbXrecord
280
     1
102
RTVSPost2010Prop28
280
     1
102
RTVSPost2010PropOp28
 70
     1
102
RTVSPost2010Prop29
280
     1
102
RTVSPost2010PropOp29
 70
     1
102
RTVSPost2010Prop30
280
     0
102
RTVSPost2010PropOp30
 70
     1
102
RTVSPost2010Prop31
280
     0
102
RTVSPost2010PropOp31
 70
     1
102
RTVSPost2010Prop32
280
     0
102
RTVSPost2010PropOp32
 70
     1
102
RTVSPost2010Prop33
280
     0
102
RTVSPost2010PropOp33
 70
     1
102
RTVSPost2010Prop34
280
     0
102
RTVSPost2010PropOp34
 70
     1
102
RTVSPost2010Prop35
280
     0
102
RTVSPost2010PropOp35
 70
     1
102
RTVSPost2010Prop36
280
     0
102
RTVSPost2010PropOp36
 70
     1
102
RTVSPost2010Prop37
 90
       50
102
RTVSPost2010PropOp37
 70
     1
102
RTVSPost2010Prop38
140
0.0
102
RTVSPost2010PropOp38
 70
     1
102
RTVSPost2010Prop39
140
1.0
102
RTVSPost2010PropOp39
 70
     1
102
RTVSPost2010Prop40
 90
        0
102
RTVSPost2010PropOp40
 70
     1
102
RTVSPost2010Prop41ColorIndex
 90
       18
102
RTVSPost2010Prop41ColorRGB
 90
        0
102
RTVSPost2010PropOp41
 70
     1
102
RTVSPost2010Prop42
 90
       50
102
RTVSPost2010PropOp42
 70
     1
102
RTVSPost2010Prop43
 90
        3
102
RTVSPost2010PropOp43
 70
     1
102
RTVSPost2010Prop44ColorIndex
 90
        5
102
RTVSPost2010Prop44ColorRGB
 90
      255
102
RTVSPost2010PropOp44
 70
     1
102
RTVSPost2010Prop45
280
     0
102
RTVSPost2010PropOp45
 70
     1
102
RTVSPost2010Prop46
 90
       50
102
RTVSPost2010PropOp46
 70
     1
102
RTVSPost2010Prop47
 90
       50
102
RTVSPost2010PropOp47
 70
     1
102
RTVSPost2010Prop48
 90
       50
102
RTVSPost2010PropOp48
 70
     1
102
RTVSPost2010Prop49
280
     0
102
RTVSPost2010PropOp49
 70
     1
102
RTVSPost2010Prop50
 90
       50
102
RTVSPost2010PropOp50
 70
     1
102
RTVSPost2010Prop51ColorIndex
 90
      256
102
RTVSPost2010Prop51ColorRGB
 90
-16777216
102
RTVSPost2010PropOp51
 70
     0
102
RTVSPost2010Prop52
140
1.0
102
RTVSPost2010PropOp52
 70
     0
102
RTVSPost2010Prop53
 90
        2
102
RTVSPost2010PropOp53
 70
     1
102
RTVSPost2010Prop54
  1
strokes_ogs.tif
102
RTVSPost2010PropOp54
 70
     1
102
RTVSPost2010Prop55
280
     0
102
RTVSPost2010PropOp55
 70
     1
102
RTVSPost2010Prop56
140
1.0
102
RTVSPost2010PropOp56
 70
     1
102
RTVSPost2010Prop57
140
1.0
102
RTVSPost2010PropOp57
 70
     1
102
RTVSPropertyOp0
 70
     1
102
RTVSPropertyOp1
 70
     1
102
RTVSPropertyOp2
 70
     1
102
RTVSPropertyOp3
 70
     1
102
RTVSPropertyOp4
 70
     1
102
RTVSPropertyOp5
 70
     1
102
RTVSPropertyOp6
 70
     1
102
RTVSPropertyOp7
 70
     1
102
RTVSPropertyOp8
 70
     1
102
RTVSPropertyOp9
 70
     1
102
RTVSPropertyOp10
 70
     1
102
RTVSPropertyOp11
 70
     1
102
RTVSPropertyOp12
 70
     1
102
RTVSPropertyOp13
 70
     1
102
RTVSPropertyOp14
 70
     1
102
RTVSPropertyOp15
 70
     1
102
RTVSPropertyOp16
 70
     1
102
RTVSPropertyOp17
 70
     1
102
RTVSPropertyOp18
 70
     1
102
RTVSPropertyOp19
 70
     1
102
RTVSPropertyOp20
 70
     1
102
RTVSPropertyOp21
 70
     1
102
RTVSPropertyOp22
 70
     1
102
RTVSPropertyOp23
 70
     1
102
RTVSPropertyOp24
 70
     1
102
RTVSPropertyOp25
 70
     1
102
RTVSPropertyOp26
 70
     1
102
RTVSPropertyOp27
 70
     1
102
RTVSPropertyOp28
 70
     1
102
RTVSPropertyOp29
 70
     1
102
RTVSPropertyOp30
 70
     1
102
RTVSPropertyOp31
 70
     1
102
RTVSPropertyOp32
 70
     1
102
RTVSPropertyOp33
 70
     1
102
RTVSPropertyOp34
 70
     1
102
RTVSPropertyOp35
 70
     1
102
RTVSPropertyOp36
 70
     1
102
RTVSPropertyOp37
 70
     1
102
RTVSPropertyOp38
 70
     1
102
RTVSPropertyOp39
 70
     1
102
RTVSPropertyOp40
 70
     1
102
RTVSPropertyOp41
 70
     1
102
RTVSPropertyOp42
 70
     1
102
RTVSPropertyOp43
 70
     1
102
RTVSPropertyOp44
 70
     1
102
RTVSPropertyOp45
 70
     1
102
RTVSPropertyOp46
 70
     1
102
RTVSPropertyOp47
 70
     1
102
RTVSPropertyOp48
 70
     1
102
RTVSPropertyOp49
 70
     1
102
RTVSPropertyOp50
 70
     1
102
RTVSPropertyOp51
 70
     0
102
RTVSPropertyOp52
 70
     0
102
RTVSPropertyOp53
 70
     1
102
RTVSPropertyOp54
 70
     1
102
RTVSPropertyOp55
 70
     1
102
RTVSPropertyOp56
 70
     1
102
RTVSPropertyOp57
 70
     1
102
RTVSPropertyOp58
 70
     1
102
RTVSPropertyOp59
 70
     1
102
RTVSPropertyOp60
 70
     1
102
RTVSPropertyOp61
 70
     1
102
RTVSPropertyOp62
 70
     1
  0
XRECORD
  5
588
102
{ACAD_REACTORS
330
587
102
}
330
587
100
AcDbXrecord
280
     1
102
RTVSPost2010Prop28
280
     0
102
RTVSPost2010PropOp28
 70
     1
102
RTVSPost2010Prop29
280
     1
102
RTVSPost2010PropOp29
 70
     1
102
RTVSPost2010Prop30
280
     1
102
RTVSPost2010PropOp30
 70
     1
102
RTVSPost2010Prop31
280
     0
102
RTVSPost2010PropOp31
 70
     1
102
RTVSPost2010Prop32
280
     0
102
RTVSPost2010PropOp32
 70
     1
102
RTVSPost2010Prop33
280
     0
102
RTVSPost2010PropOp33
 70
     1
102
RTVSPost2010Prop34
280
     0
102
RTVSPost2010PropOp34
 70
     1
102
RTVSPost2010Prop35
280
     0
102
RTVSPost2010PropOp35
 70
     1
102
RTVSPost2010Prop36
280
     0
102
RTVSPost2010PropOp36
 70
     1
102
RTVSPost2010Prop37
 90
       50
102
RTVSPost2010PropOp37
 70
     1
102
RTVSPost2010Prop38
140
0.0
102
RTVSPost2010PropOp38
 70
     1
102
RTVSPost2010Prop39
140
1.0
102
RTVSPost2010PropOp39
 70
     1
102
RTVSPost2010Prop40
 90
        0
102
RTVSPost2010PropOp40
 70
     1
102
RTVSPost2010Prop41ColorIndex
 90
       18
102
RTVSPost2010Prop41ColorRGB
 90
        0
102
RTVSPost2010PropOp41
 70
     1
102
RTVSPost2010Prop42
 90
       50
102
RTVSPost2010PropOp42
 70
     1
102
RTVSPost2010Prop43
 90
        3
102
RTVSPost2010PropOp43
 70
     1
102
RTVSPost2010Prop44ColorIndex
 90
        5
102
RTVSPost2010Prop44ColorRGB
 90
      255
102
RTVSPost2010PropOp44
 70
     1
102
RTVSPost2010Prop45
280
     0
102
RTVSPost2010PropOp45
 70
     1
102
RTVSPost2010Prop46
 90
       50
102
RTVSPost2010PropOp46
 70
     1
102
RTVSPost2010Prop47
 90
       50
102
RTVSPost2010PropOp47
 70
     1
102
RTVSPost2010Prop48
 90
       50
102
RTVSPost2010PropOp48
 70
     1
102
RTVSPost2010Prop49
280
     0
102
RTVSPost2010PropOp49
 70
     1
102
RTVSPost2010Prop50
 90
       50
102
RTVSPost2010PropOp50
 70
     1
102
RTVSPost2010Prop51ColorIndex
 90
      256
102
RTVSPost2010Prop51ColorRGB
 90
-16777216
102
RTVSPost2010PropOp51
 70
     0
102
RTVSPost2010Prop52
140
1.0
102
RTVSPost2010PropOp52
 70
     0
102
RTVSPost2010Prop53
 90
        2
102
RTVSPost2010PropOp53
 70
     1
102
RTVSPost2010Prop54
  1
strokes_ogs.tif
102
RTVSPost2010PropOp54
 70
     1
102
RTVSPost2010Prop55
280
     0
102
RTVSPost2010PropOp55
 70
     1
102
RTVSPost2010Prop56
140
1.0
102
RTVSPost2010PropOp56
 70
     1
102
RTVSPost2010Prop57
140
1.0
102
RTVSPost2010PropOp57
 70
     1
102
RTVSPropertyOp0
 70
     1
102
RTVSPropertyOp1
 70
     1
102
RTVSPropertyOp2
 70
     1
102
RTVSPropertyOp3
 70
     1
102
RTVSPropertyOp4
 70
     1
102
RTVSPropertyOp5
 70
     1
102
RTVSPropertyOp6
 70
     1
102
RTVSPropertyOp7
 70
     1
102
RTVSPropertyOp8
 70
     1
102
RTVSPropertyOp9
 70
     1
102
RTVSPropertyOp10
 70
     1
102
RTVSPropertyOp11
 70
     1
102
RTVSPropertyOp12
 70
     1
102
RTVSPropertyOp13
 70
     1
102
RTVSPropertyOp14
 70
     1
102
RTVSPropertyOp15
 70
     1
102
RTVSPropertyOp16
 70
     1
102
RTVSPropertyOp17
 70
     1
102
RTVSPropertyOp18
 70
     1
102
RTVSPropertyOp19
 70
     1
102
RTVSPropertyOp20
 70
     1
102
RTVSPropertyOp21
 70
     1
102
RTVSPropertyOp22
 70
     1
102
RTVSPropertyOp23
 70
     1
102
RTVSPropertyOp24
 70
     1
102
RTVSPropertyOp25
 70
     1
102
RTVSPropertyOp26
 70
     1
102
RTVSPropertyOp27
 70
     1
102
RTVSPropertyOp28
 70
     1
102
RTVSPropertyOp29
 70
     1
102
RTVSPropertyOp30
 70
     1
102
RTVSPropertyOp31
 70
     1
102
RTVSPropertyOp32
 70
     1
102
RTVSPropertyOp33
 70
     1
102
RTVSPropertyOp34
 70
     1
102
RTVSPropertyOp35
 70
     1
102
RTVSPropertyOp36
 70
     1
102
RTVSPropertyOp37
 70
     1
102
RTVSPropertyOp38
 70
     1
102
RTVSPropertyOp39
 70
     1
102
RTVSPropertyOp40
 70
     1
102
RTVSPropertyOp41
 70
     1
102
RTVSPropertyOp42
 70
     1
102
RTVSPropertyOp43
 70
     1
102
RTVSPropertyOp44
 70
     1
102
RTVSPropertyOp45
 70
     1
102
RTVSPropertyOp46
 70
     1
102
RTVSPropertyOp47
 70
     1
102
RTVSPropertyOp48
 70
     1
102
RTVSPropertyOp49
 70
     1
102
RTVSPropertyOp50
 70
     1
102
RTVSPropertyOp51
 70
     0
102
RTVSPropertyOp52
 70
     0
102
RTVSPropertyOp53
 70
     1
102
RTVSPropertyOp54
 70
     1
102
RTVSPropertyOp55
 70
     1
102
RTVSPropertyOp56
 70
     1
102
RTVSPropertyOp57
 70
     1
102
RTVSPropertyOp58
 70
     1
102
RTVSPropertyOp59
 70
     1
102
RTVSPropertyOp60
 70
     1
102
RTVSPropertyOp61
 70
     1
102
RTVSPropertyOp62
 70
     1
  0
XRECORD
  5
596
102
{ACAD_REACTORS
330
595
102
}
330
595
100
AcDbXrecord
280
     1
102
RTVSPost2010Prop28
280
     0
102
RTVSPost2010PropOp28
 70
     1
102
RTVSPost2010Prop29
280
     1
102
RTVSPost2010PropOp29
 70
     1
102
RTVSPost2010Prop30
280
     1
102
RTVSPost2010PropOp30
 70
     1
102
RTVSPost2010Prop31
280
     0
102
RTVSPost2010PropOp31
 70
     1
102
RTVSPost2010Prop32
280
     0
102
RTVSPost2010PropOp32
 70
     1
102
RTVSPost2010Prop33
280
     0
102
RTVSPost2010PropOp33
 70
     1
102
RTVSPost2010Prop34
280
     0
102
RTVSPost2010PropOp34
 70
     1
102
RTVSPost2010Prop35
280
     0
102
RTVSPost2010PropOp35
 70
     1
102
RTVSPost2010Prop36
280
     0
102
RTVSPost2010PropOp36
 70
     1
102
RTVSPost2010Prop37
 90
       50
102
RTVSPost2010PropOp37
 70
     1
102
RTVSPost2010Prop38
140
0.0
102
RTVSPost2010PropOp38
 70
     1
102
RTVSPost2010Prop39
140
1.0
102
RTVSPost2010PropOp39
 70
     1
102
RTVSPost2010Prop40
 90
        0
102
RTVSPost2010PropOp40
 70
     1
102
RTVSPost2010Prop41ColorIndex
 90
       18
102
RTVSPost2010Prop41ColorRGB
 90
        0
102
RTVSPost2010PropOp41
 70
     1
102
RTVSPost2010Prop42
 90
       50
102
RTVSPost2010PropOp42
 70
     1
102
RTVSPost2010Prop43
 90
        3
102
RTVSPost2010PropOp43
 70
     1
102
RTVSPost2010Prop44ColorIndex
 90
        5
102
RTVSPost2010Prop44ColorRGB
 90
      255
102
RTVSPost2010PropOp44
 70
     1
102
RTVSPost2010Prop45
280
     0
102
RTVSPost2010PropOp45
 70
     1
102
RTVSPost2010Prop46
 90
       50
102
RTVSPost2010PropOp46
 70
     1
102
RTVSPost2010Prop47
 90
       50
102
RTVSPost2010PropOp47
 70
     1
102
RTVSPost2010Prop48
 90
       50
102
RTVSPost2010PropOp48
 70
     1
102
RTVSPost2010Prop49
280
     0
102
RTVSPost2010PropOp49
 70
     1
102
RTVSPost2010Prop50
 90
       50
102
RTVSPost2010PropOp50
 70
     1
102
RTVSPost2010Prop51ColorIndex
 90
      256
102
RTVSPost2010Prop51ColorRGB
 90
-16777216
102
RTVSPost2010PropOp51
 70
     0
102
RTVSPost2010Prop52
140
1.0
102
RTVSPost2010PropOp52
 70
     0
102
RTVSPost2010Prop53
 90
        2
102
RTVSPost2010PropOp53
 70
     1
102
RTVSPost2010Prop54
  1
strokes_ogs.tif
102
RTVSPost2010PropOp54
 70
     1
102
RTVSPost2010Prop55
280
     0
102
RTVSPost2010PropOp55
 70
     1
102
RTVSPost2010Prop56
140
1.0
102
RTVSPost2010PropOp56
 70
     1
102
RTVSPost2010Prop57
140
1.0
102
RTVSPost2010PropOp57
 70
     1
102
RTVSPropertyOp0
 70
     1
102
RTVSPropertyOp1
 70
     1
102
RTVSPropertyOp2
 70
     1
102
RTVSPropertyOp3
 70
     1
102
RTVSPropertyOp4
 70
     1
102
RTVSPropertyOp5
 70
     1
102
RTVSPropertyOp6
 70
     1
102
RTVSPropertyOp7
 70
     1
102
RTVSPropertyOp8
 70
     1
102
RTVSPropertyOp9
 70
     1
102
RTVSPropertyOp10
 70
     1
102
RTVSPropertyOp11
 70
     1
102
RTVSPropertyOp12
 70
     1
102
RTVSPropertyOp13
 70
     1
102
RTVSPropertyOp14
 70
     1
102
RTVSPropertyOp15
 70
     1
102
RTVSPropertyOp16
 70
     1
102
RTVSPropertyOp17
 70
     1
102
RTVSPropertyOp18
 70
     1
102
RTVSPropertyOp19
 70
     1
102
RTVSPropertyOp20
 70
     1
102
RTVSPropertyOp21
 70
     1
102
RTVSPropertyOp22
 70
     1
102
RTVSPropertyOp23
 70
     1
102
RTVSPropertyOp24
 70
     1
102
RTVSPropertyOp25
 70
     1
102
RTVSPropertyOp26
 70
     1
102
RTVSPropertyOp27
 70
     1
102
RTVSPropertyOp28
 70
     1
102
RTVSPropertyOp29
 70
     1
102
RTVSPropertyOp30
 70
     1
102
RTVSPropertyOp31
 70
     1
102
RTVSPropertyOp32
 70
     1
102
RTVSPropertyOp33
 70
     1
102
RTVSPropertyOp34
 70
     1
102
RTVSPropertyOp35
 70
     1
102
RTVSPropertyOp36
 70
     1
102
RTVSPropertyOp37
 70
     1
102
RTVSPropertyOp38
 70
     1
102
RTVSPropertyOp39
 70
     1
102
RTVSPropertyOp40
 70
     1
102
RTVSPropertyOp41
 70
     1
102
RTVSPropertyOp42
 70
     1
102
RTVSPropertyOp43
 70
     1
102
RTVSPropertyOp44
 70
     1
102
RTVSPropertyOp45
 70
     1
102
RTVSPropertyOp46
 70
     1
102
RTVSPropertyOp47
 70
     1
102
RTVSPropertyOp48
 70
     1
102
RTVSPropertyOp49
 70
     1
102
RTVSPropertyOp50
 70
     1
102
RTVSPropertyOp51
 70
     0
102
RTVSPropertyOp52
 70
     0
102
RTVSPropertyOp53
 70
     1
102
RTVSPropertyOp54
 70
     1
102
RTVSPropertyOp55
 70
     1
102
RTVSPropertyOp56
 70
     1
102
RTVSPropertyOp57
 70
     1
102
RTVSPropertyOp58
 70
     1
102
RTVSPropertyOp59
 70
     1
102
RTVSPropertyOp60
 70
     1
102
RTVSPropertyOp61
 70
     1
102
RTVSPropertyOp62
 70
     1
  0
XRECORD
  5
59E
102
{ACAD_REACTORS
330
59D
102
}
330
59D
100
AcDbXrecord
280
     1
102
RTVSPost2010Prop28
280
     0
102
RTVSPost2010PropOp28
 70
     1
102
RTVSPost2010Prop29
280
     1
102
RTVSPost2010PropOp29
 70
     1
102
RTVSPost2010Prop30
280
     1
102
RTVSPost2010PropOp30
 70
     1
102
RTVSPost2010Prop31
280
     0
102
RTVSPost2010PropOp31
 70
     1
102
RTVSPost2010Prop32
280
     0
102
RTVSPost2010PropOp32
 70
     1
102
RTVSPost2010Prop33
280
     0
102
RTVSPost2010PropOp33
 70
     1
102
RTVSPost2010Prop34
280
     0
102
RTVSPost2010PropOp34
 70
     1
102
RTVSPost2010Prop35
280
     0
102
RTVSPost2010PropOp35
 70
     1
102
RTVSPost2010Prop36
280
     0
102
RTVSPost2010PropOp36
 70
     1
102
RTVSPost2010Prop37
 90
       50
102
RTVSPost2010PropOp37
 70
     1
102
RTVSPost2010Prop38
140
0.0
102
RTVSPost2010PropOp38
 70
     1
102
RTVSPost2010Prop39
140
1.0
102
RTVSPost2010PropOp39
 70
     1
102
RTVSPost2010Prop40
 90
        0
102
RTVSPost2010PropOp40
 70
     1
102
RTVSPost2010Prop41ColorIndex
 90
       18
102
RTVSPost2010Prop41ColorRGB
 90
        0
102
RTVSPost2010PropOp41
 70
     1
102
RTVSPost2010Prop42
 90
       50
102
RTVSPost2010PropOp42
 70
     1
102
RTVSPost2010Prop43
 90
        3
102
RTVSPost2010PropOp43
 70
     1
102
RTVSPost2010Prop44ColorIndex
 90
        5
102
RTVSPost2010Prop44ColorRGB
 90
      255
102
RTVSPost2010PropOp44
 70
     1
102
RTVSPost2010Prop45
280
     0
102
RTVSPost2010PropOp45
 70
     1
102
RTVSPost2010Prop46
 90
       50
102
RTVSPost2010PropOp46
 70
     1
102
RTVSPost2010Prop47
 90
       50
102
RTVSPost2010PropOp47
 70
     1
102
RTVSPost2010Prop48
 90
       50
102
RTVSPost2010PropOp48
 70
     1
102
RTVSPost2010Prop49
280
     0
102
RTVSPost2010PropOp49
 70
     1
102
RTVSPost2010Prop50
 90
       50
102
RTVSPost2010PropOp50
 70
     1
102
RTVSPost2010Prop51ColorIndex
 90
      256
102
RTVSPost2010Prop51ColorRGB
 90
-16777216
102
RTVSPost2010PropOp51
 70
     0
102
RTVSPost2010Prop52
140
1.0
102
RTVSPost2010PropOp52
 70
     0
102
RTVSPost2010Prop53
 90
        2
102
RTVSPost2010PropOp53
 70
     1
102
RTVSPost2010Prop54
  1
strokes_ogs.tif
102
RTVSPost2010PropOp54
 70
     1
102
RTVSPost2010Prop55
280
     0
102
RTVSPost2010PropOp55
 70
     1
102
RTVSPost2010Prop56
140
1.0
102
RTVSPost2010PropOp56
 70
     1
102
RTVSPost2010Prop57
140
1.0
102
RTVSPost2010PropOp57
 70
     1
102
RTVSPropertyOp0
 70
     1
102
RTVSPropertyOp1
 70
     1
102
RTVSPropertyOp2
 70
     1
102
RTVSPropertyOp3
 70
     1
102
RTVSPropertyOp4
 70
     1
102
RTVSPropertyOp5
 70
     1
102
RTVSPropertyOp6
 70
     1
102
RTVSPropertyOp7
 70
     1
102
RTVSPropertyOp8
 70
     1
102
RTVSPropertyOp9
 70
     1
102
RTVSPropertyOp10
 70
     1
102
RTVSPropertyOp11
 70
     1
102
RTVSPropertyOp12
 70
     1
102
RTVSPropertyOp13
 70
     1
102
RTVSPropertyOp14
 70
     1
102
RTVSPropertyOp15
 70
     1
102
RTVSPropertyOp16
 70
     1
102
RTVSPropertyOp17
 70
     1
102
RTVSPropertyOp18
 70
     1
102
RTVSPropertyOp19
 70
     1
102
RTVSPropertyOp20
 70
     1
102
RTVSPropertyOp21
 70
     1
102
RTVSPropertyOp22
 70
     1
102
RTVSPropertyOp23
 70
     1
102
RTVSPropertyOp24
 70
     1
102
RTVSPropertyOp25
 70
     1
102
RTVSPropertyOp26
 70
     1
102
RTVSPropertyOp27
 70
     1
102
RTVSPropertyOp28
 70
     1
102
RTVSPropertyOp29
 70
     1
102
RTVSPropertyOp30
 70
     1
102
RTVSPropertyOp31
 70
     1
102
RTVSPropertyOp32
 70
     1
102
RTVSPropertyOp33
 70
     1
102
RTVSPropertyOp34
 70
     1
102
RTVSPropertyOp35
 70
     1
102
RTVSPropertyOp36
 70
     1
102
RTVSPropertyOp37
 70
     1
102
RTVSPropertyOp38
 70
     1
102
RTVSPropertyOp39
 70
     1
102
RTVSPropertyOp40
 70
     1
102
RTVSPropertyOp41
 70
     1
102
RTVSPropertyOp42
 70
     1
102
RTVSPropertyOp43
 70
     1
102
RTVSPropertyOp44
 70
     1
102
RTVSPropertyOp45
 70
     1
102
RTVSPropertyOp46
 70
     1
102
RTVSPropertyOp47
 70
     1
102
RTVSPropertyOp48
 70
     1
102
RTVSPropertyOp49
 70
     1
102
RTVSPropertyOp50
 70
     1
102
RTVSPropertyOp51
 70
     0
102
RTVSPropertyOp52
 70
     0
102
RTVSPropertyOp53
 70
     1
102
RTVSPropertyOp54
 70
     1
102
RTVSPropertyOp55
 70
     1
102
RTVSPropertyOp56
 70
     1
102
RTVSPropertyOp57
 70
     1
102
RTVSPropertyOp58
 70
     1
102
RTVSPropertyOp59
 70
     1
102
RTVSPropertyOp60
 70
     1
102
RTVSPropertyOp61
 70
     1
102
RTVSPropertyOp62
 70
     1
  0
XRECORD
  5
590
102
{ACAD_REACTORS
330
58F
102
}
330
58F
100
AcDbXrecord
280
     1
102
RTVSPost2010Prop28
280
     0
102
RTVSPost2010PropOp28
 70
     1
102
RTVSPost2010Prop29
280
     1
102
RTVSPost2010PropOp29
 70
     1
102
RTVSPost2010Prop30
280
     1
102
RTVSPost2010PropOp30
 70
     1
102
RTVSPost2010Prop31
280
     0
102
RTVSPost2010PropOp31
 70
     1
102
RTVSPost2010Prop32
280
     0
102
RTVSPost2010PropOp32
 70
     1
102
RTVSPost2010Prop33
280
     0
102
RTVSPost2010PropOp33
 70
     1
102
RTVSPost2010Prop34
280
     0
102
RTVSPost2010PropOp34
 70
     1
102
RTVSPost2010Prop35
280
     0
102
RTVSPost2010PropOp35
 70
     1
102
RTVSPost2010Prop36
280
     0
102
RTVSPost2010PropOp36
 70
     1
102
RTVSPost2010Prop37
 90
       50
102
RTVSPost2010PropOp37
 70
     1
102
RTVSPost2010Prop38
140
0.0
102
RTVSPost2010PropOp38
 70
     1
102
RTVSPost2010Prop39
140
1.0
102
RTVSPost2010PropOp39
 70
     1
102
RTVSPost2010Prop40
 90
        0
102
RTVSPost2010PropOp40
 70
     1
102
RTVSPost2010Prop41ColorIndex
 90
       18
102
RTVSPost2010Prop41ColorRGB
 90
        0
102
RTVSPost2010PropOp41
 70
     1
102
RTVSPost2010Prop42
 90
       50
102
RTVSPost2010PropOp42
 70
     1
102
RTVSPost2010Prop43
 90
        3
102
RTVSPost2010PropOp43
 70
     1
102
RTVSPost2010Prop44ColorIndex
 90
        5
102
RTVSPost2010Prop44ColorRGB
 90
      255
102
RTVSPost2010PropOp44
 70
     1
102
RTVSPost2010Prop45
280
     0
102
RTVSPost2010PropOp45
 70
     1
102
RTVSPost2010Prop46
 90
       50
102
RTVSPost2010PropOp46
 70
     1
102
RTVSPost2010Prop47
 90
       50
102
RTVSPost2010PropOp47
 70
     1
102
RTVSPost2010Prop48
 90
       50
102
RTVSPost2010PropOp48
 70
     1
102
RTVSPost2010Prop49
280
     0
102
RTVSPost2010PropOp49
 70
     1
102
RTVSPost2010Prop50
 90
       50
102
RTVSPost2010PropOp50
 70
     1
102
RTVSPost2010Prop51ColorIndex
 90
      256
102
RTVSPost2010Prop51ColorRGB
 90
-16777216
102
RTVSPost2010PropOp51
 70
     0
102
RTVSPost2010Prop52
140
1.0
102
RTVSPost2010PropOp52
 70
     0
102
RTVSPost2010Prop53
 90
        2
102
RTVSPost2010PropOp53
 70
     1
102
RTVSPost2010Prop54
  1
strokes_ogs.tif
102
RTVSPost2010PropOp54
 70
     1
102
RTVSPost2010Prop55
280
     0
102
RTVSPost2010PropOp55
 70
     1
102
RTVSPost2010Prop56
140
1.0
102
RTVSPost2010PropOp56
 70
     1
102
RTVSPost2010Prop57
140
1.0
102
RTVSPost2010PropOp57
 70
     1
102
RTVSPropertyOp0
 70
     1
102
RTVSPropertyOp1
 70
     1
102
RTVSPropertyOp2
 70
     1
102
RTVSPropertyOp3
 70
     1
102
RTVSPropertyOp4
 70
     1
102
RTVSPropertyOp5
 70
     1
102
RTVSPropertyOp6
 70
     1
102
RTVSPropertyOp7
 70
     1
102
RTVSPropertyOp8
 70
     1
102
RTVSPropertyOp9
 70
     1
102
RTVSPropertyOp10
 70
     1
102
RTVSPropertyOp11
 70
     1
102
RTVSPropertyOp12
 70
     1
102
RTVSPropertyOp13
 70
     1
102
RTVSPropertyOp14
 70
     1
102
RTVSPropertyOp15
 70
     1
102
RTVSPropertyOp16
 70
     1
102
RTVSPropertyOp17
 70
     1
102
RTVSPropertyOp18
 70
     1
102
RTVSPropertyOp19
 70
     1
102
RTVSPropertyOp20
 70
     1
102
RTVSPropertyOp21
 70
     1
102
RTVSPropertyOp22
 70
     1
102
RTVSPropertyOp23
 70
     1
102
RTVSPropertyOp24
 70
     1
102
RTVSPropertyOp25
 70
     1
102
RTVSPropertyOp26
 70
     1
102
RTVSPropertyOp27
 70
     1
102
RTVSPropertyOp28
 70
     1
102
RTVSPropertyOp29
 70
     1
102
RTVSPropertyOp30
 70
     1
102
RTVSPropertyOp31
 70
     1
102
RTVSPropertyOp32
 70
     1
102
RTVSPropertyOp33
 70
     1
102
RTVSPropertyOp34
 70
     1
102
RTVSPropertyOp35
 70
     1
102
RTVSPropertyOp36
 70
     1
102
RTVSPropertyOp37
 70
     1
102
RTVSPropertyOp38
 70
     1
102
RTVSPropertyOp39
 70
     1
102
RTVSPropertyOp40
 70
     1
102
RTVSPropertyOp41
 70
     1
102
RTVSPropertyOp42
 70
     1
102
RTVSPropertyOp43
 70
     1
102
RTVSPropertyOp44
 70
     1
102
RTVSPropertyOp45
 70
     1
102
RTVSPropertyOp46
 70
     1
102
RTVSPropertyOp47
 70
     1
102
RTVSPropertyOp48
 70
     1
102
RTVSPropertyOp49
 70
     1
102
RTVSPropertyOp50
 70
     1
102
RTVSPropertyOp51
 70
     0
102
RTVSPropertyOp52
 70
     0
102
RTVSPropertyOp53
 70
     1
102
RTVSPropertyOp54
 70
     1
102
RTVSPropertyOp55
 70
     1
102
RTVSPropertyOp56
 70
     1
102
RTVSPropertyOp57
 70
     1
102
RTVSPropertyOp58
 70
     1
102
RTVSPropertyOp59
 70
     1
102
RTVSPropertyOp60
 70
     1
102
RTVSPropertyOp61
 70
     1
102
RTVSPropertyOp62
 70
     1
  0
XRECORD
  5
594
102
{ACAD_REACTORS
330
593
102
}
330
593
100
AcDbXrecord
280
     1
102
RTVSPost2010Prop28
280
     0
102
RTVSPost2010PropOp28
 70
     1
102
RTVSPost2010Prop29
280
     1
102
RTVSPost2010PropOp29
 70
     1
102
RTVSPost2010Prop30
280
     1
102
RTVSPost2010PropOp30
 70
     1
102
RTVSPost2010Prop31
280
     0
102
RTVSPost2010PropOp31
 70
     1
102
RTVSPost2010Prop32
280
     0
102
RTVSPost2010PropOp32
 70
     1
102
RTVSPost2010Prop33
280
     0
102
RTVSPost2010PropOp33
 70
     1
102
RTVSPost2010Prop34
280
     0
102
RTVSPost2010PropOp34
 70
     1
102
RTVSPost2010Prop35
280
     0
102
RTVSPost2010PropOp35
 70
     1
102
RTVSPost2010Prop36
280
     0
102
RTVSPost2010PropOp36
 70
     1
102
RTVSPost2010Prop37
 90
       50
102
RTVSPost2010PropOp37
 70
     1
102
RTVSPost2010Prop38
140
0.0
102
RTVSPost2010PropOp38
 70
     1
102
RTVSPost2010Prop39
140
1.0
102
RTVSPost2010PropOp39
 70
     1
102
RTVSPost2010Prop40
 90
        0
102
RTVSPost2010PropOp40
 70
     1
102
RTVSPost2010Prop41ColorIndex
 90
       18
102
RTVSPost2010Prop41ColorRGB
 90
        0
102
RTVSPost2010PropOp41
 70
     1
102
RTVSPost2010Prop42
 90
       50
102
RTVSPost2010PropOp42
 70
     1
102
RTVSPost2010Prop43
 90
        3
102
RTVSPost2010PropOp43
 70
     1
102
RTVSPost2010Prop44ColorIndex
 90
        5
102
RTVSPost2010Prop44ColorRGB
 90
      255
102
RTVSPost2010PropOp44
 70
     1
102
RTVSPost2010Prop45
280
     0
102
RTVSPost2010PropOp45
 70
     1
102
RTVSPost2010Prop46
 90
       50
102
RTVSPost2010PropOp46
 70
     1
102
RTVSPost2010Prop47
 90
       50
102
RTVSPost2010PropOp47
 70
     1
102
RTVSPost2010Prop48
 90
       50
102
RTVSPost2010PropOp48
 70
     1
102
RTVSPost2010Prop49
280
     0
102
RTVSPost2010PropOp49
 70
     1
102
RTVSPost2010Prop50
 90
       50
102
RTVSPost2010PropOp50
 70
     1
102
RTVSPost2010Prop51ColorIndex
 90
      256
102
RTVSPost2010Prop51ColorRGB
 90
-16777216
102
RTVSPost2010PropOp51
 70
     0
102
RTVSPost2010Prop52
140
1.0
102
RTVSPost2010PropOp52
 70
     0
102
RTVSPost2010Prop53
 90
        2
102
RTVSPost2010PropOp53
 70
     1
102
RTVSPost2010Prop54
  1
strokes_ogs.tif
102
RTVSPost2010PropOp54
 70
     1
102
RTVSPost2010Prop55
280
     0
102
RTVSPost2010PropOp55
 70
     1
102
RTVSPost2010Prop56
140
1.0
102
RTVSPost2010PropOp56
 70
     1
102
RTVSPost2010Prop57
140
1.0
102
RTVSPost2010PropOp57
 70
     1
102
RTVSPropertyOp0
 70
     1
102
RTVSPropertyOp1
 70
     1
102
RTVSPropertyOp2
 70
     1
102
RTVSPropertyOp3
 70
     1
102
RTVSPropertyOp4
 70
     1
102
RTVSPropertyOp5
 70
     1
102
RTVSPropertyOp6
 70
     1
102
RTVSPropertyOp7
 70
     1
102
RTVSPropertyOp8
 70
     1
102
RTVSPropertyOp9
 70
     1
102
RTVSPropertyOp10
 70
     1
102
RTVSPropertyOp11
 70
     1
102
RTVSPropertyOp12
 70
     1
102
RTVSPropertyOp13
 70
     1
102
RTVSPropertyOp14
 70
     1
102
RTVSPropertyOp15
 70
     1
102
RTVSPropertyOp16
 70
     1
102
RTVSPropertyOp17
 70
     1
102
RTVSPropertyOp18
 70
     1
102
RTVSPropertyOp19
 70
     1
102
RTVSPropertyOp20
 70
     1
102
RTVSPropertyOp21
 70
     1
102
RTVSPropertyOp22
 70
     1
102
RTVSPropertyOp23
 70
     1
102
RTVSPropertyOp24
 70
     1
102
RTVSPropertyOp25
 70
     1
102
RTVSPropertyOp26
 70
     1
102
RTVSPropertyOp27
 70
     1
102
RTVSPropertyOp28
 70
     1
102
RTVSPropertyOp29
 70
     1
102
RTVSPropertyOp30
 70
     1
102
RTVSPropertyOp31
 70
     1
102
RTVSPropertyOp32
 70
     1
102
RTVSPropertyOp33
 70
     1
102
RTVSPropertyOp34
 70
     1
102
RTVSPropertyOp35
 70
     1
102
RTVSPropertyOp36
 70
     1
102
RTVSPropertyOp37
 70
     1
102
RTVSPropertyOp38
 70
     1
102
RTVSPropertyOp39
 70
     1
102
RTVSPropertyOp40
 70
     1
102
RTVSPropertyOp41
 70
     1
102
RTVSPropertyOp42
 70
     1
102
RTVSPropertyOp43
 70
     1
102
RTVSPropertyOp44
 70
     1
102
RTVSPropertyOp45
 70
     1
102
RTVSPropertyOp46
 70
     1
102
RTVSPropertyOp47
 70
     1
102
RTVSPropertyOp48
 70
     1
102
RTVSPropertyOp49
 70
     1
102
RTVSPropertyOp50
 70
     1
102
RTVSPropertyOp51
 70
     0
102
RTVSPropertyOp52
 70
     0
102
RTVSPropertyOp53
 70
     1
102
RTVSPropertyOp54
 70
     1
102
RTVSPropertyOp55
 70
     1
102
RTVSPropertyOp56
 70
     1
102
RTVSPropertyOp57
 70
     1
102
RTVSPropertyOp58
 70
     1
102
RTVSPropertyOp59
 70
     1
102
RTVSPropertyOp60
 70
     1
102
RTVSPropertyOp61
 70
     1
102
RTVSPropertyOp62
 70
     1
  0
XRECORD
  5
5AE
102
{ACAD_REACTORS
330
5AD
102
}
330
5AD
100
AcDbXrecord
280
     1
102
RTVSPost2010Prop28
280
     0
102
RTVSPost2010PropOp28
 70
     1
102
RTVSPost2010Prop29
280
     1
102
RTVSPost2010PropOp29
 70
     1
102
RTVSPost2010Prop30
280
     1
102
RTVSPost2010PropOp30
 70
     1
102
RTVSPost2010Prop31
280
     0
102
RTVSPost2010PropOp31
 70
     1
102
RTVSPost2010Prop32
280
     0
102
RTVSPost2010PropOp32
 70
     1
102
RTVSPost2010Prop33
280
     0
102
RTVSPost2010PropOp33
 70
     1
102
RTVSPost2010Prop34
280
     0
102
RTVSPost2010PropOp34
 70
     1
102
RTVSPost2010Prop35
280
     0
102
RTVSPost2010PropOp35
 70
     1
102
RTVSPost2010Prop36
280
     0
102
RTVSPost2010PropOp36
 70
     1
102
RTVSPost2010Prop37
 90
       50
102
RTVSPost2010PropOp37
 70
     0
102
RTVSPost2010Prop38
140
0.0
102
RTVSPost2010PropOp38
 70
     0
102
RTVSPost2010Prop39
140
1.0
102
RTVSPost2010PropOp39
 70
     0
102
RTVSPost2010Prop40
 90
        0
102
RTVSPost2010PropOp40
 70
     0
102
RTVSPost2010Prop41ColorIndex
 90
       18
102
RTVSPost2010Prop41ColorRGB
 90
        0
102
RTVSPost2010PropOp41
 70
     0
102
RTVSPost2010Prop42
 90
       50
102
RTVSPost2010PropOp42
 70
     0
102
RTVSPost2010Prop43
 90
        3
102
RTVSPost2010PropOp43
 70
     0
102
RTVSPost2010Prop44ColorIndex
 90
        5
102
RTVSPost2010Prop44ColorRGB
 90
      255
102
RTVSPost2010PropOp44
 70
     0
102
RTVSPost2010Prop45
280
     0
102
RTVSPost2010PropOp45
 70
     1
102
RTVSPost2010Prop46
 90
       50
102
RTVSPost2010PropOp46
 70
     0
102
RTVSPost2010Prop47
 90
       50
102
RTVSPost2010PropOp47
 70
     0
102
RTVSPost2010Prop48
 90
       50
102
RTVSPost2010PropOp48
 70
     0
102
RTVSPost2010Prop49
280
     0
102
RTVSPost2010PropOp49
 70
     1
102
RTVSPost2010Prop50
 90
       50
102
RTVSPost2010PropOp50
 70
     0
102
RTVSPost2010Prop51ColorIndex
 90
      256
102
RTVSPost2010Prop51ColorRGB
 90
-16777216
102
RTVSPost2010PropOp51
 70
     0
102
RTVSPost2010Prop52
140
1.0
102
RTVSPost2010PropOp52
 70
     0
102
RTVSPost2010Prop53
 90
        2
102
RTVSPost2010PropOp53
 70
     0
102
RTVSPost2010Prop54
  1
strokes_ogs.tif
102
RTVSPost2010PropOp54
 70
     0
102
RTVSPost2010Prop55
280
     0
102
RTVSPost2010PropOp55
 70
     1
102
RTVSPost2010Prop56
140
1.0
102
RTVSPost2010PropOp56
 70
     0
102
RTVSPost2010Prop57
140
1.0
102
RTVSPost2010PropOp57
 70
     0
102
RTVSPropertyOp0
 70
     0
102
RTVSPropertyOp1
 70
     0
102
RTVSPropertyOp2
 70
     0
102
RTVSPropertyOp3
 70
     0
102
RTVSPropertyOp4
 70
     0
102
RTVSPropertyOp5
 70
     0
102
RTVSPropertyOp6
 70
     0
102
RTVSPropertyOp7
 70
     0
102
RTVSPropertyOp8
 70
     0
102
RTVSPropertyOp9
 70
     0
102
RTVSPropertyOp10
 70
     0
102
RTVSPropertyOp11
 70
     0
102
RTVSPropertyOp12
 70
     0
102
RTVSPropertyOp13
 70
     0
102
RTVSPropertyOp14
 70
     2
102
RTVSPropertyOp15
 70
     0
102
RTVSPropertyOp16
 70
     0
102
RTVSPropertyOp17
 70
     0
102
RTVSPropertyOp18
 70
     0
102
RTVSPropertyOp19
 70
     0
102
RTVSPropertyOp20
 70
     0
102
RTVSPropertyOp21
 70
     0
102
RTVSPropertyOp22
 70
     0
102
RTVSPropertyOp23
 70
     0
102
RTVSPropertyOp24
 70
     0
102
RTVSPropertyOp25
 70
     0
102
RTVSPropertyOp26
 70
     0
102
RTVSPropertyOp27
 70
     0
102
RTVSPropertyOp28
 70
     1
102
RTVSPropertyOp29
 70
     1
102
RTVSPropertyOp30
 70
     1
102
RTVSPropertyOp31
 70
     1
102
RTVSPropertyOp32
 70
     1
102
RTVSPropertyOp33
 70
     1
102
RTVSPropertyOp34
 70
     1
102
RTVSPropertyOp35
 70
     1
102
RTVSPropertyOp36
 70
     1
102
RTVSPropertyOp37
 70
     0
102
RTVSPropertyOp38
 70
     0
102
RTVSPropertyOp39
 70
     0
102
RTVSPropertyOp40
 70
     0
102
RTVSPropertyOp41
 70
     0
102
RTVSPropertyOp42
 70
     0
102
RTVSPropertyOp43
 70
     0
102
RTVSPropertyOp44
 70
     0
102
RTVSPropertyOp45
 70
     1
102
RTVSPropertyOp46
 70
     0
102
RTVSPropertyOp47
 70
     0
102
RTVSPropertyOp48
 70
     0
102
RTVSPropertyOp49
 70
     1
102
RTVSPropertyOp50
 70
     0
102
RTVSPropertyOp51
 70
     0
102
RTVSPropertyOp52
 70
     0
102
RTVSPropertyOp53
 70
     0
102
RTVSPropertyOp54
 70
     0
102
RTVSPropertyOp55
 70
     1
102
RTVSPropertyOp56
 70
     0
102
RTVSPropertyOp57
 70
     0
102
RTVSPropertyOp58
 70
     0
102
RTVSPropertyOp59
 70
     0
102
RTVSPropertyOp60
 70
     0
102
RTVSPropertyOp61
 70
     0
102
RTVSPropertyOp62
 70
     0
  0
XRECORD
  5
59C
102
{ACAD_REACTORS
330
59B
102
}
330
59B
100
AcDbXrecord
280
     1
102
RTVSPost2010Prop28
280
     0
102
RTVSPost2010PropOp28
 70
     1
102
RTVSPost2010Prop29
280
     1
102
RTVSPost2010PropOp29
 70
     1
102
RTVSPost2010Prop30
280
     1
102
RTVSPost2010PropOp30
 70
     1
102
RTVSPost2010Prop31
280
     0
102
RTVSPost2010PropOp31
 70
     1
102
RTVSPost2010Prop32
280
     0
102
RTVSPost2010PropOp32
 70
     1
102
RTVSPost2010Prop33
280
     0
102
RTVSPost2010PropOp33
 70
     1
102
RTVSPost2010Prop34
280
     0
102
RTVSPost2010PropOp34
 70
     1
102
RTVSPost2010Prop35
280
     0
102
RTVSPost2010PropOp35
 70
     1
102
RTVSPost2010Prop36
280
     0
102
RTVSPost2010PropOp36
 70
     1
102
RTVSPost2010Prop37
 90
       50
102
RTVSPost2010PropOp37
 70
     1
102
RTVSPost2010Prop38
140
0.0
102
RTVSPost2010PropOp38
 70
     1
102
RTVSPost2010Prop39
140
1.0
102
RTVSPost2010PropOp39
 70
     1
102
RTVSPost2010Prop40
 90
        0
102
RTVSPost2010PropOp40
 70
     1
102
RTVSPost2010Prop41ColorIndex
 90
       18
102
RTVSPost2010Prop41ColorRGB
 90
        0
102
RTVSPost2010PropOp41
 70
     1
102
RTVSPost2010Prop42
 90
       50
102
RTVSPost2010PropOp42
 70
     1
102
RTVSPost2010Prop43
 90
        3
102
RTVSPost2010PropOp43
 70
     1
102
RTVSPost2010Prop44ColorIndex
 90
        5
102
RTVSPost2010Prop44ColorRGB
 90
      255
102
RTVSPost2010PropOp44
 70
     1
102
RTVSPost2010Prop45
280
     0
102
RTVSPost2010PropOp45
 70
     1
102
RTVSPost2010Prop46
 90
       50
102
RTVSPost2010PropOp46
 70
     1
102
RTVSPost2010Prop47
 90
       50
102
RTVSPost2010PropOp47
 70
     1
102
RTVSPost2010Prop48
 90
       50
102
RTVSPost2010PropOp48
 70
     1
102
RTVSPost2010Prop49
280
     0
102
RTVSPost2010PropOp49
 70
     1
102
RTVSPost2010Prop50
 90
       50
102
RTVSPost2010PropOp50
 70
     1
102
RTVSPost2010Prop51ColorIndex
 90
      256
102
RTVSPost2010Prop51ColorRGB
 90
-16777216
102
RTVSPost2010PropOp51
 70
     0
102
RTVSPost2010Prop52
140
1.0
102
RTVSPost2010PropOp52
 70
     0
102
RTVSPost2010Prop53
 90
        2
102
RTVSPost2010PropOp53
 70
     1
102
RTVSPost2010Prop54
  1
strokes_ogs.tif
102
RTVSPost2010PropOp54
 70
     1
102
RTVSPost2010Prop55
280
     0
102
RTVSPost2010PropOp55
 70
     1
102
RTVSPost2010Prop56
140
1.0
102
RTVSPost2010PropOp56
 70
     1
102
RTVSPost2010Prop57
140
1.0
102
RTVSPost2010PropOp57
 70
     1
102
RTVSPropertyOp0
 70
     1
102
RTVSPropertyOp1
 70
     1
102
RTVSPropertyOp2
 70
     1
102
RTVSPropertyOp3
 70
     1
102
RTVSPropertyOp4
 70
     1
102
RTVSPropertyOp5
 70
     1
102
RTVSPropertyOp6
 70
     1
102
RTVSPropertyOp7
 70
     1
102
RTVSPropertyOp8
 70
     1
102
RTVSPropertyOp9
 70
     1
102
RTVSPropertyOp10
 70
     1
102
RTVSPropertyOp11
 70
     1
102
RTVSPropertyOp12
 70
     1
102
RTVSPropertyOp13
 70
     1
102
RTVSPropertyOp14
 70
     1
102
RTVSPropertyOp15
 70
     1
102
RTVSPropertyOp16
 70
     1
102
RTVSPropertyOp17
 70
     1
102
RTVSPropertyOp18
 70
     1
102
RTVSPropertyOp19
 70
     1
102
RTVSPropertyOp20
 70
     1
102
RTVSPropertyOp21
 70
     1
102
RTVSPropertyOp22
 70
     1
102
RTVSPropertyOp23
 70
     1
102
RTVSPropertyOp24
 70
     1
102
RTVSPropertyOp25
 70
     1
102
RTVSPropertyOp26
 70
     1
102
RTVSPropertyOp27
 70
     1
102
RTVSPropertyOp28
 70
     1
102
RTVSPropertyOp29
 70
     1
102
RTVSPropertyOp30
 70
     1
102
RTVSPropertyOp31
 70
     1
102
RTVSPropertyOp32
 70
     1
102
RTVSPropertyOp33
 70
     1
102
RTVSPropertyOp34
 70
     1
102
RTVSPropertyOp35
 70
     1
102
RTVSPropertyOp36
 70
     1
102
RTVSPropertyOp37
 70
     1
102
RTVSPropertyOp38
 70
     1
102
RTVSPropertyOp39
 70
     1
102
RTVSPropertyOp40
 70
     1
102
RTVSPropertyOp41
 70
     1
102
RTVSPropertyOp42
 70
     1
102
RTVSPropertyOp43
 70
     1
102
RTVSPropertyOp44
 70
     1
102
RTVSPropertyOp45
 70
     1
102
RTVSPropertyOp46
 70
     1
102
RTVSPropertyOp47
 70
     1
102
RTVSPropertyOp48
 70
     1
102
RTVSPropertyOp49
 70
     1
102
RTVSPropertyOp50
 70
     1
102
RTVSPropertyOp51
 70
     0
102
RTVSPropertyOp52
 70
     0
102
RTVSPropertyOp53
 70
     1
102
RTVSPropertyOp54
 70
     1
102
RTVSPropertyOp55
 70
     1
102
RTVSPropertyOp56
 70
     1
102
RTVSPropertyOp57
 70
     1
102
RTVSPropertyOp58
 70
     1
102
RTVSPropertyOp59
 70
     1
102
RTVSPropertyOp60
 70
     1
102
RTVSPropertyOp61
 70
     1
102
RTVSPropertyOp62
 70
     1
  0
XRECORD
  5
580
102
{ACAD_REACTORS
330
57F
102
}
330
57F
100
AcDbXrecord
280
     1
102
RTVSPost2010Prop28
280
     0
102
RTVSPost2010PropOp28
 70
     1
102
RTVSPost2010Prop29
280
     1
102
RTVSPost2010PropOp29
 70
     1
102
RTVSPost2010Prop30
280
     1
102
RTVSPost2010PropOp30
 70
     1
102
RTVSPost2010Prop31
280
     0
102
RTVSPost2010PropOp31
 70
     1
102
RTVSPost2010Prop32
280
     0
102
RTVSPost2010PropOp32
 70
     1
102
RTVSPost2010Prop33
280
     0
102
RTVSPost2010PropOp33
 70
     1
102
RTVSPost2010Prop34
280
     0
102
RTVSPost2010PropOp34
 70
     1
102
RTVSPost2010Prop35
280
     0
102
RTVSPost2010PropOp35
 70
     1
102
RTVSPost2010Prop36
280
     0
102
RTVSPost2010PropOp36
 70
     1
102
RTVSPost2010Prop37
 90
       50
102
RTVSPost2010PropOp37
 70
     1
102
RTVSPost2010Prop38
140
0.0
102
RTVSPost2010PropOp38
 70
     1
102
RTVSPost2010Prop39
140
1.0
102
RTVSPost2010PropOp39
 70
     1
102
RTVSPost2010Prop40
 90
        0
102
RTVSPost2010PropOp40
 70
     1
102
RTVSPost2010Prop41ColorIndex
 90
       18
102
RTVSPost2010Prop41ColorRGB
 90
        0
102
RTVSPost2010PropOp41
 70
     1
102
RTVSPost2010Prop42
 90
       50
102
RTVSPost2010PropOp42
 70
     1
102
RTVSPost2010Prop43
 90
        3
102
RTVSPost2010PropOp43
 70
     1
102
RTVSPost2010Prop44ColorIndex
 90
        5
102
RTVSPost2010Prop44ColorRGB
 90
      255
102
RTVSPost2010PropOp44
 70
     1
102
RTVSPost2010Prop45
280
     0
102
RTVSPost2010PropOp45
 70
     1
102
RTVSPost2010Prop46
 90
       50
102
RTVSPost2010PropOp46
 70
     1
102
RTVSPost2010Prop47
 90
       50
102
RTVSPost2010PropOp47
 70
     1
102
RTVSPost2010Prop48
 90
       50
102
RTVSPost2010PropOp48
 70
     1
102
RTVSPost2010Prop49
280
     0
102
RTVSPost2010PropOp49
 70
     1
102
RTVSPost2010Prop50
 90
       50
102
RTVSPost2010PropOp50
 70
     1
102
RTVSPost2010Prop51ColorIndex
 90
      256
102
RTVSPost2010Prop51ColorRGB
 90
-16777216
102
RTVSPost2010PropOp51
 70
     0
102
RTVSPost2010Prop52
140
1.0
102
RTVSPost2010PropOp52
 70
     0
102
RTVSPost2010Prop53
 90
        2
102
RTVSPost2010PropOp53
 70
     1
102
RTVSPost2010Prop54
  1
strokes_ogs.tif
102
RTVSPost2010PropOp54
 70
     1
102
RTVSPost2010Prop55
280
     0
102
RTVSPost2010PropOp55
 70
     1
102
RTVSPost2010Prop56
140
1.0
102
RTVSPost2010PropOp56
 70
     1
102
RTVSPost2010Prop57
140
1.0
102
RTVSPost2010PropOp57
 70
     1
102
RTVSPropertyOp0
 70
     1
102
RTVSPropertyOp1
 70
     1
102
RTVSPropertyOp2
 70
     1
102
RTVSPropertyOp3
 70
     1
102
RTVSPropertyOp4
 70
     1
102
RTVSPropertyOp5
 70
     1
102
RTVSPropertyOp6
 70
     1
102
RTVSPropertyOp7
 70
     1
102
RTVSPropertyOp8
 70
     1
102
RTVSPropertyOp9
 70
     1
102
RTVSPropertyOp10
 70
     1
102
RTVSPropertyOp11
 70
     1
102
RTVSPropertyOp12
 70
     1
102
RTVSPropertyOp13
 70
     1
102
RTVSPropertyOp14
 70
     1
102
RTVSPropertyOp15
 70
     1
102
RTVSPropertyOp16
 70
     1
102
RTVSPropertyOp17
 70
     1
102
RTVSPropertyOp18
 70
     1
102
RTVSPropertyOp19
 70
     1
102
RTVSPropertyOp20
 70
     1
102
RTVSPropertyOp21
 70
     1
102
RTVSPropertyOp22
 70
     1
102
RTVSPropertyOp23
 70
     1
102
RTVSPropertyOp24
 70
     1
102
RTVSPropertyOp25
 70
     1
102
RTVSPropertyOp26
 70
     1
102
RTVSPropertyOp27
 70
     1
102
RTVSPropertyOp28
 70
     1
102
RTVSPropertyOp29
 70
     1
102
RTVSPropertyOp30
 70
     1
102
RTVSPropertyOp31
 70
     1
102
RTVSPropertyOp32
 70
     1
102
RTVSPropertyOp33
 70
     1
102
RTVSPropertyOp34
 70
     1
102
RTVSPropertyOp35
 70
     1
102
RTVSPropertyOp36
 70
     1
102
RTVSPropertyOp37
 70
     1
102
RTVSPropertyOp38
 70
     1
102
RTVSPropertyOp39
 70
     1
102
RTVSPropertyOp40
 70
     1
102
RTVSPropertyOp41
 70
     1
102
RTVSPropertyOp42
 70
     1
102
RTVSPropertyOp43
 70
     1
102
RTVSPropertyOp44
 70
     1
102
RTVSPropertyOp45
 70
     1
102
RTVSPropertyOp46
 70
     1
102
RTVSPropertyOp47
 70
     1
102
RTVSPropertyOp48
 70
     1
102
RTVSPropertyOp49
 70
     1
102
RTVSPropertyOp50
 70
     1
102
RTVSPropertyOp51
 70
     0
102
RTVSPropertyOp52
 70
     0
102
RTVSPropertyOp53
 70
     1
102
RTVSPropertyOp54
 70
     1
102
RTVSPropertyOp55
 70
     1
102
RTVSPropertyOp56
 70
     1
102
RTVSPropertyOp57
 70
     1
102
RTVSPropertyOp58
 70
     1
102
RTVSPropertyOp59
 70
     1
102
RTVSPropertyOp60
 70
     1
102
RTVSPropertyOp61
 70
     1
102
RTVSPropertyOp62
 70
     1
  0
XRECORD
  5
582
102
{ACAD_REACTORS
330
581
102
}
330
581
100
AcDbXrecord
280
     1
102
RTVSPost2010Prop28
280
     0
102
RTVSPost2010PropOp28
 70
     1
102
RTVSPost2010Prop29
280
     1
102
RTVSPost2010PropOp29
 70
     1
102
RTVSPost2010Prop30
280
     1
102
RTVSPost2010PropOp30
 70
     1
102
RTVSPost2010Prop31
280
     0
102
RTVSPost2010PropOp31
 70
     1
102
RTVSPost2010Prop32
280
     0
102
RTVSPost2010PropOp32
 70
     1
102
RTVSPost2010Prop33
280
     0
102
RTVSPost2010PropOp33
 70
     1
102
RTVSPost2010Prop34
280
     0
102
RTVSPost2010PropOp34
 70
     1
102
RTVSPost2010Prop35
280
     0
102
RTVSPost2010PropOp35
 70
     1
102
RTVSPost2010Prop36
280
     0
102
RTVSPost2010PropOp36
 70
     1
102
RTVSPost2010Prop37
 90
       50
102
RTVSPost2010PropOp37
 70
     1
102
RTVSPost2010Prop38
140
0.0
102
RTVSPost2010PropOp38
 70
     1
102
RTVSPost2010Prop39
140
1.0
102
RTVSPost2010PropOp39
 70
     1
102
RTVSPost2010Prop40
 90
        0
102
RTVSPost2010PropOp40
 70
     1
102
RTVSPost2010Prop41ColorIndex
 90
       18
102
RTVSPost2010Prop41ColorRGB
 90
        0
102
RTVSPost2010PropOp41
 70
     1
102
RTVSPost2010Prop42
 90
       50
102
RTVSPost2010PropOp42
 70
     1
102
RTVSPost2010Prop43
 90
        3
102
RTVSPost2010PropOp43
 70
     1
102
RTVSPost2010Prop44ColorIndex
 90
        5
102
RTVSPost2010Prop44ColorRGB
 90
      255
102
RTVSPost2010PropOp44
 70
     1
102
RTVSPost2010Prop45
280
     0
102
RTVSPost2010PropOp45
 70
     1
102
RTVSPost2010Prop46
 90
       50
102
RTVSPost2010PropOp46
 70
     1
102
RTVSPost2010Prop47
 90
       50
102
RTVSPost2010PropOp47
 70
     1
102
RTVSPost2010Prop48
 90
       50
102
RTVSPost2010PropOp48
 70
     1
102
RTVSPost2010Prop49
280
     0
102
RTVSPost2010PropOp49
 70
     1
102
RTVSPost2010Prop50
 90
       50
102
RTVSPost2010PropOp50
 70
     1
102
RTVSPost2010Prop51ColorIndex
 90
      256
102
RTVSPost2010Prop51ColorRGB
 90
-16777216
102
RTVSPost2010PropOp51
 70
     0
102
RTVSPost2010Prop52
140
1.0
102
RTVSPost2010PropOp52
 70
     0
102
RTVSPost2010Prop53
 90
        2
102
RTVSPost2010PropOp53
 70
     1
102
RTVSPost2010Prop54
  1
strokes_ogs.tif
102
RTVSPost2010PropOp54
 70
     1
102
RTVSPost2010Prop55
280
     0
102
RTVSPost2010PropOp55
 70
     1
102
RTVSPost2010Prop56
140
1.0
102
RTVSPost2010PropOp56
 70
     1
102
RTVSPost2010Prop57
140
1.0
102
RTVSPost2010PropOp57
 70
     1
102
RTVSPropertyOp0
 70
     1
102
RTVSPropertyOp1
 70
     1
102
RTVSPropertyOp2
 70
     1
102
RTVSPropertyOp3
 70
     1
102
RTVSPropertyOp4
 70
     1
102
RTVSPropertyOp5
 70
     1
102
RTVSPropertyOp6
 70
     1
102
RTVSPropertyOp7
 70
     1
102
RTVSPropertyOp8
 70
     1
102
RTVSPropertyOp9
 70
     1
102
RTVSPropertyOp10
 70
     1
102
RTVSPropertyOp11
 70
     1
102
RTVSPropertyOp12
 70
     1
102
RTVSPropertyOp13
 70
     1
102
RTVSPropertyOp14
 70
     1
102
RTVSPropertyOp15
 70
     1
102
RTVSPropertyOp16
 70
     1
102
RTVSPropertyOp17
 70
     1
102
RTVSPropertyOp18
 70
     1
102
RTVSPropertyOp19
 70
     1
102
RTVSPropertyOp20
 70
     1
102
RTVSPropertyOp21
 70
     1
102
RTVSPropertyOp22
 70
     1
102
RTVSPropertyOp23
 70
     1
102
RTVSPropertyOp24
 70
     1
102
RTVSPropertyOp25
 70
     1
102
RTVSPropertyOp26
 70
     1
102
RTVSPropertyOp27
 70
     1
102
RTVSPropertyOp28
 70
     1
102
RTVSPropertyOp29
 70
     1
102
RTVSPropertyOp30
 70
     1
102
RTVSPropertyOp31
 70
     1
102
RTVSPropertyOp32
 70
     1
102
RTVSPropertyOp33
 70
     1
102
RTVSPropertyOp34
 70
     1
102
RTVSPropertyOp35
 70
     1
102
RTVSPropertyOp36
 70
     1
102
RTVSPropertyOp37
 70
     1
102
RTVSPropertyOp38
 70
     1
102
RTVSPropertyOp39
 70
     1
102
RTVSPropertyOp40
 70
     1
102
RTVSPropertyOp41
 70
     1
102
RTVSPropertyOp42
 70
     1
102
RTVSPropertyOp43
 70
     1
102
RTVSPropertyOp44
 70
     1
102
RTVSPropertyOp45
 70
     1
102
RTVSPropertyOp46
 70
     1
102
RTVSPropertyOp47
 70
     1
102
RTVSPropertyOp48
 70
     1
102
RTVSPropertyOp49
 70
     1
102
RTVSPropertyOp50
 70
     1
102
RTVSPropertyOp51
 70
     0
102
RTVSPropertyOp52
 70
     0
102
RTVSPropertyOp53
 70
     1
102
RTVSPropertyOp54
 70
     1
102
RTVSPropertyOp55
 70
     1
102
RTVSPropertyOp56
 70
     1
102
RTVSPropertyOp57
 70
     1
102
RTVSPropertyOp58
 70
     1
102
RTVSPropertyOp59
 70
     1
102
RTVSPropertyOp60
 70
     1
102
RTVSPropertyOp61
 70
     1
102
RTVSPropertyOp62
 70
     1
  0
XRECORD
  5
584
102
{ACAD_REACTORS
330
583
102
}
330
583
100
AcDbXrecord
280
     1
102
RTVSPost2010Prop28
280
     0
102
RTVSPost2010PropOp28
 70
     1
102
RTVSPost2010Prop29
280
     1
102
RTVSPost2010PropOp29
 70
     1
102
RTVSPost2010Prop30
280
     1
102
RTVSPost2010PropOp30
 70
     1
102
RTVSPost2010Prop31
280
     0
102
RTVSPost2010PropOp31
 70
     1
102
RTVSPost2010Prop32
280
     0
102
RTVSPost2010PropOp32
 70
     1
102
RTVSPost2010Prop33
280
     0
102
RTVSPost2010PropOp33
 70
     1
102
RTVSPost2010Prop34
280
     0
102
RTVSPost2010PropOp34
 70
     1
102
RTVSPost2010Prop35
280
     0
102
RTVSPost2010PropOp35
 70
     1
102
RTVSPost2010Prop36
280
     0
102
RTVSPost2010PropOp36
 70
     1
102
RTVSPost2010Prop37
 90
       50
102
RTVSPost2010PropOp37
 70
     1
102
RTVSPost2010Prop38
140
0.0
102
RTVSPost2010PropOp38
 70
     1
102
RTVSPost2010Prop39
140
1.0
102
RTVSPost2010PropOp39
 70
     1
102
RTVSPost2010Prop40
 90
        0
102
RTVSPost2010PropOp40
 70
     1
102
RTVSPost2010Prop41ColorIndex
 90
       18
102
RTVSPost2010Prop41ColorRGB
 90
        0
102
RTVSPost2010PropOp41
 70
     1
102
RTVSPost2010Prop42
 90
       50
102
RTVSPost2010PropOp42
 70
     1
102
RTVSPost2010Prop43
 90
        3
102
RTVSPost2010PropOp43
 70
     1
102
RTVSPost2010Prop44ColorIndex
 90
        5
102
RTVSPost2010Prop44ColorRGB
 90
      255
102
RTVSPost2010PropOp44
 70
     1
102
RTVSPost2010Prop45
280
     0
102
RTVSPost2010PropOp45
 70
     1
102
RTVSPost2010Prop46
 90
       50
102
RTVSPost2010PropOp46
 70
     1
102
RTVSPost2010Prop47
 90
       50
102
RTVSPost2010PropOp47
 70
     1
102
RTVSPost2010Prop48
 90
       50
102
RTVSPost2010PropOp48
 70
     1
102
RTVSPost2010Prop49
280
     0
102
RTVSPost2010PropOp49
 70
     1
102
RTVSPost2010Prop50
 90
       50
102
RTVSPost2010PropOp50
 70
     1
102
RTVSPost2010Prop51ColorIndex
 90
      256
102
RTVSPost2010Prop51ColorRGB
 90
-16777216
102
RTVSPost2010PropOp51
 70
     0
102
RTVSPost2010Prop52
140
1.0
102
RTVSPost2010PropOp52
 70
     0
102
RTVSPost2010Prop53
 90
        2
102
RTVSPost2010PropOp53
 70
     1
102
RTVSPost2010Prop54
  1
strokes_ogs.tif
102
RTVSPost2010PropOp54
 70
     1
102
RTVSPost2010Prop55
280
     0
102
RTVSPost2010PropOp55
 70
     1
102
RTVSPost2010Prop56
140
1.0
102
RTVSPost2010PropOp56
 70
     1
102
RTVSPost2010Prop57
140
1.0
102
RTVSPost2010PropOp57
 70
     1
102
RTVSPropertyOp0
 70
     1
102
RTVSPropertyOp1
 70
     1
102
RTVSPropertyOp2
 70
     1
102
RTVSPropertyOp3
 70
     1
102
RTVSPropertyOp4
 70
     1
102
RTVSPropertyOp5
 70
     1
102
RTVSPropertyOp6
 70
     1
102
RTVSPropertyOp7
 70
     1
102
RTVSPropertyOp8
 70
     1
102
RTVSPropertyOp9
 70
     1
102
RTVSPropertyOp10
 70
     1
102
RTVSPropertyOp11
 70
     1
102
RTVSPropertyOp12
 70
     1
102
RTVSPropertyOp13
 70
     1
102
RTVSPropertyOp14
 70
     1
102
RTVSPropertyOp15
 70
     1
102
RTVSPropertyOp16
 70
     1
102
RTVSPropertyOp17
 70
     1
102
RTVSPropertyOp18
 70
     1
102
RTVSPropertyOp19
 70
     1
102
RTVSPropertyOp20
 70
     1
102
RTVSPropertyOp21
 70
     1
102
RTVSPropertyOp22
 70
     1
102
RTVSPropertyOp23
 70
     1
102
RTVSPropertyOp24
 70
     1
102
RTVSPropertyOp25
 70
     1
102
RTVSPropertyOp26
 70
     1
102
RTVSPropertyOp27
 70
     1
102
RTVSPropertyOp28
 70
     1
102
RTVSPropertyOp29
 70
     1
102
RTVSPropertyOp30
 70
     1
102
RTVSPropertyOp31
 70
     1
102
RTVSPropertyOp32
 70
     1
102
RTVSPropertyOp33
 70
     1
102
RTVSPropertyOp34
 70
     1
102
RTVSPropertyOp35
 70
     1
102
RTVSPropertyOp36
 70
     1
102
RTVSPropertyOp37
 70
     1
102
RTVSPropertyOp38
 70
     1
102
RTVSPropertyOp39
 70
     1
102
RTVSPropertyOp40
 70
     1
102
RTVSPropertyOp41
 70
     1
102
RTVSPropertyOp42
 70
     1
102
RTVSPropertyOp43
 70
     1
102
RTVSPropertyOp44
 70
     1
102
RTVSPropertyOp45
 70
     1
102
RTVSPropertyOp46
 70
     1
102
RTVSPropertyOp47
 70
     1
102
RTVSPropertyOp48
 70
     1
102
RTVSPropertyOp49
 70
     1
102
RTVSPropertyOp50
 70
     1
102
RTVSPropertyOp51
 70
     0
102
RTVSPropertyOp52
 70
     0
102
RTVSPropertyOp53
 70
     1
102
RTVSPropertyOp54
 70
     1
102
RTVSPropertyOp55
 70
     1
102
RTVSPropertyOp56
 70
     1
102
RTVSPropertyOp57
 70
     1
102
RTVSPropertyOp58
 70
     1
102
RTVSPropertyOp59
 70
     1
102
RTVSPropertyOp60
 70
     1
102
RTVSPropertyOp61
 70
     1
102
RTVSPropertyOp62
 70
     1
  0
XRECORD
  5
586
102
{ACAD_REACTORS
330
585
102
}
330
585
100
AcDbXrecord
280
     1
102
RTVSPost2010Prop28
280
     0
102
RTVSPost2010PropOp28
 70
     1
102
RTVSPost2010Prop29
280
     1
102
RTVSPost2010PropOp29
 70
     1
102
RTVSPost2010Prop30
280
     1
102
RTVSPost2010PropOp30
 70
     1
102
RTVSPost2010Prop31
280
     0
102
RTVSPost2010PropOp31
 70
     1
102
RTVSPost2010Prop32
280
     0
102
RTVSPost2010PropOp32
 70
     1
102
RTVSPost2010Prop33
280
     0
102
RTVSPost2010PropOp33
 70
     1
102
RTVSPost2010Prop34
280
     0
102
RTVSPost2010PropOp34
 70
     1
102
RTVSPost2010Prop35
280
     0
102
RTVSPost2010PropOp35
 70
     1
102
RTVSPost2010Prop36
280
     0
102
RTVSPost2010PropOp36
 70
     1
102
RTVSPost2010Prop37
 90
       50
102
RTVSPost2010PropOp37
 70
     1
102
RTVSPost2010Prop38
140
0.0
102
RTVSPost2010PropOp38
 70
     1
102
RTVSPost2010Prop39
140
1.0
102
RTVSPost2010PropOp39
 70
     1
102
RTVSPost2010Prop40
 90
        0
102
RTVSPost2010PropOp40
 70
     1
102
RTVSPost2010Prop41ColorIndex
 90
       18
102
RTVSPost2010Prop41ColorRGB
 90
        0
102
RTVSPost2010PropOp41
 70
     1
102
RTVSPost2010Prop42
 90
       50
102
RTVSPost2010PropOp42
 70
     1
102
RTVSPost2010Prop43
 90
        3
102
RTVSPost2010PropOp43
 70
     1
102
RTVSPost2010Prop44ColorIndex
 90
        5
102
RTVSPost2010Prop44ColorRGB
 90
      255
102
RTVSPost2010PropOp44
 70
     1
102
RTVSPost2010Prop45
280
     0
102
RTVSPost2010PropOp45
 70
     1
102
RTVSPost2010Prop46
 90
       50
102
RTVSPost2010PropOp46
 70
     1
102
RTVSPost2010Prop47
 90
       50
102
RTVSPost2010PropOp47
 70
     1
102
RTVSPost2010Prop48
 90
       50
102
RTVSPost2010PropOp48
 70
     1
102
RTVSPost2010Prop49
280
     0
102
RTVSPost2010PropOp49
 70
     1
102
RTVSPost2010Prop50
 90
       50
102
RTVSPost2010PropOp50
 70
     1
102
RTVSPost2010Prop51ColorIndex
 90
      256
102
RTVSPost2010Prop51ColorRGB
 90
-16777216
102
RTVSPost2010PropOp51
 70
     0
102
RTVSPost2010Prop52
140
1.0
102
RTVSPost2010PropOp52
 70
     0
102
RTVSPost2010Prop53
 90
        2
102
RTVSPost2010PropOp53
 70
     1
102
RTVSPost2010Prop54
  1
strokes_ogs.tif
102
RTVSPost2010PropOp54
 70
     1
102
RTVSPost2010Prop55
280
     0
102
RTVSPost2010PropOp55
 70
     1
102
RTVSPost2010Prop56
140
1.0
102
RTVSPost2010PropOp56
 70
     1
102
RTVSPost2010Prop57
140
1.0
102
RTVSPost2010PropOp57
 70
     1
102
RTVSPropertyOp0
 70
     1
102
RTVSPropertyOp1
 70
     1
102
RTVSPropertyOp2
 70
     1
102
RTVSPropertyOp3
 70
     1
102
RTVSPropertyOp4
 70
     1
102
RTVSPropertyOp5
 70
     1
102
RTVSPropertyOp6
 70
     1
102
RTVSPropertyOp7
 70
     1
102
RTVSPropertyOp8
 70
     1
102
RTVSPropertyOp9
 70
     1
102
RTVSPropertyOp10
 70
     1
102
RTVSPropertyOp11
 70
     1
102
RTVSPropertyOp12
 70
     1
102
RTVSPropertyOp13
 70
     1
102
RTVSPropertyOp14
 70
     1
102
RTVSPropertyOp15
 70
     1
102
RTVSPropertyOp16
 70
     1
102
RTVSPropertyOp17
 70
     1
102
RTVSPropertyOp18
 70
     1
102
RTVSPropertyOp19
 70
     1
102
RTVSPropertyOp20
 70
     1
102
RTVSPropertyOp21
 70
     1
102
RTVSPropertyOp22
 70
     1
102
RTVSPropertyOp23
 70
     1
102
RTVSPropertyOp24
 70
     1
102
RTVSPropertyOp25
 70
     1
102
RTVSPropertyOp26
 70
     1
102
RTVSPropertyOp27
 70
     1
102
RTVSPropertyOp28
 70
     1
102
RTVSPropertyOp29
 70
     1
102
RTVSPropertyOp30
 70
     1
102
RTVSPropertyOp31
 70
     1
102
RTVSPropertyOp32
 70
     1
102
RTVSPropertyOp33
 70
     1
102
RTVSPropertyOp34
 70
     1
102
RTVSPropertyOp35
 70
     1
102
RTVSPropertyOp36
 70
     1
102
RTVSPropertyOp37
 70
     1
102
RTVSPropertyOp38
 70
     1
102
RTVSPropertyOp39
 70
     1
102
RTVSPropertyOp40
 70
     1
102
RTVSPropertyOp41
 70
     1
102
RTVSPropertyOp42
 70
     1
102
RTVSPropertyOp43
 70
     1
102
RTVSPropertyOp44
 70
     1
102
RTVSPropertyOp45
 70
     1
102
RTVSPropertyOp46
 70
     1
102
RTVSPropertyOp47
 70
     1
102
RTVSPropertyOp48
 70
     1
102
RTVSPropertyOp49
 70
     1
102
RTVSPropertyOp50
 70
     1
102
RTVSPropertyOp51
 70
     0
102
RTVSPropertyOp52
 70
     0
102
RTVSPropertyOp53
 70
     1
102
RTVSPropertyOp54
 70
     1
102
RTVSPropertyOp55
 70
     1
102
RTVSPropertyOp56
 70
     1
102
RTVSPropertyOp57
 70
     1
102
RTVSPropertyOp58
 70
     1
102
RTVSPropertyOp59
 70
     1
102
RTVSPropertyOp60
 70
     1
102
RTVSPropertyOp61
 70
     1
102
RTVSPropertyOp62
 70
     1
  0
XRECORD
  5
58E
102
{ACAD_REACTORS
330
58D
102
}
330
58D
100
AcDbXrecord
280
     1
102
RTVSPost2010Prop28
280
     0
102
RTVSPost2010PropOp28
 70
     1
102
RTVSPost2010Prop29
280
     1
102
RTVSPost2010PropOp29
 70
     1
102
RTVSPost2010Prop30
280
     1
102
RTVSPost2010PropOp30
 70
     1
102
RTVSPost2010Prop31
280
     0
102
RTVSPost2010PropOp31
 70
     1
102
RTVSPost2010Prop32
280
     0
102
RTVSPost2010PropOp32
 70
     1
102
RTVSPost2010Prop33
280
     0
102
RTVSPost2010PropOp33
 70
     1
102
RTVSPost2010Prop34
280
     0
102
RTVSPost2010PropOp34
 70
     1
102
RTVSPost2010Prop35
280
     0
102
RTVSPost2010PropOp35
 70
     1
102
RTVSPost2010Prop36
280
     0
102
RTVSPost2010PropOp36
 70
     1
102
RTVSPost2010Prop37
 90
       50
102
RTVSPost2010PropOp37
 70
     1
102
RTVSPost2010Prop38
140
0.0
102
RTVSPost2010PropOp38
 70
     1
102
RTVSPost2010Prop39
140
1.0
102
RTVSPost2010PropOp39
 70
     1
102
RTVSPost2010Prop40
 90
        0
102
RTVSPost2010PropOp40
 70
     1
102
RTVSPost2010Prop41ColorIndex
 90
       18
102
RTVSPost2010Prop41ColorRGB
 90
        0
102
RTVSPost2010PropOp41
 70
     1
102
RTVSPost2010Prop42
 90
       50
102
RTVSPost2010PropOp42
 70
     1
102
RTVSPost2010Prop43
 90
        3
102
RTVSPost2010PropOp43
 70
     1
102
RTVSPost2010Prop44ColorIndex
 90
        5
102
RTVSPost2010Prop44ColorRGB
 90
      255
102
RTVSPost2010PropOp44
 70
     1
102
RTVSPost2010Prop45
280
     0
102
RTVSPost2010PropOp45
 70
     1
102
RTVSPost2010Prop46
 90
       50
102
RTVSPost2010PropOp46
 70
     1
102
RTVSPost2010Prop47
 90
       50
102
RTVSPost2010PropOp47
 70
     1
102
RTVSPost2010Prop48
 90
       50
102
RTVSPost2010PropOp48
 70
     1
102
RTVSPost2010Prop49
280
     0
102
RTVSPost2010PropOp49
 70
     1
102
RTVSPost2010Prop50
 90
       50
102
RTVSPost2010PropOp50
 70
     1
102
RTVSPost2010Prop51ColorIndex
 90
      256
102
RTVSPost2010Prop51ColorRGB
 90
-16777216
102
RTVSPost2010PropOp51
 70
     0
102
RTVSPost2010Prop52
140
1.0
102
RTVSPost2010PropOp52
 70
     0
102
RTVSPost2010Prop53
 90
        2
102
RTVSPost2010PropOp53
 70
     1
102
RTVSPost2010Prop54
  1
strokes_ogs.tif
102
RTVSPost2010PropOp54
 70
     1
102
RTVSPost2010Prop55
280
     0
102
RTVSPost2010PropOp55
 70
     1
102
RTVSPost2010Prop56
140
1.0
102
RTVSPost2010PropOp56
 70
     1
102
RTVSPost2010Prop57
140
1.0
102
RTVSPost2010PropOp57
 70
     1
102
RTVSPropertyOp0
 70
     1
102
RTVSPropertyOp1
 70
     1
102
RTVSPropertyOp2
 70
     1
102
RTVSPropertyOp3
 70
     1
102
RTVSPropertyOp4
 70
     1
102
RTVSPropertyOp5
 70
     1
102
RTVSPropertyOp6
 70
     1
102
RTVSPropertyOp7
 70
     1
102
RTVSPropertyOp8
 70
     1
102
RTVSPropertyOp9
 70
     1
102
RTVSPropertyOp10
 70
     1
102
RTVSPropertyOp11
 70
     1
102
RTVSPropertyOp12
 70
     1
102
RTVSPropertyOp13
 70
     1
102
RTVSPropertyOp14
 70
     1
102
RTVSPropertyOp15
 70
     1
102
RTVSPropertyOp16
 70
     1
102
RTVSPropertyOp17
 70
     1
102
RTVSPropertyOp18
 70
     1
102
RTVSPropertyOp19
 70
     1
102
RTVSPropertyOp20
 70
     1
102
RTVSPropertyOp21
 70
     1
102
RTVSPropertyOp22
 70
     1
102
RTVSPropertyOp23
 70
     1
102
RTVSPropertyOp24
 70
     1
102
RTVSPropertyOp25
 70
     1
102
RTVSPropertyOp26
 70
     1
102
RTVSPropertyOp27
 70
     1
102
RTVSPropertyOp28
 70
     1
102
RTVSPropertyOp29
 70
     1
102
RTVSPropertyOp30
 70
     1
102
RTVSPropertyOp31
 70
     1
102
RTVSPropertyOp32
 70
     1
102
RTVSPropertyOp33
 70
     1
102
RTVSPropertyOp34
 70
     1
102
RTVSPropertyOp35
 70
     1
102
RTVSPropertyOp36
 70
     1
102
RTVSPropertyOp37
 70
     1
102
RTVSPropertyOp38
 70
     1
102
RTVSPropertyOp39
 70
     1
102
RTVSPropertyOp40
 70
     1
102
RTVSPropertyOp41
 70
     1
102
RTVSPropertyOp42
 70
     1
102
RTVSPropertyOp43
 70
     1
102
RTVSPropertyOp44
 70
     1
102
RTVSPropertyOp45
 70
     1
102
RTVSPropertyOp46
 70
     1
102
RTVSPropertyOp47
 70
     1
102
RTVSPropertyOp48
 70
     1
102
RTVSPropertyOp49
 70
     1
102
RTVSPropertyOp50
 70
     1
102
RTVSPropertyOp51
 70
     0
102
RTVSPropertyOp52
 70
     0
102
RTVSPropertyOp53
 70
     1
102
RTVSPropertyOp54
 70
     1
102
RTVSPropertyOp55
 70
     1
102
RTVSPropertyOp56
 70
     1
102
RTVSPropertyOp57
 70
     1
102
RTVSPropertyOp58
 70
     1
102
RTVSPropertyOp59
 70
     1
102
RTVSPropertyOp60
 70
     1
102
RTVSPropertyOp61
 70
     1
102
RTVSPropertyOp62
 70
     1
  0
XRECORD
  5
5AA
102
{ACAD_REACTORS
330
5A9
102
}
330
5A9
100
AcDbXrecord
280
     1
102
RTVSPost2010Prop28
280
     0
102
RTVSPost2010PropOp28
 70
     1
102
RTVSPost2010Prop29
280
     1
102
RTVSPost2010PropOp29
 70
     1
102
RTVSPost2010Prop30
280
     1
102
RTVSPost2010PropOp30
 70
     1
102
RTVSPost2010Prop31
280
     0
102
RTVSPost2010PropOp31
 70
     1
102
RTVSPost2010Prop32
280
     0
102
RTVSPost2010PropOp32
 70
     1
102
RTVSPost2010Prop33
280
     0
102
RTVSPost2010PropOp33
 70
     1
102
RTVSPost2010Prop34
280
     0
102
RTVSPost2010PropOp34
 70
     1
102
RTVSPost2010Prop35
280
     0
102
RTVSPost2010PropOp35
 70
     1
102
RTVSPost2010Prop36
280
     0
102
RTVSPost2010PropOp36
 70
     1
102
RTVSPost2010Prop37
 90
       50
102
RTVSPost2010PropOp37
 70
     0
102
RTVSPost2010Prop38
140
0.0
102
RTVSPost2010PropOp38
 70
     0
102
RTVSPost2010Prop39
140
1.0
102
RTVSPost2010PropOp39
 70
     0
102
RTVSPost2010Prop40
 90
        0
102
RTVSPost2010PropOp40
 70
     0
102
RTVSPost2010Prop41ColorIndex
 90
       18
102
RTVSPost2010Prop41ColorRGB
 90
        0
102
RTVSPost2010PropOp41
 70
     0
102
RTVSPost2010Prop42
 90
       50
102
RTVSPost2010PropOp42
 70
     0
102
RTVSPost2010Prop43
 90
        3
102
RTVSPost2010PropOp43
 70
     0
102
RTVSPost2010Prop44ColorIndex
 90
        5
102
RTVSPost2010Prop44ColorRGB
 90
      255
102
RTVSPost2010PropOp44
 70
     0
102
RTVSPost2010Prop45
280
     0
102
RTVSPost2010PropOp45
 70
     1
102
RTVSPost2010Prop46
 90
       50
102
RTVSPost2010PropOp46
 70
     0
102
RTVSPost2010Prop47
 90
       50
102
RTVSPost2010PropOp47
 70
     0
102
RTVSPost2010Prop48
 90
       50
102
RTVSPost2010PropOp48
 70
     0
102
RTVSPost2010Prop49
280
     0
102
RTVSPost2010PropOp49
 70
     1
102
RTVSPost2010Prop50
 90
       50
102
RTVSPost2010PropOp50
 70
     0
102
RTVSPost2010Prop51ColorIndex
 90
      256
102
RTVSPost2010Prop51ColorRGB
 90
-16777216
102
RTVSPost2010PropOp51
 70
     0
102
RTVSPost2010Prop52
140
1.0
102
RTVSPost2010PropOp52
 70
     0
102
RTVSPost2010Prop53
 90
        2
102
RTVSPost2010PropOp53
 70
     0
102
RTVSPost2010Prop54
  1
strokes_ogs.tif
102
RTVSPost2010PropOp54
 70
     0
102
RTVSPost2010Prop55
280
     0
102
RTVSPost2010PropOp55
 70
     1
102
RTVSPost2010Prop56
140
1.0
102
RTVSPost2010PropOp56
 70
     0
102
RTVSPost2010Prop57
140
1.0
102
RTVSPost2010PropOp57
 70
     0
102
RTVSPropertyOp0
 70
     0
102
RTVSPropertyOp1
 70
     0
102
RTVSPropertyOp2
 70
     0
102
RTVSPropertyOp3
 70
     0
102
RTVSPropertyOp4
 70
     0
102
RTVSPropertyOp5
 70
     0
102
RTVSPropertyOp6
 70
     0
102
RTVSPropertyOp7
 70
     0
102
RTVSPropertyOp8
 70
     0
102
RTVSPropertyOp9
 70
     0
102
RTVSPropertyOp10
 70
     0
102
RTVSPropertyOp11
 70
     0
102
RTVSPropertyOp12
 70
     0
102
RTVSPropertyOp13
 70
     0
102
RTVSPropertyOp14
 70
     2
102
RTVSPropertyOp15
 70
     0
102
RTVSPropertyOp16
 70
     0
102
RTVSPropertyOp17
 70
     0
102
RTVSPropertyOp18
 70
     0
102
RTVSPropertyOp19
 70
     0
102
RTVSPropertyOp20
 70
     0
102
RTVSPropertyOp21
 70
     0
102
RTVSPropertyOp22
 70
     0
102
RTVSPropertyOp23
 70
     0
102
RTVSPropertyOp24
 70
     0
102
RTVSPropertyOp25
 70
     0
102
RTVSPropertyOp26
 70
     0
102
RTVSPropertyOp27
 70
     0
102
RTVSPropertyOp28
 70
     1
102
RTVSPropertyOp29
 70
     1
102
RTVSPropertyOp30
 70
     1
102
RTVSPropertyOp31
 70
     1
102
RTVSPropertyOp32
 70
     1
102
RTVSPropertyOp33
 70
     1
102
RTVSPropertyOp34
 70
     1
102
RTVSPropertyOp35
 70
     1
102
RTVSPropertyOp36
 70
     1
102
RTVSPropertyOp37
 70
     0
102
RTVSPropertyOp38
 70
     0
102
RTVSPropertyOp39
 70
     0
102
RTVSPropertyOp40
 70
     0
102
RTVSPropertyOp41
 70
     0
102
RTVSPropertyOp42
 70
     0
102
RTVSPropertyOp43
 70
     0
102
RTVSPropertyOp44
 70
     0
102
RTVSPropertyOp45
 70
     1
102
RTVSPropertyOp46
 70
     0
102
RTVSPropertyOp47
 70
     0
102
RTVSPropertyOp48
 70
     0
102
RTVSPropertyOp49
 70
     1
102
RTVSPropertyOp50
 70
     0
102
RTVSPropertyOp51
 70
     0
102
RTVSPropertyOp52
 70
     0
102
RTVSPropertyOp53
 70
     0
102
RTVSPropertyOp54
 70
     0
102
RTVSPropertyOp55
 70
     1
102
RTVSPropertyOp56
 70
     0
102
RTVSPropertyOp57
 70
     0
102
RTVSPropertyOp58
 70
     0
102
RTVSPropertyOp59
 70
     0
102
RTVSPropertyOp60
 70
     0
102
RTVSPropertyOp61
 70
     0
102
RTVSPropertyOp62
 70
     0
  0
XRECORD
  5
59A
102
{ACAD_REACTORS
330
599
102
}
330
599
100
AcDbXrecord
280
     1
102
RTVSPost2010Prop28
280
     0
102
RTVSPost2010PropOp28
 70
     1
102
RTVSPost2010Prop29
280
     1
102
RTVSPost2010PropOp29
 70
     1
102
RTVSPost2010Prop30
280
     1
102
RTVSPost2010PropOp30
 70
     1
102
RTVSPost2010Prop31
280
     0
102
RTVSPost2010PropOp31
 70
     1
102
RTVSPost2010Prop32
280
     0
102
RTVSPost2010PropOp32
 70
     1
102
RTVSPost2010Prop33
280
     0
102
RTVSPost2010PropOp33
 70
     1
102
RTVSPost2010Prop34
280
     0
102
RTVSPost2010PropOp34
 70
     1
102
RTVSPost2010Prop35
280
     0
102
RTVSPost2010PropOp35
 70
     1
102
RTVSPost2010Prop36
280
     0
102
RTVSPost2010PropOp36
 70
     1
102
RTVSPost2010Prop37
 90
       50
102
RTVSPost2010PropOp37
 70
     1
102
RTVSPost2010Prop38
140
0.0
102
RTVSPost2010PropOp38
 70
     1
102
RTVSPost2010Prop39
140
1.0
102
RTVSPost2010PropOp39
 70
     1
102
RTVSPost2010Prop40
 90
        0
102
RTVSPost2010PropOp40
 70
     1
102
RTVSPost2010Prop41ColorIndex
 90
       18
102
RTVSPost2010Prop41ColorRGB
 90
        0
102
RTVSPost2010PropOp41
 70
     1
102
RTVSPost2010Prop42
 90
       50
102
RTVSPost2010PropOp42
 70
     1
102
RTVSPost2010Prop43
 90
        3
102
RTVSPost2010PropOp43
 70
     1
102
RTVSPost2010Prop44ColorIndex
 90
        5
102
RTVSPost2010Prop44ColorRGB
 90
      255
102
RTVSPost2010PropOp44
 70
     1
102
RTVSPost2010Prop45
280
     0
102
RTVSPost2010PropOp45
 70
     1
102
RTVSPost2010Prop46
 90
       50
102
RTVSPost2010PropOp46
 70
     1
102
RTVSPost2010Prop47
 90
       50
102
RTVSPost2010PropOp47
 70
     1
102
RTVSPost2010Prop48
 90
       50
102
RTVSPost2010PropOp48
 70
     1
102
RTVSPost2010Prop49
280
     0
102
RTVSPost2010PropOp49
 70
     1
102
RTVSPost2010Prop50
 90
       50
102
RTVSPost2010PropOp50
 70
     1
102
RTVSPost2010Prop51ColorIndex
 90
      256
102
RTVSPost2010Prop51ColorRGB
 90
-16777216
102
RTVSPost2010PropOp51
 70
     0
102
RTVSPost2010Prop52
140
1.0
102
RTVSPost2010PropOp52
 70
     0
102
RTVSPost2010Prop53
 90
        2
102
RTVSPost2010PropOp53
 70
     1
102
RTVSPost2010Prop54
  1
strokes_ogs.tif
102
RTVSPost2010PropOp54
 70
     1
102
RTVSPost2010Prop55
280
     0
102
RTVSPost2010PropOp55
 70
     1
102
RTVSPost2010Prop56
140
1.0
102
RTVSPost2010PropOp56
 70
     1
102
RTVSPost2010Prop57
140
1.0
102
RTVSPost2010PropOp57
 70
     1
102
RTVSPropertyOp0
 70
     1
102
RTVSPropertyOp1
 70
     1
102
RTVSPropertyOp2
 70
     1
102
RTVSPropertyOp3
 70
     1
102
RTVSPropertyOp4
 70
     1
102
RTVSPropertyOp5
 70
     1
102
RTVSPropertyOp6
 70
     1
102
RTVSPropertyOp7
 70
     1
102
RTVSPropertyOp8
 70
     1
102
RTVSPropertyOp9
 70
     1
102
RTVSPropertyOp10
 70
     1
102
RTVSPropertyOp11
 70
     1
102
RTVSPropertyOp12
 70
     1
102
RTVSPropertyOp13
 70
     1
102
RTVSPropertyOp14
 70
     1
102
RTVSPropertyOp15
 70
     1
102
RTVSPropertyOp16
 70
     1
102
RTVSPropertyOp17
 70
     1
102
RTVSPropertyOp18
 70
     1
102
RTVSPropertyOp19
 70
     1
102
RTVSPropertyOp20
 70
     1
102
RTVSPropertyOp21
 70
     1
102
RTVSPropertyOp22
 70
     1
102
RTVSPropertyOp23
 70
     1
102
RTVSPropertyOp24
 70
     1
102
RTVSPropertyOp25
 70
     1
102
RTVSPropertyOp26
 70
     1
102
RTVSPropertyOp27
 70
     1
102
RTVSPropertyOp28
 70
     1
102
RTVSPropertyOp29
 70
     1
102
RTVSPropertyOp30
 70
     1
102
RTVSPropertyOp31
 70
     1
102
RTVSPropertyOp32
 70
     1
102
RTVSPropertyOp33
 70
     1
102
RTVSPropertyOp34
 70
     1
102
RTVSPropertyOp35
 70
     1
102
RTVSPropertyOp36
 70
     1
102
RTVSPropertyOp37
 70
     1
102
RTVSPropertyOp38
 70
     1
102
RTVSPropertyOp39
 70
     1
102
RTVSPropertyOp40
 70
     1
102
RTVSPropertyOp41
 70
     1
102
RTVSPropertyOp42
 70
     1
102
RTVSPropertyOp43
 70
     1
102
RTVSPropertyOp44
 70
     1
102
RTVSPropertyOp45
 70
     1
102
RTVSPropertyOp46
 70
     1
102
RTVSPropertyOp47
 70
     1
102
RTVSPropertyOp48
 70
     1
102
RTVSPropertyOp49
 70
     1
102
RTVSPropertyOp50
 70
     1
102
RTVSPropertyOp51
 70
     0
102
RTVSPropertyOp52
 70
     0
102
RTVSPropertyOp53
 70
     1
102
RTVSPropertyOp54
 70
     1
102
RTVSPropertyOp55
 70
     1
102
RTVSPropertyOp56
 70
     1
102
RTVSPropertyOp57
 70
     1
102
RTVSPropertyOp58
 70
     1
102
RTVSPropertyOp59
 70
     1
102
RTVSPropertyOp60
 70
     1
102
RTVSPropertyOp61
 70
     1
102
RTVSPropertyOp62
 70
     1
  0
XRECORD
  5
5AC
102
{ACAD_REACTORS
330
5AB
102
}
330
5AB
100
AcDbXrecord
280
     1
102
RTVSPost2010Prop28
280
     0
102
RTVSPost2010PropOp28
 70
     1
102
RTVSPost2010Prop29
280
     1
102
RTVSPost2010PropOp29
 70
     1
102
RTVSPost2010Prop30
280
     1
102
RTVSPost2010PropOp30
 70
     1
102
RTVSPost2010Prop31
280
     0
102
RTVSPost2010PropOp31
 70
     1
102
RTVSPost2010Prop32
280
     0
102
RTVSPost2010PropOp32
 70
     1
102
RTVSPost2010Prop33
280
     0
102
RTVSPost2010PropOp33
 70
     1
102
RTVSPost2010Prop34
280
     0
102
RTVSPost2010PropOp34
 70
     1
102
RTVSPost2010Prop35
280
     0
102
RTVSPost2010PropOp35
 70
     1
102
RTVSPost2010Prop36
280
     0
102
RTVSPost2010PropOp36
 70
     1
102
RTVSPost2010Prop37
 90
       50
102
RTVSPost2010PropOp37
 70
     0
102
RTVSPost2010Prop38
140
0.0
102
RTVSPost2010PropOp38
 70
     0
102
RTVSPost2010Prop39
140
1.0
102
RTVSPost2010PropOp39
 70
     0
102
RTVSPost2010Prop40
 90
        0
102
RTVSPost2010PropOp40
 70
     0
102
RTVSPost2010Prop41ColorIndex
 90
       18
102
RTVSPost2010Prop41ColorRGB
 90
        0
102
RTVSPost2010PropOp41
 70
     0
102
RTVSPost2010Prop42
 90
       50
102
RTVSPost2010PropOp42
 70
     0
102
RTVSPost2010Prop43
 90
        3
102
RTVSPost2010PropOp43
 70
     0
102
RTVSPost2010Prop44ColorIndex
 90
        5
102
RTVSPost2010Prop44ColorRGB
 90
      255
102
RTVSPost2010PropOp44
 70
     0
102
RTVSPost2010Prop45
280
     0
102
RTVSPost2010PropOp45
 70
     1
102
RTVSPost2010Prop46
 90
       50
102
RTVSPost2010PropOp46
 70
     0
102
RTVSPost2010Prop47
 90
       50
102
RTVSPost2010PropOp47
 70
     0
102
RTVSPost2010Prop48
 90
       50
102
RTVSPost2010PropOp48
 70
     0
102
RTVSPost2010Prop49
280
     0
102
RTVSPost2010PropOp49
 70
     1
102
RTVSPost2010Prop50
 90
       50
102
RTVSPost2010PropOp50
 70
     0
102
RTVSPost2010Prop51ColorIndex
 90
      256
102
RTVSPost2010Prop51ColorRGB
 90
-16777216
102
RTVSPost2010PropOp51
 70
     0
102
RTVSPost2010Prop52
140
1.0
102
RTVSPost2010PropOp52
 70
     0
102
RTVSPost2010Prop53
 90
        2
102
RTVSPost2010PropOp53
 70
     0
102
RTVSPost2010Prop54
  1
strokes_ogs.tif
102
RTVSPost2010PropOp54
 70
     0
102
RTVSPost2010Prop55
280
     0
102
RTVSPost2010PropOp55
 70
     1
102
RTVSPost2010Prop56
140
1.0
102
RTVSPost2010PropOp56
 70
     0
102
RTVSPost2010Prop57
140
1.0
102
RTVSPost2010PropOp57
 70
     0
102
RTVSPropertyOp0
 70
     0
102
RTVSPropertyOp1
 70
     0
102
RTVSPropertyOp2
 70
     0
102
RTVSPropertyOp3
 70
     0
102
RTVSPropertyOp4
 70
     0
102
RTVSPropertyOp5
 70
     0
102
RTVSPropertyOp6
 70
     0
102
RTVSPropertyOp7
 70
     0
102
RTVSPropertyOp8
 70
     0
102
RTVSPropertyOp9
 70
     0
102
RTVSPropertyOp10
 70
     0
102
RTVSPropertyOp11
 70
     0
102
RTVSPropertyOp12
 70
     0
102
RTVSPropertyOp13
 70
     0
102
RTVSPropertyOp14
 70
     2
102
RTVSPropertyOp15
 70
     0
102
RTVSPropertyOp16
 70
     0
102
RTVSPropertyOp17
 70
     0
102
RTVSPropertyOp18
 70
     0
102
RTVSPropertyOp19
 70
     0
102
RTVSPropertyOp20
 70
     0
102
RTVSPropertyOp21
 70
     0
102
RTVSPropertyOp22
 70
     0
102
RTVSPropertyOp23
 70
     0
102
RTVSPropertyOp24
 70
     0
102
RTVSPropertyOp25
 70
     0
102
RTVSPropertyOp26
 70
     0
102
RTVSPropertyOp27
 70
     0
102
RTVSPropertyOp28
 70
     1
102
RTVSPropertyOp29
 70
     1
102
RTVSPropertyOp30
 70
     1
102
RTVSPropertyOp31
 70
     1
102
RTVSPropertyOp32
 70
     1
102
RTVSPropertyOp33
 70
     1
102
RTVSPropertyOp34
 70
     1
102
RTVSPropertyOp35
 70
     1
102
RTVSPropertyOp36
 70
     1
102
RTVSPropertyOp37
 70
     0
102
RTVSPropertyOp38
 70
     0
102
RTVSPropertyOp39
 70
     0
102
RTVSPropertyOp40
 70
     0
102
RTVSPropertyOp41
 70
     0
102
RTVSPropertyOp42
 70
     0
102
RTVSPropertyOp43
 70
     0
102
RTVSPropertyOp44
 70
     0
102
RTVSPropertyOp45
 70
     1
102
RTVSPropertyOp46
 70
     0
102
RTVSPropertyOp47
 70
     0
102
RTVSPropertyOp48
 70
     0
102
RTVSPropertyOp49
 70
     1
102
RTVSPropertyOp50
 70
     0
102
RTVSPropertyOp51
 70
     0
102
RTVSPropertyOp52
 70
     0
102
RTVSPropertyOp53
 70
     0
102
RTVSPropertyOp54
 70
     0
102
RTVSPropertyOp55
 70
     1
102
RTVSPropertyOp56
 70
     0
102
RTVSPropertyOp57
 70
     0
102
RTVSPropertyOp58
 70
     0
102
RTVSPropertyOp59
 70
     0
102
RTVSPropertyOp60
 70
     0
102
RTVSPropertyOp61
 70
     0
102
RTVSPropertyOp62
 70
     0
  0
XRECORD
  5
592
102
{ACAD_REACTORS
330
591
102
}
330
591
100
AcDbXrecord
280
     1
102
RTVSPost2010Prop28
280
     0
102
RTVSPost2010PropOp28
 70
     1
102
RTVSPost2010Prop29
280
     1
102
RTVSPost2010PropOp29
 70
     1
102
RTVSPost2010Prop30
280
     1
102
RTVSPost2010PropOp30
 70
     1
102
RTVSPost2010Prop31
280
     0
102
RTVSPost2010PropOp31
 70
     1
102
RTVSPost2010Prop32
280
     0
102
RTVSPost2010PropOp32
 70
     1
102
RTVSPost2010Prop33
280
     0
102
RTVSPost2010PropOp33
 70
     1
102
RTVSPost2010Prop34
280
     0
102
RTVSPost2010PropOp34
 70
     1
102
RTVSPost2010Prop35
280
     0
102
RTVSPost2010PropOp35
 70
     1
102
RTVSPost2010Prop36
280
     0
102
RTVSPost2010PropOp36
 70
     1
102
RTVSPost2010Prop37
 90
       50
102
RTVSPost2010PropOp37
 70
     1
102
RTVSPost2010Prop38
140
0.0
102
RTVSPost2010PropOp38
 70
     1
102
RTVSPost2010Prop39
140
1.0
102
RTVSPost2010PropOp39
 70
     1
102
RTVSPost2010Prop40
 90
        0
102
RTVSPost2010PropOp40
 70
     1
102
RTVSPost2010Prop41ColorIndex
 90
       18
102
RTVSPost2010Prop41ColorRGB
 90
        0
102
RTVSPost2010PropOp41
 70
     1
102
RTVSPost2010Prop42
 90
       50
102
RTVSPost2010PropOp42
 70
     1
102
RTVSPost2010Prop43
 90
        3
102
RTVSPost2010PropOp43
 70
     1
102
RTVSPost2010Prop44ColorIndex
 90
        5
102
RTVSPost2010Prop44ColorRGB
 90
      255
102
RTVSPost2010PropOp44
 70
     1
102
RTVSPost2010Prop45
280
     0
102
RTVSPost2010PropOp45
 70
     1
102
RTVSPost2010Prop46
 90
       50
102
RTVSPost2010PropOp46
 70
     1
102
RTVSPost2010Prop47
 90
       50
102
RTVSPost2010PropOp47
 70
     1
102
RTVSPost2010Prop48
 90
       50
102
RTVSPost2010PropOp48
 70
     1
102
RTVSPost2010Prop49
280
     0
102
RTVSPost2010PropOp49
 70
     1
102
RTVSPost2010Prop50
 90
       50
102
RTVSPost2010PropOp50
 70
     1
102
RTVSPost2010Prop51ColorIndex
 90
      256
102
RTVSPost2010Prop51ColorRGB
 90
-16777216
102
RTVSPost2010PropOp51
 70
     0
102
RTVSPost2010Prop52
140
1.0
102
RTVSPost2010PropOp52
 70
     0
102
RTVSPost2010Prop53
 90
        2
102
RTVSPost2010PropOp53
 70
     1
102
RTVSPost2010Prop54
  1
strokes_ogs.tif
102
RTVSPost2010PropOp54
 70
     1
102
RTVSPost2010Prop55
280
     0
102
RTVSPost2010PropOp55
 70
     1
102
RTVSPost2010Prop56
140
1.0
102
RTVSPost2010PropOp56
 70
     1
102
RTVSPost2010Prop57
140
1.0
102
RTVSPost2010PropOp57
 70
     1
102
RTVSPropertyOp0
 70
     1
102
RTVSPropertyOp1
 70
     1
102
RTVSPropertyOp2
 70
     1
102
RTVSPropertyOp3
 70
     1
102
RTVSPropertyOp4
 70
     1
102
RTVSPropertyOp5
 70
     1
102
RTVSPropertyOp6
 70
     1
102
RTVSPropertyOp7
 70
     1
102
RTVSPropertyOp8
 70
     1
102
RTVSPropertyOp9
 70
     1
102
RTVSPropertyOp10
 70
     1
102
RTVSPropertyOp11
 70
     1
102
RTVSPropertyOp12
 70
     1
102
RTVSPropertyOp13
 70
     1
102
RTVSPropertyOp14
 70
     1
102
RTVSPropertyOp15
 70
     1
102
RTVSPropertyOp16
 70
     1
102
RTVSPropertyOp17
 70
     1
102
RTVSPropertyOp18
 70
     1
102
RTVSPropertyOp19
 70
     1
102
RTVSPropertyOp20
 70
     1
102
RTVSPropertyOp21
 70
     1
102
RTVSPropertyOp22
 70
     1
102
RTVSPropertyOp23
 70
     1
102
RTVSPropertyOp24
 70
     1
102
RTVSPropertyOp25
 70
     1
102
RTVSPropertyOp26
 70
     1
102
RTVSPropertyOp27
 70
     1
102
RTVSPropertyOp28
 70
     1
102
RTVSPropertyOp29
 70
     1
102
RTVSPropertyOp30
 70
     1
102
RTVSPropertyOp31
 70
     1
102
RTVSPropertyOp32
 70
     1
102
RTVSPropertyOp33
 70
     1
102
RTVSPropertyOp34
 70
     1
102
RTVSPropertyOp35
 70
     1
102
RTVSPropertyOp36
 70
     1
102
RTVSPropertyOp37
 70
     1
102
RTVSPropertyOp38
 70
     1
102
RTVSPropertyOp39
 70
     1
102
RTVSPropertyOp40
 70
     1
102
RTVSPropertyOp41
 70
     1
102
RTVSPropertyOp42
 70
     1
102
RTVSPropertyOp43
 70
     1
102
RTVSPropertyOp44
 70
     1
102
RTVSPropertyOp45
 70
     1
102
RTVSPropertyOp46
 70
     1
102
RTVSPropertyOp47
 70
     1
102
RTVSPropertyOp48
 70
     1
102
RTVSPropertyOp49
 70
     1
102
RTVSPropertyOp50
 70
     1
102
RTVSPropertyOp51
 70
     0
102
RTVSPropertyOp52
 70
     0
102
RTVSPropertyOp53
 70
     1
102
RTVSPropertyOp54
 70
     1
102
RTVSPropertyOp55
 70
     1
102
RTVSPropertyOp56
 70
     1
102
RTVSPropertyOp57
 70
     1
102
RTVSPropertyOp58
 70
     1
102
RTVSPropertyOp59
 70
     1
102
RTVSPropertyOp60
 70
     1
102
RTVSPropertyOp61
 70
     1
102
RTVSPropertyOp62
 70
     1
  0
XRECORD
  5
5A8
102
{ACAD_REACTORS
330
5A7
102
}
330
5A7
100
AcDbXrecord
280
     1
102
RTVSPost2010Prop28
280
     0
102
RTVSPost2010PropOp28
 70
     1
102
RTVSPost2010Prop29
280
     1
102
RTVSPost2010PropOp29
 70
     1
102
RTVSPost2010Prop30
280
     1
102
RTVSPost2010PropOp30
 70
     1
102
RTVSPost2010Prop31
280
     0
102
RTVSPost2010PropOp31
 70
     1
102
RTVSPost2010Prop32
280
     0
102
RTVSPost2010PropOp32
 70
     1
102
RTVSPost2010Prop33
280
     0
102
RTVSPost2010PropOp33
 70
     1
102
RTVSPost2010Prop34
280
     0
102
RTVSPost2010PropOp34
 70
     1
102
RTVSPost2010Prop35
280
     0
102
RTVSPost2010PropOp35
 70
     1
102
RTVSPost2010Prop36
280
     0
102
RTVSPost2010PropOp36
 70
     1
102
RTVSPost2010Prop37
 90
       50
102
RTVSPost2010PropOp37
 70
     1
102
RTVSPost2010Prop38
140
0.0
102
RTVSPost2010PropOp38
 70
     1
102
RTVSPost2010Prop39
140
1.0
102
RTVSPost2010PropOp39
 70
     1
102
RTVSPost2010Prop40
 90
        0
102
RTVSPost2010PropOp40
 70
     1
102
RTVSPost2010Prop41ColorIndex
 90
       18
102
RTVSPost2010Prop41ColorRGB
 90
        0
102
RTVSPost2010PropOp41
 70
     1
102
RTVSPost2010Prop42
 90
       50
102
RTVSPost2010PropOp42
 70
     1
102
RTVSPost2010Prop43
 90
        3
102
RTVSPost2010PropOp43
 70
     1
102
RTVSPost2010Prop44ColorIndex
 90
        5
102
RTVSPost2010Prop44ColorRGB
 90
      255
102
RTVSPost2010PropOp44
 70
     1
102
RTVSPost2010Prop45
280
     0
102
RTVSPost2010PropOp45
 70
     1
102
RTVSPost2010Prop46
 90
       50
102
RTVSPost2010PropOp46
 70
     1
102
RTVSPost2010Prop47
 90
       50
102
RTVSPost2010PropOp47
 70
     1
102
RTVSPost2010Prop48
 90
       50
102
RTVSPost2010PropOp48
 70
     1
102
RTVSPost2010Prop49
280
     0
102
RTVSPost2010PropOp49
 70
     1
102
RTVSPost2010Prop50
 90
       50
102
RTVSPost2010PropOp50
 70
     1
102
RTVSPost2010Prop51ColorIndex
 90
      256
102
RTVSPost2010Prop51ColorRGB
 90
-16777216
102
RTVSPost2010PropOp51
 70
     0
102
RTVSPost2010Prop52
140
1.0
102
RTVSPost2010PropOp52
 70
     0
102
RTVSPost2010Prop53
 90
        2
102
RTVSPost2010PropOp53
 70
     1
102
RTVSPost2010Prop54
  1
strokes_ogs.tif
102
RTVSPost2010PropOp54
 70
     1
102
RTVSPost2010Prop55
280
     0
102
RTVSPost2010PropOp55
 70
     1
102
RTVSPost2010Prop56
140
1.0
102
RTVSPost2010PropOp56
 70
     1
102
RTVSPost2010Prop57
140
1.0
102
RTVSPost2010PropOp57
 70
     1
102
RTVSPropertyOp0
 70
     1
102
RTVSPropertyOp1
 70
     1
102
RTVSPropertyOp2
 70
     1
102
RTVSPropertyOp3
 70
     1
102
RTVSPropertyOp4
 70
     1
102
RTVSPropertyOp5
 70
     1
102
RTVSPropertyOp6
 70
     1
102
RTVSPropertyOp7
 70
     1
102
RTVSPropertyOp8
 70
     1
102
RTVSPropertyOp9
 70
     1
102
RTVSPropertyOp10
 70
     1
102
RTVSPropertyOp11
 70
     1
102
RTVSPropertyOp12
 70
     1
102
RTVSPropertyOp13
 70
     1
102
RTVSPropertyOp14
 70
     1
102
RTVSPropertyOp15
 70
     1
102
RTVSPropertyOp16
 70
     1
102
RTVSPropertyOp17
 70
     1
102
RTVSPropertyOp18
 70
     1
102
RTVSPropertyOp19
 70
     1
102
RTVSPropertyOp20
 70
     1
102
RTVSPropertyOp21
 70
     1
102
RTVSPropertyOp22
 70
     1
102
RTVSPropertyOp23
 70
     1
102
RTVSPropertyOp24
 70
     1
102
RTVSPropertyOp25
 70
     1
102
RTVSPropertyOp26
 70
     1
102
RTVSPropertyOp27
 70
     1
102
RTVSPropertyOp28
 70
     1
102
RTVSPropertyOp29
 70
     1
102
RTVSPropertyOp30
 70
     1
102
RTVSPropertyOp31
 70
     1
102
RTVSPropertyOp32
 70
     1
102
RTVSPropertyOp33
 70
     1
102
RTVSPropertyOp34
 70
     1
102
RTVSPropertyOp35
 70
     1
102
RTVSPropertyOp36
 70
     1
102
RTVSPropertyOp37
 70
     1
102
RTVSPropertyOp38
 70
     1
102
RTVSPropertyOp39
 70
     1
102
RTVSPropertyOp40
 70
     1
102
RTVSPropertyOp41
 70
     1
102
RTVSPropertyOp42
 70
     1
102
RTVSPropertyOp43
 70
     1
102
RTVSPropertyOp44
 70
     1
102
RTVSPropertyOp45
 70
     1
102
RTVSPropertyOp46
 70
     1
102
RTVSPropertyOp47
 70
     1
102
RTVSPropertyOp48
 70
     1
102
RTVSPropertyOp49
 70
     1
102
RTVSPropertyOp50
 70
     1
102
RTVSPropertyOp51
 70
     0
102
RTVSPropertyOp52
 70
     0
102
RTVSPropertyOp53
 70
     1
102
RTVSPropertyOp54
 70
     1
102
RTVSPropertyOp55
 70
     1
102
RTVSPropertyOp56
 70
     1
102
RTVSPropertyOp57
 70
     1
102
RTVSPropertyOp58
 70
     1
102
RTVSPropertyOp59
 70
     1
102
RTVSPropertyOp60
 70
     1
102
RTVSPropertyOp61
 70
     1
102
RTVSPropertyOp62
 70
     1
  0
XRECORD
  5
5A6
102
{ACAD_REACTORS
330
5A5
102
}
330
5A5
100
AcDbXrecord
280
     1
102
RTVSPost2010Prop28
280
     0
102
RTVSPost2010PropOp28
 70
     1
102
RTVSPost2010Prop29
280
     1
102
RTVSPost2010PropOp29
 70
     1
102
RTVSPost2010Prop30
280
     1
102
RTVSPost2010PropOp30
 70
     1
102
RTVSPost2010Prop31
280
     0
102
RTVSPost2010PropOp31
 70
     1
102
RTVSPost2010Prop32
280
     0
102
RTVSPost2010PropOp32
 70
     1
102
RTVSPost2010Prop33
280
     0
102
RTVSPost2010PropOp33
 70
     1
102
RTVSPost2010Prop34
280
     0
102
RTVSPost2010PropOp34
 70
     1
102
RTVSPost2010Prop35
280
     0
102
RTVSPost2010PropOp35
 70
     1
102
RTVSPost2010Prop36
280
     0
102
RTVSPost2010PropOp36
 70
     1
102
RTVSPost2010Prop37
 90
       50
102
RTVSPost2010PropOp37
 70
     1
102
RTVSPost2010Prop38
140
0.0
102
RTVSPost2010PropOp38
 70
     1
102
RTVSPost2010Prop39
140
1.0
102
RTVSPost2010PropOp39
 70
     1
102
RTVSPost2010Prop40
 90
        0
102
RTVSPost2010PropOp40
 70
     1
102
RTVSPost2010Prop41ColorIndex
 90
       18
102
RTVSPost2010Prop41ColorRGB
 90
        0
102
RTVSPost2010PropOp41
 70
     1
102
RTVSPost2010Prop42
 90
       50
102
RTVSPost2010PropOp42
 70
     1
102
RTVSPost2010Prop43
 90
        3
102
RTVSPost2010PropOp43
 70
     1
102
RTVSPost2010Prop44ColorIndex
 90
        5
102
RTVSPost2010Prop44ColorRGB
 90
      255
102
RTVSPost2010PropOp44
 70
     1
102
RTVSPost2010Prop45
280
     0
102
RTVSPost2010PropOp45
 70
     1
102
RTVSPost2010Prop46
 90
       50
102
RTVSPost2010PropOp46
 70
     1
102
RTVSPost2010Prop47
 90
       50
102
RTVSPost2010PropOp47
 70
     1
102
RTVSPost2010Prop48
 90
       50
102
RTVSPost2010PropOp48
 70
     1
102
RTVSPost2010Prop49
280
     0
102
RTVSPost2010PropOp49
 70
     1
102
RTVSPost2010Prop50
 90
       50
102
RTVSPost2010PropOp50
 70
     1
102
RTVSPost2010Prop51ColorIndex
 90
      256
102
RTVSPost2010Prop51ColorRGB
 90
-16777216
102
RTVSPost2010PropOp51
 70
     0
102
RTVSPost2010Prop52
140
1.0
102
RTVSPost2010PropOp52
 70
     0
102
RTVSPost2010Prop53
 90
        2
102
RTVSPost2010PropOp53
 70
     1
102
RTVSPost2010Prop54
  1
strokes_ogs.tif
102
RTVSPost2010PropOp54
 70
     1
102
RTVSPost2010Prop55
280
     0
102
RTVSPost2010PropOp55
 70
     1
102
RTVSPost2010Prop56
140
1.0
102
RTVSPost2010PropOp56
 70
     1
102
RTVSPost2010Prop57
140
1.0
102
RTVSPost2010PropOp57
 70
     1
102
RTVSPropertyOp0
 70
     1
102
RTVSPropertyOp1
 70
     1
102
RTVSPropertyOp2
 70
     1
102
RTVSPropertyOp3
 70
     1
102
RTVSPropertyOp4
 70
     1
102
RTVSPropertyOp5
 70
     1
102
RTVSPropertyOp6
 70
     1
102
RTVSPropertyOp7
 70
     1
102
RTVSPropertyOp8
 70
     1
102
RTVSPropertyOp9
 70
     1
102
RTVSPropertyOp10
 70
     1
102
RTVSPropertyOp11
 70
     1
102
RTVSPropertyOp12
 70
     1
102
RTVSPropertyOp13
 70
     1
102
RTVSPropertyOp14
 70
     1
102
RTVSPropertyOp15
 70
     1
102
RTVSPropertyOp16
 70
     1
102
RTVSPropertyOp17
 70
     1
102
RTVSPropertyOp18
 70
     1
102
RTVSPropertyOp19
 70
     1
102
RTVSPropertyOp20
 70
     1
102
RTVSPropertyOp21
 70
     1
102
RTVSPropertyOp22
 70
     1
102
RTVSPropertyOp23
 70
     1
102
RTVSPropertyOp24
 70
     1
102
RTVSPropertyOp25
 70
     1
102
RTVSPropertyOp26
 70
     1
102
RTVSPropertyOp27
 70
     1
102
RTVSPropertyOp28
 70
     1
102
RTVSPropertyOp29
 70
     1
102
RTVSPropertyOp30
 70
     1
102
RTVSPropertyOp31
 70
     1
102
RTVSPropertyOp32
 70
     1
102
RTVSPropertyOp33
 70
     1
102
RTVSPropertyOp34
 70
     1
102
RTVSPropertyOp35
 70
     1
102
RTVSPropertyOp36
 70
     1
102
RTVSPropertyOp37
 70
     1
102
RTVSPropertyOp38
 70
     1
102
RTVSPropertyOp39
 70
     1
102
RTVSPropertyOp40
 70
     1
102
RTVSPropertyOp41
 70
     1
102
RTVSPropertyOp42
 70
     1
102
RTVSPropertyOp43
 70
     1
102
RTVSPropertyOp44
 70
     1
102
RTVSPropertyOp45
 70
     1
102
RTVSPropertyOp46
 70
     1
102
RTVSPropertyOp47
 70
     1
102
RTVSPropertyOp48
 70
     1
102
RTVSPropertyOp49
 70
     1
102
RTVSPropertyOp50
 70
     1
102
RTVSPropertyOp51
 70
     0
102
RTVSPropertyOp52
 70
     0
102
RTVSPropertyOp53
 70
     1
102
RTVSPropertyOp54
 70
     1
102
RTVSPropertyOp55
 70
     1
102
RTVSPropertyOp56
 70
     1
102
RTVSPropertyOp57
 70
     1
102
RTVSPropertyOp58
 70
     1
102
RTVSPropertyOp59
 70
     1
102
RTVSPropertyOp60
 70
     1
102
RTVSPropertyOp61
 70
     1
102
RTVSPropertyOp62
 70
     1
  0
XRECORD
  5
5A0
102
{ACAD_REACTORS
330
59F
102
}
330
59F
100
AcDbXrecord
280
     1
102
RTVSPost2010Prop28
280
     0
102
RTVSPost2010PropOp28
 70
     1
102
RTVSPost2010Prop29
280
     1
102
RTVSPost2010PropOp29
 70
     1
102
RTVSPost2010Prop30
280
     1
102
RTVSPost2010PropOp30
 70
     1
102
RTVSPost2010Prop31
280
     0
102
RTVSPost2010PropOp31
 70
     1
102
RTVSPost2010Prop32
280
     0
102
RTVSPost2010PropOp32
 70
     1
102
RTVSPost2010Prop33
280
     0
102
RTVSPost2010PropOp33
 70
     1
102
RTVSPost2010Prop34
280
     0
102
RTVSPost2010PropOp34
 70
     1
102
RTVSPost2010Prop35
280
     0
102
RTVSPost2010PropOp35
 70
     1
102
RTVSPost2010Prop36
280
     0
102
RTVSPost2010PropOp36
 70
     1
102
RTVSPost2010Prop37
 90
       50
102
RTVSPost2010PropOp37
 70
     1
102
RTVSPost2010Prop38
140
0.0
102
RTVSPost2010PropOp38
 70
     1
102
RTVSPost2010Prop39
140
1.0
102
RTVSPost2010PropOp39
 70
     1
102
RTVSPost2010Prop40
 90
        0
102
RTVSPost2010PropOp40
 70
     1
102
RTVSPost2010Prop41ColorIndex
 90
       18
102
RTVSPost2010Prop41ColorRGB
 90
        0
102
RTVSPost2010PropOp41
 70
     1
102
RTVSPost2010Prop42
 90
       50
102
RTVSPost2010PropOp42
 70
     1
102
RTVSPost2010Prop43
 90
        3
102
RTVSPost2010PropOp43
 70
     1
102
RTVSPost2010Prop44ColorIndex
 90
        5
102
RTVSPost2010Prop44ColorRGB
 90
      255
102
RTVSPost2010PropOp44
 70
     1
102
RTVSPost2010Prop45
280
     0
102
RTVSPost2010PropOp45
 70
     1
102
RTVSPost2010Prop46
 90
       50
102
RTVSPost2010PropOp46
 70
     1
102
RTVSPost2010Prop47
 90
       50
102
RTVSPost2010PropOp47
 70
     1
102
RTVSPost2010Prop48
 90
       50
102
RTVSPost2010PropOp48
 70
     1
102
RTVSPost2010Prop49
280
     0
102
RTVSPost2010PropOp49
 70
     1
102
RTVSPost2010Prop50
 90
       50
102
RTVSPost2010PropOp50
 70
     1
102
RTVSPost2010Prop51ColorIndex
 90
      256
102
RTVSPost2010Prop51ColorRGB
 90
-16777216
102
RTVSPost2010PropOp51
 70
     0
102
RTVSPost2010Prop52
140
1.0
102
RTVSPost2010PropOp52
 70
     0
102
RTVSPost2010Prop53
 90
        2
102
RTVSPost2010PropOp53
 70
     1
102
RTVSPost2010Prop54
  1
strokes_ogs.tif
102
RTVSPost2010PropOp54
 70
     1
102
RTVSPost2010Prop55
280
     0
102
RTVSPost2010PropOp55
 70
     1
102
RTVSPost2010Prop56
140
1.0
102
RTVSPost2010PropOp56
 70
     1
102
RTVSPost2010Prop57
140
1.0
102
RTVSPost2010PropOp57
 70
     1
102
RTVSPropertyOp0
 70
     1
102
RTVSPropertyOp1
 70
     1
102
RTVSPropertyOp2
 70
     1
102
RTVSPropertyOp3
 70
     1
102
RTVSPropertyOp4
 70
     1
102
RTVSPropertyOp5
 70
     1
102
RTVSPropertyOp6
 70
     1
102
RTVSPropertyOp7
 70
     1
102
RTVSPropertyOp8
 70
     1
102
RTVSPropertyOp9
 70
     1
102
RTVSPropertyOp10
 70
     1
102
RTVSPropertyOp11
 70
     1
102
RTVSPropertyOp12
 70
     1
102
RTVSPropertyOp13
 70
     1
102
RTVSPropertyOp14
 70
     1
102
RTVSPropertyOp15
 70
     1
102
RTVSPropertyOp16
 70
     1
102
RTVSPropertyOp17
 70
     1
102
RTVSPropertyOp18
 70
     1
102
RTVSPropertyOp19
 70
     1
102
RTVSPropertyOp20
 70
     1
102
RTVSPropertyOp21
 70
     1
102
RTVSPropertyOp22
 70
     1
102
RTVSPropertyOp23
 70
     1
102
RTVSPropertyOp24
 70
     1
102
RTVSPropertyOp25
 70
     1
102
RTVSPropertyOp26
 70
     1
102
RTVSPropertyOp27
 70
     1
102
RTVSPropertyOp28
 70
     1
102
RTVSPropertyOp29
 70
     1
102
RTVSPropertyOp30
 70
     1
102
RTVSPropertyOp31
 70
     1
102
RTVSPropertyOp32
 70
     1
102
RTVSPropertyOp33
 70
     1
102
RTVSPropertyOp34
 70
     1
102
RTVSPropertyOp35
 70
     1
102
RTVSPropertyOp36
 70
     1
102
RTVSPropertyOp37
 70
     1
102
RTVSPropertyOp38
 70
     1
102
RTVSPropertyOp39
 70
     1
102
RTVSPropertyOp40
 70
     1
102
RTVSPropertyOp41
 70
     1
102
RTVSPropertyOp42
 70
     1
102
RTVSPropertyOp43
 70
     1
102
RTVSPropertyOp44
 70
     1
102
RTVSPropertyOp45
 70
     1
102
RTVSPropertyOp46
 70
     1
102
RTVSPropertyOp47
 70
     1
102
RTVSPropertyOp48
 70
     1
102
RTVSPropertyOp49
 70
     1
102
RTVSPropertyOp50
 70
     1
102
RTVSPropertyOp51
 70
     0
102
RTVSPropertyOp52
 70
     0
102
RTVSPropertyOp53
 70
     1
102
RTVSPropertyOp54
 70
     1
102
RTVSPropertyOp55
 70
     1
102
RTVSPropertyOp56
 70
     1
102
RTVSPropertyOp57
 70
     1
102
RTVSPropertyOp58
 70
     1
102
RTVSPropertyOp59
 70
     1
102
RTVSPropertyOp60
 70
     1
102
RTVSPropertyOp61
 70
     1
102
RTVSPropertyOp62
 70
     1
  0
XRECORD
  5
5A2
102
{ACAD_REACTORS
330
5A1
102
}
330
5A1
100
AcDbXrecord
280
     1
102
RTVSPost2010Prop28
280
     0
102
RTVSPost2010PropOp28
 70
     1
102
RTVSPost2010Prop29
280
     1
102
RTVSPost2010PropOp29
 70
     1
102
RTVSPost2010Prop30
280
     1
102
RTVSPost2010PropOp30
 70
     1
102
RTVSPost2010Prop31
280
     0
102
RTVSPost2010PropOp31
 70
     1
102
RTVSPost2010Prop32
280
     0
102
RTVSPost2010PropOp32
 70
     1
102
RTVSPost2010Prop33
280
     0
102
RTVSPost2010PropOp33
 70
     1
102
RTVSPost2010Prop34
280
     0
102
RTVSPost2010PropOp34
 70
     1
102
RTVSPost2010Prop35
280
     0
102
RTVSPost2010PropOp35
 70
     1
102
RTVSPost2010Prop36
280
     0
102
RTVSPost2010PropOp36
 70
     1
102
RTVSPost2010Prop37
 90
       50
102
RTVSPost2010PropOp37
 70
     1
102
RTVSPost2010Prop38
140
0.0
102
RTVSPost2010PropOp38
 70
     1
102
RTVSPost2010Prop39
140
1.0
102
RTVSPost2010PropOp39
 70
     1
102
RTVSPost2010Prop40
 90
        0
102
RTVSPost2010PropOp40
 70
     1
102
RTVSPost2010Prop41ColorIndex
 90
       18
102
RTVSPost2010Prop41ColorRGB
 90
        0
102
RTVSPost2010PropOp41
 70
     1
102
RTVSPost2010Prop42
 90
       50
102
RTVSPost2010PropOp42
 70
     1
102
RTVSPost2010Prop43
 90
        3
102
RTVSPost2010PropOp43
 70
     1
102
RTVSPost2010Prop44ColorIndex
 90
        5
102
RTVSPost2010Prop44ColorRGB
 90
      255
102
RTVSPost2010PropOp44
 70
     1
102
RTVSPost2010Prop45
280
     0
102
RTVSPost2010PropOp45
 70
     1
102
RTVSPost2010Prop46
 90
       50
102
RTVSPost2010PropOp46
 70
     1
102
RTVSPost2010Prop47
 90
       50
102
RTVSPost2010PropOp47
 70
     1
102
RTVSPost2010Prop48
 90
       50
102
RTVSPost2010PropOp48
 70
     1
102
RTVSPost2010Prop49
280
     0
102
RTVSPost2010PropOp49
 70
     1
102
RTVSPost2010Prop50
 90
       50
102
RTVSPost2010PropOp50
 70
     1
102
RTVSPost2010Prop51ColorIndex
 90
      256
102
RTVSPost2010Prop51ColorRGB
 90
-16777216
102
RTVSPost2010PropOp51
 70
     0
102
RTVSPost2010Prop52
140
1.0
102
RTVSPost2010PropOp52
 70
     0
102
RTVSPost2010Prop53
 90
        2
102
RTVSPost2010PropOp53
 70
     1
102
RTVSPost2010Prop54
  1
strokes_ogs.tif
102
RTVSPost2010PropOp54
 70
     1
102
RTVSPost2010Prop55
280
     0
102
RTVSPost2010PropOp55
 70
     1
102
RTVSPost2010Prop56
140
1.0
102
RTVSPost2010PropOp56
 70
     1
102
RTVSPost2010Prop57
140
1.0
102
RTVSPost2010PropOp57
 70
     1
102
RTVSPropertyOp0
 70
     1
102
RTVSPropertyOp1
 70
     1
102
RTVSPropertyOp2
 70
     1
102
RTVSPropertyOp3
 70
     1
102
RTVSPropertyOp4
 70
     1
102
RTVSPropertyOp5
 70
     1
102
RTVSPropertyOp6
 70
     1
102
RTVSPropertyOp7
 70
     1
102
RTVSPropertyOp8
 70
     1
102
RTVSPropertyOp9
 70
     1
102
RTVSPropertyOp10
 70
     1
102
RTVSPropertyOp11
 70
     1
102
RTVSPropertyOp12
 70
     1
102
RTVSPropertyOp13
 70
     1
102
RTVSPropertyOp14
 70
     1
102
RTVSPropertyOp15
 70
     1
102
RTVSPropertyOp16
 70
     1
102
RTVSPropertyOp17
 70
     1
102
RTVSPropertyOp18
 70
     1
102
RTVSPropertyOp19
 70
     1
102
RTVSPropertyOp20
 70
     1
102
RTVSPropertyOp21
 70
     1
102
RTVSPropertyOp22
 70
     1
102
RTVSPropertyOp23
 70
     1
102
RTVSPropertyOp24
 70
     1
102
RTVSPropertyOp25
 70
     1
102
RTVSPropertyOp26
 70
     1
102
RTVSPropertyOp27
 70
     1
102
RTVSPropertyOp28
 70
     1
102
RTVSPropertyOp29
 70
     1
102
RTVSPropertyOp30
 70
     1
102
RTVSPropertyOp31
 70
     1
102
RTVSPropertyOp32
 70
     1
102
RTVSPropertyOp33
 70
     1
102
RTVSPropertyOp34
 70
     1
102
RTVSPropertyOp35
 70
     1
102
RTVSPropertyOp36
 70
     1
102
RTVSPropertyOp37
 70
     1
102
RTVSPropertyOp38
 70
     1
102
RTVSPropertyOp39
 70
     1
102
RTVSPropertyOp40
 70
     1
102
RTVSPropertyOp41
 70
     1
102
RTVSPropertyOp42
 70
     1
102
RTVSPropertyOp43
 70
     1
102
RTVSPropertyOp44
 70
     1
102
RTVSPropertyOp45
 70
     1
102
RTVSPropertyOp46
 70
     1
102
RTVSPropertyOp47
 70
     1
102
RTVSPropertyOp48
 70
     1
102
RTVSPropertyOp49
 70
     1
102
RTVSPropertyOp50
 70
     1
102
RTVSPropertyOp51
 70
     0
102
RTVSPropertyOp52
 70
     0
102
RTVSPropertyOp53
 70
     1
102
RTVSPropertyOp54
 70
     1
102
RTVSPropertyOp55
 70
     1
102
RTVSPropertyOp56
 70
     1
102
RTVSPropertyOp57
 70
     1
102
RTVSPropertyOp58
 70
     1
102
RTVSPropertyOp59
 70
     1
102
RTVSPropertyOp60
 70
     1
102
RTVSPropertyOp61
 70
     1
102
RTVSPropertyOp62
 70
     1
  0
XRECORD
  5
598
102
{ACAD_REACTORS
330
597
102
}
330
597
100
AcDbXrecord
280
     1
102
RTVSPost2010Prop28
280
     0
102
RTVSPost2010PropOp28
 70
     1
102
RTVSPost2010Prop29
280
     1
102
RTVSPost2010PropOp29
 70
     1
102
RTVSPost2010Prop30
280
     1
102
RTVSPost2010PropOp30
 70
     1
102
RTVSPost2010Prop31
280
     0
102
RTVSPost2010PropOp31
 70
     1
102
RTVSPost2010Prop32
280
     0
102
RTVSPost2010PropOp32
 70
     1
102
RTVSPost2010Prop33
280
     0
102
RTVSPost2010PropOp33
 70
     1
102
RTVSPost2010Prop34
280
     0
102
RTVSPost2010PropOp34
 70
     1
102
RTVSPost2010Prop35
280
     0
102
RTVSPost2010PropOp35
 70
     1
102
RTVSPost2010Prop36
280
     0
102
RTVSPost2010PropOp36
 70
     1
102
RTVSPost2010Prop37
 90
       50
102
RTVSPost2010PropOp37
 70
     1
102
RTVSPost2010Prop38
140
0.0
102
RTVSPost2010PropOp38
 70
     1
102
RTVSPost2010Prop39
140
1.0
102
RTVSPost2010PropOp39
 70
     1
102
RTVSPost2010Prop40
 90
        0
102
RTVSPost2010PropOp40
 70
     1
102
RTVSPost2010Prop41ColorIndex
 90
       18
102
RTVSPost2010Prop41ColorRGB
 90
        0
102
RTVSPost2010PropOp41
 70
     1
102
RTVSPost2010Prop42
 90
       50
102
RTVSPost2010PropOp42
 70
     1
102
RTVSPost2010Prop43
 90
        3
102
RTVSPost2010PropOp43
 70
     1
102
RTVSPost2010Prop44ColorIndex
 90
        5
102
RTVSPost2010Prop44ColorRGB
 90
      255
102
RTVSPost2010PropOp44
 70
     1
102
RTVSPost2010Prop45
280
     0
102
RTVSPost2010PropOp45
 70
     1
102
RTVSPost2010Prop46
 90
       50
102
RTVSPost2010PropOp46
 70
     1
102
RTVSPost2010Prop47
 90
       50
102
RTVSPost2010PropOp47
 70
     1
102
RTVSPost2010Prop48
 90
       50
102
RTVSPost2010PropOp48
 70
     1
102
RTVSPost2010Prop49
280
     0
102
RTVSPost2010PropOp49
 70
     1
102
RTVSPost2010Prop50
 90
       50
102
RTVSPost2010PropOp50
 70
     1
102
RTVSPost2010Prop51ColorIndex
 90
      256
102
RTVSPost2010Prop51ColorRGB
 90
-16777216
102
RTVSPost2010PropOp51
 70
     0
102
RTVSPost2010Prop52
140
1.0
102
RTVSPost2010PropOp52
 70
     0
102
RTVSPost2010Prop53
 90
        2
102
RTVSPost2010PropOp53
 70
     1
102
RTVSPost2010Prop54
  1
strokes_ogs.tif
102
RTVSPost2010PropOp54
 70
     1
102
RTVSPost2010Prop55
280
     0
102
RTVSPost2010PropOp55
 70
     1
102
RTVSPost2010Prop56
140
1.0
102
RTVSPost2010PropOp56
 70
     1
102
RTVSPost2010Prop57
140
1.0
102
RTVSPost2010PropOp57
 70
     1
102
RTVSPropertyOp0
 70
     1
102
RTVSPropertyOp1
 70
     1
102
RTVSPropertyOp2
 70
     1
102
RTVSPropertyOp3
 70
     1
102
RTVSPropertyOp4
 70
     1
102
RTVSPropertyOp5
 70
     1
102
RTVSPropertyOp6
 70
     1
102
RTVSPropertyOp7
 70
     1
102
RTVSPropertyOp8
 70
     1
102
RTVSPropertyOp9
 70
     1
102
RTVSPropertyOp10
 70
     1
102
RTVSPropertyOp11
 70
     1
102
RTVSPropertyOp12
 70
     1
102
RTVSPropertyOp13
 70
     1
102
RTVSPropertyOp14
 70
     1
102
RTVSPropertyOp15
 70
     1
102
RTVSPropertyOp16
 70
     1
102
RTVSPropertyOp17
 70
     1
102
RTVSPropertyOp18
 70
     1
102
RTVSPropertyOp19
 70
     1
102
RTVSPropertyOp20
 70
     1
102
RTVSPropertyOp21
 70
     1
102
RTVSPropertyOp22
 70
     1
102
RTVSPropertyOp23
 70
     1
102
RTVSPropertyOp24
 70
     1
102
RTVSPropertyOp25
 70
     1
102
RTVSPropertyOp26
 70
     1
102
RTVSPropertyOp27
 70
     1
102
RTVSPropertyOp28
 70
     1
102
RTVSPropertyOp29
 70
     1
102
RTVSPropertyOp30
 70
     1
102
RTVSPropertyOp31
 70
     1
102
RTVSPropertyOp32
 70
     1
102
RTVSPropertyOp33
 70
     1
102
RTVSPropertyOp34
 70
     1
102
RTVSPropertyOp35
 70
     1
102
RTVSPropertyOp36
 70
     1
102
RTVSPropertyOp37
 70
     1
102
RTVSPropertyOp38
 70
     1
102
RTVSPropertyOp39
 70
     1
102
RTVSPropertyOp40
 70
     1
102
RTVSPropertyOp41
 70
     1
102
RTVSPropertyOp42
 70
     1
102
RTVSPropertyOp43
 70
     1
102
RTVSPropertyOp44
 70
     1
102
RTVSPropertyOp45
 70
     1
102
RTVSPropertyOp46
 70
     1
102
RTVSPropertyOp47
 70
     1
102
RTVSPropertyOp48
 70
     1
102
RTVSPropertyOp49
 70
     1
102
RTVSPropertyOp50
 70
     1
102
RTVSPropertyOp51
 70
     0
102
RTVSPropertyOp52
 70
     0
102
RTVSPropertyOp53
 70
     1
102
RTVSPropertyOp54
 70
     1
102
RTVSPropertyOp55
 70
     1
102
RTVSPropertyOp56
 70
     1
102
RTVSPropertyOp57
 70
     1
102
RTVSPropertyOp58
 70
     1
102
RTVSPropertyOp59
 70
     1
102
RTVSPropertyOp60
 70
     1
102
RTVSPropertyOp61
 70
     1
102
RTVSPropertyOp62
 70
     1
  0
XRECORD
  5
58C
102
{ACAD_REACTORS
330
58B
102
}
330
58B
100
AcDbXrecord
280
     1
102
RTVSPost2010Prop28
280
     0
102
RTVSPost2010PropOp28
 70
     1
102
RTVSPost2010Prop29
280
     1
102
RTVSPost2010PropOp29
 70
     1
102
RTVSPost2010Prop30
280
     1
102
RTVSPost2010PropOp30
 70
     1
102
RTVSPost2010Prop31
280
     0
102
RTVSPost2010PropOp31
 70
     1
102
RTVSPost2010Prop32
280
     0
102
RTVSPost2010PropOp32
 70
     1
102
RTVSPost2010Prop33
280
     0
102
RTVSPost2010PropOp33
 70
     1
102
RTVSPost2010Prop34
280
     0
102
RTVSPost2010PropOp34
 70
     1
102
RTVSPost2010Prop35
280
     0
102
RTVSPost2010PropOp35
 70
     1
102
RTVSPost2010Prop36
280
     0
102
RTVSPost2010PropOp36
 70
     1
102
RTVSPost2010Prop37
 90
       50
102
RTVSPost2010PropOp37
 70
     1
102
RTVSPost2010Prop38
140
0.0
102
RTVSPost2010PropOp38
 70
     1
102
RTVSPost2010Prop39
140
1.0
102
RTVSPost2010PropOp39
 70
     1
102
RTVSPost2010Prop40
 90
        0
102
RTVSPost2010PropOp40
 70
     1
102
RTVSPost2010Prop41ColorIndex
 90
       18
102
RTVSPost2010Prop41ColorRGB
 90
        0
102
RTVSPost2010PropOp41
 70
     1
102
RTVSPost2010Prop42
 90
       50
102
RTVSPost2010PropOp42
 70
     1
102
RTVSPost2010Prop43
 90
        3
102
RTVSPost2010PropOp43
 70
     1
102
RTVSPost2010Prop44ColorIndex
 90
        5
102
RTVSPost2010Prop44ColorRGB
 90
      255
102
RTVSPost2010PropOp44
 70
     1
102
RTVSPost2010Prop45
280
     0
102
RTVSPost2010PropOp45
 70
     1
102
RTVSPost2010Prop46
 90
       50
102
RTVSPost2010PropOp46
 70
     1
102
RTVSPost2010Prop47
 90
       50
102
RTVSPost2010PropOp47
 70
     1
102
RTVSPost2010Prop48
 90
       50
102
RTVSPost2010PropOp48
 70
     1
102
RTVSPost2010Prop49
280
     0
102
RTVSPost2010PropOp49
 70
     1
102
RTVSPost2010Prop50
 90
       50
102
RTVSPost2010PropOp50
 70
     1
102
RTVSPost2010Prop51ColorIndex
 90
      256
102
RTVSPost2010Prop51ColorRGB
 90
-16777216
102
RTVSPost2010PropOp51
 70
     0
102
RTVSPost2010Prop52
140
1.0
102
RTVSPost2010PropOp52
 70
     0
102
RTVSPost2010Prop53
 90
        2
102
RTVSPost2010PropOp53
 70
     1
102
RTVSPost2010Prop54
  1
strokes_ogs.tif
102
RTVSPost2010PropOp54
 70
     1
102
RTVSPost2010Prop55
280
     0
102
RTVSPost2010PropOp55
 70
     1
102
RTVSPost2010Prop56
140
1.0
102
RTVSPost2010PropOp56
 70
     1
102
RTVSPost2010Prop57
140
1.0
102
RTVSPost2010PropOp57
 70
     1
102
RTVSPropertyOp0
 70
     1
102
RTVSPropertyOp1
 70
     1
102
RTVSPropertyOp2
 70
     1
102
RTVSPropertyOp3
 70
     1
102
RTVSPropertyOp4
 70
     1
102
RTVSPropertyOp5
 70
     1
102
RTVSPropertyOp6
 70
     1
102
RTVSPropertyOp7
 70
     1
102
RTVSPropertyOp8
 70
     1
102
RTVSPropertyOp9
 70
     1
102
RTVSPropertyOp10
 70
     1
102
RTVSPropertyOp11
 70
     1
102
RTVSPropertyOp12
 70
     1
102
RTVSPropertyOp13
 70
     1
102
RTVSPropertyOp14
 70
     1
102
RTVSPropertyOp15
 70
     1
102
RTVSPropertyOp16
 70
     1
102
RTVSPropertyOp17
 70
     1
102
RTVSPropertyOp18
 70
     1
102
RTVSPropertyOp19
 70
     1
102
RTVSPropertyOp20
 70
     1
102
RTVSPropertyOp21
 70
     1
102
RTVSPropertyOp22
 70
     1
102
RTVSPropertyOp23
 70
     1
102
RTVSPropertyOp24
 70
     1
102
RTVSPropertyOp25
 70
     1
102
RTVSPropertyOp26
 70
     1
102
RTVSPropertyOp27
 70
     1
102
RTVSPropertyOp28
 70
     1
102
RTVSPropertyOp29
 70
     1
102
RTVSPropertyOp30
 70
     1
102
RTVSPropertyOp31
 70
     1
102
RTVSPropertyOp32
 70
     1
102
RTVSPropertyOp33
 70
     1
102
RTVSPropertyOp34
 70
     1
102
RTVSPropertyOp35
 70
     1
102
RTVSPropertyOp36
 70
     1
102
RTVSPropertyOp37
 70
     1
102
RTVSPropertyOp38
 70
     1
102
RTVSPropertyOp39
 70
     1
102
RTVSPropertyOp40
 70
     1
102
RTVSPropertyOp41
 70
     1
102
RTVSPropertyOp42
 70
     1
102
RTVSPropertyOp43
 70
     1
102
RTVSPropertyOp44
 70
     1
102
RTVSPropertyOp45
 70
     1
102
RTVSPropertyOp46
 70
     1
102
RTVSPropertyOp47
 70
     1
102
RTVSPropertyOp48
 70
     1
102
RTVSPropertyOp49
 70
     1
102
RTVSPropertyOp50
 70
     1
102
RTVSPropertyOp51
 70
     0
102
RTVSPropertyOp52
 70
     0
102
RTVSPropertyOp53
 70
     1
102
RTVSPropertyOp54
 70
     1
102
RTVSPropertyOp55
 70
     1
102
RTVSPropertyOp56
 70
     1
102
RTVSPropertyOp57
 70
     1
102
RTVSPropertyOp58
 70
     1
102
RTVSPropertyOp59
 70
     1
102
RTVSPropertyOp60
 70
     1
102
RTVSPropertyOp61
 70
     1
102
RTVSPropertyOp62
 70
     1
  0
XRECORD
  5
5A4
102
{ACAD_REACTORS
330
5A3
102
}
330
5A3
100
AcDbXrecord
280
     1
102
RTVSPost2010Prop28
280
     0
102
RTVSPost2010PropOp28
 70
     1
102
RTVSPost2010Prop29
280
     1
102
RTVSPost2010PropOp29
 70
     1
102
RTVSPost2010Prop30
280
     1
102
RTVSPost2010PropOp30
 70
     1
102
RTVSPost2010Prop31
280
     0
102
RTVSPost2010PropOp31
 70
     1
102
RTVSPost2010Prop32
280
     0
102
RTVSPost2010PropOp32
 70
     1
102
RTVSPost2010Prop33
280
     0
102
RTVSPost2010PropOp33
 70
     1
102
RTVSPost2010Prop34
280
     0
102
RTVSPost2010PropOp34
 70
     1
102
RTVSPost2010Prop35
280
     0
102
RTVSPost2010PropOp35
 70
     1
102
RTVSPost2010Prop36
280
     0
102
RTVSPost2010PropOp36
 70
     1
102
RTVSPost2010Prop37
 90
       50
102
RTVSPost2010PropOp37
 70
     1
102
RTVSPost2010Prop38
140
0.0
102
RTVSPost2010PropOp38
 70
     1
102
RTVSPost2010Prop39
140
1.0
102
RTVSPost2010PropOp39
 70
     1
102
RTVSPost2010Prop40
 90
        0
102
RTVSPost2010PropOp40
 70
     1
102
RTVSPost2010Prop41ColorIndex
 90
       18
102
RTVSPost2010Prop41ColorRGB
 90
        0
102
RTVSPost2010PropOp41
 70
     1
102
RTVSPost2010Prop42
 90
       50
102
RTVSPost2010PropOp42
 70
     1
102
RTVSPost2010Prop43
 90
        3
102
RTVSPost2010PropOp43
 70
     1
102
RTVSPost2010Prop44ColorIndex
 90
        5
102
RTVSPost2010Prop44ColorRGB
 90
      255
102
RTVSPost2010PropOp44
 70
     1
102
RTVSPost2010Prop45
280
     0
102
RTVSPost2010PropOp45
 70
     1
102
RTVSPost2010Prop46
 90
       50
102
RTVSPost2010PropOp46
 70
     1
102
RTVSPost2010Prop47
 90
       50
102
RTVSPost2010PropOp47
 70
     1
102
RTVSPost2010Prop48
 90
       50
102
RTVSPost2010PropOp48
 70
     1
102
RTVSPost2010Prop49
280
     0
102
RTVSPost2010PropOp49
 70
     1
102
RTVSPost2010Prop50
 90
       50
102
RTVSPost2010PropOp50
 70
     1
102
RTVSPost2010Prop51ColorIndex
 90
      256
102
RTVSPost2010Prop51ColorRGB
 90
-16777216
102
RTVSPost2010PropOp51
 70
     0
102
RTVSPost2010Prop52
140
1.0
102
RTVSPost2010PropOp52
 70
     0
102
RTVSPost2010Prop53
 90
        2
102
RTVSPost2010PropOp53
 70
     1
102
RTVSPost2010Prop54
  1
strokes_ogs.tif
102
RTVSPost2010PropOp54
 70
     1
102
RTVSPost2010Prop55
280
     0
102
RTVSPost2010PropOp55
 70
     1
102
RTVSPost2010Prop56
140
1.0
102
RTVSPost2010PropOp56
 70
     1
102
RTVSPost2010Prop57
140
1.0
102
RTVSPost2010PropOp57
 70
     1
102
RTVSPropertyOp0
 70
     1
102
RTVSPropertyOp1
 70
     1
102
RTVSPropertyOp2
 70
     1
102
RTVSPropertyOp3
 70
     1
102
RTVSPropertyOp4
 70
     1
102
RTVSPropertyOp5
 70
     1
102
RTVSPropertyOp6
 70
     1
102
RTVSPropertyOp7
 70
     1
102
RTVSPropertyOp8
 70
     1
102
RTVSPropertyOp9
 70
     1
102
RTVSPropertyOp10
 70
     1
102
RTVSPropertyOp11
 70
     1
102
RTVSPropertyOp12
 70
     1
102
RTVSPropertyOp13
 70
     1
102
RTVSPropertyOp14
 70
     1
102
RTVSPropertyOp15
 70
     1
102
RTVSPropertyOp16
 70
     1
102
RTVSPropertyOp17
 70
     1
102
RTVSPropertyOp18
 70
     1
102
RTVSPropertyOp19
 70
     1
102
RTVSPropertyOp20
 70
     1
102
RTVSPropertyOp21
 70
     1
102
RTVSPropertyOp22
 70
     1
102
RTVSPropertyOp23
 70
     1
102
RTVSPropertyOp24
 70
     1
102
RTVSPropertyOp25
 70
     1
102
RTVSPropertyOp26
 70
     1
102
RTVSPropertyOp27
 70
     1
102
RTVSPropertyOp28
 70
     1
102
RTVSPropertyOp29
 70
     1
102
RTVSPropertyOp30
 70
     1
102
RTVSPropertyOp31
 70
     1
102
RTVSPropertyOp32
 70
     1
102
RTVSPropertyOp33
 70
     1
102
RTVSPropertyOp34
 70
     1
102
RTVSPropertyOp35
 70
     1
102
RTVSPropertyOp36
 70
     1
102
RTVSPropertyOp37
 70
     1
102
RTVSPropertyOp38
 70
     1
102
RTVSPropertyOp39
 70
     1
102
RTVSPropertyOp40
 70
     1
102
RTVSPropertyOp41
 70
     1
102
RTVSPropertyOp42
 70
     1
102
RTVSPropertyOp43
 70
     1
102
RTVSPropertyOp44
 70
     1
102
RTVSPropertyOp45
 70
     1
102
RTVSPropertyOp46
 70
     1
102
RTVSPropertyOp47
 70
     1
102
RTVSPropertyOp48
 70
     1
102
RTVSPropertyOp49
 70
     1
102
RTVSPropertyOp50
 70
     1
102
RTVSPropertyOp51
 70
     0
102
RTVSPropertyOp52
 70
     0
102
RTVSPropertyOp53
 70
     1
102
RTVSPropertyOp54
 70
     1
102
RTVSPropertyOp55
 70
     1
102
RTVSPropertyOp56
 70
     1
102
RTVSPropertyOp57
 70
     1
102
RTVSPropertyOp58
 70
     1
102
RTVSPropertyOp59
 70
     1
102
RTVSPropertyOp60
 70
     1
102
RTVSPropertyOp61
 70
     1
102
RTVSPropertyOp62
 70
     1
  0
ENDSEC
  0
EOF
