  0
SECTION
  2
HEADER
  9
$ACADVER
  1
AC1015
  9
$ACADMAINTVER
 70
    20
  9
$DWGCODEPAGE
  3
ANSI_932
  9
$INSBASE
 10
0.0
 20
0.0
 30
0.0
  9
$EXTMIN
 10
9.69485799999998
 20
9.999999999999998
 30
0.0
  9
$EXTMAX
 10
484.694877
 20
326.1011139999999
 30
0.0
  9
$LIMMIN
 10
0.0
 20
0.0
  9
$LIMMAX
 10
495.0
 20
341.25
  9
$ORTHOMODE
 70
     1
  9
$REGENMODE
 70
     1
  9
$FILLMODE
 70
     1
  9
$QTEXTMODE
 70
     0
  9
$MIRRTEXT
 70
     1
  9
$LTSCALE
 40
20.0
  9
$ATTMODE
 70
     1
  9
$TEXTSIZE
 40
5.0
  9
$TRACEWID
 40
1.0
  9
$TEXTSTYLE
  7
STANDARD
  9
$CLAYER
  8
0
  9
$CELTYPE
  6
BYLAYER
  9
$CECOLOR
 62
   256
  9
$CELTSCALE
 40
1.0
  9
$DISPSILH
 70
     0
  9
$DIMSCALE
 40
1.0
  9
$DIMASZ
 40
3.0
  9
$DIMEXO
 40
1.0
  9
$DIMDLI
 40
10.0
  9
$DIMRND
 40
0.0
  9
$DIMDLE
 40
0.0
  9
$DIMEXE
 40
1.0
  9
$DIMTP
 40
0.0
  9
$DIMTM
 40
0.0
  9
$DIMTXT
 40
3.2
  9
$DIMCEN
 40
0.0
  9
$DIMTSZ
 40
0.0
  9
$DIMTOL
 70
     0
  9
$DIMLIM
 70
     0
  9
$DIMTIH
 70
     0
  9
$DIMTOH
 70
     0
  9
$DIMSE1
 70
     0
  9
$DIMSE2
 70
     0
  9
$DIMTAD
 70
     3
  9
$DIMZIN
 70
     8
  9
$DIMBLK
  1

  9
$DIMASO
 70
     1
  9
$DIMSHO
 70
     1
  9
$DIMPOST
  1

  9
$DIMAPOST
  1

  9
$DIMALT
 70
     0
  9
$DIMALTD
 70
     2
  9
$DIMALTF
 40
25.4
  9
$DIMLFAC
 40
1.0
  9
$DIMTOFL
 70
     1
  9
$DIMTVP
 40
0.0
  9
$DIMTIX
 70
     0
  9
$DIMSOXD
 70
     0
  9
$DIMSAH
 70
     1
  9
$DIMBLK1
  1

  9
$DIMBLK2
  1

  9
$DIMSTYLE
  2
STANDARD
  9
$DIMCLRD
 70
     0
  9
$DIMCLRE
 70
     0
  9
$DIMCLRT
 70
     0
  9
$DIMTFAC
 40
1.0
  9
$DIMGAP
 40
1.0
  9
$DIMJUST
 70
     0
  9
$DIMSD1
 70
     0
  9
$DIMSD2
 70
     0
  9
$DIMTOLJ
 70
     1
  9
$DIMTZIN
 70
     0
  9
$DIMALTZ
 70
     0
  9
$DIMALTTZ
 70
     0
  9
$DIMUPT
 70
     0
  9
$DIMDEC
 70
     4
  9
$DIMTDEC
 70
     4
  9
$DIMALTU
 70
     2
  9
$DIMALTTD
 70
     2
  9
$DIMTXSTY
  7
STANDARD
  9
$DIMAUNIT
 70
     0
  9
$DIMADEC
 70
     0
  9
$DIMALTRND
 40
0.0
  9
$DIMAZIN
 70
     0
  9
$DIMDSEP
 70
    46
  9
$DIMATFIT
 70
     3
  9
$DIMFRAC
 70
     0
  9
$DIMLDRBLK
  1

  9
$DIMLUNIT
 70
     2
  9
$DIMLWD
 70
    -2
  9
$DIMLWE
 70
    -2
  9
$DIMTMOVE
 70
     0
  9
$LUNITS
 70
     2
  9
$LUPREC
 70
     4
  9
$SKETCHINC
 40
1.0
  9
$FILLETRAD
 40
1.6
  9
$AUNITS
 70
     0
  9
$AUPREC
 70
     2
  9
$MENU
  1
.
  9
$ELEVATION
 40
0.0
  9
$PELEVATION
 40
0.0
  9
$THICKNESS
 40
0.0
  9
$LIMCHECK
 70
     0
  9
$CHAMFERA
 40
10.0
  9
$CHAMFERB
 40
10.0
  9
$CHAMFERC
 40
0.0
  9
$CHAMFERD
 40
0.0
  9
$SKPOLY
 70
     0
  9
$TDCREATE
 40
2450980.386470023
  9
$TDUCREATE
 40
2450980.011470023
  9
$TDUPDATE
 40
2457192.600742084
  9
$TDUUPDATE
 40
2457192.225742084
  9
$TDINDWG
 40
0.0000135532
  9
$TDUSRTIMER
 40
0.0000132523
  9
$USRTIMER
 70
     1
  9
$ANGBASE
 50
0.0
  9
$ANGDIR
 70
     0
  9
$PDMODE
 70
     0
  9
$PDSIZE
 40
0.0
  9
$PLINEWID
 40
0.0
  9
$SPLFRAME
 70
     0
  9
$SPLINETYPE
 70
     6
  9
$SPLINESEGS
 70
     8
  9
$HANDSEED
  5
9A1C
  9
$SURFTAB1
 70
     6
  9
$SURFTAB2
 70
     6
  9
$SURFTYPE
 70
     6
  9
$SURFU
 70
     6
  9
$SURFV
 70
     6
  9
$UCSBASE
  2

  9
$UCSNAME
  2

  9
$UCSORG
 10
0.0
 20
0.0
 30
0.0
  9
$UCSXDIR
 10
1.0
 20
0.0
 30
0.0
  9
$UCSYDIR
 10
0.0
 20
1.0
 30
0.0
  9
$UCSORTHOREF
  2

  9
$UCSORTHOVIEW
 70
     0
  9
$UCSORGTOP
 10
0.0
 20
0.0
 30
0.0
  9
$UCSORGBOTTOM
 10
0.0
 20
0.0
 30
0.0
  9
$UCSORGLEFT
 10
0.0
 20
0.0
 30
0.0
  9
$UCSORGRIGHT
 10
0.0
 20
0.0
 30
0.0
  9
$UCSORGFRONT
 10
0.0
 20
0.0
 30
0.0
  9
$UCSORGBACK
 10
0.0
 20
0.0
 30
0.0
  9
$PUCSBASE
  2

  9
$PUCSNAME
  2

  9
$PUCSORG
 10
0.0
 20
0.0
 30
0.0
  9
$PUCSXDIR
 10
1.0
 20
0.0
 30
0.0
  9
$PUCSYDIR
 10
0.0
 20
1.0
 30
0.0
  9
$PUCSORTHOREF
  2

  9
$PUCSORTHOVIEW
 70
     0
  9
$PUCSORGTOP
 10
0.0
 20
0.0
 30
0.0
  9
$PUCSORGBOTTOM
 10
0.0
 20
0.0
 30
0.0
  9
$PUCSORGLEFT
 10
0.0
 20
0.0
 30
0.0
  9
$PUCSORGRIGHT
 10
0.0
 20
0.0
 30
0.0
  9
$PUCSORGFRONT
 10
0.0
 20
0.0
 30
0.0
  9
$PUCSORGBACK
 10
0.0
 20
0.0
 30
0.0
  9
$USERI1
 70
     0
  9
$USERI2
 70
     0
  9
$USERI3
 70
     0
  9
$USERI4
 70
     0
  9
$USERI5
 70
     0
  9
$USERR1
 40
0.0
  9
$USERR2
 40
0.0
  9
$USERR3
 40
0.0
  9
$USERR4
 40
0.0
  9
$USERR5
 40
0.0
  9
$WORLDVIEW
 70
     1
  9
$SHADEDGE
 70
     3
  9
$SHADEDIF
 70
    70
  9
$TILEMODE
 70
     1
  9
$MAXACTVP
 70
    16
  9
$PINSBASE
 10
0.0
 20
0.0
 30
0.0
  9
$PLIMCHECK
 70
     0
  9
$PEXTMIN
 10
1.000000000000000E+20
 20
1.000000000000000E+20
 30
1.000000000000000E+20
  9
$PEXTMAX
 10
-1.000000000000000E+20
 20
-1.000000000000000E+20
 30
-1.000000000000000E+20
  9
$PLIMMIN
 10
0.0
 20
0.0
  9
$PLIMMAX
 10
420.0
 20
297.0
  9
$UNITMODE
 70
     0
  9
$VISRETAIN
 70
     0
  9
$PLINEGEN
 70
     0
  9
$PSLTSCALE
 70
     0
  9
$TREEDEPTH
 70
  3020
  9
$CMLSTYLE
  2
STANDARD
  9
$CMLJUST
 70
     0
  9
$CMLSCALE
 40
1.0
  9
$PROXYGRAPHICS
 70
     1
  9
$MEASUREMENT
 70
     0
  9
$CELWEIGHT
370
    -1
  9
$ENDCAPS
280
     0
  9
$JOINSTYLE
280
     0
  9
$LWDISPLAY
290
     0
  9
$INSUNITS
 70
     0
  9
$HYPERLINKBASE
  1

  9
$STYLESHEET
  1

  9
$XEDIT
290
     1
  9
$CEPSNTYPE
380
     0
  9
$PSTYLEMODE
290
     1
  9
$FINGERPRINTGUID
  2
{E566E151-8AF7-4266-BF94-31FF8C25E760}
  9
$VERSIONGUID
  2
{F58E9104-01BF-4FC3-AC12-D1AD09187E3C}
  9
$EXTNAMES
290
     1
  9
$PSVPSCALE
 40
0.0
  9
$OLESTARTUP
290
     0
  0
ENDSEC
  0
SECTION
  2
CLASSES
  0
CLASS
  1
ACDBDICTIONARYWDFLT
  2
AcDbDictionaryWithDefault
  3
ObjectDBX Classes
 90
        0
280
     0
281
     0
  0
CLASS
  1
ACDBPLACEHOLDER
  2
AcDbPlaceHolder
  3
ObjectDBX Classes
 90
        0
280
     0
281
     0
  0
CLASS
  1
LAYOUT
  2
AcDbLayout
  3
ObjectDBX Classes
 90
        0
280
     0
281
     0
  0
CLASS
  1
DICTIONARYVAR
  2
AcDbDictionaryVar
  3
ObjectDBX Classes
 90
        0
280
     0
281
     0
  0
CLASS
  1
MATERIAL
  2
AcDbMaterial
  3
ObjectDBX Classes
 90
     1153
280
     0
281
     0
  0
CLASS
  1
VISUALSTYLE
  2
AcDbVisualStyle
  3
ObjectDBX Classes
 90
     4095
280
     0
281
     0
  0
CLASS
  1
TABLESTYLE
  2
AcDbTableStyle
  3
ObjectDBX Classes
 90
     4095
280
     0
281
     0
  0
CLASS
  1
SCALE
  2
AcDbScale
  3
ObjectDBX Classes
 90
     1153
280
     0
281
     0
  0
CLASS
  1
MLEADERSTYLE
  2
AcDbMLeaderStyle
  3
ACDB_MLEADERSTYLE_CLASS
 90
     4095
280
     0
281
     0
  0
CLASS
  1
ACDBSECTIONVIEWSTYLE
  2
AcDbSectionViewStyle
  3
ObjectDBX Classes
 90
     1025
280
     0
281
     0
  0
CLASS
  1
ACDBDETAILVIEWSTYLE
  2
AcDbDetailViewStyle
  3
ObjectDBX Classes
 90
     1025
280
     0
281
     0
  0
CLASS
  1
CELLSTYLEMAP
  2
AcDbCellStyleMap
  3
ObjectDBX Classes
 90
     1152
280
     0
281
     0
  0
ENDSEC
  0
SECTION
  2
TABLES
  0
TABLE
  2
VPORT
  5
9743
330
0
100
AcDbSymbolTable
 70
     1
  0
VPORT
  5
9965
330
9743
100
AcDbSymbolTableRecord
100
AcDbViewportTableRecord
  2
*ACTIVE
 70
     0
 10
0.0
 20
0.0
 11
1.0
 21
1.0
 12
342.9451390336699
 22
168.0475052165827
 13
0.0
 23
0.0
 14
10.0
 24
10.0
 15
10.0
 25
10.0
 16
0.0
 26
0.0
 36
1.0
 17
0.0
 27
0.0
 37
0.0
 40
319.6563460491662
 41
1.899603698811096
 42
50.0
 43
0.0
 44
0.0
 50
0.0
 51
0.0
 71
     0
 72
   100
 73
     1
 74
     0
 75
     0
 76
     0
 77
     0
 78
     0
281
     0
 65
     1
110
0.0
120
0.0
130
0.0
111
1.0
121
0.0
131
0.0
112
0.0
122
1.0
132
0.0
 79
     0
146
0.0
1001
ACAD_NAV_VCDISPLAY
1070
     3
  0
ENDTAB
  0
TABLE
  2
LTYPE
  5
9740
330
0
100
AcDbSymbolTable
 70
     4
  0
LTYPE
  5
974E
330
9740
100
AcDbSymbolTableRecord
100
AcDbLinetypeTableRecord
  2
BYBLOCK
 70
     0
  3

 72
    65
 73
     0
 40
0.0
  0
LTYPE
  5
974F
330
9740
100
AcDbSymbolTableRecord
100
AcDbLinetypeTableRecord
  2
BYLAYER
 70
     0
  3

 72
    65
 73
     0
 40
0.0
  0
LTYPE
  5
9750
330
9740
100
AcDbSymbolTableRecord
100
AcDbLinetypeTableRecord
  2
CONTINUOUS
 70
     0
  3
Solid line
 72
    65
 73
     0
 40
0.0
  0
LTYPE
  5
975E
330
9740
100
AcDbSymbolTableRecord
100
AcDbLinetypeTableRecord
  2
DASHED
 70
     0
  3
__ __ __ __ __ __ __ __ __ __ __ __ __ __ __ __
 72
    65
 73
     2
 40
0.75
 49
0.5
 74
     0
 49
-0.25
 74
     0
  0
LTYPE
  5
975F
330
9740
100
AcDbSymbolTableRecord
100
AcDbLinetypeTableRecord
  2
CENTER
 70
     0
  3
____ _ ____ _ ____ _ ____ _ ____ _ ____ _ ____ 
 72
    65
 73
     4
 40
2.0
 49
1.25
 74
     0
 49
-0.25
 74
     0
 49
0.25
 74
     0
 49
-0.25
 74
     0
  0
LTYPE
  5
9760
330
9740
100
AcDbSymbolTableRecord
100
AcDbLinetypeTableRecord
  2
PHANTOM
 70
     0
  3
______  __  __  ______  __  __  ______  __  __ 
 72
    65
 73
     6
 40
2.5
 49
1.25
 74
     0
 49
-0.25
 74
     0
 49
0.25
 74
     0
 49
-0.25
 74
     0
 49
0.25
 74
     0
 49
-0.25
 74
     0
  0
ENDTAB
  0
TABLE
  2
LAYER
  5
973D
330
0
100
AcDbSymbolTable
 70
     8
  0
LAYER
  5
974B
102
{ACAD_XDICTIONARY
360
99C0
102
}
330
973D
100
AcDbSymbolTableRecord
100
AcDbLayerTableRecord
  2
0
 70
     0
 62
     7
  6
CONTINUOUS
370
    -3
390
996E
  0
LAYER
  5
9761
102
{ACAD_XDICTIONARY
360
99C2
102
}
330
973D
100
AcDbSymbolTableRecord
100
AcDbLayerTableRecord
  2
4
 70
     0
 62
     1
  6
CENTER
370
    -3
390
996E
  0
LAYER
  5
9762
102
{ACAD_XDICTIONARY
360
99C4
102
}
330
973D
100
AcDbSymbolTableRecord
100
AcDbLayerTableRecord
  2
5
 70
     0
 62
     6
  6
PHANTOM
370
    -3
390
996E
  0
LAYER
  5
9763
102
{ACAD_XDICTIONARY
360
99C6
102
}
330
973D
100
AcDbSymbolTableRecord
100
AcDbLayerTableRecord
  2
1
 70
     0
 62
     7
  6
CONTINUOUS
370
    -3
390
996E
  0
LAYER
  5
9764
102
{ACAD_XDICTIONARY
360
99C8
102
}
330
973D
100
AcDbSymbolTableRecord
100
AcDbLayerTableRecord
  2
2
 70
     0
 62
     4
  6
CONTINUOUS
370
    -3
390
996E
  0
LAYER
  5
9765
102
{ACAD_XDICTIONARY
360
99CA
102
}
330
973D
100
AcDbSymbolTableRecord
100
AcDbLayerTableRecord
  2
3
 70
     0
 62
     2
  6
DASHED
370
    -3
390
996E
  0
LAYER
  5
9766
102
{ACAD_XDICTIONARY
360
99CC
102
}
330
973D
100
AcDbSymbolTableRecord
100
AcDbLayerTableRecord
  2
6
 70
     0
 62
     5
  6
CONTINUOUS
370
    -3
390
996E
  0
LAYER
  5
9767
102
{ACAD_XDICTIONARY
360
99CE
102
}
330
973D
100
AcDbSymbolTableRecord
100
AcDbLayerTableRecord
  2
7
 70
     0
 62
     3
  6
CONTINUOUS
370
    -3
390
996E
  0
ENDTAB
  0
TABLE
  2
STYLE
  5
973E
330
0
100
AcDbSymbolTable
 70
     1
  0
STYLE
  5
974C
330
973E
100
AcDbSymbolTableRecord
100
AcDbTextStyleTableRecord
  2
STANDARD
 70
     0
 40
0.0
 41
1.0
 50
0.0
 71
     0
 42
5.0
  3
txt
  4

  0
ENDTAB
  0
TABLE
  2
VIEW
  5
9741
330
0
100
AcDbSymbolTable
 70
     0
  0
ENDTAB
  0
TABLE
  2
UCS
  5
9742
330
0
100
AcDbSymbolTable
 70
     0
  0
ENDTAB
  0
TABLE
  2
APPID
  5
9744
330
0
100
AcDbSymbolTable
 70
     3
  0
APPID
  5
974D
330
9744
100
AcDbSymbolTableRecord
100
AcDbRegAppTableRecord
  2
ACAD
 70
     0
  0
APPID
  5
99DA
330
9744
100
AcDbSymbolTableRecord
100
AcDbRegAppTableRecord
  2
ACAD_NAV_VCDISPLAY
 70
     0
  0
APPID
  5
9A13
330
9744
100
AcDbSymbolTableRecord
100
AcDbRegAppTableRecord
  2
ACAD_MLEADERVER
 70
     0
  0
ENDTAB
  0
TABLE
  2
DIMSTYLE
  5
9745
330
0
100
AcDbSymbolTable
 70
     1
100
AcDbDimStyleTable
 71
     0
  0
DIMSTYLE
105
9769
330
9745
100
AcDbSymbolTableRecord
100
AcDbDimStyleTableRecord
  2
STANDARD
 70
     0
 41
3.0
 42
1.0
 43
10.0
 44
1.0
 73
     0
 74
     0
 77
     3
 78
     8
140
3.2
141
0.0
147
1.0
172
     1
173
     1
284
     8
285
     8
286
     8
340
974C
  0
ENDTAB
  0
TABLE
  2
BLOCK_RECORD
  5
973C
330
0
100
AcDbSymbolTable
 70
     0
  0
BLOCK_RECORD
  5
9759
102
{ACAD_XDICTIONARY
360
9968
102
}
330
973C
100
AcDbSymbolTableRecord
100
AcDbBlockTableRecord
  2
*MODEL_SPACE
340
99BC
  0
BLOCK_RECORD
  5
9755
102
{ACAD_XDICTIONARY
360
9966
102
}
330
973C
100
AcDbSymbolTableRecord
100
AcDbBlockTableRecord
  2
*PAPER_SPACE
340
99BD
  0
ENDTAB
  0
ENDSEC
  0
SECTION
  2
BLOCKS
  0
BLOCK
  5
975A
330
9759
100
AcDbEntity
  8
0
100
AcDbBlockBegin
  2
*MODEL_SPACE
 70
     0
 10
0.0
 20
0.0
 30
0.0
  3
*MODEL_SPACE
  1

  0
ENDBLK
  5
975B
330
9759
100
AcDbEntity
  8
0
100
AcDbBlockEnd
  0
BLOCK
  5
9756
330
9755
100
AcDbEntity
 67
     1
  8
0
100
AcDbBlockBegin
  2
*PAPER_SPACE
 70
     0
 10
0.0
 20
0.0
 30
0.0
  3
*PAPER_SPACE
  1

  0
ENDBLK
  5
9757
330
9755
100
AcDbEntity
 67
     1
  8
0
100
AcDbBlockEnd
  0
ENDSEC
  0
SECTION
  2
ENTITIES
  0
TEXT
  5
9771
330
9759
100
AcDbEntity
  8
7
  6
Continuous
100
AcDbText
 10
10.0
 20
18.0
 30
0.0
 40
3.0
  1
TYPE No.TL-253-1
100
AcDbText
  0
TEXT
  5
9772
330
9759
100
AcDbEntity
  8
7
  6
Continuous
100
AcDbText
 10
10.0
 20
26.0
 30
0.0
 40
3.0
  1
CODE No.1711
100
AcDbText
  0
TEXT
  5
9773
330
9759
100
AcDbEntity
  8
1
  6
Continuous
100
AcDbText
 10
10.0
 20
10.0
 30
0.0
 40
1.399999999999999
  1
LAYER
100
AcDbText
  0
TEXT
  5
9774
330
9759
100
AcDbEntity
  8
1
  6
Continuous
100
AcDbText
 10
17.97951099999998
 20
10.04873699999998
 30
0.0
 40
1.399999999999999
  1
1
100
AcDbText
  0
TEXT
  5
9775
330
9759
100
AcDbEntity
  8
7
  6
Continuous
100
AcDbText
 10
29.97951099999999
 20
10.04873699999998
 30
0.0
 40
1.399999999999999
  1
7
100
AcDbText
  0
TEXT
  5
9776
330
9759
100
AcDbEntity
  8
4
  6
CENTER
100
AcDbText
 10
23.97951099999999
 20
10.04873699999998
 30
0.0
 40
1.399999999999999
  1
4
100
AcDbText
  0
TEXT
  5
9777
330
9759
100
AcDbEntity
  8
3
  6
DASHED
100
AcDbText
 10
21.979511
 20
10.04873699999998
 30
0.0
 40
1.399999999999999
  1
3
100
AcDbText
  0
TEXT
  5
9778
330
9759
100
AcDbEntity
  8
2
  6
Continuous
100
AcDbText
 10
19.97951099999999
 20
10.04873699999998
 30
0.0
 40
1.399999999999999
  1
2
100
AcDbText
  0
TEXT
  5
9779
330
9759
100
AcDbEntity
  8
6
  6
Continuous
100
AcDbText
 10
27.979511
 20
10.04873699999998
 30
0.0
 40
1.399999999999999
  1
6
100
AcDbText
  0
TEXT
  5
977A
330
9759
100
AcDbEntity
  8
5
  6
PHANTOM
100
AcDbText
 10
25.97951099999999
 20
10.04873699999998
 30
0.0
 40
1.399999999999999
  1
5
100
AcDbText
  0
LINE
  5
977B
330
9759
100
AcDbEntity
  8
1
  6
Continuous
100
AcDbLine
 10
216.798789
 20
188.861765
 30
0.0
 11
216.798789
 21
146.6117649999999
 31
0.0
  0
LINE
  5
977C
330
9759
100
AcDbEntity
  8
1
  6
Continuous
100
AcDbLine
 10
20.594863
 20
195.6117649999999
 30
0.0
 11
22.19486199999999
 21
195.6117649999999
 31
0.0
  0
LINE
  5
977D
330
9759
100
AcDbEntity
  8
1
  6
Continuous
100
AcDbLine
 10
206.198783
 20
175.011759
 30
0.0
 11
206.198783
 21
172.8500229999999
 31
0.0
  0
LINE
  5
977E
330
9759
100
AcDbEntity
  8
1
  6
Continuous
100
AcDbLine
 10
213.798789
 20
143.6117649999999
 30
0.0
 11
211.798789
 21
143.6117649999999
 31
0.0
  0
LINE
  5
977F
330
9759
100
AcDbEntity
  8
1
  6
Continuous
100
AcDbLine
 10
201.798789
 20
179.611765
 30
0.0
 11
201.798789
 21
129.720835
 31
0.0
  0
LINE
  5
9780
330
9759
100
AcDbEntity
  8
1
  6
Continuous
100
AcDbLine
 10
206.7987889999999
 20
138.6117649999999
 30
0.0
 11
206.7987889999999
 21
121.7684729999999
 31
0.0
  0
LINE
  5
9781
330
9759
100
AcDbEntity
  8
1
  6
Continuous
100
AcDbLine
 10
203.298789
 20
179.611765
 30
0.0
 11
201.798789
 21
179.611765
 31
0.0
  0
LINE
  5
9782
330
9759
100
AcDbEntity
  8
1
  6
Continuous
100
AcDbLine
 10
206.7987889999999
 20
121.7684729999999
 30
0.0
 11
205.69332
 21
120.6117499999999
 31
0.0
  0
LINE
  5
9783
330
9759
100
AcDbEntity
  8
4
  6
CENTER
100
AcDbLine
 10
211.798789
 20
153.611765
 30
0.0
 11
211.798789
 21
145.6117649999999
 31
0.0
  0
LINE
  5
9784
330
9759
100
AcDbEntity
  8
4
  6
CENTER
100
AcDbLine
 10
215.798789
 20
149.6117649999999
 30
0.0
 11
207.798789
 21
149.6117649999999
 31
0.0
  0
LINE
  5
9785
330
9759
100
AcDbEntity
  8
1
  6
Continuous
100
AcDbLine
 10
22.594863
 20
120.6117649999999
 30
0.0
 11
36.79486
 21
120.6117649999999
 31
0.0
  0
LINE
  5
9786
330
9759
100
AcDbEntity
  8
1
  6
Continuous
100
AcDbLine
 10
20.594863
 20
195.6117649999999
 30
0.0
 11
20.594863
 21
122.6117649999999
 31
0.0
  0
LINE
  5
9787
330
9759
100
AcDbEntity
  8
1
  6
Continuous
100
AcDbLine
 10
38.79485999999999
 20
195.6117649999999
 30
0.0
 11
38.79485999999999
 21
122.6117649999999
 31
0.0
  0
LINE
  5
9788
330
9759
100
AcDbEntity
  8
1
  6
Continuous
100
AcDbLine
 10
22.19486199999999
 20
195.6117649999999
 30
0.0
 11
22.19486199999999
 21
179.611765
 31
0.0
  0
LINE
  5
9789
330
9759
100
AcDbEntity
  8
1
  6
Continuous
100
AcDbLine
 10
37.194862
 20
195.6117649999999
 30
0.0
 11
37.194862
 21
179.611765
 31
0.0
  0
LINE
  5
978A
330
9759
100
AcDbEntity
  8
1
  6
Continuous
100
AcDbLine
 10
21.594863
 20
179.611765
 30
0.0
 11
37.79486
 21
179.611765
 31
0.0
  0
LINE
  5
978B
330
9759
100
AcDbEntity
  8
1
  6
Continuous
100
AcDbLine
 10
37.194862
 20
195.6117649999999
 30
0.0
 11
38.79485999999999
 21
195.6117649999999
 31
0.0
  0
LINE
  5
978C
330
9759
100
AcDbEntity
  8
4
  6
CENTER
100
AcDbLine
 10
40.944862
 20
189.6117649999999
 30
0.0
 11
18.444862
 21
189.6117649999999
 31
0.0
  0
LINE
  5
978D
330
9759
100
AcDbEntity
  8
1
  6
Continuous
100
AcDbLine
 10
23.694862
 20
129.720835
 30
0.0
 11
35.694862
 21
129.720835
 31
0.0
  0
LINE
  5
978E
330
9759
100
AcDbEntity
  8
1
  6
Continuous
100
AcDbLine
 10
38.79485999999999
 20
305.1011139999999
 30
0.0
 11
38.79485999999999
 21
313.1975499999999
 31
0.0
  0
LINE
  5
978F
330
9759
100
AcDbEntity
  8
1
  6
Continuous
100
AcDbLine
 10
20.594863
 20
305.1011139999999
 30
0.0
 11
20.594863
 21
313.1975499999999
 31
0.0
  0
LINE
  5
9790
330
9759
100
AcDbEntity
  8
1
  6
Continuous
100
AcDbLine
 10
37.19485999999999
 20
303.6011139999998
 30
0.0
 11
22.194863
 21
303.6011139999998
 31
0.0
  0
LINE
  5
9791
330
9759
100
AcDbEntity
  8
1
  6
Continuous
100
AcDbLine
 10
38.79485999999999
 20
318.601114
 30
0.0
 11
37.194862
 21
318.601114
 31
0.0
  0
LINE
  5
9792
330
9759
100
AcDbEntity
  8
1
  6
Continuous
100
AcDbLine
 10
22.19486199999999
 20
305.1011139999999
 30
0.0
 11
22.19486199999999
 21
313.1975499999999
 31
0.0
  0
LINE
  5
9793
330
9759
100
AcDbEntity
  8
1
  6
Continuous
100
AcDbLine
 10
37.194862
 20
305.1011139999999
 30
0.0
 11
37.194862
 21
313.1975499999999
 31
0.0
  0
LINE
  5
9794
330
9759
100
AcDbEntity
  8
1
  6
Continuous
100
AcDbLine
 10
22.19486199999999
 20
318.601114
 30
0.0
 11
20.594863
 21
318.601114
 31
0.0
  0
LINE
  5
9795
330
9759
100
AcDbEntity
  8
1
  6
Continuous
100
AcDbLine
 10
219.2987889999999
 20
195.6117649999999
 30
0.0
 11
219.2987889999999
 21
145.1117739999999
 31
0.0
  0
LINE
  5
9796
330
9759
100
AcDbEntity
  8
1
  6
Continuous
100
AcDbLine
 10
219.2987889999999
 20
195.6117649999999
 30
0.0
 11
216.4414889999999
 21
195.6117649999999
 31
0.0
  0
LINE
  5
9797
330
9759
100
AcDbEntity
  8
1
  6
Continuous
100
AcDbLine
 10
217.6987829999999
 20
174.611796
 30
0.0
 11
217.6987829999999
 21
145.111765
 31
0.0
  0
LINE
  5
9798
330
9759
100
AcDbEntity
  8
1
  6
Continuous
100
AcDbLine
 10
217.6987829999999
 20
174.6117649999999
 30
0.0
 11
216.798759
 21
175.3757119999999
 31
0.0
  0
LINE
  5
9799
330
9759
100
AcDbEntity
  8
4
  6
CENTER
100
AcDbLine
 10
209.2987889999998
 20
194.1117649999999
 30
0.0
 11
209.2987889999998
 21
185.1117649999999
 31
0.0
  0
LINE
  5
979A
330
9759
100
AcDbEntity
  8
1
  6
Continuous
100
AcDbLine
 10
217.6987889999999
 20
143.511774
 30
0.0
 11
210.8037939999999
 21
143.511774
 31
0.0
  0
LINE
  5
979B
330
9759
100
AcDbEntity
  8
1
  6
Continuous
100
AcDbLine
 10
217.6987829999999
 20
145.111765
 30
0.0
 11
216.3968419999999
 21
145.111765
 31
0.0
  0
LINE
  5
979C
330
9759
100
AcDbEntity
  8
1
  6
Continuous
100
AcDbLine
 10
22.394859
 20
195.6117649999999
 30
0.0
 11
36.994857
 21
195.6117649999999
 31
0.0
  0
LINE
  5
979D
330
9759
100
AcDbEntity
  8
1
  6
Continuous
100
AcDbLine
 10
36.994857
 20
195.6117649999999
 30
0.0
 11
36.994857
 21
179.611765
 31
0.0
  0
LINE
  5
979E
330
9759
100
AcDbEntity
  8
1
  6
Continuous
100
AcDbLine
 10
22.394859
 20
195.6117649999999
 30
0.0
 11
22.394859
 21
179.611765
 31
0.0
  0
LINE
  5
979F
330
9759
100
AcDbEntity
  8
1
  6
Continuous
100
AcDbLine
 10
23.994857
 20
195.6117649999999
 30
0.0
 11
23.994857
 21
179.611765
 31
0.0
  0
LINE
  5
97A0
330
9759
100
AcDbEntity
  8
1
  6
Continuous
100
AcDbLine
 10
35.39485899999999
 20
195.6117649999999
 30
0.0
 11
35.39485899999999
 21
179.611765
 31
0.0
  0
LINE
  5
97A1
330
9759
100
AcDbEntity
  8
1
  6
Continuous
100
AcDbLine
 10
9.694857999999998
 20
158.757731
 30
0.0
 11
9.694857999999998
 21
154.611765
 31
0.0
  0
LINE
  5
97A2
330
9759
100
AcDbEntity
  8
4
  6
CENTER
100
AcDbLine
 10
25.694862
 20
180.611765
 30
0.0
 11
33.694862
 21
180.611765
 31
0.0
  0
LINE
  5
97A3
330
9759
100
AcDbEntity
  8
1
  6
Continuous
100
AcDbLine
 10
38.79485999999999
 20
149.6117649999999
 30
0.0
 11
44.694862
 21
149.6117649999999
 31
0.0
  0
LINE
  5
97A4
330
9759
100
AcDbEntity
  8
1
  6
Continuous
100
AcDbLine
 10
49.694862
 20
158.757731
 30
0.0
 11
49.694862
 21
154.611765
 31
0.0
  0
LINE
  5
97A5
330
9759
100
AcDbEntity
  8
1
  6
Continuous
100
AcDbLine
 10
14.69485799999998
 20
149.6117649999999
 30
0.0
 11
20.594863
 21
149.6117649999999
 31
0.0
  0
LINE
  5
97A6
330
9759
100
AcDbEntity
  8
4
  6
CENTER
100
AcDbLine
 10
14.69485799999998
 20
159.611765
 30
0.0
 11
14.69485799999998
 21
151.6117649999999
 31
0.0
  0
LINE
  5
97A7
330
9759
100
AcDbEntity
  8
4
  6
CENTER
100
AcDbLine
 10
10.694858
 20
155.611765
 30
0.0
 11
18.694862
 21
155.611765
 31
0.0
  0
LINE
  5
97A8
330
9759
100
AcDbEntity
  8
4
  6
CENTER
100
AcDbLine
 10
48.694862
 20
155.611765
 30
0.0
 11
40.694862
 21
155.611765
 31
0.0
  0
LINE
  5
97A9
330
9759
100
AcDbEntity
  8
4
  6
CENTER
100
AcDbLine
 10
44.694862
 20
159.611765
 30
0.0
 11
44.694862
 21
151.6117649999999
 31
0.0
  0
LINE
  5
97AA
330
9759
100
AcDbEntity
  8
1
  6
Continuous
100
AcDbLine
 10
9.694857999999998
 20
44.244028
 30
0.0
 11
9.694857999999998
 21
42.64403
 31
0.0
  0
LINE
  5
97AB
330
9759
100
AcDbEntity
  8
1
  6
Continuous
100
AcDbLine
 10
49.694862
 20
44.244028
 30
0.0
 11
49.694862
 21
42.64403
 31
0.0
  0
LINE
  5
97AC
330
9759
100
AcDbEntity
  8
4
  6
CENTER
100
AcDbLine
 10
29.694862
 20
65.14403
 30
0.0
 11
29.694862
 21
37.64403
 31
0.0
  0
LINE
  5
97AD
330
9759
100
AcDbEntity
  8
1
  6
Continuous
100
AcDbLine
 10
9.694857999999998
 20
42.64403
 30
0.0
 11
49.694862
 21
42.64403
 31
0.0
  0
LINE
  5
97AE
330
9759
100
AcDbEntity
  8
1
  6
Continuous
100
AcDbLine
 10
9.694857999999998
 20
44.244028
 30
0.0
 11
22.694862
 21
44.244028
 31
0.0
  0
LINE
  5
97AF
330
9759
100
AcDbEntity
  8
1
  6
Continuous
100
AcDbLine
 10
22.694862
 20
53.64403000000001
 30
0.0
 11
22.694862
 21
42.64403
 31
0.0
  0
LINE
  5
97B0
330
9759
100
AcDbEntity
  8
1
  6
Continuous
100
AcDbLine
 10
35.694862
 20
55.14403000000001
 30
0.0
 11
35.694862
 21
45.14403
 31
0.0
  0
LINE
  5
97B1
330
9759
100
AcDbEntity
  8
1
  6
Continuous
100
AcDbLine
 10
24.194862
 20
54.04403099999999
 30
0.0
 11
27.194862
 21
54.04403099999999
 31
0.0
  0
LINE
  5
97B2
330
9759
100
AcDbEntity
  8
1
  6
Continuous
100
AcDbLine
 10
24.194862
 20
49.04403099999999
 30
0.0
 11
27.194862
 21
49.04403099999999
 31
0.0
  0
LINE
  5
97B3
330
9759
100
AcDbEntity
  8
1
  6
Continuous
100
AcDbLine
 10
24.194862
 20
54.04403099999999
 30
0.0
 11
24.194862
 21
49.04403099999999
 31
0.0
  0
LINE
  5
97B4
330
9759
100
AcDbEntity
  8
1
  6
Continuous
100
AcDbLine
 10
27.194862
 20
54.04403099999999
 30
0.0
 11
27.194862
 21
49.04403099999999
 31
0.0
  0
LINE
  5
97B5
330
9759
100
AcDbEntity
  8
1
  6
Continuous
100
AcDbLine
 10
34.694862
 20
45.14403
 30
0.0
 11
35.694862
 21
45.14403
 31
0.0
  0
LINE
  5
97B6
330
9759
100
AcDbEntity
  8
1
  6
Continuous
100
AcDbLine
 10
33.194862
 20
43.64403
 30
0.0
 11
33.194862
 21
42.64403
 31
0.0
  0
LINE
  5
97B7
330
9759
100
AcDbEntity
  8
1
  6
Continuous
100
AcDbLine
 10
33.32009
 20
44.244028
 30
0.0
 11
49.694862
 21
44.244028
 31
0.0
  0
LINE
  5
97B8
330
9759
100
AcDbEntity
  8
1
  6
Continuous
100
AcDbLine
 10
41.39485899999999
 20
201.555951
 30
0.0
 11
41.39485899999999
 21
170.081952
 31
0.0
  0
LINE
  5
97B9
330
9759
100
AcDbEntity
  8
1
  6
Continuous
100
AcDbLine
 10
17.99485699999999
 20
201.555951
 30
0.0
 11
17.99485699999999
 21
170.081952
 31
0.0
  0
LINE
  5
97BA
330
9759
100
AcDbEntity
  8
1
  6
Continuous
100
AcDbLine
 10
39.79485999999999
 20
201.5749329999999
 30
0.0
 11
39.79485999999999
 21
170.165418
 31
0.0
  0
LINE
  5
97BB
330
9759
100
AcDbEntity
  8
1
  6
Continuous
100
AcDbLine
 10
19.594863
 20
201.5749329999999
 30
0.0
 11
19.594863
 21
170.165418
 31
0.0
  0
LINE
  5
97BC
330
9759
100
AcDbEntity
  8
1
  6
Continuous
100
AcDbLine
 10
39.194862
 20
169.2489139999999
 30
0.0
 11
39.194862
 21
158.799573
 31
0.0
  0
LINE
  5
97BD
330
9759
100
AcDbEntity
  8
1
  6
Continuous
100
AcDbLine
 10
40.79486
 20
169.165418
 30
0.0
 11
40.79486
 21
158.799573
 31
0.0
  0
LINE
  5
97BE
330
9759
100
AcDbEntity
  8
1
  6
Continuous
100
AcDbLine
 10
20.194862
 20
169.2489139999999
 30
0.0
 11
20.194862
 21
158.799573
 31
0.0
  0
LINE
  5
97BF
330
9759
100
AcDbEntity
  8
1
  6
Continuous
100
AcDbLine
 10
18.594863
 20
169.165418
 30
0.0
 11
18.594863
 21
158.799573
 31
0.0
  0
LINE
  5
97C0
330
9759
100
AcDbEntity
  8
1
  6
Continuous
100
AcDbLine
 10
216.60192
 20
203.67674
 30
0.0
 11
215.721549
 21
203.761517
 31
0.0
  0
LINE
  5
97C1
330
9759
100
AcDbEntity
  8
4
  6
CENTER
100
AcDbLine
 10
214.4016939999999
 20
206.9100769999999
 30
0.0
 11
209.4747539999999
 21
155.7420469999998
 31
0.0
  0
LINE
  5
97C2
330
9759
100
AcDbEntity
  8
1
  6
Continuous
100
AcDbLine
 10
211.624931
 20
204.1559569999999
 30
0.0
 11
204.8795689999999
 21
165.238873
 31
0.0
  0
LINE
  5
97C3
330
9759
100
AcDbEntity
  8
1
  6
Continuous
100
AcDbLine
 10
216.6019509999999
 20
203.67674
 30
0.0
 11
215.79766
 21
164.1875729999999
 31
0.0
  0
LINE
  5
97C4
330
9759
100
AcDbEntity
  8
1
  6
Continuous
100
AcDbLine
 10
215.8810649999999
 20
168.28288
 30
0.0
 11
205.579124
 21
169.274823
 31
0.0
  0
LINE
  5
97C5
330
9759
100
AcDbEntity
  8
4
  6
CENTER
100
AcDbLine
 10
214.7780369999999
 20
163.868268
 30
0.0
 11
205.8194799999998
 21
164.7308779999999
 31
0.0
  0
LINE
  5
97C6
330
9759
100
AcDbEntity
  8
1
  6
Continuous
100
AcDbLine
 10
212.5053319999999
 20
204.0712099999999
 30
0.0
 11
211.624931
 21
204.1559569999999
 31
0.0
  0
LINE
  5
97C7
330
9759
100
AcDbEntity
  8
4
  6
CENTER
100
AcDbLine
 10
29.694862
 20
208.968149
 30
0.0
 11
29.694862
 21
115.6117649999999
 31
0.0
  0
LINE
  5
97C8
330
9759
100
AcDbEntity
  8
1
  6
Continuous
100
AcDbLine
 10
27.194862
 20
183.611765
 30
0.0
 11
27.194862
 21
179.611765
 31
0.0
  0
LINE
  5
97C9
330
9759
100
AcDbEntity
  8
1
  6
Continuous
100
AcDbLine
 10
32.194862
 20
183.611765
 30
0.0
 11
32.194862
 21
179.611765
 31
0.0
  0
LINE
  5
97CA
330
9759
100
AcDbEntity
  8
1
  6
Continuous
100
AcDbLine
 10
27.944862
 20
194.1117649999999
 30
0.0
 11
31.444862
 21
194.1117649999999
 31
0.0
  0
LINE
  5
97CB
330
9759
100
AcDbEntity
  8
1
  6
Continuous
100
AcDbLine
 10
27.194862
 20
180.1117649999999
 30
0.0
 11
32.194862
 21
180.1117649999999
 31
0.0
  0
LINE
  5
97CC
330
9759
100
AcDbEntity
  8
2
  6
Continuous
100
AcDbLine
 10
27.62786
 20
180.1117649999999
 30
0.0
 11
27.62786
 21
179.611765
 31
0.0
  0
LINE
  5
97CD
330
9759
100
AcDbEntity
  8
2
  6
Continuous
100
AcDbLine
 10
31.761863
 20
180.1117649999999
 30
0.0
 11
31.761863
 21
179.611765
 31
0.0
  0
LINE
  5
97CE
330
9759
100
AcDbEntity
  8
1
  6
Continuous
100
AcDbLine
 10
27.944862
 20
194.1117649999999
 30
0.0
 11
27.944862
 21
192.383005
 31
0.0
  0
LINE
  5
97CF
330
9759
100
AcDbEntity
  8
1
  6
Continuous
100
AcDbLine
 10
31.444862
 20
194.1117649999999
 30
0.0
 11
31.444862
 21
192.383005
 31
0.0
  0
LINE
  5
97D0
330
9759
100
AcDbEntity
  8
4
  6
CENTER
100
AcDbLine
 10
109.694862
 20
231.299741
 30
0.0
 11
109.694862
 21
193.364805
 31
0.0
  0
LINE
  5
97D1
330
9759
100
AcDbEntity
  8
1
  6
Continuous
100
AcDbLine
 10
93.694862
 20
224.8117649999998
 30
0.0
 11
125.694862
 21
224.8117649999998
 31
0.0
  0
LINE
  5
97D2
330
9759
100
AcDbEntity
  8
1
  6
Continuous
100
AcDbLine
 10
129.694862
 20
220.8117649999998
 30
0.0
 11
129.694862
 21
217.1092499999998
 31
0.0
  0
LINE
  5
97D3
330
9759
100
AcDbEntity
  8
1
  6
Continuous
100
AcDbLine
 10
89.694862
 20
220.8117649999998
 30
0.0
 11
89.694862
 21
217.1092499999998
 31
0.0
  0
LINE
  5
97D4
330
9759
100
AcDbEntity
  8
1
  6
Continuous
100
AcDbLine
 10
101.6948619999999
 20
199.8117649999999
 30
0.0
 11
117.694862
 21
199.8117649999999
 31
0.0
  0
LINE
  5
97D5
330
9759
100
AcDbEntity
  8
1
  6
Continuous
100
AcDbLine
 10
101.6948619999999
 20
205.51428
 30
0.0
 11
101.6948619999999
 21
199.8117649999999
 31
0.0
  0
LINE
  5
97D6
330
9759
100
AcDbEntity
  8
1
  6
Continuous
100
AcDbLine
 10
117.694862
 20
205.51428
 30
0.0
 11
117.694862
 21
199.8117649999999
 31
0.0
  0
LINE
  5
97D7
330
9759
100
AcDbEntity
  8
1
  6
Continuous
100
AcDbLine
 10
91.67937399999999
 20
213.654111
 30
0.0
 11
99.71033400000001
 21
208.969388
 31
0.0
  0
LINE
  5
97D8
330
9759
100
AcDbEntity
  8
1
  6
Continuous
100
AcDbLine
 10
127.710334
 20
213.6541419999999
 30
0.0
 11
119.679359
 21
208.9694189999999
 31
0.0
  0
LINE
  5
97D9
330
9759
100
AcDbEntity
  8
4
  6
CENTER
100
AcDbLine
 10
94.694862
 20
223.8117649999999
 30
0.0
 11
94.694862
 21
215.8117649999998
 31
0.0
  0
LINE
  5
97DA
330
9759
100
AcDbEntity
  8
4
  6
CENTER
100
AcDbLine
 10
90.694862
 20
219.8117649999999
 30
0.0
 11
98.694862
 21
219.8117649999999
 31
0.0
  0
LINE
  5
97DB
330
9759
100
AcDbEntity
  8
4
  6
CENTER
100
AcDbLine
 10
128.6948619999998
 20
219.8117649999999
 30
0.0
 11
120.694862
 21
219.8117649999999
 31
0.0
  0
LINE
  5
97DC
330
9759
100
AcDbEntity
  8
4
  6
CENTER
100
AcDbLine
 10
124.694862
 20
223.8117649999999
 30
0.0
 11
124.694862
 21
215.8117649999998
 31
0.0
  0
LINE
  5
97DD
330
9759
100
AcDbEntity
  8
1
  6
Continuous
100
AcDbLine
 10
282.6987829999998
 20
224.8117649999998
 30
0.0
 11
284.2987889999998
 21
224.8117649999998
 31
0.0
  0
LINE
  5
97DE
330
9759
100
AcDbEntity
  8
1
  6
Continuous
100
AcDbLine
 10
284.2987889999998
 20
224.8117649999998
 30
0.0
 11
284.2987889999998
 21
204.9117709999999
 31
0.0
  0
LINE
  5
97DF
330
9759
100
AcDbEntity
  8
1
  6
Continuous
100
AcDbLine
 10
282.6987829999998
 20
224.8117649999998
 30
0.0
 11
282.6987829999998
 21
204.9117709999999
 31
0.0
  0
LINE
  5
97E0
330
9759
100
AcDbEntity
  8
1
  6
Continuous
100
AcDbLine
 10
274.2091899999999
 20
206.811765
 30
0.0
 11
272.798789
 21
206.056302
 31
0.0
  0
LINE
  5
97E1
330
9759
100
AcDbEntity
  8
1
  6
Continuous
100
AcDbLine
 10
274.2091899999999
 20
206.811765
 30
0.0
 11
276.1140049999998
 21
203.258237
 31
0.0
  0
LINE
  5
97E2
330
9759
100
AcDbEntity
  8
1
  6
Continuous
100
AcDbLine
 10
272.798789
 20
206.056272
 30
0.0
 11
274.703818
 21
202.5023169999998
 31
0.0
  0
LINE
  5
97E3
330
9759
100
AcDbEntity
  8
4
  6
CENTER
100
AcDbLine
 10
280.698783
 20
219.8117649999999
 30
0.0
 11
286.2987889999999
 21
219.8117649999999
 31
0.0
  0
LINE
  5
97E4
330
9759
100
AcDbEntity
  8
1
  6
Continuous
100
AcDbLine
 10
104.6948619999999
 20
206.811765
 30
0.0
 11
114.694862
 21
206.811765
 31
0.0
  0
LINE
  5
97E5
330
9759
100
AcDbEntity
  8
1
  6
Continuous
100
AcDbLine
 10
104.6948619999999
 20
206.056272
 30
0.0
 11
114.694862
 21
206.056272
 31
0.0
  0
LINE
  5
97E6
330
9759
100
AcDbEntity
  8
1
  6
Continuous
100
AcDbLine
 10
480.6948769999998
 20
224.8117649999998
 30
0.0
 11
448.6948769999998
 21
224.8117649999998
 31
0.0
  0
LINE
  5
97E7
330
9759
100
AcDbEntity
  8
4
  6
CENTER
100
AcDbLine
 10
464.6948769999998
 20
231.299741
 30
0.0
 11
464.6948769999998
 21
193.364805
 31
0.0
  0
LINE
  5
97E8
330
9759
100
AcDbEntity
  8
1
  6
Continuous
100
AcDbLine
 10
444.6948769999998
 20
220.8117649999998
 30
0.0
 11
444.6948769999998
 21
217.1092499999998
 31
0.0
  0
LINE
  5
97E9
330
9759
100
AcDbEntity
  8
1
  6
Continuous
100
AcDbLine
 10
484.694877
 20
220.8117649999998
 30
0.0
 11
484.694877
 21
217.1092499999998
 31
0.0
  0
LINE
  5
97EA
330
9759
100
AcDbEntity
  8
1
  6
Continuous
100
AcDbLine
 10
472.6948769999999
 20
199.8117649999999
 30
0.0
 11
456.6948769999998
 21
199.8117649999999
 31
0.0
  0
LINE
  5
97EB
330
9759
100
AcDbEntity
  8
4
  6
CENTER
100
AcDbLine
 10
483.6948769999998
 20
219.8117649999999
 30
0.0
 11
475.694877
 21
219.8117649999999
 31
0.0
  0
LINE
  5
97EC
330
9759
100
AcDbEntity
  8
1
  6
Continuous
100
AcDbLine
 10
472.6948769999999
 20
205.51428
 30
0.0
 11
472.6948769999999
 21
199.8117649999999
 31
0.0
  0
LINE
  5
97ED
330
9759
100
AcDbEntity
  8
1
  6
Continuous
100
AcDbLine
 10
456.6948769999998
 20
205.51428
 30
0.0
 11
456.6948769999998
 21
199.8117649999999
 31
0.0
  0
LINE
  5
97EE
330
9759
100
AcDbEntity
  8
1
  6
Continuous
100
AcDbLine
 10
446.6793739999998
 20
213.654111
 30
0.0
 11
454.710319
 21
208.969388
 31
0.0
  0
LINE
  5
97EF
330
9759
100
AcDbEntity
  8
1
  6
Continuous
100
AcDbLine
 10
482.7103799999998
 20
213.6541419999999
 30
0.0
 11
474.679374
 21
208.9694189999999
 31
0.0
  0
LINE
  5
97F0
330
9759
100
AcDbEntity
  8
4
  6
CENTER
100
AcDbLine
 10
479.6948769999998
 20
223.8117649999999
 30
0.0
 11
479.6948769999998
 21
215.8117649999998
 31
0.0
  0
LINE
  5
97F1
330
9759
100
AcDbEntity
  8
4
  6
CENTER
100
AcDbLine
 10
445.6948769999998
 20
219.8117649999999
 30
0.0
 11
453.6948769999998
 21
219.8117649999999
 31
0.0
  0
LINE
  5
97F2
330
9759
100
AcDbEntity
  8
4
  6
CENTER
100
AcDbLine
 10
449.6948769999998
 20
223.8117649999999
 30
0.0
 11
449.6948769999998
 21
215.8117649999998
 31
0.0
  0
LINE
  5
97F3
330
9759
100
AcDbEntity
  8
1
  6
Continuous
100
AcDbLine
 10
89.694862
 20
321.101114
 30
0.0
 11
129.694862
 21
321.101114
 31
0.0
  0
LINE
  5
97F4
330
9759
100
AcDbEntity
  8
1
  6
Continuous
100
AcDbLine
 10
104.6948619999999
 20
309.6011139999998
 30
0.0
 11
114.694862
 21
309.6011139999998
 31
0.0
  0
LINE
  5
97F5
330
9759
100
AcDbEntity
  8
4
  6
CENTER
100
AcDbLine
 10
109.694862
 20
307.6011139999998
 30
0.0
 11
109.694862
 21
323.101114
 31
0.0
  0
LINE
  5
97F6
330
9759
100
AcDbEntity
  8
1
  6
Continuous
100
AcDbLine
 10
129.694862
 20
319.501108
 30
0.0
 11
129.694862
 21
321.101114
 31
0.0
  0
LINE
  5
97F7
330
9759
100
AcDbEntity
  8
1
  6
Continuous
100
AcDbLine
 10
89.694862
 20
319.501108
 30
0.0
 11
89.694862
 21
321.101114
 31
0.0
  0
LINE
  5
97F8
330
9759
100
AcDbEntity
  8
1
  6
Continuous
100
AcDbLine
 10
89.694862
 20
319.501108
 30
0.0
 11
129.694862
 21
319.501108
 31
0.0
  0
LINE
  5
97F9
330
9759
100
AcDbEntity
  8
1
  6
Continuous
100
AcDbLine
 10
117.694862
 20
312.601114
 30
0.0
 11
117.694862
 21
319.501108
 31
0.0
  0
LINE
  5
97FA
330
9759
100
AcDbEntity
  8
1
  6
Continuous
100
AcDbLine
 10
101.6948619999999
 20
312.601114
 30
0.0
 11
101.6948619999999
 21
319.501108
 31
0.0
  0
LINE
  5
97FB
330
9759
100
AcDbEntity
  8
1
  6
Continuous
100
AcDbLine
 10
104.6948619999999
 20
311.0115149999999
 30
0.0
 11
114.694862
 21
311.0115149999999
 31
0.0
  0
LINE
  5
97FC
330
9759
100
AcDbEntity
  8
1
  6
Continuous
100
AcDbLine
 10
103.6948619999999
 20
316.0011079999998
 30
0.0
 11
115.694862
 21
316.0011079999998
 31
0.0
  0
LINE
  5
97FD
330
9759
100
AcDbEntity
  8
4
  6
CENTER
100
AcDbLine
 10
16.70022499999999
 20
164.299573
 30
0.0
 11
43.700229
 21
164.299573
 31
0.0
  0
LINE
  5
97FE
330
9759
100
AcDbEntity
  8
1
  6
Continuous
100
AcDbLine
 10
20.194862
 20
160.299573
 30
0.0
 11
20.594863
 21
160.299573
 31
0.0
  0
LINE
  5
97FF
330
9759
100
AcDbEntity
  8
1
  6
Continuous
100
AcDbLine
 10
20.194862
 20
168.299573
 30
0.0
 11
20.594863
 21
168.299573
 31
0.0
  0
LINE
  5
9800
330
9759
100
AcDbEntity
  8
4
  6
CENTER
100
AcDbLine
 10
43.39485899999998
 20
311.101114
 30
0.0
 11
15.994861
 21
311.101114
 31
0.0
  0
LINE
  5
9801
330
9759
100
AcDbEntity
  8
4
  6
CENTER
100
AcDbLine
 10
29.694862
 20
298.601114
 30
0.0
 11
29.694862
 21
326.1011139999999
 31
0.0
  0
LINE
  5
9802
330
9759
100
AcDbEntity
  8
1
  6
Continuous
100
AcDbLine
 10
38.944862
 20
307.6011139999998
 30
0.0
 11
38.79485999999999
 21
307.6011139999998
 31
0.0
  0
LINE
  5
9803
330
9759
100
AcDbEntity
  8
1
  6
Continuous
100
AcDbLine
 10
38.944862
 20
307.6011139999998
 30
0.0
 11
38.944862
 21
313.1975499999999
 31
0.0
  0
LINE
  5
9804
330
9759
100
AcDbEntity
  8
1
  6
Continuous
100
AcDbLine
 10
20.444862
 20
307.6011139999998
 30
0.0
 11
20.444862
 21
313.1975499999999
 31
0.0
  0
LINE
  5
9805
330
9759
100
AcDbEntity
  8
1
  6
Continuous
100
AcDbLine
 10
24.04486
 20
186.1117649999999
 30
0.0
 11
24.04486
 21
183.611765
 31
0.0
  0
LINE
  5
9806
330
9759
100
AcDbEntity
  8
1
  6
Continuous
100
AcDbLine
 10
35.34486299999999
 20
186.1117649999999
 30
0.0
 11
35.34486299999999
 21
183.611765
 31
0.0
  0
LINE
  5
9807
330
9759
100
AcDbEntity
  8
1
  6
Continuous
100
AcDbLine
 10
23.994857
 20
186.1117649999999
 30
0.0
 11
35.39485899999999
 21
186.1117649999999
 31
0.0
  0
LINE
  5
9808
330
9759
100
AcDbEntity
  8
1
  6
Continuous
100
AcDbLine
 10
24.04486
 20
183.611765
 30
0.0
 11
35.34486299999999
 21
183.611765
 31
0.0
  0
LINE
  5
9809
330
9759
100
AcDbEntity
  8
1
  6
Continuous
100
AcDbLine
 10
20.444862
 20
193.111765
 30
0.0
 11
20.444862
 21
186.1117649999999
 31
0.0
  0
LINE
  5
980A
330
9759
100
AcDbEntity
  8
1
  6
Continuous
100
AcDbLine
 10
38.944862
 20
193.111765
 30
0.0
 11
38.944862
 21
186.1117649999999
 31
0.0
  0
LINE
  5
980B
330
9759
100
AcDbEntity
  8
1
  6
Continuous
100
AcDbLine
 10
20.444862
 20
186.1117649999999
 30
0.0
 11
20.594863
 21
186.1117649999999
 31
0.0
  0
LINE
  5
980C
330
9759
100
AcDbEntity
  8
1
  6
Continuous
100
AcDbLine
 10
20.444862
 20
193.111765
 30
0.0
 11
20.594863
 21
193.111765
 31
0.0
  0
LINE
  5
980D
330
9759
100
AcDbEntity
  8
1
  6
Continuous
100
AcDbLine
 10
32.944862
 20
193.111765
 30
0.0
 11
35.39485899999999
 21
193.111765
 31
0.0
  0
LINE
  5
980E
330
9759
100
AcDbEntity
  8
1
  6
Continuous
100
AcDbLine
 10
203.298789
 20
188.861765
 30
0.0
 11
203.298789
 21
182.611765
 31
0.0
  0
LINE
  5
980F
330
9759
100
AcDbEntity
  8
1
  6
Continuous
100
AcDbLine
 10
203.298789
 20
182.611765
 30
0.0
 11
204.1647869999999
 21
181.1117649999999
 31
0.0
  0
LINE
  5
9810
330
9759
100
AcDbEntity
  8
1
  6
Continuous
100
AcDbLine
 10
18.194862
 20
167.049573
 30
0.0
 11
18.194862
 21
161.549573
 31
0.0
  0
LINE
  5
9811
330
9759
100
AcDbEntity
  8
1
  6
Continuous
100
AcDbLine
 10
18.194862
 20
167.049573
 30
0.0
 11
18.59487099999999
 21
166.549573
 31
0.0
  0
LINE
  5
9812
330
9759
100
AcDbEntity
  8
1
  6
Continuous
100
AcDbLine
 10
18.19485399999998
 20
161.549573
 30
0.0
 11
18.594863
 21
162.049573
 31
0.0
  0
LINE
  5
9813
330
9759
100
AcDbEntity
  8
1
  6
Continuous
100
AcDbLine
 10
41.19486199999999
 20
167.049573
 30
0.0
 11
41.19486199999999
 21
161.549573
 31
0.0
  0
LINE
  5
9814
330
9759
100
AcDbEntity
  8
1
  6
Continuous
100
AcDbLine
 10
41.19486199999999
 20
161.549573
 30
0.0
 11
40.794868
 21
162.049573
 31
0.0
  0
LINE
  5
9815
330
9759
100
AcDbEntity
  8
1
  6
Continuous
100
AcDbLine
 10
41.194854
 20
167.049573
 30
0.0
 11
40.79485199999999
 21
166.549573
 31
0.0
  0
LINE
  5
9816
330
9759
100
AcDbEntity
  8
1
  6
Continuous
100
AcDbLine
 10
40.79486
 20
158.799573
 30
0.0
 11
39.194862
 21
158.799573
 31
0.0
  0
LINE
  5
9817
330
9759
100
AcDbEntity
  8
1
  6
Continuous
100
AcDbLine
 10
20.194862
 20
158.799573
 30
0.0
 11
18.594863
 21
158.799573
 31
0.0
  0
LINE
  5
9818
330
9759
100
AcDbEntity
  8
1
  6
Continuous
100
AcDbLine
 10
377.3948889999999
 20
195.6117649999999
 30
0.0
 11
391.994865
 21
195.6117649999999
 31
0.0
  0
LINE
  5
9819
330
9759
100
AcDbEntity
  8
4
  6
CENTER
100
AcDbLine
 10
384.694877
 20
208.968149
 30
0.0
 11
384.694877
 21
115.6117649999999
 31
0.0
  0
LINE
  5
981A
330
9759
100
AcDbEntity
  8
1
  6
Continuous
100
AcDbLine
 10
391.994865
 20
195.6117649999999
 30
0.0
 11
391.994865
 21
174.6117649999999
 31
0.0
  0
LINE
  5
981B
330
9759
100
AcDbEntity
  8
1
  6
Continuous
100
AcDbLine
 10
377.3948889999999
 20
195.6117649999999
 30
0.0
 11
377.3948889999999
 21
174.6117649999999
 31
0.0
  0
LINE
  5
981C
330
9759
100
AcDbEntity
  8
1
  6
Continuous
100
AcDbLine
 10
391.694877
 20
143.511774
 30
0.0
 11
380.194877
 21
143.511774
 31
0.0
  0
LINE
  5
981D
330
9759
100
AcDbEntity
  8
4
  6
CENTER
100
AcDbLine
 10
380.694877
 20
180.611765
 30
0.0
 11
388.694877
 21
180.611765
 31
0.0
  0
LINE
  5
981E
330
9759
100
AcDbEntity
  8
1
  6
Continuous
100
AcDbLine
 10
391.694877
 20
148.1117649999999
 30
0.0
 11
391.694877
 21
143.511774
 31
0.0
  0
LINE
  5
981F
330
9759
100
AcDbEntity
  8
1
  6
Continuous
100
AcDbLine
 10
381.194877
 20
145.111765
 30
0.0
 11
380.294852
 21
145.111765
 31
0.0
  0
LINE
  5
9820
330
9759
100
AcDbEntity
  8
1
  6
Continuous
100
AcDbLine
 10
378.694877
 20
149.6117649999999
 30
0.0
 11
378.694877
 21
145.011774
 31
0.0
  0
LINE
  5
9821
330
9759
100
AcDbEntity
  8
1
  6
Continuous
100
AcDbLine
 10
380.294852
 20
149.486536
 30
0.0
 11
380.294852
 21
145.111765
 31
0.0
  0
LINE
  5
9822
330
9759
100
AcDbEntity
  8
1
  6
Continuous
100
AcDbLine
 10
393.194877
 20
149.6117649999999
 30
0.0
 11
399.694877
 21
149.6117649999999
 31
0.0
  0
LINE
  5
9823
330
9759
100
AcDbEntity
  8
1
  6
Continuous
100
AcDbLine
 10
404.694877
 20
158.5787449999999
 30
0.0
 11
404.694877
 21
154.611765
 31
0.0
  0
LINE
  5
9824
330
9759
100
AcDbEntity
  8
1
  6
Continuous
100
AcDbLine
 10
381.194877
 20
148.1117649999999
 30
0.0
 11
381.194877
 21
143.511774
 31
0.0
  0
LINE
  5
9825
330
9759
100
AcDbEntity
  8
1
  6
Continuous
100
AcDbLine
 10
369.694877
 20
149.6117649999999
 30
0.0
 11
379.694877
 21
149.6117649999999
 31
0.0
  0
LINE
  5
9826
330
9759
100
AcDbEntity
  8
4
  6
CENTER
100
AcDbLine
 10
369.694877
 20
159.611765
 30
0.0
 11
369.694877
 21
151.6117649999999
 31
0.0
  0
LINE
  5
9827
330
9759
100
AcDbEntity
  8
4
  6
CENTER
100
AcDbLine
 10
365.694877
 20
155.611765
 30
0.0
 11
373.694877
 21
155.611765
 31
0.0
  0
LINE
  5
9828
330
9759
100
AcDbEntity
  8
4
  6
CENTER
100
AcDbLine
 10
403.694877
 20
155.611765
 30
0.0
 11
395.694877
 21
155.611765
 31
0.0
  0
LINE
  5
9829
330
9759
100
AcDbEntity
  8
4
  6
CENTER
100
AcDbLine
 10
399.694877
 20
159.611765
 30
0.0
 11
399.694877
 21
151.6117649999999
 31
0.0
  0
LINE
  5
982A
330
9759
100
AcDbEntity
  8
1
  6
Continuous
100
AcDbLine
 10
390.194877
 20
173.2536719999999
 30
0.0
 11
390.194877
 21
172.198679
 31
0.0
  0
LINE
  5
982B
330
9759
100
AcDbEntity
  8
1
  6
Continuous
100
AcDbLine
 10
379.194877
 20
173.253702
 30
0.0
 11
377.3948279999999
 21
174.611796
 31
0.0
  0
LINE
  5
982C
330
9759
100
AcDbEntity
  8
1
  6
Continuous
100
AcDbLine
 10
390.194877
 20
173.2536719999999
 30
0.0
 11
391.994865
 21
174.611735
 31
0.0
  0
LINE
  5
982D
330
9759
100
AcDbEntity
  8
1
  6
Continuous
100
AcDbLine
 10
375.5948399999998
 20
195.6117649999999
 30
0.0
 11
377.194877
 21
195.6117649999999
 31
0.0
  0
LINE
  5
982E
330
9759
100
AcDbEntity
  8
1
  6
Continuous
100
AcDbLine
 10
377.5948399999998
 20
120.6117649999999
 30
0.0
 11
391.7948519999998
 21
120.6117649999999
 31
0.0
  0
LINE
  5
982F
330
9759
100
AcDbEntity
  8
1
  6
Continuous
100
AcDbLine
 10
375.5948399999998
 20
195.6117649999999
 30
0.0
 11
375.5948399999998
 21
167.290201
 31
0.0
  0
LINE
  5
9830
330
9759
100
AcDbEntity
  8
1
  6
Continuous
100
AcDbLine
 10
393.7948519999998
 20
195.6117649999999
 30
0.0
 11
393.7948519999998
 21
167.290201
 31
0.0
  0
LINE
  5
9831
330
9759
100
AcDbEntity
  8
1
  6
Continuous
100
AcDbLine
 10
377.194877
 20
195.6117649999999
 30
0.0
 11
377.194877
 21
168.198679
 31
0.0
  0
LINE
  5
9832
330
9759
100
AcDbEntity
  8
1
  6
Continuous
100
AcDbLine
 10
392.194877
 20
195.6117649999999
 30
0.0
 11
392.194877
 21
168.198679
 31
0.0
  0
LINE
  5
9833
330
9759
100
AcDbEntity
  8
1
  6
Continuous
100
AcDbLine
 10
377.194877
 20
182.611765
 30
0.0
 11
377.3948889999999
 21
182.611765
 31
0.0
  0
LINE
  5
9834
330
9759
100
AcDbEntity
  8
1
  6
Continuous
100
AcDbLine
 10
392.194877
 20
195.6117649999999
 30
0.0
 11
393.7948519999998
 21
195.6117649999999
 31
0.0
  0
LINE
  5
9835
330
9759
100
AcDbEntity
  8
4
  6
CENTER
100
AcDbLine
 10
395.944877
 20
189.6117649999999
 30
0.0
 11
373.444877
 21
189.6117649999999
 31
0.0
  0
LINE
  5
9836
330
9759
100
AcDbEntity
  8
1
  6
Continuous
100
AcDbLine
 10
377.694877
 20
129.720835
 30
0.0
 11
391.694877
 21
129.720835
 31
0.0
  0
LINE
  5
9837
330
9759
100
AcDbEntity
  8
1
  6
Continuous
100
AcDbLine
 10
393.7948519999998
 20
143.6117649999999
 30
0.0
 11
392.194877
 21
143.6117649999999
 31
0.0
  0
LINE
  5
9838
330
9759
100
AcDbEntity
  8
1
  6
Continuous
100
AcDbLine
 10
377.194877
 20
143.6117649999999
 30
0.0
 11
375.5948399999998
 21
143.6117649999999
 31
0.0
  0
LINE
  5
9839
330
9759
100
AcDbEntity
  8
1
  6
Continuous
100
AcDbLine
 10
386.631339
 20
180.1117649999999
 30
0.0
 11
382.758353
 21
180.1117649999999
 31
0.0
  0
LINE
  5
983A
330
9759
100
AcDbEntity
  8
1
  6
Continuous
100
AcDbLine
 10
396.194877
 20
167.049573
 30
0.0
 11
396.194877
 21
166.227704
 31
0.0
  0
LINE
  5
983B
330
9759
100
AcDbEntity
  8
1
  6
Continuous
100
AcDbLine
 10
394.194877
 20
168.299573
 30
0.0
 11
393.7948519999998
 21
168.299573
 31
0.0
  0
LINE
  5
983C
330
9759
100
AcDbEntity
  8
1
  6
Continuous
100
AcDbLine
 10
373.194877
 20
167.049573
 30
0.0
 11
373.194877
 21
166.227704
 31
0.0
  0
LINE
  5
983D
330
9759
100
AcDbEntity
  8
1
  6
Continuous
100
AcDbLine
 10
393.944877
 20
193.111765
 30
0.0
 11
393.944877
 21
186.1117649999999
 31
0.0
  0
LINE
  5
983E
330
9759
100
AcDbEntity
  8
1
  6
Continuous
100
AcDbLine
 10
375.444877
 20
193.111765
 30
0.0
 11
375.444877
 21
186.1117649999999
 31
0.0
  0
LINE
  5
983F
330
9759
100
AcDbEntity
  8
1
  6
Continuous
100
AcDbLine
 10
393.944877
 20
186.1117649999999
 30
0.0
 11
393.7948519999998
 21
186.1117649999999
 31
0.0
  0
LINE
  5
9840
330
9759
100
AcDbEntity
  8
1
  6
Continuous
100
AcDbLine
 10
393.944877
 20
193.111765
 30
0.0
 11
393.7948519999998
 21
193.111765
 31
0.0
  0
LINE
  5
9841
330
9759
100
AcDbEntity
  8
1
  6
Continuous
100
AcDbLine
 10
377.3948889999999
 20
186.1117649999999
 30
0.0
 11
377.194877
 21
186.1117649999999
 31
0.0
  0
LINE
  5
9842
330
9759
100
AcDbEntity
  8
1
  6
Continuous
100
AcDbLine
 10
377.3948889999999
 20
193.111765
 30
0.0
 11
377.194877
 21
193.111765
 31
0.0
  0
LINE
  5
9843
330
9759
100
AcDbEntity
  8
1
  6
Continuous
100
AcDbLine
 10
396.194877
 20
167.049573
 30
0.0
 11
395.794852
 21
166.549573
 31
0.0
  0
LINE
  5
9844
330
9759
100
AcDbEntity
  8
1
  6
Continuous
100
AcDbLine
 10
373.1948159999998
 20
167.049573
 30
0.0
 11
373.5948399999998
 21
166.549573
 31
0.0
  0
LINE
  5
9845
330
9759
100
AcDbEntity
  8
1
  6
Continuous
100
AcDbLine
 10
372.994865
 20
201.555951
 30
0.0
 11
372.994865
 21
170.081952
 31
0.0
  0
LINE
  5
9846
330
9759
100
AcDbEntity
  8
1
  6
Continuous
100
AcDbLine
 10
396.3948889999999
 20
201.555951
 30
0.0
 11
396.3948889999999
 21
170.081952
 31
0.0
  0
LINE
  5
9847
330
9759
100
AcDbEntity
  8
1
  6
Continuous
100
AcDbLine
 10
374.5948399999999
 20
201.072461
 30
0.0
 11
374.5948399999999
 21
170.165418
 31
0.0
  0
LINE
  5
9848
330
9759
100
AcDbEntity
  8
1
  6
Continuous
100
AcDbLine
 10
394.794852
 20
201.072461
 30
0.0
 11
394.794852
 21
170.165418
 31
0.0
  0
LINE
  5
9849
330
9759
100
AcDbEntity
  8
1
  6
Continuous
100
AcDbLine
 10
375.194877
 20
169.2489139999999
 30
0.0
 11
375.194877
 21
167.269635
 31
0.0
  0
LINE
  5
984A
330
9759
100
AcDbEntity
  8
1
  6
Continuous
100
AcDbLine
 10
373.5948399999998
 20
169.165418
 30
0.0
 11
373.5948399999998
 21
166.4361079999999
 31
0.0
  0
LINE
  5
984B
330
9759
100
AcDbEntity
  8
1
  6
Continuous
100
AcDbLine
 10
394.194877
 20
169.2489139999999
 30
0.0
 11
394.194877
 21
167.269635
 31
0.0
  0
LINE
  5
984C
330
9759
100
AcDbEntity
  8
1
  6
Continuous
100
AcDbLine
 10
395.794852
 20
169.165418
 30
0.0
 11
395.794852
 21
166.4361079999999
 31
0.0
  0
LINE
  5
984D
330
9759
100
AcDbEntity
  8
1
  6
Continuous
100
AcDbLine
 10
9.694857999999998
 20
319.501108
 30
0.0
 11
9.694857999999998
 21
321.101114
 31
0.0
  0
LINE
  5
984E
330
9759
100
AcDbEntity
  8
1
  6
Continuous
100
AcDbLine
 10
49.694862
 20
319.501108
 30
0.0
 11
49.694862
 21
321.101114
 31
0.0
  0
LINE
  5
984F
330
9759
100
AcDbEntity
  8
1
  6
Continuous
100
AcDbLine
 10
33.68515699999999
 20
307.1011139999999
 30
0.0
 11
35.39485899999999
 21
307.1011139999999
 31
0.0
  0
LINE
  5
9850
330
9759
100
AcDbEntity
  8
1
  6
Continuous
100
AcDbLine
 10
9.694857999999998
 20
321.101114
 30
0.0
 11
49.694862
 21
321.101114
 31
0.0
  0
LINE
  5
9851
330
9759
100
AcDbEntity
  8
1
  6
Continuous
100
AcDbLine
 10
34.09486299999999
 20
318.601114
 30
0.0
 11
35.39485899999999
 21
318.601114
 31
0.0
  0
LINE
  5
9852
330
9759
100
AcDbEntity
  8
1
  6
Continuous
100
AcDbLine
 10
9.694857999999998
 20
319.501108
 30
0.0
 11
22.394859
 21
319.501108
 31
0.0
  0
LINE
  5
9853
330
9759
100
AcDbEntity
  8
1
  6
Continuous
100
AcDbLine
 10
34.09486299999999
 20
307.1011139999999
 30
0.0
 11
34.09486299999999
 21
307.556742
 31
0.0
  0
LINE
  5
9854
330
9759
100
AcDbEntity
  8
1
  6
Continuous
100
AcDbLine
 10
36.994857
 20
305.1011139999999
 30
0.0
 11
36.994857
 21
313.1975499999999
 31
0.0
  0
LINE
  5
9855
330
9759
100
AcDbEntity
  8
1
  6
Continuous
100
AcDbLine
 10
22.394859
 20
305.1011139999999
 30
0.0
 11
22.394859
 21
313.1975499999999
 31
0.0
  0
LINE
  5
9856
330
9759
100
AcDbEntity
  8
1
  6
Continuous
100
AcDbLine
 10
23.994857
 20
305.1011139999999
 30
0.0
 11
23.994857
 21
313.1975499999999
 31
0.0
  0
LINE
  5
9857
330
9759
100
AcDbEntity
  8
1
  6
Continuous
100
AcDbLine
 10
35.39485899999999
 20
305.1011139999999
 30
0.0
 11
35.39485899999999
 21
313.1975499999999
 31
0.0
  0
LINE
  5
9858
330
9759
100
AcDbEntity
  8
1
  6
Continuous
100
AcDbLine
 10
22.394859
 20
305.1011139999999
 30
0.0
 11
23.994857
 21
305.1011139999999
 31
0.0
  0
LINE
  5
9859
330
9759
100
AcDbEntity
  8
1
  6
Continuous
100
AcDbLine
 10
35.39485899999999
 20
305.1011139999999
 30
0.0
 11
36.994857
 21
305.1011139999999
 31
0.0
  0
LINE
  5
985A
330
9759
100
AcDbEntity
  8
1
  6
Continuous
100
AcDbLine
 10
36.994857
 20
319.501108
 30
0.0
 11
49.694862
 21
319.501108
 31
0.0
  0
LINE
  5
985B
330
9759
100
AcDbEntity
  8
1
  6
Continuous
100
AcDbLine
 10
23.994857
 20
319.501108
 30
0.0
 11
35.39485899999999
 21
319.501108
 31
0.0
  0
LINE
  5
985C
330
9759
100
AcDbEntity
  8
1
  6
Continuous
100
AcDbLine
 10
38.79485999999999
 20
305.1011139999999
 30
0.0
 11
37.194862
 21
305.1011139999999
 31
0.0
  0
LINE
  5
985D
330
9759
100
AcDbEntity
  8
1
  6
Continuous
100
AcDbLine
 10
22.19486199999999
 20
305.1011139999999
 30
0.0
 11
20.594863
 21
305.1011139999999
 31
0.0
  0
LINE
  5
985E
330
9759
100
AcDbEntity
  8
1
  6
Continuous
100
AcDbLine
 10
37.194862
 20
305.2011209999998
 30
0.0
 11
36.994857
 21
305.2011209999998
 31
0.0
  0
LINE
  5
985F
330
9759
100
AcDbEntity
  8
1
  6
Continuous
100
AcDbLine
 10
41.39485899999999
 20
308.156016
 30
0.0
 11
41.39485899999999
 21
316.904246
 31
0.0
  0
LINE
  5
9860
330
9759
100
AcDbEntity
  8
1
  6
Continuous
100
AcDbLine
 10
40.79486
 20
306.601114
 30
0.0
 11
39.194862
 21
306.601114
 31
0.0
  0
LINE
  5
9861
330
9759
100
AcDbEntity
  8
1
  6
Continuous
100
AcDbLine
 10
39.79485999999999
 20
307.730601
 30
0.0
 11
39.79485999999999
 21
313.1975499999999
 31
0.0
  0
LINE
  5
9862
330
9759
100
AcDbEntity
  8
1
  6
Continuous
100
AcDbLine
 10
39.194862
 20
306.601114
 30
0.0
 11
39.194862
 21
313.1975499999999
 31
0.0
  0
LINE
  5
9863
330
9759
100
AcDbEntity
  8
1
  6
Continuous
100
AcDbLine
 10
20.194862
 20
306.601114
 30
0.0
 11
20.194862
 21
313.1975499999999
 31
0.0
  0
LINE
  5
9864
330
9759
100
AcDbEntity
  8
1
  6
Continuous
100
AcDbLine
 10
19.594863
 20
307.730631
 30
0.0
 11
19.594863
 21
313.1975499999999
 31
0.0
  0
LINE
  5
9865
330
9759
100
AcDbEntity
  8
1
  6
Continuous
100
AcDbLine
 10
17.99485699999999
 20
308.3814489999999
 30
0.0
 11
17.99485699999999
 21
316.904246
 31
0.0
  0
LINE
  5
9866
330
9759
100
AcDbEntity
  8
1
  6
Continuous
100
AcDbLine
 10
40.794845
 20
306.601114
 30
0.0
 11
40.794845
 21
307.3814179999998
 31
0.0
  0
LINE
  5
9867
330
9759
100
AcDbEntity
  8
1
  6
Continuous
100
AcDbLine
 10
18.594863
 20
306.601114
 30
0.0
 11
20.194862
 21
306.601114
 31
0.0
  0
LINE
  5
9868
330
9759
100
AcDbEntity
  8
1
  6
Continuous
100
AcDbLine
 10
18.594863
 20
306.601114
 30
0.0
 11
18.594863
 21
307.3814489999999
 31
0.0
  0
LINE
  5
9869
330
9759
100
AcDbEntity
  8
1
  6
Continuous
100
AcDbLine
 10
37.194862
 20
307.6011139999998
 30
0.0
 11
36.994857
 21
307.6011139999998
 31
0.0
  0
LINE
  5
986A
330
9759
100
AcDbEntity
  8
1
  6
Continuous
100
AcDbLine
 10
35.39485899999999
 20
307.6011139999998
 30
0.0
 11
23.994857
 21
307.6011139999998
 31
0.0
  0
LINE
  5
986B
330
9759
100
AcDbEntity
  8
1
  6
Continuous
100
AcDbLine
 10
22.394859
 20
307.6011139999998
 30
0.0
 11
22.19486199999999
 21
307.6011139999998
 31
0.0
  0
LINE
  5
986C
330
9759
100
AcDbEntity
  8
1
  6
Continuous
100
AcDbLine
 10
20.594863
 20
307.6011139999998
 30
0.0
 11
20.444862
 21
307.6011139999998
 31
0.0
  0
LINE
  5
986D
330
9759
100
AcDbEntity
  8
1
  6
Continuous
100
AcDbLine
 10
35.39485899999999
 20
305.2011209999998
 30
0.0
 11
23.994857
 21
305.2011209999998
 31
0.0
  0
LINE
  5
986E
330
9759
100
AcDbEntity
  8
1
  6
Continuous
100
AcDbLine
 10
22.394859
 20
305.2011209999998
 30
0.0
 11
22.19486199999999
 21
305.2011209999998
 31
0.0
  0
LINE
  5
986F
330
9759
100
AcDbEntity
  8
1
  6
Continuous
100
AcDbLine
 10
38.944862
 20
308.101114
 30
0.0
 11
39.194862
 21
308.101114
 31
0.0
  0
LINE
  5
9870
330
9759
100
AcDbEntity
  8
1
  6
Continuous
100
AcDbLine
 10
20.594863
 20
58.54403000000001
 30
0.0
 11
20.594863
 21
45.14403
 31
0.0
  0
LINE
  5
9871
330
9759
100
AcDbEntity
  8
1
  6
Continuous
100
AcDbLine
 10
38.79485999999999
 20
58.54403000000001
 30
0.0
 11
38.79485999999999
 21
45.14403
 31
0.0
  0
LINE
  5
9872
330
9759
100
AcDbEntity
  8
1
  6
Continuous
100
AcDbLine
 10
22.194863
 20
60.14403000000001
 30
0.0
 11
37.19485999999999
 21
60.14403000000001
 31
0.0
  0
LINE
  5
9873
330
9759
100
AcDbEntity
  8
1
  6
Continuous
100
AcDbLine
 10
20.594863
 20
45.14403
 30
0.0
 11
22.19486199999999
 21
45.14403
 31
0.0
  0
LINE
  5
9874
330
9759
100
AcDbEntity
  8
1
  6
Continuous
100
AcDbLine
 10
20.594863
 20
55.14403000000001
 30
0.0
 11
38.79485999999999
 21
55.14403000000001
 31
0.0
  0
LINE
  5
9875
330
9759
100
AcDbEntity
  8
1
  6
Continuous
100
AcDbLine
 10
37.194862
 20
55.14403000000001
 30
0.0
 11
37.194862
 21
45.14403
 31
0.0
  0
LINE
  5
9876
330
9759
100
AcDbEntity
  8
1
  6
Continuous
100
AcDbLine
 10
22.19486199999999
 20
55.14403000000001
 30
0.0
 11
22.19486199999999
 21
45.14403
 31
0.0
  0
LINE
  5
9877
330
9759
100
AcDbEntity
  8
1
  6
Continuous
100
AcDbLine
 10
37.194862
 20
45.14403
 30
0.0
 11
38.79485999999999
 21
45.14403
 31
0.0
  0
LINE
  5
9878
330
9759
100
AcDbEntity
  8
1
  6
Continuous
100
AcDbLine
 10
20.594863
 20
56.24948299999999
 30
0.0
 11
38.79485999999999
 21
56.24948299999999
 31
0.0
  0
LINE
  5
9879
330
9759
100
AcDbEntity
  8
1
  6
Continuous
100
AcDbLine
 10
41.19486199999999
 20
48.89403
 30
0.0
 11
41.19486199999999
 21
54.39403000000001
 31
0.0
  0
LINE
  5
987A
330
9759
100
AcDbEntity
  8
1
  6
Continuous
100
AcDbLine
 10
39.194862
 20
47.64403
 30
0.0
 11
38.79485999999999
 21
47.64403
 31
0.0
  0
LINE
  5
987B
330
9759
100
AcDbEntity
  8
1
  6
Continuous
100
AcDbLine
 10
41.19486199999999
 20
54.39403699999999
 30
0.0
 11
40.79486
 21
53.89403000000001
 31
0.0
  0
LINE
  5
987C
330
9759
100
AcDbEntity
  8
1
  6
Continuous
100
AcDbLine
 10
39.194862
 20
55.64403000000001
 30
0.0
 11
38.79485999999999
 21
55.64403000000001
 31
0.0
  0
LINE
  5
987D
330
9759
100
AcDbEntity
  8
4
  6
CENTER
100
AcDbLine
 10
43.194862
 20
51.64403
 30
0.0
 11
16.194858
 21
51.64403
 31
0.0
  0
LINE
  5
987E
330
9759
100
AcDbEntity
  8
1
  6
Continuous
100
AcDbLine
 10
18.194862
 20
48.89403
 30
0.0
 11
18.194862
 21
54.39403000000001
 31
0.0
  0
LINE
  5
987F
330
9759
100
AcDbEntity
  8
1
  6
Continuous
100
AcDbLine
 10
41.19486199999999
 20
48.89403
 30
0.0
 11
40.79486
 21
49.39403
 31
0.0
  0
LINE
  5
9880
330
9759
100
AcDbEntity
  8
1
  6
Continuous
100
AcDbLine
 10
18.194862
 20
54.39403000000001
 30
0.0
 11
18.594863
 21
53.89403000000001
 31
0.0
  0
LINE
  5
9881
330
9759
100
AcDbEntity
  8
1
  6
Continuous
100
AcDbLine
 10
18.194862
 20
48.89403
 30
0.0
 11
18.594863
 21
49.39403
 31
0.0
  0
LINE
  5
9882
330
9759
100
AcDbEntity
  8
1
  6
Continuous
100
AcDbLine
 10
18.594863
 20
57.14403
 30
0.0
 11
20.194862
 21
57.14403
 31
0.0
  0
LINE
  5
9883
330
9759
100
AcDbEntity
  8
1
  6
Continuous
100
AcDbLine
 10
18.594863
 20
46.14403
 30
0.0
 11
20.194862
 21
46.14403
 31
0.0
  0
LINE
  5
9884
330
9759
100
AcDbEntity
  8
1
  6
Continuous
100
AcDbLine
 10
39.194862
 20
57.14403
 30
0.0
 11
39.194862
 21
46.14403
 31
0.0
  0
LINE
  5
9885
330
9759
100
AcDbEntity
  8
1
  6
Continuous
100
AcDbLine
 10
20.194862
 20
57.14403
 30
0.0
 11
20.194862
 21
46.14403
 31
0.0
  0
LINE
  5
9886
330
9759
100
AcDbEntity
  8
1
  6
Continuous
100
AcDbLine
 10
40.79486
 20
57.14403
 30
0.0
 11
40.79486
 21
46.14403
 31
0.0
  0
LINE
  5
9887
330
9759
100
AcDbEntity
  8
1
  6
Continuous
100
AcDbLine
 10
18.594863
 20
57.14403
 30
0.0
 11
18.594863
 21
46.14403
 31
0.0
  0
LINE
  5
9888
330
9759
100
AcDbEntity
  8
1
  6
Continuous
100
AcDbLine
 10
39.194862
 20
57.14403
 30
0.0
 11
40.79486
 21
57.14403
 31
0.0
  0
LINE
  5
9889
330
9759
100
AcDbEntity
  8
1
  6
Continuous
100
AcDbLine
 10
39.194862
 20
46.14403
 30
0.0
 11
40.79486
 21
46.14403
 31
0.0
  0
LINE
  5
988A
330
9759
100
AcDbEntity
  8
1
  6
Continuous
100
AcDbLine
 10
17.99485699999999
 20
46.15446699999998
 30
0.0
 11
18.594863
 21
46.15446699999998
 31
0.0
  0
LINE
  5
988B
330
9759
100
AcDbEntity
  8
1
  6
Continuous
100
AcDbLine
 10
17.99485699999999
 20
56.47641199999998
 30
0.0
 11
18.594863
 21
56.47641199999998
 31
0.0
  0
LINE
  5
988C
330
9759
100
AcDbEntity
  8
1
  6
Continuous
100
AcDbLine
 10
17.99485699999999
 20
56.47641199999998
 30
0.0
 11
17.99485699999999
 21
45.373553
 31
0.0
  0
LINE
  5
988D
330
9759
100
AcDbEntity
  8
1
  6
Continuous
100
AcDbLine
 10
35.39485899999999
 20
45.14403
 30
0.0
 11
35.39485899999999
 21
44.244028
 31
0.0
  0
LINE
  5
988E
330
9759
100
AcDbEntity
  8
1
  6
Continuous
100
AcDbLine
 10
22.394859
 20
47.64403
 30
0.0
 11
22.394859
 21
44.244028
 31
0.0
  0
LINE
  5
988F
330
9759
100
AcDbEntity
  8
1
  6
Continuous
100
AcDbLine
 10
36.994857
 20
47.64403
 30
0.0
 11
36.994857
 21
44.244028
 31
0.0
  0
LINE
  5
9890
330
9759
100
AcDbEntity
  8
4
  6
CENTER
100
AcDbLine
 10
216.698783
 20
180.611765
 30
0.0
 11
220.298789
 21
180.611765
 31
0.0
  0
LINE
  5
9891
330
9759
100
AcDbEntity
  8
4
  6
CENTER
100
AcDbLine
 10
216.698783
 20
155.611765
 30
0.0
 11
220.298789
 21
155.611765
 31
0.0
  0
LINE
  5
9892
330
9759
100
AcDbEntity
  8
1
  6
Continuous
100
AcDbLine
 10
39.79485999999999
 20
313.1975499999999
 30
0.0
 11
19.594863
 21
313.1975499999999
 31
0.0
  0
LINE
  5
9893
330
9759
100
AcDbEntity
  8
1
  6
Continuous
100
AcDbLine
 10
39.894859
 20
313.4272859999999
 30
0.0
 11
19.494857
 21
313.4272859999999
 31
0.0
  0
LINE
  5
9894
330
9759
100
AcDbEntity
  8
1
  6
Continuous
100
AcDbLine
 10
38.79485999999999
 20
204.1559569999999
 30
0.0
 11
20.594863
 21
204.1559569999999
 31
0.0
  0
LINE
  5
9895
330
9759
100
AcDbEntity
  8
1
  6
Continuous
100
AcDbLine
 10
39.79485999999999
 20
201.4117549999999
 30
0.0
 11
19.594863
 21
201.4117549999999
 31
0.0
  0
LINE
  5
9896
330
9759
100
AcDbEntity
  8
1
  6
Continuous
100
AcDbLine
 10
38.79485999999999
 20
202.574933
 30
0.0
 11
20.594863
 21
202.574933
 31
0.0
  0
LINE
  5
9897
330
9759
100
AcDbEntity
  8
1
  6
Continuous
100
AcDbLine
 10
393.7948519999998
 20
204.1559569999999
 30
0.0
 11
375.5948399999998
 21
204.1559569999999
 31
0.0
  0
LINE
  5
9898
330
9759
100
AcDbEntity
  8
1
  6
Continuous
100
AcDbLine
 10
394.735526
 20
201.4117549999999
 30
0.0
 11
374.6541659999999
 21
201.4117549999999
 31
0.0
  0
LINE
  5
9899
330
9759
100
AcDbEntity
  8
1
  6
Continuous
100
AcDbLine
 10
393.7948519999998
 20
203.67674
 30
0.0
 11
375.5948399999998
 21
203.67674
 31
0.0
  0
LINE
  5
989A
330
9759
100
AcDbEntity
  8
1
  6
Continuous
100
AcDbLine
 10
393.7948519999998
 20
202.072461
 30
0.0
 11
375.5948399999998
 21
202.072461
 31
0.0
  0
LINE
  5
989B
330
9759
100
AcDbEntity
  8
1
  6
Continuous
100
AcDbLine
 10
393.694877
 20
204.071179
 30
0.0
 11
375.694877
 21
204.071179
 31
0.0
  0
LINE
  5
989C
330
9759
100
AcDbEntity
  8
1
  6
Continuous
100
AcDbLine
 10
36.994857
 20
193.111765
 30
0.0
 11
37.194862
 21
193.111765
 31
0.0
  0
LINE
  5
989D
330
9759
100
AcDbEntity
  8
1
  6
Continuous
100
AcDbLine
 10
22.19486199999999
 20
193.111765
 30
0.0
 11
22.394859
 21
193.111765
 31
0.0
  0
LINE
  5
989E
330
9759
100
AcDbEntity
  8
1
  6
Continuous
100
AcDbLine
 10
23.994857
 20
193.111765
 30
0.0
 11
26.444862
 21
193.111765
 31
0.0
  0
LINE
  5
989F
330
9759
100
AcDbEntity
  8
1
  6
Continuous
100
AcDbLine
 10
31.444862
 20
186.840555
 30
0.0
 11
31.444862
 21
186.1117649999999
 31
0.0
  0
LINE
  5
98A0
330
9759
100
AcDbEntity
  8
1
  6
Continuous
100
AcDbLine
 10
27.944862
 20
186.840555
 30
0.0
 11
27.944862
 21
186.1117649999999
 31
0.0
  0
LINE
  5
98A1
330
9759
100
AcDbEntity
  8
1
  6
Continuous
100
AcDbLine
 10
38.79485999999999
 20
186.1117649999999
 30
0.0
 11
38.944862
 21
186.1117649999999
 31
0.0
  0
LINE
  5
98A2
330
9759
100
AcDbEntity
  8
1
  6
Continuous
100
AcDbLine
 10
36.994857
 20
186.1117649999999
 30
0.0
 11
37.194862
 21
186.1117649999999
 31
0.0
  0
LINE
  5
98A3
330
9759
100
AcDbEntity
  8
1
  6
Continuous
100
AcDbLine
 10
22.19486199999999
 20
186.1117649999999
 30
0.0
 11
22.394859
 21
186.1117649999999
 31
0.0
  0
LINE
  5
98A4
330
9759
100
AcDbEntity
  8
1
  6
Continuous
100
AcDbLine
 10
18.594863
 20
166.8676739999999
 30
0.0
 11
18.42203599999999
 21
166.765611
 31
0.0
  0
LINE
  5
98A5
330
9759
100
AcDbEntity
  8
1
  6
Continuous
100
AcDbLine
 10
40.79486
 20
166.8676709999998
 30
0.0
 11
40.96768299999999
 21
166.76561
 31
0.0
  0
LINE
  5
98A6
330
9759
100
AcDbEntity
  8
1
  6
Continuous
100
AcDbLine
 10
210.1439959999999
 20
195.6117649999999
 30
0.0
 11
209.2987889999998
 21
195.6117649999999
 31
0.0
  0
LINE
  5
98A7
330
9759
100
AcDbEntity
  8
4
  6
CENTER
100
AcDbLine
 10
213.798789
 20
189.6117649999999
 30
0.0
 11
204.7987889999999
 21
189.6117649999999
 31
0.0
  0
LINE
  5
98A8
330
9759
100
AcDbEntity
  8
1
  6
Continuous
100
AcDbLine
 10
392.194877
 20
186.1117649999999
 30
0.0
 11
391.994865
 21
186.1117649999999
 31
0.0
  0
LINE
  5
98A9
330
9759
100
AcDbEntity
  8
1
  6
Continuous
100
AcDbLine
 10
392.194877
 20
193.111765
 30
0.0
 11
391.994865
 21
193.111765
 31
0.0
  0
LINE
  5
98AA
330
9759
100
AcDbEntity
  8
1
  6
Continuous
100
AcDbLine
 10
375.5948399999998
 20
193.111765
 30
0.0
 11
375.444877
 21
193.111765
 31
0.0
  0
LINE
  5
98AB
330
9759
100
AcDbEntity
  8
1
  6
Continuous
100
AcDbLine
 10
375.5948399999998
 20
186.1117649999999
 30
0.0
 11
375.444877
 21
186.1117649999999
 31
0.0
  0
LINE
  5
98AC
330
9759
100
AcDbEntity
  8
1
  6
Continuous
100
AcDbLine
 10
391.994865
 20
182.611765
 30
0.0
 11
392.194877
 21
182.611765
 31
0.0
  0
LINE
  5
98AD
330
9759
100
AcDbEntity
  8
1
  6
Continuous
100
AcDbLine
 10
392.194877
 20
149.2298069999999
 30
0.0
 11
392.194877
 21
120.6117649999999
 31
0.0
  0
LINE
  5
98AE
330
9759
100
AcDbEntity
  8
1
  6
Continuous
100
AcDbLine
 10
393.7948519999998
 20
149.6117649999999
 30
0.0
 11
393.7948519999998
 21
122.6117649999999
 31
0.0
  0
LINE
  5
98AF
330
9759
100
AcDbEntity
  8
1
  6
Continuous
100
AcDbLine
 10
377.194877
 20
149.6117649999999
 30
0.0
 11
377.194877
 21
120.6117649999999
 31
0.0
  0
LINE
  5
98B0
330
9759
100
AcDbEntity
  8
1
  6
Continuous
100
AcDbLine
 10
375.5948399999998
 20
149.6117649999999
 30
0.0
 11
375.5948399999998
 21
122.6117649999999
 31
0.0
  0
LINE
  5
98B1
330
9759
100
AcDbEntity
  8
1
  6
Continuous
100
AcDbLine
 10
375.5948399999998
 20
168.299573
 30
0.0
 11
375.194877
 21
168.299573
 31
0.0
  0
LINE
  5
98B2
330
9759
100
AcDbEntity
  8
1
  6
Continuous
100
AcDbLine
 10
20.594863
 20
318.404246
 30
0.0
 11
20.594863
 21
318.601114
 31
0.0
  0
LINE
  5
98B3
330
9759
100
AcDbEntity
  8
1
  6
Continuous
100
AcDbLine
 10
22.19486199999999
 20
318.404246
 30
0.0
 11
22.19486199999999
 21
318.601114
 31
0.0
  0
LINE
  5
98B4
330
9759
100
AcDbEntity
  8
1
  6
Continuous
100
AcDbLine
 10
22.394859
 20
318.404246
 30
0.0
 11
22.394859
 21
319.5011139999999
 31
0.0
  0
LINE
  5
98B5
330
9759
100
AcDbEntity
  8
1
  6
Continuous
100
AcDbLine
 10
23.994857
 20
318.404246
 30
0.0
 11
23.994857
 21
319.501108
 31
0.0
  0
LINE
  5
98B6
330
9759
100
AcDbEntity
  8
1
  6
Continuous
100
AcDbLine
 10
38.79485999999999
 20
318.404246
 30
0.0
 11
38.79485999999999
 21
318.601114
 31
0.0
  0
LINE
  5
98B7
330
9759
100
AcDbEntity
  8
1
  6
Continuous
100
AcDbLine
 10
37.194862
 20
318.404246
 30
0.0
 11
37.194862
 21
318.601114
 31
0.0
  0
LINE
  5
98B8
330
9759
100
AcDbEntity
  8
1
  6
Continuous
100
AcDbLine
 10
36.994857
 20
318.404246
 30
0.0
 11
36.994857
 21
319.5011139999999
 31
0.0
  0
LINE
  5
98B9
330
9759
100
AcDbEntity
  8
1
  6
Continuous
100
AcDbLine
 10
35.39485899999999
 20
318.404246
 30
0.0
 11
35.39485899999999
 21
319.501108
 31
0.0
  0
LINE
  5
98BA
330
9759
100
AcDbEntity
  8
1
  6
Continuous
100
AcDbLine
 10
34.09486299999999
 20
318.404246
 30
0.0
 11
34.09486299999999
 21
318.601114
 31
0.0
  0
LINE
  5
98BB
330
9759
100
AcDbEntity
  8
1
  6
Continuous
100
AcDbLine
 10
20.594863
 20
55.64403000000001
 30
0.0
 11
20.194862
 21
55.64403000000001
 31
0.0
  0
LINE
  5
98BC
330
9759
100
AcDbEntity
  8
1
  6
Continuous
100
AcDbLine
 10
22.694862
 20
47.64403
 30
0.0
 11
22.19486199999999
 21
47.64403
 31
0.0
  0
LINE
  5
98BD
330
9759
100
AcDbEntity
  8
1
  6
Continuous
100
AcDbLine
 10
37.194862
 20
47.64403
 30
0.0
 11
35.694862
 21
47.64403
 31
0.0
  0
LINE
  5
98BE
330
9759
100
AcDbEntity
  8
1
  6
Continuous
100
AcDbLine
 10
20.594863
 20
47.64403
 30
0.0
 11
20.194862
 21
47.64403
 31
0.0
  0
LINE
  5
98BF
330
9759
100
AcDbEntity
  8
1
  6
Continuous
100
AcDbLine
 10
41.39485899999999
 20
56.47641199999998
 30
0.0
 11
41.39485899999999
 21
45.373553
 31
0.0
  0
LINE
  5
98C0
330
9759
100
AcDbEntity
  8
1
  6
Continuous
100
AcDbLine
 10
41.39485899999999
 20
56.47641199999998
 30
0.0
 11
40.79486
 21
56.47641199999998
 31
0.0
  0
LINE
  5
98C1
330
9759
100
AcDbEntity
  8
1
  6
Continuous
100
AcDbLine
 10
41.39485899999999
 20
46.15446699999998
 30
0.0
 11
40.79486
 21
46.15446699999998
 31
0.0
  0
LINE
  5
98C2
330
9759
100
AcDbEntity
  8
1
  6
Continuous
100
AcDbLine
 10
38.79485999999999
 20
168.299573
 30
0.0
 11
39.194862
 21
168.299573
 31
0.0
  0
LINE
  5
98C3
330
9759
100
AcDbEntity
  8
1
  6
Continuous
100
AcDbLine
 10
38.79485999999999
 20
160.299573
 30
0.0
 11
39.194862
 21
160.299573
 31
0.0
  0
LINE
  5
98C4
330
9759
100
AcDbEntity
  8
1
  6
Continuous
100
AcDbLine
 10
20.594863
 20
182.611765
 30
0.0
 11
22.19486199999999
 21
182.611765
 31
0.0
  0
LINE
  5
98C5
330
9759
100
AcDbEntity
  8
1
  6
Continuous
100
AcDbLine
 10
37.194862
 20
182.611765
 30
0.0
 11
38.79485999999999
 21
182.611765
 31
0.0
  0
LINE
  5
98C6
330
9759
100
AcDbEntity
  8
4
  6
CENTER
100
AcDbLine
 10
371.362285
 20
164.299573
 30
0.0
 11
398.362285
 21
164.299573
 31
0.0
  0
LINE
  5
98C7
330
9759
100
AcDbEntity
  8
1
  6
Continuous
100
AcDbLine
 10
364.694877
 20
158.5787449999999
 30
0.0
 11
364.694877
 21
154.611765
 31
0.0
  0
LINE
  5
98C8
330
9759
100
AcDbEntity
  8
1
  6
Continuous
100
AcDbLine
 10
379.194877
 20
173.2536719999999
 30
0.0
 11
379.194877
 21
172.198679
 31
0.0
  0
LINE
  5
98C9
330
9759
100
AcDbEntity
  8
1
  6
Continuous
100
AcDbLine
 10
367.3847569999999
 20
163.013102
 30
0.0
 11
376.5049349999999
 21
167.764322
 31
0.0
  0
LINE
  5
98CA
330
9759
100
AcDbEntity
  8
1
  6
Continuous
100
AcDbLine
 10
402.0049959999998
 20
163.013102
 30
0.0
 11
392.8847569999999
 21
167.764322
 31
0.0
  0
LINE
  5
98CB
330
9759
100
AcDbEntity
  8
1
  6
Continuous
100
AcDbLine
 10
17.99485699999999
 20
45.34088299999999
 30
0.0
 11
20.594863
 21
45.34088299999999
 31
0.0
  0
LINE
  5
98CC
330
9759
100
AcDbEntity
  8
1
  6
Continuous
100
AcDbLine
 10
22.19486199999999
 20
45.34088299999999
 30
0.0
 11
22.394859
 21
45.34088299999999
 31
0.0
  0
LINE
  5
98CD
330
9759
100
AcDbEntity
  8
1
  6
Continuous
100
AcDbLine
 10
38.79485999999999
 20
45.34088299999999
 30
0.0
 11
41.39485899999999
 21
45.34088299999999
 31
0.0
  0
LINE
  5
98CE
330
9759
100
AcDbEntity
  8
1
  6
Continuous
100
AcDbLine
 10
36.994857
 20
45.34088299999999
 30
0.0
 11
37.194862
 21
45.34088299999999
 31
0.0
  0
LINE
  5
98CF
330
9759
100
AcDbEntity
  8
4
  6
CENTER
100
AcDbLine
 10
14.69485799999998
 20
46.244028
 30
0.0
 11
14.69485799999998
 21
40.64403
 31
0.0
  0
LINE
  5
98D0
330
9759
100
AcDbEntity
  8
4
  6
CENTER
100
AcDbLine
 10
44.694862
 20
46.244028
 30
0.0
 11
44.694862
 21
40.64403
 31
0.0
  0
LINE
  5
98D1
330
9759
100
AcDbEntity
  8
1
  6
Continuous
100
AcDbLine
 10
39.894859
 20
318.404246
 30
0.0
 11
19.494857
 21
318.404246
 31
0.0
  0
LINE
  5
98D2
330
9759
100
AcDbEntity
  8
4
  6
CENTER
100
AcDbLine
 10
44.694862
 20
317.5011079999998
 30
0.0
 11
44.694862
 21
323.101114
 31
0.0
  0
LINE
  5
98D3
330
9759
100
AcDbEntity
  8
4
  6
CENTER
100
AcDbLine
 10
14.69485799999998
 20
317.5011079999998
 30
0.0
 11
14.69485799999998
 21
323.101114
 31
0.0
  0
LINE
  5
98D4
330
9759
100
AcDbEntity
  8
4
  6
CENTER
100
AcDbLine
 10
94.694862
 20
317.5011079999998
 30
0.0
 11
94.694862
 21
323.101114
 31
0.0
  0
LINE
  5
98D5
330
9759
100
AcDbEntity
  8
4
  6
CENTER
100
AcDbLine
 10
124.694862
 20
317.5011079999998
 30
0.0
 11
124.694862
 21
323.101114
 31
0.0
  0
LINE
  5
98D6
330
9759
100
AcDbEntity
  8
5
  6
PHANTOM
100
AcDbLine
 10
39.79485999999999
 20
212.223948
 30
0.0
 11
19.594863
 21
212.223948
 31
0.0
  0
LINE
  5
98D7
330
9759
100
AcDbEntity
  8
5
  6
PHANTOM
100
AcDbLine
 10
38.79485999999999
 20
213.3871249999998
 30
0.0
 11
20.594863
 21
213.3871249999998
 31
0.0
  0
LINE
  5
98D8
330
9759
100
AcDbEntity
  8
5
  6
PHANTOM
100
AcDbLine
 10
38.79485999999999
 20
214.968149
 30
0.0
 11
20.594863
 21
214.968149
 31
0.0
  0
LINE
  5
98D9
330
9759
100
AcDbEntity
  8
5
  6
PHANTOM
100
AcDbLine
 10
17.99485699999999
 20
212.3681429999999
 30
0.0
 11
17.99485699999999
 21
204.928751
 31
0.0
  0
LINE
  5
98DA
330
9759
100
AcDbEntity
  8
5
  6
PHANTOM
100
AcDbLine
 10
19.594863
 20
212.387125
 30
0.0
 11
19.594863
 21
204.928751
 31
0.0
  0
LINE
  5
98DB
330
9759
100
AcDbEntity
  8
5
  6
PHANTOM
100
AcDbLine
 10
41.39485899999999
 20
212.3681429999999
 30
0.0
 11
41.39485899999999
 21
204.928751
 31
0.0
  0
LINE
  5
98DC
330
9759
100
AcDbEntity
  8
5
  6
PHANTOM
100
AcDbLine
 10
39.79485999999999
 20
212.387125
 30
0.0
 11
39.79485999999999
 21
204.928751
 31
0.0
  0
LINE
  5
98DD
330
9759
100
AcDbEntity
  8
1
  6
Continuous
100
AcDbLine
 10
20.444862
 20
308.101114
 30
0.0
 11
20.194862
 21
308.101114
 31
0.0
  0
LINE
  5
98DE
330
9759
100
AcDbEntity
  8
4
  6
CENTER
100
AcDbLine
 10
16.994857
 20
312.101114
 30
0.0
 11
42.394859
 21
312.101114
 31
0.0
  0
LINE
  5
98DF
330
9759
100
AcDbEntity
  8
1
  6
Continuous
100
AcDbLine
 10
39.086745
 20
314.307657
 30
0.0
 11
20.30297
 21
314.307657
 31
0.0
  0
LINE
  5
98E0
330
9759
100
AcDbEntity
  8
1
  6
Continuous
100
AcDbLine
 10
39.086745
 20
317.5238739999999
 30
0.0
 11
20.30297
 21
317.5238739999999
 31
0.0
  0
ARC
  5
98E1
330
9759
100
AcDbEntity
  8
1
  6
Continuous
100
AcDbCircle
 10
210.048789
 20
188.861765
 30
0.0
 40
6.75
100
AcDbArc
 50
89.19282
 51
180.000005
  0
ARC
  5
98E2
330
9759
100
AcDbEntity
  8
1
  6
Continuous
100
AcDbCircle
 10
210.298789
 20
175.011759
 30
0.0
 40
4.099999999999997
100
AcDbArc
 50
143.7094789999999
 51
180.000005
  0
ARC
  5
98E3
330
9759
100
AcDbEntity
  8
1
  6
Continuous
100
AcDbCircle
 10
213.798789
 20
146.6117649999999
 30
0.0
 40
3.0
100
AcDbArc
 50
269.9999969999999
 51
0.0
  0
ARC
  5
98E4
330
9759
100
AcDbEntity
  8
1
  6
Continuous
100
AcDbCircle
 10
211.798789
 20
138.6117649999999
 30
0.0
 40
5.0
100
AcDbArc
 50
90.00000300000001
 51
180.000005
  0
ARC
  5
98E5
330
9759
100
AcDbEntity
  8
1
  6
Continuous
100
AcDbCircle
 10
203.298789
 20
180.611765
 30
0.0
 40
1.0
100
AcDbArc
 50
269.9999969999999
 51
30.000001
  0
ARC
  5
98E6
330
9759
100
AcDbEntity
  8
1
  6
Continuous
100
AcDbCircle
 10
214.398765
 20
129.720835
 30
0.0
 40
12.6
100
AcDbArc
 50
180.000005
 51
226.2978819999999
  0
CIRCLE
  5
98E7
330
9759
100
AcDbEntity
  8
1
  6
Continuous
100
AcDbCircle
 10
211.798789
 20
149.6117649999999
 30
0.0
 40
2.0
  0
ARC
  5
98E8
330
9759
100
AcDbEntity
  8
1
  6
Continuous
100
AcDbCircle
 10
22.594863
 20
122.6117649999999
 30
0.0
 40
2.0
100
AcDbArc
 50
179.9999909999999
 51
270.000001
  0
ARC
  5
98E9
330
9759
100
AcDbEntity
  8
1
  6
Continuous
100
AcDbCircle
 10
36.79486
 20
122.6117649999999
 30
0.0
 40
2.0
100
AcDbArc
 50
269.9999969999999
 51
0.0
  0
ARC
  5
98EA
330
9759
100
AcDbEntity
  8
1
  6
Continuous
100
AcDbCircle
 10
209.2987889999998
 20
189.6117649999999
 30
0.0
 40
6.0
100
AcDbArc
 50
90.00000300000001
 51
183.477609
  0
ARC
  5
98EB
330
9759
100
AcDbEntity
  8
1
  6
Continuous
100
AcDbCircle
 10
209.2987889999998
 20
189.6117649999999
 30
0.0
 40
3.549999999999998
100
AcDbArc
 50
83.26538599999997
 51
257.0682479999999
  0
ARC
  5
98EC
330
9759
100
AcDbEntity
  8
1
  6
Continuous
100
AcDbCircle
 10
14.69485799999998
 20
154.611765
 30
0.0
 40
5.0
100
AcDbArc
 50
179.9999909999999
 51
270.000001
  0
ARC
  5
98ED
330
9759
100
AcDbEntity
  8
1
  6
Continuous
100
AcDbCircle
 10
44.694862
 20
154.611765
 30
0.0
 40
5.0
100
AcDbArc
 50
269.9999969999999
 51
0.0
  0
ARC
  5
98EE
330
9759
100
AcDbEntity
  8
1
  6
Continuous
100
AcDbCircle
 10
41.994857
 20
172.1536069999999
 30
0.0
 40
5.0
100
AcDbArc
 50
230.208183
 51
230.426325
  0
ARC
  5
98EF
330
9759
100
AcDbEntity
  8
1
  6
Continuous
100
AcDbCircle
 10
44.694862
 20
158.757731
 30
0.0
 40
5.0
100
AcDbArc
 50
0.0
 51
59.435978
  0
ARC
  5
98F0
330
9759
100
AcDbEntity
  8
1
  6
Continuous
100
AcDbCircle
 10
14.69485799999998
 20
158.757731
 30
0.0
 40
5.0
100
AcDbArc
 50
120.5640269999999
 51
180.000005
  0
ARC
  5
98F1
330
9759
100
AcDbEntity
  8
1
  6
Continuous
100
AcDbCircle
 10
17.394859
 20
172.1536069999999
 30
0.0
 40
5.0
100
AcDbArc
 50
309.5736699999998
 51
309.7918189999999
  0
CIRCLE
  5
98F2
330
9759
100
AcDbEntity
  8
1
  6
Continuous
100
AcDbCircle
 10
14.69485799999998
 20
155.611765
 30
0.0
 40
2.0
  0
CIRCLE
  5
98F3
330
9759
100
AcDbEntity
  8
1
  6
Continuous
100
AcDbCircle
 10
44.694862
 20
155.611765
 30
0.0
 40
2.0
  0
ARC
  5
98F4
330
9759
100
AcDbEntity
  8
1
  6
Continuous
100
AcDbCircle
 10
25.694862
 20
53.64403000000001
 30
0.0
 40
3.0
100
AcDbArc
 50
149.999997
 51
180.000005
  0
ARC
  5
98F5
330
9759
100
AcDbEntity
  8
1
  6
Continuous
100
AcDbCircle
 10
34.694862
 20
43.64403
 30
0.0
 40
1.5
100
AcDbArc
 50
90.00000300000001
 51
180.000005
  0
ARC
  5
98F6
330
9759
100
AcDbEntity
  8
1
  6
Continuous
100
AcDbCircle
 10
40.39485899999998
 20
170.081952
 30
0.0
 40
1.0
100
AcDbArc
 50
293.5781789999999
 51
0.0
  0
ARC
  5
98F7
330
9759
100
AcDbEntity
  8
1
  6
Continuous
100
AcDbCircle
 10
40.194862
 20
169.2489139999999
 30
0.0
 40
1.0
100
AcDbArc
 50
113.578178
 51
180.000005
  0
ARC
  5
98F8
330
9759
100
AcDbEntity
  8
1
  6
Continuous
100
AcDbCircle
 10
18.99485699999998
 20
170.081952
 30
0.0
 40
1.0
100
AcDbArc
 50
179.9999909999999
 51
246.421832
  0
ARC
  5
98F9
330
9759
100
AcDbEntity
  8
1
  6
Continuous
100
AcDbCircle
 10
19.194862
 20
169.2489139999999
 30
0.0
 40
1.0
100
AcDbArc
 50
0.0
 51
66.42182099999999
  0
ARC
  5
98FA
330
9759
100
AcDbEntity
  8
1
  6
Continuous
100
AcDbCircle
 10
210.298789
 20
164.299573
 30
0.0
 40
5.5
100
AcDbArc
 50
170.1667999999999
 51
358.8331950000001
  0
ARC
  5
98FB
330
9759
100
AcDbEntity
  8
1
  6
Continuous
100
AcDbCircle
 10
214.209281
 20
204.911755
 30
0.0
 40
1.9
100
AcDbArc
 50
206.256868
 51
322.7431349999998
  0
ARC
  5
98FC
330
9759
100
AcDbEntity
  8
1
  6
Continuous
100
AcDbCircle
 10
125.694862
 20
220.8117649999998
 30
0.0
 40
4.0
100
AcDbArc
 50
0.0
 51
90.00000300000001
  0
ARC
  5
98FD
330
9759
100
AcDbEntity
  8
1
  6
Continuous
100
AcDbCircle
 10
93.694862
 20
220.8117649999998
 30
0.0
 40
4.0
100
AcDbArc
 50
90.00000300000001
 51
180.000005
  0
ARC
  5
98FE
330
9759
100
AcDbEntity
  8
1
  6
Continuous
100
AcDbCircle
 10
93.694862
 20
217.1092499999998
 30
0.0
 40
4.0
100
AcDbArc
 50
179.9999909999999
 51
239.743574
  0
ARC
  5
98FF
330
9759
100
AcDbEntity
  8
1
  6
Continuous
100
AcDbCircle
 10
97.69486200000001
 20
205.51428
 30
0.0
 40
4.0
100
AcDbArc
 50
0.0
 51
59.74356199999999
  0
ARC
  5
9900
330
9759
100
AcDbEntity
  8
1
  6
Continuous
100
AcDbCircle
 10
121.694862
 20
205.51428
 30
0.0
 40
4.0
100
AcDbArc
 50
120.2564359999998
 51
180.000005
  0
ARC
  5
9901
330
9759
100
AcDbEntity
  8
1
  6
Continuous
100
AcDbCircle
 10
125.694862
 20
217.1092499999998
 30
0.0
 40
4.0
100
AcDbArc
 50
300.2564379999999
 51
0.0
  0
CIRCLE
  5
9902
330
9759
100
AcDbEntity
  8
1
  6
Continuous
100
AcDbCircle
 10
94.694862
 20
219.8117649999999
 30
0.0
 40
2.0
  0
CIRCLE
  5
9903
330
9759
100
AcDbEntity
  8
1
  6
Continuous
100
AcDbCircle
 10
124.694862
 20
219.8117649999999
 30
0.0
 40
2.0
  0
ARC
  5
9904
330
9759
100
AcDbEntity
  8
1
  6
Continuous
100
AcDbCircle
 10
279.198783
 20
204.9117709999999
 30
0.0
 40
5.099999999999997
100
AcDbArc
 50
208.192899
 51
0.0
  0
ARC
  5
9905
330
9759
100
AcDbEntity
  8
1
  6
Continuous
100
AcDbCircle
 10
279.198783
 20
204.9117709999999
 30
0.0
 40
3.5
100
AcDbArc
 50
208.192899
 51
0.0
  0
ARC
  5
9906
330
9759
100
AcDbEntity
  8
1
  6
Continuous
100
AcDbCircle
 10
104.6948619999999
 20
203.8117649999998
 30
0.0
 40
3.0
100
AcDbArc
 50
90.00000300000001
 51
180.000005
  0
ARC
  5
9907
330
9759
100
AcDbEntity
  8
1
  6
Continuous
100
AcDbCircle
 10
104.6948619999999
 20
203.056272
 30
0.0
 40
3.0
100
AcDbArc
 50
90.00000300000001
 51
180.000005
  0
ARC
  5
9908
330
9759
100
AcDbEntity
  8
1
  6
Continuous
100
AcDbCircle
 10
114.694862
 20
203.8117649999998
 30
0.0
 40
3.0
100
AcDbArc
 50
0.0
 51
90.00000300000001
  0
ARC
  5
9909
330
9759
100
AcDbEntity
  8
1
  6
Continuous
100
AcDbCircle
 10
114.694862
 20
203.056272
 30
0.0
 40
3.0
100
AcDbArc
 50
0.0
 51
90.00000300000001
  0
ARC
  5
990A
330
9759
100
AcDbEntity
  8
1
  6
Continuous
100
AcDbCircle
 10
480.6948769999998
 20
220.8117649999998
 30
0.0
 40
4.0
100
AcDbArc
 50
0.0
 51
90.00000300000001
  0
ARC
  5
990B
330
9759
100
AcDbEntity
  8
1
  6
Continuous
100
AcDbCircle
 10
448.6948769999998
 20
220.8117649999998
 30
0.0
 40
4.0
100
AcDbArc
 50
90.00000300000001
 51
180.000005
  0
ARC
  5
990C
330
9759
100
AcDbEntity
  8
1
  6
Continuous
100
AcDbCircle
 10
448.6948769999998
 20
217.1092499999998
 30
0.0
 40
4.0
100
AcDbArc
 50
179.9999909999999
 51
239.743574
  0
ARC
  5
990D
330
9759
100
AcDbEntity
  8
1
  6
Continuous
100
AcDbCircle
 10
476.6948769999998
 20
205.51428
 30
0.0
 40
4.0
100
AcDbArc
 50
120.2564359999998
 51
180.000005
  0
ARC
  5
990E
330
9759
100
AcDbEntity
  8
1
  6
Continuous
100
AcDbCircle
 10
480.6948769999998
 20
217.1092499999998
 30
0.0
 40
4.0
100
AcDbArc
 50
300.2564379999999
 51
0.0
  0
CIRCLE
  5
990F
330
9759
100
AcDbEntity
  8
1
  6
Continuous
100
AcDbCircle
 10
479.6948769999998
 20
219.8117649999999
 30
0.0
 40
2.0
  0
ARC
  5
9910
330
9759
100
AcDbEntity
  8
1
  6
Continuous
100
AcDbCircle
 10
452.6948769999998
 20
205.51428
 30
0.0
 40
4.0
100
AcDbArc
 50
0.0
 51
59.74356199999999
  0
CIRCLE
  5
9911
330
9759
100
AcDbEntity
  8
1
  6
Continuous
100
AcDbCircle
 10
449.6948769999998
 20
219.8117649999999
 30
0.0
 40
2.0
  0
ARC
  5
9912
330
9759
100
AcDbEntity
  8
1
  6
Continuous
100
AcDbCircle
 10
104.6948619999999
 20
312.601114
 30
0.0
 40
3.0
100
AcDbArc
 50
179.9999909999999
 51
270.000001
  0
ARC
  5
9913
330
9759
100
AcDbEntity
  8
1
  6
Continuous
100
AcDbCircle
 10
104.6948619999999
 20
314.0115149999999
 30
0.0
 40
3.0
100
AcDbArc
 50
179.9999909999999
 51
270.000001
  0
ARC
  5
9914
330
9759
100
AcDbEntity
  8
1
  6
Continuous
100
AcDbCircle
 10
114.694862
 20
312.601114
 30
0.0
 40
3.0
100
AcDbArc
 50
270.0000039999998
 51
0.000005
  0
ARC
  5
9915
330
9759
100
AcDbEntity
  8
1
  6
Continuous
100
AcDbCircle
 10
114.694862
 20
314.0115149999999
 30
0.0
 40
3.0
100
AcDbArc
 50
270.0000039999998
 51
0.000005
  0
ARC
  5
9916
330
9759
100
AcDbEntity
  8
1
  6
Continuous
100
AcDbCircle
 10
29.694862
 20
311.101114
 30
0.0
 40
3.25
100
AcDbArc
 50
139.829654
 51
40.17034699999999
  0
ARC
  5
9917
330
9759
100
AcDbEntity
  8
1
  6
Continuous
100
AcDbCircle
 10
29.694862
 20
311.101114
 30
0.0
 40
5.65
100
AcDbArc
 50
218.277372
 51
321.72263
  0
ARC
  5
9918
330
9759
100
AcDbEntity
  8
1
  6
Continuous
100
AcDbCircle
 10
29.694862
 20
197.893015
 30
0.0
 40
5.78125
100
AcDbArc
 50
235.7945399999999
 51
304.205459
  0
ARC
  5
9919
330
9759
100
AcDbEntity
  8
1
  6
Continuous
100
AcDbCircle
 10
29.694862
 20
181.3305149999999
 30
0.0
 40
5.78125
100
AcDbArc
 50
55.794541
 51
124.20546
  0
CIRCLE
  5
991A
330
9759
100
AcDbEntity
  8
1
  6
Continuous
100
AcDbCircle
 10
384.694877
 20
180.611765
 30
0.0
 40
2.0
  0
ARC
  5
991B
330
9759
100
AcDbEntity
  8
1
  6
Continuous
100
AcDbCircle
 10
380.194877
 20
145.011774
 30
0.0
 40
1.5
100
AcDbArc
 50
179.9999909999999
 51
270.000001
  0
ARC
  5
991C
330
9759
100
AcDbEntity
  8
1
  6
Continuous
100
AcDbCircle
 10
369.694877
 20
154.611765
 30
0.0
 40
5.0
100
AcDbArc
 50
179.9999909999999
 51
270.000001
  0
ARC
  5
991D
330
9759
100
AcDbEntity
  8
1
  6
Continuous
100
AcDbCircle
 10
399.694877
 20
154.611765
 30
0.0
 40
5.0
100
AcDbArc
 50
269.9999969999999
 51
0.0
  0
ARC
  5
991E
330
9759
100
AcDbEntity
  8
1
  6
Continuous
100
AcDbCircle
 10
379.694877
 20
148.1117649999999
 30
0.0
 40
1.5
100
AcDbArc
 50
0.0
 51
90.00000300000001
  0
ARC
  5
991F
330
9759
100
AcDbEntity
  8
1
  6
Continuous
100
AcDbCircle
 10
393.194877
 20
148.1117649999999
 30
0.0
 40
1.5
100
AcDbArc
 50
90.00000300000001
 51
180.000005
  0
CIRCLE
  5
9920
330
9759
100
AcDbEntity
  8
1
  6
Continuous
100
AcDbCircle
 10
369.694877
 20
155.611765
 30
0.0
 40
2.0
  0
CIRCLE
  5
9921
330
9759
100
AcDbEntity
  8
1
  6
Continuous
100
AcDbCircle
 10
399.694877
 20
155.611765
 30
0.0
 40
2.0
  0
ARC
  5
9922
330
9759
100
AcDbEntity
  8
1
  6
Continuous
100
AcDbCircle
 10
395.194877
 20
172.198679
 30
0.0
 40
5.0
100
AcDbArc
 50
179.9999909999999
 51
242.4823979999999
  0
ARC
  5
9923
330
9759
100
AcDbEntity
  8
1
  6
Continuous
100
AcDbCircle
 10
377.5948399999998
 20
122.6117649999999
 30
0.0
 40
2.0
100
AcDbArc
 50
179.9999909999999
 51
270.000001
  0
ARC
  5
9924
330
9759
100
AcDbEntity
  8
1
  6
Continuous
100
AcDbCircle
 10
391.7948519999998
 20
122.6117649999999
 30
0.0
 40
2.0
100
AcDbArc
 50
269.9999969999999
 51
0.0
  0
ARC
  5
9925
330
9759
100
AcDbEntity
  8
1
  6
Continuous
100
AcDbCircle
 10
373.994865
 20
170.081952
 30
0.0
 40
1.0
100
AcDbArc
 50
179.9999909999999
 51
246.421832
  0
ARC
  5
9926
330
9759
100
AcDbEntity
  8
1
  6
Continuous
100
AcDbCircle
 10
374.194877
 20
169.2489139999999
 30
0.0
 40
1.0
100
AcDbArc
 50
0.0
 51
66.42182099999999
  0
ARC
  5
9927
330
9759
100
AcDbEntity
  8
1
  6
Continuous
100
AcDbCircle
 10
395.3948889999999
 20
170.081952
 30
0.0
 40
1.0
100
AcDbArc
 50
293.5781789999999
 51
0.0
  0
ARC
  5
9928
330
9759
100
AcDbEntity
  8
1
  6
Continuous
100
AcDbCircle
 10
395.194877
 20
169.2489139999999
 30
0.0
 40
1.0
100
AcDbArc
 50
113.578178
 51
180.000005
  0
ARC
  5
9929
330
9759
100
AcDbEntity
  8
1
  6
Continuous
100
AcDbCircle
 10
25.694862
 20
310.101114
 30
0.0
 40
3.0
100
AcDbArc
 50
235.481895
 51
269.9999969999999
  0
ARC
  5
992A
330
9759
100
AcDbEntity
  8
1
  6
Continuous
100
AcDbCircle
 10
34.694862
 20
320.1011139999998
 30
0.0
 40
1.5
100
AcDbArc
 50
203.578177
 51
269.9999969999999
  0
ARC
  5
992B
330
9759
100
AcDbEntity
  8
1
  6
Continuous
100
AcDbCircle
 10
209.2987889999998
 20
189.6117649999999
 30
0.0
 40
3.5
100
AcDbArc
 50
83.309695
 51
257.0239390000001
  0
ARC
  5
992C
330
9759
100
AcDbEntity
  8
1
  6
Continuous
100
AcDbCircle
 10
40.59484
 20
308.156016
 30
0.0
 40
0.8
100
AcDbArc
 50
284.4775119999998
 51
0.0
  0
ARC
  5
992D
330
9759
100
AcDbEntity
  8
1
  6
Continuous
100
AcDbCircle
 10
39.99484199999999
 20
306.9560029999998
 30
0.0
 40
0.8
100
AcDbArc
 50
104.477511
 51
180.000005
  0
ARC
  5
992E
330
9759
100
AcDbEntity
  8
1
  6
Continuous
100
AcDbCircle
 10
18.79485999999999
 20
308.1560459999999
 30
0.0
 40
0.8
100
AcDbArc
 50
179.9999909999999
 51
255.522486
  0
ARC
  5
992F
330
9759
100
AcDbEntity
  8
1
  6
Continuous
100
AcDbCircle
 10
19.394859
 20
306.9560339999998
 30
0.0
 40
0.8
100
AcDbArc
 50
0.0
 51
75.52248799999998
  0
CIRCLE
  5
9930
330
9759
100
AcDbEntity
  8
1
  6
Continuous
100
AcDbCircle
 10
29.694862
 20
311.101114
 30
0.0
 40
1.75
  0
CIRCLE
  5
9931
330
9759
100
AcDbEntity
  8
1
  6
Continuous
100
AcDbCircle
 10
29.694862
 20
311.101114
 30
0.0
 40
1.0
  0
ARC
  5
9932
330
9759
100
AcDbEntity
  8
1
  6
Continuous
100
AcDbCircle
 10
29.694862
 20
51.64403
 30
0.0
 40
3.25
100
AcDbArc
 50
140.284859
 51
219.7151369999999
  0
ARC
  5
9933
330
9759
100
AcDbEntity
  8
1
  6
Continuous
100
AcDbCircle
 10
39.894859
 20
311.9272859999999
 30
0.0
 40
1.5
100
AcDbArc
 50
0.0
 51
90.00000300000001
  0
ARC
  5
9934
330
9759
100
AcDbEntity
  8
1
  6
Continuous
100
AcDbCircle
 10
19.494857
 20
311.9272859999999
 30
0.0
 40
1.5
100
AcDbArc
 50
90.00000300000001
 51
180.000005
  0
ARC
  5
9935
330
9759
100
AcDbEntity
  8
1
  6
Continuous
100
AcDbCircle
 10
38.79485999999999
 20
201.555951
 30
0.0
 40
2.6
100
AcDbArc
 50
0.0
 51
90.00000300000001
  0
ARC
  5
9936
330
9759
100
AcDbEntity
  8
1
  6
Continuous
100
AcDbCircle
 10
20.594863
 20
201.555951
 30
0.0
 40
2.6
100
AcDbArc
 50
90.00000300000001
 51
180.000005
  0
ARC
  5
9937
330
9759
100
AcDbEntity
  8
1
  6
Continuous
100
AcDbCircle
 10
20.594863
 20
201.5749329999999
 30
0.0
 40
1.0
100
AcDbArc
 50
90.00000300000001
 51
180.000005
  0
ARC
  5
9938
330
9759
100
AcDbEntity
  8
1
  6
Continuous
100
AcDbCircle
 10
38.79485999999999
 20
201.5749329999999
 30
0.0
 40
1.0
100
AcDbArc
 50
0.0
 51
90.00000300000001
  0
ARC
  5
9939
330
9759
100
AcDbEntity
  8
1
  6
Continuous
100
AcDbCircle
 10
393.7948519999998
 20
201.555951
 30
0.0
 40
2.6
100
AcDbArc
 50
0.0
 51
90.00000300000001
  0
ARC
  5
993A
330
9759
100
AcDbEntity
  8
1
  6
Continuous
100
AcDbCircle
 10
375.5948399999998
 20
201.555951
 30
0.0
 40
2.6
100
AcDbArc
 50
90.00000300000001
 51
180.000005
  0
ARC
  5
993B
330
9759
100
AcDbEntity
  8
1
  6
Continuous
100
AcDbCircle
 10
393.7948519999998
 20
201.072461
 30
0.0
 40
1.0
100
AcDbArc
 50
0.0
 51
90.00000300000001
  0
ARC
  5
993C
330
9759
100
AcDbEntity
  8
1
  6
Continuous
100
AcDbCircle
 10
375.5948399999998
 20
201.072461
 30
0.0
 40
1.0
100
AcDbArc
 50
90.00000300000001
 51
180.000005
  0
ARC
  5
993D
330
9759
100
AcDbEntity
  8
1
  6
Continuous
100
AcDbCircle
 10
375.5948399999998
 20
201.0767329999999
 30
0.0
 40
2.6
100
AcDbArc
 50
90.00000300000001
 51
180.000005
  0
ARC
  5
993E
330
9759
100
AcDbEntity
  8
1
  6
Continuous
100
AcDbCircle
 10
393.7948519999998
 20
201.0767329999999
 30
0.0
 40
2.6
100
AcDbArc
 50
0.0
 51
90.00000300000001
  0
ARC
  5
993F
330
9759
100
AcDbEntity
  8
1
  6
Continuous
100
AcDbCircle
 10
21.594863
 20
180.611765
 30
0.0
 40
1.0
100
AcDbArc
 50
179.9999909999999
 51
270.000001
  0
ARC
  5
9940
330
9759
100
AcDbEntity
  8
1
  6
Continuous
100
AcDbCircle
 10
37.79486
 20
180.611765
 30
0.0
 40
1.0
100
AcDbArc
 50
269.9999969999999
 51
0.0
  0
ARC
  5
9941
330
9759
100
AcDbEntity
  8
1
  6
Continuous
100
AcDbCircle
 10
210.048789
 20
188.861765
 30
0.0
 40
6.75
100
AcDbArc
 50
0.0
 51
20.936154
  0
CIRCLE
  5
9942
330
9759
100
AcDbEntity
  8
1
  6
Continuous
100
AcDbCircle
 10
210.298789
 20
164.299573
 30
0.0
 40
2.75
  0
CIRCLE
  5
9943
330
9759
100
AcDbEntity
  8
1
  6
Continuous
100
AcDbCircle
 10
210.298789
 20
164.299573
 30
0.0
 40
1.5
  0
ARC
  5
9944
330
9759
100
AcDbEntity
  8
1
  6
Continuous
100
AcDbCircle
 10
393.694877
 20
202.071179
 30
0.0
 40
2.0
100
AcDbArc
 50
31.87770200000001
 51
90.00000300000001
  0
ARC
  5
9945
330
9759
100
AcDbEntity
  8
1
  6
Continuous
100
AcDbCircle
 10
375.694877
 20
202.071179
 30
0.0
 40
2.0
100
AcDbArc
 50
90.00000300000001
 51
148.122296
  0
ARC
  5
9946
330
9759
100
AcDbEntity
  8
1
  6
Continuous
100
AcDbCircle
 10
369.694877
 20
154.611765
 30
0.0
 40
5.0
100
AcDbArc
 50
180.000005
 51
270.000001
  0
ARC
  5
9947
330
9759
100
AcDbEntity
  8
1
  6
Continuous
100
AcDbCircle
 10
374.194877
 20
172.198679
 30
0.0
 40
5.0
100
AcDbArc
 50
297.5176
 51
0.0
  0
ARC
  5
9948
330
9759
100
AcDbEntity
  8
1
  6
Continuous
100
AcDbCircle
 10
369.694877
 20
158.5787449999999
 30
0.0
 40
5.0
100
AcDbArc
 50
117.5175979999998
 51
180.000005
  0
ARC
  5
9949
330
9759
100
AcDbEntity
  8
1
  6
Continuous
100
AcDbCircle
 10
399.694877
 20
158.5787449999999
 30
0.0
 40
5.0
100
AcDbArc
 50
0.0
 51
62.48239999999999
  0
ARC
  5
994A
330
9759
100
AcDbEntity
  8
1
  6
Continuous
100
AcDbCircle
 10
19.494857
 20
316.904246
 30
0.0
 40
1.5
100
AcDbArc
 50
90.00000300000001
 51
180.000005
  0
ARC
  5
994B
330
9759
100
AcDbEntity
  8
1
  6
Continuous
100
AcDbCircle
 10
39.894859
 20
316.904246
 30
0.0
 40
1.5
100
AcDbArc
 50
0.0
 51
90.00000300000001
  0
ARC
  5
994C
330
9759
100
AcDbEntity
  8
5
  6
PHANTOM
100
AcDbCircle
 10
20.594863
 20
212.387125
 30
0.0
 40
1.0
100
AcDbArc
 50
90.00000300000001
 51
180.000005
  0
ARC
  5
994D
330
9759
100
AcDbEntity
  8
5
  6
PHANTOM
100
AcDbCircle
 10
38.79485999999999
 20
212.3681429999999
 30
0.0
 40
2.6
100
AcDbArc
 50
0.0
 51
90.00000300000001
  0
ARC
  5
994E
330
9759
100
AcDbEntity
  8
5
  6
PHANTOM
100
AcDbCircle
 10
38.79485999999999
 20
212.387125
 30
0.0
 40
1.0
100
AcDbArc
 50
0.0
 51
90.00000300000001
  0
ARC
  5
994F
330
9759
100
AcDbEntity
  8
5
  6
PHANTOM
100
AcDbCircle
 10
20.594863
 20
212.3681429999999
 30
0.0
 40
2.6
100
AcDbArc
 50
90.00000300000001
 51
180.000005
  0
ARC
  5
9950
330
9759
100
AcDbEntity
  8
1
  6
Continuous
100
AcDbCircle
 10
20.30297
 20
315.9157809999999
 30
0.0
 40
1.608112
100
AcDbArc
 50
90.00000300000001
 51
270.000001
  0
ARC
  5
9951
330
9759
100
AcDbEntity
  8
1
  6
Continuous
100
AcDbCircle
 10
39.086745
 20
315.9157809999999
 30
0.0
 40
1.608112
100
AcDbArc
 50
269.9999969999999
 51
90.00000300000001
  0
LINE
  5
9952
330
9759
100
AcDbEntity
  8
1
  6
Continuous
100
AcDbLine
 10
41.19486199999999
 20
166.6314489999998
 30
0.0
 11
47.237365
 21
163.063029
 31
0.0
  0
LINE
  5
9953
330
9759
100
AcDbEntity
  8
1
  6
Continuous
100
AcDbLine
 10
18.194862
 20
166.631453
 30
0.0
 11
12.152358
 21
163.063059
 31
0.0
  0
LINE
  5
9954
330
9759
100
AcDbEntity
  8
1
  6
Continuous
100
AcDbLine
 10
219.2987889999999
 20
174.611796
 30
0.0
 11
217.6987829999999
 21
174.611796
 31
0.0
  0
ARC
  5
9955
330
9759
100
AcDbEntity
  8
1
  6
Continuous
100
AcDbCircle
 10
217.6987889999999
 20
145.1117739999999
 30
0.0
 40
1.6
100
AcDbArc
 50
270.0
 51
0.0
  0
ARC
  5
9956
330
9759
100
AcDbEntity
  8
1
  6
Continuous
100
AcDbCircle
 10
22.194863
 20
305.201114
 30
0.0
 40
1.6
100
AcDbArc
 50
183.5833219999999
 51
270.0
  0
ARC
  5
9957
330
9759
100
AcDbEntity
  8
1
  6
Continuous
100
AcDbCircle
 10
37.19485999999999
 20
305.201114
 30
0.0
 40
1.6
100
AcDbArc
 50
270.0
 51
356.4166779999998
  0
ARC
  5
9958
330
9759
100
AcDbEntity
  8
1
  6
Continuous
100
AcDbCircle
 10
23.99485899999999
 20
319.5011139999999
 30
0.0
 40
1.6
100
AcDbArc
 50
90.0
 51
180.0
  0
ARC
  5
9959
330
9759
100
AcDbEntity
  8
1
  6
Continuous
100
AcDbCircle
 10
35.394857
 20
319.5011139999999
 30
0.0
 40
1.6
100
AcDbArc
 50
0.0
 51
90.0
  0
ARC
  5
995A
330
9759
100
AcDbEntity
  8
1
  6
Continuous
100
AcDbCircle
 10
22.194863
 20
58.54403000000001
 30
0.0
 40
1.6
100
AcDbArc
 50
90.0
 51
180.0
  0
ARC
  5
995B
330
9759
100
AcDbEntity
  8
1
  6
Continuous
100
AcDbCircle
 10
37.19485999999999
 20
58.54403000000001
 30
0.0
 40
1.6
100
AcDbArc
 50
0.0
 51
90.0
  0
ENDSEC
  0
SECTION
  2
OBJECTS
  0
DICTIONARY
  5
9747
330
0
100
AcDbDictionary
281
     1
  3
ACAD_CIP_PREVIOUS_PRODUCT_INFO
350
99BF
  3
ACAD_COLOR
350
99A1
  3
ACAD_DETAILVIEWSTYLE
350
99BA
  3
ACAD_GROUP
350
9748
  3
ACAD_LAYOUT
350
9754
  3
ACAD_MATERIAL
350
996F
  3
ACAD_MLEADERSTYLE
350
99B6
  3
ACAD_MLINESTYLE
350
9751
  3
ACAD_PLOTSETTINGS
350
9753
  3
ACAD_PLOTSTYLENAME
350
996D
  3
ACAD_SCALELIST
350
99A4
  3
ACAD_SECTIONVIEWSTYLE
350
99B8
  3
ACAD_TABLESTYLE
350
99A2
  3
ACAD_VISUALSTYLE
350
9988
  3
ACDB_RECOMPOSE_DATA
350
99DD
  3
AcDbVariableDictionary
350
99D0
  3
DWGPROPS
350
99DE
  0
DICTIONARY
  5
99C0
330
974B
100
AcDbDictionary
280
     1
281
     1
  3
ADSK_XREC_LAYER_RECONCILED
360
99C1
  0
DICTIONARY
  5
99C2
330
9761
100
AcDbDictionary
280
     1
281
     1
  3
ADSK_XREC_LAYER_RECONCILED
360
99C3
  0
DICTIONARY
  5
99C4
330
9762
100
AcDbDictionary
280
     1
281
     1
  3
ADSK_XREC_LAYER_RECONCILED
360
99C5
  0
DICTIONARY
  5
99C6
330
9763
100
AcDbDictionary
280
     1
281
     1
  3
ADSK_XREC_LAYER_RECONCILED
360
99C7
  0
DICTIONARY
  5
99C8
330
9764
100
AcDbDictionary
280
     1
281
     1
  3
ADSK_XREC_LAYER_RECONCILED
360
99C9
  0
DICTIONARY
  5
99CA
330
9765
100
AcDbDictionary
280
     1
281
     1
  3
ADSK_XREC_LAYER_RECONCILED
360
99CB
  0
DICTIONARY
  5
99CC
330
9766
100
AcDbDictionary
280
     1
281
     1
  3
ADSK_XREC_LAYER_RECONCILED
360
99CD
  0
DICTIONARY
  5
99CE
330
9767
100
AcDbDictionary
280
     1
281
     1
  3
ADSK_XREC_LAYER_RECONCILED
360
99CF
  0
DICTIONARY
  5
9968
330
9759
100
AcDbDictionary
281
     1
  3
ACAD_LAYOUTSELFREF
350
9969
  0
DICTIONARY
  5
9966
330
9755
100
AcDbDictionary
281
     1
  3
ACAD_LAYOUTSELFREF
350
9967
  0
XRECORD
  5
99BF
102
{ACAD_REACTORS
330
9747
102
}
330
9747
100
AcDbXrecord
280
     1
300
ACDLT
300
2014
300
ACDLT_F_S
  0
DICTIONARY
  5
99A1
102
{ACAD_REACTORS
330
9747
102
}
330
9747
100
AcDbDictionary
281
     1
  0
DICTIONARY
  5
99BA
102
{ACAD_REACTORS
330
9747
102
}
330
9747
100
AcDbDictionary
281
     1
  3
Imperial24
350
99BB
  0
DICTIONARY
  5
9748
102
{ACAD_REACTORS
330
9747
102
}
330
9747
100
AcDbDictionary
281
     1
  0
DICTIONARY
  5
9754
102
{ACAD_REACTORS
330
9747
102
}
330
9747
100
AcDbDictionary
281
     1
  3
Model
350
99BC
  3
レイアウト1
350
99BD
  0
DICTIONARY
  5
996F
102
{ACAD_REACTORS
330
9747
102
}
330
9747
100
AcDbDictionary
281
     1
  3
ByBlock
350
9978
  3
ByLayer
350
9970
  3
Global
350
9980
  0
DICTIONARY
  5
99B6
102
{ACAD_REACTORS
330
9747
102
}
330
9747
100
AcDbDictionary
281
     1
  3
Standard
350
99B7
  0
DICTIONARY
  5
9751
102
{ACAD_REACTORS
330
9747
102
}
330
9747
100
AcDbDictionary
281
     1
  3
STANDARD
350
9752
  0
DICTIONARY
  5
9753
102
{ACAD_REACTORS
330
9747
102
}
330
9747
100
AcDbDictionary
281
     1
  0
ACDBDICTIONARYWDFLT
  5
996D
102
{ACAD_REACTORS
330
9747
102
}
330
9747
100
AcDbDictionary
281
     1
  3
Normal
350
996E
100
AcDbDictionaryWithDefault
340
996E
  0
DICTIONARY
  5
99A4
102
{ACAD_REACTORS
330
9747
102
}
330
9747
100
AcDbDictionary
281
     1
  3
A0
350
99A5
  3
A1
350
99A6
  3
A2
350
99A7
  3
A3
350
99A8
  3
A4
350
99A9
  3
A5
350
99AA
  3
A6
350
99AB
  3
A7
350
99AC
  3
A8
350
99AD
  3
A9
350
99AE
  3
B0
350
99AF
  3
B1
350
99B0
  3
B2
350
99B1
  3
B3
350
99B2
  3
B4
350
99B3
  3
B5
350
99B4
  3
B6
350
99B5
  0
DICTIONARY
  5
99B8
102
{ACAD_REACTORS
330
9747
102
}
330
9747
100
AcDbDictionary
281
     1
  3
Imperial24
350
99B9
  0
DICTIONARY
  5
99A2
102
{ACAD_REACTORS
330
9747
102
}
330
9747
100
AcDbDictionary
281
     1
  3
Standard
350
99A3
  0
DICTIONARY
  5
9988
102
{ACAD_REACTORS
330
9747
102
}
330
9747
100
AcDbDictionary
281
     1
  3
2dWireframe
350
998E
  3
Basic
350
998D
  3
Brighten
350
9994
  3
ColorChange
350
9998
  3
Conceptual
350
9991
  3
Dim
350
9993
  3
EdgeColorOff
350
99A0
  3
Facepattern
350
9997
  3
Flat
350
9989
  3
FlatWithEdges
350
998A
  3
Gouraud
350
998B
  3
GouraudWithEdges
350
998C
  3
Hidden
350
9990
  3
JitterOff
350
999E
  3
Linepattern
350
9996
  3
OverhangOff
350
999F
  3
Realistic
350
9992
  3
Shaded
350
999D
  3
Shaded with edges
350
999C
  3
Shades of Gray
350
9999
  3
Sketchy
350
999A
  3
Thicken
350
9995
  3
Wireframe
350
998F
  3
X-Ray
350
999B
  0
XRECORD
  5
99DD
102
{ACAD_REACTORS
330
9747
102
}
330
9747
100
AcDbXrecord
280
     1
 90
        1
330
99A3
  0
DICTIONARY
  5
99D0
102
{ACAD_REACTORS
330
9747
102
}
330
9747
100
AcDbDictionary
281
     1
  3
CANNOSCALE
350
99D5
  3
CMLEADERSTYLE
350
99D2
  3
CTABLESTYLE
350
99D1
  3
CVIEWDETAILSTYLE
350
99D3
  3
CVIEWSECTIONSTYLE
350
99D4
  3
DIMASSOC
350
99D8
  3
INDEXCTL
350
99D7
  3
SORTENTS
350
99D6
  3
XCLIPFRAME
350
99D9
  0
XRECORD
  5
99DE
102
{ACAD_REACTORS
330
9747
102
}
330
9747
100
AcDbXrecord
280
     1
  1
DWGPROPS COOKIE
  2

  3

  4

  6

  7

  8
Yoshitsune
  9

300
=
301
=
302
=
303
=
304
=
305
=
306
=
307
=
308
=
309
=
 40
0.0000130092592593
 41
2450980.386470023
 42
2457192.600742084
  1

 90
        0
  0
XRECORD
  5
99C1
102
{ACAD_REACTORS
330
99C0
102
}
330
99C0
100
AcDbXrecord
280
     1
290
     1
  0
XRECORD
  5
99C3
102
{ACAD_REACTORS
330
99C2
102
}
330
99C2
100
AcDbXrecord
280
     1
290
     1
  0
XRECORD
  5
99C5
102
{ACAD_REACTORS
330
99C4
102
}
330
99C4
100
AcDbXrecord
280
     1
290
     1
  0
XRECORD
  5
99C7
102
{ACAD_REACTORS
330
99C6
102
}
330
99C6
100
AcDbXrecord
280
     1
290
     1
  0
XRECORD
  5
99C9
102
{ACAD_REACTORS
330
99C8
102
}
330
99C8
100
AcDbXrecord
280
     1
290
     1
  0
XRECORD
  5
99CB
102
{ACAD_REACTORS
330
99CA
102
}
330
99CA
100
AcDbXrecord
280
     1
290
     1
  0
XRECORD
  5
99CD
102
{ACAD_REACTORS
330
99CC
102
}
330
99CC
100
AcDbXrecord
280
     1
290
     1
  0
XRECORD
  5
99CF
102
{ACAD_REACTORS
330
99CE
102
}
330
99CE
100
AcDbXrecord
280
     1
290
     1
  0
XRECORD
  5
9969
102
{ACAD_REACTORS
330
9968
102
}
330
9968
100
AcDbXrecord
280
     1
340
9759
  0
XRECORD
  5
9967
102
{ACAD_REACTORS
330
9966
102
}
330
9966
100
AcDbXrecord
280
     1
340
9755
  0
ACDBDETAILVIEWSTYLE
  5
99BB
102
{ACAD_XDICTIONARY
360
9A16
102
}
102
{ACAD_REACTORS
330
99BA
102
}
330
99BA
100
AcDbModelDocViewStyle
 70
     0
  3
Imperial24
290
     0
100
AcDbDetailViewStyle
 70
     0
 71
     0
 90
        3
 71
     1
340
974C
 40
0.24
340
0
 40
0.24
300

 40
0.36
280
     3
 71
     2
340
9750
 90
       25
 71
     3
340
974C
 40
0.24
 90
        1
 40
0.75
 90
        1
300
%<\AcVar ViewType \f "%tc1">% %<\AcVar ViewDetailId>%\PSCALE %<\AcVar ViewScale \f "%sn">%
 71
     4
340
9750
 90
       25
340
9750
 90
       25
280
     0
  0
LAYOUT
  5
99BC
102
{ACAD_XDICTIONARY
360
9A18
102
}
102
{ACAD_REACTORS
330
9754
102
}
330
9754
100
AcDbPlotSettings
  1

  2
Canon LBP9100C
  4

  6

 40
0.0
 41
0.0
 42
0.0
 43
0.0
 44
0.0
 45
0.0
 46
0.0
 47
0.0
 48
0.0
 49
0.0
140
0.0
141
0.0
142
1.0
143
1.0
 70
  1712
 72
     0
 73
     0
 74
     0
  7

 75
     0
147
1.0
148
0.0
149
0.0
100
AcDbLayout
  1
Model
 70
     1
 71
     0
 10
0.0
 20
0.0
 11
12.0
 21
9.0
 12
0.0
 22
0.0
 32
0.0
 14
0.0
 24
0.0
 34
0.0
 15
0.0
 25
0.0
 35
0.0
146
0.0
 13
0.0
 23
0.0
 33
0.0
 16
1.0
 26
0.0
 36
0.0
 17
0.0
 27
1.0
 37
0.0
 76
     0
330
9759
331
9965
  0
LAYOUT
  5
99BD
102
{ACAD_XDICTIONARY
360
9A1A
102
}
102
{ACAD_REACTORS
330
9754
102
}
330
9754
100
AcDbPlotSettings
  1

  2
Canon LBP9100C
  4

  6

 40
0.0
 41
0.0
 42
0.0
 43
0.0
 44
0.0
 45
0.0
 46
0.0
 47
0.0
 48
0.0
 49
0.0
140
0.0
141
0.0
142
1.0
143
1.0
 70
   688
 72
     0
 73
     0
 74
     5
  7

 75
    16
147
1.0
148
0.0
149
0.0
100
AcDbLayout
  1
レイアウト1
 70
     0
 71
     1
 10
0.0
 20
0.0
 11
420.0
 21
297.0
 12
0.0
 22
0.0
 32
0.0
 14
1.000000000000000E+20
 24
1.000000000000000E+20
 34
1.000000000000000E+20
 15
-1.000000000000000E+20
 25
-1.000000000000000E+20
 35
-1.000000000000000E+20
146
0.0
 13
0.0
 23
0.0
 33
0.0
 16
1.0
 26
0.0
 36
0.0
 17
0.0
 27
1.0
 37
0.0
 76
     0
330
9755
  0
MATERIAL
  5
9978
102
{ACAD_XDICTIONARY
360
9979
102
}
102
{ACAD_REACTORS
330
996F
102
}
330
996F
100
AcDbMaterial
  1
ByBlock
 72
     0
 43
0.0208333333333333
 43
0.0
 43
0.0
 43
0.0
 43
0.0
 43
0.0208333333333333
 43
0.0
 43
0.0
 43
0.0
 43
0.0
 43
1.0
 43
0.0
 43
0.0
 43
0.0
 43
0.0
 43
1.0
 77
     0
 47
0.0208333333333333
 47
0.0
 47
0.0
 47
0.0
 47
0.0
 47
0.0208333333333333
 47
0.0
 47
0.0
 47
0.0
 47
0.0
 47
1.0
 47
0.0
 47
0.0
 47
0.0
 47
0.0
 47
1.0
171
     0
 49
0.0208333333333333
 49
0.0
 49
0.0
 49
0.0
 49
0.0
 49
0.0208333333333333
 49
0.0
 49
0.0
 49
0.0
 49
0.0
 49
1.0
 49
0.0
 49
0.0
 49
0.0
 49
0.0
 49
1.0
175
     0
142
0.0208333333333333
142
0.0
142
0.0
142
0.0
142
0.0
142
0.0208333333333333
142
0.0
142
0.0
142
0.0
142
0.0
142
1.0
142
0.0
142
0.0
142
0.0
142
0.0
142
1.0
179
     0
144
0.0208333333333333
144
0.0
144
0.0
144
0.0
144
0.0
144
0.0208333333333333
144
0.0
144
0.0
144
0.0
144
0.0
144
1.0
144
0.0
144
0.0
144
0.0
144
0.0
144
1.0
147
0.0208333333333333
147
0.0
147
0.0
147
0.0
147
0.0
147
0.0208333333333333
147
0.0
147
0.0
147
0.0
147
0.0
147
1.0
147
0.0
147
0.0
147
0.0
147
0.0
147
1.0
  0
MATERIAL
  5
9970
102
{ACAD_XDICTIONARY
360
9971
102
}
102
{ACAD_REACTORS
330
996F
102
}
330
996F
100
AcDbMaterial
  1
ByLayer
 72
     0
 43
0.0208333333333333
 43
0.0
 43
0.0
 43
0.0
 43
0.0
 43
0.0208333333333333
 43
0.0
 43
0.0
 43
0.0
 43
0.0
 43
1.0
 43
0.0
 43
0.0
 43
0.0
 43
0.0
 43
1.0
 77
     0
 47
0.0208333333333333
 47
0.0
 47
0.0
 47
0.0
 47
0.0
 47
0.0208333333333333
 47
0.0
 47
0.0
 47
0.0
 47
0.0
 47
1.0
 47
0.0
 47
0.0
 47
0.0
 47
0.0
 47
1.0
171
     0
 49
0.0208333333333333
 49
0.0
 49
0.0
 49
0.0
 49
0.0
 49
0.0208333333333333
 49
0.0
 49
0.0
 49
0.0
 49
0.0
 49
1.0
 49
0.0
 49
0.0
 49
0.0
 49
0.0
 49
1.0
175
     0
142
0.0208333333333333
142
0.0
142
0.0
142
0.0
142
0.0
142
0.0208333333333333
142
0.0
142
0.0
142
0.0
142
0.0
142
1.0
142
0.0
142
0.0
142
0.0
142
0.0
142
1.0
179
     0
144
0.0208333333333333
144
0.0
144
0.0
144
0.0
144
0.0
144
0.0208333333333333
144
0.0
144
0.0
144
0.0
144
0.0
144
1.0
144
0.0
144
0.0
144
0.0
144
0.0
144
1.0
147
0.0208333333333333
147
0.0
147
0.0
147
0.0
147
0.0
147
0.0208333333333333
147
0.0
147
0.0
147
0.0
147
0.0
147
1.0
147
0.0
147
0.0
147
0.0
147
0.0
147
1.0
  0
MATERIAL
  5
9980
102
{ACAD_XDICTIONARY
360
9981
102
}
102
{ACAD_REACTORS
330
996F
102
}
330
996F
100
AcDbMaterial
  1
Global
 72
     0
 43
0.0208333333333333
 43
0.0
 43
0.0
 43
0.0
 43
0.0
 43
0.0208333333333333
 43
0.0
 43
0.0
 43
0.0
 43
0.0
 43
1.0
 43
0.0
 43
0.0
 43
0.0
 43
0.0
 43
1.0
 77
     0
 47
0.0208333333333333
 47
0.0
 47
0.0
 47
0.0
 47
0.0
 47
0.0208333333333333
 47
0.0
 47
0.0
 47
0.0
 47
0.0
 47
1.0
 47
0.0
 47
0.0
 47
0.0
 47
0.0
 47
1.0
171
     0
 49
0.0208333333333333
 49
0.0
 49
0.0
 49
0.0
 49
0.0
 49
0.0208333333333333
 49
0.0
 49
0.0
 49
0.0
 49
0.0
 49
1.0
 49
0.0
 49
0.0
 49
0.0
 49
0.0
 49
1.0
175
     0
142
0.0208333333333333
142
0.0
142
0.0
142
0.0
142
0.0
142
0.0208333333333333
142
0.0
142
0.0
142
0.0
142
0.0
142
1.0
142
0.0
142
0.0
142
0.0
142
0.0
142
1.0
179
     0
144
0.0208333333333333
144
0.0
144
0.0
144
0.0
144
0.0
144
0.0208333333333333
144
0.0
144
0.0
144
0.0
144
0.0
144
1.0
144
0.0
144
0.0
144
0.0
144
0.0
144
1.0
147
0.0208333333333333
147
0.0
147
0.0
147
0.0
147
0.0
147
0.0208333333333333
147
0.0
147
0.0
147
0.0
147
0.0
147
1.0
147
0.0
147
0.0
147
0.0
147
0.0
147
1.0
  0
MLEADERSTYLE
  5
99B7
102
{ACAD_REACTORS
330
99B6
102
}
330
99B6
100
AcDbMLeaderStyle
170
     2
171
     1
172
     0
 90
        2
 40
0.0
 41
0.0
173
     1
 91
-1056964608
340
974E
 92
       -2
290
     1
 42
0.09
291
     1
 43
0.36
  3
Standard
 44
0.18
300

342
974C
174
     1
178
     6
175
     1
176
     0
 93
-1056964608
 45
0.18
292
     0
297
     0
 46
0.18
 94
-1056964608
 47
1.0
 49
1.0
140
1.0
293
     1
141
0.0
294
     1
177
     0
142
1.0
295
     0
296
     0
143
0.125
1001
ACAD_MLEADERVER
1070
     2
  0
MLINESTYLE
  5
9752
102
{ACAD_REACTORS
330
9751
102
}
330
9751
100
AcDbMlineStyle
  2
STANDARD
 70
     0
  3

 62
   256
 51
90.0
 52
90.0
 71
     2
 49
0.5
 62
   256
  6
BYLAYER
 49
-0.5
 62
   256
  6
BYLAYER
  0
ACDBPLACEHOLDER
  5
996E
102
{ACAD_REACTORS
330
996D
102
}
330
996D
  0
SCALE
  5
99A5
102
{ACAD_REACTORS
330
99A4
102
}
330
99A4
100
AcDbScale
 70
     0
300
1:1
140
1.0
141
1.0
290
     1
  0
SCALE
  5
99A6
102
{ACAD_REACTORS
330
99A4
102
}
330
99A4
100
AcDbScale
 70
     0
300
1/128" = 1'-0"
140
0.0078125
141
12.0
290
     0
  0
SCALE
  5
99A7
102
{ACAD_REACTORS
330
99A4
102
}
330
99A4
100
AcDbScale
 70
     0
300
1/64" = 1'-0"
140
0.015625
141
12.0
290
     0
  0
SCALE
  5
99A8
102
{ACAD_REACTORS
330
99A4
102
}
330
99A4
100
AcDbScale
 70
     0
300
1/32" = 1'-0"
140
0.03125
141
12.0
290
     0
  0
SCALE
  5
99A9
102
{ACAD_REACTORS
330
99A4
102
}
330
99A4
100
AcDbScale
 70
     0
300
1/16" = 1'-0"
140
0.0625
141
12.0
290
     0
  0
SCALE
  5
99AA
102
{ACAD_REACTORS
330
99A4
102
}
330
99A4
100
AcDbScale
 70
     0
300
3/32" = 1'-0"
140
0.09375
141
12.0
290
     0
  0
SCALE
  5
99AB
102
{ACAD_REACTORS
330
99A4
102
}
330
99A4
100
AcDbScale
 70
     0
300
1/8" = 1'-0"
140
0.125
141
12.0
290
     0
  0
SCALE
  5
99AC
102
{ACAD_REACTORS
330
99A4
102
}
330
99A4
100
AcDbScale
 70
     0
300
3/16" = 1'-0"
140
0.1875
141
12.0
290
     0
  0
SCALE
  5
99AD
102
{ACAD_REACTORS
330
99A4
102
}
330
99A4
100
AcDbScale
 70
     0
300
1/4" = 1'-0"
140
0.25
141
12.0
290
     0
  0
SCALE
  5
99AE
102
{ACAD_REACTORS
330
99A4
102
}
330
99A4
100
AcDbScale
 70
     0
300
3/8" = 1'-0"
140
0.375
141
12.0
290
     0
  0
SCALE
  5
99AF
102
{ACAD_REACTORS
330
99A4
102
}
330
99A4
100
AcDbScale
 70
     0
300
1/2" = 1'-0"
140
0.5
141
12.0
290
     0
  0
SCALE
  5
99B0
102
{ACAD_REACTORS
330
99A4
102
}
330
99A4
100
AcDbScale
 70
     0
300
3/4" = 1'-0"
140
0.75
141
12.0
290
     0
  0
SCALE
  5
99B1
102
{ACAD_REACTORS
330
99A4
102
}
330
99A4
100
AcDbScale
 70
     0
300
1" = 1'-0"
140
1.0
141
12.0
290
     0
  0
SCALE
  5
99B2
102
{ACAD_REACTORS
330
99A4
102
}
330
99A4
100
AcDbScale
 70
     0
300
1-1/2" = 1'-0"
140
1.5
141
12.0
290
     0
  0
SCALE
  5
99B3
102
{ACAD_REACTORS
330
99A4
102
}
330
99A4
100
AcDbScale
 70
     0
300
3" = 1'-0"
140
3.0
141
12.0
290
     0
  0
SCALE
  5
99B4
102
{ACAD_REACTORS
330
99A4
102
}
330
99A4
100
AcDbScale
 70
     0
300
6" = 1'-0"
140
6.0
141
12.0
290
     0
  0
SCALE
  5
99B5
102
{ACAD_REACTORS
330
99A4
102
}
330
99A4
100
AcDbScale
 70
     0
300
1'-0" = 1'-0"
140
12.0
141
12.0
290
     0
  0
ACDBSECTIONVIEWSTYLE
  5
99B9
102
{ACAD_XDICTIONARY
360
9A14
102
}
102
{ACAD_REACTORS
330
99B8
102
}
330
99B8
100
AcDbModelDocViewStyle
 70
     0
  3
Imperial24
290
     0
100
AcDbSectionViewStyle
 70
     0
 71
     0
 90
       78
 71
     1
340
974C
 40
0.24
340
0
340
0
 40
0.24
300
I, O, Q, S, X, Z
 40
0.48
 90
        3
 40
0.18
 90
        1
 71
     2
340
9750
 90
       25
340
9750
 90
       50
 40
0.24
 40
0.0
 40
0.24
 71
     3
340
974C
 40
0.24
 90
        1
 40
0.75
 90
        1
300
%<\AcVar ViewType \f "%tc1">% %<\AcVar ViewSectionStartId>%-%<\AcVar ViewSectionEndId>%\PSCALE %<\AcVar ViewScale \f "%sn">%
 71
     4
300
ANSI31
 40
1.0
 90
        0
290
     0
290
     0
 90
        6
 40
0.0
 40
1.570796326794896
 40
0.2617993877991494
 40
1.308996938995747
 40
-0.2617993877991494
 40
1.832595714594046
  0
TABLESTYLE
  5
99A3
102
{ACAD_XDICTIONARY
360
99DB
102
}
102
{ACAD_REACTORS
330
99A2
102
}
330
99A2
100
AcDbTableStyle
  3
Standard
 70
     0
 71
     0
 40
0.06
 41
0.06
280
     0
281
     0
  7
STANDARD
140
0.18
170
     2
 62
     0
 63
     7
283
     0
274
    -2
284
     1
 64
     0
275
    -2
285
     1
 65
     0
276
    -2
286
     1
 66
     0
277
    -2
287
     1
 67
     0
278
    -2
288
     1
 68
     0
279
    -2
289
     1
 69
     0
  7
STANDARD
140
0.25
170
     5
 62
     0
 63
     7
283
     0
274
    -2
284
     1
 64
     0
275
    -2
285
     1
 65
     0
276
    -2
286
     1
 66
     0
277
    -2
287
     1
 67
     0
278
    -2
288
     1
 68
     0
279
    -2
289
     1
 69
     0
  7
STANDARD
140
0.18
170
     5
 62
     0
 63
     7
283
     0
274
    -2
284
     1
 64
     0
275
    -2
285
     1
 65
     0
276
    -2
286
     1
 66
     0
277
    -2
287
     1
 67
     0
278
    -2
288
     1
 68
     0
279
    -2
289
     1
 69
     0
  0
VISUALSTYLE
  5
998E
102
{ACAD_XDICTIONARY
360
99EC
102
}
102
{ACAD_REACTORS
330
9988
102
}
330
9988
100
AcDbVisualStyle
  2
2dWireframe
 70
     4
 71
     0
 72
     2
 73
     0
 90
        0
 40
-0.6
 41
-30.0
 62
     5
 63
     7
 74
     1
 91
        4
 64
     7
 65
   257
 75
     1
175
     1
 42
1.0
 92
        0
 66
   257
 43
1.0
 76
     1
 77
     6
 78
     2
 67
     7
 79
     5
170
     0
171
     0
290
     0
174
     0
 93
        1
 44
0.0
173
     0
291
     0
 45
0.0
1001
ACAD
1000
AcDbSavedByObjectVersion
1070
     0
  0
VISUALSTYLE
  5
998D
102
{ACAD_XDICTIONARY
360
99EA
102
}
102
{ACAD_REACTORS
330
9988
102
}
330
9988
100
AcDbVisualStyle
  2
Basic
 70
     7
 71
     1
 72
     0
 73
     1
 90
        0
 40
-0.6
 41
-30.0
 62
     5
 63
     7
 74
     0
 91
        4
 64
     7
 65
   257
 75
     1
175
     1
 42
1.0
 92
        8
 66
     7
 43
1.0
 76
     1
 77
     6
 78
     2
 67
     7
 79
     5
170
     0
171
     0
290
     0
174
     0
 93
        1
 44
0.0
173
     0
291
     1
 45
0.0
1001
ACAD
1000
AcDbSavedByObjectVersion
1070
     0
  0
VISUALSTYLE
  5
9994
102
{ACAD_XDICTIONARY
360
99F8
102
}
102
{ACAD_REACTORS
330
9988
102
}
330
9988
100
AcDbVisualStyle
  2
Brighten
 70
    12
 71
     2
 72
     2
 73
     0
 90
        0
 40
-0.6
 41
-30.0
 62
     5
 63
     7
 74
     1
 91
        4
 64
     7
 65
   257
 75
     1
175
     1
 42
1.0
 92
        8
 66
     7
 43
1.0
 76
     1
 77
     6
 78
     2
 67
     7
 79
     5
170
     0
171
     0
290
     0
174
     0
 93
        1
 44
50.0
173
     0
291
     1
 45
0.0
1001
ACAD
1000
AcDbSavedByObjectVersion
1070
     0
  0
VISUALSTYLE
  5
9998
102
{ACAD_XDICTIONARY
360
9A00
102
}
102
{ACAD_REACTORS
330
9988
102
}
330
9988
100
AcDbVisualStyle
  2
ColorChange
 70
    16
 71
     2
 72
     2
 73
     3
 90
        0
 40
-0.6
 41
-30.0
 62
     5
 63
     8
 74
     1
 91
        4
 64
     7
 65
   257
 75
     1
175
     1
 42
1.0
 92
        8
 66
     8
 43
1.0
 76
     1
 77
     6
 78
     2
 67
     7
 79
     5
170
     0
171
     0
290
     0
174
     0
 93
        1
 44
0.0
173
     0
291
     1
 45
0.0
1001
ACAD
1000
AcDbSavedByObjectVersion
1070
     0
  0
VISUALSTYLE
  5
9991
102
{ACAD_XDICTIONARY
360
99F2
102
}
102
{ACAD_REACTORS
330
9988
102
}
330
9988
100
AcDbVisualStyle
  2
Conceptual
 70
     9
 71
     3
 72
     2
 73
     0
 90
        0
 40
-0.6
 41
-30.0
 62
     5
 63
     7
 74
     2
 91
        2
 64
     7
 65
   257
 75
     1
175
     1
 42
179.0
 92
        8
 66
     7
 43
1.0
 76
     1
 77
     6
 78
     2
 67
     7
 79
     3
170
     0
171
     0
290
     0
174
     0
 93
        1
 44
0.0
173
     0
291
     0
 45
0.0
1001
ACAD
1000
AcDbSavedByObjectVersion
1070
     0
  0
VISUALSTYLE
  5
9993
102
{ACAD_XDICTIONARY
360
99F6
102
}
102
{ACAD_REACTORS
330
9988
102
}
330
9988
100
AcDbVisualStyle
  2
Dim
 70
    11
 71
     2
 72
     2
 73
     0
 90
        0
 40
-0.6
 41
-30.0
 62
     5
 63
     7
 74
     1
 91
        4
 64
     7
 65
   257
 75
     1
175
     1
 42
1.0
 92
        8
 66
     7
 43
1.0
 76
     1
 77
     6
 78
     2
 67
     7
 79
     5
170
     0
171
     0
290
     0
174
     0
 93
        1
 44
-50.0
173
     0
291
     1
 45
0.0
1001
ACAD
1000
AcDbSavedByObjectVersion
1070
     0
  0
VISUALSTYLE
  5
99A0
102
{ACAD_XDICTIONARY
360
9A10
102
}
102
{ACAD_REACTORS
330
9988
102
}
330
9988
100
AcDbVisualStyle
  2
EdgeColorOff
 70
    22
 71
     2
 72
     2
 73
     0
 90
        0
 40
-0.6
 41
-30.0
 62
     5
 63
     7
 74
     1
 91
        4
 64
     7
 65
   257
 75
     1
175
     1
 42
1.0
 92
        8
 66
     7
 43
1.0
 76
     1
 77
     6
 78
     2
 67
     7
 79
     5
170
     0
171
     0
290
     0
174
     0
 93
        1
 44
0.0
173
     0
291
     1
 45
0.0
1001
ACAD
1000
AcDbSavedByObjectVersion
1070
     0
  0
VISUALSTYLE
  5
9997
102
{ACAD_XDICTIONARY
360
99FE
102
}
102
{ACAD_REACTORS
330
9988
102
}
330
9988
100
AcDbVisualStyle
  2
Facepattern
 70
    15
 71
     2
 72
     2
 73
     0
 90
        0
 40
-0.6
 41
-30.0
 62
     5
 63
     7
 74
     1
 91
        4
 64
     7
 65
   257
 75
     1
175
     1
 42
1.0
 92
        8
 66
     7
 43
1.0
 76
     1
 77
     6
 78
     2
 67
     7
 79
     5
170
     0
171
     0
290
     0
174
     0
 93
        1
 44
0.0
173
     0
291
     1
 45
0.0
1001
ACAD
1000
AcDbSavedByObjectVersion
1070
     0
  0
VISUALSTYLE
  5
9989
102
{ACAD_XDICTIONARY
360
99E2
102
}
102
{ACAD_REACTORS
330
9988
102
}
330
9988
100
AcDbVisualStyle
  2
Flat
 70
     0
 71
     2
 72
     1
 73
     1
 90
        2
 40
-0.6
 41
30.0
 62
     5
 63
     7
 74
     0
 91
        0
 64
     7
 65
   257
 75
     1
175
     1
 42
1.0
 92
        8
 66
     7
 43
1.0
 76
     1
 77
     6
 78
     2
 67
     7
 79
     5
170
     0
171
     0
290
     0
174
     0
 93
       13
 44
0.0
173
     0
291
     1
 45
0.0
1001
ACAD
1000
AcDbSavedByObjectVersion
1070
     0
  0
VISUALSTYLE
  5
998A
102
{ACAD_XDICTIONARY
360
99E4
102
}
102
{ACAD_REACTORS
330
9988
102
}
330
9988
100
AcDbVisualStyle
  2
FlatWithEdges
 70
     1
 71
     2
 72
     1
 73
     1
 90
        2
 40
-0.6
 41
30.0
 62
     5
 63
     7
 74
     1
 91
        0
 64
     7
 65
   257
 75
     1
175
     1
 42
1.0
 92
        0
 66
   257
 43
1.0
 76
     1
 77
     6
 78
     2
 67
     7
 79
     5
170
     0
171
     0
290
     0
174
     0
 93
       13
 44
0.0
173
     0
291
     1
 45
0.0
1001
ACAD
1000
AcDbSavedByObjectVersion
1070
     0
  0
VISUALSTYLE
  5
998B
102
{ACAD_XDICTIONARY
360
99E6
102
}
102
{ACAD_REACTORS
330
9988
102
}
330
9988
100
AcDbVisualStyle
  2
Gouraud
 70
     2
 71
     2
 72
     2
 73
     1
 90
        2
 40
-0.6
 41
30.0
 62
     5
 63
     7
 74
     0
 91
        0
 64
     7
 65
   257
 75
     1
175
     1
 42
1.0
 92
        0
 66
     7
 43
1.0
 76
     1
 77
     6
 78
     2
 67
     7
 79
     5
170
     0
171
     0
290
     0
174
     0
 93
       13
 44
0.0
173
     0
291
     1
 45
0.0
1001
ACAD
1000
AcDbSavedByObjectVersion
1070
     0
  0
VISUALSTYLE
  5
998C
102
{ACAD_XDICTIONARY
360
99E8
102
}
102
{ACAD_REACTORS
330
9988
102
}
330
9988
100
AcDbVisualStyle
  2
GouraudWithEdges
 70
     3
 71
     2
 72
     2
 73
     1
 90
        2
 40
-0.6
 41
30.0
 62
     5
 63
     7
 74
     1
 91
        0
 64
     7
 65
   257
 75
     1
175
     1
 42
1.0
 92
        0
 66
   257
 43
1.0
 76
     1
 77
     6
 78
     2
 67
     7
 79
     5
170
     0
171
     0
290
     0
174
     0
 93
       13
 44
0.0
173
     0
291
     1
 45
0.0
1001
ACAD
1000
AcDbSavedByObjectVersion
1070
     0
  0
VISUALSTYLE
  5
9990
102
{ACAD_XDICTIONARY
360
99F0
102
}
102
{ACAD_REACTORS
330
9988
102
}
330
9988
100
AcDbVisualStyle
  2
Hidden
 70
     6
 71
     1
 72
     2
 73
     2
 90
        0
 40
-0.6
 41
-30.0
 62
     5
 63
     7
 74
     2
 91
        2
 64
     7
 65
   257
 75
     2
175
     1
 42
40.0
 92
        0
 66
   257
 43
1.0
 76
     1
 77
     6
 78
     2
 67
     7
 79
     3
170
     0
171
     0
290
     0
174
     0
 93
        1
 44
0.0
173
     0
291
     0
 45
0.0
1001
ACAD
1000
AcDbSavedByObjectVersion
1070
     0
  0
VISUALSTYLE
  5
999E
102
{ACAD_XDICTIONARY
360
9A0C
102
}
102
{ACAD_REACTORS
330
9988
102
}
330
9988
100
AcDbVisualStyle
  2
JitterOff
 70
    20
 71
     2
 72
     2
 73
     0
 90
        0
 40
-0.6
 41
-30.0
 62
     5
 63
     7
 74
     1
 91
        4
 64
     7
 65
   257
 75
     1
175
     1
 42
1.0
 92
       10
 66
     7
 43
1.0
 76
     1
 77
     6
 78
     2
 67
     7
 79
     5
170
     0
171
     0
290
     0
174
     0
 93
        1
 44
0.0
173
     0
291
     1
 45
0.0
1001
ACAD
1000
AcDbSavedByObjectVersion
1070
     0
  0
VISUALSTYLE
  5
9996
102
{ACAD_XDICTIONARY
360
99FC
102
}
102
{ACAD_REACTORS
330
9988
102
}
330
9988
100
AcDbVisualStyle
  2
Linepattern
 70
    14
 71
     2
 72
     2
 73
     0
 90
        0
 40
-0.6
 41
-30.0
 62
     5
 63
     7
 74
     1
 91
        4
 64
     7
 65
   257
 75
     7
175
     7
 42
1.0
 92
        8
 66
     7
 43
1.0
 76
     1
 77
     6
 78
     2
 67
     7
 79
     5
170
     0
171
     0
290
     0
174
     0
 93
        1
 44
0.0
173
     0
291
     1
 45
0.0
1001
ACAD
1000
AcDbSavedByObjectVersion
1070
     0
  0
VISUALSTYLE
  5
999F
102
{ACAD_XDICTIONARY
360
9A0E
102
}
102
{ACAD_REACTORS
330
9988
102
}
330
9988
100
AcDbVisualStyle
  2
OverhangOff
 70
    21
 71
     2
 72
     2
 73
     0
 90
        0
 40
-0.6
 41
-30.0
 62
     5
 63
     7
 74
     1
 91
        4
 64
     7
 65
   257
 75
     1
175
     1
 42
1.0
 92
        9
 66
     7
 43
1.0
 76
     1
 77
     6
 78
     2
 67
     7
 79
     5
170
     0
171
     0
290
     0
174
     0
 93
        1
 44
0.0
173
     0
291
     1
 45
0.0
1001
ACAD
1000
AcDbSavedByObjectVersion
1070
     0
  0
VISUALSTYLE
  5
9992
102
{ACAD_XDICTIONARY
360
99F4
102
}
102
{ACAD_REACTORS
330
9988
102
}
330
9988
100
AcDbVisualStyle
  2
Realistic
 70
     8
 71
     2
 72
     3
 73
     0
 90
        2
 40
-0.6
 41
30.0
 62
     5
 63
     7
 74
     0
 91
        0
 64
     7
 65
   257
 75
     1
175
     1
 42
1.0
 92
        8
 66
   257
 43
1.0
 76
     1
 77
     6
 78
     2
 67
     7
 79
     3
170
     0
171
     0
290
     0
174
     0
 93
       13
 44
0.0
173
     0
291
     0
 45
0.0
1001
ACAD
1000
AcDbSavedByObjectVersion
1070
     0
  0
VISUALSTYLE
  5
999D
102
{ACAD_XDICTIONARY
360
9A0A
102
}
102
{ACAD_REACTORS
330
9988
102
}
330
9988
100
AcDbVisualStyle
  2
Shaded
 70
    27
 71
     2
 72
     2
 73
     1
 90
        2
 40
-0.6
 41
30.0
 62
     5
 63
     7
 74
     0
 91
        4
 64
     7
 65
   257
 75
     1
175
     1
 42
1.0
 92
        8
 66
   257
 43
1.0
 76
     1
 77
     6
 78
     2
 67
     8
 79
     3
170
     0
171
     0
290
     0
174
     0
 93
        5
 44
0.0
173
     0
291
     0
 45
0.0
1001
ACAD
1000
AcDbSavedByObjectVersion
1070
     0
  0
VISUALSTYLE
  5
999C
102
{ACAD_XDICTIONARY
360
9A08
102
}
102
{ACAD_REACTORS
330
9988
102
}
330
9988
100
AcDbVisualStyle
  2
Shaded with edges
 70
    26
 71
     2
 72
     2
 73
     1
 90
        2
 40
-0.6
 41
30.0
 62
     5
 63
     7
 74
     1
 91
       10
 64
     7
 65
   257
 75
     2
175
     1
 42
1.0
 92
        8
 66
   257
 43
1.0
 76
     1
 77
     6
 78
     2
 67
     7
 79
     3
170
     0
171
     0
290
     0
174
     0
 93
        5
 44
0.0
173
     0
291
     0
 45
0.0
1001
ACAD
1000
AcDbSavedByObjectVersion
1070
     0
  0
VISUALSTYLE
  5
9999
102
{ACAD_XDICTIONARY
360
9A02
102
}
102
{ACAD_REACTORS
330
9988
102
}
330
9988
100
AcDbVisualStyle
  2
Shades of Gray
 70
    23
 71
     2
 72
     2
 73
     3
 90
        0
 40
-0.6
 41
-30.0
 62
     5
 63
     7
 74
     2
 91
        2
 64
     7
 65
     7
 75
     1
175
     1
 42
40.0
 92
        8
 66
     7
 43
1.0
 76
     1
 77
     6
 78
     2
 67
     7
 79
     3
170
     0
171
     0
290
     0
174
     0
 93
        1
 44
0.0
173
     0
291
     0
 45
0.0
1001
ACAD
1000
AcDbSavedByObjectVersion
1070
     0
  0
VISUALSTYLE
  5
999A
102
{ACAD_XDICTIONARY
360
9A04
102
}
102
{ACAD_REACTORS
330
9988
102
}
330
9988
100
AcDbVisualStyle
  2
Sketchy
 70
    24
 71
     1
 72
     2
 73
     2
 90
        0
 40
-0.6
 41
-30.0
 62
     5
 63
     7
 74
     2
 91
        2
 64
     7
 65
     7
 75
     1
175
     1
 42
40.0
 92
       11
 66
     7
 43
1.0
 76
     1
 77
     6
 78
     2
 67
     7
 79
     6
170
     0
171
     0
290
     0
174
     0
 93
        1
 44
0.0
173
     0
291
     0
 45
0.0
1001
ACAD
1000
AcDbSavedByObjectVersion
1070
     0
  0
VISUALSTYLE
  5
9995
102
{ACAD_XDICTIONARY
360
99FA
102
}
102
{ACAD_REACTORS
330
9988
102
}
330
9988
100
AcDbVisualStyle
  2
Thicken
 70
    13
 71
     2
 72
     2
 73
     0
 90
        0
 40
-0.6
 41
-30.0
 62
     5
 63
     7
 74
     1
 91
        4
 64
     7
 65
   257
 75
     1
175
     1
 42
1.0
 92
       12
 66
     7
 43
1.0
 76
     1
 77
     6
 78
     2
 67
     7
 79
     5
170
     0
171
     0
290
     0
174
     0
 93
        1
 44
0.0
173
     0
291
     1
 45
0.0
1001
ACAD
1000
AcDbSavedByObjectVersion
1070
     0
  0
VISUALSTYLE
  5
998F
102
{ACAD_XDICTIONARY
360
99EE
102
}
102
{ACAD_REACTORS
330
9988
102
}
330
9988
100
AcDbVisualStyle
  2
Wireframe
 70
     5
 71
     0
 72
     2
 73
     0
 90
        0
 40
-0.6
 41
-30.0
 62
     5
 63
     7
 74
     1
 91
        4
 64
     7
 65
   257
 75
     1
175
     1
 42
1.0
 92
        0
 66
   257
 43
1.0
 76
     1
 77
     6
 78
     2
 67
     7
 79
     3
170
     0
171
     0
290
     0
174
     0
 93
        1
 44
0.0
173
     0
291
     0
 45
0.0
1001
ACAD
1000
AcDbSavedByObjectVersion
1070
     0
  0
VISUALSTYLE
  5
999B
102
{ACAD_XDICTIONARY
360
9A06
102
}
102
{ACAD_REACTORS
330
9988
102
}
330
9988
100
AcDbVisualStyle
  2
X-Ray
 70
    25
 71
     2
 72
     2
 73
     1
 90
        1
 40
0.5
 41
-30.0
 62
     5
 63
     7
 74
     1
 91
        0
 64
     7
 65
   257
 75
     1
175
     1
 42
1.0
 92
        8
 66
     7
 43
1.0
 76
     1
 77
     6
 78
     2
 67
     7
 79
     3
170
     0
171
     0
290
     0
174
     0
 93
       13
 44
0.0
173
     0
291
     0
 45
0.0
1001
ACAD
1000
AcDbSavedByObjectVersion
1070
     0
  0
DICTIONARYVAR
  5
99D5
102
{ACAD_REACTORS
330
99D0
102
}
330
99D0
100
DictionaryVariables
280
     0
  1
1:1
  0
DICTIONARYVAR
  5
99D2
102
{ACAD_REACTORS
330
99D0
102
}
330
99D0
100
DictionaryVariables
280
     0
  1
STANDARD
  0
DICTIONARYVAR
  5
99D1
102
{ACAD_REACTORS
330
99D0
102
}
330
99D0
100
DictionaryVariables
280
     0
  1
STANDARD
  0
DICTIONARYVAR
  5
99D3
102
{ACAD_REACTORS
330
99D0
102
}
330
99D0
100
DictionaryVariables
280
     0
  1
Imperial24
  0
DICTIONARYVAR
  5
99D4
102
{ACAD_REACTORS
330
99D0
102
}
330
99D0
100
DictionaryVariables
280
     0
  1
Imperial24
  0
DICTIONARYVAR
  5
99D8
102
{ACAD_REACTORS
330
99D0
102
}
330
99D0
100
DictionaryVariables
280
     0
  1
1
  0
DICTIONARYVAR
  5
99D7
102
{ACAD_REACTORS
330
99D0
102
}
330
99D0
100
DictionaryVariables
280
     0
  1
0
  0
DICTIONARYVAR
  5
99D6
102
{ACAD_REACTORS
330
99D0
102
}
330
99D0
100
DictionaryVariables
280
     0
  1
127
  0
DICTIONARYVAR
  5
99D9
102
{ACAD_REACTORS
330
99D0
102
}
330
99D0
100
DictionaryVariables
280
     0
  1
2
  0
DICTIONARY
  5
9A16
330
99BB
100
AcDbDictionary
280
     1
281
     1
  3
ACAD_XREC_ROUNDTRIP
360
9A17
  0
DICTIONARY
  5
9A18
330
99BC
100
AcDbDictionary
280
     1
281
     1
  3
ACAD_XREC_ROUNDTRIP
360
9A19
  0
DICTIONARY
  5
9A1A
330
99BD
100
AcDbDictionary
280
     1
281
     1
  3
ACAD_XREC_ROUNDTRIP
360
9A1B
  0
DICTIONARY
  5
9979
330
9978
100
AcDbDictionary
280
     1
281
     1
  3
ACAD_XREC_ROUNDTRIP
360
99E0
  3
BUMPTILE
360
997B
  3
DIFFUSETILE
360
997A
  3
OPACITYTILE
360
997E
  3
REFLECTIONTILE
360
997D
  3
REFRACTIONTILE
360
997F
  3
SPECULARTILE
360
997C
  0
DICTIONARY
  5
9971
330
9970
100
AcDbDictionary
280
     1
281
     1
  3
ACAD_XREC_ROUNDTRIP
360
99DF
  3
BUMPTILE
360
9973
  3
DIFFUSETILE
360
9972
  3
OPACITYTILE
360
9976
  3
REFLECTIONTILE
360
9975
  3
REFRACTIONTILE
360
9977
  3
SPECULARTILE
360
9974
  0
DICTIONARY
  5
9981
330
9980
100
AcDbDictionary
280
     1
281
     1
  3
ACAD_XREC_ROUNDTRIP
360
99E1
  3
BUMPTILE
360
9983
  3
DIFFUSETILE
360
9982
  3
OPACITYTILE
360
9986
  3
REFLECTIONTILE
360
9985
  3
REFRACTIONTILE
360
9987
  3
SPECULARTILE
360
9984
  0
DICTIONARY
  5
9A14
330
99B9
100
AcDbDictionary
280
     1
281
     1
  3
ACAD_XREC_ROUNDTRIP
360
9A15
  0
DICTIONARY
  5
99DB
330
99A3
100
AcDbDictionary
280
     1
281
     1
  3
ACAD_ROUNDTRIP_2008_TABLESTYLE_CELLSTYLEMAP
360
99DC
  3
ACAD_XREC_ROUNDTRIP
360
9A12
  0
DICTIONARY
  5
99EC
330
998E
100
AcDbDictionary
280
     1
281
     1
  3
ACAD_XREC_ROUNDTRIP
360
99ED
  0
DICTIONARY
  5
99EA
330
998D
100
AcDbDictionary
280
     1
281
     1
  3
ACAD_XREC_ROUNDTRIP
360
99EB
  0
DICTIONARY
  5
99F8
330
9994
100
AcDbDictionary
280
     1
281
     1
  3
ACAD_XREC_ROUNDTRIP
360
99F9
  0
DICTIONARY
  5
9A00
330
9998
100
AcDbDictionary
280
     1
281
     1
  3
ACAD_XREC_ROUNDTRIP
360
9A01
  0
DICTIONARY
  5
99F2
330
9991
100
AcDbDictionary
280
     1
281
     1
  3
ACAD_XREC_ROUNDTRIP
360
99F3
  0
DICTIONARY
  5
99F6
330
9993
100
AcDbDictionary
280
     1
281
     1
  3
ACAD_XREC_ROUNDTRIP
360
99F7
  0
DICTIONARY
  5
9A10
330
99A0
100
AcDbDictionary
280
     1
281
     1
  3
ACAD_XREC_ROUNDTRIP
360
9A11
  0
DICTIONARY
  5
99FE
330
9997
100
AcDbDictionary
280
     1
281
     1
  3
ACAD_XREC_ROUNDTRIP
360
99FF
  0
DICTIONARY
  5
99E2
330
9989
100
AcDbDictionary
280
     1
281
     1
  3
ACAD_XREC_ROUNDTRIP
360
99E3
  0
DICTIONARY
  5
99E4
330
998A
100
AcDbDictionary
280
     1
281
     1
  3
ACAD_XREC_ROUNDTRIP
360
99E5
  0
DICTIONARY
  5
99E6
330
998B
100
AcDbDictionary
280
     1
281
     1
  3
ACAD_XREC_ROUNDTRIP
360
99E7
  0
DICTIONARY
  5
99E8
330
998C
100
AcDbDictionary
280
     1
281
     1
  3
ACAD_XREC_ROUNDTRIP
360
99E9
  0
DICTIONARY
  5
99F0
330
9990
100
AcDbDictionary
280
     1
281
     1
  3
ACAD_XREC_ROUNDTRIP
360
99F1
  0
DICTIONARY
  5
9A0C
330
999E
100
AcDbDictionary
280
     1
281
     1
  3
ACAD_XREC_ROUNDTRIP
360
9A0D
  0
DICTIONARY
  5
99FC
330
9996
100
AcDbDictionary
280
     1
281
     1
  3
ACAD_XREC_ROUNDTRIP
360
99FD
  0
DICTIONARY
  5
9A0E
330
999F
100
AcDbDictionary
280
     1
281
     1
  3
ACAD_XREC_ROUNDTRIP
360
9A0F
  0
DICTIONARY
  5
99F4
330
9992
100
AcDbDictionary
280
     1
281
     1
  3
ACAD_XREC_ROUNDTRIP
360
99F5
  0
DICTIONARY
  5
9A0A
330
999D
100
AcDbDictionary
280
     1
281
     1
  3
ACAD_XREC_ROUNDTRIP
360
9A0B
  0
DICTIONARY
  5
9A08
330
999C
100
AcDbDictionary
280
     1
281
     1
  3
ACAD_XREC_ROUNDTRIP
360
9A09
  0
DICTIONARY
  5
9A02
330
9999
100
AcDbDictionary
280
     1
281
     1
  3
ACAD_XREC_ROUNDTRIP
360
9A03
  0
DICTIONARY
  5
9A04
330
999A
100
AcDbDictionary
280
     1
281
     1
  3
ACAD_XREC_ROUNDTRIP
360
9A05
  0
DICTIONARY
  5
99FA
330
9995
100
AcDbDictionary
280
     1
281
     1
  3
ACAD_XREC_ROUNDTRIP
360
99FB
  0
DICTIONARY
  5
99EE
330
998F
100
AcDbDictionary
280
     1
281
     1
  3
ACAD_XREC_ROUNDTRIP
360
99EF
  0
DICTIONARY
  5
9A06
330
999B
100
AcDbDictionary
280
     1
281
     1
  3
ACAD_XREC_ROUNDTRIP
360
9A07
  0
XRECORD
  5
9A17
102
{ACAD_REACTORS
330
9A16
102
}
330
9A16
100
AcDbXrecord
280
     1
102
DISPLAYNAME
  1
Imperial24
102
FLAGS
 90
        0
  0
XRECORD
  5
9A19
102
{ACAD_REACTORS
330
9A18
102
}
330
9A18
100
AcDbXrecord
280
     1
102
SHADEPLOT
 70
     0
102
SHADEPLOTRESLEVEL
 70
     2
102
SHADEPLOTCUSTOMDPI
 70
   300
  0
XRECORD
  5
9A1B
102
{ACAD_REACTORS
330
9A1A
102
}
330
9A1A
100
AcDbXrecord
280
     1
102
SHADEPLOT
 70
     0
102
SHADEPLOTRESLEVEL
 70
     2
102
SHADEPLOTCUSTOMDPI
 70
   300
  0
XRECORD
  5
99E0
102
{ACAD_REACTORS
330
9979
102
}
330
9979
100
AcDbXrecord
280
     1
102
MATERIAL
148
0.0
149
0.0
149
0.0
 93
        0
 94
      127
282
     0
 72
     0
 77
     0
171
     0
175
     0
179
     0
273
     0
  0
XRECORD
  5
997B
102
{ACAD_REACTORS
330
9979
102
}
330
9979
100
AcDbXrecord
280
     1
270
     1
271
     1
  0
XRECORD
  5
997A
102
{ACAD_REACTORS
330
9979
102
}
330
9979
100
AcDbXrecord
280
     1
270
     1
271
     1
  0
XRECORD
  5
997E
102
{ACAD_REACTORS
330
9979
102
}
330
9979
100
AcDbXrecord
280
     1
270
     1
271
     1
  0
XRECORD
  5
997D
102
{ACAD_REACTORS
330
9979
102
}
330
9979
100
AcDbXrecord
280
     1
270
     1
271
     1
  0
XRECORD
  5
997F
102
{ACAD_REACTORS
330
9979
102
}
330
9979
100
AcDbXrecord
280
     1
270
     1
271
     1
  0
XRECORD
  5
997C
102
{ACAD_REACTORS
330
9979
102
}
330
9979
100
AcDbXrecord
280
     1
270
     1
271
     1
  0
XRECORD
  5
99DF
102
{ACAD_REACTORS
330
9971
102
}
330
9971
100
AcDbXrecord
280
     1
102
MATERIAL
148
0.0
149
0.0
149
0.0
 93
        0
 94
      127
282
     0
 72
     0
 77
     0
171
     0
175
     0
179
     0
273
     0
  0
XRECORD
  5
9973
102
{ACAD_REACTORS
330
9971
102
}
330
9971
100
AcDbXrecord
280
     1
270
     1
271
     1
  0
XRECORD
  5
9972
102
{ACAD_REACTORS
330
9971
102
}
330
9971
100
AcDbXrecord
280
     1
270
     1
271
     1
  0
XRECORD
  5
9976
102
{ACAD_REACTORS
330
9971
102
}
330
9971
100
AcDbXrecord
280
     1
270
     1
271
     1
  0
XRECORD
  5
9975
102
{ACAD_REACTORS
330
9971
102
}
330
9971
100
AcDbXrecord
280
     1
270
     1
271
     1
  0
XRECORD
  5
9977
102
{ACAD_REACTORS
330
9971
102
}
330
9971
100
AcDbXrecord
280
     1
270
     1
271
     1
  0
XRECORD
  5
9974
102
{ACAD_REACTORS
330
9971
102
}
330
9971
100
AcDbXrecord
280
     1
270
     1
271
     1
  0
XRECORD
  5
99E1
102
{ACAD_REACTORS
330
9981
102
}
330
9981
100
AcDbXrecord
280
     1
102
MATERIAL
148
0.0
149
0.0
149
0.0
 93
        0
 94
      127
282
     0
 72
     0
 77
     0
171
     0
175
     0
179
     0
273
     0
  0
XRECORD
  5
9983
102
{ACAD_REACTORS
330
9981
102
}
330
9981
100
AcDbXrecord
280
     1
270
     1
271
     1
  0
XRECORD
  5
9982
102
{ACAD_REACTORS
330
9981
102
}
330
9981
100
AcDbXrecord
280
     1
270
     1
271
     1
  0
XRECORD
  5
9986
102
{ACAD_REACTORS
330
9981
102
}
330
9981
100
AcDbXrecord
280
     1
270
     1
271
     1
  0
XRECORD
  5
9985
102
{ACAD_REACTORS
330
9981
102
}
330
9981
100
AcDbXrecord
280
     1
270
     1
271
     1
  0
XRECORD
  5
9987
102
{ACAD_REACTORS
330
9981
102
}
330
9981
100
AcDbXrecord
280
     1
270
     1
271
     1
  0
XRECORD
  5
9984
102
{ACAD_REACTORS
330
9981
102
}
330
9981
100
AcDbXrecord
280
     1
270
     1
271
     1
  0
XRECORD
  5
9A15
102
{ACAD_REACTORS
330
9A14
102
}
330
9A14
100
AcDbXrecord
280
     1
102
DISPLAYNAME
  1
Imperial24
102
FLAGS
 90
        0
  0
CELLSTYLEMAP
  5
99DC
102
{ACAD_REACTORS
330
99DB
102
}
330
99DB
100
AcDbCellStyleMap
 90
        3
300
CELLSTYLE
  1
TABLEFORMAT_BEGIN
 90
        5
170
     1
 91
        0
 92
    32768
 62
   257
 93
        1
300
CONTENTFORMAT
  1
CONTENTFORMAT_BEGIN
 90
        0
 91
        0
 92
      512
 93
        0
300

 40
0.0
140
1.0
 94
        5
 62
     0
340
974C
144
0.25
309
CONTENTFORMAT_END
171
     0
 94
        0
309
TABLEFORMAT_END
  1
CELLSTYLE_BEGIN
 90
        1
 91
        1
300
_TITLE
309
CELLSTYLE_END
300
CELLSTYLE
  1
TABLEFORMAT_BEGIN
 90
        5
170
     1
 91
        0
 92
        0
 62
   257
 93
        1
300
CONTENTFORMAT
  1
CONTENTFORMAT_BEGIN
 90
        0
 91
        0
 92
      512
 93
        0
300

 40
0.0
140
1.0
 94
        5
 62
     0
340
974C
144
0.18
309
CONTENTFORMAT_END
171
     0
 94
        0
309
TABLEFORMAT_END
  1
CELLSTYLE_BEGIN
 90
        2
 91
        1
300
_HEADER
309
CELLSTYLE_END
300
CELLSTYLE
  1
TABLEFORMAT_BEGIN
 90
        5
170
     1
 91
        0
 92
        0
 62
   257
 93
        1
300
CONTENTFORMAT
  1
CONTENTFORMAT_BEGIN
 90
        0
 91
        0
 92
      512
 93
        0
300

 40
0.0
140
1.0
 94
        2
 62
     0
340
974C
144
0.18
309
CONTENTFORMAT_END
171
     0
 94
        0
309
TABLEFORMAT_END
  1
CELLSTYLE_BEGIN
 90
        3
 91
        2
300
_DATA
309
CELLSTYLE_END
  0
XRECORD
  5
9A12
102
{ACAD_REACTORS
330
99DB
102
}
330
99DB
100
AcDbXrecord
280
     1
102
ACAD_ROUNDTRIP_PRE2007_TABLESTYLE
 90
      512
 91
        0
  1

 92
      512
 93
        0
  2

 94
      512
 95
        0
  3

  0
XRECORD
  5
99ED
102
{ACAD_REACTORS
330
99EC
102
}
330
99EC
100
AcDbXrecord
280
     1
102
RTVSPost2010Prop28
280
     1
102
RTVSPost2010PropOp28
 70
     1
102
RTVSPost2010Prop29
280
     1
102
RTVSPost2010PropOp29
 70
     1
102
RTVSPost2010Prop30
280
     0
102
RTVSPost2010PropOp30
 70
     1
102
RTVSPost2010Prop31
280
     0
102
RTVSPost2010PropOp31
 70
     1
102
RTVSPost2010Prop32
280
     0
102
RTVSPost2010PropOp32
 70
     1
102
RTVSPost2010Prop33
280
     0
102
RTVSPost2010PropOp33
 70
     1
102
RTVSPost2010Prop34
280
     0
102
RTVSPost2010PropOp34
 70
     1
102
RTVSPost2010Prop35
280
     0
102
RTVSPost2010PropOp35
 70
     1
102
RTVSPost2010Prop36
280
     0
102
RTVSPost2010PropOp36
 70
     1
102
RTVSPost2010Prop37
 90
       50
102
RTVSPost2010PropOp37
 70
     1
102
RTVSPost2010Prop38
140
0.0
102
RTVSPost2010PropOp38
 70
     1
102
RTVSPost2010Prop39
140
1.0
102
RTVSPost2010PropOp39
 70
     1
102
RTVSPost2010Prop40
 90
        0
102
RTVSPost2010PropOp40
 70
     1
102
RTVSPost2010Prop41ColorIndex
 90
       18
102
RTVSPost2010Prop41ColorRGB
 90
        0
102
RTVSPost2010PropOp41
 70
     1
102
RTVSPost2010Prop42
 90
       50
102
RTVSPost2010PropOp42
 70
     1
102
RTVSPost2010Prop43
 90
        3
102
RTVSPost2010PropOp43
 70
     1
102
RTVSPost2010Prop44ColorIndex
 90
        5
102
RTVSPost2010Prop44ColorRGB
 90
      255
102
RTVSPost2010PropOp44
 70
     1
102
RTVSPost2010Prop45
280
     0
102
RTVSPost2010PropOp45
 70
     1
102
RTVSPost2010Prop46
 90
       50
102
RTVSPost2010PropOp46
 70
     1
102
RTVSPost2010Prop47
 90
       50
102
RTVSPost2010PropOp47
 70
     1
102
RTVSPost2010Prop48
 90
       50
102
RTVSPost2010PropOp48
 70
     1
102
RTVSPost2010Prop49
280
     0
102
RTVSPost2010PropOp49
 70
     1
102
RTVSPost2010Prop50
 90
       50
102
RTVSPost2010PropOp50
 70
     1
102
RTVSPost2010Prop51ColorIndex
 90
      256
102
RTVSPost2010Prop51ColorRGB
 90
-16777216
102
RTVSPost2010PropOp51
 70
     0
102
RTVSPost2010Prop52
140
1.0
102
RTVSPost2010PropOp52
 70
     0
102
RTVSPost2010Prop53
 90
        2
102
RTVSPost2010PropOp53
 70
     1
102
RTVSPost2010Prop54
  1
strokes_ogs.tif
102
RTVSPost2010PropOp54
 70
     1
102
RTVSPost2010Prop55
280
     0
102
RTVSPost2010PropOp55
 70
     1
102
RTVSPost2010Prop56
140
1.0
102
RTVSPost2010PropOp56
 70
     1
102
RTVSPost2010Prop57
140
1.0
102
RTVSPost2010PropOp57
 70
     1
102
RTVSPropertyOp0
 70
     1
102
RTVSPropertyOp1
 70
     1
102
RTVSPropertyOp2
 70
     1
102
RTVSPropertyOp3
 70
     1
102
RTVSPropertyOp4
 70
     1
102
RTVSPropertyOp5
 70
     1
102
RTVSPropertyOp6
 70
     1
102
RTVSPropertyOp7
 70
     1
102
RTVSPropertyOp8
 70
     1
102
RTVSPropertyOp9
 70
     1
102
RTVSPropertyOp10
 70
     1
102
RTVSPropertyOp11
 70
     1
102
RTVSPropertyOp12
 70
     1
102
RTVSPropertyOp13
 70
     1
102
RTVSPropertyOp14
 70
     1
102
RTVSPropertyOp15
 70
     1
102
RTVSPropertyOp16
 70
     1
102
RTVSPropertyOp17
 70
     1
102
RTVSPropertyOp18
 70
     1
102
RTVSPropertyOp19
 70
     1
102
RTVSPropertyOp20
 70
     1
102
RTVSPropertyOp21
 70
     1
102
RTVSPropertyOp22
 70
     1
102
RTVSPropertyOp23
 70
     1
102
RTVSPropertyOp24
 70
     1
102
RTVSPropertyOp25
 70
     1
102
RTVSPropertyOp26
 70
     1
102
RTVSPropertyOp27
 70
     1
102
RTVSPropertyOp28
 70
     1
102
RTVSPropertyOp29
 70
     1
102
RTVSPropertyOp30
 70
     1
102
RTVSPropertyOp31
 70
     1
102
RTVSPropertyOp32
 70
     1
102
RTVSPropertyOp33
 70
     1
102
RTVSPropertyOp34
 70
     1
102
RTVSPropertyOp35
 70
     1
102
RTVSPropertyOp36
 70
     1
102
RTVSPropertyOp37
 70
     1
102
RTVSPropertyOp38
 70
     1
102
RTVSPropertyOp39
 70
     1
102
RTVSPropertyOp40
 70
     1
102
RTVSPropertyOp41
 70
     1
102
RTVSPropertyOp42
 70
     1
102
RTVSPropertyOp43
 70
     1
102
RTVSPropertyOp44
 70
     1
102
RTVSPropertyOp45
 70
     1
102
RTVSPropertyOp46
 70
     1
102
RTVSPropertyOp47
 70
     1
102
RTVSPropertyOp48
 70
     1
102
RTVSPropertyOp49
 70
     1
102
RTVSPropertyOp50
 70
     1
102
RTVSPropertyOp51
 70
     0
102
RTVSPropertyOp52
 70
     0
102
RTVSPropertyOp53
 70
     1
102
RTVSPropertyOp54
 70
     1
102
RTVSPropertyOp55
 70
     1
102
RTVSPropertyOp56
 70
     1
102
RTVSPropertyOp57
 70
     1
102
RTVSPropertyOp58
 70
     1
102
RTVSPropertyOp59
 70
     1
102
RTVSPropertyOp60
 70
     1
102
RTVSPropertyOp61
 70
     1
102
RTVSPropertyOp62
 70
     1
  0
XRECORD
  5
99EB
102
{ACAD_REACTORS
330
99EA
102
}
330
99EA
100
AcDbXrecord
280
     1
102
RTVSPost2010Prop28
280
     0
102
RTVSPost2010PropOp28
 70
     1
102
RTVSPost2010Prop29
280
     1
102
RTVSPost2010PropOp29
 70
     1
102
RTVSPost2010Prop30
280
     1
102
RTVSPost2010PropOp30
 70
     1
102
RTVSPost2010Prop31
280
     0
102
RTVSPost2010PropOp31
 70
     1
102
RTVSPost2010Prop32
280
     0
102
RTVSPost2010PropOp32
 70
     1
102
RTVSPost2010Prop33
280
     0
102
RTVSPost2010PropOp33
 70
     1
102
RTVSPost2010Prop34
280
     0
102
RTVSPost2010PropOp34
 70
     1
102
RTVSPost2010Prop35
280
     0
102
RTVSPost2010PropOp35
 70
     1
102
RTVSPost2010Prop36
280
     0
102
RTVSPost2010PropOp36
 70
     1
102
RTVSPost2010Prop37
 90
       50
102
RTVSPost2010PropOp37
 70
     1
102
RTVSPost2010Prop38
140
0.0
102
RTVSPost2010PropOp38
 70
     1
102
RTVSPost2010Prop39
140
1.0
102
RTVSPost2010PropOp39
 70
     1
102
RTVSPost2010Prop40
 90
        0
102
RTVSPost2010PropOp40
 70
     1
102
RTVSPost2010Prop41ColorIndex
 90
       18
102
RTVSPost2010Prop41ColorRGB
 90
        0
102
RTVSPost2010PropOp41
 70
     1
102
RTVSPost2010Prop42
 90
       50
102
RTVSPost2010PropOp42
 70
     1
102
RTVSPost2010Prop43
 90
        3
102
RTVSPost2010PropOp43
 70
     1
102
RTVSPost2010Prop44ColorIndex
 90
        5
102
RTVSPost2010Prop44ColorRGB
 90
      255
102
RTVSPost2010PropOp44
 70
     1
102
RTVSPost2010Prop45
280
     0
102
RTVSPost2010PropOp45
 70
     1
102
RTVSPost2010Prop46
 90
       50
102
RTVSPost2010PropOp46
 70
     1
102
RTVSPost2010Prop47
 90
       50
102
RTVSPost2010PropOp47
 70
     1
102
RTVSPost2010Prop48
 90
       50
102
RTVSPost2010PropOp48
 70
     1
102
RTVSPost2010Prop49
280
     0
102
RTVSPost2010PropOp49
 70
     1
102
RTVSPost2010Prop50
 90
       50
102
RTVSPost2010PropOp50
 70
     1
102
RTVSPost2010Prop51ColorIndex
 90
      256
102
RTVSPost2010Prop51ColorRGB
 90
-16777216
102
RTVSPost2010PropOp51
 70
     0
102
RTVSPost2010Prop52
140
1.0
102
RTVSPost2010PropOp52
 70
     0
102
RTVSPost2010Prop53
 90
        2
102
RTVSPost2010PropOp53
 70
     1
102
RTVSPost2010Prop54
  1
strokes_ogs.tif
102
RTVSPost2010PropOp54
 70
     1
102
RTVSPost2010Prop55
280
     0
102
RTVSPost2010PropOp55
 70
     1
102
RTVSPost2010Prop56
140
1.0
102
RTVSPost2010PropOp56
 70
     1
102
RTVSPost2010Prop57
140
1.0
102
RTVSPost2010PropOp57
 70
     1
102
RTVSPropertyOp0
 70
     1
102
RTVSPropertyOp1
 70
     1
102
RTVSPropertyOp2
 70
     1
102
RTVSPropertyOp3
 70
     1
102
RTVSPropertyOp4
 70
     1
102
RTVSPropertyOp5
 70
     1
102
RTVSPropertyOp6
 70
     1
102
RTVSPropertyOp7
 70
     1
102
RTVSPropertyOp8
 70
     1
102
RTVSPropertyOp9
 70
     1
102
RTVSPropertyOp10
 70
     1
102
RTVSPropertyOp11
 70
     1
102
RTVSPropertyOp12
 70
     1
102
RTVSPropertyOp13
 70
     1
102
RTVSPropertyOp14
 70
     1
102
RTVSPropertyOp15
 70
     1
102
RTVSPropertyOp16
 70
     1
102
RTVSPropertyOp17
 70
     1
102
RTVSPropertyOp18
 70
     1
102
RTVSPropertyOp19
 70
     1
102
RTVSPropertyOp20
 70
     1
102
RTVSPropertyOp21
 70
     1
102
RTVSPropertyOp22
 70
     1
102
RTVSPropertyOp23
 70
     1
102
RTVSPropertyOp24
 70
     1
102
RTVSPropertyOp25
 70
     1
102
RTVSPropertyOp26
 70
     1
102
RTVSPropertyOp27
 70
     1
102
RTVSPropertyOp28
 70
     1
102
RTVSPropertyOp29
 70
     1
102
RTVSPropertyOp30
 70
     1
102
RTVSPropertyOp31
 70
     1
102
RTVSPropertyOp32
 70
     1
102
RTVSPropertyOp33
 70
     1
102
RTVSPropertyOp34
 70
     1
102
RTVSPropertyOp35
 70
     1
102
RTVSPropertyOp36
 70
     1
102
RTVSPropertyOp37
 70
     1
102
RTVSPropertyOp38
 70
     1
102
RTVSPropertyOp39
 70
     1
102
RTVSPropertyOp40
 70
     1
102
RTVSPropertyOp41
 70
     1
102
RTVSPropertyOp42
 70
     1
102
RTVSPropertyOp43
 70
     1
102
RTVSPropertyOp44
 70
     1
102
RTVSPropertyOp45
 70
     1
102
RTVSPropertyOp46
 70
     1
102
RTVSPropertyOp47
 70
     1
102
RTVSPropertyOp48
 70
     1
102
RTVSPropertyOp49
 70
     1
102
RTVSPropertyOp50
 70
     1
102
RTVSPropertyOp51
 70
     0
102
RTVSPropertyOp52
 70
     0
102
RTVSPropertyOp53
 70
     1
102
RTVSPropertyOp54
 70
     1
102
RTVSPropertyOp55
 70
     1
102
RTVSPropertyOp56
 70
     1
102
RTVSPropertyOp57
 70
     1
102
RTVSPropertyOp58
 70
     1
102
RTVSPropertyOp59
 70
     1
102
RTVSPropertyOp60
 70
     1
102
RTVSPropertyOp61
 70
     1
102
RTVSPropertyOp62
 70
     1
  0
XRECORD
  5
99F9
102
{ACAD_REACTORS
330
99F8
102
}
330
99F8
100
AcDbXrecord
280
     1
102
RTVSPost2010Prop28
280
     0
102
RTVSPost2010PropOp28
 70
     1
102
RTVSPost2010Prop29
280
     1
102
RTVSPost2010PropOp29
 70
     1
102
RTVSPost2010Prop30
280
     1
102
RTVSPost2010PropOp30
 70
     1
102
RTVSPost2010Prop31
280
     0
102
RTVSPost2010PropOp31
 70
     1
102
RTVSPost2010Prop32
280
     0
102
RTVSPost2010PropOp32
 70
     1
102
RTVSPost2010Prop33
280
     0
102
RTVSPost2010PropOp33
 70
     1
102
RTVSPost2010Prop34
280
     0
102
RTVSPost2010PropOp34
 70
     1
102
RTVSPost2010Prop35
280
     0
102
RTVSPost2010PropOp35
 70
     1
102
RTVSPost2010Prop36
280
     0
102
RTVSPost2010PropOp36
 70
     1
102
RTVSPost2010Prop37
 90
       50
102
RTVSPost2010PropOp37
 70
     1
102
RTVSPost2010Prop38
140
0.0
102
RTVSPost2010PropOp38
 70
     1
102
RTVSPost2010Prop39
140
1.0
102
RTVSPost2010PropOp39
 70
     1
102
RTVSPost2010Prop40
 90
        0
102
RTVSPost2010PropOp40
 70
     1
102
RTVSPost2010Prop41ColorIndex
 90
       18
102
RTVSPost2010Prop41ColorRGB
 90
        0
102
RTVSPost2010PropOp41
 70
     1
102
RTVSPost2010Prop42
 90
       50
102
RTVSPost2010PropOp42
 70
     1
102
RTVSPost2010Prop43
 90
        3
102
RTVSPost2010PropOp43
 70
     1
102
RTVSPost2010Prop44ColorIndex
 90
        5
102
RTVSPost2010Prop44ColorRGB
 90
      255
102
RTVSPost2010PropOp44
 70
     1
102
RTVSPost2010Prop45
280
     0
102
RTVSPost2010PropOp45
 70
     1
102
RTVSPost2010Prop46
 90
       50
102
RTVSPost2010PropOp46
 70
     1
102
RTVSPost2010Prop47
 90
       50
102
RTVSPost2010PropOp47
 70
     1
102
RTVSPost2010Prop48
 90
       50
102
RTVSPost2010PropOp48
 70
     1
102
RTVSPost2010Prop49
280
     0
102
RTVSPost2010PropOp49
 70
     1
102
RTVSPost2010Prop50
 90
       50
102
RTVSPost2010PropOp50
 70
     1
102
RTVSPost2010Prop51ColorIndex
 90
      256
102
RTVSPost2010Prop51ColorRGB
 90
-16777216
102
RTVSPost2010PropOp51
 70
     0
102
RTVSPost2010Prop52
140
1.0
102
RTVSPost2010PropOp52
 70
     0
102
RTVSPost2010Prop53
 90
        2
102
RTVSPost2010PropOp53
 70
     1
102
RTVSPost2010Prop54
  1
strokes_ogs.tif
102
RTVSPost2010PropOp54
 70
     1
102
RTVSPost2010Prop55
280
     0
102
RTVSPost2010PropOp55
 70
     1
102
RTVSPost2010Prop56
140
1.0
102
RTVSPost2010PropOp56
 70
     1
102
RTVSPost2010Prop57
140
1.0
102
RTVSPost2010PropOp57
 70
     1
102
RTVSPropertyOp0
 70
     1
102
RTVSPropertyOp1
 70
     1
102
RTVSPropertyOp2
 70
     1
102
RTVSPropertyOp3
 70
     1
102
RTVSPropertyOp4
 70
     1
102
RTVSPropertyOp5
 70
     1
102
RTVSPropertyOp6
 70
     1
102
RTVSPropertyOp7
 70
     1
102
RTVSPropertyOp8
 70
     1
102
RTVSPropertyOp9
 70
     1
102
RTVSPropertyOp10
 70
     1
102
RTVSPropertyOp11
 70
     1
102
RTVSPropertyOp12
 70
     1
102
RTVSPropertyOp13
 70
     1
102
RTVSPropertyOp14
 70
     1
102
RTVSPropertyOp15
 70
     1
102
RTVSPropertyOp16
 70
     1
102
RTVSPropertyOp17
 70
     1
102
RTVSPropertyOp18
 70
     1
102
RTVSPropertyOp19
 70
     1
102
RTVSPropertyOp20
 70
     1
102
RTVSPropertyOp21
 70
     1
102
RTVSPropertyOp22
 70
     1
102
RTVSPropertyOp23
 70
     1
102
RTVSPropertyOp24
 70
     1
102
RTVSPropertyOp25
 70
     1
102
RTVSPropertyOp26
 70
     1
102
RTVSPropertyOp27
 70
     1
102
RTVSPropertyOp28
 70
     1
102
RTVSPropertyOp29
 70
     1
102
RTVSPropertyOp30
 70
     1
102
RTVSPropertyOp31
 70
     1
102
RTVSPropertyOp32
 70
     1
102
RTVSPropertyOp33
 70
     1
102
RTVSPropertyOp34
 70
     1
102
RTVSPropertyOp35
 70
     1
102
RTVSPropertyOp36
 70
     1
102
RTVSPropertyOp37
 70
     1
102
RTVSPropertyOp38
 70
     1
102
RTVSPropertyOp39
 70
     1
102
RTVSPropertyOp40
 70
     1
102
RTVSPropertyOp41
 70
     1
102
RTVSPropertyOp42
 70
     1
102
RTVSPropertyOp43
 70
     1
102
RTVSPropertyOp44
 70
     1
102
RTVSPropertyOp45
 70
     1
102
RTVSPropertyOp46
 70
     1
102
RTVSPropertyOp47
 70
     1
102
RTVSPropertyOp48
 70
     1
102
RTVSPropertyOp49
 70
     1
102
RTVSPropertyOp50
 70
     1
102
RTVSPropertyOp51
 70
     0
102
RTVSPropertyOp52
 70
     0
102
RTVSPropertyOp53
 70
     1
102
RTVSPropertyOp54
 70
     1
102
RTVSPropertyOp55
 70
     1
102
RTVSPropertyOp56
 70
     1
102
RTVSPropertyOp57
 70
     1
102
RTVSPropertyOp58
 70
     1
102
RTVSPropertyOp59
 70
     1
102
RTVSPropertyOp60
 70
     1
102
RTVSPropertyOp61
 70
     1
102
RTVSPropertyOp62
 70
     1
  0
XRECORD
  5
9A01
102
{ACAD_REACTORS
330
9A00
102
}
330
9A00
100
AcDbXrecord
280
     1
102
RTVSPost2010Prop28
280
     0
102
RTVSPost2010PropOp28
 70
     1
102
RTVSPost2010Prop29
280
     1
102
RTVSPost2010PropOp29
 70
     1
102
RTVSPost2010Prop30
280
     1
102
RTVSPost2010PropOp30
 70
     1
102
RTVSPost2010Prop31
280
     0
102
RTVSPost2010PropOp31
 70
     1
102
RTVSPost2010Prop32
280
     0
102
RTVSPost2010PropOp32
 70
     1
102
RTVSPost2010Prop33
280
     0
102
RTVSPost2010PropOp33
 70
     1
102
RTVSPost2010Prop34
280
     0
102
RTVSPost2010PropOp34
 70
     1
102
RTVSPost2010Prop35
280
     0
102
RTVSPost2010PropOp35
 70
     1
102
RTVSPost2010Prop36
280
     0
102
RTVSPost2010PropOp36
 70
     1
102
RTVSPost2010Prop37
 90
       50
102
RTVSPost2010PropOp37
 70
     1
102
RTVSPost2010Prop38
140
0.0
102
RTVSPost2010PropOp38
 70
     1
102
RTVSPost2010Prop39
140
1.0
102
RTVSPost2010PropOp39
 70
     1
102
RTVSPost2010Prop40
 90
        0
102
RTVSPost2010PropOp40
 70
     1
102
RTVSPost2010Prop41ColorIndex
 90
       18
102
RTVSPost2010Prop41ColorRGB
 90
        0
102
RTVSPost2010PropOp41
 70
     1
102
RTVSPost2010Prop42
 90
       50
102
RTVSPost2010PropOp42
 70
     1
102
RTVSPost2010Prop43
 90
        3
102
RTVSPost2010PropOp43
 70
     1
102
RTVSPost2010Prop44ColorIndex
 90
        5
102
RTVSPost2010Prop44ColorRGB
 90
      255
102
RTVSPost2010PropOp44
 70
     1
102
RTVSPost2010Prop45
280
     0
102
RTVSPost2010PropOp45
 70
     1
102
RTVSPost2010Prop46
 90
       50
102
RTVSPost2010PropOp46
 70
     1
102
RTVSPost2010Prop47
 90
       50
102
RTVSPost2010PropOp47
 70
     1
102
RTVSPost2010Prop48
 90
       50
102
RTVSPost2010PropOp48
 70
     1
102
RTVSPost2010Prop49
280
     0
102
RTVSPost2010PropOp49
 70
     1
102
RTVSPost2010Prop50
 90
       50
102
RTVSPost2010PropOp50
 70
     1
102
RTVSPost2010Prop51ColorIndex
 90
      256
102
RTVSPost2010Prop51ColorRGB
 90
-16777216
102
RTVSPost2010PropOp51
 70
     0
102
RTVSPost2010Prop52
140
1.0
102
RTVSPost2010PropOp52
 70
     0
102
RTVSPost2010Prop53
 90
        2
102
RTVSPost2010PropOp53
 70
     1
102
RTVSPost2010Prop54
  1
strokes_ogs.tif
102
RTVSPost2010PropOp54
 70
     1
102
RTVSPost2010Prop55
280
     0
102
RTVSPost2010PropOp55
 70
     1
102
RTVSPost2010Prop56
140
1.0
102
RTVSPost2010PropOp56
 70
     1
102
RTVSPost2010Prop57
140
1.0
102
RTVSPost2010PropOp57
 70
     1
102
RTVSPropertyOp0
 70
     1
102
RTVSPropertyOp1
 70
     1
102
RTVSPropertyOp2
 70
     1
102
RTVSPropertyOp3
 70
     1
102
RTVSPropertyOp4
 70
     1
102
RTVSPropertyOp5
 70
     1
102
RTVSPropertyOp6
 70
     1
102
RTVSPropertyOp7
 70
     1
102
RTVSPropertyOp8
 70
     1
102
RTVSPropertyOp9
 70
     1
102
RTVSPropertyOp10
 70
     1
102
RTVSPropertyOp11
 70
     1
102
RTVSPropertyOp12
 70
     1
102
RTVSPropertyOp13
 70
     1
102
RTVSPropertyOp14
 70
     1
102
RTVSPropertyOp15
 70
     1
102
RTVSPropertyOp16
 70
     1
102
RTVSPropertyOp17
 70
     1
102
RTVSPropertyOp18
 70
     1
102
RTVSPropertyOp19
 70
     1
102
RTVSPropertyOp20
 70
     1
102
RTVSPropertyOp21
 70
     1
102
RTVSPropertyOp22
 70
     1
102
RTVSPropertyOp23
 70
     1
102
RTVSPropertyOp24
 70
     1
102
RTVSPropertyOp25
 70
     1
102
RTVSPropertyOp26
 70
     1
102
RTVSPropertyOp27
 70
     1
102
RTVSPropertyOp28
 70
     1
102
RTVSPropertyOp29
 70
     1
102
RTVSPropertyOp30
 70
     1
102
RTVSPropertyOp31
 70
     1
102
RTVSPropertyOp32
 70
     1
102
RTVSPropertyOp33
 70
     1
102
RTVSPropertyOp34
 70
     1
102
RTVSPropertyOp35
 70
     1
102
RTVSPropertyOp36
 70
     1
102
RTVSPropertyOp37
 70
     1
102
RTVSPropertyOp38
 70
     1
102
RTVSPropertyOp39
 70
     1
102
RTVSPropertyOp40
 70
     1
102
RTVSPropertyOp41
 70
     1
102
RTVSPropertyOp42
 70
     1
102
RTVSPropertyOp43
 70
     1
102
RTVSPropertyOp44
 70
     1
102
RTVSPropertyOp45
 70
     1
102
RTVSPropertyOp46
 70
     1
102
RTVSPropertyOp47
 70
     1
102
RTVSPropertyOp48
 70
     1
102
RTVSPropertyOp49
 70
     1
102
RTVSPropertyOp50
 70
     1
102
RTVSPropertyOp51
 70
     0
102
RTVSPropertyOp52
 70
     0
102
RTVSPropertyOp53
 70
     1
102
RTVSPropertyOp54
 70
     1
102
RTVSPropertyOp55
 70
     1
102
RTVSPropertyOp56
 70
     1
102
RTVSPropertyOp57
 70
     1
102
RTVSPropertyOp58
 70
     1
102
RTVSPropertyOp59
 70
     1
102
RTVSPropertyOp60
 70
     1
102
RTVSPropertyOp61
 70
     1
102
RTVSPropertyOp62
 70
     1
  0
XRECORD
  5
99F3
102
{ACAD_REACTORS
330
99F2
102
}
330
99F2
100
AcDbXrecord
280
     1
102
RTVSPost2010Prop28
280
     0
102
RTVSPost2010PropOp28
 70
     1
102
RTVSPost2010Prop29
280
     1
102
RTVSPost2010PropOp29
 70
     1
102
RTVSPost2010Prop30
280
     1
102
RTVSPost2010PropOp30
 70
     1
102
RTVSPost2010Prop31
280
     0
102
RTVSPost2010PropOp31
 70
     1
102
RTVSPost2010Prop32
280
     0
102
RTVSPost2010PropOp32
 70
     1
102
RTVSPost2010Prop33
280
     0
102
RTVSPost2010PropOp33
 70
     1
102
RTVSPost2010Prop34
280
     0
102
RTVSPost2010PropOp34
 70
     1
102
RTVSPost2010Prop35
280
     0
102
RTVSPost2010PropOp35
 70
     1
102
RTVSPost2010Prop36
280
     0
102
RTVSPost2010PropOp36
 70
     1
102
RTVSPost2010Prop37
 90
       50
102
RTVSPost2010PropOp37
 70
     1
102
RTVSPost2010Prop38
140
0.0
102
RTVSPost2010PropOp38
 70
     1
102
RTVSPost2010Prop39
140
1.0
102
RTVSPost2010PropOp39
 70
     1
102
RTVSPost2010Prop40
 90
        0
102
RTVSPost2010PropOp40
 70
     1
102
RTVSPost2010Prop41ColorIndex
 90
       18
102
RTVSPost2010Prop41ColorRGB
 90
        0
102
RTVSPost2010PropOp41
 70
     1
102
RTVSPost2010Prop42
 90
       50
102
RTVSPost2010PropOp42
 70
     1
102
RTVSPost2010Prop43
 90
        3
102
RTVSPost2010PropOp43
 70
     1
102
RTVSPost2010Prop44ColorIndex
 90
        5
102
RTVSPost2010Prop44ColorRGB
 90
      255
102
RTVSPost2010PropOp44
 70
     1
102
RTVSPost2010Prop45
280
     0
102
RTVSPost2010PropOp45
 70
     1
102
RTVSPost2010Prop46
 90
       50
102
RTVSPost2010PropOp46
 70
     1
102
RTVSPost2010Prop47
 90
       50
102
RTVSPost2010PropOp47
 70
     1
102
RTVSPost2010Prop48
 90
       50
102
RTVSPost2010PropOp48
 70
     1
102
RTVSPost2010Prop49
280
     0
102
RTVSPost2010PropOp49
 70
     1
102
RTVSPost2010Prop50
 90
       50
102
RTVSPost2010PropOp50
 70
     1
102
RTVSPost2010Prop51ColorIndex
 90
      256
102
RTVSPost2010Prop51ColorRGB
 90
-16777216
102
RTVSPost2010PropOp51
 70
     0
102
RTVSPost2010Prop52
140
1.0
102
RTVSPost2010PropOp52
 70
     0
102
RTVSPost2010Prop53
 90
        2
102
RTVSPost2010PropOp53
 70
     1
102
RTVSPost2010Prop54
  1
strokes_ogs.tif
102
RTVSPost2010PropOp54
 70
     1
102
RTVSPost2010Prop55
280
     0
102
RTVSPost2010PropOp55
 70
     1
102
RTVSPost2010Prop56
140
1.0
102
RTVSPost2010PropOp56
 70
     1
102
RTVSPost2010Prop57
140
1.0
102
RTVSPost2010PropOp57
 70
     1
102
RTVSPropertyOp0
 70
     1
102
RTVSPropertyOp1
 70
     1
102
RTVSPropertyOp2
 70
     1
102
RTVSPropertyOp3
 70
     1
102
RTVSPropertyOp4
 70
     1
102
RTVSPropertyOp5
 70
     1
102
RTVSPropertyOp6
 70
     1
102
RTVSPropertyOp7
 70
     1
102
RTVSPropertyOp8
 70
     1
102
RTVSPropertyOp9
 70
     1
102
RTVSPropertyOp10
 70
     1
102
RTVSPropertyOp11
 70
     1
102
RTVSPropertyOp12
 70
     1
102
RTVSPropertyOp13
 70
     1
102
RTVSPropertyOp14
 70
     1
102
RTVSPropertyOp15
 70
     1
102
RTVSPropertyOp16
 70
     1
102
RTVSPropertyOp17
 70
     1
102
RTVSPropertyOp18
 70
     1
102
RTVSPropertyOp19
 70
     1
102
RTVSPropertyOp20
 70
     1
102
RTVSPropertyOp21
 70
     1
102
RTVSPropertyOp22
 70
     1
102
RTVSPropertyOp23
 70
     1
102
RTVSPropertyOp24
 70
     1
102
RTVSPropertyOp25
 70
     1
102
RTVSPropertyOp26
 70
     1
102
RTVSPropertyOp27
 70
     1
102
RTVSPropertyOp28
 70
     1
102
RTVSPropertyOp29
 70
     1
102
RTVSPropertyOp30
 70
     1
102
RTVSPropertyOp31
 70
     1
102
RTVSPropertyOp32
 70
     1
102
RTVSPropertyOp33
 70
     1
102
RTVSPropertyOp34
 70
     1
102
RTVSPropertyOp35
 70
     1
102
RTVSPropertyOp36
 70
     1
102
RTVSPropertyOp37
 70
     1
102
RTVSPropertyOp38
 70
     1
102
RTVSPropertyOp39
 70
     1
102
RTVSPropertyOp40
 70
     1
102
RTVSPropertyOp41
 70
     1
102
RTVSPropertyOp42
 70
     1
102
RTVSPropertyOp43
 70
     1
102
RTVSPropertyOp44
 70
     1
102
RTVSPropertyOp45
 70
     1
102
RTVSPropertyOp46
 70
     1
102
RTVSPropertyOp47
 70
     1
102
RTVSPropertyOp48
 70
     1
102
RTVSPropertyOp49
 70
     1
102
RTVSPropertyOp50
 70
     1
102
RTVSPropertyOp51
 70
     0
102
RTVSPropertyOp52
 70
     0
102
RTVSPropertyOp53
 70
     1
102
RTVSPropertyOp54
 70
     1
102
RTVSPropertyOp55
 70
     1
102
RTVSPropertyOp56
 70
     1
102
RTVSPropertyOp57
 70
     1
102
RTVSPropertyOp58
 70
     1
102
RTVSPropertyOp59
 70
     1
102
RTVSPropertyOp60
 70
     1
102
RTVSPropertyOp61
 70
     1
102
RTVSPropertyOp62
 70
     1
  0
XRECORD
  5
99F7
102
{ACAD_REACTORS
330
99F6
102
}
330
99F6
100
AcDbXrecord
280
     1
102
RTVSPost2010Prop28
280
     0
102
RTVSPost2010PropOp28
 70
     1
102
RTVSPost2010Prop29
280
     1
102
RTVSPost2010PropOp29
 70
     1
102
RTVSPost2010Prop30
280
     1
102
RTVSPost2010PropOp30
 70
     1
102
RTVSPost2010Prop31
280
     0
102
RTVSPost2010PropOp31
 70
     1
102
RTVSPost2010Prop32
280
     0
102
RTVSPost2010PropOp32
 70
     1
102
RTVSPost2010Prop33
280
     0
102
RTVSPost2010PropOp33
 70
     1
102
RTVSPost2010Prop34
280
     0
102
RTVSPost2010PropOp34
 70
     1
102
RTVSPost2010Prop35
280
     0
102
RTVSPost2010PropOp35
 70
     1
102
RTVSPost2010Prop36
280
     0
102
RTVSPost2010PropOp36
 70
     1
102
RTVSPost2010Prop37
 90
       50
102
RTVSPost2010PropOp37
 70
     1
102
RTVSPost2010Prop38
140
0.0
102
RTVSPost2010PropOp38
 70
     1
102
RTVSPost2010Prop39
140
1.0
102
RTVSPost2010PropOp39
 70
     1
102
RTVSPost2010Prop40
 90
        0
102
RTVSPost2010PropOp40
 70
     1
102
RTVSPost2010Prop41ColorIndex
 90
       18
102
RTVSPost2010Prop41ColorRGB
 90
        0
102
RTVSPost2010PropOp41
 70
     1
102
RTVSPost2010Prop42
 90
       50
102
RTVSPost2010PropOp42
 70
     1
102
RTVSPost2010Prop43
 90
        3
102
RTVSPost2010PropOp43
 70
     1
102
RTVSPost2010Prop44ColorIndex
 90
        5
102
RTVSPost2010Prop44ColorRGB
 90
      255
102
RTVSPost2010PropOp44
 70
     1
102
RTVSPost2010Prop45
280
     0
102
RTVSPost2010PropOp45
 70
     1
102
RTVSPost2010Prop46
 90
       50
102
RTVSPost2010PropOp46
 70
     1
102
RTVSPost2010Prop47
 90
       50
102
RTVSPost2010PropOp47
 70
     1
102
RTVSPost2010Prop48
 90
       50
102
RTVSPost2010PropOp48
 70
     1
102
RTVSPost2010Prop49
280
     0
102
RTVSPost2010PropOp49
 70
     1
102
RTVSPost2010Prop50
 90
       50
102
RTVSPost2010PropOp50
 70
     1
102
RTVSPost2010Prop51ColorIndex
 90
      256
102
RTVSPost2010Prop51ColorRGB
 90
-16777216
102
RTVSPost2010PropOp51
 70
     0
102
RTVSPost2010Prop52
140
1.0
102
RTVSPost2010PropOp52
 70
     0
102
RTVSPost2010Prop53
 90
        2
102
RTVSPost2010PropOp53
 70
     1
102
RTVSPost2010Prop54
  1
strokes_ogs.tif
102
RTVSPost2010PropOp54
 70
     1
102
RTVSPost2010Prop55
280
     0
102
RTVSPost2010PropOp55
 70
     1
102
RTVSPost2010Prop56
140
1.0
102
RTVSPost2010PropOp56
 70
     1
102
RTVSPost2010Prop57
140
1.0
102
RTVSPost2010PropOp57
 70
     1
102
RTVSPropertyOp0
 70
     1
102
RTVSPropertyOp1
 70
     1
102
RTVSPropertyOp2
 70
     1
102
RTVSPropertyOp3
 70
     1
102
RTVSPropertyOp4
 70
     1
102
RTVSPropertyOp5
 70
     1
102
RTVSPropertyOp6
 70
     1
102
RTVSPropertyOp7
 70
     1
102
RTVSPropertyOp8
 70
     1
102
RTVSPropertyOp9
 70
     1
102
RTVSPropertyOp10
 70
     1
102
RTVSPropertyOp11
 70
     1
102
RTVSPropertyOp12
 70
     1
102
RTVSPropertyOp13
 70
     1
102
RTVSPropertyOp14
 70
     1
102
RTVSPropertyOp15
 70
     1
102
RTVSPropertyOp16
 70
     1
102
RTVSPropertyOp17
 70
     1
102
RTVSPropertyOp18
 70
     1
102
RTVSPropertyOp19
 70
     1
102
RTVSPropertyOp20
 70
     1
102
RTVSPropertyOp21
 70
     1
102
RTVSPropertyOp22
 70
     1
102
RTVSPropertyOp23
 70
     1
102
RTVSPropertyOp24
 70
     1
102
RTVSPropertyOp25
 70
     1
102
RTVSPropertyOp26
 70
     1
102
RTVSPropertyOp27
 70
     1
102
RTVSPropertyOp28
 70
     1
102
RTVSPropertyOp29
 70
     1
102
RTVSPropertyOp30
 70
     1
102
RTVSPropertyOp31
 70
     1
102
RTVSPropertyOp32
 70
     1
102
RTVSPropertyOp33
 70
     1
102
RTVSPropertyOp34
 70
     1
102
RTVSPropertyOp35
 70
     1
102
RTVSPropertyOp36
 70
     1
102
RTVSPropertyOp37
 70
     1
102
RTVSPropertyOp38
 70
     1
102
RTVSPropertyOp39
 70
     1
102
RTVSPropertyOp40
 70
     1
102
RTVSPropertyOp41
 70
     1
102
RTVSPropertyOp42
 70
     1
102
RTVSPropertyOp43
 70
     1
102
RTVSPropertyOp44
 70
     1
102
RTVSPropertyOp45
 70
     1
102
RTVSPropertyOp46
 70
     1
102
RTVSPropertyOp47
 70
     1
102
RTVSPropertyOp48
 70
     1
102
RTVSPropertyOp49
 70
     1
102
RTVSPropertyOp50
 70
     1
102
RTVSPropertyOp51
 70
     0
102
RTVSPropertyOp52
 70
     0
102
RTVSPropertyOp53
 70
     1
102
RTVSPropertyOp54
 70
     1
102
RTVSPropertyOp55
 70
     1
102
RTVSPropertyOp56
 70
     1
102
RTVSPropertyOp57
 70
     1
102
RTVSPropertyOp58
 70
     1
102
RTVSPropertyOp59
 70
     1
102
RTVSPropertyOp60
 70
     1
102
RTVSPropertyOp61
 70
     1
102
RTVSPropertyOp62
 70
     1
  0
XRECORD
  5
9A11
102
{ACAD_REACTORS
330
9A10
102
}
330
9A10
100
AcDbXrecord
280
     1
102
RTVSPost2010Prop28
280
     0
102
RTVSPost2010PropOp28
 70
     1
102
RTVSPost2010Prop29
280
     1
102
RTVSPost2010PropOp29
 70
     1
102
RTVSPost2010Prop30
280
     1
102
RTVSPost2010PropOp30
 70
     1
102
RTVSPost2010Prop31
280
     0
102
RTVSPost2010PropOp31
 70
     1
102
RTVSPost2010Prop32
280
     0
102
RTVSPost2010PropOp32
 70
     1
102
RTVSPost2010Prop33
280
     0
102
RTVSPost2010PropOp33
 70
     1
102
RTVSPost2010Prop34
280
     0
102
RTVSPost2010PropOp34
 70
     1
102
RTVSPost2010Prop35
280
     0
102
RTVSPost2010PropOp35
 70
     1
102
RTVSPost2010Prop36
280
     0
102
RTVSPost2010PropOp36
 70
     1
102
RTVSPost2010Prop37
 90
       50
102
RTVSPost2010PropOp37
 70
     0
102
RTVSPost2010Prop38
140
0.0
102
RTVSPost2010PropOp38
 70
     0
102
RTVSPost2010Prop39
140
1.0
102
RTVSPost2010PropOp39
 70
     0
102
RTVSPost2010Prop40
 90
        0
102
RTVSPost2010PropOp40
 70
     0
102
RTVSPost2010Prop41ColorIndex
 90
       18
102
RTVSPost2010Prop41ColorRGB
 90
        0
102
RTVSPost2010PropOp41
 70
     0
102
RTVSPost2010Prop42
 90
       50
102
RTVSPost2010PropOp42
 70
     0
102
RTVSPost2010Prop43
 90
        3
102
RTVSPost2010PropOp43
 70
     0
102
RTVSPost2010Prop44ColorIndex
 90
        5
102
RTVSPost2010Prop44ColorRGB
 90
      255
102
RTVSPost2010PropOp44
 70
     0
102
RTVSPost2010Prop45
280
     0
102
RTVSPost2010PropOp45
 70
     1
102
RTVSPost2010Prop46
 90
       50
102
RTVSPost2010PropOp46
 70
     0
102
RTVSPost2010Prop47
 90
       50
102
RTVSPost2010PropOp47
 70
     0
102
RTVSPost2010Prop48
 90
       50
102
RTVSPost2010PropOp48
 70
     0
102
RTVSPost2010Prop49
280
     0
102
RTVSPost2010PropOp49
 70
     1
102
RTVSPost2010Prop50
 90
       50
102
RTVSPost2010PropOp50
 70
     0
102
RTVSPost2010Prop51ColorIndex
 90
      256
102
RTVSPost2010Prop51ColorRGB
 90
-16777216
102
RTVSPost2010PropOp51
 70
     0
102
RTVSPost2010Prop52
140
1.0
102
RTVSPost2010PropOp52
 70
     0
102
RTVSPost2010Prop53
 90
        2
102
RTVSPost2010PropOp53
 70
     0
102
RTVSPost2010Prop54
  1
strokes_ogs.tif
102
RTVSPost2010PropOp54
 70
     0
102
RTVSPost2010Prop55
280
     0
102
RTVSPost2010PropOp55
 70
     1
102
RTVSPost2010Prop56
140
1.0
102
RTVSPost2010PropOp56
 70
     0
102
RTVSPost2010Prop57
140
1.0
102
RTVSPost2010PropOp57
 70
     0
102
RTVSPropertyOp0
 70
     0
102
RTVSPropertyOp1
 70
     0
102
RTVSPropertyOp2
 70
     0
102
RTVSPropertyOp3
 70
     0
102
RTVSPropertyOp4
 70
     0
102
RTVSPropertyOp5
 70
     0
102
RTVSPropertyOp6
 70
     0
102
RTVSPropertyOp7
 70
     0
102
RTVSPropertyOp8
 70
     0
102
RTVSPropertyOp9
 70
     0
102
RTVSPropertyOp10
 70
     0
102
RTVSPropertyOp11
 70
     0
102
RTVSPropertyOp12
 70
     0
102
RTVSPropertyOp13
 70
     0
102
RTVSPropertyOp14
 70
     2
102
RTVSPropertyOp15
 70
     0
102
RTVSPropertyOp16
 70
     0
102
RTVSPropertyOp17
 70
     0
102
RTVSPropertyOp18
 70
     0
102
RTVSPropertyOp19
 70
     0
102
RTVSPropertyOp20
 70
     0
102
RTVSPropertyOp21
 70
     0
102
RTVSPropertyOp22
 70
     0
102
RTVSPropertyOp23
 70
     0
102
RTVSPropertyOp24
 70
     0
102
RTVSPropertyOp25
 70
     0
102
RTVSPropertyOp26
 70
     0
102
RTVSPropertyOp27
 70
     0
102
RTVSPropertyOp28
 70
     1
102
RTVSPropertyOp29
 70
     1
102
RTVSPropertyOp30
 70
     1
102
RTVSPropertyOp31
 70
     1
102
RTVSPropertyOp32
 70
     1
102
RTVSPropertyOp33
 70
     1
102
RTVSPropertyOp34
 70
     1
102
RTVSPropertyOp35
 70
     1
102
RTVSPropertyOp36
 70
     1
102
RTVSPropertyOp37
 70
     0
102
RTVSPropertyOp38
 70
     0
102
RTVSPropertyOp39
 70
     0
102
RTVSPropertyOp40
 70
     0
102
RTVSPropertyOp41
 70
     0
102
RTVSPropertyOp42
 70
     0
102
RTVSPropertyOp43
 70
     0
102
RTVSPropertyOp44
 70
     0
102
RTVSPropertyOp45
 70
     1
102
RTVSPropertyOp46
 70
     0
102
RTVSPropertyOp47
 70
     0
102
RTVSPropertyOp48
 70
     0
102
RTVSPropertyOp49
 70
     1
102
RTVSPropertyOp50
 70
     0
102
RTVSPropertyOp51
 70
     0
102
RTVSPropertyOp52
 70
     0
102
RTVSPropertyOp53
 70
     0
102
RTVSPropertyOp54
 70
     0
102
RTVSPropertyOp55
 70
     1
102
RTVSPropertyOp56
 70
     0
102
RTVSPropertyOp57
 70
     0
102
RTVSPropertyOp58
 70
     0
102
RTVSPropertyOp59
 70
     0
102
RTVSPropertyOp60
 70
     0
102
RTVSPropertyOp61
 70
     0
102
RTVSPropertyOp62
 70
     0
  0
XRECORD
  5
99FF
102
{ACAD_REACTORS
330
99FE
102
}
330
99FE
100
AcDbXrecord
280
     1
102
RTVSPost2010Prop28
280
     0
102
RTVSPost2010PropOp28
 70
     1
102
RTVSPost2010Prop29
280
     1
102
RTVSPost2010PropOp29
 70
     1
102
RTVSPost2010Prop30
280
     1
102
RTVSPost2010PropOp30
 70
     1
102
RTVSPost2010Prop31
280
     0
102
RTVSPost2010PropOp31
 70
     1
102
RTVSPost2010Prop32
280
     0
102
RTVSPost2010PropOp32
 70
     1
102
RTVSPost2010Prop33
280
     0
102
RTVSPost2010PropOp33
 70
     1
102
RTVSPost2010Prop34
280
     0
102
RTVSPost2010PropOp34
 70
     1
102
RTVSPost2010Prop35
280
     0
102
RTVSPost2010PropOp35
 70
     1
102
RTVSPost2010Prop36
280
     0
102
RTVSPost2010PropOp36
 70
     1
102
RTVSPost2010Prop37
 90
       50
102
RTVSPost2010PropOp37
 70
     1
102
RTVSPost2010Prop38
140
0.0
102
RTVSPost2010PropOp38
 70
     1
102
RTVSPost2010Prop39
140
1.0
102
RTVSPost2010PropOp39
 70
     1
102
RTVSPost2010Prop40
 90
        0
102
RTVSPost2010PropOp40
 70
     1
102
RTVSPost2010Prop41ColorIndex
 90
       18
102
RTVSPost2010Prop41ColorRGB
 90
        0
102
RTVSPost2010PropOp41
 70
     1
102
RTVSPost2010Prop42
 90
       50
102
RTVSPost2010PropOp42
 70
     1
102
RTVSPost2010Prop43
 90
        3
102
RTVSPost2010PropOp43
 70
     1
102
RTVSPost2010Prop44ColorIndex
 90
        5
102
RTVSPost2010Prop44ColorRGB
 90
      255
102
RTVSPost2010PropOp44
 70
     1
102
RTVSPost2010Prop45
280
     0
102
RTVSPost2010PropOp45
 70
     1
102
RTVSPost2010Prop46
 90
       50
102
RTVSPost2010PropOp46
 70
     1
102
RTVSPost2010Prop47
 90
       50
102
RTVSPost2010PropOp47
 70
     1
102
RTVSPost2010Prop48
 90
       50
102
RTVSPost2010PropOp48
 70
     1
102
RTVSPost2010Prop49
280
     0
102
RTVSPost2010PropOp49
 70
     1
102
RTVSPost2010Prop50
 90
       50
102
RTVSPost2010PropOp50
 70
     1
102
RTVSPost2010Prop51ColorIndex
 90
      256
102
RTVSPost2010Prop51ColorRGB
 90
-16777216
102
RTVSPost2010PropOp51
 70
     0
102
RTVSPost2010Prop52
140
1.0
102
RTVSPost2010PropOp52
 70
     0
102
RTVSPost2010Prop53
 90
        2
102
RTVSPost2010PropOp53
 70
     1
102
RTVSPost2010Prop54
  1
strokes_ogs.tif
102
RTVSPost2010PropOp54
 70
     1
102
RTVSPost2010Prop55
280
     0
102
RTVSPost2010PropOp55
 70
     1
102
RTVSPost2010Prop56
140
1.0
102
RTVSPost2010PropOp56
 70
     1
102
RTVSPost2010Prop57
140
1.0
102
RTVSPost2010PropOp57
 70
     1
102
RTVSPropertyOp0
 70
     1
102
RTVSPropertyOp1
 70
     1
102
RTVSPropertyOp2
 70
     1
102
RTVSPropertyOp3
 70
     1
102
RTVSPropertyOp4
 70
     1
102
RTVSPropertyOp5
 70
     1
102
RTVSPropertyOp6
 70
     1
102
RTVSPropertyOp7
 70
     1
102
RTVSPropertyOp8
 70
     1
102
RTVSPropertyOp9
 70
     1
102
RTVSPropertyOp10
 70
     1
102
RTVSPropertyOp11
 70
     1
102
RTVSPropertyOp12
 70
     1
102
RTVSPropertyOp13
 70
     1
102
RTVSPropertyOp14
 70
     1
102
RTVSPropertyOp15
 70
     1
102
RTVSPropertyOp16
 70
     1
102
RTVSPropertyOp17
 70
     1
102
RTVSPropertyOp18
 70
     1
102
RTVSPropertyOp19
 70
     1
102
RTVSPropertyOp20
 70
     1
102
RTVSPropertyOp21
 70
     1
102
RTVSPropertyOp22
 70
     1
102
RTVSPropertyOp23
 70
     1
102
RTVSPropertyOp24
 70
     1
102
RTVSPropertyOp25
 70
     1
102
RTVSPropertyOp26
 70
     1
102
RTVSPropertyOp27
 70
     1
102
RTVSPropertyOp28
 70
     1
102
RTVSPropertyOp29
 70
     1
102
RTVSPropertyOp30
 70
     1
102
RTVSPropertyOp31
 70
     1
102
RTVSPropertyOp32
 70
     1
102
RTVSPropertyOp33
 70
     1
102
RTVSPropertyOp34
 70
     1
102
RTVSPropertyOp35
 70
     1
102
RTVSPropertyOp36
 70
     1
102
RTVSPropertyOp37
 70
     1
102
RTVSPropertyOp38
 70
     1
102
RTVSPropertyOp39
 70
     1
102
RTVSPropertyOp40
 70
     1
102
RTVSPropertyOp41
 70
     1
102
RTVSPropertyOp42
 70
     1
102
RTVSPropertyOp43
 70
     1
102
RTVSPropertyOp44
 70
     1
102
RTVSPropertyOp45
 70
     1
102
RTVSPropertyOp46
 70
     1
102
RTVSPropertyOp47
 70
     1
102
RTVSPropertyOp48
 70
     1
102
RTVSPropertyOp49
 70
     1
102
RTVSPropertyOp50
 70
     1
102
RTVSPropertyOp51
 70
     0
102
RTVSPropertyOp52
 70
     0
102
RTVSPropertyOp53
 70
     1
102
RTVSPropertyOp54
 70
     1
102
RTVSPropertyOp55
 70
     1
102
RTVSPropertyOp56
 70
     1
102
RTVSPropertyOp57
 70
     1
102
RTVSPropertyOp58
 70
     1
102
RTVSPropertyOp59
 70
     1
102
RTVSPropertyOp60
 70
     1
102
RTVSPropertyOp61
 70
     1
102
RTVSPropertyOp62
 70
     1
  0
XRECORD
  5
99E3
102
{ACAD_REACTORS
330
99E2
102
}
330
99E2
100
AcDbXrecord
280
     1
102
RTVSPost2010Prop28
280
     0
102
RTVSPost2010PropOp28
 70
     1
102
RTVSPost2010Prop29
280
     1
102
RTVSPost2010PropOp29
 70
     1
102
RTVSPost2010Prop30
280
     1
102
RTVSPost2010PropOp30
 70
     1
102
RTVSPost2010Prop31
280
     0
102
RTVSPost2010PropOp31
 70
     1
102
RTVSPost2010Prop32
280
     0
102
RTVSPost2010PropOp32
 70
     1
102
RTVSPost2010Prop33
280
     0
102
RTVSPost2010PropOp33
 70
     1
102
RTVSPost2010Prop34
280
     0
102
RTVSPost2010PropOp34
 70
     1
102
RTVSPost2010Prop35
280
     0
102
RTVSPost2010PropOp35
 70
     1
102
RTVSPost2010Prop36
280
     0
102
RTVSPost2010PropOp36
 70
     1
102
RTVSPost2010Prop37
 90
       50
102
RTVSPost2010PropOp37
 70
     1
102
RTVSPost2010Prop38
140
0.0
102
RTVSPost2010PropOp38
 70
     1
102
RTVSPost2010Prop39
140
1.0
102
RTVSPost2010PropOp39
 70
     1
102
RTVSPost2010Prop40
 90
        0
102
RTVSPost2010PropOp40
 70
     1
102
RTVSPost2010Prop41ColorIndex
 90
       18
102
RTVSPost2010Prop41ColorRGB
 90
        0
102
RTVSPost2010PropOp41
 70
     1
102
RTVSPost2010Prop42
 90
       50
102
RTVSPost2010PropOp42
 70
     1
102
RTVSPost2010Prop43
 90
        3
102
RTVSPost2010PropOp43
 70
     1
102
RTVSPost2010Prop44ColorIndex
 90
        5
102
RTVSPost2010Prop44ColorRGB
 90
      255
102
RTVSPost2010PropOp44
 70
     1
102
RTVSPost2010Prop45
280
     0
102
RTVSPost2010PropOp45
 70
     1
102
RTVSPost2010Prop46
 90
       50
102
RTVSPost2010PropOp46
 70
     1
102
RTVSPost2010Prop47
 90
       50
102
RTVSPost2010PropOp47
 70
     1
102
RTVSPost2010Prop48
 90
       50
102
RTVSPost2010PropOp48
 70
     1
102
RTVSPost2010Prop49
280
     0
102
RTVSPost2010PropOp49
 70
     1
102
RTVSPost2010Prop50
 90
       50
102
RTVSPost2010PropOp50
 70
     1
102
RTVSPost2010Prop51ColorIndex
 90
      256
102
RTVSPost2010Prop51ColorRGB
 90
-16777216
102
RTVSPost2010PropOp51
 70
     0
102
RTVSPost2010Prop52
140
1.0
102
RTVSPost2010PropOp52
 70
     0
102
RTVSPost2010Prop53
 90
        2
102
RTVSPost2010PropOp53
 70
     1
102
RTVSPost2010Prop54
  1
strokes_ogs.tif
102
RTVSPost2010PropOp54
 70
     1
102
RTVSPost2010Prop55
280
     0
102
RTVSPost2010PropOp55
 70
     1
102
RTVSPost2010Prop56
140
1.0
102
RTVSPost2010PropOp56
 70
     1
102
RTVSPost2010Prop57
140
1.0
102
RTVSPost2010PropOp57
 70
     1
102
RTVSPropertyOp0
 70
     1
102
RTVSPropertyOp1
 70
     1
102
RTVSPropertyOp2
 70
     1
102
RTVSPropertyOp3
 70
     1
102
RTVSPropertyOp4
 70
     1
102
RTVSPropertyOp5
 70
     1
102
RTVSPropertyOp6
 70
     1
102
RTVSPropertyOp7
 70
     1
102
RTVSPropertyOp8
 70
     1
102
RTVSPropertyOp9
 70
     1
102
RTVSPropertyOp10
 70
     1
102
RTVSPropertyOp11
 70
     1
102
RTVSPropertyOp12
 70
     1
102
RTVSPropertyOp13
 70
     1
102
RTVSPropertyOp14
 70
     1
102
RTVSPropertyOp15
 70
     1
102
RTVSPropertyOp16
 70
     1
102
RTVSPropertyOp17
 70
     1
102
RTVSPropertyOp18
 70
     1
102
RTVSPropertyOp19
 70
     1
102
RTVSPropertyOp20
 70
     1
102
RTVSPropertyOp21
 70
     1
102
RTVSPropertyOp22
 70
     1
102
RTVSPropertyOp23
 70
     1
102
RTVSPropertyOp24
 70
     1
102
RTVSPropertyOp25
 70
     1
102
RTVSPropertyOp26
 70
     1
102
RTVSPropertyOp27
 70
     1
102
RTVSPropertyOp28
 70
     1
102
RTVSPropertyOp29
 70
     1
102
RTVSPropertyOp30
 70
     1
102
RTVSPropertyOp31
 70
     1
102
RTVSPropertyOp32
 70
     1
102
RTVSPropertyOp33
 70
     1
102
RTVSPropertyOp34
 70
     1
102
RTVSPropertyOp35
 70
     1
102
RTVSPropertyOp36
 70
     1
102
RTVSPropertyOp37
 70
     1
102
RTVSPropertyOp38
 70
     1
102
RTVSPropertyOp39
 70
     1
102
RTVSPropertyOp40
 70
     1
102
RTVSPropertyOp41
 70
     1
102
RTVSPropertyOp42
 70
     1
102
RTVSPropertyOp43
 70
     1
102
RTVSPropertyOp44
 70
     1
102
RTVSPropertyOp45
 70
     1
102
RTVSPropertyOp46
 70
     1
102
RTVSPropertyOp47
 70
     1
102
RTVSPropertyOp48
 70
     1
102
RTVSPropertyOp49
 70
     1
102
RTVSPropertyOp50
 70
     1
102
RTVSPropertyOp51
 70
     0
102
RTVSPropertyOp52
 70
     0
102
RTVSPropertyOp53
 70
     1
102
RTVSPropertyOp54
 70
     1
102
RTVSPropertyOp55
 70
     1
102
RTVSPropertyOp56
 70
     1
102
RTVSPropertyOp57
 70
     1
102
RTVSPropertyOp58
 70
     1
102
RTVSPropertyOp59
 70
     1
102
RTVSPropertyOp60
 70
     1
102
RTVSPropertyOp61
 70
     1
102
RTVSPropertyOp62
 70
     1
  0
XRECORD
  5
99E5
102
{ACAD_REACTORS
330
99E4
102
}
330
99E4
100
AcDbXrecord
280
     1
102
RTVSPost2010Prop28
280
     0
102
RTVSPost2010PropOp28
 70
     1
102
RTVSPost2010Prop29
280
     1
102
RTVSPost2010PropOp29
 70
     1
102
RTVSPost2010Prop30
280
     1
102
RTVSPost2010PropOp30
 70
     1
102
RTVSPost2010Prop31
280
     0
102
RTVSPost2010PropOp31
 70
     1
102
RTVSPost2010Prop32
280
     0
102
RTVSPost2010PropOp32
 70
     1
102
RTVSPost2010Prop33
280
     0
102
RTVSPost2010PropOp33
 70
     1
102
RTVSPost2010Prop34
280
     0
102
RTVSPost2010PropOp34
 70
     1
102
RTVSPost2010Prop35
280
     0
102
RTVSPost2010PropOp35
 70
     1
102
RTVSPost2010Prop36
280
     0
102
RTVSPost2010PropOp36
 70
     1
102
RTVSPost2010Prop37
 90
       50
102
RTVSPost2010PropOp37
 70
     1
102
RTVSPost2010Prop38
140
0.0
102
RTVSPost2010PropOp38
 70
     1
102
RTVSPost2010Prop39
140
1.0
102
RTVSPost2010PropOp39
 70
     1
102
RTVSPost2010Prop40
 90
        0
102
RTVSPost2010PropOp40
 70
     1
102
RTVSPost2010Prop41ColorIndex
 90
       18
102
RTVSPost2010Prop41ColorRGB
 90
        0
102
RTVSPost2010PropOp41
 70
     1
102
RTVSPost2010Prop42
 90
       50
102
RTVSPost2010PropOp42
 70
     1
102
RTVSPost2010Prop43
 90
        3
102
RTVSPost2010PropOp43
 70
     1
102
RTVSPost2010Prop44ColorIndex
 90
        5
102
RTVSPost2010Prop44ColorRGB
 90
      255
102
RTVSPost2010PropOp44
 70
     1
102
RTVSPost2010Prop45
280
     0
102
RTVSPost2010PropOp45
 70
     1
102
RTVSPost2010Prop46
 90
       50
102
RTVSPost2010PropOp46
 70
     1
102
RTVSPost2010Prop47
 90
       50
102
RTVSPost2010PropOp47
 70
     1
102
RTVSPost2010Prop48
 90
       50
102
RTVSPost2010PropOp48
 70
     1
102
RTVSPost2010Prop49
280
     0
102
RTVSPost2010PropOp49
 70
     1
102
RTVSPost2010Prop50
 90
       50
102
RTVSPost2010PropOp50
 70
     1
102
RTVSPost2010Prop51ColorIndex
 90
      256
102
RTVSPost2010Prop51ColorRGB
 90
-16777216
102
RTVSPost2010PropOp51
 70
     0
102
RTVSPost2010Prop52
140
1.0
102
RTVSPost2010PropOp52
 70
     0
102
RTVSPost2010Prop53
 90
        2
102
RTVSPost2010PropOp53
 70
     1
102
RTVSPost2010Prop54
  1
strokes_ogs.tif
102
RTVSPost2010PropOp54
 70
     1
102
RTVSPost2010Prop55
280
     0
102
RTVSPost2010PropOp55
 70
     1
102
RTVSPost2010Prop56
140
1.0
102
RTVSPost2010PropOp56
 70
     1
102
RTVSPost2010Prop57
140
1.0
102
RTVSPost2010PropOp57
 70
     1
102
RTVSPropertyOp0
 70
     1
102
RTVSPropertyOp1
 70
     1
102
RTVSPropertyOp2
 70
     1
102
RTVSPropertyOp3
 70
     1
102
RTVSPropertyOp4
 70
     1
102
RTVSPropertyOp5
 70
     1
102
RTVSPropertyOp6
 70
     1
102
RTVSPropertyOp7
 70
     1
102
RTVSPropertyOp8
 70
     1
102
RTVSPropertyOp9
 70
     1
102
RTVSPropertyOp10
 70
     1
102
RTVSPropertyOp11
 70
     1
102
RTVSPropertyOp12
 70
     1
102
RTVSPropertyOp13
 70
     1
102
RTVSPropertyOp14
 70
     1
102
RTVSPropertyOp15
 70
     1
102
RTVSPropertyOp16
 70
     1
102
RTVSPropertyOp17
 70
     1
102
RTVSPropertyOp18
 70
     1
102
RTVSPropertyOp19
 70
     1
102
RTVSPropertyOp20
 70
     1
102
RTVSPropertyOp21
 70
     1
102
RTVSPropertyOp22
 70
     1
102
RTVSPropertyOp23
 70
     1
102
RTVSPropertyOp24
 70
     1
102
RTVSPropertyOp25
 70
     1
102
RTVSPropertyOp26
 70
     1
102
RTVSPropertyOp27
 70
     1
102
RTVSPropertyOp28
 70
     1
102
RTVSPropertyOp29
 70
     1
102
RTVSPropertyOp30
 70
     1
102
RTVSPropertyOp31
 70
     1
102
RTVSPropertyOp32
 70
     1
102
RTVSPropertyOp33
 70
     1
102
RTVSPropertyOp34
 70
     1
102
RTVSPropertyOp35
 70
     1
102
RTVSPropertyOp36
 70
     1
102
RTVSPropertyOp37
 70
     1
102
RTVSPropertyOp38
 70
     1
102
RTVSPropertyOp39
 70
     1
102
RTVSPropertyOp40
 70
     1
102
RTVSPropertyOp41
 70
     1
102
RTVSPropertyOp42
 70
     1
102
RTVSPropertyOp43
 70
     1
102
RTVSPropertyOp44
 70
     1
102
RTVSPropertyOp45
 70
     1
102
RTVSPropertyOp46
 70
     1
102
RTVSPropertyOp47
 70
     1
102
RTVSPropertyOp48
 70
     1
102
RTVSPropertyOp49
 70
     1
102
RTVSPropertyOp50
 70
     1
102
RTVSPropertyOp51
 70
     0
102
RTVSPropertyOp52
 70
     0
102
RTVSPropertyOp53
 70
     1
102
RTVSPropertyOp54
 70
     1
102
RTVSPropertyOp55
 70
     1
102
RTVSPropertyOp56
 70
     1
102
RTVSPropertyOp57
 70
     1
102
RTVSPropertyOp58
 70
     1
102
RTVSPropertyOp59
 70
     1
102
RTVSPropertyOp60
 70
     1
102
RTVSPropertyOp61
 70
     1
102
RTVSPropertyOp62
 70
     1
  0
XRECORD
  5
99E7
102
{ACAD_REACTORS
330
99E6
102
}
330
99E6
100
AcDbXrecord
280
     1
102
RTVSPost2010Prop28
280
     0
102
RTVSPost2010PropOp28
 70
     1
102
RTVSPost2010Prop29
280
     1
102
RTVSPost2010PropOp29
 70
     1
102
RTVSPost2010Prop30
280
     1
102
RTVSPost2010PropOp30
 70
     1
102
RTVSPost2010Prop31
280
     0
102
RTVSPost2010PropOp31
 70
     1
102
RTVSPost2010Prop32
280
     0
102
RTVSPost2010PropOp32
 70
     1
102
RTVSPost2010Prop33
280
     0
102
RTVSPost2010PropOp33
 70
     1
102
RTVSPost2010Prop34
280
     0
102
RTVSPost2010PropOp34
 70
     1
102
RTVSPost2010Prop35
280
     0
102
RTVSPost2010PropOp35
 70
     1
102
RTVSPost2010Prop36
280
     0
102
RTVSPost2010PropOp36
 70
     1
102
RTVSPost2010Prop37
 90
       50
102
RTVSPost2010PropOp37
 70
     1
102
RTVSPost2010Prop38
140
0.0
102
RTVSPost2010PropOp38
 70
     1
102
RTVSPost2010Prop39
140
1.0
102
RTVSPost2010PropOp39
 70
     1
102
RTVSPost2010Prop40
 90
        0
102
RTVSPost2010PropOp40
 70
     1
102
RTVSPost2010Prop41ColorIndex
 90
       18
102
RTVSPost2010Prop41ColorRGB
 90
        0
102
RTVSPost2010PropOp41
 70
     1
102
RTVSPost2010Prop42
 90
       50
102
RTVSPost2010PropOp42
 70
     1
102
RTVSPost2010Prop43
 90
        3
102
RTVSPost2010PropOp43
 70
     1
102
RTVSPost2010Prop44ColorIndex
 90
        5
102
RTVSPost2010Prop44ColorRGB
 90
      255
102
RTVSPost2010PropOp44
 70
     1
102
RTVSPost2010Prop45
280
     0
102
RTVSPost2010PropOp45
 70
     1
102
RTVSPost2010Prop46
 90
       50
102
RTVSPost2010PropOp46
 70
     1
102
RTVSPost2010Prop47
 90
       50
102
RTVSPost2010PropOp47
 70
     1
102
RTVSPost2010Prop48
 90
       50
102
RTVSPost2010PropOp48
 70
     1
102
RTVSPost2010Prop49
280
     0
102
RTVSPost2010PropOp49
 70
     1
102
RTVSPost2010Prop50
 90
       50
102
RTVSPost2010PropOp50
 70
     1
102
RTVSPost2010Prop51ColorIndex
 90
      256
102
RTVSPost2010Prop51ColorRGB
 90
-16777216
102
RTVSPost2010PropOp51
 70
     0
102
RTVSPost2010Prop52
140
1.0
102
RTVSPost2010PropOp52
 70
     0
102
RTVSPost2010Prop53
 90
        2
102
RTVSPost2010PropOp53
 70
     1
102
RTVSPost2010Prop54
  1
strokes_ogs.tif
102
RTVSPost2010PropOp54
 70
     1
102
RTVSPost2010Prop55
280
     0
102
RTVSPost2010PropOp55
 70
     1
102
RTVSPost2010Prop56
140
1.0
102
RTVSPost2010PropOp56
 70
     1
102
RTVSPost2010Prop57
140
1.0
102
RTVSPost2010PropOp57
 70
     1
102
RTVSPropertyOp0
 70
     1
102
RTVSPropertyOp1
 70
     1
102
RTVSPropertyOp2
 70
     1
102
RTVSPropertyOp3
 70
     1
102
RTVSPropertyOp4
 70
     1
102
RTVSPropertyOp5
 70
     1
102
RTVSPropertyOp6
 70
     1
102
RTVSPropertyOp7
 70
     1
102
RTVSPropertyOp8
 70
     1
102
RTVSPropertyOp9
 70
     1
102
RTVSPropertyOp10
 70
     1
102
RTVSPropertyOp11
 70
     1
102
RTVSPropertyOp12
 70
     1
102
RTVSPropertyOp13
 70
     1
102
RTVSPropertyOp14
 70
     1
102
RTVSPropertyOp15
 70
     1
102
RTVSPropertyOp16
 70
     1
102
RTVSPropertyOp17
 70
     1
102
RTVSPropertyOp18
 70
     1
102
RTVSPropertyOp19
 70
     1
102
RTVSPropertyOp20
 70
     1
102
RTVSPropertyOp21
 70
     1
102
RTVSPropertyOp22
 70
     1
102
RTVSPropertyOp23
 70
     1
102
RTVSPropertyOp24
 70
     1
102
RTVSPropertyOp25
 70
     1
102
RTVSPropertyOp26
 70
     1
102
RTVSPropertyOp27
 70
     1
102
RTVSPropertyOp28
 70
     1
102
RTVSPropertyOp29
 70
     1
102
RTVSPropertyOp30
 70
     1
102
RTVSPropertyOp31
 70
     1
102
RTVSPropertyOp32
 70
     1
102
RTVSPropertyOp33
 70
     1
102
RTVSPropertyOp34
 70
     1
102
RTVSPropertyOp35
 70
     1
102
RTVSPropertyOp36
 70
     1
102
RTVSPropertyOp37
 70
     1
102
RTVSPropertyOp38
 70
     1
102
RTVSPropertyOp39
 70
     1
102
RTVSPropertyOp40
 70
     1
102
RTVSPropertyOp41
 70
     1
102
RTVSPropertyOp42
 70
     1
102
RTVSPropertyOp43
 70
     1
102
RTVSPropertyOp44
 70
     1
102
RTVSPropertyOp45
 70
     1
102
RTVSPropertyOp46
 70
     1
102
RTVSPropertyOp47
 70
     1
102
RTVSPropertyOp48
 70
     1
102
RTVSPropertyOp49
 70
     1
102
RTVSPropertyOp50
 70
     1
102
RTVSPropertyOp51
 70
     0
102
RTVSPropertyOp52
 70
     0
102
RTVSPropertyOp53
 70
     1
102
RTVSPropertyOp54
 70
     1
102
RTVSPropertyOp55
 70
     1
102
RTVSPropertyOp56
 70
     1
102
RTVSPropertyOp57
 70
     1
102
RTVSPropertyOp58
 70
     1
102
RTVSPropertyOp59
 70
     1
102
RTVSPropertyOp60
 70
     1
102
RTVSPropertyOp61
 70
     1
102
RTVSPropertyOp62
 70
     1
  0
XRECORD
  5
99E9
102
{ACAD_REACTORS
330
99E8
102
}
330
99E8
100
AcDbXrecord
280
     1
102
RTVSPost2010Prop28
280
     0
102
RTVSPost2010PropOp28
 70
     1
102
RTVSPost2010Prop29
280
     1
102
RTVSPost2010PropOp29
 70
     1
102
RTVSPost2010Prop30
280
     1
102
RTVSPost2010PropOp30
 70
     1
102
RTVSPost2010Prop31
280
     0
102
RTVSPost2010PropOp31
 70
     1
102
RTVSPost2010Prop32
280
     0
102
RTVSPost2010PropOp32
 70
     1
102
RTVSPost2010Prop33
280
     0
102
RTVSPost2010PropOp33
 70
     1
102
RTVSPost2010Prop34
280
     0
102
RTVSPost2010PropOp34
 70
     1
102
RTVSPost2010Prop35
280
     0
102
RTVSPost2010PropOp35
 70
     1
102
RTVSPost2010Prop36
280
     0
102
RTVSPost2010PropOp36
 70
     1
102
RTVSPost2010Prop37
 90
       50
102
RTVSPost2010PropOp37
 70
     1
102
RTVSPost2010Prop38
140
0.0
102
RTVSPost2010PropOp38
 70
     1
102
RTVSPost2010Prop39
140
1.0
102
RTVSPost2010PropOp39
 70
     1
102
RTVSPost2010Prop40
 90
        0
102
RTVSPost2010PropOp40
 70
     1
102
RTVSPost2010Prop41ColorIndex
 90
       18
102
RTVSPost2010Prop41ColorRGB
 90
        0
102
RTVSPost2010PropOp41
 70
     1
102
RTVSPost2010Prop42
 90
       50
102
RTVSPost2010PropOp42
 70
     1
102
RTVSPost2010Prop43
 90
        3
102
RTVSPost2010PropOp43
 70
     1
102
RTVSPost2010Prop44ColorIndex
 90
        5
102
RTVSPost2010Prop44ColorRGB
 90
      255
102
RTVSPost2010PropOp44
 70
     1
102
RTVSPost2010Prop45
280
     0
102
RTVSPost2010PropOp45
 70
     1
102
RTVSPost2010Prop46
 90
       50
102
RTVSPost2010PropOp46
 70
     1
102
RTVSPost2010Prop47
 90
       50
102
RTVSPost2010PropOp47
 70
     1
102
RTVSPost2010Prop48
 90
       50
102
RTVSPost2010PropOp48
 70
     1
102
RTVSPost2010Prop49
280
     0
102
RTVSPost2010PropOp49
 70
     1
102
RTVSPost2010Prop50
 90
       50
102
RTVSPost2010PropOp50
 70
     1
102
RTVSPost2010Prop51ColorIndex
 90
      256
102
RTVSPost2010Prop51ColorRGB
 90
-16777216
102
RTVSPost2010PropOp51
 70
     0
102
RTVSPost2010Prop52
140
1.0
102
RTVSPost2010PropOp52
 70
     0
102
RTVSPost2010Prop53
 90
        2
102
RTVSPost2010PropOp53
 70
     1
102
RTVSPost2010Prop54
  1
strokes_ogs.tif
102
RTVSPost2010PropOp54
 70
     1
102
RTVSPost2010Prop55
280
     0
102
RTVSPost2010PropOp55
 70
     1
102
RTVSPost2010Prop56
140
1.0
102
RTVSPost2010PropOp56
 70
     1
102
RTVSPost2010Prop57
140
1.0
102
RTVSPost2010PropOp57
 70
     1
102
RTVSPropertyOp0
 70
     1
102
RTVSPropertyOp1
 70
     1
102
RTVSPropertyOp2
 70
     1
102
RTVSPropertyOp3
 70
     1
102
RTVSPropertyOp4
 70
     1
102
RTVSPropertyOp5
 70
     1
102
RTVSPropertyOp6
 70
     1
102
RTVSPropertyOp7
 70
     1
102
RTVSPropertyOp8
 70
     1
102
RTVSPropertyOp9
 70
     1
102
RTVSPropertyOp10
 70
     1
102
RTVSPropertyOp11
 70
     1
102
RTVSPropertyOp12
 70
     1
102
RTVSPropertyOp13
 70
     1
102
RTVSPropertyOp14
 70
     1
102
RTVSPropertyOp15
 70
     1
102
RTVSPropertyOp16
 70
     1
102
RTVSPropertyOp17
 70
     1
102
RTVSPropertyOp18
 70
     1
102
RTVSPropertyOp19
 70
     1
102
RTVSPropertyOp20
 70
     1
102
RTVSPropertyOp21
 70
     1
102
RTVSPropertyOp22
 70
     1
102
RTVSPropertyOp23
 70
     1
102
RTVSPropertyOp24
 70
     1
102
RTVSPropertyOp25
 70
     1
102
RTVSPropertyOp26
 70
     1
102
RTVSPropertyOp27
 70
     1
102
RTVSPropertyOp28
 70
     1
102
RTVSPropertyOp29
 70
     1
102
RTVSPropertyOp30
 70
     1
102
RTVSPropertyOp31
 70
     1
102
RTVSPropertyOp32
 70
     1
102
RTVSPropertyOp33
 70
     1
102
RTVSPropertyOp34
 70
     1
102
RTVSPropertyOp35
 70
     1
102
RTVSPropertyOp36
 70
     1
102
RTVSPropertyOp37
 70
     1
102
RTVSPropertyOp38
 70
     1
102
RTVSPropertyOp39
 70
     1
102
RTVSPropertyOp40
 70
     1
102
RTVSPropertyOp41
 70
     1
102
RTVSPropertyOp42
 70
     1
102
RTVSPropertyOp43
 70
     1
102
RTVSPropertyOp44
 70
     1
102
RTVSPropertyOp45
 70
     1
102
RTVSPropertyOp46
 70
     1
102
RTVSPropertyOp47
 70
     1
102
RTVSPropertyOp48
 70
     1
102
RTVSPropertyOp49
 70
     1
102
RTVSPropertyOp50
 70
     1
102
RTVSPropertyOp51
 70
     0
102
RTVSPropertyOp52
 70
     0
102
RTVSPropertyOp53
 70
     1
102
RTVSPropertyOp54
 70
     1
102
RTVSPropertyOp55
 70
     1
102
RTVSPropertyOp56
 70
     1
102
RTVSPropertyOp57
 70
     1
102
RTVSPropertyOp58
 70
     1
102
RTVSPropertyOp59
 70
     1
102
RTVSPropertyOp60
 70
     1
102
RTVSPropertyOp61
 70
     1
102
RTVSPropertyOp62
 70
     1
  0
XRECORD
  5
99F1
102
{ACAD_REACTORS
330
99F0
102
}
330
99F0
100
AcDbXrecord
280
     1
102
RTVSPost2010Prop28
280
     0
102
RTVSPost2010PropOp28
 70
     1
102
RTVSPost2010Prop29
280
     1
102
RTVSPost2010PropOp29
 70
     1
102
RTVSPost2010Prop30
280
     1
102
RTVSPost2010PropOp30
 70
     1
102
RTVSPost2010Prop31
280
     0
102
RTVSPost2010PropOp31
 70
     1
102
RTVSPost2010Prop32
280
     0
102
RTVSPost2010PropOp32
 70
     1
102
RTVSPost2010Prop33
280
     0
102
RTVSPost2010PropOp33
 70
     1
102
RTVSPost2010Prop34
280
     0
102
RTVSPost2010PropOp34
 70
     1
102
RTVSPost2010Prop35
280
     0
102
RTVSPost2010PropOp35
 70
     1
102
RTVSPost2010Prop36
280
     0
102
RTVSPost2010PropOp36
 70
     1
102
RTVSPost2010Prop37
 90
       50
102
RTVSPost2010PropOp37
 70
     1
102
RTVSPost2010Prop38
140
0.0
102
RTVSPost2010PropOp38
 70
     1
102
RTVSPost2010Prop39
140
1.0
102
RTVSPost2010PropOp39
 70
     1
102
RTVSPost2010Prop40
 90
        0
102
RTVSPost2010PropOp40
 70
     1
102
RTVSPost2010Prop41ColorIndex
 90
       18
102
RTVSPost2010Prop41ColorRGB
 90
        0
102
RTVSPost2010PropOp41
 70
     1
102
RTVSPost2010Prop42
 90
       50
102
RTVSPost2010PropOp42
 70
     1
102
RTVSPost2010Prop43
 90
        3
102
RTVSPost2010PropOp43
 70
     1
102
RTVSPost2010Prop44ColorIndex
 90
        5
102
RTVSPost2010Prop44ColorRGB
 90
      255
102
RTVSPost2010PropOp44
 70
     1
102
RTVSPost2010Prop45
280
     0
102
RTVSPost2010PropOp45
 70
     1
102
RTVSPost2010Prop46
 90
       50
102
RTVSPost2010PropOp46
 70
     1
102
RTVSPost2010Prop47
 90
       50
102
RTVSPost2010PropOp47
 70
     1
102
RTVSPost2010Prop48
 90
       50
102
RTVSPost2010PropOp48
 70
     1
102
RTVSPost2010Prop49
280
     0
102
RTVSPost2010PropOp49
 70
     1
102
RTVSPost2010Prop50
 90
       50
102
RTVSPost2010PropOp50
 70
     1
102
RTVSPost2010Prop51ColorIndex
 90
      256
102
RTVSPost2010Prop51ColorRGB
 90
-16777216
102
RTVSPost2010PropOp51
 70
     0
102
RTVSPost2010Prop52
140
1.0
102
RTVSPost2010PropOp52
 70
     0
102
RTVSPost2010Prop53
 90
        2
102
RTVSPost2010PropOp53
 70
     1
102
RTVSPost2010Prop54
  1
strokes_ogs.tif
102
RTVSPost2010PropOp54
 70
     1
102
RTVSPost2010Prop55
280
     0
102
RTVSPost2010PropOp55
 70
     1
102
RTVSPost2010Prop56
140
1.0
102
RTVSPost2010PropOp56
 70
     1
102
RTVSPost2010Prop57
140
1.0
102
RTVSPost2010PropOp57
 70
     1
102
RTVSPropertyOp0
 70
     1
102
RTVSPropertyOp1
 70
     1
102
RTVSPropertyOp2
 70
     1
102
RTVSPropertyOp3
 70
     1
102
RTVSPropertyOp4
 70
     1
102
RTVSPropertyOp5
 70
     1
102
RTVSPropertyOp6
 70
     1
102
RTVSPropertyOp7
 70
     1
102
RTVSPropertyOp8
 70
     1
102
RTVSPropertyOp9
 70
     1
102
RTVSPropertyOp10
 70
     1
102
RTVSPropertyOp11
 70
     1
102
RTVSPropertyOp12
 70
     1
102
RTVSPropertyOp13
 70
     1
102
RTVSPropertyOp14
 70
     1
102
RTVSPropertyOp15
 70
     1
102
RTVSPropertyOp16
 70
     1
102
RTVSPropertyOp17
 70
     1
102
RTVSPropertyOp18
 70
     1
102
RTVSPropertyOp19
 70
     1
102
RTVSPropertyOp20
 70
     1
102
RTVSPropertyOp21
 70
     1
102
RTVSPropertyOp22
 70
     1
102
RTVSPropertyOp23
 70
     1
102
RTVSPropertyOp24
 70
     1
102
RTVSPropertyOp25
 70
     1
102
RTVSPropertyOp26
 70
     1
102
RTVSPropertyOp27
 70
     1
102
RTVSPropertyOp28
 70
     1
102
RTVSPropertyOp29
 70
     1
102
RTVSPropertyOp30
 70
     1
102
RTVSPropertyOp31
 70
     1
102
RTVSPropertyOp32
 70
     1
102
RTVSPropertyOp33
 70
     1
102
RTVSPropertyOp34
 70
     1
102
RTVSPropertyOp35
 70
     1
102
RTVSPropertyOp36
 70
     1
102
RTVSPropertyOp37
 70
     1
102
RTVSPropertyOp38
 70
     1
102
RTVSPropertyOp39
 70
     1
102
RTVSPropertyOp40
 70
     1
102
RTVSPropertyOp41
 70
     1
102
RTVSPropertyOp42
 70
     1
102
RTVSPropertyOp43
 70
     1
102
RTVSPropertyOp44
 70
     1
102
RTVSPropertyOp45
 70
     1
102
RTVSPropertyOp46
 70
     1
102
RTVSPropertyOp47
 70
     1
102
RTVSPropertyOp48
 70
     1
102
RTVSPropertyOp49
 70
     1
102
RTVSPropertyOp50
 70
     1
102
RTVSPropertyOp51
 70
     0
102
RTVSPropertyOp52
 70
     0
102
RTVSPropertyOp53
 70
     1
102
RTVSPropertyOp54
 70
     1
102
RTVSPropertyOp55
 70
     1
102
RTVSPropertyOp56
 70
     1
102
RTVSPropertyOp57
 70
     1
102
RTVSPropertyOp58
 70
     1
102
RTVSPropertyOp59
 70
     1
102
RTVSPropertyOp60
 70
     1
102
RTVSPropertyOp61
 70
     1
102
RTVSPropertyOp62
 70
     1
  0
XRECORD
  5
9A0D
102
{ACAD_REACTORS
330
9A0C
102
}
330
9A0C
100
AcDbXrecord
280
     1
102
RTVSPost2010Prop28
280
     0
102
RTVSPost2010PropOp28
 70
     1
102
RTVSPost2010Prop29
280
     1
102
RTVSPost2010PropOp29
 70
     1
102
RTVSPost2010Prop30
280
     1
102
RTVSPost2010PropOp30
 70
     1
102
RTVSPost2010Prop31
280
     0
102
RTVSPost2010PropOp31
 70
     1
102
RTVSPost2010Prop32
280
     0
102
RTVSPost2010PropOp32
 70
     1
102
RTVSPost2010Prop33
280
     0
102
RTVSPost2010PropOp33
 70
     1
102
RTVSPost2010Prop34
280
     0
102
RTVSPost2010PropOp34
 70
     1
102
RTVSPost2010Prop35
280
     0
102
RTVSPost2010PropOp35
 70
     1
102
RTVSPost2010Prop36
280
     0
102
RTVSPost2010PropOp36
 70
     1
102
RTVSPost2010Prop37
 90
       50
102
RTVSPost2010PropOp37
 70
     0
102
RTVSPost2010Prop38
140
0.0
102
RTVSPost2010PropOp38
 70
     0
102
RTVSPost2010Prop39
140
1.0
102
RTVSPost2010PropOp39
 70
     0
102
RTVSPost2010Prop40
 90
        0
102
RTVSPost2010PropOp40
 70
     0
102
RTVSPost2010Prop41ColorIndex
 90
       18
102
RTVSPost2010Prop41ColorRGB
 90
        0
102
RTVSPost2010PropOp41
 70
     0
102
RTVSPost2010Prop42
 90
       50
102
RTVSPost2010PropOp42
 70
     0
102
RTVSPost2010Prop43
 90
        3
102
RTVSPost2010PropOp43
 70
     0
102
RTVSPost2010Prop44ColorIndex
 90
        5
102
RTVSPost2010Prop44ColorRGB
 90
      255
102
RTVSPost2010PropOp44
 70
     0
102
RTVSPost2010Prop45
280
     0
102
RTVSPost2010PropOp45
 70
     1
102
RTVSPost2010Prop46
 90
       50
102
RTVSPost2010PropOp46
 70
     0
102
RTVSPost2010Prop47
 90
       50
102
RTVSPost2010PropOp47
 70
     0
102
RTVSPost2010Prop48
 90
       50
102
RTVSPost2010PropOp48
 70
     0
102
RTVSPost2010Prop49
280
     0
102
RTVSPost2010PropOp49
 70
     1
102
RTVSPost2010Prop50
 90
       50
102
RTVSPost2010PropOp50
 70
     0
102
RTVSPost2010Prop51ColorIndex
 90
      256
102
RTVSPost2010Prop51ColorRGB
 90
-16777216
102
RTVSPost2010PropOp51
 70
     0
102
RTVSPost2010Prop52
140
1.0
102
RTVSPost2010PropOp52
 70
     0
102
RTVSPost2010Prop53
 90
        2
102
RTVSPost2010PropOp53
 70
     0
102
RTVSPost2010Prop54
  1
strokes_ogs.tif
102
RTVSPost2010PropOp54
 70
     0
102
RTVSPost2010Prop55
280
     0
102
RTVSPost2010PropOp55
 70
     1
102
RTVSPost2010Prop56
140
1.0
102
RTVSPost2010PropOp56
 70
     0
102
RTVSPost2010Prop57
140
1.0
102
RTVSPost2010PropOp57
 70
     0
102
RTVSPropertyOp0
 70
     0
102
RTVSPropertyOp1
 70
     0
102
RTVSPropertyOp2
 70
     0
102
RTVSPropertyOp3
 70
     0
102
RTVSPropertyOp4
 70
     0
102
RTVSPropertyOp5
 70
     0
102
RTVSPropertyOp6
 70
     0
102
RTVSPropertyOp7
 70
     0
102
RTVSPropertyOp8
 70
     0
102
RTVSPropertyOp9
 70
     0
102
RTVSPropertyOp10
 70
     0
102
RTVSPropertyOp11
 70
     0
102
RTVSPropertyOp12
 70
     0
102
RTVSPropertyOp13
 70
     0
102
RTVSPropertyOp14
 70
     2
102
RTVSPropertyOp15
 70
     0
102
RTVSPropertyOp16
 70
     0
102
RTVSPropertyOp17
 70
     0
102
RTVSPropertyOp18
 70
     0
102
RTVSPropertyOp19
 70
     0
102
RTVSPropertyOp20
 70
     0
102
RTVSPropertyOp21
 70
     0
102
RTVSPropertyOp22
 70
     0
102
RTVSPropertyOp23
 70
     0
102
RTVSPropertyOp24
 70
     0
102
RTVSPropertyOp25
 70
     0
102
RTVSPropertyOp26
 70
     0
102
RTVSPropertyOp27
 70
     0
102
RTVSPropertyOp28
 70
     1
102
RTVSPropertyOp29
 70
     1
102
RTVSPropertyOp30
 70
     1
102
RTVSPropertyOp31
 70
     1
102
RTVSPropertyOp32
 70
     1
102
RTVSPropertyOp33
 70
     1
102
RTVSPropertyOp34
 70
     1
102
RTVSPropertyOp35
 70
     1
102
RTVSPropertyOp36
 70
     1
102
RTVSPropertyOp37
 70
     0
102
RTVSPropertyOp38
 70
     0
102
RTVSPropertyOp39
 70
     0
102
RTVSPropertyOp40
 70
     0
102
RTVSPropertyOp41
 70
     0
102
RTVSPropertyOp42
 70
     0
102
RTVSPropertyOp43
 70
     0
102
RTVSPropertyOp44
 70
     0
102
RTVSPropertyOp45
 70
     1
102
RTVSPropertyOp46
 70
     0
102
RTVSPropertyOp47
 70
     0
102
RTVSPropertyOp48
 70
     0
102
RTVSPropertyOp49
 70
     1
102
RTVSPropertyOp50
 70
     0
102
RTVSPropertyOp51
 70
     0
102
RTVSPropertyOp52
 70
     0
102
RTVSPropertyOp53
 70
     0
102
RTVSPropertyOp54
 70
     0
102
RTVSPropertyOp55
 70
     1
102
RTVSPropertyOp56
 70
     0
102
RTVSPropertyOp57
 70
     0
102
RTVSPropertyOp58
 70
     0
102
RTVSPropertyOp59
 70
     0
102
RTVSPropertyOp60
 70
     0
102
RTVSPropertyOp61
 70
     0
102
RTVSPropertyOp62
 70
     0
  0
XRECORD
  5
99FD
102
{ACAD_REACTORS
330
99FC
102
}
330
99FC
100
AcDbXrecord
280
     1
102
RTVSPost2010Prop28
280
     0
102
RTVSPost2010PropOp28
 70
     1
102
RTVSPost2010Prop29
280
     1
102
RTVSPost2010PropOp29
 70
     1
102
RTVSPost2010Prop30
280
     1
102
RTVSPost2010PropOp30
 70
     1
102
RTVSPost2010Prop31
280
     0
102
RTVSPost2010PropOp31
 70
     1
102
RTVSPost2010Prop32
280
     0
102
RTVSPost2010PropOp32
 70
     1
102
RTVSPost2010Prop33
280
     0
102
RTVSPost2010PropOp33
 70
     1
102
RTVSPost2010Prop34
280
     0
102
RTVSPost2010PropOp34
 70
     1
102
RTVSPost2010Prop35
280
     0
102
RTVSPost2010PropOp35
 70
     1
102
RTVSPost2010Prop36
280
     0
102
RTVSPost2010PropOp36
 70
     1
102
RTVSPost2010Prop37
 90
       50
102
RTVSPost2010PropOp37
 70
     1
102
RTVSPost2010Prop38
140
0.0
102
RTVSPost2010PropOp38
 70
     1
102
RTVSPost2010Prop39
140
1.0
102
RTVSPost2010PropOp39
 70
     1
102
RTVSPost2010Prop40
 90
        0
102
RTVSPost2010PropOp40
 70
     1
102
RTVSPost2010Prop41ColorIndex
 90
       18
102
RTVSPost2010Prop41ColorRGB
 90
        0
102
RTVSPost2010PropOp41
 70
     1
102
RTVSPost2010Prop42
 90
       50
102
RTVSPost2010PropOp42
 70
     1
102
RTVSPost2010Prop43
 90
        3
102
RTVSPost2010PropOp43
 70
     1
102
RTVSPost2010Prop44ColorIndex
 90
        5
102
RTVSPost2010Prop44ColorRGB
 90
      255
102
RTVSPost2010PropOp44
 70
     1
102
RTVSPost2010Prop45
280
     0
102
RTVSPost2010PropOp45
 70
     1
102
RTVSPost2010Prop46
 90
       50
102
RTVSPost2010PropOp46
 70
     1
102
RTVSPost2010Prop47
 90
       50
102
RTVSPost2010PropOp47
 70
     1
102
RTVSPost2010Prop48
 90
       50
102
RTVSPost2010PropOp48
 70
     1
102
RTVSPost2010Prop49
280
     0
102
RTVSPost2010PropOp49
 70
     1
102
RTVSPost2010Prop50
 90
       50
102
RTVSPost2010PropOp50
 70
     1
102
RTVSPost2010Prop51ColorIndex
 90
      256
102
RTVSPost2010Prop51ColorRGB
 90
-16777216
102
RTVSPost2010PropOp51
 70
     0
102
RTVSPost2010Prop52
140
1.0
102
RTVSPost2010PropOp52
 70
     0
102
RTVSPost2010Prop53
 90
        2
102
RTVSPost2010PropOp53
 70
     1
102
RTVSPost2010Prop54
  1
strokes_ogs.tif
102
RTVSPost2010PropOp54
 70
     1
102
RTVSPost2010Prop55
280
     0
102
RTVSPost2010PropOp55
 70
     1
102
RTVSPost2010Prop56
140
1.0
102
RTVSPost2010PropOp56
 70
     1
102
RTVSPost2010Prop57
140
1.0
102
RTVSPost2010PropOp57
 70
     1
102
RTVSPropertyOp0
 70
     1
102
RTVSPropertyOp1
 70
     1
102
RTVSPropertyOp2
 70
     1
102
RTVSPropertyOp3
 70
     1
102
RTVSPropertyOp4
 70
     1
102
RTVSPropertyOp5
 70
     1
102
RTVSPropertyOp6
 70
     1
102
RTVSPropertyOp7
 70
     1
102
RTVSPropertyOp8
 70
     1
102
RTVSPropertyOp9
 70
     1
102
RTVSPropertyOp10
 70
     1
102
RTVSPropertyOp11
 70
     1
102
RTVSPropertyOp12
 70
     1
102
RTVSPropertyOp13
 70
     1
102
RTVSPropertyOp14
 70
     1
102
RTVSPropertyOp15
 70
     1
102
RTVSPropertyOp16
 70
     1
102
RTVSPropertyOp17
 70
     1
102
RTVSPropertyOp18
 70
     1
102
RTVSPropertyOp19
 70
     1
102
RTVSPropertyOp20
 70
     1
102
RTVSPropertyOp21
 70
     1
102
RTVSPropertyOp22
 70
     1
102
RTVSPropertyOp23
 70
     1
102
RTVSPropertyOp24
 70
     1
102
RTVSPropertyOp25
 70
     1
102
RTVSPropertyOp26
 70
     1
102
RTVSPropertyOp27
 70
     1
102
RTVSPropertyOp28
 70
     1
102
RTVSPropertyOp29
 70
     1
102
RTVSPropertyOp30
 70
     1
102
RTVSPropertyOp31
 70
     1
102
RTVSPropertyOp32
 70
     1
102
RTVSPropertyOp33
 70
     1
102
RTVSPropertyOp34
 70
     1
102
RTVSPropertyOp35
 70
     1
102
RTVSPropertyOp36
 70
     1
102
RTVSPropertyOp37
 70
     1
102
RTVSPropertyOp38
 70
     1
102
RTVSPropertyOp39
 70
     1
102
RTVSPropertyOp40
 70
     1
102
RTVSPropertyOp41
 70
     1
102
RTVSPropertyOp42
 70
     1
102
RTVSPropertyOp43
 70
     1
102
RTVSPropertyOp44
 70
     1
102
RTVSPropertyOp45
 70
     1
102
RTVSPropertyOp46
 70
     1
102
RTVSPropertyOp47
 70
     1
102
RTVSPropertyOp48
 70
     1
102
RTVSPropertyOp49
 70
     1
102
RTVSPropertyOp50
 70
     1
102
RTVSPropertyOp51
 70
     0
102
RTVSPropertyOp52
 70
     0
102
RTVSPropertyOp53
 70
     1
102
RTVSPropertyOp54
 70
     1
102
RTVSPropertyOp55
 70
     1
102
RTVSPropertyOp56
 70
     1
102
RTVSPropertyOp57
 70
     1
102
RTVSPropertyOp58
 70
     1
102
RTVSPropertyOp59
 70
     1
102
RTVSPropertyOp60
 70
     1
102
RTVSPropertyOp61
 70
     1
102
RTVSPropertyOp62
 70
     1
  0
XRECORD
  5
9A0F
102
{ACAD_REACTORS
330
9A0E
102
}
330
9A0E
100
AcDbXrecord
280
     1
102
RTVSPost2010Prop28
280
     0
102
RTVSPost2010PropOp28
 70
     1
102
RTVSPost2010Prop29
280
     1
102
RTVSPost2010PropOp29
 70
     1
102
RTVSPost2010Prop30
280
     1
102
RTVSPost2010PropOp30
 70
     1
102
RTVSPost2010Prop31
280
     0
102
RTVSPost2010PropOp31
 70
     1
102
RTVSPost2010Prop32
280
     0
102
RTVSPost2010PropOp32
 70
     1
102
RTVSPost2010Prop33
280
     0
102
RTVSPost2010PropOp33
 70
     1
102
RTVSPost2010Prop34
280
     0
102
RTVSPost2010PropOp34
 70
     1
102
RTVSPost2010Prop35
280
     0
102
RTVSPost2010PropOp35
 70
     1
102
RTVSPost2010Prop36
280
     0
102
RTVSPost2010PropOp36
 70
     1
102
RTVSPost2010Prop37
 90
       50
102
RTVSPost2010PropOp37
 70
     0
102
RTVSPost2010Prop38
140
0.0
102
RTVSPost2010PropOp38
 70
     0
102
RTVSPost2010Prop39
140
1.0
102
RTVSPost2010PropOp39
 70
     0
102
RTVSPost2010Prop40
 90
        0
102
RTVSPost2010PropOp40
 70
     0
102
RTVSPost2010Prop41ColorIndex
 90
       18
102
RTVSPost2010Prop41ColorRGB
 90
        0
102
RTVSPost2010PropOp41
 70
     0
102
RTVSPost2010Prop42
 90
       50
102
RTVSPost2010PropOp42
 70
     0
102
RTVSPost2010Prop43
 90
        3
102
RTVSPost2010PropOp43
 70
     0
102
RTVSPost2010Prop44ColorIndex
 90
        5
102
RTVSPost2010Prop44ColorRGB
 90
      255
102
RTVSPost2010PropOp44
 70
     0
102
RTVSPost2010Prop45
280
     0
102
RTVSPost2010PropOp45
 70
     1
102
RTVSPost2010Prop46
 90
       50
102
RTVSPost2010PropOp46
 70
     0
102
RTVSPost2010Prop47
 90
       50
102
RTVSPost2010PropOp47
 70
     0
102
RTVSPost2010Prop48
 90
       50
102
RTVSPost2010PropOp48
 70
     0
102
RTVSPost2010Prop49
280
     0
102
RTVSPost2010PropOp49
 70
     1
102
RTVSPost2010Prop50
 90
       50
102
RTVSPost2010PropOp50
 70
     0
102
RTVSPost2010Prop51ColorIndex
 90
      256
102
RTVSPost2010Prop51ColorRGB
 90
-16777216
102
RTVSPost2010PropOp51
 70
     0
102
RTVSPost2010Prop52
140
1.0
102
RTVSPost2010PropOp52
 70
     0
102
RTVSPost2010Prop53
 90
        2
102
RTVSPost2010PropOp53
 70
     0
102
RTVSPost2010Prop54
  1
strokes_ogs.tif
102
RTVSPost2010PropOp54
 70
     0
102
RTVSPost2010Prop55
280
     0
102
RTVSPost2010PropOp55
 70
     1
102
RTVSPost2010Prop56
140
1.0
102
RTVSPost2010PropOp56
 70
     0
102
RTVSPost2010Prop57
140
1.0
102
RTVSPost2010PropOp57
 70
     0
102
RTVSPropertyOp0
 70
     0
102
RTVSPropertyOp1
 70
     0
102
RTVSPropertyOp2
 70
     0
102
RTVSPropertyOp3
 70
     0
102
RTVSPropertyOp4
 70
     0
102
RTVSPropertyOp5
 70
     0
102
RTVSPropertyOp6
 70
     0
102
RTVSPropertyOp7
 70
     0
102
RTVSPropertyOp8
 70
     0
102
RTVSPropertyOp9
 70
     0
102
RTVSPropertyOp10
 70
     0
102
RTVSPropertyOp11
 70
     0
102
RTVSPropertyOp12
 70
     0
102
RTVSPropertyOp13
 70
     0
102
RTVSPropertyOp14
 70
     2
102
RTVSPropertyOp15
 70
     0
102
RTVSPropertyOp16
 70
     0
102
RTVSPropertyOp17
 70
     0
102
RTVSPropertyOp18
 70
     0
102
RTVSPropertyOp19
 70
     0
102
RTVSPropertyOp20
 70
     0
102
RTVSPropertyOp21
 70
     0
102
RTVSPropertyOp22
 70
     0
102
RTVSPropertyOp23
 70
     0
102
RTVSPropertyOp24
 70
     0
102
RTVSPropertyOp25
 70
     0
102
RTVSPropertyOp26
 70
     0
102
RTVSPropertyOp27
 70
     0
102
RTVSPropertyOp28
 70
     1
102
RTVSPropertyOp29
 70
     1
102
RTVSPropertyOp30
 70
     1
102
RTVSPropertyOp31
 70
     1
102
RTVSPropertyOp32
 70
     1
102
RTVSPropertyOp33
 70
     1
102
RTVSPropertyOp34
 70
     1
102
RTVSPropertyOp35
 70
     1
102
RTVSPropertyOp36
 70
     1
102
RTVSPropertyOp37
 70
     0
102
RTVSPropertyOp38
 70
     0
102
RTVSPropertyOp39
 70
     0
102
RTVSPropertyOp40
 70
     0
102
RTVSPropertyOp41
 70
     0
102
RTVSPropertyOp42
 70
     0
102
RTVSPropertyOp43
 70
     0
102
RTVSPropertyOp44
 70
     0
102
RTVSPropertyOp45
 70
     1
102
RTVSPropertyOp46
 70
     0
102
RTVSPropertyOp47
 70
     0
102
RTVSPropertyOp48
 70
     0
102
RTVSPropertyOp49
 70
     1
102
RTVSPropertyOp50
 70
     0
102
RTVSPropertyOp51
 70
     0
102
RTVSPropertyOp52
 70
     0
102
RTVSPropertyOp53
 70
     0
102
RTVSPropertyOp54
 70
     0
102
RTVSPropertyOp55
 70
     1
102
RTVSPropertyOp56
 70
     0
102
RTVSPropertyOp57
 70
     0
102
RTVSPropertyOp58
 70
     0
102
RTVSPropertyOp59
 70
     0
102
RTVSPropertyOp60
 70
     0
102
RTVSPropertyOp61
 70
     0
102
RTVSPropertyOp62
 70
     0
  0
XRECORD
  5
99F5
102
{ACAD_REACTORS
330
99F4
102
}
330
99F4
100
AcDbXrecord
280
     1
102
RTVSPost2010Prop28
280
     0
102
RTVSPost2010PropOp28
 70
     1
102
RTVSPost2010Prop29
280
     1
102
RTVSPost2010PropOp29
 70
     1
102
RTVSPost2010Prop30
280
     1
102
RTVSPost2010PropOp30
 70
     1
102
RTVSPost2010Prop31
280
     0
102
RTVSPost2010PropOp31
 70
     1
102
RTVSPost2010Prop32
280
     0
102
RTVSPost2010PropOp32
 70
     1
102
RTVSPost2010Prop33
280
     0
102
RTVSPost2010PropOp33
 70
     1
102
RTVSPost2010Prop34
280
     0
102
RTVSPost2010PropOp34
 70
     1
102
RTVSPost2010Prop35
280
     0
102
RTVSPost2010PropOp35
 70
     1
102
RTVSPost2010Prop36
280
     0
102
RTVSPost2010PropOp36
 70
     1
102
RTVSPost2010Prop37
 90
       50
102
RTVSPost2010PropOp37
 70
     1
102
RTVSPost2010Prop38
140
0.0
102
RTVSPost2010PropOp38
 70
     1
102
RTVSPost2010Prop39
140
1.0
102
RTVSPost2010PropOp39
 70
     1
102
RTVSPost2010Prop40
 90
        0
102
RTVSPost2010PropOp40
 70
     1
102
RTVSPost2010Prop41ColorIndex
 90
       18
102
RTVSPost2010Prop41ColorRGB
 90
        0
102
RTVSPost2010PropOp41
 70
     1
102
RTVSPost2010Prop42
 90
       50
102
RTVSPost2010PropOp42
 70
     1
102
RTVSPost2010Prop43
 90
        3
102
RTVSPost2010PropOp43
 70
     1
102
RTVSPost2010Prop44ColorIndex
 90
        5
102
RTVSPost2010Prop44ColorRGB
 90
      255
102
RTVSPost2010PropOp44
 70
     1
102
RTVSPost2010Prop45
280
     0
102
RTVSPost2010PropOp45
 70
     1
102
RTVSPost2010Prop46
 90
       50
102
RTVSPost2010PropOp46
 70
     1
102
RTVSPost2010Prop47
 90
       50
102
RTVSPost2010PropOp47
 70
     1
102
RTVSPost2010Prop48
 90
       50
102
RTVSPost2010PropOp48
 70
     1
102
RTVSPost2010Prop49
280
     0
102
RTVSPost2010PropOp49
 70
     1
102
RTVSPost2010Prop50
 90
       50
102
RTVSPost2010PropOp50
 70
     1
102
RTVSPost2010Prop51ColorIndex
 90
      256
102
RTVSPost2010Prop51ColorRGB
 90
-16777216
102
RTVSPost2010PropOp51
 70
     0
102
RTVSPost2010Prop52
140
1.0
102
RTVSPost2010PropOp52
 70
     0
102
RTVSPost2010Prop53
 90
        2
102
RTVSPost2010PropOp53
 70
     1
102
RTVSPost2010Prop54
  1
strokes_ogs.tif
102
RTVSPost2010PropOp54
 70
     1
102
RTVSPost2010Prop55
280
     0
102
RTVSPost2010PropOp55
 70
     1
102
RTVSPost2010Prop56
140
1.0
102
RTVSPost2010PropOp56
 70
     1
102
RTVSPost2010Prop57
140
1.0
102
RTVSPost2010PropOp57
 70
     1
102
RTVSPropertyOp0
 70
     1
102
RTVSPropertyOp1
 70
     1
102
RTVSPropertyOp2
 70
     1
102
RTVSPropertyOp3
 70
     1
102
RTVSPropertyOp4
 70
     1
102
RTVSPropertyOp5
 70
     1
102
RTVSPropertyOp6
 70
     1
102
RTVSPropertyOp7
 70
     1
102
RTVSPropertyOp8
 70
     1
102
RTVSPropertyOp9
 70
     1
102
RTVSPropertyOp10
 70
     1
102
RTVSPropertyOp11
 70
     1
102
RTVSPropertyOp12
 70
     1
102
RTVSPropertyOp13
 70
     1
102
RTVSPropertyOp14
 70
     1
102
RTVSPropertyOp15
 70
     1
102
RTVSPropertyOp16
 70
     1
102
RTVSPropertyOp17
 70
     1
102
RTVSPropertyOp18
 70
     1
102
RTVSPropertyOp19
 70
     1
102
RTVSPropertyOp20
 70
     1
102
RTVSPropertyOp21
 70
     1
102
RTVSPropertyOp22
 70
     1
102
RTVSPropertyOp23
 70
     1
102
RTVSPropertyOp24
 70
     1
102
RTVSPropertyOp25
 70
     1
102
RTVSPropertyOp26
 70
     1
102
RTVSPropertyOp27
 70
     1
102
RTVSPropertyOp28
 70
     1
102
RTVSPropertyOp29
 70
     1
102
RTVSPropertyOp30
 70
     1
102
RTVSPropertyOp31
 70
     1
102
RTVSPropertyOp32
 70
     1
102
RTVSPropertyOp33
 70
     1
102
RTVSPropertyOp34
 70
     1
102
RTVSPropertyOp35
 70
     1
102
RTVSPropertyOp36
 70
     1
102
RTVSPropertyOp37
 70
     1
102
RTVSPropertyOp38
 70
     1
102
RTVSPropertyOp39
 70
     1
102
RTVSPropertyOp40
 70
     1
102
RTVSPropertyOp41
 70
     1
102
RTVSPropertyOp42
 70
     1
102
RTVSPropertyOp43
 70
     1
102
RTVSPropertyOp44
 70
     1
102
RTVSPropertyOp45
 70
     1
102
RTVSPropertyOp46
 70
     1
102
RTVSPropertyOp47
 70
     1
102
RTVSPropertyOp48
 70
     1
102
RTVSPropertyOp49
 70
     1
102
RTVSPropertyOp50
 70
     1
102
RTVSPropertyOp51
 70
     0
102
RTVSPropertyOp52
 70
     0
102
RTVSPropertyOp53
 70
     1
102
RTVSPropertyOp54
 70
     1
102
RTVSPropertyOp55
 70
     1
102
RTVSPropertyOp56
 70
     1
102
RTVSPropertyOp57
 70
     1
102
RTVSPropertyOp58
 70
     1
102
RTVSPropertyOp59
 70
     1
102
RTVSPropertyOp60
 70
     1
102
RTVSPropertyOp61
 70
     1
102
RTVSPropertyOp62
 70
     1
  0
XRECORD
  5
9A0B
102
{ACAD_REACTORS
330
9A0A
102
}
330
9A0A
100
AcDbXrecord
280
     1
102
RTVSPost2010Prop28
280
     0
102
RTVSPost2010PropOp28
 70
     1
102
RTVSPost2010Prop29
280
     1
102
RTVSPost2010PropOp29
 70
     1
102
RTVSPost2010Prop30
280
     1
102
RTVSPost2010PropOp30
 70
     1
102
RTVSPost2010Prop31
280
     0
102
RTVSPost2010PropOp31
 70
     1
102
RTVSPost2010Prop32
280
     0
102
RTVSPost2010PropOp32
 70
     1
102
RTVSPost2010Prop33
280
     0
102
RTVSPost2010PropOp33
 70
     1
102
RTVSPost2010Prop34
280
     0
102
RTVSPost2010PropOp34
 70
     1
102
RTVSPost2010Prop35
280
     0
102
RTVSPost2010PropOp35
 70
     1
102
RTVSPost2010Prop36
280
     0
102
RTVSPost2010PropOp36
 70
     1
102
RTVSPost2010Prop37
 90
       50
102
RTVSPost2010PropOp37
 70
     1
102
RTVSPost2010Prop38
140
0.0
102
RTVSPost2010PropOp38
 70
     1
102
RTVSPost2010Prop39
140
1.0
102
RTVSPost2010PropOp39
 70
     1
102
RTVSPost2010Prop40
 90
        0
102
RTVSPost2010PropOp40
 70
     1
102
RTVSPost2010Prop41ColorIndex
 90
       18
102
RTVSPost2010Prop41ColorRGB
 90
        0
102
RTVSPost2010PropOp41
 70
     1
102
RTVSPost2010Prop42
 90
       50
102
RTVSPost2010PropOp42
 70
     1
102
RTVSPost2010Prop43
 90
        3
102
RTVSPost2010PropOp43
 70
     1
102
RTVSPost2010Prop44ColorIndex
 90
        5
102
RTVSPost2010Prop44ColorRGB
 90
      255
102
RTVSPost2010PropOp44
 70
     1
102
RTVSPost2010Prop45
280
     0
102
RTVSPost2010PropOp45
 70
     1
102
RTVSPost2010Prop46
 90
       50
102
RTVSPost2010PropOp46
 70
     1
102
RTVSPost2010Prop47
 90
       50
102
RTVSPost2010PropOp47
 70
     1
102
RTVSPost2010Prop48
 90
       50
102
RTVSPost2010PropOp48
 70
     1
102
RTVSPost2010Prop49
280
     0
102
RTVSPost2010PropOp49
 70
     1
102
RTVSPost2010Prop50
 90
       50
102
RTVSPost2010PropOp50
 70
     1
102
RTVSPost2010Prop51ColorIndex
 90
      256
102
RTVSPost2010Prop51ColorRGB
 90
-16777216
102
RTVSPost2010PropOp51
 70
     0
102
RTVSPost2010Prop52
140
1.0
102
RTVSPost2010PropOp52
 70
     0
102
RTVSPost2010Prop53
 90
        2
102
RTVSPost2010PropOp53
 70
     1
102
RTVSPost2010Prop54
  1
strokes_ogs.tif
102
RTVSPost2010PropOp54
 70
     1
102
RTVSPost2010Prop55
280
     0
102
RTVSPost2010PropOp55
 70
     1
102
RTVSPost2010Prop56
140
1.0
102
RTVSPost2010PropOp56
 70
     1
102
RTVSPost2010Prop57
140
1.0
102
RTVSPost2010PropOp57
 70
     1
102
RTVSPropertyOp0
 70
     1
102
RTVSPropertyOp1
 70
     1
102
RTVSPropertyOp2
 70
     1
102
RTVSPropertyOp3
 70
     1
102
RTVSPropertyOp4
 70
     1
102
RTVSPropertyOp5
 70
     1
102
RTVSPropertyOp6
 70
     1
102
RTVSPropertyOp7
 70
     1
102
RTVSPropertyOp8
 70
     1
102
RTVSPropertyOp9
 70
     1
102
RTVSPropertyOp10
 70
     1
102
RTVSPropertyOp11
 70
     1
102
RTVSPropertyOp12
 70
     1
102
RTVSPropertyOp13
 70
     1
102
RTVSPropertyOp14
 70
     1
102
RTVSPropertyOp15
 70
     1
102
RTVSPropertyOp16
 70
     1
102
RTVSPropertyOp17
 70
     1
102
RTVSPropertyOp18
 70
     1
102
RTVSPropertyOp19
 70
     1
102
RTVSPropertyOp20
 70
     1
102
RTVSPropertyOp21
 70
     1
102
RTVSPropertyOp22
 70
     1
102
RTVSPropertyOp23
 70
     1
102
RTVSPropertyOp24
 70
     1
102
RTVSPropertyOp25
 70
     1
102
RTVSPropertyOp26
 70
     1
102
RTVSPropertyOp27
 70
     1
102
RTVSPropertyOp28
 70
     1
102
RTVSPropertyOp29
 70
     1
102
RTVSPropertyOp30
 70
     1
102
RTVSPropertyOp31
 70
     1
102
RTVSPropertyOp32
 70
     1
102
RTVSPropertyOp33
 70
     1
102
RTVSPropertyOp34
 70
     1
102
RTVSPropertyOp35
 70
     1
102
RTVSPropertyOp36
 70
     1
102
RTVSPropertyOp37
 70
     1
102
RTVSPropertyOp38
 70
     1
102
RTVSPropertyOp39
 70
     1
102
RTVSPropertyOp40
 70
     1
102
RTVSPropertyOp41
 70
     1
102
RTVSPropertyOp42
 70
     1
102
RTVSPropertyOp43
 70
     1
102
RTVSPropertyOp44
 70
     1
102
RTVSPropertyOp45
 70
     1
102
RTVSPropertyOp46
 70
     1
102
RTVSPropertyOp47
 70
     1
102
RTVSPropertyOp48
 70
     1
102
RTVSPropertyOp49
 70
     1
102
RTVSPropertyOp50
 70
     1
102
RTVSPropertyOp51
 70
     0
102
RTVSPropertyOp52
 70
     0
102
RTVSPropertyOp53
 70
     1
102
RTVSPropertyOp54
 70
     1
102
RTVSPropertyOp55
 70
     1
102
RTVSPropertyOp56
 70
     1
102
RTVSPropertyOp57
 70
     1
102
RTVSPropertyOp58
 70
     1
102
RTVSPropertyOp59
 70
     1
102
RTVSPropertyOp60
 70
     1
102
RTVSPropertyOp61
 70
     1
102
RTVSPropertyOp62
 70
     1
  0
XRECORD
  5
9A09
102
{ACAD_REACTORS
330
9A08
102
}
330
9A08
100
AcDbXrecord
280
     1
102
RTVSPost2010Prop28
280
     0
102
RTVSPost2010PropOp28
 70
     1
102
RTVSPost2010Prop29
280
     1
102
RTVSPost2010PropOp29
 70
     1
102
RTVSPost2010Prop30
280
     1
102
RTVSPost2010PropOp30
 70
     1
102
RTVSPost2010Prop31
280
     0
102
RTVSPost2010PropOp31
 70
     1
102
RTVSPost2010Prop32
280
     0
102
RTVSPost2010PropOp32
 70
     1
102
RTVSPost2010Prop33
280
     0
102
RTVSPost2010PropOp33
 70
     1
102
RTVSPost2010Prop34
280
     0
102
RTVSPost2010PropOp34
 70
     1
102
RTVSPost2010Prop35
280
     0
102
RTVSPost2010PropOp35
 70
     1
102
RTVSPost2010Prop36
280
     0
102
RTVSPost2010PropOp36
 70
     1
102
RTVSPost2010Prop37
 90
       50
102
RTVSPost2010PropOp37
 70
     1
102
RTVSPost2010Prop38
140
0.0
102
RTVSPost2010PropOp38
 70
     1
102
RTVSPost2010Prop39
140
1.0
102
RTVSPost2010PropOp39
 70
     1
102
RTVSPost2010Prop40
 90
        0
102
RTVSPost2010PropOp40
 70
     1
102
RTVSPost2010Prop41ColorIndex
 90
       18
102
RTVSPost2010Prop41ColorRGB
 90
        0
102
RTVSPost2010PropOp41
 70
     1
102
RTVSPost2010Prop42
 90
       50
102
RTVSPost2010PropOp42
 70
     1
102
RTVSPost2010Prop43
 90
        3
102
RTVSPost2010PropOp43
 70
     1
102
RTVSPost2010Prop44ColorIndex
 90
        5
102
RTVSPost2010Prop44ColorRGB
 90
      255
102
RTVSPost2010PropOp44
 70
     1
102
RTVSPost2010Prop45
280
     0
102
RTVSPost2010PropOp45
 70
     1
102
RTVSPost2010Prop46
 90
       50
102
RTVSPost2010PropOp46
 70
     1
102
RTVSPost2010Prop47
 90
       50
102
RTVSPost2010PropOp47
 70
     1
102
RTVSPost2010Prop48
 90
       50
102
RTVSPost2010PropOp48
 70
     1
102
RTVSPost2010Prop49
280
     0
102
RTVSPost2010PropOp49
 70
     1
102
RTVSPost2010Prop50
 90
       50
102
RTVSPost2010PropOp50
 70
     1
102
RTVSPost2010Prop51ColorIndex
 90
      256
102
RTVSPost2010Prop51ColorRGB
 90
-16777216
102
RTVSPost2010PropOp51
 70
     0
102
RTVSPost2010Prop52
140
1.0
102
RTVSPost2010PropOp52
 70
     0
102
RTVSPost2010Prop53
 90
        2
102
RTVSPost2010PropOp53
 70
     1
102
RTVSPost2010Prop54
  1
strokes_ogs.tif
102
RTVSPost2010PropOp54
 70
     1
102
RTVSPost2010Prop55
280
     0
102
RTVSPost2010PropOp55
 70
     1
102
RTVSPost2010Prop56
140
1.0
102
RTVSPost2010PropOp56
 70
     1
102
RTVSPost2010Prop57
140
1.0
102
RTVSPost2010PropOp57
 70
     1
102
RTVSPropertyOp0
 70
     1
102
RTVSPropertyOp1
 70
     1
102
RTVSPropertyOp2
 70
     1
102
RTVSPropertyOp3
 70
     1
102
RTVSPropertyOp4
 70
     1
102
RTVSPropertyOp5
 70
     1
102
RTVSPropertyOp6
 70
     1
102
RTVSPropertyOp7
 70
     1
102
RTVSPropertyOp8
 70
     1
102
RTVSPropertyOp9
 70
     1
102
RTVSPropertyOp10
 70
     1
102
RTVSPropertyOp11
 70
     1
102
RTVSPropertyOp12
 70
     1
102
RTVSPropertyOp13
 70
     1
102
RTVSPropertyOp14
 70
     1
102
RTVSPropertyOp15
 70
     1
102
RTVSPropertyOp16
 70
     1
102
RTVSPropertyOp17
 70
     1
102
RTVSPropertyOp18
 70
     1
102
RTVSPropertyOp19
 70
     1
102
RTVSPropertyOp20
 70
     1
102
RTVSPropertyOp21
 70
     1
102
RTVSPropertyOp22
 70
     1
102
RTVSPropertyOp23
 70
     1
102
RTVSPropertyOp24
 70
     1
102
RTVSPropertyOp25
 70
     1
102
RTVSPropertyOp26
 70
     1
102
RTVSPropertyOp27
 70
     1
102
RTVSPropertyOp28
 70
     1
102
RTVSPropertyOp29
 70
     1
102
RTVSPropertyOp30
 70
     1
102
RTVSPropertyOp31
 70
     1
102
RTVSPropertyOp32
 70
     1
102
RTVSPropertyOp33
 70
     1
102
RTVSPropertyOp34
 70
     1
102
RTVSPropertyOp35
 70
     1
102
RTVSPropertyOp36
 70
     1
102
RTVSPropertyOp37
 70
     1
102
RTVSPropertyOp38
 70
     1
102
RTVSPropertyOp39
 70
     1
102
RTVSPropertyOp40
 70
     1
102
RTVSPropertyOp41
 70
     1
102
RTVSPropertyOp42
 70
     1
102
RTVSPropertyOp43
 70
     1
102
RTVSPropertyOp44
 70
     1
102
RTVSPropertyOp45
 70
     1
102
RTVSPropertyOp46
 70
     1
102
RTVSPropertyOp47
 70
     1
102
RTVSPropertyOp48
 70
     1
102
RTVSPropertyOp49
 70
     1
102
RTVSPropertyOp50
 70
     1
102
RTVSPropertyOp51
 70
     0
102
RTVSPropertyOp52
 70
     0
102
RTVSPropertyOp53
 70
     1
102
RTVSPropertyOp54
 70
     1
102
RTVSPropertyOp55
 70
     1
102
RTVSPropertyOp56
 70
     1
102
RTVSPropertyOp57
 70
     1
102
RTVSPropertyOp58
 70
     1
102
RTVSPropertyOp59
 70
     1
102
RTVSPropertyOp60
 70
     1
102
RTVSPropertyOp61
 70
     1
102
RTVSPropertyOp62
 70
     1
  0
XRECORD
  5
9A03
102
{ACAD_REACTORS
330
9A02
102
}
330
9A02
100
AcDbXrecord
280
     1
102
RTVSPost2010Prop28
280
     0
102
RTVSPost2010PropOp28
 70
     1
102
RTVSPost2010Prop29
280
     1
102
RTVSPost2010PropOp29
 70
     1
102
RTVSPost2010Prop30
280
     1
102
RTVSPost2010PropOp30
 70
     1
102
RTVSPost2010Prop31
280
     0
102
RTVSPost2010PropOp31
 70
     1
102
RTVSPost2010Prop32
280
     0
102
RTVSPost2010PropOp32
 70
     1
102
RTVSPost2010Prop33
280
     0
102
RTVSPost2010PropOp33
 70
     1
102
RTVSPost2010Prop34
280
     0
102
RTVSPost2010PropOp34
 70
     1
102
RTVSPost2010Prop35
280
     0
102
RTVSPost2010PropOp35
 70
     1
102
RTVSPost2010Prop36
280
     0
102
RTVSPost2010PropOp36
 70
     1
102
RTVSPost2010Prop37
 90
       50
102
RTVSPost2010PropOp37
 70
     1
102
RTVSPost2010Prop38
140
0.0
102
RTVSPost2010PropOp38
 70
     1
102
RTVSPost2010Prop39
140
1.0
102
RTVSPost2010PropOp39
 70
     1
102
RTVSPost2010Prop40
 90
        0
102
RTVSPost2010PropOp40
 70
     1
102
RTVSPost2010Prop41ColorIndex
 90
       18
102
RTVSPost2010Prop41ColorRGB
 90
        0
102
RTVSPost2010PropOp41
 70
     1
102
RTVSPost2010Prop42
 90
       50
102
RTVSPost2010PropOp42
 70
     1
102
RTVSPost2010Prop43
 90
        3
102
RTVSPost2010PropOp43
 70
     1
102
RTVSPost2010Prop44ColorIndex
 90
        5
102
RTVSPost2010Prop44ColorRGB
 90
      255
102
RTVSPost2010PropOp44
 70
     1
102
RTVSPost2010Prop45
280
     0
102
RTVSPost2010PropOp45
 70
     1
102
RTVSPost2010Prop46
 90
       50
102
RTVSPost2010PropOp46
 70
     1
102
RTVSPost2010Prop47
 90
       50
102
RTVSPost2010PropOp47
 70
     1
102
RTVSPost2010Prop48
 90
       50
102
RTVSPost2010PropOp48
 70
     1
102
RTVSPost2010Prop49
280
     0
102
RTVSPost2010PropOp49
 70
     1
102
RTVSPost2010Prop50
 90
       50
102
RTVSPost2010PropOp50
 70
     1
102
RTVSPost2010Prop51ColorIndex
 90
      256
102
RTVSPost2010Prop51ColorRGB
 90
-16777216
102
RTVSPost2010PropOp51
 70
     0
102
RTVSPost2010Prop52
140
1.0
102
RTVSPost2010PropOp52
 70
     0
102
RTVSPost2010Prop53
 90
        2
102
RTVSPost2010PropOp53
 70
     1
102
RTVSPost2010Prop54
  1
strokes_ogs.tif
102
RTVSPost2010PropOp54
 70
     1
102
RTVSPost2010Prop55
280
     0
102
RTVSPost2010PropOp55
 70
     1
102
RTVSPost2010Prop56
140
1.0
102
RTVSPost2010PropOp56
 70
     1
102
RTVSPost2010Prop57
140
1.0
102
RTVSPost2010PropOp57
 70
     1
102
RTVSPropertyOp0
 70
     1
102
RTVSPropertyOp1
 70
     1
102
RTVSPropertyOp2
 70
     1
102
RTVSPropertyOp3
 70
     1
102
RTVSPropertyOp4
 70
     1
102
RTVSPropertyOp5
 70
     1
102
RTVSPropertyOp6
 70
     1
102
RTVSPropertyOp7
 70
     1
102
RTVSPropertyOp8
 70
     1
102
RTVSPropertyOp9
 70
     1
102
RTVSPropertyOp10
 70
     1
102
RTVSPropertyOp11
 70
     1
102
RTVSPropertyOp12
 70
     1
102
RTVSPropertyOp13
 70
     1
102
RTVSPropertyOp14
 70
     1
102
RTVSPropertyOp15
 70
     1
102
RTVSPropertyOp16
 70
     1
102
RTVSPropertyOp17
 70
     1
102
RTVSPropertyOp18
 70
     1
102
RTVSPropertyOp19
 70
     1
102
RTVSPropertyOp20
 70
     1
102
RTVSPropertyOp21
 70
     1
102
RTVSPropertyOp22
 70
     1
102
RTVSPropertyOp23
 70
     1
102
RTVSPropertyOp24
 70
     1
102
RTVSPropertyOp25
 70
     1
102
RTVSPropertyOp26
 70
     1
102
RTVSPropertyOp27
 70
     1
102
RTVSPropertyOp28
 70
     1
102
RTVSPropertyOp29
 70
     1
102
RTVSPropertyOp30
 70
     1
102
RTVSPropertyOp31
 70
     1
102
RTVSPropertyOp32
 70
     1
102
RTVSPropertyOp33
 70
     1
102
RTVSPropertyOp34
 70
     1
102
RTVSPropertyOp35
 70
     1
102
RTVSPropertyOp36
 70
     1
102
RTVSPropertyOp37
 70
     1
102
RTVSPropertyOp38
 70
     1
102
RTVSPropertyOp39
 70
     1
102
RTVSPropertyOp40
 70
     1
102
RTVSPropertyOp41
 70
     1
102
RTVSPropertyOp42
 70
     1
102
RTVSPropertyOp43
 70
     1
102
RTVSPropertyOp44
 70
     1
102
RTVSPropertyOp45
 70
     1
102
RTVSPropertyOp46
 70
     1
102
RTVSPropertyOp47
 70
     1
102
RTVSPropertyOp48
 70
     1
102
RTVSPropertyOp49
 70
     1
102
RTVSPropertyOp50
 70
     1
102
RTVSPropertyOp51
 70
     0
102
RTVSPropertyOp52
 70
     0
102
RTVSPropertyOp53
 70
     1
102
RTVSPropertyOp54
 70
     1
102
RTVSPropertyOp55
 70
     1
102
RTVSPropertyOp56
 70
     1
102
RTVSPropertyOp57
 70
     1
102
RTVSPropertyOp58
 70
     1
102
RTVSPropertyOp59
 70
     1
102
RTVSPropertyOp60
 70
     1
102
RTVSPropertyOp61
 70
     1
102
RTVSPropertyOp62
 70
     1
  0
XRECORD
  5
9A05
102
{ACAD_REACTORS
330
9A04
102
}
330
9A04
100
AcDbXrecord
280
     1
102
RTVSPost2010Prop28
280
     0
102
RTVSPost2010PropOp28
 70
     1
102
RTVSPost2010Prop29
280
     1
102
RTVSPost2010PropOp29
 70
     1
102
RTVSPost2010Prop30
280
     1
102
RTVSPost2010PropOp30
 70
     1
102
RTVSPost2010Prop31
280
     0
102
RTVSPost2010PropOp31
 70
     1
102
RTVSPost2010Prop32
280
     0
102
RTVSPost2010PropOp32
 70
     1
102
RTVSPost2010Prop33
280
     0
102
RTVSPost2010PropOp33
 70
     1
102
RTVSPost2010Prop34
280
     0
102
RTVSPost2010PropOp34
 70
     1
102
RTVSPost2010Prop35
280
     0
102
RTVSPost2010PropOp35
 70
     1
102
RTVSPost2010Prop36
280
     0
102
RTVSPost2010PropOp36
 70
     1
102
RTVSPost2010Prop37
 90
       50
102
RTVSPost2010PropOp37
 70
     1
102
RTVSPost2010Prop38
140
0.0
102
RTVSPost2010PropOp38
 70
     1
102
RTVSPost2010Prop39
140
1.0
102
RTVSPost2010PropOp39
 70
     1
102
RTVSPost2010Prop40
 90
        0
102
RTVSPost2010PropOp40
 70
     1
102
RTVSPost2010Prop41ColorIndex
 90
       18
102
RTVSPost2010Prop41ColorRGB
 90
        0
102
RTVSPost2010PropOp41
 70
     1
102
RTVSPost2010Prop42
 90
       50
102
RTVSPost2010PropOp42
 70
     1
102
RTVSPost2010Prop43
 90
        3
102
RTVSPost2010PropOp43
 70
     1
102
RTVSPost2010Prop44ColorIndex
 90
        5
102
RTVSPost2010Prop44ColorRGB
 90
      255
102
RTVSPost2010PropOp44
 70
     1
102
RTVSPost2010Prop45
280
     0
102
RTVSPost2010PropOp45
 70
     1
102
RTVSPost2010Prop46
 90
       50
102
RTVSPost2010PropOp46
 70
     1
102
RTVSPost2010Prop47
 90
       50
102
RTVSPost2010PropOp47
 70
     1
102
RTVSPost2010Prop48
 90
       50
102
RTVSPost2010PropOp48
 70
     1
102
RTVSPost2010Prop49
280
     0
102
RTVSPost2010PropOp49
 70
     1
102
RTVSPost2010Prop50
 90
       50
102
RTVSPost2010PropOp50
 70
     1
102
RTVSPost2010Prop51ColorIndex
 90
      256
102
RTVSPost2010Prop51ColorRGB
 90
-16777216
102
RTVSPost2010PropOp51
 70
     0
102
RTVSPost2010Prop52
140
1.0
102
RTVSPost2010PropOp52
 70
     0
102
RTVSPost2010Prop53
 90
        2
102
RTVSPost2010PropOp53
 70
     1
102
RTVSPost2010Prop54
  1
strokes_ogs.tif
102
RTVSPost2010PropOp54
 70
     1
102
RTVSPost2010Prop55
280
     0
102
RTVSPost2010PropOp55
 70
     1
102
RTVSPost2010Prop56
140
1.0
102
RTVSPost2010PropOp56
 70
     1
102
RTVSPost2010Prop57
140
1.0
102
RTVSPost2010PropOp57
 70
     1
102
RTVSPropertyOp0
 70
     1
102
RTVSPropertyOp1
 70
     1
102
RTVSPropertyOp2
 70
     1
102
RTVSPropertyOp3
 70
     1
102
RTVSPropertyOp4
 70
     1
102
RTVSPropertyOp5
 70
     1
102
RTVSPropertyOp6
 70
     1
102
RTVSPropertyOp7
 70
     1
102
RTVSPropertyOp8
 70
     1
102
RTVSPropertyOp9
 70
     1
102
RTVSPropertyOp10
 70
     1
102
RTVSPropertyOp11
 70
     1
102
RTVSPropertyOp12
 70
     1
102
RTVSPropertyOp13
 70
     1
102
RTVSPropertyOp14
 70
     1
102
RTVSPropertyOp15
 70
     1
102
RTVSPropertyOp16
 70
     1
102
RTVSPropertyOp17
 70
     1
102
RTVSPropertyOp18
 70
     1
102
RTVSPropertyOp19
 70
     1
102
RTVSPropertyOp20
 70
     1
102
RTVSPropertyOp21
 70
     1
102
RTVSPropertyOp22
 70
     1
102
RTVSPropertyOp23
 70
     1
102
RTVSPropertyOp24
 70
     1
102
RTVSPropertyOp25
 70
     1
102
RTVSPropertyOp26
 70
     1
102
RTVSPropertyOp27
 70
     1
102
RTVSPropertyOp28
 70
     1
102
RTVSPropertyOp29
 70
     1
102
RTVSPropertyOp30
 70
     1
102
RTVSPropertyOp31
 70
     1
102
RTVSPropertyOp32
 70
     1
102
RTVSPropertyOp33
 70
     1
102
RTVSPropertyOp34
 70
     1
102
RTVSPropertyOp35
 70
     1
102
RTVSPropertyOp36
 70
     1
102
RTVSPropertyOp37
 70
     1
102
RTVSPropertyOp38
 70
     1
102
RTVSPropertyOp39
 70
     1
102
RTVSPropertyOp40
 70
     1
102
RTVSPropertyOp41
 70
     1
102
RTVSPropertyOp42
 70
     1
102
RTVSPropertyOp43
 70
     1
102
RTVSPropertyOp44
 70
     1
102
RTVSPropertyOp45
 70
     1
102
RTVSPropertyOp46
 70
     1
102
RTVSPropertyOp47
 70
     1
102
RTVSPropertyOp48
 70
     1
102
RTVSPropertyOp49
 70
     1
102
RTVSPropertyOp50
 70
     1
102
RTVSPropertyOp51
 70
     0
102
RTVSPropertyOp52
 70
     0
102
RTVSPropertyOp53
 70
     1
102
RTVSPropertyOp54
 70
     1
102
RTVSPropertyOp55
 70
     1
102
RTVSPropertyOp56
 70
     1
102
RTVSPropertyOp57
 70
     1
102
RTVSPropertyOp58
 70
     1
102
RTVSPropertyOp59
 70
     1
102
RTVSPropertyOp60
 70
     1
102
RTVSPropertyOp61
 70
     1
102
RTVSPropertyOp62
 70
     1
  0
XRECORD
  5
99FB
102
{ACAD_REACTORS
330
99FA
102
}
330
99FA
100
AcDbXrecord
280
     1
102
RTVSPost2010Prop28
280
     0
102
RTVSPost2010PropOp28
 70
     1
102
RTVSPost2010Prop29
280
     1
102
RTVSPost2010PropOp29
 70
     1
102
RTVSPost2010Prop30
280
     1
102
RTVSPost2010PropOp30
 70
     1
102
RTVSPost2010Prop31
280
     0
102
RTVSPost2010PropOp31
 70
     1
102
RTVSPost2010Prop32
280
     0
102
RTVSPost2010PropOp32
 70
     1
102
RTVSPost2010Prop33
280
     0
102
RTVSPost2010PropOp33
 70
     1
102
RTVSPost2010Prop34
280
     0
102
RTVSPost2010PropOp34
 70
     1
102
RTVSPost2010Prop35
280
     0
102
RTVSPost2010PropOp35
 70
     1
102
RTVSPost2010Prop36
280
     0
102
RTVSPost2010PropOp36
 70
     1
102
RTVSPost2010Prop37
 90
       50
102
RTVSPost2010PropOp37
 70
     1
102
RTVSPost2010Prop38
140
0.0
102
RTVSPost2010PropOp38
 70
     1
102
RTVSPost2010Prop39
140
1.0
102
RTVSPost2010PropOp39
 70
     1
102
RTVSPost2010Prop40
 90
        0
102
RTVSPost2010PropOp40
 70
     1
102
RTVSPost2010Prop41ColorIndex
 90
       18
102
RTVSPost2010Prop41ColorRGB
 90
        0
102
RTVSPost2010PropOp41
 70
     1
102
RTVSPost2010Prop42
 90
       50
102
RTVSPost2010PropOp42
 70
     1
102
RTVSPost2010Prop43
 90
        3
102
RTVSPost2010PropOp43
 70
     1
102
RTVSPost2010Prop44ColorIndex
 90
        5
102
RTVSPost2010Prop44ColorRGB
 90
      255
102
RTVSPost2010PropOp44
 70
     1
102
RTVSPost2010Prop45
280
     0
102
RTVSPost2010PropOp45
 70
     1
102
RTVSPost2010Prop46
 90
       50
102
RTVSPost2010PropOp46
 70
     1
102
RTVSPost2010Prop47
 90
       50
102
RTVSPost2010PropOp47
 70
     1
102
RTVSPost2010Prop48
 90
       50
102
RTVSPost2010PropOp48
 70
     1
102
RTVSPost2010Prop49
280
     0
102
RTVSPost2010PropOp49
 70
     1
102
RTVSPost2010Prop50
 90
       50
102
RTVSPost2010PropOp50
 70
     1
102
RTVSPost2010Prop51ColorIndex
 90
      256
102
RTVSPost2010Prop51ColorRGB
 90
-16777216
102
RTVSPost2010PropOp51
 70
     0
102
RTVSPost2010Prop52
140
1.0
102
RTVSPost2010PropOp52
 70
     0
102
RTVSPost2010Prop53
 90
        2
102
RTVSPost2010PropOp53
 70
     1
102
RTVSPost2010Prop54
  1
strokes_ogs.tif
102
RTVSPost2010PropOp54
 70
     1
102
RTVSPost2010Prop55
280
     0
102
RTVSPost2010PropOp55
 70
     1
102
RTVSPost2010Prop56
140
1.0
102
RTVSPost2010PropOp56
 70
     1
102
RTVSPost2010Prop57
140
1.0
102
RTVSPost2010PropOp57
 70
     1
102
RTVSPropertyOp0
 70
     1
102
RTVSPropertyOp1
 70
     1
102
RTVSPropertyOp2
 70
     1
102
RTVSPropertyOp3
 70
     1
102
RTVSPropertyOp4
 70
     1
102
RTVSPropertyOp5
 70
     1
102
RTVSPropertyOp6
 70
     1
102
RTVSPropertyOp7
 70
     1
102
RTVSPropertyOp8
 70
     1
102
RTVSPropertyOp9
 70
     1
102
RTVSPropertyOp10
 70
     1
102
RTVSPropertyOp11
 70
     1
102
RTVSPropertyOp12
 70
     1
102
RTVSPropertyOp13
 70
     1
102
RTVSPropertyOp14
 70
     1
102
RTVSPropertyOp15
 70
     1
102
RTVSPropertyOp16
 70
     1
102
RTVSPropertyOp17
 70
     1
102
RTVSPropertyOp18
 70
     1
102
RTVSPropertyOp19
 70
     1
102
RTVSPropertyOp20
 70
     1
102
RTVSPropertyOp21
 70
     1
102
RTVSPropertyOp22
 70
     1
102
RTVSPropertyOp23
 70
     1
102
RTVSPropertyOp24
 70
     1
102
RTVSPropertyOp25
 70
     1
102
RTVSPropertyOp26
 70
     1
102
RTVSPropertyOp27
 70
     1
102
RTVSPropertyOp28
 70
     1
102
RTVSPropertyOp29
 70
     1
102
RTVSPropertyOp30
 70
     1
102
RTVSPropertyOp31
 70
     1
102
RTVSPropertyOp32
 70
     1
102
RTVSPropertyOp33
 70
     1
102
RTVSPropertyOp34
 70
     1
102
RTVSPropertyOp35
 70
     1
102
RTVSPropertyOp36
 70
     1
102
RTVSPropertyOp37
 70
     1
102
RTVSPropertyOp38
 70
     1
102
RTVSPropertyOp39
 70
     1
102
RTVSPropertyOp40
 70
     1
102
RTVSPropertyOp41
 70
     1
102
RTVSPropertyOp42
 70
     1
102
RTVSPropertyOp43
 70
     1
102
RTVSPropertyOp44
 70
     1
102
RTVSPropertyOp45
 70
     1
102
RTVSPropertyOp46
 70
     1
102
RTVSPropertyOp47
 70
     1
102
RTVSPropertyOp48
 70
     1
102
RTVSPropertyOp49
 70
     1
102
RTVSPropertyOp50
 70
     1
102
RTVSPropertyOp51
 70
     0
102
RTVSPropertyOp52
 70
     0
102
RTVSPropertyOp53
 70
     1
102
RTVSPropertyOp54
 70
     1
102
RTVSPropertyOp55
 70
     1
102
RTVSPropertyOp56
 70
     1
102
RTVSPropertyOp57
 70
     1
102
RTVSPropertyOp58
 70
     1
102
RTVSPropertyOp59
 70
     1
102
RTVSPropertyOp60
 70
     1
102
RTVSPropertyOp61
 70
     1
102
RTVSPropertyOp62
 70
     1
  0
XRECORD
  5
99EF
102
{ACAD_REACTORS
330
99EE
102
}
330
99EE
100
AcDbXrecord
280
     1
102
RTVSPost2010Prop28
280
     0
102
RTVSPost2010PropOp28
 70
     1
102
RTVSPost2010Prop29
280
     1
102
RTVSPost2010PropOp29
 70
     1
102
RTVSPost2010Prop30
280
     1
102
RTVSPost2010PropOp30
 70
     1
102
RTVSPost2010Prop31
280
     0
102
RTVSPost2010PropOp31
 70
     1
102
RTVSPost2010Prop32
280
     0
102
RTVSPost2010PropOp32
 70
     1
102
RTVSPost2010Prop33
280
     0
102
RTVSPost2010PropOp33
 70
     1
102
RTVSPost2010Prop34
280
     0
102
RTVSPost2010PropOp34
 70
     1
102
RTVSPost2010Prop35
280
     0
102
RTVSPost2010PropOp35
 70
     1
102
RTVSPost2010Prop36
280
     0
102
RTVSPost2010PropOp36
 70
     1
102
RTVSPost2010Prop37
 90
       50
102
RTVSPost2010PropOp37
 70
     1
102
RTVSPost2010Prop38
140
0.0
102
RTVSPost2010PropOp38
 70
     1
102
RTVSPost2010Prop39
140
1.0
102
RTVSPost2010PropOp39
 70
     1
102
RTVSPost2010Prop40
 90
        0
102
RTVSPost2010PropOp40
 70
     1
102
RTVSPost2010Prop41ColorIndex
 90
       18
102
RTVSPost2010Prop41ColorRGB
 90
        0
102
RTVSPost2010PropOp41
 70
     1
102
RTVSPost2010Prop42
 90
       50
102
RTVSPost2010PropOp42
 70
     1
102
RTVSPost2010Prop43
 90
        3
102
RTVSPost2010PropOp43
 70
     1
102
RTVSPost2010Prop44ColorIndex
 90
        5
102
RTVSPost2010Prop44ColorRGB
 90
      255
102
RTVSPost2010PropOp44
 70
     1
102
RTVSPost2010Prop45
280
     0
102
RTVSPost2010PropOp45
 70
     1
102
RTVSPost2010Prop46
 90
       50
102
RTVSPost2010PropOp46
 70
     1
102
RTVSPost2010Prop47
 90
       50
102
RTVSPost2010PropOp47
 70
     1
102
RTVSPost2010Prop48
 90
       50
102
RTVSPost2010PropOp48
 70
     1
102
RTVSPost2010Prop49
280
     0
102
RTVSPost2010PropOp49
 70
     1
102
RTVSPost2010Prop50
 90
       50
102
RTVSPost2010PropOp50
 70
     1
102
RTVSPost2010Prop51ColorIndex
 90
      256
102
RTVSPost2010Prop51ColorRGB
 90
-16777216
102
RTVSPost2010PropOp51
 70
     0
102
RTVSPost2010Prop52
140
1.0
102
RTVSPost2010PropOp52
 70
     0
102
RTVSPost2010Prop53
 90
        2
102
RTVSPost2010PropOp53
 70
     1
102
RTVSPost2010Prop54
  1
strokes_ogs.tif
102
RTVSPost2010PropOp54
 70
     1
102
RTVSPost2010Prop55
280
     0
102
RTVSPost2010PropOp55
 70
     1
102
RTVSPost2010Prop56
140
1.0
102
RTVSPost2010PropOp56
 70
     1
102
RTVSPost2010Prop57
140
1.0
102
RTVSPost2010PropOp57
 70
     1
102
RTVSPropertyOp0
 70
     1
102
RTVSPropertyOp1
 70
     1
102
RTVSPropertyOp2
 70
     1
102
RTVSPropertyOp3
 70
     1
102
RTVSPropertyOp4
 70
     1
102
RTVSPropertyOp5
 70
     1
102
RTVSPropertyOp6
 70
     1
102
RTVSPropertyOp7
 70
     1
102
RTVSPropertyOp8
 70
     1
102
RTVSPropertyOp9
 70
     1
102
RTVSPropertyOp10
 70
     1
102
RTVSPropertyOp11
 70
     1
102
RTVSPropertyOp12
 70
     1
102
RTVSPropertyOp13
 70
     1
102
RTVSPropertyOp14
 70
     1
102
RTVSPropertyOp15
 70
     1
102
RTVSPropertyOp16
 70
     1
102
RTVSPropertyOp17
 70
     1
102
RTVSPropertyOp18
 70
     1
102
RTVSPropertyOp19
 70
     1
102
RTVSPropertyOp20
 70
     1
102
RTVSPropertyOp21
 70
     1
102
RTVSPropertyOp22
 70
     1
102
RTVSPropertyOp23
 70
     1
102
RTVSPropertyOp24
 70
     1
102
RTVSPropertyOp25
 70
     1
102
RTVSPropertyOp26
 70
     1
102
RTVSPropertyOp27
 70
     1
102
RTVSPropertyOp28
 70
     1
102
RTVSPropertyOp29
 70
     1
102
RTVSPropertyOp30
 70
     1
102
RTVSPropertyOp31
 70
     1
102
RTVSPropertyOp32
 70
     1
102
RTVSPropertyOp33
 70
     1
102
RTVSPropertyOp34
 70
     1
102
RTVSPropertyOp35
 70
     1
102
RTVSPropertyOp36
 70
     1
102
RTVSPropertyOp37
 70
     1
102
RTVSPropertyOp38
 70
     1
102
RTVSPropertyOp39
 70
     1
102
RTVSPropertyOp40
 70
     1
102
RTVSPropertyOp41
 70
     1
102
RTVSPropertyOp42
 70
     1
102
RTVSPropertyOp43
 70
     1
102
RTVSPropertyOp44
 70
     1
102
RTVSPropertyOp45
 70
     1
102
RTVSPropertyOp46
 70
     1
102
RTVSPropertyOp47
 70
     1
102
RTVSPropertyOp48
 70
     1
102
RTVSPropertyOp49
 70
     1
102
RTVSPropertyOp50
 70
     1
102
RTVSPropertyOp51
 70
     0
102
RTVSPropertyOp52
 70
     0
102
RTVSPropertyOp53
 70
     1
102
RTVSPropertyOp54
 70
     1
102
RTVSPropertyOp55
 70
     1
102
RTVSPropertyOp56
 70
     1
102
RTVSPropertyOp57
 70
     1
102
RTVSPropertyOp58
 70
     1
102
RTVSPropertyOp59
 70
     1
102
RTVSPropertyOp60
 70
     1
102
RTVSPropertyOp61
 70
     1
102
RTVSPropertyOp62
 70
     1
  0
XRECORD
  5
9A07
102
{ACAD_REACTORS
330
9A06
102
}
330
9A06
100
AcDbXrecord
280
     1
102
RTVSPost2010Prop28
280
     0
102
RTVSPost2010PropOp28
 70
     1
102
RTVSPost2010Prop29
280
     1
102
RTVSPost2010PropOp29
 70
     1
102
RTVSPost2010Prop30
280
     1
102
RTVSPost2010PropOp30
 70
     1
102
RTVSPost2010Prop31
280
     0
102
RTVSPost2010PropOp31
 70
     1
102
RTVSPost2010Prop32
280
     0
102
RTVSPost2010PropOp32
 70
     1
102
RTVSPost2010Prop33
280
     0
102
RTVSPost2010PropOp33
 70
     1
102
RTVSPost2010Prop34
280
     0
102
RTVSPost2010PropOp34
 70
     1
102
RTVSPost2010Prop35
280
     0
102
RTVSPost2010PropOp35
 70
     1
102
RTVSPost2010Prop36
280
     0
102
RTVSPost2010PropOp36
 70
     1
102
RTVSPost2010Prop37
 90
       50
102
RTVSPost2010PropOp37
 70
     1
102
RTVSPost2010Prop38
140
0.0
102
RTVSPost2010PropOp38
 70
     1
102
RTVSPost2010Prop39
140
1.0
102
RTVSPost2010PropOp39
 70
     1
102
RTVSPost2010Prop40
 90
        0
102
RTVSPost2010PropOp40
 70
     1
102
RTVSPost2010Prop41ColorIndex
 90
       18
102
RTVSPost2010Prop41ColorRGB
 90
        0
102
RTVSPost2010PropOp41
 70
     1
102
RTVSPost2010Prop42
 90
       50
102
RTVSPost2010PropOp42
 70
     1
102
RTVSPost2010Prop43
 90
        3
102
RTVSPost2010PropOp43
 70
     1
102
RTVSPost2010Prop44ColorIndex
 90
        5
102
RTVSPost2010Prop44ColorRGB
 90
      255
102
RTVSPost2010PropOp44
 70
     1
102
RTVSPost2010Prop45
280
     0
102
RTVSPost2010PropOp45
 70
     1
102
RTVSPost2010Prop46
 90
       50
102
RTVSPost2010PropOp46
 70
     1
102
RTVSPost2010Prop47
 90
       50
102
RTVSPost2010PropOp47
 70
     1
102
RTVSPost2010Prop48
 90
       50
102
RTVSPost2010PropOp48
 70
     1
102
RTVSPost2010Prop49
280
     0
102
RTVSPost2010PropOp49
 70
     1
102
RTVSPost2010Prop50
 90
       50
102
RTVSPost2010PropOp50
 70
     1
102
RTVSPost2010Prop51ColorIndex
 90
      256
102
RTVSPost2010Prop51ColorRGB
 90
-16777216
102
RTVSPost2010PropOp51
 70
     0
102
RTVSPost2010Prop52
140
1.0
102
RTVSPost2010PropOp52
 70
     0
102
RTVSPost2010Prop53
 90
        2
102
RTVSPost2010PropOp53
 70
     1
102
RTVSPost2010Prop54
  1
strokes_ogs.tif
102
RTVSPost2010PropOp54
 70
     1
102
RTVSPost2010Prop55
280
     0
102
RTVSPost2010PropOp55
 70
     1
102
RTVSPost2010Prop56
140
1.0
102
RTVSPost2010PropOp56
 70
     1
102
RTVSPost2010Prop57
140
1.0
102
RTVSPost2010PropOp57
 70
     1
102
RTVSPropertyOp0
 70
     1
102
RTVSPropertyOp1
 70
     1
102
RTVSPropertyOp2
 70
     1
102
RTVSPropertyOp3
 70
     1
102
RTVSPropertyOp4
 70
     1
102
RTVSPropertyOp5
 70
     1
102
RTVSPropertyOp6
 70
     1
102
RTVSPropertyOp7
 70
     1
102
RTVSPropertyOp8
 70
     1
102
RTVSPropertyOp9
 70
     1
102
RTVSPropertyOp10
 70
     1
102
RTVSPropertyOp11
 70
     1
102
RTVSPropertyOp12
 70
     1
102
RTVSPropertyOp13
 70
     1
102
RTVSPropertyOp14
 70
     1
102
RTVSPropertyOp15
 70
     1
102
RTVSPropertyOp16
 70
     1
102
RTVSPropertyOp17
 70
     1
102
RTVSPropertyOp18
 70
     1
102
RTVSPropertyOp19
 70
     1
102
RTVSPropertyOp20
 70
     1
102
RTVSPropertyOp21
 70
     1
102
RTVSPropertyOp22
 70
     1
102
RTVSPropertyOp23
 70
     1
102
RTVSPropertyOp24
 70
     1
102
RTVSPropertyOp25
 70
     1
102
RTVSPropertyOp26
 70
     1
102
RTVSPropertyOp27
 70
     1
102
RTVSPropertyOp28
 70
     1
102
RTVSPropertyOp29
 70
     1
102
RTVSPropertyOp30
 70
     1
102
RTVSPropertyOp31
 70
     1
102
RTVSPropertyOp32
 70
     1
102
RTVSPropertyOp33
 70
     1
102
RTVSPropertyOp34
 70
     1
102
RTVSPropertyOp35
 70
     1
102
RTVSPropertyOp36
 70
     1
102
RTVSPropertyOp37
 70
     1
102
RTVSPropertyOp38
 70
     1
102
RTVSPropertyOp39
 70
     1
102
RTVSPropertyOp40
 70
     1
102
RTVSPropertyOp41
 70
     1
102
RTVSPropertyOp42
 70
     1
102
RTVSPropertyOp43
 70
     1
102
RTVSPropertyOp44
 70
     1
102
RTVSPropertyOp45
 70
     1
102
RTVSPropertyOp46
 70
     1
102
RTVSPropertyOp47
 70
     1
102
RTVSPropertyOp48
 70
     1
102
RTVSPropertyOp49
 70
     1
102
RTVSPropertyOp50
 70
     1
102
RTVSPropertyOp51
 70
     0
102
RTVSPropertyOp52
 70
     0
102
RTVSPropertyOp53
 70
     1
102
RTVSPropertyOp54
 70
     1
102
RTVSPropertyOp55
 70
     1
102
RTVSPropertyOp56
 70
     1
102
RTVSPropertyOp57
 70
     1
102
RTVSPropertyOp58
 70
     1
102
RTVSPropertyOp59
 70
     1
102
RTVSPropertyOp60
 70
     1
102
RTVSPropertyOp61
 70
     1
102
RTVSPropertyOp62
 70
     1
  0
ENDSEC
  0
EOF
