  0
SECTION
  2
HEADER
  9
$ACADVER
  1
AC1015
  9
$ACADMAINTVER
 70
    20
  9
$DWGCODEPAGE
  3
ANSI_932
  9
$INSBASE
 10
0.0
 20
0.0
 30
0.0
  9
$EXTMIN
 10
10.0
 20
9.999999999999998
 30
0.0
  9
$EXTMAX
 10
578.4315269999997
 20
189.9530639999999
 30
0.0
  9
$LIMMIN
 10
0.0
 20
0.0
  9
$LIMMAX
 10
660.0
 20
455.0
  9
$ORTHOMODE
 70
     1
  9
$REGENMODE
 70
     1
  9
$FILLMODE
 70
     1
  9
$QTEXTMODE
 70
     0
  9
$MIRRTEXT
 70
     1
  9
$LTSCALE
 40
20.0
  9
$ATTMODE
 70
     1
  9
$TEXTSIZE
 40
5.0
  9
$TRACEWID
 40
1.0
  9
$TEXTSTYLE
  7
STANDARD
  9
$CLAYER
  8
0
  9
$CELTYPE
  6
BYLAYER
  9
$CECOLOR
 62
   256
  9
$CELTSCALE
 40
1.0
  9
$DISPSILH
 70
     0
  9
$DIMSCALE
 40
1.0
  9
$DIMASZ
 40
3.0
  9
$DIMEXO
 40
1.0
  9
$DIMDLI
 40
10.0
  9
$DIMRND
 40
0.0
  9
$DIMDLE
 40
0.0
  9
$DIMEXE
 40
1.0
  9
$DIMTP
 40
0.0
  9
$DIMTM
 40
0.0
  9
$DIMTXT
 40
3.2
  9
$DIMCEN
 40
0.0
  9
$DIMTSZ
 40
0.0
  9
$DIMTOL
 70
     0
  9
$DIMLIM
 70
     0
  9
$DIMTIH
 70
     0
  9
$DIMTOH
 70
     0
  9
$DIMSE1
 70
     0
  9
$DIMSE2
 70
     0
  9
$DIMTAD
 70
     3
  9
$DIMZIN
 70
     8
  9
$DIMBLK
  1

  9
$DIMASO
 70
     1
  9
$DIMSHO
 70
     1
  9
$DIMPOST
  1

  9
$DIMAPOST
  1

  9
$DIMALT
 70
     0
  9
$DIMALTD
 70
     2
  9
$DIMALTF
 40
25.4
  9
$DIMLFAC
 40
1.0
  9
$DIMTOFL
 70
     1
  9
$DIMTVP
 40
0.0
  9
$DIMTIX
 70
     0
  9
$DIMSOXD
 70
     0
  9
$DIMSAH
 70
     1
  9
$DIMBLK1
  1

  9
$DIMBLK2
  1

  9
$DIMSTYLE
  2
STANDARD
  9
$DIMCLRD
 70
     0
  9
$DIMCLRE
 70
     0
  9
$DIMCLRT
 70
     0
  9
$DIMTFAC
 40
1.0
  9
$DIMGAP
 40
1.0
  9
$DIMJUST
 70
     0
  9
$DIMSD1
 70
     0
  9
$DIMSD2
 70
     0
  9
$DIMTOLJ
 70
     1
  9
$DIMTZIN
 70
     0
  9
$DIMALTZ
 70
     0
  9
$DIMALTTZ
 70
     0
  9
$DIMUPT
 70
     0
  9
$DIMDEC
 70
     4
  9
$DIMTDEC
 70
     4
  9
$DIMALTU
 70
     2
  9
$DIMALTTD
 70
     2
  9
$DIMTXSTY
  7
STANDARD
  9
$DIMAUNIT
 70
     0
  9
$DIMADEC
 70
     0
  9
$DIMALTRND
 40
0.0
  9
$DIMAZIN
 70
     0
  9
$DIMDSEP
 70
    46
  9
$DIMATFIT
 70
     3
  9
$DIMFRAC
 70
     0
  9
$DIMLDRBLK
  1

  9
$DIMLUNIT
 70
     2
  9
$DIMLWD
 70
    -2
  9
$DIMLWE
 70
    -2
  9
$DIMTMOVE
 70
     0
  9
$LUNITS
 70
     2
  9
$LUPREC
 70
     4
  9
$SKETCHINC
 40
1.0
  9
$FILLETRAD
 40
0.0
  9
$AUNITS
 70
     0
  9
$AUPREC
 70
     2
  9
$MENU
  1
.
  9
$ELEVATION
 40
0.0
  9
$PELEVATION
 40
0.0
  9
$THICKNESS
 40
0.0
  9
$LIMCHECK
 70
     0
  9
$CHAMFERA
 40
10.0
  9
$CHAMFERB
 40
10.0
  9
$CHAMFERC
 40
0.0
  9
$CHAMFERD
 40
0.0
  9
$SKPOLY
 70
     0
  9
$TDCREATE
 40
2450945.566641551
  9
$TDUCREATE
 40
2450945.191641551
  9
$TDUPDATE
 40
2457192.600751007
  9
$TDUUPDATE
 40
2457192.225751007
  9
$TDINDWG
 40
0.0000148380
  9
$TDUSRTIMER
 40
0.0000143519
  9
$USRTIMER
 70
     1
  9
$ANGBASE
 50
0.0
  9
$ANGDIR
 70
     0
  9
$PDMODE
 70
     0
  9
$PDSIZE
 40
0.0
  9
$PLINEWID
 40
0.0
  9
$SPLFRAME
 70
     0
  9
$SPLINETYPE
 70
     6
  9
$SPLINESEGS
 70
     8
  9
$HANDSEED
  5
9ACC
  9
$SURFTAB1
 70
     6
  9
$SURFTAB2
 70
     6
  9
$SURFTYPE
 70
     6
  9
$SURFU
 70
     6
  9
$SURFV
 70
     6
  9
$UCSBASE
  2

  9
$UCSNAME
  2

  9
$UCSORG
 10
0.0
 20
0.0
 30
0.0
  9
$UCSXDIR
 10
1.0
 20
0.0
 30
0.0
  9
$UCSYDIR
 10
0.0
 20
1.0
 30
0.0
  9
$UCSORTHOREF
  2

  9
$UCSORTHOVIEW
 70
     0
  9
$UCSORGTOP
 10
0.0
 20
0.0
 30
0.0
  9
$UCSORGBOTTOM
 10
0.0
 20
0.0
 30
0.0
  9
$UCSORGLEFT
 10
0.0
 20
0.0
 30
0.0
  9
$UCSORGRIGHT
 10
0.0
 20
0.0
 30
0.0
  9
$UCSORGFRONT
 10
0.0
 20
0.0
 30
0.0
  9
$UCSORGBACK
 10
0.0
 20
0.0
 30
0.0
  9
$PUCSBASE
  2

  9
$PUCSNAME
  2

  9
$PUCSORG
 10
0.0
 20
0.0
 30
0.0
  9
$PUCSXDIR
 10
1.0
 20
0.0
 30
0.0
  9
$PUCSYDIR
 10
0.0
 20
1.0
 30
0.0
  9
$PUCSORTHOREF
  2

  9
$PUCSORTHOVIEW
 70
     0
  9
$PUCSORGTOP
 10
0.0
 20
0.0
 30
0.0
  9
$PUCSORGBOTTOM
 10
0.0
 20
0.0
 30
0.0
  9
$PUCSORGLEFT
 10
0.0
 20
0.0
 30
0.0
  9
$PUCSORGRIGHT
 10
0.0
 20
0.0
 30
0.0
  9
$PUCSORGFRONT
 10
0.0
 20
0.0
 30
0.0
  9
$PUCSORGBACK
 10
0.0
 20
0.0
 30
0.0
  9
$USERI1
 70
     0
  9
$USERI2
 70
     0
  9
$USERI3
 70
     0
  9
$USERI4
 70
     0
  9
$USERI5
 70
     0
  9
$USERR1
 40
0.0
  9
$USERR2
 40
0.0
  9
$USERR3
 40
0.0
  9
$USERR4
 40
0.0
  9
$USERR5
 40
0.0
  9
$WORLDVIEW
 70
     1
  9
$SHADEDGE
 70
     3
  9
$SHADEDIF
 70
    70
  9
$TILEMODE
 70
     1
  9
$MAXACTVP
 70
    16
  9
$PINSBASE
 10
0.0
 20
0.0
 30
0.0
  9
$PLIMCHECK
 70
     0
  9
$PEXTMIN
 10
1.000000000000000E+20
 20
1.000000000000000E+20
 30
1.000000000000000E+20
  9
$PEXTMAX
 10
-1.000000000000000E+20
 20
-1.000000000000000E+20
 30
-1.000000000000000E+20
  9
$PLIMMIN
 10
0.0
 20
0.0
  9
$PLIMMAX
 10
420.0
 20
297.0
  9
$UNITMODE
 70
     0
  9
$VISRETAIN
 70
     0
  9
$PLINEGEN
 70
     0
  9
$PSLTSCALE
 70
     0
  9
$TREEDEPTH
 70
  3020
  9
$CMLSTYLE
  2
STANDARD
  9
$CMLJUST
 70
     0
  9
$CMLSCALE
 40
1.0
  9
$PROXYGRAPHICS
 70
     1
  9
$MEASUREMENT
 70
     0
  9
$CELWEIGHT
370
    -1
  9
$ENDCAPS
280
     0
  9
$JOINSTYLE
280
     0
  9
$LWDISPLAY
290
     0
  9
$INSUNITS
 70
     0
  9
$HYPERLINKBASE
  1

  9
$STYLESHEET
  1

  9
$XEDIT
290
     1
  9
$CEPSNTYPE
380
     0
  9
$PSTYLEMODE
290
     1
  9
$FINGERPRINTGUID
  2
{CF4E897F-2D2B-498A-8684-10CE3D107C6A}
  9
$VERSIONGUID
  2
{C45988C0-CF0F-455A-9D14-11927A5CF5DF}
  9
$EXTNAMES
290
     1
  9
$PSVPSCALE
 40
0.0
  9
$OLESTARTUP
290
     0
  0
ENDSEC
  0
SECTION
  2
CLASSES
  0
CLASS
  1
ACDBDICTIONARYWDFLT
  2
AcDbDictionaryWithDefault
  3
ObjectDBX Classes
 90
        0
280
     0
281
     0
  0
CLASS
  1
ACDBPLACEHOLDER
  2
AcDbPlaceHolder
  3
ObjectDBX Classes
 90
        0
280
     0
281
     0
  0
CLASS
  1
LAYOUT
  2
AcDbLayout
  3
ObjectDBX Classes
 90
        0
280
     0
281
     0
  0
CLASS
  1
DICTIONARYVAR
  2
AcDbDictionaryVar
  3
ObjectDBX Classes
 90
        0
280
     0
281
     0
  0
CLASS
  1
MATERIAL
  2
AcDbMaterial
  3
ObjectDBX Classes
 90
     1153
280
     0
281
     0
  0
CLASS
  1
VISUALSTYLE
  2
AcDbVisualStyle
  3
ObjectDBX Classes
 90
     4095
280
     0
281
     0
  0
CLASS
  1
TABLESTYLE
  2
AcDbTableStyle
  3
ObjectDBX Classes
 90
     4095
280
     0
281
     0
  0
CLASS
  1
SCALE
  2
AcDbScale
  3
ObjectDBX Classes
 90
     1153
280
     0
281
     0
  0
CLASS
  1
MLEADERSTYLE
  2
AcDbMLeaderStyle
  3
ACDB_MLEADERSTYLE_CLASS
 90
     4095
280
     0
281
     0
  0
CLASS
  1
ACDBSECTIONVIEWSTYLE
  2
AcDbSectionViewStyle
  3
ObjectDBX Classes
 90
     1025
280
     0
281
     0
  0
CLASS
  1
ACDBDETAILVIEWSTYLE
  2
AcDbDetailViewStyle
  3
ObjectDBX Classes
 90
     1025
280
     0
281
     0
  0
CLASS
  1
CELLSTYLEMAP
  2
AcDbCellStyleMap
  3
ObjectDBX Classes
 90
     1152
280
     0
281
     0
  0
ENDSEC
  0
SECTION
  2
TABLES
  0
TABLE
  2
VPORT
  5
9776
330
0
100
AcDbSymbolTable
 70
     1
  0
VPORT
  5
9A15
330
9776
100
AcDbSymbolTableRecord
100
AcDbViewportTableRecord
  2
*ACTIVE
 70
     0
 10
0.0
 20
0.0
 11
1.0
 21
1.0
 12
392.078323836644
 22
99.97905822293724
 13
0.0
 23
0.0
 14
10.0
 24
10.0
 15
10.0
 25
10.0
 16
0.0
 26
0.0
 36
1.0
 17
0.0
 27
0.0
 37
0.0
 40
326.7766476064667
 41
1.899603698811096
 42
50.0
 43
0.0
 44
0.0
 50
0.0
 51
0.0
 71
     0
 72
   100
 73
     1
 74
     0
 75
     0
 76
     0
 77
     0
 78
     0
281
     0
 65
     1
110
0.0
120
0.0
130
0.0
111
1.0
121
0.0
131
0.0
112
0.0
122
1.0
132
0.0
 79
     0
146
0.0
1001
ACAD_NAV_VCDISPLAY
1070
     3
  0
ENDTAB
  0
TABLE
  2
LTYPE
  5
9773
330
0
100
AcDbSymbolTable
 70
     4
  0
LTYPE
  5
9781
330
9773
100
AcDbSymbolTableRecord
100
AcDbLinetypeTableRecord
  2
BYBLOCK
 70
     0
  3

 72
    65
 73
     0
 40
0.0
  0
LTYPE
  5
9782
330
9773
100
AcDbSymbolTableRecord
100
AcDbLinetypeTableRecord
  2
BYLAYER
 70
     0
  3

 72
    65
 73
     0
 40
0.0
  0
LTYPE
  5
9783
330
9773
100
AcDbSymbolTableRecord
100
AcDbLinetypeTableRecord
  2
CONTINUOUS
 70
     0
  3
Solid line
 72
    65
 73
     0
 40
0.0
  0
LTYPE
  5
9791
330
9773
100
AcDbSymbolTableRecord
100
AcDbLinetypeTableRecord
  2
DASHED
 70
     0
  3
__ __ __ __ __ __ __ __ __ __ __ __ __ __ __ __
 72
    65
 73
     2
 40
0.75
 49
0.5
 74
     0
 49
-0.25
 74
     0
  0
LTYPE
  5
9792
330
9773
100
AcDbSymbolTableRecord
100
AcDbLinetypeTableRecord
  2
CENTER
 70
     0
  3
____ _ ____ _ ____ _ ____ _ ____ _ ____ _ ____ 
 72
    65
 73
     4
 40
2.0
 49
1.25
 74
     0
 49
-0.25
 74
     0
 49
0.25
 74
     0
 49
-0.25
 74
     0
  0
LTYPE
  5
9793
330
9773
100
AcDbSymbolTableRecord
100
AcDbLinetypeTableRecord
  2
PHANTOM
 70
     0
  3
______  __  __  ______  __  __  ______  __  __ 
 72
    65
 73
     6
 40
2.5
 49
1.25
 74
     0
 49
-0.25
 74
     0
 49
0.25
 74
     0
 49
-0.25
 74
     0
 49
0.25
 74
     0
 49
-0.25
 74
     0
  0
ENDTAB
  0
TABLE
  2
LAYER
  5
9770
330
0
100
AcDbSymbolTable
 70
     8
  0
LAYER
  5
977E
102
{ACAD_XDICTIONARY
360
9A70
102
}
330
9770
100
AcDbSymbolTableRecord
100
AcDbLayerTableRecord
  2
0
 70
     0
 62
     7
  6
CONTINUOUS
370
    -3
390
9A1E
  0
LAYER
  5
9794
102
{ACAD_XDICTIONARY
360
9A72
102
}
330
9770
100
AcDbSymbolTableRecord
100
AcDbLayerTableRecord
  2
4
 70
     0
 62
     1
  6
CENTER
370
    -3
390
9A1E
  0
LAYER
  5
9795
102
{ACAD_XDICTIONARY
360
9A74
102
}
330
9770
100
AcDbSymbolTableRecord
100
AcDbLayerTableRecord
  2
5
 70
     0
 62
     6
  6
PHANTOM
370
    -3
390
9A1E
  0
LAYER
  5
9796
102
{ACAD_XDICTIONARY
360
9A76
102
}
330
9770
100
AcDbSymbolTableRecord
100
AcDbLayerTableRecord
  2
1
 70
     0
 62
     7
  6
CONTINUOUS
370
    -3
390
9A1E
  0
LAYER
  5
9797
102
{ACAD_XDICTIONARY
360
9A78
102
}
330
9770
100
AcDbSymbolTableRecord
100
AcDbLayerTableRecord
  2
2
 70
     0
 62
     4
  6
CONTINUOUS
370
    -3
390
9A1E
  0
LAYER
  5
9798
102
{ACAD_XDICTIONARY
360
9A7A
102
}
330
9770
100
AcDbSymbolTableRecord
100
AcDbLayerTableRecord
  2
3
 70
     0
 62
     2
  6
DASHED
370
    -3
390
9A1E
  0
LAYER
  5
9799
102
{ACAD_XDICTIONARY
360
9A7C
102
}
330
9770
100
AcDbSymbolTableRecord
100
AcDbLayerTableRecord
  2
6
 70
     0
 62
     5
  6
CONTINUOUS
370
    -3
390
9A1E
  0
LAYER
  5
979A
102
{ACAD_XDICTIONARY
360
9A7E
102
}
330
9770
100
AcDbSymbolTableRecord
100
AcDbLayerTableRecord
  2
7
 70
     0
 62
     3
  6
CONTINUOUS
370
    -3
390
9A1E
  0
ENDTAB
  0
TABLE
  2
STYLE
  5
9771
330
0
100
AcDbSymbolTable
 70
     1
  0
STYLE
  5
977F
330
9771
100
AcDbSymbolTableRecord
100
AcDbTextStyleTableRecord
  2
STANDARD
 70
     0
 40
0.0
 41
1.0
 50
0.0
 71
     0
 42
5.0
  3
txt
  4

  0
ENDTAB
  0
TABLE
  2
VIEW
  5
9774
330
0
100
AcDbSymbolTable
 70
     0
  0
ENDTAB
  0
TABLE
  2
UCS
  5
9775
330
0
100
AcDbSymbolTable
 70
     0
  0
ENDTAB
  0
TABLE
  2
APPID
  5
9777
330
0
100
AcDbSymbolTable
 70
     3
  0
APPID
  5
9780
330
9777
100
AcDbSymbolTableRecord
100
AcDbRegAppTableRecord
  2
ACAD
 70
     0
  0
APPID
  5
9A8A
330
9777
100
AcDbSymbolTableRecord
100
AcDbRegAppTableRecord
  2
ACAD_NAV_VCDISPLAY
 70
     0
  0
APPID
  5
9AC3
330
9777
100
AcDbSymbolTableRecord
100
AcDbRegAppTableRecord
  2
ACAD_MLEADERVER
 70
     0
  0
ENDTAB
  0
TABLE
  2
DIMSTYLE
  5
9778
330
0
100
AcDbSymbolTable
 70
     1
100
AcDbDimStyleTable
 71
     0
  0
DIMSTYLE
105
979C
330
9778
100
AcDbSymbolTableRecord
100
AcDbDimStyleTableRecord
  2
STANDARD
 70
     0
 41
3.0
 42
1.0
 43
10.0
 44
1.0
 73
     0
 74
     0
 77
     3
 78
     8
140
3.2
141
0.0
147
1.0
172
     1
173
     1
284
     8
285
     8
286
     8
340
977F
  0
ENDTAB
  0
TABLE
  2
BLOCK_RECORD
  5
976F
330
0
100
AcDbSymbolTable
 70
     0
  0
BLOCK_RECORD
  5
978C
102
{ACAD_XDICTIONARY
360
9A18
102
}
330
976F
100
AcDbSymbolTableRecord
100
AcDbBlockTableRecord
  2
*MODEL_SPACE
340
9A6C
  0
BLOCK_RECORD
  5
9788
102
{ACAD_XDICTIONARY
360
9A16
102
}
330
976F
100
AcDbSymbolTableRecord
100
AcDbBlockTableRecord
  2
*PAPER_SPACE
340
9A6D
  0
ENDTAB
  0
ENDSEC
  0
SECTION
  2
BLOCKS
  0
BLOCK
  5
978D
330
978C
100
AcDbEntity
  8
0
100
AcDbBlockBegin
  2
*MODEL_SPACE
 70
     0
 10
0.0
 20
0.0
 30
0.0
  3
*MODEL_SPACE
  1

  0
ENDBLK
  5
978E
330
978C
100
AcDbEntity
  8
0
100
AcDbBlockEnd
  0
BLOCK
  5
9789
330
9788
100
AcDbEntity
 67
     1
  8
0
100
AcDbBlockBegin
  2
*PAPER_SPACE
 70
     0
 10
0.0
 20
0.0
 30
0.0
  3
*PAPER_SPACE
  1

  0
ENDBLK
  5
978A
330
9788
100
AcDbEntity
 67
     1
  8
0
100
AcDbBlockEnd
  0
ENDSEC
  0
SECTION
  2
ENTITIES
  0
TEXT
  5
97A4
330
978C
100
AcDbEntity
  8
7
  6
Continuous
100
AcDbText
 10
10.0
 20
18.0
 30
0.0
 40
3.0
  1
TYPE No.TL-254
100
AcDbText
  0
TEXT
  5
97A5
330
978C
100
AcDbEntity
  8
7
  6
Continuous
100
AcDbText
 10
10.0
 20
26.0
 30
0.0
 40
3.0
  1
CODE No.1713
100
AcDbText
  0
TEXT
  5
97A6
330
978C
100
AcDbEntity
  8
1
  6
Continuous
100
AcDbText
 10
10.0
 20
10.0
 30
0.0
 40
1.399999999999999
  1
LAYER
100
AcDbText
  0
TEXT
  5
97A7
330
978C
100
AcDbEntity
  8
1
  6
Continuous
100
AcDbText
 10
17.97951099999998
 20
10.04873699999998
 30
0.0
 40
1.399999999999999
  1
1
100
AcDbText
  0
TEXT
  5
97A8
330
978C
100
AcDbEntity
  8
7
  6
Continuous
100
AcDbText
 10
29.97951099999999
 20
10.04873699999998
 30
0.0
 40
1.399999999999999
  1
7
100
AcDbText
  0
TEXT
  5
97A9
330
978C
100
AcDbEntity
  8
4
  6
CENTER
100
AcDbText
 10
23.97951099999999
 20
10.04873699999998
 30
0.0
 40
1.399999999999999
  1
4
100
AcDbText
  0
TEXT
  5
97AA
330
978C
100
AcDbEntity
  8
3
  6
DASHED
100
AcDbText
 10
21.979511
 20
10.04873699999998
 30
0.0
 40
1.399999999999999
  1
3
100
AcDbText
  0
TEXT
  5
97AB
330
978C
100
AcDbEntity
  8
2
  6
Continuous
100
AcDbText
 10
19.97951099999999
 20
10.04873699999998
 30
0.0
 40
1.399999999999999
  1
2
100
AcDbText
  0
TEXT
  5
97AC
330
978C
100
AcDbEntity
  8
6
  6
Continuous
100
AcDbText
 10
27.979511
 20
10.04873699999998
 30
0.0
 40
1.399999999999999
  1
6
100
AcDbText
  0
TEXT
  5
97AD
330
978C
100
AcDbEntity
  8
5
  6
PHANTOM
100
AcDbText
 10
25.97951099999999
 20
10.04873699999998
 30
0.0
 40
1.399999999999999
  1
5
100
AcDbText
  0
LINE
  5
97AE
330
978C
100
AcDbEntity
  8
4
  6
CENTER
100
AcDbLine
 10
79.49920699999998
 20
66.57364699999999
 30
0.0
 11
125.369546
 21
66.57364699999999
 31
0.0
  0
LINE
  5
97AF
330
978C
100
AcDbEntity
  8
4
  6
CENTER
100
AcDbLine
 10
32.18516199999999
 20
92.19132999999999
 30
0.0
 11
32.18516199999999
 21
40.75067899999999
 31
0.0
  0
LINE
  5
97B0
330
978C
100
AcDbEntity
  8
1
  6
Continuous
100
AcDbLine
 10
85.185159
 20
85.57364699999999
 30
0.0
 11
85.185159
 21
47.57365
 31
0.0
  0
LINE
  5
97B1
330
978C
100
AcDbEntity
  8
1
  6
Continuous
100
AcDbLine
 10
44.185162
 20
85.57364699999999
 30
0.0
 11
44.185162
 21
47.57365
 31
0.0
  0
LINE
  5
97B2
330
978C
100
AcDbEntity
  8
1
  6
Continuous
100
AcDbLine
 10
21.18516
 20
86.57364699999998
 30
0.0
 11
43.185162
 21
86.57364699999998
 31
0.0
  0
LINE
  5
97B3
330
978C
100
AcDbEntity
  8
1
  6
Continuous
100
AcDbLine
 10
21.18516
 20
46.57365
 30
0.0
 11
43.185162
 21
46.57365
 31
0.0
  0
LINE
  5
97B4
330
978C
100
AcDbEntity
  8
1
  6
Continuous
100
AcDbLine
 10
43.185159
 20
86.57364699999998
 30
0.0
 11
44.185162
 21
85.57364699999999
 31
0.0
  0
LINE
  5
97B5
330
978C
100
AcDbEntity
  8
1
  6
Continuous
100
AcDbLine
 10
44.185159
 20
47.57364699999999
 30
0.0
 11
43.185162
 21
46.57365399999998
 31
0.0
  0
LINE
  5
97B6
330
978C
100
AcDbEntity
  8
1
  6
Continuous
100
AcDbLine
 10
21.18516
 20
46.57365
 30
0.0
 11
20.18515999999999
 21
47.57365
 31
0.0
  0
LINE
  5
97B7
330
978C
100
AcDbEntity
  8
1
  6
Continuous
100
AcDbLine
 10
20.185164
 20
85.573654
 30
0.0
 11
21.18516599999999
 21
86.57365400000001
 31
0.0
  0
LINE
  5
97B8
330
978C
100
AcDbEntity
  8
1
  6
Continuous
100
AcDbLine
 10
20.18515999999999
 20
85.573654
 30
0.0
 11
44.185162
 21
85.573654
 31
0.0
  0
LINE
  5
97B9
330
978C
100
AcDbEntity
  8
1
  6
Continuous
100
AcDbLine
 10
20.18515999999999
 20
47.57365
 30
0.0
 11
44.185162
 21
47.57365
 31
0.0
  0
LINE
  5
97BA
330
978C
100
AcDbEntity
  8
1
  6
Continuous
100
AcDbLine
 10
43.185162
 20
86.57365400000001
 30
0.0
 11
43.185162
 21
46.57365
 31
0.0
  0
LINE
  5
97BB
330
978C
100
AcDbEntity
  8
1
  6
Continuous
100
AcDbLine
 10
21.18516
 20
86.57365400000001
 30
0.0
 11
21.18516
 21
46.57365
 31
0.0
  0
LINE
  5
97BC
330
978C
100
AcDbEntity
  8
1
  6
Continuous
100
AcDbLine
 10
33.18516199999999
 20
72.844414
 30
0.0
 11
33.18516199999999
 21
60.30288699999999
 31
0.0
  0
LINE
  5
97BD
330
978C
100
AcDbEntity
  8
1
  6
Continuous
100
AcDbLine
 10
31.185162
 20
72.844414
 30
0.0
 11
31.185162
 21
60.30288699999999
 31
0.0
  0
LINE
  5
97BE
330
978C
100
AcDbEntity
  8
1
  6
Continuous
100
AcDbLine
 10
32.81394999999999
 20
51.944862
 30
0.0
 11
33.23548999999999
 21
52.141426
 31
0.0
  0
LINE
  5
97BF
330
978C
100
AcDbEntity
  8
1
  6
Continuous
100
AcDbLine
 10
33.23549299999999
 20
52.141426
 30
0.0
 11
33.935479
 21
52.15364799999999
 31
0.0
  0
LINE
  5
97C0
330
978C
100
AcDbEntity
  8
1
  6
Continuous
100
AcDbLine
 10
33.23548999999999
 20
53.005867
 30
0.0
 11
33.93547499999999
 21
52.993652
 31
0.0
  0
LINE
  5
97C1
330
978C
100
AcDbEntity
  8
1
  6
Continuous
100
AcDbLine
 10
32.81394699999999
 20
53.20243099999999
 30
0.0
 11
33.23548999999999
 21
53.005867
 31
0.0
  0
LINE
  5
97C2
330
978C
100
AcDbEntity
  8
1
  6
Continuous
100
AcDbLine
 10
32.61738299999999
 20
53.623985
 30
0.0
 11
32.605164
 21
54.323967
 31
0.0
  0
LINE
  5
97C3
330
978C
100
AcDbEntity
  8
1
  6
Continuous
100
AcDbLine
 10
32.81394699999999
 20
53.202438
 30
0.0
 11
32.61737899999999
 21
53.623978
 31
0.0
  0
LINE
  5
97C4
330
978C
100
AcDbEntity
  8
1
  6
Continuous
100
AcDbLine
 10
31.752946
 20
53.623978
 30
0.0
 11
31.76516400000001
 21
54.32395899999999
 31
0.0
  0
LINE
  5
97C5
330
978C
100
AcDbEntity
  8
1
  6
Continuous
100
AcDbLine
 10
31.556378
 20
53.20243099999999
 30
0.0
 11
31.752946
 21
53.62396999999999
 31
0.0
  0
LINE
  5
97C6
330
978C
100
AcDbEntity
  8
1
  6
Continuous
100
AcDbLine
 10
31.134839
 20
53.005867
 30
0.0
 11
30.43484600000001
 21
52.993652
 31
0.0
  0
LINE
  5
97C7
330
978C
100
AcDbEntity
  8
1
  6
Continuous
100
AcDbLine
 10
31.55637399999999
 20
53.20243099999999
 30
0.0
 11
31.134835
 21
53.005867
 31
0.0
  0
LINE
  5
97C8
330
978C
100
AcDbEntity
  8
1
  6
Continuous
100
AcDbLine
 10
31.134835
 20
52.141426
 30
0.0
 11
30.434853
 21
52.15364799999999
 31
0.0
  0
LINE
  5
97C9
330
978C
100
AcDbEntity
  8
1
  6
Continuous
100
AcDbLine
 10
31.55637399999999
 20
51.944862
 30
0.0
 11
31.134835
 21
52.141426
 31
0.0
  0
LINE
  5
97CA
330
978C
100
AcDbEntity
  8
1
  6
Continuous
100
AcDbLine
 10
31.75294199999999
 20
51.52331499999998
 30
0.0
 11
31.76515999999999
 21
50.823334
 31
0.0
  0
LINE
  5
97CB
330
978C
100
AcDbEntity
  8
1
  6
Continuous
100
AcDbLine
 10
31.55637399999999
 20
51.944862
 30
0.0
 11
31.75294199999999
 21
51.523323
 31
0.0
  0
LINE
  5
97CC
330
978C
100
AcDbEntity
  8
1
  6
Continuous
100
AcDbLine
 10
32.617387
 20
51.52331499999998
 30
0.0
 11
32.60516799999999
 21
50.823326
 31
0.0
  0
LINE
  5
97CD
330
978C
100
AcDbEntity
  8
1
  6
Continuous
100
AcDbLine
 10
32.81394999999999
 20
51.94485499999998
 30
0.0
 11
32.61738299999999
 21
51.52331499999998
 31
0.0
  0
LINE
  5
97CE
330
978C
100
AcDbEntity
  8
4
  6
CENTER
100
AcDbLine
 10
28.664819
 20
52.573647
 30
0.0
 11
35.73471099999999
 21
52.573647
 31
0.0
  0
LINE
  5
97CF
330
978C
100
AcDbEntity
  8
1
  6
Continuous
100
AcDbLine
 10
32.81394999999999
 20
79.944862
 30
0.0
 11
33.23549299999999
 21
80.14142599999997
 31
0.0
  0
LINE
  5
97D0
330
978C
100
AcDbEntity
  8
1
  6
Continuous
100
AcDbLine
 10
33.23548999999999
 20
80.14142599999997
 30
0.0
 11
33.93547499999999
 21
80.153648
 31
0.0
  0
LINE
  5
97D1
330
978C
100
AcDbEntity
  8
1
  6
Continuous
100
AcDbLine
 10
33.23548999999999
 20
81.00586699999999
 30
0.0
 11
33.93547499999999
 21
80.99365199999999
 31
0.0
  0
LINE
  5
97D2
330
978C
100
AcDbEntity
  8
1
  6
Continuous
100
AcDbLine
 10
32.81394699999999
 20
81.20243100000001
 30
0.0
 11
33.23548999999999
 21
81.00586699999999
 31
0.0
  0
LINE
  5
97D3
330
978C
100
AcDbEntity
  8
1
  6
Continuous
100
AcDbLine
 10
32.61738299999999
 20
81.623985
 30
0.0
 11
32.605164
 21
82.32396699999998
 31
0.0
  0
LINE
  5
97D4
330
978C
100
AcDbEntity
  8
1
  6
Continuous
100
AcDbLine
 10
32.81394699999999
 20
81.202438
 30
0.0
 11
32.61737899999999
 21
81.62397799999999
 31
0.0
  0
LINE
  5
97D5
330
978C
100
AcDbEntity
  8
1
  6
Continuous
100
AcDbLine
 10
31.75294199999999
 20
81.62397799999999
 30
0.0
 11
31.76515999999999
 21
82.323959
 31
0.0
  0
LINE
  5
97D6
330
978C
100
AcDbEntity
  8
1
  6
Continuous
100
AcDbLine
 10
31.556378
 20
81.20243100000001
 30
0.0
 11
31.752946
 21
81.62397
 31
0.0
  0
LINE
  5
97D7
330
978C
100
AcDbEntity
  8
1
  6
Continuous
100
AcDbLine
 10
31.134839
 20
81.00586699999999
 30
0.0
 11
30.43484600000001
 21
80.99365199999999
 31
0.0
  0
LINE
  5
97D8
330
978C
100
AcDbEntity
  8
1
  6
Continuous
100
AcDbLine
 10
31.55637399999999
 20
81.202438
 30
0.0
 11
31.134835
 21
81.00586699999999
 31
0.0
  0
LINE
  5
97D9
330
978C
100
AcDbEntity
  8
1
  6
Continuous
100
AcDbLine
 10
31.134839
 20
80.14142599999997
 30
0.0
 11
30.434853
 21
80.15364099999997
 31
0.0
  0
LINE
  5
97DA
330
978C
100
AcDbEntity
  8
1
  6
Continuous
100
AcDbLine
 10
31.55637399999999
 20
79.944862
 30
0.0
 11
31.134835
 21
80.14142599999997
 31
0.0
  0
LINE
  5
97DB
330
978C
100
AcDbEntity
  8
1
  6
Continuous
100
AcDbLine
 10
31.75294199999999
 20
79.52331499999998
 30
0.0
 11
31.76515999999999
 21
78.823334
 31
0.0
  0
LINE
  5
97DC
330
978C
100
AcDbEntity
  8
1
  6
Continuous
100
AcDbLine
 10
31.556378
 20
79.944862
 30
0.0
 11
31.752946
 21
79.52332300000001
 31
0.0
  0
LINE
  5
97DD
330
978C
100
AcDbEntity
  8
1
  6
Continuous
100
AcDbLine
 10
32.61738299999999
 20
79.52331499999998
 30
0.0
 11
32.605164
 21
78.82332599999998
 31
0.0
  0
LINE
  5
97DE
330
978C
100
AcDbEntity
  8
1
  6
Continuous
100
AcDbLine
 10
32.81394999999999
 20
79.944855
 30
0.0
 11
32.61738299999999
 21
79.52331499999998
 31
0.0
  0
LINE
  5
97DF
330
978C
100
AcDbEntity
  8
4
  6
CENTER
100
AcDbLine
 10
28.664819
 20
80.57364699999999
 30
0.0
 11
35.73471099999999
 21
80.57364699999999
 31
0.0
  0
LINE
  5
97E0
330
978C
100
AcDbEntity
  8
1
  6
Continuous
100
AcDbLine
 10
20.18515999999999
 20
85.57364699999999
 30
0.0
 11
20.18515999999999
 21
47.57365
 31
0.0
  0
LINE
  5
97E1
330
978C
100
AcDbEntity
  8
4
  6
CENTER
100
AcDbLine
 10
14.499207
 20
66.57364699999999
 30
0.0
 11
50.02755
 21
66.57364699999999
 31
0.0
  0
LINE
  5
97E2
330
978C
100
AcDbEntity
  8
1
  6
Continuous
100
AcDbLine
 10
86.185159
 20
46.57365
 30
0.0
 11
90.18515900000002
 21
46.57365
 31
0.0
  0
LINE
  5
97E3
330
978C
100
AcDbEntity
  8
1
  6
Continuous
100
AcDbLine
 10
85.185159
 20
47.57365
 30
0.0
 11
90.18515900000002
 21
47.57365
 31
0.0
  0
LINE
  5
97E4
330
978C
100
AcDbEntity
  8
1
  6
Continuous
100
AcDbLine
 10
85.185159
 20
85.57364699999999
 30
0.0
 11
90.18515900000002
 21
85.57364699999999
 31
0.0
  0
LINE
  5
97E5
330
978C
100
AcDbEntity
  8
1
  6
Continuous
100
AcDbLine
 10
86.185159
 20
86.57364699999998
 30
0.0
 11
90.18515900000002
 21
86.57364699999998
 31
0.0
  0
LINE
  5
97E6
330
978C
100
AcDbEntity
  8
4
  6
CENTER
100
AcDbLine
 10
136.185159
 20
80.57364699999999
 30
0.0
 11
145.7851649999998
 21
80.57364699999999
 31
0.0
  0
LINE
  5
97E7
330
978C
100
AcDbEntity
  8
4
  6
CENTER
100
AcDbLine
 10
136.185159
 20
52.573647
 30
0.0
 11
145.7851649999998
 21
52.573647
 31
0.0
  0
LINE
  5
97E8
330
978C
100
AcDbEntity
  8
1
  6
Continuous
100
AcDbLine
 10
86.18516600000004
 20
86.57365400000001
 30
0.0
 11
85.18516600000003
 21
85.573654
 31
0.0
  0
LINE
  5
97E9
330
978C
100
AcDbEntity
  8
1
  6
Continuous
100
AcDbLine
 10
85.185159
 20
47.57365
 30
0.0
 11
86.185159
 21
46.57365
 31
0.0
  0
LINE
  5
97EA
330
978C
100
AcDbEntity
  8
1
  6
Continuous
100
AcDbLine
 10
86.185159
 20
86.57364699999998
 30
0.0
 11
86.185159
 21
46.57365
 31
0.0
  0
LINE
  5
97EB
330
978C
100
AcDbEntity
  8
1
  6
Continuous
100
AcDbLine
 10
90.18515900000002
 20
86.57364699999998
 30
0.0
 11
90.18515900000002
 21
46.57365
 31
0.0
  0
LINE
  5
97EC
330
978C
100
AcDbEntity
  8
1
  6
Continuous
100
AcDbLine
 10
95.18515900000002
 20
158.073654
 30
0.0
 11
95.18515900000002
 21
155.073654
 31
0.0
  0
LINE
  5
97ED
330
978C
100
AcDbEntity
  8
1
  6
Continuous
100
AcDbLine
 10
90.18515900000002
 20
54.07364699999998
 30
0.0
 11
95.18515900000002
 21
54.07364699999998
 31
0.0
  0
LINE
  5
97EE
330
978C
100
AcDbEntity
  8
1
  6
Continuous
100
AcDbLine
 10
90.18515900000002
 20
51.07364699999997
 30
0.0
 11
95.18515900000002
 21
51.07364699999997
 31
0.0
  0
LINE
  5
97EF
330
978C
100
AcDbEntity
  8
1
  6
Continuous
100
AcDbLine
 10
90.18515900000002
 20
158.073654
 30
0.0
 11
95.18515900000002
 21
158.073654
 31
0.0
  0
LINE
  5
97F0
330
978C
100
AcDbEntity
  8
1
  6
Continuous
100
AcDbLine
 10
90.18515900000002
 20
155.073654
 30
0.0
 11
95.18515900000002
 21
155.073654
 31
0.0
  0
LINE
  5
97F1
330
978C
100
AcDbEntity
  8
1
  6
Continuous
100
AcDbLine
 10
95.18515900000002
 20
54.07364699999998
 30
0.0
 11
95.18515900000002
 21
51.07364699999997
 31
0.0
  0
LINE
  5
97F2
330
978C
100
AcDbEntity
  8
2
  6
Continuous
100
AcDbLine
 10
90.18515900000002
 20
51.344147
 30
0.0
 11
95.18515900000002
 21
51.344147
 31
0.0
  0
LINE
  5
97F3
330
978C
100
AcDbEntity
  8
2
  6
Continuous
100
AcDbLine
 10
90.18515900000002
 20
53.803154
 30
0.0
 11
95.18515900000002
 21
53.803154
 31
0.0
  0
LINE
  5
97F4
330
978C
100
AcDbEntity
  8
2
  6
Continuous
100
AcDbLine
 10
90.18515900000002
 20
157.803146
 30
0.0
 11
95.18515900000002
 21
157.803146
 31
0.0
  0
LINE
  5
97F5
330
978C
100
AcDbEntity
  8
2
  6
Continuous
100
AcDbLine
 10
90.18515900000002
 20
155.3441469999999
 30
0.0
 11
95.18515900000002
 21
155.3441469999999
 31
0.0
  0
LINE
  5
97F6
330
978C
100
AcDbEntity
  8
1
  6
Continuous
100
AcDbLine
 10
140.1851589999999
 20
86.57364699999998
 30
0.0
 11
140.1851589999999
 21
71.57364699999998
 31
0.0
  0
LINE
  5
97F7
330
978C
100
AcDbEntity
  8
1
  6
Continuous
100
AcDbLine
 10
141.7851649999998
 20
86.57364699999998
 30
0.0
 11
141.7851649999998
 21
78.523651
 31
0.0
  0
LINE
  5
97F8
330
978C
100
AcDbEntity
  8
4
  6
CENTER
100
AcDbLine
 10
135.581963
 20
66.57364699999999
 30
0.0
 11
187.502724
 21
66.57364699999999
 31
0.0
  0
LINE
  5
97F9
330
978C
100
AcDbEntity
  8
1
  6
Continuous
100
AcDbLine
 10
140.1851589999999
 20
86.57364699999998
 30
0.0
 11
141.7851649999998
 21
86.57364699999998
 31
0.0
  0
LINE
  5
97FA
330
978C
100
AcDbEntity
  8
1
  6
Continuous
100
AcDbLine
 10
140.1851589999999
 20
46.57365
 30
0.0
 11
141.7851649999998
 21
46.57365
 31
0.0
  0
LINE
  5
97FB
330
978C
100
AcDbEntity
  8
1
  6
Continuous
100
AcDbLine
 10
140.1851589999999
 20
78.523651
 30
0.0
 11
170.1851589999999
 21
78.523651
 31
0.0
  0
LINE
  5
97FC
330
978C
100
AcDbEntity
  8
1
  6
Continuous
100
AcDbLine
 10
140.1851589999999
 20
54.62365
 30
0.0
 11
170.1851589999999
 21
54.62365
 31
0.0
  0
LINE
  5
97FD
330
978C
100
AcDbEntity
  8
1
  6
Continuous
100
AcDbLine
 10
141.7851649999998
 20
54.62365
 30
0.0
 11
141.7851649999998
 21
46.57365
 31
0.0
  0
LINE
  5
97FE
330
978C
100
AcDbEntity
  8
1
  6
Continuous
100
AcDbLine
 10
182.1851589999999
 20
69.38815100000001
 30
0.0
 11
182.1851589999999
 21
63.759143
 31
0.0
  0
LINE
  5
97FF
330
978C
100
AcDbEntity
  8
1
  6
Continuous
100
AcDbLine
 10
142.1851589999999
 20
70.57364699999998
 30
0.0
 11
142.1851589999999
 21
62.573647
 31
0.0
  0
LINE
  5
9800
330
978C
100
AcDbEntity
  8
1
  6
Continuous
100
AcDbLine
 10
140.1851589999999
 20
61.57364699999998
 30
0.0
 11
141.1851589999999
 21
61.57364699999998
 31
0.0
  0
LINE
  5
9801
330
978C
100
AcDbEntity
  8
1
  6
Continuous
100
AcDbLine
 10
140.1851589999999
 20
71.57364699999998
 30
0.0
 11
141.1851589999999
 21
71.57364699999998
 31
0.0
  0
LINE
  5
9802
330
978C
100
AcDbEntity
  8
1
  6
Continuous
100
AcDbLine
 10
140.1851589999999
 20
61.57364699999998
 30
0.0
 11
140.1851589999999
 21
46.57365
 31
0.0
  0
LINE
  5
9803
330
978C
100
AcDbEntity
  8
1
  6
Continuous
100
AcDbLine
 10
101.185159
 20
164.573654
 30
0.0
 11
101.185159
 21
150.9167939999999
 31
0.0
  0
LINE
  5
9804
330
978C
100
AcDbEntity
  8
1
  6
Continuous
100
AcDbLine
 10
90.18515900000002
 20
148.5736539999998
 30
0.0
 11
95.18515900000002
 21
148.5736539999998
 31
0.0
  0
LINE
  5
9805
330
978C
100
AcDbEntity
  8
1
  6
Continuous
100
AcDbLine
 10
90.18515900000002
 20
164.573654
 30
0.0
 11
101.185159
 21
164.573654
 31
0.0
  0
LINE
  5
9806
330
978C
100
AcDbEntity
  8
1
  6
Continuous
100
AcDbLine
 10
121.185159
 20
153.573654
 30
0.0
 11
121.185159
 21
159.573654
 31
0.0
  0
LINE
  5
9807
330
978C
100
AcDbEntity
  8
1
  6
Continuous
100
AcDbLine
 10
103.6851589999999
 20
155.573654
 30
0.0
 11
103.6851589999999
 21
159.573654
 31
0.0
  0
LINE
  5
9808
330
978C
100
AcDbEntity
  8
4
  6
CENTER
100
AcDbLine
 10
235.1851589999998
 20
92.19132999999999
 30
0.0
 11
235.1851589999998
 21
40.75067899999999
 31
0.0
  0
LINE
  5
9809
330
978C
100
AcDbEntity
  8
1
  6
Continuous
100
AcDbLine
 10
223.185159
 20
85.57364699999999
 30
0.0
 11
223.185159
 21
47.57365
 31
0.0
  0
LINE
  5
980A
330
978C
100
AcDbEntity
  8
1
  6
Continuous
100
AcDbLine
 10
246.185159
 20
86.57364699999998
 30
0.0
 11
224.185159
 21
86.57364699999998
 31
0.0
  0
LINE
  5
980B
330
978C
100
AcDbEntity
  8
1
  6
Continuous
100
AcDbLine
 10
246.185159
 20
46.57365
 30
0.0
 11
224.185159
 21
46.57365
 31
0.0
  0
LINE
  5
980C
330
978C
100
AcDbEntity
  8
1
  6
Continuous
100
AcDbLine
 10
224.185159
 20
86.573662
 30
0.0
 11
223.185159
 21
85.573662
 31
0.0
  0
LINE
  5
980D
330
978C
100
AcDbEntity
  8
1
  6
Continuous
100
AcDbLine
 10
223.185159
 20
47.57364299999998
 30
0.0
 11
224.185159
 21
46.57365
 31
0.0
  0
LINE
  5
980E
330
978C
100
AcDbEntity
  8
1
  6
Continuous
100
AcDbLine
 10
246.185159
 20
46.57365
 30
0.0
 11
247.1851589999999
 21
47.57365
 31
0.0
  0
LINE
  5
980F
330
978C
100
AcDbEntity
  8
1
  6
Continuous
100
AcDbLine
 10
247.1851589999999
 20
85.57364699999999
 30
0.0
 11
246.185159
 21
86.57364699999998
 31
0.0
  0
LINE
  5
9810
330
978C
100
AcDbEntity
  8
4
  6
CENTER
100
AcDbLine
 10
238.705498
 20
52.573647
 30
0.0
 11
231.6356129999999
 21
52.573647
 31
0.0
  0
LINE
  5
9811
330
978C
100
AcDbEntity
  8
4
  6
CENTER
100
AcDbLine
 10
238.705498
 20
80.57364699999999
 30
0.0
 11
231.6356129999999
 21
80.57364699999999
 31
0.0
  0
LINE
  5
9812
330
978C
100
AcDbEntity
  8
1
  6
Continuous
100
AcDbLine
 10
247.1851589999999
 20
85.57364699999999
 30
0.0
 11
247.1851589999999
 21
47.57365
 31
0.0
  0
LINE
  5
9813
330
978C
100
AcDbEntity
  8
4
  6
CENTER
100
AcDbLine
 10
252.871117
 20
66.57364699999999
 30
0.0
 11
217.3427669999999
 21
66.57364699999999
 31
0.0
  0
LINE
  5
9814
330
978C
100
AcDbEntity
  8
1
  6
Continuous
100
AcDbLine
 10
244.185159
 20
85.57364699999999
 30
0.0
 11
244.185159
 21
47.57365
 31
0.0
  0
LINE
  5
9815
330
978C
100
AcDbEntity
  8
1
  6
Continuous
100
AcDbLine
 10
226.185159
 20
85.57364699999999
 30
0.0
 11
226.185159
 21
47.57365
 31
0.0
  0
LINE
  5
9816
330
978C
100
AcDbEntity
  8
1
  6
Continuous
100
AcDbLine
 10
245.7851649999998
 20
78.523651
 30
0.0
 11
245.7851649999998
 21
54.62365
 31
0.0
  0
LINE
  5
9817
330
978C
100
AcDbEntity
  8
1
  6
Continuous
100
AcDbLine
 10
224.585168
 20
78.523651
 30
0.0
 11
224.585168
 21
54.62365
 31
0.0
  0
LINE
  5
9818
330
978C
100
AcDbEntity
  8
1
  6
Continuous
100
AcDbLine
 10
245.7851649999998
 20
78.523651
 30
0.0
 11
244.185159
 21
78.523651
 31
0.0
  0
LINE
  5
9819
330
978C
100
AcDbEntity
  8
1
  6
Continuous
100
AcDbLine
 10
245.7851649999998
 20
54.62365
 30
0.0
 11
244.185159
 21
54.62365
 31
0.0
  0
LINE
  5
981A
330
978C
100
AcDbEntity
  8
1
  6
Continuous
100
AcDbLine
 10
226.185159
 20
54.62365
 30
0.0
 11
224.585168
 21
54.62365
 31
0.0
  0
LINE
  5
981B
330
978C
100
AcDbEntity
  8
1
  6
Continuous
100
AcDbLine
 10
226.185159
 20
78.523651
 30
0.0
 11
224.585168
 21
78.523651
 31
0.0
  0
LINE
  5
981C
330
978C
100
AcDbEntity
  8
1
  6
Continuous
100
AcDbLine
 10
245.7851649999998
 20
61.57364699999998
 30
0.0
 11
244.185159
 21
61.57364699999998
 31
0.0
  0
LINE
  5
981D
330
978C
100
AcDbEntity
  8
1
  6
Continuous
100
AcDbLine
 10
245.7851649999998
 20
71.57364699999998
 30
0.0
 11
244.185159
 21
71.57364699999998
 31
0.0
  0
LINE
  5
981E
330
978C
100
AcDbEntity
  8
1
  6
Continuous
100
AcDbLine
 10
226.185159
 20
61.57364699999998
 30
0.0
 11
224.585168
 21
61.57364699999998
 31
0.0
  0
LINE
  5
981F
330
978C
100
AcDbEntity
  8
1
  6
Continuous
100
AcDbLine
 10
226.185159
 20
71.57364699999998
 30
0.0
 11
224.585168
 21
71.57364699999998
 31
0.0
  0
LINE
  5
9820
330
978C
100
AcDbEntity
  8
1
  6
Continuous
100
AcDbLine
 10
236.185159
 20
69.57364699999999
 30
0.0
 11
236.185159
 21
65.57364699999999
 31
0.0
  0
LINE
  5
9821
330
978C
100
AcDbEntity
  8
1
  6
Continuous
100
AcDbLine
 10
234.185159
 20
67.573647
 30
0.0
 11
234.185159
 21
63.745224
 31
0.0
  0
LINE
  5
9822
330
978C
100
AcDbEntity
  8
1
  6
Continuous
100
AcDbLine
 10
234.185159
 20
58.57364699999997
 30
0.0
 11
236.185159
 21
58.57364699999997
 31
0.0
  0
LINE
  5
9823
330
978C
100
AcDbEntity
  8
1
  6
Continuous
100
AcDbLine
 10
229.528298
 20
72.23050699999999
 30
0.0
 11
230.235406
 21
71.523399
 31
0.0
  0
LINE
  5
9824
330
978C
100
AcDbEntity
  8
1
  6
Continuous
100
AcDbLine
 10
232.003182
 20
69.75563100000001
 30
0.0
 11
233.063836
 21
68.694969
 31
0.0
  0
LINE
  5
9825
330
978C
100
AcDbEntity
  8
1
  6
Continuous
100
AcDbLine
 10
236.185159
 20
65.57364699999999
 30
0.0
 11
238.013589
 21
65.57364699999999
 31
0.0
  0
LINE
  5
9826
330
978C
100
AcDbEntity
  8
1
  6
Continuous
100
AcDbLine
 10
236.185159
 20
63.745224
 30
0.0
 11
236.185159
 21
58.57364699999997
 31
0.0
  0
LINE
  5
9827
330
978C
100
AcDbEntity
  8
1
  6
Continuous
100
AcDbLine
 10
232.3567279999998
 20
67.573647
 30
0.0
 11
234.185159
 21
67.573647
 31
0.0
  0
LINE
  5
9828
330
978C
100
AcDbEntity
  8
1
  6
Continuous
100
AcDbLine
 10
234.185159
 20
63.745224
 30
0.0
 11
234.185159
 21
58.57364699999997
 31
0.0
  0
LINE
  5
9829
330
978C
100
AcDbEntity
  8
1
  6
Continuous
100
AcDbLine
 10
101.185159
 20
153.573654
 30
0.0
 11
121.185159
 21
153.573654
 31
0.0
  0
LINE
  5
982A
330
978C
100
AcDbEntity
  8
2
  6
Continuous
100
AcDbLine
 10
108.185159
 20
154.115143
 30
0.0
 11
121.185159
 21
154.115143
 31
0.0
  0
LINE
  5
982B
330
978C
100
AcDbEntity
  8
1
  6
Continuous
100
AcDbLine
 10
101.185159
 20
159.573654
 30
0.0
 11
121.185159
 21
159.573654
 31
0.0
  0
LINE
  5
982C
330
978C
100
AcDbEntity
  8
1
  6
Continuous
100
AcDbLine
 10
103.6851589999999
 20
155.573654
 30
0.0
 11
121.185159
 21
155.573654
 31
0.0
  0
LINE
  5
982D
330
978C
100
AcDbEntity
  8
1
  6
Continuous
100
AcDbLine
 10
106.185159
 20
153.573654
 30
0.0
 11
106.185159
 21
155.573654
 31
0.0
  0
LINE
  5
982E
330
978C
100
AcDbEntity
  8
1
  6
Continuous
100
AcDbLine
 10
108.185159
 20
153.573654
 30
0.0
 11
108.185159
 21
155.573654
 31
0.0
  0
LINE
  5
982F
330
978C
100
AcDbEntity
  8
2
  6
Continuous
100
AcDbLine
 10
107.2472539999999
 20
153.573654
 30
0.0
 11
108.185159
 21
154.115143
 31
0.0
  0
LINE
  5
9830
330
978C
100
AcDbEntity
  8
1
  6
Continuous
100
AcDbLine
 10
85.185159
 20
167.573654
 30
0.0
 11
85.185159
 21
145.573654
 31
0.0
  0
LINE
  5
9831
330
978C
100
AcDbEntity
  8
1
  6
Continuous
100
AcDbLine
 10
86.185159
 20
168.573654
 30
0.0
 11
86.185159
 21
144.573654
 31
0.0
  0
LINE
  5
9832
330
978C
100
AcDbEntity
  8
1
  6
Continuous
100
AcDbLine
 10
90.18515900000002
 20
168.573654
 30
0.0
 11
90.18515900000002
 21
144.573654
 31
0.0
  0
LINE
  5
9833
330
978C
100
AcDbEntity
  8
1
  6
Continuous
100
AcDbLine
 10
140.1851589999999
 20
166.173645
 30
0.0
 11
140.1851589999999
 21
146.9736479999999
 31
0.0
  0
LINE
  5
9834
330
978C
100
AcDbEntity
  8
1
  6
Continuous
100
AcDbLine
 10
141.7851649999998
 20
165.573654
 30
0.0
 11
141.7851649999998
 21
147.5736539999998
 31
0.0
  0
LINE
  5
9835
330
978C
100
AcDbEntity
  8
1
  6
Continuous
100
AcDbLine
 10
182.1851589999999
 20
167.173645
 30
0.0
 11
182.1851589999999
 21
165.573654
 31
0.0
  0
LINE
  5
9836
330
978C
100
AcDbEntity
  8
4
  6
CENTER
100
AcDbLine
 10
135.581963
 20
156.573654
 30
0.0
 11
187.502724
 21
156.573654
 31
0.0
  0
LINE
  5
9837
330
978C
100
AcDbEntity
  8
4
  6
CENTER
100
AcDbLine
 10
79.49920699999998
 20
156.573654
 30
0.0
 11
125.369546
 21
156.573654
 31
0.0
  0
LINE
  5
9838
330
978C
100
AcDbEntity
  8
1
  6
Continuous
100
AcDbLine
 10
86.185159
 20
168.573654
 30
0.0
 11
90.18515900000002
 21
168.573654
 31
0.0
  0
LINE
  5
9839
330
978C
100
AcDbEntity
  8
1
  6
Continuous
100
AcDbLine
 10
86.185159
 20
144.573654
 30
0.0
 11
90.18515900000002
 21
144.573654
 31
0.0
  0
LINE
  5
983A
330
978C
100
AcDbEntity
  8
1
  6
Continuous
100
AcDbLine
 10
86.185159
 20
168.573654
 30
0.0
 11
85.185159
 21
167.573654
 31
0.0
  0
LINE
  5
983B
330
978C
100
AcDbEntity
  8
1
  6
Continuous
100
AcDbLine
 10
85.185159
 20
145.573654
 30
0.0
 11
86.18516600000004
 21
144.573654
 31
0.0
  0
LINE
  5
983C
330
978C
100
AcDbEntity
  8
1
  6
Continuous
100
AcDbLine
 10
140.1851589999999
 20
165.573654
 30
0.0
 11
182.1851589999999
 21
165.573654
 31
0.0
  0
LINE
  5
983D
330
978C
100
AcDbEntity
  8
1
  6
Continuous
100
AcDbLine
 10
140.1851589999999
 20
147.5736539999998
 30
0.0
 11
182.1851589999999
 21
147.5736539999998
 31
0.0
  0
LINE
  5
983E
330
978C
100
AcDbEntity
  8
1
  6
Continuous
100
AcDbLine
 10
141.1851589999999
 20
167.173645
 30
0.0
 11
182.1851589999999
 21
167.173645
 31
0.0
  0
LINE
  5
983F
330
978C
100
AcDbEntity
  8
1
  6
Continuous
100
AcDbLine
 10
141.1851589999999
 20
145.9736479999999
 30
0.0
 11
182.1851589999999
 21
145.9736479999999
 31
0.0
  0
LINE
  5
9840
330
978C
100
AcDbEntity
  8
1
  6
Continuous
100
AcDbLine
 10
182.1851589999999
 20
147.5736539999998
 30
0.0
 11
182.1851589999999
 21
145.9736479999999
 31
0.0
  0
LINE
  5
9841
330
978C
100
AcDbEntity
  8
1
  6
Continuous
100
AcDbLine
 10
170.1851589999999
 20
147.5736539999998
 30
0.0
 11
170.1851589999999
 21
145.9736479999999
 31
0.0
  0
LINE
  5
9842
330
978C
100
AcDbEntity
  8
1
  6
Continuous
100
AcDbLine
 10
170.1851589999999
 20
167.173645
 30
0.0
 11
170.1851589999999
 21
165.573654
 31
0.0
  0
LINE
  5
9843
330
978C
100
AcDbEntity
  8
2
  6
Continuous
100
AcDbLine
 10
90.18515900000002
 20
79.34414699999997
 30
0.0
 11
95.18515900000002
 21
79.34414699999997
 31
0.0
  0
LINE
  5
9844
330
978C
100
AcDbEntity
  8
1
  6
Continuous
100
AcDbLine
 10
95.18515900000002
 20
82.07364699999997
 30
0.0
 11
95.18515900000002
 21
79.07364699999998
 31
0.0
  0
LINE
  5
9845
330
978C
100
AcDbEntity
  8
1
  6
Continuous
100
AcDbLine
 10
90.18515900000002
 20
82.07364699999997
 30
0.0
 11
95.18515900000002
 21
82.07364699999997
 31
0.0
  0
LINE
  5
9846
330
978C
100
AcDbEntity
  8
1
  6
Continuous
100
AcDbLine
 10
90.18515900000002
 20
79.07364699999998
 30
0.0
 11
95.18515900000002
 21
79.07364699999998
 31
0.0
  0
LINE
  5
9847
330
978C
100
AcDbEntity
  8
2
  6
Continuous
100
AcDbLine
 10
90.18515900000002
 20
81.80315400000003
 30
0.0
 11
95.18515900000002
 21
81.80315400000003
 31
0.0
  0
LINE
  5
9848
330
978C
100
AcDbEntity
  8
1
  6
Continuous
100
AcDbLine
 10
99.18515900000002
 20
71.07364699999997
 30
0.0
 11
99.18515900000002
 21
58.57364699999997
 31
0.0
  0
LINE
  5
9849
330
978C
100
AcDbEntity
  8
1
  6
Continuous
100
AcDbLine
 10
101.185159
 20
74.57364699999998
 30
0.0
 11
101.185159
 21
69.57364699999999
 31
0.0
  0
LINE
  5
984A
330
978C
100
AcDbEntity
  8
1
  6
Continuous
100
AcDbLine
 10
90.18515900000002
 20
58.57364699999997
 30
0.0
 11
101.185159
 21
58.57364699999997
 31
0.0
  0
LINE
  5
984B
330
978C
100
AcDbEntity
  8
1
  6
Continuous
100
AcDbLine
 10
90.18515900000002
 20
74.57364699999998
 30
0.0
 11
101.185159
 21
74.57364699999998
 31
0.0
  0
LINE
  5
984C
330
978C
100
AcDbEntity
  8
1
  6
Continuous
100
AcDbLine
 10
121.185159
 20
69.57364699999999
 30
0.0
 11
121.185159
 21
63.57364699999997
 31
0.0
  0
LINE
  5
984D
330
978C
100
AcDbEntity
  8
1
  6
Continuous
100
AcDbLine
 10
103.6851589999999
 20
67.573647
 30
0.0
 11
103.6851589999999
 21
63.57364699999997
 31
0.0
  0
LINE
  5
984E
330
978C
100
AcDbEntity
  8
1
  6
Continuous
100
AcDbLine
 10
99.18515900000002
 20
69.57364699999999
 30
0.0
 11
121.185159
 21
69.57364699999999
 31
0.0
  0
LINE
  5
984F
330
978C
100
AcDbEntity
  8
2
  6
Continuous
100
AcDbLine
 10
108.185159
 20
69.03215
 30
0.0
 11
121.185159
 21
69.03215
 31
0.0
  0
LINE
  5
9850
330
978C
100
AcDbEntity
  8
1
  6
Continuous
100
AcDbLine
 10
99.18515900000002
 20
63.57364699999997
 30
0.0
 11
121.185159
 21
63.57364699999997
 31
0.0
  0
LINE
  5
9851
330
978C
100
AcDbEntity
  8
1
  6
Continuous
100
AcDbLine
 10
103.6851589999999
 20
67.573647
 30
0.0
 11
121.185159
 21
67.573647
 31
0.0
  0
LINE
  5
9852
330
978C
100
AcDbEntity
  8
1
  6
Continuous
100
AcDbLine
 10
106.185159
 20
69.57364699999999
 30
0.0
 11
106.185159
 21
67.573647
 31
0.0
  0
LINE
  5
9853
330
978C
100
AcDbEntity
  8
1
  6
Continuous
100
AcDbLine
 10
108.185159
 20
69.57364699999999
 30
0.0
 11
108.185159
 21
67.573647
 31
0.0
  0
LINE
  5
9854
330
978C
100
AcDbEntity
  8
2
  6
Continuous
100
AcDbLine
 10
107.2472539999999
 20
69.573654
 30
0.0
 11
108.185159
 21
69.03215
 31
0.0
  0
LINE
  5
9855
330
978C
100
AcDbEntity
  8
1
  6
Continuous
100
AcDbLine
 10
95.18515900000002
 20
71.523399
 30
0.0
 11
101.185159
 21
71.523399
 31
0.0
  0
LINE
  5
9856
330
978C
100
AcDbEntity
  8
1
  6
Continuous
100
AcDbLine
 10
95.18515900000002
 20
72.23050699999999
 30
0.0
 11
101.185159
 21
72.23050699999999
 31
0.0
  0
LINE
  5
9857
330
978C
100
AcDbEntity
  8
1
  6
Continuous
100
AcDbLine
 10
95.18515900000002
 20
59.645447
 30
0.0
 11
99.18515900000002
 21
59.645447
 31
0.0
  0
LINE
  5
9858
330
978C
100
AcDbEntity
  8
1
  6
Continuous
100
AcDbLine
 10
95.18515900000002
 20
58.636398
 30
0.0
 11
99.18515900000002
 21
58.636398
 31
0.0
  0
LINE
  5
9859
330
978C
100
AcDbEntity
  8
1
  6
Continuous
100
AcDbLine
 10
95.18515900000002
 20
72.23050699999999
 30
0.0
 11
95.18515900000002
 21
58.636398
 31
0.0
  0
LINE
  5
985A
330
978C
100
AcDbEntity
  8
1
  6
Continuous
100
AcDbLine
 10
95.18515900000002
 20
71.07364699999997
 30
0.0
 11
99.18515900000002
 21
71.07364699999997
 31
0.0
  0
LINE
  5
985B
330
978C
100
AcDbEntity
  8
1
  6
Continuous
100
AcDbLine
 10
95.18515900000002
 20
62.07364699999999
 30
0.0
 11
99.18515900000002
 21
62.07364699999999
 31
0.0
  0
LINE
  5
985C
330
978C
100
AcDbEntity
  8
1
  6
Continuous
100
AcDbLine
 10
101.185159
 20
63.57364699999997
 30
0.0
 11
101.185159
 21
58.57364699999997
 31
0.0
  0
LINE
  5
985D
330
978C
100
AcDbEntity
  8
1
  6
Continuous
100
AcDbLine
 10
95.18515900000002
 20
150.9167939999999
 30
0.0
 11
95.18515900000002
 21
148.5736539999998
 31
0.0
  0
LINE
  5
985E
330
978C
100
AcDbEntity
  8
1
  6
Continuous
100
AcDbLine
 10
95.18515900000002
 20
150.9167939999999
 30
0.0
 11
101.185159
 21
150.9167939999999
 31
0.0
  0
LINE
  5
985F
330
978C
100
AcDbEntity
  8
4
  6
CENTER
100
AcDbLine
 10
82.36821799999999
 20
80.57364699999999
 30
0.0
 11
97.953942
 21
80.57364699999999
 31
0.0
  0
LINE
  5
9860
330
978C
100
AcDbEntity
  8
4
  6
CENTER
100
AcDbLine
 10
82.36821799999999
 20
52.573647
 30
0.0
 11
98.066346
 21
52.573647
 31
0.0
  0
LINE
  5
9861
330
978C
100
AcDbEntity
  8
1
  6
Continuous
100
AcDbLine
 10
85.185159
 20
145.573654
 30
0.0
 11
90.18515900000002
 21
145.573654
 31
0.0
  0
LINE
  5
9862
330
978C
100
AcDbEntity
  8
1
  6
Continuous
100
AcDbLine
 10
85.185159
 20
167.573654
 30
0.0
 11
90.18515900000002
 21
167.573654
 31
0.0
  0
LINE
  5
9863
330
978C
100
AcDbEntity
  8
1
  6
Continuous
100
AcDbLine
 10
310.1851589999998
 20
90.57364699999999
 30
0.0
 11
310.1851589999998
 21
79.57364699999998
 31
0.0
  0
LINE
  5
9864
330
978C
100
AcDbEntity
  8
4
  6
CENTER
100
AcDbLine
 10
306.944924
 20
66.57364699999999
 30
0.0
 11
336.906289
 21
66.57364699999999
 31
0.0
  0
LINE
  5
9865
330
978C
100
AcDbEntity
  8
1
  6
Continuous
100
AcDbLine
 10
332.6851589999999
 20
90.57364699999999
 30
0.0
 11
332.6851589999999
 21
79.57364699999998
 31
0.0
  0
LINE
  5
9866
330
978C
100
AcDbEntity
  8
4
  6
CENTER
100
AcDbLine
 10
325.185159
 20
73.17859699999998
 30
0.0
 11
325.185159
 21
59.61835500000001
 31
0.0
  0
LINE
  5
9867
330
978C
100
AcDbEntity
  8
1
  6
Continuous
100
AcDbLine
 10
311.185159
 20
91.573647
 30
0.0
 11
331.685159
 21
91.573647
 31
0.0
  0
LINE
  5
9868
330
978C
100
AcDbEntity
  8
1
  6
Continuous
100
AcDbLine
 10
311.185159
 20
41.57365
 30
0.0
 11
331.685159
 21
41.57365
 31
0.0
  0
LINE
  5
9869
330
978C
100
AcDbEntity
  8
4
  6
CENTER
100
AcDbLine
 10
383.857949
 20
66.57364699999999
 30
0.0
 11
430.9923179999998
 21
66.57364699999999
 31
0.0
  0
LINE
  5
986A
330
978C
100
AcDbEntity
  8
1
  6
Continuous
100
AcDbLine
 10
311.185159
 20
78.57364699999997
 30
0.0
 11
322.485146
 21
78.57364699999997
 31
0.0
  0
LINE
  5
986B
330
978C
100
AcDbEntity
  8
1
  6
Continuous
100
AcDbLine
 10
311.185159
 20
54.57364699999999
 30
0.0
 11
322.485146
 21
54.57364699999999
 31
0.0
  0
LINE
  5
986C
330
978C
100
AcDbEntity
  8
1
  6
Continuous
100
AcDbLine
 10
310.1851589999998
 20
53.57364699999997
 30
0.0
 11
310.1851589999998
 21
42.57365
 31
0.0
  0
LINE
  5
986D
330
978C
100
AcDbEntity
  8
1
  6
Continuous
100
AcDbLine
 10
332.6851589999999
 20
53.57364699999997
 30
0.0
 11
332.6851589999999
 21
42.57365
 31
0.0
  0
LINE
  5
986E
330
978C
100
AcDbEntity
  8
1
  6
Continuous
100
AcDbLine
 10
332.185159
 20
78.707626
 30
0.0
 11
332.185159
 21
54.439674
 31
0.0
  0
LINE
  5
986F
330
978C
100
AcDbEntity
  8
1
  6
Continuous
100
AcDbLine
 10
318.1851589999999
 20
78.57364699999997
 30
0.0
 11
318.1851589999999
 21
54.57364699999999
 31
0.0
  0
LINE
  5
9870
330
978C
100
AcDbEntity
  8
1
  6
Continuous
100
AcDbLine
 10
322.485146
 20
82.57364699999998
 30
0.0
 11
328.285165
 21
82.57364699999998
 31
0.0
  0
LINE
  5
9871
330
978C
100
AcDbEntity
  8
1
  6
Continuous
100
AcDbLine
 10
328.285165
 20
82.57364699999998
 30
0.0
 11
328.285165
 21
78.57364699999997
 31
0.0
  0
LINE
  5
9872
330
978C
100
AcDbEntity
  8
1
  6
Continuous
100
AcDbLine
 10
322.485146
 20
82.57364699999998
 30
0.0
 11
322.485146
 21
78.57364699999997
 31
0.0
  0
LINE
  5
9873
330
978C
100
AcDbEntity
  8
1
  6
Continuous
100
AcDbLine
 10
328.285165
 20
78.57364699999997
 30
0.0
 11
331.685159
 21
78.57364699999997
 31
0.0
  0
LINE
  5
9874
330
978C
100
AcDbEntity
  8
1
  6
Continuous
100
AcDbLine
 10
328.285165
 20
50.57365
 30
0.0
 11
328.285165
 21
54.57364699999999
 31
0.0
  0
LINE
  5
9875
330
978C
100
AcDbEntity
  8
1
  6
Continuous
100
AcDbLine
 10
322.485146
 20
50.57365
 30
0.0
 11
328.285165
 21
50.57365
 31
0.0
  0
LINE
  5
9876
330
978C
100
AcDbEntity
  8
1
  6
Continuous
100
AcDbLine
 10
322.485146
 20
50.57365
 30
0.0
 11
322.485146
 21
54.57364699999999
 31
0.0
  0
LINE
  5
9877
330
978C
100
AcDbEntity
  8
1
  6
Continuous
100
AcDbLine
 10
328.285165
 20
54.57364699999999
 30
0.0
 11
331.685159
 21
54.57364699999999
 31
0.0
  0
LINE
  5
9878
330
978C
100
AcDbEntity
  8
4
  6
CENTER
100
AcDbLine
 10
307.492989
 20
86.57364699999998
 30
0.0
 11
336.1755449999999
 21
86.57364699999998
 31
0.0
  0
LINE
  5
9879
330
978C
100
AcDbEntity
  8
4
  6
CENTER
100
AcDbLine
 10
307.127602
 20
46.57365
 30
0.0
 11
336.3582239999999
 21
46.57365
 31
0.0
  0
LINE
  5
987A
330
978C
100
AcDbEntity
  8
1
  6
Continuous
100
AcDbLine
 10
295.185159
 20
91.573647
 30
0.0
 11
295.185159
 21
41.57365
 31
0.0
  0
LINE
  5
987B
330
978C
100
AcDbEntity
  8
1
  6
Continuous
100
AcDbLine
 10
297.1851589999999
 20
91.573647
 30
0.0
 11
297.1851589999999
 21
41.57365
 31
0.0
  0
LINE
  5
987C
330
978C
100
AcDbEntity
  8
1
  6
Continuous
100
AcDbLine
 10
295.185159
 20
41.57365
 30
0.0
 11
297.1851589999999
 21
41.57365
 31
0.0
  0
LINE
  5
987D
330
978C
100
AcDbEntity
  8
1
  6
Continuous
100
AcDbLine
 10
295.185159
 20
91.573647
 30
0.0
 11
297.1851589999999
 21
91.573647
 31
0.0
  0
LINE
  5
987E
330
978C
100
AcDbEntity
  8
4
  6
CENTER
100
AcDbLine
 10
291.538094
 20
66.57364699999999
 30
0.0
 11
300.768594
 21
66.57364699999999
 31
0.0
  0
LINE
  5
987F
330
978C
100
AcDbEntity
  8
4
  6
CENTER
100
AcDbLine
 10
292.185159
 20
86.57364699999998
 30
0.0
 11
300.185159
 21
86.57364699999998
 31
0.0
  0
LINE
  5
9880
330
978C
100
AcDbEntity
  8
4
  6
CENTER
100
AcDbLine
 10
292.185159
 20
46.57365
 30
0.0
 11
300.185159
 21
46.57365
 31
0.0
  0
LINE
  5
9881
330
978C
100
AcDbEntity
  8
4
  6
CENTER
100
AcDbLine
 10
292.185159
 20
80.57364699999999
 30
0.0
 11
300.185159
 21
80.57364699999999
 31
0.0
  0
LINE
  5
9882
330
978C
100
AcDbEntity
  8
4
  6
CENTER
100
AcDbLine
 10
292.185159
 20
52.573647
 30
0.0
 11
300.185159
 21
52.573647
 31
0.0
  0
LINE
  5
9883
330
978C
100
AcDbEntity
  8
1
  6
Continuous
100
AcDbLine
 10
371.2847369999999
 20
44.574364
 30
0.0
 11
371.67756
 21
44.801155
 31
0.0
  0
LINE
  5
9884
330
978C
100
AcDbEntity
  8
1
  6
Continuous
100
AcDbLine
 10
371.2852869999999
 20
48.57375300000001
 30
0.0
 11
371.6795129999999
 21
48.346153
 31
0.0
  0
LINE
  5
9885
330
978C
100
AcDbEntity
  8
1
  6
Continuous
100
AcDbLine
 10
371.285165
 20
44.57365
 30
0.0
 11
371.285165
 21
48.573628
 31
0.0
  0
LINE
  5
9886
330
978C
100
AcDbEntity
  8
1
  6
Continuous
100
AcDbLine
 10
342.685159
 20
44.57365
 30
0.0
 11
342.685159
 21
48.573628
 31
0.0
  0
LINE
  5
9887
330
978C
100
AcDbEntity
  8
1
  6
Continuous
100
AcDbLine
 10
372.6851589999998
 20
41.57365
 30
0.0
 11
372.6851589999998
 21
51.57364699999998
 31
0.0
  0
LINE
  5
9888
330
978C
100
AcDbEntity
  8
1
  6
Continuous
100
AcDbLine
 10
373.804574
 20
43.17184799999998
 30
0.0
 11
372.6851889999999
 21
43.073917
 31
0.0
  0
LINE
  5
9889
330
978C
100
AcDbEntity
  8
1
  6
Continuous
100
AcDbLine
 10
373.8045129999999
 20
49.975994
 30
0.0
 11
372.685097
 21
50.073933
 31
0.0
  0
LINE
  5
988A
330
978C
100
AcDbEntity
  8
2
  6
Continuous
100
AcDbLine
 10
371.285165
 20
48.194645
 30
0.0
 11
342.685159
 21
48.194645
 31
0.0
  0
LINE
  5
988B
330
978C
100
AcDbEntity
  8
2
  6
Continuous
100
AcDbLine
 10
371.285165
 20
44.95264099999999
 30
0.0
 11
342.685159
 21
44.95264099999999
 31
0.0
  0
LINE
  5
988C
330
978C
100
AcDbEntity
  8
1
  6
Continuous
100
AcDbLine
 10
371.2851339999998
 20
44.573662
 30
0.0
 11
342.685159
 21
44.573662
 31
0.0
  0
LINE
  5
988D
330
978C
100
AcDbEntity
  8
1
  6
Continuous
100
AcDbLine
 10
371.2851339999998
 20
48.57365
 30
0.0
 11
342.685159
 21
48.57365
 31
0.0
  0
LINE
  5
988E
330
978C
100
AcDbEntity
  8
4
  6
CENTER
100
AcDbLine
 10
376.458504
 20
46.57365
 30
0.0
 11
341.0096209999999
 21
46.57365
 31
0.0
  0
LINE
  5
988F
330
978C
100
AcDbEntity
  8
1
  6
Continuous
100
AcDbLine
 10
371.885171
 20
48.346149
 30
0.0
 11
371.6795129999999
 21
48.346149
 31
0.0
  0
LINE
  5
9890
330
978C
100
AcDbEntity
  8
1
  6
Continuous
100
AcDbLine
 10
371.885171
 20
44.80113999999999
 30
0.0
 11
371.677529
 21
44.80113999999999
 31
0.0
  0
LINE
  5
9891
330
978C
100
AcDbEntity
  8
2
  6
Continuous
100
AcDbLine
 10
371.6135339999998
 20
48.384232
 30
0.0
 11
371.2851339999998
 21
48.194641
 31
0.0
  0
LINE
  5
9892
330
978C
100
AcDbEntity
  8
2
  6
Continuous
100
AcDbLine
 10
371.6125569999999
 20
44.763626
 30
0.0
 11
371.285165
 21
44.952637
 31
0.0
  0
LINE
  5
9893
330
978C
100
AcDbEntity
  8
1
  6
Continuous
100
AcDbLine
 10
395.1858599999998
 20
109.2474209999999
 30
0.0
 11
395.4126669999998
 21
108.8546139999998
 31
0.0
  0
LINE
  5
9894
330
978C
100
AcDbEntity
  8
1
  6
Continuous
100
AcDbLine
 10
399.18525
 20
109.2468489999999
 30
0.0
 11
398.95765
 21
108.8526309999999
 31
0.0
  0
LINE
  5
9895
330
978C
100
AcDbEntity
  8
1
  6
Continuous
100
AcDbLine
 10
395.185159
 20
109.2470019999999
 30
0.0
 11
399.1851279999999
 21
109.2470019999999
 31
0.0
  0
LINE
  5
9896
330
978C
100
AcDbEntity
  8
1
  6
Continuous
100
AcDbLine
 10
395.185159
 20
137.847
 30
0.0
 11
399.1851279999999
 21
137.847
 31
0.0
  0
LINE
  5
9897
330
978C
100
AcDbEntity
  8
1
  6
Continuous
100
AcDbLine
 10
392.185159
 20
107.846993
 30
0.0
 11
402.1851589999998
 21
107.846993
 31
0.0
  0
LINE
  5
9898
330
978C
100
AcDbEntity
  8
1
  6
Continuous
100
AcDbLine
 10
393.783364
 20
106.7275999999999
 30
0.0
 11
393.685433
 21
107.8469769999999
 31
0.0
  0
LINE
  5
9899
330
978C
100
AcDbEntity
  8
1
  6
Continuous
100
AcDbLine
 10
400.5875019999998
 20
106.7276379999998
 30
0.0
 11
400.685433
 21
107.847054
 31
0.0
  0
LINE
  5
989A
330
978C
100
AcDbEntity
  8
2
  6
Continuous
100
AcDbLine
 10
398.8061609999999
 20
109.2470019999999
 30
0.0
 11
398.8061609999999
 21
137.847
 31
0.0
  0
LINE
  5
989B
330
978C
100
AcDbEntity
  8
2
  6
Continuous
100
AcDbLine
 10
395.5641560000001
 20
109.2470019999999
 30
0.0
 11
395.5641560000001
 21
137.847
 31
0.0
  0
LINE
  5
989C
330
978C
100
AcDbEntity
  8
1
  6
Continuous
100
AcDbLine
 10
395.185159
 20
109.247032
 30
0.0
 11
395.185159
 21
137.847
 31
0.0
  0
LINE
  5
989D
330
978C
100
AcDbEntity
  8
1
  6
Continuous
100
AcDbLine
 10
399.1851589999998
 20
109.247032
 30
0.0
 11
399.1851589999998
 21
137.847
 31
0.0
  0
LINE
  5
989E
330
978C
100
AcDbEntity
  8
4
  6
CENTER
100
AcDbLine
 10
397.1851589999998
 20
104.0736469999998
 30
0.0
 11
397.1851589999998
 21
139.522537
 31
0.0
  0
LINE
  5
989F
330
978C
100
AcDbEntity
  8
1
  6
Continuous
100
AcDbLine
 10
398.95765
 20
108.646996
 30
0.0
 11
398.95765
 21
108.8526539999999
 31
0.0
  0
LINE
  5
98A0
330
978C
100
AcDbEntity
  8
1
  6
Continuous
100
AcDbLine
 10
395.412637
 20
108.646996
 30
0.0
 11
395.412637
 21
108.854622
 31
0.0
  0
LINE
  5
98A1
330
978C
100
AcDbEntity
  8
2
  6
Continuous
100
AcDbLine
 10
398.9957359999999
 20
108.918633
 30
0.0
 11
398.8061609999999
 21
109.2470019999999
 31
0.0
  0
LINE
  5
98A2
330
978C
100
AcDbEntity
  8
2
  6
Continuous
100
AcDbLine
 10
395.3751299999998
 20
108.9196089999999
 30
0.0
 11
395.5641560000001
 21
109.247009
 31
0.0
  0
LINE
  5
98A3
330
978C
100
AcDbEntity
  8
1
  6
Continuous
100
AcDbLine
 10
372.6851589999998
 20
51.57364699999998
 30
0.0
 11
371.885171
 21
51.57364699999998
 31
0.0
  0
LINE
  5
98A4
330
978C
100
AcDbEntity
  8
1
  6
Continuous
100
AcDbLine
 10
372.6851589999998
 20
41.57365
 30
0.0
 11
371.885171
 21
41.57365
 31
0.0
  0
LINE
  5
98A5
330
978C
100
AcDbEntity
  8
1
  6
Continuous
100
AcDbLine
 10
371.885171
 20
41.57365
 30
0.0
 11
371.885171
 21
51.57364699999998
 31
0.0
  0
LINE
  5
98A6
330
978C
100
AcDbEntity
  8
1
  6
Continuous
100
AcDbLine
 10
392.185159
 20
107.846993
 30
0.0
 11
392.185159
 21
108.646996
 31
0.0
  0
LINE
  5
98A7
330
978C
100
AcDbEntity
  8
1
  6
Continuous
100
AcDbLine
 10
402.1851589999998
 20
107.846993
 30
0.0
 11
402.1851589999998
 21
108.646996
 31
0.0
  0
LINE
  5
98A8
330
978C
100
AcDbEntity
  8
1
  6
Continuous
100
AcDbLine
 10
392.185159
 20
108.646996
 30
0.0
 11
402.1851589999998
 21
108.646996
 31
0.0
  0
LINE
  5
98A9
330
978C
100
AcDbEntity
  8
1
  6
Continuous
100
AcDbLine
 10
387.1851589999998
 20
89.07364699999998
 30
0.0
 11
387.1851589999998
 21
81.07364699999996
 31
0.0
  0
LINE
  5
98AA
330
978C
100
AcDbEntity
  8
1
  6
Continuous
100
AcDbLine
 10
407.1851589999998
 20
89.07364699999998
 30
0.0
 11
407.1851589999998
 21
81.07364699999996
 31
0.0
  0
LINE
  5
98AB
330
978C
100
AcDbEntity
  8
1
  6
Continuous
100
AcDbLine
 10
425.185159
 20
86.57364699999998
 30
0.0
 11
425.185159
 21
46.57365
 31
0.0
  0
LINE
  5
98AC
330
978C
100
AcDbEntity
  8
1
  6
Continuous
100
AcDbLine
 10
389.685159
 20
41.57365
 30
0.0
 11
420.185159
 21
41.57365
 31
0.0
  0
LINE
  5
98AD
330
978C
100
AcDbEntity
  8
1
  6
Continuous
100
AcDbLine
 10
389.685159
 20
91.573647
 30
0.0
 11
420.185159
 21
91.573647
 31
0.0
  0
LINE
  5
98AE
330
978C
100
AcDbEntity
  8
1
  6
Continuous
100
AcDbLine
 10
389.685159
 20
78.57364699999997
 30
0.0
 11
404.685159
 21
78.57364699999997
 31
0.0
  0
LINE
  5
98AF
330
978C
100
AcDbEntity
  8
1
  6
Continuous
100
AcDbLine
 10
389.685159
 20
54.57364699999999
 30
0.0
 11
404.685159
 21
54.57364699999999
 31
0.0
  0
LINE
  5
98B0
330
978C
100
AcDbEntity
  8
1
  6
Continuous
100
AcDbLine
 10
387.1851589999998
 20
52.07364699999999
 30
0.0
 11
387.1851589999998
 21
44.07365
 31
0.0
  0
LINE
  5
98B1
330
978C
100
AcDbEntity
  8
1
  6
Continuous
100
AcDbLine
 10
407.1851589999998
 20
52.07364699999999
 30
0.0
 11
407.1851589999998
 21
44.07365
 31
0.0
  0
LINE
  5
98B2
330
978C
100
AcDbEntity
  8
1
  6
Continuous
100
AcDbLine
 10
397.1851589999998
 20
78.57364699999997
 30
0.0
 11
397.1851589999998
 21
54.57364699999999
 31
0.0
  0
LINE
  5
98B3
330
978C
100
AcDbEntity
  8
4
  6
CENTER
100
AcDbLine
 10
397.1851589999998
 20
54.08645599999999
 30
0.0
 11
397.1851589999998
 21
42.359207
 31
0.0
  0
LINE
  5
98B4
330
978C
100
AcDbEntity
  8
4
  6
CENTER
100
AcDbLine
 10
388.078835
 20
46.57365
 30
0.0
 11
406.184365
 21
46.57365
 31
0.0
  0
LINE
  5
98B5
330
978C
100
AcDbEntity
  8
1
  6
Continuous
100
AcDbLine
 10
392.435159
 20
49.07365
 30
0.0
 11
392.8550189999999
 21
49.07365
 31
0.0
  0
LINE
  5
98B6
330
978C
100
AcDbEntity
  8
1
  6
Continuous
100
AcDbLine
 10
392.435159
 20
44.07365
 30
0.0
 11
392.8550189999999
 21
44.07365
 31
0.0
  0
LINE
  5
98B7
330
978C
100
AcDbEntity
  8
1
  6
Continuous
100
AcDbLine
 10
392.435159
 20
84.07364699999998
 30
0.0
 11
392.8550189999999
 21
84.07364699999998
 31
0.0
  0
LINE
  5
98B8
330
978C
100
AcDbEntity
  8
1
  6
Continuous
100
AcDbLine
 10
392.435159
 20
89.07364699999998
 30
0.0
 11
392.8550189999999
 21
89.07364699999998
 31
0.0
  0
LINE
  5
98B9
330
978C
100
AcDbEntity
  8
4
  6
CENTER
100
AcDbLine
 10
397.1851589999998
 20
79.07537099999998
 30
0.0
 11
397.1851589999998
 21
90.916367
 31
0.0
  0
LINE
  5
98BA
330
978C
100
AcDbEntity
  8
4
  6
CENTER
100
AcDbLine
 10
388.078835
 20
86.57364699999998
 30
0.0
 11
406.184365
 21
86.57364699999998
 31
0.0
  0
LINE
  5
98BB
330
978C
100
AcDbEntity
  8
1
  6
Continuous
100
AcDbLine
 10
393.1851589999998
 20
78.57364699999997
 30
0.0
 11
393.1851589999998
 21
54.57364699999999
 31
0.0
  0
LINE
  5
98BC
330
978C
100
AcDbEntity
  8
4
  6
CENTER
100
AcDbLine
 10
395.6851589999999
 20
80.57364699999999
 30
0.0
 11
398.685159
 21
80.57364699999999
 31
0.0
  0
LINE
  5
98BD
330
978C
100
AcDbEntity
  8
4
  6
CENTER
100
AcDbLine
 10
395.6851589999999
 20
52.573647
 30
0.0
 11
398.685159
 21
52.573647
 31
0.0
  0
LINE
  5
98BE
330
978C
100
AcDbEntity
  8
1
  6
Continuous
100
AcDbLine
 10
401.5152979999998
 20
49.07365
 30
0.0
 11
401.935159
 21
49.07365
 31
0.0
  0
LINE
  5
98BF
330
978C
100
AcDbEntity
  8
1
  6
Continuous
100
AcDbLine
 10
401.5152979999998
 20
44.07365
 30
0.0
 11
401.935159
 21
44.07365
 31
0.0
  0
LINE
  5
98C0
330
978C
100
AcDbEntity
  8
1
  6
Continuous
100
AcDbLine
 10
401.5152979999998
 20
84.07364699999998
 30
0.0
 11
401.935159
 21
84.07364699999998
 31
0.0
  0
LINE
  5
98C1
330
978C
100
AcDbEntity
  8
1
  6
Continuous
100
AcDbLine
 10
401.5152979999998
 20
89.07364699999998
 30
0.0
 11
401.935159
 21
89.07364699999998
 31
0.0
  0
LINE
  5
98C2
330
978C
100
AcDbEntity
  8
1
  6
Continuous
100
AcDbLine
 10
397.856759
 20
45.90202
 30
0.0
 11
398.3635029999999
 21
46.13831
 31
0.0
  0
LINE
  5
98C3
330
978C
100
AcDbEntity
  8
1
  6
Continuous
100
AcDbLine
 10
398.3635029999999
 20
46.138302
 30
0.0
 11
399.242745
 21
46.153648
 31
0.0
  0
LINE
  5
98C4
330
978C
100
AcDbEntity
  8
1
  6
Continuous
100
AcDbLine
 10
398.3634729999998
 20
47.00900299999999
 30
0.0
 11
399.242745
 21
46.993656
 31
0.0
  0
LINE
  5
98C5
330
978C
100
AcDbEntity
  8
1
  6
Continuous
100
AcDbLine
 10
397.8567889999998
 20
47.245274
 30
0.0
 11
398.3635029999999
 21
47.008995
 31
0.0
  0
LINE
  5
98C6
330
978C
100
AcDbEntity
  8
1
  6
Continuous
100
AcDbLine
 10
396.513558
 20
47.245289
 30
0.0
 11
396.7498249999999
 21
47.751988
 31
0.0
  0
LINE
  5
98C7
330
978C
100
AcDbEntity
  8
1
  6
Continuous
100
AcDbLine
 10
396.749795
 20
47.751988
 30
0.0
 11
396.765145
 21
48.63122199999999
 31
0.0
  0
LINE
  5
98C8
330
978C
100
AcDbEntity
  8
1
  6
Continuous
100
AcDbLine
 10
397.620522
 20
47.751991
 30
0.0
 11
397.605172
 21
48.63122199999999
 31
0.0
  0
LINE
  5
98C9
330
978C
100
AcDbEntity
  8
1
  6
Continuous
100
AcDbLine
 10
397.8567889999998
 20
47.245274
 30
0.0
 11
397.620492
 21
47.75197999999998
 31
0.0
  0
LINE
  5
98CA
330
978C
100
AcDbEntity
  8
1
  6
Continuous
100
AcDbLine
 10
396.513558
 20
45.90202699999998
 30
0.0
 11
396.006814
 21
46.138317
 31
0.0
  0
LINE
  5
98CB
330
978C
100
AcDbEntity
  8
1
  6
Continuous
100
AcDbLine
 10
396.006844
 20
46.138302
 30
0.0
 11
395.1275719999999
 21
46.153648
 31
0.0
  0
LINE
  5
98CC
330
978C
100
AcDbEntity
  8
1
  6
Continuous
100
AcDbLine
 10
396.006814
 20
47.00899899999998
 30
0.0
 11
395.127602
 21
46.99365199999999
 31
0.0
  0
LINE
  5
98CD
330
978C
100
AcDbEntity
  8
1
  6
Continuous
100
AcDbLine
 10
396.5135279999998
 20
47.245274
 30
0.0
 11
396.006814
 21
47.008995
 31
0.0
  0
LINE
  5
98CE
330
978C
100
AcDbEntity
  8
1
  6
Continuous
100
AcDbLine
 10
397.8567889999998
 20
45.90201599999999
 30
0.0
 11
397.620522
 21
45.395313
 31
0.0
  0
LINE
  5
98CF
330
978C
100
AcDbEntity
  8
1
  6
Continuous
100
AcDbLine
 10
397.620522
 20
45.39530599999999
 30
0.0
 11
397.605172
 21
44.516083
 31
0.0
  0
LINE
  5
98D0
330
978C
100
AcDbEntity
  8
1
  6
Continuous
100
AcDbLine
 10
396.7498249999999
 20
45.395313
 30
0.0
 11
396.7651759999998
 21
44.516083
 31
0.0
  0
LINE
  5
98D1
330
978C
100
AcDbEntity
  8
1
  6
Continuous
100
AcDbLine
 10
396.5135279999998
 20
45.90202699999998
 30
0.0
 11
396.7498249999999
 21
45.395317
 31
0.0
  0
LINE
  5
98D2
330
978C
100
AcDbEntity
  8
1
  6
Continuous
100
AcDbLine
 10
397.8567889999998
 20
85.90202299999999
 30
0.0
 11
398.3635029999999
 21
86.13829799999995
 31
0.0
  0
LINE
  5
98D3
330
978C
100
AcDbEntity
  8
1
  6
Continuous
100
AcDbLine
 10
398.3635029999999
 20
86.13829799999995
 30
0.0
 11
399.242745
 21
86.153648
 31
0.0
  0
LINE
  5
98D4
330
978C
100
AcDbEntity
  8
1
  6
Continuous
100
AcDbLine
 10
398.3635029999999
 20
87.009003
 30
0.0
 11
399.2427149999999
 21
86.99365199999999
 31
0.0
  0
LINE
  5
98D5
330
978C
100
AcDbEntity
  8
1
  6
Continuous
100
AcDbLine
 10
397.856759
 20
87.24527700000001
 30
0.0
 11
398.3635029999999
 21
87.00898700000001
 31
0.0
  0
LINE
  5
98D6
330
978C
100
AcDbEntity
  8
1
  6
Continuous
100
AcDbLine
 10
396.513558
 20
87.245293
 30
0.0
 11
396.7498249999999
 21
87.751991
 31
0.0
  0
LINE
  5
98D7
330
978C
100
AcDbEntity
  8
1
  6
Continuous
100
AcDbLine
 10
396.749795
 20
87.751991
 30
0.0
 11
396.765145
 21
88.631218
 31
0.0
  0
LINE
  5
98D8
330
978C
100
AcDbEntity
  8
1
  6
Continuous
100
AcDbLine
 10
397.620492
 20
87.751991
 30
0.0
 11
397.605172
 21
88.631218
 31
0.0
  0
LINE
  5
98D9
330
978C
100
AcDbEntity
  8
1
  6
Continuous
100
AcDbLine
 10
397.8567889999998
 20
87.24528499999998
 30
0.0
 11
397.620522
 21
87.751991
 31
0.0
  0
LINE
  5
98DA
330
978C
100
AcDbEntity
  8
1
  6
Continuous
100
AcDbLine
 10
396.5135279999998
 20
85.90204599999998
 30
0.0
 11
396.006814
 21
86.13832099999996
 31
0.0
  0
LINE
  5
98DB
330
978C
100
AcDbEntity
  8
1
  6
Continuous
100
AcDbLine
 10
396.006814
 20
86.138306
 30
0.0
 11
395.1275719999999
 21
86.15365600000002
 31
0.0
  0
LINE
  5
98DC
330
978C
100
AcDbEntity
  8
1
  6
Continuous
100
AcDbLine
 10
396.006814
 20
87.009003
 30
0.0
 11
395.127602
 21
86.99365199999999
 31
0.0
  0
LINE
  5
98DD
330
978C
100
AcDbEntity
  8
1
  6
Continuous
100
AcDbLine
 10
396.5135279999998
 20
87.24528499999998
 30
0.0
 11
396.006814
 21
87.008995
 31
0.0
  0
LINE
  5
98DE
330
978C
100
AcDbEntity
  8
1
  6
Continuous
100
AcDbLine
 10
397.8567889999998
 20
85.902016
 30
0.0
 11
397.620492
 21
85.39531700000003
 31
0.0
  0
LINE
  5
98DF
330
978C
100
AcDbEntity
  8
1
  6
Continuous
100
AcDbLine
 10
397.620492
 20
85.39530899999999
 30
0.0
 11
397.605141
 21
84.51608299999998
 31
0.0
  0
LINE
  5
98E0
330
978C
100
AcDbEntity
  8
1
  6
Continuous
100
AcDbLine
 10
396.7498249999999
 20
85.39530899999999
 30
0.0
 11
396.7651759999998
 21
84.51607499999999
 31
0.0
  0
LINE
  5
98E1
330
978C
100
AcDbEntity
  8
1
  6
Continuous
100
AcDbLine
 10
396.5135279999998
 20
85.90202299999999
 30
0.0
 11
396.7498249999999
 21
85.39531700000003
 31
0.0
  0
LINE
  5
98E2
330
978C
100
AcDbEntity
  8
1
  6
Continuous
100
AcDbLine
 10
321.8028649999999
 20
65.673653
 30
0.0
 11
325.8028649999999
 21
65.673653
 31
0.0
  0
LINE
  5
98E3
330
978C
100
AcDbEntity
  8
1
  6
Continuous
100
AcDbLine
 10
324.567483
 20
67.47364799999998
 30
0.0
 11
328.567483
 21
67.47364799999998
 31
0.0
  0
LINE
  5
98E4
330
978C
100
AcDbEntity
  8
1
  6
Continuous
100
AcDbLine
 10
324.567483
 20
70.018715
 30
0.0
 11
324.567483
 21
67.47364799999998
 31
0.0
  0
LINE
  5
98E5
330
978C
100
AcDbEntity
  8
1
  6
Continuous
100
AcDbLine
 10
325.8028649999999
 20
65.673653
 30
0.0
 11
325.8028649999999
 21
63.128586
 31
0.0
  0
LINE
  5
98E6
330
978C
100
AcDbEntity
  8
4
  6
CENTER
100
AcDbLine
 10
412.185159
 20
46.57365
 30
0.0
 11
408.185159
 21
46.57365
 31
0.0
  0
LINE
  5
98E7
330
978C
100
AcDbEntity
  8
4
  6
CENTER
100
AcDbLine
 10
410.1851589999998
 20
48.57365
 30
0.0
 11
410.1851589999998
 21
44.57365
 31
0.0
  0
LINE
  5
98E8
330
978C
100
AcDbEntity
  8
4
  6
CENTER
100
AcDbLine
 10
412.185159
 20
86.57364699999998
 30
0.0
 11
408.185159
 21
86.57364699999998
 31
0.0
  0
LINE
  5
98E9
330
978C
100
AcDbEntity
  8
4
  6
CENTER
100
AcDbLine
 10
410.1851589999998
 20
88.57364699999996
 30
0.0
 11
410.1851589999998
 21
84.57364699999997
 31
0.0
  0
LINE
  5
98EA
330
978C
100
AcDbEntity
  8
1
  6
Continuous
100
AcDbLine
 10
504.185159
 20
90.57364699999999
 30
0.0
 11
504.185159
 21
79.57364699999998
 31
0.0
  0
LINE
  5
98EB
330
978C
100
AcDbEntity
  8
4
  6
CENTER
100
AcDbLine
 10
510.0299769999998
 20
66.57364699999999
 30
0.0
 11
475.3628929999998
 21
66.57364699999999
 31
0.0
  0
LINE
  5
98EC
330
978C
100
AcDbEntity
  8
1
  6
Continuous
100
AcDbLine
 10
481.6851589999997
 20
90.57364699999999
 30
0.0
 11
481.6851589999997
 21
79.57364699999998
 31
0.0
  0
LINE
  5
98ED
330
978C
100
AcDbEntity
  8
4
  6
CENTER
100
AcDbLine
 10
489.1851589999998
 20
73.17859699999998
 30
0.0
 11
489.1851589999998
 21
59.61835500000001
 31
0.0
  0
LINE
  5
98EE
330
978C
100
AcDbEntity
  8
1
  6
Continuous
100
AcDbLine
 10
503.185159
 20
91.573647
 30
0.0
 11
482.685159
 21
91.573647
 31
0.0
  0
LINE
  5
98EF
330
978C
100
AcDbEntity
  8
1
  6
Continuous
100
AcDbLine
 10
503.185159
 20
41.57365
 30
0.0
 11
482.685159
 21
41.57365
 31
0.0
  0
LINE
  5
98F0
330
978C
100
AcDbEntity
  8
1
  6
Continuous
100
AcDbLine
 10
503.185159
 20
78.57364699999997
 30
0.0
 11
496.185159
 21
78.57364699999997
 31
0.0
  0
LINE
  5
98F1
330
978C
100
AcDbEntity
  8
1
  6
Continuous
100
AcDbLine
 10
503.185159
 20
54.57364699999999
 30
0.0
 11
496.185159
 21
54.57364699999999
 31
0.0
  0
LINE
  5
98F2
330
978C
100
AcDbEntity
  8
1
  6
Continuous
100
AcDbLine
 10
504.185159
 20
53.57364699999997
 30
0.0
 11
504.185159
 21
42.57365
 31
0.0
  0
LINE
  5
98F3
330
978C
100
AcDbEntity
  8
1
  6
Continuous
100
AcDbLine
 10
481.6851589999997
 20
53.57364699999997
 30
0.0
 11
481.6851589999997
 21
42.57365
 31
0.0
  0
LINE
  5
98F4
330
978C
100
AcDbEntity
  8
1
  6
Continuous
100
AcDbLine
 10
482.185159
 20
90.57364699999999
 30
0.0
 11
482.185159
 21
42.57365
 31
0.0
  0
LINE
  5
98F5
330
978C
100
AcDbEntity
  8
1
  6
Continuous
100
AcDbLine
 10
496.185159
 20
90.57364699999999
 30
0.0
 11
496.185159
 21
42.57365
 31
0.0
  0
LINE
  5
98F6
330
978C
100
AcDbEntity
  8
4
  6
CENTER
100
AcDbLine
 10
507.8328639999998
 20
86.57364699999998
 30
0.0
 11
477.3443079999998
 21
86.57364699999998
 31
0.0
  0
LINE
  5
98F7
330
978C
100
AcDbEntity
  8
4
  6
CENTER
100
AcDbLine
 10
507.553139
 20
46.57365
 30
0.0
 11
477.0646139999998
 21
46.57365
 31
0.0
  0
LINE
  5
98F8
330
978C
100
AcDbEntity
  8
1
  6
Continuous
100
AcDbLine
 10
519.1851889999997
 20
91.573647
 30
0.0
 11
519.1851889999997
 21
41.57365
 31
0.0
  0
LINE
  5
98F9
330
978C
100
AcDbEntity
  8
1
  6
Continuous
100
AcDbLine
 10
517.1851889999998
 20
91.573647
 30
0.0
 11
517.1851889999998
 21
41.57365
 31
0.0
  0
LINE
  5
98FA
330
978C
100
AcDbEntity
  8
1
  6
Continuous
100
AcDbLine
 10
519.1851889999997
 20
41.57365
 30
0.0
 11
517.1851889999998
 21
41.57365
 31
0.0
  0
LINE
  5
98FB
330
978C
100
AcDbEntity
  8
1
  6
Continuous
100
AcDbLine
 10
519.1851889999997
 20
91.573647
 30
0.0
 11
517.1851889999998
 21
91.573647
 31
0.0
  0
LINE
  5
98FC
330
978C
100
AcDbEntity
  8
4
  6
CENTER
100
AcDbLine
 10
522.8322229999998
 20
66.57364699999999
 30
0.0
 11
513.601754
 21
66.57364699999999
 31
0.0
  0
LINE
  5
98FD
330
978C
100
AcDbEntity
  8
4
  6
CENTER
100
AcDbLine
 10
522.1851889999998
 20
86.57364699999998
 30
0.0
 11
514.1851889999998
 21
86.57364699999998
 31
0.0
  0
LINE
  5
98FE
330
978C
100
AcDbEntity
  8
4
  6
CENTER
100
AcDbLine
 10
522.1851889999998
 20
46.57365
 30
0.0
 11
514.1851889999998
 21
46.57365
 31
0.0
  0
LINE
  5
98FF
330
978C
100
AcDbEntity
  8
4
  6
CENTER
100
AcDbLine
 10
522.1851889999998
 20
80.57364699999999
 30
0.0
 11
514.1851889999998
 21
80.57364699999999
 31
0.0
  0
LINE
  5
9900
330
978C
100
AcDbEntity
  8
4
  6
CENTER
100
AcDbLine
 10
522.1851889999998
 20
52.573647
 30
0.0
 11
514.1851889999998
 21
52.573647
 31
0.0
  0
LINE
  5
9901
330
978C
100
AcDbEntity
  8
1
  6
Continuous
100
AcDbLine
 10
443.0855799999998
 20
44.57434099999999
 30
0.0
 11
442.692788
 21
44.801132
 31
0.0
  0
LINE
  5
9902
330
978C
100
AcDbEntity
  8
1
  6
Continuous
100
AcDbLine
 10
443.0850299999998
 20
48.57376099999999
 30
0.0
 11
442.6908039999998
 21
48.34616099999998
 31
0.0
  0
LINE
  5
9903
330
978C
100
AcDbEntity
  8
1
  6
Continuous
100
AcDbLine
 10
443.0851519999998
 20
44.57365
 30
0.0
 11
443.0851519999998
 21
48.573628
 31
0.0
  0
LINE
  5
9904
330
978C
100
AcDbEntity
  8
1
  6
Continuous
100
AcDbLine
 10
471.685159
 20
44.57365
 30
0.0
 11
471.685159
 21
48.573628
 31
0.0
  0
LINE
  5
9905
330
978C
100
AcDbEntity
  8
1
  6
Continuous
100
AcDbLine
 10
441.685159
 20
41.57365
 30
0.0
 11
441.685159
 21
51.57364699999998
 31
0.0
  0
LINE
  5
9906
330
978C
100
AcDbEntity
  8
1
  6
Continuous
100
AcDbLine
 10
440.5657739999998
 20
43.17184499999998
 30
0.0
 11
441.685159
 21
43.073914
 31
0.0
  0
LINE
  5
9907
330
978C
100
AcDbEntity
  8
1
  6
Continuous
100
AcDbLine
 10
440.565804
 20
49.975994
 30
0.0
 11
441.68522
 21
50.073933
 31
0.0
  0
LINE
  5
9908
330
978C
100
AcDbEntity
  8
2
  6
Continuous
100
AcDbLine
 10
443.0851519999998
 20
48.194645
 30
0.0
 11
471.685159
 21
48.194645
 31
0.0
  0
LINE
  5
9909
330
978C
100
AcDbEntity
  8
2
  6
Continuous
100
AcDbLine
 10
443.0851519999998
 20
44.95264099999999
 30
0.0
 11
471.685159
 21
44.95264099999999
 31
0.0
  0
LINE
  5
990A
330
978C
100
AcDbEntity
  8
1
  6
Continuous
100
AcDbLine
 10
443.0851829999999
 20
44.573662
 30
0.0
 11
471.685159
 21
44.573662
 31
0.0
  0
LINE
  5
990B
330
978C
100
AcDbEntity
  8
1
  6
Continuous
100
AcDbLine
 10
443.0851829999999
 20
48.57365
 30
0.0
 11
471.685159
 21
48.57365
 31
0.0
  0
LINE
  5
990C
330
978C
100
AcDbEntity
  8
4
  6
CENTER
100
AcDbLine
 10
437.911813
 20
46.57365
 30
0.0
 11
473.360696
 21
46.57365
 31
0.0
  0
LINE
  5
990D
330
978C
100
AcDbEntity
  8
1
  6
Continuous
100
AcDbLine
 10
442.485146
 20
48.346149
 30
0.0
 11
442.6908039999998
 21
48.346149
 31
0.0
  0
LINE
  5
990E
330
978C
100
AcDbEntity
  8
1
  6
Continuous
100
AcDbLine
 10
442.485146
 20
44.80113999999999
 30
0.0
 11
442.692788
 21
44.80113999999999
 31
0.0
  0
LINE
  5
990F
330
978C
100
AcDbEntity
  8
2
  6
Continuous
100
AcDbLine
 10
442.756783
 20
48.38422399999998
 30
0.0
 11
443.0851829999999
 21
48.194634
 31
0.0
  0
LINE
  5
9910
330
978C
100
AcDbEntity
  8
2
  6
Continuous
100
AcDbLine
 10
442.7577900000001
 20
44.763634
 30
0.0
 11
443.0851519999998
 21
44.95264399999999
 31
0.0
  0
LINE
  5
9911
330
978C
100
AcDbEntity
  8
1
  6
Continuous
100
AcDbLine
 10
443.0855799999998
 20
84.57435600000001
 30
0.0
 11
442.692788
 21
84.801148
 31
0.0
  0
LINE
  5
9912
330
978C
100
AcDbEntity
  8
1
  6
Continuous
100
AcDbLine
 10
443.0850299999998
 20
88.57375299999999
 30
0.0
 11
442.6908039999998
 21
88.34615300000001
 31
0.0
  0
LINE
  5
9913
330
978C
100
AcDbEntity
  8
1
  6
Continuous
100
AcDbLine
 10
443.0851519999998
 20
84.57364699999997
 30
0.0
 11
443.0851519999998
 21
88.57362399999997
 31
0.0
  0
LINE
  5
9914
330
978C
100
AcDbEntity
  8
1
  6
Continuous
100
AcDbLine
 10
471.685159
 20
84.57364699999997
 30
0.0
 11
471.685159
 21
88.57362399999997
 31
0.0
  0
LINE
  5
9915
330
978C
100
AcDbEntity
  8
1
  6
Continuous
100
AcDbLine
 10
441.685159
 20
81.57364699999998
 30
0.0
 11
441.685159
 21
91.573647
 31
0.0
  0
LINE
  5
9916
330
978C
100
AcDbEntity
  8
1
  6
Continuous
100
AcDbLine
 10
440.5657429999997
 20
83.171852
 30
0.0
 11
441.685128
 21
83.07392099999999
 31
0.0
  0
LINE
  5
9917
330
978C
100
AcDbEntity
  8
1
  6
Continuous
100
AcDbLine
 10
440.565804
 20
89.97599800000001
 30
0.0
 11
441.68522
 21
90.07393699999999
 31
0.0
  0
LINE
  5
9918
330
978C
100
AcDbEntity
  8
2
  6
Continuous
100
AcDbLine
 10
443.0851519999998
 20
88.19464899999998
 30
0.0
 11
471.685159
 21
88.19464899999998
 31
0.0
  0
LINE
  5
9919
330
978C
100
AcDbEntity
  8
2
  6
Continuous
100
AcDbLine
 10
443.0851519999998
 20
84.95264399999998
 30
0.0
 11
471.685159
 21
84.95264399999998
 31
0.0
  0
LINE
  5
991A
330
978C
100
AcDbEntity
  8
1
  6
Continuous
100
AcDbLine
 10
443.0851829999999
 20
84.573662
 30
0.0
 11
471.685159
 21
84.573662
 31
0.0
  0
LINE
  5
991B
330
978C
100
AcDbEntity
  8
1
  6
Continuous
100
AcDbLine
 10
443.0851829999999
 20
88.57364699999996
 30
0.0
 11
471.685159
 21
88.57364699999996
 31
0.0
  0
LINE
  5
991C
330
978C
100
AcDbEntity
  8
4
  6
CENTER
100
AcDbLine
 10
437.911813
 20
86.57364699999998
 30
0.0
 11
473.360696
 21
86.57364699999998
 31
0.0
  0
LINE
  5
991D
330
978C
100
AcDbEntity
  8
1
  6
Continuous
100
AcDbLine
 10
442.485146
 20
88.346146
 30
0.0
 11
442.6908039999998
 21
88.346146
 31
0.0
  0
LINE
  5
991E
330
978C
100
AcDbEntity
  8
1
  6
Continuous
100
AcDbLine
 10
442.485146
 20
84.80114
 30
0.0
 11
442.692788
 21
84.80114
 31
0.0
  0
LINE
  5
991F
330
978C
100
AcDbEntity
  8
2
  6
Continuous
100
AcDbLine
 10
442.756783
 20
88.38423199999999
 30
0.0
 11
443.0851829999999
 21
88.19464100000002
 31
0.0
  0
LINE
  5
9920
330
978C
100
AcDbEntity
  8
2
  6
Continuous
100
AcDbLine
 10
442.7577900000001
 20
84.76362599999999
 30
0.0
 11
443.0851519999998
 21
84.95263699999998
 31
0.0
  0
LINE
  5
9921
330
978C
100
AcDbEntity
  8
1
  6
Continuous
100
AcDbLine
 10
441.685159
 20
51.57364699999998
 30
0.0
 11
442.485146
 21
51.57364699999998
 31
0.0
  0
LINE
  5
9922
330
978C
100
AcDbEntity
  8
1
  6
Continuous
100
AcDbLine
 10
441.685159
 20
41.57365
 30
0.0
 11
442.485146
 21
41.57365
 31
0.0
  0
LINE
  5
9923
330
978C
100
AcDbEntity
  8
1
  6
Continuous
100
AcDbLine
 10
442.485146
 20
41.57365
 30
0.0
 11
442.485146
 21
51.57364699999998
 31
0.0
  0
LINE
  5
9924
330
978C
100
AcDbEntity
  8
1
  6
Continuous
100
AcDbLine
 10
441.685159
 20
81.57364699999998
 30
0.0
 11
442.485146
 21
81.57364699999998
 31
0.0
  0
LINE
  5
9925
330
978C
100
AcDbEntity
  8
1
  6
Continuous
100
AcDbLine
 10
441.685159
 20
91.573647
 30
0.0
 11
442.485146
 21
91.573647
 31
0.0
  0
LINE
  5
9926
330
978C
100
AcDbEntity
  8
1
  6
Continuous
100
AcDbLine
 10
442.485146
 20
81.57364699999998
 30
0.0
 11
442.485146
 21
91.573647
 31
0.0
  0
LINE
  5
9927
330
978C
100
AcDbEntity
  8
1
  6
Continuous
100
AcDbLine
 10
492.567483
 20
65.673653
 30
0.0
 11
488.567483
 21
65.673653
 31
0.0
  0
LINE
  5
9928
330
978C
100
AcDbEntity
  8
1
  6
Continuous
100
AcDbLine
 10
489.802865
 20
67.47364799999998
 30
0.0
 11
485.802865
 21
67.47364799999998
 31
0.0
  0
LINE
  5
9929
330
978C
100
AcDbEntity
  8
1
  6
Continuous
100
AcDbLine
 10
489.802865
 20
70.018715
 30
0.0
 11
489.802865
 21
67.47364799999998
 31
0.0
  0
LINE
  5
992A
330
978C
100
AcDbEntity
  8
1
  6
Continuous
100
AcDbLine
 10
488.567483
 20
65.673653
 30
0.0
 11
488.567483
 21
63.128586
 31
0.0
  0
LINE
  5
992B
330
978C
100
AcDbEntity
  8
4
  6
CENTER
100
AcDbLine
 10
578.4315269999997
 20
66.57364699999999
 30
0.0
 11
531.798348
 21
66.57364699999999
 31
0.0
  0
LINE
  5
992C
330
978C
100
AcDbEntity
  8
1
  6
Continuous
100
AcDbLine
 10
575.1851889999998
 20
89.07364699999998
 30
0.0
 11
575.1851889999998
 21
81.07364699999996
 31
0.0
  0
LINE
  5
992D
330
978C
100
AcDbEntity
  8
1
  6
Continuous
100
AcDbLine
 10
555.1851889999998
 20
89.07364699999998
 30
0.0
 11
555.1851889999998
 21
81.07364699999996
 31
0.0
  0
LINE
  5
992E
330
978C
100
AcDbEntity
  8
1
  6
Continuous
100
AcDbLine
 10
537.1851889999998
 20
86.57364699999998
 30
0.0
 11
537.1851889999998
 21
46.57365
 31
0.0
  0
LINE
  5
992F
330
978C
100
AcDbEntity
  8
1
  6
Continuous
100
AcDbLine
 10
572.6851889999998
 20
41.57365
 30
0.0
 11
542.1851889999998
 21
41.57365
 31
0.0
  0
LINE
  5
9930
330
978C
100
AcDbEntity
  8
1
  6
Continuous
100
AcDbLine
 10
572.6851889999998
 20
91.573647
 30
0.0
 11
542.1851889999998
 21
91.573647
 31
0.0
  0
LINE
  5
9931
330
978C
100
AcDbEntity
  8
1
  6
Continuous
100
AcDbLine
 10
572.6851889999998
 20
78.57364699999997
 30
0.0
 11
569.1851889999997
 21
78.57364699999997
 31
0.0
  0
LINE
  5
9932
330
978C
100
AcDbEntity
  8
1
  6
Continuous
100
AcDbLine
 10
572.6851889999998
 20
54.57364699999999
 30
0.0
 11
569.1851889999997
 21
54.57364699999999
 31
0.0
  0
LINE
  5
9933
330
978C
100
AcDbEntity
  8
1
  6
Continuous
100
AcDbLine
 10
575.1851889999998
 20
52.07364699999999
 30
0.0
 11
575.1851889999998
 21
44.07365
 31
0.0
  0
LINE
  5
9934
330
978C
100
AcDbEntity
  8
1
  6
Continuous
100
AcDbLine
 10
555.1851889999998
 20
52.07364699999999
 30
0.0
 11
555.1851889999998
 21
44.07365
 31
0.0
  0
LINE
  5
9935
330
978C
100
AcDbEntity
  8
4
  6
CENTER
100
AcDbLine
 10
565.1851889999997
 20
55.028381
 30
0.0
 11
565.1851889999997
 21
42.359207
 31
0.0
  0
LINE
  5
9936
330
978C
100
AcDbEntity
  8
4
  6
CENTER
100
AcDbLine
 10
574.291512
 20
46.57365
 30
0.0
 11
556.185921
 21
46.57365
 31
0.0
  0
LINE
  5
9937
330
978C
100
AcDbEntity
  8
1
  6
Continuous
100
AcDbLine
 10
569.9351889999998
 20
49.07365
 30
0.0
 11
569.1851889999997
 21
49.07365
 31
0.0
  0
LINE
  5
9938
330
978C
100
AcDbEntity
  8
1
  6
Continuous
100
AcDbLine
 10
569.9351889999998
 20
44.07365
 30
0.0
 11
569.1851889999997
 21
44.07365
 31
0.0
  0
LINE
  5
9939
330
978C
100
AcDbEntity
  8
1
  6
Continuous
100
AcDbLine
 10
569.9351889999998
 20
84.07364699999998
 30
0.0
 11
569.1851889999997
 21
84.07364699999998
 31
0.0
  0
LINE
  5
993A
330
978C
100
AcDbEntity
  8
1
  6
Continuous
100
AcDbLine
 10
569.9351889999998
 20
89.07364699999998
 30
0.0
 11
569.1851889999997
 21
89.07364699999998
 31
0.0
  0
LINE
  5
993B
330
978C
100
AcDbEntity
  8
4
  6
CENTER
100
AcDbLine
 10
565.1851889999997
 20
77.89895899999997
 30
0.0
 11
565.1851889999997
 21
90.916367
 31
0.0
  0
LINE
  5
993C
330
978C
100
AcDbEntity
  8
4
  6
CENTER
100
AcDbLine
 10
574.291512
 20
86.57364699999998
 30
0.0
 11
556.185921
 21
86.57364699999998
 31
0.0
  0
LINE
  5
993D
330
978C
100
AcDbEntity
  8
1
  6
Continuous
100
AcDbLine
 10
569.1851889999997
 20
91.573647
 30
0.0
 11
569.1851889999997
 21
41.57365
 31
0.0
  0
LINE
  5
993E
330
978C
100
AcDbEntity
  8
4
  6
CENTER
100
AcDbLine
 10
567.7775019999997
 20
80.57364699999999
 30
0.0
 11
562.5733659999998
 21
80.57364699999999
 31
0.0
  0
LINE
  5
993F
330
978C
100
AcDbEntity
  8
4
  6
CENTER
100
AcDbLine
 10
567.9936389999998
 20
52.573647
 30
0.0
 11
562.605673
 21
52.573647
 31
0.0
  0
LINE
  5
9940
330
978C
100
AcDbEntity
  8
1
  6
Continuous
100
AcDbLine
 10
561.1851889999997
 20
49.07365
 30
0.0
 11
560.4351889999998
 21
49.07365
 31
0.0
  0
LINE
  5
9941
330
978C
100
AcDbEntity
  8
1
  6
Continuous
100
AcDbLine
 10
561.1851889999997
 20
44.07365
 30
0.0
 11
560.4351889999998
 21
44.07365
 31
0.0
  0
LINE
  5
9942
330
978C
100
AcDbEntity
  8
1
  6
Continuous
100
AcDbLine
 10
561.1851889999997
 20
84.07364699999998
 30
0.0
 11
560.4351889999998
 21
84.07364699999998
 31
0.0
  0
LINE
  5
9943
330
978C
100
AcDbEntity
  8
1
  6
Continuous
100
AcDbLine
 10
561.1851889999997
 20
89.07364699999998
 30
0.0
 11
560.4351889999998
 21
89.07364699999998
 31
0.0
  0
LINE
  5
9944
330
978C
100
AcDbEntity
  8
1
  6
Continuous
100
AcDbLine
 10
561.1851889999997
 20
91.573647
 30
0.0
 11
561.1851889999997
 21
41.57365
 31
0.0
  0
LINE
  5
9945
330
978C
100
AcDbEntity
  8
1
  6
Continuous
100
AcDbLine
 10
561.1851889999997
 20
54.57364699999999
 30
0.0
 11
557.6851889999998
 21
54.57364699999999
 31
0.0
  0
LINE
  5
9946
330
978C
100
AcDbEntity
  8
1
  6
Continuous
100
AcDbLine
 10
561.1851889999997
 20
78.57364699999997
 30
0.0
 11
557.6851889999998
 21
78.57364699999997
 31
0.0
  0
LINE
  5
9947
330
978C
100
AcDbEntity
  8
4
  6
CENTER
100
AcDbLine
 10
555.1851889999998
 20
46.57365
 30
0.0
 11
549.1851889999998
 21
46.57365
 31
0.0
  0
LINE
  5
9948
330
978C
100
AcDbEntity
  8
4
  6
CENTER
100
AcDbLine
 10
552.1851889999997
 20
49.57365
 30
0.0
 11
552.1851889999997
 21
43.57365
 31
0.0
  0
LINE
  5
9949
330
978C
100
AcDbEntity
  8
4
  6
CENTER
100
AcDbLine
 10
555.1851889999998
 20
86.57364699999998
 30
0.0
 11
549.1851889999998
 21
86.57364699999998
 31
0.0
  0
LINE
  5
994A
330
978C
100
AcDbEntity
  8
4
  6
CENTER
100
AcDbLine
 10
552.1851889999997
 20
89.57364699999997
 30
0.0
 11
552.1851889999997
 21
83.57364699999996
 31
0.0
  0
LINE
  5
994B
330
978C
100
AcDbEntity
  8
1
  6
Continuous
100
AcDbLine
 10
551.1245200000002
 20
85.51299300000001
 30
0.0
 11
553.2457969999998
 21
87.634308
 31
0.0
  0
LINE
  5
994C
330
978C
100
AcDbEntity
  8
1
  6
Continuous
100
AcDbLine
 10
551.1245200000002
 20
87.634308
 30
0.0
 11
553.2457969999998
 21
85.51299300000001
 31
0.0
  0
LINE
  5
994D
330
978C
100
AcDbEntity
  8
1
  6
Continuous
100
AcDbLine
 10
551.1245200000002
 20
45.51298899999999
 30
0.0
 11
553.2457969999998
 21
47.634312
 31
0.0
  0
LINE
  5
994E
330
978C
100
AcDbEntity
  8
1
  6
Continuous
100
AcDbLine
 10
551.1245200000002
 20
47.634312
 30
0.0
 11
553.2457969999998
 21
45.51298899999999
 31
0.0
  0
LINE
  5
994F
330
978C
100
AcDbEntity
  8
1
  6
Continuous
100
AcDbLine
 10
425.185159
 20
162.573654
 30
0.0
 11
425.185159
 21
150.573654
 31
0.0
  0
LINE
  5
9950
330
978C
100
AcDbEntity
  8
4
  6
CENTER
100
AcDbLine
 10
383.7675249999999
 20
156.573654
 30
0.0
 11
428.4984519999999
 21
156.573654
 31
0.0
  0
LINE
  5
9951
330
978C
100
AcDbEntity
  8
1
  6
Continuous
100
AcDbLine
 10
406.1851589999998
 20
149.573654
 30
0.0
 11
424.185159
 21
149.573654
 31
0.0
  0
LINE
  5
9952
330
978C
100
AcDbEntity
  8
1
  6
Continuous
100
AcDbLine
 10
388.185159
 20
171.5736539999998
 30
0.0
 11
406.1851589999998
 21
171.5736539999998
 31
0.0
  0
LINE
  5
9953
330
978C
100
AcDbEntity
  8
1
  6
Continuous
100
AcDbLine
 10
388.185159
 20
149.073654
 30
0.0
 11
406.1851589999998
 21
149.073654
 31
0.0
  0
LINE
  5
9954
330
978C
100
AcDbEntity
  8
1
  6
Continuous
100
AcDbLine
 10
387.1851589999998
 20
170.573654
 30
0.0
 11
387.1851589999998
 21
150.073654
 31
0.0
  0
LINE
  5
9955
330
978C
100
AcDbEntity
  8
1
  6
Continuous
100
AcDbLine
 10
407.1851589999998
 20
170.573654
 30
0.0
 11
407.1851589999998
 21
163.573654
 31
0.0
  0
LINE
  5
9956
330
978C
100
AcDbEntity
  8
1
  6
Continuous
100
AcDbLine
 10
406.1851589999998
 20
163.573654
 30
0.0
 11
424.185159
 21
163.573654
 31
0.0
  0
LINE
  5
9957
330
978C
100
AcDbEntity
  8
4
  6
CENTER
100
AcDbLine
 10
397.1851589999998
 20
174.553635
 30
0.0
 11
397.1851589999998
 21
145.46582
 31
0.0
  0
LINE
  5
9958
330
978C
100
AcDbEntity
  8
1
  6
Continuous
100
AcDbLine
 10
393.1851589999998
 20
184.573654
 30
0.0
 11
401.185159
 21
184.573654
 31
0.0
  0
LINE
  5
9959
330
978C
100
AcDbEntity
  8
1
  6
Continuous
100
AcDbLine
 10
393.1851589999998
 20
186.573654
 30
0.0
 11
401.185159
 21
186.573654
 31
0.0
  0
LINE
  5
995A
330
978C
100
AcDbEntity
  8
1
  6
Continuous
100
AcDbLine
 10
393.1851589999998
 20
186.573654
 30
0.0
 11
393.1851589999998
 21
184.573654
 31
0.0
  0
LINE
  5
995B
330
978C
100
AcDbEntity
  8
1
  6
Continuous
100
AcDbLine
 10
401.185159
 20
186.573654
 30
0.0
 11
401.185159
 21
184.573654
 31
0.0
  0
LINE
  5
995C
330
978C
100
AcDbEntity
  8
4
  6
CENTER
100
AcDbLine
 10
397.1851589999998
 20
189.9530639999999
 30
0.0
 11
397.1851589999998
 21
182.253357
 31
0.0
  0
LINE
  5
995D
330
978C
100
AcDbEntity
  8
1
  6
Continuous
100
AcDbLine
 10
371.2847369999999
 20
84.57437099999998
 30
0.0
 11
371.677529
 21
84.80114
 31
0.0
  0
LINE
  5
995E
330
978C
100
AcDbEntity
  8
1
  6
Continuous
100
AcDbLine
 10
371.2852869999999
 20
88.57374599999998
 30
0.0
 11
371.6795129999999
 21
88.346146
 31
0.0
  0
LINE
  5
995F
330
978C
100
AcDbEntity
  8
1
  6
Continuous
100
AcDbLine
 10
371.285165
 20
84.57364699999997
 30
0.0
 11
371.285165
 21
88.57362399999997
 31
0.0
  0
LINE
  5
9960
330
978C
100
AcDbEntity
  8
1
  6
Continuous
100
AcDbLine
 10
342.685159
 20
84.57364699999997
 30
0.0
 11
342.685159
 21
88.57362399999997
 31
0.0
  0
LINE
  5
9961
330
978C
100
AcDbEntity
  8
1
  6
Continuous
100
AcDbLine
 10
372.6851589999998
 20
81.57364699999998
 30
0.0
 11
372.6851589999998
 21
91.573647
 31
0.0
  0
LINE
  5
9962
330
978C
100
AcDbEntity
  8
1
  6
Continuous
100
AcDbLine
 10
373.804543
 20
83.17184499999997
 30
0.0
 11
372.6851589999998
 21
83.073914
 31
0.0
  0
LINE
  5
9963
330
978C
100
AcDbEntity
  8
1
  6
Continuous
100
AcDbLine
 10
373.8045129999999
 20
89.97598999999999
 30
0.0
 11
372.6851279999999
 21
90.07392900000001
 31
0.0
  0
LINE
  5
9964
330
978C
100
AcDbEntity
  8
2
  6
Continuous
100
AcDbLine
 10
371.285165
 20
88.19464899999998
 30
0.0
 11
342.685159
 21
88.19464899999998
 31
0.0
  0
LINE
  5
9965
330
978C
100
AcDbEntity
  8
2
  6
Continuous
100
AcDbLine
 10
371.285165
 20
84.95264399999998
 30
0.0
 11
342.685159
 21
84.95264399999998
 31
0.0
  0
LINE
  5
9966
330
978C
100
AcDbEntity
  8
1
  6
Continuous
100
AcDbLine
 10
371.2851339999998
 20
84.573662
 30
0.0
 11
342.685159
 21
84.573662
 31
0.0
  0
LINE
  5
9967
330
978C
100
AcDbEntity
  8
1
  6
Continuous
100
AcDbLine
 10
371.2851339999998
 20
88.57364699999996
 30
0.0
 11
342.685159
 21
88.57364699999996
 31
0.0
  0
LINE
  5
9968
330
978C
100
AcDbEntity
  8
4
  6
CENTER
100
AcDbLine
 10
376.458504
 20
86.57364699999998
 30
0.0
 11
341.0096209999999
 21
86.57364699999998
 31
0.0
  0
LINE
  5
9969
330
978C
100
AcDbEntity
  8
1
  6
Continuous
100
AcDbLine
 10
371.885171
 20
88.346146
 30
0.0
 11
371.6795129999999
 21
88.346146
 31
0.0
  0
LINE
  5
996A
330
978C
100
AcDbEntity
  8
1
  6
Continuous
100
AcDbLine
 10
371.885171
 20
84.80114
 30
0.0
 11
371.677529
 21
84.80114
 31
0.0
  0
LINE
  5
996B
330
978C
100
AcDbEntity
  8
2
  6
Continuous
100
AcDbLine
 10
371.6135339999998
 20
88.38423199999999
 30
0.0
 11
371.2851339999998
 21
88.19464100000002
 31
0.0
  0
LINE
  5
996C
330
978C
100
AcDbEntity
  8
2
  6
Continuous
100
AcDbLine
 10
371.612527
 20
84.76361899999998
 30
0.0
 11
371.285165
 21
84.952629
 31
0.0
  0
LINE
  5
996D
330
978C
100
AcDbEntity
  8
1
  6
Continuous
100
AcDbLine
 10
372.6851589999998
 20
81.57364699999998
 30
0.0
 11
371.885171
 21
81.57364699999998
 31
0.0
  0
LINE
  5
996E
330
978C
100
AcDbEntity
  8
1
  6
Continuous
100
AcDbLine
 10
372.6851589999998
 20
91.573647
 30
0.0
 11
371.885171
 21
91.573647
 31
0.0
  0
LINE
  5
996F
330
978C
100
AcDbEntity
  8
1
  6
Continuous
100
AcDbLine
 10
371.885171
 20
81.57364699999998
 30
0.0
 11
371.885171
 21
91.573647
 31
0.0
  0
CIRCLE
  5
9970
330
978C
100
AcDbEntity
  8
1
  6
Continuous
100
AcDbCircle
 10
32.18516199999999
 20
66.57364699999999
 30
0.0
 40
6.349999999999997
  0
ARC
  5
9971
330
978C
100
AcDbEntity
  8
1
  6
Continuous
100
AcDbCircle
 10
32.18516199999999
 20
52.573647
 30
0.0
 40
1.8
100
AcDbArc
 50
346.506601
 51
13.49339899999998
  0
ARC
  5
9972
330
978C
100
AcDbEntity
  8
1
  6
Continuous
100
AcDbCircle
 10
32.18516199999999
 20
52.573647
 30
0.0
 40
1.8
100
AcDbArc
 50
76.506602
 51
103.4933959999998
  0
ARC
  5
9973
330
978C
100
AcDbEntity
  8
1
  6
Continuous
100
AcDbCircle
 10
32.18516199999999
 20
52.573647
 30
0.0
 40
1.8
100
AcDbArc
 50
166.506597
 51
193.4933989999999
  0
ARC
  5
9974
330
978C
100
AcDbEntity
  8
1
  6
Continuous
100
AcDbCircle
 10
32.18516199999999
 20
52.573647
 30
0.0
 40
1.8
100
AcDbArc
 50
256.506604
 51
283.493398
  0
CIRCLE
  5
9975
330
978C
100
AcDbEntity
  8
1
  6
Continuous
100
AcDbCircle
 10
32.185155
 20
52.57365400000001
 30
0.0
 40
3.0
  0
ARC
  5
9976
330
978C
100
AcDbEntity
  8
1
  6
Continuous
100
AcDbCircle
 10
32.18516199999999
 20
80.57364699999999
 30
0.0
 40
1.8
100
AcDbArc
 50
346.506601
 51
13.49339899999998
  0
ARC
  5
9977
330
978C
100
AcDbEntity
  8
1
  6
Continuous
100
AcDbCircle
 10
32.18516199999999
 20
80.57364699999999
 30
0.0
 40
1.8
100
AcDbArc
 50
76.506602
 51
103.4933959999998
  0
ARC
  5
9978
330
978C
100
AcDbEntity
  8
1
  6
Continuous
100
AcDbCircle
 10
32.18516199999999
 20
80.57364699999999
 30
0.0
 40
1.8
100
AcDbArc
 50
166.506597
 51
193.4933989999999
  0
ARC
  5
9979
330
978C
100
AcDbEntity
  8
1
  6
Continuous
100
AcDbCircle
 10
32.18516199999999
 20
80.57364699999999
 30
0.0
 40
1.8
100
AcDbArc
 50
256.506604
 51
283.493398
  0
CIRCLE
  5
997A
330
978C
100
AcDbEntity
  8
1
  6
Continuous
100
AcDbCircle
 10
32.185155
 20
80.573654
 30
0.0
 40
3.0
  0
ARC
  5
997B
330
978C
100
AcDbEntity
  8
1
  6
Continuous
100
AcDbCircle
 10
141.1851589999999
 20
62.573647
 30
0.0
 40
1.0
100
AcDbArc
 50
269.9999969999999
 51
0.0
  0
ARC
  5
997C
330
978C
100
AcDbEntity
  8
1
  6
Continuous
100
AcDbCircle
 10
141.1851589999999
 20
70.57364699999998
 30
0.0
 40
1.0
100
AcDbArc
 50
0.0
 51
90.00000300000001
  0
ARC
  5
997D
330
978C
100
AcDbEntity
  8
1
  6
Continuous
100
AcDbCircle
 10
235.1851589999998
 20
66.57364699999999
 30
0.0
 40
8.0
100
AcDbArc
 50
277.180753
 51
262.819232
  0
CIRCLE
  5
997E
330
978C
100
AcDbEntity
  8
1
  6
Continuous
100
AcDbCircle
 10
235.1851589999998
 20
80.57364699999999
 30
0.0
 40
1.5
  0
CIRCLE
  5
997F
330
978C
100
AcDbEntity
  8
1
  6
Continuous
100
AcDbCircle
 10
235.1851589999998
 20
52.573647
 30
0.0
 40
1.5
  0
CIRCLE
  5
9980
330
978C
100
AcDbEntity
  8
2
  6
Continuous
100
AcDbCircle
 10
235.1851589999998
 20
52.573647
 30
0.0
 40
1.2295
  0
CIRCLE
  5
9981
330
978C
100
AcDbEntity
  8
2
  6
Continuous
100
AcDbCircle
 10
235.1851589999998
 20
80.57364699999999
 30
0.0
 40
1.2295
  0
ARC
  5
9982
330
978C
100
AcDbEntity
  8
1
  6
Continuous
100
AcDbCircle
 10
227.185159
 20
85.57364699999999
 30
0.0
 40
1.0
100
AcDbArc
 50
90.00000300000001
 51
180.000005
  0
ARC
  5
9983
330
978C
100
AcDbEntity
  8
1
  6
Continuous
100
AcDbCircle
 10
227.185159
 20
47.57365
 30
0.0
 40
1.0
100
AcDbArc
 50
179.9999909999999
 51
270.000001
  0
ARC
  5
9984
330
978C
100
AcDbEntity
  8
1
  6
Continuous
100
AcDbCircle
 10
243.1851589999999
 20
47.57365
 30
0.0
 40
1.0
100
AcDbArc
 50
269.9999969999999
 51
0.0
  0
ARC
  5
9985
330
978C
100
AcDbEntity
  8
1
  6
Continuous
100
AcDbCircle
 10
243.1851589999999
 20
85.57364699999999
 30
0.0
 40
1.0
100
AcDbArc
 50
0.0
 51
90.00000300000001
  0
ARC
  5
9986
330
978C
100
AcDbEntity
  8
1
  6
Continuous
100
AcDbCircle
 10
235.1851589999998
 20
66.57364699999999
 30
0.0
 40
4.5
100
AcDbArc
 50
282.839585
 51
257.1604199999999
  0
ARC
  5
9987
330
978C
100
AcDbEntity
  8
1
  6
Continuous
100
AcDbCircle
 10
235.1851589999998
 20
66.57364699999999
 30
0.0
 40
7.0
100
AcDbArc
 50
278.213211
 51
135.0
  0
CIRCLE
  5
9988
330
978C
100
AcDbEntity
  8
1
  6
Continuous
100
AcDbCircle
 10
235.1851589999998
 20
66.57364699999999
 30
0.0
 40
3.0
  0
ARC
  5
9989
330
978C
100
AcDbEntity
  8
2
  6
Continuous
100
AcDbCircle
 10
235.1851589999998
 20
66.57364699999999
 30
0.0
 40
2.458499999999999
100
AcDbArc
 50
65.99903199999999
 51
155.9990339999998
  0
ARC
  5
998A
330
978C
100
AcDbEntity
  8
2
  6
Continuous
100
AcDbCircle
 10
235.1851589999998
 20
66.57364699999999
 30
0.0
 40
2.458499999999999
100
AcDbArc
 50
245.999034
 51
335.999031
  0
ARC
  5
998B
330
978C
100
AcDbEntity
  8
1
  6
Continuous
100
AcDbCircle
 10
141.1851589999999
 20
166.173645
 30
0.0
 40
1.0
100
AcDbArc
 50
90.00000300000001
 51
180.000005
  0
ARC
  5
998C
330
978C
100
AcDbEntity
  8
1
  6
Continuous
100
AcDbCircle
 10
141.1851589999999
 20
146.9736479999999
 30
0.0
 40
1.0
100
AcDbArc
 50
179.9999909999999
 51
270.000001
  0
ARC
  5
998D
330
978C
100
AcDbEntity
  8
1
  6
Continuous
100
AcDbCircle
 10
311.185159
 20
90.57364699999999
 30
0.0
 40
1.0
100
AcDbArc
 50
90.00000300000001
 51
180.000005
  0
ARC
  5
998E
330
978C
100
AcDbEntity
  8
1
  6
Continuous
100
AcDbCircle
 10
311.185159
 20
42.57365
 30
0.0
 40
1.0
100
AcDbArc
 50
179.9999909999999
 51
270.000001
  0
ARC
  5
998F
330
978C
100
AcDbEntity
  8
1
  6
Continuous
100
AcDbCircle
 10
331.685159
 20
42.57365
 30
0.0
 40
1.0
100
AcDbArc
 50
269.9999969999999
 51
0.0
  0
ARC
  5
9990
330
978C
100
AcDbEntity
  8
1
  6
Continuous
100
AcDbCircle
 10
331.685159
 20
90.57364699999999
 30
0.0
 40
1.0
100
AcDbArc
 50
0.0
 51
90.00000300000001
  0
CIRCLE
  5
9991
330
978C
100
AcDbEntity
  8
1
  6
Continuous
100
AcDbCircle
 10
325.185159
 20
66.57364699999999
 30
0.0
 40
3.5
  0
ARC
  5
9992
330
978C
100
AcDbEntity
  8
1
  6
Continuous
100
AcDbCircle
 10
311.185159
 20
53.57364699999997
 30
0.0
 40
1.0
100
AcDbArc
 50
90.00000300000001
 51
180.000005
  0
ARC
  5
9993
330
978C
100
AcDbEntity
  8
1
  6
Continuous
100
AcDbCircle
 10
331.685159
 20
53.57364699999997
 30
0.0
 40
1.0
100
AcDbArc
 50
0.0
 51
90.00000300000001
  0
ARC
  5
9994
330
978C
100
AcDbEntity
  8
1
  6
Continuous
100
AcDbCircle
 10
311.185159
 20
79.57364699999998
 30
0.0
 40
1.0
100
AcDbArc
 50
179.9999909999999
 51
270.000001
  0
ARC
  5
9995
330
978C
100
AcDbEntity
  8
1
  6
Continuous
100
AcDbCircle
 10
331.685159
 20
79.57364699999998
 30
0.0
 40
1.0
100
AcDbArc
 50
269.9999969999999
 51
0.0
  0
ARC
  5
9996
330
978C
100
AcDbEntity
  8
1
  6
Continuous
100
AcDbCircle
 10
373.6912319999998
 20
48.680668
 30
0.0
 40
1.3
100
AcDbArc
 50
15.88084
 51
84.99993499999998
  0
ARC
  5
9997
330
978C
100
AcDbEntity
  8
1
  6
Continuous
100
AcDbCircle
 10
366.2851339999999
 20
46.573662
 30
0.0
 40
9.0
100
AcDbArc
 50
344.1191319999999
 51
15.880769
  0
ARC
  5
9998
330
978C
100
AcDbEntity
  8
1
  6
Continuous
100
AcDbCircle
 10
373.6912319999998
 20
44.466656
 30
0.0
 40
1.3
100
AcDbArc
 50
275.000017
 51
344.119119
  0
ARC
  5
9999
330
978C
100
AcDbEntity
  8
1
  6
Continuous
100
AcDbCircle
 10
399.2921839999998
 20
106.84092
 30
0.0
 40
1.3
100
AcDbArc
 50
285.880843
 51
354.999937
  0
ARC
  5
999A
330
978C
100
AcDbEntity
  8
1
  6
Continuous
100
AcDbCircle
 10
397.1851589999998
 20
114.2470249999998
 30
0.0
 40
9.0
100
AcDbArc
 50
254.119131
 51
285.8807679999998
  0
ARC
  5
999B
330
978C
100
AcDbEntity
  8
1
  6
Continuous
100
AcDbCircle
 10
395.078164
 20
106.84092
 30
0.0
 40
1.3
100
AcDbArc
 50
185.000021
 51
254.1191179999999
  0
ARC
  5
999C
330
978C
100
AcDbEntity
  8
1
  6
Continuous
100
AcDbCircle
 10
420.185159
 20
86.57364699999998
 30
0.0
 40
5.0
100
AcDbArc
 50
0.0
 51
90.00000300000001
  0
ARC
  5
999D
330
978C
100
AcDbEntity
  8
1
  6
Continuous
100
AcDbCircle
 10
420.185159
 20
46.57365
 30
0.0
 40
5.0
100
AcDbArc
 50
269.9999969999999
 51
0.0
  0
ARC
  5
999E
330
978C
100
AcDbEntity
  8
1
  6
Continuous
100
AcDbCircle
 10
389.685159
 20
89.07364699999998
 30
0.0
 40
2.5
100
AcDbArc
 50
90.00000300000001
 51
180.000005
  0
ARC
  5
999F
330
978C
100
AcDbEntity
  8
1
  6
Continuous
100
AcDbCircle
 10
389.685159
 20
44.07365
 30
0.0
 40
2.5
100
AcDbArc
 50
179.9999909999999
 51
270.000001
  0
ARC
  5
99A0
330
978C
100
AcDbEntity
  8
1
  6
Continuous
100
AcDbCircle
 10
389.685159
 20
81.07364699999996
 30
0.0
 40
2.5
100
AcDbArc
 50
179.9999909999999
 51
270.000001
  0
ARC
  5
99A1
330
978C
100
AcDbEntity
  8
1
  6
Continuous
100
AcDbCircle
 10
404.685159
 20
81.07364699999996
 30
0.0
 40
2.5
100
AcDbArc
 50
269.9999969999999
 51
0.0
  0
ARC
  5
99A2
330
978C
100
AcDbEntity
  8
1
  6
Continuous
100
AcDbCircle
 10
404.685159
 20
89.07364699999998
 30
0.0
 40
2.5
100
AcDbArc
 50
0.0
 51
90.00000300000001
  0
ARC
  5
99A3
330
978C
100
AcDbEntity
  8
1
  6
Continuous
100
AcDbCircle
 10
389.685159
 20
52.07364699999999
 30
0.0
 40
2.5
100
AcDbArc
 50
90.00000300000001
 51
180.000005
  0
ARC
  5
99A4
330
978C
100
AcDbEntity
  8
1
  6
Continuous
100
AcDbCircle
 10
404.685159
 20
52.07364699999999
 30
0.0
 40
2.5
100
AcDbArc
 50
0.0
 51
90.00000300000001
  0
ARC
  5
99A5
330
978C
100
AcDbEntity
  8
1
  6
Continuous
100
AcDbCircle
 10
404.685159
 20
44.07365
 30
0.0
 40
2.5
100
AcDbArc
 50
269.9999969999999
 51
0.0
  0
ARC
  5
99A6
330
978C
100
AcDbEntity
  8
1
  6
Continuous
100
AcDbCircle
 10
392.435159
 20
46.57365
 30
0.0
 40
2.5
100
AcDbArc
 50
90.00000300000001
 51
270.000001
  0
ARC
  5
99A7
330
978C
100
AcDbEntity
  8
1
  6
Continuous
100
AcDbCircle
 10
401.935159
 20
46.57365
 30
0.0
 40
2.5
100
AcDbArc
 50
269.9999969999999
 51
90.00000300000001
  0
ARC
  5
99A8
330
978C
100
AcDbEntity
  8
1
  6
Continuous
100
AcDbCircle
 10
392.435159
 20
86.57364699999998
 30
0.0
 40
2.5
100
AcDbArc
 50
90.00000300000001
 51
270.000001
  0
ARC
  5
99A9
330
978C
100
AcDbEntity
  8
1
  6
Continuous
100
AcDbCircle
 10
401.935159
 20
86.57364699999998
 30
0.0
 40
2.5
100
AcDbArc
 50
269.9999969999999
 51
90.00000300000001
  0
CIRCLE
  5
99AA
330
978C
100
AcDbEntity
  8
1
  6
Continuous
100
AcDbCircle
 10
397.1851589999998
 20
46.57365
 30
0.0
 40
5.0
  0
CIRCLE
  5
99AB
330
978C
100
AcDbEntity
  8
1
  6
Continuous
100
AcDbCircle
 10
397.1851589999998
 20
86.57364699999998
 30
0.0
 40
5.0
  0
ARC
  5
99AC
330
978C
100
AcDbEntity
  8
1
  6
Continuous
100
AcDbCircle
 10
397.1851589999998
 20
46.57365
 30
0.0
 40
2.1
100
AcDbArc
 50
348.4630409999998
 51
11.53695899999999
  0
ARC
  5
99AD
330
978C
100
AcDbEntity
  8
1
  6
Continuous
100
AcDbCircle
 10
397.1851589999998
 20
46.57365
 30
0.0
 40
2.1
100
AcDbArc
 50
78.46304100000002
 51
101.536957
  0
ARC
  5
99AE
330
978C
100
AcDbEntity
  8
1
  6
Continuous
100
AcDbCircle
 10
397.1851589999998
 20
46.57365
 30
0.0
 40
2.1
100
AcDbArc
 50
168.463037
 51
191.536959
  0
ARC
  5
99AF
330
978C
100
AcDbEntity
  8
1
  6
Continuous
100
AcDbCircle
 10
397.1851589999998
 20
46.57365
 30
0.0
 40
2.1
100
AcDbArc
 50
258.463043
 51
281.5369589999999
  0
CIRCLE
  5
99B0
330
978C
100
AcDbEntity
  8
1
  6
Continuous
100
AcDbCircle
 10
397.1851889999999
 20
46.573639
 30
0.0
 40
3.5
  0
ARC
  5
99B1
330
978C
100
AcDbEntity
  8
1
  6
Continuous
100
AcDbCircle
 10
397.1851589999998
 20
86.57364699999998
 30
0.0
 40
2.1
100
AcDbArc
 50
348.4630409999998
 51
11.53695899999999
  0
ARC
  5
99B2
330
978C
100
AcDbEntity
  8
1
  6
Continuous
100
AcDbCircle
 10
397.1851589999998
 20
86.57364699999998
 30
0.0
 40
2.1
100
AcDbArc
 50
78.46304100000002
 51
101.536957
  0
ARC
  5
99B3
330
978C
100
AcDbEntity
  8
1
  6
Continuous
100
AcDbCircle
 10
397.1851589999998
 20
86.57364699999998
 30
0.0
 40
2.1
100
AcDbArc
 50
168.463037
 51
191.536959
  0
ARC
  5
99B4
330
978C
100
AcDbEntity
  8
1
  6
Continuous
100
AcDbCircle
 10
397.1851589999998
 20
86.57364699999998
 30
0.0
 40
2.1
100
AcDbArc
 50
258.463043
 51
281.5369589999999
  0
CIRCLE
  5
99B5
330
978C
100
AcDbEntity
  8
1
  6
Continuous
100
AcDbCircle
 10
397.1851889999999
 20
86.573639
 30
0.0
 40
3.5
  0
CIRCLE
  5
99B6
330
978C
100
AcDbEntity
  8
1
  6
Continuous
100
AcDbCircle
 10
410.1851589999998
 20
86.57364699999998
 30
0.0
 40
1.25
  0
CIRCLE
  5
99B7
330
978C
100
AcDbEntity
  8
1
  6
Continuous
100
AcDbCircle
 10
410.1851589999998
 20
46.57365
 30
0.0
 40
1.25
  0
ARC
  5
99B8
330
978C
100
AcDbEntity
  8
1
  6
Continuous
100
AcDbCircle
 10
503.185159
 20
90.57364699999999
 30
0.0
 40
1.0
100
AcDbArc
 50
0.0
 51
90.00000300000001
  0
ARC
  5
99B9
330
978C
100
AcDbEntity
  8
1
  6
Continuous
100
AcDbCircle
 10
503.185159
 20
42.57365
 30
0.0
 40
1.0
100
AcDbArc
 50
269.9999969999999
 51
0.0
  0
ARC
  5
99BA
330
978C
100
AcDbEntity
  8
1
  6
Continuous
100
AcDbCircle
 10
482.685159
 20
42.57365
 30
0.0
 40
1.0
100
AcDbArc
 50
179.9999909999999
 51
270.000001
  0
ARC
  5
99BB
330
978C
100
AcDbEntity
  8
1
  6
Continuous
100
AcDbCircle
 10
482.685159
 20
90.57364699999999
 30
0.0
 40
1.0
100
AcDbArc
 50
90.00000300000001
 51
180.000005
  0
CIRCLE
  5
99BC
330
978C
100
AcDbEntity
  8
1
  6
Continuous
100
AcDbCircle
 10
489.1851589999998
 20
66.57364699999999
 30
0.0
 40
3.5
  0
ARC
  5
99BD
330
978C
100
AcDbEntity
  8
1
  6
Continuous
100
AcDbCircle
 10
503.185159
 20
53.57364699999997
 30
0.0
 40
1.0
100
AcDbArc
 50
0.0
 51
90.00000300000001
  0
ARC
  5
99BE
330
978C
100
AcDbEntity
  8
1
  6
Continuous
100
AcDbCircle
 10
482.685159
 20
53.57364699999997
 30
0.0
 40
1.0
100
AcDbArc
 50
120.0000029999998
 51
180.000005
  0
ARC
  5
99BF
330
978C
100
AcDbEntity
  8
1
  6
Continuous
100
AcDbCircle
 10
503.185159
 20
79.57364699999998
 30
0.0
 40
1.0
100
AcDbArc
 50
269.9999969999999
 51
0.0
  0
ARC
  5
99C0
330
978C
100
AcDbEntity
  8
1
  6
Continuous
100
AcDbCircle
 10
482.685159
 20
79.57364699999998
 30
0.0
 40
1.0
100
AcDbArc
 50
179.9999909999999
 51
240.0000069999999
  0
ARC
  5
99C1
330
978C
100
AcDbEntity
  8
1
  6
Continuous
100
AcDbCircle
 10
440.679086
 20
48.680668
 30
0.0
 40
1.3
100
AcDbArc
 50
95.000063
 51
164.119159
  0
ARC
  5
99C2
330
978C
100
AcDbEntity
  8
1
  6
Continuous
100
AcDbCircle
 10
448.0851829999998
 20
46.573662
 30
0.0
 40
9.0
100
AcDbArc
 50
164.119228
 51
195.8808639999999
  0
ARC
  5
99C3
330
978C
100
AcDbEntity
  8
1
  6
Continuous
100
AcDbCircle
 10
440.679086
 20
44.466656
 30
0.0
 40
1.3
100
AcDbArc
 50
195.8808809999999
 51
264.9999849999999
  0
ARC
  5
99C4
330
978C
100
AcDbEntity
  8
1
  6
Continuous
100
AcDbCircle
 10
440.679086
 20
88.680672
 30
0.0
 40
1.3
100
AcDbArc
 50
95.000063
 51
164.119159
  0
ARC
  5
99C5
330
978C
100
AcDbEntity
  8
1
  6
Continuous
100
AcDbCircle
 10
448.0851829999998
 20
86.573662
 30
0.0
 40
9.0
100
AcDbArc
 50
164.119228
 51
195.8808639999999
  0
ARC
  5
99C6
330
978C
100
AcDbEntity
  8
1
  6
Continuous
100
AcDbCircle
 10
440.679086
 20
84.46665199999998
 30
0.0
 40
1.3
100
AcDbArc
 50
195.8808809999999
 51
264.9999849999999
  0
ARC
  5
99C7
330
978C
100
AcDbEntity
  8
1
  6
Continuous
100
AcDbCircle
 10
495.185159
 20
90.57364699999999
 30
0.0
 40
1.0
100
AcDbArc
 50
0.0
 51
90.00000300000001
  0
ARC
  5
99C8
330
978C
100
AcDbEntity
  8
1
  6
Continuous
100
AcDbCircle
 10
495.185159
 20
42.57365
 30
0.0
 40
1.0
100
AcDbArc
 50
269.9999969999999
 51
0.0
  0
ARC
  5
99C9
330
978C
100
AcDbEntity
  8
1
  6
Continuous
100
AcDbCircle
 10
483.185159
 20
42.57365
 30
0.0
 40
1.0
100
AcDbArc
 50
179.9999909999999
 51
270.000001
  0
ARC
  5
99CA
330
978C
100
AcDbEntity
  8
1
  6
Continuous
100
AcDbCircle
 10
483.185159
 20
90.57364699999999
 30
0.0
 40
1.0
100
AcDbArc
 50
90.00000300000001
 51
180.000005
  0
ARC
  5
99CB
330
978C
100
AcDbEntity
  8
1
  6
Continuous
100
AcDbCircle
 10
542.1851889999998
 20
86.57364699999998
 30
0.0
 40
5.0
100
AcDbArc
 50
90.00000300000001
 51
180.000005
  0
ARC
  5
99CC
330
978C
100
AcDbEntity
  8
1
  6
Continuous
100
AcDbCircle
 10
542.1851889999998
 20
46.57365
 30
0.0
 40
5.0
100
AcDbArc
 50
179.9999909999999
 51
270.000001
  0
ARC
  5
99CD
330
978C
100
AcDbEntity
  8
1
  6
Continuous
100
AcDbCircle
 10
572.6851889999998
 20
89.07364699999998
 30
0.0
 40
2.5
100
AcDbArc
 50
0.0
 51
90.00000300000001
  0
ARC
  5
99CE
330
978C
100
AcDbEntity
  8
1
  6
Continuous
100
AcDbCircle
 10
572.6851889999998
 20
44.07365
 30
0.0
 40
2.5
100
AcDbArc
 50
269.9999969999999
 51
0.0
  0
ARC
  5
99CF
330
978C
100
AcDbEntity
  8
1
  6
Continuous
100
AcDbCircle
 10
572.6851889999998
 20
81.07364699999996
 30
0.0
 40
2.5
100
AcDbArc
 50
269.9999969999999
 51
0.0
  0
ARC
  5
99D0
330
978C
100
AcDbEntity
  8
1
  6
Continuous
100
AcDbCircle
 10
557.6851889999998
 20
81.07364699999996
 30
0.0
 40
2.5
100
AcDbArc
 50
179.9999909999999
 51
270.000001
  0
ARC
  5
99D1
330
978C
100
AcDbEntity
  8
1
  6
Continuous
100
AcDbCircle
 10
557.6851889999998
 20
89.07364699999998
 30
0.0
 40
2.5
100
AcDbArc
 50
90.00000300000001
 51
180.000005
  0
ARC
  5
99D2
330
978C
100
AcDbEntity
  8
1
  6
Continuous
100
AcDbCircle
 10
572.6851889999998
 20
52.07364699999999
 30
0.0
 40
2.5
100
AcDbArc
 50
0.0
 51
90.00000300000001
  0
ARC
  5
99D3
330
978C
100
AcDbEntity
  8
1
  6
Continuous
100
AcDbCircle
 10
557.6851889999998
 20
52.07364699999999
 30
0.0
 40
2.5
100
AcDbArc
 50
90.00000300000001
 51
180.000005
  0
ARC
  5
99D4
330
978C
100
AcDbEntity
  8
1
  6
Continuous
100
AcDbCircle
 10
557.6851889999998
 20
44.07365
 30
0.0
 40
2.5
100
AcDbArc
 50
179.9999909999999
 51
270.000001
  0
ARC
  5
99D5
330
978C
100
AcDbEntity
  8
1
  6
Continuous
100
AcDbCircle
 10
569.9351889999998
 20
46.57365
 30
0.0
 40
2.5
100
AcDbArc
 50
269.9999969999999
 51
90.00000300000001
  0
ARC
  5
99D6
330
978C
100
AcDbEntity
  8
1
  6
Continuous
100
AcDbCircle
 10
560.4351889999998
 20
46.57365
 30
0.0
 40
2.5
100
AcDbArc
 50
90.00000300000001
 51
270.000001
  0
ARC
  5
99D7
330
978C
100
AcDbEntity
  8
1
  6
Continuous
100
AcDbCircle
 10
569.9351889999998
 20
86.57364699999998
 30
0.0
 40
2.5
100
AcDbArc
 50
269.9999969999999
 51
90.00000300000001
  0
ARC
  5
99D8
330
978C
100
AcDbEntity
  8
1
  6
Continuous
100
AcDbCircle
 10
560.4351889999998
 20
86.57364699999998
 30
0.0
 40
2.5
100
AcDbArc
 50
90.00000300000001
 51
270.000001
  0
ARC
  5
99D9
330
978C
100
AcDbEntity
  8
1
  6
Continuous
100
AcDbCircle
 10
565.1851889999997
 20
46.57365
 30
0.0
 40
5.0
100
AcDbArc
 50
149.999997
 51
209.999999
  0
ARC
  5
99DA
330
978C
100
AcDbEntity
  8
1
  6
Continuous
100
AcDbCircle
 10
565.1851889999997
 20
86.57364699999998
 30
0.0
 40
5.0
100
AcDbArc
 50
329.9999989999998
 51
30.000001
  0
CIRCLE
  5
99DB
330
978C
100
AcDbEntity
  8
1
  6
Continuous
100
AcDbCircle
 10
565.1851889999997
 20
86.57364699999998
 30
0.0
 40
2.0
  0
ARC
  5
99DC
330
978C
100
AcDbEntity
  8
1
  6
Continuous
100
AcDbCircle
 10
565.1851889999997
 20
86.57364699999998
 30
0.0
 40
5.0
100
AcDbArc
 50
149.999997
 51
209.999999
  0
CIRCLE
  5
99DD
330
978C
100
AcDbEntity
  8
1
  6
Continuous
100
AcDbCircle
 10
565.1851889999997
 20
80.57364699999999
 30
0.0
 40
1.7
  0
ARC
  5
99DE
330
978C
100
AcDbEntity
  8
1
  6
Continuous
100
AcDbCircle
 10
397.1851589999998
 20
66.57364699999999
 30
0.0
 40
1.7
100
AcDbArc
 50
90.00000300000001
 51
270.000001
  0
CIRCLE
  5
99DF
330
978C
100
AcDbEntity
  8
1
  6
Continuous
100
AcDbCircle
 10
565.1851889999997
 20
66.57364699999999
 30
0.0
 40
1.7
  0
CIRCLE
  5
99E0
330
978C
100
AcDbEntity
  8
1
  6
Continuous
100
AcDbCircle
 10
565.1851889999997
 20
52.573647
 30
0.0
 40
1.7
  0
ARC
  5
99E1
330
978C
100
AcDbEntity
  8
1
  6
Continuous
100
AcDbCircle
 10
565.1851889999997
 20
46.57365
 30
0.0
 40
5.0
100
AcDbArc
 50
329.9999989999998
 51
30.000001
  0
CIRCLE
  5
99E2
330
978C
100
AcDbEntity
  8
1
  6
Continuous
100
AcDbCircle
 10
565.1851889999997
 20
46.57365
 30
0.0
 40
2.0
  0
CIRCLE
  5
99E3
330
978C
100
AcDbEntity
  8
2
  6
Continuous
100
AcDbCircle
 10
565.1851889999997
 20
86.57364699999998
 30
0.0
 40
1.620999999999999
  0
CIRCLE
  5
99E4
330
978C
100
AcDbEntity
  8
2
  6
Continuous
100
AcDbCircle
 10
565.1851889999997
 20
46.57365
 30
0.0
 40
1.620999999999999
  0
CIRCLE
  5
99E5
330
978C
100
AcDbEntity
  8
1
  6
Continuous
100
AcDbCircle
 10
552.1851889999997
 20
86.57364699999998
 30
0.0
 40
2.5
  0
CIRCLE
  5
99E6
330
978C
100
AcDbEntity
  8
1
  6
Continuous
100
AcDbCircle
 10
552.1851889999997
 20
46.57365
 30
0.0
 40
2.5
  0
ARC
  5
99E7
330
978C
100
AcDbEntity
  8
1
  6
Continuous
100
AcDbCircle
 10
406.1851589999998
 20
170.573654
 30
0.0
 40
1.0
100
AcDbArc
 50
0.0
 51
90.00000300000001
  0
ARC
  5
99E8
330
978C
100
AcDbEntity
  8
1
  6
Continuous
100
AcDbCircle
 10
388.185159
 20
170.573654
 30
0.0
 40
1.0
100
AcDbArc
 50
90.00000300000001
 51
180.000005
  0
ARC
  5
99E9
330
978C
100
AcDbEntity
  8
1
  6
Continuous
100
AcDbCircle
 10
388.185159
 20
150.073654
 30
0.0
 40
1.0
100
AcDbArc
 50
179.9999909999999
 51
270.000001
  0
ARC
  5
99EA
330
978C
100
AcDbEntity
  8
1
  6
Continuous
100
AcDbCircle
 10
406.1851589999998
 20
150.073654
 30
0.0
 40
1.0
100
AcDbArc
 50
269.9999969999999
 51
329.9999989999998
  0
ARC
  5
99EB
330
978C
100
AcDbEntity
  8
1
  6
Continuous
100
AcDbCircle
 10
424.185159
 20
162.573654
 30
0.0
 40
1.0
100
AcDbArc
 50
0.0
 51
90.00000300000001
  0
ARC
  5
99EC
330
978C
100
AcDbEntity
  8
1
  6
Continuous
100
AcDbCircle
 10
424.185159
 20
150.573654
 30
0.0
 40
1.0
100
AcDbArc
 50
269.9999969999999
 51
0.0
  0
ARC
  5
99ED
330
978C
100
AcDbEntity
  8
1
  6
Continuous
100
AcDbCircle
 10
373.6912319999998
 20
88.680672
 30
0.0
 40
1.3
100
AcDbArc
 50
15.88084
 51
84.99993499999998
  0
ARC
  5
99EE
330
978C
100
AcDbEntity
  8
1
  6
Continuous
100
AcDbCircle
 10
366.2851339999999
 20
86.573662
 30
0.0
 40
9.0
100
AcDbArc
 50
344.1191319999999
 51
15.880769
  0
ARC
  5
99EF
330
978C
100
AcDbEntity
  8
1
  6
Continuous
100
AcDbCircle
 10
373.6912319999998
 20
84.46665199999998
 30
0.0
 40
1.3
100
AcDbArc
 50
275.000017
 51
344.119119
  0
ARC
  5
99F0
330
978C
100
AcDbEntity
  8
1
  6
Continuous
100
AcDbCircle
 10
170.1851589999999
 20
58.62365
 30
0.0
 40
4.0
100
AcDbArc
 50
270.0
 51
302.697895
  0
ARC
  5
99F1
330
978C
100
AcDbEntity
  8
1
  6
Continuous
100
AcDbCircle
 10
170.1851589999999
 20
74.523651
 30
0.0
 40
4.0
100
AcDbArc
 50
57.30207399999999
 51
90.0
  0
LINE
  5
99F2
330
978C
100
AcDbEntity
  8
1
  6
Continuous
100
AcDbLine
 10
180.345998
 20
72.754273
 30
0.0
 11
172.345998
 21
77.88977299999998
 31
0.0
  0
LINE
  5
99F3
330
978C
100
AcDbEntity
  8
1
  6
Continuous
100
AcDbLine
 10
180.3459959999999
 20
60.393021
 30
0.0
 11
172.3459959999999
 21
55.257527
 31
0.0
  0
ARC
  5
99F4
330
978C
100
AcDbEntity
  8
1
  6
Continuous
100
AcDbCircle
 10
178.185159
 20
69.38815100000001
 30
0.0
 40
4.0
100
AcDbArc
 50
0.0
 51
57.30207399999999
  0
ARC
  5
99F5
330
978C
100
AcDbEntity
  8
1
  6
Continuous
100
AcDbCircle
 10
178.185159
 20
63.759143
 30
0.0
 40
4.0
100
AcDbArc
 50
302.697895
 51
0.0
  0
LINE
  5
99F6
330
978C
100
AcDbEntity
  8
1
  6
Continuous
100
AcDbLine
 10
33.18516199999999
 20
75.870017
 30
0.0
 11
33.18516199999999
 21
72.844412
 31
0.0
  0
LINE
  5
99F7
330
978C
100
AcDbEntity
  8
1
  6
Continuous
100
AcDbLine
 10
31.185162
 20
75.870017
 30
0.0
 11
31.185162
 21
72.844412
 31
0.0
  0
ARC
  5
99F8
330
978C
100
AcDbEntity
  8
1
  6
Continuous
100
AcDbCircle
 10
32.18516199999999
 20
66.57364699999999
 30
0.0
 40
9.349999999999999
100
AcDbArc
 50
83.860366
 51
199.3844019999999
  0
ARC
  5
99F9
330
978C
100
AcDbEntity
  8
1
  6
Continuous
100
AcDbCircle
 10
32.18516199999999
 20
66.57364699999999
 30
0.0
 40
10.34999999999999
100
AcDbArc
 50
219.455527
 51
230.544473
  0
LINE
  5
99FA
330
978C
100
AcDbEntity
  8
1
  6
Continuous
100
AcDbLine
 10
28.458168
 20
61.432439
 30
0.0
 11
25.60795399999999
 21
58.582225
 31
0.0
  0
LINE
  5
99FB
330
978C
100
AcDbEntity
  8
1
  6
Continuous
100
AcDbLine
 10
27.043955
 20
62.846653
 30
0.0
 11
24.19373999999999
 21
59.996438
 31
0.0
  0
ARC
  5
99FC
330
978C
100
AcDbEntity
  8
1
  6
Continuous
100
AcDbCircle
 10
32.18516199999999
 20
66.57364699999999
 30
0.0
 40
7.849999999999998
100
AcDbArc
 50
97.31871200000002
 51
199.3844019999999
  0
LINE
  5
99FD
330
978C
100
AcDbEntity
  8
1
  6
Continuous
100
AcDbLine
 10
23.36518499999999
 20
63.47034100000001
 30
0.0
 11
22.657701
 21
63.221413
 31
0.0
  0
LINE
  5
99FE
330
978C
100
AcDbEntity
  8
1
  6
Continuous
100
AcDbLine
 10
25.438188
 20
61.240886
 30
0.0
 11
25.48764
 21
64.21712600000001
 31
0.0
  0
LINE
  5
99FF
330
978C
100
AcDbEntity
  8
1
  6
Continuous
100
AcDbLine
 10
25.438188
 20
61.240886
 30
0.0
 11
22.657701
 21
63.221413
 31
0.0
  0
LINE
  5
9A00
330
978C
100
AcDbEntity
  8
1
  6
Continuous
100
AcDbLine
 10
25.48764
 20
64.21712600000001
 30
0.0
 11
24.780155
 21
63.968198
 31
0.0
  0
LINE
  5
9A01
330
978C
100
AcDbEntity
  8
1
  6
Continuous
100
AcDbLine
 10
31.185162
 20
57.277276
 30
0.0
 11
31.185162
 21
60.30288099999999
 31
0.0
  0
ARC
  5
9A02
330
978C
100
AcDbEntity
  8
1
  6
Continuous
100
AcDbCircle
 10
32.18516199999999
 20
66.57364699999999
 30
0.0
 40
9.349999999999999
100
AcDbArc
 50
263.860366
 51
19.38440199999998
  0
LINE
  5
9A03
330
978C
100
AcDbEntity
  8
1
  6
Continuous
100
AcDbLine
 10
33.18516199999999
 20
57.277276
 30
0.0
 11
33.18516199999999
 21
60.30288099999999
 31
0.0
  0
ARC
  5
9A04
330
978C
100
AcDbEntity
  8
1
  6
Continuous
100
AcDbCircle
 10
32.18516199999999
 20
66.57364699999999
 30
0.0
 40
7.849999999999998
100
AcDbArc
 50
277.318712
 51
19.38440199999998
  0
LINE
  5
9A05
330
978C
100
AcDbEntity
  8
1
  6
Continuous
100
AcDbLine
 10
41.005139
 20
69.676952
 30
0.0
 11
41.71262399999998
 21
69.92588000000001
 31
0.0
  0
LINE
  5
9A06
330
978C
100
AcDbEntity
  8
1
  6
Continuous
100
AcDbLine
 10
38.932137
 20
71.906407
 30
0.0
 11
41.71262399999998
 21
69.92588000000001
 31
0.0
  0
LINE
  5
9A07
330
978C
100
AcDbEntity
  8
1
  6
Continuous
100
AcDbLine
 10
38.932137
 20
71.906407
 30
0.0
 11
38.88268499999997
 21
68.930167
 31
0.0
  0
LINE
  5
9A08
330
978C
100
AcDbEntity
  8
1
  6
Continuous
100
AcDbLine
 10
38.88268499999997
 20
68.930167
 30
0.0
 11
39.59017
 21
69.179096
 31
0.0
  0
LINE
  5
9A09
330
978C
100
AcDbEntity
  8
1
  6
Continuous
100
AcDbLine
 10
37.32636999999999
 20
70.300641
 30
0.0
 11
40.17658400000001
 21
73.15085500000002
 31
0.0
  0
LINE
  5
9A0A
330
978C
100
AcDbEntity
  8
1
  6
Continuous
100
AcDbLine
 10
35.91215600000001
 20
71.714854
 30
0.0
 11
38.762371
 21
74.56506899999998
 31
0.0
  0
ARC
  5
9A0B
330
978C
100
AcDbEntity
  8
1
  6
Continuous
100
AcDbCircle
 10
32.18516199999999
 20
66.57364699999999
 30
0.0
 40
10.34999999999999
100
AcDbArc
 50
39.455527
 51
50.54447299999999
  0
ENDSEC
  0
SECTION
  2
OBJECTS
  0
DICTIONARY
  5
977A
330
0
100
AcDbDictionary
281
     1
  3
ACAD_CIP_PREVIOUS_PRODUCT_INFO
350
9A6F
  3
ACAD_COLOR
350
9A51
  3
ACAD_DETAILVIEWSTYLE
350
9A6A
  3
ACAD_GROUP
350
977B
  3
ACAD_LAYOUT
350
9787
  3
ACAD_MATERIAL
350
9A1F
  3
ACAD_MLEADERSTYLE
350
9A66
  3
ACAD_MLINESTYLE
350
9784
  3
ACAD_PLOTSETTINGS
350
9786
  3
ACAD_PLOTSTYLENAME
350
9A1D
  3
ACAD_SCALELIST
350
9A54
  3
ACAD_SECTIONVIEWSTYLE
350
9A68
  3
ACAD_TABLESTYLE
350
9A52
  3
ACAD_VISUALSTYLE
350
9A38
  3
ACDB_RECOMPOSE_DATA
350
9A8D
  3
AcDbVariableDictionary
350
9A80
  3
DWGPROPS
350
9A8E
  0
DICTIONARY
  5
9A70
330
977E
100
AcDbDictionary
280
     1
281
     1
  3
ADSK_XREC_LAYER_RECONCILED
360
9A71
  0
DICTIONARY
  5
9A72
330
9794
100
AcDbDictionary
280
     1
281
     1
  3
ADSK_XREC_LAYER_RECONCILED
360
9A73
  0
DICTIONARY
  5
9A74
330
9795
100
AcDbDictionary
280
     1
281
     1
  3
ADSK_XREC_LAYER_RECONCILED
360
9A75
  0
DICTIONARY
  5
9A76
330
9796
100
AcDbDictionary
280
     1
281
     1
  3
ADSK_XREC_LAYER_RECONCILED
360
9A77
  0
DICTIONARY
  5
9A78
330
9797
100
AcDbDictionary
280
     1
281
     1
  3
ADSK_XREC_LAYER_RECONCILED
360
9A79
  0
DICTIONARY
  5
9A7A
330
9798
100
AcDbDictionary
280
     1
281
     1
  3
ADSK_XREC_LAYER_RECONCILED
360
9A7B
  0
DICTIONARY
  5
9A7C
330
9799
100
AcDbDictionary
280
     1
281
     1
  3
ADSK_XREC_LAYER_RECONCILED
360
9A7D
  0
DICTIONARY
  5
9A7E
330
979A
100
AcDbDictionary
280
     1
281
     1
  3
ADSK_XREC_LAYER_RECONCILED
360
9A7F
  0
DICTIONARY
  5
9A18
330
978C
100
AcDbDictionary
281
     1
  3
ACAD_LAYOUTSELFREF
350
9A19
  0
DICTIONARY
  5
9A16
330
9788
100
AcDbDictionary
281
     1
  3
ACAD_LAYOUTSELFREF
350
9A17
  0
XRECORD
  5
9A6F
102
{ACAD_REACTORS
330
977A
102
}
330
977A
100
AcDbXrecord
280
     1
300
ACDLT
300
2014
300
ACDLT_F_S
  0
DICTIONARY
  5
9A51
102
{ACAD_REACTORS
330
977A
102
}
330
977A
100
AcDbDictionary
281
     1
  0
DICTIONARY
  5
9A6A
102
{ACAD_REACTORS
330
977A
102
}
330
977A
100
AcDbDictionary
281
     1
  3
Imperial24
350
9A6B
  0
DICTIONARY
  5
977B
102
{ACAD_REACTORS
330
977A
102
}
330
977A
100
AcDbDictionary
281
     1
  0
DICTIONARY
  5
9787
102
{ACAD_REACTORS
330
977A
102
}
330
977A
100
AcDbDictionary
281
     1
  3
Model
350
9A6C
  3
レイアウト1
350
9A6D
  0
DICTIONARY
  5
9A1F
102
{ACAD_REACTORS
330
977A
102
}
330
977A
100
AcDbDictionary
281
     1
  3
ByBlock
350
9A28
  3
ByLayer
350
9A20
  3
Global
350
9A30
  0
DICTIONARY
  5
9A66
102
{ACAD_REACTORS
330
977A
102
}
330
977A
100
AcDbDictionary
281
     1
  3
Standard
350
9A67
  0
DICTIONARY
  5
9784
102
{ACAD_REACTORS
330
977A
102
}
330
977A
100
AcDbDictionary
281
     1
  3
STANDARD
350
9785
  0
DICTIONARY
  5
9786
102
{ACAD_REACTORS
330
977A
102
}
330
977A
100
AcDbDictionary
281
     1
  0
ACDBDICTIONARYWDFLT
  5
9A1D
102
{ACAD_REACTORS
330
977A
102
}
330
977A
100
AcDbDictionary
281
     1
  3
Normal
350
9A1E
100
AcDbDictionaryWithDefault
340
9A1E
  0
DICTIONARY
  5
9A54
102
{ACAD_REACTORS
330
977A
102
}
330
977A
100
AcDbDictionary
281
     1
  3
A0
350
9A55
  3
A1
350
9A56
  3
A2
350
9A57
  3
A3
350
9A58
  3
A4
350
9A59
  3
A5
350
9A5A
  3
A6
350
9A5B
  3
A7
350
9A5C
  3
A8
350
9A5D
  3
A9
350
9A5E
  3
B0
350
9A5F
  3
B1
350
9A60
  3
B2
350
9A61
  3
B3
350
9A62
  3
B4
350
9A63
  3
B5
350
9A64
  3
B6
350
9A65
  0
DICTIONARY
  5
9A68
102
{ACAD_REACTORS
330
977A
102
}
330
977A
100
AcDbDictionary
281
     1
  3
Imperial24
350
9A69
  0
DICTIONARY
  5
9A52
102
{ACAD_REACTORS
330
977A
102
}
330
977A
100
AcDbDictionary
281
     1
  3
Standard
350
9A53
  0
DICTIONARY
  5
9A38
102
{ACAD_REACTORS
330
977A
102
}
330
977A
100
AcDbDictionary
281
     1
  3
2dWireframe
350
9A3E
  3
Basic
350
9A3D
  3
Brighten
350
9A44
  3
ColorChange
350
9A48
  3
Conceptual
350
9A41
  3
Dim
350
9A43
  3
EdgeColorOff
350
9A50
  3
Facepattern
350
9A47
  3
Flat
350
9A39
  3
FlatWithEdges
350
9A3A
  3
Gouraud
350
9A3B
  3
GouraudWithEdges
350
9A3C
  3
Hidden
350
9A40
  3
JitterOff
350
9A4E
  3
Linepattern
350
9A46
  3
OverhangOff
350
9A4F
  3
Realistic
350
9A42
  3
Shaded
350
9A4D
  3
Shaded with edges
350
9A4C
  3
Shades of Gray
350
9A49
  3
Sketchy
350
9A4A
  3
Thicken
350
9A45
  3
Wireframe
350
9A3F
  3
X-Ray
350
9A4B
  0
XRECORD
  5
9A8D
102
{ACAD_REACTORS
330
977A
102
}
330
977A
100
AcDbXrecord
280
     1
 90
        1
330
9A53
  0
DICTIONARY
  5
9A80
102
{ACAD_REACTORS
330
977A
102
}
330
977A
100
AcDbDictionary
281
     1
  3
CANNOSCALE
350
9A85
  3
CMLEADERSTYLE
350
9A82
  3
CTABLESTYLE
350
9A81
  3
CVIEWDETAILSTYLE
350
9A83
  3
CVIEWSECTIONSTYLE
350
9A84
  3
DIMASSOC
350
9A88
  3
INDEXCTL
350
9A87
  3
SORTENTS
350
9A86
  3
XCLIPFRAME
350
9A89
  0
XRECORD
  5
9A8E
102
{ACAD_REACTORS
330
977A
102
}
330
977A
100
AcDbXrecord
280
     1
  1
DWGPROPS COOKIE
  2

  3

  4

  6

  7

  8
Yoshitsune
  9

300
=
301
=
302
=
303
=
304
=
305
=
306
=
307
=
308
=
309
=
 40
0.0000141782407407
 41
2450945.566641551
 42
2457192.600751007
  1

 90
        0
  0
XRECORD
  5
9A71
102
{ACAD_REACTORS
330
9A70
102
}
330
9A70
100
AcDbXrecord
280
     1
290
     1
  0
XRECORD
  5
9A73
102
{ACAD_REACTORS
330
9A72
102
}
330
9A72
100
AcDbXrecord
280
     1
290
     1
  0
XRECORD
  5
9A75
102
{ACAD_REACTORS
330
9A74
102
}
330
9A74
100
AcDbXrecord
280
     1
290
     1
  0
XRECORD
  5
9A77
102
{ACAD_REACTORS
330
9A76
102
}
330
9A76
100
AcDbXrecord
280
     1
290
     1
  0
XRECORD
  5
9A79
102
{ACAD_REACTORS
330
9A78
102
}
330
9A78
100
AcDbXrecord
280
     1
290
     1
  0
XRECORD
  5
9A7B
102
{ACAD_REACTORS
330
9A7A
102
}
330
9A7A
100
AcDbXrecord
280
     1
290
     1
  0
XRECORD
  5
9A7D
102
{ACAD_REACTORS
330
9A7C
102
}
330
9A7C
100
AcDbXrecord
280
     1
290
     1
  0
XRECORD
  5
9A7F
102
{ACAD_REACTORS
330
9A7E
102
}
330
9A7E
100
AcDbXrecord
280
     1
290
     1
  0
XRECORD
  5
9A19
102
{ACAD_REACTORS
330
9A18
102
}
330
9A18
100
AcDbXrecord
280
     1
340
978C
  0
XRECORD
  5
9A17
102
{ACAD_REACTORS
330
9A16
102
}
330
9A16
100
AcDbXrecord
280
     1
340
9788
  0
ACDBDETAILVIEWSTYLE
  5
9A6B
102
{ACAD_XDICTIONARY
360
9AC6
102
}
102
{ACAD_REACTORS
330
9A6A
102
}
330
9A6A
100
AcDbModelDocViewStyle
 70
     0
  3
Imperial24
290
     0
100
AcDbDetailViewStyle
 70
     0
 71
     0
 90
        3
 71
     1
340
977F
 40
0.24
340
0
 40
0.24
300

 40
0.36
280
     3
 71
     2
340
9783
 90
       25
 71
     3
340
977F
 40
0.24
 90
        1
 40
0.75
 90
        1
300
%<\AcVar ViewType \f "%tc1">% %<\AcVar ViewDetailId>%\PSCALE %<\AcVar ViewScale \f "%sn">%
 71
     4
340
9783
 90
       25
340
9783
 90
       25
280
     0
  0
LAYOUT
  5
9A6C
102
{ACAD_XDICTIONARY
360
9AC8
102
}
102
{ACAD_REACTORS
330
9787
102
}
330
9787
100
AcDbPlotSettings
  1

  2
Canon LBP9100C
  4

  6

 40
0.0
 41
0.0
 42
0.0
 43
0.0
 44
0.0
 45
0.0
 46
0.0
 47
0.0
 48
0.0
 49
0.0
140
0.0
141
0.0
142
1.0
143
1.0
 70
  1712
 72
     0
 73
     0
 74
     0
  7

 75
     0
147
1.0
148
0.0
149
0.0
100
AcDbLayout
  1
Model
 70
     1
 71
     0
 10
0.0
 20
0.0
 11
12.0
 21
9.0
 12
0.0
 22
0.0
 32
0.0
 14
0.0
 24
0.0
 34
0.0
 15
0.0
 25
0.0
 35
0.0
146
0.0
 13
0.0
 23
0.0
 33
0.0
 16
1.0
 26
0.0
 36
0.0
 17
0.0
 27
1.0
 37
0.0
 76
     0
330
978C
331
9A15
  0
LAYOUT
  5
9A6D
102
{ACAD_XDICTIONARY
360
9ACA
102
}
102
{ACAD_REACTORS
330
9787
102
}
330
9787
100
AcDbPlotSettings
  1

  2
Canon LBP9100C
  4

  6

 40
0.0
 41
0.0
 42
0.0
 43
0.0
 44
0.0
 45
0.0
 46
0.0
 47
0.0
 48
0.0
 49
0.0
140
0.0
141
0.0
142
1.0
143
1.0
 70
   688
 72
     0
 73
     0
 74
     5
  7

 75
    16
147
1.0
148
0.0
149
0.0
100
AcDbLayout
  1
レイアウト1
 70
     0
 71
     1
 10
0.0
 20
0.0
 11
420.0
 21
297.0
 12
0.0
 22
0.0
 32
0.0
 14
1.000000000000000E+20
 24
1.000000000000000E+20
 34
1.000000000000000E+20
 15
-1.000000000000000E+20
 25
-1.000000000000000E+20
 35
-1.000000000000000E+20
146
0.0
 13
0.0
 23
0.0
 33
0.0
 16
1.0
 26
0.0
 36
0.0
 17
0.0
 27
1.0
 37
0.0
 76
     0
330
9788
  0
MATERIAL
  5
9A28
102
{ACAD_XDICTIONARY
360
9A29
102
}
102
{ACAD_REACTORS
330
9A1F
102
}
330
9A1F
100
AcDbMaterial
  1
ByBlock
 72
     0
 43
0.0208333333333333
 43
0.0
 43
0.0
 43
0.0
 43
0.0
 43
0.0208333333333333
 43
0.0
 43
0.0
 43
0.0
 43
0.0
 43
1.0
 43
0.0
 43
0.0
 43
0.0
 43
0.0
 43
1.0
 77
     0
 47
0.0208333333333333
 47
0.0
 47
0.0
 47
0.0
 47
0.0
 47
0.0208333333333333
 47
0.0
 47
0.0
 47
0.0
 47
0.0
 47
1.0
 47
0.0
 47
0.0
 47
0.0
 47
0.0
 47
1.0
171
     0
 49
0.0208333333333333
 49
0.0
 49
0.0
 49
0.0
 49
0.0
 49
0.0208333333333333
 49
0.0
 49
0.0
 49
0.0
 49
0.0
 49
1.0
 49
0.0
 49
0.0
 49
0.0
 49
0.0
 49
1.0
175
     0
142
0.0208333333333333
142
0.0
142
0.0
142
0.0
142
0.0
142
0.0208333333333333
142
0.0
142
0.0
142
0.0
142
0.0
142
1.0
142
0.0
142
0.0
142
0.0
142
0.0
142
1.0
179
     0
144
0.0208333333333333
144
0.0
144
0.0
144
0.0
144
0.0
144
0.0208333333333333
144
0.0
144
0.0
144
0.0
144
0.0
144
1.0
144
0.0
144
0.0
144
0.0
144
0.0
144
1.0
147
0.0208333333333333
147
0.0
147
0.0
147
0.0
147
0.0
147
0.0208333333333333
147
0.0
147
0.0
147
0.0
147
0.0
147
1.0
147
0.0
147
0.0
147
0.0
147
0.0
147
1.0
  0
MATERIAL
  5
9A20
102
{ACAD_XDICTIONARY
360
9A21
102
}
102
{ACAD_REACTORS
330
9A1F
102
}
330
9A1F
100
AcDbMaterial
  1
ByLayer
 72
     0
 43
0.0208333333333333
 43
0.0
 43
0.0
 43
0.0
 43
0.0
 43
0.0208333333333333
 43
0.0
 43
0.0
 43
0.0
 43
0.0
 43
1.0
 43
0.0
 43
0.0
 43
0.0
 43
0.0
 43
1.0
 77
     0
 47
0.0208333333333333
 47
0.0
 47
0.0
 47
0.0
 47
0.0
 47
0.0208333333333333
 47
0.0
 47
0.0
 47
0.0
 47
0.0
 47
1.0
 47
0.0
 47
0.0
 47
0.0
 47
0.0
 47
1.0
171
     0
 49
0.0208333333333333
 49
0.0
 49
0.0
 49
0.0
 49
0.0
 49
0.0208333333333333
 49
0.0
 49
0.0
 49
0.0
 49
0.0
 49
1.0
 49
0.0
 49
0.0
 49
0.0
 49
0.0
 49
1.0
175
     0
142
0.0208333333333333
142
0.0
142
0.0
142
0.0
142
0.0
142
0.0208333333333333
142
0.0
142
0.0
142
0.0
142
0.0
142
1.0
142
0.0
142
0.0
142
0.0
142
0.0
142
1.0
179
     0
144
0.0208333333333333
144
0.0
144
0.0
144
0.0
144
0.0
144
0.0208333333333333
144
0.0
144
0.0
144
0.0
144
0.0
144
1.0
144
0.0
144
0.0
144
0.0
144
0.0
144
1.0
147
0.0208333333333333
147
0.0
147
0.0
147
0.0
147
0.0
147
0.0208333333333333
147
0.0
147
0.0
147
0.0
147
0.0
147
1.0
147
0.0
147
0.0
147
0.0
147
0.0
147
1.0
  0
MATERIAL
  5
9A30
102
{ACAD_XDICTIONARY
360
9A31
102
}
102
{ACAD_REACTORS
330
9A1F
102
}
330
9A1F
100
AcDbMaterial
  1
Global
 72
     0
 43
0.0208333333333333
 43
0.0
 43
0.0
 43
0.0
 43
0.0
 43
0.0208333333333333
 43
0.0
 43
0.0
 43
0.0
 43
0.0
 43
1.0
 43
0.0
 43
0.0
 43
0.0
 43
0.0
 43
1.0
 77
     0
 47
0.0208333333333333
 47
0.0
 47
0.0
 47
0.0
 47
0.0
 47
0.0208333333333333
 47
0.0
 47
0.0
 47
0.0
 47
0.0
 47
1.0
 47
0.0
 47
0.0
 47
0.0
 47
0.0
 47
1.0
171
     0
 49
0.0208333333333333
 49
0.0
 49
0.0
 49
0.0
 49
0.0
 49
0.0208333333333333
 49
0.0
 49
0.0
 49
0.0
 49
0.0
 49
1.0
 49
0.0
 49
0.0
 49
0.0
 49
0.0
 49
1.0
175
     0
142
0.0208333333333333
142
0.0
142
0.0
142
0.0
142
0.0
142
0.0208333333333333
142
0.0
142
0.0
142
0.0
142
0.0
142
1.0
142
0.0
142
0.0
142
0.0
142
0.0
142
1.0
179
     0
144
0.0208333333333333
144
0.0
144
0.0
144
0.0
144
0.0
144
0.0208333333333333
144
0.0
144
0.0
144
0.0
144
0.0
144
1.0
144
0.0
144
0.0
144
0.0
144
0.0
144
1.0
147
0.0208333333333333
147
0.0
147
0.0
147
0.0
147
0.0
147
0.0208333333333333
147
0.0
147
0.0
147
0.0
147
0.0
147
1.0
147
0.0
147
0.0
147
0.0
147
0.0
147
1.0
  0
MLEADERSTYLE
  5
9A67
102
{ACAD_REACTORS
330
9A66
102
}
330
9A66
100
AcDbMLeaderStyle
170
     2
171
     1
172
     0
 90
        2
 40
0.0
 41
0.0
173
     1
 91
-1056964608
340
9781
 92
       -2
290
     1
 42
0.09
291
     1
 43
0.36
  3
Standard
 44
0.18
300

342
977F
174
     1
178
     6
175
     1
176
     0
 93
-1056964608
 45
0.18
292
     0
297
     0
 46
0.18
 94
-1056964608
 47
1.0
 49
1.0
140
1.0
293
     1
141
0.0
294
     1
177
     0
142
1.0
295
     0
296
     0
143
0.125
1001
ACAD_MLEADERVER
1070
     2
  0
MLINESTYLE
  5
9785
102
{ACAD_REACTORS
330
9784
102
}
330
9784
100
AcDbMlineStyle
  2
STANDARD
 70
     0
  3

 62
   256
 51
90.0
 52
90.0
 71
     2
 49
0.5
 62
   256
  6
BYLAYER
 49
-0.5
 62
   256
  6
BYLAYER
  0
ACDBPLACEHOLDER
  5
9A1E
102
{ACAD_REACTORS
330
9A1D
102
}
330
9A1D
  0
SCALE
  5
9A55
102
{ACAD_REACTORS
330
9A54
102
}
330
9A54
100
AcDbScale
 70
     0
300
1:1
140
1.0
141
1.0
290
     1
  0
SCALE
  5
9A56
102
{ACAD_REACTORS
330
9A54
102
}
330
9A54
100
AcDbScale
 70
     0
300
1/128" = 1'-0"
140
0.0078125
141
12.0
290
     0
  0
SCALE
  5
9A57
102
{ACAD_REACTORS
330
9A54
102
}
330
9A54
100
AcDbScale
 70
     0
300
1/64" = 1'-0"
140
0.015625
141
12.0
290
     0
  0
SCALE
  5
9A58
102
{ACAD_REACTORS
330
9A54
102
}
330
9A54
100
AcDbScale
 70
     0
300
1/32" = 1'-0"
140
0.03125
141
12.0
290
     0
  0
SCALE
  5
9A59
102
{ACAD_REACTORS
330
9A54
102
}
330
9A54
100
AcDbScale
 70
     0
300
1/16" = 1'-0"
140
0.0625
141
12.0
290
     0
  0
SCALE
  5
9A5A
102
{ACAD_REACTORS
330
9A54
102
}
330
9A54
100
AcDbScale
 70
     0
300
3/32" = 1'-0"
140
0.09375
141
12.0
290
     0
  0
SCALE
  5
9A5B
102
{ACAD_REACTORS
330
9A54
102
}
330
9A54
100
AcDbScale
 70
     0
300
1/8" = 1'-0"
140
0.125
141
12.0
290
     0
  0
SCALE
  5
9A5C
102
{ACAD_REACTORS
330
9A54
102
}
330
9A54
100
AcDbScale
 70
     0
300
3/16" = 1'-0"
140
0.1875
141
12.0
290
     0
  0
SCALE
  5
9A5D
102
{ACAD_REACTORS
330
9A54
102
}
330
9A54
100
AcDbScale
 70
     0
300
1/4" = 1'-0"
140
0.25
141
12.0
290
     0
  0
SCALE
  5
9A5E
102
{ACAD_REACTORS
330
9A54
102
}
330
9A54
100
AcDbScale
 70
     0
300
3/8" = 1'-0"
140
0.375
141
12.0
290
     0
  0
SCALE
  5
9A5F
102
{ACAD_REACTORS
330
9A54
102
}
330
9A54
100
AcDbScale
 70
     0
300
1/2" = 1'-0"
140
0.5
141
12.0
290
     0
  0
SCALE
  5
9A60
102
{ACAD_REACTORS
330
9A54
102
}
330
9A54
100
AcDbScale
 70
     0
300
3/4" = 1'-0"
140
0.75
141
12.0
290
     0
  0
SCALE
  5
9A61
102
{ACAD_REACTORS
330
9A54
102
}
330
9A54
100
AcDbScale
 70
     0
300
1" = 1'-0"
140
1.0
141
12.0
290
     0
  0
SCALE
  5
9A62
102
{ACAD_REACTORS
330
9A54
102
}
330
9A54
100
AcDbScale
 70
     0
300
1-1/2" = 1'-0"
140
1.5
141
12.0
290
     0
  0
SCALE
  5
9A63
102
{ACAD_REACTORS
330
9A54
102
}
330
9A54
100
AcDbScale
 70
     0
300
3" = 1'-0"
140
3.0
141
12.0
290
     0
  0
SCALE
  5
9A64
102
{ACAD_REACTORS
330
9A54
102
}
330
9A54
100
AcDbScale
 70
     0
300
6" = 1'-0"
140
6.0
141
12.0
290
     0
  0
SCALE
  5
9A65
102
{ACAD_REACTORS
330
9A54
102
}
330
9A54
100
AcDbScale
 70
     0
300
1'-0" = 1'-0"
140
12.0
141
12.0
290
     0
  0
ACDBSECTIONVIEWSTYLE
  5
9A69
102
{ACAD_XDICTIONARY
360
9AC4
102
}
102
{ACAD_REACTORS
330
9A68
102
}
330
9A68
100
AcDbModelDocViewStyle
 70
     0
  3
Imperial24
290
     0
100
AcDbSectionViewStyle
 70
     0
 71
     0
 90
       78
 71
     1
340
977F
 40
0.24
340
0
340
0
 40
0.24
300
I, O, Q, S, X, Z
 40
0.48
 90
        3
 40
0.18
 90
        1
 71
     2
340
9783
 90
       25
340
9783
 90
       50
 40
0.24
 40
0.0
 40
0.24
 71
     3
340
977F
 40
0.24
 90
        1
 40
0.75
 90
        1
300
%<\AcVar ViewType \f "%tc1">% %<\AcVar ViewSectionStartId>%-%<\AcVar ViewSectionEndId>%\PSCALE %<\AcVar ViewScale \f "%sn">%
 71
     4
300
ANSI31
 40
1.0
 90
        0
290
     0
290
     0
 90
        6
 40
0.0
 40
1.570796326794896
 40
0.2617993877991494
 40
1.308996938995747
 40
-0.2617993877991494
 40
1.832595714594046
  0
TABLESTYLE
  5
9A53
102
{ACAD_XDICTIONARY
360
9A8B
102
}
102
{ACAD_REACTORS
330
9A52
102
}
330
9A52
100
AcDbTableStyle
  3
Standard
 70
     0
 71
     0
 40
0.06
 41
0.06
280
     0
281
     0
  7
STANDARD
140
0.18
170
     2
 62
     0
 63
     7
283
     0
274
    -2
284
     1
 64
     0
275
    -2
285
     1
 65
     0
276
    -2
286
     1
 66
     0
277
    -2
287
     1
 67
     0
278
    -2
288
     1
 68
     0
279
    -2
289
     1
 69
     0
  7
STANDARD
140
0.25
170
     5
 62
     0
 63
     7
283
     0
274
    -2
284
     1
 64
     0
275
    -2
285
     1
 65
     0
276
    -2
286
     1
 66
     0
277
    -2
287
     1
 67
     0
278
    -2
288
     1
 68
     0
279
    -2
289
     1
 69
     0
  7
STANDARD
140
0.18
170
     5
 62
     0
 63
     7
283
     0
274
    -2
284
     1
 64
     0
275
    -2
285
     1
 65
     0
276
    -2
286
     1
 66
     0
277
    -2
287
     1
 67
     0
278
    -2
288
     1
 68
     0
279
    -2
289
     1
 69
     0
  0
VISUALSTYLE
  5
9A3E
102
{ACAD_XDICTIONARY
360
9A9C
102
}
102
{ACAD_REACTORS
330
9A38
102
}
330
9A38
100
AcDbVisualStyle
  2
2dWireframe
 70
     4
 71
     0
 72
     2
 73
     0
 90
        0
 40
-0.6
 41
-30.0
 62
     5
 63
     7
 74
     1
 91
        4
 64
     7
 65
   257
 75
     1
175
     1
 42
1.0
 92
        0
 66
   257
 43
1.0
 76
     1
 77
     6
 78
     2
 67
     7
 79
     5
170
     0
171
     0
290
     0
174
     0
 93
        1
 44
0.0
173
     0
291
     0
 45
0.0
1001
ACAD
1000
AcDbSavedByObjectVersion
1070
     0
  0
VISUALSTYLE
  5
9A3D
102
{ACAD_XDICTIONARY
360
9A9A
102
}
102
{ACAD_REACTORS
330
9A38
102
}
330
9A38
100
AcDbVisualStyle
  2
Basic
 70
     7
 71
     1
 72
     0
 73
     1
 90
        0
 40
-0.6
 41
-30.0
 62
     5
 63
     7
 74
     0
 91
        4
 64
     7
 65
   257
 75
     1
175
     1
 42
1.0
 92
        8
 66
     7
 43
1.0
 76
     1
 77
     6
 78
     2
 67
     7
 79
     5
170
     0
171
     0
290
     0
174
     0
 93
        1
 44
0.0
173
     0
291
     1
 45
0.0
1001
ACAD
1000
AcDbSavedByObjectVersion
1070
     0
  0
VISUALSTYLE
  5
9A44
102
{ACAD_XDICTIONARY
360
9AA8
102
}
102
{ACAD_REACTORS
330
9A38
102
}
330
9A38
100
AcDbVisualStyle
  2
Brighten
 70
    12
 71
     2
 72
     2
 73
     0
 90
        0
 40
-0.6
 41
-30.0
 62
     5
 63
     7
 74
     1
 91
        4
 64
     7
 65
   257
 75
     1
175
     1
 42
1.0
 92
        8
 66
     7
 43
1.0
 76
     1
 77
     6
 78
     2
 67
     7
 79
     5
170
     0
171
     0
290
     0
174
     0
 93
        1
 44
50.0
173
     0
291
     1
 45
0.0
1001
ACAD
1000
AcDbSavedByObjectVersion
1070
     0
  0
VISUALSTYLE
  5
9A48
102
{ACAD_XDICTIONARY
360
9AB0
102
}
102
{ACAD_REACTORS
330
9A38
102
}
330
9A38
100
AcDbVisualStyle
  2
ColorChange
 70
    16
 71
     2
 72
     2
 73
     3
 90
        0
 40
-0.6
 41
-30.0
 62
     5
 63
     8
 74
     1
 91
        4
 64
     7
 65
   257
 75
     1
175
     1
 42
1.0
 92
        8
 66
     8
 43
1.0
 76
     1
 77
     6
 78
     2
 67
     7
 79
     5
170
     0
171
     0
290
     0
174
     0
 93
        1
 44
0.0
173
     0
291
     1
 45
0.0
1001
ACAD
1000
AcDbSavedByObjectVersion
1070
     0
  0
VISUALSTYLE
  5
9A41
102
{ACAD_XDICTIONARY
360
9AA2
102
}
102
{ACAD_REACTORS
330
9A38
102
}
330
9A38
100
AcDbVisualStyle
  2
Conceptual
 70
     9
 71
     3
 72
     2
 73
     0
 90
        0
 40
-0.6
 41
-30.0
 62
     5
 63
     7
 74
     2
 91
        2
 64
     7
 65
   257
 75
     1
175
     1
 42
179.0
 92
        8
 66
     7
 43
1.0
 76
     1
 77
     6
 78
     2
 67
     7
 79
     3
170
     0
171
     0
290
     0
174
     0
 93
        1
 44
0.0
173
     0
291
     0
 45
0.0
1001
ACAD
1000
AcDbSavedByObjectVersion
1070
     0
  0
VISUALSTYLE
  5
9A43
102
{ACAD_XDICTIONARY
360
9AA6
102
}
102
{ACAD_REACTORS
330
9A38
102
}
330
9A38
100
AcDbVisualStyle
  2
Dim
 70
    11
 71
     2
 72
     2
 73
     0
 90
        0
 40
-0.6
 41
-30.0
 62
     5
 63
     7
 74
     1
 91
        4
 64
     7
 65
   257
 75
     1
175
     1
 42
1.0
 92
        8
 66
     7
 43
1.0
 76
     1
 77
     6
 78
     2
 67
     7
 79
     5
170
     0
171
     0
290
     0
174
     0
 93
        1
 44
-50.0
173
     0
291
     1
 45
0.0
1001
ACAD
1000
AcDbSavedByObjectVersion
1070
     0
  0
VISUALSTYLE
  5
9A50
102
{ACAD_XDICTIONARY
360
9AC0
102
}
102
{ACAD_REACTORS
330
9A38
102
}
330
9A38
100
AcDbVisualStyle
  2
EdgeColorOff
 70
    22
 71
     2
 72
     2
 73
     0
 90
        0
 40
-0.6
 41
-30.0
 62
     5
 63
     7
 74
     1
 91
        4
 64
     7
 65
   257
 75
     1
175
     1
 42
1.0
 92
        8
 66
     7
 43
1.0
 76
     1
 77
     6
 78
     2
 67
     7
 79
     5
170
     0
171
     0
290
     0
174
     0
 93
        1
 44
0.0
173
     0
291
     1
 45
0.0
1001
ACAD
1000
AcDbSavedByObjectVersion
1070
     0
  0
VISUALSTYLE
  5
9A47
102
{ACAD_XDICTIONARY
360
9AAE
102
}
102
{ACAD_REACTORS
330
9A38
102
}
330
9A38
100
AcDbVisualStyle
  2
Facepattern
 70
    15
 71
     2
 72
     2
 73
     0
 90
        0
 40
-0.6
 41
-30.0
 62
     5
 63
     7
 74
     1
 91
        4
 64
     7
 65
   257
 75
     1
175
     1
 42
1.0
 92
        8
 66
     7
 43
1.0
 76
     1
 77
     6
 78
     2
 67
     7
 79
     5
170
     0
171
     0
290
     0
174
     0
 93
        1
 44
0.0
173
     0
291
     1
 45
0.0
1001
ACAD
1000
AcDbSavedByObjectVersion
1070
     0
  0
VISUALSTYLE
  5
9A39
102
{ACAD_XDICTIONARY
360
9A92
102
}
102
{ACAD_REACTORS
330
9A38
102
}
330
9A38
100
AcDbVisualStyle
  2
Flat
 70
     0
 71
     2
 72
     1
 73
     1
 90
        2
 40
-0.6
 41
30.0
 62
     5
 63
     7
 74
     0
 91
        0
 64
     7
 65
   257
 75
     1
175
     1
 42
1.0
 92
        8
 66
     7
 43
1.0
 76
     1
 77
     6
 78
     2
 67
     7
 79
     5
170
     0
171
     0
290
     0
174
     0
 93
       13
 44
0.0
173
     0
291
     1
 45
0.0
1001
ACAD
1000
AcDbSavedByObjectVersion
1070
     0
  0
VISUALSTYLE
  5
9A3A
102
{ACAD_XDICTIONARY
360
9A94
102
}
102
{ACAD_REACTORS
330
9A38
102
}
330
9A38
100
AcDbVisualStyle
  2
FlatWithEdges
 70
     1
 71
     2
 72
     1
 73
     1
 90
        2
 40
-0.6
 41
30.0
 62
     5
 63
     7
 74
     1
 91
        0
 64
     7
 65
   257
 75
     1
175
     1
 42
1.0
 92
        0
 66
   257
 43
1.0
 76
     1
 77
     6
 78
     2
 67
     7
 79
     5
170
     0
171
     0
290
     0
174
     0
 93
       13
 44
0.0
173
     0
291
     1
 45
0.0
1001
ACAD
1000
AcDbSavedByObjectVersion
1070
     0
  0
VISUALSTYLE
  5
9A3B
102
{ACAD_XDICTIONARY
360
9A96
102
}
102
{ACAD_REACTORS
330
9A38
102
}
330
9A38
100
AcDbVisualStyle
  2
Gouraud
 70
     2
 71
     2
 72
     2
 73
     1
 90
        2
 40
-0.6
 41
30.0
 62
     5
 63
     7
 74
     0
 91
        0
 64
     7
 65
   257
 75
     1
175
     1
 42
1.0
 92
        0
 66
     7
 43
1.0
 76
     1
 77
     6
 78
     2
 67
     7
 79
     5
170
     0
171
     0
290
     0
174
     0
 93
       13
 44
0.0
173
     0
291
     1
 45
0.0
1001
ACAD
1000
AcDbSavedByObjectVersion
1070
     0
  0
VISUALSTYLE
  5
9A3C
102
{ACAD_XDICTIONARY
360
9A98
102
}
102
{ACAD_REACTORS
330
9A38
102
}
330
9A38
100
AcDbVisualStyle
  2
GouraudWithEdges
 70
     3
 71
     2
 72
     2
 73
     1
 90
        2
 40
-0.6
 41
30.0
 62
     5
 63
     7
 74
     1
 91
        0
 64
     7
 65
   257
 75
     1
175
     1
 42
1.0
 92
        0
 66
   257
 43
1.0
 76
     1
 77
     6
 78
     2
 67
     7
 79
     5
170
     0
171
     0
290
     0
174
     0
 93
       13
 44
0.0
173
     0
291
     1
 45
0.0
1001
ACAD
1000
AcDbSavedByObjectVersion
1070
     0
  0
VISUALSTYLE
  5
9A40
102
{ACAD_XDICTIONARY
360
9AA0
102
}
102
{ACAD_REACTORS
330
9A38
102
}
330
9A38
100
AcDbVisualStyle
  2
Hidden
 70
     6
 71
     1
 72
     2
 73
     2
 90
        0
 40
-0.6
 41
-30.0
 62
     5
 63
     7
 74
     2
 91
        2
 64
     7
 65
   257
 75
     2
175
     1
 42
40.0
 92
        0
 66
   257
 43
1.0
 76
     1
 77
     6
 78
     2
 67
     7
 79
     3
170
     0
171
     0
290
     0
174
     0
 93
        1
 44
0.0
173
     0
291
     0
 45
0.0
1001
ACAD
1000
AcDbSavedByObjectVersion
1070
     0
  0
VISUALSTYLE
  5
9A4E
102
{ACAD_XDICTIONARY
360
9ABC
102
}
102
{ACAD_REACTORS
330
9A38
102
}
330
9A38
100
AcDbVisualStyle
  2
JitterOff
 70
    20
 71
     2
 72
     2
 73
     0
 90
        0
 40
-0.6
 41
-30.0
 62
     5
 63
     7
 74
     1
 91
        4
 64
     7
 65
   257
 75
     1
175
     1
 42
1.0
 92
       10
 66
     7
 43
1.0
 76
     1
 77
     6
 78
     2
 67
     7
 79
     5
170
     0
171
     0
290
     0
174
     0
 93
        1
 44
0.0
173
     0
291
     1
 45
0.0
1001
ACAD
1000
AcDbSavedByObjectVersion
1070
     0
  0
VISUALSTYLE
  5
9A46
102
{ACAD_XDICTIONARY
360
9AAC
102
}
102
{ACAD_REACTORS
330
9A38
102
}
330
9A38
100
AcDbVisualStyle
  2
Linepattern
 70
    14
 71
     2
 72
     2
 73
     0
 90
        0
 40
-0.6
 41
-30.0
 62
     5
 63
     7
 74
     1
 91
        4
 64
     7
 65
   257
 75
     7
175
     7
 42
1.0
 92
        8
 66
     7
 43
1.0
 76
     1
 77
     6
 78
     2
 67
     7
 79
     5
170
     0
171
     0
290
     0
174
     0
 93
        1
 44
0.0
173
     0
291
     1
 45
0.0
1001
ACAD
1000
AcDbSavedByObjectVersion
1070
     0
  0
VISUALSTYLE
  5
9A4F
102
{ACAD_XDICTIONARY
360
9ABE
102
}
102
{ACAD_REACTORS
330
9A38
102
}
330
9A38
100
AcDbVisualStyle
  2
OverhangOff
 70
    21
 71
     2
 72
     2
 73
     0
 90
        0
 40
-0.6
 41
-30.0
 62
     5
 63
     7
 74
     1
 91
        4
 64
     7
 65
   257
 75
     1
175
     1
 42
1.0
 92
        9
 66
     7
 43
1.0
 76
     1
 77
     6
 78
     2
 67
     7
 79
     5
170
     0
171
     0
290
     0
174
     0
 93
        1
 44
0.0
173
     0
291
     1
 45
0.0
1001
ACAD
1000
AcDbSavedByObjectVersion
1070
     0
  0
VISUALSTYLE
  5
9A42
102
{ACAD_XDICTIONARY
360
9AA4
102
}
102
{ACAD_REACTORS
330
9A38
102
}
330
9A38
100
AcDbVisualStyle
  2
Realistic
 70
     8
 71
     2
 72
     3
 73
     0
 90
        2
 40
-0.6
 41
30.0
 62
     5
 63
     7
 74
     0
 91
        0
 64
     7
 65
   257
 75
     1
175
     1
 42
1.0
 92
        8
 66
   257
 43
1.0
 76
     1
 77
     6
 78
     2
 67
     7
 79
     3
170
     0
171
     0
290
     0
174
     0
 93
       13
 44
0.0
173
     0
291
     0
 45
0.0
1001
ACAD
1000
AcDbSavedByObjectVersion
1070
     0
  0
VISUALSTYLE
  5
9A4D
102
{ACAD_XDICTIONARY
360
9ABA
102
}
102
{ACAD_REACTORS
330
9A38
102
}
330
9A38
100
AcDbVisualStyle
  2
Shaded
 70
    27
 71
     2
 72
     2
 73
     1
 90
        2
 40
-0.6
 41
30.0
 62
     5
 63
     7
 74
     0
 91
        4
 64
     7
 65
   257
 75
     1
175
     1
 42
1.0
 92
        8
 66
   257
 43
1.0
 76
     1
 77
     6
 78
     2
 67
     8
 79
     3
170
     0
171
     0
290
     0
174
     0
 93
        5
 44
0.0
173
     0
291
     0
 45
0.0
1001
ACAD
1000
AcDbSavedByObjectVersion
1070
     0
  0
VISUALSTYLE
  5
9A4C
102
{ACAD_XDICTIONARY
360
9AB8
102
}
102
{ACAD_REACTORS
330
9A38
102
}
330
9A38
100
AcDbVisualStyle
  2
Shaded with edges
 70
    26
 71
     2
 72
     2
 73
     1
 90
        2
 40
-0.6
 41
30.0
 62
     5
 63
     7
 74
     1
 91
       10
 64
     7
 65
   257
 75
     2
175
     1
 42
1.0
 92
        8
 66
   257
 43
1.0
 76
     1
 77
     6
 78
     2
 67
     7
 79
     3
170
     0
171
     0
290
     0
174
     0
 93
        5
 44
0.0
173
     0
291
     0
 45
0.0
1001
ACAD
1000
AcDbSavedByObjectVersion
1070
     0
  0
VISUALSTYLE
  5
9A49
102
{ACAD_XDICTIONARY
360
9AB2
102
}
102
{ACAD_REACTORS
330
9A38
102
}
330
9A38
100
AcDbVisualStyle
  2
Shades of Gray
 70
    23
 71
     2
 72
     2
 73
     3
 90
        0
 40
-0.6
 41
-30.0
 62
     5
 63
     7
 74
     2
 91
        2
 64
     7
 65
     7
 75
     1
175
     1
 42
40.0
 92
        8
 66
     7
 43
1.0
 76
     1
 77
     6
 78
     2
 67
     7
 79
     3
170
     0
171
     0
290
     0
174
     0
 93
        1
 44
0.0
173
     0
291
     0
 45
0.0
1001
ACAD
1000
AcDbSavedByObjectVersion
1070
     0
  0
VISUALSTYLE
  5
9A4A
102
{ACAD_XDICTIONARY
360
9AB4
102
}
102
{ACAD_REACTORS
330
9A38
102
}
330
9A38
100
AcDbVisualStyle
  2
Sketchy
 70
    24
 71
     1
 72
     2
 73
     2
 90
        0
 40
-0.6
 41
-30.0
 62
     5
 63
     7
 74
     2
 91
        2
 64
     7
 65
     7
 75
     1
175
     1
 42
40.0
 92
       11
 66
     7
 43
1.0
 76
     1
 77
     6
 78
     2
 67
     7
 79
     6
170
     0
171
     0
290
     0
174
     0
 93
        1
 44
0.0
173
     0
291
     0
 45
0.0
1001
ACAD
1000
AcDbSavedByObjectVersion
1070
     0
  0
VISUALSTYLE
  5
9A45
102
{ACAD_XDICTIONARY
360
9AAA
102
}
102
{ACAD_REACTORS
330
9A38
102
}
330
9A38
100
AcDbVisualStyle
  2
Thicken
 70
    13
 71
     2
 72
     2
 73
     0
 90
        0
 40
-0.6
 41
-30.0
 62
     5
 63
     7
 74
     1
 91
        4
 64
     7
 65
   257
 75
     1
175
     1
 42
1.0
 92
       12
 66
     7
 43
1.0
 76
     1
 77
     6
 78
     2
 67
     7
 79
     5
170
     0
171
     0
290
     0
174
     0
 93
        1
 44
0.0
173
     0
291
     1
 45
0.0
1001
ACAD
1000
AcDbSavedByObjectVersion
1070
     0
  0
VISUALSTYLE
  5
9A3F
102
{ACAD_XDICTIONARY
360
9A9E
102
}
102
{ACAD_REACTORS
330
9A38
102
}
330
9A38
100
AcDbVisualStyle
  2
Wireframe
 70
     5
 71
     0
 72
     2
 73
     0
 90
        0
 40
-0.6
 41
-30.0
 62
     5
 63
     7
 74
     1
 91
        4
 64
     7
 65
   257
 75
     1
175
     1
 42
1.0
 92
        0
 66
   257
 43
1.0
 76
     1
 77
     6
 78
     2
 67
     7
 79
     3
170
     0
171
     0
290
     0
174
     0
 93
        1
 44
0.0
173
     0
291
     0
 45
0.0
1001
ACAD
1000
AcDbSavedByObjectVersion
1070
     0
  0
VISUALSTYLE
  5
9A4B
102
{ACAD_XDICTIONARY
360
9AB6
102
}
102
{ACAD_REACTORS
330
9A38
102
}
330
9A38
100
AcDbVisualStyle
  2
X-Ray
 70
    25
 71
     2
 72
     2
 73
     1
 90
        1
 40
0.5
 41
-30.0
 62
     5
 63
     7
 74
     1
 91
        0
 64
     7
 65
   257
 75
     1
175
     1
 42
1.0
 92
        8
 66
     7
 43
1.0
 76
     1
 77
     6
 78
     2
 67
     7
 79
     3
170
     0
171
     0
290
     0
174
     0
 93
       13
 44
0.0
173
     0
291
     0
 45
0.0
1001
ACAD
1000
AcDbSavedByObjectVersion
1070
     0
  0
DICTIONARYVAR
  5
9A85
102
{ACAD_REACTORS
330
9A80
102
}
330
9A80
100
DictionaryVariables
280
     0
  1
1:1
  0
DICTIONARYVAR
  5
9A82
102
{ACAD_REACTORS
330
9A80
102
}
330
9A80
100
DictionaryVariables
280
     0
  1
STANDARD
  0
DICTIONARYVAR
  5
9A81
102
{ACAD_REACTORS
330
9A80
102
}
330
9A80
100
DictionaryVariables
280
     0
  1
STANDARD
  0
DICTIONARYVAR
  5
9A83
102
{ACAD_REACTORS
330
9A80
102
}
330
9A80
100
DictionaryVariables
280
     0
  1
Imperial24
  0
DICTIONARYVAR
  5
9A84
102
{ACAD_REACTORS
330
9A80
102
}
330
9A80
100
DictionaryVariables
280
     0
  1
Imperial24
  0
DICTIONARYVAR
  5
9A88
102
{ACAD_REACTORS
330
9A80
102
}
330
9A80
100
DictionaryVariables
280
     0
  1
1
  0
DICTIONARYVAR
  5
9A87
102
{ACAD_REACTORS
330
9A80
102
}
330
9A80
100
DictionaryVariables
280
     0
  1
0
  0
DICTIONARYVAR
  5
9A86
102
{ACAD_REACTORS
330
9A80
102
}
330
9A80
100
DictionaryVariables
280
     0
  1
127
  0
DICTIONARYVAR
  5
9A89
102
{ACAD_REACTORS
330
9A80
102
}
330
9A80
100
DictionaryVariables
280
     0
  1
2
  0
DICTIONARY
  5
9AC6
330
9A6B
100
AcDbDictionary
280
     1
281
     1
  3
ACAD_XREC_ROUNDTRIP
360
9AC7
  0
DICTIONARY
  5
9AC8
330
9A6C
100
AcDbDictionary
280
     1
281
     1
  3
ACAD_XREC_ROUNDTRIP
360
9AC9
  0
DICTIONARY
  5
9ACA
330
9A6D
100
AcDbDictionary
280
     1
281
     1
  3
ACAD_XREC_ROUNDTRIP
360
9ACB
  0
DICTIONARY
  5
9A29
330
9A28
100
AcDbDictionary
280
     1
281
     1
  3
ACAD_XREC_ROUNDTRIP
360
9A90
  3
BUMPTILE
360
9A2B
  3
DIFFUSETILE
360
9A2A
  3
OPACITYTILE
360
9A2E
  3
REFLECTIONTILE
360
9A2D
  3
REFRACTIONTILE
360
9A2F
  3
SPECULARTILE
360
9A2C
  0
DICTIONARY
  5
9A21
330
9A20
100
AcDbDictionary
280
     1
281
     1
  3
ACAD_XREC_ROUNDTRIP
360
9A8F
  3
BUMPTILE
360
9A23
  3
DIFFUSETILE
360
9A22
  3
OPACITYTILE
360
9A26
  3
REFLECTIONTILE
360
9A25
  3
REFRACTIONTILE
360
9A27
  3
SPECULARTILE
360
9A24
  0
DICTIONARY
  5
9A31
330
9A30
100
AcDbDictionary
280
     1
281
     1
  3
ACAD_XREC_ROUNDTRIP
360
9A91
  3
BUMPTILE
360
9A33
  3
DIFFUSETILE
360
9A32
  3
OPACITYTILE
360
9A36
  3
REFLECTIONTILE
360
9A35
  3
REFRACTIONTILE
360
9A37
  3
SPECULARTILE
360
9A34
  0
DICTIONARY
  5
9AC4
330
9A69
100
AcDbDictionary
280
     1
281
     1
  3
ACAD_XREC_ROUNDTRIP
360
9AC5
  0
DICTIONARY
  5
9A8B
330
9A53
100
AcDbDictionary
280
     1
281
     1
  3
ACAD_ROUNDTRIP_2008_TABLESTYLE_CELLSTYLEMAP
360
9A8C
  3
ACAD_XREC_ROUNDTRIP
360
9AC2
  0
DICTIONARY
  5
9A9C
330
9A3E
100
AcDbDictionary
280
     1
281
     1
  3
ACAD_XREC_ROUNDTRIP
360
9A9D
  0
DICTIONARY
  5
9A9A
330
9A3D
100
AcDbDictionary
280
     1
281
     1
  3
ACAD_XREC_ROUNDTRIP
360
9A9B
  0
DICTIONARY
  5
9AA8
330
9A44
100
AcDbDictionary
280
     1
281
     1
  3
ACAD_XREC_ROUNDTRIP
360
9AA9
  0
DICTIONARY
  5
9AB0
330
9A48
100
AcDbDictionary
280
     1
281
     1
  3
ACAD_XREC_ROUNDTRIP
360
9AB1
  0
DICTIONARY
  5
9AA2
330
9A41
100
AcDbDictionary
280
     1
281
     1
  3
ACAD_XREC_ROUNDTRIP
360
9AA3
  0
DICTIONARY
  5
9AA6
330
9A43
100
AcDbDictionary
280
     1
281
     1
  3
ACAD_XREC_ROUNDTRIP
360
9AA7
  0
DICTIONARY
  5
9AC0
330
9A50
100
AcDbDictionary
280
     1
281
     1
  3
ACAD_XREC_ROUNDTRIP
360
9AC1
  0
DICTIONARY
  5
9AAE
330
9A47
100
AcDbDictionary
280
     1
281
     1
  3
ACAD_XREC_ROUNDTRIP
360
9AAF
  0
DICTIONARY
  5
9A92
330
9A39
100
AcDbDictionary
280
     1
281
     1
  3
ACAD_XREC_ROUNDTRIP
360
9A93
  0
DICTIONARY
  5
9A94
330
9A3A
100
AcDbDictionary
280
     1
281
     1
  3
ACAD_XREC_ROUNDTRIP
360
9A95
  0
DICTIONARY
  5
9A96
330
9A3B
100
AcDbDictionary
280
     1
281
     1
  3
ACAD_XREC_ROUNDTRIP
360
9A97
  0
DICTIONARY
  5
9A98
330
9A3C
100
AcDbDictionary
280
     1
281
     1
  3
ACAD_XREC_ROUNDTRIP
360
9A99
  0
DICTIONARY
  5
9AA0
330
9A40
100
AcDbDictionary
280
     1
281
     1
  3
ACAD_XREC_ROUNDTRIP
360
9AA1
  0
DICTIONARY
  5
9ABC
330
9A4E
100
AcDbDictionary
280
     1
281
     1
  3
ACAD_XREC_ROUNDTRIP
360
9ABD
  0
DICTIONARY
  5
9AAC
330
9A46
100
AcDbDictionary
280
     1
281
     1
  3
ACAD_XREC_ROUNDTRIP
360
9AAD
  0
DICTIONARY
  5
9ABE
330
9A4F
100
AcDbDictionary
280
     1
281
     1
  3
ACAD_XREC_ROUNDTRIP
360
9ABF
  0
DICTIONARY
  5
9AA4
330
9A42
100
AcDbDictionary
280
     1
281
     1
  3
ACAD_XREC_ROUNDTRIP
360
9AA5
  0
DICTIONARY
  5
9ABA
330
9A4D
100
AcDbDictionary
280
     1
281
     1
  3
ACAD_XREC_ROUNDTRIP
360
9ABB
  0
DICTIONARY
  5
9AB8
330
9A4C
100
AcDbDictionary
280
     1
281
     1
  3
ACAD_XREC_ROUNDTRIP
360
9AB9
  0
DICTIONARY
  5
9AB2
330
9A49
100
AcDbDictionary
280
     1
281
     1
  3
ACAD_XREC_ROUNDTRIP
360
9AB3
  0
DICTIONARY
  5
9AB4
330
9A4A
100
AcDbDictionary
280
     1
281
     1
  3
ACAD_XREC_ROUNDTRIP
360
9AB5
  0
DICTIONARY
  5
9AAA
330
9A45
100
AcDbDictionary
280
     1
281
     1
  3
ACAD_XREC_ROUNDTRIP
360
9AAB
  0
DICTIONARY
  5
9A9E
330
9A3F
100
AcDbDictionary
280
     1
281
     1
  3
ACAD_XREC_ROUNDTRIP
360
9A9F
  0
DICTIONARY
  5
9AB6
330
9A4B
100
AcDbDictionary
280
     1
281
     1
  3
ACAD_XREC_ROUNDTRIP
360
9AB7
  0
XRECORD
  5
9AC7
102
{ACAD_REACTORS
330
9AC6
102
}
330
9AC6
100
AcDbXrecord
280
     1
102
DISPLAYNAME
  1
Imperial24
102
FLAGS
 90
        0
  0
XRECORD
  5
9AC9
102
{ACAD_REACTORS
330
9AC8
102
}
330
9AC8
100
AcDbXrecord
280
     1
102
SHADEPLOT
 70
     0
102
SHADEPLOTRESLEVEL
 70
     2
102
SHADEPLOTCUSTOMDPI
 70
   300
  0
XRECORD
  5
9ACB
102
{ACAD_REACTORS
330
9ACA
102
}
330
9ACA
100
AcDbXrecord
280
     1
102
SHADEPLOT
 70
     0
102
SHADEPLOTRESLEVEL
 70
     2
102
SHADEPLOTCUSTOMDPI
 70
   300
  0
XRECORD
  5
9A90
102
{ACAD_REACTORS
330
9A29
102
}
330
9A29
100
AcDbXrecord
280
     1
102
MATERIAL
148
0.0
149
0.0
149
0.0
 93
        0
 94
      127
282
     0
 72
     0
 77
     0
171
     0
175
     0
179
     0
273
     0
  0
XRECORD
  5
9A2B
102
{ACAD_REACTORS
330
9A29
102
}
330
9A29
100
AcDbXrecord
280
     1
270
     1
271
     1
  0
XRECORD
  5
9A2A
102
{ACAD_REACTORS
330
9A29
102
}
330
9A29
100
AcDbXrecord
280
     1
270
     1
271
     1
  0
XRECORD
  5
9A2E
102
{ACAD_REACTORS
330
9A29
102
}
330
9A29
100
AcDbXrecord
280
     1
270
     1
271
     1
  0
XRECORD
  5
9A2D
102
{ACAD_REACTORS
330
9A29
102
}
330
9A29
100
AcDbXrecord
280
     1
270
     1
271
     1
  0
XRECORD
  5
9A2F
102
{ACAD_REACTORS
330
9A29
102
}
330
9A29
100
AcDbXrecord
280
     1
270
     1
271
     1
  0
XRECORD
  5
9A2C
102
{ACAD_REACTORS
330
9A29
102
}
330
9A29
100
AcDbXrecord
280
     1
270
     1
271
     1
  0
XRECORD
  5
9A8F
102
{ACAD_REACTORS
330
9A21
102
}
330
9A21
100
AcDbXrecord
280
     1
102
MATERIAL
148
0.0
149
0.0
149
0.0
 93
        0
 94
      127
282
     0
 72
     0
 77
     0
171
     0
175
     0
179
     0
273
     0
  0
XRECORD
  5
9A23
102
{ACAD_REACTORS
330
9A21
102
}
330
9A21
100
AcDbXrecord
280
     1
270
     1
271
     1
  0
XRECORD
  5
9A22
102
{ACAD_REACTORS
330
9A21
102
}
330
9A21
100
AcDbXrecord
280
     1
270
     1
271
     1
  0
XRECORD
  5
9A26
102
{ACAD_REACTORS
330
9A21
102
}
330
9A21
100
AcDbXrecord
280
     1
270
     1
271
     1
  0
XRECORD
  5
9A25
102
{ACAD_REACTORS
330
9A21
102
}
330
9A21
100
AcDbXrecord
280
     1
270
     1
271
     1
  0
XRECORD
  5
9A27
102
{ACAD_REACTORS
330
9A21
102
}
330
9A21
100
AcDbXrecord
280
     1
270
     1
271
     1
  0
XRECORD
  5
9A24
102
{ACAD_REACTORS
330
9A21
102
}
330
9A21
100
AcDbXrecord
280
     1
270
     1
271
     1
  0
XRECORD
  5
9A91
102
{ACAD_REACTORS
330
9A31
102
}
330
9A31
100
AcDbXrecord
280
     1
102
MATERIAL
148
0.0
149
0.0
149
0.0
 93
        0
 94
      127
282
     0
 72
     0
 77
     0
171
     0
175
     0
179
     0
273
     0
  0
XRECORD
  5
9A33
102
{ACAD_REACTORS
330
9A31
102
}
330
9A31
100
AcDbXrecord
280
     1
270
     1
271
     1
  0
XRECORD
  5
9A32
102
{ACAD_REACTORS
330
9A31
102
}
330
9A31
100
AcDbXrecord
280
     1
270
     1
271
     1
  0
XRECORD
  5
9A36
102
{ACAD_REACTORS
330
9A31
102
}
330
9A31
100
AcDbXrecord
280
     1
270
     1
271
     1
  0
XRECORD
  5
9A35
102
{ACAD_REACTORS
330
9A31
102
}
330
9A31
100
AcDbXrecord
280
     1
270
     1
271
     1
  0
XRECORD
  5
9A37
102
{ACAD_REACTORS
330
9A31
102
}
330
9A31
100
AcDbXrecord
280
     1
270
     1
271
     1
  0
XRECORD
  5
9A34
102
{ACAD_REACTORS
330
9A31
102
}
330
9A31
100
AcDbXrecord
280
     1
270
     1
271
     1
  0
XRECORD
  5
9AC5
102
{ACAD_REACTORS
330
9AC4
102
}
330
9AC4
100
AcDbXrecord
280
     1
102
DISPLAYNAME
  1
Imperial24
102
FLAGS
 90
        0
  0
CELLSTYLEMAP
  5
9A8C
102
{ACAD_REACTORS
330
9A8B
102
}
330
9A8B
100
AcDbCellStyleMap
 90
        3
300
CELLSTYLE
  1
TABLEFORMAT_BEGIN
 90
        5
170
     1
 91
        0
 92
    32768
 62
   257
 93
        1
300
CONTENTFORMAT
  1
CONTENTFORMAT_BEGIN
 90
        0
 91
        0
 92
      512
 93
        0
300

 40
0.0
140
1.0
 94
        5
 62
     0
340
977F
144
0.25
309
CONTENTFORMAT_END
171
     0
 94
        0
309
TABLEFORMAT_END
  1
CELLSTYLE_BEGIN
 90
        1
 91
        1
300
_TITLE
309
CELLSTYLE_END
300
CELLSTYLE
  1
TABLEFORMAT_BEGIN
 90
        5
170
     1
 91
        0
 92
        0
 62
   257
 93
        1
300
CONTENTFORMAT
  1
CONTENTFORMAT_BEGIN
 90
        0
 91
        0
 92
      512
 93
        0
300

 40
0.0
140
1.0
 94
        5
 62
     0
340
977F
144
0.18
309
CONTENTFORMAT_END
171
     0
 94
        0
309
TABLEFORMAT_END
  1
CELLSTYLE_BEGIN
 90
        2
 91
        1
300
_HEADER
309
CELLSTYLE_END
300
CELLSTYLE
  1
TABLEFORMAT_BEGIN
 90
        5
170
     1
 91
        0
 92
        0
 62
   257
 93
        1
300
CONTENTFORMAT
  1
CONTENTFORMAT_BEGIN
 90
        0
 91
        0
 92
      512
 93
        0
300

 40
0.0
140
1.0
 94
        2
 62
     0
340
977F
144
0.18
309
CONTENTFORMAT_END
171
     0
 94
        0
309
TABLEFORMAT_END
  1
CELLSTYLE_BEGIN
 90
        3
 91
        2
300
_DATA
309
CELLSTYLE_END
  0
XRECORD
  5
9AC2
102
{ACAD_REACTORS
330
9A8B
102
}
330
9A8B
100
AcDbXrecord
280
     1
102
ACAD_ROUNDTRIP_PRE2007_TABLESTYLE
 90
      512
 91
        0
  1

 92
      512
 93
        0
  2

 94
      512
 95
        0
  3

  0
XRECORD
  5
9A9D
102
{ACAD_REACTORS
330
9A9C
102
}
330
9A9C
100
AcDbXrecord
280
     1
102
RTVSPost2010Prop28
280
     1
102
RTVSPost2010PropOp28
 70
     1
102
RTVSPost2010Prop29
280
     1
102
RTVSPost2010PropOp29
 70
     1
102
RTVSPost2010Prop30
280
     0
102
RTVSPost2010PropOp30
 70
     1
102
RTVSPost2010Prop31
280
     0
102
RTVSPost2010PropOp31
 70
     1
102
RTVSPost2010Prop32
280
     0
102
RTVSPost2010PropOp32
 70
     1
102
RTVSPost2010Prop33
280
     0
102
RTVSPost2010PropOp33
 70
     1
102
RTVSPost2010Prop34
280
     0
102
RTVSPost2010PropOp34
 70
     1
102
RTVSPost2010Prop35
280
     0
102
RTVSPost2010PropOp35
 70
     1
102
RTVSPost2010Prop36
280
     0
102
RTVSPost2010PropOp36
 70
     1
102
RTVSPost2010Prop37
 90
       50
102
RTVSPost2010PropOp37
 70
     1
102
RTVSPost2010Prop38
140
0.0
102
RTVSPost2010PropOp38
 70
     1
102
RTVSPost2010Prop39
140
1.0
102
RTVSPost2010PropOp39
 70
     1
102
RTVSPost2010Prop40
 90
        0
102
RTVSPost2010PropOp40
 70
     1
102
RTVSPost2010Prop41ColorIndex
 90
       18
102
RTVSPost2010Prop41ColorRGB
 90
        0
102
RTVSPost2010PropOp41
 70
     1
102
RTVSPost2010Prop42
 90
       50
102
RTVSPost2010PropOp42
 70
     1
102
RTVSPost2010Prop43
 90
        3
102
RTVSPost2010PropOp43
 70
     1
102
RTVSPost2010Prop44ColorIndex
 90
        5
102
RTVSPost2010Prop44ColorRGB
 90
      255
102
RTVSPost2010PropOp44
 70
     1
102
RTVSPost2010Prop45
280
     0
102
RTVSPost2010PropOp45
 70
     1
102
RTVSPost2010Prop46
 90
       50
102
RTVSPost2010PropOp46
 70
     1
102
RTVSPost2010Prop47
 90
       50
102
RTVSPost2010PropOp47
 70
     1
102
RTVSPost2010Prop48
 90
       50
102
RTVSPost2010PropOp48
 70
     1
102
RTVSPost2010Prop49
280
     0
102
RTVSPost2010PropOp49
 70
     1
102
RTVSPost2010Prop50
 90
       50
102
RTVSPost2010PropOp50
 70
     1
102
RTVSPost2010Prop51ColorIndex
 90
      256
102
RTVSPost2010Prop51ColorRGB
 90
-16777216
102
RTVSPost2010PropOp51
 70
     0
102
RTVSPost2010Prop52
140
1.0
102
RTVSPost2010PropOp52
 70
     0
102
RTVSPost2010Prop53
 90
        2
102
RTVSPost2010PropOp53
 70
     1
102
RTVSPost2010Prop54
  1
strokes_ogs.tif
102
RTVSPost2010PropOp54
 70
     1
102
RTVSPost2010Prop55
280
     0
102
RTVSPost2010PropOp55
 70
     1
102
RTVSPost2010Prop56
140
1.0
102
RTVSPost2010PropOp56
 70
     1
102
RTVSPost2010Prop57
140
1.0
102
RTVSPost2010PropOp57
 70
     1
102
RTVSPropertyOp0
 70
     1
102
RTVSPropertyOp1
 70
     1
102
RTVSPropertyOp2
 70
     1
102
RTVSPropertyOp3
 70
     1
102
RTVSPropertyOp4
 70
     1
102
RTVSPropertyOp5
 70
     1
102
RTVSPropertyOp6
 70
     1
102
RTVSPropertyOp7
 70
     1
102
RTVSPropertyOp8
 70
     1
102
RTVSPropertyOp9
 70
     1
102
RTVSPropertyOp10
 70
     1
102
RTVSPropertyOp11
 70
     1
102
RTVSPropertyOp12
 70
     1
102
RTVSPropertyOp13
 70
     1
102
RTVSPropertyOp14
 70
     1
102
RTVSPropertyOp15
 70
     1
102
RTVSPropertyOp16
 70
     1
102
RTVSPropertyOp17
 70
     1
102
RTVSPropertyOp18
 70
     1
102
RTVSPropertyOp19
 70
     1
102
RTVSPropertyOp20
 70
     1
102
RTVSPropertyOp21
 70
     1
102
RTVSPropertyOp22
 70
     1
102
RTVSPropertyOp23
 70
     1
102
RTVSPropertyOp24
 70
     1
102
RTVSPropertyOp25
 70
     1
102
RTVSPropertyOp26
 70
     1
102
RTVSPropertyOp27
 70
     1
102
RTVSPropertyOp28
 70
     1
102
RTVSPropertyOp29
 70
     1
102
RTVSPropertyOp30
 70
     1
102
RTVSPropertyOp31
 70
     1
102
RTVSPropertyOp32
 70
     1
102
RTVSPropertyOp33
 70
     1
102
RTVSPropertyOp34
 70
     1
102
RTVSPropertyOp35
 70
     1
102
RTVSPropertyOp36
 70
     1
102
RTVSPropertyOp37
 70
     1
102
RTVSPropertyOp38
 70
     1
102
RTVSPropertyOp39
 70
     1
102
RTVSPropertyOp40
 70
     1
102
RTVSPropertyOp41
 70
     1
102
RTVSPropertyOp42
 70
     1
102
RTVSPropertyOp43
 70
     1
102
RTVSPropertyOp44
 70
     1
102
RTVSPropertyOp45
 70
     1
102
RTVSPropertyOp46
 70
     1
102
RTVSPropertyOp47
 70
     1
102
RTVSPropertyOp48
 70
     1
102
RTVSPropertyOp49
 70
     1
102
RTVSPropertyOp50
 70
     1
102
RTVSPropertyOp51
 70
     0
102
RTVSPropertyOp52
 70
     0
102
RTVSPropertyOp53
 70
     1
102
RTVSPropertyOp54
 70
     1
102
RTVSPropertyOp55
 70
     1
102
RTVSPropertyOp56
 70
     1
102
RTVSPropertyOp57
 70
     1
102
RTVSPropertyOp58
 70
     1
102
RTVSPropertyOp59
 70
     1
102
RTVSPropertyOp60
 70
     1
102
RTVSPropertyOp61
 70
     1
102
RTVSPropertyOp62
 70
     1
  0
XRECORD
  5
9A9B
102
{ACAD_REACTORS
330
9A9A
102
}
330
9A9A
100
AcDbXrecord
280
     1
102
RTVSPost2010Prop28
280
     0
102
RTVSPost2010PropOp28
 70
     1
102
RTVSPost2010Prop29
280
     1
102
RTVSPost2010PropOp29
 70
     1
102
RTVSPost2010Prop30
280
     1
102
RTVSPost2010PropOp30
 70
     1
102
RTVSPost2010Prop31
280
     0
102
RTVSPost2010PropOp31
 70
     1
102
RTVSPost2010Prop32
280
     0
102
RTVSPost2010PropOp32
 70
     1
102
RTVSPost2010Prop33
280
     0
102
RTVSPost2010PropOp33
 70
     1
102
RTVSPost2010Prop34
280
     0
102
RTVSPost2010PropOp34
 70
     1
102
RTVSPost2010Prop35
280
     0
102
RTVSPost2010PropOp35
 70
     1
102
RTVSPost2010Prop36
280
     0
102
RTVSPost2010PropOp36
 70
     1
102
RTVSPost2010Prop37
 90
       50
102
RTVSPost2010PropOp37
 70
     1
102
RTVSPost2010Prop38
140
0.0
102
RTVSPost2010PropOp38
 70
     1
102
RTVSPost2010Prop39
140
1.0
102
RTVSPost2010PropOp39
 70
     1
102
RTVSPost2010Prop40
 90
        0
102
RTVSPost2010PropOp40
 70
     1
102
RTVSPost2010Prop41ColorIndex
 90
       18
102
RTVSPost2010Prop41ColorRGB
 90
        0
102
RTVSPost2010PropOp41
 70
     1
102
RTVSPost2010Prop42
 90
       50
102
RTVSPost2010PropOp42
 70
     1
102
RTVSPost2010Prop43
 90
        3
102
RTVSPost2010PropOp43
 70
     1
102
RTVSPost2010Prop44ColorIndex
 90
        5
102
RTVSPost2010Prop44ColorRGB
 90
      255
102
RTVSPost2010PropOp44
 70
     1
102
RTVSPost2010Prop45
280
     0
102
RTVSPost2010PropOp45
 70
     1
102
RTVSPost2010Prop46
 90
       50
102
RTVSPost2010PropOp46
 70
     1
102
RTVSPost2010Prop47
 90
       50
102
RTVSPost2010PropOp47
 70
     1
102
RTVSPost2010Prop48
 90
       50
102
RTVSPost2010PropOp48
 70
     1
102
RTVSPost2010Prop49
280
     0
102
RTVSPost2010PropOp49
 70
     1
102
RTVSPost2010Prop50
 90
       50
102
RTVSPost2010PropOp50
 70
     1
102
RTVSPost2010Prop51ColorIndex
 90
      256
102
RTVSPost2010Prop51ColorRGB
 90
-16777216
102
RTVSPost2010PropOp51
 70
     0
102
RTVSPost2010Prop52
140
1.0
102
RTVSPost2010PropOp52
 70
     0
102
RTVSPost2010Prop53
 90
        2
102
RTVSPost2010PropOp53
 70
     1
102
RTVSPost2010Prop54
  1
strokes_ogs.tif
102
RTVSPost2010PropOp54
 70
     1
102
RTVSPost2010Prop55
280
     0
102
RTVSPost2010PropOp55
 70
     1
102
RTVSPost2010Prop56
140
1.0
102
RTVSPost2010PropOp56
 70
     1
102
RTVSPost2010Prop57
140
1.0
102
RTVSPost2010PropOp57
 70
     1
102
RTVSPropertyOp0
 70
     1
102
RTVSPropertyOp1
 70
     1
102
RTVSPropertyOp2
 70
     1
102
RTVSPropertyOp3
 70
     1
102
RTVSPropertyOp4
 70
     1
102
RTVSPropertyOp5
 70
     1
102
RTVSPropertyOp6
 70
     1
102
RTVSPropertyOp7
 70
     1
102
RTVSPropertyOp8
 70
     1
102
RTVSPropertyOp9
 70
     1
102
RTVSPropertyOp10
 70
     1
102
RTVSPropertyOp11
 70
     1
102
RTVSPropertyOp12
 70
     1
102
RTVSPropertyOp13
 70
     1
102
RTVSPropertyOp14
 70
     1
102
RTVSPropertyOp15
 70
     1
102
RTVSPropertyOp16
 70
     1
102
RTVSPropertyOp17
 70
     1
102
RTVSPropertyOp18
 70
     1
102
RTVSPropertyOp19
 70
     1
102
RTVSPropertyOp20
 70
     1
102
RTVSPropertyOp21
 70
     1
102
RTVSPropertyOp22
 70
     1
102
RTVSPropertyOp23
 70
     1
102
RTVSPropertyOp24
 70
     1
102
RTVSPropertyOp25
 70
     1
102
RTVSPropertyOp26
 70
     1
102
RTVSPropertyOp27
 70
     1
102
RTVSPropertyOp28
 70
     1
102
RTVSPropertyOp29
 70
     1
102
RTVSPropertyOp30
 70
     1
102
RTVSPropertyOp31
 70
     1
102
RTVSPropertyOp32
 70
     1
102
RTVSPropertyOp33
 70
     1
102
RTVSPropertyOp34
 70
     1
102
RTVSPropertyOp35
 70
     1
102
RTVSPropertyOp36
 70
     1
102
RTVSPropertyOp37
 70
     1
102
RTVSPropertyOp38
 70
     1
102
RTVSPropertyOp39
 70
     1
102
RTVSPropertyOp40
 70
     1
102
RTVSPropertyOp41
 70
     1
102
RTVSPropertyOp42
 70
     1
102
RTVSPropertyOp43
 70
     1
102
RTVSPropertyOp44
 70
     1
102
RTVSPropertyOp45
 70
     1
102
RTVSPropertyOp46
 70
     1
102
RTVSPropertyOp47
 70
     1
102
RTVSPropertyOp48
 70
     1
102
RTVSPropertyOp49
 70
     1
102
RTVSPropertyOp50
 70
     1
102
RTVSPropertyOp51
 70
     0
102
RTVSPropertyOp52
 70
     0
102
RTVSPropertyOp53
 70
     1
102
RTVSPropertyOp54
 70
     1
102
RTVSPropertyOp55
 70
     1
102
RTVSPropertyOp56
 70
     1
102
RTVSPropertyOp57
 70
     1
102
RTVSPropertyOp58
 70
     1
102
RTVSPropertyOp59
 70
     1
102
RTVSPropertyOp60
 70
     1
102
RTVSPropertyOp61
 70
     1
102
RTVSPropertyOp62
 70
     1
  0
XRECORD
  5
9AA9
102
{ACAD_REACTORS
330
9AA8
102
}
330
9AA8
100
AcDbXrecord
280
     1
102
RTVSPost2010Prop28
280
     0
102
RTVSPost2010PropOp28
 70
     1
102
RTVSPost2010Prop29
280
     1
102
RTVSPost2010PropOp29
 70
     1
102
RTVSPost2010Prop30
280
     1
102
RTVSPost2010PropOp30
 70
     1
102
RTVSPost2010Prop31
280
     0
102
RTVSPost2010PropOp31
 70
     1
102
RTVSPost2010Prop32
280
     0
102
RTVSPost2010PropOp32
 70
     1
102
RTVSPost2010Prop33
280
     0
102
RTVSPost2010PropOp33
 70
     1
102
RTVSPost2010Prop34
280
     0
102
RTVSPost2010PropOp34
 70
     1
102
RTVSPost2010Prop35
280
     0
102
RTVSPost2010PropOp35
 70
     1
102
RTVSPost2010Prop36
280
     0
102
RTVSPost2010PropOp36
 70
     1
102
RTVSPost2010Prop37
 90
       50
102
RTVSPost2010PropOp37
 70
     1
102
RTVSPost2010Prop38
140
0.0
102
RTVSPost2010PropOp38
 70
     1
102
RTVSPost2010Prop39
140
1.0
102
RTVSPost2010PropOp39
 70
     1
102
RTVSPost2010Prop40
 90
        0
102
RTVSPost2010PropOp40
 70
     1
102
RTVSPost2010Prop41ColorIndex
 90
       18
102
RTVSPost2010Prop41ColorRGB
 90
        0
102
RTVSPost2010PropOp41
 70
     1
102
RTVSPost2010Prop42
 90
       50
102
RTVSPost2010PropOp42
 70
     1
102
RTVSPost2010Prop43
 90
        3
102
RTVSPost2010PropOp43
 70
     1
102
RTVSPost2010Prop44ColorIndex
 90
        5
102
RTVSPost2010Prop44ColorRGB
 90
      255
102
RTVSPost2010PropOp44
 70
     1
102
RTVSPost2010Prop45
280
     0
102
RTVSPost2010PropOp45
 70
     1
102
RTVSPost2010Prop46
 90
       50
102
RTVSPost2010PropOp46
 70
     1
102
RTVSPost2010Prop47
 90
       50
102
RTVSPost2010PropOp47
 70
     1
102
RTVSPost2010Prop48
 90
       50
102
RTVSPost2010PropOp48
 70
     1
102
RTVSPost2010Prop49
280
     0
102
RTVSPost2010PropOp49
 70
     1
102
RTVSPost2010Prop50
 90
       50
102
RTVSPost2010PropOp50
 70
     1
102
RTVSPost2010Prop51ColorIndex
 90
      256
102
RTVSPost2010Prop51ColorRGB
 90
-16777216
102
RTVSPost2010PropOp51
 70
     0
102
RTVSPost2010Prop52
140
1.0
102
RTVSPost2010PropOp52
 70
     0
102
RTVSPost2010Prop53
 90
        2
102
RTVSPost2010PropOp53
 70
     1
102
RTVSPost2010Prop54
  1
strokes_ogs.tif
102
RTVSPost2010PropOp54
 70
     1
102
RTVSPost2010Prop55
280
     0
102
RTVSPost2010PropOp55
 70
     1
102
RTVSPost2010Prop56
140
1.0
102
RTVSPost2010PropOp56
 70
     1
102
RTVSPost2010Prop57
140
1.0
102
RTVSPost2010PropOp57
 70
     1
102
RTVSPropertyOp0
 70
     1
102
RTVSPropertyOp1
 70
     1
102
RTVSPropertyOp2
 70
     1
102
RTVSPropertyOp3
 70
     1
102
RTVSPropertyOp4
 70
     1
102
RTVSPropertyOp5
 70
     1
102
RTVSPropertyOp6
 70
     1
102
RTVSPropertyOp7
 70
     1
102
RTVSPropertyOp8
 70
     1
102
RTVSPropertyOp9
 70
     1
102
RTVSPropertyOp10
 70
     1
102
RTVSPropertyOp11
 70
     1
102
RTVSPropertyOp12
 70
     1
102
RTVSPropertyOp13
 70
     1
102
RTVSPropertyOp14
 70
     1
102
RTVSPropertyOp15
 70
     1
102
RTVSPropertyOp16
 70
     1
102
RTVSPropertyOp17
 70
     1
102
RTVSPropertyOp18
 70
     1
102
RTVSPropertyOp19
 70
     1
102
RTVSPropertyOp20
 70
     1
102
RTVSPropertyOp21
 70
     1
102
RTVSPropertyOp22
 70
     1
102
RTVSPropertyOp23
 70
     1
102
RTVSPropertyOp24
 70
     1
102
RTVSPropertyOp25
 70
     1
102
RTVSPropertyOp26
 70
     1
102
RTVSPropertyOp27
 70
     1
102
RTVSPropertyOp28
 70
     1
102
RTVSPropertyOp29
 70
     1
102
RTVSPropertyOp30
 70
     1
102
RTVSPropertyOp31
 70
     1
102
RTVSPropertyOp32
 70
     1
102
RTVSPropertyOp33
 70
     1
102
RTVSPropertyOp34
 70
     1
102
RTVSPropertyOp35
 70
     1
102
RTVSPropertyOp36
 70
     1
102
RTVSPropertyOp37
 70
     1
102
RTVSPropertyOp38
 70
     1
102
RTVSPropertyOp39
 70
     1
102
RTVSPropertyOp40
 70
     1
102
RTVSPropertyOp41
 70
     1
102
RTVSPropertyOp42
 70
     1
102
RTVSPropertyOp43
 70
     1
102
RTVSPropertyOp44
 70
     1
102
RTVSPropertyOp45
 70
     1
102
RTVSPropertyOp46
 70
     1
102
RTVSPropertyOp47
 70
     1
102
RTVSPropertyOp48
 70
     1
102
RTVSPropertyOp49
 70
     1
102
RTVSPropertyOp50
 70
     1
102
RTVSPropertyOp51
 70
     0
102
RTVSPropertyOp52
 70
     0
102
RTVSPropertyOp53
 70
     1
102
RTVSPropertyOp54
 70
     1
102
RTVSPropertyOp55
 70
     1
102
RTVSPropertyOp56
 70
     1
102
RTVSPropertyOp57
 70
     1
102
RTVSPropertyOp58
 70
     1
102
RTVSPropertyOp59
 70
     1
102
RTVSPropertyOp60
 70
     1
102
RTVSPropertyOp61
 70
     1
102
RTVSPropertyOp62
 70
     1
  0
XRECORD
  5
9AB1
102
{ACAD_REACTORS
330
9AB0
102
}
330
9AB0
100
AcDbXrecord
280
     1
102
RTVSPost2010Prop28
280
     0
102
RTVSPost2010PropOp28
 70
     1
102
RTVSPost2010Prop29
280
     1
102
RTVSPost2010PropOp29
 70
     1
102
RTVSPost2010Prop30
280
     1
102
RTVSPost2010PropOp30
 70
     1
102
RTVSPost2010Prop31
280
     0
102
RTVSPost2010PropOp31
 70
     1
102
RTVSPost2010Prop32
280
     0
102
RTVSPost2010PropOp32
 70
     1
102
RTVSPost2010Prop33
280
     0
102
RTVSPost2010PropOp33
 70
     1
102
RTVSPost2010Prop34
280
     0
102
RTVSPost2010PropOp34
 70
     1
102
RTVSPost2010Prop35
280
     0
102
RTVSPost2010PropOp35
 70
     1
102
RTVSPost2010Prop36
280
     0
102
RTVSPost2010PropOp36
 70
     1
102
RTVSPost2010Prop37
 90
       50
102
RTVSPost2010PropOp37
 70
     1
102
RTVSPost2010Prop38
140
0.0
102
RTVSPost2010PropOp38
 70
     1
102
RTVSPost2010Prop39
140
1.0
102
RTVSPost2010PropOp39
 70
     1
102
RTVSPost2010Prop40
 90
        0
102
RTVSPost2010PropOp40
 70
     1
102
RTVSPost2010Prop41ColorIndex
 90
       18
102
RTVSPost2010Prop41ColorRGB
 90
        0
102
RTVSPost2010PropOp41
 70
     1
102
RTVSPost2010Prop42
 90
       50
102
RTVSPost2010PropOp42
 70
     1
102
RTVSPost2010Prop43
 90
        3
102
RTVSPost2010PropOp43
 70
     1
102
RTVSPost2010Prop44ColorIndex
 90
        5
102
RTVSPost2010Prop44ColorRGB
 90
      255
102
RTVSPost2010PropOp44
 70
     1
102
RTVSPost2010Prop45
280
     0
102
RTVSPost2010PropOp45
 70
     1
102
RTVSPost2010Prop46
 90
       50
102
RTVSPost2010PropOp46
 70
     1
102
RTVSPost2010Prop47
 90
       50
102
RTVSPost2010PropOp47
 70
     1
102
RTVSPost2010Prop48
 90
       50
102
RTVSPost2010PropOp48
 70
     1
102
RTVSPost2010Prop49
280
     0
102
RTVSPost2010PropOp49
 70
     1
102
RTVSPost2010Prop50
 90
       50
102
RTVSPost2010PropOp50
 70
     1
102
RTVSPost2010Prop51ColorIndex
 90
      256
102
RTVSPost2010Prop51ColorRGB
 90
-16777216
102
RTVSPost2010PropOp51
 70
     0
102
RTVSPost2010Prop52
140
1.0
102
RTVSPost2010PropOp52
 70
     0
102
RTVSPost2010Prop53
 90
        2
102
RTVSPost2010PropOp53
 70
     1
102
RTVSPost2010Prop54
  1
strokes_ogs.tif
102
RTVSPost2010PropOp54
 70
     1
102
RTVSPost2010Prop55
280
     0
102
RTVSPost2010PropOp55
 70
     1
102
RTVSPost2010Prop56
140
1.0
102
RTVSPost2010PropOp56
 70
     1
102
RTVSPost2010Prop57
140
1.0
102
RTVSPost2010PropOp57
 70
     1
102
RTVSPropertyOp0
 70
     1
102
RTVSPropertyOp1
 70
     1
102
RTVSPropertyOp2
 70
     1
102
RTVSPropertyOp3
 70
     1
102
RTVSPropertyOp4
 70
     1
102
RTVSPropertyOp5
 70
     1
102
RTVSPropertyOp6
 70
     1
102
RTVSPropertyOp7
 70
     1
102
RTVSPropertyOp8
 70
     1
102
RTVSPropertyOp9
 70
     1
102
RTVSPropertyOp10
 70
     1
102
RTVSPropertyOp11
 70
     1
102
RTVSPropertyOp12
 70
     1
102
RTVSPropertyOp13
 70
     1
102
RTVSPropertyOp14
 70
     1
102
RTVSPropertyOp15
 70
     1
102
RTVSPropertyOp16
 70
     1
102
RTVSPropertyOp17
 70
     1
102
RTVSPropertyOp18
 70
     1
102
RTVSPropertyOp19
 70
     1
102
RTVSPropertyOp20
 70
     1
102
RTVSPropertyOp21
 70
     1
102
RTVSPropertyOp22
 70
     1
102
RTVSPropertyOp23
 70
     1
102
RTVSPropertyOp24
 70
     1
102
RTVSPropertyOp25
 70
     1
102
RTVSPropertyOp26
 70
     1
102
RTVSPropertyOp27
 70
     1
102
RTVSPropertyOp28
 70
     1
102
RTVSPropertyOp29
 70
     1
102
RTVSPropertyOp30
 70
     1
102
RTVSPropertyOp31
 70
     1
102
RTVSPropertyOp32
 70
     1
102
RTVSPropertyOp33
 70
     1
102
RTVSPropertyOp34
 70
     1
102
RTVSPropertyOp35
 70
     1
102
RTVSPropertyOp36
 70
     1
102
RTVSPropertyOp37
 70
     1
102
RTVSPropertyOp38
 70
     1
102
RTVSPropertyOp39
 70
     1
102
RTVSPropertyOp40
 70
     1
102
RTVSPropertyOp41
 70
     1
102
RTVSPropertyOp42
 70
     1
102
RTVSPropertyOp43
 70
     1
102
RTVSPropertyOp44
 70
     1
102
RTVSPropertyOp45
 70
     1
102
RTVSPropertyOp46
 70
     1
102
RTVSPropertyOp47
 70
     1
102
RTVSPropertyOp48
 70
     1
102
RTVSPropertyOp49
 70
     1
102
RTVSPropertyOp50
 70
     1
102
RTVSPropertyOp51
 70
     0
102
RTVSPropertyOp52
 70
     0
102
RTVSPropertyOp53
 70
     1
102
RTVSPropertyOp54
 70
     1
102
RTVSPropertyOp55
 70
     1
102
RTVSPropertyOp56
 70
     1
102
RTVSPropertyOp57
 70
     1
102
RTVSPropertyOp58
 70
     1
102
RTVSPropertyOp59
 70
     1
102
RTVSPropertyOp60
 70
     1
102
RTVSPropertyOp61
 70
     1
102
RTVSPropertyOp62
 70
     1
  0
XRECORD
  5
9AA3
102
{ACAD_REACTORS
330
9AA2
102
}
330
9AA2
100
AcDbXrecord
280
     1
102
RTVSPost2010Prop28
280
     0
102
RTVSPost2010PropOp28
 70
     1
102
RTVSPost2010Prop29
280
     1
102
RTVSPost2010PropOp29
 70
     1
102
RTVSPost2010Prop30
280
     1
102
RTVSPost2010PropOp30
 70
     1
102
RTVSPost2010Prop31
280
     0
102
RTVSPost2010PropOp31
 70
     1
102
RTVSPost2010Prop32
280
     0
102
RTVSPost2010PropOp32
 70
     1
102
RTVSPost2010Prop33
280
     0
102
RTVSPost2010PropOp33
 70
     1
102
RTVSPost2010Prop34
280
     0
102
RTVSPost2010PropOp34
 70
     1
102
RTVSPost2010Prop35
280
     0
102
RTVSPost2010PropOp35
 70
     1
102
RTVSPost2010Prop36
280
     0
102
RTVSPost2010PropOp36
 70
     1
102
RTVSPost2010Prop37
 90
       50
102
RTVSPost2010PropOp37
 70
     1
102
RTVSPost2010Prop38
140
0.0
102
RTVSPost2010PropOp38
 70
     1
102
RTVSPost2010Prop39
140
1.0
102
RTVSPost2010PropOp39
 70
     1
102
RTVSPost2010Prop40
 90
        0
102
RTVSPost2010PropOp40
 70
     1
102
RTVSPost2010Prop41ColorIndex
 90
       18
102
RTVSPost2010Prop41ColorRGB
 90
        0
102
RTVSPost2010PropOp41
 70
     1
102
RTVSPost2010Prop42
 90
       50
102
RTVSPost2010PropOp42
 70
     1
102
RTVSPost2010Prop43
 90
        3
102
RTVSPost2010PropOp43
 70
     1
102
RTVSPost2010Prop44ColorIndex
 90
        5
102
RTVSPost2010Prop44ColorRGB
 90
      255
102
RTVSPost2010PropOp44
 70
     1
102
RTVSPost2010Prop45
280
     0
102
RTVSPost2010PropOp45
 70
     1
102
RTVSPost2010Prop46
 90
       50
102
RTVSPost2010PropOp46
 70
     1
102
RTVSPost2010Prop47
 90
       50
102
RTVSPost2010PropOp47
 70
     1
102
RTVSPost2010Prop48
 90
       50
102
RTVSPost2010PropOp48
 70
     1
102
RTVSPost2010Prop49
280
     0
102
RTVSPost2010PropOp49
 70
     1
102
RTVSPost2010Prop50
 90
       50
102
RTVSPost2010PropOp50
 70
     1
102
RTVSPost2010Prop51ColorIndex
 90
      256
102
RTVSPost2010Prop51ColorRGB
 90
-16777216
102
RTVSPost2010PropOp51
 70
     0
102
RTVSPost2010Prop52
140
1.0
102
RTVSPost2010PropOp52
 70
     0
102
RTVSPost2010Prop53
 90
        2
102
RTVSPost2010PropOp53
 70
     1
102
RTVSPost2010Prop54
  1
strokes_ogs.tif
102
RTVSPost2010PropOp54
 70
     1
102
RTVSPost2010Prop55
280
     0
102
RTVSPost2010PropOp55
 70
     1
102
RTVSPost2010Prop56
140
1.0
102
RTVSPost2010PropOp56
 70
     1
102
RTVSPost2010Prop57
140
1.0
102
RTVSPost2010PropOp57
 70
     1
102
RTVSPropertyOp0
 70
     1
102
RTVSPropertyOp1
 70
     1
102
RTVSPropertyOp2
 70
     1
102
RTVSPropertyOp3
 70
     1
102
RTVSPropertyOp4
 70
     1
102
RTVSPropertyOp5
 70
     1
102
RTVSPropertyOp6
 70
     1
102
RTVSPropertyOp7
 70
     1
102
RTVSPropertyOp8
 70
     1
102
RTVSPropertyOp9
 70
     1
102
RTVSPropertyOp10
 70
     1
102
RTVSPropertyOp11
 70
     1
102
RTVSPropertyOp12
 70
     1
102
RTVSPropertyOp13
 70
     1
102
RTVSPropertyOp14
 70
     1
102
RTVSPropertyOp15
 70
     1
102
RTVSPropertyOp16
 70
     1
102
RTVSPropertyOp17
 70
     1
102
RTVSPropertyOp18
 70
     1
102
RTVSPropertyOp19
 70
     1
102
RTVSPropertyOp20
 70
     1
102
RTVSPropertyOp21
 70
     1
102
RTVSPropertyOp22
 70
     1
102
RTVSPropertyOp23
 70
     1
102
RTVSPropertyOp24
 70
     1
102
RTVSPropertyOp25
 70
     1
102
RTVSPropertyOp26
 70
     1
102
RTVSPropertyOp27
 70
     1
102
RTVSPropertyOp28
 70
     1
102
RTVSPropertyOp29
 70
     1
102
RTVSPropertyOp30
 70
     1
102
RTVSPropertyOp31
 70
     1
102
RTVSPropertyOp32
 70
     1
102
RTVSPropertyOp33
 70
     1
102
RTVSPropertyOp34
 70
     1
102
RTVSPropertyOp35
 70
     1
102
RTVSPropertyOp36
 70
     1
102
RTVSPropertyOp37
 70
     1
102
RTVSPropertyOp38
 70
     1
102
RTVSPropertyOp39
 70
     1
102
RTVSPropertyOp40
 70
     1
102
RTVSPropertyOp41
 70
     1
102
RTVSPropertyOp42
 70
     1
102
RTVSPropertyOp43
 70
     1
102
RTVSPropertyOp44
 70
     1
102
RTVSPropertyOp45
 70
     1
102
RTVSPropertyOp46
 70
     1
102
RTVSPropertyOp47
 70
     1
102
RTVSPropertyOp48
 70
     1
102
RTVSPropertyOp49
 70
     1
102
RTVSPropertyOp50
 70
     1
102
RTVSPropertyOp51
 70
     0
102
RTVSPropertyOp52
 70
     0
102
RTVSPropertyOp53
 70
     1
102
RTVSPropertyOp54
 70
     1
102
RTVSPropertyOp55
 70
     1
102
RTVSPropertyOp56
 70
     1
102
RTVSPropertyOp57
 70
     1
102
RTVSPropertyOp58
 70
     1
102
RTVSPropertyOp59
 70
     1
102
RTVSPropertyOp60
 70
     1
102
RTVSPropertyOp61
 70
     1
102
RTVSPropertyOp62
 70
     1
  0
XRECORD
  5
9AA7
102
{ACAD_REACTORS
330
9AA6
102
}
330
9AA6
100
AcDbXrecord
280
     1
102
RTVSPost2010Prop28
280
     0
102
RTVSPost2010PropOp28
 70
     1
102
RTVSPost2010Prop29
280
     1
102
RTVSPost2010PropOp29
 70
     1
102
RTVSPost2010Prop30
280
     1
102
RTVSPost2010PropOp30
 70
     1
102
RTVSPost2010Prop31
280
     0
102
RTVSPost2010PropOp31
 70
     1
102
RTVSPost2010Prop32
280
     0
102
RTVSPost2010PropOp32
 70
     1
102
RTVSPost2010Prop33
280
     0
102
RTVSPost2010PropOp33
 70
     1
102
RTVSPost2010Prop34
280
     0
102
RTVSPost2010PropOp34
 70
     1
102
RTVSPost2010Prop35
280
     0
102
RTVSPost2010PropOp35
 70
     1
102
RTVSPost2010Prop36
280
     0
102
RTVSPost2010PropOp36
 70
     1
102
RTVSPost2010Prop37
 90
       50
102
RTVSPost2010PropOp37
 70
     1
102
RTVSPost2010Prop38
140
0.0
102
RTVSPost2010PropOp38
 70
     1
102
RTVSPost2010Prop39
140
1.0
102
RTVSPost2010PropOp39
 70
     1
102
RTVSPost2010Prop40
 90
        0
102
RTVSPost2010PropOp40
 70
     1
102
RTVSPost2010Prop41ColorIndex
 90
       18
102
RTVSPost2010Prop41ColorRGB
 90
        0
102
RTVSPost2010PropOp41
 70
     1
102
RTVSPost2010Prop42
 90
       50
102
RTVSPost2010PropOp42
 70
     1
102
RTVSPost2010Prop43
 90
        3
102
RTVSPost2010PropOp43
 70
     1
102
RTVSPost2010Prop44ColorIndex
 90
        5
102
RTVSPost2010Prop44ColorRGB
 90
      255
102
RTVSPost2010PropOp44
 70
     1
102
RTVSPost2010Prop45
280
     0
102
RTVSPost2010PropOp45
 70
     1
102
RTVSPost2010Prop46
 90
       50
102
RTVSPost2010PropOp46
 70
     1
102
RTVSPost2010Prop47
 90
       50
102
RTVSPost2010PropOp47
 70
     1
102
RTVSPost2010Prop48
 90
       50
102
RTVSPost2010PropOp48
 70
     1
102
RTVSPost2010Prop49
280
     0
102
RTVSPost2010PropOp49
 70
     1
102
RTVSPost2010Prop50
 90
       50
102
RTVSPost2010PropOp50
 70
     1
102
RTVSPost2010Prop51ColorIndex
 90
      256
102
RTVSPost2010Prop51ColorRGB
 90
-16777216
102
RTVSPost2010PropOp51
 70
     0
102
RTVSPost2010Prop52
140
1.0
102
RTVSPost2010PropOp52
 70
     0
102
RTVSPost2010Prop53
 90
        2
102
RTVSPost2010PropOp53
 70
     1
102
RTVSPost2010Prop54
  1
strokes_ogs.tif
102
RTVSPost2010PropOp54
 70
     1
102
RTVSPost2010Prop55
280
     0
102
RTVSPost2010PropOp55
 70
     1
102
RTVSPost2010Prop56
140
1.0
102
RTVSPost2010PropOp56
 70
     1
102
RTVSPost2010Prop57
140
1.0
102
RTVSPost2010PropOp57
 70
     1
102
RTVSPropertyOp0
 70
     1
102
RTVSPropertyOp1
 70
     1
102
RTVSPropertyOp2
 70
     1
102
RTVSPropertyOp3
 70
     1
102
RTVSPropertyOp4
 70
     1
102
RTVSPropertyOp5
 70
     1
102
RTVSPropertyOp6
 70
     1
102
RTVSPropertyOp7
 70
     1
102
RTVSPropertyOp8
 70
     1
102
RTVSPropertyOp9
 70
     1
102
RTVSPropertyOp10
 70
     1
102
RTVSPropertyOp11
 70
     1
102
RTVSPropertyOp12
 70
     1
102
RTVSPropertyOp13
 70
     1
102
RTVSPropertyOp14
 70
     1
102
RTVSPropertyOp15
 70
     1
102
RTVSPropertyOp16
 70
     1
102
RTVSPropertyOp17
 70
     1
102
RTVSPropertyOp18
 70
     1
102
RTVSPropertyOp19
 70
     1
102
RTVSPropertyOp20
 70
     1
102
RTVSPropertyOp21
 70
     1
102
RTVSPropertyOp22
 70
     1
102
RTVSPropertyOp23
 70
     1
102
RTVSPropertyOp24
 70
     1
102
RTVSPropertyOp25
 70
     1
102
RTVSPropertyOp26
 70
     1
102
RTVSPropertyOp27
 70
     1
102
RTVSPropertyOp28
 70
     1
102
RTVSPropertyOp29
 70
     1
102
RTVSPropertyOp30
 70
     1
102
RTVSPropertyOp31
 70
     1
102
RTVSPropertyOp32
 70
     1
102
RTVSPropertyOp33
 70
     1
102
RTVSPropertyOp34
 70
     1
102
RTVSPropertyOp35
 70
     1
102
RTVSPropertyOp36
 70
     1
102
RTVSPropertyOp37
 70
     1
102
RTVSPropertyOp38
 70
     1
102
RTVSPropertyOp39
 70
     1
102
RTVSPropertyOp40
 70
     1
102
RTVSPropertyOp41
 70
     1
102
RTVSPropertyOp42
 70
     1
102
RTVSPropertyOp43
 70
     1
102
RTVSPropertyOp44
 70
     1
102
RTVSPropertyOp45
 70
     1
102
RTVSPropertyOp46
 70
     1
102
RTVSPropertyOp47
 70
     1
102
RTVSPropertyOp48
 70
     1
102
RTVSPropertyOp49
 70
     1
102
RTVSPropertyOp50
 70
     1
102
RTVSPropertyOp51
 70
     0
102
RTVSPropertyOp52
 70
     0
102
RTVSPropertyOp53
 70
     1
102
RTVSPropertyOp54
 70
     1
102
RTVSPropertyOp55
 70
     1
102
RTVSPropertyOp56
 70
     1
102
RTVSPropertyOp57
 70
     1
102
RTVSPropertyOp58
 70
     1
102
RTVSPropertyOp59
 70
     1
102
RTVSPropertyOp60
 70
     1
102
RTVSPropertyOp61
 70
     1
102
RTVSPropertyOp62
 70
     1
  0
XRECORD
  5
9AC1
102
{ACAD_REACTORS
330
9AC0
102
}
330
9AC0
100
AcDbXrecord
280
     1
102
RTVSPost2010Prop28
280
     0
102
RTVSPost2010PropOp28
 70
     1
102
RTVSPost2010Prop29
280
     1
102
RTVSPost2010PropOp29
 70
     1
102
RTVSPost2010Prop30
280
     1
102
RTVSPost2010PropOp30
 70
     1
102
RTVSPost2010Prop31
280
     0
102
RTVSPost2010PropOp31
 70
     1
102
RTVSPost2010Prop32
280
     0
102
RTVSPost2010PropOp32
 70
     1
102
RTVSPost2010Prop33
280
     0
102
RTVSPost2010PropOp33
 70
     1
102
RTVSPost2010Prop34
280
     0
102
RTVSPost2010PropOp34
 70
     1
102
RTVSPost2010Prop35
280
     0
102
RTVSPost2010PropOp35
 70
     1
102
RTVSPost2010Prop36
280
     0
102
RTVSPost2010PropOp36
 70
     1
102
RTVSPost2010Prop37
 90
       50
102
RTVSPost2010PropOp37
 70
     0
102
RTVSPost2010Prop38
140
0.0
102
RTVSPost2010PropOp38
 70
     0
102
RTVSPost2010Prop39
140
1.0
102
RTVSPost2010PropOp39
 70
     0
102
RTVSPost2010Prop40
 90
        0
102
RTVSPost2010PropOp40
 70
     0
102
RTVSPost2010Prop41ColorIndex
 90
       18
102
RTVSPost2010Prop41ColorRGB
 90
        0
102
RTVSPost2010PropOp41
 70
     0
102
RTVSPost2010Prop42
 90
       50
102
RTVSPost2010PropOp42
 70
     0
102
RTVSPost2010Prop43
 90
        3
102
RTVSPost2010PropOp43
 70
     0
102
RTVSPost2010Prop44ColorIndex
 90
        5
102
RTVSPost2010Prop44ColorRGB
 90
      255
102
RTVSPost2010PropOp44
 70
     0
102
RTVSPost2010Prop45
280
     0
102
RTVSPost2010PropOp45
 70
     1
102
RTVSPost2010Prop46
 90
       50
102
RTVSPost2010PropOp46
 70
     0
102
RTVSPost2010Prop47
 90
       50
102
RTVSPost2010PropOp47
 70
     0
102
RTVSPost2010Prop48
 90
       50
102
RTVSPost2010PropOp48
 70
     0
102
RTVSPost2010Prop49
280
     0
102
RTVSPost2010PropOp49
 70
     1
102
RTVSPost2010Prop50
 90
       50
102
RTVSPost2010PropOp50
 70
     0
102
RTVSPost2010Prop51ColorIndex
 90
      256
102
RTVSPost2010Prop51ColorRGB
 90
-16777216
102
RTVSPost2010PropOp51
 70
     0
102
RTVSPost2010Prop52
140
1.0
102
RTVSPost2010PropOp52
 70
     0
102
RTVSPost2010Prop53
 90
        2
102
RTVSPost2010PropOp53
 70
     0
102
RTVSPost2010Prop54
  1
strokes_ogs.tif
102
RTVSPost2010PropOp54
 70
     0
102
RTVSPost2010Prop55
280
     0
102
RTVSPost2010PropOp55
 70
     1
102
RTVSPost2010Prop56
140
1.0
102
RTVSPost2010PropOp56
 70
     0
102
RTVSPost2010Prop57
140
1.0
102
RTVSPost2010PropOp57
 70
     0
102
RTVSPropertyOp0
 70
     0
102
RTVSPropertyOp1
 70
     0
102
RTVSPropertyOp2
 70
     0
102
RTVSPropertyOp3
 70
     0
102
RTVSPropertyOp4
 70
     0
102
RTVSPropertyOp5
 70
     0
102
RTVSPropertyOp6
 70
     0
102
RTVSPropertyOp7
 70
     0
102
RTVSPropertyOp8
 70
     0
102
RTVSPropertyOp9
 70
     0
102
RTVSPropertyOp10
 70
     0
102
RTVSPropertyOp11
 70
     0
102
RTVSPropertyOp12
 70
     0
102
RTVSPropertyOp13
 70
     0
102
RTVSPropertyOp14
 70
     2
102
RTVSPropertyOp15
 70
     0
102
RTVSPropertyOp16
 70
     0
102
RTVSPropertyOp17
 70
     0
102
RTVSPropertyOp18
 70
     0
102
RTVSPropertyOp19
 70
     0
102
RTVSPropertyOp20
 70
     0
102
RTVSPropertyOp21
 70
     0
102
RTVSPropertyOp22
 70
     0
102
RTVSPropertyOp23
 70
     0
102
RTVSPropertyOp24
 70
     0
102
RTVSPropertyOp25
 70
     0
102
RTVSPropertyOp26
 70
     0
102
RTVSPropertyOp27
 70
     0
102
RTVSPropertyOp28
 70
     1
102
RTVSPropertyOp29
 70
     1
102
RTVSPropertyOp30
 70
     1
102
RTVSPropertyOp31
 70
     1
102
RTVSPropertyOp32
 70
     1
102
RTVSPropertyOp33
 70
     1
102
RTVSPropertyOp34
 70
     1
102
RTVSPropertyOp35
 70
     1
102
RTVSPropertyOp36
 70
     1
102
RTVSPropertyOp37
 70
     0
102
RTVSPropertyOp38
 70
     0
102
RTVSPropertyOp39
 70
     0
102
RTVSPropertyOp40
 70
     0
102
RTVSPropertyOp41
 70
     0
102
RTVSPropertyOp42
 70
     0
102
RTVSPropertyOp43
 70
     0
102
RTVSPropertyOp44
 70
     0
102
RTVSPropertyOp45
 70
     1
102
RTVSPropertyOp46
 70
     0
102
RTVSPropertyOp47
 70
     0
102
RTVSPropertyOp48
 70
     0
102
RTVSPropertyOp49
 70
     1
102
RTVSPropertyOp50
 70
     0
102
RTVSPropertyOp51
 70
     0
102
RTVSPropertyOp52
 70
     0
102
RTVSPropertyOp53
 70
     0
102
RTVSPropertyOp54
 70
     0
102
RTVSPropertyOp55
 70
     1
102
RTVSPropertyOp56
 70
     0
102
RTVSPropertyOp57
 70
     0
102
RTVSPropertyOp58
 70
     0
102
RTVSPropertyOp59
 70
     0
102
RTVSPropertyOp60
 70
     0
102
RTVSPropertyOp61
 70
     0
102
RTVSPropertyOp62
 70
     0
  0
XRECORD
  5
9AAF
102
{ACAD_REACTORS
330
9AAE
102
}
330
9AAE
100
AcDbXrecord
280
     1
102
RTVSPost2010Prop28
280
     0
102
RTVSPost2010PropOp28
 70
     1
102
RTVSPost2010Prop29
280
     1
102
RTVSPost2010PropOp29
 70
     1
102
RTVSPost2010Prop30
280
     1
102
RTVSPost2010PropOp30
 70
     1
102
RTVSPost2010Prop31
280
     0
102
RTVSPost2010PropOp31
 70
     1
102
RTVSPost2010Prop32
280
     0
102
RTVSPost2010PropOp32
 70
     1
102
RTVSPost2010Prop33
280
     0
102
RTVSPost2010PropOp33
 70
     1
102
RTVSPost2010Prop34
280
     0
102
RTVSPost2010PropOp34
 70
     1
102
RTVSPost2010Prop35
280
     0
102
RTVSPost2010PropOp35
 70
     1
102
RTVSPost2010Prop36
280
     0
102
RTVSPost2010PropOp36
 70
     1
102
RTVSPost2010Prop37
 90
       50
102
RTVSPost2010PropOp37
 70
     1
102
RTVSPost2010Prop38
140
0.0
102
RTVSPost2010PropOp38
 70
     1
102
RTVSPost2010Prop39
140
1.0
102
RTVSPost2010PropOp39
 70
     1
102
RTVSPost2010Prop40
 90
        0
102
RTVSPost2010PropOp40
 70
     1
102
RTVSPost2010Prop41ColorIndex
 90
       18
102
RTVSPost2010Prop41ColorRGB
 90
        0
102
RTVSPost2010PropOp41
 70
     1
102
RTVSPost2010Prop42
 90
       50
102
RTVSPost2010PropOp42
 70
     1
102
RTVSPost2010Prop43
 90
        3
102
RTVSPost2010PropOp43
 70
     1
102
RTVSPost2010Prop44ColorIndex
 90
        5
102
RTVSPost2010Prop44ColorRGB
 90
      255
102
RTVSPost2010PropOp44
 70
     1
102
RTVSPost2010Prop45
280
     0
102
RTVSPost2010PropOp45
 70
     1
102
RTVSPost2010Prop46
 90
       50
102
RTVSPost2010PropOp46
 70
     1
102
RTVSPost2010Prop47
 90
       50
102
RTVSPost2010PropOp47
 70
     1
102
RTVSPost2010Prop48
 90
       50
102
RTVSPost2010PropOp48
 70
     1
102
RTVSPost2010Prop49
280
     0
102
RTVSPost2010PropOp49
 70
     1
102
RTVSPost2010Prop50
 90
       50
102
RTVSPost2010PropOp50
 70
     1
102
RTVSPost2010Prop51ColorIndex
 90
      256
102
RTVSPost2010Prop51ColorRGB
 90
-16777216
102
RTVSPost2010PropOp51
 70
     0
102
RTVSPost2010Prop52
140
1.0
102
RTVSPost2010PropOp52
 70
     0
102
RTVSPost2010Prop53
 90
        2
102
RTVSPost2010PropOp53
 70
     1
102
RTVSPost2010Prop54
  1
strokes_ogs.tif
102
RTVSPost2010PropOp54
 70
     1
102
RTVSPost2010Prop55
280
     0
102
RTVSPost2010PropOp55
 70
     1
102
RTVSPost2010Prop56
140
1.0
102
RTVSPost2010PropOp56
 70
     1
102
RTVSPost2010Prop57
140
1.0
102
RTVSPost2010PropOp57
 70
     1
102
RTVSPropertyOp0
 70
     1
102
RTVSPropertyOp1
 70
     1
102
RTVSPropertyOp2
 70
     1
102
RTVSPropertyOp3
 70
     1
102
RTVSPropertyOp4
 70
     1
102
RTVSPropertyOp5
 70
     1
102
RTVSPropertyOp6
 70
     1
102
RTVSPropertyOp7
 70
     1
102
RTVSPropertyOp8
 70
     1
102
RTVSPropertyOp9
 70
     1
102
RTVSPropertyOp10
 70
     1
102
RTVSPropertyOp11
 70
     1
102
RTVSPropertyOp12
 70
     1
102
RTVSPropertyOp13
 70
     1
102
RTVSPropertyOp14
 70
     1
102
RTVSPropertyOp15
 70
     1
102
RTVSPropertyOp16
 70
     1
102
RTVSPropertyOp17
 70
     1
102
RTVSPropertyOp18
 70
     1
102
RTVSPropertyOp19
 70
     1
102
RTVSPropertyOp20
 70
     1
102
RTVSPropertyOp21
 70
     1
102
RTVSPropertyOp22
 70
     1
102
RTVSPropertyOp23
 70
     1
102
RTVSPropertyOp24
 70
     1
102
RTVSPropertyOp25
 70
     1
102
RTVSPropertyOp26
 70
     1
102
RTVSPropertyOp27
 70
     1
102
RTVSPropertyOp28
 70
     1
102
RTVSPropertyOp29
 70
     1
102
RTVSPropertyOp30
 70
     1
102
RTVSPropertyOp31
 70
     1
102
RTVSPropertyOp32
 70
     1
102
RTVSPropertyOp33
 70
     1
102
RTVSPropertyOp34
 70
     1
102
RTVSPropertyOp35
 70
     1
102
RTVSPropertyOp36
 70
     1
102
RTVSPropertyOp37
 70
     1
102
RTVSPropertyOp38
 70
     1
102
RTVSPropertyOp39
 70
     1
102
RTVSPropertyOp40
 70
     1
102
RTVSPropertyOp41
 70
     1
102
RTVSPropertyOp42
 70
     1
102
RTVSPropertyOp43
 70
     1
102
RTVSPropertyOp44
 70
     1
102
RTVSPropertyOp45
 70
     1
102
RTVSPropertyOp46
 70
     1
102
RTVSPropertyOp47
 70
     1
102
RTVSPropertyOp48
 70
     1
102
RTVSPropertyOp49
 70
     1
102
RTVSPropertyOp50
 70
     1
102
RTVSPropertyOp51
 70
     0
102
RTVSPropertyOp52
 70
     0
102
RTVSPropertyOp53
 70
     1
102
RTVSPropertyOp54
 70
     1
102
RTVSPropertyOp55
 70
     1
102
RTVSPropertyOp56
 70
     1
102
RTVSPropertyOp57
 70
     1
102
RTVSPropertyOp58
 70
     1
102
RTVSPropertyOp59
 70
     1
102
RTVSPropertyOp60
 70
     1
102
RTVSPropertyOp61
 70
     1
102
RTVSPropertyOp62
 70
     1
  0
XRECORD
  5
9A93
102
{ACAD_REACTORS
330
9A92
102
}
330
9A92
100
AcDbXrecord
280
     1
102
RTVSPost2010Prop28
280
     0
102
RTVSPost2010PropOp28
 70
     1
102
RTVSPost2010Prop29
280
     1
102
RTVSPost2010PropOp29
 70
     1
102
RTVSPost2010Prop30
280
     1
102
RTVSPost2010PropOp30
 70
     1
102
RTVSPost2010Prop31
280
     0
102
RTVSPost2010PropOp31
 70
     1
102
RTVSPost2010Prop32
280
     0
102
RTVSPost2010PropOp32
 70
     1
102
RTVSPost2010Prop33
280
     0
102
RTVSPost2010PropOp33
 70
     1
102
RTVSPost2010Prop34
280
     0
102
RTVSPost2010PropOp34
 70
     1
102
RTVSPost2010Prop35
280
     0
102
RTVSPost2010PropOp35
 70
     1
102
RTVSPost2010Prop36
280
     0
102
RTVSPost2010PropOp36
 70
     1
102
RTVSPost2010Prop37
 90
       50
102
RTVSPost2010PropOp37
 70
     1
102
RTVSPost2010Prop38
140
0.0
102
RTVSPost2010PropOp38
 70
     1
102
RTVSPost2010Prop39
140
1.0
102
RTVSPost2010PropOp39
 70
     1
102
RTVSPost2010Prop40
 90
        0
102
RTVSPost2010PropOp40
 70
     1
102
RTVSPost2010Prop41ColorIndex
 90
       18
102
RTVSPost2010Prop41ColorRGB
 90
        0
102
RTVSPost2010PropOp41
 70
     1
102
RTVSPost2010Prop42
 90
       50
102
RTVSPost2010PropOp42
 70
     1
102
RTVSPost2010Prop43
 90
        3
102
RTVSPost2010PropOp43
 70
     1
102
RTVSPost2010Prop44ColorIndex
 90
        5
102
RTVSPost2010Prop44ColorRGB
 90
      255
102
RTVSPost2010PropOp44
 70
     1
102
RTVSPost2010Prop45
280
     0
102
RTVSPost2010PropOp45
 70
     1
102
RTVSPost2010Prop46
 90
       50
102
RTVSPost2010PropOp46
 70
     1
102
RTVSPost2010Prop47
 90
       50
102
RTVSPost2010PropOp47
 70
     1
102
RTVSPost2010Prop48
 90
       50
102
RTVSPost2010PropOp48
 70
     1
102
RTVSPost2010Prop49
280
     0
102
RTVSPost2010PropOp49
 70
     1
102
RTVSPost2010Prop50
 90
       50
102
RTVSPost2010PropOp50
 70
     1
102
RTVSPost2010Prop51ColorIndex
 90
      256
102
RTVSPost2010Prop51ColorRGB
 90
-16777216
102
RTVSPost2010PropOp51
 70
     0
102
RTVSPost2010Prop52
140
1.0
102
RTVSPost2010PropOp52
 70
     0
102
RTVSPost2010Prop53
 90
        2
102
RTVSPost2010PropOp53
 70
     1
102
RTVSPost2010Prop54
  1
strokes_ogs.tif
102
RTVSPost2010PropOp54
 70
     1
102
RTVSPost2010Prop55
280
     0
102
RTVSPost2010PropOp55
 70
     1
102
RTVSPost2010Prop56
140
1.0
102
RTVSPost2010PropOp56
 70
     1
102
RTVSPost2010Prop57
140
1.0
102
RTVSPost2010PropOp57
 70
     1
102
RTVSPropertyOp0
 70
     1
102
RTVSPropertyOp1
 70
     1
102
RTVSPropertyOp2
 70
     1
102
RTVSPropertyOp3
 70
     1
102
RTVSPropertyOp4
 70
     1
102
RTVSPropertyOp5
 70
     1
102
RTVSPropertyOp6
 70
     1
102
RTVSPropertyOp7
 70
     1
102
RTVSPropertyOp8
 70
     1
102
RTVSPropertyOp9
 70
     1
102
RTVSPropertyOp10
 70
     1
102
RTVSPropertyOp11
 70
     1
102
RTVSPropertyOp12
 70
     1
102
RTVSPropertyOp13
 70
     1
102
RTVSPropertyOp14
 70
     1
102
RTVSPropertyOp15
 70
     1
102
RTVSPropertyOp16
 70
     1
102
RTVSPropertyOp17
 70
     1
102
RTVSPropertyOp18
 70
     1
102
RTVSPropertyOp19
 70
     1
102
RTVSPropertyOp20
 70
     1
102
RTVSPropertyOp21
 70
     1
102
RTVSPropertyOp22
 70
     1
102
RTVSPropertyOp23
 70
     1
102
RTVSPropertyOp24
 70
     1
102
RTVSPropertyOp25
 70
     1
102
RTVSPropertyOp26
 70
     1
102
RTVSPropertyOp27
 70
     1
102
RTVSPropertyOp28
 70
     1
102
RTVSPropertyOp29
 70
     1
102
RTVSPropertyOp30
 70
     1
102
RTVSPropertyOp31
 70
     1
102
RTVSPropertyOp32
 70
     1
102
RTVSPropertyOp33
 70
     1
102
RTVSPropertyOp34
 70
     1
102
RTVSPropertyOp35
 70
     1
102
RTVSPropertyOp36
 70
     1
102
RTVSPropertyOp37
 70
     1
102
RTVSPropertyOp38
 70
     1
102
RTVSPropertyOp39
 70
     1
102
RTVSPropertyOp40
 70
     1
102
RTVSPropertyOp41
 70
     1
102
RTVSPropertyOp42
 70
     1
102
RTVSPropertyOp43
 70
     1
102
RTVSPropertyOp44
 70
     1
102
RTVSPropertyOp45
 70
     1
102
RTVSPropertyOp46
 70
     1
102
RTVSPropertyOp47
 70
     1
102
RTVSPropertyOp48
 70
     1
102
RTVSPropertyOp49
 70
     1
102
RTVSPropertyOp50
 70
     1
102
RTVSPropertyOp51
 70
     0
102
RTVSPropertyOp52
 70
     0
102
RTVSPropertyOp53
 70
     1
102
RTVSPropertyOp54
 70
     1
102
RTVSPropertyOp55
 70
     1
102
RTVSPropertyOp56
 70
     1
102
RTVSPropertyOp57
 70
     1
102
RTVSPropertyOp58
 70
     1
102
RTVSPropertyOp59
 70
     1
102
RTVSPropertyOp60
 70
     1
102
RTVSPropertyOp61
 70
     1
102
RTVSPropertyOp62
 70
     1
  0
XRECORD
  5
9A95
102
{ACAD_REACTORS
330
9A94
102
}
330
9A94
100
AcDbXrecord
280
     1
102
RTVSPost2010Prop28
280
     0
102
RTVSPost2010PropOp28
 70
     1
102
RTVSPost2010Prop29
280
     1
102
RTVSPost2010PropOp29
 70
     1
102
RTVSPost2010Prop30
280
     1
102
RTVSPost2010PropOp30
 70
     1
102
RTVSPost2010Prop31
280
     0
102
RTVSPost2010PropOp31
 70
     1
102
RTVSPost2010Prop32
280
     0
102
RTVSPost2010PropOp32
 70
     1
102
RTVSPost2010Prop33
280
     0
102
RTVSPost2010PropOp33
 70
     1
102
RTVSPost2010Prop34
280
     0
102
RTVSPost2010PropOp34
 70
     1
102
RTVSPost2010Prop35
280
     0
102
RTVSPost2010PropOp35
 70
     1
102
RTVSPost2010Prop36
280
     0
102
RTVSPost2010PropOp36
 70
     1
102
RTVSPost2010Prop37
 90
       50
102
RTVSPost2010PropOp37
 70
     1
102
RTVSPost2010Prop38
140
0.0
102
RTVSPost2010PropOp38
 70
     1
102
RTVSPost2010Prop39
140
1.0
102
RTVSPost2010PropOp39
 70
     1
102
RTVSPost2010Prop40
 90
        0
102
RTVSPost2010PropOp40
 70
     1
102
RTVSPost2010Prop41ColorIndex
 90
       18
102
RTVSPost2010Prop41ColorRGB
 90
        0
102
RTVSPost2010PropOp41
 70
     1
102
RTVSPost2010Prop42
 90
       50
102
RTVSPost2010PropOp42
 70
     1
102
RTVSPost2010Prop43
 90
        3
102
RTVSPost2010PropOp43
 70
     1
102
RTVSPost2010Prop44ColorIndex
 90
        5
102
RTVSPost2010Prop44ColorRGB
 90
      255
102
RTVSPost2010PropOp44
 70
     1
102
RTVSPost2010Prop45
280
     0
102
RTVSPost2010PropOp45
 70
     1
102
RTVSPost2010Prop46
 90
       50
102
RTVSPost2010PropOp46
 70
     1
102
RTVSPost2010Prop47
 90
       50
102
RTVSPost2010PropOp47
 70
     1
102
RTVSPost2010Prop48
 90
       50
102
RTVSPost2010PropOp48
 70
     1
102
RTVSPost2010Prop49
280
     0
102
RTVSPost2010PropOp49
 70
     1
102
RTVSPost2010Prop50
 90
       50
102
RTVSPost2010PropOp50
 70
     1
102
RTVSPost2010Prop51ColorIndex
 90
      256
102
RTVSPost2010Prop51ColorRGB
 90
-16777216
102
RTVSPost2010PropOp51
 70
     0
102
RTVSPost2010Prop52
140
1.0
102
RTVSPost2010PropOp52
 70
     0
102
RTVSPost2010Prop53
 90
        2
102
RTVSPost2010PropOp53
 70
     1
102
RTVSPost2010Prop54
  1
strokes_ogs.tif
102
RTVSPost2010PropOp54
 70
     1
102
RTVSPost2010Prop55
280
     0
102
RTVSPost2010PropOp55
 70
     1
102
RTVSPost2010Prop56
140
1.0
102
RTVSPost2010PropOp56
 70
     1
102
RTVSPost2010Prop57
140
1.0
102
RTVSPost2010PropOp57
 70
     1
102
RTVSPropertyOp0
 70
     1
102
RTVSPropertyOp1
 70
     1
102
RTVSPropertyOp2
 70
     1
102
RTVSPropertyOp3
 70
     1
102
RTVSPropertyOp4
 70
     1
102
RTVSPropertyOp5
 70
     1
102
RTVSPropertyOp6
 70
     1
102
RTVSPropertyOp7
 70
     1
102
RTVSPropertyOp8
 70
     1
102
RTVSPropertyOp9
 70
     1
102
RTVSPropertyOp10
 70
     1
102
RTVSPropertyOp11
 70
     1
102
RTVSPropertyOp12
 70
     1
102
RTVSPropertyOp13
 70
     1
102
RTVSPropertyOp14
 70
     1
102
RTVSPropertyOp15
 70
     1
102
RTVSPropertyOp16
 70
     1
102
RTVSPropertyOp17
 70
     1
102
RTVSPropertyOp18
 70
     1
102
RTVSPropertyOp19
 70
     1
102
RTVSPropertyOp20
 70
     1
102
RTVSPropertyOp21
 70
     1
102
RTVSPropertyOp22
 70
     1
102
RTVSPropertyOp23
 70
     1
102
RTVSPropertyOp24
 70
     1
102
RTVSPropertyOp25
 70
     1
102
RTVSPropertyOp26
 70
     1
102
RTVSPropertyOp27
 70
     1
102
RTVSPropertyOp28
 70
     1
102
RTVSPropertyOp29
 70
     1
102
RTVSPropertyOp30
 70
     1
102
RTVSPropertyOp31
 70
     1
102
RTVSPropertyOp32
 70
     1
102
RTVSPropertyOp33
 70
     1
102
RTVSPropertyOp34
 70
     1
102
RTVSPropertyOp35
 70
     1
102
RTVSPropertyOp36
 70
     1
102
RTVSPropertyOp37
 70
     1
102
RTVSPropertyOp38
 70
     1
102
RTVSPropertyOp39
 70
     1
102
RTVSPropertyOp40
 70
     1
102
RTVSPropertyOp41
 70
     1
102
RTVSPropertyOp42
 70
     1
102
RTVSPropertyOp43
 70
     1
102
RTVSPropertyOp44
 70
     1
102
RTVSPropertyOp45
 70
     1
102
RTVSPropertyOp46
 70
     1
102
RTVSPropertyOp47
 70
     1
102
RTVSPropertyOp48
 70
     1
102
RTVSPropertyOp49
 70
     1
102
RTVSPropertyOp50
 70
     1
102
RTVSPropertyOp51
 70
     0
102
RTVSPropertyOp52
 70
     0
102
RTVSPropertyOp53
 70
     1
102
RTVSPropertyOp54
 70
     1
102
RTVSPropertyOp55
 70
     1
102
RTVSPropertyOp56
 70
     1
102
RTVSPropertyOp57
 70
     1
102
RTVSPropertyOp58
 70
     1
102
RTVSPropertyOp59
 70
     1
102
RTVSPropertyOp60
 70
     1
102
RTVSPropertyOp61
 70
     1
102
RTVSPropertyOp62
 70
     1
  0
XRECORD
  5
9A97
102
{ACAD_REACTORS
330
9A96
102
}
330
9A96
100
AcDbXrecord
280
     1
102
RTVSPost2010Prop28
280
     0
102
RTVSPost2010PropOp28
 70
     1
102
RTVSPost2010Prop29
280
     1
102
RTVSPost2010PropOp29
 70
     1
102
RTVSPost2010Prop30
280
     1
102
RTVSPost2010PropOp30
 70
     1
102
RTVSPost2010Prop31
280
     0
102
RTVSPost2010PropOp31
 70
     1
102
RTVSPost2010Prop32
280
     0
102
RTVSPost2010PropOp32
 70
     1
102
RTVSPost2010Prop33
280
     0
102
RTVSPost2010PropOp33
 70
     1
102
RTVSPost2010Prop34
280
     0
102
RTVSPost2010PropOp34
 70
     1
102
RTVSPost2010Prop35
280
     0
102
RTVSPost2010PropOp35
 70
     1
102
RTVSPost2010Prop36
280
     0
102
RTVSPost2010PropOp36
 70
     1
102
RTVSPost2010Prop37
 90
       50
102
RTVSPost2010PropOp37
 70
     1
102
RTVSPost2010Prop38
140
0.0
102
RTVSPost2010PropOp38
 70
     1
102
RTVSPost2010Prop39
140
1.0
102
RTVSPost2010PropOp39
 70
     1
102
RTVSPost2010Prop40
 90
        0
102
RTVSPost2010PropOp40
 70
     1
102
RTVSPost2010Prop41ColorIndex
 90
       18
102
RTVSPost2010Prop41ColorRGB
 90
        0
102
RTVSPost2010PropOp41
 70
     1
102
RTVSPost2010Prop42
 90
       50
102
RTVSPost2010PropOp42
 70
     1
102
RTVSPost2010Prop43
 90
        3
102
RTVSPost2010PropOp43
 70
     1
102
RTVSPost2010Prop44ColorIndex
 90
        5
102
RTVSPost2010Prop44ColorRGB
 90
      255
102
RTVSPost2010PropOp44
 70
     1
102
RTVSPost2010Prop45
280
     0
102
RTVSPost2010PropOp45
 70
     1
102
RTVSPost2010Prop46
 90
       50
102
RTVSPost2010PropOp46
 70
     1
102
RTVSPost2010Prop47
 90
       50
102
RTVSPost2010PropOp47
 70
     1
102
RTVSPost2010Prop48
 90
       50
102
RTVSPost2010PropOp48
 70
     1
102
RTVSPost2010Prop49
280
     0
102
RTVSPost2010PropOp49
 70
     1
102
RTVSPost2010Prop50
 90
       50
102
RTVSPost2010PropOp50
 70
     1
102
RTVSPost2010Prop51ColorIndex
 90
      256
102
RTVSPost2010Prop51ColorRGB
 90
-16777216
102
RTVSPost2010PropOp51
 70
     0
102
RTVSPost2010Prop52
140
1.0
102
RTVSPost2010PropOp52
 70
     0
102
RTVSPost2010Prop53
 90
        2
102
RTVSPost2010PropOp53
 70
     1
102
RTVSPost2010Prop54
  1
strokes_ogs.tif
102
RTVSPost2010PropOp54
 70
     1
102
RTVSPost2010Prop55
280
     0
102
RTVSPost2010PropOp55
 70
     1
102
RTVSPost2010Prop56
140
1.0
102
RTVSPost2010PropOp56
 70
     1
102
RTVSPost2010Prop57
140
1.0
102
RTVSPost2010PropOp57
 70
     1
102
RTVSPropertyOp0
 70
     1
102
RTVSPropertyOp1
 70
     1
102
RTVSPropertyOp2
 70
     1
102
RTVSPropertyOp3
 70
     1
102
RTVSPropertyOp4
 70
     1
102
RTVSPropertyOp5
 70
     1
102
RTVSPropertyOp6
 70
     1
102
RTVSPropertyOp7
 70
     1
102
RTVSPropertyOp8
 70
     1
102
RTVSPropertyOp9
 70
     1
102
RTVSPropertyOp10
 70
     1
102
RTVSPropertyOp11
 70
     1
102
RTVSPropertyOp12
 70
     1
102
RTVSPropertyOp13
 70
     1
102
RTVSPropertyOp14
 70
     1
102
RTVSPropertyOp15
 70
     1
102
RTVSPropertyOp16
 70
     1
102
RTVSPropertyOp17
 70
     1
102
RTVSPropertyOp18
 70
     1
102
RTVSPropertyOp19
 70
     1
102
RTVSPropertyOp20
 70
     1
102
RTVSPropertyOp21
 70
     1
102
RTVSPropertyOp22
 70
     1
102
RTVSPropertyOp23
 70
     1
102
RTVSPropertyOp24
 70
     1
102
RTVSPropertyOp25
 70
     1
102
RTVSPropertyOp26
 70
     1
102
RTVSPropertyOp27
 70
     1
102
RTVSPropertyOp28
 70
     1
102
RTVSPropertyOp29
 70
     1
102
RTVSPropertyOp30
 70
     1
102
RTVSPropertyOp31
 70
     1
102
RTVSPropertyOp32
 70
     1
102
RTVSPropertyOp33
 70
     1
102
RTVSPropertyOp34
 70
     1
102
RTVSPropertyOp35
 70
     1
102
RTVSPropertyOp36
 70
     1
102
RTVSPropertyOp37
 70
     1
102
RTVSPropertyOp38
 70
     1
102
RTVSPropertyOp39
 70
     1
102
RTVSPropertyOp40
 70
     1
102
RTVSPropertyOp41
 70
     1
102
RTVSPropertyOp42
 70
     1
102
RTVSPropertyOp43
 70
     1
102
RTVSPropertyOp44
 70
     1
102
RTVSPropertyOp45
 70
     1
102
RTVSPropertyOp46
 70
     1
102
RTVSPropertyOp47
 70
     1
102
RTVSPropertyOp48
 70
     1
102
RTVSPropertyOp49
 70
     1
102
RTVSPropertyOp50
 70
     1
102
RTVSPropertyOp51
 70
     0
102
RTVSPropertyOp52
 70
     0
102
RTVSPropertyOp53
 70
     1
102
RTVSPropertyOp54
 70
     1
102
RTVSPropertyOp55
 70
     1
102
RTVSPropertyOp56
 70
     1
102
RTVSPropertyOp57
 70
     1
102
RTVSPropertyOp58
 70
     1
102
RTVSPropertyOp59
 70
     1
102
RTVSPropertyOp60
 70
     1
102
RTVSPropertyOp61
 70
     1
102
RTVSPropertyOp62
 70
     1
  0
XRECORD
  5
9A99
102
{ACAD_REACTORS
330
9A98
102
}
330
9A98
100
AcDbXrecord
280
     1
102
RTVSPost2010Prop28
280
     0
102
RTVSPost2010PropOp28
 70
     1
102
RTVSPost2010Prop29
280
     1
102
RTVSPost2010PropOp29
 70
     1
102
RTVSPost2010Prop30
280
     1
102
RTVSPost2010PropOp30
 70
     1
102
RTVSPost2010Prop31
280
     0
102
RTVSPost2010PropOp31
 70
     1
102
RTVSPost2010Prop32
280
     0
102
RTVSPost2010PropOp32
 70
     1
102
RTVSPost2010Prop33
280
     0
102
RTVSPost2010PropOp33
 70
     1
102
RTVSPost2010Prop34
280
     0
102
RTVSPost2010PropOp34
 70
     1
102
RTVSPost2010Prop35
280
     0
102
RTVSPost2010PropOp35
 70
     1
102
RTVSPost2010Prop36
280
     0
102
RTVSPost2010PropOp36
 70
     1
102
RTVSPost2010Prop37
 90
       50
102
RTVSPost2010PropOp37
 70
     1
102
RTVSPost2010Prop38
140
0.0
102
RTVSPost2010PropOp38
 70
     1
102
RTVSPost2010Prop39
140
1.0
102
RTVSPost2010PropOp39
 70
     1
102
RTVSPost2010Prop40
 90
        0
102
RTVSPost2010PropOp40
 70
     1
102
RTVSPost2010Prop41ColorIndex
 90
       18
102
RTVSPost2010Prop41ColorRGB
 90
        0
102
RTVSPost2010PropOp41
 70
     1
102
RTVSPost2010Prop42
 90
       50
102
RTVSPost2010PropOp42
 70
     1
102
RTVSPost2010Prop43
 90
        3
102
RTVSPost2010PropOp43
 70
     1
102
RTVSPost2010Prop44ColorIndex
 90
        5
102
RTVSPost2010Prop44ColorRGB
 90
      255
102
RTVSPost2010PropOp44
 70
     1
102
RTVSPost2010Prop45
280
     0
102
RTVSPost2010PropOp45
 70
     1
102
RTVSPost2010Prop46
 90
       50
102
RTVSPost2010PropOp46
 70
     1
102
RTVSPost2010Prop47
 90
       50
102
RTVSPost2010PropOp47
 70
     1
102
RTVSPost2010Prop48
 90
       50
102
RTVSPost2010PropOp48
 70
     1
102
RTVSPost2010Prop49
280
     0
102
RTVSPost2010PropOp49
 70
     1
102
RTVSPost2010Prop50
 90
       50
102
RTVSPost2010PropOp50
 70
     1
102
RTVSPost2010Prop51ColorIndex
 90
      256
102
RTVSPost2010Prop51ColorRGB
 90
-16777216
102
RTVSPost2010PropOp51
 70
     0
102
RTVSPost2010Prop52
140
1.0
102
RTVSPost2010PropOp52
 70
     0
102
RTVSPost2010Prop53
 90
        2
102
RTVSPost2010PropOp53
 70
     1
102
RTVSPost2010Prop54
  1
strokes_ogs.tif
102
RTVSPost2010PropOp54
 70
     1
102
RTVSPost2010Prop55
280
     0
102
RTVSPost2010PropOp55
 70
     1
102
RTVSPost2010Prop56
140
1.0
102
RTVSPost2010PropOp56
 70
     1
102
RTVSPost2010Prop57
140
1.0
102
RTVSPost2010PropOp57
 70
     1
102
RTVSPropertyOp0
 70
     1
102
RTVSPropertyOp1
 70
     1
102
RTVSPropertyOp2
 70
     1
102
RTVSPropertyOp3
 70
     1
102
RTVSPropertyOp4
 70
     1
102
RTVSPropertyOp5
 70
     1
102
RTVSPropertyOp6
 70
     1
102
RTVSPropertyOp7
 70
     1
102
RTVSPropertyOp8
 70
     1
102
RTVSPropertyOp9
 70
     1
102
RTVSPropertyOp10
 70
     1
102
RTVSPropertyOp11
 70
     1
102
RTVSPropertyOp12
 70
     1
102
RTVSPropertyOp13
 70
     1
102
RTVSPropertyOp14
 70
     1
102
RTVSPropertyOp15
 70
     1
102
RTVSPropertyOp16
 70
     1
102
RTVSPropertyOp17
 70
     1
102
RTVSPropertyOp18
 70
     1
102
RTVSPropertyOp19
 70
     1
102
RTVSPropertyOp20
 70
     1
102
RTVSPropertyOp21
 70
     1
102
RTVSPropertyOp22
 70
     1
102
RTVSPropertyOp23
 70
     1
102
RTVSPropertyOp24
 70
     1
102
RTVSPropertyOp25
 70
     1
102
RTVSPropertyOp26
 70
     1
102
RTVSPropertyOp27
 70
     1
102
RTVSPropertyOp28
 70
     1
102
RTVSPropertyOp29
 70
     1
102
RTVSPropertyOp30
 70
     1
102
RTVSPropertyOp31
 70
     1
102
RTVSPropertyOp32
 70
     1
102
RTVSPropertyOp33
 70
     1
102
RTVSPropertyOp34
 70
     1
102
RTVSPropertyOp35
 70
     1
102
RTVSPropertyOp36
 70
     1
102
RTVSPropertyOp37
 70
     1
102
RTVSPropertyOp38
 70
     1
102
RTVSPropertyOp39
 70
     1
102
RTVSPropertyOp40
 70
     1
102
RTVSPropertyOp41
 70
     1
102
RTVSPropertyOp42
 70
     1
102
RTVSPropertyOp43
 70
     1
102
RTVSPropertyOp44
 70
     1
102
RTVSPropertyOp45
 70
     1
102
RTVSPropertyOp46
 70
     1
102
RTVSPropertyOp47
 70
     1
102
RTVSPropertyOp48
 70
     1
102
RTVSPropertyOp49
 70
     1
102
RTVSPropertyOp50
 70
     1
102
RTVSPropertyOp51
 70
     0
102
RTVSPropertyOp52
 70
     0
102
RTVSPropertyOp53
 70
     1
102
RTVSPropertyOp54
 70
     1
102
RTVSPropertyOp55
 70
     1
102
RTVSPropertyOp56
 70
     1
102
RTVSPropertyOp57
 70
     1
102
RTVSPropertyOp58
 70
     1
102
RTVSPropertyOp59
 70
     1
102
RTVSPropertyOp60
 70
     1
102
RTVSPropertyOp61
 70
     1
102
RTVSPropertyOp62
 70
     1
  0
XRECORD
  5
9AA1
102
{ACAD_REACTORS
330
9AA0
102
}
330
9AA0
100
AcDbXrecord
280
     1
102
RTVSPost2010Prop28
280
     0
102
RTVSPost2010PropOp28
 70
     1
102
RTVSPost2010Prop29
280
     1
102
RTVSPost2010PropOp29
 70
     1
102
RTVSPost2010Prop30
280
     1
102
RTVSPost2010PropOp30
 70
     1
102
RTVSPost2010Prop31
280
     0
102
RTVSPost2010PropOp31
 70
     1
102
RTVSPost2010Prop32
280
     0
102
RTVSPost2010PropOp32
 70
     1
102
RTVSPost2010Prop33
280
     0
102
RTVSPost2010PropOp33
 70
     1
102
RTVSPost2010Prop34
280
     0
102
RTVSPost2010PropOp34
 70
     1
102
RTVSPost2010Prop35
280
     0
102
RTVSPost2010PropOp35
 70
     1
102
RTVSPost2010Prop36
280
     0
102
RTVSPost2010PropOp36
 70
     1
102
RTVSPost2010Prop37
 90
       50
102
RTVSPost2010PropOp37
 70
     1
102
RTVSPost2010Prop38
140
0.0
102
RTVSPost2010PropOp38
 70
     1
102
RTVSPost2010Prop39
140
1.0
102
RTVSPost2010PropOp39
 70
     1
102
RTVSPost2010Prop40
 90
        0
102
RTVSPost2010PropOp40
 70
     1
102
RTVSPost2010Prop41ColorIndex
 90
       18
102
RTVSPost2010Prop41ColorRGB
 90
        0
102
RTVSPost2010PropOp41
 70
     1
102
RTVSPost2010Prop42
 90
       50
102
RTVSPost2010PropOp42
 70
     1
102
RTVSPost2010Prop43
 90
        3
102
RTVSPost2010PropOp43
 70
     1
102
RTVSPost2010Prop44ColorIndex
 90
        5
102
RTVSPost2010Prop44ColorRGB
 90
      255
102
RTVSPost2010PropOp44
 70
     1
102
RTVSPost2010Prop45
280
     0
102
RTVSPost2010PropOp45
 70
     1
102
RTVSPost2010Prop46
 90
       50
102
RTVSPost2010PropOp46
 70
     1
102
RTVSPost2010Prop47
 90
       50
102
RTVSPost2010PropOp47
 70
     1
102
RTVSPost2010Prop48
 90
       50
102
RTVSPost2010PropOp48
 70
     1
102
RTVSPost2010Prop49
280
     0
102
RTVSPost2010PropOp49
 70
     1
102
RTVSPost2010Prop50
 90
       50
102
RTVSPost2010PropOp50
 70
     1
102
RTVSPost2010Prop51ColorIndex
 90
      256
102
RTVSPost2010Prop51ColorRGB
 90
-16777216
102
RTVSPost2010PropOp51
 70
     0
102
RTVSPost2010Prop52
140
1.0
102
RTVSPost2010PropOp52
 70
     0
102
RTVSPost2010Prop53
 90
        2
102
RTVSPost2010PropOp53
 70
     1
102
RTVSPost2010Prop54
  1
strokes_ogs.tif
102
RTVSPost2010PropOp54
 70
     1
102
RTVSPost2010Prop55
280
     0
102
RTVSPost2010PropOp55
 70
     1
102
RTVSPost2010Prop56
140
1.0
102
RTVSPost2010PropOp56
 70
     1
102
RTVSPost2010Prop57
140
1.0
102
RTVSPost2010PropOp57
 70
     1
102
RTVSPropertyOp0
 70
     1
102
RTVSPropertyOp1
 70
     1
102
RTVSPropertyOp2
 70
     1
102
RTVSPropertyOp3
 70
     1
102
RTVSPropertyOp4
 70
     1
102
RTVSPropertyOp5
 70
     1
102
RTVSPropertyOp6
 70
     1
102
RTVSPropertyOp7
 70
     1
102
RTVSPropertyOp8
 70
     1
102
RTVSPropertyOp9
 70
     1
102
RTVSPropertyOp10
 70
     1
102
RTVSPropertyOp11
 70
     1
102
RTVSPropertyOp12
 70
     1
102
RTVSPropertyOp13
 70
     1
102
RTVSPropertyOp14
 70
     1
102
RTVSPropertyOp15
 70
     1
102
RTVSPropertyOp16
 70
     1
102
RTVSPropertyOp17
 70
     1
102
RTVSPropertyOp18
 70
     1
102
RTVSPropertyOp19
 70
     1
102
RTVSPropertyOp20
 70
     1
102
RTVSPropertyOp21
 70
     1
102
RTVSPropertyOp22
 70
     1
102
RTVSPropertyOp23
 70
     1
102
RTVSPropertyOp24
 70
     1
102
RTVSPropertyOp25
 70
     1
102
RTVSPropertyOp26
 70
     1
102
RTVSPropertyOp27
 70
     1
102
RTVSPropertyOp28
 70
     1
102
RTVSPropertyOp29
 70
     1
102
RTVSPropertyOp30
 70
     1
102
RTVSPropertyOp31
 70
     1
102
RTVSPropertyOp32
 70
     1
102
RTVSPropertyOp33
 70
     1
102
RTVSPropertyOp34
 70
     1
102
RTVSPropertyOp35
 70
     1
102
RTVSPropertyOp36
 70
     1
102
RTVSPropertyOp37
 70
     1
102
RTVSPropertyOp38
 70
     1
102
RTVSPropertyOp39
 70
     1
102
RTVSPropertyOp40
 70
     1
102
RTVSPropertyOp41
 70
     1
102
RTVSPropertyOp42
 70
     1
102
RTVSPropertyOp43
 70
     1
102
RTVSPropertyOp44
 70
     1
102
RTVSPropertyOp45
 70
     1
102
RTVSPropertyOp46
 70
     1
102
RTVSPropertyOp47
 70
     1
102
RTVSPropertyOp48
 70
     1
102
RTVSPropertyOp49
 70
     1
102
RTVSPropertyOp50
 70
     1
102
RTVSPropertyOp51
 70
     0
102
RTVSPropertyOp52
 70
     0
102
RTVSPropertyOp53
 70
     1
102
RTVSPropertyOp54
 70
     1
102
RTVSPropertyOp55
 70
     1
102
RTVSPropertyOp56
 70
     1
102
RTVSPropertyOp57
 70
     1
102
RTVSPropertyOp58
 70
     1
102
RTVSPropertyOp59
 70
     1
102
RTVSPropertyOp60
 70
     1
102
RTVSPropertyOp61
 70
     1
102
RTVSPropertyOp62
 70
     1
  0
XRECORD
  5
9ABD
102
{ACAD_REACTORS
330
9ABC
102
}
330
9ABC
100
AcDbXrecord
280
     1
102
RTVSPost2010Prop28
280
     0
102
RTVSPost2010PropOp28
 70
     1
102
RTVSPost2010Prop29
280
     1
102
RTVSPost2010PropOp29
 70
     1
102
RTVSPost2010Prop30
280
     1
102
RTVSPost2010PropOp30
 70
     1
102
RTVSPost2010Prop31
280
     0
102
RTVSPost2010PropOp31
 70
     1
102
RTVSPost2010Prop32
280
     0
102
RTVSPost2010PropOp32
 70
     1
102
RTVSPost2010Prop33
280
     0
102
RTVSPost2010PropOp33
 70
     1
102
RTVSPost2010Prop34
280
     0
102
RTVSPost2010PropOp34
 70
     1
102
RTVSPost2010Prop35
280
     0
102
RTVSPost2010PropOp35
 70
     1
102
RTVSPost2010Prop36
280
     0
102
RTVSPost2010PropOp36
 70
     1
102
RTVSPost2010Prop37
 90
       50
102
RTVSPost2010PropOp37
 70
     0
102
RTVSPost2010Prop38
140
0.0
102
RTVSPost2010PropOp38
 70
     0
102
RTVSPost2010Prop39
140
1.0
102
RTVSPost2010PropOp39
 70
     0
102
RTVSPost2010Prop40
 90
        0
102
RTVSPost2010PropOp40
 70
     0
102
RTVSPost2010Prop41ColorIndex
 90
       18
102
RTVSPost2010Prop41ColorRGB
 90
        0
102
RTVSPost2010PropOp41
 70
     0
102
RTVSPost2010Prop42
 90
       50
102
RTVSPost2010PropOp42
 70
     0
102
RTVSPost2010Prop43
 90
        3
102
RTVSPost2010PropOp43
 70
     0
102
RTVSPost2010Prop44ColorIndex
 90
        5
102
RTVSPost2010Prop44ColorRGB
 90
      255
102
RTVSPost2010PropOp44
 70
     0
102
RTVSPost2010Prop45
280
     0
102
RTVSPost2010PropOp45
 70
     1
102
RTVSPost2010Prop46
 90
       50
102
RTVSPost2010PropOp46
 70
     0
102
RTVSPost2010Prop47
 90
       50
102
RTVSPost2010PropOp47
 70
     0
102
RTVSPost2010Prop48
 90
       50
102
RTVSPost2010PropOp48
 70
     0
102
RTVSPost2010Prop49
280
     0
102
RTVSPost2010PropOp49
 70
     1
102
RTVSPost2010Prop50
 90
       50
102
RTVSPost2010PropOp50
 70
     0
102
RTVSPost2010Prop51ColorIndex
 90
      256
102
RTVSPost2010Prop51ColorRGB
 90
-16777216
102
RTVSPost2010PropOp51
 70
     0
102
RTVSPost2010Prop52
140
1.0
102
RTVSPost2010PropOp52
 70
     0
102
RTVSPost2010Prop53
 90
        2
102
RTVSPost2010PropOp53
 70
     0
102
RTVSPost2010Prop54
  1
strokes_ogs.tif
102
RTVSPost2010PropOp54
 70
     0
102
RTVSPost2010Prop55
280
     0
102
RTVSPost2010PropOp55
 70
     1
102
RTVSPost2010Prop56
140
1.0
102
RTVSPost2010PropOp56
 70
     0
102
RTVSPost2010Prop57
140
1.0
102
RTVSPost2010PropOp57
 70
     0
102
RTVSPropertyOp0
 70
     0
102
RTVSPropertyOp1
 70
     0
102
RTVSPropertyOp2
 70
     0
102
RTVSPropertyOp3
 70
     0
102
RTVSPropertyOp4
 70
     0
102
RTVSPropertyOp5
 70
     0
102
RTVSPropertyOp6
 70
     0
102
RTVSPropertyOp7
 70
     0
102
RTVSPropertyOp8
 70
     0
102
RTVSPropertyOp9
 70
     0
102
RTVSPropertyOp10
 70
     0
102
RTVSPropertyOp11
 70
     0
102
RTVSPropertyOp12
 70
     0
102
RTVSPropertyOp13
 70
     0
102
RTVSPropertyOp14
 70
     2
102
RTVSPropertyOp15
 70
     0
102
RTVSPropertyOp16
 70
     0
102
RTVSPropertyOp17
 70
     0
102
RTVSPropertyOp18
 70
     0
102
RTVSPropertyOp19
 70
     0
102
RTVSPropertyOp20
 70
     0
102
RTVSPropertyOp21
 70
     0
102
RTVSPropertyOp22
 70
     0
102
RTVSPropertyOp23
 70
     0
102
RTVSPropertyOp24
 70
     0
102
RTVSPropertyOp25
 70
     0
102
RTVSPropertyOp26
 70
     0
102
RTVSPropertyOp27
 70
     0
102
RTVSPropertyOp28
 70
     1
102
RTVSPropertyOp29
 70
     1
102
RTVSPropertyOp30
 70
     1
102
RTVSPropertyOp31
 70
     1
102
RTVSPropertyOp32
 70
     1
102
RTVSPropertyOp33
 70
     1
102
RTVSPropertyOp34
 70
     1
102
RTVSPropertyOp35
 70
     1
102
RTVSPropertyOp36
 70
     1
102
RTVSPropertyOp37
 70
     0
102
RTVSPropertyOp38
 70
     0
102
RTVSPropertyOp39
 70
     0
102
RTVSPropertyOp40
 70
     0
102
RTVSPropertyOp41
 70
     0
102
RTVSPropertyOp42
 70
     0
102
RTVSPropertyOp43
 70
     0
102
RTVSPropertyOp44
 70
     0
102
RTVSPropertyOp45
 70
     1
102
RTVSPropertyOp46
 70
     0
102
RTVSPropertyOp47
 70
     0
102
RTVSPropertyOp48
 70
     0
102
RTVSPropertyOp49
 70
     1
102
RTVSPropertyOp50
 70
     0
102
RTVSPropertyOp51
 70
     0
102
RTVSPropertyOp52
 70
     0
102
RTVSPropertyOp53
 70
     0
102
RTVSPropertyOp54
 70
     0
102
RTVSPropertyOp55
 70
     1
102
RTVSPropertyOp56
 70
     0
102
RTVSPropertyOp57
 70
     0
102
RTVSPropertyOp58
 70
     0
102
RTVSPropertyOp59
 70
     0
102
RTVSPropertyOp60
 70
     0
102
RTVSPropertyOp61
 70
     0
102
RTVSPropertyOp62
 70
     0
  0
XRECORD
  5
9AAD
102
{ACAD_REACTORS
330
9AAC
102
}
330
9AAC
100
AcDbXrecord
280
     1
102
RTVSPost2010Prop28
280
     0
102
RTVSPost2010PropOp28
 70
     1
102
RTVSPost2010Prop29
280
     1
102
RTVSPost2010PropOp29
 70
     1
102
RTVSPost2010Prop30
280
     1
102
RTVSPost2010PropOp30
 70
     1
102
RTVSPost2010Prop31
280
     0
102
RTVSPost2010PropOp31
 70
     1
102
RTVSPost2010Prop32
280
     0
102
RTVSPost2010PropOp32
 70
     1
102
RTVSPost2010Prop33
280
     0
102
RTVSPost2010PropOp33
 70
     1
102
RTVSPost2010Prop34
280
     0
102
RTVSPost2010PropOp34
 70
     1
102
RTVSPost2010Prop35
280
     0
102
RTVSPost2010PropOp35
 70
     1
102
RTVSPost2010Prop36
280
     0
102
RTVSPost2010PropOp36
 70
     1
102
RTVSPost2010Prop37
 90
       50
102
RTVSPost2010PropOp37
 70
     1
102
RTVSPost2010Prop38
140
0.0
102
RTVSPost2010PropOp38
 70
     1
102
RTVSPost2010Prop39
140
1.0
102
RTVSPost2010PropOp39
 70
     1
102
RTVSPost2010Prop40
 90
        0
102
RTVSPost2010PropOp40
 70
     1
102
RTVSPost2010Prop41ColorIndex
 90
       18
102
RTVSPost2010Prop41ColorRGB
 90
        0
102
RTVSPost2010PropOp41
 70
     1
102
RTVSPost2010Prop42
 90
       50
102
RTVSPost2010PropOp42
 70
     1
102
RTVSPost2010Prop43
 90
        3
102
RTVSPost2010PropOp43
 70
     1
102
RTVSPost2010Prop44ColorIndex
 90
        5
102
RTVSPost2010Prop44ColorRGB
 90
      255
102
RTVSPost2010PropOp44
 70
     1
102
RTVSPost2010Prop45
280
     0
102
RTVSPost2010PropOp45
 70
     1
102
RTVSPost2010Prop46
 90
       50
102
RTVSPost2010PropOp46
 70
     1
102
RTVSPost2010Prop47
 90
       50
102
RTVSPost2010PropOp47
 70
     1
102
RTVSPost2010Prop48
 90
       50
102
RTVSPost2010PropOp48
 70
     1
102
RTVSPost2010Prop49
280
     0
102
RTVSPost2010PropOp49
 70
     1
102
RTVSPost2010Prop50
 90
       50
102
RTVSPost2010PropOp50
 70
     1
102
RTVSPost2010Prop51ColorIndex
 90
      256
102
RTVSPost2010Prop51ColorRGB
 90
-16777216
102
RTVSPost2010PropOp51
 70
     0
102
RTVSPost2010Prop52
140
1.0
102
RTVSPost2010PropOp52
 70
     0
102
RTVSPost2010Prop53
 90
        2
102
RTVSPost2010PropOp53
 70
     1
102
RTVSPost2010Prop54
  1
strokes_ogs.tif
102
RTVSPost2010PropOp54
 70
     1
102
RTVSPost2010Prop55
280
     0
102
RTVSPost2010PropOp55
 70
     1
102
RTVSPost2010Prop56
140
1.0
102
RTVSPost2010PropOp56
 70
     1
102
RTVSPost2010Prop57
140
1.0
102
RTVSPost2010PropOp57
 70
     1
102
RTVSPropertyOp0
 70
     1
102
RTVSPropertyOp1
 70
     1
102
RTVSPropertyOp2
 70
     1
102
RTVSPropertyOp3
 70
     1
102
RTVSPropertyOp4
 70
     1
102
RTVSPropertyOp5
 70
     1
102
RTVSPropertyOp6
 70
     1
102
RTVSPropertyOp7
 70
     1
102
RTVSPropertyOp8
 70
     1
102
RTVSPropertyOp9
 70
     1
102
RTVSPropertyOp10
 70
     1
102
RTVSPropertyOp11
 70
     1
102
RTVSPropertyOp12
 70
     1
102
RTVSPropertyOp13
 70
     1
102
RTVSPropertyOp14
 70
     1
102
RTVSPropertyOp15
 70
     1
102
RTVSPropertyOp16
 70
     1
102
RTVSPropertyOp17
 70
     1
102
RTVSPropertyOp18
 70
     1
102
RTVSPropertyOp19
 70
     1
102
RTVSPropertyOp20
 70
     1
102
RTVSPropertyOp21
 70
     1
102
RTVSPropertyOp22
 70
     1
102
RTVSPropertyOp23
 70
     1
102
RTVSPropertyOp24
 70
     1
102
RTVSPropertyOp25
 70
     1
102
RTVSPropertyOp26
 70
     1
102
RTVSPropertyOp27
 70
     1
102
RTVSPropertyOp28
 70
     1
102
RTVSPropertyOp29
 70
     1
102
RTVSPropertyOp30
 70
     1
102
RTVSPropertyOp31
 70
     1
102
RTVSPropertyOp32
 70
     1
102
RTVSPropertyOp33
 70
     1
102
RTVSPropertyOp34
 70
     1
102
RTVSPropertyOp35
 70
     1
102
RTVSPropertyOp36
 70
     1
102
RTVSPropertyOp37
 70
     1
102
RTVSPropertyOp38
 70
     1
102
RTVSPropertyOp39
 70
     1
102
RTVSPropertyOp40
 70
     1
102
RTVSPropertyOp41
 70
     1
102
RTVSPropertyOp42
 70
     1
102
RTVSPropertyOp43
 70
     1
102
RTVSPropertyOp44
 70
     1
102
RTVSPropertyOp45
 70
     1
102
RTVSPropertyOp46
 70
     1
102
RTVSPropertyOp47
 70
     1
102
RTVSPropertyOp48
 70
     1
102
RTVSPropertyOp49
 70
     1
102
RTVSPropertyOp50
 70
     1
102
RTVSPropertyOp51
 70
     0
102
RTVSPropertyOp52
 70
     0
102
RTVSPropertyOp53
 70
     1
102
RTVSPropertyOp54
 70
     1
102
RTVSPropertyOp55
 70
     1
102
RTVSPropertyOp56
 70
     1
102
RTVSPropertyOp57
 70
     1
102
RTVSPropertyOp58
 70
     1
102
RTVSPropertyOp59
 70
     1
102
RTVSPropertyOp60
 70
     1
102
RTVSPropertyOp61
 70
     1
102
RTVSPropertyOp62
 70
     1
  0
XRECORD
  5
9ABF
102
{ACAD_REACTORS
330
9ABE
102
}
330
9ABE
100
AcDbXrecord
280
     1
102
RTVSPost2010Prop28
280
     0
102
RTVSPost2010PropOp28
 70
     1
102
RTVSPost2010Prop29
280
     1
102
RTVSPost2010PropOp29
 70
     1
102
RTVSPost2010Prop30
280
     1
102
RTVSPost2010PropOp30
 70
     1
102
RTVSPost2010Prop31
280
     0
102
RTVSPost2010PropOp31
 70
     1
102
RTVSPost2010Prop32
280
     0
102
RTVSPost2010PropOp32
 70
     1
102
RTVSPost2010Prop33
280
     0
102
RTVSPost2010PropOp33
 70
     1
102
RTVSPost2010Prop34
280
     0
102
RTVSPost2010PropOp34
 70
     1
102
RTVSPost2010Prop35
280
     0
102
RTVSPost2010PropOp35
 70
     1
102
RTVSPost2010Prop36
280
     0
102
RTVSPost2010PropOp36
 70
     1
102
RTVSPost2010Prop37
 90
       50
102
RTVSPost2010PropOp37
 70
     0
102
RTVSPost2010Prop38
140
0.0
102
RTVSPost2010PropOp38
 70
     0
102
RTVSPost2010Prop39
140
1.0
102
RTVSPost2010PropOp39
 70
     0
102
RTVSPost2010Prop40
 90
        0
102
RTVSPost2010PropOp40
 70
     0
102
RTVSPost2010Prop41ColorIndex
 90
       18
102
RTVSPost2010Prop41ColorRGB
 90
        0
102
RTVSPost2010PropOp41
 70
     0
102
RTVSPost2010Prop42
 90
       50
102
RTVSPost2010PropOp42
 70
     0
102
RTVSPost2010Prop43
 90
        3
102
RTVSPost2010PropOp43
 70
     0
102
RTVSPost2010Prop44ColorIndex
 90
        5
102
RTVSPost2010Prop44ColorRGB
 90
      255
102
RTVSPost2010PropOp44
 70
     0
102
RTVSPost2010Prop45
280
     0
102
RTVSPost2010PropOp45
 70
     1
102
RTVSPost2010Prop46
 90
       50
102
RTVSPost2010PropOp46
 70
     0
102
RTVSPost2010Prop47
 90
       50
102
RTVSPost2010PropOp47
 70
     0
102
RTVSPost2010Prop48
 90
       50
102
RTVSPost2010PropOp48
 70
     0
102
RTVSPost2010Prop49
280
     0
102
RTVSPost2010PropOp49
 70
     1
102
RTVSPost2010Prop50
 90
       50
102
RTVSPost2010PropOp50
 70
     0
102
RTVSPost2010Prop51ColorIndex
 90
      256
102
RTVSPost2010Prop51ColorRGB
 90
-16777216
102
RTVSPost2010PropOp51
 70
     0
102
RTVSPost2010Prop52
140
1.0
102
RTVSPost2010PropOp52
 70
     0
102
RTVSPost2010Prop53
 90
        2
102
RTVSPost2010PropOp53
 70
     0
102
RTVSPost2010Prop54
  1
strokes_ogs.tif
102
RTVSPost2010PropOp54
 70
     0
102
RTVSPost2010Prop55
280
     0
102
RTVSPost2010PropOp55
 70
     1
102
RTVSPost2010Prop56
140
1.0
102
RTVSPost2010PropOp56
 70
     0
102
RTVSPost2010Prop57
140
1.0
102
RTVSPost2010PropOp57
 70
     0
102
RTVSPropertyOp0
 70
     0
102
RTVSPropertyOp1
 70
     0
102
RTVSPropertyOp2
 70
     0
102
RTVSPropertyOp3
 70
     0
102
RTVSPropertyOp4
 70
     0
102
RTVSPropertyOp5
 70
     0
102
RTVSPropertyOp6
 70
     0
102
RTVSPropertyOp7
 70
     0
102
RTVSPropertyOp8
 70
     0
102
RTVSPropertyOp9
 70
     0
102
RTVSPropertyOp10
 70
     0
102
RTVSPropertyOp11
 70
     0
102
RTVSPropertyOp12
 70
     0
102
RTVSPropertyOp13
 70
     0
102
RTVSPropertyOp14
 70
     2
102
RTVSPropertyOp15
 70
     0
102
RTVSPropertyOp16
 70
     0
102
RTVSPropertyOp17
 70
     0
102
RTVSPropertyOp18
 70
     0
102
RTVSPropertyOp19
 70
     0
102
RTVSPropertyOp20
 70
     0
102
RTVSPropertyOp21
 70
     0
102
RTVSPropertyOp22
 70
     0
102
RTVSPropertyOp23
 70
     0
102
RTVSPropertyOp24
 70
     0
102
RTVSPropertyOp25
 70
     0
102
RTVSPropertyOp26
 70
     0
102
RTVSPropertyOp27
 70
     0
102
RTVSPropertyOp28
 70
     1
102
RTVSPropertyOp29
 70
     1
102
RTVSPropertyOp30
 70
     1
102
RTVSPropertyOp31
 70
     1
102
RTVSPropertyOp32
 70
     1
102
RTVSPropertyOp33
 70
     1
102
RTVSPropertyOp34
 70
     1
102
RTVSPropertyOp35
 70
     1
102
RTVSPropertyOp36
 70
     1
102
RTVSPropertyOp37
 70
     0
102
RTVSPropertyOp38
 70
     0
102
RTVSPropertyOp39
 70
     0
102
RTVSPropertyOp40
 70
     0
102
RTVSPropertyOp41
 70
     0
102
RTVSPropertyOp42
 70
     0
102
RTVSPropertyOp43
 70
     0
102
RTVSPropertyOp44
 70
     0
102
RTVSPropertyOp45
 70
     1
102
RTVSPropertyOp46
 70
     0
102
RTVSPropertyOp47
 70
     0
102
RTVSPropertyOp48
 70
     0
102
RTVSPropertyOp49
 70
     1
102
RTVSPropertyOp50
 70
     0
102
RTVSPropertyOp51
 70
     0
102
RTVSPropertyOp52
 70
     0
102
RTVSPropertyOp53
 70
     0
102
RTVSPropertyOp54
 70
     0
102
RTVSPropertyOp55
 70
     1
102
RTVSPropertyOp56
 70
     0
102
RTVSPropertyOp57
 70
     0
102
RTVSPropertyOp58
 70
     0
102
RTVSPropertyOp59
 70
     0
102
RTVSPropertyOp60
 70
     0
102
RTVSPropertyOp61
 70
     0
102
RTVSPropertyOp62
 70
     0
  0
XRECORD
  5
9AA5
102
{ACAD_REACTORS
330
9AA4
102
}
330
9AA4
100
AcDbXrecord
280
     1
102
RTVSPost2010Prop28
280
     0
102
RTVSPost2010PropOp28
 70
     1
102
RTVSPost2010Prop29
280
     1
102
RTVSPost2010PropOp29
 70
     1
102
RTVSPost2010Prop30
280
     1
102
RTVSPost2010PropOp30
 70
     1
102
RTVSPost2010Prop31
280
     0
102
RTVSPost2010PropOp31
 70
     1
102
RTVSPost2010Prop32
280
     0
102
RTVSPost2010PropOp32
 70
     1
102
RTVSPost2010Prop33
280
     0
102
RTVSPost2010PropOp33
 70
     1
102
RTVSPost2010Prop34
280
     0
102
RTVSPost2010PropOp34
 70
     1
102
RTVSPost2010Prop35
280
     0
102
RTVSPost2010PropOp35
 70
     1
102
RTVSPost2010Prop36
280
     0
102
RTVSPost2010PropOp36
 70
     1
102
RTVSPost2010Prop37
 90
       50
102
RTVSPost2010PropOp37
 70
     1
102
RTVSPost2010Prop38
140
0.0
102
RTVSPost2010PropOp38
 70
     1
102
RTVSPost2010Prop39
140
1.0
102
RTVSPost2010PropOp39
 70
     1
102
RTVSPost2010Prop40
 90
        0
102
RTVSPost2010PropOp40
 70
     1
102
RTVSPost2010Prop41ColorIndex
 90
       18
102
RTVSPost2010Prop41ColorRGB
 90
        0
102
RTVSPost2010PropOp41
 70
     1
102
RTVSPost2010Prop42
 90
       50
102
RTVSPost2010PropOp42
 70
     1
102
RTVSPost2010Prop43
 90
        3
102
RTVSPost2010PropOp43
 70
     1
102
RTVSPost2010Prop44ColorIndex
 90
        5
102
RTVSPost2010Prop44ColorRGB
 90
      255
102
RTVSPost2010PropOp44
 70
     1
102
RTVSPost2010Prop45
280
     0
102
RTVSPost2010PropOp45
 70
     1
102
RTVSPost2010Prop46
 90
       50
102
RTVSPost2010PropOp46
 70
     1
102
RTVSPost2010Prop47
 90
       50
102
RTVSPost2010PropOp47
 70
     1
102
RTVSPost2010Prop48
 90
       50
102
RTVSPost2010PropOp48
 70
     1
102
RTVSPost2010Prop49
280
     0
102
RTVSPost2010PropOp49
 70
     1
102
RTVSPost2010Prop50
 90
       50
102
RTVSPost2010PropOp50
 70
     1
102
RTVSPost2010Prop51ColorIndex
 90
      256
102
RTVSPost2010Prop51ColorRGB
 90
-16777216
102
RTVSPost2010PropOp51
 70
     0
102
RTVSPost2010Prop52
140
1.0
102
RTVSPost2010PropOp52
 70
     0
102
RTVSPost2010Prop53
 90
        2
102
RTVSPost2010PropOp53
 70
     1
102
RTVSPost2010Prop54
  1
strokes_ogs.tif
102
RTVSPost2010PropOp54
 70
     1
102
RTVSPost2010Prop55
280
     0
102
RTVSPost2010PropOp55
 70
     1
102
RTVSPost2010Prop56
140
1.0
102
RTVSPost2010PropOp56
 70
     1
102
RTVSPost2010Prop57
140
1.0
102
RTVSPost2010PropOp57
 70
     1
102
RTVSPropertyOp0
 70
     1
102
RTVSPropertyOp1
 70
     1
102
RTVSPropertyOp2
 70
     1
102
RTVSPropertyOp3
 70
     1
102
RTVSPropertyOp4
 70
     1
102
RTVSPropertyOp5
 70
     1
102
RTVSPropertyOp6
 70
     1
102
RTVSPropertyOp7
 70
     1
102
RTVSPropertyOp8
 70
     1
102
RTVSPropertyOp9
 70
     1
102
RTVSPropertyOp10
 70
     1
102
RTVSPropertyOp11
 70
     1
102
RTVSPropertyOp12
 70
     1
102
RTVSPropertyOp13
 70
     1
102
RTVSPropertyOp14
 70
     1
102
RTVSPropertyOp15
 70
     1
102
RTVSPropertyOp16
 70
     1
102
RTVSPropertyOp17
 70
     1
102
RTVSPropertyOp18
 70
     1
102
RTVSPropertyOp19
 70
     1
102
RTVSPropertyOp20
 70
     1
102
RTVSPropertyOp21
 70
     1
102
RTVSPropertyOp22
 70
     1
102
RTVSPropertyOp23
 70
     1
102
RTVSPropertyOp24
 70
     1
102
RTVSPropertyOp25
 70
     1
102
RTVSPropertyOp26
 70
     1
102
RTVSPropertyOp27
 70
     1
102
RTVSPropertyOp28
 70
     1
102
RTVSPropertyOp29
 70
     1
102
RTVSPropertyOp30
 70
     1
102
RTVSPropertyOp31
 70
     1
102
RTVSPropertyOp32
 70
     1
102
RTVSPropertyOp33
 70
     1
102
RTVSPropertyOp34
 70
     1
102
RTVSPropertyOp35
 70
     1
102
RTVSPropertyOp36
 70
     1
102
RTVSPropertyOp37
 70
     1
102
RTVSPropertyOp38
 70
     1
102
RTVSPropertyOp39
 70
     1
102
RTVSPropertyOp40
 70
     1
102
RTVSPropertyOp41
 70
     1
102
RTVSPropertyOp42
 70
     1
102
RTVSPropertyOp43
 70
     1
102
RTVSPropertyOp44
 70
     1
102
RTVSPropertyOp45
 70
     1
102
RTVSPropertyOp46
 70
     1
102
RTVSPropertyOp47
 70
     1
102
RTVSPropertyOp48
 70
     1
102
RTVSPropertyOp49
 70
     1
102
RTVSPropertyOp50
 70
     1
102
RTVSPropertyOp51
 70
     0
102
RTVSPropertyOp52
 70
     0
102
RTVSPropertyOp53
 70
     1
102
RTVSPropertyOp54
 70
     1
102
RTVSPropertyOp55
 70
     1
102
RTVSPropertyOp56
 70
     1
102
RTVSPropertyOp57
 70
     1
102
RTVSPropertyOp58
 70
     1
102
RTVSPropertyOp59
 70
     1
102
RTVSPropertyOp60
 70
     1
102
RTVSPropertyOp61
 70
     1
102
RTVSPropertyOp62
 70
     1
  0
XRECORD
  5
9ABB
102
{ACAD_REACTORS
330
9ABA
102
}
330
9ABA
100
AcDbXrecord
280
     1
102
RTVSPost2010Prop28
280
     0
102
RTVSPost2010PropOp28
 70
     1
102
RTVSPost2010Prop29
280
     1
102
RTVSPost2010PropOp29
 70
     1
102
RTVSPost2010Prop30
280
     1
102
RTVSPost2010PropOp30
 70
     1
102
RTVSPost2010Prop31
280
     0
102
RTVSPost2010PropOp31
 70
     1
102
RTVSPost2010Prop32
280
     0
102
RTVSPost2010PropOp32
 70
     1
102
RTVSPost2010Prop33
280
     0
102
RTVSPost2010PropOp33
 70
     1
102
RTVSPost2010Prop34
280
     0
102
RTVSPost2010PropOp34
 70
     1
102
RTVSPost2010Prop35
280
     0
102
RTVSPost2010PropOp35
 70
     1
102
RTVSPost2010Prop36
280
     0
102
RTVSPost2010PropOp36
 70
     1
102
RTVSPost2010Prop37
 90
       50
102
RTVSPost2010PropOp37
 70
     1
102
RTVSPost2010Prop38
140
0.0
102
RTVSPost2010PropOp38
 70
     1
102
RTVSPost2010Prop39
140
1.0
102
RTVSPost2010PropOp39
 70
     1
102
RTVSPost2010Prop40
 90
        0
102
RTVSPost2010PropOp40
 70
     1
102
RTVSPost2010Prop41ColorIndex
 90
       18
102
RTVSPost2010Prop41ColorRGB
 90
        0
102
RTVSPost2010PropOp41
 70
     1
102
RTVSPost2010Prop42
 90
       50
102
RTVSPost2010PropOp42
 70
     1
102
RTVSPost2010Prop43
 90
        3
102
RTVSPost2010PropOp43
 70
     1
102
RTVSPost2010Prop44ColorIndex
 90
        5
102
RTVSPost2010Prop44ColorRGB
 90
      255
102
RTVSPost2010PropOp44
 70
     1
102
RTVSPost2010Prop45
280
     0
102
RTVSPost2010PropOp45
 70
     1
102
RTVSPost2010Prop46
 90
       50
102
RTVSPost2010PropOp46
 70
     1
102
RTVSPost2010Prop47
 90
       50
102
RTVSPost2010PropOp47
 70
     1
102
RTVSPost2010Prop48
 90
       50
102
RTVSPost2010PropOp48
 70
     1
102
RTVSPost2010Prop49
280
     0
102
RTVSPost2010PropOp49
 70
     1
102
RTVSPost2010Prop50
 90
       50
102
RTVSPost2010PropOp50
 70
     1
102
RTVSPost2010Prop51ColorIndex
 90
      256
102
RTVSPost2010Prop51ColorRGB
 90
-16777216
102
RTVSPost2010PropOp51
 70
     0
102
RTVSPost2010Prop52
140
1.0
102
RTVSPost2010PropOp52
 70
     0
102
RTVSPost2010Prop53
 90
        2
102
RTVSPost2010PropOp53
 70
     1
102
RTVSPost2010Prop54
  1
strokes_ogs.tif
102
RTVSPost2010PropOp54
 70
     1
102
RTVSPost2010Prop55
280
     0
102
RTVSPost2010PropOp55
 70
     1
102
RTVSPost2010Prop56
140
1.0
102
RTVSPost2010PropOp56
 70
     1
102
RTVSPost2010Prop57
140
1.0
102
RTVSPost2010PropOp57
 70
     1
102
RTVSPropertyOp0
 70
     1
102
RTVSPropertyOp1
 70
     1
102
RTVSPropertyOp2
 70
     1
102
RTVSPropertyOp3
 70
     1
102
RTVSPropertyOp4
 70
     1
102
RTVSPropertyOp5
 70
     1
102
RTVSPropertyOp6
 70
     1
102
RTVSPropertyOp7
 70
     1
102
RTVSPropertyOp8
 70
     1
102
RTVSPropertyOp9
 70
     1
102
RTVSPropertyOp10
 70
     1
102
RTVSPropertyOp11
 70
     1
102
RTVSPropertyOp12
 70
     1
102
RTVSPropertyOp13
 70
     1
102
RTVSPropertyOp14
 70
     1
102
RTVSPropertyOp15
 70
     1
102
RTVSPropertyOp16
 70
     1
102
RTVSPropertyOp17
 70
     1
102
RTVSPropertyOp18
 70
     1
102
RTVSPropertyOp19
 70
     1
102
RTVSPropertyOp20
 70
     1
102
RTVSPropertyOp21
 70
     1
102
RTVSPropertyOp22
 70
     1
102
RTVSPropertyOp23
 70
     1
102
RTVSPropertyOp24
 70
     1
102
RTVSPropertyOp25
 70
     1
102
RTVSPropertyOp26
 70
     1
102
RTVSPropertyOp27
 70
     1
102
RTVSPropertyOp28
 70
     1
102
RTVSPropertyOp29
 70
     1
102
RTVSPropertyOp30
 70
     1
102
RTVSPropertyOp31
 70
     1
102
RTVSPropertyOp32
 70
     1
102
RTVSPropertyOp33
 70
     1
102
RTVSPropertyOp34
 70
     1
102
RTVSPropertyOp35
 70
     1
102
RTVSPropertyOp36
 70
     1
102
RTVSPropertyOp37
 70
     1
102
RTVSPropertyOp38
 70
     1
102
RTVSPropertyOp39
 70
     1
102
RTVSPropertyOp40
 70
     1
102
RTVSPropertyOp41
 70
     1
102
RTVSPropertyOp42
 70
     1
102
RTVSPropertyOp43
 70
     1
102
RTVSPropertyOp44
 70
     1
102
RTVSPropertyOp45
 70
     1
102
RTVSPropertyOp46
 70
     1
102
RTVSPropertyOp47
 70
     1
102
RTVSPropertyOp48
 70
     1
102
RTVSPropertyOp49
 70
     1
102
RTVSPropertyOp50
 70
     1
102
RTVSPropertyOp51
 70
     0
102
RTVSPropertyOp52
 70
     0
102
RTVSPropertyOp53
 70
     1
102
RTVSPropertyOp54
 70
     1
102
RTVSPropertyOp55
 70
     1
102
RTVSPropertyOp56
 70
     1
102
RTVSPropertyOp57
 70
     1
102
RTVSPropertyOp58
 70
     1
102
RTVSPropertyOp59
 70
     1
102
RTVSPropertyOp60
 70
     1
102
RTVSPropertyOp61
 70
     1
102
RTVSPropertyOp62
 70
     1
  0
XRECORD
  5
9AB9
102
{ACAD_REACTORS
330
9AB8
102
}
330
9AB8
100
AcDbXrecord
280
     1
102
RTVSPost2010Prop28
280
     0
102
RTVSPost2010PropOp28
 70
     1
102
RTVSPost2010Prop29
280
     1
102
RTVSPost2010PropOp29
 70
     1
102
RTVSPost2010Prop30
280
     1
102
RTVSPost2010PropOp30
 70
     1
102
RTVSPost2010Prop31
280
     0
102
RTVSPost2010PropOp31
 70
     1
102
RTVSPost2010Prop32
280
     0
102
RTVSPost2010PropOp32
 70
     1
102
RTVSPost2010Prop33
280
     0
102
RTVSPost2010PropOp33
 70
     1
102
RTVSPost2010Prop34
280
     0
102
RTVSPost2010PropOp34
 70
     1
102
RTVSPost2010Prop35
280
     0
102
RTVSPost2010PropOp35
 70
     1
102
RTVSPost2010Prop36
280
     0
102
RTVSPost2010PropOp36
 70
     1
102
RTVSPost2010Prop37
 90
       50
102
RTVSPost2010PropOp37
 70
     1
102
RTVSPost2010Prop38
140
0.0
102
RTVSPost2010PropOp38
 70
     1
102
RTVSPost2010Prop39
140
1.0
102
RTVSPost2010PropOp39
 70
     1
102
RTVSPost2010Prop40
 90
        0
102
RTVSPost2010PropOp40
 70
     1
102
RTVSPost2010Prop41ColorIndex
 90
       18
102
RTVSPost2010Prop41ColorRGB
 90
        0
102
RTVSPost2010PropOp41
 70
     1
102
RTVSPost2010Prop42
 90
       50
102
RTVSPost2010PropOp42
 70
     1
102
RTVSPost2010Prop43
 90
        3
102
RTVSPost2010PropOp43
 70
     1
102
RTVSPost2010Prop44ColorIndex
 90
        5
102
RTVSPost2010Prop44ColorRGB
 90
      255
102
RTVSPost2010PropOp44
 70
     1
102
RTVSPost2010Prop45
280
     0
102
RTVSPost2010PropOp45
 70
     1
102
RTVSPost2010Prop46
 90
       50
102
RTVSPost2010PropOp46
 70
     1
102
RTVSPost2010Prop47
 90
       50
102
RTVSPost2010PropOp47
 70
     1
102
RTVSPost2010Prop48
 90
       50
102
RTVSPost2010PropOp48
 70
     1
102
RTVSPost2010Prop49
280
     0
102
RTVSPost2010PropOp49
 70
     1
102
RTVSPost2010Prop50
 90
       50
102
RTVSPost2010PropOp50
 70
     1
102
RTVSPost2010Prop51ColorIndex
 90
      256
102
RTVSPost2010Prop51ColorRGB
 90
-16777216
102
RTVSPost2010PropOp51
 70
     0
102
RTVSPost2010Prop52
140
1.0
102
RTVSPost2010PropOp52
 70
     0
102
RTVSPost2010Prop53
 90
        2
102
RTVSPost2010PropOp53
 70
     1
102
RTVSPost2010Prop54
  1
strokes_ogs.tif
102
RTVSPost2010PropOp54
 70
     1
102
RTVSPost2010Prop55
280
     0
102
RTVSPost2010PropOp55
 70
     1
102
RTVSPost2010Prop56
140
1.0
102
RTVSPost2010PropOp56
 70
     1
102
RTVSPost2010Prop57
140
1.0
102
RTVSPost2010PropOp57
 70
     1
102
RTVSPropertyOp0
 70
     1
102
RTVSPropertyOp1
 70
     1
102
RTVSPropertyOp2
 70
     1
102
RTVSPropertyOp3
 70
     1
102
RTVSPropertyOp4
 70
     1
102
RTVSPropertyOp5
 70
     1
102
RTVSPropertyOp6
 70
     1
102
RTVSPropertyOp7
 70
     1
102
RTVSPropertyOp8
 70
     1
102
RTVSPropertyOp9
 70
     1
102
RTVSPropertyOp10
 70
     1
102
RTVSPropertyOp11
 70
     1
102
RTVSPropertyOp12
 70
     1
102
RTVSPropertyOp13
 70
     1
102
RTVSPropertyOp14
 70
     1
102
RTVSPropertyOp15
 70
     1
102
RTVSPropertyOp16
 70
     1
102
RTVSPropertyOp17
 70
     1
102
RTVSPropertyOp18
 70
     1
102
RTVSPropertyOp19
 70
     1
102
RTVSPropertyOp20
 70
     1
102
RTVSPropertyOp21
 70
     1
102
RTVSPropertyOp22
 70
     1
102
RTVSPropertyOp23
 70
     1
102
RTVSPropertyOp24
 70
     1
102
RTVSPropertyOp25
 70
     1
102
RTVSPropertyOp26
 70
     1
102
RTVSPropertyOp27
 70
     1
102
RTVSPropertyOp28
 70
     1
102
RTVSPropertyOp29
 70
     1
102
RTVSPropertyOp30
 70
     1
102
RTVSPropertyOp31
 70
     1
102
RTVSPropertyOp32
 70
     1
102
RTVSPropertyOp33
 70
     1
102
RTVSPropertyOp34
 70
     1
102
RTVSPropertyOp35
 70
     1
102
RTVSPropertyOp36
 70
     1
102
RTVSPropertyOp37
 70
     1
102
RTVSPropertyOp38
 70
     1
102
RTVSPropertyOp39
 70
     1
102
RTVSPropertyOp40
 70
     1
102
RTVSPropertyOp41
 70
     1
102
RTVSPropertyOp42
 70
     1
102
RTVSPropertyOp43
 70
     1
102
RTVSPropertyOp44
 70
     1
102
RTVSPropertyOp45
 70
     1
102
RTVSPropertyOp46
 70
     1
102
RTVSPropertyOp47
 70
     1
102
RTVSPropertyOp48
 70
     1
102
RTVSPropertyOp49
 70
     1
102
RTVSPropertyOp50
 70
     1
102
RTVSPropertyOp51
 70
     0
102
RTVSPropertyOp52
 70
     0
102
RTVSPropertyOp53
 70
     1
102
RTVSPropertyOp54
 70
     1
102
RTVSPropertyOp55
 70
     1
102
RTVSPropertyOp56
 70
     1
102
RTVSPropertyOp57
 70
     1
102
RTVSPropertyOp58
 70
     1
102
RTVSPropertyOp59
 70
     1
102
RTVSPropertyOp60
 70
     1
102
RTVSPropertyOp61
 70
     1
102
RTVSPropertyOp62
 70
     1
  0
XRECORD
  5
9AB3
102
{ACAD_REACTORS
330
9AB2
102
}
330
9AB2
100
AcDbXrecord
280
     1
102
RTVSPost2010Prop28
280
     0
102
RTVSPost2010PropOp28
 70
     1
102
RTVSPost2010Prop29
280
     1
102
RTVSPost2010PropOp29
 70
     1
102
RTVSPost2010Prop30
280
     1
102
RTVSPost2010PropOp30
 70
     1
102
RTVSPost2010Prop31
280
     0
102
RTVSPost2010PropOp31
 70
     1
102
RTVSPost2010Prop32
280
     0
102
RTVSPost2010PropOp32
 70
     1
102
RTVSPost2010Prop33
280
     0
102
RTVSPost2010PropOp33
 70
     1
102
RTVSPost2010Prop34
280
     0
102
RTVSPost2010PropOp34
 70
     1
102
RTVSPost2010Prop35
280
     0
102
RTVSPost2010PropOp35
 70
     1
102
RTVSPost2010Prop36
280
     0
102
RTVSPost2010PropOp36
 70
     1
102
RTVSPost2010Prop37
 90
       50
102
RTVSPost2010PropOp37
 70
     1
102
RTVSPost2010Prop38
140
0.0
102
RTVSPost2010PropOp38
 70
     1
102
RTVSPost2010Prop39
140
1.0
102
RTVSPost2010PropOp39
 70
     1
102
RTVSPost2010Prop40
 90
        0
102
RTVSPost2010PropOp40
 70
     1
102
RTVSPost2010Prop41ColorIndex
 90
       18
102
RTVSPost2010Prop41ColorRGB
 90
        0
102
RTVSPost2010PropOp41
 70
     1
102
RTVSPost2010Prop42
 90
       50
102
RTVSPost2010PropOp42
 70
     1
102
RTVSPost2010Prop43
 90
        3
102
RTVSPost2010PropOp43
 70
     1
102
RTVSPost2010Prop44ColorIndex
 90
        5
102
RTVSPost2010Prop44ColorRGB
 90
      255
102
RTVSPost2010PropOp44
 70
     1
102
RTVSPost2010Prop45
280
     0
102
RTVSPost2010PropOp45
 70
     1
102
RTVSPost2010Prop46
 90
       50
102
RTVSPost2010PropOp46
 70
     1
102
RTVSPost2010Prop47
 90
       50
102
RTVSPost2010PropOp47
 70
     1
102
RTVSPost2010Prop48
 90
       50
102
RTVSPost2010PropOp48
 70
     1
102
RTVSPost2010Prop49
280
     0
102
RTVSPost2010PropOp49
 70
     1
102
RTVSPost2010Prop50
 90
       50
102
RTVSPost2010PropOp50
 70
     1
102
RTVSPost2010Prop51ColorIndex
 90
      256
102
RTVSPost2010Prop51ColorRGB
 90
-16777216
102
RTVSPost2010PropOp51
 70
     0
102
RTVSPost2010Prop52
140
1.0
102
RTVSPost2010PropOp52
 70
     0
102
RTVSPost2010Prop53
 90
        2
102
RTVSPost2010PropOp53
 70
     1
102
RTVSPost2010Prop54
  1
strokes_ogs.tif
102
RTVSPost2010PropOp54
 70
     1
102
RTVSPost2010Prop55
280
     0
102
RTVSPost2010PropOp55
 70
     1
102
RTVSPost2010Prop56
140
1.0
102
RTVSPost2010PropOp56
 70
     1
102
RTVSPost2010Prop57
140
1.0
102
RTVSPost2010PropOp57
 70
     1
102
RTVSPropertyOp0
 70
     1
102
RTVSPropertyOp1
 70
     1
102
RTVSPropertyOp2
 70
     1
102
RTVSPropertyOp3
 70
     1
102
RTVSPropertyOp4
 70
     1
102
RTVSPropertyOp5
 70
     1
102
RTVSPropertyOp6
 70
     1
102
RTVSPropertyOp7
 70
     1
102
RTVSPropertyOp8
 70
     1
102
RTVSPropertyOp9
 70
     1
102
RTVSPropertyOp10
 70
     1
102
RTVSPropertyOp11
 70
     1
102
RTVSPropertyOp12
 70
     1
102
RTVSPropertyOp13
 70
     1
102
RTVSPropertyOp14
 70
     1
102
RTVSPropertyOp15
 70
     1
102
RTVSPropertyOp16
 70
     1
102
RTVSPropertyOp17
 70
     1
102
RTVSPropertyOp18
 70
     1
102
RTVSPropertyOp19
 70
     1
102
RTVSPropertyOp20
 70
     1
102
RTVSPropertyOp21
 70
     1
102
RTVSPropertyOp22
 70
     1
102
RTVSPropertyOp23
 70
     1
102
RTVSPropertyOp24
 70
     1
102
RTVSPropertyOp25
 70
     1
102
RTVSPropertyOp26
 70
     1
102
RTVSPropertyOp27
 70
     1
102
RTVSPropertyOp28
 70
     1
102
RTVSPropertyOp29
 70
     1
102
RTVSPropertyOp30
 70
     1
102
RTVSPropertyOp31
 70
     1
102
RTVSPropertyOp32
 70
     1
102
RTVSPropertyOp33
 70
     1
102
RTVSPropertyOp34
 70
     1
102
RTVSPropertyOp35
 70
     1
102
RTVSPropertyOp36
 70
     1
102
RTVSPropertyOp37
 70
     1
102
RTVSPropertyOp38
 70
     1
102
RTVSPropertyOp39
 70
     1
102
RTVSPropertyOp40
 70
     1
102
RTVSPropertyOp41
 70
     1
102
RTVSPropertyOp42
 70
     1
102
RTVSPropertyOp43
 70
     1
102
RTVSPropertyOp44
 70
     1
102
RTVSPropertyOp45
 70
     1
102
RTVSPropertyOp46
 70
     1
102
RTVSPropertyOp47
 70
     1
102
RTVSPropertyOp48
 70
     1
102
RTVSPropertyOp49
 70
     1
102
RTVSPropertyOp50
 70
     1
102
RTVSPropertyOp51
 70
     0
102
RTVSPropertyOp52
 70
     0
102
RTVSPropertyOp53
 70
     1
102
RTVSPropertyOp54
 70
     1
102
RTVSPropertyOp55
 70
     1
102
RTVSPropertyOp56
 70
     1
102
RTVSPropertyOp57
 70
     1
102
RTVSPropertyOp58
 70
     1
102
RTVSPropertyOp59
 70
     1
102
RTVSPropertyOp60
 70
     1
102
RTVSPropertyOp61
 70
     1
102
RTVSPropertyOp62
 70
     1
  0
XRECORD
  5
9AB5
102
{ACAD_REACTORS
330
9AB4
102
}
330
9AB4
100
AcDbXrecord
280
     1
102
RTVSPost2010Prop28
280
     0
102
RTVSPost2010PropOp28
 70
     1
102
RTVSPost2010Prop29
280
     1
102
RTVSPost2010PropOp29
 70
     1
102
RTVSPost2010Prop30
280
     1
102
RTVSPost2010PropOp30
 70
     1
102
RTVSPost2010Prop31
280
     0
102
RTVSPost2010PropOp31
 70
     1
102
RTVSPost2010Prop32
280
     0
102
RTVSPost2010PropOp32
 70
     1
102
RTVSPost2010Prop33
280
     0
102
RTVSPost2010PropOp33
 70
     1
102
RTVSPost2010Prop34
280
     0
102
RTVSPost2010PropOp34
 70
     1
102
RTVSPost2010Prop35
280
     0
102
RTVSPost2010PropOp35
 70
     1
102
RTVSPost2010Prop36
280
     0
102
RTVSPost2010PropOp36
 70
     1
102
RTVSPost2010Prop37
 90
       50
102
RTVSPost2010PropOp37
 70
     1
102
RTVSPost2010Prop38
140
0.0
102
RTVSPost2010PropOp38
 70
     1
102
RTVSPost2010Prop39
140
1.0
102
RTVSPost2010PropOp39
 70
     1
102
RTVSPost2010Prop40
 90
        0
102
RTVSPost2010PropOp40
 70
     1
102
RTVSPost2010Prop41ColorIndex
 90
       18
102
RTVSPost2010Prop41ColorRGB
 90
        0
102
RTVSPost2010PropOp41
 70
     1
102
RTVSPost2010Prop42
 90
       50
102
RTVSPost2010PropOp42
 70
     1
102
RTVSPost2010Prop43
 90
        3
102
RTVSPost2010PropOp43
 70
     1
102
RTVSPost2010Prop44ColorIndex
 90
        5
102
RTVSPost2010Prop44ColorRGB
 90
      255
102
RTVSPost2010PropOp44
 70
     1
102
RTVSPost2010Prop45
280
     0
102
RTVSPost2010PropOp45
 70
     1
102
RTVSPost2010Prop46
 90
       50
102
RTVSPost2010PropOp46
 70
     1
102
RTVSPost2010Prop47
 90
       50
102
RTVSPost2010PropOp47
 70
     1
102
RTVSPost2010Prop48
 90
       50
102
RTVSPost2010PropOp48
 70
     1
102
RTVSPost2010Prop49
280
     0
102
RTVSPost2010PropOp49
 70
     1
102
RTVSPost2010Prop50
 90
       50
102
RTVSPost2010PropOp50
 70
     1
102
RTVSPost2010Prop51ColorIndex
 90
      256
102
RTVSPost2010Prop51ColorRGB
 90
-16777216
102
RTVSPost2010PropOp51
 70
     0
102
RTVSPost2010Prop52
140
1.0
102
RTVSPost2010PropOp52
 70
     0
102
RTVSPost2010Prop53
 90
        2
102
RTVSPost2010PropOp53
 70
     1
102
RTVSPost2010Prop54
  1
strokes_ogs.tif
102
RTVSPost2010PropOp54
 70
     1
102
RTVSPost2010Prop55
280
     0
102
RTVSPost2010PropOp55
 70
     1
102
RTVSPost2010Prop56
140
1.0
102
RTVSPost2010PropOp56
 70
     1
102
RTVSPost2010Prop57
140
1.0
102
RTVSPost2010PropOp57
 70
     1
102
RTVSPropertyOp0
 70
     1
102
RTVSPropertyOp1
 70
     1
102
RTVSPropertyOp2
 70
     1
102
RTVSPropertyOp3
 70
     1
102
RTVSPropertyOp4
 70
     1
102
RTVSPropertyOp5
 70
     1
102
RTVSPropertyOp6
 70
     1
102
RTVSPropertyOp7
 70
     1
102
RTVSPropertyOp8
 70
     1
102
RTVSPropertyOp9
 70
     1
102
RTVSPropertyOp10
 70
     1
102
RTVSPropertyOp11
 70
     1
102
RTVSPropertyOp12
 70
     1
102
RTVSPropertyOp13
 70
     1
102
RTVSPropertyOp14
 70
     1
102
RTVSPropertyOp15
 70
     1
102
RTVSPropertyOp16
 70
     1
102
RTVSPropertyOp17
 70
     1
102
RTVSPropertyOp18
 70
     1
102
RTVSPropertyOp19
 70
     1
102
RTVSPropertyOp20
 70
     1
102
RTVSPropertyOp21
 70
     1
102
RTVSPropertyOp22
 70
     1
102
RTVSPropertyOp23
 70
     1
102
RTVSPropertyOp24
 70
     1
102
RTVSPropertyOp25
 70
     1
102
RTVSPropertyOp26
 70
     1
102
RTVSPropertyOp27
 70
     1
102
RTVSPropertyOp28
 70
     1
102
RTVSPropertyOp29
 70
     1
102
RTVSPropertyOp30
 70
     1
102
RTVSPropertyOp31
 70
     1
102
RTVSPropertyOp32
 70
     1
102
RTVSPropertyOp33
 70
     1
102
RTVSPropertyOp34
 70
     1
102
RTVSPropertyOp35
 70
     1
102
RTVSPropertyOp36
 70
     1
102
RTVSPropertyOp37
 70
     1
102
RTVSPropertyOp38
 70
     1
102
RTVSPropertyOp39
 70
     1
102
RTVSPropertyOp40
 70
     1
102
RTVSPropertyOp41
 70
     1
102
RTVSPropertyOp42
 70
     1
102
RTVSPropertyOp43
 70
     1
102
RTVSPropertyOp44
 70
     1
102
RTVSPropertyOp45
 70
     1
102
RTVSPropertyOp46
 70
     1
102
RTVSPropertyOp47
 70
     1
102
RTVSPropertyOp48
 70
     1
102
RTVSPropertyOp49
 70
     1
102
RTVSPropertyOp50
 70
     1
102
RTVSPropertyOp51
 70
     0
102
RTVSPropertyOp52
 70
     0
102
RTVSPropertyOp53
 70
     1
102
RTVSPropertyOp54
 70
     1
102
RTVSPropertyOp55
 70
     1
102
RTVSPropertyOp56
 70
     1
102
RTVSPropertyOp57
 70
     1
102
RTVSPropertyOp58
 70
     1
102
RTVSPropertyOp59
 70
     1
102
RTVSPropertyOp60
 70
     1
102
RTVSPropertyOp61
 70
     1
102
RTVSPropertyOp62
 70
     1
  0
XRECORD
  5
9AAB
102
{ACAD_REACTORS
330
9AAA
102
}
330
9AAA
100
AcDbXrecord
280
     1
102
RTVSPost2010Prop28
280
     0
102
RTVSPost2010PropOp28
 70
     1
102
RTVSPost2010Prop29
280
     1
102
RTVSPost2010PropOp29
 70
     1
102
RTVSPost2010Prop30
280
     1
102
RTVSPost2010PropOp30
 70
     1
102
RTVSPost2010Prop31
280
     0
102
RTVSPost2010PropOp31
 70
     1
102
RTVSPost2010Prop32
280
     0
102
RTVSPost2010PropOp32
 70
     1
102
RTVSPost2010Prop33
280
     0
102
RTVSPost2010PropOp33
 70
     1
102
RTVSPost2010Prop34
280
     0
102
RTVSPost2010PropOp34
 70
     1
102
RTVSPost2010Prop35
280
     0
102
RTVSPost2010PropOp35
 70
     1
102
RTVSPost2010Prop36
280
     0
102
RTVSPost2010PropOp36
 70
     1
102
RTVSPost2010Prop37
 90
       50
102
RTVSPost2010PropOp37
 70
     1
102
RTVSPost2010Prop38
140
0.0
102
RTVSPost2010PropOp38
 70
     1
102
RTVSPost2010Prop39
140
1.0
102
RTVSPost2010PropOp39
 70
     1
102
RTVSPost2010Prop40
 90
        0
102
RTVSPost2010PropOp40
 70
     1
102
RTVSPost2010Prop41ColorIndex
 90
       18
102
RTVSPost2010Prop41ColorRGB
 90
        0
102
RTVSPost2010PropOp41
 70
     1
102
RTVSPost2010Prop42
 90
       50
102
RTVSPost2010PropOp42
 70
     1
102
RTVSPost2010Prop43
 90
        3
102
RTVSPost2010PropOp43
 70
     1
102
RTVSPost2010Prop44ColorIndex
 90
        5
102
RTVSPost2010Prop44ColorRGB
 90
      255
102
RTVSPost2010PropOp44
 70
     1
102
RTVSPost2010Prop45
280
     0
102
RTVSPost2010PropOp45
 70
     1
102
RTVSPost2010Prop46
 90
       50
102
RTVSPost2010PropOp46
 70
     1
102
RTVSPost2010Prop47
 90
       50
102
RTVSPost2010PropOp47
 70
     1
102
RTVSPost2010Prop48
 90
       50
102
RTVSPost2010PropOp48
 70
     1
102
RTVSPost2010Prop49
280
     0
102
RTVSPost2010PropOp49
 70
     1
102
RTVSPost2010Prop50
 90
       50
102
RTVSPost2010PropOp50
 70
     1
102
RTVSPost2010Prop51ColorIndex
 90
      256
102
RTVSPost2010Prop51ColorRGB
 90
-16777216
102
RTVSPost2010PropOp51
 70
     0
102
RTVSPost2010Prop52
140
1.0
102
RTVSPost2010PropOp52
 70
     0
102
RTVSPost2010Prop53
 90
        2
102
RTVSPost2010PropOp53
 70
     1
102
RTVSPost2010Prop54
  1
strokes_ogs.tif
102
RTVSPost2010PropOp54
 70
     1
102
RTVSPost2010Prop55
280
     0
102
RTVSPost2010PropOp55
 70
     1
102
RTVSPost2010Prop56
140
1.0
102
RTVSPost2010PropOp56
 70
     1
102
RTVSPost2010Prop57
140
1.0
102
RTVSPost2010PropOp57
 70
     1
102
RTVSPropertyOp0
 70
     1
102
RTVSPropertyOp1
 70
     1
102
RTVSPropertyOp2
 70
     1
102
RTVSPropertyOp3
 70
     1
102
RTVSPropertyOp4
 70
     1
102
RTVSPropertyOp5
 70
     1
102
RTVSPropertyOp6
 70
     1
102
RTVSPropertyOp7
 70
     1
102
RTVSPropertyOp8
 70
     1
102
RTVSPropertyOp9
 70
     1
102
RTVSPropertyOp10
 70
     1
102
RTVSPropertyOp11
 70
     1
102
RTVSPropertyOp12
 70
     1
102
RTVSPropertyOp13
 70
     1
102
RTVSPropertyOp14
 70
     1
102
RTVSPropertyOp15
 70
     1
102
RTVSPropertyOp16
 70
     1
102
RTVSPropertyOp17
 70
     1
102
RTVSPropertyOp18
 70
     1
102
RTVSPropertyOp19
 70
     1
102
RTVSPropertyOp20
 70
     1
102
RTVSPropertyOp21
 70
     1
102
RTVSPropertyOp22
 70
     1
102
RTVSPropertyOp23
 70
     1
102
RTVSPropertyOp24
 70
     1
102
RTVSPropertyOp25
 70
     1
102
RTVSPropertyOp26
 70
     1
102
RTVSPropertyOp27
 70
     1
102
RTVSPropertyOp28
 70
     1
102
RTVSPropertyOp29
 70
     1
102
RTVSPropertyOp30
 70
     1
102
RTVSPropertyOp31
 70
     1
102
RTVSPropertyOp32
 70
     1
102
RTVSPropertyOp33
 70
     1
102
RTVSPropertyOp34
 70
     1
102
RTVSPropertyOp35
 70
     1
102
RTVSPropertyOp36
 70
     1
102
RTVSPropertyOp37
 70
     1
102
RTVSPropertyOp38
 70
     1
102
RTVSPropertyOp39
 70
     1
102
RTVSPropertyOp40
 70
     1
102
RTVSPropertyOp41
 70
     1
102
RTVSPropertyOp42
 70
     1
102
RTVSPropertyOp43
 70
     1
102
RTVSPropertyOp44
 70
     1
102
RTVSPropertyOp45
 70
     1
102
RTVSPropertyOp46
 70
     1
102
RTVSPropertyOp47
 70
     1
102
RTVSPropertyOp48
 70
     1
102
RTVSPropertyOp49
 70
     1
102
RTVSPropertyOp50
 70
     1
102
RTVSPropertyOp51
 70
     0
102
RTVSPropertyOp52
 70
     0
102
RTVSPropertyOp53
 70
     1
102
RTVSPropertyOp54
 70
     1
102
RTVSPropertyOp55
 70
     1
102
RTVSPropertyOp56
 70
     1
102
RTVSPropertyOp57
 70
     1
102
RTVSPropertyOp58
 70
     1
102
RTVSPropertyOp59
 70
     1
102
RTVSPropertyOp60
 70
     1
102
RTVSPropertyOp61
 70
     1
102
RTVSPropertyOp62
 70
     1
  0
XRECORD
  5
9A9F
102
{ACAD_REACTORS
330
9A9E
102
}
330
9A9E
100
AcDbXrecord
280
     1
102
RTVSPost2010Prop28
280
     0
102
RTVSPost2010PropOp28
 70
     1
102
RTVSPost2010Prop29
280
     1
102
RTVSPost2010PropOp29
 70
     1
102
RTVSPost2010Prop30
280
     1
102
RTVSPost2010PropOp30
 70
     1
102
RTVSPost2010Prop31
280
     0
102
RTVSPost2010PropOp31
 70
     1
102
RTVSPost2010Prop32
280
     0
102
RTVSPost2010PropOp32
 70
     1
102
RTVSPost2010Prop33
280
     0
102
RTVSPost2010PropOp33
 70
     1
102
RTVSPost2010Prop34
280
     0
102
RTVSPost2010PropOp34
 70
     1
102
RTVSPost2010Prop35
280
     0
102
RTVSPost2010PropOp35
 70
     1
102
RTVSPost2010Prop36
280
     0
102
RTVSPost2010PropOp36
 70
     1
102
RTVSPost2010Prop37
 90
       50
102
RTVSPost2010PropOp37
 70
     1
102
RTVSPost2010Prop38
140
0.0
102
RTVSPost2010PropOp38
 70
     1
102
RTVSPost2010Prop39
140
1.0
102
RTVSPost2010PropOp39
 70
     1
102
RTVSPost2010Prop40
 90
        0
102
RTVSPost2010PropOp40
 70
     1
102
RTVSPost2010Prop41ColorIndex
 90
       18
102
RTVSPost2010Prop41ColorRGB
 90
        0
102
RTVSPost2010PropOp41
 70
     1
102
RTVSPost2010Prop42
 90
       50
102
RTVSPost2010PropOp42
 70
     1
102
RTVSPost2010Prop43
 90
        3
102
RTVSPost2010PropOp43
 70
     1
102
RTVSPost2010Prop44ColorIndex
 90
        5
102
RTVSPost2010Prop44ColorRGB
 90
      255
102
RTVSPost2010PropOp44
 70
     1
102
RTVSPost2010Prop45
280
     0
102
RTVSPost2010PropOp45
 70
     1
102
RTVSPost2010Prop46
 90
       50
102
RTVSPost2010PropOp46
 70
     1
102
RTVSPost2010Prop47
 90
       50
102
RTVSPost2010PropOp47
 70
     1
102
RTVSPost2010Prop48
 90
       50
102
RTVSPost2010PropOp48
 70
     1
102
RTVSPost2010Prop49
280
     0
102
RTVSPost2010PropOp49
 70
     1
102
RTVSPost2010Prop50
 90
       50
102
RTVSPost2010PropOp50
 70
     1
102
RTVSPost2010Prop51ColorIndex
 90
      256
102
RTVSPost2010Prop51ColorRGB
 90
-16777216
102
RTVSPost2010PropOp51
 70
     0
102
RTVSPost2010Prop52
140
1.0
102
RTVSPost2010PropOp52
 70
     0
102
RTVSPost2010Prop53
 90
        2
102
RTVSPost2010PropOp53
 70
     1
102
RTVSPost2010Prop54
  1
strokes_ogs.tif
102
RTVSPost2010PropOp54
 70
     1
102
RTVSPost2010Prop55
280
     0
102
RTVSPost2010PropOp55
 70
     1
102
RTVSPost2010Prop56
140
1.0
102
RTVSPost2010PropOp56
 70
     1
102
RTVSPost2010Prop57
140
1.0
102
RTVSPost2010PropOp57
 70
     1
102
RTVSPropertyOp0
 70
     1
102
RTVSPropertyOp1
 70
     1
102
RTVSPropertyOp2
 70
     1
102
RTVSPropertyOp3
 70
     1
102
RTVSPropertyOp4
 70
     1
102
RTVSPropertyOp5
 70
     1
102
RTVSPropertyOp6
 70
     1
102
RTVSPropertyOp7
 70
     1
102
RTVSPropertyOp8
 70
     1
102
RTVSPropertyOp9
 70
     1
102
RTVSPropertyOp10
 70
     1
102
RTVSPropertyOp11
 70
     1
102
RTVSPropertyOp12
 70
     1
102
RTVSPropertyOp13
 70
     1
102
RTVSPropertyOp14
 70
     1
102
RTVSPropertyOp15
 70
     1
102
RTVSPropertyOp16
 70
     1
102
RTVSPropertyOp17
 70
     1
102
RTVSPropertyOp18
 70
     1
102
RTVSPropertyOp19
 70
     1
102
RTVSPropertyOp20
 70
     1
102
RTVSPropertyOp21
 70
     1
102
RTVSPropertyOp22
 70
     1
102
RTVSPropertyOp23
 70
     1
102
RTVSPropertyOp24
 70
     1
102
RTVSPropertyOp25
 70
     1
102
RTVSPropertyOp26
 70
     1
102
RTVSPropertyOp27
 70
     1
102
RTVSPropertyOp28
 70
     1
102
RTVSPropertyOp29
 70
     1
102
RTVSPropertyOp30
 70
     1
102
RTVSPropertyOp31
 70
     1
102
RTVSPropertyOp32
 70
     1
102
RTVSPropertyOp33
 70
     1
102
RTVSPropertyOp34
 70
     1
102
RTVSPropertyOp35
 70
     1
102
RTVSPropertyOp36
 70
     1
102
RTVSPropertyOp37
 70
     1
102
RTVSPropertyOp38
 70
     1
102
RTVSPropertyOp39
 70
     1
102
RTVSPropertyOp40
 70
     1
102
RTVSPropertyOp41
 70
     1
102
RTVSPropertyOp42
 70
     1
102
RTVSPropertyOp43
 70
     1
102
RTVSPropertyOp44
 70
     1
102
RTVSPropertyOp45
 70
     1
102
RTVSPropertyOp46
 70
     1
102
RTVSPropertyOp47
 70
     1
102
RTVSPropertyOp48
 70
     1
102
RTVSPropertyOp49
 70
     1
102
RTVSPropertyOp50
 70
     1
102
RTVSPropertyOp51
 70
     0
102
RTVSPropertyOp52
 70
     0
102
RTVSPropertyOp53
 70
     1
102
RTVSPropertyOp54
 70
     1
102
RTVSPropertyOp55
 70
     1
102
RTVSPropertyOp56
 70
     1
102
RTVSPropertyOp57
 70
     1
102
RTVSPropertyOp58
 70
     1
102
RTVSPropertyOp59
 70
     1
102
RTVSPropertyOp60
 70
     1
102
RTVSPropertyOp61
 70
     1
102
RTVSPropertyOp62
 70
     1
  0
XRECORD
  5
9AB7
102
{ACAD_REACTORS
330
9AB6
102
}
330
9AB6
100
AcDbXrecord
280
     1
102
RTVSPost2010Prop28
280
     0
102
RTVSPost2010PropOp28
 70
     1
102
RTVSPost2010Prop29
280
     1
102
RTVSPost2010PropOp29
 70
     1
102
RTVSPost2010Prop30
280
     1
102
RTVSPost2010PropOp30
 70
     1
102
RTVSPost2010Prop31
280
     0
102
RTVSPost2010PropOp31
 70
     1
102
RTVSPost2010Prop32
280
     0
102
RTVSPost2010PropOp32
 70
     1
102
RTVSPost2010Prop33
280
     0
102
RTVSPost2010PropOp33
 70
     1
102
RTVSPost2010Prop34
280
     0
102
RTVSPost2010PropOp34
 70
     1
102
RTVSPost2010Prop35
280
     0
102
RTVSPost2010PropOp35
 70
     1
102
RTVSPost2010Prop36
280
     0
102
RTVSPost2010PropOp36
 70
     1
102
RTVSPost2010Prop37
 90
       50
102
RTVSPost2010PropOp37
 70
     1
102
RTVSPost2010Prop38
140
0.0
102
RTVSPost2010PropOp38
 70
     1
102
RTVSPost2010Prop39
140
1.0
102
RTVSPost2010PropOp39
 70
     1
102
RTVSPost2010Prop40
 90
        0
102
RTVSPost2010PropOp40
 70
     1
102
RTVSPost2010Prop41ColorIndex
 90
       18
102
RTVSPost2010Prop41ColorRGB
 90
        0
102
RTVSPost2010PropOp41
 70
     1
102
RTVSPost2010Prop42
 90
       50
102
RTVSPost2010PropOp42
 70
     1
102
RTVSPost2010Prop43
 90
        3
102
RTVSPost2010PropOp43
 70
     1
102
RTVSPost2010Prop44ColorIndex
 90
        5
102
RTVSPost2010Prop44ColorRGB
 90
      255
102
RTVSPost2010PropOp44
 70
     1
102
RTVSPost2010Prop45
280
     0
102
RTVSPost2010PropOp45
 70
     1
102
RTVSPost2010Prop46
 90
       50
102
RTVSPost2010PropOp46
 70
     1
102
RTVSPost2010Prop47
 90
       50
102
RTVSPost2010PropOp47
 70
     1
102
RTVSPost2010Prop48
 90
       50
102
RTVSPost2010PropOp48
 70
     1
102
RTVSPost2010Prop49
280
     0
102
RTVSPost2010PropOp49
 70
     1
102
RTVSPost2010Prop50
 90
       50
102
RTVSPost2010PropOp50
 70
     1
102
RTVSPost2010Prop51ColorIndex
 90
      256
102
RTVSPost2010Prop51ColorRGB
 90
-16777216
102
RTVSPost2010PropOp51
 70
     0
102
RTVSPost2010Prop52
140
1.0
102
RTVSPost2010PropOp52
 70
     0
102
RTVSPost2010Prop53
 90
        2
102
RTVSPost2010PropOp53
 70
     1
102
RTVSPost2010Prop54
  1
strokes_ogs.tif
102
RTVSPost2010PropOp54
 70
     1
102
RTVSPost2010Prop55
280
     0
102
RTVSPost2010PropOp55
 70
     1
102
RTVSPost2010Prop56
140
1.0
102
RTVSPost2010PropOp56
 70
     1
102
RTVSPost2010Prop57
140
1.0
102
RTVSPost2010PropOp57
 70
     1
102
RTVSPropertyOp0
 70
     1
102
RTVSPropertyOp1
 70
     1
102
RTVSPropertyOp2
 70
     1
102
RTVSPropertyOp3
 70
     1
102
RTVSPropertyOp4
 70
     1
102
RTVSPropertyOp5
 70
     1
102
RTVSPropertyOp6
 70
     1
102
RTVSPropertyOp7
 70
     1
102
RTVSPropertyOp8
 70
     1
102
RTVSPropertyOp9
 70
     1
102
RTVSPropertyOp10
 70
     1
102
RTVSPropertyOp11
 70
     1
102
RTVSPropertyOp12
 70
     1
102
RTVSPropertyOp13
 70
     1
102
RTVSPropertyOp14
 70
     1
102
RTVSPropertyOp15
 70
     1
102
RTVSPropertyOp16
 70
     1
102
RTVSPropertyOp17
 70
     1
102
RTVSPropertyOp18
 70
     1
102
RTVSPropertyOp19
 70
     1
102
RTVSPropertyOp20
 70
     1
102
RTVSPropertyOp21
 70
     1
102
RTVSPropertyOp22
 70
     1
102
RTVSPropertyOp23
 70
     1
102
RTVSPropertyOp24
 70
     1
102
RTVSPropertyOp25
 70
     1
102
RTVSPropertyOp26
 70
     1
102
RTVSPropertyOp27
 70
     1
102
RTVSPropertyOp28
 70
     1
102
RTVSPropertyOp29
 70
     1
102
RTVSPropertyOp30
 70
     1
102
RTVSPropertyOp31
 70
     1
102
RTVSPropertyOp32
 70
     1
102
RTVSPropertyOp33
 70
     1
102
RTVSPropertyOp34
 70
     1
102
RTVSPropertyOp35
 70
     1
102
RTVSPropertyOp36
 70
     1
102
RTVSPropertyOp37
 70
     1
102
RTVSPropertyOp38
 70
     1
102
RTVSPropertyOp39
 70
     1
102
RTVSPropertyOp40
 70
     1
102
RTVSPropertyOp41
 70
     1
102
RTVSPropertyOp42
 70
     1
102
RTVSPropertyOp43
 70
     1
102
RTVSPropertyOp44
 70
     1
102
RTVSPropertyOp45
 70
     1
102
RTVSPropertyOp46
 70
     1
102
RTVSPropertyOp47
 70
     1
102
RTVSPropertyOp48
 70
     1
102
RTVSPropertyOp49
 70
     1
102
RTVSPropertyOp50
 70
     1
102
RTVSPropertyOp51
 70
     0
102
RTVSPropertyOp52
 70
     0
102
RTVSPropertyOp53
 70
     1
102
RTVSPropertyOp54
 70
     1
102
RTVSPropertyOp55
 70
     1
102
RTVSPropertyOp56
 70
     1
102
RTVSPropertyOp57
 70
     1
102
RTVSPropertyOp58
 70
     1
102
RTVSPropertyOp59
 70
     1
102
RTVSPropertyOp60
 70
     1
102
RTVSPropertyOp61
 70
     1
102
RTVSPropertyOp62
 70
     1
  0
ENDSEC
  0
EOF
