  0
SECTION
  2
HEADER
  9
$ACADVER
  1
AC1015
  9
$ACADMAINTVER
 70
    20
  9
$DWGCODEPAGE
  3
ANSI_932
  9
$INSBASE
 10
0.0
 20
0.0
 30
0.0
  9
$EXTMIN
 10
9.999999
 20
9.999999
 30
0.0
  9
$EXTMAX
 10
458.0936939999999
 20
271.675529
 30
0.0
  9
$LIMMIN
 10
0.000002
 20
0.0
  9
$LIMMAX
 10
495.0000019999998
 20
341.25
  9
$ORTHOMODE
 70
     1
  9
$REGENMODE
 70
     1
  9
$FILLMODE
 70
     1
  9
$QTEXTMODE
 70
     0
  9
$MIRRTEXT
 70
     1
  9
$LTSCALE
 40
1.0
  9
$ATTMODE
 70
     1
  9
$TEXTSIZE
 40
2.5
  9
$TRACEWID
 40
1.0
  9
$TEXTSTYLE
  7
STANDARD
  9
$CLAYER
  8
0
  9
$CELTYPE
  6
BYLAYER
  9
$CECOLOR
 62
   256
  9
$CELTSCALE
 40
1.0
  9
$DISPSILH
 70
     0
  9
$DIMSCALE
 40
1.0
  9
$DIMASZ
 40
3.0
  9
$DIMEXO
 40
1.0
  9
$DIMDLI
 40
10.0
  9
$DIMRND
 40
0.0
  9
$DIMDLE
 40
0.0
  9
$DIMEXE
 40
1.0
  9
$DIMTP
 40
0.0
  9
$DIMTM
 40
0.0
  9
$DIMTXT
 40
3.2
  9
$DIMCEN
 40
0.0
  9
$DIMTSZ
 40
0.0
  9
$DIMTOL
 70
     0
  9
$DIMLIM
 70
     0
  9
$DIMTIH
 70
     0
  9
$DIMTOH
 70
     0
  9
$DIMSE1
 70
     0
  9
$DIMSE2
 70
     0
  9
$DIMTAD
 70
     3
  9
$DIMZIN
 70
     8
  9
$DIMBLK
  1

  9
$DIMASO
 70
     1
  9
$DIMSHO
 70
     1
  9
$DIMPOST
  1

  9
$DIMAPOST
  1

  9
$DIMALT
 70
     0
  9
$DIMALTD
 70
     2
  9
$DIMALTF
 40
25.4
  9
$DIMLFAC
 40
1.0
  9
$DIMTOFL
 70
     1
  9
$DIMTVP
 40
0.0
  9
$DIMTIX
 70
     0
  9
$DIMSOXD
 70
     0
  9
$DIMSAH
 70
     1
  9
$DIMBLK1
  1
OPEN
  9
$DIMBLK2
  1
OPEN
  9
$DIMSTYLE
  2
STANDARD
  9
$DIMCLRD
 70
     0
  9
$DIMCLRE
 70
     0
  9
$DIMCLRT
 70
     0
  9
$DIMTFAC
 40
1.0
  9
$DIMGAP
 40
1.0
  9
$DIMJUST
 70
     0
  9
$DIMSD1
 70
     0
  9
$DIMSD2
 70
     0
  9
$DIMTOLJ
 70
     1
  9
$DIMTZIN
 70
     0
  9
$DIMALTZ
 70
     0
  9
$DIMALTTZ
 70
     0
  9
$DIMUPT
 70
     0
  9
$DIMDEC
 70
     4
  9
$DIMTDEC
 70
     4
  9
$DIMALTU
 70
     2
  9
$DIMALTTD
 70
     2
  9
$DIMTXSTY
  7
STANDARD
  9
$DIMAUNIT
 70
     0
  9
$DIMADEC
 70
     0
  9
$DIMALTRND
 40
0.0
  9
$DIMAZIN
 70
     0
  9
$DIMDSEP
 70
    46
  9
$DIMATFIT
 70
     3
  9
$DIMFRAC
 70
     0
  9
$DIMLDRBLK
  1
OPEN
  9
$DIMLUNIT
 70
     2
  9
$DIMLWD
 70
    -2
  9
$DIMLWE
 70
    -2
  9
$DIMTMOVE
 70
     0
  9
$LUNITS
 70
     2
  9
$LUPREC
 70
     4
  9
$SKETCHINC
 40
1.0
  9
$FILLETRAD
 40
10.0
  9
$AUNITS
 70
     0
  9
$AUPREC
 70
     0
  9
$MENU
  1
.
  9
$ELEVATION
 40
0.0
  9
$PELEVATION
 40
0.0
  9
$THICKNESS
 40
0.0
  9
$LIMCHECK
 70
     0
  9
$CHAMFERA
 40
10.0
  9
$CHAMFERB
 40
10.0
  9
$CHAMFERC
 40
0.0
  9
$CHAMFERD
 40
0.0
  9
$SKPOLY
 70
     0
  9
$TDCREATE
 40
2451640.627312002
  9
$TDUCREATE
 40
2451640.252312003
  9
$TDUPDATE
 40
2457192.600762627
  9
$TDUUPDATE
 40
2457192.225762627
  9
$TDINDWG
 40
0.0008030787
  9
$TDUSRTIMER
 40
0.0008024653
  9
$USRTIMER
 70
     1
  9
$ANGBASE
 50
0.0
  9
$ANGDIR
 70
     0
  9
$PDMODE
 70
     0
  9
$PDSIZE
 40
0.0
  9
$PLINEWID
 40
0.0
  9
$SPLFRAME
 70
     0
  9
$SPLINETYPE
 70
     6
  9
$SPLINESEGS
 70
     8
  9
$HANDSEED
  5
1419
  9
$SURFTAB1
 70
     6
  9
$SURFTAB2
 70
     6
  9
$SURFTYPE
 70
     6
  9
$SURFU
 70
     6
  9
$SURFV
 70
     6
  9
$UCSBASE
  2

  9
$UCSNAME
  2

  9
$UCSORG
 10
0.0
 20
0.0
 30
0.0
  9
$UCSXDIR
 10
1.0
 20
0.0
 30
0.0
  9
$UCSYDIR
 10
0.0
 20
1.0
 30
0.0
  9
$UCSORTHOREF
  2

  9
$UCSORTHOVIEW
 70
     0
  9
$UCSORGTOP
 10
0.0
 20
0.0
 30
0.0
  9
$UCSORGBOTTOM
 10
0.0
 20
0.0
 30
0.0
  9
$UCSORGLEFT
 10
0.0
 20
0.0
 30
0.0
  9
$UCSORGRIGHT
 10
0.0
 20
0.0
 30
0.0
  9
$UCSORGFRONT
 10
0.0
 20
0.0
 30
0.0
  9
$UCSORGBACK
 10
0.0
 20
0.0
 30
0.0
  9
$PUCSBASE
  2

  9
$PUCSNAME
  2

  9
$PUCSORG
 10
0.0
 20
0.0
 30
0.0
  9
$PUCSXDIR
 10
1.0
 20
0.0
 30
0.0
  9
$PUCSYDIR
 10
0.0
 20
1.0
 30
0.0
  9
$PUCSORTHOREF
  2

  9
$PUCSORTHOVIEW
 70
     0
  9
$PUCSORGTOP
 10
0.0
 20
0.0
 30
0.0
  9
$PUCSORGBOTTOM
 10
0.0
 20
0.0
 30
0.0
  9
$PUCSORGLEFT
 10
0.0
 20
0.0
 30
0.0
  9
$PUCSORGRIGHT
 10
0.0
 20
0.0
 30
0.0
  9
$PUCSORGFRONT
 10
0.0
 20
0.0
 30
0.0
  9
$PUCSORGBACK
 10
0.0
 20
0.0
 30
0.0
  9
$USERI1
 70
     0
  9
$USERI2
 70
     0
  9
$USERI3
 70
     0
  9
$USERI4
 70
     0
  9
$USERI5
 70
     0
  9
$USERR1
 40
0.0
  9
$USERR2
 40
0.0
  9
$USERR3
 40
0.0
  9
$USERR4
 40
0.0
  9
$USERR5
 40
0.0
  9
$WORLDVIEW
 70
     1
  9
$SHADEDGE
 70
     3
  9
$SHADEDIF
 70
    70
  9
$TILEMODE
 70
     1
  9
$MAXACTVP
 70
    48
  9
$PINSBASE
 10
0.0
 20
0.0
 30
0.0
  9
$PLIMCHECK
 70
     0
  9
$PEXTMIN
 10
1.000000000000000E+20
 20
1.000000000000000E+20
 30
1.000000000000000E+20
  9
$PEXTMAX
 10
-1.000000000000000E+20
 20
-1.000000000000000E+20
 30
-1.000000000000000E+20
  9
$PLIMMIN
 10
0.0
 20
0.0
  9
$PLIMMAX
 10
420.0
 20
297.0
  9
$UNITMODE
 70
     0
  9
$VISRETAIN
 70
     1
  9
$PLINEGEN
 70
     0
  9
$PSLTSCALE
 70
     1
  9
$TREEDEPTH
 70
  3020
  9
$CMLSTYLE
  2
STANDARD
  9
$CMLJUST
 70
     0
  9
$CMLSCALE
 40
1.0
  9
$PROXYGRAPHICS
 70
     1
  9
$MEASUREMENT
 70
     0
  9
$CELWEIGHT
370
    -1
  9
$ENDCAPS
280
     0
  9
$JOINSTYLE
280
     0
  9
$LWDISPLAY
290
     0
  9
$INSUNITS
 70
     0
  9
$HYPERLINKBASE
  1

  9
$STYLESHEET
  1

  9
$XEDIT
290
     1
  9
$CEPSNTYPE
380
     0
  9
$PSTYLEMODE
290
     1
  9
$FINGERPRINTGUID
  2
{27A228B2-E563-44AC-9449-552B84936563}
  9
$VERSIONGUID
  2
{2E9BDC1E-9D66-4703-A75F-381705EFE07F}
  9
$EXTNAMES
290
     1
  9
$PSVPSCALE
 40
0.0
  9
$OLESTARTUP
290
     0
  0
ENDSEC
  0
SECTION
  2
CLASSES
  0
CLASS
  1
ACDBDICTIONARYWDFLT
  2
AcDbDictionaryWithDefault
  3
ObjectDBX Classes
 90
        0
280
     0
281
     0
  0
CLASS
  1
ACDBPLACEHOLDER
  2
AcDbPlaceHolder
  3
ObjectDBX Classes
 90
        0
280
     0
281
     0
  0
CLASS
  1
LAYOUT
  2
AcDbLayout
  3
ObjectDBX Classes
 90
        0
280
     0
281
     0
  0
CLASS
  1
DICTIONARYVAR
  2
AcDbDictionaryVar
  3
ObjectDBX Classes
 90
        0
280
     0
281
     0
  0
CLASS
  1
MATERIAL
  2
AcDbMaterial
  3
ObjectDBX Classes
 90
     1153
280
     0
281
     0
  0
CLASS
  1
VISUALSTYLE
  2
AcDbVisualStyle
  3
ObjectDBX Classes
 90
     4095
280
     0
281
     0
  0
CLASS
  1
TABLESTYLE
  2
AcDbTableStyle
  3
ObjectDBX Classes
 90
     4095
280
     0
281
     0
  0
CLASS
  1
SCALE
  2
AcDbScale
  3
ObjectDBX Classes
 90
     1153
280
     0
281
     0
  0
CLASS
  1
MLEADERSTYLE
  2
AcDbMLeaderStyle
  3
ACDB_MLEADERSTYLE_CLASS
 90
     4095
280
     0
281
     0
  0
CLASS
  1
ACDBSECTIONVIEWSTYLE
  2
AcDbSectionViewStyle
  3
ObjectDBX Classes
 90
     1025
280
     0
281
     0
  0
CLASS
  1
ACDBDETAILVIEWSTYLE
  2
AcDbDetailViewStyle
  3
ObjectDBX Classes
 90
     1025
280
     0
281
     0
  0
CLASS
  1
CELLSTYLEMAP
  2
AcDbCellStyleMap
  3
ObjectDBX Classes
 90
     1152
280
     0
281
     0
  0
ENDSEC
  0
SECTION
  2
TABLES
  0
TABLE
  2
VPORT
  5
1064
330
0
100
AcDbSymbolTable
 70
     1
  0
VPORT
  5
1362
330
1064
100
AcDbSymbolTableRecord
100
AcDbViewportTableRecord
  2
*ACTIVE
 70
     0
 10
0.0
 20
0.0
 11
1.0
 21
1.0
 12
313.3217891850666
 22
140.840607449314
 13
0.0
 23
0.0
 14
10.0
 24
10.0
 15
10.0
 25
10.0
 16
0.0
 26
0.0
 36
1.0
 17
0.0
 27
0.0
 37
0.0
 40
264.6339638977636
 41
1.899603698811096
 42
50.0
 43
0.0
 44
0.0
 50
0.0
 51
0.0
 71
     0
 72
   100
 73
     1
 74
     0
 75
     0
 76
     0
 77
     0
 78
     0
281
     0
 65
     1
110
0.0
120
0.0
130
0.0
111
1.0
121
0.0
131
0.0
112
0.0
122
1.0
132
0.0
 79
     0
146
0.0
1001
ACAD_NAV_VCDISPLAY
1070
     3
  0
ENDTAB
  0
TABLE
  2
LTYPE
  5
1061
330
0
100
AcDbSymbolTable
 70
     4
  0
LTYPE
  5
106F
330
1061
100
AcDbSymbolTableRecord
100
AcDbLinetypeTableRecord
  2
BYBLOCK
 70
     0
  3

 72
    65
 73
     0
 40
0.0
  0
LTYPE
  5
1070
330
1061
100
AcDbSymbolTableRecord
100
AcDbLinetypeTableRecord
  2
BYLAYER
 70
     0
  3

 72
    65
 73
     0
 40
0.0
  0
LTYPE
  5
1071
330
1061
100
AcDbSymbolTableRecord
100
AcDbLinetypeTableRecord
  2
CONTINUOUS
 70
     0
  3
Solid line
 72
    65
 73
     0
 40
0.0
  0
LTYPE
  5
107F
330
1061
100
AcDbSymbolTableRecord
100
AcDbLinetypeTableRecord
  2
DASHED
 70
     0
  3
Dashed __ __ __ __ __ __ __ __ __ __ __ __ __ _
 72
    65
 73
     2
 40
19.05
 49
12.7
 74
     0
 49
-6.349999999999997
 74
     0
  0
LTYPE
  5
1080
330
1061
100
AcDbSymbolTableRecord
100
AcDbLinetypeTableRecord
  2
CENTER
 70
     0
  3
Center ____ _ ____ _ ____ _ ____ _ ____ _ ____
 72
    65
 73
     4
 40
50.8
 49
31.75
 74
     0
 49
-6.349999999999997
 74
     0
 49
6.349999999999997
 74
     0
 49
-6.349999999999997
 74
     0
  0
LTYPE
  5
1081
330
1061
100
AcDbSymbolTableRecord
100
AcDbLinetypeTableRecord
  2
PHANTOM
 70
     0
  3
Phantom ______  __  __  ______  __  __  ______
 72
    65
 73
     6
 40
63.5
 49
31.75
 74
     0
 49
-6.349999999999997
 74
     0
 49
6.349999999999997
 74
     0
 49
-6.349999999999997
 74
     0
 49
6.349999999999997
 74
     0
 49
-6.349999999999997
 74
     0
  0
ENDTAB
  0
TABLE
  2
LAYER
  5
105E
330
0
100
AcDbSymbolTable
 70
     8
  0
LAYER
  5
106C
102
{ACAD_XDICTIONARY
360
13BD
102
}
330
105E
100
AcDbSymbolTableRecord
100
AcDbLayerTableRecord
  2
0
 70
     0
 62
     7
  6
CONTINUOUS
370
    -3
390
136B
  0
LAYER
  5
1082
102
{ACAD_XDICTIONARY
360
13BF
102
}
330
105E
100
AcDbSymbolTableRecord
100
AcDbLayerTableRecord
  2
4
 70
     0
 62
     1
  6
CENTER
370
    -3
390
136B
  0
LAYER
  5
1083
102
{ACAD_XDICTIONARY
360
13C1
102
}
330
105E
100
AcDbSymbolTableRecord
100
AcDbLayerTableRecord
  2
5
 70
     0
 62
     6
  6
PHANTOM
370
    -3
390
136B
  0
LAYER
  5
1084
102
{ACAD_XDICTIONARY
360
13C3
102
}
330
105E
100
AcDbSymbolTableRecord
100
AcDbLayerTableRecord
  2
1
 70
     0
 62
     7
  6
CONTINUOUS
370
    -3
390
136B
  0
LAYER
  5
1085
102
{ACAD_XDICTIONARY
360
13C5
102
}
330
105E
100
AcDbSymbolTableRecord
100
AcDbLayerTableRecord
  2
2
 70
     0
 62
     4
  6
CONTINUOUS
370
    -3
390
136B
  0
LAYER
  5
1086
102
{ACAD_XDICTIONARY
360
13C7
102
}
330
105E
100
AcDbSymbolTableRecord
100
AcDbLayerTableRecord
  2
3
 70
     0
 62
     2
  6
DASHED
370
    -3
390
136B
  0
LAYER
  5
1087
102
{ACAD_XDICTIONARY
360
13C9
102
}
330
105E
100
AcDbSymbolTableRecord
100
AcDbLayerTableRecord
  2
6
 70
     0
 62
     5
  6
CONTINUOUS
370
    -3
390
136B
  0
LAYER
  5
1088
102
{ACAD_XDICTIONARY
360
13CB
102
}
330
105E
100
AcDbSymbolTableRecord
100
AcDbLayerTableRecord
  2
7
 70
     0
 62
     3
  6
CONTINUOUS
370
    -3
390
136B
  0
ENDTAB
  0
TABLE
  2
STYLE
  5
105F
330
0
100
AcDbSymbolTable
 70
     1
  0
STYLE
  5
106D
330
105F
100
AcDbSymbolTableRecord
100
AcDbTextStyleTableRecord
  2
STANDARD
 70
     0
 40
0.0
 41
1.0
 50
0.0
 71
     0
 42
2.5
  3
txt
  4

  0
ENDTAB
  0
TABLE
  2
VIEW
  5
1062
330
0
100
AcDbSymbolTable
 70
     0
  0
ENDTAB
  0
TABLE
  2
UCS
  5
1063
330
0
100
AcDbSymbolTable
 70
     0
  0
ENDTAB
  0
TABLE
  2
APPID
  5
1065
330
0
100
AcDbSymbolTable
 70
     7
  0
APPID
  5
106E
330
1065
100
AcDbSymbolTableRecord
100
AcDbRegAppTableRecord
  2
ACAD
 70
     0
  0
APPID
  5
1089
330
1065
100
AcDbSymbolTableRecord
100
AcDbRegAppTableRecord
  2
CONTENTTABDATA
 70
     0
  0
APPID
  5
108A
330
1065
100
AcDbSymbolTableRecord
100
AcDbRegAppTableRecord
  2
CONTENTCURRENTTAB
 70
     0
  0
APPID
  5
108B
330
1065
100
AcDbSymbolTableRecord
100
AcDbRegAppTableRecord
  2
CONTENTBLOCKDESCRIPTION
 70
     0
  0
APPID
  5
108C
330
1065
100
AcDbSymbolTableRecord
100
AcDbRegAppTableRecord
  2
CONTENTBLOCKICON
 70
     0
  0
APPID
  5
13D7
330
1065
100
AcDbSymbolTableRecord
100
AcDbRegAppTableRecord
  2
ACAD_NAV_VCDISPLAY
 70
     0
  0
APPID
  5
1410
330
1065
100
AcDbSymbolTableRecord
100
AcDbRegAppTableRecord
  2
ACAD_MLEADERVER
 70
     0
  0
ENDTAB
  0
TABLE
  2
DIMSTYLE
  5
1066
330
0
100
AcDbSymbolTable
 70
     1
100
AcDbDimStyleTable
 71
     0
  0
DIMSTYLE
105
108D
330
1066
100
AcDbSymbolTableRecord
100
AcDbDimStyleTableRecord
  2
STANDARD
 70
     0
 41
3.0
 42
1.0
 43
10.0
 44
1.0
 73
     0
 74
     0
 77
     3
 78
     8
140
3.2
141
0.0
147
1.0
172
     1
173
     1
284
     8
285
     8
286
     8
340
106D
  0
ENDTAB
  0
TABLE
  2
BLOCK_RECORD
  5
105D
330
0
100
AcDbSymbolTable
 70
     1
  0
BLOCK_RECORD
  5
107A
102
{ACAD_XDICTIONARY
360
1365
102
}
330
105D
100
AcDbSymbolTableRecord
100
AcDbBlockTableRecord
  2
*MODEL_SPACE
340
13B9
  0
BLOCK_RECORD
  5
1076
102
{ACAD_XDICTIONARY
360
1363
102
}
330
105D
100
AcDbSymbolTableRecord
100
AcDbBlockTableRecord
  2
*PAPER_SPACE
340
13BA
  0
BLOCK_RECORD
  5
1095
330
105D
100
AcDbSymbolTableRecord
100
AcDbBlockTableRecord
  2
_OPEN
340
0
  0
ENDTAB
  0
ENDSEC
  0
SECTION
  2
BLOCKS
  0
BLOCK
  5
107B
330
107A
100
AcDbEntity
  8
0
100
AcDbBlockBegin
  2
*MODEL_SPACE
 70
     0
 10
0.0
 20
0.0
 30
0.0
  3
*MODEL_SPACE
  1

  0
ENDBLK
  5
107C
330
107A
100
AcDbEntity
  8
0
100
AcDbBlockEnd
  0
BLOCK
  5
1077
330
1076
100
AcDbEntity
 67
     1
  8
0
100
AcDbBlockBegin
  2
*PAPER_SPACE
 70
     0
 10
0.0
 20
0.0
 30
0.0
  3
*PAPER_SPACE
  1

  0
ENDBLK
  5
1078
330
1076
100
AcDbEntity
 67
     1
  8
0
100
AcDbBlockEnd
  0
BLOCK
  5
1096
330
1095
100
AcDbEntity
  8
0
100
AcDbBlockBegin
  2
_OPEN
 70
     0
 10
0.0
 20
0.0
 30
0.0
  3
_OPEN
  1

  0
LINE
  5
1097
330
1095
100
AcDbEntity
  8
0
  6
ByBlock
 62
     0
100
AcDbLine
 10
-1.0
 20
0.166667
 30
0.0
 11
0.0
 21
0.0
 31
0.0
  0
LINE
  5
1098
330
1095
100
AcDbEntity
  8
0
  6
ByBlock
 62
     0
100
AcDbLine
 10
0.0
 20
0.0
 30
0.0
 11
-1.0
 21
-0.166667
 31
0.0
  0
LINE
  5
1099
330
1095
100
AcDbEntity
  8
0
  6
ByBlock
 62
     0
100
AcDbLine
 10
0.0
 20
0.0
 30
0.0
 11
-1.0
 21
0.0
 31
0.0
  0
ENDBLK
  5
109A
330
1095
100
AcDbEntity
  8
0
100
AcDbBlockEnd
  0
ENDSEC
  0
SECTION
  2
ENTITIES
  0
LINE
  5
109B
330
107A
100
AcDbEntity
  8
5
  6
PHANTOM
100
AcDbLine
 10
49.999999
 20
186.6562379999998
 30
0.0
 11
49.999999
 21
169.925498
 31
0.0
  0
LINE
  5
109C
330
107A
100
AcDbEntity
  8
5
  6
PHANTOM
100
AcDbLine
 10
68.999999
 20
186.6562379999998
 30
0.0
 11
68.999999
 21
168.1254969999999
 31
0.0
  0
LINE
  5
109D
330
107A
100
AcDbEntity
  8
4
  6
CENTER
100
AcDbLine
 10
59.499999
 20
196.675498
 30
0.0
 11
59.499999
 21
139.425498
 31
0.0
  0
TEXT
  5
109E
330
107A
100
AcDbEntity
  8
7
  6
Continuous
100
AcDbText
 10
9.999999
 20
25.999999
 30
0.0
 40
3.0
  1
CODE No.1920
100
AcDbText
  0
TEXT
  5
109F
330
107A
100
AcDbEntity
  8
7
  6
Continuous
100
AcDbText
 10
9.999999
 20
17.99999899999998
 30
0.0
 40
3.0
  1
TYPE No.TL-255-1
100
AcDbText
  0
TEXT
  5
10A0
330
107A
100
AcDbEntity
  8
1
  6
Continuous
100
AcDbText
 10
9.999999
 20
9.999999
 30
0.0
 40
1.399999999999999
  1
LAYER
100
AcDbText
  0
TEXT
  5
10A1
330
107A
100
AcDbEntity
  8
5
  6
PHANTOM
100
AcDbText
 10
25.97951
 20
10.048736
 30
0.0
 40
1.399999999999999
  1
5
100
AcDbText
  0
TEXT
  5
10A2
330
107A
100
AcDbEntity
  8
6
  6
Continuous
100
AcDbText
 10
27.97950999999999
 20
10.048736
 30
0.0
 40
1.399999999999999
  1
6
100
AcDbText
  0
TEXT
  5
10A3
330
107A
100
AcDbEntity
  8
2
  6
Continuous
100
AcDbText
 10
19.97951
 20
10.048736
 30
0.0
 40
1.399999999999999
  1
2
100
AcDbText
  0
TEXT
  5
10A4
330
107A
100
AcDbEntity
  8
3
  6
DASHED
100
AcDbText
 10
21.97951
 20
10.048736
 30
0.0
 40
1.399999999999999
  1
3
100
AcDbText
  0
TEXT
  5
10A5
330
107A
100
AcDbEntity
  8
4
  6
CENTER
100
AcDbText
 10
23.97951
 20
10.048736
 30
0.0
 40
1.399999999999999
  1
4
100
AcDbText
  0
TEXT
  5
10A6
330
107A
100
AcDbEntity
  8
7
  6
Continuous
100
AcDbText
 10
29.97951
 20
10.048736
 30
0.0
 40
1.399999999999999
  1
7
100
AcDbText
  0
TEXT
  5
10A7
330
107A
100
AcDbEntity
  8
1
  6
Continuous
100
AcDbText
 10
17.97951
 20
10.048736
 30
0.0
 40
1.399999999999999
  1
1
100
AcDbText
  0
LINE
  5
10A8
330
107A
100
AcDbEntity
  8
1
  6
Continuous
100
AcDbLine
 10
48.499999
 20
169.925498
 30
0.0
 11
66.371572
 21
169.925498
 31
0.0
  0
LINE
  5
10A9
330
107A
100
AcDbEntity
  8
1
  6
Continuous
100
AcDbLine
 10
48.499999
 20
144.425498
 30
0.0
 11
66.371572
 21
144.425498
 31
0.0
  0
LINE
  5
10AA
330
107A
100
AcDbEntity
  8
4
  6
CENTER
100
AcDbLine
 10
19.99999899999998
 20
157.175498
 30
0.0
 11
80.699999
 21
157.175498
 31
0.0
  0
CIRCLE
  5
10AB
330
107A
100
AcDbEntity
  8
1
  6
Continuous
100
AcDbCircle
 10
59.499999
 20
157.175498
 30
0.0
 40
11.0
  0
CIRCLE
  5
10AC
330
107A
100
AcDbEntity
  8
1
  6
Continuous
100
AcDbCircle
 10
59.499999
 20
157.175498
 30
0.0
 40
6.0
  0
CIRCLE
  5
10AD
330
107A
100
AcDbEntity
  8
1
  6
Continuous
100
AcDbCircle
 10
59.499999
 20
157.175498
 30
0.0
 40
10.0
  0
LINE
  5
10AE
330
107A
100
AcDbEntity
  8
1
  6
Continuous
100
AcDbLine
 10
30.019259
 20
166.675498
 30
0.0
 11
43.499999
 21
166.675498
 31
0.0
  0
LINE
  5
10AF
330
107A
100
AcDbEntity
  8
1
  6
Continuous
100
AcDbLine
 10
30.019259
 20
147.675498
 30
0.0
 11
43.499999
 21
147.675498
 31
0.0
  0
ARC
  5
10B0
330
107A
100
AcDbEntity
  8
1
  6
Continuous
100
AcDbCircle
 10
36.499999
 20
157.175498
 30
0.0
 40
11.5
100
AcDbArc
 50
124.301153
 51
235.6988470000001
  0
LINE
  5
10B1
330
107A
100
AcDbEntity
  8
1
  6
Continuous
100
AcDbLine
 10
60.549999
 20
153.7254979999999
 30
0.0
 11
60.549999
 21
161.825498
 31
0.0
  0
LINE
  5
10B2
330
107A
100
AcDbEntity
  8
1
  6
Continuous
100
AcDbLine
 10
58.449999
 20
161.825498
 30
0.0
 11
58.449999
 21
153.7254979999999
 31
0.0
  0
LINE
  5
10B3
330
107A
100
AcDbEntity
  8
1
  6
Continuous
100
AcDbLine
 10
60.84999899999999
 20
163.0216499999999
 30
0.0
 11
60.84999899999999
 21
151.3293449999999
 31
0.0
  0
LINE
  5
10B4
330
107A
100
AcDbEntity
  8
1
  6
Continuous
100
AcDbLine
 10
58.149999
 20
163.0216499999999
 30
0.0
 11
58.149999
 21
151.3293449999999
 31
0.0
  0
LINE
  5
10B5
330
107A
100
AcDbEntity
  8
1
  6
Continuous
100
AcDbLine
 10
60.649999
 20
163.0642579999999
 30
0.0
 11
60.649999
 21
151.2867369999999
 31
0.0
  0
LINE
  5
10B6
330
107A
100
AcDbEntity
  8
1
  6
Continuous
100
AcDbLine
 10
58.34999899999999
 20
163.0642579999999
 30
0.0
 11
58.34999899999999
 21
151.2867369999999
 31
0.0
  0
ARC
  5
10B7
330
107A
100
AcDbEntity
  8
1
  6
Continuous
100
AcDbCircle
 10
46.999999
 20
142.634426
 30
0.0
 40
6.516071
100
AcDbArc
 50
76.69114999999997
 51
103.3088499999998
  0
LINE
  5
10B8
330
107A
100
AcDbEntity
  8
1
  6
Continuous
100
AcDbLine
 10
48.499999
 20
144.425498
 30
0.0
 11
45.152703
 21
145.0157169999999
 31
0.0
  0
LINE
  5
10B9
330
107A
100
AcDbEntity
  8
1
  6
Continuous
100
AcDbLine
 10
43.499999
 20
148.9754979999998
 30
0.0
 11
45.499999
 21
148.9754979999998
 31
0.0
  0
LINE
  5
10BA
330
107A
100
AcDbEntity
  8
1
  6
Continuous
100
AcDbLine
 10
43.499999
 20
146.985332
 30
0.0
 11
43.499999
 21
148.9754979999998
 31
0.0
  0
ARC
  5
10BB
330
107A
100
AcDbEntity
  8
1
  6
Continuous
100
AcDbCircle
 10
45.499999
 20
146.985332
 30
0.0
 40
2.0
100
AcDbArc
 50
180.0
 51
260.0
  0
LINE
  5
10BC
330
107A
100
AcDbEntity
  8
1
  6
Continuous
100
AcDbLine
 10
48.37424
 20
145.262843
 30
0.0
 11
48.37424
 21
148.2768869999999
 31
0.0
  0
LINE
  5
10BD
330
107A
100
AcDbEntity
  8
1
  6
Continuous
100
AcDbLine
 10
48.499999
 20
148.9754979999998
 30
0.0
 11
52.167878
 21
148.9754979999998
 31
0.0
  0
LINE
  5
10BE
330
107A
100
AcDbEntity
  8
1
  6
Continuous
100
AcDbLine
 10
58.449999
 20
153.7254979999999
 30
0.0
 11
60.549999
 21
153.7254979999999
 31
0.0
  0
LINE
  5
10BF
330
107A
100
AcDbEntity
  8
1
  6
Continuous
100
AcDbLine
 10
58.34999899999999
 20
152.3754979999999
 30
0.0
 11
60.649999
 21
152.3754979999999
 31
0.0
  0
LINE
  5
10C0
330
107A
100
AcDbEntity
  8
1
  6
Continuous
100
AcDbLine
 10
48.499999
 20
169.925498
 30
0.0
 11
45.152703
 21
169.335279
 31
0.0
  0
ARC
  5
10C1
330
107A
100
AcDbEntity
  8
1
  6
Continuous
100
AcDbCircle
 10
46.999999
 20
171.7165689999999
 30
0.0
 40
6.516071
100
AcDbArc
 50
256.6911499999998
 51
283.30885
  0
ARC
  5
10C2
330
107A
100
AcDbEntity
  8
1
  6
Continuous
100
AcDbCircle
 10
45.499999
 20
167.3656639999999
 30
0.0
 40
2.0
100
AcDbArc
 50
100.0
 51
180.0
  0
LINE
  5
10C3
330
107A
100
AcDbEntity
  8
1
  6
Continuous
100
AcDbLine
 10
43.499999
 20
167.3656639999999
 30
0.0
 11
43.499999
 21
165.3754979999999
 31
0.0
  0
LINE
  5
10C4
330
107A
100
AcDbEntity
  8
1
  6
Continuous
100
AcDbLine
 10
43.499999
 20
165.3754979999999
 30
0.0
 11
45.499999
 21
165.3754979999999
 31
0.0
  0
LINE
  5
10C5
330
107A
100
AcDbEntity
  8
1
  6
Continuous
100
AcDbLine
 10
49.999999
 20
165.3754979999999
 30
0.0
 11
49.999999
 21
162.720766
 31
0.0
  0
LINE
  5
10C6
330
107A
100
AcDbEntity
  8
1
  6
Continuous
100
AcDbLine
 10
48.499999
 20
165.3754979999999
 30
0.0
 11
52.167878
 21
165.3754979999999
 31
0.0
  0
LINE
  5
10C7
330
107A
100
AcDbEntity
  8
1
  6
Continuous
100
AcDbLine
 10
48.37424
 20
169.088153
 30
0.0
 11
48.37424
 21
166.074108
 31
0.0
  0
LINE
  5
10C8
330
107A
100
AcDbEntity
  8
1
  6
Continuous
100
AcDbLine
 10
59.94999899999999
 20
157.1254979999999
 30
0.0
 11
60.549999
 21
157.1254979999999
 31
0.0
  0
LINE
  5
10C9
330
107A
100
AcDbEntity
  8
1
  6
Continuous
100
AcDbLine
 10
59.94999899999999
 20
158.425498
 30
0.0
 11
60.549999
 21
158.425498
 31
0.0
  0
LINE
  5
10CA
330
107A
100
AcDbEntity
  8
1
  6
Continuous
100
AcDbLine
 10
58.449999
 20
158.425498
 30
0.0
 11
59.04999899999999
 21
158.425498
 31
0.0
  0
LINE
  5
10CB
330
107A
100
AcDbEntity
  8
1
  6
Continuous
100
AcDbLine
 10
58.449999
 20
157.1254979999999
 30
0.0
 11
59.04999899999999
 21
157.1254979999999
 31
0.0
  0
LINE
  5
10CC
330
107A
100
AcDbEntity
  8
1
  6
Continuous
100
AcDbLine
 10
59.04999899999999
 20
158.425498
 30
0.0
 11
59.04999899999999
 21
157.1254979999999
 31
0.0
  0
LINE
  5
10CD
330
107A
100
AcDbEntity
  8
1
  6
Continuous
100
AcDbLine
 10
59.94999899999999
 20
157.1254979999999
 30
0.0
 11
59.94999899999999
 21
158.425498
 31
0.0
  0
LINE
  5
10CE
330
107A
100
AcDbEntity
  8
1
  6
Continuous
100
AcDbLine
 10
60.549999
 20
161.825498
 30
0.0
 11
58.449999
 21
161.825498
 31
0.0
  0
LINE
  5
10CF
330
107A
100
AcDbEntity
  8
1
  6
Continuous
100
AcDbLine
 10
75.699999
 20
150.925498
 30
0.0
 11
75.699999
 21
163.425498
 31
0.0
  0
LINE
  5
10D0
330
107A
100
AcDbEntity
  8
1
  6
Continuous
100
AcDbLine
 10
70.82575799999998
 20
150.3397109999999
 30
0.0
 11
70.82575799999998
 21
164.031206
 31
0.0
  0
ARC
  5
10D1
330
107A
100
AcDbEntity
  8
1
  6
Continuous
100
AcDbCircle
 10
66.371572
 20
146.4254979999998
 30
0.0
 40
2.0
100
AcDbArc
 50
270.0
 51
315.0
  0
ARC
  5
10D2
330
107A
100
AcDbEntity
  8
1
  6
Continuous
100
AcDbCircle
 10
74.52842599999998
 20
148.925498
 30
0.0
 40
2.0
100
AcDbArc
 50
90.0
 51
135.0
  0
LINE
  5
10D3
330
107A
100
AcDbEntity
  8
1
  6
Continuous
100
AcDbLine
 10
73.11421300000002
 20
150.3397109999999
 30
0.0
 11
67.785785
 21
145.0112839999999
 31
0.0
  0
LINE
  5
10D4
330
107A
100
AcDbEntity
  8
1
  6
Continuous
100
AcDbLine
 10
74.52842599999998
 20
150.925498
 30
0.0
 11
75.699999
 21
150.925498
 31
0.0
  0
ARC
  5
10D5
330
107A
100
AcDbEntity
  8
1
  6
Continuous
100
AcDbCircle
 10
66.371572
 20
167.925498
 30
0.0
 40
2.0
100
AcDbArc
 50
45.00000299999999
 51
90.0
  0
ARC
  5
10D6
330
107A
100
AcDbEntity
  8
1
  6
Continuous
100
AcDbCircle
 10
74.52842599999998
 20
165.425498
 30
0.0
 40
2.0
100
AcDbArc
 50
225.0
 51
270.0
  0
LINE
  5
10D7
330
107A
100
AcDbEntity
  8
1
  6
Continuous
100
AcDbLine
 10
73.11421300000002
 20
164.011284
 30
0.0
 11
67.785785
 21
169.339711
 31
0.0
  0
LINE
  5
10D8
330
107A
100
AcDbEntity
  8
1
  6
Continuous
100
AcDbLine
 10
74.52842599999998
 20
163.425498
 30
0.0
 11
75.699999
 21
163.425498
 31
0.0
  0
ARC
  5
10D9
330
107A
100
AcDbEntity
  8
1
  6
Continuous
100
AcDbCircle
 10
136.303608
 20
77.29385699999999
 30
0.0
 40
70.44896300000002
100
AcDbArc
 50
350.8274759999998
 51
9.172523999999999
  0
ARC
  5
10DA
330
107A
100
AcDbEntity
  8
1
  6
Continuous
100
AcDbCircle
 10
136.303608
 20
77.29385699999999
 30
0.0
 40
71.048963
100
AcDbArc
 50
350.8274759999998
 51
9.172523999999999
  0
LINE
  5
10DB
330
107A
100
AcDbEntity
  8
1
  6
Continuous
100
AcDbLine
 10
142.2002559999999
 20
88.29385700000001
 30
0.0
 11
142.2002559999999
 21
66.29385699999999
 31
0.0
  0
LINE
  5
10DC
330
107A
100
AcDbEntity
  8
1
  6
Continuous
100
AcDbLine
 10
159.600255
 20
42.793868
 30
0.0
 11
159.600255
 21
85.29386800000002
 31
0.0
  0
LINE
  5
10DD
330
107A
100
AcDbEntity
  8
1
  6
Continuous
100
AcDbLine
 10
161.9002549999999
 20
42.793868
 30
0.0
 11
161.9002549999999
 21
85.29386800000002
 31
0.0
  0
LINE
  5
10DE
330
107A
100
AcDbEntity
  8
1
  6
Continuous
100
AcDbLine
 10
161.9002549999999
 20
42.793868
 30
0.0
 11
159.600255
 21
42.793868
 31
0.0
  0
LINE
  5
10DF
330
107A
100
AcDbEntity
  8
1
  6
Continuous
100
AcDbLine
 10
159.600256
 20
72.31885699999998
 30
0.0
 11
158.600256
 21
72.31885699999998
 31
0.0
  0
LINE
  5
10E0
330
107A
100
AcDbEntity
  8
1
  6
Continuous
100
AcDbLine
 10
159.600256
 20
82.26885699999998
 30
0.0
 11
158.600256
 21
82.26885699999998
 31
0.0
  0
LINE
  5
10E1
330
107A
100
AcDbEntity
  8
4
  6
CENTER
100
AcDbLine
 10
134.7181179999997
 20
77.29385699999999
 30
0.0
 11
171.400256
 21
77.29385699999999
 31
0.0
  0
LINE
  5
10E2
330
107A
100
AcDbEntity
  8
2
  6
Continuous
100
AcDbLine
 10
145.700256
 20
82.09073000000001
 30
0.0
 11
142.700256
 21
72.496983
 31
0.0
  0
LINE
  5
10E3
330
107A
100
AcDbEntity
  8
2
  6
Continuous
100
AcDbLine
 10
142.700256
 20
82.09073000000001
 30
0.0
 11
145.700256
 21
72.496983
 31
0.0
  0
LINE
  5
10E4
330
107A
100
AcDbEntity
  8
1
  6
Continuous
100
AcDbLine
 10
142.2002559999999
 20
68.893857
 30
0.0
 11
157.350256
 21
68.893857
 31
0.0
  0
LINE
  5
10E5
330
107A
100
AcDbEntity
  8
1
  6
Continuous
100
AcDbLine
 10
145.700256
 20
72.496983
 30
0.0
 11
142.700256
 21
72.496983
 31
0.0
  0
LINE
  5
10E6
330
107A
100
AcDbEntity
  8
1
  6
Continuous
100
AcDbLine
 10
145.700256
 20
82.09073000000001
 30
0.0
 11
142.700256
 21
82.09073000000001
 31
0.0
  0
LINE
  5
10E7
330
107A
100
AcDbEntity
  8
1
  6
Continuous
100
AcDbLine
 10
142.2002559999999
 20
85.69385600000002
 30
0.0
 11
157.350256
 21
85.69385600000002
 31
0.0
  0
LINE
  5
10E8
330
107A
100
AcDbEntity
  8
1
  6
Continuous
100
AcDbLine
 10
142.700256
 20
82.09073000000001
 30
0.0
 11
142.700256
 21
72.496983
 31
0.0
  0
LINE
  5
10E9
330
107A
100
AcDbEntity
  8
1
  6
Continuous
100
AcDbLine
 10
142.700256
 20
76.19385600000002
 30
0.0
 11
142.2002559999999
 21
76.19385600000002
 31
0.0
  0
LINE
  5
10EA
330
107A
100
AcDbEntity
  8
1
  6
Continuous
100
AcDbLine
 10
142.700256
 20
78.39385599999999
 30
0.0
 11
142.2002559999999
 21
78.39385599999999
 31
0.0
  0
LINE
  5
10EB
330
107A
100
AcDbEntity
  8
1
  6
Continuous
100
AcDbLine
 10
145.700256
 20
82.09073000000001
 30
0.0
 11
145.700256
 21
72.496983
 31
0.0
  0
LINE
  5
10EC
330
107A
100
AcDbEntity
  8
1
  6
Continuous
100
AcDbLine
 10
155.500256
 20
76.19385600000002
 30
0.0
 11
145.700256
 21
76.19385600000002
 31
0.0
  0
LINE
  5
10ED
330
107A
100
AcDbEntity
  8
1
  6
Continuous
100
AcDbLine
 10
155.500256
 20
78.39385599999999
 30
0.0
 11
145.700256
 21
78.39385599999999
 31
0.0
  0
LINE
  5
10EE
330
107A
100
AcDbEntity
  8
1
  6
Continuous
100
AcDbLine
 10
155.500256
 20
78.39385599999999
 30
0.0
 11
155.500256
 21
85.69385600000002
 31
0.0
  0
LINE
  5
10EF
330
107A
100
AcDbEntity
  8
1
  6
Continuous
100
AcDbLine
 10
155.500256
 20
68.893857
 30
0.0
 11
155.500256
 21
76.19385600000002
 31
0.0
  0
LINE
  5
10F0
330
107A
100
AcDbEntity
  8
1
  6
Continuous
100
AcDbLine
 10
154.500256
 20
78.39385599999999
 30
0.0
 11
154.500256
 21
85.69385600000002
 31
0.0
  0
LINE
  5
10F1
330
107A
100
AcDbEntity
  8
1
  6
Continuous
100
AcDbLine
 10
154.500256
 20
68.893857
 30
0.0
 11
154.500256
 21
76.19385600000002
 31
0.0
  0
ARC
  5
10F2
330
107A
100
AcDbEntity
  8
1
  6
Continuous
100
AcDbCircle
 10
158.1819519999999
 20
72.42555299999998
 30
0.0
 40
0.4316970000000003
100
AcDbArc
 50
180.0
 51
14.30930499999999
  0
LINE
  5
10F3
330
107A
100
AcDbEntity
  8
1
  6
Continuous
100
AcDbLine
 10
158.600256
 20
82.26885699999998
 30
0.0
 11
158.600256
 21
72.31885699999998
 31
0.0
  0
ARC
  5
10F4
330
107A
100
AcDbEntity
  8
1
  6
Continuous
100
AcDbCircle
 10
158.1752559999999
 20
82.16885699999997
 30
0.0
 40
0.425
100
AcDbArc
 50
0.0
 51
180.0
  0
LINE
  5
10F5
330
107A
100
AcDbEntity
  8
1
  6
Continuous
100
AcDbLine
 10
157.250256
 20
85.69385600000002
 30
0.0
 11
157.250256
 21
68.893857
 31
0.0
  0
LINE
  5
10F6
330
107A
100
AcDbEntity
  8
1
  6
Continuous
100
AcDbLine
 10
157.750256
 20
85.29385699999997
 30
0.0
 11
157.350256
 21
85.69385600000002
 31
0.0
  0
LINE
  5
10F7
330
107A
100
AcDbEntity
  8
1
  6
Continuous
100
AcDbLine
 10
157.750256
 20
69.29385699999999
 30
0.0
 11
157.350256
 21
68.893857
 31
0.0
  0
LINE
  5
10F8
330
107A
100
AcDbEntity
  8
1
  6
Continuous
100
AcDbLine
 10
157.750256
 20
85.29385699999997
 30
0.0
 11
157.750256
 21
69.29385699999999
 31
0.0
  0
LINE
  5
10F9
330
107A
100
AcDbEntity
  8
1
  6
Continuous
100
AcDbLine
 10
161.9002549999999
 20
47.81312800000001
 30
0.0
 11
159.600255
 21
47.81312800000001
 31
0.0
  0
LINE
  5
10FA
330
107A
100
AcDbEntity
  8
2
  6
Continuous
100
AcDbLine
 10
165.100255
 20
74.19985699999998
 30
0.0
 11
166.306256
 21
74.19985699999998
 31
0.0
  0
LINE
  5
10FB
330
107A
100
AcDbEntity
  8
2
  6
Continuous
100
AcDbLine
 10
165.100255
 20
80.38785699999998
 30
0.0
 11
166.306256
 21
80.38785699999998
 31
0.0
  0
LINE
  5
10FC
330
107A
100
AcDbEntity
  8
1
  6
Continuous
100
AcDbLine
 10
163.3802049999999
 20
77.29385699999999
 30
0.0
 11
164.820305
 21
77.29385699999999
 31
0.0
  0
ARC
  5
10FD
330
107A
100
AcDbEntity
  8
1
  6
Continuous
100
AcDbCircle
 10
176.7119689999999
 20
74.54385699999999
 30
0.0
 40
13.612437
100
AcDbArc
 50
168.3448249999998
 51
191.655175
  0
ARC
  5
10FE
330
107A
100
AcDbEntity
  8
1
  6
Continuous
100
AcDbCircle
 10
176.7119689999999
 20
80.04385699999998
 30
0.0
 40
13.612437
100
AcDbArc
 50
168.3448249999998
 51
191.655175
  0
ARC
  5
10FF
330
107A
100
AcDbEntity
  8
1
  6
Continuous
100
AcDbCircle
 10
151.815075
 20
74.54385699999999
 30
0.0
 40
13.29279899999999
100
AcDbArc
 50
348.0604879999999
 51
11.93951199999998
  0
ARC
  5
1100
330
107A
100
AcDbEntity
  8
1
  6
Continuous
100
AcDbCircle
 10
151.815075
 20
80.04385699999998
 30
0.0
 40
13.29279899999999
100
AcDbArc
 50
348.0604879999999
 51
11.93951199999998
  0
LINE
  5
1101
330
107A
100
AcDbEntity
  8
1
  6
Continuous
100
AcDbLine
 10
163.3802049999999
 20
71.79385699999997
 30
0.0
 11
164.820305
 21
71.79385699999997
 31
0.0
  0
LINE
  5
1102
330
107A
100
AcDbEntity
  8
1
  6
Continuous
100
AcDbLine
 10
163.3802049999999
 20
82.79385699999997
 30
0.0
 11
164.820305
 21
82.79385699999997
 31
0.0
  0
LINE
  5
1103
330
107A
100
AcDbEntity
  8
2
  6
Continuous
100
AcDbLine
 10
162.100255
 20
74.093857
 30
0.0
 11
161.9002549999999
 21
74.093857
 31
0.0
  0
LINE
  5
1104
330
107A
100
AcDbEntity
  8
1
  6
Continuous
100
AcDbLine
 10
161.9002549999999
 20
80.27460899999999
 30
0.0
 11
159.600255
 21
80.27460899999999
 31
0.0
  0
LINE
  5
1105
330
107A
100
AcDbEntity
  8
1
  6
Continuous
100
AcDbLine
 10
161.9002549999999
 20
85.29386800000002
 30
0.0
 11
159.600255
 21
85.29386800000002
 31
0.0
  0
ARC
  5
1106
330
107A
100
AcDbEntity
  8
1
  6
Continuous
100
AcDbCircle
 10
159.6926879999998
 20
82.57035
 30
0.0
 40
2.415121
100
AcDbArc
 50
336.072673
 51
355.4671649999999
  0
ARC
  5
1107
330
107A
100
AcDbEntity
  8
1
  6
Continuous
100
AcDbCircle
 10
160.878918
 20
80.504084
 30
0.0
 40
1.236618999999999
100
AcDbArc
 50
325.680942
 51
350.9830839999998
  0
ARC
  5
1108
330
107A
100
AcDbEntity
  8
1
  6
Continuous
100
AcDbCircle
 10
157.8130569999999
 20
75.45144399999998
 30
0.0
 40
4.287487999999997
100
AcDbArc
 50
0.0
 51
17.127635
  0
LINE
  5
1109
330
107A
100
AcDbEntity
  8
1
  6
Continuous
100
AcDbLine
 10
161.9002549999999
 20
76.73172499999998
 30
0.0
 11
161.978933
 21
76.59514899999997
 31
0.0
  0
ARC
  5
110A
330
107A
100
AcDbEntity
  8
1
  6
Continuous
100
AcDbCircle
 10
158.060957
 20
72.63337400000001
 30
0.0
 40
4.308307
100
AcDbArc
 50
20.354182
 51
26.98334599999999
  0
ARC
  5
110B
330
107A
100
AcDbEntity
  8
1
  6
Continuous
100
AcDbCircle
 10
161.0345079999999
 20
71.80087900000002
 30
0.0
 40
3.098745999999998
100
AcDbArc
 50
69.88360899999999
 51
73.798466
  0
ARC
  5
110C
330
107A
100
AcDbEntity
  8
1
  6
Continuous
100
AcDbCircle
 10
161.06341
 20
71.85503900000002
 30
0.0
 40
1.837066999999997
100
AcDbArc
 50
55.63918199999999
 51
62.90075400000001
  0
LINE
  5
110D
330
107A
100
AcDbEntity
  8
1
  6
Continuous
100
AcDbLine
 10
161.9002549999999
 20
81.04017500000002
 30
0.0
 11
162.100255
 21
81.07594699999998
 31
0.0
  0
LINE
  5
110E
330
107A
100
AcDbEntity
  8
1
  6
Continuous
100
AcDbLine
 10
161.9002549999999
 20
79.62220000000002
 30
0.0
 11
162.100255
 21
79.71585299999998
 31
0.0
  0
LINE
  5
110F
330
107A
100
AcDbEntity
  8
1
  6
Continuous
100
AcDbLine
 10
161.9002549999999
 20
77.47395400000002
 30
0.0
 11
162.100255
 21
77.589715
 31
0.0
  0
LINE
  5
1110
330
107A
100
AcDbEntity
  8
1
  6
Continuous
100
AcDbLine
 10
161.9002549999999
 20
75.407635
 30
0.0
 11
162.100255
 21
75.501288
 31
0.0
  0
LINE
  5
1111
330
107A
100
AcDbEntity
  8
1
  6
Continuous
100
AcDbLine
 10
161.9002549999999
 20
74.09612799999997
 30
0.0
 11
162.100255
 21
74.1319
 31
0.0
  0
LINE
  5
1112
330
107A
100
AcDbEntity
  8
1
  6
Continuous
100
AcDbLine
 10
161.9002549999999
 20
80.662126
 30
0.0
 11
162.100255
 21
80.69789799999998
 31
0.0
  0
LINE
  5
1113
330
107A
100
AcDbEntity
  8
1
  6
Continuous
100
AcDbLine
 10
161.9002549999999
 20
79.160928
 30
0.0
 11
162.100255
 21
79.254581
 31
0.0
  0
LINE
  5
1114
330
107A
100
AcDbEntity
  8
1
  6
Continuous
100
AcDbLine
 10
161.978933
 20
76.59514899999997
 30
0.0
 11
162.100255
 21
76.66537099999998
 31
0.0
  0
LINE
  5
1115
330
107A
100
AcDbEntity
  8
1
  6
Continuous
100
AcDbLine
 10
161.899111
 20
74.77656299999998
 30
0.0
 11
162.100255
 21
74.87075199999998
 31
0.0
  0
LINE
  5
1116
330
107A
100
AcDbEntity
  8
1
  6
Continuous
100
AcDbLine
 10
161.9002549999999
 20
73.710955
 30
0.0
 11
162.100255
 21
73.74672700000002
 31
0.0
  0
LINE
  5
1117
330
107A
100
AcDbEntity
  8
1
  6
Continuous
100
AcDbLine
 10
163.100255
 20
73.79385699999999
 30
0.0
 11
163.0476889999999
 21
73.79385699999999
 31
0.0
  0
ARC
  5
1118
330
107A
100
AcDbEntity
  8
1
  6
Continuous
100
AcDbCircle
 10
163.679347
 20
72.99298299999998
 30
0.0
 40
1.019995999999999
100
AcDbArc
 50
124.592743
 51
139.802011
  0
LINE
  5
1119
330
107A
100
AcDbEntity
  8
1
  6
Continuous
100
AcDbLine
 10
162.9002549999999
 20
81.21903600000001
 30
0.0
 11
163.091124
 21
81.25317499999999
 31
0.0
  0
LINE
  5
111A
330
107A
100
AcDbEntity
  8
1
  6
Continuous
100
AcDbLine
 10
162.9002549999999
 20
80.840987
 30
0.0
 11
163.1253129999998
 21
80.88124099999998
 31
0.0
  0
LINE
  5
111B
330
107A
100
AcDbEntity
  8
1
  6
Continuous
100
AcDbLine
 10
162.9002549999999
 20
80.09046500000001
 30
0.0
 11
163.113503
 21
80.19032099999998
 31
0.0
  0
LINE
  5
111C
330
107A
100
AcDbEntity
  8
1
  6
Continuous
100
AcDbLine
 10
162.9002549999999
 20
79.629193
 30
0.0
 11
163.100255
 21
79.72284599999998
 31
0.0
  0
LINE
  5
111D
330
107A
100
AcDbEntity
  8
1
  6
Continuous
100
AcDbLine
 10
162.9002549999999
 20
78.052761
 30
0.0
 11
163.100255
 21
78.16852199999998
 31
0.0
  0
LINE
  5
111E
330
107A
100
AcDbEntity
  8
1
  6
Continuous
100
AcDbLine
 10
162.9002549999999
 20
77.128417
 30
0.0
 11
163.100255
 21
77.24417800000002
 31
0.0
  0
LINE
  5
111F
330
107A
100
AcDbEntity
  8
1
  6
Continuous
100
AcDbLine
 10
162.9002549999999
 20
75.8759
 30
0.0
 11
163.1043679999999
 21
75.971479
 31
0.0
  0
LINE
  5
1120
330
107A
100
AcDbEntity
  8
1
  6
Continuous
100
AcDbLine
 10
162.9002549999999
 20
75.24536399999998
 30
0.0
 11
163.100255
 21
75.339017
 31
0.0
  0
LINE
  5
1121
330
107A
100
AcDbEntity
  8
1
  6
Continuous
100
AcDbLine
 10
162.9002549999999
 20
74.274989
 30
0.0
 11
163.100255
 21
74.310761
 31
0.0
  0
LINE
  5
1122
330
107A
100
AcDbEntity
  8
1
  6
Continuous
100
AcDbLine
 10
162.9002549999999
 20
73.88981599999998
 30
0.0
 11
163.100255
 21
73.925588
 31
0.0
  0
ARC
  5
1123
330
107A
100
AcDbEntity
  8
1
  6
Continuous
100
AcDbCircle
 10
163.133587
 20
79.29410699999998
 30
0.0
 40
1.034086999999998
100
AcDbArc
 50
256.9594719999999
 51
268.15285
  0
ARC
  5
1124
330
107A
100
AcDbEntity
  8
1
  6
Continuous
100
AcDbCircle
 10
164.168621
 20
83.04070199999998
 30
0.0
 40
2.087164
100
AcDbArc
 50
232.57674
 51
238.919
  0
ARC
  5
1125
330
107A
100
AcDbEntity
  8
1
  6
Continuous
100
AcDbCircle
 10
163.8320249999999
 20
81.820491
 30
0.0
 40
0.9331559999999999
100
AcDbArc
 50
176.8768279999999
 51
222.819139
  0
ARC
  5
1126
330
107A
100
AcDbEntity
  8
1
  6
Continuous
100
AcDbCircle
 10
163.8424029999999
 20
80.78948699999996
 30
0.0
 40
0.9435539999999999
100
AcDbArc
 50
183.1282459999999
 51
218.13617
  0
ARC
  5
1127
330
107A
100
AcDbEntity
  8
1
  6
Continuous
100
AcDbCircle
 10
161.9672079999999
 20
76.00648000000003
 30
0.0
 40
0.94214
100
AcDbArc
 50
352.0331939999999
 51
7.966790999999997
  0
LINE
  5
1128
330
107A
100
AcDbEntity
  8
1
  6
Continuous
100
AcDbLine
 10
162.100255
 20
83.79385699999998
 30
0.0
 11
162.9002549999999
 21
83.79385699999998
 31
0.0
  0
LINE
  5
1129
330
107A
100
AcDbEntity
  8
1
  6
Continuous
100
AcDbLine
 10
162.100255
 20
70.79385699999997
 30
0.0
 11
162.9002549999999
 21
70.79385699999997
 31
0.0
  0
LINE
  5
112A
330
107A
100
AcDbEntity
  8
1
  6
Continuous
100
AcDbLine
 10
162.9002549999999
 20
70.79385699999997
 30
0.0
 11
162.9002549999999
 21
83.79385699999998
 31
0.0
  0
LINE
  5
112B
330
107A
100
AcDbEntity
  8
1
  6
Continuous
100
AcDbLine
 10
162.100255
 20
70.79385699999997
 30
0.0
 11
162.100255
 21
83.79385699999998
 31
0.0
  0
LINE
  5
112C
330
107A
100
AcDbEntity
  8
1
  6
Continuous
100
AcDbLine
 10
159.600256
 20
82.26885699999998
 30
0.0
 11
159.600256
 21
72.31885699999998
 31
0.0
  0
LINE
  5
112D
330
107A
100
AcDbEntity
  8
1
  6
Continuous
100
AcDbLine
 10
165.900256
 20
73.79385699999999
 30
0.0
 11
165.900256
 21
80.79385700000001
 31
0.0
  0
LINE
  5
112E
330
107A
100
AcDbEntity
  8
1
  6
Continuous
100
AcDbLine
 10
165.900256
 20
73.79385699999999
 30
0.0
 11
166.400256
 21
74.29385699999999
 31
0.0
  0
LINE
  5
112F
330
107A
100
AcDbEntity
  8
2
  6
Continuous
100
AcDbLine
 10
162.100255
 20
80.493857
 30
0.0
 11
161.9002549999999
 21
80.493857
 31
0.0
  0
LINE
  5
1130
330
107A
100
AcDbEntity
  8
1
  6
Continuous
100
AcDbLine
 10
163.100255
 20
80.493857
 30
0.0
 11
162.946358
 21
80.493857
 31
0.0
  0
LINE
  5
1131
330
107A
100
AcDbEntity
  8
1
  6
Continuous
100
AcDbLine
 10
165.900256
 20
73.79385699999999
 30
0.0
 11
165.100255
 21
73.79385699999999
 31
0.0
  0
LINE
  5
1132
330
107A
100
AcDbEntity
  8
1
  6
Continuous
100
AcDbLine
 10
165.900256
 20
80.79385700000001
 30
0.0
 11
165.100255
 21
80.79385700000001
 31
0.0
  0
LINE
  5
1133
330
107A
100
AcDbEntity
  8
1
  6
Continuous
100
AcDbLine
 10
163.100255
 20
74.40359699999998
 30
0.0
 11
163.100255
 21
80.184118
 31
0.0
  0
LINE
  5
1134
330
107A
100
AcDbEntity
  8
1
  6
Continuous
100
AcDbLine
 10
165.100255
 20
74.093857
 30
0.0
 11
165.100255
 21
80.493857
 31
0.0
  0
LINE
  5
1135
330
107A
100
AcDbEntity
  8
1
  6
Continuous
100
AcDbLine
 10
165.900256
 20
80.79385700000001
 30
0.0
 11
166.400256
 21
80.29385699999997
 31
0.0
  0
LINE
  5
1136
330
107A
100
AcDbEntity
  8
1
  6
Continuous
100
AcDbLine
 10
166.400256
 20
80.29385699999997
 30
0.0
 11
166.400256
 21
74.29385699999999
 31
0.0
  0
ARC
  5
1137
330
107A
100
AcDbEntity
  8
1
  6
Continuous
100
AcDbCircle
 10
206.4440559999999
 20
65.96809799999999
 30
0.0
 40
0.6
100
AcDbArc
 50
170.8274759999999
 51
180.0
  0
ARC
  5
1138
330
107A
100
AcDbEntity
  8
1
  6
Continuous
100
AcDbCircle
 10
206.4440559999999
 20
65.96809799999999
 30
0.0
 40
0.6
100
AcDbArc
 50
170.8274759999999
 51
180.0
  0
LINE
  5
1139
330
107A
100
AcDbEntity
  8
1
  6
Continuous
100
AcDbLine
 10
206.4440559999999
 20
60.96809799999999
 30
0.0
 11
205.844056
 21
60.96809799999999
 31
0.0
  0
LINE
  5
113A
330
107A
100
AcDbEntity
  8
1
  6
Continuous
100
AcDbLine
 10
206.4440559999999
 20
65.96809799999999
 30
0.0
 11
206.4440559999999
 21
60.96809799999999
 31
0.0
  0
LINE
  5
113B
330
107A
100
AcDbEntity
  8
1
  6
Continuous
100
AcDbLine
 10
205.844056
 20
60.96809799999999
 30
0.0
 11
205.844056
 21
65.96809799999999
 31
0.0
  0
LINE
  5
113C
330
107A
100
AcDbEntity
  8
4
  6
CENTER
100
AcDbLine
 10
201.752571
 20
77.29385699999999
 30
0.0
 11
216.3440629999998
 21
77.29385699999999
 31
0.0
  0
LINE
  5
113D
330
107A
100
AcDbEntity
  8
1
  6
Continuous
100
AcDbLine
 10
159.600256
 20
152.200498
 30
0.0
 11
158.600256
 21
152.200498
 31
0.0
  0
LINE
  5
113E
330
107A
100
AcDbEntity
  8
1
  6
Continuous
100
AcDbLine
 10
159.600256
 20
162.150498
 30
0.0
 11
158.600256
 21
162.150498
 31
0.0
  0
LINE
  5
113F
330
107A
100
AcDbEntity
  8
4
  6
CENTER
100
AcDbLine
 10
134.7181179999997
 20
157.175498
 30
0.0
 11
171.400256
 21
157.175498
 31
0.0
  0
LINE
  5
1140
330
107A
100
AcDbEntity
  8
2
  6
Continuous
100
AcDbLine
 10
142.2002559999999
 20
161.6128389999998
 30
0.0
 11
154.500256
 21
152.738156
 31
0.0
  0
LINE
  5
1141
330
107A
100
AcDbEntity
  8
2
  6
Continuous
100
AcDbLine
 10
154.500256
 20
161.6128389999998
 30
0.0
 11
142.2002559999999
 21
152.738156
 31
0.0
  0
LINE
  5
1142
330
107A
100
AcDbEntity
  8
1
  6
Continuous
100
AcDbLine
 10
158.600256
 20
162.150498
 30
0.0
 11
158.600256
 21
152.200498
 31
0.0
  0
LINE
  5
1143
330
107A
100
AcDbEntity
  8
1
  6
Continuous
100
AcDbLine
 10
155.500256
 20
155.8754979999999
 30
0.0
 11
155.500256
 21
148.675498
 31
0.0
  0
LINE
  5
1144
330
107A
100
AcDbEntity
  8
1
  6
Continuous
100
AcDbLine
 10
157.250256
 20
165.675498
 30
0.0
 11
157.250256
 21
148.675498
 31
0.0
  0
LINE
  5
1145
330
107A
100
AcDbEntity
  8
1
  6
Continuous
100
AcDbLine
 10
142.2002559999999
 20
168.175498
 30
0.0
 11
142.2002559999999
 21
146.175498
 31
0.0
  0
LINE
  5
1146
330
107A
100
AcDbEntity
  8
1
  6
Continuous
100
AcDbLine
 10
157.750256
 20
165.1754979999998
 30
0.0
 11
157.750256
 21
149.175498
 31
0.0
  0
LINE
  5
1147
330
107A
100
AcDbEntity
  8
1
  6
Continuous
100
AcDbLine
 10
142.700256
 20
148.9754979999998
 30
0.0
 11
145.700256
 21
148.9754979999998
 31
0.0
  0
LINE
  5
1148
330
107A
100
AcDbEntity
  8
1
  6
Continuous
100
AcDbLine
 10
142.2002559999999
 20
152.738156
 30
0.0
 11
154.500256
 21
152.738156
 31
0.0
  0
LINE
  5
1149
330
107A
100
AcDbEntity
  8
1
  6
Continuous
100
AcDbLine
 10
142.700256
 20
147.739397
 30
0.0
 11
142.2002559999999
 21
147.739397
 31
0.0
  0
LINE
  5
114A
330
107A
100
AcDbEntity
  8
1
  6
Continuous
100
AcDbLine
 10
142.700256
 20
148.9754979999998
 30
0.0
 11
142.700256
 21
147.739397
 31
0.0
  0
LINE
  5
114B
330
107A
100
AcDbEntity
  8
2
  6
Continuous
100
AcDbLine
 10
145.700256
 20
148.2169979999999
 30
0.0
 11
155.0417559999999
 21
148.2169979999999
 31
0.0
  0
LINE
  5
114C
330
107A
100
AcDbEntity
  8
1
  6
Continuous
100
AcDbLine
 10
145.700256
 20
148.9754979999998
 30
0.0
 11
145.700256
 21
147.739397
 31
0.0
  0
ARC
  5
114D
330
107A
100
AcDbEntity
  8
1
  6
Continuous
100
AcDbCircle
 10
158.1819519999999
 20
152.3071939999999
 30
0.0
 40
0.4316970000000003
100
AcDbArc
 50
180.0
 51
14.30930499999999
  0
LINE
  5
114E
330
107A
100
AcDbEntity
  8
1
  6
Continuous
100
AcDbLine
 10
154.564155
 20
147.739397
 30
0.0
 11
145.700256
 21
147.739397
 31
0.0
  0
LINE
  5
114F
330
107A
100
AcDbEntity
  8
1
  6
Continuous
100
AcDbLine
 10
154.500256
 20
152.738156
 30
0.0
 11
154.500256
 21
147.739397
 31
0.0
  0
LINE
  5
1150
330
107A
100
AcDbEntity
  8
1
  6
Continuous
100
AcDbLine
 10
155.500256
 20
153.738156
 30
0.0
 11
154.500256
 21
152.738156
 31
0.0
  0
LINE
  5
1151
330
107A
100
AcDbEntity
  8
1
  6
Continuous
100
AcDbLine
 10
157.750256
 20
149.175498
 30
0.0
 11
157.250256
 21
148.675498
 31
0.0
  0
LINE
  5
1152
330
107A
100
AcDbEntity
  8
1
  6
Continuous
100
AcDbLine
 10
155.500256
 20
148.675498
 30
0.0
 11
154.564155
 21
147.739397
 31
0.0
  0
LINE
  5
1153
330
107A
100
AcDbEntity
  8
1
  6
Continuous
100
AcDbLine
 10
155.500256
 20
148.675498
 30
0.0
 11
157.250256
 21
148.675498
 31
0.0
  0
LINE
  5
1154
330
107A
100
AcDbEntity
  8
1
  6
Continuous
100
AcDbLine
 10
142.700256
 20
165.3754979999999
 30
0.0
 11
145.700256
 21
165.3754979999999
 31
0.0
  0
LINE
  5
1155
330
107A
100
AcDbEntity
  8
1
  6
Continuous
100
AcDbLine
 10
142.2002559999999
 20
161.6128389999998
 30
0.0
 11
154.500256
 21
161.6128389999998
 31
0.0
  0
LINE
  5
1156
330
107A
100
AcDbEntity
  8
1
  6
Continuous
100
AcDbLine
 10
142.2002559999999
 20
166.675498
 30
0.0
 11
142.700256
 21
166.675498
 31
0.0
  0
LINE
  5
1157
330
107A
100
AcDbEntity
  8
1
  6
Continuous
100
AcDbLine
 10
142.700256
 20
166.675498
 30
0.0
 11
142.700256
 21
165.3754979999999
 31
0.0
  0
LINE
  5
1158
330
107A
100
AcDbEntity
  8
2
  6
Continuous
100
AcDbLine
 10
145.700256
 20
166.1339979999999
 30
0.0
 11
155.0417559999999
 21
166.1339979999999
 31
0.0
  0
LINE
  5
1159
330
107A
100
AcDbEntity
  8
1
  6
Continuous
100
AcDbLine
 10
145.700256
 20
166.675498
 30
0.0
 11
145.700256
 21
165.3754979999999
 31
0.0
  0
ARC
  5
115A
330
107A
100
AcDbEntity
  8
1
  6
Continuous
100
AcDbCircle
 10
158.1752559999999
 20
162.0504979999998
 30
0.0
 40
0.425
100
AcDbArc
 50
0.0
 51
180.0
  0
LINE
  5
115B
330
107A
100
AcDbEntity
  8
1
  6
Continuous
100
AcDbLine
 10
155.500256
 20
155.8754979999999
 30
0.0
 11
157.250256
 21
155.8754979999999
 31
0.0
  0
LINE
  5
115C
330
107A
100
AcDbEntity
  8
1
  6
Continuous
100
AcDbLine
 10
155.500256
 20
158.4754979999999
 30
0.0
 11
157.250256
 21
158.4754979999999
 31
0.0
  0
LINE
  5
115D
330
107A
100
AcDbEntity
  8
1
  6
Continuous
100
AcDbLine
 10
155.500256
 20
160.6128389999998
 30
0.0
 11
154.500256
 21
161.6128389999998
 31
0.0
  0
LINE
  5
115E
330
107A
100
AcDbEntity
  8
1
  6
Continuous
100
AcDbLine
 10
145.700256
 20
166.675498
 30
0.0
 11
154.500256
 21
166.675498
 31
0.0
  0
LINE
  5
115F
330
107A
100
AcDbEntity
  8
1
  6
Continuous
100
AcDbLine
 10
154.500256
 20
166.675498
 30
0.0
 11
154.500256
 21
161.6128389999998
 31
0.0
  0
LINE
  5
1160
330
107A
100
AcDbEntity
  8
1
  6
Continuous
100
AcDbLine
 10
157.750256
 20
165.1754979999998
 30
0.0
 11
157.250256
 21
165.675498
 31
0.0
  0
LINE
  5
1161
330
107A
100
AcDbEntity
  8
1
  6
Continuous
100
AcDbLine
 10
155.500256
 20
165.675498
 30
0.0
 11
154.500256
 21
166.675498
 31
0.0
  0
LINE
  5
1162
330
107A
100
AcDbEntity
  8
1
  6
Continuous
100
AcDbLine
 10
155.500256
 20
165.675498
 30
0.0
 11
155.500256
 21
158.4754979999999
 31
0.0
  0
LINE
  5
1163
330
107A
100
AcDbEntity
  8
1
  6
Continuous
100
AcDbLine
 10
155.500256
 20
165.675498
 30
0.0
 11
157.250256
 21
165.675498
 31
0.0
  0
LINE
  5
1164
330
107A
100
AcDbEntity
  8
1
  6
Continuous
100
AcDbLine
 10
159.600255
 20
147.675498
 30
0.0
 11
159.600255
 21
166.675498
 31
0.0
  0
ARC
  5
1165
330
107A
100
AcDbEntity
  8
1
  6
Continuous
100
AcDbCircle
 10
146.9511289999998
 20
157.175498
 30
0.0
 40
18.149127
100
AcDbArc
 50
349.9234969999998
 51
10.076503
  0
ARC
  5
1166
330
107A
100
AcDbEntity
  8
1
  6
Continuous
100
AcDbCircle
 10
181.249382
 20
157.175498
 30
0.0
 40
18.149127
100
AcDbArc
 50
169.923497
 51
190.076503
  0
LINE
  5
1167
330
107A
100
AcDbEntity
  8
1
  6
Continuous
100
AcDbLine
 10
163.100255
 20
152.412785
 30
0.0
 11
163.100255
 21
161.9382099999999
 31
0.0
  0
LINE
  5
1168
330
107A
100
AcDbEntity
  8
1
  6
Continuous
100
AcDbLine
 10
165.100255
 20
152.412785
 30
0.0
 11
165.100255
 21
161.9382099999999
 31
0.0
  0
LINE
  5
1169
330
107A
100
AcDbEntity
  8
1
  6
Continuous
100
AcDbLine
 10
162.9002549999999
 20
150.675498
 30
0.0
 11
162.9002549999999
 21
163.675498
 31
0.0
  0
LINE
  5
116A
330
107A
100
AcDbEntity
  8
1
  6
Continuous
100
AcDbLine
 10
162.100255
 20
150.675498
 30
0.0
 11
162.100255
 21
163.675498
 31
0.0
  0
LINE
  5
116B
330
107A
100
AcDbEntity
  8
1
  6
Continuous
100
AcDbLine
 10
161.9002549999999
 20
147.675498
 30
0.0
 11
161.9002549999999
 21
166.675498
 31
0.0
  0
LINE
  5
116C
330
107A
100
AcDbEntity
  8
1
  6
Continuous
100
AcDbLine
 10
166.400256
 20
154.175498
 30
0.0
 11
165.900256
 21
153.6754979999998
 31
0.0
  0
LINE
  5
116D
330
107A
100
AcDbEntity
  8
1
  6
Continuous
100
AcDbLine
 10
165.900256
 20
160.675498
 30
0.0
 11
165.900256
 21
153.6754979999998
 31
0.0
  0
LINE
  5
116E
330
107A
100
AcDbEntity
  8
1
  6
Continuous
100
AcDbLine
 10
159.600255
 20
147.675498
 30
0.0
 11
161.9002549999999
 21
147.675498
 31
0.0
  0
LINE
  5
116F
330
107A
100
AcDbEntity
  8
1
  6
Continuous
100
AcDbLine
 10
165.900256
 20
153.6754979999998
 30
0.0
 11
165.100255
 21
153.6754979999998
 31
0.0
  0
LINE
  5
1170
330
107A
100
AcDbEntity
  8
1
  6
Continuous
100
AcDbLine
 10
163.100255
 20
153.6754979999998
 30
0.0
 11
163.0476889999999
 21
153.6754979999998
 31
0.0
  0
ARC
  5
1171
330
107A
100
AcDbEntity
  8
1
  6
Continuous
100
AcDbCircle
 10
160.460403
 20
152.412785
 30
0.0
 40
4.639852999999998
100
AcDbArc
 50
339.995212
 51
20.004788
  0
ARC
  5
1172
330
107A
100
AcDbEntity
  8
1
  6
Continuous
100
AcDbCircle
 10
167.7401079999999
 20
152.412785
 30
0.0
 40
4.639852999999998
100
AcDbArc
 50
159.995212
 51
200.0047879999999
  0
LINE
  5
1173
330
107A
100
AcDbEntity
  8
1
  6
Continuous
100
AcDbLine
 10
163.3802049999999
 20
154.0000729999999
 30
0.0
 11
164.820305
 21
154.0000729999999
 31
0.0
  0
LINE
  5
1174
330
107A
100
AcDbEntity
  8
1
  6
Continuous
100
AcDbLine
 10
163.3802049999999
 20
150.825498
 30
0.0
 11
164.820305
 21
150.825498
 31
0.0
  0
ARC
  5
1175
330
107A
100
AcDbEntity
  8
1
  6
Continuous
100
AcDbCircle
 10
163.679347
 20
152.874624
 30
0.0
 40
1.019995999999999
100
AcDbArc
 50
124.592743
 51
139.802011
  0
LINE
  5
1176
330
107A
100
AcDbEntity
  8
1
  6
Continuous
100
AcDbLine
 10
162.9002549999999
 20
153.771457
 30
0.0
 11
163.100255
 21
153.807229
 31
0.0
  0
ARC
  5
1177
330
107A
100
AcDbEntity
  8
1
  6
Continuous
100
AcDbCircle
 10
161.06341
 20
151.73668
 30
0.0
 40
1.837066999999997
100
AcDbArc
 50
55.63918199999999
 51
62.90075400000001
  0
LINE
  5
1178
330
107A
100
AcDbEntity
  8
1
  6
Continuous
100
AcDbLine
 10
161.9002549999999
 20
153.977768
 30
0.0
 11
162.100255
 21
154.0135409999998
 31
0.0
  0
LINE
  5
1179
330
107A
100
AcDbEntity
  8
1
  6
Continuous
100
AcDbLine
 10
161.9002549999999
 20
153.592595
 30
0.0
 11
162.100255
 21
153.6283679999999
 31
0.0
  0
LINE
  5
117A
330
107A
100
AcDbEntity
  8
1
  6
Continuous
100
AcDbLine
 10
162.100255
 20
150.675498
 30
0.0
 11
162.9002549999999
 21
150.675498
 31
0.0
  0
LINE
  5
117B
330
107A
100
AcDbEntity
  8
2
  6
Continuous
100
AcDbLine
 10
165.100255
 20
154.081498
 30
0.0
 11
166.306256
 21
154.081498
 31
0.0
  0
LINE
  5
117C
330
107A
100
AcDbEntity
  8
2
  6
Continuous
100
AcDbLine
 10
165.100255
 20
160.269498
 30
0.0
 11
166.306256
 21
160.269498
 31
0.0
  0
LINE
  5
117D
330
107A
100
AcDbEntity
  8
1
  6
Continuous
100
AcDbLine
 10
159.600255
 20
166.675498
 30
0.0
 11
161.9002549999999
 21
166.675498
 31
0.0
  0
LINE
  5
117E
330
107A
100
AcDbEntity
  8
2
  6
Continuous
100
AcDbLine
 10
163.100255
 20
160.3754979999999
 30
0.0
 11
162.9002549999999
 21
160.3754979999999
 31
0.0
  0
LINE
  5
117F
330
107A
100
AcDbEntity
  8
2
  6
Continuous
100
AcDbLine
 10
162.100255
 20
160.3754979999999
 30
0.0
 11
161.9002549999999
 21
160.3754979999999
 31
0.0
  0
LINE
  5
1180
330
107A
100
AcDbEntity
  8
1
  6
Continuous
100
AcDbLine
 10
165.900256
 20
160.675498
 30
0.0
 11
165.100255
 21
160.675498
 31
0.0
  0
LINE
  5
1181
330
107A
100
AcDbEntity
  8
1
  6
Continuous
100
AcDbLine
 10
163.100255
 20
160.675498
 30
0.0
 11
162.9002549999999
 21
160.675498
 31
0.0
  0
LINE
  5
1182
330
107A
100
AcDbEntity
  8
1
  6
Continuous
100
AcDbLine
 10
161.9002549999999
 20
154.675498
 30
0.0
 11
161.9360429999999
 21
154.675498
 31
0.0
  0
ARC
  5
1183
330
107A
100
AcDbEntity
  8
1
  6
Continuous
100
AcDbCircle
 10
160.460403
 20
161.9382099999999
 30
0.0
 40
4.639852999999998
100
AcDbArc
 50
339.995212
 51
20.004788
  0
ARC
  5
1184
330
107A
100
AcDbEntity
  8
1
  6
Continuous
100
AcDbCircle
 10
167.7401079999999
 20
161.9382099999999
 30
0.0
 40
4.639852999999998
100
AcDbArc
 50
159.995212
 51
200.0047879999999
  0
LINE
  5
1185
330
107A
100
AcDbEntity
  8
1
  6
Continuous
100
AcDbLine
 10
163.3802049999999
 20
160.350923
 30
0.0
 11
164.820305
 21
160.350923
 31
0.0
  0
LINE
  5
1186
330
107A
100
AcDbEntity
  8
1
  6
Continuous
100
AcDbLine
 10
163.3802049999999
 20
163.525498
 30
0.0
 11
164.820305
 21
163.525498
 31
0.0
  0
LINE
  5
1187
330
107A
100
AcDbEntity
  8
1
  6
Continuous
100
AcDbLine
 10
162.9002549999999
 20
161.1006769999999
 30
0.0
 11
163.091124
 21
161.134816
 31
0.0
  0
LINE
  5
1188
330
107A
100
AcDbEntity
  8
1
  6
Continuous
100
AcDbLine
 10
162.9002549999999
 20
160.7226279999999
 30
0.0
 11
163.100255
 21
160.7583999999999
 31
0.0
  0
LINE
  5
1189
330
107A
100
AcDbEntity
  8
1
  6
Continuous
100
AcDbLine
 10
162.9002549999999
 20
159.972106
 30
0.0
 11
163.113503
 21
160.071962
 31
0.0
  0
LINE
  5
118A
330
107A
100
AcDbEntity
  8
1
  6
Continuous
100
AcDbLine
 10
162.9002549999999
 20
159.5108339999999
 30
0.0
 11
163.100255
 21
159.604487
 31
0.0
  0
LINE
  5
118B
330
107A
100
AcDbEntity
  8
1
  6
Continuous
100
AcDbLine
 10
162.9002549999999
 20
157.934402
 30
0.0
 11
163.100255
 21
158.050163
 31
0.0
  0
LINE
  5
118C
330
107A
100
AcDbEntity
  8
1
  6
Continuous
100
AcDbLine
 10
162.9002549999999
 20
157.0100579999999
 30
0.0
 11
163.100255
 21
157.1258189999998
 31
0.0
  0
LINE
  5
118D
330
107A
100
AcDbEntity
  8
1
  6
Continuous
100
AcDbLine
 10
162.9002549999999
 20
155.757541
 30
0.0
 11
163.1043679999999
 21
155.85312
 31
0.0
  0
LINE
  5
118E
330
107A
100
AcDbEntity
  8
1
  6
Continuous
100
AcDbLine
 10
162.9002549999999
 20
155.127005
 30
0.0
 11
163.100255
 21
155.220658
 31
0.0
  0
LINE
  5
118F
330
107A
100
AcDbEntity
  8
1
  6
Continuous
100
AcDbLine
 10
162.9002549999999
 20
154.15663
 30
0.0
 11
163.100255
 21
154.1924019999999
 31
0.0
  0
ARC
  5
1190
330
107A
100
AcDbEntity
  8
1
  6
Continuous
100
AcDbCircle
 10
163.133587
 20
159.175748
 30
0.0
 40
1.034086999999998
100
AcDbArc
 50
256.9594719999999
 51
268.15285
  0
ARC
  5
1191
330
107A
100
AcDbEntity
  8
1
  6
Continuous
100
AcDbCircle
 10
159.6926879999998
 20
162.451991
 30
0.0
 40
2.415121
100
AcDbArc
 50
336.072673
 51
355.4671649999999
  0
ARC
  5
1192
330
107A
100
AcDbEntity
  8
1
  6
Continuous
100
AcDbCircle
 10
164.168621
 20
162.9223429999998
 30
0.0
 40
2.087164
100
AcDbArc
 50
232.57674
 51
238.919
  0
ARC
  5
1193
330
107A
100
AcDbEntity
  8
1
  6
Continuous
100
AcDbCircle
 10
163.8320249999999
 20
161.702132
 30
0.0
 40
0.9331559999999999
100
AcDbArc
 50
176.8768279999999
 51
218.3543339999999
  0
ARC
  5
1194
330
107A
100
AcDbEntity
  8
1
  6
Continuous
100
AcDbCircle
 10
163.8424029999999
 20
160.671128
 30
0.0
 40
0.9435539999999999
100
AcDbArc
 50
183.1282459999999
 51
218.13617
  0
ARC
  5
1195
330
107A
100
AcDbEntity
  8
1
  6
Continuous
100
AcDbCircle
 10
160.878918
 20
160.385725
 30
0.0
 40
1.236618999999999
100
AcDbArc
 50
325.680942
 51
350.9830839999998
  0
ARC
  5
1196
330
107A
100
AcDbEntity
  8
1
  6
Continuous
100
AcDbCircle
 10
157.8130569999999
 20
155.333085
 30
0.0
 40
4.287487999999997
100
AcDbArc
 50
0.0
 51
17.127635
  0
ARC
  5
1197
330
107A
100
AcDbEntity
  8
1
  6
Continuous
100
AcDbCircle
 10
161.9672079999999
 20
155.8881209999999
 30
0.0
 40
0.94214
100
AcDbArc
 50
352.0331939999999
 51
7.966790999999997
  0
LINE
  5
1198
330
107A
100
AcDbEntity
  8
1
  6
Continuous
100
AcDbLine
 10
161.9002549999999
 20
156.6133649999999
 30
0.0
 11
161.978933
 21
156.4767899999999
 31
0.0
  0
ARC
  5
1199
330
107A
100
AcDbEntity
  8
1
  6
Continuous
100
AcDbCircle
 10
161.0345079999999
 20
151.6825199999999
 30
0.0
 40
3.098745999999998
100
AcDbArc
 50
69.88360899999999
 51
73.798466
  0
LINE
  5
119A
330
107A
100
AcDbEntity
  8
1
  6
Continuous
100
AcDbLine
 10
161.9002549999999
 20
160.9218149999998
 30
0.0
 11
162.100255
 21
160.9575879999999
 31
0.0
  0
LINE
  5
119B
330
107A
100
AcDbEntity
  8
1
  6
Continuous
100
AcDbLine
 10
161.9002549999999
 20
159.5038409999999
 30
0.0
 11
162.100255
 21
159.5974939999998
 31
0.0
  0
LINE
  5
119C
330
107A
100
AcDbEntity
  8
1
  6
Continuous
100
AcDbLine
 10
161.9002549999999
 20
157.355594
 30
0.0
 11
162.100255
 21
157.471356
 31
0.0
  0
LINE
  5
119D
330
107A
100
AcDbEntity
  8
1
  6
Continuous
100
AcDbLine
 10
161.9002549999999
 20
155.2892749999998
 30
0.0
 11
162.100255
 21
155.3829289999999
 31
0.0
  0
LINE
  5
119E
330
107A
100
AcDbEntity
  8
1
  6
Continuous
100
AcDbLine
 10
161.9002549999999
 20
160.5437659999998
 30
0.0
 11
162.100255
 21
160.5795389999999
 31
0.0
  0
LINE
  5
119F
330
107A
100
AcDbEntity
  8
1
  6
Continuous
100
AcDbLine
 10
161.9002549999999
 20
159.042569
 30
0.0
 11
162.100255
 21
159.136222
 31
0.0
  0
LINE
  5
11A0
330
107A
100
AcDbEntity
  8
1
  6
Continuous
100
AcDbLine
 10
161.978933
 20
156.4767899999999
 30
0.0
 11
162.100255
 21
156.547012
 31
0.0
  0
LINE
  5
11A1
330
107A
100
AcDbEntity
  8
1
  6
Continuous
100
AcDbLine
 10
161.899111
 20
154.658204
 30
0.0
 11
162.100255
 21
154.7523929999998
 31
0.0
  0
LINE
  5
11A2
330
107A
100
AcDbEntity
  8
1
  6
Continuous
100
AcDbLine
 10
162.100255
 20
163.675498
 30
0.0
 11
162.9002549999999
 21
163.675498
 31
0.0
  0
LINE
  5
11A3
330
107A
100
AcDbEntity
  8
1
  6
Continuous
100
AcDbLine
 10
165.900256
 20
160.675498
 30
0.0
 11
166.400256
 21
160.175498
 31
0.0
  0
LINE
  5
11A4
330
107A
100
AcDbEntity
  8
1
  6
Continuous
100
AcDbLine
 10
166.400256
 20
160.175498
 30
0.0
 11
166.400256
 21
154.175498
 31
0.0
  0
LINE
  5
11A5
330
107A
100
AcDbEntity
  8
1
  6
Continuous
100
AcDbLine
 10
211.3440559999999
 20
93.49385699999999
 30
0.0
 11
206.4440559999999
 21
93.49385699999999
 31
0.0
  0
LINE
  5
11A6
330
107A
100
AcDbEntity
  8
1
  6
Continuous
100
AcDbLine
 10
211.3440559999999
 20
92.893857
 30
0.0
 11
206.4440559999999
 21
92.893857
 31
0.0
  0
ARC
  5
11A7
330
107A
100
AcDbEntity
  8
1
  6
Continuous
100
AcDbCircle
 10
206.4440559999999
 20
88.61961499999997
 30
0.0
 40
0.6
100
AcDbArc
 50
180.0
 51
189.1725239999999
  0
ARC
  5
11A8
330
107A
100
AcDbEntity
  8
1
  6
Continuous
100
AcDbCircle
 10
206.4440559999999
 20
92.893857
 30
0.0
 40
0.6
100
AcDbArc
 50
90.0
 51
180.0
  0
ARC
  5
11A9
330
107A
100
AcDbEntity
  8
1
  6
Continuous
100
AcDbCircle
 10
206.4440559999999
 20
88.61961499999997
 30
0.0
 40
0.6
100
AcDbArc
 50
180.0
 51
189.1725239999999
  0
LINE
  5
11AA
330
107A
100
AcDbEntity
  8
1
  6
Continuous
100
AcDbLine
 10
205.844056
 20
92.893857
 30
0.0
 11
205.844056
 21
88.61961499999997
 31
0.0
  0
LINE
  5
11AB
330
107A
100
AcDbEntity
  8
1
  6
Continuous
100
AcDbLine
 10
206.4440559999999
 20
92.893857
 30
0.0
 11
206.4440559999999
 21
88.61961499999997
 31
0.0
  0
LINE
  5
11AC
330
107A
100
AcDbEntity
  8
1
  6
Continuous
100
AcDbLine
 10
211.3440559999999
 20
93.49385699999999
 30
0.0
 11
211.3440559999999
 21
92.893857
 31
0.0
  0
LINE
  5
11AD
330
107A
100
AcDbEntity
  8
1
  6
Continuous
100
AcDbLine
 10
211.3440629999999
 20
150.925498
 30
0.0
 11
211.3440629999999
 21
163.425498
 31
0.0
  0
LINE
  5
11AE
330
107A
100
AcDbEntity
  8
1
  6
Continuous
100
AcDbLine
 10
205.8440629999998
 20
144.425498
 30
0.0
 11
205.8440629999998
 21
169.925498
 31
0.0
  0
LINE
  5
11AF
330
107A
100
AcDbEntity
  8
1
  6
Continuous
100
AcDbLine
 10
206.4440629999999
 20
150.925498
 30
0.0
 11
211.3440629999999
 21
150.925498
 31
0.0
  0
LINE
  5
11B0
330
107A
100
AcDbEntity
  8
1
  6
Continuous
100
AcDbLine
 10
206.4440629999999
 20
148.9754979999998
 30
0.0
 11
207.3440629999999
 21
148.9754979999998
 31
0.0
  0
LINE
  5
11B1
330
107A
100
AcDbEntity
  8
1
  6
Continuous
100
AcDbLine
 10
206.4440629999999
 20
144.425498
 30
0.0
 11
206.4440629999999
 21
150.925498
 31
0.0
  0
LINE
  5
11B2
330
107A
100
AcDbEntity
  8
1
  6
Continuous
100
AcDbLine
 10
205.8440629999998
 20
144.425498
 30
0.0
 11
207.3440629999999
 21
144.425498
 31
0.0
  0
LINE
  5
11B3
330
107A
100
AcDbEntity
  8
1
  6
Continuous
100
AcDbLine
 10
207.3440629999999
 20
148.9754979999998
 30
0.0
 11
207.3440629999999
 21
144.425498
 31
0.0
  0
LINE
  5
11B4
330
107A
100
AcDbEntity
  8
4
  6
CENTER
100
AcDbLine
 10
200.8440629999999
 20
157.175498
 30
0.0
 11
216.3440629999998
 21
157.175498
 31
0.0
  0
LINE
  5
11B5
330
107A
100
AcDbEntity
  8
1
  6
Continuous
100
AcDbLine
 10
206.4440629999999
 20
163.425498
 30
0.0
 11
211.3440629999999
 21
163.425498
 31
0.0
  0
LINE
  5
11B6
330
107A
100
AcDbEntity
  8
1
  6
Continuous
100
AcDbLine
 10
206.4440629999999
 20
165.3754979999999
 30
0.0
 11
207.3440629999999
 21
165.3754979999999
 31
0.0
  0
LINE
  5
11B7
330
107A
100
AcDbEntity
  8
1
  6
Continuous
100
AcDbLine
 10
206.4440629999999
 20
163.425498
 30
0.0
 11
206.4440629999999
 21
169.925498
 31
0.0
  0
LINE
  5
11B8
330
107A
100
AcDbEntity
  8
1
  6
Continuous
100
AcDbLine
 10
205.8440629999998
 20
169.925498
 30
0.0
 11
207.3440629999999
 21
169.925498
 31
0.0
  0
LINE
  5
11B9
330
107A
100
AcDbEntity
  8
1
  6
Continuous
100
AcDbLine
 10
207.3440629999999
 20
169.925498
 30
0.0
 11
207.3440629999999
 21
165.3754979999999
 31
0.0
  0
LINE
  5
11BA
330
107A
100
AcDbEntity
  8
1
  6
Continuous
100
AcDbLine
 10
66.442787
 20
236.409453
 30
0.0
 11
62.58870899999998
 21
233.1754979999999
 31
0.0
  0
LINE
  5
11BB
330
107A
100
AcDbEntity
  8
1
  6
Continuous
100
AcDbLine
 10
44.175102
 20
235.9754979999999
 30
0.0
 11
65.92561899999998
 21
235.9754979999999
 31
0.0
  0
LINE
  5
11BC
330
107A
100
AcDbEntity
  8
1
  6
Continuous
100
AcDbLine
 10
66.77979499999999
 20
237.375498
 30
0.0
 11
44.175102
 21
237.375498
 31
0.0
  0
LINE
  5
11BD
330
107A
100
AcDbEntity
  8
1
  6
Continuous
100
AcDbLine
 10
44.175102
 20
239.375498
 30
0.0
 11
64.73386500000001
 21
239.375498
 31
0.0
  0
LINE
  5
11BE
330
107A
100
AcDbEntity
  8
1
  6
Continuous
100
AcDbLine
 10
66.442787
 20
237.9415419999999
 30
0.0
 11
62.58870899999998
 21
241.1754979999999
 31
0.0
  0
LINE
  5
11BF
330
107A
100
AcDbEntity
  8
4
  6
CENTER
100
AcDbLine
 10
19.99999899999998
 20
237.1754979999999
 30
0.0
 11
71.799999
 21
237.1754979999999
 31
0.0
  0
ARC
  5
11C0
330
107A
100
AcDbEntity
  8
5
  6
PHANTOM
100
AcDbCircle
 10
59.499999
 20
180.175498
 30
0.0
 40
11.5
100
AcDbArc
 50
34.301153
 51
145.6988469999998
  0
ARC
  5
11C1
330
107A
100
AcDbEntity
  8
1
  6
Continuous
100
AcDbCircle
 10
31.19999899999999
 20
242.693649
 30
0.0
 40
0.8
100
AcDbArc
 50
0.0
 51
124.552711
  0
ARC
  5
11C2
330
107A
100
AcDbEntity
  8
1
  6
Continuous
100
AcDbCircle
 10
31.19999899999999
 20
231.6573459999999
 30
0.0
 40
0.8
100
AcDbArc
 50
235.447289
 51
0.0
  0
ARC
  5
11C3
330
107A
100
AcDbEntity
  8
1
  6
Continuous
100
AcDbCircle
 10
34.99999900000001
 20
237.1754979999999
 30
0.0
 40
9.0
100
AcDbArc
 50
90.0
 51
270.0
  0
ARC
  5
11C4
330
107A
100
AcDbEntity
  8
1
  6
Continuous
100
AcDbCircle
 10
34.99999900000001
 20
237.1754979999999
 30
0.0
 40
10.0
100
AcDbArc
 50
90.0
 51
270.0
  0
ARC
  5
11C5
330
107A
100
AcDbEntity
  8
1
  6
Continuous
100
AcDbCircle
 10
34.99999900000001
 20
237.1754979999999
 30
0.0
 40
7.5
100
AcDbArc
 50
124.552711
 51
235.4507049999999
  0
ARC
  5
11C6
330
107A
100
AcDbEntity
  8
1
  6
Continuous
100
AcDbCircle
 10
47.199999
 20
241.9754979999999
 30
0.0
 40
0.3
100
AcDbArc
 50
0.0
 51
90.0
  0
LINE
  5
11C7
330
107A
100
AcDbEntity
  8
1
  6
Continuous
100
AcDbLine
 10
36.24932299999999
 20
242.8932979999999
 30
0.0
 11
36.24932299999999
 21
241.515613
 31
0.0
  0
LINE
  5
11C8
330
107A
100
AcDbEntity
  8
1
  6
Continuous
100
AcDbLine
 10
40.499999
 20
244.675498
 30
0.0
 11
40.499999
 21
229.675498
 31
0.0
  0
LINE
  5
11C9
330
107A
100
AcDbEntity
  8
1
  6
Continuous
100
AcDbLine
 10
31.99999899999999
 20
231.6573459999999
 30
0.0
 11
31.99999899999999
 21
242.693649
 31
0.0
  0
ARC
  5
11CA
330
107A
100
AcDbEntity
  8
1
  6
Continuous
100
AcDbCircle
 10
30.650615
 20
237.1754979999999
 30
0.0
 40
8.599396
100
AcDbArc
 50
324.4619999999998
 51
35.53799999999999
  0
ARC
  5
11CB
330
107A
100
AcDbEntity
  8
1
  6
Continuous
100
AcDbCircle
 10
41.849384
 20
237.1754979999999
 30
0.0
 40
8.599396
100
AcDbArc
 50
144.462
 51
215.5377
  0
ARC
  5
11CC
330
107A
100
AcDbEntity
  8
1
  6
Continuous
100
AcDbCircle
 10
47.999999
 20
241.1754979999999
 30
0.0
 40
0.5
100
AcDbArc
 50
180.0
 51
315.0
  0
ARC
  5
11CD
330
107A
100
AcDbEntity
  8
1
  6
Continuous
100
AcDbCircle
 10
47.999999
 20
233.1754979999999
 30
0.0
 40
0.5
100
AcDbArc
 50
45.0
 51
180.0
  0
LINE
  5
11CE
330
107A
100
AcDbEntity
  8
1
  6
Continuous
100
AcDbLine
 10
47.499999
 20
241.9754979999999
 30
0.0
 11
47.499999
 21
241.1754979999999
 31
0.0
  0
LINE
  5
11CF
330
107A
100
AcDbEntity
  8
1
  6
Continuous
100
AcDbLine
 10
34.37225999999999
 20
240.175821
 30
0.0
 11
35.916405
 21
240.175821
 31
0.0
  0
LINE
  5
11D0
330
107A
100
AcDbEntity
  8
1
  6
Continuous
100
AcDbLine
 10
35.916405
 20
240.8430099999999
 30
0.0
 11
34.492706
 21
240.8430099999999
 31
0.0
  0
ARC
  5
11D1
330
107A
100
AcDbEntity
  8
1
  6
Continuous
100
AcDbCircle
 10
35.916405
 20
240.5087389999999
 30
0.0
 40
0.333392
100
AcDbArc
 50
270.0
 51
90.0
  0
LINE
  5
11D2
330
107A
100
AcDbEntity
  8
1
  6
Continuous
100
AcDbLine
 10
37.497089
 20
241.181342
 30
0.0
 11
34.68758499999999
 21
241.935144
 31
0.0
  0
LINE
  5
11D3
330
107A
100
AcDbEntity
  8
1
  6
Continuous
100
AcDbLine
 10
36.24932299999999
 20
240.5087389999999
 30
0.0
 11
37.84895399999999
 21
240.5087389999999
 31
0.0
  0
LINE
  5
11D4
330
107A
100
AcDbEntity
  8
1
  6
Continuous
100
AcDbLine
 10
44.175102
 20
241.7156229999999
 30
0.0
 11
47.499999
 21
241.7156229999999
 31
0.0
  0
LINE
  5
11D5
330
107A
100
AcDbEntity
  8
1
  6
Continuous
100
AcDbLine
 10
47.499999
 20
233.1754979999999
 30
0.0
 11
47.499999
 21
232.3754979999999
 31
0.0
  0
ARC
  5
11D6
330
107A
100
AcDbEntity
  8
1
  6
Continuous
100
AcDbCircle
 10
47.199999
 20
232.3754979999999
 30
0.0
 40
0.3
100
AcDbArc
 50
270.0
 51
0.0
  0
LINE
  5
11D7
330
107A
100
AcDbEntity
  8
1
  6
Continuous
100
AcDbLine
 10
44.175102
 20
237.375498
 30
0.0
 11
44.175102
 21
235.9754979999999
 31
0.0
  0
ARC
  5
11D8
330
107A
100
AcDbEntity
  8
1
  6
Continuous
100
AcDbCircle
 10
30.650615
 20
237.1754979999999
 30
0.0
 40
7.932788
100
AcDbArc
 50
7.792999999999999
 51
10.10399999999999
  0
ARC
  5
11D9
330
107A
100
AcDbEntity
  8
1
  6
Continuous
100
AcDbCircle
 10
38.444417
 20
238.243272
 30
0.0
 40
0.066678
100
AcDbArc
 50
270.0
 51
7.792999999999999
  0
ARC
  5
11DA
330
107A
100
AcDbEntity
  8
1
  6
Continuous
100
AcDbCircle
 10
38.131799
 20
238.5098769999999
 30
0.0
 40
0.333392
100
AcDbArc
 50
10.10399999999999
 51
90.0
  0
ARC
  5
11DB
330
107A
100
AcDbEntity
  8
1
  6
Continuous
100
AcDbCircle
 10
37.98157899999999
 20
235.1766359999998
 30
0.0
 40
0.333392
100
AcDbArc
 50
270.0
 51
344.7419999999998
  0
ARC
  5
11DC
330
107A
100
AcDbEntity
  8
1
  6
Continuous
100
AcDbCircle
 10
30.650615
 20
237.1754979999999
 30
0.0
 40
7.932788
100
AcDbArc
 50
344.7419999999998
 51
344.794
  0
ARC
  5
11DD
330
107A
100
AcDbEntity
  8
1
  6
Continuous
100
AcDbCircle
 10
30.650615
 20
237.1754979999999
 30
0.0
 40
7.932788
100
AcDbArc
 50
344.794
 51
347.2709999999998
  0
ARC
  5
11DE
330
107A
100
AcDbEntity
  8
1
  6
Continuous
100
AcDbCircle
 10
38.32261799999999
 20
235.443242
 30
0.0
 40
0.066678
100
AcDbArc
 50
347.2709999999998
 51
90.0
  0
LINE
  5
11DF
330
107A
100
AcDbEntity
  8
1
  6
Continuous
100
AcDbLine
 10
38.32261799999999
 20
235.509554
 30
0.0
 11
37.04913799999999
 21
235.509554
 31
0.0
  0
LINE
  5
11E0
330
107A
100
AcDbEntity
  8
1
  6
Continuous
100
AcDbLine
 10
41.499999
 20
232.075498
 30
0.0
 11
41.499999
 21
229.675498
 31
0.0
  0
ARC
  5
11E1
330
107A
100
AcDbEntity
  8
1
  6
Continuous
100
AcDbCircle
 10
30.650615
 20
237.1754979999999
 30
0.0
 40
7.932788
100
AcDbArc
 50
333.9859999999998
 51
337.0559999999999
  0
ARC
  5
11E2
330
107A
100
AcDbEntity
  8
1
  6
Continuous
100
AcDbCircle
 10
37.479496
 20
233.8436109999999
 30
0.0
 40
0.333392
100
AcDbArc
 50
270.0
 51
333.9859999999998
  0
ARC
  5
11E3
330
107A
100
AcDbEntity
  8
1
  6
Continuous
100
AcDbCircle
 10
37.893613
 20
234.110216
 30
0.0
 40
0.066678
100
AcDbArc
 50
337.0559999999999
 51
90.0
  0
LINE
  5
11E4
330
107A
100
AcDbEntity
  8
1
  6
Continuous
100
AcDbLine
 10
35.44950699999999
 20
238.842795
 30
0.0
 11
34.3682
 21
238.842795
 31
0.0
  0
LINE
  5
11E5
330
107A
100
AcDbEntity
  8
1
  6
Continuous
100
AcDbLine
 10
35.44950699999999
 20
235.509554
 30
0.0
 11
34.17738099999999
 21
235.509554
 31
0.0
  0
ARC
  5
11E6
330
107A
100
AcDbEntity
  8
1
  6
Continuous
100
AcDbCircle
 10
41.849384
 20
237.1754979999999
 30
0.0
 40
7.932788
100
AcDbArc
 50
169.896
 51
172.2069999999999
  0
ARC
  5
11E7
330
107A
100
AcDbEntity
  8
1
  6
Continuous
100
AcDbCircle
 10
34.055582
 20
238.243272
 30
0.0
 40
0.066678
100
AcDbArc
 50
172.2069999999999
 51
270.0
  0
ARC
  5
11E8
330
107A
100
AcDbEntity
  8
1
  6
Continuous
100
AcDbCircle
 10
34.3682
 20
238.5098769999999
 30
0.0
 40
0.333392
100
AcDbArc
 50
90.0
 51
169.896
  0
ARC
  5
11E9
330
107A
100
AcDbEntity
  8
1
  6
Continuous
100
AcDbCircle
 10
34.17738099999999
 20
235.443242
 30
0.0
 40
0.066678
100
AcDbArc
 50
90.0
 51
192.7289
  0
ARC
  5
11EA
330
107A
100
AcDbEntity
  8
1
  6
Continuous
100
AcDbCircle
 10
41.849384
 20
237.1754979999999
 30
0.0
 40
7.932788
100
AcDbArc
 50
192.7289
 51
193.2680999999999
  0
ARC
  5
11EB
330
107A
100
AcDbEntity
  8
1
  6
Continuous
100
AcDbCircle
 10
41.849384
 20
237.1754979999999
 30
0.0
 40
7.932788
100
AcDbArc
 50
193.2680999999999
 51
195.2574999999999
  0
ARC
  5
11EC
330
107A
100
AcDbEntity
  8
1
  6
Continuous
100
AcDbCircle
 10
34.51842
 20
235.1766359999998
 30
0.0
 40
0.333392
100
AcDbArc
 50
195.2574999999999
 51
270.0
  0
LINE
  5
11ED
330
107A
100
AcDbEntity
  8
1
  6
Continuous
100
AcDbLine
 10
36.24932299999999
 20
238.842795
 30
0.0
 11
36.24932299999999
 21
238.5098769999999
 31
0.0
  0
LINE
  5
11EE
330
107A
100
AcDbEntity
  8
1
  6
Continuous
100
AcDbLine
 10
36.24932299999999
 20
236.8425799999999
 30
0.0
 11
36.24932299999999
 21
236.1767439999999
 31
0.0
  0
ARC
  5
11EF
330
107A
100
AcDbEntity
  8
1
  6
Continuous
100
AcDbCircle
 10
41.849384
 20
237.1754979999999
 30
0.0
 40
7.932788
100
AcDbArc
 50
202.944
 51
206.0144
  0
ARC
  5
11F0
330
107A
100
AcDbEntity
  8
1
  6
Continuous
100
AcDbCircle
 10
35.020503
 20
233.8436109999999
 30
0.0
 40
0.333392
100
AcDbArc
 50
206.0144
 51
270.0
  0
ARC
  5
11F1
330
107A
100
AcDbEntity
  8
1
  6
Continuous
100
AcDbCircle
 10
36.24932299999999
 20
233.176421
 30
0.0
 40
1.717978999999998
100
AcDbArc
 50
215.5377
 51
256.5374
  0
ARC
  5
11F2
330
107A
100
AcDbEntity
  8
1
  6
Continuous
100
AcDbCircle
 10
34.605032
 20
234.110216
 30
0.0
 40
0.066678
100
AcDbArc
 50
90.0
 51
202.944
  0
LINE
  5
11F3
330
107A
100
AcDbEntity
  8
1
  6
Continuous
100
AcDbLine
 10
34.42098
 20
232.8435029999999
 30
0.0
 11
37.295443
 21
232.8435029999999
 31
0.0
  0
LINE
  5
11F4
330
107A
100
AcDbEntity
  8
1
  6
Continuous
100
AcDbLine
 10
37.479496
 20
233.509339
 30
0.0
 11
35.020503
 21
233.509339
 31
0.0
  0
ARC
  5
11F5
330
107A
100
AcDbEntity
  8
1
  6
Continuous
100
AcDbCircle
 10
36.24932299999999
 20
233.176421
 30
0.0
 40
1.717978999999998
100
AcDbArc
 50
270.0
 51
324.4619999999998
  0
LINE
  5
11F6
330
107A
100
AcDbEntity
  8
1
  6
Continuous
100
AcDbLine
 10
33.92431
 20
237.50977
 30
0.0
 11
38.575689
 21
237.50977
 31
0.0
  0
LINE
  5
11F7
330
107A
100
AcDbEntity
  8
1
  6
Continuous
100
AcDbLine
 10
34.055582
 20
238.1756059999999
 30
0.0
 11
38.444417
 21
238.1756059999999
 31
0.0
  0
LINE
  5
11F8
330
107A
100
AcDbEntity
  8
1
  6
Continuous
100
AcDbLine
 10
34.058289
 20
239.5086309999999
 30
0.0
 11
38.23194500000001
 21
239.5086309999999
 31
0.0
  0
LINE
  5
11F9
330
107A
100
AcDbEntity
  8
1
  6
Continuous
100
AcDbLine
 10
34.605032
 20
234.176529
 30
0.0
 11
37.893613
 21
234.176529
 31
0.0
  0
LINE
  5
11FA
330
107A
100
AcDbEntity
  8
1
  6
Continuous
100
AcDbLine
 10
34.51842
 20
234.8423649999999
 30
0.0
 11
37.98157899999999
 21
234.8423649999999
 31
0.0
  0
LINE
  5
11FB
330
107A
100
AcDbEntity
  8
1
  6
Continuous
100
AcDbLine
 10
33.979796
 20
236.1767439999999
 30
0.0
 11
38.520203
 21
236.1767439999999
 31
0.0
  0
LINE
  5
11FC
330
107A
100
AcDbEntity
  8
1
  6
Continuous
100
AcDbLine
 10
33.92431
 20
236.8425799999999
 30
0.0
 11
38.575689
 21
236.8425799999999
 31
0.0
  0
LINE
  5
11FD
330
107A
100
AcDbEntity
  8
1
  6
Continuous
100
AcDbLine
 10
38.131799
 20
238.842795
 30
0.0
 11
36.24932299999999
 21
238.842795
 31
0.0
  0
LINE
  5
11FE
330
107A
100
AcDbEntity
  8
1
  6
Continuous
100
AcDbLine
 10
38.999999
 20
227.175498
 30
0.0
 11
34.99999900000001
 21
227.175498
 31
0.0
  0
LINE
  5
11FF
330
107A
100
AcDbEntity
  8
1
  6
Continuous
100
AcDbLine
 10
38.999999
 20
228.175498
 30
0.0
 11
34.99999900000001
 21
228.175498
 31
0.0
  0
ARC
  5
1200
330
107A
100
AcDbEntity
  8
1
  6
Continuous
100
AcDbCircle
 10
38.999999
 20
229.675498
 30
0.0
 40
2.5
100
AcDbArc
 50
270.0
 51
0.0
  0
ARC
  5
1201
330
107A
100
AcDbEntity
  8
1
  6
Continuous
100
AcDbCircle
 10
38.999999
 20
229.675498
 30
0.0
 40
1.5
100
AcDbArc
 50
270.0
 51
0.0
  0
LINE
  5
1202
330
107A
100
AcDbEntity
  8
1
  6
Continuous
100
AcDbLine
 10
47.199999
 20
232.075498
 30
0.0
 11
41.499999
 21
232.075498
 31
0.0
  0
LINE
  5
1203
330
107A
100
AcDbEntity
  8
1
  6
Continuous
100
AcDbLine
 10
44.175102
 20
241.7156229999999
 30
0.0
 11
44.175102
 21
239.375498
 31
0.0
  0
LINE
  5
1204
330
107A
100
AcDbEntity
  8
1
  6
Continuous
100
AcDbLine
 10
48.35355299999999
 20
240.8219439999998
 30
0.0
 11
48.707106
 21
241.175497
 31
0.0
  0
LINE
  5
1205
330
107A
100
AcDbEntity
  8
1
  6
Continuous
100
AcDbLine
 10
48.707106
 20
241.1754979999999
 30
0.0
 11
62.58870899999998
 21
241.1754979999999
 31
0.0
  0
LINE
  5
1206
330
107A
100
AcDbEntity
  8
1
  6
Continuous
100
AcDbLine
 10
48.35355299999999
 20
233.5290509999999
 30
0.0
 11
48.707106
 21
233.1754979999999
 31
0.0
  0
LINE
  5
1207
330
107A
100
AcDbEntity
  8
1
  6
Continuous
100
AcDbLine
 10
62.58870899999998
 20
233.1754979999999
 30
0.0
 11
48.707106
 21
233.1754979999999
 31
0.0
  0
LINE
  5
1208
330
107A
100
AcDbEntity
  8
1
  6
Continuous
100
AcDbLine
 10
41.499999
 20
244.675498
 30
0.0
 11
41.499999
 21
242.275498
 31
0.0
  0
ARC
  5
1209
330
107A
100
AcDbEntity
  8
1
  6
Continuous
100
AcDbCircle
 10
36.24932299999999
 20
241.1759279999999
 30
0.0
 40
1.717978999999998
100
AcDbArc
 50
35.53799999999999
 51
45.69899999999999
  0
ARC
  5
120A
330
107A
100
AcDbEntity
  8
1
  6
Continuous
100
AcDbCircle
 10
38.999999
 20
244.675498
 30
0.0
 40
2.5
100
AcDbArc
 50
0.0
 51
90.0
  0
ARC
  5
120B
330
107A
100
AcDbEntity
  8
1
  6
Continuous
100
AcDbCircle
 10
38.999999
 20
244.675498
 30
0.0
 40
1.5
100
AcDbArc
 50
0.0
 51
90.0
  0
LINE
  5
120C
330
107A
100
AcDbEntity
  8
1
  6
Continuous
100
AcDbLine
 10
34.99999900000001
 20
247.175498
 30
0.0
 11
38.999999
 21
247.175498
 31
0.0
  0
LINE
  5
120D
330
107A
100
AcDbEntity
  8
1
  6
Continuous
100
AcDbLine
 10
34.99999900000001
 20
246.175498
 30
0.0
 11
38.999999
 21
246.175498
 31
0.0
  0
ARC
  5
120E
330
107A
100
AcDbEntity
  8
1
  6
Continuous
100
AcDbCircle
 10
36.24932299999999
 20
241.1759279999999
 30
0.0
 40
1.717978999999998
100
AcDbArc
 50
62.24999999999999
 51
144.462
  0
LINE
  5
120F
330
107A
100
AcDbEntity
  8
1
  6
Continuous
100
AcDbLine
 10
41.499999
 20
242.275498
 30
0.0
 11
47.199999
 21
242.275498
 31
0.0
  0
ARC
  5
1210
330
107A
100
AcDbEntity
  8
1
  6
Continuous
100
AcDbCircle
 10
65.799999
 20
237.1754979999999
 30
0.0
 40
1.0
100
AcDbArc
 50
310.0
 51
50.0
  0
LINE
  5
1211
330
107A
100
AcDbEntity
  8
1
  6
Continuous
100
AcDbLine
 10
159.600255
 20
271.675529
 30
0.0
 11
159.600255
 21
229.175529
 31
0.0
  0
LINE
  5
1212
330
107A
100
AcDbEntity
  8
1
  6
Continuous
100
AcDbLine
 10
161.9002549999999
 20
271.675529
 30
0.0
 11
161.9002549999999
 21
229.175529
 31
0.0
  0
LINE
  5
1213
330
107A
100
AcDbEntity
  8
1
  6
Continuous
100
AcDbLine
 10
159.600256
 20
232.200539
 30
0.0
 11
158.600256
 21
232.200539
 31
0.0
  0
LINE
  5
1214
330
107A
100
AcDbEntity
  8
1
  6
Continuous
100
AcDbLine
 10
159.600256
 20
242.150539
 30
0.0
 11
158.600256
 21
242.150539
 31
0.0
  0
LINE
  5
1215
330
107A
100
AcDbEntity
  8
4
  6
CENTER
100
AcDbLine
 10
134.7181179999997
 20
237.175539
 30
0.0
 11
171.400256
 21
237.175539
 31
0.0
  0
LINE
  5
1216
330
107A
100
AcDbEntity
  8
1
  6
Continuous
100
AcDbLine
 10
154.500256
 20
245.5755389999999
 30
0.0
 11
154.500256
 21
228.7755399999999
 31
0.0
  0
LINE
  5
1217
330
107A
100
AcDbEntity
  8
1
  6
Continuous
100
AcDbLine
 10
155.500256
 20
245.5755389999999
 30
0.0
 11
155.500256
 21
228.7755399999999
 31
0.0
  0
ARC
  5
1218
330
107A
100
AcDbEntity
  8
1
  6
Continuous
100
AcDbCircle
 10
158.1819519999999
 20
242.043843
 30
0.0
 40
0.4316970000000003
100
AcDbArc
 50
345.690695
 51
180.0
  0
LINE
  5
1219
330
107A
100
AcDbEntity
  8
1
  6
Continuous
100
AcDbLine
 10
157.750256
 20
229.175539
 30
0.0
 11
157.750256
 21
245.1755389999999
 31
0.0
  0
LINE
  5
121A
330
107A
100
AcDbEntity
  8
1
  6
Continuous
100
AcDbLine
 10
142.2002559999999
 20
226.1755389999999
 30
0.0
 11
142.2002559999999
 21
248.175539
 31
0.0
  0
LINE
  5
121B
330
107A
100
AcDbEntity
  8
1
  6
Continuous
100
AcDbLine
 10
157.250256
 20
228.7755399999999
 30
0.0
 11
157.250256
 21
245.5755389999999
 31
0.0
  0
LINE
  5
121C
330
107A
100
AcDbEntity
  8
1
  6
Continuous
100
AcDbLine
 10
158.600256
 20
232.200539
 30
0.0
 11
158.600256
 21
242.150539
 31
0.0
  0
LINE
  5
121D
330
107A
100
AcDbEntity
  8
2
  6
Continuous
100
AcDbLine
 10
145.2002559999999
 20
241.972413
 30
0.0
 11
142.2002559999999
 21
232.378666
 31
0.0
  0
LINE
  5
121E
330
107A
100
AcDbEntity
  8
2
  6
Continuous
100
AcDbLine
 10
142.2002559999999
 20
241.972413
 30
0.0
 11
145.2002559999999
 21
232.378666
 31
0.0
  0
LINE
  5
121F
330
107A
100
AcDbEntity
  8
1
  6
Continuous
100
AcDbLine
 10
145.2002559999999
 20
232.378666
 30
0.0
 11
142.2002559999999
 21
232.378666
 31
0.0
  0
LINE
  5
1220
330
107A
100
AcDbEntity
  8
1
  6
Continuous
100
AcDbLine
 10
142.2002559999999
 20
228.7755399999999
 30
0.0
 11
157.350256
 21
228.7755399999999
 31
0.0
  0
LINE
  5
1221
330
107A
100
AcDbEntity
  8
1
  6
Continuous
100
AcDbLine
 10
145.2002559999999
 20
241.972413
 30
0.0
 11
142.2002559999999
 21
241.972413
 31
0.0
  0
LINE
  5
1222
330
107A
100
AcDbEntity
  8
1
  6
Continuous
100
AcDbLine
 10
157.750256
 20
229.175539
 30
0.0
 11
157.350256
 21
228.7755399999999
 31
0.0
  0
ARC
  5
1223
330
107A
100
AcDbEntity
  8
1
  6
Continuous
100
AcDbCircle
 10
158.1752559999999
 20
232.300539
 30
0.0
 40
0.425
100
AcDbArc
 50
180.0
 51
0.0
  0
LINE
  5
1224
330
107A
100
AcDbEntity
  8
1
  6
Continuous
100
AcDbLine
 10
145.2002559999999
 20
232.378666
 30
0.0
 11
145.2002559999999
 21
241.972413
 31
0.0
  0
LINE
  5
1225
330
107A
100
AcDbEntity
  8
1
  6
Continuous
100
AcDbLine
 10
142.2002559999999
 20
245.5755389999999
 30
0.0
 11
157.350256
 21
245.5755389999999
 31
0.0
  0
LINE
  5
1226
330
107A
100
AcDbEntity
  8
1
  6
Continuous
100
AcDbLine
 10
157.750256
 20
245.1755389999999
 30
0.0
 11
157.350256
 21
245.5755389999999
 31
0.0
  0
ARC
  5
1227
330
107A
100
AcDbEntity
  8
1
  6
Continuous
100
AcDbCircle
 10
176.7119689999999
 20
239.9255389999999
 30
0.0
 40
13.612437
100
AcDbArc
 50
168.3448249999998
 51
191.655175
  0
LINE
  5
1228
330
107A
100
AcDbEntity
  8
1
  6
Continuous
100
AcDbLine
 10
159.600256
 20
232.200539
 30
0.0
 11
159.600256
 21
242.150539
 31
0.0
  0
LINE
  5
1229
330
107A
100
AcDbEntity
  8
1
  6
Continuous
100
AcDbLine
 10
162.100255
 20
243.675539
 30
0.0
 11
162.100255
 21
230.6755389999999
 31
0.0
  0
LINE
  5
122A
330
107A
100
AcDbEntity
  8
1
  6
Continuous
100
AcDbLine
 10
162.9002549999999
 20
243.675539
 30
0.0
 11
162.9002549999999
 21
230.6755389999999
 31
0.0
  0
ARC
  5
122B
330
107A
100
AcDbEntity
  8
1
  6
Continuous
100
AcDbCircle
 10
151.815075
 20
239.9255389999999
 30
0.0
 40
13.29279899999999
100
AcDbArc
 50
348.0604879999999
 51
11.93951199999998
  0
LINE
  5
122C
330
107A
100
AcDbEntity
  8
2
  6
Continuous
100
AcDbLine
 10
165.100255
 20
234.0815389999999
 30
0.0
 11
166.306256
 21
234.0815389999999
 31
0.0
  0
LINE
  5
122D
330
107A
100
AcDbEntity
  8
2
  6
Continuous
100
AcDbLine
 10
165.100255
 20
240.269539
 30
0.0
 11
166.306256
 21
240.269539
 31
0.0
  0
LINE
  5
122E
330
107A
100
AcDbEntity
  8
1
  6
Continuous
100
AcDbLine
 10
165.900256
 20
233.6755389999999
 30
0.0
 11
166.400256
 21
234.1755389999999
 31
0.0
  0
LINE
  5
122F
330
107A
100
AcDbEntity
  8
1
  6
Continuous
100
AcDbLine
 10
165.900256
 20
233.6755389999999
 30
0.0
 11
165.100255
 21
233.6755389999999
 31
0.0
  0
LINE
  5
1230
330
107A
100
AcDbEntity
  8
1
  6
Continuous
100
AcDbLine
 10
165.900256
 20
240.6755389999999
 30
0.0
 11
165.100255
 21
240.6755389999999
 31
0.0
  0
LINE
  5
1231
330
107A
100
AcDbEntity
  8
1
  6
Continuous
100
AcDbLine
 10
165.900256
 20
240.6755389999999
 30
0.0
 11
166.400256
 21
240.1755389999999
 31
0.0
  0
LINE
  5
1232
330
107A
100
AcDbEntity
  8
1
  6
Continuous
100
AcDbLine
 10
166.400256
 20
234.1755389999999
 30
0.0
 11
166.400256
 21
240.1755389999999
 31
0.0
  0
LINE
  5
1233
330
107A
100
AcDbEntity
  8
1
  6
Continuous
100
AcDbLine
 10
165.900256
 20
240.6755389999999
 30
0.0
 11
165.900256
 21
233.6755389999999
 31
0.0
  0
LINE
  5
1234
330
107A
100
AcDbEntity
  8
1
  6
Continuous
100
AcDbLine
 10
165.100255
 20
240.375539
 30
0.0
 11
165.100255
 21
233.975539
 31
0.0
  0
LINE
  5
1235
330
107A
100
AcDbEntity
  8
1
  6
Continuous
100
AcDbLine
 10
163.100255
 20
233.975539
 30
0.0
 11
162.946358
 21
233.975539
 31
0.0
  0
LINE
  5
1236
330
107A
100
AcDbEntity
  8
1
  6
Continuous
100
AcDbLine
 10
162.100255
 20
230.6755389999999
 30
0.0
 11
162.9002549999999
 21
230.6755389999999
 31
0.0
  0
ARC
  5
1237
330
107A
100
AcDbEntity
  8
1
  6
Continuous
100
AcDbCircle
 10
163.8424029999999
 20
233.6799089999999
 30
0.0
 40
0.9435539999999999
100
AcDbArc
 50
141.86383
 51
176.871754
  0
ARC
  5
1238
330
107A
100
AcDbEntity
  8
1
  6
Continuous
100
AcDbCircle
 10
164.168621
 20
231.428694
 30
0.0
 40
2.087164
100
AcDbArc
 50
121.081
 51
127.42326
  0
ARC
  5
1239
330
107A
100
AcDbEntity
  8
1
  6
Continuous
100
AcDbCircle
 10
163.133587
 20
235.1752889999999
 30
0.0
 40
1.034086999999998
100
AcDbArc
 50
91.84715000000002
 51
103.0405279999999
  0
LINE
  5
123A
330
107A
100
AcDbEntity
  8
1
  6
Continuous
100
AcDbLine
 10
162.9002549999999
 20
236.416635
 30
0.0
 11
163.100255
 21
236.300874
 31
0.0
  0
LINE
  5
123B
330
107A
100
AcDbEntity
  8
1
  6
Continuous
100
AcDbLine
 10
162.9002549999999
 20
234.8402029999999
 30
0.0
 11
163.100255
 21
234.74655
 31
0.0
  0
LINE
  5
123C
330
107A
100
AcDbEntity
  8
1
  6
Continuous
100
AcDbLine
 10
162.9002549999999
 20
234.378931
 30
0.0
 11
163.113503
 21
234.279075
 31
0.0
  0
LINE
  5
123D
330
107A
100
AcDbEntity
  8
1
  6
Continuous
100
AcDbLine
 10
162.9002549999999
 20
233.2503599999999
 30
0.0
 11
163.091124
 21
233.2162209999999
 31
0.0
  0
LINE
  5
123E
330
107A
100
AcDbEntity
  8
1
  6
Continuous
100
AcDbLine
 10
161.9002549999999
 20
229.175529
 30
0.0
 11
159.600255
 21
229.175529
 31
0.0
  0
ARC
  5
123F
330
107A
100
AcDbEntity
  8
1
  6
Continuous
100
AcDbCircle
 10
159.6926879999998
 20
231.899046
 30
0.0
 40
2.415121
100
AcDbArc
 50
4.532834999999998
 51
23.92732699999998
  0
LINE
  5
1240
330
107A
100
AcDbEntity
  8
1
  6
Continuous
100
AcDbLine
 10
161.9002549999999
 20
233.429222
 30
0.0
 11
162.100255
 21
233.393449
 31
0.0
  0
LINE
  5
1241
330
107A
100
AcDbEntity
  8
1
  6
Continuous
100
AcDbLine
 10
161.9002549999999
 20
233.807271
 30
0.0
 11
162.100255
 21
233.771498
 31
0.0
  0
LINE
  5
1242
330
107A
100
AcDbEntity
  8
2
  6
Continuous
100
AcDbLine
 10
162.100255
 20
233.975539
 30
0.0
 11
161.9002549999999
 21
233.975539
 31
0.0
  0
ARC
  5
1243
330
107A
100
AcDbEntity
  8
1
  6
Continuous
100
AcDbCircle
 10
160.878918
 20
233.965312
 30
0.0
 40
1.236618999999999
100
AcDbArc
 50
9.016916
 51
34.319058
  0
LINE
  5
1244
330
107A
100
AcDbEntity
  8
1
  6
Continuous
100
AcDbLine
 10
161.9002549999999
 20
234.8471959999999
 30
0.0
 11
162.100255
 21
234.753543
 31
0.0
  0
LINE
  5
1245
330
107A
100
AcDbEntity
  8
1
  6
Continuous
100
AcDbLine
 10
161.9002549999999
 20
235.308468
 30
0.0
 11
162.100255
 21
235.214815
 31
0.0
  0
LINE
  5
1246
330
107A
100
AcDbEntity
  8
1
  6
Continuous
100
AcDbLine
 10
161.9002549999999
 20
236.9954429999999
 30
0.0
 11
162.100255
 21
236.879681
 31
0.0
  0
LINE
  5
1247
330
107A
100
AcDbEntity
  8
1
  6
Continuous
100
AcDbLine
 10
161.9002549999999
 20
234.1947879999999
 30
0.0
 11
159.600255
 21
234.1947879999999
 31
0.0
  0
LINE
  5
1248
330
107A
100
AcDbEntity
  8
1
  6
Continuous
100
AcDbLine
 10
163.3802049999999
 20
231.6755389999999
 30
0.0
 11
164.820305
 21
231.6755389999999
 31
0.0
  0
ARC
  5
1249
330
107A
100
AcDbEntity
  8
1
  6
Continuous
100
AcDbCircle
 10
163.8320249999999
 20
232.6489049999999
 30
0.0
 40
0.9331559999999999
100
AcDbArc
 50
137.1808609999999
 51
183.123172
  0
LINE
  5
124A
330
107A
100
AcDbEntity
  8
1
  6
Continuous
100
AcDbLine
 10
162.9002549999999
 20
233.6284089999999
 30
0.0
 11
163.1253129999998
 21
233.588156
 31
0.0
  0
ARC
  5
124B
330
107A
100
AcDbEntity
  8
1
  6
Continuous
100
AcDbCircle
 10
161.9672079999999
 20
238.462916
 30
0.0
 40
0.94214
100
AcDbArc
 50
352.033209
 51
7.966806
  0
LINE
  5
124C
330
107A
100
AcDbEntity
  8
1
  6
Continuous
100
AcDbLine
 10
162.9002549999999
 20
240.5795799999999
 30
0.0
 11
163.100255
 21
240.543808
 31
0.0
  0
LINE
  5
124D
330
107A
100
AcDbEntity
  8
1
  6
Continuous
100
AcDbLine
 10
162.9002549999999
 20
240.1944069999999
 30
0.0
 11
163.100255
 21
240.158635
 31
0.0
  0
LINE
  5
124E
330
107A
100
AcDbEntity
  8
1
  6
Continuous
100
AcDbLine
 10
162.9002549999999
 20
239.2240319999999
 30
0.0
 11
163.100255
 21
239.130379
 31
0.0
  0
LINE
  5
124F
330
107A
100
AcDbEntity
  8
1
  6
Continuous
100
AcDbLine
 10
162.9002549999999
 20
238.5934959999999
 30
0.0
 11
163.1043679999999
 21
238.497917
 31
0.0
  0
LINE
  5
1250
330
107A
100
AcDbEntity
  8
1
  6
Continuous
100
AcDbLine
 10
162.9002549999999
 20
237.340979
 30
0.0
 11
163.100255
 21
237.225218
 31
0.0
  0
ARC
  5
1251
330
107A
100
AcDbEntity
  8
1
  6
Continuous
100
AcDbCircle
 10
163.679347
 20
241.476413
 30
0.0
 40
1.019995999999999
100
AcDbArc
 50
220.197989
 51
235.407257
  0
LINE
  5
1252
330
107A
100
AcDbEntity
  8
1
  6
Continuous
100
AcDbLine
 10
163.100255
 20
240.6755389999999
 30
0.0
 11
163.0476889999999
 21
240.6755389999999
 31
0.0
  0
LINE
  5
1253
330
107A
100
AcDbEntity
  8
1
  6
Continuous
100
AcDbLine
 10
161.899111
 20
239.692833
 30
0.0
 11
162.100255
 21
239.598644
 31
0.0
  0
LINE
  5
1254
330
107A
100
AcDbEntity
  8
1
  6
Continuous
100
AcDbLine
 10
161.978933
 20
237.874247
 30
0.0
 11
162.100255
 21
237.804025
 31
0.0
  0
ARC
  5
1255
330
107A
100
AcDbEntity
  8
1
  6
Continuous
100
AcDbCircle
 10
161.0345079999999
 20
242.6685169999998
 30
0.0
 40
3.098745999999998
100
AcDbArc
 50
286.2015339999999
 51
290.116391
  0
ARC
  5
1256
330
107A
100
AcDbEntity
  8
1
  6
Continuous
100
AcDbCircle
 10
157.8130569999999
 20
239.017952
 30
0.0
 40
4.287487999999997
100
AcDbArc
 50
342.872365
 51
0.0
  0
LINE
  5
1257
330
107A
100
AcDbEntity
  8
1
  6
Continuous
100
AcDbLine
 10
161.9002549999999
 20
237.737672
 30
0.0
 11
161.978933
 21
237.874247
 31
0.0
  0
ARC
  5
1258
330
107A
100
AcDbEntity
  8
1
  6
Continuous
100
AcDbCircle
 10
158.060957
 20
241.836022
 30
0.0
 40
4.308307
100
AcDbArc
 50
333.016654
 51
339.645818
  0
LINE
  5
1259
330
107A
100
AcDbEntity
  8
1
  6
Continuous
100
AcDbLine
 10
161.9002549999999
 20
239.0617619999999
 30
0.0
 11
162.100255
 21
238.9681079999999
 31
0.0
  0
ARC
  5
125A
330
107A
100
AcDbEntity
  8
1
  6
Continuous
100
AcDbCircle
 10
161.06341
 20
242.6143569999999
 30
0.0
 40
1.837066999999997
100
AcDbArc
 50
297.099246
 51
304.360818
  0
LINE
  5
125B
330
107A
100
AcDbEntity
  8
1
  6
Continuous
100
AcDbLine
 10
161.9002549999999
 20
240.758442
 30
0.0
 11
162.100255
 21
240.7226689999999
 31
0.0
  0
LINE
  5
125C
330
107A
100
AcDbEntity
  8
1
  6
Continuous
100
AcDbLine
 10
161.9002549999999
 20
240.373269
 30
0.0
 11
162.100255
 21
240.3374959999999
 31
0.0
  0
LINE
  5
125D
330
107A
100
AcDbEntity
  8
2
  6
Continuous
100
AcDbLine
 10
162.100255
 20
240.375539
 30
0.0
 11
161.9002549999999
 21
240.375539
 31
0.0
  0
LINE
  5
125E
330
107A
100
AcDbEntity
  8
1
  6
Continuous
100
AcDbLine
 10
163.3802049999999
 20
237.175539
 30
0.0
 11
164.820305
 21
237.175539
 31
0.0
  0
LINE
  5
125F
330
107A
100
AcDbEntity
  8
1
  6
Continuous
100
AcDbLine
 10
163.100255
 20
240.0657999999999
 30
0.0
 11
163.100255
 21
234.285279
 31
0.0
  0
ARC
  5
1260
330
107A
100
AcDbEntity
  8
1
  6
Continuous
100
AcDbCircle
 10
176.7119689999999
 20
234.4255389999999
 30
0.0
 40
13.612437
100
AcDbArc
 50
168.3448249999998
 51
191.655175
  0
ARC
  5
1261
330
107A
100
AcDbEntity
  8
1
  6
Continuous
100
AcDbCircle
 10
151.815075
 20
234.4255389999999
 30
0.0
 40
13.29279899999999
100
AcDbArc
 50
348.0604879999999
 51
11.93951199999998
  0
LINE
  5
1262
330
107A
100
AcDbEntity
  8
1
  6
Continuous
100
AcDbLine
 10
162.100255
 20
243.675539
 30
0.0
 11
162.9002549999999
 21
243.675539
 31
0.0
  0
LINE
  5
1263
330
107A
100
AcDbEntity
  8
1
  6
Continuous
100
AcDbLine
 10
163.3802049999999
 20
242.6755389999999
 30
0.0
 11
164.820305
 21
242.6755389999999
 31
0.0
  0
ARC
  5
1264
330
107A
100
AcDbEntity
  8
1
  6
Continuous
100
AcDbCircle
 10
136.303608
 20
237.175539
 30
0.0
 40
71.048963
100
AcDbArc
 50
350.8274759999998
 51
9.172523999999999
  0
ARC
  5
1265
330
107A
100
AcDbEntity
  8
1
  6
Continuous
100
AcDbCircle
 10
136.303608
 20
237.175539
 30
0.0
 40
70.44896300000002
100
AcDbArc
 50
350.8274759999998
 51
9.172523999999999
  0
LINE
  5
1266
330
107A
100
AcDbEntity
  8
4
  6
CENTER
100
AcDbLine
 10
201.752571
 20
237.175539
 30
0.0
 11
216.3440629999998
 21
237.175539
 31
0.0
  0
LINE
  5
1267
330
107A
100
AcDbEntity
  8
1
  6
Continuous
100
AcDbLine
 10
211.3440559999999
 20
221.5755389999999
 30
0.0
 11
206.4440559999999
 21
221.5755389999999
 31
0.0
  0
LINE
  5
1268
330
107A
100
AcDbEntity
  8
1
  6
Continuous
100
AcDbLine
 10
211.3440559999999
 20
220.975539
 30
0.0
 11
206.4440559999999
 21
220.975539
 31
0.0
  0
LINE
  5
1269
330
107A
100
AcDbEntity
  8
1
  6
Continuous
100
AcDbLine
 10
206.4440559999999
 20
221.5755389999999
 30
0.0
 11
206.4440559999999
 21
225.849781
 31
0.0
  0
LINE
  5
126A
330
107A
100
AcDbEntity
  8
1
  6
Continuous
100
AcDbLine
 10
205.844056
 20
221.5755389999999
 30
0.0
 11
205.844056
 21
225.849781
 31
0.0
  0
ARC
  5
126B
330
107A
100
AcDbEntity
  8
1
  6
Continuous
100
AcDbCircle
 10
206.4440559999999
 20
225.849781
 30
0.0
 40
0.6
100
AcDbArc
 50
170.8274759999999
 51
180.0
  0
ARC
  5
126C
330
107A
100
AcDbEntity
  8
1
  6
Continuous
100
AcDbCircle
 10
206.4440559999999
 20
221.5755389999999
 30
0.0
 40
0.6
100
AcDbArc
 50
180.0
 51
270.0
  0
ARC
  5
126D
330
107A
100
AcDbEntity
  8
1
  6
Continuous
100
AcDbCircle
 10
206.4440559999999
 20
225.849781
 30
0.0
 40
0.6
100
AcDbArc
 50
170.8274759999999
 51
180.0
  0
LINE
  5
126E
330
107A
100
AcDbEntity
  8
1
  6
Continuous
100
AcDbLine
 10
211.3440559999999
 20
220.975539
 30
0.0
 11
211.3440559999999
 21
221.5755389999999
 31
0.0
  0
LINE
  5
126F
330
107A
100
AcDbEntity
  8
1
  6
Continuous
100
AcDbLine
 10
205.844056
 20
253.5012979999999
 30
0.0
 11
205.844056
 21
248.501298
 31
0.0
  0
LINE
  5
1270
330
107A
100
AcDbEntity
  8
1
  6
Continuous
100
AcDbLine
 10
206.4440559999999
 20
248.501298
 30
0.0
 11
206.4440559999999
 21
253.5012979999999
 31
0.0
  0
LINE
  5
1271
330
107A
100
AcDbEntity
  8
1
  6
Continuous
100
AcDbLine
 10
206.4440559999999
 20
253.5012979999999
 30
0.0
 11
205.844056
 21
253.5012979999999
 31
0.0
  0
ARC
  5
1272
330
107A
100
AcDbEntity
  8
1
  6
Continuous
100
AcDbCircle
 10
206.4440559999999
 20
248.501298
 30
0.0
 40
0.6
100
AcDbArc
 50
180.0
 51
189.1725239999999
  0
ARC
  5
1273
330
107A
100
AcDbEntity
  8
1
  6
Continuous
100
AcDbCircle
 10
206.4440559999999
 20
248.501298
 30
0.0
 40
0.6
100
AcDbArc
 50
180.0
 51
189.1725239999999
  0
LINE
  5
1274
330
107A
100
AcDbEntity
  8
1
  6
Continuous
100
AcDbLine
 10
161.9002549999999
 20
271.675529
 30
0.0
 11
159.600255
 21
271.675529
 31
0.0
  0
LINE
  5
1275
330
107A
100
AcDbEntity
  8
1
  6
Continuous
100
AcDbLine
 10
161.9002549999999
 20
266.656269
 30
0.0
 11
159.600255
 21
266.656269
 31
0.0
  0
LINE
  5
1276
330
107A
100
AcDbEntity
  8
5
  6
PHANTOM
100
AcDbLine
 10
299.2559059999999
 20
186.656239
 30
0.0
 11
299.2559059999999
 21
154.194757
 31
0.0
  0
LINE
  5
1277
330
107A
100
AcDbEntity
  8
5
  6
PHANTOM
100
AcDbLine
 10
280.2559059999999
 20
186.656239
 30
0.0
 11
280.2559059999999
 21
154.194757
 31
0.0
  0
LINE
  5
1278
330
107A
100
AcDbEntity
  8
4
  6
CENTER
100
AcDbLine
 10
289.7559059999998
 20
139.425498
 30
0.0
 11
289.7559059999998
 21
196.675498
 31
0.0
  0
LINE
  5
1279
330
107A
100
AcDbEntity
  8
4
  6
CENTER
100
AcDbLine
 10
391.967749
 20
157.175498
 30
0.0
 11
376.467749
 21
157.175498
 31
0.0
  0
LINE
  5
127A
330
107A
100
AcDbEntity
  8
4
  6
CENTER
100
AcDbLine
 10
329.2559059999998
 20
157.175498
 30
0.0
 11
268.555906
 21
157.175498
 31
0.0
  0
LINE
  5
127B
330
107A
100
AcDbEntity
  8
1
  6
Continuous
100
AcDbLine
 10
319.236647
 20
147.675498
 30
0.0
 11
286.775165
 21
147.675498
 31
0.0
  0
LINE
  5
127C
330
107A
100
AcDbEntity
  8
1
  6
Continuous
100
AcDbLine
 10
319.236647
 20
166.675498
 30
0.0
 11
286.775165
 21
166.675498
 31
0.0
  0
CIRCLE
  5
127D
330
107A
100
AcDbEntity
  8
2
  6
Continuous
100
AcDbCircle
 10
289.7559059999998
 20
157.175498
 30
0.0
 40
3.093999999999998
  0
ARC
  5
127E
330
107A
100
AcDbEntity
  8
5
  6
PHANTOM
100
AcDbCircle
 10
289.7559059999998
 20
160.675498
 30
0.0
 40
11.5
100
AcDbArc
 50
214.3011529999999
 51
325.698847
  0
LINE
  5
127F
330
107A
100
AcDbEntity
  8
1
  6
Continuous
100
AcDbLine
 10
301.085906
 20
169.925498
 30
0.0
 11
282.8843339999999
 21
169.925498
 31
0.0
  0
LINE
  5
1280
330
107A
100
AcDbEntity
  8
1
  6
Continuous
100
AcDbLine
 10
301.085906
 20
144.425498
 30
0.0
 11
282.8843330000001
 21
144.425498
 31
0.0
  0
CIRCLE
  5
1281
330
107A
100
AcDbEntity
  8
1
  6
Continuous
100
AcDbCircle
 10
289.7559059999998
 20
157.175498
 30
0.0
 40
5.5
  0
CIRCLE
  5
1282
330
107A
100
AcDbEntity
  8
1
  6
Continuous
100
AcDbCircle
 10
289.7559059999998
 20
157.175498
 30
0.0
 40
6.5
  0
CIRCLE
  5
1283
330
107A
100
AcDbEntity
  8
1
  6
Continuous
100
AcDbCircle
 10
289.7559059999998
 20
157.175498
 30
0.0
 40
3.5
  0
LINE
  5
1284
330
107A
100
AcDbEntity
  8
1
  6
Continuous
100
AcDbLine
 10
284.2559059999999
 20
160.3509239999999
 30
0.0
 11
289.7559059999998
 21
163.52635
 31
0.0
  0
LINE
  5
1285
330
107A
100
AcDbEntity
  8
1
  6
Continuous
100
AcDbLine
 10
289.7559059999998
 20
150.824645
 30
0.0
 11
284.2559059999999
 21
154.0000709999999
 31
0.0
  0
LINE
  5
1286
330
107A
100
AcDbEntity
  8
1
  6
Continuous
100
AcDbLine
 10
281.355906
 20
152.738156
 30
0.0
 11
281.355906
 21
161.6128389999998
 31
0.0
  0
ARC
  5
1287
330
107A
100
AcDbEntity
  8
1
  6
Continuous
100
AcDbCircle
 10
293.2559059999999
 20
157.175498
 30
0.0
 40
11.5
100
AcDbArc
 50
124.301153
 51
235.6988470000001
  0
LINE
  5
1288
330
107A
100
AcDbEntity
  8
1
  6
Continuous
100
AcDbLine
 10
278.4301469999999
 20
150.3397109999999
 30
0.0
 11
278.4301469999999
 21
164.031206
 31
0.0
  0
LINE
  5
1289
330
107A
100
AcDbEntity
  8
1
  6
Continuous
100
AcDbLine
 10
274.155906
 20
150.925498
 30
0.0
 11
274.155906
 21
163.425498
 31
0.0
  0
LINE
  5
128A
330
107A
100
AcDbEntity
  8
1
  6
Continuous
100
AcDbLine
 10
273.5559059999999
 20
150.925498
 30
0.0
 11
273.5559059999999
 21
163.425498
 31
0.0
  0
LINE
  5
128B
330
107A
100
AcDbEntity
  8
1
  6
Continuous
100
AcDbLine
 10
284.2559059999999
 20
154.0000709999999
 30
0.0
 11
284.2559059999999
 21
160.3509239999999
 31
0.0
  0
ARC
  5
128C
330
107A
100
AcDbEntity
  8
1
  6
Continuous
100
AcDbCircle
 10
289.7559059999998
 20
157.175498
 30
0.0
 40
9.5
100
AcDbArc
 50
207.8454759999999
 51
243.42503
  0
ARC
  5
128D
330
107A
100
AcDbEntity
  8
2
  6
Continuous
100
AcDbCircle
 10
289.7559059999998
 20
157.175498
 30
0.0
 40
9.099999999999999
100
AcDbArc
 50
202.6198649999999
 51
234.27959
  0
ARC
  5
128E
330
107A
100
AcDbEntity
  8
1
  6
Continuous
100
AcDbCircle
 10
282.8843330000001
 20
146.4254979999998
 30
0.0
 40
2.0
100
AcDbArc
 50
225.0
 51
270.0
  0
ARC
  5
128F
330
107A
100
AcDbEntity
  8
1
  6
Continuous
100
AcDbCircle
 10
274.727479
 20
148.925498
 30
0.0
 40
2.0
100
AcDbArc
 50
45.0
 51
90.0
  0
LINE
  5
1290
330
107A
100
AcDbEntity
  8
1
  6
Continuous
100
AcDbLine
 10
276.1416919999999
 20
150.3397109999999
 30
0.0
 11
281.47012
 21
145.0112839999999
 31
0.0
  0
LINE
  5
1291
330
107A
100
AcDbEntity
  8
1
  6
Continuous
100
AcDbLine
 10
274.727479
 20
150.925498
 30
0.0
 11
273.5559059999999
 21
150.925498
 31
0.0
  0
LINE
  5
1292
330
107A
100
AcDbEntity
  8
1
  6
Continuous
100
AcDbLine
 10
281.355906
 20
152.821199
 30
0.0
 11
281.355906
 21
152.738156
 31
0.0
  0
ARC
  5
1293
330
107A
100
AcDbEntity
  8
1
  6
Continuous
100
AcDbCircle
 10
282.8843339999999
 20
167.925498
 30
0.0
 40
2.0
100
AcDbArc
 50
90.0
 51
134.999997
  0
ARC
  5
1294
330
107A
100
AcDbEntity
  8
1
  6
Continuous
100
AcDbCircle
 10
289.7559059999998
 20
157.175498
 30
0.0
 40
9.5
100
AcDbArc
 50
116.5749699999998
 51
152.154524
  0
ARC
  5
1295
330
107A
100
AcDbEntity
  8
2
  6
Continuous
100
AcDbCircle
 10
289.7559059999998
 20
157.175498
 30
0.0
 40
9.099999999999999
100
AcDbArc
 50
125.72041
 51
157.380135
  0
ARC
  5
1296
330
107A
100
AcDbEntity
  8
1
  6
Continuous
100
AcDbCircle
 10
274.727479
 20
165.425498
 30
0.0
 40
2.0
100
AcDbArc
 50
270.0
 51
315.0
  0
LINE
  5
1297
330
107A
100
AcDbEntity
  8
1
  6
Continuous
100
AcDbLine
 10
276.1416919999999
 20
164.011284
 30
0.0
 11
281.47012
 21
169.339711
 31
0.0
  0
LINE
  5
1298
330
107A
100
AcDbEntity
  8
1
  6
Continuous
100
AcDbLine
 10
274.727479
 20
163.425498
 30
0.0
 11
273.5559059999999
 21
163.425498
 31
0.0
  0
LINE
  5
1299
330
107A
100
AcDbEntity
  8
1
  6
Continuous
100
AcDbLine
 10
295.255906
 20
160.3509239999999
 30
0.0
 11
295.255906
 21
154.0000709999999
 31
0.0
  0
LINE
  5
129A
330
107A
100
AcDbEntity
  8
1
  6
Continuous
100
AcDbLine
 10
301.085906
 20
144.425498
 30
0.0
 11
304.433202
 21
145.0157169999999
 31
0.0
  0
LINE
  5
129B
330
107A
100
AcDbEntity
  8
1
  6
Continuous
100
AcDbLine
 10
301.2116649999999
 20
145.262843
 30
0.0
 11
301.2116649999999
 21
147.675498
 31
0.0
  0
LINE
  5
129C
330
107A
100
AcDbEntity
  8
1
  6
Continuous
100
AcDbLine
 10
295.255906
 20
154.0000709999999
 30
0.0
 11
289.7559059999998
 21
150.824645
 31
0.0
  0
ARC
  5
129D
330
107A
100
AcDbEntity
  8
1
  6
Continuous
100
AcDbCircle
 10
304.085906
 20
146.985332
 30
0.0
 40
2.0
100
AcDbArc
 50
280.0
 51
0.0
  0
LINE
  5
129E
330
107A
100
AcDbEntity
  8
1
  6
Continuous
100
AcDbLine
 10
306.085906
 20
146.985332
 30
0.0
 11
306.085906
 21
147.675498
 31
0.0
  0
LINE
  5
129F
330
107A
100
AcDbEntity
  8
1
  6
Continuous
100
AcDbLine
 10
301.085906
 20
169.925498
 30
0.0
 11
304.433202
 21
169.335279
 31
0.0
  0
LINE
  5
12A0
330
107A
100
AcDbEntity
  8
1
  6
Continuous
100
AcDbLine
 10
301.2116649999999
 20
169.088153
 30
0.0
 11
301.2116649999999
 21
166.675498
 31
0.0
  0
CIRCLE
  5
12A1
330
107A
100
AcDbEntity
  8
1
  6
Continuous
100
AcDbCircle
 10
289.7559059999998
 20
157.175498
 30
0.0
 40
2.5
  0
LINE
  5
12A2
330
107A
100
AcDbEntity
  8
1
  6
Continuous
100
AcDbLine
 10
289.7559059999998
 20
163.52635
 30
0.0
 11
295.255906
 21
160.3509239999999
 31
0.0
  0
ARC
  5
12A3
330
107A
100
AcDbEntity
  8
1
  6
Continuous
100
AcDbCircle
 10
304.085906
 20
167.3656639999999
 30
0.0
 40
2.0
100
AcDbArc
 50
0.0
 51
80.0
  0
LINE
  5
12A4
330
107A
100
AcDbEntity
  8
1
  6
Continuous
100
AcDbLine
 10
306.085906
 20
167.3656639999999
 30
0.0
 11
306.085906
 21
166.675498
 31
0.0
  0
ARC
  5
12A5
330
107A
100
AcDbEntity
  8
1
  6
Continuous
100
AcDbCircle
 10
312.7559059999999
 20
157.175497
 30
0.0
 40
11.5
100
AcDbArc
 50
304.301153
 51
55.69884700000001
  0
LINE
  5
12A6
330
107A
100
AcDbEntity
  8
2
  6
Continuous
100
AcDbLine
 10
447.1115559999998
 20
166.1339979999999
 30
0.0
 11
437.770056
 21
166.1339979999999
 31
0.0
  0
LINE
  5
12A7
330
107A
100
AcDbEntity
  8
1
  6
Continuous
100
AcDbLine
 10
447.1115559999998
 20
166.675498
 30
0.0
 11
438.3115559999998
 21
166.675498
 31
0.0
  0
LINE
  5
12A8
330
107A
100
AcDbEntity
  8
1
  6
Continuous
100
AcDbLine
 10
450.6115559999998
 20
161.6128389999998
 30
0.0
 11
438.3115559999998
 21
161.6128389999998
 31
0.0
  0
LINE
  5
12A9
330
107A
100
AcDbEntity
  8
2
  6
Continuous
100
AcDbLine
 10
447.1115559999998
 20
148.2169979999999
 30
0.0
 11
437.770056
 21
148.2169979999999
 31
0.0
  0
LINE
  5
12AA
330
107A
100
AcDbEntity
  8
1
  6
Continuous
100
AcDbLine
 10
438.247657
 20
147.739397
 30
0.0
 11
447.1115559999998
 21
147.739397
 31
0.0
  0
LINE
  5
12AB
330
107A
100
AcDbEntity
  8
1
  6
Continuous
100
AcDbLine
 10
450.6115559999998
 20
152.738156
 30
0.0
 11
438.3115559999998
 21
152.738156
 31
0.0
  0
LINE
  5
12AC
330
107A
100
AcDbEntity
  8
2
  6
Continuous
100
AcDbLine
 10
450.6115559999998
 20
161.6128389999998
 30
0.0
 11
438.3115559999998
 21
152.738156
 31
0.0
  0
LINE
  5
12AD
330
107A
100
AcDbEntity
  8
2
  6
Continuous
100
AcDbLine
 10
438.3115559999998
 20
161.6128389999998
 30
0.0
 11
450.6115559999998
 21
152.738156
 31
0.0
  0
LINE
  5
12AE
330
107A
100
AcDbEntity
  8
4
  6
CENTER
100
AcDbLine
 10
458.0936939999999
 20
157.175498
 30
0.0
 11
421.4115559999998
 21
157.175498
 31
0.0
  0
LINE
  5
12AF
330
107A
100
AcDbEntity
  8
1
  6
Continuous
100
AcDbLine
 10
386.367749
 20
144.425498
 30
0.0
 11
386.367749
 21
169.925498
 31
0.0
  0
LINE
  5
12B0
330
107A
100
AcDbEntity
  8
1
  6
Continuous
100
AcDbLine
 10
381.467749
 20
150.925498
 30
0.0
 11
381.467749
 21
163.425498
 31
0.0
  0
LINE
  5
12B1
330
107A
100
AcDbEntity
  8
1
  6
Continuous
100
AcDbLine
 10
386.967749
 20
144.425498
 30
0.0
 11
386.967749
 21
169.925498
 31
0.0
  0
LINE
  5
12B2
330
107A
100
AcDbEntity
  8
1
  6
Continuous
100
AcDbLine
 10
385.467749
 20
148.9754979999998
 30
0.0
 11
385.467749
 21
144.425498
 31
0.0
  0
LINE
  5
12B3
330
107A
100
AcDbEntity
  8
1
  6
Continuous
100
AcDbLine
 10
386.967749
 20
144.425498
 30
0.0
 11
385.467749
 21
144.425498
 31
0.0
  0
LINE
  5
12B4
330
107A
100
AcDbEntity
  8
1
  6
Continuous
100
AcDbLine
 10
386.967749
 20
148.9754979999998
 30
0.0
 11
385.467749
 21
148.9754979999998
 31
0.0
  0
LINE
  5
12B5
330
107A
100
AcDbEntity
  8
1
  6
Continuous
100
AcDbLine
 10
386.367749
 20
150.925498
 30
0.0
 11
381.467749
 21
150.925498
 31
0.0
  0
LINE
  5
12B6
330
107A
100
AcDbEntity
  8
1
  6
Continuous
100
AcDbLine
 10
385.467749
 20
169.925498
 30
0.0
 11
385.467749
 21
165.3754979999999
 31
0.0
  0
LINE
  5
12B7
330
107A
100
AcDbEntity
  8
1
  6
Continuous
100
AcDbLine
 10
386.967749
 20
169.925498
 30
0.0
 11
385.467749
 21
169.925498
 31
0.0
  0
LINE
  5
12B8
330
107A
100
AcDbEntity
  8
1
  6
Continuous
100
AcDbLine
 10
386.967749
 20
165.3754979999999
 30
0.0
 11
385.467749
 21
165.3754979999999
 31
0.0
  0
LINE
  5
12B9
330
107A
100
AcDbEntity
  8
1
  6
Continuous
100
AcDbLine
 10
386.367749
 20
163.425498
 30
0.0
 11
381.467749
 21
163.425498
 31
0.0
  0
LINE
  5
12BA
330
107A
100
AcDbEntity
  8
1
  6
Continuous
100
AcDbLine
 10
427.711557
 20
152.412785
 30
0.0
 11
427.711557
 21
161.9382099999999
 31
0.0
  0
LINE
  5
12BB
330
107A
100
AcDbEntity
  8
1
  6
Continuous
100
AcDbLine
 10
433.211557
 20
147.675498
 30
0.0
 11
433.211557
 21
166.675498
 31
0.0
  0
ARC
  5
12BC
330
107A
100
AcDbEntity
  8
1
  6
Continuous
100
AcDbCircle
 10
411.56243
 20
157.175498
 30
0.0
 40
18.149127
100
AcDbArc
 50
349.9234969999998
 51
10.076503
  0
LINE
  5
12BD
330
107A
100
AcDbEntity
  8
1
  6
Continuous
100
AcDbLine
 10
429.711557
 20
152.412785
 30
0.0
 11
429.711557
 21
161.9382099999999
 31
0.0
  0
LINE
  5
12BE
330
107A
100
AcDbEntity
  8
1
  6
Continuous
100
AcDbLine
 10
429.911557
 20
150.675498
 30
0.0
 11
429.911557
 21
163.675498
 31
0.0
  0
LINE
  5
12BF
330
107A
100
AcDbEntity
  8
1
  6
Continuous
100
AcDbLine
 10
430.711557
 20
150.675498
 30
0.0
 11
430.711557
 21
163.675498
 31
0.0
  0
LINE
  5
12C0
330
107A
100
AcDbEntity
  8
1
  6
Continuous
100
AcDbLine
 10
430.911557
 20
147.675498
 30
0.0
 11
430.911557
 21
166.675498
 31
0.0
  0
ARC
  5
12C1
330
107A
100
AcDbEntity
  8
1
  6
Continuous
100
AcDbCircle
 10
445.8606829999998
 20
157.175498
 30
0.0
 40
18.149127
100
AcDbArc
 50
169.923497
 51
190.076503
  0
LINE
  5
12C2
330
107A
100
AcDbEntity
  8
1
  6
Continuous
100
AcDbLine
 10
426.4115559999998
 20
154.175498
 30
0.0
 11
426.9115559999998
 21
153.6754979999998
 31
0.0
  0
LINE
  5
12C3
330
107A
100
AcDbEntity
  8
1
  6
Continuous
100
AcDbLine
 10
426.9115559999998
 20
160.675498
 30
0.0
 11
426.9115559999998
 21
153.6754979999998
 31
0.0
  0
LINE
  5
12C4
330
107A
100
AcDbEntity
  8
1
  6
Continuous
100
AcDbLine
 10
434.2115559999998
 20
162.150498
 30
0.0
 11
434.2115559999998
 21
152.200498
 31
0.0
  0
LINE
  5
12C5
330
107A
100
AcDbEntity
  8
1
  6
Continuous
100
AcDbLine
 10
437.3115559999998
 20
155.8754979999999
 30
0.0
 11
437.3115559999998
 21
148.675498
 31
0.0
  0
LINE
  5
12C6
330
107A
100
AcDbEntity
  8
1
  6
Continuous
100
AcDbLine
 10
435.5615559999998
 20
165.675498
 30
0.0
 11
435.5615559999998
 21
148.675498
 31
0.0
  0
LINE
  5
12C7
330
107A
100
AcDbEntity
  8
1
  6
Continuous
100
AcDbLine
 10
435.0615559999998
 20
165.1754979999998
 30
0.0
 11
435.0615559999998
 21
149.175498
 31
0.0
  0
LINE
  5
12C8
330
107A
100
AcDbEntity
  8
1
  6
Continuous
100
AcDbLine
 10
426.9115559999998
 20
153.6754979999998
 30
0.0
 11
427.711557
 21
153.6754979999998
 31
0.0
  0
LINE
  5
12C9
330
107A
100
AcDbEntity
  8
1
  6
Continuous
100
AcDbLine
 10
433.211557
 20
147.675498
 30
0.0
 11
430.911557
 21
147.675498
 31
0.0
  0
LINE
  5
12CA
330
107A
100
AcDbEntity
  8
1
  6
Continuous
100
AcDbLine
 10
429.711557
 20
153.6754979999998
 30
0.0
 11
429.7641229999999
 21
153.6754979999998
 31
0.0
  0
ARC
  5
12CB
330
107A
100
AcDbEntity
  8
1
  6
Continuous
100
AcDbCircle
 10
425.071704
 20
152.412785
 30
0.0
 40
4.639852999999998
100
AcDbArc
 50
339.995212
 51
20.004788
  0
LINE
  5
12CC
330
107A
100
AcDbEntity
  8
1
  6
Continuous
100
AcDbLine
 10
429.4316069999998
 20
154.0000729999999
 30
0.0
 11
427.991507
 21
154.0000729999999
 31
0.0
  0
LINE
  5
12CD
330
107A
100
AcDbEntity
  8
1
  6
Continuous
100
AcDbLine
 10
429.4316069999998
 20
150.825498
 30
0.0
 11
427.991507
 21
150.825498
 31
0.0
  0
ARC
  5
12CE
330
107A
100
AcDbEntity
  8
1
  6
Continuous
100
AcDbCircle
 10
429.1324649999999
 20
152.874624
 30
0.0
 40
1.019995999999999
100
AcDbArc
 50
40.197989
 51
55.40725699999998
  0
LINE
  5
12CF
330
107A
100
AcDbEntity
  8
1
  6
Continuous
100
AcDbLine
 10
429.911557
 20
153.771457
 30
0.0
 11
429.711557
 21
153.807229
 31
0.0
  0
ARC
  5
12D0
330
107A
100
AcDbEntity
  8
1
  6
Continuous
100
AcDbCircle
 10
431.7484019999998
 20
151.73668
 30
0.0
 40
1.837066999999997
100
AcDbArc
 50
117.0992459999998
 51
124.360818
  0
LINE
  5
12D1
330
107A
100
AcDbEntity
  8
1
  6
Continuous
100
AcDbLine
 10
430.911557
 20
153.592595
 30
0.0
 11
430.711557
 21
153.6283679999999
 31
0.0
  0
LINE
  5
12D2
330
107A
100
AcDbEntity
  8
1
  6
Continuous
100
AcDbLine
 10
430.711557
 20
150.675498
 30
0.0
 11
429.911557
 21
150.675498
 31
0.0
  0
ARC
  5
12D3
330
107A
100
AcDbEntity
  8
1
  6
Continuous
100
AcDbCircle
 10
432.3514089999997
 20
152.412785
 30
0.0
 40
4.639852999999998
100
AcDbArc
 50
159.995212
 51
200.0047879999999
  0
LINE
  5
12D4
330
107A
100
AcDbEntity
  8
1
  6
Continuous
100
AcDbLine
 10
430.911557
 20
153.977768
 30
0.0
 11
430.711557
 21
154.0135409999998
 31
0.0
  0
ARC
  5
12D5
330
107A
100
AcDbEntity
  8
1
  6
Continuous
100
AcDbCircle
 10
434.6298599999998
 20
152.3071939999999
 30
0.0
 40
0.4316970000000003
100
AcDbArc
 50
165.6906949999998
 51
0.0
  0
LINE
  5
12D6
330
107A
100
AcDbEntity
  8
1
  6
Continuous
100
AcDbLine
 10
438.3115559999998
 20
152.738156
 30
0.0
 11
438.3115559999998
 21
147.739397
 31
0.0
  0
LINE
  5
12D7
330
107A
100
AcDbEntity
  8
1
  6
Continuous
100
AcDbLine
 10
437.3115559999998
 20
153.738156
 30
0.0
 11
438.3115559999998
 21
152.738156
 31
0.0
  0
LINE
  5
12D8
330
107A
100
AcDbEntity
  8
1
  6
Continuous
100
AcDbLine
 10
435.0615559999998
 20
149.175498
 30
0.0
 11
435.5615559999998
 21
148.675498
 31
0.0
  0
LINE
  5
12D9
330
107A
100
AcDbEntity
  8
1
  6
Continuous
100
AcDbLine
 10
437.3115559999998
 20
148.675498
 30
0.0
 11
438.247657
 21
147.739397
 31
0.0
  0
LINE
  5
12DA
330
107A
100
AcDbEntity
  8
1
  6
Continuous
100
AcDbLine
 10
437.3115559999998
 20
148.675498
 30
0.0
 11
435.5615559999998
 21
148.675498
 31
0.0
  0
LINE
  5
12DB
330
107A
100
AcDbEntity
  8
1
  6
Continuous
100
AcDbLine
 10
433.211556
 20
152.200498
 30
0.0
 11
434.2115559999998
 21
152.200498
 31
0.0
  0
LINE
  5
12DC
330
107A
100
AcDbEntity
  8
1
  6
Continuous
100
AcDbLine
 10
426.9115559999998
 20
160.675498
 30
0.0
 11
427.711557
 21
160.675498
 31
0.0
  0
LINE
  5
12DD
330
107A
100
AcDbEntity
  8
2
  6
Continuous
100
AcDbLine
 10
427.711557
 20
160.269498
 30
0.0
 11
426.5055559999998
 21
160.269498
 31
0.0
  0
LINE
  5
12DE
330
107A
100
AcDbEntity
  8
2
  6
Continuous
100
AcDbLine
 10
427.711557
 20
154.081498
 30
0.0
 11
426.5055559999998
 21
154.081498
 31
0.0
  0
LINE
  5
12DF
330
107A
100
AcDbEntity
  8
1
  6
Continuous
100
AcDbLine
 10
433.211557
 20
166.675498
 30
0.0
 11
430.911557
 21
166.675498
 31
0.0
  0
LINE
  5
12E0
330
107A
100
AcDbEntity
  8
2
  6
Continuous
100
AcDbLine
 10
429.711557
 20
160.3754979999999
 30
0.0
 11
429.911557
 21
160.3754979999999
 31
0.0
  0
LINE
  5
12E1
330
107A
100
AcDbEntity
  8
2
  6
Continuous
100
AcDbLine
 10
430.711557
 20
160.3754979999999
 30
0.0
 11
430.911557
 21
160.3754979999999
 31
0.0
  0
LINE
  5
12E2
330
107A
100
AcDbEntity
  8
1
  6
Continuous
100
AcDbLine
 10
429.711557
 20
160.675498
 30
0.0
 11
429.911557
 21
160.675498
 31
0.0
  0
LINE
  5
12E3
330
107A
100
AcDbEntity
  8
1
  6
Continuous
100
AcDbLine
 10
430.911557
 20
154.675498
 30
0.0
 11
430.875769
 21
154.675498
 31
0.0
  0
ARC
  5
12E4
330
107A
100
AcDbEntity
  8
1
  6
Continuous
100
AcDbCircle
 10
425.071704
 20
161.9382099999999
 30
0.0
 40
4.639852999999998
100
AcDbArc
 50
339.995212
 51
20.004788
  0
LINE
  5
12E5
330
107A
100
AcDbEntity
  8
1
  6
Continuous
100
AcDbLine
 10
429.4316069999998
 20
160.350923
 30
0.0
 11
427.991507
 21
160.350923
 31
0.0
  0
LINE
  5
12E6
330
107A
100
AcDbEntity
  8
1
  6
Continuous
100
AcDbLine
 10
429.4316069999998
 20
163.525498
 30
0.0
 11
427.991507
 21
163.525498
 31
0.0
  0
LINE
  5
12E7
330
107A
100
AcDbEntity
  8
1
  6
Continuous
100
AcDbLine
 10
429.911557
 20
161.1006769999999
 30
0.0
 11
429.720688
 21
161.134816
 31
0.0
  0
LINE
  5
12E8
330
107A
100
AcDbEntity
  8
1
  6
Continuous
100
AcDbLine
 10
429.911557
 20
160.7226279999999
 30
0.0
 11
429.711557
 21
160.7583999999999
 31
0.0
  0
LINE
  5
12E9
330
107A
100
AcDbEntity
  8
1
  6
Continuous
100
AcDbLine
 10
429.911557
 20
159.972106
 30
0.0
 11
429.698309
 21
160.071962
 31
0.0
  0
LINE
  5
12EA
330
107A
100
AcDbEntity
  8
1
  6
Continuous
100
AcDbLine
 10
429.911557
 20
159.5108339999999
 30
0.0
 11
429.711557
 21
159.604487
 31
0.0
  0
LINE
  5
12EB
330
107A
100
AcDbEntity
  8
1
  6
Continuous
100
AcDbLine
 10
429.911557
 20
157.934402
 30
0.0
 11
429.711557
 21
158.050163
 31
0.0
  0
LINE
  5
12EC
330
107A
100
AcDbEntity
  8
1
  6
Continuous
100
AcDbLine
 10
429.911557
 20
157.0100579999999
 30
0.0
 11
429.711557
 21
157.1258189999998
 31
0.0
  0
LINE
  5
12ED
330
107A
100
AcDbEntity
  8
1
  6
Continuous
100
AcDbLine
 10
429.911557
 20
155.757541
 30
0.0
 11
429.7074440000002
 21
155.85312
 31
0.0
  0
LINE
  5
12EE
330
107A
100
AcDbEntity
  8
1
  6
Continuous
100
AcDbLine
 10
429.911557
 20
155.127005
 30
0.0
 11
429.711557
 21
155.220658
 31
0.0
  0
LINE
  5
12EF
330
107A
100
AcDbEntity
  8
1
  6
Continuous
100
AcDbLine
 10
429.911557
 20
154.15663
 30
0.0
 11
429.711557
 21
154.1924019999999
 31
0.0
  0
ARC
  5
12F0
330
107A
100
AcDbEntity
  8
1
  6
Continuous
100
AcDbCircle
 10
429.6782249999998
 20
159.175748
 30
0.0
 40
1.034086999999998
100
AcDbArc
 50
271.84715
 51
283.0405279999999
  0
ARC
  5
12F1
330
107A
100
AcDbEntity
  8
1
  6
Continuous
100
AcDbCircle
 10
433.1191239999998
 20
162.451991
 30
0.0
 40
2.415121
100
AcDbArc
 50
184.532835
 51
203.9273269999998
  0
ARC
  5
12F2
330
107A
100
AcDbEntity
  8
1
  6
Continuous
100
AcDbCircle
 10
428.643191
 20
162.9223429999998
 30
0.0
 40
2.087164
100
AcDbArc
 50
301.0809999999999
 51
307.4232600000001
  0
ARC
  5
12F3
330
107A
100
AcDbEntity
  8
1
  6
Continuous
100
AcDbCircle
 10
428.979787
 20
161.702132
 30
0.0
 40
0.9331559999999999
100
AcDbArc
 50
321.6456659999999
 51
3.123171999999998
  0
ARC
  5
12F4
330
107A
100
AcDbEntity
  8
1
  6
Continuous
100
AcDbCircle
 10
428.969409
 20
160.671128
 30
0.0
 40
0.9435539999999999
100
AcDbArc
 50
321.86383
 51
356.871754
  0
ARC
  5
12F5
330
107A
100
AcDbEntity
  8
1
  6
Continuous
100
AcDbCircle
 10
431.932894
 20
160.385725
 30
0.0
 40
1.236618999999999
100
AcDbArc
 50
189.0169159999999
 51
214.319058
  0
ARC
  5
12F6
330
107A
100
AcDbEntity
  8
1
  6
Continuous
100
AcDbCircle
 10
434.9987549999998
 20
155.333085
 30
0.0
 40
4.287487999999997
100
AcDbArc
 50
162.8723649999998
 51
180.0
  0
ARC
  5
12F7
330
107A
100
AcDbEntity
  8
1
  6
Continuous
100
AcDbCircle
 10
430.8446039999998
 20
155.8881209999999
 30
0.0
 40
0.94214
100
AcDbArc
 50
172.033209
 51
187.966806
  0
LINE
  5
12F8
330
107A
100
AcDbEntity
  8
1
  6
Continuous
100
AcDbLine
 10
430.911557
 20
156.6133649999999
 30
0.0
 11
430.832879
 21
156.4767899999999
 31
0.0
  0
ARC
  5
12F9
330
107A
100
AcDbEntity
  8
1
  6
Continuous
100
AcDbCircle
 10
431.777304
 20
151.6825199999999
 30
0.0
 40
3.098745999999998
100
AcDbArc
 50
106.2015339999999
 51
110.116391
  0
LINE
  5
12FA
330
107A
100
AcDbEntity
  8
1
  6
Continuous
100
AcDbLine
 10
430.911557
 20
160.9218149999998
 30
0.0
 11
430.711557
 21
160.9575879999999
 31
0.0
  0
LINE
  5
12FB
330
107A
100
AcDbEntity
  8
1
  6
Continuous
100
AcDbLine
 10
430.911557
 20
159.5038409999999
 30
0.0
 11
430.711557
 21
159.5974939999998
 31
0.0
  0
LINE
  5
12FC
330
107A
100
AcDbEntity
  8
1
  6
Continuous
100
AcDbLine
 10
430.911557
 20
157.355594
 30
0.0
 11
430.711557
 21
157.471356
 31
0.0
  0
LINE
  5
12FD
330
107A
100
AcDbEntity
  8
1
  6
Continuous
100
AcDbLine
 10
430.911557
 20
155.2892749999998
 30
0.0
 11
430.711557
 21
155.3829289999999
 31
0.0
  0
LINE
  5
12FE
330
107A
100
AcDbEntity
  8
1
  6
Continuous
100
AcDbLine
 10
430.911557
 20
160.5437659999998
 30
0.0
 11
430.711557
 21
160.5795389999999
 31
0.0
  0
LINE
  5
12FF
330
107A
100
AcDbEntity
  8
1
  6
Continuous
100
AcDbLine
 10
430.911557
 20
159.042569
 30
0.0
 11
430.711557
 21
159.136222
 31
0.0
  0
LINE
  5
1300
330
107A
100
AcDbEntity
  8
1
  6
Continuous
100
AcDbLine
 10
430.832879
 20
156.4767899999999
 30
0.0
 11
430.711557
 21
156.547012
 31
0.0
  0
LINE
  5
1301
330
107A
100
AcDbEntity
  8
1
  6
Continuous
100
AcDbLine
 10
430.912701
 20
154.658204
 30
0.0
 11
430.711557
 21
154.7523929999998
 31
0.0
  0
LINE
  5
1302
330
107A
100
AcDbEntity
  8
1
  6
Continuous
100
AcDbLine
 10
430.711557
 20
163.675498
 30
0.0
 11
429.911557
 21
163.675498
 31
0.0
  0
ARC
  5
1303
330
107A
100
AcDbEntity
  8
1
  6
Continuous
100
AcDbCircle
 10
432.3514089999997
 20
161.9382099999999
 30
0.0
 40
4.639852999999998
100
AcDbArc
 50
159.995212
 51
200.0047879999999
  0
LINE
  5
1304
330
107A
100
AcDbEntity
  8
1
  6
Continuous
100
AcDbLine
 10
426.9115559999998
 20
160.675498
 30
0.0
 11
426.4115559999998
 21
160.175498
 31
0.0
  0
LINE
  5
1305
330
107A
100
AcDbEntity
  8
1
  6
Continuous
100
AcDbLine
 10
426.4115559999998
 20
160.175498
 30
0.0
 11
426.4115559999998
 21
154.175498
 31
0.0
  0
ARC
  5
1306
330
107A
100
AcDbEntity
  8
1
  6
Continuous
100
AcDbCircle
 10
434.6365559999998
 20
162.0504979999998
 30
0.0
 40
0.425
100
AcDbArc
 50
0.0
 51
180.0
  0
LINE
  5
1307
330
107A
100
AcDbEntity
  8
1
  6
Continuous
100
AcDbLine
 10
437.3115559999998
 20
155.8754979999999
 30
0.0
 11
435.5615559999998
 21
155.8754979999999
 31
0.0
  0
LINE
  5
1308
330
107A
100
AcDbEntity
  8
1
  6
Continuous
100
AcDbLine
 10
437.3115559999998
 20
158.4754979999999
 30
0.0
 11
435.5615559999998
 21
158.4754979999999
 31
0.0
  0
LINE
  5
1309
330
107A
100
AcDbEntity
  8
1
  6
Continuous
100
AcDbLine
 10
437.3115559999998
 20
160.6128389999998
 30
0.0
 11
438.3115559999998
 21
161.6128389999998
 31
0.0
  0
LINE
  5
130A
330
107A
100
AcDbEntity
  8
1
  6
Continuous
100
AcDbLine
 10
438.3115559999998
 20
166.675498
 30
0.0
 11
438.3115559999998
 21
161.6128389999998
 31
0.0
  0
LINE
  5
130B
330
107A
100
AcDbEntity
  8
1
  6
Continuous
100
AcDbLine
 10
435.0615559999998
 20
165.1754979999998
 30
0.0
 11
435.5615559999998
 21
165.675498
 31
0.0
  0
LINE
  5
130C
330
107A
100
AcDbEntity
  8
1
  6
Continuous
100
AcDbLine
 10
437.3115559999998
 20
165.675498
 30
0.0
 11
438.3115559999998
 21
166.675498
 31
0.0
  0
LINE
  5
130D
330
107A
100
AcDbEntity
  8
1
  6
Continuous
100
AcDbLine
 10
437.3115559999998
 20
165.675498
 30
0.0
 11
437.3115559999998
 21
158.4754979999999
 31
0.0
  0
LINE
  5
130E
330
107A
100
AcDbEntity
  8
1
  6
Continuous
100
AcDbLine
 10
437.3115559999998
 20
165.675498
 30
0.0
 11
435.5615559999998
 21
165.675498
 31
0.0
  0
LINE
  5
130F
330
107A
100
AcDbEntity
  8
1
  6
Continuous
100
AcDbLine
 10
433.211556
 20
162.150498
 30
0.0
 11
434.2115559999998
 21
162.150498
 31
0.0
  0
LINE
  5
1310
330
107A
100
AcDbEntity
  8
1
  6
Continuous
100
AcDbLine
 10
450.6115559999998
 20
168.175498
 30
0.0
 11
450.6115559999998
 21
146.175498
 31
0.0
  0
LINE
  5
1311
330
107A
100
AcDbEntity
  8
1
  6
Continuous
100
AcDbLine
 10
447.1115559999998
 20
148.9754979999998
 30
0.0
 11
447.1115559999998
 21
147.739397
 31
0.0
  0
LINE
  5
1312
330
107A
100
AcDbEntity
  8
1
  6
Continuous
100
AcDbLine
 10
450.1115559999998
 20
147.739397
 30
0.0
 11
450.6115559999998
 21
147.739397
 31
0.0
  0
LINE
  5
1313
330
107A
100
AcDbEntity
  8
1
  6
Continuous
100
AcDbLine
 10
450.1115559999998
 20
148.9754979999998
 30
0.0
 11
450.1115559999998
 21
147.739397
 31
0.0
  0
LINE
  5
1314
330
107A
100
AcDbEntity
  8
1
  6
Continuous
100
AcDbLine
 10
450.1115559999998
 20
148.9754979999998
 30
0.0
 11
447.1115559999998
 21
148.9754979999998
 31
0.0
  0
LINE
  5
1315
330
107A
100
AcDbEntity
  8
1
  6
Continuous
100
AcDbLine
 10
447.1115559999998
 20
166.675498
 30
0.0
 11
447.1115559999998
 21
165.3754979999999
 31
0.0
  0
LINE
  5
1316
330
107A
100
AcDbEntity
  8
1
  6
Continuous
100
AcDbLine
 10
450.6115559999998
 20
166.675498
 30
0.0
 11
450.1115559999998
 21
166.675498
 31
0.0
  0
LINE
  5
1317
330
107A
100
AcDbEntity
  8
1
  6
Continuous
100
AcDbLine
 10
450.1115559999998
 20
166.675498
 30
0.0
 11
450.1115559999998
 21
165.3754979999999
 31
0.0
  0
LINE
  5
1318
330
107A
100
AcDbEntity
  8
1
  6
Continuous
100
AcDbLine
 10
450.1115559999998
 20
165.3754979999999
 30
0.0
 11
447.1115559999998
 21
165.3754979999999
 31
0.0
  0
ARC
  5
1319
330
107A
100
AcDbEntity
  8
5
  6
PHANTOM
100
AcDbCircle
 10
289.7559069999999
 20
180.175498
 30
0.0
 40
11.5
100
AcDbArc
 50
34.301153
 51
145.6988469999998
  0
LINE
  5
131A
330
107A
100
AcDbEntity
  8
1
  6
Continuous
100
AcDbLine
 10
141.2002559999999
 20
168.175498
 30
0.0
 11
141.2002559999999
 21
146.175498
 31
0.0
  0
LINE
  5
131B
330
107A
100
AcDbEntity
  8
1
  6
Continuous
100
AcDbLine
 10
141.100256
 20
148.325498
 30
0.0
 11
141.2002559999999
 21
148.325498
 31
0.0
  0
LINE
  5
131C
330
107A
100
AcDbEntity
  8
1
  6
Continuous
100
AcDbLine
 10
141.2002559999999
 20
146.175498
 30
0.0
 11
142.2002559999999
 21
146.175498
 31
0.0
  0
LINE
  5
131D
330
107A
100
AcDbEntity
  8
1
  6
Continuous
100
AcDbLine
 10
141.100256
 20
166.0254979999999
 30
0.0
 11
141.2002559999999
 21
166.0254979999999
 31
0.0
  0
LINE
  5
131E
330
107A
100
AcDbEntity
  8
1
  6
Continuous
100
AcDbLine
 10
141.2002559999999
 20
168.175498
 30
0.0
 11
142.2002559999999
 21
168.175498
 31
0.0
  0
LINE
  5
131F
330
107A
100
AcDbEntity
  8
1
  6
Continuous
100
AcDbLine
 10
141.100256
 20
168.175498
 30
0.0
 11
141.100256
 21
146.175498
 31
0.0
  0
LINE
  5
1320
330
107A
100
AcDbEntity
  8
1
  6
Continuous
100
AcDbLine
 10
141.100256
 20
168.175498
 30
0.0
 11
138.3120979999999
 21
167.2760919999998
 31
0.0
  0
LINE
  5
1321
330
107A
100
AcDbEntity
  8
1
  6
Continuous
100
AcDbLine
 10
138.3120979999999
 20
147.074904
 30
0.0
 11
141.100256
 21
146.175498
 31
0.0
  0
ARC
  5
1322
330
107A
100
AcDbEntity
  8
1
  6
Continuous
100
AcDbCircle
 10
237.499
 20
157.175498
 30
0.0
 40
100.0
100
AcDbArc
 50
174.4490389999999
 51
185.550961
  0
ARC
  5
1323
330
107A
100
AcDbEntity
  8
1
  6
Continuous
100
AcDbCircle
 10
138.4655989999999
 20
166.8002379999998
 30
0.0
 40
0.5
100
AcDbArc
 50
107.878697
 51
174.4490389999999
  0
ARC
  5
1324
330
107A
100
AcDbEntity
  8
1
  6
Continuous
100
AcDbCircle
 10
138.4655989999999
 20
147.550758
 30
0.0
 40
0.5
100
AcDbArc
 50
185.550961
 51
252.1213029999999
  0
ARC
  5
1325
330
107A
100
AcDbEntity
  8
1
  6
Continuous
100
AcDbCircle
 10
237.499
 20
157.175498
 30
0.0
 40
100.2999999999999
100
AcDbArc
 50
174.9967509999999
 51
175.8536249999999
  0
LINE
  5
1326
330
107A
100
AcDbEntity
  8
4
  6
CENTER
100
AcDbLine
 10
136.421349
 20
165.2632909999999
 30
0.0
 11
139.016186
 21
165.0556639999998
 31
0.0
  0
LINE
  5
1327
330
107A
100
AcDbEntity
  8
1
  6
Continuous
100
AcDbLine
 10
137.581167
 20
165.922885
 30
0.0
 11
137.88022
 21
165.898956
 31
0.0
  0
LINE
  5
1328
330
107A
100
AcDbEntity
  8
1
  6
Continuous
100
AcDbLine
 10
137.4615259999999
 20
164.427664
 30
0.0
 11
137.760579
 21
164.403735
 31
0.0
  0
LINE
  5
1329
330
107A
100
AcDbEntity
  8
4
  6
CENTER
100
AcDbLine
 10
56.31532899999999
 20
165.1754979999998
 30
0.0
 11
63.14972199999999
 21
165.1754979999998
 31
0.0
  0
LINE
  5
132A
330
107A
100
AcDbEntity
  8
1
  6
Continuous
100
AcDbLine
 10
60.249999
 20
165.1754979999998
 30
0.0
 11
60.249999
 21
165.153735
 31
0.0
  0
CIRCLE
  5
132B
330
107A
100
AcDbEntity
  8
1
  6
Continuous
100
AcDbCircle
 10
59.499999
 20
165.1754979999998
 30
0.0
 40
0.75
  0
ARC
  5
132C
330
107A
100
AcDbEntity
  8
1
  6
Continuous
100
AcDbCircle
 10
59.499999
 20
165.153735
 30
0.0
 40
0.75
100
AcDbArc
 50
180.0
 51
0.0
  0
LINE
  5
132D
330
107A
100
AcDbEntity
  8
1
  6
Continuous
100
AcDbLine
 10
58.749999
 20
165.1754979999998
 30
0.0
 11
58.749999
 21
165.153735
 31
0.0
  0
ARC
  5
132E
330
107A
100
AcDbEntity
  8
1
  6
Continuous
100
AcDbCircle
 10
237.499
 20
237.175539
 30
0.0
 40
100.0
100
AcDbArc
 50
174.4490389999999
 51
185.550961
  0
ARC
  5
132F
330
107A
100
AcDbEntity
  8
1
  6
Continuous
100
AcDbCircle
 10
138.4655989999999
 20
246.8002789999999
 30
0.0
 40
0.5
100
AcDbArc
 50
107.878697
 51
174.4490389999999
  0
LINE
  5
1330
330
107A
100
AcDbEntity
  8
1
  6
Continuous
100
AcDbLine
 10
141.100256
 20
248.175539
 30
0.0
 11
138.3120979999999
 21
247.2761329999999
 31
0.0
  0
ARC
  5
1331
330
107A
100
AcDbEntity
  8
1
  6
Continuous
100
AcDbCircle
 10
138.4655989999999
 20
227.550799
 30
0.0
 40
0.5
100
AcDbArc
 50
185.550961
 51
252.1213029999999
  0
LINE
  5
1332
330
107A
100
AcDbEntity
  8
1
  6
Continuous
100
AcDbLine
 10
138.3120979999999
 20
227.074945
 30
0.0
 11
141.100256
 21
226.1755389999999
 31
0.0
  0
LINE
  5
1333
330
107A
100
AcDbEntity
  8
1
  6
Continuous
100
AcDbLine
 10
141.100256
 20
248.175539
 30
0.0
 11
141.100256
 21
226.1755389999999
 31
0.0
  0
LINE
  5
1334
330
107A
100
AcDbEntity
  8
1
  6
Continuous
100
AcDbLine
 10
141.2002559999999
 20
248.175539
 30
0.0
 11
141.2002559999999
 21
226.1755389999999
 31
0.0
  0
LINE
  5
1335
330
107A
100
AcDbEntity
  8
1
  6
Continuous
100
AcDbLine
 10
141.2002559999999
 20
248.175539
 30
0.0
 11
142.2002559999999
 21
248.175539
 31
0.0
  0
LINE
  5
1336
330
107A
100
AcDbEntity
  8
1
  6
Continuous
100
AcDbLine
 10
141.100256
 20
246.0255389999999
 30
0.0
 11
141.2002559999999
 21
246.0255389999999
 31
0.0
  0
LINE
  5
1337
330
107A
100
AcDbEntity
  8
1
  6
Continuous
100
AcDbLine
 10
141.2002559999999
 20
226.1755389999999
 30
0.0
 11
142.2002559999999
 21
226.1755389999999
 31
0.0
  0
LINE
  5
1338
330
107A
100
AcDbEntity
  8
1
  6
Continuous
100
AcDbLine
 10
141.100256
 20
228.3255389999999
 30
0.0
 11
141.2002559999999
 21
228.3255389999999
 31
0.0
  0
ARC
  5
1339
330
107A
100
AcDbEntity
  8
1
  6
Continuous
100
AcDbCircle
 10
237.7615259999998
 20
237.175539
 30
0.0
 40
100.2999999999999
100
AcDbArc
 50
179.571563
 51
180.4284369999999
  0
LINE
  5
133A
330
107A
100
AcDbEntity
  8
1
  6
Continuous
100
AcDbLine
 10
137.46433
 20
237.9255389999999
 30
0.0
 11
137.501812
 21
237.9255389999999
 31
0.0
  0
LINE
  5
133B
330
107A
100
AcDbEntity
  8
1
  6
Continuous
100
AcDbLine
 10
137.46433
 20
236.4255389999999
 30
0.0
 11
137.501812
 21
236.4255389999999
 31
0.0
  0
ARC
  5
133C
330
107A
100
AcDbEntity
  8
1
  6
Continuous
100
AcDbCircle
 10
237.499
 20
77.29385699999999
 30
0.0
 40
100.0
100
AcDbArc
 50
174.4490389999999
 51
185.550961
  0
LINE
  5
133D
330
107A
100
AcDbEntity
  8
1
  6
Continuous
100
AcDbLine
 10
141.100256
 20
88.29385700000001
 30
0.0
 11
138.3120979999999
 21
87.39445100000002
 31
0.0
  0
ARC
  5
133E
330
107A
100
AcDbEntity
  8
1
  6
Continuous
100
AcDbCircle
 10
138.4655989999999
 20
86.918597
 30
0.0
 40
0.5
100
AcDbArc
 50
107.878697
 51
174.4490389999999
  0
LINE
  5
133F
330
107A
100
AcDbEntity
  8
1
  6
Continuous
100
AcDbLine
 10
138.3120979999999
 20
67.193263
 30
0.0
 11
141.100256
 21
66.29385699999999
 31
0.0
  0
ARC
  5
1340
330
107A
100
AcDbEntity
  8
1
  6
Continuous
100
AcDbCircle
 10
138.4655989999999
 20
67.669117
 30
0.0
 40
0.5
100
AcDbArc
 50
185.550961
 51
252.1213029999999
  0
ARC
  5
1341
330
107A
100
AcDbEntity
  8
1
  6
Continuous
100
AcDbCircle
 10
237.7615259999998
 20
77.29385699999999
 30
0.0
 40
100.2999999999999
100
AcDbArc
 50
179.571563
 51
180.4284369999999
  0
LINE
  5
1342
330
107A
100
AcDbEntity
  8
1
  6
Continuous
100
AcDbLine
 10
137.46433
 20
76.54385699999997
 30
0.0
 11
137.501812
 21
76.54385699999997
 31
0.0
  0
LINE
  5
1343
330
107A
100
AcDbEntity
  8
1
  6
Continuous
100
AcDbLine
 10
137.46433
 20
78.04385699999999
 30
0.0
 11
137.501812
 21
78.04385699999999
 31
0.0
  0
LINE
  5
1344
330
107A
100
AcDbEntity
  8
1
  6
Continuous
100
AcDbLine
 10
141.2002559999999
 20
88.29385700000001
 30
0.0
 11
141.2002559999999
 21
66.29385699999999
 31
0.0
  0
LINE
  5
1345
330
107A
100
AcDbEntity
  8
1
  6
Continuous
100
AcDbLine
 10
141.100256
 20
88.29385700000001
 30
0.0
 11
141.100256
 21
66.29385699999999
 31
0.0
  0
LINE
  5
1346
330
107A
100
AcDbEntity
  8
1
  6
Continuous
100
AcDbLine
 10
141.100256
 20
86.14385699999997
 30
0.0
 11
141.2002559999999
 21
86.14385699999997
 31
0.0
  0
LINE
  5
1347
330
107A
100
AcDbEntity
  8
1
  6
Continuous
100
AcDbLine
 10
141.2002559999999
 20
88.29385700000001
 30
0.0
 11
142.2002559999999
 21
88.29385700000001
 31
0.0
  0
LINE
  5
1348
330
107A
100
AcDbEntity
  8
1
  6
Continuous
100
AcDbLine
 10
141.100256
 20
68.443857
 30
0.0
 11
141.2002559999999
 21
68.443857
 31
0.0
  0
LINE
  5
1349
330
107A
100
AcDbEntity
  8
1
  6
Continuous
100
AcDbLine
 10
141.2002559999999
 20
66.29385699999999
 30
0.0
 11
142.2002559999999
 21
66.29385699999999
 31
0.0
  0
ARC
  5
134A
330
107A
100
AcDbEntity
  8
1
  6
Continuous
100
AcDbCircle
 10
355.312812
 20
157.175498
 30
0.0
 40
100.0
100
AcDbArc
 50
354.449039
 51
5.550961
  0
LINE
  5
134B
330
107A
100
AcDbEntity
  8
1
  6
Continuous
100
AcDbLine
 10
451.7115559999998
 20
168.175498
 30
0.0
 11
451.7115559999998
 21
146.175498
 31
0.0
  0
LINE
  5
134C
330
107A
100
AcDbEntity
  8
1
  6
Continuous
100
AcDbLine
 10
451.6115559999998
 20
168.175498
 30
0.0
 11
451.6115559999998
 21
146.175498
 31
0.0
  0
LINE
  5
134D
330
107A
100
AcDbEntity
  8
1
  6
Continuous
100
AcDbLine
 10
451.7115559999998
 20
148.325498
 30
0.0
 11
451.6115559999998
 21
148.325498
 31
0.0
  0
ARC
  5
134E
330
107A
100
AcDbEntity
  8
1
  6
Continuous
100
AcDbCircle
 10
454.3462129999999
 20
147.550758
 30
0.0
 40
0.5
100
AcDbArc
 50
287.8786969999999
 51
354.449039
  0
LINE
  5
134F
330
107A
100
AcDbEntity
  8
1
  6
Continuous
100
AcDbLine
 10
454.4997139999998
 20
147.074904
 30
0.0
 11
451.7115559999998
 21
146.175498
 31
0.0
  0
LINE
  5
1350
330
107A
100
AcDbEntity
  8
1
  6
Continuous
100
AcDbLine
 10
451.6115559999998
 20
146.175498
 30
0.0
 11
450.6115559999998
 21
146.175498
 31
0.0
  0
LINE
  5
1351
330
107A
100
AcDbEntity
  8
1
  6
Continuous
100
AcDbLine
 10
451.7115559999998
 20
166.0254979999999
 30
0.0
 11
451.6115559999998
 21
166.0254979999999
 31
0.0
  0
LINE
  5
1352
330
107A
100
AcDbEntity
  8
4
  6
CENTER
100
AcDbLine
 10
456.390463
 20
165.2632909999999
 30
0.0
 11
453.7956259999998
 21
165.0556639999998
 31
0.0
  0
LINE
  5
1353
330
107A
100
AcDbEntity
  8
1
  6
Continuous
100
AcDbLine
 10
455.2306449999998
 20
165.922885
 30
0.0
 11
454.9315919999998
 21
165.898956
 31
0.0
  0
ARC
  5
1354
330
107A
100
AcDbEntity
  8
1
  6
Continuous
100
AcDbCircle
 10
355.312812
 20
157.175498
 30
0.0
 40
100.2999999999999
100
AcDbArc
 50
4.146374999999999
 51
5.003248999999999
  0
LINE
  5
1355
330
107A
100
AcDbEntity
  8
1
  6
Continuous
100
AcDbLine
 10
455.350286
 20
164.427664
 30
0.0
 11
455.051233
 21
164.403735
 31
0.0
  0
ARC
  5
1356
330
107A
100
AcDbEntity
  8
1
  6
Continuous
100
AcDbCircle
 10
454.3462129999999
 20
166.8002379999998
 30
0.0
 40
0.5
100
AcDbArc
 50
5.550961
 51
72.12130299999998
  0
LINE
  5
1357
330
107A
100
AcDbEntity
  8
1
  6
Continuous
100
AcDbLine
 10
451.7115559999998
 20
168.175498
 30
0.0
 11
454.4997139999998
 21
167.2760919999998
 31
0.0
  0
LINE
  5
1358
330
107A
100
AcDbEntity
  8
1
  6
Continuous
100
AcDbLine
 10
451.6115559999998
 20
168.175498
 30
0.0
 11
450.6115559999998
 21
168.175498
 31
0.0
  0
ENDSEC
  0
SECTION
  2
OBJECTS
  0
DICTIONARY
  5
1068
330
0
100
AcDbDictionary
281
     1
  3
ACAD_CIP_PREVIOUS_PRODUCT_INFO
350
13BC
  3
ACAD_COLOR
350
139E
  3
ACAD_DETAILVIEWSTYLE
350
13B7
  3
ACAD_GROUP
350
1069
  3
ACAD_LAYOUT
350
1075
  3
ACAD_MATERIAL
350
136C
  3
ACAD_MLEADERSTYLE
350
13B3
  3
ACAD_MLINESTYLE
350
1072
  3
ACAD_PLOTSETTINGS
350
1074
  3
ACAD_PLOTSTYLENAME
350
136A
  3
ACAD_SCALELIST
350
13A1
  3
ACAD_SECTIONVIEWSTYLE
350
13B5
  3
ACAD_TABLESTYLE
350
139F
  3
ACAD_VISUALSTYLE
350
1385
  3
ACDB_RECOMPOSE_DATA
350
13DA
  3
AcDbVariableDictionary
350
13CD
  3
DWGPROPS
350
13DB
  0
DICTIONARY
  5
13BD
330
106C
100
AcDbDictionary
280
     1
281
     1
  3
ADSK_XREC_LAYER_RECONCILED
360
13BE
  0
DICTIONARY
  5
13BF
330
1082
100
AcDbDictionary
280
     1
281
     1
  3
ADSK_XREC_LAYER_RECONCILED
360
13C0
  0
DICTIONARY
  5
13C1
330
1083
100
AcDbDictionary
280
     1
281
     1
  3
ADSK_XREC_LAYER_RECONCILED
360
13C2
  0
DICTIONARY
  5
13C3
330
1084
100
AcDbDictionary
280
     1
281
     1
  3
ADSK_XREC_LAYER_RECONCILED
360
13C4
  0
DICTIONARY
  5
13C5
330
1085
100
AcDbDictionary
280
     1
281
     1
  3
ADSK_XREC_LAYER_RECONCILED
360
13C6
  0
DICTIONARY
  5
13C7
330
1086
100
AcDbDictionary
280
     1
281
     1
  3
ADSK_XREC_LAYER_RECONCILED
360
13C8
  0
DICTIONARY
  5
13C9
330
1087
100
AcDbDictionary
280
     1
281
     1
  3
ADSK_XREC_LAYER_RECONCILED
360
13CA
  0
DICTIONARY
  5
13CB
330
1088
100
AcDbDictionary
280
     1
281
     1
  3
ADSK_XREC_LAYER_RECONCILED
360
13CC
  0
DICTIONARY
  5
1365
330
107A
100
AcDbDictionary
281
     1
  3
ACAD_LAYOUTSELFREF
350
1366
  0
DICTIONARY
  5
1363
330
1076
100
AcDbDictionary
281
     1
  3
ACAD_LAYOUTSELFREF
350
1364
  0
XRECORD
  5
13BC
102
{ACAD_REACTORS
330
1068
102
}
330
1068
100
AcDbXrecord
280
     1
300
ACDLT
300
2014
300
ACDLT_F_S
  0
DICTIONARY
  5
139E
102
{ACAD_REACTORS
330
1068
102
}
330
1068
100
AcDbDictionary
281
     1
  0
DICTIONARY
  5
13B7
102
{ACAD_REACTORS
330
1068
102
}
330
1068
100
AcDbDictionary
281
     1
  3
Imperial24
350
13B8
  0
DICTIONARY
  5
1069
102
{ACAD_REACTORS
330
1068
102
}
330
1068
100
AcDbDictionary
281
     1
  0
DICTIONARY
  5
1075
102
{ACAD_REACTORS
330
1068
102
}
330
1068
100
AcDbDictionary
281
     1
  3
Model
350
13B9
  3
レイアウト1
350
13BA
  0
DICTIONARY
  5
136C
102
{ACAD_REACTORS
330
1068
102
}
330
1068
100
AcDbDictionary
281
     1
  3
ByBlock
350
1375
  3
ByLayer
350
136D
  3
Global
350
137D
  0
DICTIONARY
  5
13B3
102
{ACAD_REACTORS
330
1068
102
}
330
1068
100
AcDbDictionary
281
     1
  3
Standard
350
13B4
  0
DICTIONARY
  5
1072
102
{ACAD_REACTORS
330
1068
102
}
330
1068
100
AcDbDictionary
281
     1
  3
STANDARD
350
1073
  0
DICTIONARY
  5
1074
102
{ACAD_REACTORS
330
1068
102
}
330
1068
100
AcDbDictionary
281
     1
  0
ACDBDICTIONARYWDFLT
  5
136A
102
{ACAD_REACTORS
330
1068
102
}
330
1068
100
AcDbDictionary
281
     1
  3
Normal
350
136B
100
AcDbDictionaryWithDefault
340
136B
  0
DICTIONARY
  5
13A1
102
{ACAD_REACTORS
330
1068
102
}
330
1068
100
AcDbDictionary
281
     1
  3
A0
350
13A2
  3
A1
350
13A3
  3
A2
350
13A4
  3
A3
350
13A5
  3
A4
350
13A6
  3
A5
350
13A7
  3
A6
350
13A8
  3
A7
350
13A9
  3
A8
350
13AA
  3
A9
350
13AB
  3
B0
350
13AC
  3
B1
350
13AD
  3
B2
350
13AE
  3
B3
350
13AF
  3
B4
350
13B0
  3
B5
350
13B1
  3
B6
350
13B2
  0
DICTIONARY
  5
13B5
102
{ACAD_REACTORS
330
1068
102
}
330
1068
100
AcDbDictionary
281
     1
  3
Imperial24
350
13B6
  0
DICTIONARY
  5
139F
102
{ACAD_REACTORS
330
1068
102
}
330
1068
100
AcDbDictionary
281
     1
  3
Standard
350
13A0
  0
DICTIONARY
  5
1385
102
{ACAD_REACTORS
330
1068
102
}
330
1068
100
AcDbDictionary
281
     1
  3
2dWireframe
350
138B
  3
Basic
350
138A
  3
Brighten
350
1391
  3
ColorChange
350
1395
  3
Conceptual
350
138E
  3
Dim
350
1390
  3
EdgeColorOff
350
139D
  3
Facepattern
350
1394
  3
Flat
350
1386
  3
FlatWithEdges
350
1387
  3
Gouraud
350
1388
  3
GouraudWithEdges
350
1389
  3
Hidden
350
138D
  3
JitterOff
350
139B
  3
Linepattern
350
1393
  3
OverhangOff
350
139C
  3
Realistic
350
138F
  3
Shaded
350
139A
  3
Shaded with edges
350
1399
  3
Shades of Gray
350
1396
  3
Sketchy
350
1397
  3
Thicken
350
1392
  3
Wireframe
350
138C
  3
X-Ray
350
1398
  0
XRECORD
  5
13DA
102
{ACAD_REACTORS
330
1068
102
}
330
1068
100
AcDbXrecord
280
     1
 90
        1
330
13A0
  0
DICTIONARY
  5
13CD
102
{ACAD_REACTORS
330
1068
102
}
330
1068
100
AcDbDictionary
281
     1
  3
CANNOSCALE
350
13D2
  3
CMLEADERSTYLE
350
13CF
  3
CTABLESTYLE
350
13CE
  3
CVIEWDETAILSTYLE
350
13D0
  3
CVIEWSECTIONSTYLE
350
13D1
  3
DIMASSOC
350
13D5
  3
INDEXCTL
350
13D4
  3
SORTENTS
350
13D3
  3
XCLIPFRAME
350
13D6
  0
XRECORD
  5
13DB
102
{ACAD_REACTORS
330
1068
102
}
330
1068
100
AcDbXrecord
280
     1
  1
DWGPROPS COOKIE
  2

  3

  4

  6

  7

  8
Yoshitsune
  9

300
=
301
=
302
=
303
=
304
=
305
=
306
=
307
=
308
=
309
=
 40
0.0008024074074074
 41
2451640.627312002
 42
2457192.600762627
  1

 90
        0
  0
XRECORD
  5
13BE
102
{ACAD_REACTORS
330
13BD
102
}
330
13BD
100
AcDbXrecord
280
     1
290
     1
  0
XRECORD
  5
13C0
102
{ACAD_REACTORS
330
13BF
102
}
330
13BF
100
AcDbXrecord
280
     1
290
     1
  0
XRECORD
  5
13C2
102
{ACAD_REACTORS
330
13C1
102
}
330
13C1
100
AcDbXrecord
280
     1
290
     1
  0
XRECORD
  5
13C4
102
{ACAD_REACTORS
330
13C3
102
}
330
13C3
100
AcDbXrecord
280
     1
290
     1
  0
XRECORD
  5
13C6
102
{ACAD_REACTORS
330
13C5
102
}
330
13C5
100
AcDbXrecord
280
     1
290
     1
  0
XRECORD
  5
13C8
102
{ACAD_REACTORS
330
13C7
102
}
330
13C7
100
AcDbXrecord
280
     1
290
     1
  0
XRECORD
  5
13CA
102
{ACAD_REACTORS
330
13C9
102
}
330
13C9
100
AcDbXrecord
280
     1
290
     1
  0
XRECORD
  5
13CC
102
{ACAD_REACTORS
330
13CB
102
}
330
13CB
100
AcDbXrecord
280
     1
290
     1
  0
XRECORD
  5
1366
102
{ACAD_REACTORS
330
1365
102
}
330
1365
100
AcDbXrecord
280
     1
340
107A
  0
XRECORD
  5
1364
102
{ACAD_REACTORS
330
1363
102
}
330
1363
100
AcDbXrecord
280
     1
340
1076
  0
ACDBDETAILVIEWSTYLE
  5
13B8
102
{ACAD_XDICTIONARY
360
1413
102
}
102
{ACAD_REACTORS
330
13B7
102
}
330
13B7
100
AcDbModelDocViewStyle
 70
     0
  3
Imperial24
290
     0
100
AcDbDetailViewStyle
 70
     0
 71
     0
 90
        3
 71
     1
340
106D
 40
0.24
340
0
 40
0.24
300

 40
0.36
280
     3
 71
     2
340
1071
 90
       25
 71
     3
340
106D
 40
0.24
 90
        1
 40
0.75
 90
        1
300
%<\AcVar ViewType \f "%tc1">% %<\AcVar ViewDetailId>%\PSCALE %<\AcVar ViewScale \f "%sn">%
 71
     4
340
1071
 90
       25
340
1071
 90
       25
280
     0
  0
LAYOUT
  5
13B9
102
{ACAD_XDICTIONARY
360
1415
102
}
102
{ACAD_REACTORS
330
1075
102
}
330
1075
100
AcDbPlotSettings
  1

  2
Canon LBP9100C
  4

  6

 40
0.0
 41
0.0
 42
0.0
 43
0.0
 44
0.0
 45
0.0
 46
0.0
 47
0.0
 48
0.0
 49
0.0
140
0.0
141
0.0
142
1.0
143
1.0
 70
  1712
 72
     0
 73
     0
 74
     0
  7

 75
     0
147
1.0
148
0.0
149
0.0
100
AcDbLayout
  1
Model
 70
     1
 71
     0
 10
0.0
 20
0.0
 11
12.0
 21
9.0
 12
0.0
 22
0.0
 32
0.0
 14
0.0
 24
0.0
 34
0.0
 15
0.0
 25
0.0
 35
0.0
146
0.0
 13
0.0
 23
0.0
 33
0.0
 16
1.0
 26
0.0
 36
0.0
 17
0.0
 27
1.0
 37
0.0
 76
     0
330
107A
331
1362
  0
LAYOUT
  5
13BA
102
{ACAD_XDICTIONARY
360
1417
102
}
102
{ACAD_REACTORS
330
1075
102
}
330
1075
100
AcDbPlotSettings
  1

  2
Canon LBP9100C
  4

  6

 40
0.0
 41
0.0
 42
0.0
 43
0.0
 44
0.0
 45
0.0
 46
0.0
 47
0.0
 48
0.0
 49
0.0
140
0.0
141
0.0
142
1.0
143
1.0
 70
   688
 72
     0
 73
     0
 74
     5
  7

 75
    16
147
1.0
148
0.0
149
0.0
100
AcDbLayout
  1
レイアウト1
 70
     1
 71
     1
 10
0.0
 20
0.0
 11
420.0
 21
297.0
 12
0.0
 22
0.0
 32
0.0
 14
1.000000000000000E+20
 24
1.000000000000000E+20
 34
1.000000000000000E+20
 15
-1.000000000000000E+20
 25
-1.000000000000000E+20
 35
-1.000000000000000E+20
146
0.0
 13
0.0
 23
0.0
 33
0.0
 16
1.0
 26
0.0
 36
0.0
 17
0.0
 27
1.0
 37
0.0
 76
     0
330
1076
  0
MATERIAL
  5
1375
102
{ACAD_XDICTIONARY
360
1376
102
}
102
{ACAD_REACTORS
330
136C
102
}
330
136C
100
AcDbMaterial
  1
ByBlock
 72
     0
 43
0.0208333333333333
 43
0.0
 43
0.0
 43
0.0
 43
0.0
 43
0.0208333333333333
 43
0.0
 43
0.0
 43
0.0
 43
0.0
 43
1.0
 43
0.0
 43
0.0
 43
0.0
 43
0.0
 43
1.0
 77
     0
 47
0.0208333333333333
 47
0.0
 47
0.0
 47
0.0
 47
0.0
 47
0.0208333333333333
 47
0.0
 47
0.0
 47
0.0
 47
0.0
 47
1.0
 47
0.0
 47
0.0
 47
0.0
 47
0.0
 47
1.0
171
     0
 49
0.0208333333333333
 49
0.0
 49
0.0
 49
0.0
 49
0.0
 49
0.0208333333333333
 49
0.0
 49
0.0
 49
0.0
 49
0.0
 49
1.0
 49
0.0
 49
0.0
 49
0.0
 49
0.0
 49
1.0
175
     0
142
0.0208333333333333
142
0.0
142
0.0
142
0.0
142
0.0
142
0.0208333333333333
142
0.0
142
0.0
142
0.0
142
0.0
142
1.0
142
0.0
142
0.0
142
0.0
142
0.0
142
1.0
179
     0
144
0.0208333333333333
144
0.0
144
0.0
144
0.0
144
0.0
144
0.0208333333333333
144
0.0
144
0.0
144
0.0
144
0.0
144
1.0
144
0.0
144
0.0
144
0.0
144
0.0
144
1.0
147
0.0208333333333333
147
0.0
147
0.0
147
0.0
147
0.0
147
0.0208333333333333
147
0.0
147
0.0
147
0.0
147
0.0
147
1.0
147
0.0
147
0.0
147
0.0
147
0.0
147
1.0
  0
MATERIAL
  5
136D
102
{ACAD_XDICTIONARY
360
136E
102
}
102
{ACAD_REACTORS
330
136C
102
}
330
136C
100
AcDbMaterial
  1
ByLayer
 72
     0
 43
0.0208333333333333
 43
0.0
 43
0.0
 43
0.0
 43
0.0
 43
0.0208333333333333
 43
0.0
 43
0.0
 43
0.0
 43
0.0
 43
1.0
 43
0.0
 43
0.0
 43
0.0
 43
0.0
 43
1.0
 77
     0
 47
0.0208333333333333
 47
0.0
 47
0.0
 47
0.0
 47
0.0
 47
0.0208333333333333
 47
0.0
 47
0.0
 47
0.0
 47
0.0
 47
1.0
 47
0.0
 47
0.0
 47
0.0
 47
0.0
 47
1.0
171
     0
 49
0.0208333333333333
 49
0.0
 49
0.0
 49
0.0
 49
0.0
 49
0.0208333333333333
 49
0.0
 49
0.0
 49
0.0
 49
0.0
 49
1.0
 49
0.0
 49
0.0
 49
0.0
 49
0.0
 49
1.0
175
     0
142
0.0208333333333333
142
0.0
142
0.0
142
0.0
142
0.0
142
0.0208333333333333
142
0.0
142
0.0
142
0.0
142
0.0
142
1.0
142
0.0
142
0.0
142
0.0
142
0.0
142
1.0
179
     0
144
0.0208333333333333
144
0.0
144
0.0
144
0.0
144
0.0
144
0.0208333333333333
144
0.0
144
0.0
144
0.0
144
0.0
144
1.0
144
0.0
144
0.0
144
0.0
144
0.0
144
1.0
147
0.0208333333333333
147
0.0
147
0.0
147
0.0
147
0.0
147
0.0208333333333333
147
0.0
147
0.0
147
0.0
147
0.0
147
1.0
147
0.0
147
0.0
147
0.0
147
0.0
147
1.0
  0
MATERIAL
  5
137D
102
{ACAD_XDICTIONARY
360
137E
102
}
102
{ACAD_REACTORS
330
136C
102
}
330
136C
100
AcDbMaterial
  1
Global
 72
     0
 43
0.0208333333333333
 43
0.0
 43
0.0
 43
0.0
 43
0.0
 43
0.0208333333333333
 43
0.0
 43
0.0
 43
0.0
 43
0.0
 43
1.0
 43
0.0
 43
0.0
 43
0.0
 43
0.0
 43
1.0
 77
     0
 47
0.0208333333333333
 47
0.0
 47
0.0
 47
0.0
 47
0.0
 47
0.0208333333333333
 47
0.0
 47
0.0
 47
0.0
 47
0.0
 47
1.0
 47
0.0
 47
0.0
 47
0.0
 47
0.0
 47
1.0
171
     0
 49
0.0208333333333333
 49
0.0
 49
0.0
 49
0.0
 49
0.0
 49
0.0208333333333333
 49
0.0
 49
0.0
 49
0.0
 49
0.0
 49
1.0
 49
0.0
 49
0.0
 49
0.0
 49
0.0
 49
1.0
175
     0
142
0.0208333333333333
142
0.0
142
0.0
142
0.0
142
0.0
142
0.0208333333333333
142
0.0
142
0.0
142
0.0
142
0.0
142
1.0
142
0.0
142
0.0
142
0.0
142
0.0
142
1.0
179
     0
144
0.0208333333333333
144
0.0
144
0.0
144
0.0
144
0.0
144
0.0208333333333333
144
0.0
144
0.0
144
0.0
144
0.0
144
1.0
144
0.0
144
0.0
144
0.0
144
0.0
144
1.0
147
0.0208333333333333
147
0.0
147
0.0
147
0.0
147
0.0
147
0.0208333333333333
147
0.0
147
0.0
147
0.0
147
0.0
147
1.0
147
0.0
147
0.0
147
0.0
147
0.0
147
1.0
  0
MLEADERSTYLE
  5
13B4
102
{ACAD_REACTORS
330
13B3
102
}
330
13B3
100
AcDbMLeaderStyle
170
     2
171
     1
172
     0
 90
        2
 40
0.0
 41
0.0
173
     1
 91
-1056964608
340
106F
 92
       -2
290
     1
 42
0.09
291
     1
 43
0.36
  3
Standard
 44
0.18
300

342
106D
174
     1
178
     6
175
     1
176
     0
 93
-1056964608
 45
0.18
292
     0
297
     0
 46
0.18
 94
-1056964608
 47
1.0
 49
1.0
140
1.0
293
     1
141
0.0
294
     1
177
     0
142
1.0
295
     0
296
     0
143
0.125
1001
ACAD_MLEADERVER
1070
     2
  0
MLINESTYLE
  5
1073
102
{ACAD_REACTORS
330
1072
102
}
330
1072
100
AcDbMlineStyle
  2
STANDARD
 70
     0
  3

 62
   256
 51
90.0
 52
90.0
 71
     2
 49
0.5
 62
   256
  6
BYLAYER
 49
-0.5
 62
   256
  6
BYLAYER
  0
ACDBPLACEHOLDER
  5
136B
102
{ACAD_REACTORS
330
136A
102
}
330
136A
  0
SCALE
  5
13A2
102
{ACAD_REACTORS
330
13A1
102
}
330
13A1
100
AcDbScale
 70
     0
300
1:1
140
1.0
141
1.0
290
     1
  0
SCALE
  5
13A3
102
{ACAD_REACTORS
330
13A1
102
}
330
13A1
100
AcDbScale
 70
     0
300
1/128" = 1'-0"
140
0.0078125
141
12.0
290
     0
  0
SCALE
  5
13A4
102
{ACAD_REACTORS
330
13A1
102
}
330
13A1
100
AcDbScale
 70
     0
300
1/64" = 1'-0"
140
0.015625
141
12.0
290
     0
  0
SCALE
  5
13A5
102
{ACAD_REACTORS
330
13A1
102
}
330
13A1
100
AcDbScale
 70
     0
300
1/32" = 1'-0"
140
0.03125
141
12.0
290
     0
  0
SCALE
  5
13A6
102
{ACAD_REACTORS
330
13A1
102
}
330
13A1
100
AcDbScale
 70
     0
300
1/16" = 1'-0"
140
0.0625
141
12.0
290
     0
  0
SCALE
  5
13A7
102
{ACAD_REACTORS
330
13A1
102
}
330
13A1
100
AcDbScale
 70
     0
300
3/32" = 1'-0"
140
0.09375
141
12.0
290
     0
  0
SCALE
  5
13A8
102
{ACAD_REACTORS
330
13A1
102
}
330
13A1
100
AcDbScale
 70
     0
300
1/8" = 1'-0"
140
0.125
141
12.0
290
     0
  0
SCALE
  5
13A9
102
{ACAD_REACTORS
330
13A1
102
}
330
13A1
100
AcDbScale
 70
     0
300
3/16" = 1'-0"
140
0.1875
141
12.0
290
     0
  0
SCALE
  5
13AA
102
{ACAD_REACTORS
330
13A1
102
}
330
13A1
100
AcDbScale
 70
     0
300
1/4" = 1'-0"
140
0.25
141
12.0
290
     0
  0
SCALE
  5
13AB
102
{ACAD_REACTORS
330
13A1
102
}
330
13A1
100
AcDbScale
 70
     0
300
3/8" = 1'-0"
140
0.375
141
12.0
290
     0
  0
SCALE
  5
13AC
102
{ACAD_REACTORS
330
13A1
102
}
330
13A1
100
AcDbScale
 70
     0
300
1/2" = 1'-0"
140
0.5
141
12.0
290
     0
  0
SCALE
  5
13AD
102
{ACAD_REACTORS
330
13A1
102
}
330
13A1
100
AcDbScale
 70
     0
300
3/4" = 1'-0"
140
0.75
141
12.0
290
     0
  0
SCALE
  5
13AE
102
{ACAD_REACTORS
330
13A1
102
}
330
13A1
100
AcDbScale
 70
     0
300
1" = 1'-0"
140
1.0
141
12.0
290
     0
  0
SCALE
  5
13AF
102
{ACAD_REACTORS
330
13A1
102
}
330
13A1
100
AcDbScale
 70
     0
300
1-1/2" = 1'-0"
140
1.5
141
12.0
290
     0
  0
SCALE
  5
13B0
102
{ACAD_REACTORS
330
13A1
102
}
330
13A1
100
AcDbScale
 70
     0
300
3" = 1'-0"
140
3.0
141
12.0
290
     0
  0
SCALE
  5
13B1
102
{ACAD_REACTORS
330
13A1
102
}
330
13A1
100
AcDbScale
 70
     0
300
6" = 1'-0"
140
6.0
141
12.0
290
     0
  0
SCALE
  5
13B2
102
{ACAD_REACTORS
330
13A1
102
}
330
13A1
100
AcDbScale
 70
     0
300
1'-0" = 1'-0"
140
12.0
141
12.0
290
     0
  0
ACDBSECTIONVIEWSTYLE
  5
13B6
102
{ACAD_XDICTIONARY
360
1411
102
}
102
{ACAD_REACTORS
330
13B5
102
}
330
13B5
100
AcDbModelDocViewStyle
 70
     0
  3
Imperial24
290
     0
100
AcDbSectionViewStyle
 70
     0
 71
     0
 90
       78
 71
     1
340
106D
 40
0.24
340
0
340
0
 40
0.24
300
I, O, Q, S, X, Z
 40
0.48
 90
        3
 40
0.18
 90
        1
 71
     2
340
1071
 90
       25
340
1071
 90
       50
 40
0.24
 40
0.0
 40
0.24
 71
     3
340
106D
 40
0.24
 90
        1
 40
0.75
 90
        1
300
%<\AcVar ViewType \f "%tc1">% %<\AcVar ViewSectionStartId>%-%<\AcVar ViewSectionEndId>%\PSCALE %<\AcVar ViewScale \f "%sn">%
 71
     4
300
ANSI31
 40
1.0
 90
        0
290
     0
290
     0
 90
        6
 40
0.0
 40
1.570796326794896
 40
0.2617993877991494
 40
1.308996938995747
 40
-0.2617993877991494
 40
1.832595714594046
  0
TABLESTYLE
  5
13A0
102
{ACAD_XDICTIONARY
360
13D8
102
}
102
{ACAD_REACTORS
330
139F
102
}
330
139F
100
AcDbTableStyle
  3
Standard
 70
     0
 71
     0
 40
0.06
 41
0.06
280
     0
281
     0
  7
STANDARD
140
0.18
170
     2
 62
     0
 63
     7
283
     0
274
    -2
284
     1
 64
     0
275
    -2
285
     1
 65
     0
276
    -2
286
     1
 66
     0
277
    -2
287
     1
 67
     0
278
    -2
288
     1
 68
     0
279
    -2
289
     1
 69
     0
  7
STANDARD
140
0.25
170
     5
 62
     0
 63
     7
283
     0
274
    -2
284
     1
 64
     0
275
    -2
285
     1
 65
     0
276
    -2
286
     1
 66
     0
277
    -2
287
     1
 67
     0
278
    -2
288
     1
 68
     0
279
    -2
289
     1
 69
     0
  7
STANDARD
140
0.18
170
     5
 62
     0
 63
     7
283
     0
274
    -2
284
     1
 64
     0
275
    -2
285
     1
 65
     0
276
    -2
286
     1
 66
     0
277
    -2
287
     1
 67
     0
278
    -2
288
     1
 68
     0
279
    -2
289
     1
 69
     0
  0
VISUALSTYLE
  5
138B
102
{ACAD_XDICTIONARY
360
13E9
102
}
102
{ACAD_REACTORS
330
1385
102
}
330
1385
100
AcDbVisualStyle
  2
2dWireframe
 70
     4
 71
     0
 72
     2
 73
     0
 90
        0
 40
-0.6
 41
-30.0
 62
     5
 63
     7
 74
     1
 91
        4
 64
     7
 65
   257
 75
     1
175
     1
 42
1.0
 92
        0
 66
   257
 43
1.0
 76
     1
 77
     6
 78
     2
 67
     7
 79
     5
170
     0
171
     0
290
     0
174
     0
 93
        1
 44
0.0
173
     0
291
     0
 45
0.0
1001
ACAD
1000
AcDbSavedByObjectVersion
1070
     0
  0
VISUALSTYLE
  5
138A
102
{ACAD_XDICTIONARY
360
13E7
102
}
102
{ACAD_REACTORS
330
1385
102
}
330
1385
100
AcDbVisualStyle
  2
Basic
 70
     7
 71
     1
 72
     0
 73
     1
 90
        0
 40
-0.6
 41
-30.0
 62
     5
 63
     7
 74
     0
 91
        4
 64
     7
 65
   257
 75
     1
175
     1
 42
1.0
 92
        8
 66
     7
 43
1.0
 76
     1
 77
     6
 78
     2
 67
     7
 79
     5
170
     0
171
     0
290
     0
174
     0
 93
        1
 44
0.0
173
     0
291
     1
 45
0.0
1001
ACAD
1000
AcDbSavedByObjectVersion
1070
     0
  0
VISUALSTYLE
  5
1391
102
{ACAD_XDICTIONARY
360
13F5
102
}
102
{ACAD_REACTORS
330
1385
102
}
330
1385
100
AcDbVisualStyle
  2
Brighten
 70
    12
 71
     2
 72
     2
 73
     0
 90
        0
 40
-0.6
 41
-30.0
 62
     5
 63
     7
 74
     1
 91
        4
 64
     7
 65
   257
 75
     1
175
     1
 42
1.0
 92
        8
 66
     7
 43
1.0
 76
     1
 77
     6
 78
     2
 67
     7
 79
     5
170
     0
171
     0
290
     0
174
     0
 93
        1
 44
50.0
173
     0
291
     1
 45
0.0
1001
ACAD
1000
AcDbSavedByObjectVersion
1070
     0
  0
VISUALSTYLE
  5
1395
102
{ACAD_XDICTIONARY
360
13FD
102
}
102
{ACAD_REACTORS
330
1385
102
}
330
1385
100
AcDbVisualStyle
  2
ColorChange
 70
    16
 71
     2
 72
     2
 73
     3
 90
        0
 40
-0.6
 41
-30.0
 62
     5
 63
     8
 74
     1
 91
        4
 64
     7
 65
   257
 75
     1
175
     1
 42
1.0
 92
        8
 66
     8
 43
1.0
 76
     1
 77
     6
 78
     2
 67
     7
 79
     5
170
     0
171
     0
290
     0
174
     0
 93
        1
 44
0.0
173
     0
291
     1
 45
0.0
1001
ACAD
1000
AcDbSavedByObjectVersion
1070
     0
  0
VISUALSTYLE
  5
138E
102
{ACAD_XDICTIONARY
360
13EF
102
}
102
{ACAD_REACTORS
330
1385
102
}
330
1385
100
AcDbVisualStyle
  2
Conceptual
 70
     9
 71
     3
 72
     2
 73
     0
 90
        0
 40
-0.6
 41
-30.0
 62
     5
 63
     7
 74
     2
 91
        2
 64
     7
 65
   257
 75
     1
175
     1
 42
179.0
 92
        8
 66
     7
 43
1.0
 76
     1
 77
     6
 78
     2
 67
     7
 79
     3
170
     0
171
     0
290
     0
174
     0
 93
        1
 44
0.0
173
     0
291
     0
 45
0.0
1001
ACAD
1000
AcDbSavedByObjectVersion
1070
     0
  0
VISUALSTYLE
  5
1390
102
{ACAD_XDICTIONARY
360
13F3
102
}
102
{ACAD_REACTORS
330
1385
102
}
330
1385
100
AcDbVisualStyle
  2
Dim
 70
    11
 71
     2
 72
     2
 73
     0
 90
        0
 40
-0.6
 41
-30.0
 62
     5
 63
     7
 74
     1
 91
        4
 64
     7
 65
   257
 75
     1
175
     1
 42
1.0
 92
        8
 66
     7
 43
1.0
 76
     1
 77
     6
 78
     2
 67
     7
 79
     5
170
     0
171
     0
290
     0
174
     0
 93
        1
 44
-50.0
173
     0
291
     1
 45
0.0
1001
ACAD
1000
AcDbSavedByObjectVersion
1070
     0
  0
VISUALSTYLE
  5
139D
102
{ACAD_XDICTIONARY
360
140D
102
}
102
{ACAD_REACTORS
330
1385
102
}
330
1385
100
AcDbVisualStyle
  2
EdgeColorOff
 70
    22
 71
     2
 72
     2
 73
     0
 90
        0
 40
-0.6
 41
-30.0
 62
     5
 63
     7
 74
     1
 91
        4
 64
     7
 65
   257
 75
     1
175
     1
 42
1.0
 92
        8
 66
     7
 43
1.0
 76
     1
 77
     6
 78
     2
 67
     7
 79
     5
170
     0
171
     0
290
     0
174
     0
 93
        1
 44
0.0
173
     0
291
     1
 45
0.0
1001
ACAD
1000
AcDbSavedByObjectVersion
1070
     0
  0
VISUALSTYLE
  5
1394
102
{ACAD_XDICTIONARY
360
13FB
102
}
102
{ACAD_REACTORS
330
1385
102
}
330
1385
100
AcDbVisualStyle
  2
Facepattern
 70
    15
 71
     2
 72
     2
 73
     0
 90
        0
 40
-0.6
 41
-30.0
 62
     5
 63
     7
 74
     1
 91
        4
 64
     7
 65
   257
 75
     1
175
     1
 42
1.0
 92
        8
 66
     7
 43
1.0
 76
     1
 77
     6
 78
     2
 67
     7
 79
     5
170
     0
171
     0
290
     0
174
     0
 93
        1
 44
0.0
173
     0
291
     1
 45
0.0
1001
ACAD
1000
AcDbSavedByObjectVersion
1070
     0
  0
VISUALSTYLE
  5
1386
102
{ACAD_XDICTIONARY
360
13DF
102
}
102
{ACAD_REACTORS
330
1385
102
}
330
1385
100
AcDbVisualStyle
  2
Flat
 70
     0
 71
     2
 72
     1
 73
     1
 90
        2
 40
-0.6
 41
30.0
 62
     5
 63
     7
 74
     0
 91
        0
 64
     7
 65
   257
 75
     1
175
     1
 42
1.0
 92
        8
 66
     7
 43
1.0
 76
     1
 77
     6
 78
     2
 67
     7
 79
     5
170
     0
171
     0
290
     0
174
     0
 93
       13
 44
0.0
173
     0
291
     1
 45
0.0
1001
ACAD
1000
AcDbSavedByObjectVersion
1070
     0
  0
VISUALSTYLE
  5
1387
102
{ACAD_XDICTIONARY
360
13E1
102
}
102
{ACAD_REACTORS
330
1385
102
}
330
1385
100
AcDbVisualStyle
  2
FlatWithEdges
 70
     1
 71
     2
 72
     1
 73
     1
 90
        2
 40
-0.6
 41
30.0
 62
     5
 63
     7
 74
     1
 91
        0
 64
     7
 65
   257
 75
     1
175
     1
 42
1.0
 92
        0
 66
   257
 43
1.0
 76
     1
 77
     6
 78
     2
 67
     7
 79
     5
170
     0
171
     0
290
     0
174
     0
 93
       13
 44
0.0
173
     0
291
     1
 45
0.0
1001
ACAD
1000
AcDbSavedByObjectVersion
1070
     0
  0
VISUALSTYLE
  5
1388
102
{ACAD_XDICTIONARY
360
13E3
102
}
102
{ACAD_REACTORS
330
1385
102
}
330
1385
100
AcDbVisualStyle
  2
Gouraud
 70
     2
 71
     2
 72
     2
 73
     1
 90
        2
 40
-0.6
 41
30.0
 62
     5
 63
     7
 74
     0
 91
        0
 64
     7
 65
   257
 75
     1
175
     1
 42
1.0
 92
        0
 66
     7
 43
1.0
 76
     1
 77
     6
 78
     2
 67
     7
 79
     5
170
     0
171
     0
290
     0
174
     0
 93
       13
 44
0.0
173
     0
291
     1
 45
0.0
1001
ACAD
1000
AcDbSavedByObjectVersion
1070
     0
  0
VISUALSTYLE
  5
1389
102
{ACAD_XDICTIONARY
360
13E5
102
}
102
{ACAD_REACTORS
330
1385
102
}
330
1385
100
AcDbVisualStyle
  2
GouraudWithEdges
 70
     3
 71
     2
 72
     2
 73
     1
 90
        2
 40
-0.6
 41
30.0
 62
     5
 63
     7
 74
     1
 91
        0
 64
     7
 65
   257
 75
     1
175
     1
 42
1.0
 92
        0
 66
   257
 43
1.0
 76
     1
 77
     6
 78
     2
 67
     7
 79
     5
170
     0
171
     0
290
     0
174
     0
 93
       13
 44
0.0
173
     0
291
     1
 45
0.0
1001
ACAD
1000
AcDbSavedByObjectVersion
1070
     0
  0
VISUALSTYLE
  5
138D
102
{ACAD_XDICTIONARY
360
13ED
102
}
102
{ACAD_REACTORS
330
1385
102
}
330
1385
100
AcDbVisualStyle
  2
Hidden
 70
     6
 71
     1
 72
     2
 73
     2
 90
        0
 40
-0.6
 41
-30.0
 62
     5
 63
     7
 74
     2
 91
        2
 64
     7
 65
   257
 75
     2
175
     1
 42
40.0
 92
        0
 66
   257
 43
1.0
 76
     1
 77
     6
 78
     2
 67
     7
 79
     3
170
     0
171
     0
290
     0
174
     0
 93
        1
 44
0.0
173
     0
291
     0
 45
0.0
1001
ACAD
1000
AcDbSavedByObjectVersion
1070
     0
  0
VISUALSTYLE
  5
139B
102
{ACAD_XDICTIONARY
360
1409
102
}
102
{ACAD_REACTORS
330
1385
102
}
330
1385
100
AcDbVisualStyle
  2
JitterOff
 70
    20
 71
     2
 72
     2
 73
     0
 90
        0
 40
-0.6
 41
-30.0
 62
     5
 63
     7
 74
     1
 91
        4
 64
     7
 65
   257
 75
     1
175
     1
 42
1.0
 92
       10
 66
     7
 43
1.0
 76
     1
 77
     6
 78
     2
 67
     7
 79
     5
170
     0
171
     0
290
     0
174
     0
 93
        1
 44
0.0
173
     0
291
     1
 45
0.0
1001
ACAD
1000
AcDbSavedByObjectVersion
1070
     0
  0
VISUALSTYLE
  5
1393
102
{ACAD_XDICTIONARY
360
13F9
102
}
102
{ACAD_REACTORS
330
1385
102
}
330
1385
100
AcDbVisualStyle
  2
Linepattern
 70
    14
 71
     2
 72
     2
 73
     0
 90
        0
 40
-0.6
 41
-30.0
 62
     5
 63
     7
 74
     1
 91
        4
 64
     7
 65
   257
 75
     7
175
     7
 42
1.0
 92
        8
 66
     7
 43
1.0
 76
     1
 77
     6
 78
     2
 67
     7
 79
     5
170
     0
171
     0
290
     0
174
     0
 93
        1
 44
0.0
173
     0
291
     1
 45
0.0
1001
ACAD
1000
AcDbSavedByObjectVersion
1070
     0
  0
VISUALSTYLE
  5
139C
102
{ACAD_XDICTIONARY
360
140B
102
}
102
{ACAD_REACTORS
330
1385
102
}
330
1385
100
AcDbVisualStyle
  2
OverhangOff
 70
    21
 71
     2
 72
     2
 73
     0
 90
        0
 40
-0.6
 41
-30.0
 62
     5
 63
     7
 74
     1
 91
        4
 64
     7
 65
   257
 75
     1
175
     1
 42
1.0
 92
        9
 66
     7
 43
1.0
 76
     1
 77
     6
 78
     2
 67
     7
 79
     5
170
     0
171
     0
290
     0
174
     0
 93
        1
 44
0.0
173
     0
291
     1
 45
0.0
1001
ACAD
1000
AcDbSavedByObjectVersion
1070
     0
  0
VISUALSTYLE
  5
138F
102
{ACAD_XDICTIONARY
360
13F1
102
}
102
{ACAD_REACTORS
330
1385
102
}
330
1385
100
AcDbVisualStyle
  2
Realistic
 70
     8
 71
     2
 72
     3
 73
     0
 90
        2
 40
-0.6
 41
30.0
 62
     5
 63
     7
 74
     0
 91
        0
 64
     7
 65
   257
 75
     1
175
     1
 42
1.0
 92
        8
 66
   257
 43
1.0
 76
     1
 77
     6
 78
     2
 67
     7
 79
     3
170
     0
171
     0
290
     0
174
     0
 93
       13
 44
0.0
173
     0
291
     0
 45
0.0
1001
ACAD
1000
AcDbSavedByObjectVersion
1070
     0
  0
VISUALSTYLE
  5
139A
102
{ACAD_XDICTIONARY
360
1407
102
}
102
{ACAD_REACTORS
330
1385
102
}
330
1385
100
AcDbVisualStyle
  2
Shaded
 70
    27
 71
     2
 72
     2
 73
     1
 90
        2
 40
-0.6
 41
30.0
 62
     5
 63
     7
 74
     0
 91
        4
 64
     7
 65
   257
 75
     1
175
     1
 42
1.0
 92
        8
 66
   257
 43
1.0
 76
     1
 77
     6
 78
     2
 67
     8
 79
     3
170
     0
171
     0
290
     0
174
     0
 93
        5
 44
0.0
173
     0
291
     0
 45
0.0
1001
ACAD
1000
AcDbSavedByObjectVersion
1070
     0
  0
VISUALSTYLE
  5
1399
102
{ACAD_XDICTIONARY
360
1405
102
}
102
{ACAD_REACTORS
330
1385
102
}
330
1385
100
AcDbVisualStyle
  2
Shaded with edges
 70
    26
 71
     2
 72
     2
 73
     1
 90
        2
 40
-0.6
 41
30.0
 62
     5
 63
     7
 74
     1
 91
       10
 64
     7
 65
   257
 75
     2
175
     1
 42
1.0
 92
        8
 66
   257
 43
1.0
 76
     1
 77
     6
 78
     2
 67
     7
 79
     3
170
     0
171
     0
290
     0
174
     0
 93
        5
 44
0.0
173
     0
291
     0
 45
0.0
1001
ACAD
1000
AcDbSavedByObjectVersion
1070
     0
  0
VISUALSTYLE
  5
1396
102
{ACAD_XDICTIONARY
360
13FF
102
}
102
{ACAD_REACTORS
330
1385
102
}
330
1385
100
AcDbVisualStyle
  2
Shades of Gray
 70
    23
 71
     2
 72
     2
 73
     3
 90
        0
 40
-0.6
 41
-30.0
 62
     5
 63
     7
 74
     2
 91
        2
 64
     7
 65
     7
 75
     1
175
     1
 42
40.0
 92
        8
 66
     7
 43
1.0
 76
     1
 77
     6
 78
     2
 67
     7
 79
     3
170
     0
171
     0
290
     0
174
     0
 93
        1
 44
0.0
173
     0
291
     0
 45
0.0
1001
ACAD
1000
AcDbSavedByObjectVersion
1070
     0
  0
VISUALSTYLE
  5
1397
102
{ACAD_XDICTIONARY
360
1401
102
}
102
{ACAD_REACTORS
330
1385
102
}
330
1385
100
AcDbVisualStyle
  2
Sketchy
 70
    24
 71
     1
 72
     2
 73
     2
 90
        0
 40
-0.6
 41
-30.0
 62
     5
 63
     7
 74
     2
 91
        2
 64
     7
 65
     7
 75
     1
175
     1
 42
40.0
 92
       11
 66
     7
 43
1.0
 76
     1
 77
     6
 78
     2
 67
     7
 79
     6
170
     0
171
     0
290
     0
174
     0
 93
        1
 44
0.0
173
     0
291
     0
 45
0.0
1001
ACAD
1000
AcDbSavedByObjectVersion
1070
     0
  0
VISUALSTYLE
  5
1392
102
{ACAD_XDICTIONARY
360
13F7
102
}
102
{ACAD_REACTORS
330
1385
102
}
330
1385
100
AcDbVisualStyle
  2
Thicken
 70
    13
 71
     2
 72
     2
 73
     0
 90
        0
 40
-0.6
 41
-30.0
 62
     5
 63
     7
 74
     1
 91
        4
 64
     7
 65
   257
 75
     1
175
     1
 42
1.0
 92
       12
 66
     7
 43
1.0
 76
     1
 77
     6
 78
     2
 67
     7
 79
     5
170
     0
171
     0
290
     0
174
     0
 93
        1
 44
0.0
173
     0
291
     1
 45
0.0
1001
ACAD
1000
AcDbSavedByObjectVersion
1070
     0
  0
VISUALSTYLE
  5
138C
102
{ACAD_XDICTIONARY
360
13EB
102
}
102
{ACAD_REACTORS
330
1385
102
}
330
1385
100
AcDbVisualStyle
  2
Wireframe
 70
     5
 71
     0
 72
     2
 73
     0
 90
        0
 40
-0.6
 41
-30.0
 62
     5
 63
     7
 74
     1
 91
        4
 64
     7
 65
   257
 75
     1
175
     1
 42
1.0
 92
        0
 66
   257
 43
1.0
 76
     1
 77
     6
 78
     2
 67
     7
 79
     3
170
     0
171
     0
290
     0
174
     0
 93
        1
 44
0.0
173
     0
291
     0
 45
0.0
1001
ACAD
1000
AcDbSavedByObjectVersion
1070
     0
  0
VISUALSTYLE
  5
1398
102
{ACAD_XDICTIONARY
360
1403
102
}
102
{ACAD_REACTORS
330
1385
102
}
330
1385
100
AcDbVisualStyle
  2
X-Ray
 70
    25
 71
     2
 72
     2
 73
     1
 90
        1
 40
0.5
 41
-30.0
 62
     5
 63
     7
 74
     1
 91
        0
 64
     7
 65
   257
 75
     1
175
     1
 42
1.0
 92
        8
 66
     7
 43
1.0
 76
     1
 77
     6
 78
     2
 67
     7
 79
     3
170
     0
171
     0
290
     0
174
     0
 93
       13
 44
0.0
173
     0
291
     0
 45
0.0
1001
ACAD
1000
AcDbSavedByObjectVersion
1070
     0
  0
DICTIONARYVAR
  5
13D2
102
{ACAD_REACTORS
330
13CD
102
}
330
13CD
100
DictionaryVariables
280
     0
  1
1:1
  0
DICTIONARYVAR
  5
13CF
102
{ACAD_REACTORS
330
13CD
102
}
330
13CD
100
DictionaryVariables
280
     0
  1
STANDARD
  0
DICTIONARYVAR
  5
13CE
102
{ACAD_REACTORS
330
13CD
102
}
330
13CD
100
DictionaryVariables
280
     0
  1
STANDARD
  0
DICTIONARYVAR
  5
13D0
102
{ACAD_REACTORS
330
13CD
102
}
330
13CD
100
DictionaryVariables
280
     0
  1
Imperial24
  0
DICTIONARYVAR
  5
13D1
102
{ACAD_REACTORS
330
13CD
102
}
330
13CD
100
DictionaryVariables
280
     0
  1
Imperial24
  0
DICTIONARYVAR
  5
13D5
102
{ACAD_REACTORS
330
13CD
102
}
330
13CD
100
DictionaryVariables
280
     0
  1
1
  0
DICTIONARYVAR
  5
13D4
102
{ACAD_REACTORS
330
13CD
102
}
330
13CD
100
DictionaryVariables
280
     0
  1
0
  0
DICTIONARYVAR
  5
13D3
102
{ACAD_REACTORS
330
13CD
102
}
330
13CD
100
DictionaryVariables
280
     0
  1
127
  0
DICTIONARYVAR
  5
13D6
102
{ACAD_REACTORS
330
13CD
102
}
330
13CD
100
DictionaryVariables
280
     0
  1
2
  0
DICTIONARY
  5
1413
330
13B8
100
AcDbDictionary
280
     1
281
     1
  3
ACAD_XREC_ROUNDTRIP
360
1414
  0
DICTIONARY
  5
1415
330
13B9
100
AcDbDictionary
280
     1
281
     1
  3
ACAD_XREC_ROUNDTRIP
360
1416
  0
DICTIONARY
  5
1417
330
13BA
100
AcDbDictionary
280
     1
281
     1
  3
ACAD_XREC_ROUNDTRIP
360
1418
  0
DICTIONARY
  5
1376
330
1375
100
AcDbDictionary
280
     1
281
     1
  3
ACAD_XREC_ROUNDTRIP
360
13DD
  3
BUMPTILE
360
1378
  3
DIFFUSETILE
360
1377
  3
OPACITYTILE
360
137B
  3
REFLECTIONTILE
360
137A
  3
REFRACTIONTILE
360
137C
  3
SPECULARTILE
360
1379
  0
DICTIONARY
  5
136E
330
136D
100
AcDbDictionary
280
     1
281
     1
  3
ACAD_XREC_ROUNDTRIP
360
13DC
  3
BUMPTILE
360
1370
  3
DIFFUSETILE
360
136F
  3
OPACITYTILE
360
1373
  3
REFLECTIONTILE
360
1372
  3
REFRACTIONTILE
360
1374
  3
SPECULARTILE
360
1371
  0
DICTIONARY
  5
137E
330
137D
100
AcDbDictionary
280
     1
281
     1
  3
ACAD_XREC_ROUNDTRIP
360
13DE
  3
BUMPTILE
360
1380
  3
DIFFUSETILE
360
137F
  3
OPACITYTILE
360
1383
  3
REFLECTIONTILE
360
1382
  3
REFRACTIONTILE
360
1384
  3
SPECULARTILE
360
1381
  0
DICTIONARY
  5
1411
330
13B6
100
AcDbDictionary
280
     1
281
     1
  3
ACAD_XREC_ROUNDTRIP
360
1412
  0
DICTIONARY
  5
13D8
330
13A0
100
AcDbDictionary
280
     1
281
     1
  3
ACAD_ROUNDTRIP_2008_TABLESTYLE_CELLSTYLEMAP
360
13D9
  3
ACAD_XREC_ROUNDTRIP
360
140F
  0
DICTIONARY
  5
13E9
330
138B
100
AcDbDictionary
280
     1
281
     1
  3
ACAD_XREC_ROUNDTRIP
360
13EA
  0
DICTIONARY
  5
13E7
330
138A
100
AcDbDictionary
280
     1
281
     1
  3
ACAD_XREC_ROUNDTRIP
360
13E8
  0
DICTIONARY
  5
13F5
330
1391
100
AcDbDictionary
280
     1
281
     1
  3
ACAD_XREC_ROUNDTRIP
360
13F6
  0
DICTIONARY
  5
13FD
330
1395
100
AcDbDictionary
280
     1
281
     1
  3
ACAD_XREC_ROUNDTRIP
360
13FE
  0
DICTIONARY
  5
13EF
330
138E
100
AcDbDictionary
280
     1
281
     1
  3
ACAD_XREC_ROUNDTRIP
360
13F0
  0
DICTIONARY
  5
13F3
330
1390
100
AcDbDictionary
280
     1
281
     1
  3
ACAD_XREC_ROUNDTRIP
360
13F4
  0
DICTIONARY
  5
140D
330
139D
100
AcDbDictionary
280
     1
281
     1
  3
ACAD_XREC_ROUNDTRIP
360
140E
  0
DICTIONARY
  5
13FB
330
1394
100
AcDbDictionary
280
     1
281
     1
  3
ACAD_XREC_ROUNDTRIP
360
13FC
  0
DICTIONARY
  5
13DF
330
1386
100
AcDbDictionary
280
     1
281
     1
  3
ACAD_XREC_ROUNDTRIP
360
13E0
  0
DICTIONARY
  5
13E1
330
1387
100
AcDbDictionary
280
     1
281
     1
  3
ACAD_XREC_ROUNDTRIP
360
13E2
  0
DICTIONARY
  5
13E3
330
1388
100
AcDbDictionary
280
     1
281
     1
  3
ACAD_XREC_ROUNDTRIP
360
13E4
  0
DICTIONARY
  5
13E5
330
1389
100
AcDbDictionary
280
     1
281
     1
  3
ACAD_XREC_ROUNDTRIP
360
13E6
  0
DICTIONARY
  5
13ED
330
138D
100
AcDbDictionary
280
     1
281
     1
  3
ACAD_XREC_ROUNDTRIP
360
13EE
  0
DICTIONARY
  5
1409
330
139B
100
AcDbDictionary
280
     1
281
     1
  3
ACAD_XREC_ROUNDTRIP
360
140A
  0
DICTIONARY
  5
13F9
330
1393
100
AcDbDictionary
280
     1
281
     1
  3
ACAD_XREC_ROUNDTRIP
360
13FA
  0
DICTIONARY
  5
140B
330
139C
100
AcDbDictionary
280
     1
281
     1
  3
ACAD_XREC_ROUNDTRIP
360
140C
  0
DICTIONARY
  5
13F1
330
138F
100
AcDbDictionary
280
     1
281
     1
  3
ACAD_XREC_ROUNDTRIP
360
13F2
  0
DICTIONARY
  5
1407
330
139A
100
AcDbDictionary
280
     1
281
     1
  3
ACAD_XREC_ROUNDTRIP
360
1408
  0
DICTIONARY
  5
1405
330
1399
100
AcDbDictionary
280
     1
281
     1
  3
ACAD_XREC_ROUNDTRIP
360
1406
  0
DICTIONARY
  5
13FF
330
1396
100
AcDbDictionary
280
     1
281
     1
  3
ACAD_XREC_ROUNDTRIP
360
1400
  0
DICTIONARY
  5
1401
330
1397
100
AcDbDictionary
280
     1
281
     1
  3
ACAD_XREC_ROUNDTRIP
360
1402
  0
DICTIONARY
  5
13F7
330
1392
100
AcDbDictionary
280
     1
281
     1
  3
ACAD_XREC_ROUNDTRIP
360
13F8
  0
DICTIONARY
  5
13EB
330
138C
100
AcDbDictionary
280
     1
281
     1
  3
ACAD_XREC_ROUNDTRIP
360
13EC
  0
DICTIONARY
  5
1403
330
1398
100
AcDbDictionary
280
     1
281
     1
  3
ACAD_XREC_ROUNDTRIP
360
1404
  0
XRECORD
  5
1414
102
{ACAD_REACTORS
330
1413
102
}
330
1413
100
AcDbXrecord
280
     1
102
DISPLAYNAME
  1
Imperial24
102
FLAGS
 90
        0
  0
XRECORD
  5
1416
102
{ACAD_REACTORS
330
1415
102
}
330
1415
100
AcDbXrecord
280
     1
102
SHADEPLOT
 70
     0
102
SHADEPLOTRESLEVEL
 70
     2
102
SHADEPLOTCUSTOMDPI
 70
   300
  0
XRECORD
  5
1418
102
{ACAD_REACTORS
330
1417
102
}
330
1417
100
AcDbXrecord
280
     1
102
SHADEPLOT
 70
     0
102
SHADEPLOTRESLEVEL
 70
     2
102
SHADEPLOTCUSTOMDPI
 70
   300
  0
XRECORD
  5
13DD
102
{ACAD_REACTORS
330
1376
102
}
330
1376
100
AcDbXrecord
280
     1
102
MATERIAL
148
0.0
149
0.0
149
0.0
 93
        0
 94
      127
282
     0
 72
     0
 77
     0
171
     0
175
     0
179
     0
273
     0
  0
XRECORD
  5
1378
102
{ACAD_REACTORS
330
1376
102
}
330
1376
100
AcDbXrecord
280
     1
270
     1
271
     1
  0
XRECORD
  5
1377
102
{ACAD_REACTORS
330
1376
102
}
330
1376
100
AcDbXrecord
280
     1
270
     1
271
     1
  0
XRECORD
  5
137B
102
{ACAD_REACTORS
330
1376
102
}
330
1376
100
AcDbXrecord
280
     1
270
     1
271
     1
  0
XRECORD
  5
137A
102
{ACAD_REACTORS
330
1376
102
}
330
1376
100
AcDbXrecord
280
     1
270
     1
271
     1
  0
XRECORD
  5
137C
102
{ACAD_REACTORS
330
1376
102
}
330
1376
100
AcDbXrecord
280
     1
270
     1
271
     1
  0
XRECORD
  5
1379
102
{ACAD_REACTORS
330
1376
102
}
330
1376
100
AcDbXrecord
280
     1
270
     1
271
     1
  0
XRECORD
  5
13DC
102
{ACAD_REACTORS
330
136E
102
}
330
136E
100
AcDbXrecord
280
     1
102
MATERIAL
148
0.0
149
0.0
149
0.0
 93
        0
 94
      127
282
     0
 72
     0
 77
     0
171
     0
175
     0
179
     0
273
     0
  0
XRECORD
  5
1370
102
{ACAD_REACTORS
330
136E
102
}
330
136E
100
AcDbXrecord
280
     1
270
     1
271
     1
  0
XRECORD
  5
136F
102
{ACAD_REACTORS
330
136E
102
}
330
136E
100
AcDbXrecord
280
     1
270
     1
271
     1
  0
XRECORD
  5
1373
102
{ACAD_REACTORS
330
136E
102
}
330
136E
100
AcDbXrecord
280
     1
270
     1
271
     1
  0
XRECORD
  5
1372
102
{ACAD_REACTORS
330
136E
102
}
330
136E
100
AcDbXrecord
280
     1
270
     1
271
     1
  0
XRECORD
  5
1374
102
{ACAD_REACTORS
330
136E
102
}
330
136E
100
AcDbXrecord
280
     1
270
     1
271
     1
  0
XRECORD
  5
1371
102
{ACAD_REACTORS
330
136E
102
}
330
136E
100
AcDbXrecord
280
     1
270
     1
271
     1
  0
XRECORD
  5
13DE
102
{ACAD_REACTORS
330
137E
102
}
330
137E
100
AcDbXrecord
280
     1
102
MATERIAL
148
0.0
149
0.0
149
0.0
 93
        0
 94
      127
282
     0
 72
     0
 77
     0
171
     0
175
     0
179
     0
273
     0
  0
XRECORD
  5
1380
102
{ACAD_REACTORS
330
137E
102
}
330
137E
100
AcDbXrecord
280
     1
270
     1
271
     1
  0
XRECORD
  5
137F
102
{ACAD_REACTORS
330
137E
102
}
330
137E
100
AcDbXrecord
280
     1
270
     1
271
     1
  0
XRECORD
  5
1383
102
{ACAD_REACTORS
330
137E
102
}
330
137E
100
AcDbXrecord
280
     1
270
     1
271
     1
  0
XRECORD
  5
1382
102
{ACAD_REACTORS
330
137E
102
}
330
137E
100
AcDbXrecord
280
     1
270
     1
271
     1
  0
XRECORD
  5
1384
102
{ACAD_REACTORS
330
137E
102
}
330
137E
100
AcDbXrecord
280
     1
270
     1
271
     1
  0
XRECORD
  5
1381
102
{ACAD_REACTORS
330
137E
102
}
330
137E
100
AcDbXrecord
280
     1
270
     1
271
     1
  0
XRECORD
  5
1412
102
{ACAD_REACTORS
330
1411
102
}
330
1411
100
AcDbXrecord
280
     1
102
DISPLAYNAME
  1
Imperial24
102
FLAGS
 90
        0
  0
CELLSTYLEMAP
  5
13D9
102
{ACAD_REACTORS
330
13D8
102
}
330
13D8
100
AcDbCellStyleMap
 90
        3
300
CELLSTYLE
  1
TABLEFORMAT_BEGIN
 90
        5
170
     1
 91
        0
 92
    32768
 62
   257
 93
        1
300
CONTENTFORMAT
  1
CONTENTFORMAT_BEGIN
 90
        0
 91
        0
 92
      512
 93
        0
300

 40
0.0
140
1.0
 94
        5
 62
     0
340
106D
144
0.25
309
CONTENTFORMAT_END
171
     0
 94
        0
309
TABLEFORMAT_END
  1
CELLSTYLE_BEGIN
 90
        1
 91
        1
300
_TITLE
309
CELLSTYLE_END
300
CELLSTYLE
  1
TABLEFORMAT_BEGIN
 90
        5
170
     1
 91
        0
 92
        0
 62
   257
 93
        1
300
CONTENTFORMAT
  1
CONTENTFORMAT_BEGIN
 90
        0
 91
        0
 92
      512
 93
        0
300

 40
0.0
140
1.0
 94
        5
 62
     0
340
106D
144
0.18
309
CONTENTFORMAT_END
171
     0
 94
        0
309
TABLEFORMAT_END
  1
CELLSTYLE_BEGIN
 90
        2
 91
        1
300
_HEADER
309
CELLSTYLE_END
300
CELLSTYLE
  1
TABLEFORMAT_BEGIN
 90
        5
170
     1
 91
        0
 92
        0
 62
   257
 93
        1
300
CONTENTFORMAT
  1
CONTENTFORMAT_BEGIN
 90
        0
 91
        0
 92
      512
 93
        0
300

 40
0.0
140
1.0
 94
        2
 62
     0
340
106D
144
0.18
309
CONTENTFORMAT_END
171
     0
 94
        0
309
TABLEFORMAT_END
  1
CELLSTYLE_BEGIN
 90
        3
 91
        2
300
_DATA
309
CELLSTYLE_END
  0
XRECORD
  5
140F
102
{ACAD_REACTORS
330
13D8
102
}
330
13D8
100
AcDbXrecord
280
     1
102
ACAD_ROUNDTRIP_PRE2007_TABLESTYLE
 90
      512
 91
        0
  1

 92
      512
 93
        0
  2

 94
      512
 95
        0
  3

  0
XRECORD
  5
13EA
102
{ACAD_REACTORS
330
13E9
102
}
330
13E9
100
AcDbXrecord
280
     1
102
RTVSPost2010Prop28
280
     1
102
RTVSPost2010PropOp28
 70
     1
102
RTVSPost2010Prop29
280
     1
102
RTVSPost2010PropOp29
 70
     1
102
RTVSPost2010Prop30
280
     0
102
RTVSPost2010PropOp30
 70
     1
102
RTVSPost2010Prop31
280
     0
102
RTVSPost2010PropOp31
 70
     1
102
RTVSPost2010Prop32
280
     0
102
RTVSPost2010PropOp32
 70
     1
102
RTVSPost2010Prop33
280
     0
102
RTVSPost2010PropOp33
 70
     1
102
RTVSPost2010Prop34
280
     0
102
RTVSPost2010PropOp34
 70
     1
102
RTVSPost2010Prop35
280
     0
102
RTVSPost2010PropOp35
 70
     1
102
RTVSPost2010Prop36
280
     0
102
RTVSPost2010PropOp36
 70
     1
102
RTVSPost2010Prop37
 90
       50
102
RTVSPost2010PropOp37
 70
     1
102
RTVSPost2010Prop38
140
0.0
102
RTVSPost2010PropOp38
 70
     1
102
RTVSPost2010Prop39
140
1.0
102
RTVSPost2010PropOp39
 70
     1
102
RTVSPost2010Prop40
 90
        0
102
RTVSPost2010PropOp40
 70
     1
102
RTVSPost2010Prop41ColorIndex
 90
       18
102
RTVSPost2010Prop41ColorRGB
 90
        0
102
RTVSPost2010PropOp41
 70
     1
102
RTVSPost2010Prop42
 90
       50
102
RTVSPost2010PropOp42
 70
     1
102
RTVSPost2010Prop43
 90
        3
102
RTVSPost2010PropOp43
 70
     1
102
RTVSPost2010Prop44ColorIndex
 90
        5
102
RTVSPost2010Prop44ColorRGB
 90
      255
102
RTVSPost2010PropOp44
 70
     1
102
RTVSPost2010Prop45
280
     0
102
RTVSPost2010PropOp45
 70
     1
102
RTVSPost2010Prop46
 90
       50
102
RTVSPost2010PropOp46
 70
     1
102
RTVSPost2010Prop47
 90
       50
102
RTVSPost2010PropOp47
 70
     1
102
RTVSPost2010Prop48
 90
       50
102
RTVSPost2010PropOp48
 70
     1
102
RTVSPost2010Prop49
280
     0
102
RTVSPost2010PropOp49
 70
     1
102
RTVSPost2010Prop50
 90
       50
102
RTVSPost2010PropOp50
 70
     1
102
RTVSPost2010Prop51ColorIndex
 90
      256
102
RTVSPost2010Prop51ColorRGB
 90
-16777216
102
RTVSPost2010PropOp51
 70
     0
102
RTVSPost2010Prop52
140
1.0
102
RTVSPost2010PropOp52
 70
     0
102
RTVSPost2010Prop53
 90
        2
102
RTVSPost2010PropOp53
 70
     1
102
RTVSPost2010Prop54
  1
strokes_ogs.tif
102
RTVSPost2010PropOp54
 70
     1
102
RTVSPost2010Prop55
280
     0
102
RTVSPost2010PropOp55
 70
     1
102
RTVSPost2010Prop56
140
1.0
102
RTVSPost2010PropOp56
 70
     1
102
RTVSPost2010Prop57
140
1.0
102
RTVSPost2010PropOp57
 70
     1
102
RTVSPropertyOp0
 70
     1
102
RTVSPropertyOp1
 70
     1
102
RTVSPropertyOp2
 70
     1
102
RTVSPropertyOp3
 70
     1
102
RTVSPropertyOp4
 70
     1
102
RTVSPropertyOp5
 70
     1
102
RTVSPropertyOp6
 70
     1
102
RTVSPropertyOp7
 70
     1
102
RTVSPropertyOp8
 70
     1
102
RTVSPropertyOp9
 70
     1
102
RTVSPropertyOp10
 70
     1
102
RTVSPropertyOp11
 70
     1
102
RTVSPropertyOp12
 70
     1
102
RTVSPropertyOp13
 70
     1
102
RTVSPropertyOp14
 70
     1
102
RTVSPropertyOp15
 70
     1
102
RTVSPropertyOp16
 70
     1
102
RTVSPropertyOp17
 70
     1
102
RTVSPropertyOp18
 70
     1
102
RTVSPropertyOp19
 70
     1
102
RTVSPropertyOp20
 70
     1
102
RTVSPropertyOp21
 70
     1
102
RTVSPropertyOp22
 70
     1
102
RTVSPropertyOp23
 70
     1
102
RTVSPropertyOp24
 70
     1
102
RTVSPropertyOp25
 70
     1
102
RTVSPropertyOp26
 70
     1
102
RTVSPropertyOp27
 70
     1
102
RTVSPropertyOp28
 70
     1
102
RTVSPropertyOp29
 70
     1
102
RTVSPropertyOp30
 70
     1
102
RTVSPropertyOp31
 70
     1
102
RTVSPropertyOp32
 70
     1
102
RTVSPropertyOp33
 70
     1
102
RTVSPropertyOp34
 70
     1
102
RTVSPropertyOp35
 70
     1
102
RTVSPropertyOp36
 70
     1
102
RTVSPropertyOp37
 70
     1
102
RTVSPropertyOp38
 70
     1
102
RTVSPropertyOp39
 70
     1
102
RTVSPropertyOp40
 70
     1
102
RTVSPropertyOp41
 70
     1
102
RTVSPropertyOp42
 70
     1
102
RTVSPropertyOp43
 70
     1
102
RTVSPropertyOp44
 70
     1
102
RTVSPropertyOp45
 70
     1
102
RTVSPropertyOp46
 70
     1
102
RTVSPropertyOp47
 70
     1
102
RTVSPropertyOp48
 70
     1
102
RTVSPropertyOp49
 70
     1
102
RTVSPropertyOp50
 70
     1
102
RTVSPropertyOp51
 70
     0
102
RTVSPropertyOp52
 70
     0
102
RTVSPropertyOp53
 70
     1
102
RTVSPropertyOp54
 70
     1
102
RTVSPropertyOp55
 70
     1
102
RTVSPropertyOp56
 70
     1
102
RTVSPropertyOp57
 70
     1
102
RTVSPropertyOp58
 70
     1
102
RTVSPropertyOp59
 70
     1
102
RTVSPropertyOp60
 70
     1
102
RTVSPropertyOp61
 70
     1
102
RTVSPropertyOp62
 70
     1
  0
XRECORD
  5
13E8
102
{ACAD_REACTORS
330
13E7
102
}
330
13E7
100
AcDbXrecord
280
     1
102
RTVSPost2010Prop28
280
     0
102
RTVSPost2010PropOp28
 70
     1
102
RTVSPost2010Prop29
280
     1
102
RTVSPost2010PropOp29
 70
     1
102
RTVSPost2010Prop30
280
     1
102
RTVSPost2010PropOp30
 70
     1
102
RTVSPost2010Prop31
280
     0
102
RTVSPost2010PropOp31
 70
     1
102
RTVSPost2010Prop32
280
     0
102
RTVSPost2010PropOp32
 70
     1
102
RTVSPost2010Prop33
280
     0
102
RTVSPost2010PropOp33
 70
     1
102
RTVSPost2010Prop34
280
     0
102
RTVSPost2010PropOp34
 70
     1
102
RTVSPost2010Prop35
280
     0
102
RTVSPost2010PropOp35
 70
     1
102
RTVSPost2010Prop36
280
     0
102
RTVSPost2010PropOp36
 70
     1
102
RTVSPost2010Prop37
 90
       50
102
RTVSPost2010PropOp37
 70
     1
102
RTVSPost2010Prop38
140
0.0
102
RTVSPost2010PropOp38
 70
     1
102
RTVSPost2010Prop39
140
1.0
102
RTVSPost2010PropOp39
 70
     1
102
RTVSPost2010Prop40
 90
        0
102
RTVSPost2010PropOp40
 70
     1
102
RTVSPost2010Prop41ColorIndex
 90
       18
102
RTVSPost2010Prop41ColorRGB
 90
        0
102
RTVSPost2010PropOp41
 70
     1
102
RTVSPost2010Prop42
 90
       50
102
RTVSPost2010PropOp42
 70
     1
102
RTVSPost2010Prop43
 90
        3
102
RTVSPost2010PropOp43
 70
     1
102
RTVSPost2010Prop44ColorIndex
 90
        5
102
RTVSPost2010Prop44ColorRGB
 90
      255
102
RTVSPost2010PropOp44
 70
     1
102
RTVSPost2010Prop45
280
     0
102
RTVSPost2010PropOp45
 70
     1
102
RTVSPost2010Prop46
 90
       50
102
RTVSPost2010PropOp46
 70
     1
102
RTVSPost2010Prop47
 90
       50
102
RTVSPost2010PropOp47
 70
     1
102
RTVSPost2010Prop48
 90
       50
102
RTVSPost2010PropOp48
 70
     1
102
RTVSPost2010Prop49
280
     0
102
RTVSPost2010PropOp49
 70
     1
102
RTVSPost2010Prop50
 90
       50
102
RTVSPost2010PropOp50
 70
     1
102
RTVSPost2010Prop51ColorIndex
 90
      256
102
RTVSPost2010Prop51ColorRGB
 90
-16777216
102
RTVSPost2010PropOp51
 70
     0
102
RTVSPost2010Prop52
140
1.0
102
RTVSPost2010PropOp52
 70
     0
102
RTVSPost2010Prop53
 90
        2
102
RTVSPost2010PropOp53
 70
     1
102
RTVSPost2010Prop54
  1
strokes_ogs.tif
102
RTVSPost2010PropOp54
 70
     1
102
RTVSPost2010Prop55
280
     0
102
RTVSPost2010PropOp55
 70
     1
102
RTVSPost2010Prop56
140
1.0
102
RTVSPost2010PropOp56
 70
     1
102
RTVSPost2010Prop57
140
1.0
102
RTVSPost2010PropOp57
 70
     1
102
RTVSPropertyOp0
 70
     1
102
RTVSPropertyOp1
 70
     1
102
RTVSPropertyOp2
 70
     1
102
RTVSPropertyOp3
 70
     1
102
RTVSPropertyOp4
 70
     1
102
RTVSPropertyOp5
 70
     1
102
RTVSPropertyOp6
 70
     1
102
RTVSPropertyOp7
 70
     1
102
RTVSPropertyOp8
 70
     1
102
RTVSPropertyOp9
 70
     1
102
RTVSPropertyOp10
 70
     1
102
RTVSPropertyOp11
 70
     1
102
RTVSPropertyOp12
 70
     1
102
RTVSPropertyOp13
 70
     1
102
RTVSPropertyOp14
 70
     1
102
RTVSPropertyOp15
 70
     1
102
RTVSPropertyOp16
 70
     1
102
RTVSPropertyOp17
 70
     1
102
RTVSPropertyOp18
 70
     1
102
RTVSPropertyOp19
 70
     1
102
RTVSPropertyOp20
 70
     1
102
RTVSPropertyOp21
 70
     1
102
RTVSPropertyOp22
 70
     1
102
RTVSPropertyOp23
 70
     1
102
RTVSPropertyOp24
 70
     1
102
RTVSPropertyOp25
 70
     1
102
RTVSPropertyOp26
 70
     1
102
RTVSPropertyOp27
 70
     1
102
RTVSPropertyOp28
 70
     1
102
RTVSPropertyOp29
 70
     1
102
RTVSPropertyOp30
 70
     1
102
RTVSPropertyOp31
 70
     1
102
RTVSPropertyOp32
 70
     1
102
RTVSPropertyOp33
 70
     1
102
RTVSPropertyOp34
 70
     1
102
RTVSPropertyOp35
 70
     1
102
RTVSPropertyOp36
 70
     1
102
RTVSPropertyOp37
 70
     1
102
RTVSPropertyOp38
 70
     1
102
RTVSPropertyOp39
 70
     1
102
RTVSPropertyOp40
 70
     1
102
RTVSPropertyOp41
 70
     1
102
RTVSPropertyOp42
 70
     1
102
RTVSPropertyOp43
 70
     1
102
RTVSPropertyOp44
 70
     1
102
RTVSPropertyOp45
 70
     1
102
RTVSPropertyOp46
 70
     1
102
RTVSPropertyOp47
 70
     1
102
RTVSPropertyOp48
 70
     1
102
RTVSPropertyOp49
 70
     1
102
RTVSPropertyOp50
 70
     1
102
RTVSPropertyOp51
 70
     0
102
RTVSPropertyOp52
 70
     0
102
RTVSPropertyOp53
 70
     1
102
RTVSPropertyOp54
 70
     1
102
RTVSPropertyOp55
 70
     1
102
RTVSPropertyOp56
 70
     1
102
RTVSPropertyOp57
 70
     1
102
RTVSPropertyOp58
 70
     1
102
RTVSPropertyOp59
 70
     1
102
RTVSPropertyOp60
 70
     1
102
RTVSPropertyOp61
 70
     1
102
RTVSPropertyOp62
 70
     1
  0
XRECORD
  5
13F6
102
{ACAD_REACTORS
330
13F5
102
}
330
13F5
100
AcDbXrecord
280
     1
102
RTVSPost2010Prop28
280
     0
102
RTVSPost2010PropOp28
 70
     1
102
RTVSPost2010Prop29
280
     1
102
RTVSPost2010PropOp29
 70
     1
102
RTVSPost2010Prop30
280
     1
102
RTVSPost2010PropOp30
 70
     1
102
RTVSPost2010Prop31
280
     0
102
RTVSPost2010PropOp31
 70
     1
102
RTVSPost2010Prop32
280
     0
102
RTVSPost2010PropOp32
 70
     1
102
RTVSPost2010Prop33
280
     0
102
RTVSPost2010PropOp33
 70
     1
102
RTVSPost2010Prop34
280
     0
102
RTVSPost2010PropOp34
 70
     1
102
RTVSPost2010Prop35
280
     0
102
RTVSPost2010PropOp35
 70
     1
102
RTVSPost2010Prop36
280
     0
102
RTVSPost2010PropOp36
 70
     1
102
RTVSPost2010Prop37
 90
       50
102
RTVSPost2010PropOp37
 70
     1
102
RTVSPost2010Prop38
140
0.0
102
RTVSPost2010PropOp38
 70
     1
102
RTVSPost2010Prop39
140
1.0
102
RTVSPost2010PropOp39
 70
     1
102
RTVSPost2010Prop40
 90
        0
102
RTVSPost2010PropOp40
 70
     1
102
RTVSPost2010Prop41ColorIndex
 90
       18
102
RTVSPost2010Prop41ColorRGB
 90
        0
102
RTVSPost2010PropOp41
 70
     1
102
RTVSPost2010Prop42
 90
       50
102
RTVSPost2010PropOp42
 70
     1
102
RTVSPost2010Prop43
 90
        3
102
RTVSPost2010PropOp43
 70
     1
102
RTVSPost2010Prop44ColorIndex
 90
        5
102
RTVSPost2010Prop44ColorRGB
 90
      255
102
RTVSPost2010PropOp44
 70
     1
102
RTVSPost2010Prop45
280
     0
102
RTVSPost2010PropOp45
 70
     1
102
RTVSPost2010Prop46
 90
       50
102
RTVSPost2010PropOp46
 70
     1
102
RTVSPost2010Prop47
 90
       50
102
RTVSPost2010PropOp47
 70
     1
102
RTVSPost2010Prop48
 90
       50
102
RTVSPost2010PropOp48
 70
     1
102
RTVSPost2010Prop49
280
     0
102
RTVSPost2010PropOp49
 70
     1
102
RTVSPost2010Prop50
 90
       50
102
RTVSPost2010PropOp50
 70
     1
102
RTVSPost2010Prop51ColorIndex
 90
      256
102
RTVSPost2010Prop51ColorRGB
 90
-16777216
102
RTVSPost2010PropOp51
 70
     0
102
RTVSPost2010Prop52
140
1.0
102
RTVSPost2010PropOp52
 70
     0
102
RTVSPost2010Prop53
 90
        2
102
RTVSPost2010PropOp53
 70
     1
102
RTVSPost2010Prop54
  1
strokes_ogs.tif
102
RTVSPost2010PropOp54
 70
     1
102
RTVSPost2010Prop55
280
     0
102
RTVSPost2010PropOp55
 70
     1
102
RTVSPost2010Prop56
140
1.0
102
RTVSPost2010PropOp56
 70
     1
102
RTVSPost2010Prop57
140
1.0
102
RTVSPost2010PropOp57
 70
     1
102
RTVSPropertyOp0
 70
     1
102
RTVSPropertyOp1
 70
     1
102
RTVSPropertyOp2
 70
     1
102
RTVSPropertyOp3
 70
     1
102
RTVSPropertyOp4
 70
     1
102
RTVSPropertyOp5
 70
     1
102
RTVSPropertyOp6
 70
     1
102
RTVSPropertyOp7
 70
     1
102
RTVSPropertyOp8
 70
     1
102
RTVSPropertyOp9
 70
     1
102
RTVSPropertyOp10
 70
     1
102
RTVSPropertyOp11
 70
     1
102
RTVSPropertyOp12
 70
     1
102
RTVSPropertyOp13
 70
     1
102
RTVSPropertyOp14
 70
     1
102
RTVSPropertyOp15
 70
     1
102
RTVSPropertyOp16
 70
     1
102
RTVSPropertyOp17
 70
     1
102
RTVSPropertyOp18
 70
     1
102
RTVSPropertyOp19
 70
     1
102
RTVSPropertyOp20
 70
     1
102
RTVSPropertyOp21
 70
     1
102
RTVSPropertyOp22
 70
     1
102
RTVSPropertyOp23
 70
     1
102
RTVSPropertyOp24
 70
     1
102
RTVSPropertyOp25
 70
     1
102
RTVSPropertyOp26
 70
     1
102
RTVSPropertyOp27
 70
     1
102
RTVSPropertyOp28
 70
     1
102
RTVSPropertyOp29
 70
     1
102
RTVSPropertyOp30
 70
     1
102
RTVSPropertyOp31
 70
     1
102
RTVSPropertyOp32
 70
     1
102
RTVSPropertyOp33
 70
     1
102
RTVSPropertyOp34
 70
     1
102
RTVSPropertyOp35
 70
     1
102
RTVSPropertyOp36
 70
     1
102
RTVSPropertyOp37
 70
     1
102
RTVSPropertyOp38
 70
     1
102
RTVSPropertyOp39
 70
     1
102
RTVSPropertyOp40
 70
     1
102
RTVSPropertyOp41
 70
     1
102
RTVSPropertyOp42
 70
     1
102
RTVSPropertyOp43
 70
     1
102
RTVSPropertyOp44
 70
     1
102
RTVSPropertyOp45
 70
     1
102
RTVSPropertyOp46
 70
     1
102
RTVSPropertyOp47
 70
     1
102
RTVSPropertyOp48
 70
     1
102
RTVSPropertyOp49
 70
     1
102
RTVSPropertyOp50
 70
     1
102
RTVSPropertyOp51
 70
     0
102
RTVSPropertyOp52
 70
     0
102
RTVSPropertyOp53
 70
     1
102
RTVSPropertyOp54
 70
     1
102
RTVSPropertyOp55
 70
     1
102
RTVSPropertyOp56
 70
     1
102
RTVSPropertyOp57
 70
     1
102
RTVSPropertyOp58
 70
     1
102
RTVSPropertyOp59
 70
     1
102
RTVSPropertyOp60
 70
     1
102
RTVSPropertyOp61
 70
     1
102
RTVSPropertyOp62
 70
     1
  0
XRECORD
  5
13FE
102
{ACAD_REACTORS
330
13FD
102
}
330
13FD
100
AcDbXrecord
280
     1
102
RTVSPost2010Prop28
280
     0
102
RTVSPost2010PropOp28
 70
     1
102
RTVSPost2010Prop29
280
     1
102
RTVSPost2010PropOp29
 70
     1
102
RTVSPost2010Prop30
280
     1
102
RTVSPost2010PropOp30
 70
     1
102
RTVSPost2010Prop31
280
     0
102
RTVSPost2010PropOp31
 70
     1
102
RTVSPost2010Prop32
280
     0
102
RTVSPost2010PropOp32
 70
     1
102
RTVSPost2010Prop33
280
     0
102
RTVSPost2010PropOp33
 70
     1
102
RTVSPost2010Prop34
280
     0
102
RTVSPost2010PropOp34
 70
     1
102
RTVSPost2010Prop35
280
     0
102
RTVSPost2010PropOp35
 70
     1
102
RTVSPost2010Prop36
280
     0
102
RTVSPost2010PropOp36
 70
     1
102
RTVSPost2010Prop37
 90
       50
102
RTVSPost2010PropOp37
 70
     1
102
RTVSPost2010Prop38
140
0.0
102
RTVSPost2010PropOp38
 70
     1
102
RTVSPost2010Prop39
140
1.0
102
RTVSPost2010PropOp39
 70
     1
102
RTVSPost2010Prop40
 90
        0
102
RTVSPost2010PropOp40
 70
     1
102
RTVSPost2010Prop41ColorIndex
 90
       18
102
RTVSPost2010Prop41ColorRGB
 90
        0
102
RTVSPost2010PropOp41
 70
     1
102
RTVSPost2010Prop42
 90
       50
102
RTVSPost2010PropOp42
 70
     1
102
RTVSPost2010Prop43
 90
        3
102
RTVSPost2010PropOp43
 70
     1
102
RTVSPost2010Prop44ColorIndex
 90
        5
102
RTVSPost2010Prop44ColorRGB
 90
      255
102
RTVSPost2010PropOp44
 70
     1
102
RTVSPost2010Prop45
280
     0
102
RTVSPost2010PropOp45
 70
     1
102
RTVSPost2010Prop46
 90
       50
102
RTVSPost2010PropOp46
 70
     1
102
RTVSPost2010Prop47
 90
       50
102
RTVSPost2010PropOp47
 70
     1
102
RTVSPost2010Prop48
 90
       50
102
RTVSPost2010PropOp48
 70
     1
102
RTVSPost2010Prop49
280
     0
102
RTVSPost2010PropOp49
 70
     1
102
RTVSPost2010Prop50
 90
       50
102
RTVSPost2010PropOp50
 70
     1
102
RTVSPost2010Prop51ColorIndex
 90
      256
102
RTVSPost2010Prop51ColorRGB
 90
-16777216
102
RTVSPost2010PropOp51
 70
     0
102
RTVSPost2010Prop52
140
1.0
102
RTVSPost2010PropOp52
 70
     0
102
RTVSPost2010Prop53
 90
        2
102
RTVSPost2010PropOp53
 70
     1
102
RTVSPost2010Prop54
  1
strokes_ogs.tif
102
RTVSPost2010PropOp54
 70
     1
102
RTVSPost2010Prop55
280
     0
102
RTVSPost2010PropOp55
 70
     1
102
RTVSPost2010Prop56
140
1.0
102
RTVSPost2010PropOp56
 70
     1
102
RTVSPost2010Prop57
140
1.0
102
RTVSPost2010PropOp57
 70
     1
102
RTVSPropertyOp0
 70
     1
102
RTVSPropertyOp1
 70
     1
102
RTVSPropertyOp2
 70
     1
102
RTVSPropertyOp3
 70
     1
102
RTVSPropertyOp4
 70
     1
102
RTVSPropertyOp5
 70
     1
102
RTVSPropertyOp6
 70
     1
102
RTVSPropertyOp7
 70
     1
102
RTVSPropertyOp8
 70
     1
102
RTVSPropertyOp9
 70
     1
102
RTVSPropertyOp10
 70
     1
102
RTVSPropertyOp11
 70
     1
102
RTVSPropertyOp12
 70
     1
102
RTVSPropertyOp13
 70
     1
102
RTVSPropertyOp14
 70
     1
102
RTVSPropertyOp15
 70
     1
102
RTVSPropertyOp16
 70
     1
102
RTVSPropertyOp17
 70
     1
102
RTVSPropertyOp18
 70
     1
102
RTVSPropertyOp19
 70
     1
102
RTVSPropertyOp20
 70
     1
102
RTVSPropertyOp21
 70
     1
102
RTVSPropertyOp22
 70
     1
102
RTVSPropertyOp23
 70
     1
102
RTVSPropertyOp24
 70
     1
102
RTVSPropertyOp25
 70
     1
102
RTVSPropertyOp26
 70
     1
102
RTVSPropertyOp27
 70
     1
102
RTVSPropertyOp28
 70
     1
102
RTVSPropertyOp29
 70
     1
102
RTVSPropertyOp30
 70
     1
102
RTVSPropertyOp31
 70
     1
102
RTVSPropertyOp32
 70
     1
102
RTVSPropertyOp33
 70
     1
102
RTVSPropertyOp34
 70
     1
102
RTVSPropertyOp35
 70
     1
102
RTVSPropertyOp36
 70
     1
102
RTVSPropertyOp37
 70
     1
102
RTVSPropertyOp38
 70
     1
102
RTVSPropertyOp39
 70
     1
102
RTVSPropertyOp40
 70
     1
102
RTVSPropertyOp41
 70
     1
102
RTVSPropertyOp42
 70
     1
102
RTVSPropertyOp43
 70
     1
102
RTVSPropertyOp44
 70
     1
102
RTVSPropertyOp45
 70
     1
102
RTVSPropertyOp46
 70
     1
102
RTVSPropertyOp47
 70
     1
102
RTVSPropertyOp48
 70
     1
102
RTVSPropertyOp49
 70
     1
102
RTVSPropertyOp50
 70
     1
102
RTVSPropertyOp51
 70
     0
102
RTVSPropertyOp52
 70
     0
102
RTVSPropertyOp53
 70
     1
102
RTVSPropertyOp54
 70
     1
102
RTVSPropertyOp55
 70
     1
102
RTVSPropertyOp56
 70
     1
102
RTVSPropertyOp57
 70
     1
102
RTVSPropertyOp58
 70
     1
102
RTVSPropertyOp59
 70
     1
102
RTVSPropertyOp60
 70
     1
102
RTVSPropertyOp61
 70
     1
102
RTVSPropertyOp62
 70
     1
  0
XRECORD
  5
13F0
102
{ACAD_REACTORS
330
13EF
102
}
330
13EF
100
AcDbXrecord
280
     1
102
RTVSPost2010Prop28
280
     0
102
RTVSPost2010PropOp28
 70
     1
102
RTVSPost2010Prop29
280
     1
102
RTVSPost2010PropOp29
 70
     1
102
RTVSPost2010Prop30
280
     1
102
RTVSPost2010PropOp30
 70
     1
102
RTVSPost2010Prop31
280
     0
102
RTVSPost2010PropOp31
 70
     1
102
RTVSPost2010Prop32
280
     0
102
RTVSPost2010PropOp32
 70
     1
102
RTVSPost2010Prop33
280
     0
102
RTVSPost2010PropOp33
 70
     1
102
RTVSPost2010Prop34
280
     0
102
RTVSPost2010PropOp34
 70
     1
102
RTVSPost2010Prop35
280
     0
102
RTVSPost2010PropOp35
 70
     1
102
RTVSPost2010Prop36
280
     0
102
RTVSPost2010PropOp36
 70
     1
102
RTVSPost2010Prop37
 90
       50
102
RTVSPost2010PropOp37
 70
     1
102
RTVSPost2010Prop38
140
0.0
102
RTVSPost2010PropOp38
 70
     1
102
RTVSPost2010Prop39
140
1.0
102
RTVSPost2010PropOp39
 70
     1
102
RTVSPost2010Prop40
 90
        0
102
RTVSPost2010PropOp40
 70
     1
102
RTVSPost2010Prop41ColorIndex
 90
       18
102
RTVSPost2010Prop41ColorRGB
 90
        0
102
RTVSPost2010PropOp41
 70
     1
102
RTVSPost2010Prop42
 90
       50
102
RTVSPost2010PropOp42
 70
     1
102
RTVSPost2010Prop43
 90
        3
102
RTVSPost2010PropOp43
 70
     1
102
RTVSPost2010Prop44ColorIndex
 90
        5
102
RTVSPost2010Prop44ColorRGB
 90
      255
102
RTVSPost2010PropOp44
 70
     1
102
RTVSPost2010Prop45
280
     0
102
RTVSPost2010PropOp45
 70
     1
102
RTVSPost2010Prop46
 90
       50
102
RTVSPost2010PropOp46
 70
     1
102
RTVSPost2010Prop47
 90
       50
102
RTVSPost2010PropOp47
 70
     1
102
RTVSPost2010Prop48
 90
       50
102
RTVSPost2010PropOp48
 70
     1
102
RTVSPost2010Prop49
280
     0
102
RTVSPost2010PropOp49
 70
     1
102
RTVSPost2010Prop50
 90
       50
102
RTVSPost2010PropOp50
 70
     1
102
RTVSPost2010Prop51ColorIndex
 90
      256
102
RTVSPost2010Prop51ColorRGB
 90
-16777216
102
RTVSPost2010PropOp51
 70
     0
102
RTVSPost2010Prop52
140
1.0
102
RTVSPost2010PropOp52
 70
     0
102
RTVSPost2010Prop53
 90
        2
102
RTVSPost2010PropOp53
 70
     1
102
RTVSPost2010Prop54
  1
strokes_ogs.tif
102
RTVSPost2010PropOp54
 70
     1
102
RTVSPost2010Prop55
280
     0
102
RTVSPost2010PropOp55
 70
     1
102
RTVSPost2010Prop56
140
1.0
102
RTVSPost2010PropOp56
 70
     1
102
RTVSPost2010Prop57
140
1.0
102
RTVSPost2010PropOp57
 70
     1
102
RTVSPropertyOp0
 70
     1
102
RTVSPropertyOp1
 70
     1
102
RTVSPropertyOp2
 70
     1
102
RTVSPropertyOp3
 70
     1
102
RTVSPropertyOp4
 70
     1
102
RTVSPropertyOp5
 70
     1
102
RTVSPropertyOp6
 70
     1
102
RTVSPropertyOp7
 70
     1
102
RTVSPropertyOp8
 70
     1
102
RTVSPropertyOp9
 70
     1
102
RTVSPropertyOp10
 70
     1
102
RTVSPropertyOp11
 70
     1
102
RTVSPropertyOp12
 70
     1
102
RTVSPropertyOp13
 70
     1
102
RTVSPropertyOp14
 70
     1
102
RTVSPropertyOp15
 70
     1
102
RTVSPropertyOp16
 70
     1
102
RTVSPropertyOp17
 70
     1
102
RTVSPropertyOp18
 70
     1
102
RTVSPropertyOp19
 70
     1
102
RTVSPropertyOp20
 70
     1
102
RTVSPropertyOp21
 70
     1
102
RTVSPropertyOp22
 70
     1
102
RTVSPropertyOp23
 70
     1
102
RTVSPropertyOp24
 70
     1
102
RTVSPropertyOp25
 70
     1
102
RTVSPropertyOp26
 70
     1
102
RTVSPropertyOp27
 70
     1
102
RTVSPropertyOp28
 70
     1
102
RTVSPropertyOp29
 70
     1
102
RTVSPropertyOp30
 70
     1
102
RTVSPropertyOp31
 70
     1
102
RTVSPropertyOp32
 70
     1
102
RTVSPropertyOp33
 70
     1
102
RTVSPropertyOp34
 70
     1
102
RTVSPropertyOp35
 70
     1
102
RTVSPropertyOp36
 70
     1
102
RTVSPropertyOp37
 70
     1
102
RTVSPropertyOp38
 70
     1
102
RTVSPropertyOp39
 70
     1
102
RTVSPropertyOp40
 70
     1
102
RTVSPropertyOp41
 70
     1
102
RTVSPropertyOp42
 70
     1
102
RTVSPropertyOp43
 70
     1
102
RTVSPropertyOp44
 70
     1
102
RTVSPropertyOp45
 70
     1
102
RTVSPropertyOp46
 70
     1
102
RTVSPropertyOp47
 70
     1
102
RTVSPropertyOp48
 70
     1
102
RTVSPropertyOp49
 70
     1
102
RTVSPropertyOp50
 70
     1
102
RTVSPropertyOp51
 70
     0
102
RTVSPropertyOp52
 70
     0
102
RTVSPropertyOp53
 70
     1
102
RTVSPropertyOp54
 70
     1
102
RTVSPropertyOp55
 70
     1
102
RTVSPropertyOp56
 70
     1
102
RTVSPropertyOp57
 70
     1
102
RTVSPropertyOp58
 70
     1
102
RTVSPropertyOp59
 70
     1
102
RTVSPropertyOp60
 70
     1
102
RTVSPropertyOp61
 70
     1
102
RTVSPropertyOp62
 70
     1
  0
XRECORD
  5
13F4
102
{ACAD_REACTORS
330
13F3
102
}
330
13F3
100
AcDbXrecord
280
     1
102
RTVSPost2010Prop28
280
     0
102
RTVSPost2010PropOp28
 70
     1
102
RTVSPost2010Prop29
280
     1
102
RTVSPost2010PropOp29
 70
     1
102
RTVSPost2010Prop30
280
     1
102
RTVSPost2010PropOp30
 70
     1
102
RTVSPost2010Prop31
280
     0
102
RTVSPost2010PropOp31
 70
     1
102
RTVSPost2010Prop32
280
     0
102
RTVSPost2010PropOp32
 70
     1
102
RTVSPost2010Prop33
280
     0
102
RTVSPost2010PropOp33
 70
     1
102
RTVSPost2010Prop34
280
     0
102
RTVSPost2010PropOp34
 70
     1
102
RTVSPost2010Prop35
280
     0
102
RTVSPost2010PropOp35
 70
     1
102
RTVSPost2010Prop36
280
     0
102
RTVSPost2010PropOp36
 70
     1
102
RTVSPost2010Prop37
 90
       50
102
RTVSPost2010PropOp37
 70
     1
102
RTVSPost2010Prop38
140
0.0
102
RTVSPost2010PropOp38
 70
     1
102
RTVSPost2010Prop39
140
1.0
102
RTVSPost2010PropOp39
 70
     1
102
RTVSPost2010Prop40
 90
        0
102
RTVSPost2010PropOp40
 70
     1
102
RTVSPost2010Prop41ColorIndex
 90
       18
102
RTVSPost2010Prop41ColorRGB
 90
        0
102
RTVSPost2010PropOp41
 70
     1
102
RTVSPost2010Prop42
 90
       50
102
RTVSPost2010PropOp42
 70
     1
102
RTVSPost2010Prop43
 90
        3
102
RTVSPost2010PropOp43
 70
     1
102
RTVSPost2010Prop44ColorIndex
 90
        5
102
RTVSPost2010Prop44ColorRGB
 90
      255
102
RTVSPost2010PropOp44
 70
     1
102
RTVSPost2010Prop45
280
     0
102
RTVSPost2010PropOp45
 70
     1
102
RTVSPost2010Prop46
 90
       50
102
RTVSPost2010PropOp46
 70
     1
102
RTVSPost2010Prop47
 90
       50
102
RTVSPost2010PropOp47
 70
     1
102
RTVSPost2010Prop48
 90
       50
102
RTVSPost2010PropOp48
 70
     1
102
RTVSPost2010Prop49
280
     0
102
RTVSPost2010PropOp49
 70
     1
102
RTVSPost2010Prop50
 90
       50
102
RTVSPost2010PropOp50
 70
     1
102
RTVSPost2010Prop51ColorIndex
 90
      256
102
RTVSPost2010Prop51ColorRGB
 90
-16777216
102
RTVSPost2010PropOp51
 70
     0
102
RTVSPost2010Prop52
140
1.0
102
RTVSPost2010PropOp52
 70
     0
102
RTVSPost2010Prop53
 90
        2
102
RTVSPost2010PropOp53
 70
     1
102
RTVSPost2010Prop54
  1
strokes_ogs.tif
102
RTVSPost2010PropOp54
 70
     1
102
RTVSPost2010Prop55
280
     0
102
RTVSPost2010PropOp55
 70
     1
102
RTVSPost2010Prop56
140
1.0
102
RTVSPost2010PropOp56
 70
     1
102
RTVSPost2010Prop57
140
1.0
102
RTVSPost2010PropOp57
 70
     1
102
RTVSPropertyOp0
 70
     1
102
RTVSPropertyOp1
 70
     1
102
RTVSPropertyOp2
 70
     1
102
RTVSPropertyOp3
 70
     1
102
RTVSPropertyOp4
 70
     1
102
RTVSPropertyOp5
 70
     1
102
RTVSPropertyOp6
 70
     1
102
RTVSPropertyOp7
 70
     1
102
RTVSPropertyOp8
 70
     1
102
RTVSPropertyOp9
 70
     1
102
RTVSPropertyOp10
 70
     1
102
RTVSPropertyOp11
 70
     1
102
RTVSPropertyOp12
 70
     1
102
RTVSPropertyOp13
 70
     1
102
RTVSPropertyOp14
 70
     1
102
RTVSPropertyOp15
 70
     1
102
RTVSPropertyOp16
 70
     1
102
RTVSPropertyOp17
 70
     1
102
RTVSPropertyOp18
 70
     1
102
RTVSPropertyOp19
 70
     1
102
RTVSPropertyOp20
 70
     1
102
RTVSPropertyOp21
 70
     1
102
RTVSPropertyOp22
 70
     1
102
RTVSPropertyOp23
 70
     1
102
RTVSPropertyOp24
 70
     1
102
RTVSPropertyOp25
 70
     1
102
RTVSPropertyOp26
 70
     1
102
RTVSPropertyOp27
 70
     1
102
RTVSPropertyOp28
 70
     1
102
RTVSPropertyOp29
 70
     1
102
RTVSPropertyOp30
 70
     1
102
RTVSPropertyOp31
 70
     1
102
RTVSPropertyOp32
 70
     1
102
RTVSPropertyOp33
 70
     1
102
RTVSPropertyOp34
 70
     1
102
RTVSPropertyOp35
 70
     1
102
RTVSPropertyOp36
 70
     1
102
RTVSPropertyOp37
 70
     1
102
RTVSPropertyOp38
 70
     1
102
RTVSPropertyOp39
 70
     1
102
RTVSPropertyOp40
 70
     1
102
RTVSPropertyOp41
 70
     1
102
RTVSPropertyOp42
 70
     1
102
RTVSPropertyOp43
 70
     1
102
RTVSPropertyOp44
 70
     1
102
RTVSPropertyOp45
 70
     1
102
RTVSPropertyOp46
 70
     1
102
RTVSPropertyOp47
 70
     1
102
RTVSPropertyOp48
 70
     1
102
RTVSPropertyOp49
 70
     1
102
RTVSPropertyOp50
 70
     1
102
RTVSPropertyOp51
 70
     0
102
RTVSPropertyOp52
 70
     0
102
RTVSPropertyOp53
 70
     1
102
RTVSPropertyOp54
 70
     1
102
RTVSPropertyOp55
 70
     1
102
RTVSPropertyOp56
 70
     1
102
RTVSPropertyOp57
 70
     1
102
RTVSPropertyOp58
 70
     1
102
RTVSPropertyOp59
 70
     1
102
RTVSPropertyOp60
 70
     1
102
RTVSPropertyOp61
 70
     1
102
RTVSPropertyOp62
 70
     1
  0
XRECORD
  5
140E
102
{ACAD_REACTORS
330
140D
102
}
330
140D
100
AcDbXrecord
280
     1
102
RTVSPost2010Prop28
280
     0
102
RTVSPost2010PropOp28
 70
     1
102
RTVSPost2010Prop29
280
     1
102
RTVSPost2010PropOp29
 70
     1
102
RTVSPost2010Prop30
280
     1
102
RTVSPost2010PropOp30
 70
     1
102
RTVSPost2010Prop31
280
     0
102
RTVSPost2010PropOp31
 70
     1
102
RTVSPost2010Prop32
280
     0
102
RTVSPost2010PropOp32
 70
     1
102
RTVSPost2010Prop33
280
     0
102
RTVSPost2010PropOp33
 70
     1
102
RTVSPost2010Prop34
280
     0
102
RTVSPost2010PropOp34
 70
     1
102
RTVSPost2010Prop35
280
     0
102
RTVSPost2010PropOp35
 70
     1
102
RTVSPost2010Prop36
280
     0
102
RTVSPost2010PropOp36
 70
     1
102
RTVSPost2010Prop37
 90
       50
102
RTVSPost2010PropOp37
 70
     0
102
RTVSPost2010Prop38
140
0.0
102
RTVSPost2010PropOp38
 70
     0
102
RTVSPost2010Prop39
140
1.0
102
RTVSPost2010PropOp39
 70
     0
102
RTVSPost2010Prop40
 90
        0
102
RTVSPost2010PropOp40
 70
     0
102
RTVSPost2010Prop41ColorIndex
 90
       18
102
RTVSPost2010Prop41ColorRGB
 90
        0
102
RTVSPost2010PropOp41
 70
     0
102
RTVSPost2010Prop42
 90
       50
102
RTVSPost2010PropOp42
 70
     0
102
RTVSPost2010Prop43
 90
        3
102
RTVSPost2010PropOp43
 70
     0
102
RTVSPost2010Prop44ColorIndex
 90
        5
102
RTVSPost2010Prop44ColorRGB
 90
      255
102
RTVSPost2010PropOp44
 70
     0
102
RTVSPost2010Prop45
280
     0
102
RTVSPost2010PropOp45
 70
     1
102
RTVSPost2010Prop46
 90
       50
102
RTVSPost2010PropOp46
 70
     0
102
RTVSPost2010Prop47
 90
       50
102
RTVSPost2010PropOp47
 70
     0
102
RTVSPost2010Prop48
 90
       50
102
RTVSPost2010PropOp48
 70
     0
102
RTVSPost2010Prop49
280
     0
102
RTVSPost2010PropOp49
 70
     1
102
RTVSPost2010Prop50
 90
       50
102
RTVSPost2010PropOp50
 70
     0
102
RTVSPost2010Prop51ColorIndex
 90
      256
102
RTVSPost2010Prop51ColorRGB
 90
-16777216
102
RTVSPost2010PropOp51
 70
     0
102
RTVSPost2010Prop52
140
1.0
102
RTVSPost2010PropOp52
 70
     0
102
RTVSPost2010Prop53
 90
        2
102
RTVSPost2010PropOp53
 70
     0
102
RTVSPost2010Prop54
  1
strokes_ogs.tif
102
RTVSPost2010PropOp54
 70
     0
102
RTVSPost2010Prop55
280
     0
102
RTVSPost2010PropOp55
 70
     1
102
RTVSPost2010Prop56
140
1.0
102
RTVSPost2010PropOp56
 70
     0
102
RTVSPost2010Prop57
140
1.0
102
RTVSPost2010PropOp57
 70
     0
102
RTVSPropertyOp0
 70
     0
102
RTVSPropertyOp1
 70
     0
102
RTVSPropertyOp2
 70
     0
102
RTVSPropertyOp3
 70
     0
102
RTVSPropertyOp4
 70
     0
102
RTVSPropertyOp5
 70
     0
102
RTVSPropertyOp6
 70
     0
102
RTVSPropertyOp7
 70
     0
102
RTVSPropertyOp8
 70
     0
102
RTVSPropertyOp9
 70
     0
102
RTVSPropertyOp10
 70
     0
102
RTVSPropertyOp11
 70
     0
102
RTVSPropertyOp12
 70
     0
102
RTVSPropertyOp13
 70
     0
102
RTVSPropertyOp14
 70
     2
102
RTVSPropertyOp15
 70
     0
102
RTVSPropertyOp16
 70
     0
102
RTVSPropertyOp17
 70
     0
102
RTVSPropertyOp18
 70
     0
102
RTVSPropertyOp19
 70
     0
102
RTVSPropertyOp20
 70
     0
102
RTVSPropertyOp21
 70
     0
102
RTVSPropertyOp22
 70
     0
102
RTVSPropertyOp23
 70
     0
102
RTVSPropertyOp24
 70
     0
102
RTVSPropertyOp25
 70
     0
102
RTVSPropertyOp26
 70
     0
102
RTVSPropertyOp27
 70
     0
102
RTVSPropertyOp28
 70
     1
102
RTVSPropertyOp29
 70
     1
102
RTVSPropertyOp30
 70
     1
102
RTVSPropertyOp31
 70
     1
102
RTVSPropertyOp32
 70
     1
102
RTVSPropertyOp33
 70
     1
102
RTVSPropertyOp34
 70
     1
102
RTVSPropertyOp35
 70
     1
102
RTVSPropertyOp36
 70
     1
102
RTVSPropertyOp37
 70
     0
102
RTVSPropertyOp38
 70
     0
102
RTVSPropertyOp39
 70
     0
102
RTVSPropertyOp40
 70
     0
102
RTVSPropertyOp41
 70
     0
102
RTVSPropertyOp42
 70
     0
102
RTVSPropertyOp43
 70
     0
102
RTVSPropertyOp44
 70
     0
102
RTVSPropertyOp45
 70
     1
102
RTVSPropertyOp46
 70
     0
102
RTVSPropertyOp47
 70
     0
102
RTVSPropertyOp48
 70
     0
102
RTVSPropertyOp49
 70
     1
102
RTVSPropertyOp50
 70
     0
102
RTVSPropertyOp51
 70
     0
102
RTVSPropertyOp52
 70
     0
102
RTVSPropertyOp53
 70
     0
102
RTVSPropertyOp54
 70
     0
102
RTVSPropertyOp55
 70
     1
102
RTVSPropertyOp56
 70
     0
102
RTVSPropertyOp57
 70
     0
102
RTVSPropertyOp58
 70
     0
102
RTVSPropertyOp59
 70
     0
102
RTVSPropertyOp60
 70
     0
102
RTVSPropertyOp61
 70
     0
102
RTVSPropertyOp62
 70
     0
  0
XRECORD
  5
13FC
102
{ACAD_REACTORS
330
13FB
102
}
330
13FB
100
AcDbXrecord
280
     1
102
RTVSPost2010Prop28
280
     0
102
RTVSPost2010PropOp28
 70
     1
102
RTVSPost2010Prop29
280
     1
102
RTVSPost2010PropOp29
 70
     1
102
RTVSPost2010Prop30
280
     1
102
RTVSPost2010PropOp30
 70
     1
102
RTVSPost2010Prop31
280
     0
102
RTVSPost2010PropOp31
 70
     1
102
RTVSPost2010Prop32
280
     0
102
RTVSPost2010PropOp32
 70
     1
102
RTVSPost2010Prop33
280
     0
102
RTVSPost2010PropOp33
 70
     1
102
RTVSPost2010Prop34
280
     0
102
RTVSPost2010PropOp34
 70
     1
102
RTVSPost2010Prop35
280
     0
102
RTVSPost2010PropOp35
 70
     1
102
RTVSPost2010Prop36
280
     0
102
RTVSPost2010PropOp36
 70
     1
102
RTVSPost2010Prop37
 90
       50
102
RTVSPost2010PropOp37
 70
     1
102
RTVSPost2010Prop38
140
0.0
102
RTVSPost2010PropOp38
 70
     1
102
RTVSPost2010Prop39
140
1.0
102
RTVSPost2010PropOp39
 70
     1
102
RTVSPost2010Prop40
 90
        0
102
RTVSPost2010PropOp40
 70
     1
102
RTVSPost2010Prop41ColorIndex
 90
       18
102
RTVSPost2010Prop41ColorRGB
 90
        0
102
RTVSPost2010PropOp41
 70
     1
102
RTVSPost2010Prop42
 90
       50
102
RTVSPost2010PropOp42
 70
     1
102
RTVSPost2010Prop43
 90
        3
102
RTVSPost2010PropOp43
 70
     1
102
RTVSPost2010Prop44ColorIndex
 90
        5
102
RTVSPost2010Prop44ColorRGB
 90
      255
102
RTVSPost2010PropOp44
 70
     1
102
RTVSPost2010Prop45
280
     0
102
RTVSPost2010PropOp45
 70
     1
102
RTVSPost2010Prop46
 90
       50
102
RTVSPost2010PropOp46
 70
     1
102
RTVSPost2010Prop47
 90
       50
102
RTVSPost2010PropOp47
 70
     1
102
RTVSPost2010Prop48
 90
       50
102
RTVSPost2010PropOp48
 70
     1
102
RTVSPost2010Prop49
280
     0
102
RTVSPost2010PropOp49
 70
     1
102
RTVSPost2010Prop50
 90
       50
102
RTVSPost2010PropOp50
 70
     1
102
RTVSPost2010Prop51ColorIndex
 90
      256
102
RTVSPost2010Prop51ColorRGB
 90
-16777216
102
RTVSPost2010PropOp51
 70
     0
102
RTVSPost2010Prop52
140
1.0
102
RTVSPost2010PropOp52
 70
     0
102
RTVSPost2010Prop53
 90
        2
102
RTVSPost2010PropOp53
 70
     1
102
RTVSPost2010Prop54
  1
strokes_ogs.tif
102
RTVSPost2010PropOp54
 70
     1
102
RTVSPost2010Prop55
280
     0
102
RTVSPost2010PropOp55
 70
     1
102
RTVSPost2010Prop56
140
1.0
102
RTVSPost2010PropOp56
 70
     1
102
RTVSPost2010Prop57
140
1.0
102
RTVSPost2010PropOp57
 70
     1
102
RTVSPropertyOp0
 70
     1
102
RTVSPropertyOp1
 70
     1
102
RTVSPropertyOp2
 70
     1
102
RTVSPropertyOp3
 70
     1
102
RTVSPropertyOp4
 70
     1
102
RTVSPropertyOp5
 70
     1
102
RTVSPropertyOp6
 70
     1
102
RTVSPropertyOp7
 70
     1
102
RTVSPropertyOp8
 70
     1
102
RTVSPropertyOp9
 70
     1
102
RTVSPropertyOp10
 70
     1
102
RTVSPropertyOp11
 70
     1
102
RTVSPropertyOp12
 70
     1
102
RTVSPropertyOp13
 70
     1
102
RTVSPropertyOp14
 70
     1
102
RTVSPropertyOp15
 70
     1
102
RTVSPropertyOp16
 70
     1
102
RTVSPropertyOp17
 70
     1
102
RTVSPropertyOp18
 70
     1
102
RTVSPropertyOp19
 70
     1
102
RTVSPropertyOp20
 70
     1
102
RTVSPropertyOp21
 70
     1
102
RTVSPropertyOp22
 70
     1
102
RTVSPropertyOp23
 70
     1
102
RTVSPropertyOp24
 70
     1
102
RTVSPropertyOp25
 70
     1
102
RTVSPropertyOp26
 70
     1
102
RTVSPropertyOp27
 70
     1
102
RTVSPropertyOp28
 70
     1
102
RTVSPropertyOp29
 70
     1
102
RTVSPropertyOp30
 70
     1
102
RTVSPropertyOp31
 70
     1
102
RTVSPropertyOp32
 70
     1
102
RTVSPropertyOp33
 70
     1
102
RTVSPropertyOp34
 70
     1
102
RTVSPropertyOp35
 70
     1
102
RTVSPropertyOp36
 70
     1
102
RTVSPropertyOp37
 70
     1
102
RTVSPropertyOp38
 70
     1
102
RTVSPropertyOp39
 70
     1
102
RTVSPropertyOp40
 70
     1
102
RTVSPropertyOp41
 70
     1
102
RTVSPropertyOp42
 70
     1
102
RTVSPropertyOp43
 70
     1
102
RTVSPropertyOp44
 70
     1
102
RTVSPropertyOp45
 70
     1
102
RTVSPropertyOp46
 70
     1
102
RTVSPropertyOp47
 70
     1
102
RTVSPropertyOp48
 70
     1
102
RTVSPropertyOp49
 70
     1
102
RTVSPropertyOp50
 70
     1
102
RTVSPropertyOp51
 70
     0
102
RTVSPropertyOp52
 70
     0
102
RTVSPropertyOp53
 70
     1
102
RTVSPropertyOp54
 70
     1
102
RTVSPropertyOp55
 70
     1
102
RTVSPropertyOp56
 70
     1
102
RTVSPropertyOp57
 70
     1
102
RTVSPropertyOp58
 70
     1
102
RTVSPropertyOp59
 70
     1
102
RTVSPropertyOp60
 70
     1
102
RTVSPropertyOp61
 70
     1
102
RTVSPropertyOp62
 70
     1
  0
XRECORD
  5
13E0
102
{ACAD_REACTORS
330
13DF
102
}
330
13DF
100
AcDbXrecord
280
     1
102
RTVSPost2010Prop28
280
     0
102
RTVSPost2010PropOp28
 70
     1
102
RTVSPost2010Prop29
280
     1
102
RTVSPost2010PropOp29
 70
     1
102
RTVSPost2010Prop30
280
     1
102
RTVSPost2010PropOp30
 70
     1
102
RTVSPost2010Prop31
280
     0
102
RTVSPost2010PropOp31
 70
     1
102
RTVSPost2010Prop32
280
     0
102
RTVSPost2010PropOp32
 70
     1
102
RTVSPost2010Prop33
280
     0
102
RTVSPost2010PropOp33
 70
     1
102
RTVSPost2010Prop34
280
     0
102
RTVSPost2010PropOp34
 70
     1
102
RTVSPost2010Prop35
280
     0
102
RTVSPost2010PropOp35
 70
     1
102
RTVSPost2010Prop36
280
     0
102
RTVSPost2010PropOp36
 70
     1
102
RTVSPost2010Prop37
 90
       50
102
RTVSPost2010PropOp37
 70
     1
102
RTVSPost2010Prop38
140
0.0
102
RTVSPost2010PropOp38
 70
     1
102
RTVSPost2010Prop39
140
1.0
102
RTVSPost2010PropOp39
 70
     1
102
RTVSPost2010Prop40
 90
        0
102
RTVSPost2010PropOp40
 70
     1
102
RTVSPost2010Prop41ColorIndex
 90
       18
102
RTVSPost2010Prop41ColorRGB
 90
        0
102
RTVSPost2010PropOp41
 70
     1
102
RTVSPost2010Prop42
 90
       50
102
RTVSPost2010PropOp42
 70
     1
102
RTVSPost2010Prop43
 90
        3
102
RTVSPost2010PropOp43
 70
     1
102
RTVSPost2010Prop44ColorIndex
 90
        5
102
RTVSPost2010Prop44ColorRGB
 90
      255
102
RTVSPost2010PropOp44
 70
     1
102
RTVSPost2010Prop45
280
     0
102
RTVSPost2010PropOp45
 70
     1
102
RTVSPost2010Prop46
 90
       50
102
RTVSPost2010PropOp46
 70
     1
102
RTVSPost2010Prop47
 90
       50
102
RTVSPost2010PropOp47
 70
     1
102
RTVSPost2010Prop48
 90
       50
102
RTVSPost2010PropOp48
 70
     1
102
RTVSPost2010Prop49
280
     0
102
RTVSPost2010PropOp49
 70
     1
102
RTVSPost2010Prop50
 90
       50
102
RTVSPost2010PropOp50
 70
     1
102
RTVSPost2010Prop51ColorIndex
 90
      256
102
RTVSPost2010Prop51ColorRGB
 90
-16777216
102
RTVSPost2010PropOp51
 70
     0
102
RTVSPost2010Prop52
140
1.0
102
RTVSPost2010PropOp52
 70
     0
102
RTVSPost2010Prop53
 90
        2
102
RTVSPost2010PropOp53
 70
     1
102
RTVSPost2010Prop54
  1
strokes_ogs.tif
102
RTVSPost2010PropOp54
 70
     1
102
RTVSPost2010Prop55
280
     0
102
RTVSPost2010PropOp55
 70
     1
102
RTVSPost2010Prop56
140
1.0
102
RTVSPost2010PropOp56
 70
     1
102
RTVSPost2010Prop57
140
1.0
102
RTVSPost2010PropOp57
 70
     1
102
RTVSPropertyOp0
 70
     1
102
RTVSPropertyOp1
 70
     1
102
RTVSPropertyOp2
 70
     1
102
RTVSPropertyOp3
 70
     1
102
RTVSPropertyOp4
 70
     1
102
RTVSPropertyOp5
 70
     1
102
RTVSPropertyOp6
 70
     1
102
RTVSPropertyOp7
 70
     1
102
RTVSPropertyOp8
 70
     1
102
RTVSPropertyOp9
 70
     1
102
RTVSPropertyOp10
 70
     1
102
RTVSPropertyOp11
 70
     1
102
RTVSPropertyOp12
 70
     1
102
RTVSPropertyOp13
 70
     1
102
RTVSPropertyOp14
 70
     1
102
RTVSPropertyOp15
 70
     1
102
RTVSPropertyOp16
 70
     1
102
RTVSPropertyOp17
 70
     1
102
RTVSPropertyOp18
 70
     1
102
RTVSPropertyOp19
 70
     1
102
RTVSPropertyOp20
 70
     1
102
RTVSPropertyOp21
 70
     1
102
RTVSPropertyOp22
 70
     1
102
RTVSPropertyOp23
 70
     1
102
RTVSPropertyOp24
 70
     1
102
RTVSPropertyOp25
 70
     1
102
RTVSPropertyOp26
 70
     1
102
RTVSPropertyOp27
 70
     1
102
RTVSPropertyOp28
 70
     1
102
RTVSPropertyOp29
 70
     1
102
RTVSPropertyOp30
 70
     1
102
RTVSPropertyOp31
 70
     1
102
RTVSPropertyOp32
 70
     1
102
RTVSPropertyOp33
 70
     1
102
RTVSPropertyOp34
 70
     1
102
RTVSPropertyOp35
 70
     1
102
RTVSPropertyOp36
 70
     1
102
RTVSPropertyOp37
 70
     1
102
RTVSPropertyOp38
 70
     1
102
RTVSPropertyOp39
 70
     1
102
RTVSPropertyOp40
 70
     1
102
RTVSPropertyOp41
 70
     1
102
RTVSPropertyOp42
 70
     1
102
RTVSPropertyOp43
 70
     1
102
RTVSPropertyOp44
 70
     1
102
RTVSPropertyOp45
 70
     1
102
RTVSPropertyOp46
 70
     1
102
RTVSPropertyOp47
 70
     1
102
RTVSPropertyOp48
 70
     1
102
RTVSPropertyOp49
 70
     1
102
RTVSPropertyOp50
 70
     1
102
RTVSPropertyOp51
 70
     0
102
RTVSPropertyOp52
 70
     0
102
RTVSPropertyOp53
 70
     1
102
RTVSPropertyOp54
 70
     1
102
RTVSPropertyOp55
 70
     1
102
RTVSPropertyOp56
 70
     1
102
RTVSPropertyOp57
 70
     1
102
RTVSPropertyOp58
 70
     1
102
RTVSPropertyOp59
 70
     1
102
RTVSPropertyOp60
 70
     1
102
RTVSPropertyOp61
 70
     1
102
RTVSPropertyOp62
 70
     1
  0
XRECORD
  5
13E2
102
{ACAD_REACTORS
330
13E1
102
}
330
13E1
100
AcDbXrecord
280
     1
102
RTVSPost2010Prop28
280
     0
102
RTVSPost2010PropOp28
 70
     1
102
RTVSPost2010Prop29
280
     1
102
RTVSPost2010PropOp29
 70
     1
102
RTVSPost2010Prop30
280
     1
102
RTVSPost2010PropOp30
 70
     1
102
RTVSPost2010Prop31
280
     0
102
RTVSPost2010PropOp31
 70
     1
102
RTVSPost2010Prop32
280
     0
102
RTVSPost2010PropOp32
 70
     1
102
RTVSPost2010Prop33
280
     0
102
RTVSPost2010PropOp33
 70
     1
102
RTVSPost2010Prop34
280
     0
102
RTVSPost2010PropOp34
 70
     1
102
RTVSPost2010Prop35
280
     0
102
RTVSPost2010PropOp35
 70
     1
102
RTVSPost2010Prop36
280
     0
102
RTVSPost2010PropOp36
 70
     1
102
RTVSPost2010Prop37
 90
       50
102
RTVSPost2010PropOp37
 70
     1
102
RTVSPost2010Prop38
140
0.0
102
RTVSPost2010PropOp38
 70
     1
102
RTVSPost2010Prop39
140
1.0
102
RTVSPost2010PropOp39
 70
     1
102
RTVSPost2010Prop40
 90
        0
102
RTVSPost2010PropOp40
 70
     1
102
RTVSPost2010Prop41ColorIndex
 90
       18
102
RTVSPost2010Prop41ColorRGB
 90
        0
102
RTVSPost2010PropOp41
 70
     1
102
RTVSPost2010Prop42
 90
       50
102
RTVSPost2010PropOp42
 70
     1
102
RTVSPost2010Prop43
 90
        3
102
RTVSPost2010PropOp43
 70
     1
102
RTVSPost2010Prop44ColorIndex
 90
        5
102
RTVSPost2010Prop44ColorRGB
 90
      255
102
RTVSPost2010PropOp44
 70
     1
102
RTVSPost2010Prop45
280
     0
102
RTVSPost2010PropOp45
 70
     1
102
RTVSPost2010Prop46
 90
       50
102
RTVSPost2010PropOp46
 70
     1
102
RTVSPost2010Prop47
 90
       50
102
RTVSPost2010PropOp47
 70
     1
102
RTVSPost2010Prop48
 90
       50
102
RTVSPost2010PropOp48
 70
     1
102
RTVSPost2010Prop49
280
     0
102
RTVSPost2010PropOp49
 70
     1
102
RTVSPost2010Prop50
 90
       50
102
RTVSPost2010PropOp50
 70
     1
102
RTVSPost2010Prop51ColorIndex
 90
      256
102
RTVSPost2010Prop51ColorRGB
 90
-16777216
102
RTVSPost2010PropOp51
 70
     0
102
RTVSPost2010Prop52
140
1.0
102
RTVSPost2010PropOp52
 70
     0
102
RTVSPost2010Prop53
 90
        2
102
RTVSPost2010PropOp53
 70
     1
102
RTVSPost2010Prop54
  1
strokes_ogs.tif
102
RTVSPost2010PropOp54
 70
     1
102
RTVSPost2010Prop55
280
     0
102
RTVSPost2010PropOp55
 70
     1
102
RTVSPost2010Prop56
140
1.0
102
RTVSPost2010PropOp56
 70
     1
102
RTVSPost2010Prop57
140
1.0
102
RTVSPost2010PropOp57
 70
     1
102
RTVSPropertyOp0
 70
     1
102
RTVSPropertyOp1
 70
     1
102
RTVSPropertyOp2
 70
     1
102
RTVSPropertyOp3
 70
     1
102
RTVSPropertyOp4
 70
     1
102
RTVSPropertyOp5
 70
     1
102
RTVSPropertyOp6
 70
     1
102
RTVSPropertyOp7
 70
     1
102
RTVSPropertyOp8
 70
     1
102
RTVSPropertyOp9
 70
     1
102
RTVSPropertyOp10
 70
     1
102
RTVSPropertyOp11
 70
     1
102
RTVSPropertyOp12
 70
     1
102
RTVSPropertyOp13
 70
     1
102
RTVSPropertyOp14
 70
     1
102
RTVSPropertyOp15
 70
     1
102
RTVSPropertyOp16
 70
     1
102
RTVSPropertyOp17
 70
     1
102
RTVSPropertyOp18
 70
     1
102
RTVSPropertyOp19
 70
     1
102
RTVSPropertyOp20
 70
     1
102
RTVSPropertyOp21
 70
     1
102
RTVSPropertyOp22
 70
     1
102
RTVSPropertyOp23
 70
     1
102
RTVSPropertyOp24
 70
     1
102
RTVSPropertyOp25
 70
     1
102
RTVSPropertyOp26
 70
     1
102
RTVSPropertyOp27
 70
     1
102
RTVSPropertyOp28
 70
     1
102
RTVSPropertyOp29
 70
     1
102
RTVSPropertyOp30
 70
     1
102
RTVSPropertyOp31
 70
     1
102
RTVSPropertyOp32
 70
     1
102
RTVSPropertyOp33
 70
     1
102
RTVSPropertyOp34
 70
     1
102
RTVSPropertyOp35
 70
     1
102
RTVSPropertyOp36
 70
     1
102
RTVSPropertyOp37
 70
     1
102
RTVSPropertyOp38
 70
     1
102
RTVSPropertyOp39
 70
     1
102
RTVSPropertyOp40
 70
     1
102
RTVSPropertyOp41
 70
     1
102
RTVSPropertyOp42
 70
     1
102
RTVSPropertyOp43
 70
     1
102
RTVSPropertyOp44
 70
     1
102
RTVSPropertyOp45
 70
     1
102
RTVSPropertyOp46
 70
     1
102
RTVSPropertyOp47
 70
     1
102
RTVSPropertyOp48
 70
     1
102
RTVSPropertyOp49
 70
     1
102
RTVSPropertyOp50
 70
     1
102
RTVSPropertyOp51
 70
     0
102
RTVSPropertyOp52
 70
     0
102
RTVSPropertyOp53
 70
     1
102
RTVSPropertyOp54
 70
     1
102
RTVSPropertyOp55
 70
     1
102
RTVSPropertyOp56
 70
     1
102
RTVSPropertyOp57
 70
     1
102
RTVSPropertyOp58
 70
     1
102
RTVSPropertyOp59
 70
     1
102
RTVSPropertyOp60
 70
     1
102
RTVSPropertyOp61
 70
     1
102
RTVSPropertyOp62
 70
     1
  0
XRECORD
  5
13E4
102
{ACAD_REACTORS
330
13E3
102
}
330
13E3
100
AcDbXrecord
280
     1
102
RTVSPost2010Prop28
280
     0
102
RTVSPost2010PropOp28
 70
     1
102
RTVSPost2010Prop29
280
     1
102
RTVSPost2010PropOp29
 70
     1
102
RTVSPost2010Prop30
280
     1
102
RTVSPost2010PropOp30
 70
     1
102
RTVSPost2010Prop31
280
     0
102
RTVSPost2010PropOp31
 70
     1
102
RTVSPost2010Prop32
280
     0
102
RTVSPost2010PropOp32
 70
     1
102
RTVSPost2010Prop33
280
     0
102
RTVSPost2010PropOp33
 70
     1
102
RTVSPost2010Prop34
280
     0
102
RTVSPost2010PropOp34
 70
     1
102
RTVSPost2010Prop35
280
     0
102
RTVSPost2010PropOp35
 70
     1
102
RTVSPost2010Prop36
280
     0
102
RTVSPost2010PropOp36
 70
     1
102
RTVSPost2010Prop37
 90
       50
102
RTVSPost2010PropOp37
 70
     1
102
RTVSPost2010Prop38
140
0.0
102
RTVSPost2010PropOp38
 70
     1
102
RTVSPost2010Prop39
140
1.0
102
RTVSPost2010PropOp39
 70
     1
102
RTVSPost2010Prop40
 90
        0
102
RTVSPost2010PropOp40
 70
     1
102
RTVSPost2010Prop41ColorIndex
 90
       18
102
RTVSPost2010Prop41ColorRGB
 90
        0
102
RTVSPost2010PropOp41
 70
     1
102
RTVSPost2010Prop42
 90
       50
102
RTVSPost2010PropOp42
 70
     1
102
RTVSPost2010Prop43
 90
        3
102
RTVSPost2010PropOp43
 70
     1
102
RTVSPost2010Prop44ColorIndex
 90
        5
102
RTVSPost2010Prop44ColorRGB
 90
      255
102
RTVSPost2010PropOp44
 70
     1
102
RTVSPost2010Prop45
280
     0
102
RTVSPost2010PropOp45
 70
     1
102
RTVSPost2010Prop46
 90
       50
102
RTVSPost2010PropOp46
 70
     1
102
RTVSPost2010Prop47
 90
       50
102
RTVSPost2010PropOp47
 70
     1
102
RTVSPost2010Prop48
 90
       50
102
RTVSPost2010PropOp48
 70
     1
102
RTVSPost2010Prop49
280
     0
102
RTVSPost2010PropOp49
 70
     1
102
RTVSPost2010Prop50
 90
       50
102
RTVSPost2010PropOp50
 70
     1
102
RTVSPost2010Prop51ColorIndex
 90
      256
102
RTVSPost2010Prop51ColorRGB
 90
-16777216
102
RTVSPost2010PropOp51
 70
     0
102
RTVSPost2010Prop52
140
1.0
102
RTVSPost2010PropOp52
 70
     0
102
RTVSPost2010Prop53
 90
        2
102
RTVSPost2010PropOp53
 70
     1
102
RTVSPost2010Prop54
  1
strokes_ogs.tif
102
RTVSPost2010PropOp54
 70
     1
102
RTVSPost2010Prop55
280
     0
102
RTVSPost2010PropOp55
 70
     1
102
RTVSPost2010Prop56
140
1.0
102
RTVSPost2010PropOp56
 70
     1
102
RTVSPost2010Prop57
140
1.0
102
RTVSPost2010PropOp57
 70
     1
102
RTVSPropertyOp0
 70
     1
102
RTVSPropertyOp1
 70
     1
102
RTVSPropertyOp2
 70
     1
102
RTVSPropertyOp3
 70
     1
102
RTVSPropertyOp4
 70
     1
102
RTVSPropertyOp5
 70
     1
102
RTVSPropertyOp6
 70
     1
102
RTVSPropertyOp7
 70
     1
102
RTVSPropertyOp8
 70
     1
102
RTVSPropertyOp9
 70
     1
102
RTVSPropertyOp10
 70
     1
102
RTVSPropertyOp11
 70
     1
102
RTVSPropertyOp12
 70
     1
102
RTVSPropertyOp13
 70
     1
102
RTVSPropertyOp14
 70
     1
102
RTVSPropertyOp15
 70
     1
102
RTVSPropertyOp16
 70
     1
102
RTVSPropertyOp17
 70
     1
102
RTVSPropertyOp18
 70
     1
102
RTVSPropertyOp19
 70
     1
102
RTVSPropertyOp20
 70
     1
102
RTVSPropertyOp21
 70
     1
102
RTVSPropertyOp22
 70
     1
102
RTVSPropertyOp23
 70
     1
102
RTVSPropertyOp24
 70
     1
102
RTVSPropertyOp25
 70
     1
102
RTVSPropertyOp26
 70
     1
102
RTVSPropertyOp27
 70
     1
102
RTVSPropertyOp28
 70
     1
102
RTVSPropertyOp29
 70
     1
102
RTVSPropertyOp30
 70
     1
102
RTVSPropertyOp31
 70
     1
102
RTVSPropertyOp32
 70
     1
102
RTVSPropertyOp33
 70
     1
102
RTVSPropertyOp34
 70
     1
102
RTVSPropertyOp35
 70
     1
102
RTVSPropertyOp36
 70
     1
102
RTVSPropertyOp37
 70
     1
102
RTVSPropertyOp38
 70
     1
102
RTVSPropertyOp39
 70
     1
102
RTVSPropertyOp40
 70
     1
102
RTVSPropertyOp41
 70
     1
102
RTVSPropertyOp42
 70
     1
102
RTVSPropertyOp43
 70
     1
102
RTVSPropertyOp44
 70
     1
102
RTVSPropertyOp45
 70
     1
102
RTVSPropertyOp46
 70
     1
102
RTVSPropertyOp47
 70
     1
102
RTVSPropertyOp48
 70
     1
102
RTVSPropertyOp49
 70
     1
102
RTVSPropertyOp50
 70
     1
102
RTVSPropertyOp51
 70
     0
102
RTVSPropertyOp52
 70
     0
102
RTVSPropertyOp53
 70
     1
102
RTVSPropertyOp54
 70
     1
102
RTVSPropertyOp55
 70
     1
102
RTVSPropertyOp56
 70
     1
102
RTVSPropertyOp57
 70
     1
102
RTVSPropertyOp58
 70
     1
102
RTVSPropertyOp59
 70
     1
102
RTVSPropertyOp60
 70
     1
102
RTVSPropertyOp61
 70
     1
102
RTVSPropertyOp62
 70
     1
  0
XRECORD
  5
13E6
102
{ACAD_REACTORS
330
13E5
102
}
330
13E5
100
AcDbXrecord
280
     1
102
RTVSPost2010Prop28
280
     0
102
RTVSPost2010PropOp28
 70
     1
102
RTVSPost2010Prop29
280
     1
102
RTVSPost2010PropOp29
 70
     1
102
RTVSPost2010Prop30
280
     1
102
RTVSPost2010PropOp30
 70
     1
102
RTVSPost2010Prop31
280
     0
102
RTVSPost2010PropOp31
 70
     1
102
RTVSPost2010Prop32
280
     0
102
RTVSPost2010PropOp32
 70
     1
102
RTVSPost2010Prop33
280
     0
102
RTVSPost2010PropOp33
 70
     1
102
RTVSPost2010Prop34
280
     0
102
RTVSPost2010PropOp34
 70
     1
102
RTVSPost2010Prop35
280
     0
102
RTVSPost2010PropOp35
 70
     1
102
RTVSPost2010Prop36
280
     0
102
RTVSPost2010PropOp36
 70
     1
102
RTVSPost2010Prop37
 90
       50
102
RTVSPost2010PropOp37
 70
     1
102
RTVSPost2010Prop38
140
0.0
102
RTVSPost2010PropOp38
 70
     1
102
RTVSPost2010Prop39
140
1.0
102
RTVSPost2010PropOp39
 70
     1
102
RTVSPost2010Prop40
 90
        0
102
RTVSPost2010PropOp40
 70
     1
102
RTVSPost2010Prop41ColorIndex
 90
       18
102
RTVSPost2010Prop41ColorRGB
 90
        0
102
RTVSPost2010PropOp41
 70
     1
102
RTVSPost2010Prop42
 90
       50
102
RTVSPost2010PropOp42
 70
     1
102
RTVSPost2010Prop43
 90
        3
102
RTVSPost2010PropOp43
 70
     1
102
RTVSPost2010Prop44ColorIndex
 90
        5
102
RTVSPost2010Prop44ColorRGB
 90
      255
102
RTVSPost2010PropOp44
 70
     1
102
RTVSPost2010Prop45
280
     0
102
RTVSPost2010PropOp45
 70
     1
102
RTVSPost2010Prop46
 90
       50
102
RTVSPost2010PropOp46
 70
     1
102
RTVSPost2010Prop47
 90
       50
102
RTVSPost2010PropOp47
 70
     1
102
RTVSPost2010Prop48
 90
       50
102
RTVSPost2010PropOp48
 70
     1
102
RTVSPost2010Prop49
280
     0
102
RTVSPost2010PropOp49
 70
     1
102
RTVSPost2010Prop50
 90
       50
102
RTVSPost2010PropOp50
 70
     1
102
RTVSPost2010Prop51ColorIndex
 90
      256
102
RTVSPost2010Prop51ColorRGB
 90
-16777216
102
RTVSPost2010PropOp51
 70
     0
102
RTVSPost2010Prop52
140
1.0
102
RTVSPost2010PropOp52
 70
     0
102
RTVSPost2010Prop53
 90
        2
102
RTVSPost2010PropOp53
 70
     1
102
RTVSPost2010Prop54
  1
strokes_ogs.tif
102
RTVSPost2010PropOp54
 70
     1
102
RTVSPost2010Prop55
280
     0
102
RTVSPost2010PropOp55
 70
     1
102
RTVSPost2010Prop56
140
1.0
102
RTVSPost2010PropOp56
 70
     1
102
RTVSPost2010Prop57
140
1.0
102
RTVSPost2010PropOp57
 70
     1
102
RTVSPropertyOp0
 70
     1
102
RTVSPropertyOp1
 70
     1
102
RTVSPropertyOp2
 70
     1
102
RTVSPropertyOp3
 70
     1
102
RTVSPropertyOp4
 70
     1
102
RTVSPropertyOp5
 70
     1
102
RTVSPropertyOp6
 70
     1
102
RTVSPropertyOp7
 70
     1
102
RTVSPropertyOp8
 70
     1
102
RTVSPropertyOp9
 70
     1
102
RTVSPropertyOp10
 70
     1
102
RTVSPropertyOp11
 70
     1
102
RTVSPropertyOp12
 70
     1
102
RTVSPropertyOp13
 70
     1
102
RTVSPropertyOp14
 70
     1
102
RTVSPropertyOp15
 70
     1
102
RTVSPropertyOp16
 70
     1
102
RTVSPropertyOp17
 70
     1
102
RTVSPropertyOp18
 70
     1
102
RTVSPropertyOp19
 70
     1
102
RTVSPropertyOp20
 70
     1
102
RTVSPropertyOp21
 70
     1
102
RTVSPropertyOp22
 70
     1
102
RTVSPropertyOp23
 70
     1
102
RTVSPropertyOp24
 70
     1
102
RTVSPropertyOp25
 70
     1
102
RTVSPropertyOp26
 70
     1
102
RTVSPropertyOp27
 70
     1
102
RTVSPropertyOp28
 70
     1
102
RTVSPropertyOp29
 70
     1
102
RTVSPropertyOp30
 70
     1
102
RTVSPropertyOp31
 70
     1
102
RTVSPropertyOp32
 70
     1
102
RTVSPropertyOp33
 70
     1
102
RTVSPropertyOp34
 70
     1
102
RTVSPropertyOp35
 70
     1
102
RTVSPropertyOp36
 70
     1
102
RTVSPropertyOp37
 70
     1
102
RTVSPropertyOp38
 70
     1
102
RTVSPropertyOp39
 70
     1
102
RTVSPropertyOp40
 70
     1
102
RTVSPropertyOp41
 70
     1
102
RTVSPropertyOp42
 70
     1
102
RTVSPropertyOp43
 70
     1
102
RTVSPropertyOp44
 70
     1
102
RTVSPropertyOp45
 70
     1
102
RTVSPropertyOp46
 70
     1
102
RTVSPropertyOp47
 70
     1
102
RTVSPropertyOp48
 70
     1
102
RTVSPropertyOp49
 70
     1
102
RTVSPropertyOp50
 70
     1
102
RTVSPropertyOp51
 70
     0
102
RTVSPropertyOp52
 70
     0
102
RTVSPropertyOp53
 70
     1
102
RTVSPropertyOp54
 70
     1
102
RTVSPropertyOp55
 70
     1
102
RTVSPropertyOp56
 70
     1
102
RTVSPropertyOp57
 70
     1
102
RTVSPropertyOp58
 70
     1
102
RTVSPropertyOp59
 70
     1
102
RTVSPropertyOp60
 70
     1
102
RTVSPropertyOp61
 70
     1
102
RTVSPropertyOp62
 70
     1
  0
XRECORD
  5
13EE
102
{ACAD_REACTORS
330
13ED
102
}
330
13ED
100
AcDbXrecord
280
     1
102
RTVSPost2010Prop28
280
     0
102
RTVSPost2010PropOp28
 70
     1
102
RTVSPost2010Prop29
280
     1
102
RTVSPost2010PropOp29
 70
     1
102
RTVSPost2010Prop30
280
     1
102
RTVSPost2010PropOp30
 70
     1
102
RTVSPost2010Prop31
280
     0
102
RTVSPost2010PropOp31
 70
     1
102
RTVSPost2010Prop32
280
     0
102
RTVSPost2010PropOp32
 70
     1
102
RTVSPost2010Prop33
280
     0
102
RTVSPost2010PropOp33
 70
     1
102
RTVSPost2010Prop34
280
     0
102
RTVSPost2010PropOp34
 70
     1
102
RTVSPost2010Prop35
280
     0
102
RTVSPost2010PropOp35
 70
     1
102
RTVSPost2010Prop36
280
     0
102
RTVSPost2010PropOp36
 70
     1
102
RTVSPost2010Prop37
 90
       50
102
RTVSPost2010PropOp37
 70
     1
102
RTVSPost2010Prop38
140
0.0
102
RTVSPost2010PropOp38
 70
     1
102
RTVSPost2010Prop39
140
1.0
102
RTVSPost2010PropOp39
 70
     1
102
RTVSPost2010Prop40
 90
        0
102
RTVSPost2010PropOp40
 70
     1
102
RTVSPost2010Prop41ColorIndex
 90
       18
102
RTVSPost2010Prop41ColorRGB
 90
        0
102
RTVSPost2010PropOp41
 70
     1
102
RTVSPost2010Prop42
 90
       50
102
RTVSPost2010PropOp42
 70
     1
102
RTVSPost2010Prop43
 90
        3
102
RTVSPost2010PropOp43
 70
     1
102
RTVSPost2010Prop44ColorIndex
 90
        5
102
RTVSPost2010Prop44ColorRGB
 90
      255
102
RTVSPost2010PropOp44
 70
     1
102
RTVSPost2010Prop45
280
     0
102
RTVSPost2010PropOp45
 70
     1
102
RTVSPost2010Prop46
 90
       50
102
RTVSPost2010PropOp46
 70
     1
102
RTVSPost2010Prop47
 90
       50
102
RTVSPost2010PropOp47
 70
     1
102
RTVSPost2010Prop48
 90
       50
102
RTVSPost2010PropOp48
 70
     1
102
RTVSPost2010Prop49
280
     0
102
RTVSPost2010PropOp49
 70
     1
102
RTVSPost2010Prop50
 90
       50
102
RTVSPost2010PropOp50
 70
     1
102
RTVSPost2010Prop51ColorIndex
 90
      256
102
RTVSPost2010Prop51ColorRGB
 90
-16777216
102
RTVSPost2010PropOp51
 70
     0
102
RTVSPost2010Prop52
140
1.0
102
RTVSPost2010PropOp52
 70
     0
102
RTVSPost2010Prop53
 90
        2
102
RTVSPost2010PropOp53
 70
     1
102
RTVSPost2010Prop54
  1
strokes_ogs.tif
102
RTVSPost2010PropOp54
 70
     1
102
RTVSPost2010Prop55
280
     0
102
RTVSPost2010PropOp55
 70
     1
102
RTVSPost2010Prop56
140
1.0
102
RTVSPost2010PropOp56
 70
     1
102
RTVSPost2010Prop57
140
1.0
102
RTVSPost2010PropOp57
 70
     1
102
RTVSPropertyOp0
 70
     1
102
RTVSPropertyOp1
 70
     1
102
RTVSPropertyOp2
 70
     1
102
RTVSPropertyOp3
 70
     1
102
RTVSPropertyOp4
 70
     1
102
RTVSPropertyOp5
 70
     1
102
RTVSPropertyOp6
 70
     1
102
RTVSPropertyOp7
 70
     1
102
RTVSPropertyOp8
 70
     1
102
RTVSPropertyOp9
 70
     1
102
RTVSPropertyOp10
 70
     1
102
RTVSPropertyOp11
 70
     1
102
RTVSPropertyOp12
 70
     1
102
RTVSPropertyOp13
 70
     1
102
RTVSPropertyOp14
 70
     1
102
RTVSPropertyOp15
 70
     1
102
RTVSPropertyOp16
 70
     1
102
RTVSPropertyOp17
 70
     1
102
RTVSPropertyOp18
 70
     1
102
RTVSPropertyOp19
 70
     1
102
RTVSPropertyOp20
 70
     1
102
RTVSPropertyOp21
 70
     1
102
RTVSPropertyOp22
 70
     1
102
RTVSPropertyOp23
 70
     1
102
RTVSPropertyOp24
 70
     1
102
RTVSPropertyOp25
 70
     1
102
RTVSPropertyOp26
 70
     1
102
RTVSPropertyOp27
 70
     1
102
RTVSPropertyOp28
 70
     1
102
RTVSPropertyOp29
 70
     1
102
RTVSPropertyOp30
 70
     1
102
RTVSPropertyOp31
 70
     1
102
RTVSPropertyOp32
 70
     1
102
RTVSPropertyOp33
 70
     1
102
RTVSPropertyOp34
 70
     1
102
RTVSPropertyOp35
 70
     1
102
RTVSPropertyOp36
 70
     1
102
RTVSPropertyOp37
 70
     1
102
RTVSPropertyOp38
 70
     1
102
RTVSPropertyOp39
 70
     1
102
RTVSPropertyOp40
 70
     1
102
RTVSPropertyOp41
 70
     1
102
RTVSPropertyOp42
 70
     1
102
RTVSPropertyOp43
 70
     1
102
RTVSPropertyOp44
 70
     1
102
RTVSPropertyOp45
 70
     1
102
RTVSPropertyOp46
 70
     1
102
RTVSPropertyOp47
 70
     1
102
RTVSPropertyOp48
 70
     1
102
RTVSPropertyOp49
 70
     1
102
RTVSPropertyOp50
 70
     1
102
RTVSPropertyOp51
 70
     0
102
RTVSPropertyOp52
 70
     0
102
RTVSPropertyOp53
 70
     1
102
RTVSPropertyOp54
 70
     1
102
RTVSPropertyOp55
 70
     1
102
RTVSPropertyOp56
 70
     1
102
RTVSPropertyOp57
 70
     1
102
RTVSPropertyOp58
 70
     1
102
RTVSPropertyOp59
 70
     1
102
RTVSPropertyOp60
 70
     1
102
RTVSPropertyOp61
 70
     1
102
RTVSPropertyOp62
 70
     1
  0
XRECORD
  5
140A
102
{ACAD_REACTORS
330
1409
102
}
330
1409
100
AcDbXrecord
280
     1
102
RTVSPost2010Prop28
280
     0
102
RTVSPost2010PropOp28
 70
     1
102
RTVSPost2010Prop29
280
     1
102
RTVSPost2010PropOp29
 70
     1
102
RTVSPost2010Prop30
280
     1
102
RTVSPost2010PropOp30
 70
     1
102
RTVSPost2010Prop31
280
     0
102
RTVSPost2010PropOp31
 70
     1
102
RTVSPost2010Prop32
280
     0
102
RTVSPost2010PropOp32
 70
     1
102
RTVSPost2010Prop33
280
     0
102
RTVSPost2010PropOp33
 70
     1
102
RTVSPost2010Prop34
280
     0
102
RTVSPost2010PropOp34
 70
     1
102
RTVSPost2010Prop35
280
     0
102
RTVSPost2010PropOp35
 70
     1
102
RTVSPost2010Prop36
280
     0
102
RTVSPost2010PropOp36
 70
     1
102
RTVSPost2010Prop37
 90
       50
102
RTVSPost2010PropOp37
 70
     0
102
RTVSPost2010Prop38
140
0.0
102
RTVSPost2010PropOp38
 70
     0
102
RTVSPost2010Prop39
140
1.0
102
RTVSPost2010PropOp39
 70
     0
102
RTVSPost2010Prop40
 90
        0
102
RTVSPost2010PropOp40
 70
     0
102
RTVSPost2010Prop41ColorIndex
 90
       18
102
RTVSPost2010Prop41ColorRGB
 90
        0
102
RTVSPost2010PropOp41
 70
     0
102
RTVSPost2010Prop42
 90
       50
102
RTVSPost2010PropOp42
 70
     0
102
RTVSPost2010Prop43
 90
        3
102
RTVSPost2010PropOp43
 70
     0
102
RTVSPost2010Prop44ColorIndex
 90
        5
102
RTVSPost2010Prop44ColorRGB
 90
      255
102
RTVSPost2010PropOp44
 70
     0
102
RTVSPost2010Prop45
280
     0
102
RTVSPost2010PropOp45
 70
     1
102
RTVSPost2010Prop46
 90
       50
102
RTVSPost2010PropOp46
 70
     0
102
RTVSPost2010Prop47
 90
       50
102
RTVSPost2010PropOp47
 70
     0
102
RTVSPost2010Prop48
 90
       50
102
RTVSPost2010PropOp48
 70
     0
102
RTVSPost2010Prop49
280
     0
102
RTVSPost2010PropOp49
 70
     1
102
RTVSPost2010Prop50
 90
       50
102
RTVSPost2010PropOp50
 70
     0
102
RTVSPost2010Prop51ColorIndex
 90
      256
102
RTVSPost2010Prop51ColorRGB
 90
-16777216
102
RTVSPost2010PropOp51
 70
     0
102
RTVSPost2010Prop52
140
1.0
102
RTVSPost2010PropOp52
 70
     0
102
RTVSPost2010Prop53
 90
        2
102
RTVSPost2010PropOp53
 70
     0
102
RTVSPost2010Prop54
  1
strokes_ogs.tif
102
RTVSPost2010PropOp54
 70
     0
102
RTVSPost2010Prop55
280
     0
102
RTVSPost2010PropOp55
 70
     1
102
RTVSPost2010Prop56
140
1.0
102
RTVSPost2010PropOp56
 70
     0
102
RTVSPost2010Prop57
140
1.0
102
RTVSPost2010PropOp57
 70
     0
102
RTVSPropertyOp0
 70
     0
102
RTVSPropertyOp1
 70
     0
102
RTVSPropertyOp2
 70
     0
102
RTVSPropertyOp3
 70
     0
102
RTVSPropertyOp4
 70
     0
102
RTVSPropertyOp5
 70
     0
102
RTVSPropertyOp6
 70
     0
102
RTVSPropertyOp7
 70
     0
102
RTVSPropertyOp8
 70
     0
102
RTVSPropertyOp9
 70
     0
102
RTVSPropertyOp10
 70
     0
102
RTVSPropertyOp11
 70
     0
102
RTVSPropertyOp12
 70
     0
102
RTVSPropertyOp13
 70
     0
102
RTVSPropertyOp14
 70
     2
102
RTVSPropertyOp15
 70
     0
102
RTVSPropertyOp16
 70
     0
102
RTVSPropertyOp17
 70
     0
102
RTVSPropertyOp18
 70
     0
102
RTVSPropertyOp19
 70
     0
102
RTVSPropertyOp20
 70
     0
102
RTVSPropertyOp21
 70
     0
102
RTVSPropertyOp22
 70
     0
102
RTVSPropertyOp23
 70
     0
102
RTVSPropertyOp24
 70
     0
102
RTVSPropertyOp25
 70
     0
102
RTVSPropertyOp26
 70
     0
102
RTVSPropertyOp27
 70
     0
102
RTVSPropertyOp28
 70
     1
102
RTVSPropertyOp29
 70
     1
102
RTVSPropertyOp30
 70
     1
102
RTVSPropertyOp31
 70
     1
102
RTVSPropertyOp32
 70
     1
102
RTVSPropertyOp33
 70
     1
102
RTVSPropertyOp34
 70
     1
102
RTVSPropertyOp35
 70
     1
102
RTVSPropertyOp36
 70
     1
102
RTVSPropertyOp37
 70
     0
102
RTVSPropertyOp38
 70
     0
102
RTVSPropertyOp39
 70
     0
102
RTVSPropertyOp40
 70
     0
102
RTVSPropertyOp41
 70
     0
102
RTVSPropertyOp42
 70
     0
102
RTVSPropertyOp43
 70
     0
102
RTVSPropertyOp44
 70
     0
102
RTVSPropertyOp45
 70
     1
102
RTVSPropertyOp46
 70
     0
102
RTVSPropertyOp47
 70
     0
102
RTVSPropertyOp48
 70
     0
102
RTVSPropertyOp49
 70
     1
102
RTVSPropertyOp50
 70
     0
102
RTVSPropertyOp51
 70
     0
102
RTVSPropertyOp52
 70
     0
102
RTVSPropertyOp53
 70
     0
102
RTVSPropertyOp54
 70
     0
102
RTVSPropertyOp55
 70
     1
102
RTVSPropertyOp56
 70
     0
102
RTVSPropertyOp57
 70
     0
102
RTVSPropertyOp58
 70
     0
102
RTVSPropertyOp59
 70
     0
102
RTVSPropertyOp60
 70
     0
102
RTVSPropertyOp61
 70
     0
102
RTVSPropertyOp62
 70
     0
  0
XRECORD
  5
13FA
102
{ACAD_REACTORS
330
13F9
102
}
330
13F9
100
AcDbXrecord
280
     1
102
RTVSPost2010Prop28
280
     0
102
RTVSPost2010PropOp28
 70
     1
102
RTVSPost2010Prop29
280
     1
102
RTVSPost2010PropOp29
 70
     1
102
RTVSPost2010Prop30
280
     1
102
RTVSPost2010PropOp30
 70
     1
102
RTVSPost2010Prop31
280
     0
102
RTVSPost2010PropOp31
 70
     1
102
RTVSPost2010Prop32
280
     0
102
RTVSPost2010PropOp32
 70
     1
102
RTVSPost2010Prop33
280
     0
102
RTVSPost2010PropOp33
 70
     1
102
RTVSPost2010Prop34
280
     0
102
RTVSPost2010PropOp34
 70
     1
102
RTVSPost2010Prop35
280
     0
102
RTVSPost2010PropOp35
 70
     1
102
RTVSPost2010Prop36
280
     0
102
RTVSPost2010PropOp36
 70
     1
102
RTVSPost2010Prop37
 90
       50
102
RTVSPost2010PropOp37
 70
     1
102
RTVSPost2010Prop38
140
0.0
102
RTVSPost2010PropOp38
 70
     1
102
RTVSPost2010Prop39
140
1.0
102
RTVSPost2010PropOp39
 70
     1
102
RTVSPost2010Prop40
 90
        0
102
RTVSPost2010PropOp40
 70
     1
102
RTVSPost2010Prop41ColorIndex
 90
       18
102
RTVSPost2010Prop41ColorRGB
 90
        0
102
RTVSPost2010PropOp41
 70
     1
102
RTVSPost2010Prop42
 90
       50
102
RTVSPost2010PropOp42
 70
     1
102
RTVSPost2010Prop43
 90
        3
102
RTVSPost2010PropOp43
 70
     1
102
RTVSPost2010Prop44ColorIndex
 90
        5
102
RTVSPost2010Prop44ColorRGB
 90
      255
102
RTVSPost2010PropOp44
 70
     1
102
RTVSPost2010Prop45
280
     0
102
RTVSPost2010PropOp45
 70
     1
102
RTVSPost2010Prop46
 90
       50
102
RTVSPost2010PropOp46
 70
     1
102
RTVSPost2010Prop47
 90
       50
102
RTVSPost2010PropOp47
 70
     1
102
RTVSPost2010Prop48
 90
       50
102
RTVSPost2010PropOp48
 70
     1
102
RTVSPost2010Prop49
280
     0
102
RTVSPost2010PropOp49
 70
     1
102
RTVSPost2010Prop50
 90
       50
102
RTVSPost2010PropOp50
 70
     1
102
RTVSPost2010Prop51ColorIndex
 90
      256
102
RTVSPost2010Prop51ColorRGB
 90
-16777216
102
RTVSPost2010PropOp51
 70
     0
102
RTVSPost2010Prop52
140
1.0
102
RTVSPost2010PropOp52
 70
     0
102
RTVSPost2010Prop53
 90
        2
102
RTVSPost2010PropOp53
 70
     1
102
RTVSPost2010Prop54
  1
strokes_ogs.tif
102
RTVSPost2010PropOp54
 70
     1
102
RTVSPost2010Prop55
280
     0
102
RTVSPost2010PropOp55
 70
     1
102
RTVSPost2010Prop56
140
1.0
102
RTVSPost2010PropOp56
 70
     1
102
RTVSPost2010Prop57
140
1.0
102
RTVSPost2010PropOp57
 70
     1
102
RTVSPropertyOp0
 70
     1
102
RTVSPropertyOp1
 70
     1
102
RTVSPropertyOp2
 70
     1
102
RTVSPropertyOp3
 70
     1
102
RTVSPropertyOp4
 70
     1
102
RTVSPropertyOp5
 70
     1
102
RTVSPropertyOp6
 70
     1
102
RTVSPropertyOp7
 70
     1
102
RTVSPropertyOp8
 70
     1
102
RTVSPropertyOp9
 70
     1
102
RTVSPropertyOp10
 70
     1
102
RTVSPropertyOp11
 70
     1
102
RTVSPropertyOp12
 70
     1
102
RTVSPropertyOp13
 70
     1
102
RTVSPropertyOp14
 70
     1
102
RTVSPropertyOp15
 70
     1
102
RTVSPropertyOp16
 70
     1
102
RTVSPropertyOp17
 70
     1
102
RTVSPropertyOp18
 70
     1
102
RTVSPropertyOp19
 70
     1
102
RTVSPropertyOp20
 70
     1
102
RTVSPropertyOp21
 70
     1
102
RTVSPropertyOp22
 70
     1
102
RTVSPropertyOp23
 70
     1
102
RTVSPropertyOp24
 70
     1
102
RTVSPropertyOp25
 70
     1
102
RTVSPropertyOp26
 70
     1
102
RTVSPropertyOp27
 70
     1
102
RTVSPropertyOp28
 70
     1
102
RTVSPropertyOp29
 70
     1
102
RTVSPropertyOp30
 70
     1
102
RTVSPropertyOp31
 70
     1
102
RTVSPropertyOp32
 70
     1
102
RTVSPropertyOp33
 70
     1
102
RTVSPropertyOp34
 70
     1
102
RTVSPropertyOp35
 70
     1
102
RTVSPropertyOp36
 70
     1
102
RTVSPropertyOp37
 70
     1
102
RTVSPropertyOp38
 70
     1
102
RTVSPropertyOp39
 70
     1
102
RTVSPropertyOp40
 70
     1
102
RTVSPropertyOp41
 70
     1
102
RTVSPropertyOp42
 70
     1
102
RTVSPropertyOp43
 70
     1
102
RTVSPropertyOp44
 70
     1
102
RTVSPropertyOp45
 70
     1
102
RTVSPropertyOp46
 70
     1
102
RTVSPropertyOp47
 70
     1
102
RTVSPropertyOp48
 70
     1
102
RTVSPropertyOp49
 70
     1
102
RTVSPropertyOp50
 70
     1
102
RTVSPropertyOp51
 70
     0
102
RTVSPropertyOp52
 70
     0
102
RTVSPropertyOp53
 70
     1
102
RTVSPropertyOp54
 70
     1
102
RTVSPropertyOp55
 70
     1
102
RTVSPropertyOp56
 70
     1
102
RTVSPropertyOp57
 70
     1
102
RTVSPropertyOp58
 70
     1
102
RTVSPropertyOp59
 70
     1
102
RTVSPropertyOp60
 70
     1
102
RTVSPropertyOp61
 70
     1
102
RTVSPropertyOp62
 70
     1
  0
XRECORD
  5
140C
102
{ACAD_REACTORS
330
140B
102
}
330
140B
100
AcDbXrecord
280
     1
102
RTVSPost2010Prop28
280
     0
102
RTVSPost2010PropOp28
 70
     1
102
RTVSPost2010Prop29
280
     1
102
RTVSPost2010PropOp29
 70
     1
102
RTVSPost2010Prop30
280
     1
102
RTVSPost2010PropOp30
 70
     1
102
RTVSPost2010Prop31
280
     0
102
RTVSPost2010PropOp31
 70
     1
102
RTVSPost2010Prop32
280
     0
102
RTVSPost2010PropOp32
 70
     1
102
RTVSPost2010Prop33
280
     0
102
RTVSPost2010PropOp33
 70
     1
102
RTVSPost2010Prop34
280
     0
102
RTVSPost2010PropOp34
 70
     1
102
RTVSPost2010Prop35
280
     0
102
RTVSPost2010PropOp35
 70
     1
102
RTVSPost2010Prop36
280
     0
102
RTVSPost2010PropOp36
 70
     1
102
RTVSPost2010Prop37
 90
       50
102
RTVSPost2010PropOp37
 70
     0
102
RTVSPost2010Prop38
140
0.0
102
RTVSPost2010PropOp38
 70
     0
102
RTVSPost2010Prop39
140
1.0
102
RTVSPost2010PropOp39
 70
     0
102
RTVSPost2010Prop40
 90
        0
102
RTVSPost2010PropOp40
 70
     0
102
RTVSPost2010Prop41ColorIndex
 90
       18
102
RTVSPost2010Prop41ColorRGB
 90
        0
102
RTVSPost2010PropOp41
 70
     0
102
RTVSPost2010Prop42
 90
       50
102
RTVSPost2010PropOp42
 70
     0
102
RTVSPost2010Prop43
 90
        3
102
RTVSPost2010PropOp43
 70
     0
102
RTVSPost2010Prop44ColorIndex
 90
        5
102
RTVSPost2010Prop44ColorRGB
 90
      255
102
RTVSPost2010PropOp44
 70
     0
102
RTVSPost2010Prop45
280
     0
102
RTVSPost2010PropOp45
 70
     1
102
RTVSPost2010Prop46
 90
       50
102
RTVSPost2010PropOp46
 70
     0
102
RTVSPost2010Prop47
 90
       50
102
RTVSPost2010PropOp47
 70
     0
102
RTVSPost2010Prop48
 90
       50
102
RTVSPost2010PropOp48
 70
     0
102
RTVSPost2010Prop49
280
     0
102
RTVSPost2010PropOp49
 70
     1
102
RTVSPost2010Prop50
 90
       50
102
RTVSPost2010PropOp50
 70
     0
102
RTVSPost2010Prop51ColorIndex
 90
      256
102
RTVSPost2010Prop51ColorRGB
 90
-16777216
102
RTVSPost2010PropOp51
 70
     0
102
RTVSPost2010Prop52
140
1.0
102
RTVSPost2010PropOp52
 70
     0
102
RTVSPost2010Prop53
 90
        2
102
RTVSPost2010PropOp53
 70
     0
102
RTVSPost2010Prop54
  1
strokes_ogs.tif
102
RTVSPost2010PropOp54
 70
     0
102
RTVSPost2010Prop55
280
     0
102
RTVSPost2010PropOp55
 70
     1
102
RTVSPost2010Prop56
140
1.0
102
RTVSPost2010PropOp56
 70
     0
102
RTVSPost2010Prop57
140
1.0
102
RTVSPost2010PropOp57
 70
     0
102
RTVSPropertyOp0
 70
     0
102
RTVSPropertyOp1
 70
     0
102
RTVSPropertyOp2
 70
     0
102
RTVSPropertyOp3
 70
     0
102
RTVSPropertyOp4
 70
     0
102
RTVSPropertyOp5
 70
     0
102
RTVSPropertyOp6
 70
     0
102
RTVSPropertyOp7
 70
     0
102
RTVSPropertyOp8
 70
     0
102
RTVSPropertyOp9
 70
     0
102
RTVSPropertyOp10
 70
     0
102
RTVSPropertyOp11
 70
     0
102
RTVSPropertyOp12
 70
     0
102
RTVSPropertyOp13
 70
     0
102
RTVSPropertyOp14
 70
     2
102
RTVSPropertyOp15
 70
     0
102
RTVSPropertyOp16
 70
     0
102
RTVSPropertyOp17
 70
     0
102
RTVSPropertyOp18
 70
     0
102
RTVSPropertyOp19
 70
     0
102
RTVSPropertyOp20
 70
     0
102
RTVSPropertyOp21
 70
     0
102
RTVSPropertyOp22
 70
     0
102
RTVSPropertyOp23
 70
     0
102
RTVSPropertyOp24
 70
     0
102
RTVSPropertyOp25
 70
     0
102
RTVSPropertyOp26
 70
     0
102
RTVSPropertyOp27
 70
     0
102
RTVSPropertyOp28
 70
     1
102
RTVSPropertyOp29
 70
     1
102
RTVSPropertyOp30
 70
     1
102
RTVSPropertyOp31
 70
     1
102
RTVSPropertyOp32
 70
     1
102
RTVSPropertyOp33
 70
     1
102
RTVSPropertyOp34
 70
     1
102
RTVSPropertyOp35
 70
     1
102
RTVSPropertyOp36
 70
     1
102
RTVSPropertyOp37
 70
     0
102
RTVSPropertyOp38
 70
     0
102
RTVSPropertyOp39
 70
     0
102
RTVSPropertyOp40
 70
     0
102
RTVSPropertyOp41
 70
     0
102
RTVSPropertyOp42
 70
     0
102
RTVSPropertyOp43
 70
     0
102
RTVSPropertyOp44
 70
     0
102
RTVSPropertyOp45
 70
     1
102
RTVSPropertyOp46
 70
     0
102
RTVSPropertyOp47
 70
     0
102
RTVSPropertyOp48
 70
     0
102
RTVSPropertyOp49
 70
     1
102
RTVSPropertyOp50
 70
     0
102
RTVSPropertyOp51
 70
     0
102
RTVSPropertyOp52
 70
     0
102
RTVSPropertyOp53
 70
     0
102
RTVSPropertyOp54
 70
     0
102
RTVSPropertyOp55
 70
     1
102
RTVSPropertyOp56
 70
     0
102
RTVSPropertyOp57
 70
     0
102
RTVSPropertyOp58
 70
     0
102
RTVSPropertyOp59
 70
     0
102
RTVSPropertyOp60
 70
     0
102
RTVSPropertyOp61
 70
     0
102
RTVSPropertyOp62
 70
     0
  0
XRECORD
  5
13F2
102
{ACAD_REACTORS
330
13F1
102
}
330
13F1
100
AcDbXrecord
280
     1
102
RTVSPost2010Prop28
280
     0
102
RTVSPost2010PropOp28
 70
     1
102
RTVSPost2010Prop29
280
     1
102
RTVSPost2010PropOp29
 70
     1
102
RTVSPost2010Prop30
280
     1
102
RTVSPost2010PropOp30
 70
     1
102
RTVSPost2010Prop31
280
     0
102
RTVSPost2010PropOp31
 70
     1
102
RTVSPost2010Prop32
280
     0
102
RTVSPost2010PropOp32
 70
     1
102
RTVSPost2010Prop33
280
     0
102
RTVSPost2010PropOp33
 70
     1
102
RTVSPost2010Prop34
280
     0
102
RTVSPost2010PropOp34
 70
     1
102
RTVSPost2010Prop35
280
     0
102
RTVSPost2010PropOp35
 70
     1
102
RTVSPost2010Prop36
280
     0
102
RTVSPost2010PropOp36
 70
     1
102
RTVSPost2010Prop37
 90
       50
102
RTVSPost2010PropOp37
 70
     1
102
RTVSPost2010Prop38
140
0.0
102
RTVSPost2010PropOp38
 70
     1
102
RTVSPost2010Prop39
140
1.0
102
RTVSPost2010PropOp39
 70
     1
102
RTVSPost2010Prop40
 90
        0
102
RTVSPost2010PropOp40
 70
     1
102
RTVSPost2010Prop41ColorIndex
 90
       18
102
RTVSPost2010Prop41ColorRGB
 90
        0
102
RTVSPost2010PropOp41
 70
     1
102
RTVSPost2010Prop42
 90
       50
102
RTVSPost2010PropOp42
 70
     1
102
RTVSPost2010Prop43
 90
        3
102
RTVSPost2010PropOp43
 70
     1
102
RTVSPost2010Prop44ColorIndex
 90
        5
102
RTVSPost2010Prop44ColorRGB
 90
      255
102
RTVSPost2010PropOp44
 70
     1
102
RTVSPost2010Prop45
280
     0
102
RTVSPost2010PropOp45
 70
     1
102
RTVSPost2010Prop46
 90
       50
102
RTVSPost2010PropOp46
 70
     1
102
RTVSPost2010Prop47
 90
       50
102
RTVSPost2010PropOp47
 70
     1
102
RTVSPost2010Prop48
 90
       50
102
RTVSPost2010PropOp48
 70
     1
102
RTVSPost2010Prop49
280
     0
102
RTVSPost2010PropOp49
 70
     1
102
RTVSPost2010Prop50
 90
       50
102
RTVSPost2010PropOp50
 70
     1
102
RTVSPost2010Prop51ColorIndex
 90
      256
102
RTVSPost2010Prop51ColorRGB
 90
-16777216
102
RTVSPost2010PropOp51
 70
     0
102
RTVSPost2010Prop52
140
1.0
102
RTVSPost2010PropOp52
 70
     0
102
RTVSPost2010Prop53
 90
        2
102
RTVSPost2010PropOp53
 70
     1
102
RTVSPost2010Prop54
  1
strokes_ogs.tif
102
RTVSPost2010PropOp54
 70
     1
102
RTVSPost2010Prop55
280
     0
102
RTVSPost2010PropOp55
 70
     1
102
RTVSPost2010Prop56
140
1.0
102
RTVSPost2010PropOp56
 70
     1
102
RTVSPost2010Prop57
140
1.0
102
RTVSPost2010PropOp57
 70
     1
102
RTVSPropertyOp0
 70
     1
102
RTVSPropertyOp1
 70
     1
102
RTVSPropertyOp2
 70
     1
102
RTVSPropertyOp3
 70
     1
102
RTVSPropertyOp4
 70
     1
102
RTVSPropertyOp5
 70
     1
102
RTVSPropertyOp6
 70
     1
102
RTVSPropertyOp7
 70
     1
102
RTVSPropertyOp8
 70
     1
102
RTVSPropertyOp9
 70
     1
102
RTVSPropertyOp10
 70
     1
102
RTVSPropertyOp11
 70
     1
102
RTVSPropertyOp12
 70
     1
102
RTVSPropertyOp13
 70
     1
102
RTVSPropertyOp14
 70
     1
102
RTVSPropertyOp15
 70
     1
102
RTVSPropertyOp16
 70
     1
102
RTVSPropertyOp17
 70
     1
102
RTVSPropertyOp18
 70
     1
102
RTVSPropertyOp19
 70
     1
102
RTVSPropertyOp20
 70
     1
102
RTVSPropertyOp21
 70
     1
102
RTVSPropertyOp22
 70
     1
102
RTVSPropertyOp23
 70
     1
102
RTVSPropertyOp24
 70
     1
102
RTVSPropertyOp25
 70
     1
102
RTVSPropertyOp26
 70
     1
102
RTVSPropertyOp27
 70
     1
102
RTVSPropertyOp28
 70
     1
102
RTVSPropertyOp29
 70
     1
102
RTVSPropertyOp30
 70
     1
102
RTVSPropertyOp31
 70
     1
102
RTVSPropertyOp32
 70
     1
102
RTVSPropertyOp33
 70
     1
102
RTVSPropertyOp34
 70
     1
102
RTVSPropertyOp35
 70
     1
102
RTVSPropertyOp36
 70
     1
102
RTVSPropertyOp37
 70
     1
102
RTVSPropertyOp38
 70
     1
102
RTVSPropertyOp39
 70
     1
102
RTVSPropertyOp40
 70
     1
102
RTVSPropertyOp41
 70
     1
102
RTVSPropertyOp42
 70
     1
102
RTVSPropertyOp43
 70
     1
102
RTVSPropertyOp44
 70
     1
102
RTVSPropertyOp45
 70
     1
102
RTVSPropertyOp46
 70
     1
102
RTVSPropertyOp47
 70
     1
102
RTVSPropertyOp48
 70
     1
102
RTVSPropertyOp49
 70
     1
102
RTVSPropertyOp50
 70
     1
102
RTVSPropertyOp51
 70
     0
102
RTVSPropertyOp52
 70
     0
102
RTVSPropertyOp53
 70
     1
102
RTVSPropertyOp54
 70
     1
102
RTVSPropertyOp55
 70
     1
102
RTVSPropertyOp56
 70
     1
102
RTVSPropertyOp57
 70
     1
102
RTVSPropertyOp58
 70
     1
102
RTVSPropertyOp59
 70
     1
102
RTVSPropertyOp60
 70
     1
102
RTVSPropertyOp61
 70
     1
102
RTVSPropertyOp62
 70
     1
  0
XRECORD
  5
1408
102
{ACAD_REACTORS
330
1407
102
}
330
1407
100
AcDbXrecord
280
     1
102
RTVSPost2010Prop28
280
     0
102
RTVSPost2010PropOp28
 70
     1
102
RTVSPost2010Prop29
280
     1
102
RTVSPost2010PropOp29
 70
     1
102
RTVSPost2010Prop30
280
     1
102
RTVSPost2010PropOp30
 70
     1
102
RTVSPost2010Prop31
280
     0
102
RTVSPost2010PropOp31
 70
     1
102
RTVSPost2010Prop32
280
     0
102
RTVSPost2010PropOp32
 70
     1
102
RTVSPost2010Prop33
280
     0
102
RTVSPost2010PropOp33
 70
     1
102
RTVSPost2010Prop34
280
     0
102
RTVSPost2010PropOp34
 70
     1
102
RTVSPost2010Prop35
280
     0
102
RTVSPost2010PropOp35
 70
     1
102
RTVSPost2010Prop36
280
     0
102
RTVSPost2010PropOp36
 70
     1
102
RTVSPost2010Prop37
 90
       50
102
RTVSPost2010PropOp37
 70
     1
102
RTVSPost2010Prop38
140
0.0
102
RTVSPost2010PropOp38
 70
     1
102
RTVSPost2010Prop39
140
1.0
102
RTVSPost2010PropOp39
 70
     1
102
RTVSPost2010Prop40
 90
        0
102
RTVSPost2010PropOp40
 70
     1
102
RTVSPost2010Prop41ColorIndex
 90
       18
102
RTVSPost2010Prop41ColorRGB
 90
        0
102
RTVSPost2010PropOp41
 70
     1
102
RTVSPost2010Prop42
 90
       50
102
RTVSPost2010PropOp42
 70
     1
102
RTVSPost2010Prop43
 90
        3
102
RTVSPost2010PropOp43
 70
     1
102
RTVSPost2010Prop44ColorIndex
 90
        5
102
RTVSPost2010Prop44ColorRGB
 90
      255
102
RTVSPost2010PropOp44
 70
     1
102
RTVSPost2010Prop45
280
     0
102
RTVSPost2010PropOp45
 70
     1
102
RTVSPost2010Prop46
 90
       50
102
RTVSPost2010PropOp46
 70
     1
102
RTVSPost2010Prop47
 90
       50
102
RTVSPost2010PropOp47
 70
     1
102
RTVSPost2010Prop48
 90
       50
102
RTVSPost2010PropOp48
 70
     1
102
RTVSPost2010Prop49
280
     0
102
RTVSPost2010PropOp49
 70
     1
102
RTVSPost2010Prop50
 90
       50
102
RTVSPost2010PropOp50
 70
     1
102
RTVSPost2010Prop51ColorIndex
 90
      256
102
RTVSPost2010Prop51ColorRGB
 90
-16777216
102
RTVSPost2010PropOp51
 70
     0
102
RTVSPost2010Prop52
140
1.0
102
RTVSPost2010PropOp52
 70
     0
102
RTVSPost2010Prop53
 90
        2
102
RTVSPost2010PropOp53
 70
     1
102
RTVSPost2010Prop54
  1
strokes_ogs.tif
102
RTVSPost2010PropOp54
 70
     1
102
RTVSPost2010Prop55
280
     0
102
RTVSPost2010PropOp55
 70
     1
102
RTVSPost2010Prop56
140
1.0
102
RTVSPost2010PropOp56
 70
     1
102
RTVSPost2010Prop57
140
1.0
102
RTVSPost2010PropOp57
 70
     1
102
RTVSPropertyOp0
 70
     1
102
RTVSPropertyOp1
 70
     1
102
RTVSPropertyOp2
 70
     1
102
RTVSPropertyOp3
 70
     1
102
RTVSPropertyOp4
 70
     1
102
RTVSPropertyOp5
 70
     1
102
RTVSPropertyOp6
 70
     1
102
RTVSPropertyOp7
 70
     1
102
RTVSPropertyOp8
 70
     1
102
RTVSPropertyOp9
 70
     1
102
RTVSPropertyOp10
 70
     1
102
RTVSPropertyOp11
 70
     1
102
RTVSPropertyOp12
 70
     1
102
RTVSPropertyOp13
 70
     1
102
RTVSPropertyOp14
 70
     1
102
RTVSPropertyOp15
 70
     1
102
RTVSPropertyOp16
 70
     1
102
RTVSPropertyOp17
 70
     1
102
RTVSPropertyOp18
 70
     1
102
RTVSPropertyOp19
 70
     1
102
RTVSPropertyOp20
 70
     1
102
RTVSPropertyOp21
 70
     1
102
RTVSPropertyOp22
 70
     1
102
RTVSPropertyOp23
 70
     1
102
RTVSPropertyOp24
 70
     1
102
RTVSPropertyOp25
 70
     1
102
RTVSPropertyOp26
 70
     1
102
RTVSPropertyOp27
 70
     1
102
RTVSPropertyOp28
 70
     1
102
RTVSPropertyOp29
 70
     1
102
RTVSPropertyOp30
 70
     1
102
RTVSPropertyOp31
 70
     1
102
RTVSPropertyOp32
 70
     1
102
RTVSPropertyOp33
 70
     1
102
RTVSPropertyOp34
 70
     1
102
RTVSPropertyOp35
 70
     1
102
RTVSPropertyOp36
 70
     1
102
RTVSPropertyOp37
 70
     1
102
RTVSPropertyOp38
 70
     1
102
RTVSPropertyOp39
 70
     1
102
RTVSPropertyOp40
 70
     1
102
RTVSPropertyOp41
 70
     1
102
RTVSPropertyOp42
 70
     1
102
RTVSPropertyOp43
 70
     1
102
RTVSPropertyOp44
 70
     1
102
RTVSPropertyOp45
 70
     1
102
RTVSPropertyOp46
 70
     1
102
RTVSPropertyOp47
 70
     1
102
RTVSPropertyOp48
 70
     1
102
RTVSPropertyOp49
 70
     1
102
RTVSPropertyOp50
 70
     1
102
RTVSPropertyOp51
 70
     0
102
RTVSPropertyOp52
 70
     0
102
RTVSPropertyOp53
 70
     1
102
RTVSPropertyOp54
 70
     1
102
RTVSPropertyOp55
 70
     1
102
RTVSPropertyOp56
 70
     1
102
RTVSPropertyOp57
 70
     1
102
RTVSPropertyOp58
 70
     1
102
RTVSPropertyOp59
 70
     1
102
RTVSPropertyOp60
 70
     1
102
RTVSPropertyOp61
 70
     1
102
RTVSPropertyOp62
 70
     1
  0
XRECORD
  5
1406
102
{ACAD_REACTORS
330
1405
102
}
330
1405
100
AcDbXrecord
280
     1
102
RTVSPost2010Prop28
280
     0
102
RTVSPost2010PropOp28
 70
     1
102
RTVSPost2010Prop29
280
     1
102
RTVSPost2010PropOp29
 70
     1
102
RTVSPost2010Prop30
280
     1
102
RTVSPost2010PropOp30
 70
     1
102
RTVSPost2010Prop31
280
     0
102
RTVSPost2010PropOp31
 70
     1
102
RTVSPost2010Prop32
280
     0
102
RTVSPost2010PropOp32
 70
     1
102
RTVSPost2010Prop33
280
     0
102
RTVSPost2010PropOp33
 70
     1
102
RTVSPost2010Prop34
280
     0
102
RTVSPost2010PropOp34
 70
     1
102
RTVSPost2010Prop35
280
     0
102
RTVSPost2010PropOp35
 70
     1
102
RTVSPost2010Prop36
280
     0
102
RTVSPost2010PropOp36
 70
     1
102
RTVSPost2010Prop37
 90
       50
102
RTVSPost2010PropOp37
 70
     1
102
RTVSPost2010Prop38
140
0.0
102
RTVSPost2010PropOp38
 70
     1
102
RTVSPost2010Prop39
140
1.0
102
RTVSPost2010PropOp39
 70
     1
102
RTVSPost2010Prop40
 90
        0
102
RTVSPost2010PropOp40
 70
     1
102
RTVSPost2010Prop41ColorIndex
 90
       18
102
RTVSPost2010Prop41ColorRGB
 90
        0
102
RTVSPost2010PropOp41
 70
     1
102
RTVSPost2010Prop42
 90
       50
102
RTVSPost2010PropOp42
 70
     1
102
RTVSPost2010Prop43
 90
        3
102
RTVSPost2010PropOp43
 70
     1
102
RTVSPost2010Prop44ColorIndex
 90
        5
102
RTVSPost2010Prop44ColorRGB
 90
      255
102
RTVSPost2010PropOp44
 70
     1
102
RTVSPost2010Prop45
280
     0
102
RTVSPost2010PropOp45
 70
     1
102
RTVSPost2010Prop46
 90
       50
102
RTVSPost2010PropOp46
 70
     1
102
RTVSPost2010Prop47
 90
       50
102
RTVSPost2010PropOp47
 70
     1
102
RTVSPost2010Prop48
 90
       50
102
RTVSPost2010PropOp48
 70
     1
102
RTVSPost2010Prop49
280
     0
102
RTVSPost2010PropOp49
 70
     1
102
RTVSPost2010Prop50
 90
       50
102
RTVSPost2010PropOp50
 70
     1
102
RTVSPost2010Prop51ColorIndex
 90
      256
102
RTVSPost2010Prop51ColorRGB
 90
-16777216
102
RTVSPost2010PropOp51
 70
     0
102
RTVSPost2010Prop52
140
1.0
102
RTVSPost2010PropOp52
 70
     0
102
RTVSPost2010Prop53
 90
        2
102
RTVSPost2010PropOp53
 70
     1
102
RTVSPost2010Prop54
  1
strokes_ogs.tif
102
RTVSPost2010PropOp54
 70
     1
102
RTVSPost2010Prop55
280
     0
102
RTVSPost2010PropOp55
 70
     1
102
RTVSPost2010Prop56
140
1.0
102
RTVSPost2010PropOp56
 70
     1
102
RTVSPost2010Prop57
140
1.0
102
RTVSPost2010PropOp57
 70
     1
102
RTVSPropertyOp0
 70
     1
102
RTVSPropertyOp1
 70
     1
102
RTVSPropertyOp2
 70
     1
102
RTVSPropertyOp3
 70
     1
102
RTVSPropertyOp4
 70
     1
102
RTVSPropertyOp5
 70
     1
102
RTVSPropertyOp6
 70
     1
102
RTVSPropertyOp7
 70
     1
102
RTVSPropertyOp8
 70
     1
102
RTVSPropertyOp9
 70
     1
102
RTVSPropertyOp10
 70
     1
102
RTVSPropertyOp11
 70
     1
102
RTVSPropertyOp12
 70
     1
102
RTVSPropertyOp13
 70
     1
102
RTVSPropertyOp14
 70
     1
102
RTVSPropertyOp15
 70
     1
102
RTVSPropertyOp16
 70
     1
102
RTVSPropertyOp17
 70
     1
102
RTVSPropertyOp18
 70
     1
102
RTVSPropertyOp19
 70
     1
102
RTVSPropertyOp20
 70
     1
102
RTVSPropertyOp21
 70
     1
102
RTVSPropertyOp22
 70
     1
102
RTVSPropertyOp23
 70
     1
102
RTVSPropertyOp24
 70
     1
102
RTVSPropertyOp25
 70
     1
102
RTVSPropertyOp26
 70
     1
102
RTVSPropertyOp27
 70
     1
102
RTVSPropertyOp28
 70
     1
102
RTVSPropertyOp29
 70
     1
102
RTVSPropertyOp30
 70
     1
102
RTVSPropertyOp31
 70
     1
102
RTVSPropertyOp32
 70
     1
102
RTVSPropertyOp33
 70
     1
102
RTVSPropertyOp34
 70
     1
102
RTVSPropertyOp35
 70
     1
102
RTVSPropertyOp36
 70
     1
102
RTVSPropertyOp37
 70
     1
102
RTVSPropertyOp38
 70
     1
102
RTVSPropertyOp39
 70
     1
102
RTVSPropertyOp40
 70
     1
102
RTVSPropertyOp41
 70
     1
102
RTVSPropertyOp42
 70
     1
102
RTVSPropertyOp43
 70
     1
102
RTVSPropertyOp44
 70
     1
102
RTVSPropertyOp45
 70
     1
102
RTVSPropertyOp46
 70
     1
102
RTVSPropertyOp47
 70
     1
102
RTVSPropertyOp48
 70
     1
102
RTVSPropertyOp49
 70
     1
102
RTVSPropertyOp50
 70
     1
102
RTVSPropertyOp51
 70
     0
102
RTVSPropertyOp52
 70
     0
102
RTVSPropertyOp53
 70
     1
102
RTVSPropertyOp54
 70
     1
102
RTVSPropertyOp55
 70
     1
102
RTVSPropertyOp56
 70
     1
102
RTVSPropertyOp57
 70
     1
102
RTVSPropertyOp58
 70
     1
102
RTVSPropertyOp59
 70
     1
102
RTVSPropertyOp60
 70
     1
102
RTVSPropertyOp61
 70
     1
102
RTVSPropertyOp62
 70
     1
  0
XRECORD
  5
1400
102
{ACAD_REACTORS
330
13FF
102
}
330
13FF
100
AcDbXrecord
280
     1
102
RTVSPost2010Prop28
280
     0
102
RTVSPost2010PropOp28
 70
     1
102
RTVSPost2010Prop29
280
     1
102
RTVSPost2010PropOp29
 70
     1
102
RTVSPost2010Prop30
280
     1
102
RTVSPost2010PropOp30
 70
     1
102
RTVSPost2010Prop31
280
     0
102
RTVSPost2010PropOp31
 70
     1
102
RTVSPost2010Prop32
280
     0
102
RTVSPost2010PropOp32
 70
     1
102
RTVSPost2010Prop33
280
     0
102
RTVSPost2010PropOp33
 70
     1
102
RTVSPost2010Prop34
280
     0
102
RTVSPost2010PropOp34
 70
     1
102
RTVSPost2010Prop35
280
     0
102
RTVSPost2010PropOp35
 70
     1
102
RTVSPost2010Prop36
280
     0
102
RTVSPost2010PropOp36
 70
     1
102
RTVSPost2010Prop37
 90
       50
102
RTVSPost2010PropOp37
 70
     1
102
RTVSPost2010Prop38
140
0.0
102
RTVSPost2010PropOp38
 70
     1
102
RTVSPost2010Prop39
140
1.0
102
RTVSPost2010PropOp39
 70
     1
102
RTVSPost2010Prop40
 90
        0
102
RTVSPost2010PropOp40
 70
     1
102
RTVSPost2010Prop41ColorIndex
 90
       18
102
RTVSPost2010Prop41ColorRGB
 90
        0
102
RTVSPost2010PropOp41
 70
     1
102
RTVSPost2010Prop42
 90
       50
102
RTVSPost2010PropOp42
 70
     1
102
RTVSPost2010Prop43
 90
        3
102
RTVSPost2010PropOp43
 70
     1
102
RTVSPost2010Prop44ColorIndex
 90
        5
102
RTVSPost2010Prop44ColorRGB
 90
      255
102
RTVSPost2010PropOp44
 70
     1
102
RTVSPost2010Prop45
280
     0
102
RTVSPost2010PropOp45
 70
     1
102
RTVSPost2010Prop46
 90
       50
102
RTVSPost2010PropOp46
 70
     1
102
RTVSPost2010Prop47
 90
       50
102
RTVSPost2010PropOp47
 70
     1
102
RTVSPost2010Prop48
 90
       50
102
RTVSPost2010PropOp48
 70
     1
102
RTVSPost2010Prop49
280
     0
102
RTVSPost2010PropOp49
 70
     1
102
RTVSPost2010Prop50
 90
       50
102
RTVSPost2010PropOp50
 70
     1
102
RTVSPost2010Prop51ColorIndex
 90
      256
102
RTVSPost2010Prop51ColorRGB
 90
-16777216
102
RTVSPost2010PropOp51
 70
     0
102
RTVSPost2010Prop52
140
1.0
102
RTVSPost2010PropOp52
 70
     0
102
RTVSPost2010Prop53
 90
        2
102
RTVSPost2010PropOp53
 70
     1
102
RTVSPost2010Prop54
  1
strokes_ogs.tif
102
RTVSPost2010PropOp54
 70
     1
102
RTVSPost2010Prop55
280
     0
102
RTVSPost2010PropOp55
 70
     1
102
RTVSPost2010Prop56
140
1.0
102
RTVSPost2010PropOp56
 70
     1
102
RTVSPost2010Prop57
140
1.0
102
RTVSPost2010PropOp57
 70
     1
102
RTVSPropertyOp0
 70
     1
102
RTVSPropertyOp1
 70
     1
102
RTVSPropertyOp2
 70
     1
102
RTVSPropertyOp3
 70
     1
102
RTVSPropertyOp4
 70
     1
102
RTVSPropertyOp5
 70
     1
102
RTVSPropertyOp6
 70
     1
102
RTVSPropertyOp7
 70
     1
102
RTVSPropertyOp8
 70
     1
102
RTVSPropertyOp9
 70
     1
102
RTVSPropertyOp10
 70
     1
102
RTVSPropertyOp11
 70
     1
102
RTVSPropertyOp12
 70
     1
102
RTVSPropertyOp13
 70
     1
102
RTVSPropertyOp14
 70
     1
102
RTVSPropertyOp15
 70
     1
102
RTVSPropertyOp16
 70
     1
102
RTVSPropertyOp17
 70
     1
102
RTVSPropertyOp18
 70
     1
102
RTVSPropertyOp19
 70
     1
102
RTVSPropertyOp20
 70
     1
102
RTVSPropertyOp21
 70
     1
102
RTVSPropertyOp22
 70
     1
102
RTVSPropertyOp23
 70
     1
102
RTVSPropertyOp24
 70
     1
102
RTVSPropertyOp25
 70
     1
102
RTVSPropertyOp26
 70
     1
102
RTVSPropertyOp27
 70
     1
102
RTVSPropertyOp28
 70
     1
102
RTVSPropertyOp29
 70
     1
102
RTVSPropertyOp30
 70
     1
102
RTVSPropertyOp31
 70
     1
102
RTVSPropertyOp32
 70
     1
102
RTVSPropertyOp33
 70
     1
102
RTVSPropertyOp34
 70
     1
102
RTVSPropertyOp35
 70
     1
102
RTVSPropertyOp36
 70
     1
102
RTVSPropertyOp37
 70
     1
102
RTVSPropertyOp38
 70
     1
102
RTVSPropertyOp39
 70
     1
102
RTVSPropertyOp40
 70
     1
102
RTVSPropertyOp41
 70
     1
102
RTVSPropertyOp42
 70
     1
102
RTVSPropertyOp43
 70
     1
102
RTVSPropertyOp44
 70
     1
102
RTVSPropertyOp45
 70
     1
102
RTVSPropertyOp46
 70
     1
102
RTVSPropertyOp47
 70
     1
102
RTVSPropertyOp48
 70
     1
102
RTVSPropertyOp49
 70
     1
102
RTVSPropertyOp50
 70
     1
102
RTVSPropertyOp51
 70
     0
102
RTVSPropertyOp52
 70
     0
102
RTVSPropertyOp53
 70
     1
102
RTVSPropertyOp54
 70
     1
102
RTVSPropertyOp55
 70
     1
102
RTVSPropertyOp56
 70
     1
102
RTVSPropertyOp57
 70
     1
102
RTVSPropertyOp58
 70
     1
102
RTVSPropertyOp59
 70
     1
102
RTVSPropertyOp60
 70
     1
102
RTVSPropertyOp61
 70
     1
102
RTVSPropertyOp62
 70
     1
  0
XRECORD
  5
1402
102
{ACAD_REACTORS
330
1401
102
}
330
1401
100
AcDbXrecord
280
     1
102
RTVSPost2010Prop28
280
     0
102
RTVSPost2010PropOp28
 70
     1
102
RTVSPost2010Prop29
280
     1
102
RTVSPost2010PropOp29
 70
     1
102
RTVSPost2010Prop30
280
     1
102
RTVSPost2010PropOp30
 70
     1
102
RTVSPost2010Prop31
280
     0
102
RTVSPost2010PropOp31
 70
     1
102
RTVSPost2010Prop32
280
     0
102
RTVSPost2010PropOp32
 70
     1
102
RTVSPost2010Prop33
280
     0
102
RTVSPost2010PropOp33
 70
     1
102
RTVSPost2010Prop34
280
     0
102
RTVSPost2010PropOp34
 70
     1
102
RTVSPost2010Prop35
280
     0
102
RTVSPost2010PropOp35
 70
     1
102
RTVSPost2010Prop36
280
     0
102
RTVSPost2010PropOp36
 70
     1
102
RTVSPost2010Prop37
 90
       50
102
RTVSPost2010PropOp37
 70
     1
102
RTVSPost2010Prop38
140
0.0
102
RTVSPost2010PropOp38
 70
     1
102
RTVSPost2010Prop39
140
1.0
102
RTVSPost2010PropOp39
 70
     1
102
RTVSPost2010Prop40
 90
        0
102
RTVSPost2010PropOp40
 70
     1
102
RTVSPost2010Prop41ColorIndex
 90
       18
102
RTVSPost2010Prop41ColorRGB
 90
        0
102
RTVSPost2010PropOp41
 70
     1
102
RTVSPost2010Prop42
 90
       50
102
RTVSPost2010PropOp42
 70
     1
102
RTVSPost2010Prop43
 90
        3
102
RTVSPost2010PropOp43
 70
     1
102
RTVSPost2010Prop44ColorIndex
 90
        5
102
RTVSPost2010Prop44ColorRGB
 90
      255
102
RTVSPost2010PropOp44
 70
     1
102
RTVSPost2010Prop45
280
     0
102
RTVSPost2010PropOp45
 70
     1
102
RTVSPost2010Prop46
 90
       50
102
RTVSPost2010PropOp46
 70
     1
102
RTVSPost2010Prop47
 90
       50
102
RTVSPost2010PropOp47
 70
     1
102
RTVSPost2010Prop48
 90
       50
102
RTVSPost2010PropOp48
 70
     1
102
RTVSPost2010Prop49
280
     0
102
RTVSPost2010PropOp49
 70
     1
102
RTVSPost2010Prop50
 90
       50
102
RTVSPost2010PropOp50
 70
     1
102
RTVSPost2010Prop51ColorIndex
 90
      256
102
RTVSPost2010Prop51ColorRGB
 90
-16777216
102
RTVSPost2010PropOp51
 70
     0
102
RTVSPost2010Prop52
140
1.0
102
RTVSPost2010PropOp52
 70
     0
102
RTVSPost2010Prop53
 90
        2
102
RTVSPost2010PropOp53
 70
     1
102
RTVSPost2010Prop54
  1
strokes_ogs.tif
102
RTVSPost2010PropOp54
 70
     1
102
RTVSPost2010Prop55
280
     0
102
RTVSPost2010PropOp55
 70
     1
102
RTVSPost2010Prop56
140
1.0
102
RTVSPost2010PropOp56
 70
     1
102
RTVSPost2010Prop57
140
1.0
102
RTVSPost2010PropOp57
 70
     1
102
RTVSPropertyOp0
 70
     1
102
RTVSPropertyOp1
 70
     1
102
RTVSPropertyOp2
 70
     1
102
RTVSPropertyOp3
 70
     1
102
RTVSPropertyOp4
 70
     1
102
RTVSPropertyOp5
 70
     1
102
RTVSPropertyOp6
 70
     1
102
RTVSPropertyOp7
 70
     1
102
RTVSPropertyOp8
 70
     1
102
RTVSPropertyOp9
 70
     1
102
RTVSPropertyOp10
 70
     1
102
RTVSPropertyOp11
 70
     1
102
RTVSPropertyOp12
 70
     1
102
RTVSPropertyOp13
 70
     1
102
RTVSPropertyOp14
 70
     1
102
RTVSPropertyOp15
 70
     1
102
RTVSPropertyOp16
 70
     1
102
RTVSPropertyOp17
 70
     1
102
RTVSPropertyOp18
 70
     1
102
RTVSPropertyOp19
 70
     1
102
RTVSPropertyOp20
 70
     1
102
RTVSPropertyOp21
 70
     1
102
RTVSPropertyOp22
 70
     1
102
RTVSPropertyOp23
 70
     1
102
RTVSPropertyOp24
 70
     1
102
RTVSPropertyOp25
 70
     1
102
RTVSPropertyOp26
 70
     1
102
RTVSPropertyOp27
 70
     1
102
RTVSPropertyOp28
 70
     1
102
RTVSPropertyOp29
 70
     1
102
RTVSPropertyOp30
 70
     1
102
RTVSPropertyOp31
 70
     1
102
RTVSPropertyOp32
 70
     1
102
RTVSPropertyOp33
 70
     1
102
RTVSPropertyOp34
 70
     1
102
RTVSPropertyOp35
 70
     1
102
RTVSPropertyOp36
 70
     1
102
RTVSPropertyOp37
 70
     1
102
RTVSPropertyOp38
 70
     1
102
RTVSPropertyOp39
 70
     1
102
RTVSPropertyOp40
 70
     1
102
RTVSPropertyOp41
 70
     1
102
RTVSPropertyOp42
 70
     1
102
RTVSPropertyOp43
 70
     1
102
RTVSPropertyOp44
 70
     1
102
RTVSPropertyOp45
 70
     1
102
RTVSPropertyOp46
 70
     1
102
RTVSPropertyOp47
 70
     1
102
RTVSPropertyOp48
 70
     1
102
RTVSPropertyOp49
 70
     1
102
RTVSPropertyOp50
 70
     1
102
RTVSPropertyOp51
 70
     0
102
RTVSPropertyOp52
 70
     0
102
RTVSPropertyOp53
 70
     1
102
RTVSPropertyOp54
 70
     1
102
RTVSPropertyOp55
 70
     1
102
RTVSPropertyOp56
 70
     1
102
RTVSPropertyOp57
 70
     1
102
RTVSPropertyOp58
 70
     1
102
RTVSPropertyOp59
 70
     1
102
RTVSPropertyOp60
 70
     1
102
RTVSPropertyOp61
 70
     1
102
RTVSPropertyOp62
 70
     1
  0
XRECORD
  5
13F8
102
{ACAD_REACTORS
330
13F7
102
}
330
13F7
100
AcDbXrecord
280
     1
102
RTVSPost2010Prop28
280
     0
102
RTVSPost2010PropOp28
 70
     1
102
RTVSPost2010Prop29
280
     1
102
RTVSPost2010PropOp29
 70
     1
102
RTVSPost2010Prop30
280
     1
102
RTVSPost2010PropOp30
 70
     1
102
RTVSPost2010Prop31
280
     0
102
RTVSPost2010PropOp31
 70
     1
102
RTVSPost2010Prop32
280
     0
102
RTVSPost2010PropOp32
 70
     1
102
RTVSPost2010Prop33
280
     0
102
RTVSPost2010PropOp33
 70
     1
102
RTVSPost2010Prop34
280
     0
102
RTVSPost2010PropOp34
 70
     1
102
RTVSPost2010Prop35
280
     0
102
RTVSPost2010PropOp35
 70
     1
102
RTVSPost2010Prop36
280
     0
102
RTVSPost2010PropOp36
 70
     1
102
RTVSPost2010Prop37
 90
       50
102
RTVSPost2010PropOp37
 70
     1
102
RTVSPost2010Prop38
140
0.0
102
RTVSPost2010PropOp38
 70
     1
102
RTVSPost2010Prop39
140
1.0
102
RTVSPost2010PropOp39
 70
     1
102
RTVSPost2010Prop40
 90
        0
102
RTVSPost2010PropOp40
 70
     1
102
RTVSPost2010Prop41ColorIndex
 90
       18
102
RTVSPost2010Prop41ColorRGB
 90
        0
102
RTVSPost2010PropOp41
 70
     1
102
RTVSPost2010Prop42
 90
       50
102
RTVSPost2010PropOp42
 70
     1
102
RTVSPost2010Prop43
 90
        3
102
RTVSPost2010PropOp43
 70
     1
102
RTVSPost2010Prop44ColorIndex
 90
        5
102
RTVSPost2010Prop44ColorRGB
 90
      255
102
RTVSPost2010PropOp44
 70
     1
102
RTVSPost2010Prop45
280
     0
102
RTVSPost2010PropOp45
 70
     1
102
RTVSPost2010Prop46
 90
       50
102
RTVSPost2010PropOp46
 70
     1
102
RTVSPost2010Prop47
 90
       50
102
RTVSPost2010PropOp47
 70
     1
102
RTVSPost2010Prop48
 90
       50
102
RTVSPost2010PropOp48
 70
     1
102
RTVSPost2010Prop49
280
     0
102
RTVSPost2010PropOp49
 70
     1
102
RTVSPost2010Prop50
 90
       50
102
RTVSPost2010PropOp50
 70
     1
102
RTVSPost2010Prop51ColorIndex
 90
      256
102
RTVSPost2010Prop51ColorRGB
 90
-16777216
102
RTVSPost2010PropOp51
 70
     0
102
RTVSPost2010Prop52
140
1.0
102
RTVSPost2010PropOp52
 70
     0
102
RTVSPost2010Prop53
 90
        2
102
RTVSPost2010PropOp53
 70
     1
102
RTVSPost2010Prop54
  1
strokes_ogs.tif
102
RTVSPost2010PropOp54
 70
     1
102
RTVSPost2010Prop55
280
     0
102
RTVSPost2010PropOp55
 70
     1
102
RTVSPost2010Prop56
140
1.0
102
RTVSPost2010PropOp56
 70
     1
102
RTVSPost2010Prop57
140
1.0
102
RTVSPost2010PropOp57
 70
     1
102
RTVSPropertyOp0
 70
     1
102
RTVSPropertyOp1
 70
     1
102
RTVSPropertyOp2
 70
     1
102
RTVSPropertyOp3
 70
     1
102
RTVSPropertyOp4
 70
     1
102
RTVSPropertyOp5
 70
     1
102
RTVSPropertyOp6
 70
     1
102
RTVSPropertyOp7
 70
     1
102
RTVSPropertyOp8
 70
     1
102
RTVSPropertyOp9
 70
     1
102
RTVSPropertyOp10
 70
     1
102
RTVSPropertyOp11
 70
     1
102
RTVSPropertyOp12
 70
     1
102
RTVSPropertyOp13
 70
     1
102
RTVSPropertyOp14
 70
     1
102
RTVSPropertyOp15
 70
     1
102
RTVSPropertyOp16
 70
     1
102
RTVSPropertyOp17
 70
     1
102
RTVSPropertyOp18
 70
     1
102
RTVSPropertyOp19
 70
     1
102
RTVSPropertyOp20
 70
     1
102
RTVSPropertyOp21
 70
     1
102
RTVSPropertyOp22
 70
     1
102
RTVSPropertyOp23
 70
     1
102
RTVSPropertyOp24
 70
     1
102
RTVSPropertyOp25
 70
     1
102
RTVSPropertyOp26
 70
     1
102
RTVSPropertyOp27
 70
     1
102
RTVSPropertyOp28
 70
     1
102
RTVSPropertyOp29
 70
     1
102
RTVSPropertyOp30
 70
     1
102
RTVSPropertyOp31
 70
     1
102
RTVSPropertyOp32
 70
     1
102
RTVSPropertyOp33
 70
     1
102
RTVSPropertyOp34
 70
     1
102
RTVSPropertyOp35
 70
     1
102
RTVSPropertyOp36
 70
     1
102
RTVSPropertyOp37
 70
     1
102
RTVSPropertyOp38
 70
     1
102
RTVSPropertyOp39
 70
     1
102
RTVSPropertyOp40
 70
     1
102
RTVSPropertyOp41
 70
     1
102
RTVSPropertyOp42
 70
     1
102
RTVSPropertyOp43
 70
     1
102
RTVSPropertyOp44
 70
     1
102
RTVSPropertyOp45
 70
     1
102
RTVSPropertyOp46
 70
     1
102
RTVSPropertyOp47
 70
     1
102
RTVSPropertyOp48
 70
     1
102
RTVSPropertyOp49
 70
     1
102
RTVSPropertyOp50
 70
     1
102
RTVSPropertyOp51
 70
     0
102
RTVSPropertyOp52
 70
     0
102
RTVSPropertyOp53
 70
     1
102
RTVSPropertyOp54
 70
     1
102
RTVSPropertyOp55
 70
     1
102
RTVSPropertyOp56
 70
     1
102
RTVSPropertyOp57
 70
     1
102
RTVSPropertyOp58
 70
     1
102
RTVSPropertyOp59
 70
     1
102
RTVSPropertyOp60
 70
     1
102
RTVSPropertyOp61
 70
     1
102
RTVSPropertyOp62
 70
     1
  0
XRECORD
  5
13EC
102
{ACAD_REACTORS
330
13EB
102
}
330
13EB
100
AcDbXrecord
280
     1
102
RTVSPost2010Prop28
280
     0
102
RTVSPost2010PropOp28
 70
     1
102
RTVSPost2010Prop29
280
     1
102
RTVSPost2010PropOp29
 70
     1
102
RTVSPost2010Prop30
280
     1
102
RTVSPost2010PropOp30
 70
     1
102
RTVSPost2010Prop31
280
     0
102
RTVSPost2010PropOp31
 70
     1
102
RTVSPost2010Prop32
280
     0
102
RTVSPost2010PropOp32
 70
     1
102
RTVSPost2010Prop33
280
     0
102
RTVSPost2010PropOp33
 70
     1
102
RTVSPost2010Prop34
280
     0
102
RTVSPost2010PropOp34
 70
     1
102
RTVSPost2010Prop35
280
     0
102
RTVSPost2010PropOp35
 70
     1
102
RTVSPost2010Prop36
280
     0
102
RTVSPost2010PropOp36
 70
     1
102
RTVSPost2010Prop37
 90
       50
102
RTVSPost2010PropOp37
 70
     1
102
RTVSPost2010Prop38
140
0.0
102
RTVSPost2010PropOp38
 70
     1
102
RTVSPost2010Prop39
140
1.0
102
RTVSPost2010PropOp39
 70
     1
102
RTVSPost2010Prop40
 90
        0
102
RTVSPost2010PropOp40
 70
     1
102
RTVSPost2010Prop41ColorIndex
 90
       18
102
RTVSPost2010Prop41ColorRGB
 90
        0
102
RTVSPost2010PropOp41
 70
     1
102
RTVSPost2010Prop42
 90
       50
102
RTVSPost2010PropOp42
 70
     1
102
RTVSPost2010Prop43
 90
        3
102
RTVSPost2010PropOp43
 70
     1
102
RTVSPost2010Prop44ColorIndex
 90
        5
102
RTVSPost2010Prop44ColorRGB
 90
      255
102
RTVSPost2010PropOp44
 70
     1
102
RTVSPost2010Prop45
280
     0
102
RTVSPost2010PropOp45
 70
     1
102
RTVSPost2010Prop46
 90
       50
102
RTVSPost2010PropOp46
 70
     1
102
RTVSPost2010Prop47
 90
       50
102
RTVSPost2010PropOp47
 70
     1
102
RTVSPost2010Prop48
 90
       50
102
RTVSPost2010PropOp48
 70
     1
102
RTVSPost2010Prop49
280
     0
102
RTVSPost2010PropOp49
 70
     1
102
RTVSPost2010Prop50
 90
       50
102
RTVSPost2010PropOp50
 70
     1
102
RTVSPost2010Prop51ColorIndex
 90
      256
102
RTVSPost2010Prop51ColorRGB
 90
-16777216
102
RTVSPost2010PropOp51
 70
     0
102
RTVSPost2010Prop52
140
1.0
102
RTVSPost2010PropOp52
 70
     0
102
RTVSPost2010Prop53
 90
        2
102
RTVSPost2010PropOp53
 70
     1
102
RTVSPost2010Prop54
  1
strokes_ogs.tif
102
RTVSPost2010PropOp54
 70
     1
102
RTVSPost2010Prop55
280
     0
102
RTVSPost2010PropOp55
 70
     1
102
RTVSPost2010Prop56
140
1.0
102
RTVSPost2010PropOp56
 70
     1
102
RTVSPost2010Prop57
140
1.0
102
RTVSPost2010PropOp57
 70
     1
102
RTVSPropertyOp0
 70
     1
102
RTVSPropertyOp1
 70
     1
102
RTVSPropertyOp2
 70
     1
102
RTVSPropertyOp3
 70
     1
102
RTVSPropertyOp4
 70
     1
102
RTVSPropertyOp5
 70
     1
102
RTVSPropertyOp6
 70
     1
102
RTVSPropertyOp7
 70
     1
102
RTVSPropertyOp8
 70
     1
102
RTVSPropertyOp9
 70
     1
102
RTVSPropertyOp10
 70
     1
102
RTVSPropertyOp11
 70
     1
102
RTVSPropertyOp12
 70
     1
102
RTVSPropertyOp13
 70
     1
102
RTVSPropertyOp14
 70
     1
102
RTVSPropertyOp15
 70
     1
102
RTVSPropertyOp16
 70
     1
102
RTVSPropertyOp17
 70
     1
102
RTVSPropertyOp18
 70
     1
102
RTVSPropertyOp19
 70
     1
102
RTVSPropertyOp20
 70
     1
102
RTVSPropertyOp21
 70
     1
102
RTVSPropertyOp22
 70
     1
102
RTVSPropertyOp23
 70
     1
102
RTVSPropertyOp24
 70
     1
102
RTVSPropertyOp25
 70
     1
102
RTVSPropertyOp26
 70
     1
102
RTVSPropertyOp27
 70
     1
102
RTVSPropertyOp28
 70
     1
102
RTVSPropertyOp29
 70
     1
102
RTVSPropertyOp30
 70
     1
102
RTVSPropertyOp31
 70
     1
102
RTVSPropertyOp32
 70
     1
102
RTVSPropertyOp33
 70
     1
102
RTVSPropertyOp34
 70
     1
102
RTVSPropertyOp35
 70
     1
102
RTVSPropertyOp36
 70
     1
102
RTVSPropertyOp37
 70
     1
102
RTVSPropertyOp38
 70
     1
102
RTVSPropertyOp39
 70
     1
102
RTVSPropertyOp40
 70
     1
102
RTVSPropertyOp41
 70
     1
102
RTVSPropertyOp42
 70
     1
102
RTVSPropertyOp43
 70
     1
102
RTVSPropertyOp44
 70
     1
102
RTVSPropertyOp45
 70
     1
102
RTVSPropertyOp46
 70
     1
102
RTVSPropertyOp47
 70
     1
102
RTVSPropertyOp48
 70
     1
102
RTVSPropertyOp49
 70
     1
102
RTVSPropertyOp50
 70
     1
102
RTVSPropertyOp51
 70
     0
102
RTVSPropertyOp52
 70
     0
102
RTVSPropertyOp53
 70
     1
102
RTVSPropertyOp54
 70
     1
102
RTVSPropertyOp55
 70
     1
102
RTVSPropertyOp56
 70
     1
102
RTVSPropertyOp57
 70
     1
102
RTVSPropertyOp58
 70
     1
102
RTVSPropertyOp59
 70
     1
102
RTVSPropertyOp60
 70
     1
102
RTVSPropertyOp61
 70
     1
102
RTVSPropertyOp62
 70
     1
  0
XRECORD
  5
1404
102
{ACAD_REACTORS
330
1403
102
}
330
1403
100
AcDbXrecord
280
     1
102
RTVSPost2010Prop28
280
     0
102
RTVSPost2010PropOp28
 70
     1
102
RTVSPost2010Prop29
280
     1
102
RTVSPost2010PropOp29
 70
     1
102
RTVSPost2010Prop30
280
     1
102
RTVSPost2010PropOp30
 70
     1
102
RTVSPost2010Prop31
280
     0
102
RTVSPost2010PropOp31
 70
     1
102
RTVSPost2010Prop32
280
     0
102
RTVSPost2010PropOp32
 70
     1
102
RTVSPost2010Prop33
280
     0
102
RTVSPost2010PropOp33
 70
     1
102
RTVSPost2010Prop34
280
     0
102
RTVSPost2010PropOp34
 70
     1
102
RTVSPost2010Prop35
280
     0
102
RTVSPost2010PropOp35
 70
     1
102
RTVSPost2010Prop36
280
     0
102
RTVSPost2010PropOp36
 70
     1
102
RTVSPost2010Prop37
 90
       50
102
RTVSPost2010PropOp37
 70
     1
102
RTVSPost2010Prop38
140
0.0
102
RTVSPost2010PropOp38
 70
     1
102
RTVSPost2010Prop39
140
1.0
102
RTVSPost2010PropOp39
 70
     1
102
RTVSPost2010Prop40
 90
        0
102
RTVSPost2010PropOp40
 70
     1
102
RTVSPost2010Prop41ColorIndex
 90
       18
102
RTVSPost2010Prop41ColorRGB
 90
        0
102
RTVSPost2010PropOp41
 70
     1
102
RTVSPost2010Prop42
 90
       50
102
RTVSPost2010PropOp42
 70
     1
102
RTVSPost2010Prop43
 90
        3
102
RTVSPost2010PropOp43
 70
     1
102
RTVSPost2010Prop44ColorIndex
 90
        5
102
RTVSPost2010Prop44ColorRGB
 90
      255
102
RTVSPost2010PropOp44
 70
     1
102
RTVSPost2010Prop45
280
     0
102
RTVSPost2010PropOp45
 70
     1
102
RTVSPost2010Prop46
 90
       50
102
RTVSPost2010PropOp46
 70
     1
102
RTVSPost2010Prop47
 90
       50
102
RTVSPost2010PropOp47
 70
     1
102
RTVSPost2010Prop48
 90
       50
102
RTVSPost2010PropOp48
 70
     1
102
RTVSPost2010Prop49
280
     0
102
RTVSPost2010PropOp49
 70
     1
102
RTVSPost2010Prop50
 90
       50
102
RTVSPost2010PropOp50
 70
     1
102
RTVSPost2010Prop51ColorIndex
 90
      256
102
RTVSPost2010Prop51ColorRGB
 90
-16777216
102
RTVSPost2010PropOp51
 70
     0
102
RTVSPost2010Prop52
140
1.0
102
RTVSPost2010PropOp52
 70
     0
102
RTVSPost2010Prop53
 90
        2
102
RTVSPost2010PropOp53
 70
     1
102
RTVSPost2010Prop54
  1
strokes_ogs.tif
102
RTVSPost2010PropOp54
 70
     1
102
RTVSPost2010Prop55
280
     0
102
RTVSPost2010PropOp55
 70
     1
102
RTVSPost2010Prop56
140
1.0
102
RTVSPost2010PropOp56
 70
     1
102
RTVSPost2010Prop57
140
1.0
102
RTVSPost2010PropOp57
 70
     1
102
RTVSPropertyOp0
 70
     1
102
RTVSPropertyOp1
 70
     1
102
RTVSPropertyOp2
 70
     1
102
RTVSPropertyOp3
 70
     1
102
RTVSPropertyOp4
 70
     1
102
RTVSPropertyOp5
 70
     1
102
RTVSPropertyOp6
 70
     1
102
RTVSPropertyOp7
 70
     1
102
RTVSPropertyOp8
 70
     1
102
RTVSPropertyOp9
 70
     1
102
RTVSPropertyOp10
 70
     1
102
RTVSPropertyOp11
 70
     1
102
RTVSPropertyOp12
 70
     1
102
RTVSPropertyOp13
 70
     1
102
RTVSPropertyOp14
 70
     1
102
RTVSPropertyOp15
 70
     1
102
RTVSPropertyOp16
 70
     1
102
RTVSPropertyOp17
 70
     1
102
RTVSPropertyOp18
 70
     1
102
RTVSPropertyOp19
 70
     1
102
RTVSPropertyOp20
 70
     1
102
RTVSPropertyOp21
 70
     1
102
RTVSPropertyOp22
 70
     1
102
RTVSPropertyOp23
 70
     1
102
RTVSPropertyOp24
 70
     1
102
RTVSPropertyOp25
 70
     1
102
RTVSPropertyOp26
 70
     1
102
RTVSPropertyOp27
 70
     1
102
RTVSPropertyOp28
 70
     1
102
RTVSPropertyOp29
 70
     1
102
RTVSPropertyOp30
 70
     1
102
RTVSPropertyOp31
 70
     1
102
RTVSPropertyOp32
 70
     1
102
RTVSPropertyOp33
 70
     1
102
RTVSPropertyOp34
 70
     1
102
RTVSPropertyOp35
 70
     1
102
RTVSPropertyOp36
 70
     1
102
RTVSPropertyOp37
 70
     1
102
RTVSPropertyOp38
 70
     1
102
RTVSPropertyOp39
 70
     1
102
RTVSPropertyOp40
 70
     1
102
RTVSPropertyOp41
 70
     1
102
RTVSPropertyOp42
 70
     1
102
RTVSPropertyOp43
 70
     1
102
RTVSPropertyOp44
 70
     1
102
RTVSPropertyOp45
 70
     1
102
RTVSPropertyOp46
 70
     1
102
RTVSPropertyOp47
 70
     1
102
RTVSPropertyOp48
 70
     1
102
RTVSPropertyOp49
 70
     1
102
RTVSPropertyOp50
 70
     1
102
RTVSPropertyOp51
 70
     0
102
RTVSPropertyOp52
 70
     0
102
RTVSPropertyOp53
 70
     1
102
RTVSPropertyOp54
 70
     1
102
RTVSPropertyOp55
 70
     1
102
RTVSPropertyOp56
 70
     1
102
RTVSPropertyOp57
 70
     1
102
RTVSPropertyOp58
 70
     1
102
RTVSPropertyOp59
 70
     1
102
RTVSPropertyOp60
 70
     1
102
RTVSPropertyOp61
 70
     1
102
RTVSPropertyOp62
 70
     1
  0
ENDSEC
  0
EOF
