  0
SECTION
  2
HEADER
  9
$ACADVER
  1
AC1015
  9
$ACADMAINTVER
 70
    20
  9
$DWGCODEPAGE
  3
ANSI_932
  9
$INSBASE
 10
0.0
 20
0.0
 30
0.0
  9
$EXTMIN
 10
10.000001
 20
10.000001
 30
0.0
  9
$EXTMAX
 10
458.793696
 20
271.6755299999999
 30
0.0
  9
$LIMMIN
 10
0.000002
 20
0.0
  9
$LIMMAX
 10
495.0000019999998
 20
341.25
  9
$ORTHOMODE
 70
     1
  9
$REGENMODE
 70
     1
  9
$FILLMODE
 70
     1
  9
$QTEXTMODE
 70
     0
  9
$MIRRTEXT
 70
     1
  9
$LTSCALE
 40
1.0
  9
$ATTMODE
 70
     1
  9
$TEXTSIZE
 40
2.5
  9
$TRACEWID
 40
1.0
  9
$TEXTSTYLE
  7
STANDARD
  9
$CLAYER
  8
0
  9
$CELTYPE
  6
BYLAYER
  9
$CECOLOR
 62
   256
  9
$CELTSCALE
 40
1.0
  9
$DISPSILH
 70
     0
  9
$DIMSCALE
 40
1.0
  9
$DIMASZ
 40
3.0
  9
$DIMEXO
 40
1.0
  9
$DIMDLI
 40
10.0
  9
$DIMRND
 40
0.0
  9
$DIMDLE
 40
0.0
  9
$DIMEXE
 40
1.0
  9
$DIMTP
 40
0.0
  9
$DIMTM
 40
0.0
  9
$DIMTXT
 40
3.2
  9
$DIMCEN
 40
0.0
  9
$DIMTSZ
 40
0.0
  9
$DIMTOL
 70
     0
  9
$DIMLIM
 70
     0
  9
$DIMTIH
 70
     0
  9
$DIMTOH
 70
     0
  9
$DIMSE1
 70
     0
  9
$DIMSE2
 70
     0
  9
$DIMTAD
 70
     3
  9
$DIMZIN
 70
     8
  9
$DIMBLK
  1

  9
$DIMASO
 70
     1
  9
$DIMSHO
 70
     1
  9
$DIMPOST
  1

  9
$DIMAPOST
  1

  9
$DIMALT
 70
     0
  9
$DIMALTD
 70
     2
  9
$DIMALTF
 40
25.4
  9
$DIMLFAC
 40
1.0
  9
$DIMTOFL
 70
     1
  9
$DIMTVP
 40
0.0
  9
$DIMTIX
 70
     0
  9
$DIMSOXD
 70
     0
  9
$DIMSAH
 70
     1
  9
$DIMBLK1
  1
OPEN
  9
$DIMBLK2
  1
OPEN
  9
$DIMSTYLE
  2
STANDARD
  9
$DIMCLRD
 70
     0
  9
$DIMCLRE
 70
     0
  9
$DIMCLRT
 70
     0
  9
$DIMTFAC
 40
1.0
  9
$DIMGAP
 40
1.0
  9
$DIMJUST
 70
     0
  9
$DIMSD1
 70
     0
  9
$DIMSD2
 70
     0
  9
$DIMTOLJ
 70
     1
  9
$DIMTZIN
 70
     0
  9
$DIMALTZ
 70
     0
  9
$DIMALTTZ
 70
     0
  9
$DIMUPT
 70
     0
  9
$DIMDEC
 70
     4
  9
$DIMTDEC
 70
     4
  9
$DIMALTU
 70
     2
  9
$DIMALTTD
 70
     2
  9
$DIMTXSTY
  7
STANDARD
  9
$DIMAUNIT
 70
     0
  9
$DIMADEC
 70
     0
  9
$DIMALTRND
 40
0.0
  9
$DIMAZIN
 70
     0
  9
$DIMDSEP
 70
    46
  9
$DIMATFIT
 70
     3
  9
$DIMFRAC
 70
     0
  9
$DIMLDRBLK
  1
OPEN
  9
$DIMLUNIT
 70
     2
  9
$DIMLWD
 70
    -2
  9
$DIMLWE
 70
    -2
  9
$DIMTMOVE
 70
     0
  9
$LUNITS
 70
     2
  9
$LUPREC
 70
     4
  9
$SKETCHINC
 40
1.0
  9
$FILLETRAD
 40
10.0
  9
$AUNITS
 70
     0
  9
$AUPREC
 70
     0
  9
$MENU
  1
.
  9
$ELEVATION
 40
0.0
  9
$PELEVATION
 40
0.0
  9
$THICKNESS
 40
0.0
  9
$LIMCHECK
 70
     0
  9
$CHAMFERA
 40
10.0
  9
$CHAMFERB
 40
10.0
  9
$CHAMFERC
 40
0.0
  9
$CHAMFERD
 40
0.0
  9
$SKPOLY
 70
     0
  9
$TDCREATE
 40
2451640.628240996
  9
$TDUCREATE
 40
2451640.253240996
  9
$TDUPDATE
 40
2457192.600771922
  9
$TDUUPDATE
 40
2457192.225771922
  9
$TDINDWG
 40
0.0008011806
  9
$TDUSRTIMER
 40
0.0008005093
  9
$USRTIMER
 70
     1
  9
$ANGBASE
 50
0.0
  9
$ANGDIR
 70
     0
  9
$PDMODE
 70
     0
  9
$PDSIZE
 40
0.0
  9
$PLINEWID
 40
0.0
  9
$SPLFRAME
 70
     0
  9
$SPLINETYPE
 70
     6
  9
$SPLINESEGS
 70
     8
  9
$HANDSEED
  5
1330
  9
$SURFTAB1
 70
     6
  9
$SURFTAB2
 70
     6
  9
$SURFTYPE
 70
     6
  9
$SURFU
 70
     6
  9
$SURFV
 70
     6
  9
$UCSBASE
  2

  9
$UCSNAME
  2

  9
$UCSORG
 10
0.0
 20
0.0
 30
0.0
  9
$UCSXDIR
 10
1.0
 20
0.0
 30
0.0
  9
$UCSYDIR
 10
0.0
 20
1.0
 30
0.0
  9
$UCSORTHOREF
  2

  9
$UCSORTHOVIEW
 70
     0
  9
$UCSORGTOP
 10
0.0
 20
0.0
 30
0.0
  9
$UCSORGBOTTOM
 10
0.0
 20
0.0
 30
0.0
  9
$UCSORGLEFT
 10
0.0
 20
0.0
 30
0.0
  9
$UCSORGRIGHT
 10
0.0
 20
0.0
 30
0.0
  9
$UCSORGFRONT
 10
0.0
 20
0.0
 30
0.0
  9
$UCSORGBACK
 10
0.0
 20
0.0
 30
0.0
  9
$PUCSBASE
  2

  9
$PUCSNAME
  2

  9
$PUCSORG
 10
0.0
 20
0.0
 30
0.0
  9
$PUCSXDIR
 10
1.0
 20
0.0
 30
0.0
  9
$PUCSYDIR
 10
0.0
 20
1.0
 30
0.0
  9
$PUCSORTHOREF
  2

  9
$PUCSORTHOVIEW
 70
     0
  9
$PUCSORGTOP
 10
0.0
 20
0.0
 30
0.0
  9
$PUCSORGBOTTOM
 10
0.0
 20
0.0
 30
0.0
  9
$PUCSORGLEFT
 10
0.0
 20
0.0
 30
0.0
  9
$PUCSORGRIGHT
 10
0.0
 20
0.0
 30
0.0
  9
$PUCSORGFRONT
 10
0.0
 20
0.0
 30
0.0
  9
$PUCSORGBACK
 10
0.0
 20
0.0
 30
0.0
  9
$USERI1
 70
     0
  9
$USERI2
 70
     0
  9
$USERI3
 70
     0
  9
$USERI4
 70
     0
  9
$USERI5
 70
     0
  9
$USERR1
 40
0.0
  9
$USERR2
 40
0.0
  9
$USERR3
 40
0.0
  9
$USERR4
 40
0.0
  9
$USERR5
 40
0.0
  9
$WORLDVIEW
 70
     1
  9
$SHADEDGE
 70
     3
  9
$SHADEDIF
 70
    70
  9
$TILEMODE
 70
     1
  9
$MAXACTVP
 70
    48
  9
$PINSBASE
 10
0.0
 20
0.0
 30
0.0
  9
$PLIMCHECK
 70
     0
  9
$PEXTMIN
 10
1.000000000000000E+20
 20
1.000000000000000E+20
 30
1.000000000000000E+20
  9
$PEXTMAX
 10
-1.000000000000000E+20
 20
-1.000000000000000E+20
 30
-1.000000000000000E+20
  9
$PLIMMIN
 10
0.0
 20
0.0
  9
$PLIMMAX
 10
420.0
 20
297.0
  9
$UNITMODE
 70
     0
  9
$VISRETAIN
 70
     1
  9
$PLINEGEN
 70
     0
  9
$PSLTSCALE
 70
     1
  9
$TREEDEPTH
 70
  3020
  9
$CMLSTYLE
  2
STANDARD
  9
$CMLJUST
 70
     0
  9
$CMLSCALE
 40
1.0
  9
$PROXYGRAPHICS
 70
     1
  9
$MEASUREMENT
 70
     0
  9
$CELWEIGHT
370
    -1
  9
$ENDCAPS
280
     0
  9
$JOINSTYLE
280
     0
  9
$LWDISPLAY
290
     0
  9
$INSUNITS
 70
     0
  9
$HYPERLINKBASE
  1

  9
$STYLESHEET
  1

  9
$XEDIT
290
     1
  9
$CEPSNTYPE
380
     0
  9
$PSTYLEMODE
290
     1
  9
$FINGERPRINTGUID
  2
{A98C8324-534B-473D-A766-DCC733EFE6F3}
  9
$VERSIONGUID
  2
{CED21B79-48DA-49F2-A4CB-C7FCCEE60E77}
  9
$EXTNAMES
290
     1
  9
$PSVPSCALE
 40
0.0
  9
$OLESTARTUP
290
     0
  0
ENDSEC
  0
SECTION
  2
CLASSES
  0
CLASS
  1
ACDBDICTIONARYWDFLT
  2
AcDbDictionaryWithDefault
  3
ObjectDBX Classes
 90
        0
280
     0
281
     0
  0
CLASS
  1
ACDBPLACEHOLDER
  2
AcDbPlaceHolder
  3
ObjectDBX Classes
 90
        0
280
     0
281
     0
  0
CLASS
  1
LAYOUT
  2
AcDbLayout
  3
ObjectDBX Classes
 90
        0
280
     0
281
     0
  0
CLASS
  1
DICTIONARYVAR
  2
AcDbDictionaryVar
  3
ObjectDBX Classes
 90
        0
280
     0
281
     0
  0
CLASS
  1
MATERIAL
  2
AcDbMaterial
  3
ObjectDBX Classes
 90
     1153
280
     0
281
     0
  0
CLASS
  1
VISUALSTYLE
  2
AcDbVisualStyle
  3
ObjectDBX Classes
 90
     4095
280
     0
281
     0
  0
CLASS
  1
TABLESTYLE
  2
AcDbTableStyle
  3
ObjectDBX Classes
 90
     4095
280
     0
281
     0
  0
CLASS
  1
SCALE
  2
AcDbScale
  3
ObjectDBX Classes
 90
     1153
280
     0
281
     0
  0
CLASS
  1
MLEADERSTYLE
  2
AcDbMLeaderStyle
  3
ACDB_MLEADERSTYLE_CLASS
 90
     4095
280
     0
281
     0
  0
CLASS
  1
ACDBSECTIONVIEWSTYLE
  2
AcDbSectionViewStyle
  3
ObjectDBX Classes
 90
     1025
280
     0
281
     0
  0
CLASS
  1
ACDBDETAILVIEWSTYLE
  2
AcDbDetailViewStyle
  3
ObjectDBX Classes
 90
     1025
280
     0
281
     0
  0
CLASS
  1
CELLSTYLEMAP
  2
AcDbCellStyleMap
  3
ObjectDBX Classes
 90
     1152
280
     0
281
     0
  0
ENDSEC
  0
SECTION
  2
TABLES
  0
TABLE
  2
VPORT
  5
FB5
330
0
100
AcDbSymbolTable
 70
     1
  0
VPORT
  5
1279
330
FB5
100
AcDbSymbolTableRecord
100
AcDbViewportTableRecord
  2
*ACTIVE
 70
     0
 10
0.0
 20
0.0
 11
1.0
 21
1.0
 12
313.6616787118295
 22
140.840607449314
 13
0.0
 23
0.0
 14
10.0
 24
10.0
 15
10.0
 25
10.0
 16
0.0
 26
0.0
 36
1.0
 17
0.0
 27
0.0
 37
0.0
 40
264.6339638977636
 41
1.899603698811096
 42
50.0
 43
0.0
 44
0.0
 50
0.0
 51
0.0
 71
     0
 72
   100
 73
     1
 74
     0
 75
     0
 76
     0
 77
     0
 78
     0
281
     0
 65
     1
110
0.0
120
0.0
130
0.0
111
1.0
121
0.0
131
0.0
112
0.0
122
1.0
132
0.0
 79
     0
146
0.0
1001
ACAD_NAV_VCDISPLAY
1070
     3
  0
ENDTAB
  0
TABLE
  2
LTYPE
  5
FB2
330
0
100
AcDbSymbolTable
 70
     4
  0
LTYPE
  5
FC0
330
FB2
100
AcDbSymbolTableRecord
100
AcDbLinetypeTableRecord
  2
BYBLOCK
 70
     0
  3

 72
    65
 73
     0
 40
0.0
  0
LTYPE
  5
FC1
330
FB2
100
AcDbSymbolTableRecord
100
AcDbLinetypeTableRecord
  2
BYLAYER
 70
     0
  3

 72
    65
 73
     0
 40
0.0
  0
LTYPE
  5
FC2
330
FB2
100
AcDbSymbolTableRecord
100
AcDbLinetypeTableRecord
  2
CONTINUOUS
 70
     0
  3
Solid line
 72
    65
 73
     0
 40
0.0
  0
LTYPE
  5
FD0
330
FB2
100
AcDbSymbolTableRecord
100
AcDbLinetypeTableRecord
  2
DASHED
 70
     0
  3
Dashed __ __ __ __ __ __ __ __ __ __ __ __ __ _
 72
    65
 73
     2
 40
19.05
 49
12.7
 74
     0
 49
-6.349999999999997
 74
     0
  0
LTYPE
  5
FD1
330
FB2
100
AcDbSymbolTableRecord
100
AcDbLinetypeTableRecord
  2
CENTER
 70
     0
  3
Center ____ _ ____ _ ____ _ ____ _ ____ _ ____
 72
    65
 73
     4
 40
50.8
 49
31.75
 74
     0
 49
-6.349999999999997
 74
     0
 49
6.349999999999997
 74
     0
 49
-6.349999999999997
 74
     0
  0
LTYPE
  5
FD2
330
FB2
100
AcDbSymbolTableRecord
100
AcDbLinetypeTableRecord
  2
PHANTOM
 70
     0
  3
Phantom ______  __  __  ______  __  __  ______
 72
    65
 73
     6
 40
63.5
 49
31.75
 74
     0
 49
-6.349999999999997
 74
     0
 49
6.349999999999997
 74
     0
 49
-6.349999999999997
 74
     0
 49
6.349999999999997
 74
     0
 49
-6.349999999999997
 74
     0
  0
ENDTAB
  0
TABLE
  2
LAYER
  5
FAF
330
0
100
AcDbSymbolTable
 70
     8
  0
LAYER
  5
FBD
102
{ACAD_XDICTIONARY
360
12D4
102
}
330
FAF
100
AcDbSymbolTableRecord
100
AcDbLayerTableRecord
  2
0
 70
     0
 62
     7
  6
CONTINUOUS
370
    -3
390
1282
  0
LAYER
  5
FD3
102
{ACAD_XDICTIONARY
360
12D6
102
}
330
FAF
100
AcDbSymbolTableRecord
100
AcDbLayerTableRecord
  2
4
 70
     0
 62
     1
  6
CENTER
370
    -3
390
1282
  0
LAYER
  5
FD4
102
{ACAD_XDICTIONARY
360
12D8
102
}
330
FAF
100
AcDbSymbolTableRecord
100
AcDbLayerTableRecord
  2
5
 70
     0
 62
     6
  6
PHANTOM
370
    -3
390
1282
  0
LAYER
  5
FD5
102
{ACAD_XDICTIONARY
360
12DA
102
}
330
FAF
100
AcDbSymbolTableRecord
100
AcDbLayerTableRecord
  2
1
 70
     0
 62
     7
  6
CONTINUOUS
370
    -3
390
1282
  0
LAYER
  5
FD6
102
{ACAD_XDICTIONARY
360
12DC
102
}
330
FAF
100
AcDbSymbolTableRecord
100
AcDbLayerTableRecord
  2
2
 70
     0
 62
     4
  6
CONTINUOUS
370
    -3
390
1282
  0
LAYER
  5
FD7
102
{ACAD_XDICTIONARY
360
12DE
102
}
330
FAF
100
AcDbSymbolTableRecord
100
AcDbLayerTableRecord
  2
3
 70
     0
 62
     2
  6
DASHED
370
    -3
390
1282
  0
LAYER
  5
FD8
102
{ACAD_XDICTIONARY
360
12E0
102
}
330
FAF
100
AcDbSymbolTableRecord
100
AcDbLayerTableRecord
  2
6
 70
     0
 62
     5
  6
CONTINUOUS
370
    -3
390
1282
  0
LAYER
  5
FD9
102
{ACAD_XDICTIONARY
360
12E2
102
}
330
FAF
100
AcDbSymbolTableRecord
100
AcDbLayerTableRecord
  2
7
 70
     0
 62
     3
  6
CONTINUOUS
370
    -3
390
1282
  0
ENDTAB
  0
TABLE
  2
STYLE
  5
FB0
330
0
100
AcDbSymbolTable
 70
     1
  0
STYLE
  5
FBE
330
FB0
100
AcDbSymbolTableRecord
100
AcDbTextStyleTableRecord
  2
STANDARD
 70
     0
 40
0.0
 41
1.0
 50
0.0
 71
     0
 42
2.5
  3
txt
  4

  0
ENDTAB
  0
TABLE
  2
VIEW
  5
FB3
330
0
100
AcDbSymbolTable
 70
     0
  0
ENDTAB
  0
TABLE
  2
UCS
  5
FB4
330
0
100
AcDbSymbolTable
 70
     0
  0
ENDTAB
  0
TABLE
  2
APPID
  5
FB6
330
0
100
AcDbSymbolTable
 70
     7
  0
APPID
  5
FBF
330
FB6
100
AcDbSymbolTableRecord
100
AcDbRegAppTableRecord
  2
ACAD
 70
     0
  0
APPID
  5
FDA
330
FB6
100
AcDbSymbolTableRecord
100
AcDbRegAppTableRecord
  2
CONTENTTABDATA
 70
     0
  0
APPID
  5
FDB
330
FB6
100
AcDbSymbolTableRecord
100
AcDbRegAppTableRecord
  2
CONTENTCURRENTTAB
 70
     0
  0
APPID
  5
FDC
330
FB6
100
AcDbSymbolTableRecord
100
AcDbRegAppTableRecord
  2
CONTENTBLOCKDESCRIPTION
 70
     0
  0
APPID
  5
FDD
330
FB6
100
AcDbSymbolTableRecord
100
AcDbRegAppTableRecord
  2
CONTENTBLOCKICON
 70
     0
  0
APPID
  5
12EE
330
FB6
100
AcDbSymbolTableRecord
100
AcDbRegAppTableRecord
  2
ACAD_NAV_VCDISPLAY
 70
     0
  0
APPID
  5
1327
330
FB6
100
AcDbSymbolTableRecord
100
AcDbRegAppTableRecord
  2
ACAD_MLEADERVER
 70
     0
  0
ENDTAB
  0
TABLE
  2
DIMSTYLE
  5
FB7
330
0
100
AcDbSymbolTable
 70
     1
100
AcDbDimStyleTable
 71
     0
  0
DIMSTYLE
105
FDE
330
FB7
100
AcDbSymbolTableRecord
100
AcDbDimStyleTableRecord
  2
STANDARD
 70
     0
 41
3.0
 42
1.0
 43
10.0
 44
1.0
 73
     0
 74
     0
 77
     3
 78
     8
140
3.2
141
0.0
147
1.0
172
     1
173
     1
284
     8
285
     8
286
     8
340
FBE
  0
ENDTAB
  0
TABLE
  2
BLOCK_RECORD
  5
FAE
330
0
100
AcDbSymbolTable
 70
     1
  0
BLOCK_RECORD
  5
FCB
102
{ACAD_XDICTIONARY
360
127C
102
}
330
FAE
100
AcDbSymbolTableRecord
100
AcDbBlockTableRecord
  2
*MODEL_SPACE
340
12D0
  0
BLOCK_RECORD
  5
FC7
102
{ACAD_XDICTIONARY
360
127A
102
}
330
FAE
100
AcDbSymbolTableRecord
100
AcDbBlockTableRecord
  2
*PAPER_SPACE
340
12D1
  0
BLOCK_RECORD
  5
FE6
330
FAE
100
AcDbSymbolTableRecord
100
AcDbBlockTableRecord
  2
_OPEN
340
0
  0
ENDTAB
  0
ENDSEC
  0
SECTION
  2
BLOCKS
  0
BLOCK
  5
FCC
330
FCB
100
AcDbEntity
  8
0
100
AcDbBlockBegin
  2
*MODEL_SPACE
 70
     0
 10
0.0
 20
0.0
 30
0.0
  3
*MODEL_SPACE
  1

  0
ENDBLK
  5
FCD
330
FCB
100
AcDbEntity
  8
0
100
AcDbBlockEnd
  0
BLOCK
  5
FC8
330
FC7
100
AcDbEntity
 67
     1
  8
0
100
AcDbBlockBegin
  2
*PAPER_SPACE
 70
     0
 10
0.0
 20
0.0
 30
0.0
  3
*PAPER_SPACE
  1

  0
ENDBLK
  5
FC9
330
FC7
100
AcDbEntity
 67
     1
  8
0
100
AcDbBlockEnd
  0
BLOCK
  5
FE7
330
FE6
100
AcDbEntity
  8
0
100
AcDbBlockBegin
  2
_OPEN
 70
     0
 10
0.0
 20
0.0
 30
0.0
  3
_OPEN
  1

  0
LINE
  5
FE8
330
FE6
100
AcDbEntity
  8
0
  6
ByBlock
 62
     0
100
AcDbLine
 10
-1.0
 20
0.166667
 30
0.0
 11
0.0
 21
0.0
 31
0.0
  0
LINE
  5
FE9
330
FE6
100
AcDbEntity
  8
0
  6
ByBlock
 62
     0
100
AcDbLine
 10
0.0
 20
0.0
 30
0.0
 11
-1.0
 21
-0.166667
 31
0.0
  0
LINE
  5
FEA
330
FE6
100
AcDbEntity
  8
0
  6
ByBlock
 62
     0
100
AcDbLine
 10
0.0
 20
0.0
 30
0.0
 11
-1.0
 21
0.0
 31
0.0
  0
ENDBLK
  5
FEB
330
FE6
100
AcDbEntity
  8
0
100
AcDbBlockEnd
  0
ENDSEC
  0
SECTION
  2
ENTITIES
  0
LINE
  5
FEC
330
FCB
100
AcDbEntity
  8
5
  6
PHANTOM
100
AcDbLine
 10
69.00000099999998
 20
186.65624
 30
0.0
 11
69.00000099999998
 21
164.392378
 31
0.0
  0
LINE
  5
FED
330
FCB
100
AcDbEntity
  8
5
  6
PHANTOM
100
AcDbLine
 10
50.000001
 20
186.65624
 30
0.0
 11
50.000001
 21
166.6755
 31
0.0
  0
LINE
  5
FEE
330
FCB
100
AcDbEntity
  8
4
  6
CENTER
100
AcDbLine
 10
59.500001
 20
196.6755
 30
0.0
 11
59.500001
 21
139.4255
 31
0.0
  0
TEXT
  5
FEF
330
FCB
100
AcDbEntity
  8
7
  6
Continuous
100
AcDbText
 10
10.000001
 20
26.000001
 30
0.0
 40
3.0
  1
CODE No.1921
100
AcDbText
  0
TEXT
  5
FF0
330
FCB
100
AcDbEntity
  8
7
  6
Continuous
100
AcDbText
 10
10.000001
 20
18.000001
 30
0.0
 40
3.0
  1
TYPE No.TL-255-2
100
AcDbText
  0
TEXT
  5
FF1
330
FCB
100
AcDbEntity
  8
1
  6
Continuous
100
AcDbText
 10
10.000001
 20
10.000001
 30
0.0
 40
1.399999999999999
  1
LAYER
100
AcDbText
  0
TEXT
  5
FF2
330
FCB
100
AcDbEntity
  8
5
  6
PHANTOM
100
AcDbText
 10
25.979512
 20
10.048738
 30
0.0
 40
1.399999999999999
  1
5
100
AcDbText
  0
TEXT
  5
FF3
330
FCB
100
AcDbEntity
  8
6
  6
Continuous
100
AcDbText
 10
27.97951199999999
 20
10.048738
 30
0.0
 40
1.399999999999999
  1
6
100
AcDbText
  0
TEXT
  5
FF4
330
FCB
100
AcDbEntity
  8
2
  6
Continuous
100
AcDbText
 10
19.979512
 20
10.048738
 30
0.0
 40
1.399999999999999
  1
2
100
AcDbText
  0
TEXT
  5
FF5
330
FCB
100
AcDbEntity
  8
3
  6
DASHED
100
AcDbText
 10
21.97951199999998
 20
10.048738
 30
0.0
 40
1.399999999999999
  1
3
100
AcDbText
  0
TEXT
  5
FF6
330
FCB
100
AcDbEntity
  8
4
  6
CENTER
100
AcDbText
 10
23.979512
 20
10.048738
 30
0.0
 40
1.399999999999999
  1
4
100
AcDbText
  0
TEXT
  5
FF7
330
FCB
100
AcDbEntity
  8
7
  6
Continuous
100
AcDbText
 10
29.979512
 20
10.048738
 30
0.0
 40
1.399999999999999
  1
7
100
AcDbText
  0
TEXT
  5
FF8
330
FCB
100
AcDbEntity
  8
1
  6
Continuous
100
AcDbText
 10
17.97951199999999
 20
10.048738
 30
0.0
 40
1.399999999999999
  1
1
100
AcDbText
  0
CIRCLE
  5
FF9
330
FCB
100
AcDbEntity
  8
1
  6
Continuous
100
AcDbCircle
 10
59.500001
 20
157.1755
 30
0.0
 40
10.0
  0
CIRCLE
  5
FFA
330
FCB
100
AcDbEntity
  8
1
  6
Continuous
100
AcDbCircle
 10
59.500001
 20
157.1755
 30
0.0
 40
6.0
  0
CIRCLE
  5
FFB
330
FCB
100
AcDbEntity
  8
1
  6
Continuous
100
AcDbCircle
 10
59.500001
 20
157.1755
 30
0.0
 40
11.0
  0
LINE
  5
FFC
330
FCB
100
AcDbEntity
  8
1
  6
Continuous
100
AcDbLine
 10
70.500001
 20
150.824647
 30
0.0
 11
59.500001
 21
144.4737939999999
 31
0.0
  0
LINE
  5
FFD
330
FCB
100
AcDbEntity
  8
1
  6
Continuous
100
AcDbLine
 10
70.500001
 20
163.526352
 30
0.0
 11
59.500001
 21
169.877205
 31
0.0
  0
LINE
  5
FFE
330
FCB
100
AcDbEntity
  8
4
  6
CENTER
100
AcDbLine
 10
20.000001
 20
157.1755
 30
0.0
 11
75.50000099999998
 21
157.1755
 31
0.0
  0
LINE
  5
FFF
330
FCB
100
AcDbEntity
  8
1
  6
Continuous
100
AcDbLine
 10
30.019261
 20
147.6754999999998
 30
0.0
 11
53.95448399999999
 21
147.6754999999998
 31
0.0
  0
LINE
  5
1000
330
FCB
100
AcDbEntity
  8
1
  6
Continuous
100
AcDbLine
 10
30.019261
 20
166.6755
 30
0.0
 11
53.95448399999999
 21
166.6755
 31
0.0
  0
ARC
  5
1001
330
FCB
100
AcDbEntity
  8
1
  6
Continuous
100
AcDbCircle
 10
36.50000099999999
 20
157.1755
 30
0.0
 40
11.5
100
AcDbArc
 50
124.301153
 51
235.6988470000001
  0
LINE
  5
1002
330
FCB
100
AcDbEntity
  8
1
  6
Continuous
100
AcDbLine
 10
58.350001
 20
163.0642599999999
 30
0.0
 11
58.350001
 21
151.2867389999998
 31
0.0
  0
LINE
  5
1003
330
FCB
100
AcDbEntity
  8
1
  6
Continuous
100
AcDbLine
 10
60.650001
 20
163.0642599999999
 30
0.0
 11
60.650001
 21
151.2867389999998
 31
0.0
  0
LINE
  5
1004
330
FCB
100
AcDbEntity
  8
1
  6
Continuous
100
AcDbLine
 10
58.150001
 20
163.0216519999999
 30
0.0
 11
58.150001
 21
151.3293469999998
 31
0.0
  0
LINE
  5
1005
330
FCB
100
AcDbEntity
  8
1
  6
Continuous
100
AcDbLine
 10
60.850001
 20
163.0216519999999
 30
0.0
 11
60.850001
 21
151.3293469999998
 31
0.0
  0
LINE
  5
1006
330
FCB
100
AcDbEntity
  8
1
  6
Continuous
100
AcDbLine
 10
58.450001
 20
161.8254999999998
 30
0.0
 11
58.450001
 21
153.7255
 31
0.0
  0
LINE
  5
1007
330
FCB
100
AcDbEntity
  8
1
  6
Continuous
100
AcDbLine
 10
60.550001
 20
153.7255
 30
0.0
 11
60.550001
 21
161.8254999999998
 31
0.0
  0
LINE
  5
1008
330
FCB
100
AcDbEntity
  8
1
  6
Continuous
100
AcDbLine
 10
48.50000099999999
 20
163.526352
 30
0.0
 11
48.50000099999999
 21
150.824647
 31
0.0
  0
LINE
  5
1009
330
FCB
100
AcDbEntity
  8
1
  6
Continuous
100
AcDbLine
 10
58.350001
 20
152.3754999999999
 30
0.0
 11
60.650001
 21
152.3754999999999
 31
0.0
  0
LINE
  5
100A
330
FCB
100
AcDbEntity
  8
1
  6
Continuous
100
AcDbLine
 10
58.450001
 20
153.7255
 30
0.0
 11
60.550001
 21
153.7255
 31
0.0
  0
LINE
  5
100B
330
FCB
100
AcDbEntity
  8
1
  6
Continuous
100
AcDbLine
 10
48.50000099999999
 20
150.824647
 30
0.0
 11
59.500001
 21
144.4737939999999
 31
0.0
  0
LINE
  5
100C
330
FCB
100
AcDbEntity
  8
1
  6
Continuous
100
AcDbLine
 10
60.550001
 20
161.8254999999998
 30
0.0
 11
58.450001
 21
161.8254999999998
 31
0.0
  0
LINE
  5
100D
330
FCB
100
AcDbEntity
  8
1
  6
Continuous
100
AcDbLine
 10
59.950001
 20
157.1254999999998
 30
0.0
 11
59.950001
 21
158.4254999999998
 31
0.0
  0
LINE
  5
100E
330
FCB
100
AcDbEntity
  8
1
  6
Continuous
100
AcDbLine
 10
59.050001
 20
158.4254999999998
 30
0.0
 11
59.050001
 21
157.1254999999998
 31
0.0
  0
LINE
  5
100F
330
FCB
100
AcDbEntity
  8
1
  6
Continuous
100
AcDbLine
 10
58.450001
 20
157.1254999999998
 30
0.0
 11
59.050001
 21
157.1254999999998
 31
0.0
  0
LINE
  5
1010
330
FCB
100
AcDbEntity
  8
1
  6
Continuous
100
AcDbLine
 10
58.450001
 20
158.4254999999998
 30
0.0
 11
59.050001
 21
158.4254999999998
 31
0.0
  0
LINE
  5
1011
330
FCB
100
AcDbEntity
  8
1
  6
Continuous
100
AcDbLine
 10
59.950001
 20
158.4254999999998
 30
0.0
 11
60.550001
 21
158.4254999999998
 31
0.0
  0
LINE
  5
1012
330
FCB
100
AcDbEntity
  8
1
  6
Continuous
100
AcDbLine
 10
59.950001
 20
157.1254999999998
 30
0.0
 11
60.550001
 21
157.1254999999998
 31
0.0
  0
LINE
  5
1013
330
FCB
100
AcDbEntity
  8
1
  6
Continuous
100
AcDbLine
 10
48.50000099999999
 20
163.526352
 30
0.0
 11
59.500001
 21
169.877205
 31
0.0
  0
LINE
  5
1014
330
FCB
100
AcDbEntity
  8
1
  6
Continuous
100
AcDbLine
 10
70.500001
 20
150.824647
 30
0.0
 11
70.500001
 21
163.526352
 31
0.0
  0
ARC
  5
1015
330
FCB
100
AcDbEntity
  8
1
  6
Continuous
100
AcDbCircle
 10
183.869982
 20
82.793828
 30
0.0
 40
21.464576
100
AcDbArc
 50
345.153156
 51
14.846844
  0
LINE
  5
1016
330
FCB
100
AcDbEntity
  8
1
  6
Continuous
100
AcDbLine
 10
201.834559
 20
88.29382800000002
 30
0.0
 11
201.834559
 21
66.29382800000001
 31
0.0
  0
LINE
  5
1017
330
FCB
100
AcDbEntity
  8
1
  6
Continuous
100
AcDbLine
 10
142.200258
 20
88.293859
 30
0.0
 11
142.200258
 21
66.29385899999999
 31
0.0
  0
LINE
  5
1018
330
FCB
100
AcDbEntity
  8
1
  6
Continuous
100
AcDbLine
 10
159.600257
 20
42.79386999999998
 30
0.0
 11
159.600257
 21
85.29386999999998
 31
0.0
  0
LINE
  5
1019
330
FCB
100
AcDbEntity
  8
1
  6
Continuous
100
AcDbLine
 10
161.900257
 20
42.79386999999998
 30
0.0
 11
161.900257
 21
85.29386999999998
 31
0.0
  0
LINE
  5
101A
330
FCB
100
AcDbEntity
  8
1
  6
Continuous
100
AcDbLine
 10
161.900257
 20
42.79386999999998
 30
0.0
 11
159.600257
 21
42.79386999999998
 31
0.0
  0
LINE
  5
101B
330
FCB
100
AcDbEntity
  8
1
  6
Continuous
100
AcDbLine
 10
159.6002579999999
 20
72.318859
 30
0.0
 11
158.6002579999999
 21
72.318859
 31
0.0
  0
LINE
  5
101C
330
FCB
100
AcDbEntity
  8
1
  6
Continuous
100
AcDbLine
 10
159.6002579999999
 20
82.26885899999997
 30
0.0
 11
158.6002579999999
 21
82.26885899999997
 31
0.0
  0
LINE
  5
101D
330
FCB
100
AcDbEntity
  8
4
  6
CENTER
100
AcDbLine
 10
134.71812
 20
77.293859
 30
0.0
 11
171.400258
 21
77.293859
 31
0.0
  0
LINE
  5
101E
330
FCB
100
AcDbEntity
  8
2
  6
Continuous
100
AcDbLine
 10
145.7002579999999
 20
82.09073199999997
 30
0.0
 11
142.7002579999999
 21
72.49698499999998
 31
0.0
  0
LINE
  5
101F
330
FCB
100
AcDbEntity
  8
2
  6
Continuous
100
AcDbLine
 10
142.7002579999999
 20
82.09073199999997
 30
0.0
 11
145.7002579999999
 21
72.49698499999998
 31
0.0
  0
LINE
  5
1020
330
FCB
100
AcDbEntity
  8
1
  6
Continuous
100
AcDbLine
 10
142.200258
 20
68.89385899999999
 30
0.0
 11
157.3502579999999
 21
68.89385899999999
 31
0.0
  0
LINE
  5
1021
330
FCB
100
AcDbEntity
  8
1
  6
Continuous
100
AcDbLine
 10
145.7002579999999
 20
72.49698499999998
 30
0.0
 11
142.7002579999999
 21
72.49698499999998
 31
0.0
  0
LINE
  5
1022
330
FCB
100
AcDbEntity
  8
1
  6
Continuous
100
AcDbLine
 10
145.7002579999999
 20
82.09073199999997
 30
0.0
 11
142.7002579999999
 21
82.09073199999997
 31
0.0
  0
LINE
  5
1023
330
FCB
100
AcDbEntity
  8
1
  6
Continuous
100
AcDbLine
 10
142.200258
 20
85.69385799999997
 30
0.0
 11
157.3502579999999
 21
85.69385799999997
 31
0.0
  0
LINE
  5
1024
330
FCB
100
AcDbEntity
  8
1
  6
Continuous
100
AcDbLine
 10
142.7002579999999
 20
82.09073199999997
 30
0.0
 11
142.7002579999999
 21
72.49698499999998
 31
0.0
  0
LINE
  5
1025
330
FCB
100
AcDbEntity
  8
1
  6
Continuous
100
AcDbLine
 10
142.7002579999999
 20
76.19385799999998
 30
0.0
 11
142.200258
 21
76.19385799999998
 31
0.0
  0
LINE
  5
1026
330
FCB
100
AcDbEntity
  8
1
  6
Continuous
100
AcDbLine
 10
142.7002579999999
 20
78.39385799999998
 30
0.0
 11
142.200258
 21
78.39385799999998
 31
0.0
  0
LINE
  5
1027
330
FCB
100
AcDbEntity
  8
1
  6
Continuous
100
AcDbLine
 10
145.7002579999999
 20
82.09073199999997
 30
0.0
 11
145.7002579999999
 21
72.49698499999998
 31
0.0
  0
LINE
  5
1028
330
FCB
100
AcDbEntity
  8
1
  6
Continuous
100
AcDbLine
 10
155.500258
 20
76.19385799999998
 30
0.0
 11
145.7002579999999
 21
76.19385799999998
 31
0.0
  0
LINE
  5
1029
330
FCB
100
AcDbEntity
  8
1
  6
Continuous
100
AcDbLine
 10
155.500258
 20
78.39385799999998
 30
0.0
 11
145.7002579999999
 21
78.39385799999998
 31
0.0
  0
LINE
  5
102A
330
FCB
100
AcDbEntity
  8
1
  6
Continuous
100
AcDbLine
 10
155.500258
 20
78.39385799999998
 30
0.0
 11
155.500258
 21
85.69385799999997
 31
0.0
  0
LINE
  5
102B
330
FCB
100
AcDbEntity
  8
1
  6
Continuous
100
AcDbLine
 10
155.500258
 20
68.89385899999999
 30
0.0
 11
155.500258
 21
76.19385799999998
 31
0.0
  0
LINE
  5
102C
330
FCB
100
AcDbEntity
  8
1
  6
Continuous
100
AcDbLine
 10
154.500258
 20
78.39385799999998
 30
0.0
 11
154.500258
 21
85.69385799999997
 31
0.0
  0
LINE
  5
102D
330
FCB
100
AcDbEntity
  8
1
  6
Continuous
100
AcDbLine
 10
154.500258
 20
68.89385899999999
 30
0.0
 11
154.500258
 21
76.19385799999998
 31
0.0
  0
ARC
  5
102E
330
FCB
100
AcDbEntity
  8
1
  6
Continuous
100
AcDbCircle
 10
158.1819539999998
 20
72.425555
 30
0.0
 40
0.4316970000000003
100
AcDbArc
 50
180.0
 51
14.30930499999999
  0
LINE
  5
102F
330
FCB
100
AcDbEntity
  8
1
  6
Continuous
100
AcDbLine
 10
158.6002579999999
 20
82.26885899999997
 30
0.0
 11
158.6002579999999
 21
72.318859
 31
0.0
  0
ARC
  5
1030
330
FCB
100
AcDbEntity
  8
1
  6
Continuous
100
AcDbCircle
 10
158.175258
 20
82.16885899999999
 30
0.0
 40
0.425
100
AcDbArc
 50
0.0
 51
180.0
  0
LINE
  5
1031
330
FCB
100
AcDbEntity
  8
1
  6
Continuous
100
AcDbLine
 10
157.250258
 20
85.69385799999997
 30
0.0
 11
157.250258
 21
68.89385899999999
 31
0.0
  0
LINE
  5
1032
330
FCB
100
AcDbEntity
  8
1
  6
Continuous
100
AcDbLine
 10
157.7502579999998
 20
85.29385899999999
 30
0.0
 11
157.3502579999999
 21
85.69385799999997
 31
0.0
  0
LINE
  5
1033
330
FCB
100
AcDbEntity
  8
1
  6
Continuous
100
AcDbLine
 10
157.7502579999998
 20
69.29385899999998
 30
0.0
 11
157.3502579999999
 21
68.89385899999999
 31
0.0
  0
LINE
  5
1034
330
FCB
100
AcDbEntity
  8
1
  6
Continuous
100
AcDbLine
 10
157.7502579999998
 20
85.29385899999999
 30
0.0
 11
157.7502579999998
 21
69.29385899999998
 31
0.0
  0
LINE
  5
1035
330
FCB
100
AcDbEntity
  8
1
  6
Continuous
100
AcDbLine
 10
161.900257
 20
47.81312999999999
 30
0.0
 11
159.600257
 21
47.81312999999999
 31
0.0
  0
LINE
  5
1036
330
FCB
100
AcDbEntity
  8
2
  6
Continuous
100
AcDbLine
 10
165.1002569999999
 20
74.199859
 30
0.0
 11
166.306258
 21
74.199859
 31
0.0
  0
LINE
  5
1037
330
FCB
100
AcDbEntity
  8
2
  6
Continuous
100
AcDbLine
 10
165.1002569999999
 20
80.38785899999998
 30
0.0
 11
166.306258
 21
80.38785899999998
 31
0.0
  0
LINE
  5
1038
330
FCB
100
AcDbEntity
  8
1
  6
Continuous
100
AcDbLine
 10
163.380207
 20
77.293859
 30
0.0
 11
164.820307
 21
77.293859
 31
0.0
  0
ARC
  5
1039
330
FCB
100
AcDbEntity
  8
1
  6
Continuous
100
AcDbCircle
 10
176.711971
 20
74.543859
 30
0.0
 40
13.612437
100
AcDbArc
 50
168.3448249999998
 51
191.655175
  0
ARC
  5
103A
330
FCB
100
AcDbEntity
  8
1
  6
Continuous
100
AcDbCircle
 10
176.711971
 20
80.043859
 30
0.0
 40
13.612437
100
AcDbArc
 50
168.3448249999998
 51
191.655175
  0
ARC
  5
103B
330
FCB
100
AcDbEntity
  8
1
  6
Continuous
100
AcDbCircle
 10
151.815077
 20
74.543859
 30
0.0
 40
13.29279899999999
100
AcDbArc
 50
348.0604879999999
 51
11.93951199999998
  0
ARC
  5
103C
330
FCB
100
AcDbEntity
  8
1
  6
Continuous
100
AcDbCircle
 10
151.815077
 20
80.043859
 30
0.0
 40
13.29279899999999
100
AcDbArc
 50
348.0604879999999
 51
11.93951199999998
  0
LINE
  5
103D
330
FCB
100
AcDbEntity
  8
1
  6
Continuous
100
AcDbLine
 10
163.380207
 20
71.79385899999998
 30
0.0
 11
164.820307
 21
71.79385899999998
 31
0.0
  0
LINE
  5
103E
330
FCB
100
AcDbEntity
  8
1
  6
Continuous
100
AcDbLine
 10
163.380207
 20
82.79385899999999
 30
0.0
 11
164.820307
 21
82.79385899999999
 31
0.0
  0
LINE
  5
103F
330
FCB
100
AcDbEntity
  8
2
  6
Continuous
100
AcDbLine
 10
162.1002569999999
 20
74.09385899999998
 30
0.0
 11
161.900257
 21
74.09385899999998
 31
0.0
  0
LINE
  5
1040
330
FCB
100
AcDbEntity
  8
1
  6
Continuous
100
AcDbLine
 10
161.900257
 20
80.27461099999998
 30
0.0
 11
159.600257
 21
80.27461099999998
 31
0.0
  0
LINE
  5
1041
330
FCB
100
AcDbEntity
  8
1
  6
Continuous
100
AcDbLine
 10
161.900257
 20
85.29386999999998
 30
0.0
 11
159.600257
 21
85.29386999999998
 31
0.0
  0
ARC
  5
1042
330
FCB
100
AcDbEntity
  8
1
  6
Continuous
100
AcDbCircle
 10
159.6926899999999
 20
82.570352
 30
0.0
 40
2.415121
100
AcDbArc
 50
336.072673
 51
355.4671649999999
  0
ARC
  5
1043
330
FCB
100
AcDbEntity
  8
1
  6
Continuous
100
AcDbCircle
 10
160.8789199999999
 20
80.504086
 30
0.0
 40
1.236618999999999
100
AcDbArc
 50
325.680942
 51
350.9830839999998
  0
ARC
  5
1044
330
FCB
100
AcDbEntity
  8
1
  6
Continuous
100
AcDbCircle
 10
157.813059
 20
75.45144599999997
 30
0.0
 40
4.287487999999997
100
AcDbArc
 50
0.0
 51
17.127635
  0
LINE
  5
1045
330
FCB
100
AcDbEntity
  8
1
  6
Continuous
100
AcDbLine
 10
161.900257
 20
76.73172700000002
 30
0.0
 11
161.978935
 21
76.595151
 31
0.0
  0
ARC
  5
1046
330
FCB
100
AcDbEntity
  8
1
  6
Continuous
100
AcDbCircle
 10
158.0609589999999
 20
72.63337599999998
 30
0.0
 40
4.308307
100
AcDbArc
 50
20.354182
 51
26.98334599999999
  0
ARC
  5
1047
330
FCB
100
AcDbEntity
  8
1
  6
Continuous
100
AcDbCircle
 10
161.03451
 20
71.800881
 30
0.0
 40
3.098745999999998
100
AcDbArc
 50
69.88360899999999
 51
73.798466
  0
ARC
  5
1048
330
FCB
100
AcDbEntity
  8
1
  6
Continuous
100
AcDbCircle
 10
161.063412
 20
71.855041
 30
0.0
 40
1.837066999999997
100
AcDbArc
 50
55.63918199999999
 51
62.90075400000001
  0
LINE
  5
1049
330
FCB
100
AcDbEntity
  8
1
  6
Continuous
100
AcDbLine
 10
161.900257
 20
81.04017699999998
 30
0.0
 11
162.1002569999999
 21
81.07594899999998
 31
0.0
  0
LINE
  5
104A
330
FCB
100
AcDbEntity
  8
1
  6
Continuous
100
AcDbLine
 10
161.900257
 20
79.622202
 30
0.0
 11
162.1002569999999
 21
79.715855
 31
0.0
  0
LINE
  5
104B
330
FCB
100
AcDbEntity
  8
1
  6
Continuous
100
AcDbLine
 10
161.900257
 20
77.473956
 30
0.0
 11
162.1002569999999
 21
77.58971699999998
 31
0.0
  0
LINE
  5
104C
330
FCB
100
AcDbEntity
  8
1
  6
Continuous
100
AcDbLine
 10
161.900257
 20
75.40763699999998
 30
0.0
 11
162.1002569999999
 21
75.50128999999998
 31
0.0
  0
LINE
  5
104D
330
FCB
100
AcDbEntity
  8
1
  6
Continuous
100
AcDbLine
 10
161.900257
 20
74.09613
 30
0.0
 11
162.1002569999999
 21
74.13190199999998
 31
0.0
  0
LINE
  5
104E
330
FCB
100
AcDbEntity
  8
1
  6
Continuous
100
AcDbLine
 10
161.900257
 20
80.66212799999998
 30
0.0
 11
162.1002569999999
 21
80.69790000000002
 31
0.0
  0
LINE
  5
104F
330
FCB
100
AcDbEntity
  8
1
  6
Continuous
100
AcDbLine
 10
161.900257
 20
79.16092999999998
 30
0.0
 11
162.1002569999999
 21
79.25458299999998
 31
0.0
  0
LINE
  5
1050
330
FCB
100
AcDbEntity
  8
1
  6
Continuous
100
AcDbLine
 10
161.978935
 20
76.595151
 30
0.0
 11
162.1002569999999
 21
76.665373
 31
0.0
  0
LINE
  5
1051
330
FCB
100
AcDbEntity
  8
1
  6
Continuous
100
AcDbLine
 10
161.8991129999998
 20
74.77656500000001
 30
0.0
 11
162.1002569999999
 21
74.87075400000001
 31
0.0
  0
LINE
  5
1052
330
FCB
100
AcDbEntity
  8
1
  6
Continuous
100
AcDbLine
 10
161.900257
 20
73.71095699999997
 30
0.0
 11
162.1002569999999
 21
73.746729
 31
0.0
  0
LINE
  5
1053
330
FCB
100
AcDbEntity
  8
1
  6
Continuous
100
AcDbLine
 10
163.1002569999999
 20
73.79385899999999
 30
0.0
 11
163.0476909999998
 21
73.79385899999999
 31
0.0
  0
ARC
  5
1054
330
FCB
100
AcDbEntity
  8
1
  6
Continuous
100
AcDbCircle
 10
163.679349
 20
72.992985
 30
0.0
 40
1.019995999999999
100
AcDbArc
 50
124.592743
 51
139.802011
  0
LINE
  5
1055
330
FCB
100
AcDbEntity
  8
1
  6
Continuous
100
AcDbLine
 10
162.900257
 20
81.219038
 30
0.0
 11
163.0911259999998
 21
81.25317700000001
 31
0.0
  0
LINE
  5
1056
330
FCB
100
AcDbEntity
  8
1
  6
Continuous
100
AcDbLine
 10
162.900257
 20
80.84098899999998
 30
0.0
 11
163.125315
 21
80.88124300000002
 31
0.0
  0
LINE
  5
1057
330
FCB
100
AcDbEntity
  8
1
  6
Continuous
100
AcDbLine
 10
162.900257
 20
80.090467
 30
0.0
 11
163.113505
 21
80.19032299999997
 31
0.0
  0
LINE
  5
1058
330
FCB
100
AcDbEntity
  8
1
  6
Continuous
100
AcDbLine
 10
162.900257
 20
79.62919499999998
 30
0.0
 11
163.1002569999999
 21
79.722848
 31
0.0
  0
LINE
  5
1059
330
FCB
100
AcDbEntity
  8
1
  6
Continuous
100
AcDbLine
 10
162.900257
 20
78.052763
 30
0.0
 11
163.1002569999999
 21
78.16852400000001
 31
0.0
  0
LINE
  5
105A
330
FCB
100
AcDbEntity
  8
1
  6
Continuous
100
AcDbLine
 10
162.900257
 20
77.12841899999998
 30
0.0
 11
163.1002569999999
 21
77.24418
 31
0.0
  0
LINE
  5
105B
330
FCB
100
AcDbEntity
  8
1
  6
Continuous
100
AcDbLine
 10
162.900257
 20
75.87590199999998
 30
0.0
 11
163.10437
 21
75.97148100000002
 31
0.0
  0
LINE
  5
105C
330
FCB
100
AcDbEntity
  8
1
  6
Continuous
100
AcDbLine
 10
162.900257
 20
75.24536600000002
 30
0.0
 11
163.1002569999999
 21
75.33901899999998
 31
0.0
  0
LINE
  5
105D
330
FCB
100
AcDbEntity
  8
1
  6
Continuous
100
AcDbLine
 10
162.900257
 20
74.274991
 30
0.0
 11
163.1002569999999
 21
74.31076299999998
 31
0.0
  0
LINE
  5
105E
330
FCB
100
AcDbEntity
  8
1
  6
Continuous
100
AcDbLine
 10
162.900257
 20
73.889818
 30
0.0
 11
163.1002569999999
 21
73.92559
 31
0.0
  0
ARC
  5
105F
330
FCB
100
AcDbEntity
  8
1
  6
Continuous
100
AcDbCircle
 10
163.133589
 20
79.29410899999997
 30
0.0
 40
1.034086999999998
100
AcDbArc
 50
256.9594719999999
 51
268.15285
  0
ARC
  5
1060
330
FCB
100
AcDbEntity
  8
1
  6
Continuous
100
AcDbCircle
 10
164.1686229999999
 20
83.040704
 30
0.0
 40
2.087164
100
AcDbArc
 50
232.57674
 51
238.919
  0
ARC
  5
1061
330
FCB
100
AcDbEntity
  8
1
  6
Continuous
100
AcDbCircle
 10
163.832027
 20
81.820493
 30
0.0
 40
0.9331559999999999
100
AcDbArc
 50
176.8768279999999
 51
222.819139
  0
ARC
  5
1062
330
FCB
100
AcDbEntity
  8
1
  6
Continuous
100
AcDbCircle
 10
163.842405
 20
80.789489
 30
0.0
 40
0.9435539999999999
100
AcDbArc
 50
183.1282459999999
 51
218.13617
  0
ARC
  5
1063
330
FCB
100
AcDbEntity
  8
1
  6
Continuous
100
AcDbCircle
 10
161.96721
 20
76.00648199999998
 30
0.0
 40
0.94214
100
AcDbArc
 50
352.0331939999999
 51
7.966790999999997
  0
LINE
  5
1064
330
FCB
100
AcDbEntity
  8
1
  6
Continuous
100
AcDbLine
 10
162.1002569999999
 20
83.793859
 30
0.0
 11
162.900257
 21
83.793859
 31
0.0
  0
LINE
  5
1065
330
FCB
100
AcDbEntity
  8
1
  6
Continuous
100
AcDbLine
 10
162.1002569999999
 20
70.793859
 30
0.0
 11
162.900257
 21
70.793859
 31
0.0
  0
LINE
  5
1066
330
FCB
100
AcDbEntity
  8
1
  6
Continuous
100
AcDbLine
 10
162.900257
 20
70.793859
 30
0.0
 11
162.900257
 21
83.793859
 31
0.0
  0
LINE
  5
1067
330
FCB
100
AcDbEntity
  8
1
  6
Continuous
100
AcDbLine
 10
162.1002569999999
 20
70.793859
 30
0.0
 11
162.1002569999999
 21
83.793859
 31
0.0
  0
LINE
  5
1068
330
FCB
100
AcDbEntity
  8
1
  6
Continuous
100
AcDbLine
 10
159.6002579999999
 20
82.26885899999997
 30
0.0
 11
159.6002579999999
 21
72.318859
 31
0.0
  0
LINE
  5
1069
330
FCB
100
AcDbEntity
  8
1
  6
Continuous
100
AcDbLine
 10
165.900258
 20
73.79385899999999
 30
0.0
 11
165.900258
 21
80.793859
 31
0.0
  0
LINE
  5
106A
330
FCB
100
AcDbEntity
  8
1
  6
Continuous
100
AcDbLine
 10
165.900258
 20
73.79385899999999
 30
0.0
 11
166.400258
 21
74.29385899999998
 31
0.0
  0
LINE
  5
106B
330
FCB
100
AcDbEntity
  8
2
  6
Continuous
100
AcDbLine
 10
162.1002569999999
 20
80.493859
 30
0.0
 11
161.900257
 21
80.493859
 31
0.0
  0
LINE
  5
106C
330
FCB
100
AcDbEntity
  8
1
  6
Continuous
100
AcDbLine
 10
163.1002569999999
 20
80.493859
 30
0.0
 11
162.94636
 21
80.493859
 31
0.0
  0
LINE
  5
106D
330
FCB
100
AcDbEntity
  8
1
  6
Continuous
100
AcDbLine
 10
165.900258
 20
73.79385899999999
 30
0.0
 11
165.1002569999999
 21
73.79385899999999
 31
0.0
  0
LINE
  5
106E
330
FCB
100
AcDbEntity
  8
1
  6
Continuous
100
AcDbLine
 10
165.900258
 20
80.793859
 30
0.0
 11
165.1002569999999
 21
80.793859
 31
0.0
  0
LINE
  5
106F
330
FCB
100
AcDbEntity
  8
1
  6
Continuous
100
AcDbLine
 10
163.1002569999999
 20
74.403599
 30
0.0
 11
163.1002569999999
 21
80.18411999999996
 31
0.0
  0
LINE
  5
1070
330
FCB
100
AcDbEntity
  8
1
  6
Continuous
100
AcDbLine
 10
165.1002569999999
 20
74.09385899999998
 30
0.0
 11
165.1002569999999
 21
80.493859
 31
0.0
  0
LINE
  5
1071
330
FCB
100
AcDbEntity
  8
1
  6
Continuous
100
AcDbLine
 10
165.900258
 20
80.793859
 30
0.0
 11
166.400258
 21
80.29385899999999
 31
0.0
  0
LINE
  5
1072
330
FCB
100
AcDbEntity
  8
1
  6
Continuous
100
AcDbLine
 10
166.400258
 20
80.29385899999999
 30
0.0
 11
166.400258
 21
74.29385899999998
 31
0.0
  0
LINE
  5
1073
330
FCB
100
AcDbEntity
  8
4
  6
CENTER
100
AcDbLine
 10
196.834559
 20
77.293828
 30
0.0
 11
210.3345589999999
 21
77.293828
 31
0.0
  0
LINE
  5
1074
330
FCB
100
AcDbEntity
  8
1
  6
Continuous
100
AcDbLine
 10
205.334559
 20
82.793828
 30
0.0
 11
205.334559
 21
71.79382800000002
 31
0.0
  0
LINE
  5
1075
330
FCB
100
AcDbEntity
  8
1
  6
Continuous
100
AcDbLine
 10
204.6179469999999
 20
77.293828
 30
0.0
 11
201.834559
 21
77.293828
 31
0.0
  0
LINE
  5
1076
330
FCB
100
AcDbEntity
  8
1
  6
Continuous
100
AcDbLine
 10
204.6179469999999
 20
66.29382800000001
 30
0.0
 11
201.834559
 21
66.29382800000001
 31
0.0
  0
ARC
  5
1077
330
FCB
100
AcDbEntity
  8
1
  6
Continuous
100
AcDbCircle
 10
183.869982
 20
71.79382800000002
 30
0.0
 40
21.464576
100
AcDbArc
 50
345.153156
 51
14.846844
  0
LINE
  5
1078
330
FCB
100
AcDbEntity
  8
1
  6
Continuous
100
AcDbLine
 10
159.6002579999999
 20
152.2005
 30
0.0
 11
158.6002579999999
 21
152.2005
 31
0.0
  0
LINE
  5
1079
330
FCB
100
AcDbEntity
  8
1
  6
Continuous
100
AcDbLine
 10
159.6002579999999
 20
162.1504999999999
 30
0.0
 11
158.6002579999999
 21
162.1504999999999
 31
0.0
  0
LINE
  5
107A
330
FCB
100
AcDbEntity
  8
4
  6
CENTER
100
AcDbLine
 10
134.71812
 20
157.1755
 30
0.0
 11
171.400258
 21
157.1755
 31
0.0
  0
LINE
  5
107B
330
FCB
100
AcDbEntity
  8
2
  6
Continuous
100
AcDbLine
 10
142.200258
 20
161.6128409999998
 30
0.0
 11
154.500258
 21
152.738158
 31
0.0
  0
LINE
  5
107C
330
FCB
100
AcDbEntity
  8
2
  6
Continuous
100
AcDbLine
 10
154.500258
 20
161.6128409999998
 30
0.0
 11
142.200258
 21
152.738158
 31
0.0
  0
LINE
  5
107D
330
FCB
100
AcDbEntity
  8
1
  6
Continuous
100
AcDbLine
 10
158.6002579999999
 20
162.1504999999999
 30
0.0
 11
158.6002579999999
 21
152.2005
 31
0.0
  0
LINE
  5
107E
330
FCB
100
AcDbEntity
  8
1
  6
Continuous
100
AcDbLine
 10
155.500258
 20
155.8754999999998
 30
0.0
 11
155.500258
 21
148.6755
 31
0.0
  0
LINE
  5
107F
330
FCB
100
AcDbEntity
  8
1
  6
Continuous
100
AcDbLine
 10
157.250258
 20
165.6754999999998
 30
0.0
 11
157.250258
 21
148.6755
 31
0.0
  0
LINE
  5
1080
330
FCB
100
AcDbEntity
  8
1
  6
Continuous
100
AcDbLine
 10
142.200258
 20
168.1755
 30
0.0
 11
142.200258
 21
146.1754999999998
 31
0.0
  0
LINE
  5
1081
330
FCB
100
AcDbEntity
  8
1
  6
Continuous
100
AcDbLine
 10
157.7502579999998
 20
165.1755
 30
0.0
 11
157.7502579999998
 21
149.1754999999998
 31
0.0
  0
LINE
  5
1082
330
FCB
100
AcDbEntity
  8
1
  6
Continuous
100
AcDbLine
 10
141.200258
 20
168.1755
 30
0.0
 11
141.200258
 21
146.1754999999998
 31
0.0
  0
LINE
  5
1083
330
FCB
100
AcDbEntity
  8
1
  6
Continuous
100
AcDbLine
 10
142.7002579999999
 20
148.9755
 30
0.0
 11
145.7002579999999
 21
148.9755
 31
0.0
  0
LINE
  5
1084
330
FCB
100
AcDbEntity
  8
1
  6
Continuous
100
AcDbLine
 10
142.200258
 20
152.738158
 30
0.0
 11
154.500258
 21
152.738158
 31
0.0
  0
LINE
  5
1085
330
FCB
100
AcDbEntity
  8
1
  6
Continuous
100
AcDbLine
 10
141.1002579999999
 20
148.3254999999998
 30
0.0
 11
141.200258
 21
148.3254999999998
 31
0.0
  0
LINE
  5
1086
330
FCB
100
AcDbEntity
  8
1
  6
Continuous
100
AcDbLine
 10
142.7002579999999
 20
147.7393989999999
 30
0.0
 11
142.200258
 21
147.7393989999999
 31
0.0
  0
LINE
  5
1087
330
FCB
100
AcDbEntity
  8
1
  6
Continuous
100
AcDbLine
 10
142.7002579999999
 20
148.9755
 30
0.0
 11
142.7002579999999
 21
147.7393989999999
 31
0.0
  0
LINE
  5
1088
330
FCB
100
AcDbEntity
  8
1
  6
Continuous
100
AcDbLine
 10
141.200258
 20
146.1754999999998
 30
0.0
 11
142.200258
 21
146.1754999999998
 31
0.0
  0
LINE
  5
1089
330
FCB
100
AcDbEntity
  8
2
  6
Continuous
100
AcDbLine
 10
145.7002579999999
 20
148.217
 30
0.0
 11
155.0417579999999
 21
148.217
 31
0.0
  0
LINE
  5
108A
330
FCB
100
AcDbEntity
  8
1
  6
Continuous
100
AcDbLine
 10
145.7002579999999
 20
148.9755
 30
0.0
 11
145.7002579999999
 21
147.7393989999999
 31
0.0
  0
ARC
  5
108B
330
FCB
100
AcDbEntity
  8
1
  6
Continuous
100
AcDbCircle
 10
158.1819539999998
 20
152.307196
 30
0.0
 40
0.4316970000000003
100
AcDbArc
 50
180.0
 51
14.30930499999999
  0
LINE
  5
108C
330
FCB
100
AcDbEntity
  8
1
  6
Continuous
100
AcDbLine
 10
154.5641569999999
 20
147.7393989999999
 30
0.0
 11
145.7002579999999
 21
147.7393989999999
 31
0.0
  0
LINE
  5
108D
330
FCB
100
AcDbEntity
  8
1
  6
Continuous
100
AcDbLine
 10
154.500258
 20
152.738158
 30
0.0
 11
154.500258
 21
147.7393989999999
 31
0.0
  0
LINE
  5
108E
330
FCB
100
AcDbEntity
  8
1
  6
Continuous
100
AcDbLine
 10
155.500258
 20
153.7381579999999
 30
0.0
 11
154.500258
 21
152.738158
 31
0.0
  0
LINE
  5
108F
330
FCB
100
AcDbEntity
  8
1
  6
Continuous
100
AcDbLine
 10
157.7502579999998
 20
149.1754999999998
 30
0.0
 11
157.250258
 21
148.6755
 31
0.0
  0
LINE
  5
1090
330
FCB
100
AcDbEntity
  8
1
  6
Continuous
100
AcDbLine
 10
155.500258
 20
148.6755
 30
0.0
 11
154.5641569999999
 21
147.7393989999999
 31
0.0
  0
LINE
  5
1091
330
FCB
100
AcDbEntity
  8
1
  6
Continuous
100
AcDbLine
 10
155.500258
 20
148.6755
 30
0.0
 11
157.250258
 21
148.6755
 31
0.0
  0
LINE
  5
1092
330
FCB
100
AcDbEntity
  8
1
  6
Continuous
100
AcDbLine
 10
142.7002579999999
 20
165.3754999999998
 30
0.0
 11
145.7002579999999
 21
165.3754999999998
 31
0.0
  0
LINE
  5
1093
330
FCB
100
AcDbEntity
  8
1
  6
Continuous
100
AcDbLine
 10
142.200258
 20
161.6128409999998
 30
0.0
 11
154.500258
 21
161.6128409999998
 31
0.0
  0
LINE
  5
1094
330
FCB
100
AcDbEntity
  8
1
  6
Continuous
100
AcDbLine
 10
141.1002579999999
 20
166.0255
 30
0.0
 11
141.200258
 21
166.0255
 31
0.0
  0
LINE
  5
1095
330
FCB
100
AcDbEntity
  8
1
  6
Continuous
100
AcDbLine
 10
141.200258
 20
168.1755
 30
0.0
 11
142.200258
 21
168.1755
 31
0.0
  0
LINE
  5
1096
330
FCB
100
AcDbEntity
  8
1
  6
Continuous
100
AcDbLine
 10
142.200258
 20
166.6755
 30
0.0
 11
142.7002579999999
 21
166.6755
 31
0.0
  0
LINE
  5
1097
330
FCB
100
AcDbEntity
  8
1
  6
Continuous
100
AcDbLine
 10
142.7002579999999
 20
166.6755
 30
0.0
 11
142.7002579999999
 21
165.3754999999998
 31
0.0
  0
LINE
  5
1098
330
FCB
100
AcDbEntity
  8
2
  6
Continuous
100
AcDbLine
 10
145.7002579999999
 20
166.1339999999999
 30
0.0
 11
155.0417579999999
 21
166.1339999999999
 31
0.0
  0
LINE
  5
1099
330
FCB
100
AcDbEntity
  8
1
  6
Continuous
100
AcDbLine
 10
145.7002579999999
 20
166.6755
 30
0.0
 11
145.7002579999999
 21
165.3754999999998
 31
0.0
  0
ARC
  5
109A
330
FCB
100
AcDbEntity
  8
1
  6
Continuous
100
AcDbCircle
 10
158.175258
 20
162.0505
 30
0.0
 40
0.425
100
AcDbArc
 50
0.0
 51
180.0
  0
LINE
  5
109B
330
FCB
100
AcDbEntity
  8
1
  6
Continuous
100
AcDbLine
 10
155.500258
 20
155.8754999999998
 30
0.0
 11
157.250258
 21
155.8754999999998
 31
0.0
  0
LINE
  5
109C
330
FCB
100
AcDbEntity
  8
1
  6
Continuous
100
AcDbLine
 10
155.500258
 20
158.4755
 30
0.0
 11
157.250258
 21
158.4755
 31
0.0
  0
LINE
  5
109D
330
FCB
100
AcDbEntity
  8
1
  6
Continuous
100
AcDbLine
 10
155.500258
 20
160.612841
 30
0.0
 11
154.500258
 21
161.6128409999998
 31
0.0
  0
LINE
  5
109E
330
FCB
100
AcDbEntity
  8
1
  6
Continuous
100
AcDbLine
 10
145.7002579999999
 20
166.6755
 30
0.0
 11
154.500258
 21
166.6755
 31
0.0
  0
LINE
  5
109F
330
FCB
100
AcDbEntity
  8
1
  6
Continuous
100
AcDbLine
 10
154.500258
 20
166.6755
 30
0.0
 11
154.500258
 21
161.6128409999998
 31
0.0
  0
LINE
  5
10A0
330
FCB
100
AcDbEntity
  8
1
  6
Continuous
100
AcDbLine
 10
157.7502579999998
 20
165.1755
 30
0.0
 11
157.250258
 21
165.6754999999998
 31
0.0
  0
LINE
  5
10A1
330
FCB
100
AcDbEntity
  8
1
  6
Continuous
100
AcDbLine
 10
155.500258
 20
165.6754999999998
 30
0.0
 11
154.500258
 21
166.6755
 31
0.0
  0
LINE
  5
10A2
330
FCB
100
AcDbEntity
  8
1
  6
Continuous
100
AcDbLine
 10
155.500258
 20
165.6754999999998
 30
0.0
 11
155.500258
 21
158.4755
 31
0.0
  0
LINE
  5
10A3
330
FCB
100
AcDbEntity
  8
1
  6
Continuous
100
AcDbLine
 10
155.500258
 20
165.6754999999998
 30
0.0
 11
157.250258
 21
165.6754999999998
 31
0.0
  0
LINE
  5
10A4
330
FCB
100
AcDbEntity
  8
1
  6
Continuous
100
AcDbLine
 10
159.600257
 20
147.6754999999998
 30
0.0
 11
159.600257
 21
166.6755
 31
0.0
  0
ARC
  5
10A5
330
FCB
100
AcDbEntity
  8
1
  6
Continuous
100
AcDbCircle
 10
146.951131
 20
157.1755
 30
0.0
 40
18.149127
100
AcDbArc
 50
349.9234969999998
 51
10.076503
  0
ARC
  5
10A6
330
FCB
100
AcDbEntity
  8
1
  6
Continuous
100
AcDbCircle
 10
181.2493839999999
 20
157.1755
 30
0.0
 40
18.149127
100
AcDbArc
 50
169.923497
 51
190.076503
  0
LINE
  5
10A7
330
FCB
100
AcDbEntity
  8
1
  6
Continuous
100
AcDbLine
 10
163.1002569999999
 20
152.412787
 30
0.0
 11
163.1002569999999
 21
161.938212
 31
0.0
  0
LINE
  5
10A8
330
FCB
100
AcDbEntity
  8
1
  6
Continuous
100
AcDbLine
 10
165.1002569999999
 20
152.412787
 30
0.0
 11
165.1002569999999
 21
161.938212
 31
0.0
  0
LINE
  5
10A9
330
FCB
100
AcDbEntity
  8
1
  6
Continuous
100
AcDbLine
 10
161.900257
 20
153.9777699999999
 30
0.0
 11
162.1002569999999
 21
154.013543
 31
0.0
  0
LINE
  5
10AA
330
FCB
100
AcDbEntity
  8
1
  6
Continuous
100
AcDbLine
 10
162.900257
 20
150.6755
 30
0.0
 11
162.900257
 21
163.6754999999998
 31
0.0
  0
LINE
  5
10AB
330
FCB
100
AcDbEntity
  8
1
  6
Continuous
100
AcDbLine
 10
162.1002569999999
 20
150.6755
 30
0.0
 11
162.1002569999999
 21
163.6754999999998
 31
0.0
  0
LINE
  5
10AC
330
FCB
100
AcDbEntity
  8
1
  6
Continuous
100
AcDbLine
 10
161.900257
 20
147.6754999999998
 30
0.0
 11
161.900257
 21
166.6755
 31
0.0
  0
LINE
  5
10AD
330
FCB
100
AcDbEntity
  8
1
  6
Continuous
100
AcDbLine
 10
166.400258
 20
154.1755
 30
0.0
 11
165.900258
 21
153.6755
 31
0.0
  0
LINE
  5
10AE
330
FCB
100
AcDbEntity
  8
1
  6
Continuous
100
AcDbLine
 10
165.900258
 20
160.6754999999998
 30
0.0
 11
165.900258
 21
153.6755
 31
0.0
  0
LINE
  5
10AF
330
FCB
100
AcDbEntity
  8
1
  6
Continuous
100
AcDbLine
 10
159.600257
 20
147.6754999999998
 30
0.0
 11
161.900257
 21
147.6754999999998
 31
0.0
  0
LINE
  5
10B0
330
FCB
100
AcDbEntity
  8
1
  6
Continuous
100
AcDbLine
 10
165.900258
 20
153.6755
 30
0.0
 11
165.1002569999999
 21
153.6755
 31
0.0
  0
LINE
  5
10B1
330
FCB
100
AcDbEntity
  8
1
  6
Continuous
100
AcDbLine
 10
163.1002569999999
 20
153.6755
 30
0.0
 11
163.0476909999998
 21
153.6755
 31
0.0
  0
ARC
  5
10B2
330
FCB
100
AcDbEntity
  8
1
  6
Continuous
100
AcDbCircle
 10
160.460405
 20
152.412787
 30
0.0
 40
4.639852999999998
100
AcDbArc
 50
339.995212
 51
20.004788
  0
ARC
  5
10B3
330
FCB
100
AcDbEntity
  8
1
  6
Continuous
100
AcDbCircle
 10
167.7401099999999
 20
152.412787
 30
0.0
 40
4.639852999999998
100
AcDbArc
 50
159.995212
 51
200.0047879999999
  0
LINE
  5
10B4
330
FCB
100
AcDbEntity
  8
1
  6
Continuous
100
AcDbLine
 10
163.380207
 20
154.000075
 30
0.0
 11
164.820307
 21
154.000075
 31
0.0
  0
LINE
  5
10B5
330
FCB
100
AcDbEntity
  8
1
  6
Continuous
100
AcDbLine
 10
163.380207
 20
150.8255
 30
0.0
 11
164.820307
 21
150.8255
 31
0.0
  0
ARC
  5
10B6
330
FCB
100
AcDbEntity
  8
1
  6
Continuous
100
AcDbCircle
 10
163.679349
 20
152.874626
 30
0.0
 40
1.019995999999999
100
AcDbArc
 50
124.592743
 51
139.802011
  0
LINE
  5
10B7
330
FCB
100
AcDbEntity
  8
1
  6
Continuous
100
AcDbLine
 10
162.900257
 20
153.771459
 30
0.0
 11
163.1002569999999
 21
153.8072309999998
 31
0.0
  0
ARC
  5
10B8
330
FCB
100
AcDbEntity
  8
1
  6
Continuous
100
AcDbCircle
 10
161.063412
 20
151.736682
 30
0.0
 40
1.837066999999997
100
AcDbArc
 50
55.63918199999999
 51
62.90075400000001
  0
LINE
  5
10B9
330
FCB
100
AcDbEntity
  8
1
  6
Continuous
100
AcDbLine
 10
161.900257
 20
153.5925969999999
 30
0.0
 11
162.1002569999999
 21
153.62837
 31
0.0
  0
LINE
  5
10BA
330
FCB
100
AcDbEntity
  8
1
  6
Continuous
100
AcDbLine
 10
162.1002569999999
 20
150.6755
 30
0.0
 11
162.900257
 21
150.6755
 31
0.0
  0
LINE
  5
10BB
330
FCB
100
AcDbEntity
  8
2
  6
Continuous
100
AcDbLine
 10
165.1002569999999
 20
154.0815
 30
0.0
 11
166.306258
 21
154.0815
 31
0.0
  0
LINE
  5
10BC
330
FCB
100
AcDbEntity
  8
2
  6
Continuous
100
AcDbLine
 10
165.1002569999999
 20
160.2694999999999
 30
0.0
 11
166.306258
 21
160.2694999999999
 31
0.0
  0
LINE
  5
10BD
330
FCB
100
AcDbEntity
  8
1
  6
Continuous
100
AcDbLine
 10
159.600257
 20
166.6755
 30
0.0
 11
161.900257
 21
166.6755
 31
0.0
  0
LINE
  5
10BE
330
FCB
100
AcDbEntity
  8
2
  6
Continuous
100
AcDbLine
 10
163.1002569999999
 20
160.3754999999999
 30
0.0
 11
162.900257
 21
160.3754999999999
 31
0.0
  0
LINE
  5
10BF
330
FCB
100
AcDbEntity
  8
2
  6
Continuous
100
AcDbLine
 10
162.1002569999999
 20
160.3754999999999
 30
0.0
 11
161.900257
 21
160.3754999999999
 31
0.0
  0
LINE
  5
10C0
330
FCB
100
AcDbEntity
  8
1
  6
Continuous
100
AcDbLine
 10
165.900258
 20
160.6754999999998
 30
0.0
 11
165.1002569999999
 21
160.6754999999998
 31
0.0
  0
LINE
  5
10C1
330
FCB
100
AcDbEntity
  8
1
  6
Continuous
100
AcDbLine
 10
163.1002569999999
 20
160.6754999999998
 30
0.0
 11
162.900257
 21
160.6754999999998
 31
0.0
  0
LINE
  5
10C2
330
FCB
100
AcDbEntity
  8
1
  6
Continuous
100
AcDbLine
 10
161.900257
 20
154.6755
 30
0.0
 11
161.936045
 21
154.6755
 31
0.0
  0
ARC
  5
10C3
330
FCB
100
AcDbEntity
  8
1
  6
Continuous
100
AcDbCircle
 10
160.460405
 20
161.938212
 30
0.0
 40
4.639852999999998
100
AcDbArc
 50
339.995212
 51
20.004788
  0
ARC
  5
10C4
330
FCB
100
AcDbEntity
  8
1
  6
Continuous
100
AcDbCircle
 10
167.7401099999999
 20
161.938212
 30
0.0
 40
4.639852999999998
100
AcDbArc
 50
159.995212
 51
200.0047879999999
  0
LINE
  5
10C5
330
FCB
100
AcDbEntity
  8
1
  6
Continuous
100
AcDbLine
 10
163.380207
 20
160.3509249999999
 30
0.0
 11
164.820307
 21
160.3509249999999
 31
0.0
  0
LINE
  5
10C6
330
FCB
100
AcDbEntity
  8
1
  6
Continuous
100
AcDbLine
 10
163.380207
 20
163.5254999999999
 30
0.0
 11
164.820307
 21
163.5254999999999
 31
0.0
  0
LINE
  5
10C7
330
FCB
100
AcDbEntity
  8
1
  6
Continuous
100
AcDbLine
 10
162.900257
 20
161.100679
 30
0.0
 11
163.0911259999998
 21
161.134818
 31
0.0
  0
LINE
  5
10C8
330
FCB
100
AcDbEntity
  8
1
  6
Continuous
100
AcDbLine
 10
162.900257
 20
160.72263
 30
0.0
 11
163.1002569999999
 21
160.758402
 31
0.0
  0
LINE
  5
10C9
330
FCB
100
AcDbEntity
  8
1
  6
Continuous
100
AcDbLine
 10
162.900257
 20
159.9721079999999
 30
0.0
 11
163.113505
 21
160.0719639999998
 31
0.0
  0
LINE
  5
10CA
330
FCB
100
AcDbEntity
  8
1
  6
Continuous
100
AcDbLine
 10
162.900257
 20
159.510836
 30
0.0
 11
163.1002569999999
 21
159.6044889999998
 31
0.0
  0
LINE
  5
10CB
330
FCB
100
AcDbEntity
  8
1
  6
Continuous
100
AcDbLine
 10
162.900257
 20
157.934404
 30
0.0
 11
163.1002569999999
 21
158.0501649999999
 31
0.0
  0
LINE
  5
10CC
330
FCB
100
AcDbEntity
  8
1
  6
Continuous
100
AcDbLine
 10
162.900257
 20
157.01006
 30
0.0
 11
163.1002569999999
 21
157.125821
 31
0.0
  0
LINE
  5
10CD
330
FCB
100
AcDbEntity
  8
1
  6
Continuous
100
AcDbLine
 10
162.900257
 20
155.7575429999999
 30
0.0
 11
163.10437
 21
155.8531219999998
 31
0.0
  0
LINE
  5
10CE
330
FCB
100
AcDbEntity
  8
1
  6
Continuous
100
AcDbLine
 10
162.900257
 20
155.1270069999999
 30
0.0
 11
163.1002569999999
 21
155.22066
 31
0.0
  0
LINE
  5
10CF
330
FCB
100
AcDbEntity
  8
1
  6
Continuous
100
AcDbLine
 10
162.900257
 20
154.156632
 30
0.0
 11
163.1002569999999
 21
154.192404
 31
0.0
  0
ARC
  5
10D0
330
FCB
100
AcDbEntity
  8
1
  6
Continuous
100
AcDbCircle
 10
163.133589
 20
159.1757499999999
 30
0.0
 40
1.034086999999998
100
AcDbArc
 50
256.9594719999999
 51
268.15285
  0
ARC
  5
10D1
330
FCB
100
AcDbEntity
  8
1
  6
Continuous
100
AcDbCircle
 10
159.6926899999999
 20
162.4519929999999
 30
0.0
 40
2.415121
100
AcDbArc
 50
336.072673
 51
355.4671649999999
  0
ARC
  5
10D2
330
FCB
100
AcDbEntity
  8
1
  6
Continuous
100
AcDbCircle
 10
164.1686229999999
 20
162.922345
 30
0.0
 40
2.087164
100
AcDbArc
 50
232.57674
 51
238.919
  0
ARC
  5
10D3
330
FCB
100
AcDbEntity
  8
1
  6
Continuous
100
AcDbCircle
 10
163.832027
 20
161.7021339999998
 30
0.0
 40
0.9331559999999999
100
AcDbArc
 50
176.8768279999999
 51
218.3543339999999
  0
ARC
  5
10D4
330
FCB
100
AcDbEntity
  8
1
  6
Continuous
100
AcDbCircle
 10
163.842405
 20
160.67113
 30
0.0
 40
0.9435539999999999
100
AcDbArc
 50
183.1282459999999
 51
218.13617
  0
ARC
  5
10D5
330
FCB
100
AcDbEntity
  8
1
  6
Continuous
100
AcDbCircle
 10
160.8789199999999
 20
160.3857269999998
 30
0.0
 40
1.236618999999999
100
AcDbArc
 50
325.680942
 51
350.9830839999998
  0
ARC
  5
10D6
330
FCB
100
AcDbEntity
  8
1
  6
Continuous
100
AcDbCircle
 10
157.813059
 20
155.333087
 30
0.0
 40
4.287487999999997
100
AcDbArc
 50
0.0
 51
17.127635
  0
ARC
  5
10D7
330
FCB
100
AcDbEntity
  8
1
  6
Continuous
100
AcDbCircle
 10
161.96721
 20
155.888123
 30
0.0
 40
0.94214
100
AcDbArc
 50
352.0331939999999
 51
7.966790999999997
  0
LINE
  5
10D8
330
FCB
100
AcDbEntity
  8
1
  6
Continuous
100
AcDbLine
 10
161.900257
 20
156.6133669999999
 30
0.0
 11
161.978935
 21
156.4767919999999
 31
0.0
  0
ARC
  5
10D9
330
FCB
100
AcDbEntity
  8
1
  6
Continuous
100
AcDbCircle
 10
161.03451
 20
151.682522
 30
0.0
 40
3.098745999999998
100
AcDbArc
 50
69.88360899999999
 51
73.798466
  0
LINE
  5
10DA
330
FCB
100
AcDbEntity
  8
1
  6
Continuous
100
AcDbLine
 10
161.900257
 20
160.921817
 30
0.0
 11
162.1002569999999
 21
160.9575899999998
 31
0.0
  0
LINE
  5
10DB
330
FCB
100
AcDbEntity
  8
1
  6
Continuous
100
AcDbLine
 10
161.900257
 20
159.5038429999999
 30
0.0
 11
162.1002569999999
 21
159.597496
 31
0.0
  0
LINE
  5
10DC
330
FCB
100
AcDbEntity
  8
1
  6
Continuous
100
AcDbLine
 10
161.900257
 20
157.355596
 30
0.0
 11
162.1002569999999
 21
157.471358
 31
0.0
  0
LINE
  5
10DD
330
FCB
100
AcDbEntity
  8
1
  6
Continuous
100
AcDbLine
 10
161.900257
 20
155.2892769999999
 30
0.0
 11
162.1002569999999
 21
155.382931
 31
0.0
  0
LINE
  5
10DE
330
FCB
100
AcDbEntity
  8
1
  6
Continuous
100
AcDbLine
 10
161.900257
 20
160.543768
 30
0.0
 11
162.1002569999999
 21
160.5795409999998
 31
0.0
  0
LINE
  5
10DF
330
FCB
100
AcDbEntity
  8
1
  6
Continuous
100
AcDbLine
 10
161.900257
 20
159.042571
 30
0.0
 11
162.1002569999999
 21
159.136224
 31
0.0
  0
LINE
  5
10E0
330
FCB
100
AcDbEntity
  8
1
  6
Continuous
100
AcDbLine
 10
161.978935
 20
156.4767919999999
 30
0.0
 11
162.1002569999999
 21
156.5470139999999
 31
0.0
  0
LINE
  5
10E1
330
FCB
100
AcDbEntity
  8
1
  6
Continuous
100
AcDbLine
 10
161.8991129999998
 20
154.658206
 30
0.0
 11
162.1002569999999
 21
154.752395
 31
0.0
  0
LINE
  5
10E2
330
FCB
100
AcDbEntity
  8
1
  6
Continuous
100
AcDbLine
 10
162.1002569999999
 20
163.6754999999998
 30
0.0
 11
162.900257
 21
163.6754999999998
 31
0.0
  0
LINE
  5
10E3
330
FCB
100
AcDbEntity
  8
1
  6
Continuous
100
AcDbLine
 10
165.900258
 20
160.6754999999998
 30
0.0
 11
166.400258
 21
160.1754999999998
 31
0.0
  0
LINE
  5
10E4
330
FCB
100
AcDbEntity
  8
1
  6
Continuous
100
AcDbLine
 10
166.400258
 20
160.1754999999998
 30
0.0
 11
166.400258
 21
154.1755
 31
0.0
  0
LINE
  5
10E5
330
FCB
100
AcDbEntity
  8
1
  6
Continuous
100
AcDbLine
 10
204.6179469999999
 20
88.29382800000002
 30
0.0
 11
201.834559
 21
88.29382800000002
 31
0.0
  0
LINE
  5
10E6
330
FCB
100
AcDbEntity
  8
1
  6
Continuous
100
AcDbLine
 10
205.334545
 20
166.7577039999999
 30
0.0
 11
205.334545
 21
147.7051449999999
 31
0.0
  0
LINE
  5
10E7
330
FCB
100
AcDbEntity
  8
1
  6
Continuous
100
AcDbLine
 10
201.8345449999999
 20
169.93313
 30
0.0
 11
201.8345449999999
 21
144.5297189999998
 31
0.0
  0
ARC
  5
10E8
330
FCB
100
AcDbEntity
  8
1
  6
Continuous
100
AcDbCircle
 10
176.8345449999999
 20
157.2314249999998
 30
0.0
 40
28.5
100
AcDbArc
 50
347.1242849999999
 51
12.875715
  0
ARC
  5
10E9
330
FCB
100
AcDbEntity
  8
1
  6
Continuous
100
AcDbCircle
 10
197.940816
 20
147.7051449999999
 30
0.0
 40
7.393728999999997
100
AcDbArc
 50
334.565714
 51
25.434286
  0
LINE
  5
10EA
330
FCB
100
AcDbEntity
  8
1
  6
Continuous
100
AcDbLine
 10
201.8345449999999
 20
144.5297189999998
 30
0.0
 11
204.617933
 21
144.5297189999998
 31
0.0
  0
LINE
  5
10EB
330
FCB
100
AcDbEntity
  8
1
  6
Continuous
100
AcDbLine
 10
201.8345449999999
 20
150.8805719999998
 30
0.0
 11
204.617933
 21
150.8805719999998
 31
0.0
  0
LINE
  5
10EC
330
FCB
100
AcDbEntity
  8
4
  6
CENTER
100
AcDbLine
 10
196.8345449999999
 20
157.2314249999998
 30
0.0
 11
210.3345449999999
 21
157.2314249999998
 31
0.0
  0
ARC
  5
10ED
330
FCB
100
AcDbEntity
  8
1
  6
Continuous
100
AcDbCircle
 10
197.940816
 20
166.7577039999999
 30
0.0
 40
7.393728999999997
100
AcDbArc
 50
334.565714
 51
25.434286
  0
LINE
  5
10EE
330
FCB
100
AcDbEntity
  8
1
  6
Continuous
100
AcDbLine
 10
201.8345449999999
 20
169.93313
 30
0.0
 11
204.617933
 21
169.93313
 31
0.0
  0
LINE
  5
10EF
330
FCB
100
AcDbEntity
  8
1
  6
Continuous
100
AcDbLine
 10
201.8345449999999
 20
163.582277
 30
0.0
 11
204.617933
 21
163.582277
 31
0.0
  0
ARC
  5
10F0
330
FCB
100
AcDbEntity
  8
5
  6
PHANTOM
100
AcDbCircle
 10
59.500001
 20
180.1754999999998
 30
0.0
 40
11.5
100
AcDbArc
 50
34.301153
 51
145.6988469999998
  0
LINE
  5
10F1
330
FCB
100
AcDbEntity
  8
1
  6
Continuous
100
AcDbLine
 10
66.442789
 20
236.4094549999999
 30
0.0
 11
62.588711
 21
233.1755
 31
0.0
  0
LINE
  5
10F2
330
FCB
100
AcDbEntity
  8
1
  6
Continuous
100
AcDbLine
 10
44.175104
 20
235.9755
 30
0.0
 11
65.92562099999999
 21
235.9755
 31
0.0
  0
LINE
  5
10F3
330
FCB
100
AcDbEntity
  8
1
  6
Continuous
100
AcDbLine
 10
66.779797
 20
237.3755
 30
0.0
 11
44.175104
 21
237.3755
 31
0.0
  0
LINE
  5
10F4
330
FCB
100
AcDbEntity
  8
1
  6
Continuous
100
AcDbLine
 10
44.175104
 20
239.3755
 30
0.0
 11
64.733867
 21
239.3755
 31
0.0
  0
LINE
  5
10F5
330
FCB
100
AcDbEntity
  8
1
  6
Continuous
100
AcDbLine
 10
66.442789
 20
237.9415439999999
 30
0.0
 11
62.588711
 21
241.1754999999998
 31
0.0
  0
LINE
  5
10F6
330
FCB
100
AcDbEntity
  8
4
  6
CENTER
100
AcDbLine
 10
20.000001
 20
237.1754999999998
 30
0.0
 11
71.80000099999998
 21
237.1754999999998
 31
0.0
  0
ARC
  5
10F7
330
FCB
100
AcDbEntity
  8
1
  6
Continuous
100
AcDbCircle
 10
31.200001
 20
242.6936509999999
 30
0.0
 40
0.8
100
AcDbArc
 50
0.0
 51
124.552711
  0
ARC
  5
10F8
330
FCB
100
AcDbEntity
  8
1
  6
Continuous
100
AcDbCircle
 10
31.200001
 20
231.6573479999999
 30
0.0
 40
0.8
100
AcDbArc
 50
235.447289
 51
0.0
  0
ARC
  5
10F9
330
FCB
100
AcDbEntity
  8
1
  6
Continuous
100
AcDbCircle
 10
35.00000099999999
 20
237.1754999999998
 30
0.0
 40
9.0
100
AcDbArc
 50
90.0
 51
270.0
  0
ARC
  5
10FA
330
FCB
100
AcDbEntity
  8
1
  6
Continuous
100
AcDbCircle
 10
35.00000099999999
 20
237.1754999999998
 30
0.0
 40
10.0
100
AcDbArc
 50
90.0
 51
270.0
  0
ARC
  5
10FB
330
FCB
100
AcDbEntity
  8
1
  6
Continuous
100
AcDbCircle
 10
35.00000099999999
 20
237.1754999999998
 30
0.0
 40
7.5
100
AcDbArc
 50
124.552711
 51
235.4507049999999
  0
ARC
  5
10FC
330
FCB
100
AcDbEntity
  8
1
  6
Continuous
100
AcDbCircle
 10
47.200001
 20
241.9755
 30
0.0
 40
0.3
100
AcDbArc
 50
0.0
 51
90.0
  0
LINE
  5
10FD
330
FCB
100
AcDbEntity
  8
1
  6
Continuous
100
AcDbLine
 10
36.24932499999999
 20
242.8933
 30
0.0
 11
36.24932499999999
 21
241.515615
 31
0.0
  0
LINE
  5
10FE
330
FCB
100
AcDbEntity
  8
1
  6
Continuous
100
AcDbLine
 10
40.500001
 20
244.6755
 30
0.0
 11
40.500001
 21
229.6755
 31
0.0
  0
LINE
  5
10FF
330
FCB
100
AcDbEntity
  8
1
  6
Continuous
100
AcDbLine
 10
32.000001
 20
231.6573479999999
 30
0.0
 11
32.000001
 21
242.6936509999999
 31
0.0
  0
ARC
  5
1100
330
FCB
100
AcDbEntity
  8
1
  6
Continuous
100
AcDbCircle
 10
30.65061699999999
 20
237.1754999999998
 30
0.0
 40
8.599396
100
AcDbArc
 50
324.4619999999998
 51
35.53799999999999
  0
ARC
  5
1101
330
FCB
100
AcDbEntity
  8
1
  6
Continuous
100
AcDbCircle
 10
41.84938599999997
 20
237.1754999999998
 30
0.0
 40
8.599396
100
AcDbArc
 50
144.462
 51
215.5377
  0
ARC
  5
1102
330
FCB
100
AcDbEntity
  8
1
  6
Continuous
100
AcDbCircle
 10
48.000001
 20
241.1754999999998
 30
0.0
 40
0.5
100
AcDbArc
 50
180.0
 51
315.0
  0
ARC
  5
1103
330
FCB
100
AcDbEntity
  8
1
  6
Continuous
100
AcDbCircle
 10
48.000001
 20
233.1755
 30
0.0
 40
0.5
100
AcDbArc
 50
45.0
 51
180.0
  0
LINE
  5
1104
330
FCB
100
AcDbEntity
  8
1
  6
Continuous
100
AcDbLine
 10
47.500001
 20
241.9755
 30
0.0
 11
47.500001
 21
241.1754999999998
 31
0.0
  0
LINE
  5
1105
330
FCB
100
AcDbEntity
  8
1
  6
Continuous
100
AcDbLine
 10
34.372262
 20
240.1758229999999
 30
0.0
 11
35.916407
 21
240.1758229999999
 31
0.0
  0
LINE
  5
1106
330
FCB
100
AcDbEntity
  8
1
  6
Continuous
100
AcDbLine
 10
35.916407
 20
240.8430119999999
 30
0.0
 11
34.492708
 21
240.8430119999999
 31
0.0
  0
ARC
  5
1107
330
FCB
100
AcDbEntity
  8
1
  6
Continuous
100
AcDbCircle
 10
35.916407
 20
240.5087409999999
 30
0.0
 40
0.333392
100
AcDbArc
 50
270.0
 51
90.0
  0
LINE
  5
1108
330
FCB
100
AcDbEntity
  8
1
  6
Continuous
100
AcDbLine
 10
37.497091
 20
241.1813439999999
 30
0.0
 11
34.687587
 21
241.935146
 31
0.0
  0
LINE
  5
1109
330
FCB
100
AcDbEntity
  8
1
  6
Continuous
100
AcDbLine
 10
36.24932499999999
 20
240.5087409999999
 30
0.0
 11
37.848956
 21
240.5087409999999
 31
0.0
  0
LINE
  5
110A
330
FCB
100
AcDbEntity
  8
1
  6
Continuous
100
AcDbLine
 10
44.175104
 20
241.715625
 30
0.0
 11
47.500001
 21
241.715625
 31
0.0
  0
LINE
  5
110B
330
FCB
100
AcDbEntity
  8
1
  6
Continuous
100
AcDbLine
 10
47.500001
 20
233.1755
 30
0.0
 11
47.500001
 21
232.3754999999999
 31
0.0
  0
ARC
  5
110C
330
FCB
100
AcDbEntity
  8
1
  6
Continuous
100
AcDbCircle
 10
47.200001
 20
232.3754999999999
 30
0.0
 40
0.3
100
AcDbArc
 50
270.0
 51
0.0
  0
LINE
  5
110D
330
FCB
100
AcDbEntity
  8
1
  6
Continuous
100
AcDbLine
 10
44.175104
 20
237.3755
 30
0.0
 11
44.175104
 21
235.9755
 31
0.0
  0
ARC
  5
110E
330
FCB
100
AcDbEntity
  8
1
  6
Continuous
100
AcDbCircle
 10
30.65061699999999
 20
237.1754999999998
 30
0.0
 40
7.932788
100
AcDbArc
 50
7.792999999999999
 51
10.10399999999999
  0
ARC
  5
110F
330
FCB
100
AcDbEntity
  8
1
  6
Continuous
100
AcDbCircle
 10
38.44441900000001
 20
238.243274
 30
0.0
 40
0.066678
100
AcDbArc
 50
270.0
 51
7.792999999999999
  0
ARC
  5
1110
330
FCB
100
AcDbEntity
  8
1
  6
Continuous
100
AcDbCircle
 10
38.131801
 20
238.509879
 30
0.0
 40
0.333392
100
AcDbArc
 50
10.10399999999999
 51
90.0
  0
ARC
  5
1111
330
FCB
100
AcDbEntity
  8
1
  6
Continuous
100
AcDbCircle
 10
37.981581
 20
235.1766379999999
 30
0.0
 40
0.333392
100
AcDbArc
 50
270.0
 51
344.7419999999998
  0
ARC
  5
1112
330
FCB
100
AcDbEntity
  8
1
  6
Continuous
100
AcDbCircle
 10
30.65061699999999
 20
237.1754999999998
 30
0.0
 40
7.932788
100
AcDbArc
 50
344.7419999999998
 51
344.794
  0
ARC
  5
1113
330
FCB
100
AcDbEntity
  8
1
  6
Continuous
100
AcDbCircle
 10
30.65061699999999
 20
237.1754999999998
 30
0.0
 40
7.932788
100
AcDbArc
 50
344.794
 51
347.2709999999998
  0
ARC
  5
1114
330
FCB
100
AcDbEntity
  8
1
  6
Continuous
100
AcDbCircle
 10
38.32262
 20
235.443244
 30
0.0
 40
0.066678
100
AcDbArc
 50
347.2709999999998
 51
90.0
  0
LINE
  5
1115
330
FCB
100
AcDbEntity
  8
1
  6
Continuous
100
AcDbLine
 10
38.32262
 20
235.509556
 30
0.0
 11
37.04914
 21
235.509556
 31
0.0
  0
LINE
  5
1116
330
FCB
100
AcDbEntity
  8
1
  6
Continuous
100
AcDbLine
 10
41.50000099999997
 20
232.0755
 30
0.0
 11
41.50000099999997
 21
229.6755
 31
0.0
  0
ARC
  5
1117
330
FCB
100
AcDbEntity
  8
1
  6
Continuous
100
AcDbCircle
 10
30.65061699999999
 20
237.1754999999998
 30
0.0
 40
7.932788
100
AcDbArc
 50
333.9859999999998
 51
337.0559999999999
  0
ARC
  5
1118
330
FCB
100
AcDbEntity
  8
1
  6
Continuous
100
AcDbCircle
 10
37.479498
 20
233.8436129999998
 30
0.0
 40
0.333392
100
AcDbArc
 50
270.0
 51
333.9859999999998
  0
ARC
  5
1119
330
FCB
100
AcDbEntity
  8
1
  6
Continuous
100
AcDbCircle
 10
37.893615
 20
234.110218
 30
0.0
 40
0.066678
100
AcDbArc
 50
337.0559999999999
 51
90.0
  0
LINE
  5
111A
330
FCB
100
AcDbEntity
  8
1
  6
Continuous
100
AcDbLine
 10
35.44950899999999
 20
238.8427969999999
 30
0.0
 11
34.36820199999999
 21
238.8427969999999
 31
0.0
  0
LINE
  5
111B
330
FCB
100
AcDbEntity
  8
1
  6
Continuous
100
AcDbLine
 10
35.44950899999999
 20
235.509556
 30
0.0
 11
34.17738299999999
 21
235.509556
 31
0.0
  0
ARC
  5
111C
330
FCB
100
AcDbEntity
  8
1
  6
Continuous
100
AcDbCircle
 10
41.84938599999997
 20
237.1754999999998
 30
0.0
 40
7.932788
100
AcDbArc
 50
169.896
 51
172.2069999999999
  0
ARC
  5
111D
330
FCB
100
AcDbEntity
  8
1
  6
Continuous
100
AcDbCircle
 10
34.055584
 20
238.243274
 30
0.0
 40
0.066678
100
AcDbArc
 50
172.2069999999999
 51
270.0
  0
ARC
  5
111E
330
FCB
100
AcDbEntity
  8
1
  6
Continuous
100
AcDbCircle
 10
34.36820199999999
 20
238.509879
 30
0.0
 40
0.333392
100
AcDbArc
 50
90.0
 51
169.896
  0
ARC
  5
111F
330
FCB
100
AcDbEntity
  8
1
  6
Continuous
100
AcDbCircle
 10
34.17738299999999
 20
235.443244
 30
0.0
 40
0.066678
100
AcDbArc
 50
90.0
 51
192.7289
  0
ARC
  5
1120
330
FCB
100
AcDbEntity
  8
1
  6
Continuous
100
AcDbCircle
 10
41.84938599999997
 20
237.1754999999998
 30
0.0
 40
7.932788
100
AcDbArc
 50
192.7289
 51
193.2680999999999
  0
ARC
  5
1121
330
FCB
100
AcDbEntity
  8
1
  6
Continuous
100
AcDbCircle
 10
41.84938599999997
 20
237.1754999999998
 30
0.0
 40
7.932788
100
AcDbArc
 50
193.2680999999999
 51
195.2574999999999
  0
ARC
  5
1122
330
FCB
100
AcDbEntity
  8
1
  6
Continuous
100
AcDbCircle
 10
34.518422
 20
235.1766379999999
 30
0.0
 40
0.333392
100
AcDbArc
 50
195.2574999999999
 51
270.0
  0
LINE
  5
1123
330
FCB
100
AcDbEntity
  8
1
  6
Continuous
100
AcDbLine
 10
36.24932499999999
 20
238.8427969999999
 30
0.0
 11
36.24932499999999
 21
238.509879
 31
0.0
  0
LINE
  5
1124
330
FCB
100
AcDbEntity
  8
1
  6
Continuous
100
AcDbLine
 10
36.24932499999999
 20
236.842582
 30
0.0
 11
36.24932499999999
 21
236.176746
 31
0.0
  0
ARC
  5
1125
330
FCB
100
AcDbEntity
  8
1
  6
Continuous
100
AcDbCircle
 10
41.84938599999997
 20
237.1754999999998
 30
0.0
 40
7.932788
100
AcDbArc
 50
202.944
 51
206.0144
  0
ARC
  5
1126
330
FCB
100
AcDbEntity
  8
1
  6
Continuous
100
AcDbCircle
 10
35.020505
 20
233.8436129999998
 30
0.0
 40
0.333392
100
AcDbArc
 50
206.0144
 51
270.0
  0
ARC
  5
1127
330
FCB
100
AcDbEntity
  8
1
  6
Continuous
100
AcDbCircle
 10
36.24932499999999
 20
233.176423
 30
0.0
 40
1.717978999999998
100
AcDbArc
 50
215.5377
 51
256.5374
  0
ARC
  5
1128
330
FCB
100
AcDbEntity
  8
1
  6
Continuous
100
AcDbCircle
 10
34.605034
 20
234.110218
 30
0.0
 40
0.066678
100
AcDbArc
 50
90.0
 51
202.944
  0
LINE
  5
1129
330
FCB
100
AcDbEntity
  8
1
  6
Continuous
100
AcDbLine
 10
34.420982
 20
232.8435049999999
 30
0.0
 11
37.295445
 21
232.8435049999999
 31
0.0
  0
LINE
  5
112A
330
FCB
100
AcDbEntity
  8
1
  6
Continuous
100
AcDbLine
 10
37.479498
 20
233.509341
 30
0.0
 11
35.020505
 21
233.509341
 31
0.0
  0
ARC
  5
112B
330
FCB
100
AcDbEntity
  8
1
  6
Continuous
100
AcDbCircle
 10
36.24932499999999
 20
233.176423
 30
0.0
 40
1.717978999999998
100
AcDbArc
 50
270.0
 51
324.4619999999998
  0
LINE
  5
112C
330
FCB
100
AcDbEntity
  8
1
  6
Continuous
100
AcDbLine
 10
33.924312
 20
237.509772
 30
0.0
 11
38.575691
 21
237.509772
 31
0.0
  0
LINE
  5
112D
330
FCB
100
AcDbEntity
  8
1
  6
Continuous
100
AcDbLine
 10
34.055584
 20
238.175608
 30
0.0
 11
38.44441900000001
 21
238.175608
 31
0.0
  0
LINE
  5
112E
330
FCB
100
AcDbEntity
  8
1
  6
Continuous
100
AcDbLine
 10
34.058291
 20
239.508633
 30
0.0
 11
38.231947
 21
239.508633
 31
0.0
  0
LINE
  5
112F
330
FCB
100
AcDbEntity
  8
1
  6
Continuous
100
AcDbLine
 10
34.605034
 20
234.1765309999999
 30
0.0
 11
37.893615
 21
234.1765309999999
 31
0.0
  0
LINE
  5
1130
330
FCB
100
AcDbEntity
  8
1
  6
Continuous
100
AcDbLine
 10
34.518422
 20
234.8423669999998
 30
0.0
 11
37.981581
 21
234.8423669999998
 31
0.0
  0
LINE
  5
1131
330
FCB
100
AcDbEntity
  8
1
  6
Continuous
100
AcDbLine
 10
33.97979799999998
 20
236.176746
 30
0.0
 11
38.520205
 21
236.176746
 31
0.0
  0
LINE
  5
1132
330
FCB
100
AcDbEntity
  8
1
  6
Continuous
100
AcDbLine
 10
33.924312
 20
236.842582
 30
0.0
 11
38.575691
 21
236.842582
 31
0.0
  0
LINE
  5
1133
330
FCB
100
AcDbEntity
  8
1
  6
Continuous
100
AcDbLine
 10
38.131801
 20
238.8427969999999
 30
0.0
 11
36.24932499999999
 21
238.8427969999999
 31
0.0
  0
LINE
  5
1134
330
FCB
100
AcDbEntity
  8
1
  6
Continuous
100
AcDbLine
 10
39.00000099999999
 20
227.1755
 30
0.0
 11
35.00000099999999
 21
227.1755
 31
0.0
  0
LINE
  5
1135
330
FCB
100
AcDbEntity
  8
1
  6
Continuous
100
AcDbLine
 10
39.00000099999999
 20
228.1754999999999
 30
0.0
 11
35.00000099999999
 21
228.1754999999999
 31
0.0
  0
ARC
  5
1136
330
FCB
100
AcDbEntity
  8
1
  6
Continuous
100
AcDbCircle
 10
39.00000099999999
 20
229.6755
 30
0.0
 40
2.5
100
AcDbArc
 50
270.0
 51
0.0
  0
ARC
  5
1137
330
FCB
100
AcDbEntity
  8
1
  6
Continuous
100
AcDbCircle
 10
39.00000099999999
 20
229.6755
 30
0.0
 40
1.5
100
AcDbArc
 50
270.0
 51
0.0
  0
LINE
  5
1138
330
FCB
100
AcDbEntity
  8
1
  6
Continuous
100
AcDbLine
 10
47.200001
 20
232.0755
 30
0.0
 11
41.50000099999997
 21
232.0755
 31
0.0
  0
LINE
  5
1139
330
FCB
100
AcDbEntity
  8
1
  6
Continuous
100
AcDbLine
 10
44.175104
 20
241.715625
 30
0.0
 11
44.175104
 21
239.3755
 31
0.0
  0
LINE
  5
113A
330
FCB
100
AcDbEntity
  8
1
  6
Continuous
100
AcDbLine
 10
48.353555
 20
240.821946
 30
0.0
 11
48.70710800000001
 21
241.175499
 31
0.0
  0
LINE
  5
113B
330
FCB
100
AcDbEntity
  8
1
  6
Continuous
100
AcDbLine
 10
48.70710800000001
 20
241.1754999999998
 30
0.0
 11
62.588711
 21
241.1754999999998
 31
0.0
  0
LINE
  5
113C
330
FCB
100
AcDbEntity
  8
1
  6
Continuous
100
AcDbLine
 10
48.353555
 20
233.5290529999999
 30
0.0
 11
48.70710800000001
 21
233.1755
 31
0.0
  0
LINE
  5
113D
330
FCB
100
AcDbEntity
  8
1
  6
Continuous
100
AcDbLine
 10
62.588711
 20
233.1755
 30
0.0
 11
48.70710800000001
 21
233.1755
 31
0.0
  0
LINE
  5
113E
330
FCB
100
AcDbEntity
  8
1
  6
Continuous
100
AcDbLine
 10
41.50000099999997
 20
244.6755
 30
0.0
 11
41.50000099999997
 21
242.2754999999999
 31
0.0
  0
ARC
  5
113F
330
FCB
100
AcDbEntity
  8
1
  6
Continuous
100
AcDbCircle
 10
36.24932499999999
 20
241.1759299999999
 30
0.0
 40
1.717978999999998
100
AcDbArc
 50
35.53799999999999
 51
45.69899999999999
  0
ARC
  5
1140
330
FCB
100
AcDbEntity
  8
1
  6
Continuous
100
AcDbCircle
 10
39.00000099999999
 20
244.6755
 30
0.0
 40
2.5
100
AcDbArc
 50
0.0
 51
90.0
  0
ARC
  5
1141
330
FCB
100
AcDbEntity
  8
1
  6
Continuous
100
AcDbCircle
 10
39.00000099999999
 20
244.6755
 30
0.0
 40
1.5
100
AcDbArc
 50
0.0
 51
90.0
  0
LINE
  5
1142
330
FCB
100
AcDbEntity
  8
1
  6
Continuous
100
AcDbLine
 10
35.00000099999999
 20
247.1754999999999
 30
0.0
 11
39.00000099999999
 21
247.1754999999999
 31
0.0
  0
LINE
  5
1143
330
FCB
100
AcDbEntity
  8
1
  6
Continuous
100
AcDbLine
 10
35.00000099999999
 20
246.1755
 30
0.0
 11
39.00000099999999
 21
246.1755
 31
0.0
  0
ARC
  5
1144
330
FCB
100
AcDbEntity
  8
1
  6
Continuous
100
AcDbCircle
 10
36.24932499999999
 20
241.1759299999999
 30
0.0
 40
1.717978999999998
100
AcDbArc
 50
62.24999999999999
 51
144.462
  0
LINE
  5
1145
330
FCB
100
AcDbEntity
  8
1
  6
Continuous
100
AcDbLine
 10
41.50000099999997
 20
242.2754999999999
 30
0.0
 11
47.200001
 21
242.2754999999999
 31
0.0
  0
ARC
  5
1146
330
FCB
100
AcDbEntity
  8
1
  6
Continuous
100
AcDbCircle
 10
65.80000099999999
 20
237.1754999999998
 30
0.0
 40
1.0
100
AcDbArc
 50
310.0
 51
50.0
  0
LINE
  5
1147
330
FCB
100
AcDbEntity
  8
1
  6
Continuous
100
AcDbLine
 10
159.600257
 20
271.6755299999999
 30
0.0
 11
159.600257
 21
229.1755299999999
 31
0.0
  0
LINE
  5
1148
330
FCB
100
AcDbEntity
  8
1
  6
Continuous
100
AcDbLine
 10
161.900257
 20
271.6755299999999
 30
0.0
 11
161.900257
 21
229.1755299999999
 31
0.0
  0
LINE
  5
1149
330
FCB
100
AcDbEntity
  8
1
  6
Continuous
100
AcDbLine
 10
159.6002579999999
 20
232.200541
 30
0.0
 11
158.6002579999999
 21
232.200541
 31
0.0
  0
LINE
  5
114A
330
FCB
100
AcDbEntity
  8
1
  6
Continuous
100
AcDbLine
 10
159.6002579999999
 20
242.1505409999999
 30
0.0
 11
158.6002579999999
 21
242.1505409999999
 31
0.0
  0
LINE
  5
114B
330
FCB
100
AcDbEntity
  8
4
  6
CENTER
100
AcDbLine
 10
134.71812
 20
237.175541
 30
0.0
 11
171.400258
 21
237.175541
 31
0.0
  0
LINE
  5
114C
330
FCB
100
AcDbEntity
  8
1
  6
Continuous
100
AcDbLine
 10
154.500258
 20
245.575541
 30
0.0
 11
154.500258
 21
228.7755419999998
 31
0.0
  0
LINE
  5
114D
330
FCB
100
AcDbEntity
  8
1
  6
Continuous
100
AcDbLine
 10
155.500258
 20
245.575541
 30
0.0
 11
155.500258
 21
228.7755419999998
 31
0.0
  0
ARC
  5
114E
330
FCB
100
AcDbEntity
  8
1
  6
Continuous
100
AcDbCircle
 10
158.1819539999998
 20
242.043845
 30
0.0
 40
0.4316970000000003
100
AcDbArc
 50
345.690695
 51
180.0
  0
LINE
  5
114F
330
FCB
100
AcDbEntity
  8
1
  6
Continuous
100
AcDbLine
 10
157.7502579999998
 20
229.1755409999999
 30
0.0
 11
157.7502579999998
 21
245.175541
 31
0.0
  0
LINE
  5
1150
330
FCB
100
AcDbEntity
  8
1
  6
Continuous
100
AcDbLine
 10
142.200258
 20
226.175541
 30
0.0
 11
142.200258
 21
248.175541
 31
0.0
  0
LINE
  5
1151
330
FCB
100
AcDbEntity
  8
1
  6
Continuous
100
AcDbLine
 10
157.250258
 20
228.7755419999998
 30
0.0
 11
157.250258
 21
245.575541
 31
0.0
  0
LINE
  5
1152
330
FCB
100
AcDbEntity
  8
1
  6
Continuous
100
AcDbLine
 10
158.6002579999999
 20
232.200541
 30
0.0
 11
158.6002579999999
 21
242.1505409999999
 31
0.0
  0
LINE
  5
1153
330
FCB
100
AcDbEntity
  8
2
  6
Continuous
100
AcDbLine
 10
145.200258
 20
241.9724149999999
 30
0.0
 11
142.200258
 21
232.3786679999999
 31
0.0
  0
LINE
  5
1154
330
FCB
100
AcDbEntity
  8
2
  6
Continuous
100
AcDbLine
 10
142.200258
 20
241.9724149999999
 30
0.0
 11
145.200258
 21
232.3786679999999
 31
0.0
  0
LINE
  5
1155
330
FCB
100
AcDbEntity
  8
1
  6
Continuous
100
AcDbLine
 10
145.200258
 20
232.3786679999999
 30
0.0
 11
142.200258
 21
232.3786679999999
 31
0.0
  0
LINE
  5
1156
330
FCB
100
AcDbEntity
  8
1
  6
Continuous
100
AcDbLine
 10
142.200258
 20
228.7755419999998
 30
0.0
 11
157.3502579999999
 21
228.7755419999998
 31
0.0
  0
LINE
  5
1157
330
FCB
100
AcDbEntity
  8
1
  6
Continuous
100
AcDbLine
 10
145.200258
 20
241.9724149999999
 30
0.0
 11
142.200258
 21
241.9724149999999
 31
0.0
  0
LINE
  5
1158
330
FCB
100
AcDbEntity
  8
1
  6
Continuous
100
AcDbLine
 10
157.7502579999998
 20
229.1755409999999
 30
0.0
 11
157.3502579999999
 21
228.7755419999998
 31
0.0
  0
ARC
  5
1159
330
FCB
100
AcDbEntity
  8
1
  6
Continuous
100
AcDbCircle
 10
158.175258
 20
232.3005409999999
 30
0.0
 40
0.425
100
AcDbArc
 50
180.0
 51
0.0
  0
LINE
  5
115A
330
FCB
100
AcDbEntity
  8
1
  6
Continuous
100
AcDbLine
 10
145.200258
 20
232.3786679999999
 30
0.0
 11
145.200258
 21
241.9724149999999
 31
0.0
  0
LINE
  5
115B
330
FCB
100
AcDbEntity
  8
1
  6
Continuous
100
AcDbLine
 10
142.200258
 20
245.575541
 30
0.0
 11
157.3502579999999
 21
245.575541
 31
0.0
  0
LINE
  5
115C
330
FCB
100
AcDbEntity
  8
1
  6
Continuous
100
AcDbLine
 10
157.7502579999998
 20
245.175541
 30
0.0
 11
157.3502579999999
 21
245.575541
 31
0.0
  0
ARC
  5
115D
330
FCB
100
AcDbEntity
  8
1
  6
Continuous
100
AcDbCircle
 10
176.711971
 20
239.925541
 30
0.0
 40
13.612437
100
AcDbArc
 50
168.3448249999998
 51
191.655175
  0
LINE
  5
115E
330
FCB
100
AcDbEntity
  8
1
  6
Continuous
100
AcDbLine
 10
159.6002579999999
 20
232.200541
 30
0.0
 11
159.6002579999999
 21
242.1505409999999
 31
0.0
  0
LINE
  5
115F
330
FCB
100
AcDbEntity
  8
1
  6
Continuous
100
AcDbLine
 10
162.1002569999999
 20
243.6755409999999
 30
0.0
 11
162.1002569999999
 21
230.675541
 31
0.0
  0
LINE
  5
1160
330
FCB
100
AcDbEntity
  8
1
  6
Continuous
100
AcDbLine
 10
162.900257
 20
243.6755409999999
 30
0.0
 11
162.900257
 21
230.675541
 31
0.0
  0
ARC
  5
1161
330
FCB
100
AcDbEntity
  8
1
  6
Continuous
100
AcDbCircle
 10
151.815077
 20
239.925541
 30
0.0
 40
13.29279899999999
100
AcDbArc
 50
348.0604879999999
 51
11.93951199999998
  0
LINE
  5
1162
330
FCB
100
AcDbEntity
  8
2
  6
Continuous
100
AcDbLine
 10
165.1002569999999
 20
234.0815409999999
 30
0.0
 11
166.306258
 21
234.0815409999999
 31
0.0
  0
LINE
  5
1163
330
FCB
100
AcDbEntity
  8
2
  6
Continuous
100
AcDbLine
 10
165.1002569999999
 20
240.269541
 30
0.0
 11
166.306258
 21
240.269541
 31
0.0
  0
LINE
  5
1164
330
FCB
100
AcDbEntity
  8
1
  6
Continuous
100
AcDbLine
 10
165.900258
 20
233.675541
 30
0.0
 11
166.400258
 21
234.175541
 31
0.0
  0
LINE
  5
1165
330
FCB
100
AcDbEntity
  8
1
  6
Continuous
100
AcDbLine
 10
165.900258
 20
233.675541
 30
0.0
 11
165.1002569999999
 21
233.675541
 31
0.0
  0
LINE
  5
1166
330
FCB
100
AcDbEntity
  8
1
  6
Continuous
100
AcDbLine
 10
165.900258
 20
240.675541
 30
0.0
 11
165.1002569999999
 21
240.675541
 31
0.0
  0
LINE
  5
1167
330
FCB
100
AcDbEntity
  8
1
  6
Continuous
100
AcDbLine
 10
165.900258
 20
240.675541
 30
0.0
 11
166.400258
 21
240.175541
 31
0.0
  0
LINE
  5
1168
330
FCB
100
AcDbEntity
  8
1
  6
Continuous
100
AcDbLine
 10
166.400258
 20
234.175541
 30
0.0
 11
166.400258
 21
240.175541
 31
0.0
  0
LINE
  5
1169
330
FCB
100
AcDbEntity
  8
1
  6
Continuous
100
AcDbLine
 10
165.900258
 20
240.675541
 30
0.0
 11
165.900258
 21
233.675541
 31
0.0
  0
LINE
  5
116A
330
FCB
100
AcDbEntity
  8
1
  6
Continuous
100
AcDbLine
 10
165.1002569999999
 20
240.375541
 30
0.0
 11
165.1002569999999
 21
233.9755409999999
 31
0.0
  0
LINE
  5
116B
330
FCB
100
AcDbEntity
  8
1
  6
Continuous
100
AcDbLine
 10
163.1002569999999
 20
233.9755409999999
 30
0.0
 11
162.94636
 21
233.9755409999999
 31
0.0
  0
LINE
  5
116C
330
FCB
100
AcDbEntity
  8
1
  6
Continuous
100
AcDbLine
 10
162.1002569999999
 20
230.675541
 30
0.0
 11
162.900257
 21
230.675541
 31
0.0
  0
ARC
  5
116D
330
FCB
100
AcDbEntity
  8
1
  6
Continuous
100
AcDbCircle
 10
163.842405
 20
233.6799109999998
 30
0.0
 40
0.9435539999999999
100
AcDbArc
 50
141.86383
 51
176.871754
  0
ARC
  5
116E
330
FCB
100
AcDbEntity
  8
1
  6
Continuous
100
AcDbCircle
 10
164.1686229999999
 20
231.428696
 30
0.0
 40
2.087164
100
AcDbArc
 50
121.081
 51
127.42326
  0
ARC
  5
116F
330
FCB
100
AcDbEntity
  8
1
  6
Continuous
100
AcDbCircle
 10
163.133589
 20
235.175291
 30
0.0
 40
1.034086999999998
100
AcDbArc
 50
91.84715000000002
 51
103.0405279999999
  0
LINE
  5
1170
330
FCB
100
AcDbEntity
  8
1
  6
Continuous
100
AcDbLine
 10
162.900257
 20
236.4166369999999
 30
0.0
 11
163.1002569999999
 21
236.300876
 31
0.0
  0
LINE
  5
1171
330
FCB
100
AcDbEntity
  8
1
  6
Continuous
100
AcDbLine
 10
162.900257
 20
234.8402049999999
 30
0.0
 11
163.1002569999999
 21
234.746552
 31
0.0
  0
LINE
  5
1172
330
FCB
100
AcDbEntity
  8
1
  6
Continuous
100
AcDbLine
 10
162.900257
 20
234.3789329999999
 30
0.0
 11
163.113505
 21
234.279077
 31
0.0
  0
LINE
  5
1173
330
FCB
100
AcDbEntity
  8
1
  6
Continuous
100
AcDbLine
 10
162.900257
 20
233.250362
 30
0.0
 11
163.0911259999998
 21
233.2162229999999
 31
0.0
  0
LINE
  5
1174
330
FCB
100
AcDbEntity
  8
1
  6
Continuous
100
AcDbLine
 10
161.900257
 20
229.1755299999999
 30
0.0
 11
159.600257
 21
229.1755299999999
 31
0.0
  0
ARC
  5
1175
330
FCB
100
AcDbEntity
  8
1
  6
Continuous
100
AcDbCircle
 10
159.6926899999999
 20
231.899048
 30
0.0
 40
2.415121
100
AcDbArc
 50
4.532834999999998
 51
23.92732699999998
  0
LINE
  5
1176
330
FCB
100
AcDbEntity
  8
1
  6
Continuous
100
AcDbLine
 10
161.900257
 20
233.429224
 30
0.0
 11
162.1002569999999
 21
233.3934509999999
 31
0.0
  0
LINE
  5
1177
330
FCB
100
AcDbEntity
  8
1
  6
Continuous
100
AcDbLine
 10
161.900257
 20
233.8072729999999
 30
0.0
 11
162.1002569999999
 21
233.7715
 31
0.0
  0
LINE
  5
1178
330
FCB
100
AcDbEntity
  8
2
  6
Continuous
100
AcDbLine
 10
162.1002569999999
 20
233.9755409999999
 30
0.0
 11
161.900257
 21
233.9755409999999
 31
0.0
  0
ARC
  5
1179
330
FCB
100
AcDbEntity
  8
1
  6
Continuous
100
AcDbCircle
 10
160.8789199999999
 20
233.965314
 30
0.0
 40
1.236618999999999
100
AcDbArc
 50
9.016916
 51
34.319058
  0
LINE
  5
117A
330
FCB
100
AcDbEntity
  8
1
  6
Continuous
100
AcDbLine
 10
161.900257
 20
234.8471979999999
 30
0.0
 11
162.1002569999999
 21
234.753545
 31
0.0
  0
LINE
  5
117B
330
FCB
100
AcDbEntity
  8
1
  6
Continuous
100
AcDbLine
 10
161.900257
 20
235.30847
 30
0.0
 11
162.1002569999999
 21
235.2148169999999
 31
0.0
  0
LINE
  5
117C
330
FCB
100
AcDbEntity
  8
1
  6
Continuous
100
AcDbLine
 10
161.900257
 20
236.9954449999999
 30
0.0
 11
162.1002569999999
 21
236.8796829999999
 31
0.0
  0
LINE
  5
117D
330
FCB
100
AcDbEntity
  8
1
  6
Continuous
100
AcDbLine
 10
161.900257
 20
234.19479
 30
0.0
 11
159.600257
 21
234.19479
 31
0.0
  0
LINE
  5
117E
330
FCB
100
AcDbEntity
  8
1
  6
Continuous
100
AcDbLine
 10
163.380207
 20
231.675541
 30
0.0
 11
164.820307
 21
231.675541
 31
0.0
  0
ARC
  5
117F
330
FCB
100
AcDbEntity
  8
1
  6
Continuous
100
AcDbCircle
 10
163.832027
 20
232.648907
 30
0.0
 40
0.9331559999999999
100
AcDbArc
 50
137.1808609999999
 51
183.123172
  0
LINE
  5
1180
330
FCB
100
AcDbEntity
  8
1
  6
Continuous
100
AcDbLine
 10
162.900257
 20
233.628411
 30
0.0
 11
163.125315
 21
233.588157
 31
0.0
  0
ARC
  5
1181
330
FCB
100
AcDbEntity
  8
1
  6
Continuous
100
AcDbCircle
 10
161.96721
 20
238.4629180000001
 30
0.0
 40
0.94214
100
AcDbArc
 50
352.033209
 51
7.966806
  0
LINE
  5
1182
330
FCB
100
AcDbEntity
  8
1
  6
Continuous
100
AcDbLine
 10
162.900257
 20
240.5795819999999
 30
0.0
 11
163.1002569999999
 21
240.54381
 31
0.0
  0
LINE
  5
1183
330
FCB
100
AcDbEntity
  8
1
  6
Continuous
100
AcDbLine
 10
162.900257
 20
240.1944089999998
 30
0.0
 11
163.1002569999999
 21
240.1586369999999
 31
0.0
  0
LINE
  5
1184
330
FCB
100
AcDbEntity
  8
1
  6
Continuous
100
AcDbLine
 10
162.900257
 20
239.2240339999999
 30
0.0
 11
163.1002569999999
 21
239.130381
 31
0.0
  0
LINE
  5
1185
330
FCB
100
AcDbEntity
  8
1
  6
Continuous
100
AcDbLine
 10
162.900257
 20
238.593498
 30
0.0
 11
163.10437
 21
238.497919
 31
0.0
  0
LINE
  5
1186
330
FCB
100
AcDbEntity
  8
1
  6
Continuous
100
AcDbLine
 10
162.900257
 20
237.340981
 30
0.0
 11
163.1002569999999
 21
237.22522
 31
0.0
  0
ARC
  5
1187
330
FCB
100
AcDbEntity
  8
1
  6
Continuous
100
AcDbCircle
 10
163.679349
 20
241.4764149999998
 30
0.0
 40
1.019995999999999
100
AcDbArc
 50
220.197989
 51
235.407257
  0
LINE
  5
1188
330
FCB
100
AcDbEntity
  8
1
  6
Continuous
100
AcDbLine
 10
163.1002569999999
 20
240.675541
 30
0.0
 11
163.0476909999998
 21
240.675541
 31
0.0
  0
LINE
  5
1189
330
FCB
100
AcDbEntity
  8
1
  6
Continuous
100
AcDbLine
 10
161.8991129999998
 20
239.692835
 30
0.0
 11
162.1002569999999
 21
239.598646
 31
0.0
  0
LINE
  5
118A
330
FCB
100
AcDbEntity
  8
1
  6
Continuous
100
AcDbLine
 10
161.978935
 20
237.874249
 30
0.0
 11
162.1002569999999
 21
237.804027
 31
0.0
  0
ARC
  5
118B
330
FCB
100
AcDbEntity
  8
1
  6
Continuous
100
AcDbCircle
 10
161.03451
 20
242.668519
 30
0.0
 40
3.098745999999998
100
AcDbArc
 50
286.2015339999999
 51
290.116391
  0
ARC
  5
118C
330
FCB
100
AcDbEntity
  8
1
  6
Continuous
100
AcDbCircle
 10
157.813059
 20
239.017954
 30
0.0
 40
4.287487999999997
100
AcDbArc
 50
342.872365
 51
0.0
  0
LINE
  5
118D
330
FCB
100
AcDbEntity
  8
1
  6
Continuous
100
AcDbLine
 10
161.900257
 20
237.737674
 30
0.0
 11
161.978935
 21
237.874249
 31
0.0
  0
ARC
  5
118E
330
FCB
100
AcDbEntity
  8
1
  6
Continuous
100
AcDbCircle
 10
158.0609589999999
 20
241.836024
 30
0.0
 40
4.308307
100
AcDbArc
 50
333.016654
 51
339.645818
  0
LINE
  5
118F
330
FCB
100
AcDbEntity
  8
1
  6
Continuous
100
AcDbLine
 10
161.900257
 20
239.0617629999999
 30
0.0
 11
162.1002569999999
 21
238.96811
 31
0.0
  0
ARC
  5
1190
330
FCB
100
AcDbEntity
  8
1
  6
Continuous
100
AcDbCircle
 10
161.063412
 20
242.6143589999998
 30
0.0
 40
1.837066999999997
100
AcDbArc
 50
297.099246
 51
304.360818
  0
LINE
  5
1191
330
FCB
100
AcDbEntity
  8
1
  6
Continuous
100
AcDbLine
 10
161.900257
 20
240.7584439999999
 30
0.0
 11
162.1002569999999
 21
240.7226709999999
 31
0.0
  0
LINE
  5
1192
330
FCB
100
AcDbEntity
  8
1
  6
Continuous
100
AcDbLine
 10
161.900257
 20
240.3732709999999
 30
0.0
 11
162.1002569999999
 21
240.337498
 31
0.0
  0
LINE
  5
1193
330
FCB
100
AcDbEntity
  8
2
  6
Continuous
100
AcDbLine
 10
162.1002569999999
 20
240.375541
 30
0.0
 11
161.900257
 21
240.375541
 31
0.0
  0
LINE
  5
1194
330
FCB
100
AcDbEntity
  8
1
  6
Continuous
100
AcDbLine
 10
163.380207
 20
237.175541
 30
0.0
 11
164.820307
 21
237.175541
 31
0.0
  0
LINE
  5
1195
330
FCB
100
AcDbEntity
  8
1
  6
Continuous
100
AcDbLine
 10
163.1002569999999
 20
240.0658019999999
 30
0.0
 11
163.1002569999999
 21
234.285281
 31
0.0
  0
ARC
  5
1196
330
FCB
100
AcDbEntity
  8
1
  6
Continuous
100
AcDbCircle
 10
176.711971
 20
234.425541
 30
0.0
 40
13.612437
100
AcDbArc
 50
168.3448249999998
 51
191.655175
  0
ARC
  5
1197
330
FCB
100
AcDbEntity
  8
1
  6
Continuous
100
AcDbCircle
 10
151.815077
 20
234.425541
 30
0.0
 40
13.29279899999999
100
AcDbArc
 50
348.0604879999999
 51
11.93951199999998
  0
LINE
  5
1198
330
FCB
100
AcDbEntity
  8
1
  6
Continuous
100
AcDbLine
 10
162.1002569999999
 20
243.6755409999999
 30
0.0
 11
162.900257
 21
243.6755409999999
 31
0.0
  0
LINE
  5
1199
330
FCB
100
AcDbEntity
  8
1
  6
Continuous
100
AcDbLine
 10
163.380207
 20
242.675541
 30
0.0
 11
164.820307
 21
242.675541
 31
0.0
  0
ARC
  5
119A
330
FCB
100
AcDbEntity
  8
1
  6
Continuous
100
AcDbCircle
 10
183.869982
 20
242.6690209999999
 30
0.0
 40
21.464576
100
AcDbArc
 50
345.153156
 51
14.846844
  0
LINE
  5
119B
330
FCB
100
AcDbEntity
  8
1
  6
Continuous
100
AcDbLine
 10
205.334559
 20
231.6690209999999
 30
0.0
 11
205.334559
 21
242.6690209999999
 31
0.0
  0
LINE
  5
119C
330
FCB
100
AcDbEntity
  8
1
  6
Continuous
100
AcDbLine
 10
201.834559
 20
226.1690209999999
 30
0.0
 11
201.834559
 21
248.169021
 31
0.0
  0
LINE
  5
119D
330
FCB
100
AcDbEntity
  8
4
  6
CENTER
100
AcDbLine
 10
196.834559
 20
237.169021
 30
0.0
 11
210.3345589999999
 21
237.169021
 31
0.0
  0
LINE
  5
119E
330
FCB
100
AcDbEntity
  8
1
  6
Continuous
100
AcDbLine
 10
204.6179469999999
 20
226.1690209999999
 30
0.0
 11
201.834559
 21
226.1690209999999
 31
0.0
  0
LINE
  5
119F
330
FCB
100
AcDbEntity
  8
1
  6
Continuous
100
AcDbLine
 10
204.6179469999999
 20
237.169021
 30
0.0
 11
201.834559
 21
237.169021
 31
0.0
  0
ARC
  5
11A0
330
FCB
100
AcDbEntity
  8
1
  6
Continuous
100
AcDbCircle
 10
183.869982
 20
231.6690209999999
 30
0.0
 40
21.464576
100
AcDbArc
 50
345.153156
 51
14.846844
  0
LINE
  5
11A1
330
FCB
100
AcDbEntity
  8
1
  6
Continuous
100
AcDbLine
 10
204.6179469999999
 20
248.169021
 30
0.0
 11
201.834559
 21
248.169021
 31
0.0
  0
LINE
  5
11A2
330
FCB
100
AcDbEntity
  8
1
  6
Continuous
100
AcDbLine
 10
161.900257
 20
271.6755299999999
 30
0.0
 11
159.600257
 21
271.6755299999999
 31
0.0
  0
LINE
  5
11A3
330
FCB
100
AcDbEntity
  8
1
  6
Continuous
100
AcDbLine
 10
161.900257
 20
266.656271
 30
0.0
 11
159.600257
 21
266.656271
 31
0.0
  0
LINE
  5
11A4
330
FCB
100
AcDbEntity
  8
5
  6
PHANTOM
100
AcDbLine
 10
294.2559079999999
 20
186.656241
 30
0.0
 11
294.2559079999999
 21
154.194759
 31
0.0
  0
LINE
  5
11A5
330
FCB
100
AcDbEntity
  8
5
  6
PHANTOM
100
AcDbLine
 10
275.2559079999999
 20
186.656241
 30
0.0
 11
275.2559079999999
 21
154.194759
 31
0.0
  0
LINE
  5
11A6
330
FCB
100
AcDbEntity
  8
4
  6
CENTER
100
AcDbLine
 10
284.7559079999999
 20
139.4255
 30
0.0
 11
284.7559079999999
 21
196.6755
 31
0.0
  0
LINE
  5
11A7
330
FCB
100
AcDbEntity
  8
1
  6
Continuous
100
AcDbLine
 10
314.236649
 20
166.6755
 30
0.0
 11
281.775167
 21
166.6755
 31
0.0
  0
LINE
  5
11A8
330
FCB
100
AcDbEntity
  8
1
  6
Continuous
100
AcDbLine
 10
314.236649
 20
147.6754999999998
 30
0.0
 11
281.775167
 21
147.6754999999998
 31
0.0
  0
LINE
  5
11A9
330
FCB
100
AcDbEntity
  8
4
  6
CENTER
100
AcDbLine
 10
324.2559079999999
 20
157.1755
 30
0.0
 11
263.5559079999998
 21
157.1755
 31
0.0
  0
LINE
  5
11AA
330
FCB
100
AcDbEntity
  8
1
  6
Continuous
100
AcDbLine
 10
273.755908
 20
163.526352
 30
0.0
 11
284.7559079999999
 21
169.877205
 31
0.0
  0
CIRCLE
  5
11AB
330
FCB
100
AcDbEntity
  8
1
  6
Continuous
100
AcDbCircle
 10
284.7559079999999
 20
157.1755
 30
0.0
 40
3.5
  0
CIRCLE
  5
11AC
330
FCB
100
AcDbEntity
  8
2
  6
Continuous
100
AcDbCircle
 10
284.7559079999999
 20
157.1755
 30
0.0
 40
3.125
  0
LINE
  5
11AD
330
FCB
100
AcDbEntity
  8
1
  6
Continuous
100
AcDbLine
 10
284.7559079999999
 20
150.824647
 30
0.0
 11
279.2559079999999
 21
154.0000729999999
 31
0.0
  0
CIRCLE
  5
11AE
330
FCB
100
AcDbEntity
  8
1
  6
Continuous
100
AcDbCircle
 10
284.7559079999999
 20
157.1755
 30
0.0
 40
5.5
  0
LINE
  5
11AF
330
FCB
100
AcDbEntity
  8
1
  6
Continuous
100
AcDbLine
 10
273.755908
 20
150.824647
 30
0.0
 11
284.7559079999999
 21
144.4737939999999
 31
0.0
  0
LINE
  5
11B0
330
FCB
100
AcDbEntity
  8
1
  6
Continuous
100
AcDbLine
 10
279.2559079999999
 20
160.3509259999999
 30
0.0
 11
284.7559079999999
 21
163.526352
 31
0.0
  0
CIRCLE
  5
11B1
330
FCB
100
AcDbEntity
  8
1
  6
Continuous
100
AcDbCircle
 10
284.7559079999999
 20
157.1755
 30
0.0
 40
6.5
  0
ARC
  5
11B2
330
FCB
100
AcDbEntity
  8
1
  6
Continuous
100
AcDbCircle
 10
284.7559079999999
 20
157.1755
 30
0.0
 40
11.0
100
AcDbArc
 50
59.72735899999999
 51
300.272641
  0
ARC
  5
11B3
330
FCB
100
AcDbEntity
  8
5
  6
PHANTOM
100
AcDbCircle
 10
284.7559079999999
 20
160.6754999999998
 30
0.0
 40
11.5
100
AcDbArc
 50
214.3011529999999
 51
325.698847
  0
LINE
  5
11B4
330
FCB
100
AcDbEntity
  8
1
  6
Continuous
100
AcDbLine
 10
279.2559079999999
 20
154.0000729999999
 30
0.0
 11
279.2559079999999
 21
160.3509259999999
 31
0.0
  0
LINE
  5
11B5
330
FCB
100
AcDbEntity
  8
1
  6
Continuous
100
AcDbLine
 10
276.3559079999998
 20
152.738158
 30
0.0
 11
276.3559079999998
 21
161.6128409999998
 31
0.0
  0
LINE
  5
11B6
330
FCB
100
AcDbEntity
  8
1
  6
Continuous
100
AcDbLine
 10
273.755908
 20
163.526352
 30
0.0
 11
273.755908
 21
150.824647
 31
0.0
  0
ARC
  5
11B7
330
FCB
100
AcDbEntity
  8
1
  6
Continuous
100
AcDbCircle
 10
288.2559079999999
 20
157.1755
 30
0.0
 40
11.5
100
AcDbArc
 50
124.301153
 51
235.6988470000001
  0
ARC
  5
11B8
330
FCB
100
AcDbEntity
  8
2
  6
Continuous
100
AcDbCircle
 10
284.7559079999999
 20
157.1755
 30
0.0
 40
9.099999999999999
100
AcDbArc
 50
202.6198649999999
 51
234.27959
  0
ARC
  5
11B9
330
FCB
100
AcDbEntity
  8
1
  6
Continuous
100
AcDbCircle
 10
284.7559079999999
 20
157.1755
 30
0.0
 40
9.5
100
AcDbArc
 50
207.8454759999999
 51
243.42503
  0
ARC
  5
11BA
330
FCB
100
AcDbEntity
  8
1
  6
Continuous
100
AcDbCircle
 10
284.7559079999999
 20
157.1755
 30
0.0
 40
9.5
100
AcDbArc
 50
116.5749699999998
 51
152.154524
  0
ARC
  5
11BB
330
FCB
100
AcDbEntity
  8
2
  6
Continuous
100
AcDbCircle
 10
284.7559079999999
 20
157.1755
 30
0.0
 40
9.099999999999999
100
AcDbArc
 50
125.72041
 51
157.380135
  0
LINE
  5
11BC
330
FCB
100
AcDbEntity
  8
1
  6
Continuous
100
AcDbLine
 10
290.2559079999999
 20
160.3509259999999
 30
0.0
 11
290.2559079999999
 21
154.0000729999999
 31
0.0
  0
LINE
  5
11BD
330
FCB
100
AcDbEntity
  8
1
  6
Continuous
100
AcDbLine
 10
290.2559079999999
 20
154.0000729999999
 30
0.0
 11
284.7559079999999
 21
150.824647
 31
0.0
  0
LINE
  5
11BE
330
FCB
100
AcDbEntity
  8
1
  6
Continuous
100
AcDbLine
 10
290.301425
 20
147.6754999999998
 30
0.0
 11
284.7559079999999
 21
144.4737939999999
 31
0.0
  0
LINE
  5
11BF
330
FCB
100
AcDbEntity
  8
1
  6
Continuous
100
AcDbLine
 10
290.301425
 20
166.6755
 30
0.0
 11
284.7559079999999
 21
169.877205
 31
0.0
  0
CIRCLE
  5
11C0
330
FCB
100
AcDbEntity
  8
1
  6
Continuous
100
AcDbCircle
 10
284.7559079999999
 20
157.1755
 30
0.0
 40
2.5
  0
LINE
  5
11C1
330
FCB
100
AcDbEntity
  8
1
  6
Continuous
100
AcDbLine
 10
284.7559079999999
 20
163.526352
 30
0.0
 11
290.2559079999999
 21
160.3509259999999
 31
0.0
  0
ARC
  5
11C2
330
FCB
100
AcDbEntity
  8
1
  6
Continuous
100
AcDbCircle
 10
307.7559079999999
 20
157.175499
 30
0.0
 40
11.5
100
AcDbArc
 50
304.301153
 51
55.69884700000001
  0
LINE
  5
11C3
330
FCB
100
AcDbEntity
  8
1
  6
Continuous
100
AcDbLine
 10
447.8115589999998
 20
166.6754909999999
 30
0.0
 11
439.0115589999998
 21
166.6754919999999
 31
0.0
  0
LINE
  5
11C4
330
FCB
100
AcDbEntity
  8
2
  6
Continuous
100
AcDbLine
 10
447.8115589999998
 20
166.1339909999998
 30
0.0
 11
438.470059
 21
166.133992
 31
0.0
  0
LINE
  5
11C5
330
FCB
100
AcDbEntity
  8
1
  6
Continuous
100
AcDbLine
 10
451.311558
 20
161.612832
 30
0.0
 11
439.0115579999998
 21
161.612833
 31
0.0
  0
LINE
  5
11C6
330
FCB
100
AcDbEntity
  8
1
  6
Continuous
100
AcDbLine
 10
438.947659
 20
147.7393909999999
 30
0.0
 11
447.8115579999998
 21
147.7393899999998
 31
0.0
  0
LINE
  5
11C7
330
FCB
100
AcDbEntity
  8
2
  6
Continuous
100
AcDbLine
 10
447.8115579999998
 20
148.2169909999998
 30
0.0
 11
438.4700579999998
 21
148.216992
 31
0.0
  0
LINE
  5
11C8
330
FCB
100
AcDbEntity
  8
1
  6
Continuous
100
AcDbLine
 10
451.311558
 20
152.7381489999999
 30
0.0
 11
439.0115579999998
 21
152.7381499999999
 31
0.0
  0
LINE
  5
11C9
330
FCB
100
AcDbEntity
  8
2
  6
Continuous
100
AcDbLine
 10
439.0115579999998
 20
161.612833
 30
0.0
 11
451.311558
 21
152.7381489999999
 31
0.0
  0
LINE
  5
11CA
330
FCB
100
AcDbEntity
  8
2
  6
Continuous
100
AcDbLine
 10
451.311558
 20
161.612832
 30
0.0
 11
439.0115579999998
 21
152.7381499999999
 31
0.0
  0
LINE
  5
11CB
330
FCB
100
AcDbEntity
  8
4
  6
CENTER
100
AcDbLine
 10
458.793696
 20
157.1754899999999
 30
0.0
 11
422.111558
 21
157.1754929999999
 31
0.0
  0
LINE
  5
11CC
330
FCB
100
AcDbEntity
  8
1
  6
Continuous
100
AcDbLine
 10
387.4772709999999
 20
166.7577039999999
 30
0.0
 11
387.4772709999999
 21
147.7051449999999
 31
0.0
  0
LINE
  5
11CD
330
FCB
100
AcDbEntity
  8
1
  6
Continuous
100
AcDbLine
 10
390.977271
 20
169.93313
 30
0.0
 11
390.977271
 21
144.5297189999998
 31
0.0
  0
ARC
  5
11CE
330
FCB
100
AcDbEntity
  8
1
  6
Continuous
100
AcDbCircle
 10
415.9772709999998
 20
157.2314249999998
 30
0.0
 40
28.5
100
AcDbArc
 50
167.1242849999999
 51
192.8757149999999
  0
ARC
  5
11CF
330
FCB
100
AcDbEntity
  8
1
  6
Continuous
100
AcDbCircle
 10
394.8709999999999
 20
147.7051449999999
 30
0.0
 40
7.393728999999997
100
AcDbArc
 50
154.5657139999998
 51
205.4342859999999
  0
LINE
  5
11D0
330
FCB
100
AcDbEntity
  8
1
  6
Continuous
100
AcDbLine
 10
390.977271
 20
144.5297189999998
 30
0.0
 11
388.193883
 21
144.5297189999998
 31
0.0
  0
LINE
  5
11D1
330
FCB
100
AcDbEntity
  8
1
  6
Continuous
100
AcDbLine
 10
390.977271
 20
150.8805719999998
 30
0.0
 11
388.193883
 21
150.8805719999998
 31
0.0
  0
LINE
  5
11D2
330
FCB
100
AcDbEntity
  8
4
  6
CENTER
100
AcDbLine
 10
395.9772709999999
 20
157.2314249999998
 30
0.0
 11
382.4772709999999
 21
157.2314249999998
 31
0.0
  0
ARC
  5
11D3
330
FCB
100
AcDbEntity
  8
1
  6
Continuous
100
AcDbCircle
 10
394.8709999999999
 20
166.7577039999999
 30
0.0
 40
7.393728999999997
100
AcDbArc
 50
154.5657139999998
 51
205.4342859999999
  0
LINE
  5
11D4
330
FCB
100
AcDbEntity
  8
1
  6
Continuous
100
AcDbLine
 10
390.977271
 20
169.93313
 30
0.0
 11
388.193883
 21
169.93313
 31
0.0
  0
LINE
  5
11D5
330
FCB
100
AcDbEntity
  8
1
  6
Continuous
100
AcDbLine
 10
390.977271
 20
163.582277
 30
0.0
 11
388.193883
 21
163.582277
 31
0.0
  0
LINE
  5
11D6
330
FCB
100
AcDbEntity
  8
1
  6
Continuous
100
AcDbLine
 10
427.6115579999998
 20
160.675492
 30
0.0
 11
427.6115579999998
 21
153.6754919999999
 31
0.0
  0
LINE
  5
11D7
330
FCB
100
AcDbEntity
  8
1
  6
Continuous
100
AcDbLine
 10
427.111558
 20
154.1754919999999
 30
0.0
 11
427.6115579999998
 21
153.6754919999999
 31
0.0
  0
LINE
  5
11D8
330
FCB
100
AcDbEntity
  8
1
  6
Continuous
100
AcDbLine
 10
431.6115589999998
 20
147.6754919999999
 30
0.0
 11
431.6115599999998
 21
166.6754919999999
 31
0.0
  0
LINE
  5
11D9
330
FCB
100
AcDbEntity
  8
1
  6
Continuous
100
AcDbLine
 10
431.411559
 20
150.6754919999998
 30
0.0
 11
431.41156
 21
163.675492
 31
0.0
  0
LINE
  5
11DA
330
FCB
100
AcDbEntity
  8
1
  6
Continuous
100
AcDbLine
 10
430.611559
 20
150.6754919999998
 30
0.0
 11
430.6115599999998
 21
163.675492
 31
0.0
  0
LINE
  5
11DB
330
FCB
100
AcDbEntity
  8
1
  6
Continuous
100
AcDbLine
 10
431.6115589999998
 20
153.977762
 30
0.0
 11
431.411559
 21
154.0135349999999
 31
0.0
  0
LINE
  5
11DC
330
FCB
100
AcDbEntity
  8
1
  6
Continuous
100
AcDbLine
 10
428.4115589999998
 20
152.412779
 30
0.0
 11
428.4115589999998
 21
161.938204
 31
0.0
  0
LINE
  5
11DD
330
FCB
100
AcDbEntity
  8
1
  6
Continuous
100
AcDbLine
 10
430.411559
 20
152.412779
 30
0.0
 11
430.411559
 21
161.938204
 31
0.0
  0
ARC
  5
11DE
330
FCB
100
AcDbEntity
  8
1
  6
Continuous
100
AcDbCircle
 10
412.2624319999998
 20
157.1754929999999
 30
0.0
 40
18.149127
100
AcDbArc
 50
349.923494
 51
10.07649999999999
  0
ARC
  5
11DF
330
FCB
100
AcDbEntity
  8
1
  6
Continuous
100
AcDbCircle
 10
446.5606849999998
 20
157.1754909999999
 30
0.0
 40
18.149127
100
AcDbArc
 50
169.923494
 51
190.0765
  0
LINE
  5
11E0
330
FCB
100
AcDbEntity
  8
1
  6
Continuous
100
AcDbLine
 10
433.911559
 20
147.6754919999999
 30
0.0
 11
433.9115599999998
 21
166.6754919999999
 31
0.0
  0
LINE
  5
11E1
330
FCB
100
AcDbEntity
  8
1
  6
Continuous
100
AcDbLine
 10
435.7615589999999
 20
165.1754919999999
 30
0.0
 11
435.761558
 21
149.1754919999999
 31
0.0
  0
LINE
  5
11E2
330
FCB
100
AcDbEntity
  8
1
  6
Continuous
100
AcDbLine
 10
436.2615589999998
 20
165.675492
 30
0.0
 11
436.2615579999999
 21
148.6754919999999
 31
0.0
  0
LINE
  5
11E3
330
FCB
100
AcDbEntity
  8
1
  6
Continuous
100
AcDbLine
 10
438.011558
 20
155.8754919999998
 30
0.0
 11
438.011558
 21
148.6754919999999
 31
0.0
  0
LINE
  5
11E4
330
FCB
100
AcDbEntity
  8
1
  6
Continuous
100
AcDbLine
 10
434.911558
 20
162.1504919999999
 30
0.0
 11
434.911558
 21
152.200492
 31
0.0
  0
LINE
  5
11E5
330
FCB
100
AcDbEntity
  8
1
  6
Continuous
100
AcDbLine
 10
431.411559
 20
150.6754919999998
 30
0.0
 11
430.611559
 21
150.6754919999998
 31
0.0
  0
LINE
  5
11E6
330
FCB
100
AcDbEntity
  8
1
  6
Continuous
100
AcDbLine
 10
431.6115589999998
 20
153.592589
 30
0.0
 11
431.411559
 21
153.628362
 31
0.0
  0
ARC
  5
11E7
330
FCB
100
AcDbEntity
  8
1
  6
Continuous
100
AcDbCircle
 10
432.4484039999998
 20
151.7366739999999
 30
0.0
 40
1.837066999999997
100
AcDbArc
 50
117.0992429999998
 51
124.3608149999999
  0
LINE
  5
11E8
330
FCB
100
AcDbEntity
  8
1
  6
Continuous
100
AcDbLine
 10
430.611559
 20
153.771451
 30
0.0
 11
430.411559
 21
153.807223
 31
0.0
  0
ARC
  5
11E9
330
FCB
100
AcDbEntity
  8
1
  6
Continuous
100
AcDbCircle
 10
429.832467
 20
152.8746179999999
 30
0.0
 40
1.019995999999999
100
AcDbArc
 50
40.197986
 51
55.40725400000001
  0
LINE
  5
11EA
330
FCB
100
AcDbEntity
  8
1
  6
Continuous
100
AcDbLine
 10
430.1316089999998
 20
150.8254919999999
 30
0.0
 11
428.6915089999998
 21
150.8254919999999
 31
0.0
  0
LINE
  5
11EB
330
FCB
100
AcDbEntity
  8
1
  6
Continuous
100
AcDbLine
 10
430.1316089999998
 20
154.0000669999998
 30
0.0
 11
428.6915089999998
 21
154.0000669999998
 31
0.0
  0
ARC
  5
11EC
330
FCB
100
AcDbEntity
  8
1
  6
Continuous
100
AcDbCircle
 10
425.7717059999998
 20
152.412779
 30
0.0
 40
4.639852999999998
100
AcDbArc
 50
339.9952089999998
 51
20.00478499999999
  0
ARC
  5
11ED
330
FCB
100
AcDbEntity
  8
1
  6
Continuous
100
AcDbCircle
 10
433.051411
 20
152.412779
 30
0.0
 40
4.639852999999998
100
AcDbArc
 50
159.9952089999999
 51
200.004785
  0
LINE
  5
11EE
330
FCB
100
AcDbEntity
  8
1
  6
Continuous
100
AcDbLine
 10
430.411559
 20
153.6754919999999
 30
0.0
 11
430.464125
 21
153.6754919999999
 31
0.0
  0
LINE
  5
11EF
330
FCB
100
AcDbEntity
  8
1
  6
Continuous
100
AcDbLine
 10
427.6115579999998
 20
153.6754919999999
 30
0.0
 11
428.4115589999998
 21
153.6754919999999
 31
0.0
  0
LINE
  5
11F0
330
FCB
100
AcDbEntity
  8
1
  6
Continuous
100
AcDbLine
 10
433.911559
 20
147.6754919999999
 30
0.0
 11
431.6115589999998
 21
147.6754919999999
 31
0.0
  0
LINE
  5
11F1
330
FCB
100
AcDbEntity
  8
1
  6
Continuous
100
AcDbLine
 10
438.011558
 20
148.6754919999999
 30
0.0
 11
436.2615579999999
 21
148.6754919999999
 31
0.0
  0
LINE
  5
11F2
330
FCB
100
AcDbEntity
  8
1
  6
Continuous
100
AcDbLine
 10
438.011558
 20
148.6754919999999
 30
0.0
 11
438.947659
 21
147.7393909999999
 31
0.0
  0
LINE
  5
11F3
330
FCB
100
AcDbEntity
  8
1
  6
Continuous
100
AcDbLine
 10
435.761558
 20
149.1754919999999
 30
0.0
 11
436.2615579999999
 21
148.6754919999999
 31
0.0
  0
LINE
  5
11F4
330
FCB
100
AcDbEntity
  8
1
  6
Continuous
100
AcDbLine
 10
438.011558
 20
153.7381499999999
 30
0.0
 11
439.0115579999998
 21
152.7381499999999
 31
0.0
  0
LINE
  5
11F5
330
FCB
100
AcDbEntity
  8
1
  6
Continuous
100
AcDbLine
 10
439.0115579999998
 20
152.7381499999999
 30
0.0
 11
439.0115579999998
 21
147.7393909999999
 31
0.0
  0
ARC
  5
11F6
330
FCB
100
AcDbEntity
  8
1
  6
Continuous
100
AcDbCircle
 10
435.329862
 20
152.307188
 30
0.0
 40
0.4316970000000003
100
AcDbArc
 50
165.6906919999999
 51
359.999997
  0
LINE
  5
11F7
330
FCB
100
AcDbEntity
  8
1
  6
Continuous
100
AcDbLine
 10
433.911558
 20
152.200492
 30
0.0
 11
434.911558
 21
152.200492
 31
0.0
  0
LINE
  5
11F8
330
FCB
100
AcDbEntity
  8
1
  6
Continuous
100
AcDbLine
 10
427.111558
 20
160.1754919999999
 30
0.0
 11
427.111558
 21
154.1754919999999
 31
0.0
  0
LINE
  5
11F9
330
FCB
100
AcDbEntity
  8
1
  6
Continuous
100
AcDbLine
 10
427.6115579999998
 20
160.675492
 30
0.0
 11
427.111558
 21
160.1754919999999
 31
0.0
  0
LINE
  5
11FA
330
FCB
100
AcDbEntity
  8
1
  6
Continuous
100
AcDbLine
 10
431.41156
 20
163.675492
 30
0.0
 11
430.6115599999998
 21
163.675492
 31
0.0
  0
LINE
  5
11FB
330
FCB
100
AcDbEntity
  8
1
  6
Continuous
100
AcDbLine
 10
431.612703
 20
154.658198
 30
0.0
 11
431.411559
 21
154.752387
 31
0.0
  0
LINE
  5
11FC
330
FCB
100
AcDbEntity
  8
1
  6
Continuous
100
AcDbLine
 10
431.5328809999998
 20
156.476784
 30
0.0
 11
431.411559
 21
156.547006
 31
0.0
  0
LINE
  5
11FD
330
FCB
100
AcDbEntity
  8
1
  6
Continuous
100
AcDbLine
 10
431.6115589999998
 20
159.042563
 30
0.0
 11
431.411559
 21
159.1362159999999
 31
0.0
  0
LINE
  5
11FE
330
FCB
100
AcDbEntity
  8
1
  6
Continuous
100
AcDbLine
 10
431.6115589999998
 20
160.5437599999999
 30
0.0
 11
431.411559
 21
160.579533
 31
0.0
  0
LINE
  5
11FF
330
FCB
100
AcDbEntity
  8
1
  6
Continuous
100
AcDbLine
 10
431.6115589999998
 20
155.289269
 30
0.0
 11
431.411559
 21
155.382923
 31
0.0
  0
LINE
  5
1200
330
FCB
100
AcDbEntity
  8
1
  6
Continuous
100
AcDbLine
 10
431.6115589999998
 20
157.3555879999998
 30
0.0
 11
431.411559
 21
157.47135
 31
0.0
  0
LINE
  5
1201
330
FCB
100
AcDbEntity
  8
1
  6
Continuous
100
AcDbLine
 10
431.6115589999998
 20
159.503835
 30
0.0
 11
431.411559
 21
159.5974879999999
 31
0.0
  0
LINE
  5
1202
330
FCB
100
AcDbEntity
  8
1
  6
Continuous
100
AcDbLine
 10
431.6115589999998
 20
160.9218089999999
 30
0.0
 11
431.411559
 21
160.957582
 31
0.0
  0
ARC
  5
1203
330
FCB
100
AcDbEntity
  8
1
  6
Continuous
100
AcDbCircle
 10
432.4773059999998
 20
151.6825139999999
 30
0.0
 40
3.098745999999998
100
AcDbArc
 50
106.201531
 51
110.1163879999998
  0
LINE
  5
1204
330
FCB
100
AcDbEntity
  8
1
  6
Continuous
100
AcDbLine
 10
431.6115589999998
 20
156.6133589999998
 30
0.0
 11
431.5328809999998
 21
156.476784
 31
0.0
  0
ARC
  5
1205
330
FCB
100
AcDbEntity
  8
1
  6
Continuous
100
AcDbCircle
 10
431.5446059999998
 20
155.8881149999999
 30
0.0
 40
0.94214
100
AcDbArc
 50
172.033206
 51
187.9668029999999
  0
ARC
  5
1206
330
FCB
100
AcDbEntity
  8
1
  6
Continuous
100
AcDbCircle
 10
435.698757
 20
155.3330789999999
 30
0.0
 40
4.287487999999997
100
AcDbArc
 50
162.872362
 51
179.999997
  0
ARC
  5
1207
330
FCB
100
AcDbEntity
  8
1
  6
Continuous
100
AcDbCircle
 10
432.632896
 20
160.385719
 30
0.0
 40
1.236618999999999
100
AcDbArc
 50
189.016913
 51
214.3190549999999
  0
ARC
  5
1208
330
FCB
100
AcDbEntity
  8
1
  6
Continuous
100
AcDbCircle
 10
429.669411
 20
160.671122
 30
0.0
 40
0.9435539999999999
100
AcDbArc
 50
321.863827
 51
356.8717509999999
  0
ARC
  5
1209
330
FCB
100
AcDbEntity
  8
1
  6
Continuous
100
AcDbCircle
 10
429.6797889999998
 20
161.702126
 30
0.0
 40
0.9331559999999999
100
AcDbArc
 50
321.645663
 51
3.123168999999998
  0
ARC
  5
120A
330
FCB
100
AcDbEntity
  8
1
  6
Continuous
100
AcDbCircle
 10
429.3431929999998
 20
162.922337
 30
0.0
 40
2.087164
100
AcDbArc
 50
301.080997
 51
307.4232569999999
  0
ARC
  5
120B
330
FCB
100
AcDbEntity
  8
1
  6
Continuous
100
AcDbCircle
 10
433.819126
 20
162.451985
 30
0.0
 40
2.415121
100
AcDbArc
 50
184.532832
 51
203.9273239999999
  0
ARC
  5
120C
330
FCB
100
AcDbEntity
  8
1
  6
Continuous
100
AcDbCircle
 10
430.378227
 20
159.1757419999999
 30
0.0
 40
1.034086999999998
100
AcDbArc
 50
271.847147
 51
283.040525
  0
LINE
  5
120D
330
FCB
100
AcDbEntity
  8
1
  6
Continuous
100
AcDbLine
 10
430.611559
 20
154.1566239999999
 30
0.0
 11
430.411559
 21
154.192396
 31
0.0
  0
LINE
  5
120E
330
FCB
100
AcDbEntity
  8
1
  6
Continuous
100
AcDbLine
 10
430.611559
 20
155.126999
 30
0.0
 11
430.411559
 21
155.220652
 31
0.0
  0
LINE
  5
120F
330
FCB
100
AcDbEntity
  8
1
  6
Continuous
100
AcDbLine
 10
430.611559
 20
155.757535
 30
0.0
 11
430.4074459999998
 21
155.8531139999998
 31
0.0
  0
LINE
  5
1210
330
FCB
100
AcDbEntity
  8
1
  6
Continuous
100
AcDbLine
 10
430.611559
 20
157.0100519999998
 30
0.0
 11
430.411559
 21
157.1258129999999
 31
0.0
  0
LINE
  5
1211
330
FCB
100
AcDbEntity
  8
1
  6
Continuous
100
AcDbLine
 10
430.611559
 20
157.9343959999999
 30
0.0
 11
430.411559
 21
158.050157
 31
0.0
  0
LINE
  5
1212
330
FCB
100
AcDbEntity
  8
1
  6
Continuous
100
AcDbLine
 10
430.611559
 20
159.510828
 30
0.0
 11
430.411559
 21
159.6044809999999
 31
0.0
  0
LINE
  5
1213
330
FCB
100
AcDbEntity
  8
1
  6
Continuous
100
AcDbLine
 10
430.611559
 20
159.9721
 30
0.0
 11
430.3983109999999
 21
160.0719559999998
 31
0.0
  0
LINE
  5
1214
330
FCB
100
AcDbEntity
  8
1
  6
Continuous
100
AcDbLine
 10
430.611559
 20
160.722622
 30
0.0
 11
430.411559
 21
160.7583939999998
 31
0.0
  0
LINE
  5
1215
330
FCB
100
AcDbEntity
  8
1
  6
Continuous
100
AcDbLine
 10
430.611559
 20
161.100671
 30
0.0
 11
430.4206899999998
 21
161.1348099999999
 31
0.0
  0
LINE
  5
1216
330
FCB
100
AcDbEntity
  8
1
  6
Continuous
100
AcDbLine
 10
430.13161
 20
163.5254919999999
 30
0.0
 11
428.6915099999998
 21
163.5254919999999
 31
0.0
  0
LINE
  5
1217
330
FCB
100
AcDbEntity
  8
1
  6
Continuous
100
AcDbLine
 10
430.1316089999998
 20
160.3509169999998
 30
0.0
 11
428.6915089999998
 21
160.3509169999998
 31
0.0
  0
ARC
  5
1218
330
FCB
100
AcDbEntity
  8
1
  6
Continuous
100
AcDbCircle
 10
425.7717059999998
 20
161.938204
 30
0.0
 40
4.639852999999998
100
AcDbArc
 50
339.9952089999998
 51
20.00478499999999
  0
ARC
  5
1219
330
FCB
100
AcDbEntity
  8
1
  6
Continuous
100
AcDbCircle
 10
433.051411
 20
161.938204
 30
0.0
 40
4.639852999999998
100
AcDbArc
 50
159.9952089999999
 51
200.004785
  0
LINE
  5
121A
330
FCB
100
AcDbEntity
  8
1
  6
Continuous
100
AcDbLine
 10
431.6115589999998
 20
154.6754919999998
 30
0.0
 11
431.5757709999998
 21
154.6754919999998
 31
0.0
  0
LINE
  5
121B
330
FCB
100
AcDbEntity
  8
1
  6
Continuous
100
AcDbLine
 10
430.411559
 20
160.675492
 30
0.0
 11
430.611559
 21
160.675492
 31
0.0
  0
LINE
  5
121C
330
FCB
100
AcDbEntity
  8
1
  6
Continuous
100
AcDbLine
 10
427.6115579999998
 20
160.675492
 30
0.0
 11
428.4115589999998
 21
160.675492
 31
0.0
  0
LINE
  5
121D
330
FCB
100
AcDbEntity
  8
2
  6
Continuous
100
AcDbLine
 10
431.411559
 20
160.3754919999998
 30
0.0
 11
431.6115589999998
 21
160.3754919999998
 31
0.0
  0
LINE
  5
121E
330
FCB
100
AcDbEntity
  8
2
  6
Continuous
100
AcDbLine
 10
430.411559
 20
160.3754919999998
 30
0.0
 11
430.611559
 21
160.3754919999998
 31
0.0
  0
LINE
  5
121F
330
FCB
100
AcDbEntity
  8
1
  6
Continuous
100
AcDbLine
 10
433.9115599999998
 20
166.6754919999999
 30
0.0
 11
431.6115599999998
 21
166.6754919999999
 31
0.0
  0
LINE
  5
1220
330
FCB
100
AcDbEntity
  8
2
  6
Continuous
100
AcDbLine
 10
428.4115589999998
 20
160.2694919999999
 30
0.0
 11
427.2055579999998
 21
160.2694919999999
 31
0.0
  0
LINE
  5
1221
330
FCB
100
AcDbEntity
  8
2
  6
Continuous
100
AcDbLine
 10
428.4115589999998
 20
154.081492
 30
0.0
 11
427.2055579999998
 21
154.081492
 31
0.0
  0
LINE
  5
1222
330
FCB
100
AcDbEntity
  8
1
  6
Continuous
100
AcDbLine
 10
438.0115589999999
 20
165.675492
 30
0.0
 11
436.2615589999998
 21
165.675492
 31
0.0
  0
LINE
  5
1223
330
FCB
100
AcDbEntity
  8
1
  6
Continuous
100
AcDbLine
 10
438.0115589999999
 20
165.675492
 30
0.0
 11
438.011558
 21
158.4754919999998
 31
0.0
  0
LINE
  5
1224
330
FCB
100
AcDbEntity
  8
1
  6
Continuous
100
AcDbLine
 10
438.0115589999999
 20
165.675492
 30
0.0
 11
439.0115589999998
 21
166.6754919999999
 31
0.0
  0
LINE
  5
1225
330
FCB
100
AcDbEntity
  8
1
  6
Continuous
100
AcDbLine
 10
435.7615589999999
 20
165.1754919999999
 30
0.0
 11
436.2615589999998
 21
165.675492
 31
0.0
  0
LINE
  5
1226
330
FCB
100
AcDbEntity
  8
1
  6
Continuous
100
AcDbLine
 10
439.0115589999998
 20
166.6754919999999
 30
0.0
 11
439.0115579999998
 21
161.612833
 31
0.0
  0
LINE
  5
1227
330
FCB
100
AcDbEntity
  8
1
  6
Continuous
100
AcDbLine
 10
438.011558
 20
160.6128329999999
 30
0.0
 11
439.0115579999998
 21
161.612833
 31
0.0
  0
LINE
  5
1228
330
FCB
100
AcDbEntity
  8
1
  6
Continuous
100
AcDbLine
 10
438.011558
 20
158.4754919999998
 30
0.0
 11
436.2615579999999
 21
158.4754919999998
 31
0.0
  0
LINE
  5
1229
330
FCB
100
AcDbEntity
  8
1
  6
Continuous
100
AcDbLine
 10
438.011558
 20
155.8754919999998
 30
0.0
 11
436.2615579999999
 21
155.8754919999998
 31
0.0
  0
ARC
  5
122A
330
FCB
100
AcDbEntity
  8
1
  6
Continuous
100
AcDbCircle
 10
435.336558
 20
162.0504919999999
 30
0.0
 40
0.425
100
AcDbArc
 50
359.999997
 51
179.999997
  0
LINE
  5
122B
330
FCB
100
AcDbEntity
  8
1
  6
Continuous
100
AcDbLine
 10
433.911558
 20
162.1504919999999
 30
0.0
 11
434.911558
 21
162.1504919999999
 31
0.0
  0
LINE
  5
122C
330
FCB
100
AcDbEntity
  8
1
  6
Continuous
100
AcDbLine
 10
451.3115589999999
 20
168.1754909999999
 30
0.0
 11
451.311557
 21
146.1754909999999
 31
0.0
  0
LINE
  5
122D
330
FCB
100
AcDbEntity
  8
1
  6
Continuous
100
AcDbLine
 10
447.8115579999998
 20
148.975491
 30
0.0
 11
447.8115579999998
 21
147.7393899999998
 31
0.0
  0
LINE
  5
122E
330
FCB
100
AcDbEntity
  8
1
  6
Continuous
100
AcDbLine
 10
450.811558
 20
148.975491
 30
0.0
 11
450.811558
 21
147.7393899999998
 31
0.0
  0
LINE
  5
122F
330
FCB
100
AcDbEntity
  8
1
  6
Continuous
100
AcDbLine
 10
450.811558
 20
147.7393899999998
 30
0.0
 11
451.311558
 21
147.7393899999998
 31
0.0
  0
LINE
  5
1230
330
FCB
100
AcDbEntity
  8
1
  6
Continuous
100
AcDbLine
 10
450.811558
 20
148.975491
 30
0.0
 11
447.8115579999998
 21
148.975491
 31
0.0
  0
LINE
  5
1231
330
FCB
100
AcDbEntity
  8
1
  6
Continuous
100
AcDbLine
 10
447.8115589999998
 20
166.6754909999999
 30
0.0
 11
447.8115589999998
 21
165.3754909999999
 31
0.0
  0
LINE
  5
1232
330
FCB
100
AcDbEntity
  8
1
  6
Continuous
100
AcDbLine
 10
450.811559
 20
166.6754909999999
 30
0.0
 11
450.811559
 21
165.3754909999999
 31
0.0
  0
LINE
  5
1233
330
FCB
100
AcDbEntity
  8
1
  6
Continuous
100
AcDbLine
 10
451.3115589999999
 20
166.6754909999999
 30
0.0
 11
450.811559
 21
166.6754909999999
 31
0.0
  0
LINE
  5
1234
330
FCB
100
AcDbEntity
  8
1
  6
Continuous
100
AcDbLine
 10
450.811559
 20
165.3754909999999
 30
0.0
 11
447.8115589999998
 21
165.3754909999999
 31
0.0
  0
ARC
  5
1235
330
FCB
100
AcDbEntity
  8
5
  6
PHANTOM
100
AcDbCircle
 10
284.7559089999998
 20
180.1754999999998
 30
0.0
 40
11.5
100
AcDbArc
 50
34.301153
 51
145.6988469999998
  0
LINE
  5
1236
330
FCB
100
AcDbEntity
  8
1
  6
Continuous
100
AcDbLine
 10
141.1002579999999
 20
168.1755
 30
0.0
 11
141.1002579999999
 21
146.1754999999998
 31
0.0
  0
LINE
  5
1237
330
FCB
100
AcDbEntity
  8
1
  6
Continuous
100
AcDbLine
 10
141.1002579999999
 20
168.1755
 30
0.0
 11
138.3120999999998
 21
167.276094
 31
0.0
  0
LINE
  5
1238
330
FCB
100
AcDbEntity
  8
1
  6
Continuous
100
AcDbLine
 10
138.3120999999998
 20
147.0749059999999
 30
0.0
 11
141.1002579999999
 21
146.1754999999998
 31
0.0
  0
ARC
  5
1239
330
FCB
100
AcDbEntity
  8
1
  6
Continuous
100
AcDbCircle
 10
237.4990019999999
 20
157.1755
 30
0.0
 40
100.0
100
AcDbArc
 50
174.4490389999999
 51
185.550961
  0
ARC
  5
123A
330
FCB
100
AcDbEntity
  8
1
  6
Continuous
100
AcDbCircle
 10
138.465601
 20
166.8002399999998
 30
0.0
 40
0.5
100
AcDbArc
 50
107.878697
 51
174.4490389999999
  0
ARC
  5
123B
330
FCB
100
AcDbEntity
  8
1
  6
Continuous
100
AcDbCircle
 10
138.465601
 20
147.55076
 30
0.0
 40
0.5
100
AcDbArc
 50
185.550961
 51
252.1213029999999
  0
ARC
  5
123C
330
FCB
100
AcDbEntity
  8
1
  6
Continuous
100
AcDbCircle
 10
237.4990019999999
 20
157.1755
 30
0.0
 40
100.2999999999999
100
AcDbArc
 50
174.9967509999999
 51
175.8536249999999
  0
LINE
  5
123D
330
FCB
100
AcDbEntity
  8
4
  6
CENTER
100
AcDbLine
 10
136.4213509999999
 20
165.263293
 30
0.0
 11
139.0161879999998
 21
165.055666
 31
0.0
  0
LINE
  5
123E
330
FCB
100
AcDbEntity
  8
1
  6
Continuous
100
AcDbLine
 10
137.5811689999999
 20
165.9228869999998
 30
0.0
 11
137.880222
 21
165.898958
 31
0.0
  0
LINE
  5
123F
330
FCB
100
AcDbEntity
  8
1
  6
Continuous
100
AcDbLine
 10
137.4615279999999
 20
164.4276659999999
 30
0.0
 11
137.760581
 21
164.403737
 31
0.0
  0
LINE
  5
1240
330
FCB
100
AcDbEntity
  8
4
  6
CENTER
100
AcDbLine
 10
56.31533100000001
 20
165.1755
 30
0.0
 11
63.149724
 21
165.1755
 31
0.0
  0
LINE
  5
1241
330
FCB
100
AcDbEntity
  8
1
  6
Continuous
100
AcDbLine
 10
60.25000099999999
 20
165.1755
 30
0.0
 11
60.25000099999999
 21
165.1537369999998
 31
0.0
  0
CIRCLE
  5
1242
330
FCB
100
AcDbEntity
  8
1
  6
Continuous
100
AcDbCircle
 10
59.500001
 20
165.1755
 30
0.0
 40
0.75
  0
ARC
  5
1243
330
FCB
100
AcDbEntity
  8
1
  6
Continuous
100
AcDbCircle
 10
59.500001
 20
165.1537369999998
 30
0.0
 40
0.75
100
AcDbArc
 50
180.0
 51
0.0
  0
LINE
  5
1244
330
FCB
100
AcDbEntity
  8
1
  6
Continuous
100
AcDbLine
 10
58.750001
 20
165.1755
 30
0.0
 11
58.750001
 21
165.1537369999998
 31
0.0
  0
ARC
  5
1245
330
FCB
100
AcDbEntity
  8
1
  6
Continuous
100
AcDbCircle
 10
237.4990019999999
 20
237.175541
 30
0.0
 40
100.0
100
AcDbArc
 50
174.4490389999999
 51
185.550961
  0
ARC
  5
1246
330
FCB
100
AcDbEntity
  8
1
  6
Continuous
100
AcDbCircle
 10
138.465601
 20
246.800281
 30
0.0
 40
0.5
100
AcDbArc
 50
107.878697
 51
174.4490389999999
  0
LINE
  5
1247
330
FCB
100
AcDbEntity
  8
1
  6
Continuous
100
AcDbLine
 10
141.1002579999999
 20
248.175541
 30
0.0
 11
138.3120999999998
 21
247.276135
 31
0.0
  0
ARC
  5
1248
330
FCB
100
AcDbEntity
  8
1
  6
Continuous
100
AcDbCircle
 10
138.465601
 20
227.5508009999998
 30
0.0
 40
0.5
100
AcDbArc
 50
185.550961
 51
252.1213029999999
  0
LINE
  5
1249
330
FCB
100
AcDbEntity
  8
1
  6
Continuous
100
AcDbLine
 10
138.3120999999998
 20
227.074947
 30
0.0
 11
141.1002579999999
 21
226.175541
 31
0.0
  0
LINE
  5
124A
330
FCB
100
AcDbEntity
  8
1
  6
Continuous
100
AcDbLine
 10
141.1002579999999
 20
248.175541
 30
0.0
 11
141.1002579999999
 21
226.175541
 31
0.0
  0
LINE
  5
124B
330
FCB
100
AcDbEntity
  8
1
  6
Continuous
100
AcDbLine
 10
141.200258
 20
248.175541
 30
0.0
 11
141.200258
 21
226.175541
 31
0.0
  0
LINE
  5
124C
330
FCB
100
AcDbEntity
  8
1
  6
Continuous
100
AcDbLine
 10
141.200258
 20
248.175541
 30
0.0
 11
142.200258
 21
248.175541
 31
0.0
  0
LINE
  5
124D
330
FCB
100
AcDbEntity
  8
1
  6
Continuous
100
AcDbLine
 10
141.1002579999999
 20
246.025541
 30
0.0
 11
141.200258
 21
246.025541
 31
0.0
  0
LINE
  5
124E
330
FCB
100
AcDbEntity
  8
1
  6
Continuous
100
AcDbLine
 10
141.200258
 20
226.175541
 30
0.0
 11
142.200258
 21
226.175541
 31
0.0
  0
LINE
  5
124F
330
FCB
100
AcDbEntity
  8
1
  6
Continuous
100
AcDbLine
 10
141.1002579999999
 20
228.3255409999999
 30
0.0
 11
141.200258
 21
228.3255409999999
 31
0.0
  0
ARC
  5
1250
330
FCB
100
AcDbEntity
  8
1
  6
Continuous
100
AcDbCircle
 10
237.7615279999999
 20
237.175541
 30
0.0
 40
100.2999999999999
100
AcDbArc
 50
179.571563
 51
180.4284369999999
  0
LINE
  5
1251
330
FCB
100
AcDbEntity
  8
1
  6
Continuous
100
AcDbLine
 10
137.464332
 20
237.925541
 30
0.0
 11
137.5018139999999
 21
237.925541
 31
0.0
  0
LINE
  5
1252
330
FCB
100
AcDbEntity
  8
1
  6
Continuous
100
AcDbLine
 10
137.464332
 20
236.425541
 30
0.0
 11
137.5018139999999
 21
236.425541
 31
0.0
  0
ARC
  5
1253
330
FCB
100
AcDbEntity
  8
1
  6
Continuous
100
AcDbCircle
 10
237.4990019999999
 20
77.293859
 30
0.0
 40
100.0
100
AcDbArc
 50
174.4490389999999
 51
185.550961
  0
LINE
  5
1254
330
FCB
100
AcDbEntity
  8
1
  6
Continuous
100
AcDbLine
 10
141.1002579999999
 20
88.293859
 30
0.0
 11
138.3120999999998
 21
87.39445299999998
 31
0.0
  0
ARC
  5
1255
330
FCB
100
AcDbEntity
  8
1
  6
Continuous
100
AcDbCircle
 10
138.465601
 20
86.918599
 30
0.0
 40
0.5
100
AcDbArc
 50
107.878697
 51
174.4490389999999
  0
LINE
  5
1256
330
FCB
100
AcDbEntity
  8
1
  6
Continuous
100
AcDbLine
 10
138.3120999999998
 20
67.193265
 30
0.0
 11
141.1002579999999
 21
66.29385899999999
 31
0.0
  0
ARC
  5
1257
330
FCB
100
AcDbEntity
  8
1
  6
Continuous
100
AcDbCircle
 10
138.465601
 20
67.669119
 30
0.0
 40
0.5
100
AcDbArc
 50
185.550961
 51
252.1213029999999
  0
ARC
  5
1258
330
FCB
100
AcDbEntity
  8
1
  6
Continuous
100
AcDbCircle
 10
237.7615279999999
 20
77.293859
 30
0.0
 40
100.2999999999999
100
AcDbArc
 50
179.571563
 51
180.4284369999999
  0
LINE
  5
1259
330
FCB
100
AcDbEntity
  8
1
  6
Continuous
100
AcDbLine
 10
137.464332
 20
76.543859
 30
0.0
 11
137.5018139999999
 21
76.543859
 31
0.0
  0
LINE
  5
125A
330
FCB
100
AcDbEntity
  8
1
  6
Continuous
100
AcDbLine
 10
137.464332
 20
78.04385899999998
 30
0.0
 11
137.5018139999999
 21
78.04385899999998
 31
0.0
  0
LINE
  5
125B
330
FCB
100
AcDbEntity
  8
1
  6
Continuous
100
AcDbLine
 10
141.200258
 20
88.293859
 30
0.0
 11
141.200258
 21
66.29385899999999
 31
0.0
  0
LINE
  5
125C
330
FCB
100
AcDbEntity
  8
1
  6
Continuous
100
AcDbLine
 10
141.1002579999999
 20
88.293859
 30
0.0
 11
141.1002579999999
 21
66.29385899999999
 31
0.0
  0
LINE
  5
125D
330
FCB
100
AcDbEntity
  8
1
  6
Continuous
100
AcDbLine
 10
141.1002579999999
 20
86.143859
 30
0.0
 11
141.200258
 21
86.143859
 31
0.0
  0
LINE
  5
125E
330
FCB
100
AcDbEntity
  8
1
  6
Continuous
100
AcDbLine
 10
141.200258
 20
88.293859
 30
0.0
 11
142.200258
 21
88.293859
 31
0.0
  0
LINE
  5
125F
330
FCB
100
AcDbEntity
  8
1
  6
Continuous
100
AcDbLine
 10
141.1002579999999
 20
68.443859
 30
0.0
 11
141.200258
 21
68.443859
 31
0.0
  0
LINE
  5
1260
330
FCB
100
AcDbEntity
  8
1
  6
Continuous
100
AcDbLine
 10
141.200258
 20
66.29385899999999
 30
0.0
 11
142.200258
 21
66.29385899999999
 31
0.0
  0
ARC
  5
1261
330
FCB
100
AcDbEntity
  8
1
  6
Continuous
100
AcDbCircle
 10
356.012815
 20
157.1754909999999
 30
0.0
 40
100.0
100
AcDbArc
 50
354.449039
 51
5.550961
  0
LINE
  5
1262
330
FCB
100
AcDbEntity
  8
1
  6
Continuous
100
AcDbLine
 10
452.411559
 20
168.1754909999999
 30
0.0
 11
452.411559
 21
146.1754909999999
 31
0.0
  0
LINE
  5
1263
330
FCB
100
AcDbEntity
  8
1
  6
Continuous
100
AcDbLine
 10
452.3115589999998
 20
168.1754909999999
 30
0.0
 11
452.3115589999998
 21
146.1754909999999
 31
0.0
  0
LINE
  5
1264
330
FCB
100
AcDbEntity
  8
1
  6
Continuous
100
AcDbLine
 10
452.411559
 20
148.325491
 30
0.0
 11
452.3115589999998
 21
148.325491
 31
0.0
  0
ARC
  5
1265
330
FCB
100
AcDbEntity
  8
1
  6
Continuous
100
AcDbCircle
 10
455.046216
 20
147.5507509999999
 30
0.0
 40
0.5
100
AcDbArc
 50
287.8786969999999
 51
354.449039
  0
LINE
  5
1266
330
FCB
100
AcDbEntity
  8
1
  6
Continuous
100
AcDbLine
 10
455.1997169999999
 20
147.0748969999999
 30
0.0
 11
452.411559
 21
146.1754909999999
 31
0.0
  0
LINE
  5
1267
330
FCB
100
AcDbEntity
  8
1
  6
Continuous
100
AcDbLine
 10
452.3115589999998
 20
146.1754909999999
 30
0.0
 11
451.3115589999999
 21
146.1754909999999
 31
0.0
  0
LINE
  5
1268
330
FCB
100
AcDbEntity
  8
1
  6
Continuous
100
AcDbLine
 10
452.411559
 20
166.0254909999999
 30
0.0
 11
452.3115589999998
 21
166.0254909999999
 31
0.0
  0
LINE
  5
1269
330
FCB
100
AcDbEntity
  8
4
  6
CENTER
100
AcDbLine
 10
457.090466
 20
165.263284
 30
0.0
 11
454.495629
 21
165.055657
 31
0.0
  0
LINE
  5
126A
330
FCB
100
AcDbEntity
  8
1
  6
Continuous
100
AcDbLine
 10
455.930648
 20
165.922878
 30
0.0
 11
455.631595
 21
165.8989489999999
 31
0.0
  0
ARC
  5
126B
330
FCB
100
AcDbEntity
  8
1
  6
Continuous
100
AcDbCircle
 10
356.012815
 20
157.1754909999999
 30
0.0
 40
100.2999999999999
100
AcDbArc
 50
4.146374999999999
 51
5.003248999999999
  0
LINE
  5
126C
330
FCB
100
AcDbEntity
  8
1
  6
Continuous
100
AcDbLine
 10
456.0502889999998
 20
164.427657
 30
0.0
 11
455.751236
 21
164.403728
 31
0.0
  0
ARC
  5
126D
330
FCB
100
AcDbEntity
  8
1
  6
Continuous
100
AcDbCircle
 10
455.046216
 20
166.800231
 30
0.0
 40
0.5
100
AcDbArc
 50
5.550961
 51
72.12130299999998
  0
LINE
  5
126E
330
FCB
100
AcDbEntity
  8
1
  6
Continuous
100
AcDbLine
 10
452.411559
 20
168.1754909999999
 30
0.0
 11
455.1997169999999
 21
167.2760849999999
 31
0.0
  0
LINE
  5
126F
330
FCB
100
AcDbEntity
  8
1
  6
Continuous
100
AcDbLine
 10
452.3115589999998
 20
168.1754909999999
 30
0.0
 11
451.3115589999999
 21
168.1754909999999
 31
0.0
  0
ENDSEC
  0
SECTION
  2
OBJECTS
  0
DICTIONARY
  5
FB9
330
0
100
AcDbDictionary
281
     1
  3
ACAD_CIP_PREVIOUS_PRODUCT_INFO
350
12D3
  3
ACAD_COLOR
350
12B5
  3
ACAD_DETAILVIEWSTYLE
350
12CE
  3
ACAD_GROUP
350
FBA
  3
ACAD_LAYOUT
350
FC6
  3
ACAD_MATERIAL
350
1283
  3
ACAD_MLEADERSTYLE
350
12CA
  3
ACAD_MLINESTYLE
350
FC3
  3
ACAD_PLOTSETTINGS
350
FC5
  3
ACAD_PLOTSTYLENAME
350
1281
  3
ACAD_SCALELIST
350
12B8
  3
ACAD_SECTIONVIEWSTYLE
350
12CC
  3
ACAD_TABLESTYLE
350
12B6
  3
ACAD_VISUALSTYLE
350
129C
  3
ACDB_RECOMPOSE_DATA
350
12F1
  3
AcDbVariableDictionary
350
12E4
  3
DWGPROPS
350
12F2
  0
DICTIONARY
  5
12D4
330
FBD
100
AcDbDictionary
280
     1
281
     1
  3
ADSK_XREC_LAYER_RECONCILED
360
12D5
  0
DICTIONARY
  5
12D6
330
FD3
100
AcDbDictionary
280
     1
281
     1
  3
ADSK_XREC_LAYER_RECONCILED
360
12D7
  0
DICTIONARY
  5
12D8
330
FD4
100
AcDbDictionary
280
     1
281
     1
  3
ADSK_XREC_LAYER_RECONCILED
360
12D9
  0
DICTIONARY
  5
12DA
330
FD5
100
AcDbDictionary
280
     1
281
     1
  3
ADSK_XREC_LAYER_RECONCILED
360
12DB
  0
DICTIONARY
  5
12DC
330
FD6
100
AcDbDictionary
280
     1
281
     1
  3
ADSK_XREC_LAYER_RECONCILED
360
12DD
  0
DICTIONARY
  5
12DE
330
FD7
100
AcDbDictionary
280
     1
281
     1
  3
ADSK_XREC_LAYER_RECONCILED
360
12DF
  0
DICTIONARY
  5
12E0
330
FD8
100
AcDbDictionary
280
     1
281
     1
  3
ADSK_XREC_LAYER_RECONCILED
360
12E1
  0
DICTIONARY
  5
12E2
330
FD9
100
AcDbDictionary
280
     1
281
     1
  3
ADSK_XREC_LAYER_RECONCILED
360
12E3
  0
DICTIONARY
  5
127C
330
FCB
100
AcDbDictionary
281
     1
  3
ACAD_LAYOUTSELFREF
350
127D
  0
DICTIONARY
  5
127A
330
FC7
100
AcDbDictionary
281
     1
  3
ACAD_LAYOUTSELFREF
350
127B
  0
XRECORD
  5
12D3
102
{ACAD_REACTORS
330
FB9
102
}
330
FB9
100
AcDbXrecord
280
     1
300
ACDLT
300
2014
300
ACDLT_F_S
  0
DICTIONARY
  5
12B5
102
{ACAD_REACTORS
330
FB9
102
}
330
FB9
100
AcDbDictionary
281
     1
  0
DICTIONARY
  5
12CE
102
{ACAD_REACTORS
330
FB9
102
}
330
FB9
100
AcDbDictionary
281
     1
  3
Imperial24
350
12CF
  0
DICTIONARY
  5
FBA
102
{ACAD_REACTORS
330
FB9
102
}
330
FB9
100
AcDbDictionary
281
     1
  0
DICTIONARY
  5
FC6
102
{ACAD_REACTORS
330
FB9
102
}
330
FB9
100
AcDbDictionary
281
     1
  3
Model
350
12D0
  3
レイアウト1
350
12D1
  0
DICTIONARY
  5
1283
102
{ACAD_REACTORS
330
FB9
102
}
330
FB9
100
AcDbDictionary
281
     1
  3
ByBlock
350
128C
  3
ByLayer
350
1284
  3
Global
350
1294
  0
DICTIONARY
  5
12CA
102
{ACAD_REACTORS
330
FB9
102
}
330
FB9
100
AcDbDictionary
281
     1
  3
Standard
350
12CB
  0
DICTIONARY
  5
FC3
102
{ACAD_REACTORS
330
FB9
102
}
330
FB9
100
AcDbDictionary
281
     1
  3
STANDARD
350
FC4
  0
DICTIONARY
  5
FC5
102
{ACAD_REACTORS
330
FB9
102
}
330
FB9
100
AcDbDictionary
281
     1
  0
ACDBDICTIONARYWDFLT
  5
1281
102
{ACAD_REACTORS
330
FB9
102
}
330
FB9
100
AcDbDictionary
281
     1
  3
Normal
350
1282
100
AcDbDictionaryWithDefault
340
1282
  0
DICTIONARY
  5
12B8
102
{ACAD_REACTORS
330
FB9
102
}
330
FB9
100
AcDbDictionary
281
     1
  3
A0
350
12B9
  3
A1
350
12BA
  3
A2
350
12BB
  3
A3
350
12BC
  3
A4
350
12BD
  3
A5
350
12BE
  3
A6
350
12BF
  3
A7
350
12C0
  3
A8
350
12C1
  3
A9
350
12C2
  3
B0
350
12C3
  3
B1
350
12C4
  3
B2
350
12C5
  3
B3
350
12C6
  3
B4
350
12C7
  3
B5
350
12C8
  3
B6
350
12C9
  0
DICTIONARY
  5
12CC
102
{ACAD_REACTORS
330
FB9
102
}
330
FB9
100
AcDbDictionary
281
     1
  3
Imperial24
350
12CD
  0
DICTIONARY
  5
12B6
102
{ACAD_REACTORS
330
FB9
102
}
330
FB9
100
AcDbDictionary
281
     1
  3
Standard
350
12B7
  0
DICTIONARY
  5
129C
102
{ACAD_REACTORS
330
FB9
102
}
330
FB9
100
AcDbDictionary
281
     1
  3
2dWireframe
350
12A2
  3
Basic
350
12A1
  3
Brighten
350
12A8
  3
ColorChange
350
12AC
  3
Conceptual
350
12A5
  3
Dim
350
12A7
  3
EdgeColorOff
350
12B4
  3
Facepattern
350
12AB
  3
Flat
350
129D
  3
FlatWithEdges
350
129E
  3
Gouraud
350
129F
  3
GouraudWithEdges
350
12A0
  3
Hidden
350
12A4
  3
JitterOff
350
12B2
  3
Linepattern
350
12AA
  3
OverhangOff
350
12B3
  3
Realistic
350
12A6
  3
Shaded
350
12B1
  3
Shaded with edges
350
12B0
  3
Shades of Gray
350
12AD
  3
Sketchy
350
12AE
  3
Thicken
350
12A9
  3
Wireframe
350
12A3
  3
X-Ray
350
12AF
  0
XRECORD
  5
12F1
102
{ACAD_REACTORS
330
FB9
102
}
330
FB9
100
AcDbXrecord
280
     1
 90
        1
330
12B7
  0
DICTIONARY
  5
12E4
102
{ACAD_REACTORS
330
FB9
102
}
330
FB9
100
AcDbDictionary
281
     1
  3
CANNOSCALE
350
12E9
  3
CMLEADERSTYLE
350
12E6
  3
CTABLESTYLE
350
12E5
  3
CVIEWDETAILSTYLE
350
12E7
  3
CVIEWSECTIONSTYLE
350
12E8
  3
DIMASSOC
350
12EC
  3
INDEXCTL
350
12EB
  3
SORTENTS
350
12EA
  3
XCLIPFRAME
350
12ED
  0
XRECORD
  5
12F2
102
{ACAD_REACTORS
330
FB9
102
}
330
FB9
100
AcDbXrecord
280
     1
  1
DWGPROPS COOKIE
  2

  3

  4

  6

  7

  8
Yoshitsune
  9

300
=
301
=
302
=
303
=
304
=
305
=
306
=
307
=
308
=
309
=
 40
0.0008005092592593
 41
2451640.628240996
 42
2457192.600771922
  1

 90
        0
  0
XRECORD
  5
12D5
102
{ACAD_REACTORS
330
12D4
102
}
330
12D4
100
AcDbXrecord
280
     1
290
     1
  0
XRECORD
  5
12D7
102
{ACAD_REACTORS
330
12D6
102
}
330
12D6
100
AcDbXrecord
280
     1
290
     1
  0
XRECORD
  5
12D9
102
{ACAD_REACTORS
330
12D8
102
}
330
12D8
100
AcDbXrecord
280
     1
290
     1
  0
XRECORD
  5
12DB
102
{ACAD_REACTORS
330
12DA
102
}
330
12DA
100
AcDbXrecord
280
     1
290
     1
  0
XRECORD
  5
12DD
102
{ACAD_REACTORS
330
12DC
102
}
330
12DC
100
AcDbXrecord
280
     1
290
     1
  0
XRECORD
  5
12DF
102
{ACAD_REACTORS
330
12DE
102
}
330
12DE
100
AcDbXrecord
280
     1
290
     1
  0
XRECORD
  5
12E1
102
{ACAD_REACTORS
330
12E0
102
}
330
12E0
100
AcDbXrecord
280
     1
290
     1
  0
XRECORD
  5
12E3
102
{ACAD_REACTORS
330
12E2
102
}
330
12E2
100
AcDbXrecord
280
     1
290
     1
  0
XRECORD
  5
127D
102
{ACAD_REACTORS
330
127C
102
}
330
127C
100
AcDbXrecord
280
     1
340
FCB
  0
XRECORD
  5
127B
102
{ACAD_REACTORS
330
127A
102
}
330
127A
100
AcDbXrecord
280
     1
340
FC7
  0
ACDBDETAILVIEWSTYLE
  5
12CF
102
{ACAD_XDICTIONARY
360
132A
102
}
102
{ACAD_REACTORS
330
12CE
102
}
330
12CE
100
AcDbModelDocViewStyle
 70
     0
  3
Imperial24
290
     0
100
AcDbDetailViewStyle
 70
     0
 71
     0
 90
        3
 71
     1
340
FBE
 40
0.24
340
0
 40
0.24
300

 40
0.36
280
     3
 71
     2
340
FC2
 90
       25
 71
     3
340
FBE
 40
0.24
 90
        1
 40
0.75
 90
        1
300
%<\AcVar ViewType \f "%tc1">% %<\AcVar ViewDetailId>%\PSCALE %<\AcVar ViewScale \f "%sn">%
 71
     4
340
FC2
 90
       25
340
FC2
 90
       25
280
     0
  0
LAYOUT
  5
12D0
102
{ACAD_XDICTIONARY
360
132C
102
}
102
{ACAD_REACTORS
330
FC6
102
}
330
FC6
100
AcDbPlotSettings
  1

  2
Canon LBP9100C
  4

  6

 40
0.0
 41
0.0
 42
0.0
 43
0.0
 44
0.0
 45
0.0
 46
0.0
 47
0.0
 48
0.0
 49
0.0
140
0.0
141
0.0
142
1.0
143
1.0
 70
  1712
 72
     0
 73
     0
 74
     0
  7

 75
     0
147
1.0
148
0.0
149
0.0
100
AcDbLayout
  1
Model
 70
     1
 71
     0
 10
0.0
 20
0.0
 11
12.0
 21
9.0
 12
0.0
 22
0.0
 32
0.0
 14
0.0
 24
0.0
 34
0.0
 15
0.0
 25
0.0
 35
0.0
146
0.0
 13
0.0
 23
0.0
 33
0.0
 16
1.0
 26
0.0
 36
0.0
 17
0.0
 27
1.0
 37
0.0
 76
     0
330
FCB
331
1279
  0
LAYOUT
  5
12D1
102
{ACAD_XDICTIONARY
360
132E
102
}
102
{ACAD_REACTORS
330
FC6
102
}
330
FC6
100
AcDbPlotSettings
  1

  2
Canon LBP9100C
  4

  6

 40
0.0
 41
0.0
 42
0.0
 43
0.0
 44
0.0
 45
0.0
 46
0.0
 47
0.0
 48
0.0
 49
0.0
140
0.0
141
0.0
142
1.0
143
1.0
 70
   688
 72
     0
 73
     0
 74
     5
  7

 75
    16
147
1.0
148
0.0
149
0.0
100
AcDbLayout
  1
レイアウト1
 70
     1
 71
     1
 10
0.0
 20
0.0
 11
420.0
 21
297.0
 12
0.0
 22
0.0
 32
0.0
 14
1.000000000000000E+20
 24
1.000000000000000E+20
 34
1.000000000000000E+20
 15
-1.000000000000000E+20
 25
-1.000000000000000E+20
 35
-1.000000000000000E+20
146
0.0
 13
0.0
 23
0.0
 33
0.0
 16
1.0
 26
0.0
 36
0.0
 17
0.0
 27
1.0
 37
0.0
 76
     0
330
FC7
  0
MATERIAL
  5
128C
102
{ACAD_XDICTIONARY
360
128D
102
}
102
{ACAD_REACTORS
330
1283
102
}
330
1283
100
AcDbMaterial
  1
ByBlock
 72
     0
 43
0.0208333333333333
 43
0.0
 43
0.0
 43
0.0
 43
0.0
 43
0.0208333333333333
 43
0.0
 43
0.0
 43
0.0
 43
0.0
 43
1.0
 43
0.0
 43
0.0
 43
0.0
 43
0.0
 43
1.0
 77
     0
 47
0.0208333333333333
 47
0.0
 47
0.0
 47
0.0
 47
0.0
 47
0.0208333333333333
 47
0.0
 47
0.0
 47
0.0
 47
0.0
 47
1.0
 47
0.0
 47
0.0
 47
0.0
 47
0.0
 47
1.0
171
     0
 49
0.0208333333333333
 49
0.0
 49
0.0
 49
0.0
 49
0.0
 49
0.0208333333333333
 49
0.0
 49
0.0
 49
0.0
 49
0.0
 49
1.0
 49
0.0
 49
0.0
 49
0.0
 49
0.0
 49
1.0
175
     0
142
0.0208333333333333
142
0.0
142
0.0
142
0.0
142
0.0
142
0.0208333333333333
142
0.0
142
0.0
142
0.0
142
0.0
142
1.0
142
0.0
142
0.0
142
0.0
142
0.0
142
1.0
179
     0
144
0.0208333333333333
144
0.0
144
0.0
144
0.0
144
0.0
144
0.0208333333333333
144
0.0
144
0.0
144
0.0
144
0.0
144
1.0
144
0.0
144
0.0
144
0.0
144
0.0
144
1.0
147
0.0208333333333333
147
0.0
147
0.0
147
0.0
147
0.0
147
0.0208333333333333
147
0.0
147
0.0
147
0.0
147
0.0
147
1.0
147
0.0
147
0.0
147
0.0
147
0.0
147
1.0
  0
MATERIAL
  5
1284
102
{ACAD_XDICTIONARY
360
1285
102
}
102
{ACAD_REACTORS
330
1283
102
}
330
1283
100
AcDbMaterial
  1
ByLayer
 72
     0
 43
0.0208333333333333
 43
0.0
 43
0.0
 43
0.0
 43
0.0
 43
0.0208333333333333
 43
0.0
 43
0.0
 43
0.0
 43
0.0
 43
1.0
 43
0.0
 43
0.0
 43
0.0
 43
0.0
 43
1.0
 77
     0
 47
0.0208333333333333
 47
0.0
 47
0.0
 47
0.0
 47
0.0
 47
0.0208333333333333
 47
0.0
 47
0.0
 47
0.0
 47
0.0
 47
1.0
 47
0.0
 47
0.0
 47
0.0
 47
0.0
 47
1.0
171
     0
 49
0.0208333333333333
 49
0.0
 49
0.0
 49
0.0
 49
0.0
 49
0.0208333333333333
 49
0.0
 49
0.0
 49
0.0
 49
0.0
 49
1.0
 49
0.0
 49
0.0
 49
0.0
 49
0.0
 49
1.0
175
     0
142
0.0208333333333333
142
0.0
142
0.0
142
0.0
142
0.0
142
0.0208333333333333
142
0.0
142
0.0
142
0.0
142
0.0
142
1.0
142
0.0
142
0.0
142
0.0
142
0.0
142
1.0
179
     0
144
0.0208333333333333
144
0.0
144
0.0
144
0.0
144
0.0
144
0.0208333333333333
144
0.0
144
0.0
144
0.0
144
0.0
144
1.0
144
0.0
144
0.0
144
0.0
144
0.0
144
1.0
147
0.0208333333333333
147
0.0
147
0.0
147
0.0
147
0.0
147
0.0208333333333333
147
0.0
147
0.0
147
0.0
147
0.0
147
1.0
147
0.0
147
0.0
147
0.0
147
0.0
147
1.0
  0
MATERIAL
  5
1294
102
{ACAD_XDICTIONARY
360
1295
102
}
102
{ACAD_REACTORS
330
1283
102
}
330
1283
100
AcDbMaterial
  1
Global
 72
     0
 43
0.0208333333333333
 43
0.0
 43
0.0
 43
0.0
 43
0.0
 43
0.0208333333333333
 43
0.0
 43
0.0
 43
0.0
 43
0.0
 43
1.0
 43
0.0
 43
0.0
 43
0.0
 43
0.0
 43
1.0
 77
     0
 47
0.0208333333333333
 47
0.0
 47
0.0
 47
0.0
 47
0.0
 47
0.0208333333333333
 47
0.0
 47
0.0
 47
0.0
 47
0.0
 47
1.0
 47
0.0
 47
0.0
 47
0.0
 47
0.0
 47
1.0
171
     0
 49
0.0208333333333333
 49
0.0
 49
0.0
 49
0.0
 49
0.0
 49
0.0208333333333333
 49
0.0
 49
0.0
 49
0.0
 49
0.0
 49
1.0
 49
0.0
 49
0.0
 49
0.0
 49
0.0
 49
1.0
175
     0
142
0.0208333333333333
142
0.0
142
0.0
142
0.0
142
0.0
142
0.0208333333333333
142
0.0
142
0.0
142
0.0
142
0.0
142
1.0
142
0.0
142
0.0
142
0.0
142
0.0
142
1.0
179
     0
144
0.0208333333333333
144
0.0
144
0.0
144
0.0
144
0.0
144
0.0208333333333333
144
0.0
144
0.0
144
0.0
144
0.0
144
1.0
144
0.0
144
0.0
144
0.0
144
0.0
144
1.0
147
0.0208333333333333
147
0.0
147
0.0
147
0.0
147
0.0
147
0.0208333333333333
147
0.0
147
0.0
147
0.0
147
0.0
147
1.0
147
0.0
147
0.0
147
0.0
147
0.0
147
1.0
  0
MLEADERSTYLE
  5
12CB
102
{ACAD_REACTORS
330
12CA
102
}
330
12CA
100
AcDbMLeaderStyle
170
     2
171
     1
172
     0
 90
        2
 40
0.0
 41
0.0
173
     1
 91
-1056964608
340
FC0
 92
       -2
290
     1
 42
0.09
291
     1
 43
0.36
  3
Standard
 44
0.18
300

342
FBE
174
     1
178
     6
175
     1
176
     0
 93
-1056964608
 45
0.18
292
     0
297
     0
 46
0.18
 94
-1056964608
 47
1.0
 49
1.0
140
1.0
293
     1
141
0.0
294
     1
177
     0
142
1.0
295
     0
296
     0
143
0.125
1001
ACAD_MLEADERVER
1070
     2
  0
MLINESTYLE
  5
FC4
102
{ACAD_REACTORS
330
FC3
102
}
330
FC3
100
AcDbMlineStyle
  2
STANDARD
 70
     0
  3

 62
   256
 51
90.0
 52
90.0
 71
     2
 49
0.5
 62
   256
  6
BYLAYER
 49
-0.5
 62
   256
  6
BYLAYER
  0
ACDBPLACEHOLDER
  5
1282
102
{ACAD_REACTORS
330
1281
102
}
330
1281
  0
SCALE
  5
12B9
102
{ACAD_REACTORS
330
12B8
102
}
330
12B8
100
AcDbScale
 70
     0
300
1:1
140
1.0
141
1.0
290
     1
  0
SCALE
  5
12BA
102
{ACAD_REACTORS
330
12B8
102
}
330
12B8
100
AcDbScale
 70
     0
300
1/128" = 1'-0"
140
0.0078125
141
12.0
290
     0
  0
SCALE
  5
12BB
102
{ACAD_REACTORS
330
12B8
102
}
330
12B8
100
AcDbScale
 70
     0
300
1/64" = 1'-0"
140
0.015625
141
12.0
290
     0
  0
SCALE
  5
12BC
102
{ACAD_REACTORS
330
12B8
102
}
330
12B8
100
AcDbScale
 70
     0
300
1/32" = 1'-0"
140
0.03125
141
12.0
290
     0
  0
SCALE
  5
12BD
102
{ACAD_REACTORS
330
12B8
102
}
330
12B8
100
AcDbScale
 70
     0
300
1/16" = 1'-0"
140
0.0625
141
12.0
290
     0
  0
SCALE
  5
12BE
102
{ACAD_REACTORS
330
12B8
102
}
330
12B8
100
AcDbScale
 70
     0
300
3/32" = 1'-0"
140
0.09375
141
12.0
290
     0
  0
SCALE
  5
12BF
102
{ACAD_REACTORS
330
12B8
102
}
330
12B8
100
AcDbScale
 70
     0
300
1/8" = 1'-0"
140
0.125
141
12.0
290
     0
  0
SCALE
  5
12C0
102
{ACAD_REACTORS
330
12B8
102
}
330
12B8
100
AcDbScale
 70
     0
300
3/16" = 1'-0"
140
0.1875
141
12.0
290
     0
  0
SCALE
  5
12C1
102
{ACAD_REACTORS
330
12B8
102
}
330
12B8
100
AcDbScale
 70
     0
300
1/4" = 1'-0"
140
0.25
141
12.0
290
     0
  0
SCALE
  5
12C2
102
{ACAD_REACTORS
330
12B8
102
}
330
12B8
100
AcDbScale
 70
     0
300
3/8" = 1'-0"
140
0.375
141
12.0
290
     0
  0
SCALE
  5
12C3
102
{ACAD_REACTORS
330
12B8
102
}
330
12B8
100
AcDbScale
 70
     0
300
1/2" = 1'-0"
140
0.5
141
12.0
290
     0
  0
SCALE
  5
12C4
102
{ACAD_REACTORS
330
12B8
102
}
330
12B8
100
AcDbScale
 70
     0
300
3/4" = 1'-0"
140
0.75
141
12.0
290
     0
  0
SCALE
  5
12C5
102
{ACAD_REACTORS
330
12B8
102
}
330
12B8
100
AcDbScale
 70
     0
300
1" = 1'-0"
140
1.0
141
12.0
290
     0
  0
SCALE
  5
12C6
102
{ACAD_REACTORS
330
12B8
102
}
330
12B8
100
AcDbScale
 70
     0
300
1-1/2" = 1'-0"
140
1.5
141
12.0
290
     0
  0
SCALE
  5
12C7
102
{ACAD_REACTORS
330
12B8
102
}
330
12B8
100
AcDbScale
 70
     0
300
3" = 1'-0"
140
3.0
141
12.0
290
     0
  0
SCALE
  5
12C8
102
{ACAD_REACTORS
330
12B8
102
}
330
12B8
100
AcDbScale
 70
     0
300
6" = 1'-0"
140
6.0
141
12.0
290
     0
  0
SCALE
  5
12C9
102
{ACAD_REACTORS
330
12B8
102
}
330
12B8
100
AcDbScale
 70
     0
300
1'-0" = 1'-0"
140
12.0
141
12.0
290
     0
  0
ACDBSECTIONVIEWSTYLE
  5
12CD
102
{ACAD_XDICTIONARY
360
1328
102
}
102
{ACAD_REACTORS
330
12CC
102
}
330
12CC
100
AcDbModelDocViewStyle
 70
     0
  3
Imperial24
290
     0
100
AcDbSectionViewStyle
 70
     0
 71
     0
 90
       78
 71
     1
340
FBE
 40
0.24
340
0
340
0
 40
0.24
300
I, O, Q, S, X, Z
 40
0.48
 90
        3
 40
0.18
 90
        1
 71
     2
340
FC2
 90
       25
340
FC2
 90
       50
 40
0.24
 40
0.0
 40
0.24
 71
     3
340
FBE
 40
0.24
 90
        1
 40
0.75
 90
        1
300
%<\AcVar ViewType \f "%tc1">% %<\AcVar ViewSectionStartId>%-%<\AcVar ViewSectionEndId>%\PSCALE %<\AcVar ViewScale \f "%sn">%
 71
     4
300
ANSI31
 40
1.0
 90
        0
290
     0
290
     0
 90
        6
 40
0.0
 40
1.570796326794896
 40
0.2617993877991494
 40
1.308996938995747
 40
-0.2617993877991494
 40
1.832595714594046
  0
TABLESTYLE
  5
12B7
102
{ACAD_XDICTIONARY
360
12EF
102
}
102
{ACAD_REACTORS
330
12B6
102
}
330
12B6
100
AcDbTableStyle
  3
Standard
 70
     0
 71
     0
 40
0.06
 41
0.06
280
     0
281
     0
  7
STANDARD
140
0.18
170
     2
 62
     0
 63
     7
283
     0
274
    -2
284
     1
 64
     0
275
    -2
285
     1
 65
     0
276
    -2
286
     1
 66
     0
277
    -2
287
     1
 67
     0
278
    -2
288
     1
 68
     0
279
    -2
289
     1
 69
     0
  7
STANDARD
140
0.25
170
     5
 62
     0
 63
     7
283
     0
274
    -2
284
     1
 64
     0
275
    -2
285
     1
 65
     0
276
    -2
286
     1
 66
     0
277
    -2
287
     1
 67
     0
278
    -2
288
     1
 68
     0
279
    -2
289
     1
 69
     0
  7
STANDARD
140
0.18
170
     5
 62
     0
 63
     7
283
     0
274
    -2
284
     1
 64
     0
275
    -2
285
     1
 65
     0
276
    -2
286
     1
 66
     0
277
    -2
287
     1
 67
     0
278
    -2
288
     1
 68
     0
279
    -2
289
     1
 69
     0
  0
VISUALSTYLE
  5
12A2
102
{ACAD_XDICTIONARY
360
1300
102
}
102
{ACAD_REACTORS
330
129C
102
}
330
129C
100
AcDbVisualStyle
  2
2dWireframe
 70
     4
 71
     0
 72
     2
 73
     0
 90
        0
 40
-0.6
 41
-30.0
 62
     5
 63
     7
 74
     1
 91
        4
 64
     7
 65
   257
 75
     1
175
     1
 42
1.0
 92
        0
 66
   257
 43
1.0
 76
     1
 77
     6
 78
     2
 67
     7
 79
     5
170
     0
171
     0
290
     0
174
     0
 93
        1
 44
0.0
173
     0
291
     0
 45
0.0
1001
ACAD
1000
AcDbSavedByObjectVersion
1070
     0
  0
VISUALSTYLE
  5
12A1
102
{ACAD_XDICTIONARY
360
12FE
102
}
102
{ACAD_REACTORS
330
129C
102
}
330
129C
100
AcDbVisualStyle
  2
Basic
 70
     7
 71
     1
 72
     0
 73
     1
 90
        0
 40
-0.6
 41
-30.0
 62
     5
 63
     7
 74
     0
 91
        4
 64
     7
 65
   257
 75
     1
175
     1
 42
1.0
 92
        8
 66
     7
 43
1.0
 76
     1
 77
     6
 78
     2
 67
     7
 79
     5
170
     0
171
     0
290
     0
174
     0
 93
        1
 44
0.0
173
     0
291
     1
 45
0.0
1001
ACAD
1000
AcDbSavedByObjectVersion
1070
     0
  0
VISUALSTYLE
  5
12A8
102
{ACAD_XDICTIONARY
360
130C
102
}
102
{ACAD_REACTORS
330
129C
102
}
330
129C
100
AcDbVisualStyle
  2
Brighten
 70
    12
 71
     2
 72
     2
 73
     0
 90
        0
 40
-0.6
 41
-30.0
 62
     5
 63
     7
 74
     1
 91
        4
 64
     7
 65
   257
 75
     1
175
     1
 42
1.0
 92
        8
 66
     7
 43
1.0
 76
     1
 77
     6
 78
     2
 67
     7
 79
     5
170
     0
171
     0
290
     0
174
     0
 93
        1
 44
50.0
173
     0
291
     1
 45
0.0
1001
ACAD
1000
AcDbSavedByObjectVersion
1070
     0
  0
VISUALSTYLE
  5
12AC
102
{ACAD_XDICTIONARY
360
1314
102
}
102
{ACAD_REACTORS
330
129C
102
}
330
129C
100
AcDbVisualStyle
  2
ColorChange
 70
    16
 71
     2
 72
     2
 73
     3
 90
        0
 40
-0.6
 41
-30.0
 62
     5
 63
     8
 74
     1
 91
        4
 64
     7
 65
   257
 75
     1
175
     1
 42
1.0
 92
        8
 66
     8
 43
1.0
 76
     1
 77
     6
 78
     2
 67
     7
 79
     5
170
     0
171
     0
290
     0
174
     0
 93
        1
 44
0.0
173
     0
291
     1
 45
0.0
1001
ACAD
1000
AcDbSavedByObjectVersion
1070
     0
  0
VISUALSTYLE
  5
12A5
102
{ACAD_XDICTIONARY
360
1306
102
}
102
{ACAD_REACTORS
330
129C
102
}
330
129C
100
AcDbVisualStyle
  2
Conceptual
 70
     9
 71
     3
 72
     2
 73
     0
 90
        0
 40
-0.6
 41
-30.0
 62
     5
 63
     7
 74
     2
 91
        2
 64
     7
 65
   257
 75
     1
175
     1
 42
179.0
 92
        8
 66
     7
 43
1.0
 76
     1
 77
     6
 78
     2
 67
     7
 79
     3
170
     0
171
     0
290
     0
174
     0
 93
        1
 44
0.0
173
     0
291
     0
 45
0.0
1001
ACAD
1000
AcDbSavedByObjectVersion
1070
     0
  0
VISUALSTYLE
  5
12A7
102
{ACAD_XDICTIONARY
360
130A
102
}
102
{ACAD_REACTORS
330
129C
102
}
330
129C
100
AcDbVisualStyle
  2
Dim
 70
    11
 71
     2
 72
     2
 73
     0
 90
        0
 40
-0.6
 41
-30.0
 62
     5
 63
     7
 74
     1
 91
        4
 64
     7
 65
   257
 75
     1
175
     1
 42
1.0
 92
        8
 66
     7
 43
1.0
 76
     1
 77
     6
 78
     2
 67
     7
 79
     5
170
     0
171
     0
290
     0
174
     0
 93
        1
 44
-50.0
173
     0
291
     1
 45
0.0
1001
ACAD
1000
AcDbSavedByObjectVersion
1070
     0
  0
VISUALSTYLE
  5
12B4
102
{ACAD_XDICTIONARY
360
1324
102
}
102
{ACAD_REACTORS
330
129C
102
}
330
129C
100
AcDbVisualStyle
  2
EdgeColorOff
 70
    22
 71
     2
 72
     2
 73
     0
 90
        0
 40
-0.6
 41
-30.0
 62
     5
 63
     7
 74
     1
 91
        4
 64
     7
 65
   257
 75
     1
175
     1
 42
1.0
 92
        8
 66
     7
 43
1.0
 76
     1
 77
     6
 78
     2
 67
     7
 79
     5
170
     0
171
     0
290
     0
174
     0
 93
        1
 44
0.0
173
     0
291
     1
 45
0.0
1001
ACAD
1000
AcDbSavedByObjectVersion
1070
     0
  0
VISUALSTYLE
  5
12AB
102
{ACAD_XDICTIONARY
360
1312
102
}
102
{ACAD_REACTORS
330
129C
102
}
330
129C
100
AcDbVisualStyle
  2
Facepattern
 70
    15
 71
     2
 72
     2
 73
     0
 90
        0
 40
-0.6
 41
-30.0
 62
     5
 63
     7
 74
     1
 91
        4
 64
     7
 65
   257
 75
     1
175
     1
 42
1.0
 92
        8
 66
     7
 43
1.0
 76
     1
 77
     6
 78
     2
 67
     7
 79
     5
170
     0
171
     0
290
     0
174
     0
 93
        1
 44
0.0
173
     0
291
     1
 45
0.0
1001
ACAD
1000
AcDbSavedByObjectVersion
1070
     0
  0
VISUALSTYLE
  5
129D
102
{ACAD_XDICTIONARY
360
12F6
102
}
102
{ACAD_REACTORS
330
129C
102
}
330
129C
100
AcDbVisualStyle
  2
Flat
 70
     0
 71
     2
 72
     1
 73
     1
 90
        2
 40
-0.6
 41
30.0
 62
     5
 63
     7
 74
     0
 91
        0
 64
     7
 65
   257
 75
     1
175
     1
 42
1.0
 92
        8
 66
     7
 43
1.0
 76
     1
 77
     6
 78
     2
 67
     7
 79
     5
170
     0
171
     0
290
     0
174
     0
 93
       13
 44
0.0
173
     0
291
     1
 45
0.0
1001
ACAD
1000
AcDbSavedByObjectVersion
1070
     0
  0
VISUALSTYLE
  5
129E
102
{ACAD_XDICTIONARY
360
12F8
102
}
102
{ACAD_REACTORS
330
129C
102
}
330
129C
100
AcDbVisualStyle
  2
FlatWithEdges
 70
     1
 71
     2
 72
     1
 73
     1
 90
        2
 40
-0.6
 41
30.0
 62
     5
 63
     7
 74
     1
 91
        0
 64
     7
 65
   257
 75
     1
175
     1
 42
1.0
 92
        0
 66
   257
 43
1.0
 76
     1
 77
     6
 78
     2
 67
     7
 79
     5
170
     0
171
     0
290
     0
174
     0
 93
       13
 44
0.0
173
     0
291
     1
 45
0.0
1001
ACAD
1000
AcDbSavedByObjectVersion
1070
     0
  0
VISUALSTYLE
  5
129F
102
{ACAD_XDICTIONARY
360
12FA
102
}
102
{ACAD_REACTORS
330
129C
102
}
330
129C
100
AcDbVisualStyle
  2
Gouraud
 70
     2
 71
     2
 72
     2
 73
     1
 90
        2
 40
-0.6
 41
30.0
 62
     5
 63
     7
 74
     0
 91
        0
 64
     7
 65
   257
 75
     1
175
     1
 42
1.0
 92
        0
 66
     7
 43
1.0
 76
     1
 77
     6
 78
     2
 67
     7
 79
     5
170
     0
171
     0
290
     0
174
     0
 93
       13
 44
0.0
173
     0
291
     1
 45
0.0
1001
ACAD
1000
AcDbSavedByObjectVersion
1070
     0
  0
VISUALSTYLE
  5
12A0
102
{ACAD_XDICTIONARY
360
12FC
102
}
102
{ACAD_REACTORS
330
129C
102
}
330
129C
100
AcDbVisualStyle
  2
GouraudWithEdges
 70
     3
 71
     2
 72
     2
 73
     1
 90
        2
 40
-0.6
 41
30.0
 62
     5
 63
     7
 74
     1
 91
        0
 64
     7
 65
   257
 75
     1
175
     1
 42
1.0
 92
        0
 66
   257
 43
1.0
 76
     1
 77
     6
 78
     2
 67
     7
 79
     5
170
     0
171
     0
290
     0
174
     0
 93
       13
 44
0.0
173
     0
291
     1
 45
0.0
1001
ACAD
1000
AcDbSavedByObjectVersion
1070
     0
  0
VISUALSTYLE
  5
12A4
102
{ACAD_XDICTIONARY
360
1304
102
}
102
{ACAD_REACTORS
330
129C
102
}
330
129C
100
AcDbVisualStyle
  2
Hidden
 70
     6
 71
     1
 72
     2
 73
     2
 90
        0
 40
-0.6
 41
-30.0
 62
     5
 63
     7
 74
     2
 91
        2
 64
     7
 65
   257
 75
     2
175
     1
 42
40.0
 92
        0
 66
   257
 43
1.0
 76
     1
 77
     6
 78
     2
 67
     7
 79
     3
170
     0
171
     0
290
     0
174
     0
 93
        1
 44
0.0
173
     0
291
     0
 45
0.0
1001
ACAD
1000
AcDbSavedByObjectVersion
1070
     0
  0
VISUALSTYLE
  5
12B2
102
{ACAD_XDICTIONARY
360
1320
102
}
102
{ACAD_REACTORS
330
129C
102
}
330
129C
100
AcDbVisualStyle
  2
JitterOff
 70
    20
 71
     2
 72
     2
 73
     0
 90
        0
 40
-0.6
 41
-30.0
 62
     5
 63
     7
 74
     1
 91
        4
 64
     7
 65
   257
 75
     1
175
     1
 42
1.0
 92
       10
 66
     7
 43
1.0
 76
     1
 77
     6
 78
     2
 67
     7
 79
     5
170
     0
171
     0
290
     0
174
     0
 93
        1
 44
0.0
173
     0
291
     1
 45
0.0
1001
ACAD
1000
AcDbSavedByObjectVersion
1070
     0
  0
VISUALSTYLE
  5
12AA
102
{ACAD_XDICTIONARY
360
1310
102
}
102
{ACAD_REACTORS
330
129C
102
}
330
129C
100
AcDbVisualStyle
  2
Linepattern
 70
    14
 71
     2
 72
     2
 73
     0
 90
        0
 40
-0.6
 41
-30.0
 62
     5
 63
     7
 74
     1
 91
        4
 64
     7
 65
   257
 75
     7
175
     7
 42
1.0
 92
        8
 66
     7
 43
1.0
 76
     1
 77
     6
 78
     2
 67
     7
 79
     5
170
     0
171
     0
290
     0
174
     0
 93
        1
 44
0.0
173
     0
291
     1
 45
0.0
1001
ACAD
1000
AcDbSavedByObjectVersion
1070
     0
  0
VISUALSTYLE
  5
12B3
102
{ACAD_XDICTIONARY
360
1322
102
}
102
{ACAD_REACTORS
330
129C
102
}
330
129C
100
AcDbVisualStyle
  2
OverhangOff
 70
    21
 71
     2
 72
     2
 73
     0
 90
        0
 40
-0.6
 41
-30.0
 62
     5
 63
     7
 74
     1
 91
        4
 64
     7
 65
   257
 75
     1
175
     1
 42
1.0
 92
        9
 66
     7
 43
1.0
 76
     1
 77
     6
 78
     2
 67
     7
 79
     5
170
     0
171
     0
290
     0
174
     0
 93
        1
 44
0.0
173
     0
291
     1
 45
0.0
1001
ACAD
1000
AcDbSavedByObjectVersion
1070
     0
  0
VISUALSTYLE
  5
12A6
102
{ACAD_XDICTIONARY
360
1308
102
}
102
{ACAD_REACTORS
330
129C
102
}
330
129C
100
AcDbVisualStyle
  2
Realistic
 70
     8
 71
     2
 72
     3
 73
     0
 90
        2
 40
-0.6
 41
30.0
 62
     5
 63
     7
 74
     0
 91
        0
 64
     7
 65
   257
 75
     1
175
     1
 42
1.0
 92
        8
 66
   257
 43
1.0
 76
     1
 77
     6
 78
     2
 67
     7
 79
     3
170
     0
171
     0
290
     0
174
     0
 93
       13
 44
0.0
173
     0
291
     0
 45
0.0
1001
ACAD
1000
AcDbSavedByObjectVersion
1070
     0
  0
VISUALSTYLE
  5
12B1
102
{ACAD_XDICTIONARY
360
131E
102
}
102
{ACAD_REACTORS
330
129C
102
}
330
129C
100
AcDbVisualStyle
  2
Shaded
 70
    27
 71
     2
 72
     2
 73
     1
 90
        2
 40
-0.6
 41
30.0
 62
     5
 63
     7
 74
     0
 91
        4
 64
     7
 65
   257
 75
     1
175
     1
 42
1.0
 92
        8
 66
   257
 43
1.0
 76
     1
 77
     6
 78
     2
 67
     8
 79
     3
170
     0
171
     0
290
     0
174
     0
 93
        5
 44
0.0
173
     0
291
     0
 45
0.0
1001
ACAD
1000
AcDbSavedByObjectVersion
1070
     0
  0
VISUALSTYLE
  5
12B0
102
{ACAD_XDICTIONARY
360
131C
102
}
102
{ACAD_REACTORS
330
129C
102
}
330
129C
100
AcDbVisualStyle
  2
Shaded with edges
 70
    26
 71
     2
 72
     2
 73
     1
 90
        2
 40
-0.6
 41
30.0
 62
     5
 63
     7
 74
     1
 91
       10
 64
     7
 65
   257
 75
     2
175
     1
 42
1.0
 92
        8
 66
   257
 43
1.0
 76
     1
 77
     6
 78
     2
 67
     7
 79
     3
170
     0
171
     0
290
     0
174
     0
 93
        5
 44
0.0
173
     0
291
     0
 45
0.0
1001
ACAD
1000
AcDbSavedByObjectVersion
1070
     0
  0
VISUALSTYLE
  5
12AD
102
{ACAD_XDICTIONARY
360
1316
102
}
102
{ACAD_REACTORS
330
129C
102
}
330
129C
100
AcDbVisualStyle
  2
Shades of Gray
 70
    23
 71
     2
 72
     2
 73
     3
 90
        0
 40
-0.6
 41
-30.0
 62
     5
 63
     7
 74
     2
 91
        2
 64
     7
 65
     7
 75
     1
175
     1
 42
40.0
 92
        8
 66
     7
 43
1.0
 76
     1
 77
     6
 78
     2
 67
     7
 79
     3
170
     0
171
     0
290
     0
174
     0
 93
        1
 44
0.0
173
     0
291
     0
 45
0.0
1001
ACAD
1000
AcDbSavedByObjectVersion
1070
     0
  0
VISUALSTYLE
  5
12AE
102
{ACAD_XDICTIONARY
360
1318
102
}
102
{ACAD_REACTORS
330
129C
102
}
330
129C
100
AcDbVisualStyle
  2
Sketchy
 70
    24
 71
     1
 72
     2
 73
     2
 90
        0
 40
-0.6
 41
-30.0
 62
     5
 63
     7
 74
     2
 91
        2
 64
     7
 65
     7
 75
     1
175
     1
 42
40.0
 92
       11
 66
     7
 43
1.0
 76
     1
 77
     6
 78
     2
 67
     7
 79
     6
170
     0
171
     0
290
     0
174
     0
 93
        1
 44
0.0
173
     0
291
     0
 45
0.0
1001
ACAD
1000
AcDbSavedByObjectVersion
1070
     0
  0
VISUALSTYLE
  5
12A9
102
{ACAD_XDICTIONARY
360
130E
102
}
102
{ACAD_REACTORS
330
129C
102
}
330
129C
100
AcDbVisualStyle
  2
Thicken
 70
    13
 71
     2
 72
     2
 73
     0
 90
        0
 40
-0.6
 41
-30.0
 62
     5
 63
     7
 74
     1
 91
        4
 64
     7
 65
   257
 75
     1
175
     1
 42
1.0
 92
       12
 66
     7
 43
1.0
 76
     1
 77
     6
 78
     2
 67
     7
 79
     5
170
     0
171
     0
290
     0
174
     0
 93
        1
 44
0.0
173
     0
291
     1
 45
0.0
1001
ACAD
1000
AcDbSavedByObjectVersion
1070
     0
  0
VISUALSTYLE
  5
12A3
102
{ACAD_XDICTIONARY
360
1302
102
}
102
{ACAD_REACTORS
330
129C
102
}
330
129C
100
AcDbVisualStyle
  2
Wireframe
 70
     5
 71
     0
 72
     2
 73
     0
 90
        0
 40
-0.6
 41
-30.0
 62
     5
 63
     7
 74
     1
 91
        4
 64
     7
 65
   257
 75
     1
175
     1
 42
1.0
 92
        0
 66
   257
 43
1.0
 76
     1
 77
     6
 78
     2
 67
     7
 79
     3
170
     0
171
     0
290
     0
174
     0
 93
        1
 44
0.0
173
     0
291
     0
 45
0.0
1001
ACAD
1000
AcDbSavedByObjectVersion
1070
     0
  0
VISUALSTYLE
  5
12AF
102
{ACAD_XDICTIONARY
360
131A
102
}
102
{ACAD_REACTORS
330
129C
102
}
330
129C
100
AcDbVisualStyle
  2
X-Ray
 70
    25
 71
     2
 72
     2
 73
     1
 90
        1
 40
0.5
 41
-30.0
 62
     5
 63
     7
 74
     1
 91
        0
 64
     7
 65
   257
 75
     1
175
     1
 42
1.0
 92
        8
 66
     7
 43
1.0
 76
     1
 77
     6
 78
     2
 67
     7
 79
     3
170
     0
171
     0
290
     0
174
     0
 93
       13
 44
0.0
173
     0
291
     0
 45
0.0
1001
ACAD
1000
AcDbSavedByObjectVersion
1070
     0
  0
DICTIONARYVAR
  5
12E9
102
{ACAD_REACTORS
330
12E4
102
}
330
12E4
100
DictionaryVariables
280
     0
  1
1:1
  0
DICTIONARYVAR
  5
12E6
102
{ACAD_REACTORS
330
12E4
102
}
330
12E4
100
DictionaryVariables
280
     0
  1
STANDARD
  0
DICTIONARYVAR
  5
12E5
102
{ACAD_REACTORS
330
12E4
102
}
330
12E4
100
DictionaryVariables
280
     0
  1
STANDARD
  0
DICTIONARYVAR
  5
12E7
102
{ACAD_REACTORS
330
12E4
102
}
330
12E4
100
DictionaryVariables
280
     0
  1
Imperial24
  0
DICTIONARYVAR
  5
12E8
102
{ACAD_REACTORS
330
12E4
102
}
330
12E4
100
DictionaryVariables
280
     0
  1
Imperial24
  0
DICTIONARYVAR
  5
12EC
102
{ACAD_REACTORS
330
12E4
102
}
330
12E4
100
DictionaryVariables
280
     0
  1
1
  0
DICTIONARYVAR
  5
12EB
102
{ACAD_REACTORS
330
12E4
102
}
330
12E4
100
DictionaryVariables
280
     0
  1
0
  0
DICTIONARYVAR
  5
12EA
102
{ACAD_REACTORS
330
12E4
102
}
330
12E4
100
DictionaryVariables
280
     0
  1
127
  0
DICTIONARYVAR
  5
12ED
102
{ACAD_REACTORS
330
12E4
102
}
330
12E4
100
DictionaryVariables
280
     0
  1
2
  0
DICTIONARY
  5
132A
330
12CF
100
AcDbDictionary
280
     1
281
     1
  3
ACAD_XREC_ROUNDTRIP
360
132B
  0
DICTIONARY
  5
132C
330
12D0
100
AcDbDictionary
280
     1
281
     1
  3
ACAD_XREC_ROUNDTRIP
360
132D
  0
DICTIONARY
  5
132E
330
12D1
100
AcDbDictionary
280
     1
281
     1
  3
ACAD_XREC_ROUNDTRIP
360
132F
  0
DICTIONARY
  5
128D
330
128C
100
AcDbDictionary
280
     1
281
     1
  3
ACAD_XREC_ROUNDTRIP
360
12F4
  3
BUMPTILE
360
128F
  3
DIFFUSETILE
360
128E
  3
OPACITYTILE
360
1292
  3
REFLECTIONTILE
360
1291
  3
REFRACTIONTILE
360
1293
  3
SPECULARTILE
360
1290
  0
DICTIONARY
  5
1285
330
1284
100
AcDbDictionary
280
     1
281
     1
  3
ACAD_XREC_ROUNDTRIP
360
12F3
  3
BUMPTILE
360
1287
  3
DIFFUSETILE
360
1286
  3
OPACITYTILE
360
128A
  3
REFLECTIONTILE
360
1289
  3
REFRACTIONTILE
360
128B
  3
SPECULARTILE
360
1288
  0
DICTIONARY
  5
1295
330
1294
100
AcDbDictionary
280
     1
281
     1
  3
ACAD_XREC_ROUNDTRIP
360
12F5
  3
BUMPTILE
360
1297
  3
DIFFUSETILE
360
1296
  3
OPACITYTILE
360
129A
  3
REFLECTIONTILE
360
1299
  3
REFRACTIONTILE
360
129B
  3
SPECULARTILE
360
1298
  0
DICTIONARY
  5
1328
330
12CD
100
AcDbDictionary
280
     1
281
     1
  3
ACAD_XREC_ROUNDTRIP
360
1329
  0
DICTIONARY
  5
12EF
330
12B7
100
AcDbDictionary
280
     1
281
     1
  3
ACAD_ROUNDTRIP_2008_TABLESTYLE_CELLSTYLEMAP
360
12F0
  3
ACAD_XREC_ROUNDTRIP
360
1326
  0
DICTIONARY
  5
1300
330
12A2
100
AcDbDictionary
280
     1
281
     1
  3
ACAD_XREC_ROUNDTRIP
360
1301
  0
DICTIONARY
  5
12FE
330
12A1
100
AcDbDictionary
280
     1
281
     1
  3
ACAD_XREC_ROUNDTRIP
360
12FF
  0
DICTIONARY
  5
130C
330
12A8
100
AcDbDictionary
280
     1
281
     1
  3
ACAD_XREC_ROUNDTRIP
360
130D
  0
DICTIONARY
  5
1314
330
12AC
100
AcDbDictionary
280
     1
281
     1
  3
ACAD_XREC_ROUNDTRIP
360
1315
  0
DICTIONARY
  5
1306
330
12A5
100
AcDbDictionary
280
     1
281
     1
  3
ACAD_XREC_ROUNDTRIP
360
1307
  0
DICTIONARY
  5
130A
330
12A7
100
AcDbDictionary
280
     1
281
     1
  3
ACAD_XREC_ROUNDTRIP
360
130B
  0
DICTIONARY
  5
1324
330
12B4
100
AcDbDictionary
280
     1
281
     1
  3
ACAD_XREC_ROUNDTRIP
360
1325
  0
DICTIONARY
  5
1312
330
12AB
100
AcDbDictionary
280
     1
281
     1
  3
ACAD_XREC_ROUNDTRIP
360
1313
  0
DICTIONARY
  5
12F6
330
129D
100
AcDbDictionary
280
     1
281
     1
  3
ACAD_XREC_ROUNDTRIP
360
12F7
  0
DICTIONARY
  5
12F8
330
129E
100
AcDbDictionary
280
     1
281
     1
  3
ACAD_XREC_ROUNDTRIP
360
12F9
  0
DICTIONARY
  5
12FA
330
129F
100
AcDbDictionary
280
     1
281
     1
  3
ACAD_XREC_ROUNDTRIP
360
12FB
  0
DICTIONARY
  5
12FC
330
12A0
100
AcDbDictionary
280
     1
281
     1
  3
ACAD_XREC_ROUNDTRIP
360
12FD
  0
DICTIONARY
  5
1304
330
12A4
100
AcDbDictionary
280
     1
281
     1
  3
ACAD_XREC_ROUNDTRIP
360
1305
  0
DICTIONARY
  5
1320
330
12B2
100
AcDbDictionary
280
     1
281
     1
  3
ACAD_XREC_ROUNDTRIP
360
1321
  0
DICTIONARY
  5
1310
330
12AA
100
AcDbDictionary
280
     1
281
     1
  3
ACAD_XREC_ROUNDTRIP
360
1311
  0
DICTIONARY
  5
1322
330
12B3
100
AcDbDictionary
280
     1
281
     1
  3
ACAD_XREC_ROUNDTRIP
360
1323
  0
DICTIONARY
  5
1308
330
12A6
100
AcDbDictionary
280
     1
281
     1
  3
ACAD_XREC_ROUNDTRIP
360
1309
  0
DICTIONARY
  5
131E
330
12B1
100
AcDbDictionary
280
     1
281
     1
  3
ACAD_XREC_ROUNDTRIP
360
131F
  0
DICTIONARY
  5
131C
330
12B0
100
AcDbDictionary
280
     1
281
     1
  3
ACAD_XREC_ROUNDTRIP
360
131D
  0
DICTIONARY
  5
1316
330
12AD
100
AcDbDictionary
280
     1
281
     1
  3
ACAD_XREC_ROUNDTRIP
360
1317
  0
DICTIONARY
  5
1318
330
12AE
100
AcDbDictionary
280
     1
281
     1
  3
ACAD_XREC_ROUNDTRIP
360
1319
  0
DICTIONARY
  5
130E
330
12A9
100
AcDbDictionary
280
     1
281
     1
  3
ACAD_XREC_ROUNDTRIP
360
130F
  0
DICTIONARY
  5
1302
330
12A3
100
AcDbDictionary
280
     1
281
     1
  3
ACAD_XREC_ROUNDTRIP
360
1303
  0
DICTIONARY
  5
131A
330
12AF
100
AcDbDictionary
280
     1
281
     1
  3
ACAD_XREC_ROUNDTRIP
360
131B
  0
XRECORD
  5
132B
102
{ACAD_REACTORS
330
132A
102
}
330
132A
100
AcDbXrecord
280
     1
102
DISPLAYNAME
  1
Imperial24
102
FLAGS
 90
        0
  0
XRECORD
  5
132D
102
{ACAD_REACTORS
330
132C
102
}
330
132C
100
AcDbXrecord
280
     1
102
SHADEPLOT
 70
     0
102
SHADEPLOTRESLEVEL
 70
     2
102
SHADEPLOTCUSTOMDPI
 70
   300
  0
XRECORD
  5
132F
102
{ACAD_REACTORS
330
132E
102
}
330
132E
100
AcDbXrecord
280
     1
102
SHADEPLOT
 70
     0
102
SHADEPLOTRESLEVEL
 70
     2
102
SHADEPLOTCUSTOMDPI
 70
   300
  0
XRECORD
  5
12F4
102
{ACAD_REACTORS
330
128D
102
}
330
128D
100
AcDbXrecord
280
     1
102
MATERIAL
148
0.0
149
0.0
149
0.0
 93
        0
 94
      127
282
     0
 72
     0
 77
     0
171
     0
175
     0
179
     0
273
     0
  0
XRECORD
  5
128F
102
{ACAD_REACTORS
330
128D
102
}
330
128D
100
AcDbXrecord
280
     1
270
     1
271
     1
  0
XRECORD
  5
128E
102
{ACAD_REACTORS
330
128D
102
}
330
128D
100
AcDbXrecord
280
     1
270
     1
271
     1
  0
XRECORD
  5
1292
102
{ACAD_REACTORS
330
128D
102
}
330
128D
100
AcDbXrecord
280
     1
270
     1
271
     1
  0
XRECORD
  5
1291
102
{ACAD_REACTORS
330
128D
102
}
330
128D
100
AcDbXrecord
280
     1
270
     1
271
     1
  0
XRECORD
  5
1293
102
{ACAD_REACTORS
330
128D
102
}
330
128D
100
AcDbXrecord
280
     1
270
     1
271
     1
  0
XRECORD
  5
1290
102
{ACAD_REACTORS
330
128D
102
}
330
128D
100
AcDbXrecord
280
     1
270
     1
271
     1
  0
XRECORD
  5
12F3
102
{ACAD_REACTORS
330
1285
102
}
330
1285
100
AcDbXrecord
280
     1
102
MATERIAL
148
0.0
149
0.0
149
0.0
 93
        0
 94
      127
282
     0
 72
     0
 77
     0
171
     0
175
     0
179
     0
273
     0
  0
XRECORD
  5
1287
102
{ACAD_REACTORS
330
1285
102
}
330
1285
100
AcDbXrecord
280
     1
270
     1
271
     1
  0
XRECORD
  5
1286
102
{ACAD_REACTORS
330
1285
102
}
330
1285
100
AcDbXrecord
280
     1
270
     1
271
     1
  0
XRECORD
  5
128A
102
{ACAD_REACTORS
330
1285
102
}
330
1285
100
AcDbXrecord
280
     1
270
     1
271
     1
  0
XRECORD
  5
1289
102
{ACAD_REACTORS
330
1285
102
}
330
1285
100
AcDbXrecord
280
     1
270
     1
271
     1
  0
XRECORD
  5
128B
102
{ACAD_REACTORS
330
1285
102
}
330
1285
100
AcDbXrecord
280
     1
270
     1
271
     1
  0
XRECORD
  5
1288
102
{ACAD_REACTORS
330
1285
102
}
330
1285
100
AcDbXrecord
280
     1
270
     1
271
     1
  0
XRECORD
  5
12F5
102
{ACAD_REACTORS
330
1295
102
}
330
1295
100
AcDbXrecord
280
     1
102
MATERIAL
148
0.0
149
0.0
149
0.0
 93
        0
 94
      127
282
     0
 72
     0
 77
     0
171
     0
175
     0
179
     0
273
     0
  0
XRECORD
  5
1297
102
{ACAD_REACTORS
330
1295
102
}
330
1295
100
AcDbXrecord
280
     1
270
     1
271
     1
  0
XRECORD
  5
1296
102
{ACAD_REACTORS
330
1295
102
}
330
1295
100
AcDbXrecord
280
     1
270
     1
271
     1
  0
XRECORD
  5
129A
102
{ACAD_REACTORS
330
1295
102
}
330
1295
100
AcDbXrecord
280
     1
270
     1
271
     1
  0
XRECORD
  5
1299
102
{ACAD_REACTORS
330
1295
102
}
330
1295
100
AcDbXrecord
280
     1
270
     1
271
     1
  0
XRECORD
  5
129B
102
{ACAD_REACTORS
330
1295
102
}
330
1295
100
AcDbXrecord
280
     1
270
     1
271
     1
  0
XRECORD
  5
1298
102
{ACAD_REACTORS
330
1295
102
}
330
1295
100
AcDbXrecord
280
     1
270
     1
271
     1
  0
XRECORD
  5
1329
102
{ACAD_REACTORS
330
1328
102
}
330
1328
100
AcDbXrecord
280
     1
102
DISPLAYNAME
  1
Imperial24
102
FLAGS
 90
        0
  0
CELLSTYLEMAP
  5
12F0
102
{ACAD_REACTORS
330
12EF
102
}
330
12EF
100
AcDbCellStyleMap
 90
        3
300
CELLSTYLE
  1
TABLEFORMAT_BEGIN
 90
        5
170
     1
 91
        0
 92
    32768
 62
   257
 93
        1
300
CONTENTFORMAT
  1
CONTENTFORMAT_BEGIN
 90
        0
 91
        0
 92
      512
 93
        0
300

 40
0.0
140
1.0
 94
        5
 62
     0
340
FBE
144
0.25
309
CONTENTFORMAT_END
171
     0
 94
        0
309
TABLEFORMAT_END
  1
CELLSTYLE_BEGIN
 90
        1
 91
        1
300
_TITLE
309
CELLSTYLE_END
300
CELLSTYLE
  1
TABLEFORMAT_BEGIN
 90
        5
170
     1
 91
        0
 92
        0
 62
   257
 93
        1
300
CONTENTFORMAT
  1
CONTENTFORMAT_BEGIN
 90
        0
 91
        0
 92
      512
 93
        0
300

 40
0.0
140
1.0
 94
        5
 62
     0
340
FBE
144
0.18
309
CONTENTFORMAT_END
171
     0
 94
        0
309
TABLEFORMAT_END
  1
CELLSTYLE_BEGIN
 90
        2
 91
        1
300
_HEADER
309
CELLSTYLE_END
300
CELLSTYLE
  1
TABLEFORMAT_BEGIN
 90
        5
170
     1
 91
        0
 92
        0
 62
   257
 93
        1
300
CONTENTFORMAT
  1
CONTENTFORMAT_BEGIN
 90
        0
 91
        0
 92
      512
 93
        0
300

 40
0.0
140
1.0
 94
        2
 62
     0
340
FBE
144
0.18
309
CONTENTFORMAT_END
171
     0
 94
        0
309
TABLEFORMAT_END
  1
CELLSTYLE_BEGIN
 90
        3
 91
        2
300
_DATA
309
CELLSTYLE_END
  0
XRECORD
  5
1326
102
{ACAD_REACTORS
330
12EF
102
}
330
12EF
100
AcDbXrecord
280
     1
102
ACAD_ROUNDTRIP_PRE2007_TABLESTYLE
 90
      512
 91
        0
  1

 92
      512
 93
        0
  2

 94
      512
 95
        0
  3

  0
XRECORD
  5
1301
102
{ACAD_REACTORS
330
1300
102
}
330
1300
100
AcDbXrecord
280
     1
102
RTVSPost2010Prop28
280
     1
102
RTVSPost2010PropOp28
 70
     1
102
RTVSPost2010Prop29
280
     1
102
RTVSPost2010PropOp29
 70
     1
102
RTVSPost2010Prop30
280
     0
102
RTVSPost2010PropOp30
 70
     1
102
RTVSPost2010Prop31
280
     0
102
RTVSPost2010PropOp31
 70
     1
102
RTVSPost2010Prop32
280
     0
102
RTVSPost2010PropOp32
 70
     1
102
RTVSPost2010Prop33
280
     0
102
RTVSPost2010PropOp33
 70
     1
102
RTVSPost2010Prop34
280
     0
102
RTVSPost2010PropOp34
 70
     1
102
RTVSPost2010Prop35
280
     0
102
RTVSPost2010PropOp35
 70
     1
102
RTVSPost2010Prop36
280
     0
102
RTVSPost2010PropOp36
 70
     1
102
RTVSPost2010Prop37
 90
       50
102
RTVSPost2010PropOp37
 70
     1
102
RTVSPost2010Prop38
140
0.0
102
RTVSPost2010PropOp38
 70
     1
102
RTVSPost2010Prop39
140
1.0
102
RTVSPost2010PropOp39
 70
     1
102
RTVSPost2010Prop40
 90
        0
102
RTVSPost2010PropOp40
 70
     1
102
RTVSPost2010Prop41ColorIndex
 90
       18
102
RTVSPost2010Prop41ColorRGB
 90
        0
102
RTVSPost2010PropOp41
 70
     1
102
RTVSPost2010Prop42
 90
       50
102
RTVSPost2010PropOp42
 70
     1
102
RTVSPost2010Prop43
 90
        3
102
RTVSPost2010PropOp43
 70
     1
102
RTVSPost2010Prop44ColorIndex
 90
        5
102
RTVSPost2010Prop44ColorRGB
 90
      255
102
RTVSPost2010PropOp44
 70
     1
102
RTVSPost2010Prop45
280
     0
102
RTVSPost2010PropOp45
 70
     1
102
RTVSPost2010Prop46
 90
       50
102
RTVSPost2010PropOp46
 70
     1
102
RTVSPost2010Prop47
 90
       50
102
RTVSPost2010PropOp47
 70
     1
102
RTVSPost2010Prop48
 90
       50
102
RTVSPost2010PropOp48
 70
     1
102
RTVSPost2010Prop49
280
     0
102
RTVSPost2010PropOp49
 70
     1
102
RTVSPost2010Prop50
 90
       50
102
RTVSPost2010PropOp50
 70
     1
102
RTVSPost2010Prop51ColorIndex
 90
      256
102
RTVSPost2010Prop51ColorRGB
 90
-16777216
102
RTVSPost2010PropOp51
 70
     0
102
RTVSPost2010Prop52
140
1.0
102
RTVSPost2010PropOp52
 70
     0
102
RTVSPost2010Prop53
 90
        2
102
RTVSPost2010PropOp53
 70
     1
102
RTVSPost2010Prop54
  1
strokes_ogs.tif
102
RTVSPost2010PropOp54
 70
     1
102
RTVSPost2010Prop55
280
     0
102
RTVSPost2010PropOp55
 70
     1
102
RTVSPost2010Prop56
140
1.0
102
RTVSPost2010PropOp56
 70
     1
102
RTVSPost2010Prop57
140
1.0
102
RTVSPost2010PropOp57
 70
     1
102
RTVSPropertyOp0
 70
     1
102
RTVSPropertyOp1
 70
     1
102
RTVSPropertyOp2
 70
     1
102
RTVSPropertyOp3
 70
     1
102
RTVSPropertyOp4
 70
     1
102
RTVSPropertyOp5
 70
     1
102
RTVSPropertyOp6
 70
     1
102
RTVSPropertyOp7
 70
     1
102
RTVSPropertyOp8
 70
     1
102
RTVSPropertyOp9
 70
     1
102
RTVSPropertyOp10
 70
     1
102
RTVSPropertyOp11
 70
     1
102
RTVSPropertyOp12
 70
     1
102
RTVSPropertyOp13
 70
     1
102
RTVSPropertyOp14
 70
     1
102
RTVSPropertyOp15
 70
     1
102
RTVSPropertyOp16
 70
     1
102
RTVSPropertyOp17
 70
     1
102
RTVSPropertyOp18
 70
     1
102
RTVSPropertyOp19
 70
     1
102
RTVSPropertyOp20
 70
     1
102
RTVSPropertyOp21
 70
     1
102
RTVSPropertyOp22
 70
     1
102
RTVSPropertyOp23
 70
     1
102
RTVSPropertyOp24
 70
     1
102
RTVSPropertyOp25
 70
     1
102
RTVSPropertyOp26
 70
     1
102
RTVSPropertyOp27
 70
     1
102
RTVSPropertyOp28
 70
     1
102
RTVSPropertyOp29
 70
     1
102
RTVSPropertyOp30
 70
     1
102
RTVSPropertyOp31
 70
     1
102
RTVSPropertyOp32
 70
     1
102
RTVSPropertyOp33
 70
     1
102
RTVSPropertyOp34
 70
     1
102
RTVSPropertyOp35
 70
     1
102
RTVSPropertyOp36
 70
     1
102
RTVSPropertyOp37
 70
     1
102
RTVSPropertyOp38
 70
     1
102
RTVSPropertyOp39
 70
     1
102
RTVSPropertyOp40
 70
     1
102
RTVSPropertyOp41
 70
     1
102
RTVSPropertyOp42
 70
     1
102
RTVSPropertyOp43
 70
     1
102
RTVSPropertyOp44
 70
     1
102
RTVSPropertyOp45
 70
     1
102
RTVSPropertyOp46
 70
     1
102
RTVSPropertyOp47
 70
     1
102
RTVSPropertyOp48
 70
     1
102
RTVSPropertyOp49
 70
     1
102
RTVSPropertyOp50
 70
     1
102
RTVSPropertyOp51
 70
     0
102
RTVSPropertyOp52
 70
     0
102
RTVSPropertyOp53
 70
     1
102
RTVSPropertyOp54
 70
     1
102
RTVSPropertyOp55
 70
     1
102
RTVSPropertyOp56
 70
     1
102
RTVSPropertyOp57
 70
     1
102
RTVSPropertyOp58
 70
     1
102
RTVSPropertyOp59
 70
     1
102
RTVSPropertyOp60
 70
     1
102
RTVSPropertyOp61
 70
     1
102
RTVSPropertyOp62
 70
     1
  0
XRECORD
  5
12FF
102
{ACAD_REACTORS
330
12FE
102
}
330
12FE
100
AcDbXrecord
280
     1
102
RTVSPost2010Prop28
280
     0
102
RTVSPost2010PropOp28
 70
     1
102
RTVSPost2010Prop29
280
     1
102
RTVSPost2010PropOp29
 70
     1
102
RTVSPost2010Prop30
280
     1
102
RTVSPost2010PropOp30
 70
     1
102
RTVSPost2010Prop31
280
     0
102
RTVSPost2010PropOp31
 70
     1
102
RTVSPost2010Prop32
280
     0
102
RTVSPost2010PropOp32
 70
     1
102
RTVSPost2010Prop33
280
     0
102
RTVSPost2010PropOp33
 70
     1
102
RTVSPost2010Prop34
280
     0
102
RTVSPost2010PropOp34
 70
     1
102
RTVSPost2010Prop35
280
     0
102
RTVSPost2010PropOp35
 70
     1
102
RTVSPost2010Prop36
280
     0
102
RTVSPost2010PropOp36
 70
     1
102
RTVSPost2010Prop37
 90
       50
102
RTVSPost2010PropOp37
 70
     1
102
RTVSPost2010Prop38
140
0.0
102
RTVSPost2010PropOp38
 70
     1
102
RTVSPost2010Prop39
140
1.0
102
RTVSPost2010PropOp39
 70
     1
102
RTVSPost2010Prop40
 90
        0
102
RTVSPost2010PropOp40
 70
     1
102
RTVSPost2010Prop41ColorIndex
 90
       18
102
RTVSPost2010Prop41ColorRGB
 90
        0
102
RTVSPost2010PropOp41
 70
     1
102
RTVSPost2010Prop42
 90
       50
102
RTVSPost2010PropOp42
 70
     1
102
RTVSPost2010Prop43
 90
        3
102
RTVSPost2010PropOp43
 70
     1
102
RTVSPost2010Prop44ColorIndex
 90
        5
102
RTVSPost2010Prop44ColorRGB
 90
      255
102
RTVSPost2010PropOp44
 70
     1
102
RTVSPost2010Prop45
280
     0
102
RTVSPost2010PropOp45
 70
     1
102
RTVSPost2010Prop46
 90
       50
102
RTVSPost2010PropOp46
 70
     1
102
RTVSPost2010Prop47
 90
       50
102
RTVSPost2010PropOp47
 70
     1
102
RTVSPost2010Prop48
 90
       50
102
RTVSPost2010PropOp48
 70
     1
102
RTVSPost2010Prop49
280
     0
102
RTVSPost2010PropOp49
 70
     1
102
RTVSPost2010Prop50
 90
       50
102
RTVSPost2010PropOp50
 70
     1
102
RTVSPost2010Prop51ColorIndex
 90
      256
102
RTVSPost2010Prop51ColorRGB
 90
-16777216
102
RTVSPost2010PropOp51
 70
     0
102
RTVSPost2010Prop52
140
1.0
102
RTVSPost2010PropOp52
 70
     0
102
RTVSPost2010Prop53
 90
        2
102
RTVSPost2010PropOp53
 70
     1
102
RTVSPost2010Prop54
  1
strokes_ogs.tif
102
RTVSPost2010PropOp54
 70
     1
102
RTVSPost2010Prop55
280
     0
102
RTVSPost2010PropOp55
 70
     1
102
RTVSPost2010Prop56
140
1.0
102
RTVSPost2010PropOp56
 70
     1
102
RTVSPost2010Prop57
140
1.0
102
RTVSPost2010PropOp57
 70
     1
102
RTVSPropertyOp0
 70
     1
102
RTVSPropertyOp1
 70
     1
102
RTVSPropertyOp2
 70
     1
102
RTVSPropertyOp3
 70
     1
102
RTVSPropertyOp4
 70
     1
102
RTVSPropertyOp5
 70
     1
102
RTVSPropertyOp6
 70
     1
102
RTVSPropertyOp7
 70
     1
102
RTVSPropertyOp8
 70
     1
102
RTVSPropertyOp9
 70
     1
102
RTVSPropertyOp10
 70
     1
102
RTVSPropertyOp11
 70
     1
102
RTVSPropertyOp12
 70
     1
102
RTVSPropertyOp13
 70
     1
102
RTVSPropertyOp14
 70
     1
102
RTVSPropertyOp15
 70
     1
102
RTVSPropertyOp16
 70
     1
102
RTVSPropertyOp17
 70
     1
102
RTVSPropertyOp18
 70
     1
102
RTVSPropertyOp19
 70
     1
102
RTVSPropertyOp20
 70
     1
102
RTVSPropertyOp21
 70
     1
102
RTVSPropertyOp22
 70
     1
102
RTVSPropertyOp23
 70
     1
102
RTVSPropertyOp24
 70
     1
102
RTVSPropertyOp25
 70
     1
102
RTVSPropertyOp26
 70
     1
102
RTVSPropertyOp27
 70
     1
102
RTVSPropertyOp28
 70
     1
102
RTVSPropertyOp29
 70
     1
102
RTVSPropertyOp30
 70
     1
102
RTVSPropertyOp31
 70
     1
102
RTVSPropertyOp32
 70
     1
102
RTVSPropertyOp33
 70
     1
102
RTVSPropertyOp34
 70
     1
102
RTVSPropertyOp35
 70
     1
102
RTVSPropertyOp36
 70
     1
102
RTVSPropertyOp37
 70
     1
102
RTVSPropertyOp38
 70
     1
102
RTVSPropertyOp39
 70
     1
102
RTVSPropertyOp40
 70
     1
102
RTVSPropertyOp41
 70
     1
102
RTVSPropertyOp42
 70
     1
102
RTVSPropertyOp43
 70
     1
102
RTVSPropertyOp44
 70
     1
102
RTVSPropertyOp45
 70
     1
102
RTVSPropertyOp46
 70
     1
102
RTVSPropertyOp47
 70
     1
102
RTVSPropertyOp48
 70
     1
102
RTVSPropertyOp49
 70
     1
102
RTVSPropertyOp50
 70
     1
102
RTVSPropertyOp51
 70
     0
102
RTVSPropertyOp52
 70
     0
102
RTVSPropertyOp53
 70
     1
102
RTVSPropertyOp54
 70
     1
102
RTVSPropertyOp55
 70
     1
102
RTVSPropertyOp56
 70
     1
102
RTVSPropertyOp57
 70
     1
102
RTVSPropertyOp58
 70
     1
102
RTVSPropertyOp59
 70
     1
102
RTVSPropertyOp60
 70
     1
102
RTVSPropertyOp61
 70
     1
102
RTVSPropertyOp62
 70
     1
  0
XRECORD
  5
130D
102
{ACAD_REACTORS
330
130C
102
}
330
130C
100
AcDbXrecord
280
     1
102
RTVSPost2010Prop28
280
     0
102
RTVSPost2010PropOp28
 70
     1
102
RTVSPost2010Prop29
280
     1
102
RTVSPost2010PropOp29
 70
     1
102
RTVSPost2010Prop30
280
     1
102
RTVSPost2010PropOp30
 70
     1
102
RTVSPost2010Prop31
280
     0
102
RTVSPost2010PropOp31
 70
     1
102
RTVSPost2010Prop32
280
     0
102
RTVSPost2010PropOp32
 70
     1
102
RTVSPost2010Prop33
280
     0
102
RTVSPost2010PropOp33
 70
     1
102
RTVSPost2010Prop34
280
     0
102
RTVSPost2010PropOp34
 70
     1
102
RTVSPost2010Prop35
280
     0
102
RTVSPost2010PropOp35
 70
     1
102
RTVSPost2010Prop36
280
     0
102
RTVSPost2010PropOp36
 70
     1
102
RTVSPost2010Prop37
 90
       50
102
RTVSPost2010PropOp37
 70
     1
102
RTVSPost2010Prop38
140
0.0
102
RTVSPost2010PropOp38
 70
     1
102
RTVSPost2010Prop39
140
1.0
102
RTVSPost2010PropOp39
 70
     1
102
RTVSPost2010Prop40
 90
        0
102
RTVSPost2010PropOp40
 70
     1
102
RTVSPost2010Prop41ColorIndex
 90
       18
102
RTVSPost2010Prop41ColorRGB
 90
        0
102
RTVSPost2010PropOp41
 70
     1
102
RTVSPost2010Prop42
 90
       50
102
RTVSPost2010PropOp42
 70
     1
102
RTVSPost2010Prop43
 90
        3
102
RTVSPost2010PropOp43
 70
     1
102
RTVSPost2010Prop44ColorIndex
 90
        5
102
RTVSPost2010Prop44ColorRGB
 90
      255
102
RTVSPost2010PropOp44
 70
     1
102
RTVSPost2010Prop45
280
     0
102
RTVSPost2010PropOp45
 70
     1
102
RTVSPost2010Prop46
 90
       50
102
RTVSPost2010PropOp46
 70
     1
102
RTVSPost2010Prop47
 90
       50
102
RTVSPost2010PropOp47
 70
     1
102
RTVSPost2010Prop48
 90
       50
102
RTVSPost2010PropOp48
 70
     1
102
RTVSPost2010Prop49
280
     0
102
RTVSPost2010PropOp49
 70
     1
102
RTVSPost2010Prop50
 90
       50
102
RTVSPost2010PropOp50
 70
     1
102
RTVSPost2010Prop51ColorIndex
 90
      256
102
RTVSPost2010Prop51ColorRGB
 90
-16777216
102
RTVSPost2010PropOp51
 70
     0
102
RTVSPost2010Prop52
140
1.0
102
RTVSPost2010PropOp52
 70
     0
102
RTVSPost2010Prop53
 90
        2
102
RTVSPost2010PropOp53
 70
     1
102
RTVSPost2010Prop54
  1
strokes_ogs.tif
102
RTVSPost2010PropOp54
 70
     1
102
RTVSPost2010Prop55
280
     0
102
RTVSPost2010PropOp55
 70
     1
102
RTVSPost2010Prop56
140
1.0
102
RTVSPost2010PropOp56
 70
     1
102
RTVSPost2010Prop57
140
1.0
102
RTVSPost2010PropOp57
 70
     1
102
RTVSPropertyOp0
 70
     1
102
RTVSPropertyOp1
 70
     1
102
RTVSPropertyOp2
 70
     1
102
RTVSPropertyOp3
 70
     1
102
RTVSPropertyOp4
 70
     1
102
RTVSPropertyOp5
 70
     1
102
RTVSPropertyOp6
 70
     1
102
RTVSPropertyOp7
 70
     1
102
RTVSPropertyOp8
 70
     1
102
RTVSPropertyOp9
 70
     1
102
RTVSPropertyOp10
 70
     1
102
RTVSPropertyOp11
 70
     1
102
RTVSPropertyOp12
 70
     1
102
RTVSPropertyOp13
 70
     1
102
RTVSPropertyOp14
 70
     1
102
RTVSPropertyOp15
 70
     1
102
RTVSPropertyOp16
 70
     1
102
RTVSPropertyOp17
 70
     1
102
RTVSPropertyOp18
 70
     1
102
RTVSPropertyOp19
 70
     1
102
RTVSPropertyOp20
 70
     1
102
RTVSPropertyOp21
 70
     1
102
RTVSPropertyOp22
 70
     1
102
RTVSPropertyOp23
 70
     1
102
RTVSPropertyOp24
 70
     1
102
RTVSPropertyOp25
 70
     1
102
RTVSPropertyOp26
 70
     1
102
RTVSPropertyOp27
 70
     1
102
RTVSPropertyOp28
 70
     1
102
RTVSPropertyOp29
 70
     1
102
RTVSPropertyOp30
 70
     1
102
RTVSPropertyOp31
 70
     1
102
RTVSPropertyOp32
 70
     1
102
RTVSPropertyOp33
 70
     1
102
RTVSPropertyOp34
 70
     1
102
RTVSPropertyOp35
 70
     1
102
RTVSPropertyOp36
 70
     1
102
RTVSPropertyOp37
 70
     1
102
RTVSPropertyOp38
 70
     1
102
RTVSPropertyOp39
 70
     1
102
RTVSPropertyOp40
 70
     1
102
RTVSPropertyOp41
 70
     1
102
RTVSPropertyOp42
 70
     1
102
RTVSPropertyOp43
 70
     1
102
RTVSPropertyOp44
 70
     1
102
RTVSPropertyOp45
 70
     1
102
RTVSPropertyOp46
 70
     1
102
RTVSPropertyOp47
 70
     1
102
RTVSPropertyOp48
 70
     1
102
RTVSPropertyOp49
 70
     1
102
RTVSPropertyOp50
 70
     1
102
RTVSPropertyOp51
 70
     0
102
RTVSPropertyOp52
 70
     0
102
RTVSPropertyOp53
 70
     1
102
RTVSPropertyOp54
 70
     1
102
RTVSPropertyOp55
 70
     1
102
RTVSPropertyOp56
 70
     1
102
RTVSPropertyOp57
 70
     1
102
RTVSPropertyOp58
 70
     1
102
RTVSPropertyOp59
 70
     1
102
RTVSPropertyOp60
 70
     1
102
RTVSPropertyOp61
 70
     1
102
RTVSPropertyOp62
 70
     1
  0
XRECORD
  5
1315
102
{ACAD_REACTORS
330
1314
102
}
330
1314
100
AcDbXrecord
280
     1
102
RTVSPost2010Prop28
280
     0
102
RTVSPost2010PropOp28
 70
     1
102
RTVSPost2010Prop29
280
     1
102
RTVSPost2010PropOp29
 70
     1
102
RTVSPost2010Prop30
280
     1
102
RTVSPost2010PropOp30
 70
     1
102
RTVSPost2010Prop31
280
     0
102
RTVSPost2010PropOp31
 70
     1
102
RTVSPost2010Prop32
280
     0
102
RTVSPost2010PropOp32
 70
     1
102
RTVSPost2010Prop33
280
     0
102
RTVSPost2010PropOp33
 70
     1
102
RTVSPost2010Prop34
280
     0
102
RTVSPost2010PropOp34
 70
     1
102
RTVSPost2010Prop35
280
     0
102
RTVSPost2010PropOp35
 70
     1
102
RTVSPost2010Prop36
280
     0
102
RTVSPost2010PropOp36
 70
     1
102
RTVSPost2010Prop37
 90
       50
102
RTVSPost2010PropOp37
 70
     1
102
RTVSPost2010Prop38
140
0.0
102
RTVSPost2010PropOp38
 70
     1
102
RTVSPost2010Prop39
140
1.0
102
RTVSPost2010PropOp39
 70
     1
102
RTVSPost2010Prop40
 90
        0
102
RTVSPost2010PropOp40
 70
     1
102
RTVSPost2010Prop41ColorIndex
 90
       18
102
RTVSPost2010Prop41ColorRGB
 90
        0
102
RTVSPost2010PropOp41
 70
     1
102
RTVSPost2010Prop42
 90
       50
102
RTVSPost2010PropOp42
 70
     1
102
RTVSPost2010Prop43
 90
        3
102
RTVSPost2010PropOp43
 70
     1
102
RTVSPost2010Prop44ColorIndex
 90
        5
102
RTVSPost2010Prop44ColorRGB
 90
      255
102
RTVSPost2010PropOp44
 70
     1
102
RTVSPost2010Prop45
280
     0
102
RTVSPost2010PropOp45
 70
     1
102
RTVSPost2010Prop46
 90
       50
102
RTVSPost2010PropOp46
 70
     1
102
RTVSPost2010Prop47
 90
       50
102
RTVSPost2010PropOp47
 70
     1
102
RTVSPost2010Prop48
 90
       50
102
RTVSPost2010PropOp48
 70
     1
102
RTVSPost2010Prop49
280
     0
102
RTVSPost2010PropOp49
 70
     1
102
RTVSPost2010Prop50
 90
       50
102
RTVSPost2010PropOp50
 70
     1
102
RTVSPost2010Prop51ColorIndex
 90
      256
102
RTVSPost2010Prop51ColorRGB
 90
-16777216
102
RTVSPost2010PropOp51
 70
     0
102
RTVSPost2010Prop52
140
1.0
102
RTVSPost2010PropOp52
 70
     0
102
RTVSPost2010Prop53
 90
        2
102
RTVSPost2010PropOp53
 70
     1
102
RTVSPost2010Prop54
  1
strokes_ogs.tif
102
RTVSPost2010PropOp54
 70
     1
102
RTVSPost2010Prop55
280
     0
102
RTVSPost2010PropOp55
 70
     1
102
RTVSPost2010Prop56
140
1.0
102
RTVSPost2010PropOp56
 70
     1
102
RTVSPost2010Prop57
140
1.0
102
RTVSPost2010PropOp57
 70
     1
102
RTVSPropertyOp0
 70
     1
102
RTVSPropertyOp1
 70
     1
102
RTVSPropertyOp2
 70
     1
102
RTVSPropertyOp3
 70
     1
102
RTVSPropertyOp4
 70
     1
102
RTVSPropertyOp5
 70
     1
102
RTVSPropertyOp6
 70
     1
102
RTVSPropertyOp7
 70
     1
102
RTVSPropertyOp8
 70
     1
102
RTVSPropertyOp9
 70
     1
102
RTVSPropertyOp10
 70
     1
102
RTVSPropertyOp11
 70
     1
102
RTVSPropertyOp12
 70
     1
102
RTVSPropertyOp13
 70
     1
102
RTVSPropertyOp14
 70
     1
102
RTVSPropertyOp15
 70
     1
102
RTVSPropertyOp16
 70
     1
102
RTVSPropertyOp17
 70
     1
102
RTVSPropertyOp18
 70
     1
102
RTVSPropertyOp19
 70
     1
102
RTVSPropertyOp20
 70
     1
102
RTVSPropertyOp21
 70
     1
102
RTVSPropertyOp22
 70
     1
102
RTVSPropertyOp23
 70
     1
102
RTVSPropertyOp24
 70
     1
102
RTVSPropertyOp25
 70
     1
102
RTVSPropertyOp26
 70
     1
102
RTVSPropertyOp27
 70
     1
102
RTVSPropertyOp28
 70
     1
102
RTVSPropertyOp29
 70
     1
102
RTVSPropertyOp30
 70
     1
102
RTVSPropertyOp31
 70
     1
102
RTVSPropertyOp32
 70
     1
102
RTVSPropertyOp33
 70
     1
102
RTVSPropertyOp34
 70
     1
102
RTVSPropertyOp35
 70
     1
102
RTVSPropertyOp36
 70
     1
102
RTVSPropertyOp37
 70
     1
102
RTVSPropertyOp38
 70
     1
102
RTVSPropertyOp39
 70
     1
102
RTVSPropertyOp40
 70
     1
102
RTVSPropertyOp41
 70
     1
102
RTVSPropertyOp42
 70
     1
102
RTVSPropertyOp43
 70
     1
102
RTVSPropertyOp44
 70
     1
102
RTVSPropertyOp45
 70
     1
102
RTVSPropertyOp46
 70
     1
102
RTVSPropertyOp47
 70
     1
102
RTVSPropertyOp48
 70
     1
102
RTVSPropertyOp49
 70
     1
102
RTVSPropertyOp50
 70
     1
102
RTVSPropertyOp51
 70
     0
102
RTVSPropertyOp52
 70
     0
102
RTVSPropertyOp53
 70
     1
102
RTVSPropertyOp54
 70
     1
102
RTVSPropertyOp55
 70
     1
102
RTVSPropertyOp56
 70
     1
102
RTVSPropertyOp57
 70
     1
102
RTVSPropertyOp58
 70
     1
102
RTVSPropertyOp59
 70
     1
102
RTVSPropertyOp60
 70
     1
102
RTVSPropertyOp61
 70
     1
102
RTVSPropertyOp62
 70
     1
  0
XRECORD
  5
1307
102
{ACAD_REACTORS
330
1306
102
}
330
1306
100
AcDbXrecord
280
     1
102
RTVSPost2010Prop28
280
     0
102
RTVSPost2010PropOp28
 70
     1
102
RTVSPost2010Prop29
280
     1
102
RTVSPost2010PropOp29
 70
     1
102
RTVSPost2010Prop30
280
     1
102
RTVSPost2010PropOp30
 70
     1
102
RTVSPost2010Prop31
280
     0
102
RTVSPost2010PropOp31
 70
     1
102
RTVSPost2010Prop32
280
     0
102
RTVSPost2010PropOp32
 70
     1
102
RTVSPost2010Prop33
280
     0
102
RTVSPost2010PropOp33
 70
     1
102
RTVSPost2010Prop34
280
     0
102
RTVSPost2010PropOp34
 70
     1
102
RTVSPost2010Prop35
280
     0
102
RTVSPost2010PropOp35
 70
     1
102
RTVSPost2010Prop36
280
     0
102
RTVSPost2010PropOp36
 70
     1
102
RTVSPost2010Prop37
 90
       50
102
RTVSPost2010PropOp37
 70
     1
102
RTVSPost2010Prop38
140
0.0
102
RTVSPost2010PropOp38
 70
     1
102
RTVSPost2010Prop39
140
1.0
102
RTVSPost2010PropOp39
 70
     1
102
RTVSPost2010Prop40
 90
        0
102
RTVSPost2010PropOp40
 70
     1
102
RTVSPost2010Prop41ColorIndex
 90
       18
102
RTVSPost2010Prop41ColorRGB
 90
        0
102
RTVSPost2010PropOp41
 70
     1
102
RTVSPost2010Prop42
 90
       50
102
RTVSPost2010PropOp42
 70
     1
102
RTVSPost2010Prop43
 90
        3
102
RTVSPost2010PropOp43
 70
     1
102
RTVSPost2010Prop44ColorIndex
 90
        5
102
RTVSPost2010Prop44ColorRGB
 90
      255
102
RTVSPost2010PropOp44
 70
     1
102
RTVSPost2010Prop45
280
     0
102
RTVSPost2010PropOp45
 70
     1
102
RTVSPost2010Prop46
 90
       50
102
RTVSPost2010PropOp46
 70
     1
102
RTVSPost2010Prop47
 90
       50
102
RTVSPost2010PropOp47
 70
     1
102
RTVSPost2010Prop48
 90
       50
102
RTVSPost2010PropOp48
 70
     1
102
RTVSPost2010Prop49
280
     0
102
RTVSPost2010PropOp49
 70
     1
102
RTVSPost2010Prop50
 90
       50
102
RTVSPost2010PropOp50
 70
     1
102
RTVSPost2010Prop51ColorIndex
 90
      256
102
RTVSPost2010Prop51ColorRGB
 90
-16777216
102
RTVSPost2010PropOp51
 70
     0
102
RTVSPost2010Prop52
140
1.0
102
RTVSPost2010PropOp52
 70
     0
102
RTVSPost2010Prop53
 90
        2
102
RTVSPost2010PropOp53
 70
     1
102
RTVSPost2010Prop54
  1
strokes_ogs.tif
102
RTVSPost2010PropOp54
 70
     1
102
RTVSPost2010Prop55
280
     0
102
RTVSPost2010PropOp55
 70
     1
102
RTVSPost2010Prop56
140
1.0
102
RTVSPost2010PropOp56
 70
     1
102
RTVSPost2010Prop57
140
1.0
102
RTVSPost2010PropOp57
 70
     1
102
RTVSPropertyOp0
 70
     1
102
RTVSPropertyOp1
 70
     1
102
RTVSPropertyOp2
 70
     1
102
RTVSPropertyOp3
 70
     1
102
RTVSPropertyOp4
 70
     1
102
RTVSPropertyOp5
 70
     1
102
RTVSPropertyOp6
 70
     1
102
RTVSPropertyOp7
 70
     1
102
RTVSPropertyOp8
 70
     1
102
RTVSPropertyOp9
 70
     1
102
RTVSPropertyOp10
 70
     1
102
RTVSPropertyOp11
 70
     1
102
RTVSPropertyOp12
 70
     1
102
RTVSPropertyOp13
 70
     1
102
RTVSPropertyOp14
 70
     1
102
RTVSPropertyOp15
 70
     1
102
RTVSPropertyOp16
 70
     1
102
RTVSPropertyOp17
 70
     1
102
RTVSPropertyOp18
 70
     1
102
RTVSPropertyOp19
 70
     1
102
RTVSPropertyOp20
 70
     1
102
RTVSPropertyOp21
 70
     1
102
RTVSPropertyOp22
 70
     1
102
RTVSPropertyOp23
 70
     1
102
RTVSPropertyOp24
 70
     1
102
RTVSPropertyOp25
 70
     1
102
RTVSPropertyOp26
 70
     1
102
RTVSPropertyOp27
 70
     1
102
RTVSPropertyOp28
 70
     1
102
RTVSPropertyOp29
 70
     1
102
RTVSPropertyOp30
 70
     1
102
RTVSPropertyOp31
 70
     1
102
RTVSPropertyOp32
 70
     1
102
RTVSPropertyOp33
 70
     1
102
RTVSPropertyOp34
 70
     1
102
RTVSPropertyOp35
 70
     1
102
RTVSPropertyOp36
 70
     1
102
RTVSPropertyOp37
 70
     1
102
RTVSPropertyOp38
 70
     1
102
RTVSPropertyOp39
 70
     1
102
RTVSPropertyOp40
 70
     1
102
RTVSPropertyOp41
 70
     1
102
RTVSPropertyOp42
 70
     1
102
RTVSPropertyOp43
 70
     1
102
RTVSPropertyOp44
 70
     1
102
RTVSPropertyOp45
 70
     1
102
RTVSPropertyOp46
 70
     1
102
RTVSPropertyOp47
 70
     1
102
RTVSPropertyOp48
 70
     1
102
RTVSPropertyOp49
 70
     1
102
RTVSPropertyOp50
 70
     1
102
RTVSPropertyOp51
 70
     0
102
RTVSPropertyOp52
 70
     0
102
RTVSPropertyOp53
 70
     1
102
RTVSPropertyOp54
 70
     1
102
RTVSPropertyOp55
 70
     1
102
RTVSPropertyOp56
 70
     1
102
RTVSPropertyOp57
 70
     1
102
RTVSPropertyOp58
 70
     1
102
RTVSPropertyOp59
 70
     1
102
RTVSPropertyOp60
 70
     1
102
RTVSPropertyOp61
 70
     1
102
RTVSPropertyOp62
 70
     1
  0
XRECORD
  5
130B
102
{ACAD_REACTORS
330
130A
102
}
330
130A
100
AcDbXrecord
280
     1
102
RTVSPost2010Prop28
280
     0
102
RTVSPost2010PropOp28
 70
     1
102
RTVSPost2010Prop29
280
     1
102
RTVSPost2010PropOp29
 70
     1
102
RTVSPost2010Prop30
280
     1
102
RTVSPost2010PropOp30
 70
     1
102
RTVSPost2010Prop31
280
     0
102
RTVSPost2010PropOp31
 70
     1
102
RTVSPost2010Prop32
280
     0
102
RTVSPost2010PropOp32
 70
     1
102
RTVSPost2010Prop33
280
     0
102
RTVSPost2010PropOp33
 70
     1
102
RTVSPost2010Prop34
280
     0
102
RTVSPost2010PropOp34
 70
     1
102
RTVSPost2010Prop35
280
     0
102
RTVSPost2010PropOp35
 70
     1
102
RTVSPost2010Prop36
280
     0
102
RTVSPost2010PropOp36
 70
     1
102
RTVSPost2010Prop37
 90
       50
102
RTVSPost2010PropOp37
 70
     1
102
RTVSPost2010Prop38
140
0.0
102
RTVSPost2010PropOp38
 70
     1
102
RTVSPost2010Prop39
140
1.0
102
RTVSPost2010PropOp39
 70
     1
102
RTVSPost2010Prop40
 90
        0
102
RTVSPost2010PropOp40
 70
     1
102
RTVSPost2010Prop41ColorIndex
 90
       18
102
RTVSPost2010Prop41ColorRGB
 90
        0
102
RTVSPost2010PropOp41
 70
     1
102
RTVSPost2010Prop42
 90
       50
102
RTVSPost2010PropOp42
 70
     1
102
RTVSPost2010Prop43
 90
        3
102
RTVSPost2010PropOp43
 70
     1
102
RTVSPost2010Prop44ColorIndex
 90
        5
102
RTVSPost2010Prop44ColorRGB
 90
      255
102
RTVSPost2010PropOp44
 70
     1
102
RTVSPost2010Prop45
280
     0
102
RTVSPost2010PropOp45
 70
     1
102
RTVSPost2010Prop46
 90
       50
102
RTVSPost2010PropOp46
 70
     1
102
RTVSPost2010Prop47
 90
       50
102
RTVSPost2010PropOp47
 70
     1
102
RTVSPost2010Prop48
 90
       50
102
RTVSPost2010PropOp48
 70
     1
102
RTVSPost2010Prop49
280
     0
102
RTVSPost2010PropOp49
 70
     1
102
RTVSPost2010Prop50
 90
       50
102
RTVSPost2010PropOp50
 70
     1
102
RTVSPost2010Prop51ColorIndex
 90
      256
102
RTVSPost2010Prop51ColorRGB
 90
-16777216
102
RTVSPost2010PropOp51
 70
     0
102
RTVSPost2010Prop52
140
1.0
102
RTVSPost2010PropOp52
 70
     0
102
RTVSPost2010Prop53
 90
        2
102
RTVSPost2010PropOp53
 70
     1
102
RTVSPost2010Prop54
  1
strokes_ogs.tif
102
RTVSPost2010PropOp54
 70
     1
102
RTVSPost2010Prop55
280
     0
102
RTVSPost2010PropOp55
 70
     1
102
RTVSPost2010Prop56
140
1.0
102
RTVSPost2010PropOp56
 70
     1
102
RTVSPost2010Prop57
140
1.0
102
RTVSPost2010PropOp57
 70
     1
102
RTVSPropertyOp0
 70
     1
102
RTVSPropertyOp1
 70
     1
102
RTVSPropertyOp2
 70
     1
102
RTVSPropertyOp3
 70
     1
102
RTVSPropertyOp4
 70
     1
102
RTVSPropertyOp5
 70
     1
102
RTVSPropertyOp6
 70
     1
102
RTVSPropertyOp7
 70
     1
102
RTVSPropertyOp8
 70
     1
102
RTVSPropertyOp9
 70
     1
102
RTVSPropertyOp10
 70
     1
102
RTVSPropertyOp11
 70
     1
102
RTVSPropertyOp12
 70
     1
102
RTVSPropertyOp13
 70
     1
102
RTVSPropertyOp14
 70
     1
102
RTVSPropertyOp15
 70
     1
102
RTVSPropertyOp16
 70
     1
102
RTVSPropertyOp17
 70
     1
102
RTVSPropertyOp18
 70
     1
102
RTVSPropertyOp19
 70
     1
102
RTVSPropertyOp20
 70
     1
102
RTVSPropertyOp21
 70
     1
102
RTVSPropertyOp22
 70
     1
102
RTVSPropertyOp23
 70
     1
102
RTVSPropertyOp24
 70
     1
102
RTVSPropertyOp25
 70
     1
102
RTVSPropertyOp26
 70
     1
102
RTVSPropertyOp27
 70
     1
102
RTVSPropertyOp28
 70
     1
102
RTVSPropertyOp29
 70
     1
102
RTVSPropertyOp30
 70
     1
102
RTVSPropertyOp31
 70
     1
102
RTVSPropertyOp32
 70
     1
102
RTVSPropertyOp33
 70
     1
102
RTVSPropertyOp34
 70
     1
102
RTVSPropertyOp35
 70
     1
102
RTVSPropertyOp36
 70
     1
102
RTVSPropertyOp37
 70
     1
102
RTVSPropertyOp38
 70
     1
102
RTVSPropertyOp39
 70
     1
102
RTVSPropertyOp40
 70
     1
102
RTVSPropertyOp41
 70
     1
102
RTVSPropertyOp42
 70
     1
102
RTVSPropertyOp43
 70
     1
102
RTVSPropertyOp44
 70
     1
102
RTVSPropertyOp45
 70
     1
102
RTVSPropertyOp46
 70
     1
102
RTVSPropertyOp47
 70
     1
102
RTVSPropertyOp48
 70
     1
102
RTVSPropertyOp49
 70
     1
102
RTVSPropertyOp50
 70
     1
102
RTVSPropertyOp51
 70
     0
102
RTVSPropertyOp52
 70
     0
102
RTVSPropertyOp53
 70
     1
102
RTVSPropertyOp54
 70
     1
102
RTVSPropertyOp55
 70
     1
102
RTVSPropertyOp56
 70
     1
102
RTVSPropertyOp57
 70
     1
102
RTVSPropertyOp58
 70
     1
102
RTVSPropertyOp59
 70
     1
102
RTVSPropertyOp60
 70
     1
102
RTVSPropertyOp61
 70
     1
102
RTVSPropertyOp62
 70
     1
  0
XRECORD
  5
1325
102
{ACAD_REACTORS
330
1324
102
}
330
1324
100
AcDbXrecord
280
     1
102
RTVSPost2010Prop28
280
     0
102
RTVSPost2010PropOp28
 70
     1
102
RTVSPost2010Prop29
280
     1
102
RTVSPost2010PropOp29
 70
     1
102
RTVSPost2010Prop30
280
     1
102
RTVSPost2010PropOp30
 70
     1
102
RTVSPost2010Prop31
280
     0
102
RTVSPost2010PropOp31
 70
     1
102
RTVSPost2010Prop32
280
     0
102
RTVSPost2010PropOp32
 70
     1
102
RTVSPost2010Prop33
280
     0
102
RTVSPost2010PropOp33
 70
     1
102
RTVSPost2010Prop34
280
     0
102
RTVSPost2010PropOp34
 70
     1
102
RTVSPost2010Prop35
280
     0
102
RTVSPost2010PropOp35
 70
     1
102
RTVSPost2010Prop36
280
     0
102
RTVSPost2010PropOp36
 70
     1
102
RTVSPost2010Prop37
 90
       50
102
RTVSPost2010PropOp37
 70
     0
102
RTVSPost2010Prop38
140
0.0
102
RTVSPost2010PropOp38
 70
     0
102
RTVSPost2010Prop39
140
1.0
102
RTVSPost2010PropOp39
 70
     0
102
RTVSPost2010Prop40
 90
        0
102
RTVSPost2010PropOp40
 70
     0
102
RTVSPost2010Prop41ColorIndex
 90
       18
102
RTVSPost2010Prop41ColorRGB
 90
        0
102
RTVSPost2010PropOp41
 70
     0
102
RTVSPost2010Prop42
 90
       50
102
RTVSPost2010PropOp42
 70
     0
102
RTVSPost2010Prop43
 90
        3
102
RTVSPost2010PropOp43
 70
     0
102
RTVSPost2010Prop44ColorIndex
 90
        5
102
RTVSPost2010Prop44ColorRGB
 90
      255
102
RTVSPost2010PropOp44
 70
     0
102
RTVSPost2010Prop45
280
     0
102
RTVSPost2010PropOp45
 70
     1
102
RTVSPost2010Prop46
 90
       50
102
RTVSPost2010PropOp46
 70
     0
102
RTVSPost2010Prop47
 90
       50
102
RTVSPost2010PropOp47
 70
     0
102
RTVSPost2010Prop48
 90
       50
102
RTVSPost2010PropOp48
 70
     0
102
RTVSPost2010Prop49
280
     0
102
RTVSPost2010PropOp49
 70
     1
102
RTVSPost2010Prop50
 90
       50
102
RTVSPost2010PropOp50
 70
     0
102
RTVSPost2010Prop51ColorIndex
 90
      256
102
RTVSPost2010Prop51ColorRGB
 90
-16777216
102
RTVSPost2010PropOp51
 70
     0
102
RTVSPost2010Prop52
140
1.0
102
RTVSPost2010PropOp52
 70
     0
102
RTVSPost2010Prop53
 90
        2
102
RTVSPost2010PropOp53
 70
     0
102
RTVSPost2010Prop54
  1
strokes_ogs.tif
102
RTVSPost2010PropOp54
 70
     0
102
RTVSPost2010Prop55
280
     0
102
RTVSPost2010PropOp55
 70
     1
102
RTVSPost2010Prop56
140
1.0
102
RTVSPost2010PropOp56
 70
     0
102
RTVSPost2010Prop57
140
1.0
102
RTVSPost2010PropOp57
 70
     0
102
RTVSPropertyOp0
 70
     0
102
RTVSPropertyOp1
 70
     0
102
RTVSPropertyOp2
 70
     0
102
RTVSPropertyOp3
 70
     0
102
RTVSPropertyOp4
 70
     0
102
RTVSPropertyOp5
 70
     0
102
RTVSPropertyOp6
 70
     0
102
RTVSPropertyOp7
 70
     0
102
RTVSPropertyOp8
 70
     0
102
RTVSPropertyOp9
 70
     0
102
RTVSPropertyOp10
 70
     0
102
RTVSPropertyOp11
 70
     0
102
RTVSPropertyOp12
 70
     0
102
RTVSPropertyOp13
 70
     0
102
RTVSPropertyOp14
 70
     2
102
RTVSPropertyOp15
 70
     0
102
RTVSPropertyOp16
 70
     0
102
RTVSPropertyOp17
 70
     0
102
RTVSPropertyOp18
 70
     0
102
RTVSPropertyOp19
 70
     0
102
RTVSPropertyOp20
 70
     0
102
RTVSPropertyOp21
 70
     0
102
RTVSPropertyOp22
 70
     0
102
RTVSPropertyOp23
 70
     0
102
RTVSPropertyOp24
 70
     0
102
RTVSPropertyOp25
 70
     0
102
RTVSPropertyOp26
 70
     0
102
RTVSPropertyOp27
 70
     0
102
RTVSPropertyOp28
 70
     1
102
RTVSPropertyOp29
 70
     1
102
RTVSPropertyOp30
 70
     1
102
RTVSPropertyOp31
 70
     1
102
RTVSPropertyOp32
 70
     1
102
RTVSPropertyOp33
 70
     1
102
RTVSPropertyOp34
 70
     1
102
RTVSPropertyOp35
 70
     1
102
RTVSPropertyOp36
 70
     1
102
RTVSPropertyOp37
 70
     0
102
RTVSPropertyOp38
 70
     0
102
RTVSPropertyOp39
 70
     0
102
RTVSPropertyOp40
 70
     0
102
RTVSPropertyOp41
 70
     0
102
RTVSPropertyOp42
 70
     0
102
RTVSPropertyOp43
 70
     0
102
RTVSPropertyOp44
 70
     0
102
RTVSPropertyOp45
 70
     1
102
RTVSPropertyOp46
 70
     0
102
RTVSPropertyOp47
 70
     0
102
RTVSPropertyOp48
 70
     0
102
RTVSPropertyOp49
 70
     1
102
RTVSPropertyOp50
 70
     0
102
RTVSPropertyOp51
 70
     0
102
RTVSPropertyOp52
 70
     0
102
RTVSPropertyOp53
 70
     0
102
RTVSPropertyOp54
 70
     0
102
RTVSPropertyOp55
 70
     1
102
RTVSPropertyOp56
 70
     0
102
RTVSPropertyOp57
 70
     0
102
RTVSPropertyOp58
 70
     0
102
RTVSPropertyOp59
 70
     0
102
RTVSPropertyOp60
 70
     0
102
RTVSPropertyOp61
 70
     0
102
RTVSPropertyOp62
 70
     0
  0
XRECORD
  5
1313
102
{ACAD_REACTORS
330
1312
102
}
330
1312
100
AcDbXrecord
280
     1
102
RTVSPost2010Prop28
280
     0
102
RTVSPost2010PropOp28
 70
     1
102
RTVSPost2010Prop29
280
     1
102
RTVSPost2010PropOp29
 70
     1
102
RTVSPost2010Prop30
280
     1
102
RTVSPost2010PropOp30
 70
     1
102
RTVSPost2010Prop31
280
     0
102
RTVSPost2010PropOp31
 70
     1
102
RTVSPost2010Prop32
280
     0
102
RTVSPost2010PropOp32
 70
     1
102
RTVSPost2010Prop33
280
     0
102
RTVSPost2010PropOp33
 70
     1
102
RTVSPost2010Prop34
280
     0
102
RTVSPost2010PropOp34
 70
     1
102
RTVSPost2010Prop35
280
     0
102
RTVSPost2010PropOp35
 70
     1
102
RTVSPost2010Prop36
280
     0
102
RTVSPost2010PropOp36
 70
     1
102
RTVSPost2010Prop37
 90
       50
102
RTVSPost2010PropOp37
 70
     1
102
RTVSPost2010Prop38
140
0.0
102
RTVSPost2010PropOp38
 70
     1
102
RTVSPost2010Prop39
140
1.0
102
RTVSPost2010PropOp39
 70
     1
102
RTVSPost2010Prop40
 90
        0
102
RTVSPost2010PropOp40
 70
     1
102
RTVSPost2010Prop41ColorIndex
 90
       18
102
RTVSPost2010Prop41ColorRGB
 90
        0
102
RTVSPost2010PropOp41
 70
     1
102
RTVSPost2010Prop42
 90
       50
102
RTVSPost2010PropOp42
 70
     1
102
RTVSPost2010Prop43
 90
        3
102
RTVSPost2010PropOp43
 70
     1
102
RTVSPost2010Prop44ColorIndex
 90
        5
102
RTVSPost2010Prop44ColorRGB
 90
      255
102
RTVSPost2010PropOp44
 70
     1
102
RTVSPost2010Prop45
280
     0
102
RTVSPost2010PropOp45
 70
     1
102
RTVSPost2010Prop46
 90
       50
102
RTVSPost2010PropOp46
 70
     1
102
RTVSPost2010Prop47
 90
       50
102
RTVSPost2010PropOp47
 70
     1
102
RTVSPost2010Prop48
 90
       50
102
RTVSPost2010PropOp48
 70
     1
102
RTVSPost2010Prop49
280
     0
102
RTVSPost2010PropOp49
 70
     1
102
RTVSPost2010Prop50
 90
       50
102
RTVSPost2010PropOp50
 70
     1
102
RTVSPost2010Prop51ColorIndex
 90
      256
102
RTVSPost2010Prop51ColorRGB
 90
-16777216
102
RTVSPost2010PropOp51
 70
     0
102
RTVSPost2010Prop52
140
1.0
102
RTVSPost2010PropOp52
 70
     0
102
RTVSPost2010Prop53
 90
        2
102
RTVSPost2010PropOp53
 70
     1
102
RTVSPost2010Prop54
  1
strokes_ogs.tif
102
RTVSPost2010PropOp54
 70
     1
102
RTVSPost2010Prop55
280
     0
102
RTVSPost2010PropOp55
 70
     1
102
RTVSPost2010Prop56
140
1.0
102
RTVSPost2010PropOp56
 70
     1
102
RTVSPost2010Prop57
140
1.0
102
RTVSPost2010PropOp57
 70
     1
102
RTVSPropertyOp0
 70
     1
102
RTVSPropertyOp1
 70
     1
102
RTVSPropertyOp2
 70
     1
102
RTVSPropertyOp3
 70
     1
102
RTVSPropertyOp4
 70
     1
102
RTVSPropertyOp5
 70
     1
102
RTVSPropertyOp6
 70
     1
102
RTVSPropertyOp7
 70
     1
102
RTVSPropertyOp8
 70
     1
102
RTVSPropertyOp9
 70
     1
102
RTVSPropertyOp10
 70
     1
102
RTVSPropertyOp11
 70
     1
102
RTVSPropertyOp12
 70
     1
102
RTVSPropertyOp13
 70
     1
102
RTVSPropertyOp14
 70
     1
102
RTVSPropertyOp15
 70
     1
102
RTVSPropertyOp16
 70
     1
102
RTVSPropertyOp17
 70
     1
102
RTVSPropertyOp18
 70
     1
102
RTVSPropertyOp19
 70
     1
102
RTVSPropertyOp20
 70
     1
102
RTVSPropertyOp21
 70
     1
102
RTVSPropertyOp22
 70
     1
102
RTVSPropertyOp23
 70
     1
102
RTVSPropertyOp24
 70
     1
102
RTVSPropertyOp25
 70
     1
102
RTVSPropertyOp26
 70
     1
102
RTVSPropertyOp27
 70
     1
102
RTVSPropertyOp28
 70
     1
102
RTVSPropertyOp29
 70
     1
102
RTVSPropertyOp30
 70
     1
102
RTVSPropertyOp31
 70
     1
102
RTVSPropertyOp32
 70
     1
102
RTVSPropertyOp33
 70
     1
102
RTVSPropertyOp34
 70
     1
102
RTVSPropertyOp35
 70
     1
102
RTVSPropertyOp36
 70
     1
102
RTVSPropertyOp37
 70
     1
102
RTVSPropertyOp38
 70
     1
102
RTVSPropertyOp39
 70
     1
102
RTVSPropertyOp40
 70
     1
102
RTVSPropertyOp41
 70
     1
102
RTVSPropertyOp42
 70
     1
102
RTVSPropertyOp43
 70
     1
102
RTVSPropertyOp44
 70
     1
102
RTVSPropertyOp45
 70
     1
102
RTVSPropertyOp46
 70
     1
102
RTVSPropertyOp47
 70
     1
102
RTVSPropertyOp48
 70
     1
102
RTVSPropertyOp49
 70
     1
102
RTVSPropertyOp50
 70
     1
102
RTVSPropertyOp51
 70
     0
102
RTVSPropertyOp52
 70
     0
102
RTVSPropertyOp53
 70
     1
102
RTVSPropertyOp54
 70
     1
102
RTVSPropertyOp55
 70
     1
102
RTVSPropertyOp56
 70
     1
102
RTVSPropertyOp57
 70
     1
102
RTVSPropertyOp58
 70
     1
102
RTVSPropertyOp59
 70
     1
102
RTVSPropertyOp60
 70
     1
102
RTVSPropertyOp61
 70
     1
102
RTVSPropertyOp62
 70
     1
  0
XRECORD
  5
12F7
102
{ACAD_REACTORS
330
12F6
102
}
330
12F6
100
AcDbXrecord
280
     1
102
RTVSPost2010Prop28
280
     0
102
RTVSPost2010PropOp28
 70
     1
102
RTVSPost2010Prop29
280
     1
102
RTVSPost2010PropOp29
 70
     1
102
RTVSPost2010Prop30
280
     1
102
RTVSPost2010PropOp30
 70
     1
102
RTVSPost2010Prop31
280
     0
102
RTVSPost2010PropOp31
 70
     1
102
RTVSPost2010Prop32
280
     0
102
RTVSPost2010PropOp32
 70
     1
102
RTVSPost2010Prop33
280
     0
102
RTVSPost2010PropOp33
 70
     1
102
RTVSPost2010Prop34
280
     0
102
RTVSPost2010PropOp34
 70
     1
102
RTVSPost2010Prop35
280
     0
102
RTVSPost2010PropOp35
 70
     1
102
RTVSPost2010Prop36
280
     0
102
RTVSPost2010PropOp36
 70
     1
102
RTVSPost2010Prop37
 90
       50
102
RTVSPost2010PropOp37
 70
     1
102
RTVSPost2010Prop38
140
0.0
102
RTVSPost2010PropOp38
 70
     1
102
RTVSPost2010Prop39
140
1.0
102
RTVSPost2010PropOp39
 70
     1
102
RTVSPost2010Prop40
 90
        0
102
RTVSPost2010PropOp40
 70
     1
102
RTVSPost2010Prop41ColorIndex
 90
       18
102
RTVSPost2010Prop41ColorRGB
 90
        0
102
RTVSPost2010PropOp41
 70
     1
102
RTVSPost2010Prop42
 90
       50
102
RTVSPost2010PropOp42
 70
     1
102
RTVSPost2010Prop43
 90
        3
102
RTVSPost2010PropOp43
 70
     1
102
RTVSPost2010Prop44ColorIndex
 90
        5
102
RTVSPost2010Prop44ColorRGB
 90
      255
102
RTVSPost2010PropOp44
 70
     1
102
RTVSPost2010Prop45
280
     0
102
RTVSPost2010PropOp45
 70
     1
102
RTVSPost2010Prop46
 90
       50
102
RTVSPost2010PropOp46
 70
     1
102
RTVSPost2010Prop47
 90
       50
102
RTVSPost2010PropOp47
 70
     1
102
RTVSPost2010Prop48
 90
       50
102
RTVSPost2010PropOp48
 70
     1
102
RTVSPost2010Prop49
280
     0
102
RTVSPost2010PropOp49
 70
     1
102
RTVSPost2010Prop50
 90
       50
102
RTVSPost2010PropOp50
 70
     1
102
RTVSPost2010Prop51ColorIndex
 90
      256
102
RTVSPost2010Prop51ColorRGB
 90
-16777216
102
RTVSPost2010PropOp51
 70
     0
102
RTVSPost2010Prop52
140
1.0
102
RTVSPost2010PropOp52
 70
     0
102
RTVSPost2010Prop53
 90
        2
102
RTVSPost2010PropOp53
 70
     1
102
RTVSPost2010Prop54
  1
strokes_ogs.tif
102
RTVSPost2010PropOp54
 70
     1
102
RTVSPost2010Prop55
280
     0
102
RTVSPost2010PropOp55
 70
     1
102
RTVSPost2010Prop56
140
1.0
102
RTVSPost2010PropOp56
 70
     1
102
RTVSPost2010Prop57
140
1.0
102
RTVSPost2010PropOp57
 70
     1
102
RTVSPropertyOp0
 70
     1
102
RTVSPropertyOp1
 70
     1
102
RTVSPropertyOp2
 70
     1
102
RTVSPropertyOp3
 70
     1
102
RTVSPropertyOp4
 70
     1
102
RTVSPropertyOp5
 70
     1
102
RTVSPropertyOp6
 70
     1
102
RTVSPropertyOp7
 70
     1
102
RTVSPropertyOp8
 70
     1
102
RTVSPropertyOp9
 70
     1
102
RTVSPropertyOp10
 70
     1
102
RTVSPropertyOp11
 70
     1
102
RTVSPropertyOp12
 70
     1
102
RTVSPropertyOp13
 70
     1
102
RTVSPropertyOp14
 70
     1
102
RTVSPropertyOp15
 70
     1
102
RTVSPropertyOp16
 70
     1
102
RTVSPropertyOp17
 70
     1
102
RTVSPropertyOp18
 70
     1
102
RTVSPropertyOp19
 70
     1
102
RTVSPropertyOp20
 70
     1
102
RTVSPropertyOp21
 70
     1
102
RTVSPropertyOp22
 70
     1
102
RTVSPropertyOp23
 70
     1
102
RTVSPropertyOp24
 70
     1
102
RTVSPropertyOp25
 70
     1
102
RTVSPropertyOp26
 70
     1
102
RTVSPropertyOp27
 70
     1
102
RTVSPropertyOp28
 70
     1
102
RTVSPropertyOp29
 70
     1
102
RTVSPropertyOp30
 70
     1
102
RTVSPropertyOp31
 70
     1
102
RTVSPropertyOp32
 70
     1
102
RTVSPropertyOp33
 70
     1
102
RTVSPropertyOp34
 70
     1
102
RTVSPropertyOp35
 70
     1
102
RTVSPropertyOp36
 70
     1
102
RTVSPropertyOp37
 70
     1
102
RTVSPropertyOp38
 70
     1
102
RTVSPropertyOp39
 70
     1
102
RTVSPropertyOp40
 70
     1
102
RTVSPropertyOp41
 70
     1
102
RTVSPropertyOp42
 70
     1
102
RTVSPropertyOp43
 70
     1
102
RTVSPropertyOp44
 70
     1
102
RTVSPropertyOp45
 70
     1
102
RTVSPropertyOp46
 70
     1
102
RTVSPropertyOp47
 70
     1
102
RTVSPropertyOp48
 70
     1
102
RTVSPropertyOp49
 70
     1
102
RTVSPropertyOp50
 70
     1
102
RTVSPropertyOp51
 70
     0
102
RTVSPropertyOp52
 70
     0
102
RTVSPropertyOp53
 70
     1
102
RTVSPropertyOp54
 70
     1
102
RTVSPropertyOp55
 70
     1
102
RTVSPropertyOp56
 70
     1
102
RTVSPropertyOp57
 70
     1
102
RTVSPropertyOp58
 70
     1
102
RTVSPropertyOp59
 70
     1
102
RTVSPropertyOp60
 70
     1
102
RTVSPropertyOp61
 70
     1
102
RTVSPropertyOp62
 70
     1
  0
XRECORD
  5
12F9
102
{ACAD_REACTORS
330
12F8
102
}
330
12F8
100
AcDbXrecord
280
     1
102
RTVSPost2010Prop28
280
     0
102
RTVSPost2010PropOp28
 70
     1
102
RTVSPost2010Prop29
280
     1
102
RTVSPost2010PropOp29
 70
     1
102
RTVSPost2010Prop30
280
     1
102
RTVSPost2010PropOp30
 70
     1
102
RTVSPost2010Prop31
280
     0
102
RTVSPost2010PropOp31
 70
     1
102
RTVSPost2010Prop32
280
     0
102
RTVSPost2010PropOp32
 70
     1
102
RTVSPost2010Prop33
280
     0
102
RTVSPost2010PropOp33
 70
     1
102
RTVSPost2010Prop34
280
     0
102
RTVSPost2010PropOp34
 70
     1
102
RTVSPost2010Prop35
280
     0
102
RTVSPost2010PropOp35
 70
     1
102
RTVSPost2010Prop36
280
     0
102
RTVSPost2010PropOp36
 70
     1
102
RTVSPost2010Prop37
 90
       50
102
RTVSPost2010PropOp37
 70
     1
102
RTVSPost2010Prop38
140
0.0
102
RTVSPost2010PropOp38
 70
     1
102
RTVSPost2010Prop39
140
1.0
102
RTVSPost2010PropOp39
 70
     1
102
RTVSPost2010Prop40
 90
        0
102
RTVSPost2010PropOp40
 70
     1
102
RTVSPost2010Prop41ColorIndex
 90
       18
102
RTVSPost2010Prop41ColorRGB
 90
        0
102
RTVSPost2010PropOp41
 70
     1
102
RTVSPost2010Prop42
 90
       50
102
RTVSPost2010PropOp42
 70
     1
102
RTVSPost2010Prop43
 90
        3
102
RTVSPost2010PropOp43
 70
     1
102
RTVSPost2010Prop44ColorIndex
 90
        5
102
RTVSPost2010Prop44ColorRGB
 90
      255
102
RTVSPost2010PropOp44
 70
     1
102
RTVSPost2010Prop45
280
     0
102
RTVSPost2010PropOp45
 70
     1
102
RTVSPost2010Prop46
 90
       50
102
RTVSPost2010PropOp46
 70
     1
102
RTVSPost2010Prop47
 90
       50
102
RTVSPost2010PropOp47
 70
     1
102
RTVSPost2010Prop48
 90
       50
102
RTVSPost2010PropOp48
 70
     1
102
RTVSPost2010Prop49
280
     0
102
RTVSPost2010PropOp49
 70
     1
102
RTVSPost2010Prop50
 90
       50
102
RTVSPost2010PropOp50
 70
     1
102
RTVSPost2010Prop51ColorIndex
 90
      256
102
RTVSPost2010Prop51ColorRGB
 90
-16777216
102
RTVSPost2010PropOp51
 70
     0
102
RTVSPost2010Prop52
140
1.0
102
RTVSPost2010PropOp52
 70
     0
102
RTVSPost2010Prop53
 90
        2
102
RTVSPost2010PropOp53
 70
     1
102
RTVSPost2010Prop54
  1
strokes_ogs.tif
102
RTVSPost2010PropOp54
 70
     1
102
RTVSPost2010Prop55
280
     0
102
RTVSPost2010PropOp55
 70
     1
102
RTVSPost2010Prop56
140
1.0
102
RTVSPost2010PropOp56
 70
     1
102
RTVSPost2010Prop57
140
1.0
102
RTVSPost2010PropOp57
 70
     1
102
RTVSPropertyOp0
 70
     1
102
RTVSPropertyOp1
 70
     1
102
RTVSPropertyOp2
 70
     1
102
RTVSPropertyOp3
 70
     1
102
RTVSPropertyOp4
 70
     1
102
RTVSPropertyOp5
 70
     1
102
RTVSPropertyOp6
 70
     1
102
RTVSPropertyOp7
 70
     1
102
RTVSPropertyOp8
 70
     1
102
RTVSPropertyOp9
 70
     1
102
RTVSPropertyOp10
 70
     1
102
RTVSPropertyOp11
 70
     1
102
RTVSPropertyOp12
 70
     1
102
RTVSPropertyOp13
 70
     1
102
RTVSPropertyOp14
 70
     1
102
RTVSPropertyOp15
 70
     1
102
RTVSPropertyOp16
 70
     1
102
RTVSPropertyOp17
 70
     1
102
RTVSPropertyOp18
 70
     1
102
RTVSPropertyOp19
 70
     1
102
RTVSPropertyOp20
 70
     1
102
RTVSPropertyOp21
 70
     1
102
RTVSPropertyOp22
 70
     1
102
RTVSPropertyOp23
 70
     1
102
RTVSPropertyOp24
 70
     1
102
RTVSPropertyOp25
 70
     1
102
RTVSPropertyOp26
 70
     1
102
RTVSPropertyOp27
 70
     1
102
RTVSPropertyOp28
 70
     1
102
RTVSPropertyOp29
 70
     1
102
RTVSPropertyOp30
 70
     1
102
RTVSPropertyOp31
 70
     1
102
RTVSPropertyOp32
 70
     1
102
RTVSPropertyOp33
 70
     1
102
RTVSPropertyOp34
 70
     1
102
RTVSPropertyOp35
 70
     1
102
RTVSPropertyOp36
 70
     1
102
RTVSPropertyOp37
 70
     1
102
RTVSPropertyOp38
 70
     1
102
RTVSPropertyOp39
 70
     1
102
RTVSPropertyOp40
 70
     1
102
RTVSPropertyOp41
 70
     1
102
RTVSPropertyOp42
 70
     1
102
RTVSPropertyOp43
 70
     1
102
RTVSPropertyOp44
 70
     1
102
RTVSPropertyOp45
 70
     1
102
RTVSPropertyOp46
 70
     1
102
RTVSPropertyOp47
 70
     1
102
RTVSPropertyOp48
 70
     1
102
RTVSPropertyOp49
 70
     1
102
RTVSPropertyOp50
 70
     1
102
RTVSPropertyOp51
 70
     0
102
RTVSPropertyOp52
 70
     0
102
RTVSPropertyOp53
 70
     1
102
RTVSPropertyOp54
 70
     1
102
RTVSPropertyOp55
 70
     1
102
RTVSPropertyOp56
 70
     1
102
RTVSPropertyOp57
 70
     1
102
RTVSPropertyOp58
 70
     1
102
RTVSPropertyOp59
 70
     1
102
RTVSPropertyOp60
 70
     1
102
RTVSPropertyOp61
 70
     1
102
RTVSPropertyOp62
 70
     1
  0
XRECORD
  5
12FB
102
{ACAD_REACTORS
330
12FA
102
}
330
12FA
100
AcDbXrecord
280
     1
102
RTVSPost2010Prop28
280
     0
102
RTVSPost2010PropOp28
 70
     1
102
RTVSPost2010Prop29
280
     1
102
RTVSPost2010PropOp29
 70
     1
102
RTVSPost2010Prop30
280
     1
102
RTVSPost2010PropOp30
 70
     1
102
RTVSPost2010Prop31
280
     0
102
RTVSPost2010PropOp31
 70
     1
102
RTVSPost2010Prop32
280
     0
102
RTVSPost2010PropOp32
 70
     1
102
RTVSPost2010Prop33
280
     0
102
RTVSPost2010PropOp33
 70
     1
102
RTVSPost2010Prop34
280
     0
102
RTVSPost2010PropOp34
 70
     1
102
RTVSPost2010Prop35
280
     0
102
RTVSPost2010PropOp35
 70
     1
102
RTVSPost2010Prop36
280
     0
102
RTVSPost2010PropOp36
 70
     1
102
RTVSPost2010Prop37
 90
       50
102
RTVSPost2010PropOp37
 70
     1
102
RTVSPost2010Prop38
140
0.0
102
RTVSPost2010PropOp38
 70
     1
102
RTVSPost2010Prop39
140
1.0
102
RTVSPost2010PropOp39
 70
     1
102
RTVSPost2010Prop40
 90
        0
102
RTVSPost2010PropOp40
 70
     1
102
RTVSPost2010Prop41ColorIndex
 90
       18
102
RTVSPost2010Prop41ColorRGB
 90
        0
102
RTVSPost2010PropOp41
 70
     1
102
RTVSPost2010Prop42
 90
       50
102
RTVSPost2010PropOp42
 70
     1
102
RTVSPost2010Prop43
 90
        3
102
RTVSPost2010PropOp43
 70
     1
102
RTVSPost2010Prop44ColorIndex
 90
        5
102
RTVSPost2010Prop44ColorRGB
 90
      255
102
RTVSPost2010PropOp44
 70
     1
102
RTVSPost2010Prop45
280
     0
102
RTVSPost2010PropOp45
 70
     1
102
RTVSPost2010Prop46
 90
       50
102
RTVSPost2010PropOp46
 70
     1
102
RTVSPost2010Prop47
 90
       50
102
RTVSPost2010PropOp47
 70
     1
102
RTVSPost2010Prop48
 90
       50
102
RTVSPost2010PropOp48
 70
     1
102
RTVSPost2010Prop49
280
     0
102
RTVSPost2010PropOp49
 70
     1
102
RTVSPost2010Prop50
 90
       50
102
RTVSPost2010PropOp50
 70
     1
102
RTVSPost2010Prop51ColorIndex
 90
      256
102
RTVSPost2010Prop51ColorRGB
 90
-16777216
102
RTVSPost2010PropOp51
 70
     0
102
RTVSPost2010Prop52
140
1.0
102
RTVSPost2010PropOp52
 70
     0
102
RTVSPost2010Prop53
 90
        2
102
RTVSPost2010PropOp53
 70
     1
102
RTVSPost2010Prop54
  1
strokes_ogs.tif
102
RTVSPost2010PropOp54
 70
     1
102
RTVSPost2010Prop55
280
     0
102
RTVSPost2010PropOp55
 70
     1
102
RTVSPost2010Prop56
140
1.0
102
RTVSPost2010PropOp56
 70
     1
102
RTVSPost2010Prop57
140
1.0
102
RTVSPost2010PropOp57
 70
     1
102
RTVSPropertyOp0
 70
     1
102
RTVSPropertyOp1
 70
     1
102
RTVSPropertyOp2
 70
     1
102
RTVSPropertyOp3
 70
     1
102
RTVSPropertyOp4
 70
     1
102
RTVSPropertyOp5
 70
     1
102
RTVSPropertyOp6
 70
     1
102
RTVSPropertyOp7
 70
     1
102
RTVSPropertyOp8
 70
     1
102
RTVSPropertyOp9
 70
     1
102
RTVSPropertyOp10
 70
     1
102
RTVSPropertyOp11
 70
     1
102
RTVSPropertyOp12
 70
     1
102
RTVSPropertyOp13
 70
     1
102
RTVSPropertyOp14
 70
     1
102
RTVSPropertyOp15
 70
     1
102
RTVSPropertyOp16
 70
     1
102
RTVSPropertyOp17
 70
     1
102
RTVSPropertyOp18
 70
     1
102
RTVSPropertyOp19
 70
     1
102
RTVSPropertyOp20
 70
     1
102
RTVSPropertyOp21
 70
     1
102
RTVSPropertyOp22
 70
     1
102
RTVSPropertyOp23
 70
     1
102
RTVSPropertyOp24
 70
     1
102
RTVSPropertyOp25
 70
     1
102
RTVSPropertyOp26
 70
     1
102
RTVSPropertyOp27
 70
     1
102
RTVSPropertyOp28
 70
     1
102
RTVSPropertyOp29
 70
     1
102
RTVSPropertyOp30
 70
     1
102
RTVSPropertyOp31
 70
     1
102
RTVSPropertyOp32
 70
     1
102
RTVSPropertyOp33
 70
     1
102
RTVSPropertyOp34
 70
     1
102
RTVSPropertyOp35
 70
     1
102
RTVSPropertyOp36
 70
     1
102
RTVSPropertyOp37
 70
     1
102
RTVSPropertyOp38
 70
     1
102
RTVSPropertyOp39
 70
     1
102
RTVSPropertyOp40
 70
     1
102
RTVSPropertyOp41
 70
     1
102
RTVSPropertyOp42
 70
     1
102
RTVSPropertyOp43
 70
     1
102
RTVSPropertyOp44
 70
     1
102
RTVSPropertyOp45
 70
     1
102
RTVSPropertyOp46
 70
     1
102
RTVSPropertyOp47
 70
     1
102
RTVSPropertyOp48
 70
     1
102
RTVSPropertyOp49
 70
     1
102
RTVSPropertyOp50
 70
     1
102
RTVSPropertyOp51
 70
     0
102
RTVSPropertyOp52
 70
     0
102
RTVSPropertyOp53
 70
     1
102
RTVSPropertyOp54
 70
     1
102
RTVSPropertyOp55
 70
     1
102
RTVSPropertyOp56
 70
     1
102
RTVSPropertyOp57
 70
     1
102
RTVSPropertyOp58
 70
     1
102
RTVSPropertyOp59
 70
     1
102
RTVSPropertyOp60
 70
     1
102
RTVSPropertyOp61
 70
     1
102
RTVSPropertyOp62
 70
     1
  0
XRECORD
  5
12FD
102
{ACAD_REACTORS
330
12FC
102
}
330
12FC
100
AcDbXrecord
280
     1
102
RTVSPost2010Prop28
280
     0
102
RTVSPost2010PropOp28
 70
     1
102
RTVSPost2010Prop29
280
     1
102
RTVSPost2010PropOp29
 70
     1
102
RTVSPost2010Prop30
280
     1
102
RTVSPost2010PropOp30
 70
     1
102
RTVSPost2010Prop31
280
     0
102
RTVSPost2010PropOp31
 70
     1
102
RTVSPost2010Prop32
280
     0
102
RTVSPost2010PropOp32
 70
     1
102
RTVSPost2010Prop33
280
     0
102
RTVSPost2010PropOp33
 70
     1
102
RTVSPost2010Prop34
280
     0
102
RTVSPost2010PropOp34
 70
     1
102
RTVSPost2010Prop35
280
     0
102
RTVSPost2010PropOp35
 70
     1
102
RTVSPost2010Prop36
280
     0
102
RTVSPost2010PropOp36
 70
     1
102
RTVSPost2010Prop37
 90
       50
102
RTVSPost2010PropOp37
 70
     1
102
RTVSPost2010Prop38
140
0.0
102
RTVSPost2010PropOp38
 70
     1
102
RTVSPost2010Prop39
140
1.0
102
RTVSPost2010PropOp39
 70
     1
102
RTVSPost2010Prop40
 90
        0
102
RTVSPost2010PropOp40
 70
     1
102
RTVSPost2010Prop41ColorIndex
 90
       18
102
RTVSPost2010Prop41ColorRGB
 90
        0
102
RTVSPost2010PropOp41
 70
     1
102
RTVSPost2010Prop42
 90
       50
102
RTVSPost2010PropOp42
 70
     1
102
RTVSPost2010Prop43
 90
        3
102
RTVSPost2010PropOp43
 70
     1
102
RTVSPost2010Prop44ColorIndex
 90
        5
102
RTVSPost2010Prop44ColorRGB
 90
      255
102
RTVSPost2010PropOp44
 70
     1
102
RTVSPost2010Prop45
280
     0
102
RTVSPost2010PropOp45
 70
     1
102
RTVSPost2010Prop46
 90
       50
102
RTVSPost2010PropOp46
 70
     1
102
RTVSPost2010Prop47
 90
       50
102
RTVSPost2010PropOp47
 70
     1
102
RTVSPost2010Prop48
 90
       50
102
RTVSPost2010PropOp48
 70
     1
102
RTVSPost2010Prop49
280
     0
102
RTVSPost2010PropOp49
 70
     1
102
RTVSPost2010Prop50
 90
       50
102
RTVSPost2010PropOp50
 70
     1
102
RTVSPost2010Prop51ColorIndex
 90
      256
102
RTVSPost2010Prop51ColorRGB
 90
-16777216
102
RTVSPost2010PropOp51
 70
     0
102
RTVSPost2010Prop52
140
1.0
102
RTVSPost2010PropOp52
 70
     0
102
RTVSPost2010Prop53
 90
        2
102
RTVSPost2010PropOp53
 70
     1
102
RTVSPost2010Prop54
  1
strokes_ogs.tif
102
RTVSPost2010PropOp54
 70
     1
102
RTVSPost2010Prop55
280
     0
102
RTVSPost2010PropOp55
 70
     1
102
RTVSPost2010Prop56
140
1.0
102
RTVSPost2010PropOp56
 70
     1
102
RTVSPost2010Prop57
140
1.0
102
RTVSPost2010PropOp57
 70
     1
102
RTVSPropertyOp0
 70
     1
102
RTVSPropertyOp1
 70
     1
102
RTVSPropertyOp2
 70
     1
102
RTVSPropertyOp3
 70
     1
102
RTVSPropertyOp4
 70
     1
102
RTVSPropertyOp5
 70
     1
102
RTVSPropertyOp6
 70
     1
102
RTVSPropertyOp7
 70
     1
102
RTVSPropertyOp8
 70
     1
102
RTVSPropertyOp9
 70
     1
102
RTVSPropertyOp10
 70
     1
102
RTVSPropertyOp11
 70
     1
102
RTVSPropertyOp12
 70
     1
102
RTVSPropertyOp13
 70
     1
102
RTVSPropertyOp14
 70
     1
102
RTVSPropertyOp15
 70
     1
102
RTVSPropertyOp16
 70
     1
102
RTVSPropertyOp17
 70
     1
102
RTVSPropertyOp18
 70
     1
102
RTVSPropertyOp19
 70
     1
102
RTVSPropertyOp20
 70
     1
102
RTVSPropertyOp21
 70
     1
102
RTVSPropertyOp22
 70
     1
102
RTVSPropertyOp23
 70
     1
102
RTVSPropertyOp24
 70
     1
102
RTVSPropertyOp25
 70
     1
102
RTVSPropertyOp26
 70
     1
102
RTVSPropertyOp27
 70
     1
102
RTVSPropertyOp28
 70
     1
102
RTVSPropertyOp29
 70
     1
102
RTVSPropertyOp30
 70
     1
102
RTVSPropertyOp31
 70
     1
102
RTVSPropertyOp32
 70
     1
102
RTVSPropertyOp33
 70
     1
102
RTVSPropertyOp34
 70
     1
102
RTVSPropertyOp35
 70
     1
102
RTVSPropertyOp36
 70
     1
102
RTVSPropertyOp37
 70
     1
102
RTVSPropertyOp38
 70
     1
102
RTVSPropertyOp39
 70
     1
102
RTVSPropertyOp40
 70
     1
102
RTVSPropertyOp41
 70
     1
102
RTVSPropertyOp42
 70
     1
102
RTVSPropertyOp43
 70
     1
102
RTVSPropertyOp44
 70
     1
102
RTVSPropertyOp45
 70
     1
102
RTVSPropertyOp46
 70
     1
102
RTVSPropertyOp47
 70
     1
102
RTVSPropertyOp48
 70
     1
102
RTVSPropertyOp49
 70
     1
102
RTVSPropertyOp50
 70
     1
102
RTVSPropertyOp51
 70
     0
102
RTVSPropertyOp52
 70
     0
102
RTVSPropertyOp53
 70
     1
102
RTVSPropertyOp54
 70
     1
102
RTVSPropertyOp55
 70
     1
102
RTVSPropertyOp56
 70
     1
102
RTVSPropertyOp57
 70
     1
102
RTVSPropertyOp58
 70
     1
102
RTVSPropertyOp59
 70
     1
102
RTVSPropertyOp60
 70
     1
102
RTVSPropertyOp61
 70
     1
102
RTVSPropertyOp62
 70
     1
  0
XRECORD
  5
1305
102
{ACAD_REACTORS
330
1304
102
}
330
1304
100
AcDbXrecord
280
     1
102
RTVSPost2010Prop28
280
     0
102
RTVSPost2010PropOp28
 70
     1
102
RTVSPost2010Prop29
280
     1
102
RTVSPost2010PropOp29
 70
     1
102
RTVSPost2010Prop30
280
     1
102
RTVSPost2010PropOp30
 70
     1
102
RTVSPost2010Prop31
280
     0
102
RTVSPost2010PropOp31
 70
     1
102
RTVSPost2010Prop32
280
     0
102
RTVSPost2010PropOp32
 70
     1
102
RTVSPost2010Prop33
280
     0
102
RTVSPost2010PropOp33
 70
     1
102
RTVSPost2010Prop34
280
     0
102
RTVSPost2010PropOp34
 70
     1
102
RTVSPost2010Prop35
280
     0
102
RTVSPost2010PropOp35
 70
     1
102
RTVSPost2010Prop36
280
     0
102
RTVSPost2010PropOp36
 70
     1
102
RTVSPost2010Prop37
 90
       50
102
RTVSPost2010PropOp37
 70
     1
102
RTVSPost2010Prop38
140
0.0
102
RTVSPost2010PropOp38
 70
     1
102
RTVSPost2010Prop39
140
1.0
102
RTVSPost2010PropOp39
 70
     1
102
RTVSPost2010Prop40
 90
        0
102
RTVSPost2010PropOp40
 70
     1
102
RTVSPost2010Prop41ColorIndex
 90
       18
102
RTVSPost2010Prop41ColorRGB
 90
        0
102
RTVSPost2010PropOp41
 70
     1
102
RTVSPost2010Prop42
 90
       50
102
RTVSPost2010PropOp42
 70
     1
102
RTVSPost2010Prop43
 90
        3
102
RTVSPost2010PropOp43
 70
     1
102
RTVSPost2010Prop44ColorIndex
 90
        5
102
RTVSPost2010Prop44ColorRGB
 90
      255
102
RTVSPost2010PropOp44
 70
     1
102
RTVSPost2010Prop45
280
     0
102
RTVSPost2010PropOp45
 70
     1
102
RTVSPost2010Prop46
 90
       50
102
RTVSPost2010PropOp46
 70
     1
102
RTVSPost2010Prop47
 90
       50
102
RTVSPost2010PropOp47
 70
     1
102
RTVSPost2010Prop48
 90
       50
102
RTVSPost2010PropOp48
 70
     1
102
RTVSPost2010Prop49
280
     0
102
RTVSPost2010PropOp49
 70
     1
102
RTVSPost2010Prop50
 90
       50
102
RTVSPost2010PropOp50
 70
     1
102
RTVSPost2010Prop51ColorIndex
 90
      256
102
RTVSPost2010Prop51ColorRGB
 90
-16777216
102
RTVSPost2010PropOp51
 70
     0
102
RTVSPost2010Prop52
140
1.0
102
RTVSPost2010PropOp52
 70
     0
102
RTVSPost2010Prop53
 90
        2
102
RTVSPost2010PropOp53
 70
     1
102
RTVSPost2010Prop54
  1
strokes_ogs.tif
102
RTVSPost2010PropOp54
 70
     1
102
RTVSPost2010Prop55
280
     0
102
RTVSPost2010PropOp55
 70
     1
102
RTVSPost2010Prop56
140
1.0
102
RTVSPost2010PropOp56
 70
     1
102
RTVSPost2010Prop57
140
1.0
102
RTVSPost2010PropOp57
 70
     1
102
RTVSPropertyOp0
 70
     1
102
RTVSPropertyOp1
 70
     1
102
RTVSPropertyOp2
 70
     1
102
RTVSPropertyOp3
 70
     1
102
RTVSPropertyOp4
 70
     1
102
RTVSPropertyOp5
 70
     1
102
RTVSPropertyOp6
 70
     1
102
RTVSPropertyOp7
 70
     1
102
RTVSPropertyOp8
 70
     1
102
RTVSPropertyOp9
 70
     1
102
RTVSPropertyOp10
 70
     1
102
RTVSPropertyOp11
 70
     1
102
RTVSPropertyOp12
 70
     1
102
RTVSPropertyOp13
 70
     1
102
RTVSPropertyOp14
 70
     1
102
RTVSPropertyOp15
 70
     1
102
RTVSPropertyOp16
 70
     1
102
RTVSPropertyOp17
 70
     1
102
RTVSPropertyOp18
 70
     1
102
RTVSPropertyOp19
 70
     1
102
RTVSPropertyOp20
 70
     1
102
RTVSPropertyOp21
 70
     1
102
RTVSPropertyOp22
 70
     1
102
RTVSPropertyOp23
 70
     1
102
RTVSPropertyOp24
 70
     1
102
RTVSPropertyOp25
 70
     1
102
RTVSPropertyOp26
 70
     1
102
RTVSPropertyOp27
 70
     1
102
RTVSPropertyOp28
 70
     1
102
RTVSPropertyOp29
 70
     1
102
RTVSPropertyOp30
 70
     1
102
RTVSPropertyOp31
 70
     1
102
RTVSPropertyOp32
 70
     1
102
RTVSPropertyOp33
 70
     1
102
RTVSPropertyOp34
 70
     1
102
RTVSPropertyOp35
 70
     1
102
RTVSPropertyOp36
 70
     1
102
RTVSPropertyOp37
 70
     1
102
RTVSPropertyOp38
 70
     1
102
RTVSPropertyOp39
 70
     1
102
RTVSPropertyOp40
 70
     1
102
RTVSPropertyOp41
 70
     1
102
RTVSPropertyOp42
 70
     1
102
RTVSPropertyOp43
 70
     1
102
RTVSPropertyOp44
 70
     1
102
RTVSPropertyOp45
 70
     1
102
RTVSPropertyOp46
 70
     1
102
RTVSPropertyOp47
 70
     1
102
RTVSPropertyOp48
 70
     1
102
RTVSPropertyOp49
 70
     1
102
RTVSPropertyOp50
 70
     1
102
RTVSPropertyOp51
 70
     0
102
RTVSPropertyOp52
 70
     0
102
RTVSPropertyOp53
 70
     1
102
RTVSPropertyOp54
 70
     1
102
RTVSPropertyOp55
 70
     1
102
RTVSPropertyOp56
 70
     1
102
RTVSPropertyOp57
 70
     1
102
RTVSPropertyOp58
 70
     1
102
RTVSPropertyOp59
 70
     1
102
RTVSPropertyOp60
 70
     1
102
RTVSPropertyOp61
 70
     1
102
RTVSPropertyOp62
 70
     1
  0
XRECORD
  5
1321
102
{ACAD_REACTORS
330
1320
102
}
330
1320
100
AcDbXrecord
280
     1
102
RTVSPost2010Prop28
280
     0
102
RTVSPost2010PropOp28
 70
     1
102
RTVSPost2010Prop29
280
     1
102
RTVSPost2010PropOp29
 70
     1
102
RTVSPost2010Prop30
280
     1
102
RTVSPost2010PropOp30
 70
     1
102
RTVSPost2010Prop31
280
     0
102
RTVSPost2010PropOp31
 70
     1
102
RTVSPost2010Prop32
280
     0
102
RTVSPost2010PropOp32
 70
     1
102
RTVSPost2010Prop33
280
     0
102
RTVSPost2010PropOp33
 70
     1
102
RTVSPost2010Prop34
280
     0
102
RTVSPost2010PropOp34
 70
     1
102
RTVSPost2010Prop35
280
     0
102
RTVSPost2010PropOp35
 70
     1
102
RTVSPost2010Prop36
280
     0
102
RTVSPost2010PropOp36
 70
     1
102
RTVSPost2010Prop37
 90
       50
102
RTVSPost2010PropOp37
 70
     0
102
RTVSPost2010Prop38
140
0.0
102
RTVSPost2010PropOp38
 70
     0
102
RTVSPost2010Prop39
140
1.0
102
RTVSPost2010PropOp39
 70
     0
102
RTVSPost2010Prop40
 90
        0
102
RTVSPost2010PropOp40
 70
     0
102
RTVSPost2010Prop41ColorIndex
 90
       18
102
RTVSPost2010Prop41ColorRGB
 90
        0
102
RTVSPost2010PropOp41
 70
     0
102
RTVSPost2010Prop42
 90
       50
102
RTVSPost2010PropOp42
 70
     0
102
RTVSPost2010Prop43
 90
        3
102
RTVSPost2010PropOp43
 70
     0
102
RTVSPost2010Prop44ColorIndex
 90
        5
102
RTVSPost2010Prop44ColorRGB
 90
      255
102
RTVSPost2010PropOp44
 70
     0
102
RTVSPost2010Prop45
280
     0
102
RTVSPost2010PropOp45
 70
     1
102
RTVSPost2010Prop46
 90
       50
102
RTVSPost2010PropOp46
 70
     0
102
RTVSPost2010Prop47
 90
       50
102
RTVSPost2010PropOp47
 70
     0
102
RTVSPost2010Prop48
 90
       50
102
RTVSPost2010PropOp48
 70
     0
102
RTVSPost2010Prop49
280
     0
102
RTVSPost2010PropOp49
 70
     1
102
RTVSPost2010Prop50
 90
       50
102
RTVSPost2010PropOp50
 70
     0
102
RTVSPost2010Prop51ColorIndex
 90
      256
102
RTVSPost2010Prop51ColorRGB
 90
-16777216
102
RTVSPost2010PropOp51
 70
     0
102
RTVSPost2010Prop52
140
1.0
102
RTVSPost2010PropOp52
 70
     0
102
RTVSPost2010Prop53
 90
        2
102
RTVSPost2010PropOp53
 70
     0
102
RTVSPost2010Prop54
  1
strokes_ogs.tif
102
RTVSPost2010PropOp54
 70
     0
102
RTVSPost2010Prop55
280
     0
102
RTVSPost2010PropOp55
 70
     1
102
RTVSPost2010Prop56
140
1.0
102
RTVSPost2010PropOp56
 70
     0
102
RTVSPost2010Prop57
140
1.0
102
RTVSPost2010PropOp57
 70
     0
102
RTVSPropertyOp0
 70
     0
102
RTVSPropertyOp1
 70
     0
102
RTVSPropertyOp2
 70
     0
102
RTVSPropertyOp3
 70
     0
102
RTVSPropertyOp4
 70
     0
102
RTVSPropertyOp5
 70
     0
102
RTVSPropertyOp6
 70
     0
102
RTVSPropertyOp7
 70
     0
102
RTVSPropertyOp8
 70
     0
102
RTVSPropertyOp9
 70
     0
102
RTVSPropertyOp10
 70
     0
102
RTVSPropertyOp11
 70
     0
102
RTVSPropertyOp12
 70
     0
102
RTVSPropertyOp13
 70
     0
102
RTVSPropertyOp14
 70
     2
102
RTVSPropertyOp15
 70
     0
102
RTVSPropertyOp16
 70
     0
102
RTVSPropertyOp17
 70
     0
102
RTVSPropertyOp18
 70
     0
102
RTVSPropertyOp19
 70
     0
102
RTVSPropertyOp20
 70
     0
102
RTVSPropertyOp21
 70
     0
102
RTVSPropertyOp22
 70
     0
102
RTVSPropertyOp23
 70
     0
102
RTVSPropertyOp24
 70
     0
102
RTVSPropertyOp25
 70
     0
102
RTVSPropertyOp26
 70
     0
102
RTVSPropertyOp27
 70
     0
102
RTVSPropertyOp28
 70
     1
102
RTVSPropertyOp29
 70
     1
102
RTVSPropertyOp30
 70
     1
102
RTVSPropertyOp31
 70
     1
102
RTVSPropertyOp32
 70
     1
102
RTVSPropertyOp33
 70
     1
102
RTVSPropertyOp34
 70
     1
102
RTVSPropertyOp35
 70
     1
102
RTVSPropertyOp36
 70
     1
102
RTVSPropertyOp37
 70
     0
102
RTVSPropertyOp38
 70
     0
102
RTVSPropertyOp39
 70
     0
102
RTVSPropertyOp40
 70
     0
102
RTVSPropertyOp41
 70
     0
102
RTVSPropertyOp42
 70
     0
102
RTVSPropertyOp43
 70
     0
102
RTVSPropertyOp44
 70
     0
102
RTVSPropertyOp45
 70
     1
102
RTVSPropertyOp46
 70
     0
102
RTVSPropertyOp47
 70
     0
102
RTVSPropertyOp48
 70
     0
102
RTVSPropertyOp49
 70
     1
102
RTVSPropertyOp50
 70
     0
102
RTVSPropertyOp51
 70
     0
102
RTVSPropertyOp52
 70
     0
102
RTVSPropertyOp53
 70
     0
102
RTVSPropertyOp54
 70
     0
102
RTVSPropertyOp55
 70
     1
102
RTVSPropertyOp56
 70
     0
102
RTVSPropertyOp57
 70
     0
102
RTVSPropertyOp58
 70
     0
102
RTVSPropertyOp59
 70
     0
102
RTVSPropertyOp60
 70
     0
102
RTVSPropertyOp61
 70
     0
102
RTVSPropertyOp62
 70
     0
  0
XRECORD
  5
1311
102
{ACAD_REACTORS
330
1310
102
}
330
1310
100
AcDbXrecord
280
     1
102
RTVSPost2010Prop28
280
     0
102
RTVSPost2010PropOp28
 70
     1
102
RTVSPost2010Prop29
280
     1
102
RTVSPost2010PropOp29
 70
     1
102
RTVSPost2010Prop30
280
     1
102
RTVSPost2010PropOp30
 70
     1
102
RTVSPost2010Prop31
280
     0
102
RTVSPost2010PropOp31
 70
     1
102
RTVSPost2010Prop32
280
     0
102
RTVSPost2010PropOp32
 70
     1
102
RTVSPost2010Prop33
280
     0
102
RTVSPost2010PropOp33
 70
     1
102
RTVSPost2010Prop34
280
     0
102
RTVSPost2010PropOp34
 70
     1
102
RTVSPost2010Prop35
280
     0
102
RTVSPost2010PropOp35
 70
     1
102
RTVSPost2010Prop36
280
     0
102
RTVSPost2010PropOp36
 70
     1
102
RTVSPost2010Prop37
 90
       50
102
RTVSPost2010PropOp37
 70
     1
102
RTVSPost2010Prop38
140
0.0
102
RTVSPost2010PropOp38
 70
     1
102
RTVSPost2010Prop39
140
1.0
102
RTVSPost2010PropOp39
 70
     1
102
RTVSPost2010Prop40
 90
        0
102
RTVSPost2010PropOp40
 70
     1
102
RTVSPost2010Prop41ColorIndex
 90
       18
102
RTVSPost2010Prop41ColorRGB
 90
        0
102
RTVSPost2010PropOp41
 70
     1
102
RTVSPost2010Prop42
 90
       50
102
RTVSPost2010PropOp42
 70
     1
102
RTVSPost2010Prop43
 90
        3
102
RTVSPost2010PropOp43
 70
     1
102
RTVSPost2010Prop44ColorIndex
 90
        5
102
RTVSPost2010Prop44ColorRGB
 90
      255
102
RTVSPost2010PropOp44
 70
     1
102
RTVSPost2010Prop45
280
     0
102
RTVSPost2010PropOp45
 70
     1
102
RTVSPost2010Prop46
 90
       50
102
RTVSPost2010PropOp46
 70
     1
102
RTVSPost2010Prop47
 90
       50
102
RTVSPost2010PropOp47
 70
     1
102
RTVSPost2010Prop48
 90
       50
102
RTVSPost2010PropOp48
 70
     1
102
RTVSPost2010Prop49
280
     0
102
RTVSPost2010PropOp49
 70
     1
102
RTVSPost2010Prop50
 90
       50
102
RTVSPost2010PropOp50
 70
     1
102
RTVSPost2010Prop51ColorIndex
 90
      256
102
RTVSPost2010Prop51ColorRGB
 90
-16777216
102
RTVSPost2010PropOp51
 70
     0
102
RTVSPost2010Prop52
140
1.0
102
RTVSPost2010PropOp52
 70
     0
102
RTVSPost2010Prop53
 90
        2
102
RTVSPost2010PropOp53
 70
     1
102
RTVSPost2010Prop54
  1
strokes_ogs.tif
102
RTVSPost2010PropOp54
 70
     1
102
RTVSPost2010Prop55
280
     0
102
RTVSPost2010PropOp55
 70
     1
102
RTVSPost2010Prop56
140
1.0
102
RTVSPost2010PropOp56
 70
     1
102
RTVSPost2010Prop57
140
1.0
102
RTVSPost2010PropOp57
 70
     1
102
RTVSPropertyOp0
 70
     1
102
RTVSPropertyOp1
 70
     1
102
RTVSPropertyOp2
 70
     1
102
RTVSPropertyOp3
 70
     1
102
RTVSPropertyOp4
 70
     1
102
RTVSPropertyOp5
 70
     1
102
RTVSPropertyOp6
 70
     1
102
RTVSPropertyOp7
 70
     1
102
RTVSPropertyOp8
 70
     1
102
RTVSPropertyOp9
 70
     1
102
RTVSPropertyOp10
 70
     1
102
RTVSPropertyOp11
 70
     1
102
RTVSPropertyOp12
 70
     1
102
RTVSPropertyOp13
 70
     1
102
RTVSPropertyOp14
 70
     1
102
RTVSPropertyOp15
 70
     1
102
RTVSPropertyOp16
 70
     1
102
RTVSPropertyOp17
 70
     1
102
RTVSPropertyOp18
 70
     1
102
RTVSPropertyOp19
 70
     1
102
RTVSPropertyOp20
 70
     1
102
RTVSPropertyOp21
 70
     1
102
RTVSPropertyOp22
 70
     1
102
RTVSPropertyOp23
 70
     1
102
RTVSPropertyOp24
 70
     1
102
RTVSPropertyOp25
 70
     1
102
RTVSPropertyOp26
 70
     1
102
RTVSPropertyOp27
 70
     1
102
RTVSPropertyOp28
 70
     1
102
RTVSPropertyOp29
 70
     1
102
RTVSPropertyOp30
 70
     1
102
RTVSPropertyOp31
 70
     1
102
RTVSPropertyOp32
 70
     1
102
RTVSPropertyOp33
 70
     1
102
RTVSPropertyOp34
 70
     1
102
RTVSPropertyOp35
 70
     1
102
RTVSPropertyOp36
 70
     1
102
RTVSPropertyOp37
 70
     1
102
RTVSPropertyOp38
 70
     1
102
RTVSPropertyOp39
 70
     1
102
RTVSPropertyOp40
 70
     1
102
RTVSPropertyOp41
 70
     1
102
RTVSPropertyOp42
 70
     1
102
RTVSPropertyOp43
 70
     1
102
RTVSPropertyOp44
 70
     1
102
RTVSPropertyOp45
 70
     1
102
RTVSPropertyOp46
 70
     1
102
RTVSPropertyOp47
 70
     1
102
RTVSPropertyOp48
 70
     1
102
RTVSPropertyOp49
 70
     1
102
RTVSPropertyOp50
 70
     1
102
RTVSPropertyOp51
 70
     0
102
RTVSPropertyOp52
 70
     0
102
RTVSPropertyOp53
 70
     1
102
RTVSPropertyOp54
 70
     1
102
RTVSPropertyOp55
 70
     1
102
RTVSPropertyOp56
 70
     1
102
RTVSPropertyOp57
 70
     1
102
RTVSPropertyOp58
 70
     1
102
RTVSPropertyOp59
 70
     1
102
RTVSPropertyOp60
 70
     1
102
RTVSPropertyOp61
 70
     1
102
RTVSPropertyOp62
 70
     1
  0
XRECORD
  5
1323
102
{ACAD_REACTORS
330
1322
102
}
330
1322
100
AcDbXrecord
280
     1
102
RTVSPost2010Prop28
280
     0
102
RTVSPost2010PropOp28
 70
     1
102
RTVSPost2010Prop29
280
     1
102
RTVSPost2010PropOp29
 70
     1
102
RTVSPost2010Prop30
280
     1
102
RTVSPost2010PropOp30
 70
     1
102
RTVSPost2010Prop31
280
     0
102
RTVSPost2010PropOp31
 70
     1
102
RTVSPost2010Prop32
280
     0
102
RTVSPost2010PropOp32
 70
     1
102
RTVSPost2010Prop33
280
     0
102
RTVSPost2010PropOp33
 70
     1
102
RTVSPost2010Prop34
280
     0
102
RTVSPost2010PropOp34
 70
     1
102
RTVSPost2010Prop35
280
     0
102
RTVSPost2010PropOp35
 70
     1
102
RTVSPost2010Prop36
280
     0
102
RTVSPost2010PropOp36
 70
     1
102
RTVSPost2010Prop37
 90
       50
102
RTVSPost2010PropOp37
 70
     0
102
RTVSPost2010Prop38
140
0.0
102
RTVSPost2010PropOp38
 70
     0
102
RTVSPost2010Prop39
140
1.0
102
RTVSPost2010PropOp39
 70
     0
102
RTVSPost2010Prop40
 90
        0
102
RTVSPost2010PropOp40
 70
     0
102
RTVSPost2010Prop41ColorIndex
 90
       18
102
RTVSPost2010Prop41ColorRGB
 90
        0
102
RTVSPost2010PropOp41
 70
     0
102
RTVSPost2010Prop42
 90
       50
102
RTVSPost2010PropOp42
 70
     0
102
RTVSPost2010Prop43
 90
        3
102
RTVSPost2010PropOp43
 70
     0
102
RTVSPost2010Prop44ColorIndex
 90
        5
102
RTVSPost2010Prop44ColorRGB
 90
      255
102
RTVSPost2010PropOp44
 70
     0
102
RTVSPost2010Prop45
280
     0
102
RTVSPost2010PropOp45
 70
     1
102
RTVSPost2010Prop46
 90
       50
102
RTVSPost2010PropOp46
 70
     0
102
RTVSPost2010Prop47
 90
       50
102
RTVSPost2010PropOp47
 70
     0
102
RTVSPost2010Prop48
 90
       50
102
RTVSPost2010PropOp48
 70
     0
102
RTVSPost2010Prop49
280
     0
102
RTVSPost2010PropOp49
 70
     1
102
RTVSPost2010Prop50
 90
       50
102
RTVSPost2010PropOp50
 70
     0
102
RTVSPost2010Prop51ColorIndex
 90
      256
102
RTVSPost2010Prop51ColorRGB
 90
-16777216
102
RTVSPost2010PropOp51
 70
     0
102
RTVSPost2010Prop52
140
1.0
102
RTVSPost2010PropOp52
 70
     0
102
RTVSPost2010Prop53
 90
        2
102
RTVSPost2010PropOp53
 70
     0
102
RTVSPost2010Prop54
  1
strokes_ogs.tif
102
RTVSPost2010PropOp54
 70
     0
102
RTVSPost2010Prop55
280
     0
102
RTVSPost2010PropOp55
 70
     1
102
RTVSPost2010Prop56
140
1.0
102
RTVSPost2010PropOp56
 70
     0
102
RTVSPost2010Prop57
140
1.0
102
RTVSPost2010PropOp57
 70
     0
102
RTVSPropertyOp0
 70
     0
102
RTVSPropertyOp1
 70
     0
102
RTVSPropertyOp2
 70
     0
102
RTVSPropertyOp3
 70
     0
102
RTVSPropertyOp4
 70
     0
102
RTVSPropertyOp5
 70
     0
102
RTVSPropertyOp6
 70
     0
102
RTVSPropertyOp7
 70
     0
102
RTVSPropertyOp8
 70
     0
102
RTVSPropertyOp9
 70
     0
102
RTVSPropertyOp10
 70
     0
102
RTVSPropertyOp11
 70
     0
102
RTVSPropertyOp12
 70
     0
102
RTVSPropertyOp13
 70
     0
102
RTVSPropertyOp14
 70
     2
102
RTVSPropertyOp15
 70
     0
102
RTVSPropertyOp16
 70
     0
102
RTVSPropertyOp17
 70
     0
102
RTVSPropertyOp18
 70
     0
102
RTVSPropertyOp19
 70
     0
102
RTVSPropertyOp20
 70
     0
102
RTVSPropertyOp21
 70
     0
102
RTVSPropertyOp22
 70
     0
102
RTVSPropertyOp23
 70
     0
102
RTVSPropertyOp24
 70
     0
102
RTVSPropertyOp25
 70
     0
102
RTVSPropertyOp26
 70
     0
102
RTVSPropertyOp27
 70
     0
102
RTVSPropertyOp28
 70
     1
102
RTVSPropertyOp29
 70
     1
102
RTVSPropertyOp30
 70
     1
102
RTVSPropertyOp31
 70
     1
102
RTVSPropertyOp32
 70
     1
102
RTVSPropertyOp33
 70
     1
102
RTVSPropertyOp34
 70
     1
102
RTVSPropertyOp35
 70
     1
102
RTVSPropertyOp36
 70
     1
102
RTVSPropertyOp37
 70
     0
102
RTVSPropertyOp38
 70
     0
102
RTVSPropertyOp39
 70
     0
102
RTVSPropertyOp40
 70
     0
102
RTVSPropertyOp41
 70
     0
102
RTVSPropertyOp42
 70
     0
102
RTVSPropertyOp43
 70
     0
102
RTVSPropertyOp44
 70
     0
102
RTVSPropertyOp45
 70
     1
102
RTVSPropertyOp46
 70
     0
102
RTVSPropertyOp47
 70
     0
102
RTVSPropertyOp48
 70
     0
102
RTVSPropertyOp49
 70
     1
102
RTVSPropertyOp50
 70
     0
102
RTVSPropertyOp51
 70
     0
102
RTVSPropertyOp52
 70
     0
102
RTVSPropertyOp53
 70
     0
102
RTVSPropertyOp54
 70
     0
102
RTVSPropertyOp55
 70
     1
102
RTVSPropertyOp56
 70
     0
102
RTVSPropertyOp57
 70
     0
102
RTVSPropertyOp58
 70
     0
102
RTVSPropertyOp59
 70
     0
102
RTVSPropertyOp60
 70
     0
102
RTVSPropertyOp61
 70
     0
102
RTVSPropertyOp62
 70
     0
  0
XRECORD
  5
1309
102
{ACAD_REACTORS
330
1308
102
}
330
1308
100
AcDbXrecord
280
     1
102
RTVSPost2010Prop28
280
     0
102
RTVSPost2010PropOp28
 70
     1
102
RTVSPost2010Prop29
280
     1
102
RTVSPost2010PropOp29
 70
     1
102
RTVSPost2010Prop30
280
     1
102
RTVSPost2010PropOp30
 70
     1
102
RTVSPost2010Prop31
280
     0
102
RTVSPost2010PropOp31
 70
     1
102
RTVSPost2010Prop32
280
     0
102
RTVSPost2010PropOp32
 70
     1
102
RTVSPost2010Prop33
280
     0
102
RTVSPost2010PropOp33
 70
     1
102
RTVSPost2010Prop34
280
     0
102
RTVSPost2010PropOp34
 70
     1
102
RTVSPost2010Prop35
280
     0
102
RTVSPost2010PropOp35
 70
     1
102
RTVSPost2010Prop36
280
     0
102
RTVSPost2010PropOp36
 70
     1
102
RTVSPost2010Prop37
 90
       50
102
RTVSPost2010PropOp37
 70
     1
102
RTVSPost2010Prop38
140
0.0
102
RTVSPost2010PropOp38
 70
     1
102
RTVSPost2010Prop39
140
1.0
102
RTVSPost2010PropOp39
 70
     1
102
RTVSPost2010Prop40
 90
        0
102
RTVSPost2010PropOp40
 70
     1
102
RTVSPost2010Prop41ColorIndex
 90
       18
102
RTVSPost2010Prop41ColorRGB
 90
        0
102
RTVSPost2010PropOp41
 70
     1
102
RTVSPost2010Prop42
 90
       50
102
RTVSPost2010PropOp42
 70
     1
102
RTVSPost2010Prop43
 90
        3
102
RTVSPost2010PropOp43
 70
     1
102
RTVSPost2010Prop44ColorIndex
 90
        5
102
RTVSPost2010Prop44ColorRGB
 90
      255
102
RTVSPost2010PropOp44
 70
     1
102
RTVSPost2010Prop45
280
     0
102
RTVSPost2010PropOp45
 70
     1
102
RTVSPost2010Prop46
 90
       50
102
RTVSPost2010PropOp46
 70
     1
102
RTVSPost2010Prop47
 90
       50
102
RTVSPost2010PropOp47
 70
     1
102
RTVSPost2010Prop48
 90
       50
102
RTVSPost2010PropOp48
 70
     1
102
RTVSPost2010Prop49
280
     0
102
RTVSPost2010PropOp49
 70
     1
102
RTVSPost2010Prop50
 90
       50
102
RTVSPost2010PropOp50
 70
     1
102
RTVSPost2010Prop51ColorIndex
 90
      256
102
RTVSPost2010Prop51ColorRGB
 90
-16777216
102
RTVSPost2010PropOp51
 70
     0
102
RTVSPost2010Prop52
140
1.0
102
RTVSPost2010PropOp52
 70
     0
102
RTVSPost2010Prop53
 90
        2
102
RTVSPost2010PropOp53
 70
     1
102
RTVSPost2010Prop54
  1
strokes_ogs.tif
102
RTVSPost2010PropOp54
 70
     1
102
RTVSPost2010Prop55
280
     0
102
RTVSPost2010PropOp55
 70
     1
102
RTVSPost2010Prop56
140
1.0
102
RTVSPost2010PropOp56
 70
     1
102
RTVSPost2010Prop57
140
1.0
102
RTVSPost2010PropOp57
 70
     1
102
RTVSPropertyOp0
 70
     1
102
RTVSPropertyOp1
 70
     1
102
RTVSPropertyOp2
 70
     1
102
RTVSPropertyOp3
 70
     1
102
RTVSPropertyOp4
 70
     1
102
RTVSPropertyOp5
 70
     1
102
RTVSPropertyOp6
 70
     1
102
RTVSPropertyOp7
 70
     1
102
RTVSPropertyOp8
 70
     1
102
RTVSPropertyOp9
 70
     1
102
RTVSPropertyOp10
 70
     1
102
RTVSPropertyOp11
 70
     1
102
RTVSPropertyOp12
 70
     1
102
RTVSPropertyOp13
 70
     1
102
RTVSPropertyOp14
 70
     1
102
RTVSPropertyOp15
 70
     1
102
RTVSPropertyOp16
 70
     1
102
RTVSPropertyOp17
 70
     1
102
RTVSPropertyOp18
 70
     1
102
RTVSPropertyOp19
 70
     1
102
RTVSPropertyOp20
 70
     1
102
RTVSPropertyOp21
 70
     1
102
RTVSPropertyOp22
 70
     1
102
RTVSPropertyOp23
 70
     1
102
RTVSPropertyOp24
 70
     1
102
RTVSPropertyOp25
 70
     1
102
RTVSPropertyOp26
 70
     1
102
RTVSPropertyOp27
 70
     1
102
RTVSPropertyOp28
 70
     1
102
RTVSPropertyOp29
 70
     1
102
RTVSPropertyOp30
 70
     1
102
RTVSPropertyOp31
 70
     1
102
RTVSPropertyOp32
 70
     1
102
RTVSPropertyOp33
 70
     1
102
RTVSPropertyOp34
 70
     1
102
RTVSPropertyOp35
 70
     1
102
RTVSPropertyOp36
 70
     1
102
RTVSPropertyOp37
 70
     1
102
RTVSPropertyOp38
 70
     1
102
RTVSPropertyOp39
 70
     1
102
RTVSPropertyOp40
 70
     1
102
RTVSPropertyOp41
 70
     1
102
RTVSPropertyOp42
 70
     1
102
RTVSPropertyOp43
 70
     1
102
RTVSPropertyOp44
 70
     1
102
RTVSPropertyOp45
 70
     1
102
RTVSPropertyOp46
 70
     1
102
RTVSPropertyOp47
 70
     1
102
RTVSPropertyOp48
 70
     1
102
RTVSPropertyOp49
 70
     1
102
RTVSPropertyOp50
 70
     1
102
RTVSPropertyOp51
 70
     0
102
RTVSPropertyOp52
 70
     0
102
RTVSPropertyOp53
 70
     1
102
RTVSPropertyOp54
 70
     1
102
RTVSPropertyOp55
 70
     1
102
RTVSPropertyOp56
 70
     1
102
RTVSPropertyOp57
 70
     1
102
RTVSPropertyOp58
 70
     1
102
RTVSPropertyOp59
 70
     1
102
RTVSPropertyOp60
 70
     1
102
RTVSPropertyOp61
 70
     1
102
RTVSPropertyOp62
 70
     1
  0
XRECORD
  5
131F
102
{ACAD_REACTORS
330
131E
102
}
330
131E
100
AcDbXrecord
280
     1
102
RTVSPost2010Prop28
280
     0
102
RTVSPost2010PropOp28
 70
     1
102
RTVSPost2010Prop29
280
     1
102
RTVSPost2010PropOp29
 70
     1
102
RTVSPost2010Prop30
280
     1
102
RTVSPost2010PropOp30
 70
     1
102
RTVSPost2010Prop31
280
     0
102
RTVSPost2010PropOp31
 70
     1
102
RTVSPost2010Prop32
280
     0
102
RTVSPost2010PropOp32
 70
     1
102
RTVSPost2010Prop33
280
     0
102
RTVSPost2010PropOp33
 70
     1
102
RTVSPost2010Prop34
280
     0
102
RTVSPost2010PropOp34
 70
     1
102
RTVSPost2010Prop35
280
     0
102
RTVSPost2010PropOp35
 70
     1
102
RTVSPost2010Prop36
280
     0
102
RTVSPost2010PropOp36
 70
     1
102
RTVSPost2010Prop37
 90
       50
102
RTVSPost2010PropOp37
 70
     1
102
RTVSPost2010Prop38
140
0.0
102
RTVSPost2010PropOp38
 70
     1
102
RTVSPost2010Prop39
140
1.0
102
RTVSPost2010PropOp39
 70
     1
102
RTVSPost2010Prop40
 90
        0
102
RTVSPost2010PropOp40
 70
     1
102
RTVSPost2010Prop41ColorIndex
 90
       18
102
RTVSPost2010Prop41ColorRGB
 90
        0
102
RTVSPost2010PropOp41
 70
     1
102
RTVSPost2010Prop42
 90
       50
102
RTVSPost2010PropOp42
 70
     1
102
RTVSPost2010Prop43
 90
        3
102
RTVSPost2010PropOp43
 70
     1
102
RTVSPost2010Prop44ColorIndex
 90
        5
102
RTVSPost2010Prop44ColorRGB
 90
      255
102
RTVSPost2010PropOp44
 70
     1
102
RTVSPost2010Prop45
280
     0
102
RTVSPost2010PropOp45
 70
     1
102
RTVSPost2010Prop46
 90
       50
102
RTVSPost2010PropOp46
 70
     1
102
RTVSPost2010Prop47
 90
       50
102
RTVSPost2010PropOp47
 70
     1
102
RTVSPost2010Prop48
 90
       50
102
RTVSPost2010PropOp48
 70
     1
102
RTVSPost2010Prop49
280
     0
102
RTVSPost2010PropOp49
 70
     1
102
RTVSPost2010Prop50
 90
       50
102
RTVSPost2010PropOp50
 70
     1
102
RTVSPost2010Prop51ColorIndex
 90
      256
102
RTVSPost2010Prop51ColorRGB
 90
-16777216
102
RTVSPost2010PropOp51
 70
     0
102
RTVSPost2010Prop52
140
1.0
102
RTVSPost2010PropOp52
 70
     0
102
RTVSPost2010Prop53
 90
        2
102
RTVSPost2010PropOp53
 70
     1
102
RTVSPost2010Prop54
  1
strokes_ogs.tif
102
RTVSPost2010PropOp54
 70
     1
102
RTVSPost2010Prop55
280
     0
102
RTVSPost2010PropOp55
 70
     1
102
RTVSPost2010Prop56
140
1.0
102
RTVSPost2010PropOp56
 70
     1
102
RTVSPost2010Prop57
140
1.0
102
RTVSPost2010PropOp57
 70
     1
102
RTVSPropertyOp0
 70
     1
102
RTVSPropertyOp1
 70
     1
102
RTVSPropertyOp2
 70
     1
102
RTVSPropertyOp3
 70
     1
102
RTVSPropertyOp4
 70
     1
102
RTVSPropertyOp5
 70
     1
102
RTVSPropertyOp6
 70
     1
102
RTVSPropertyOp7
 70
     1
102
RTVSPropertyOp8
 70
     1
102
RTVSPropertyOp9
 70
     1
102
RTVSPropertyOp10
 70
     1
102
RTVSPropertyOp11
 70
     1
102
RTVSPropertyOp12
 70
     1
102
RTVSPropertyOp13
 70
     1
102
RTVSPropertyOp14
 70
     1
102
RTVSPropertyOp15
 70
     1
102
RTVSPropertyOp16
 70
     1
102
RTVSPropertyOp17
 70
     1
102
RTVSPropertyOp18
 70
     1
102
RTVSPropertyOp19
 70
     1
102
RTVSPropertyOp20
 70
     1
102
RTVSPropertyOp21
 70
     1
102
RTVSPropertyOp22
 70
     1
102
RTVSPropertyOp23
 70
     1
102
RTVSPropertyOp24
 70
     1
102
RTVSPropertyOp25
 70
     1
102
RTVSPropertyOp26
 70
     1
102
RTVSPropertyOp27
 70
     1
102
RTVSPropertyOp28
 70
     1
102
RTVSPropertyOp29
 70
     1
102
RTVSPropertyOp30
 70
     1
102
RTVSPropertyOp31
 70
     1
102
RTVSPropertyOp32
 70
     1
102
RTVSPropertyOp33
 70
     1
102
RTVSPropertyOp34
 70
     1
102
RTVSPropertyOp35
 70
     1
102
RTVSPropertyOp36
 70
     1
102
RTVSPropertyOp37
 70
     1
102
RTVSPropertyOp38
 70
     1
102
RTVSPropertyOp39
 70
     1
102
RTVSPropertyOp40
 70
     1
102
RTVSPropertyOp41
 70
     1
102
RTVSPropertyOp42
 70
     1
102
RTVSPropertyOp43
 70
     1
102
RTVSPropertyOp44
 70
     1
102
RTVSPropertyOp45
 70
     1
102
RTVSPropertyOp46
 70
     1
102
RTVSPropertyOp47
 70
     1
102
RTVSPropertyOp48
 70
     1
102
RTVSPropertyOp49
 70
     1
102
RTVSPropertyOp50
 70
     1
102
RTVSPropertyOp51
 70
     0
102
RTVSPropertyOp52
 70
     0
102
RTVSPropertyOp53
 70
     1
102
RTVSPropertyOp54
 70
     1
102
RTVSPropertyOp55
 70
     1
102
RTVSPropertyOp56
 70
     1
102
RTVSPropertyOp57
 70
     1
102
RTVSPropertyOp58
 70
     1
102
RTVSPropertyOp59
 70
     1
102
RTVSPropertyOp60
 70
     1
102
RTVSPropertyOp61
 70
     1
102
RTVSPropertyOp62
 70
     1
  0
XRECORD
  5
131D
102
{ACAD_REACTORS
330
131C
102
}
330
131C
100
AcDbXrecord
280
     1
102
RTVSPost2010Prop28
280
     0
102
RTVSPost2010PropOp28
 70
     1
102
RTVSPost2010Prop29
280
     1
102
RTVSPost2010PropOp29
 70
     1
102
RTVSPost2010Prop30
280
     1
102
RTVSPost2010PropOp30
 70
     1
102
RTVSPost2010Prop31
280
     0
102
RTVSPost2010PropOp31
 70
     1
102
RTVSPost2010Prop32
280
     0
102
RTVSPost2010PropOp32
 70
     1
102
RTVSPost2010Prop33
280
     0
102
RTVSPost2010PropOp33
 70
     1
102
RTVSPost2010Prop34
280
     0
102
RTVSPost2010PropOp34
 70
     1
102
RTVSPost2010Prop35
280
     0
102
RTVSPost2010PropOp35
 70
     1
102
RTVSPost2010Prop36
280
     0
102
RTVSPost2010PropOp36
 70
     1
102
RTVSPost2010Prop37
 90
       50
102
RTVSPost2010PropOp37
 70
     1
102
RTVSPost2010Prop38
140
0.0
102
RTVSPost2010PropOp38
 70
     1
102
RTVSPost2010Prop39
140
1.0
102
RTVSPost2010PropOp39
 70
     1
102
RTVSPost2010Prop40
 90
        0
102
RTVSPost2010PropOp40
 70
     1
102
RTVSPost2010Prop41ColorIndex
 90
       18
102
RTVSPost2010Prop41ColorRGB
 90
        0
102
RTVSPost2010PropOp41
 70
     1
102
RTVSPost2010Prop42
 90
       50
102
RTVSPost2010PropOp42
 70
     1
102
RTVSPost2010Prop43
 90
        3
102
RTVSPost2010PropOp43
 70
     1
102
RTVSPost2010Prop44ColorIndex
 90
        5
102
RTVSPost2010Prop44ColorRGB
 90
      255
102
RTVSPost2010PropOp44
 70
     1
102
RTVSPost2010Prop45
280
     0
102
RTVSPost2010PropOp45
 70
     1
102
RTVSPost2010Prop46
 90
       50
102
RTVSPost2010PropOp46
 70
     1
102
RTVSPost2010Prop47
 90
       50
102
RTVSPost2010PropOp47
 70
     1
102
RTVSPost2010Prop48
 90
       50
102
RTVSPost2010PropOp48
 70
     1
102
RTVSPost2010Prop49
280
     0
102
RTVSPost2010PropOp49
 70
     1
102
RTVSPost2010Prop50
 90
       50
102
RTVSPost2010PropOp50
 70
     1
102
RTVSPost2010Prop51ColorIndex
 90
      256
102
RTVSPost2010Prop51ColorRGB
 90
-16777216
102
RTVSPost2010PropOp51
 70
     0
102
RTVSPost2010Prop52
140
1.0
102
RTVSPost2010PropOp52
 70
     0
102
RTVSPost2010Prop53
 90
        2
102
RTVSPost2010PropOp53
 70
     1
102
RTVSPost2010Prop54
  1
strokes_ogs.tif
102
RTVSPost2010PropOp54
 70
     1
102
RTVSPost2010Prop55
280
     0
102
RTVSPost2010PropOp55
 70
     1
102
RTVSPost2010Prop56
140
1.0
102
RTVSPost2010PropOp56
 70
     1
102
RTVSPost2010Prop57
140
1.0
102
RTVSPost2010PropOp57
 70
     1
102
RTVSPropertyOp0
 70
     1
102
RTVSPropertyOp1
 70
     1
102
RTVSPropertyOp2
 70
     1
102
RTVSPropertyOp3
 70
     1
102
RTVSPropertyOp4
 70
     1
102
RTVSPropertyOp5
 70
     1
102
RTVSPropertyOp6
 70
     1
102
RTVSPropertyOp7
 70
     1
102
RTVSPropertyOp8
 70
     1
102
RTVSPropertyOp9
 70
     1
102
RTVSPropertyOp10
 70
     1
102
RTVSPropertyOp11
 70
     1
102
RTVSPropertyOp12
 70
     1
102
RTVSPropertyOp13
 70
     1
102
RTVSPropertyOp14
 70
     1
102
RTVSPropertyOp15
 70
     1
102
RTVSPropertyOp16
 70
     1
102
RTVSPropertyOp17
 70
     1
102
RTVSPropertyOp18
 70
     1
102
RTVSPropertyOp19
 70
     1
102
RTVSPropertyOp20
 70
     1
102
RTVSPropertyOp21
 70
     1
102
RTVSPropertyOp22
 70
     1
102
RTVSPropertyOp23
 70
     1
102
RTVSPropertyOp24
 70
     1
102
RTVSPropertyOp25
 70
     1
102
RTVSPropertyOp26
 70
     1
102
RTVSPropertyOp27
 70
     1
102
RTVSPropertyOp28
 70
     1
102
RTVSPropertyOp29
 70
     1
102
RTVSPropertyOp30
 70
     1
102
RTVSPropertyOp31
 70
     1
102
RTVSPropertyOp32
 70
     1
102
RTVSPropertyOp33
 70
     1
102
RTVSPropertyOp34
 70
     1
102
RTVSPropertyOp35
 70
     1
102
RTVSPropertyOp36
 70
     1
102
RTVSPropertyOp37
 70
     1
102
RTVSPropertyOp38
 70
     1
102
RTVSPropertyOp39
 70
     1
102
RTVSPropertyOp40
 70
     1
102
RTVSPropertyOp41
 70
     1
102
RTVSPropertyOp42
 70
     1
102
RTVSPropertyOp43
 70
     1
102
RTVSPropertyOp44
 70
     1
102
RTVSPropertyOp45
 70
     1
102
RTVSPropertyOp46
 70
     1
102
RTVSPropertyOp47
 70
     1
102
RTVSPropertyOp48
 70
     1
102
RTVSPropertyOp49
 70
     1
102
RTVSPropertyOp50
 70
     1
102
RTVSPropertyOp51
 70
     0
102
RTVSPropertyOp52
 70
     0
102
RTVSPropertyOp53
 70
     1
102
RTVSPropertyOp54
 70
     1
102
RTVSPropertyOp55
 70
     1
102
RTVSPropertyOp56
 70
     1
102
RTVSPropertyOp57
 70
     1
102
RTVSPropertyOp58
 70
     1
102
RTVSPropertyOp59
 70
     1
102
RTVSPropertyOp60
 70
     1
102
RTVSPropertyOp61
 70
     1
102
RTVSPropertyOp62
 70
     1
  0
XRECORD
  5
1317
102
{ACAD_REACTORS
330
1316
102
}
330
1316
100
AcDbXrecord
280
     1
102
RTVSPost2010Prop28
280
     0
102
RTVSPost2010PropOp28
 70
     1
102
RTVSPost2010Prop29
280
     1
102
RTVSPost2010PropOp29
 70
     1
102
RTVSPost2010Prop30
280
     1
102
RTVSPost2010PropOp30
 70
     1
102
RTVSPost2010Prop31
280
     0
102
RTVSPost2010PropOp31
 70
     1
102
RTVSPost2010Prop32
280
     0
102
RTVSPost2010PropOp32
 70
     1
102
RTVSPost2010Prop33
280
     0
102
RTVSPost2010PropOp33
 70
     1
102
RTVSPost2010Prop34
280
     0
102
RTVSPost2010PropOp34
 70
     1
102
RTVSPost2010Prop35
280
     0
102
RTVSPost2010PropOp35
 70
     1
102
RTVSPost2010Prop36
280
     0
102
RTVSPost2010PropOp36
 70
     1
102
RTVSPost2010Prop37
 90
       50
102
RTVSPost2010PropOp37
 70
     1
102
RTVSPost2010Prop38
140
0.0
102
RTVSPost2010PropOp38
 70
     1
102
RTVSPost2010Prop39
140
1.0
102
RTVSPost2010PropOp39
 70
     1
102
RTVSPost2010Prop40
 90
        0
102
RTVSPost2010PropOp40
 70
     1
102
RTVSPost2010Prop41ColorIndex
 90
       18
102
RTVSPost2010Prop41ColorRGB
 90
        0
102
RTVSPost2010PropOp41
 70
     1
102
RTVSPost2010Prop42
 90
       50
102
RTVSPost2010PropOp42
 70
     1
102
RTVSPost2010Prop43
 90
        3
102
RTVSPost2010PropOp43
 70
     1
102
RTVSPost2010Prop44ColorIndex
 90
        5
102
RTVSPost2010Prop44ColorRGB
 90
      255
102
RTVSPost2010PropOp44
 70
     1
102
RTVSPost2010Prop45
280
     0
102
RTVSPost2010PropOp45
 70
     1
102
RTVSPost2010Prop46
 90
       50
102
RTVSPost2010PropOp46
 70
     1
102
RTVSPost2010Prop47
 90
       50
102
RTVSPost2010PropOp47
 70
     1
102
RTVSPost2010Prop48
 90
       50
102
RTVSPost2010PropOp48
 70
     1
102
RTVSPost2010Prop49
280
     0
102
RTVSPost2010PropOp49
 70
     1
102
RTVSPost2010Prop50
 90
       50
102
RTVSPost2010PropOp50
 70
     1
102
RTVSPost2010Prop51ColorIndex
 90
      256
102
RTVSPost2010Prop51ColorRGB
 90
-16777216
102
RTVSPost2010PropOp51
 70
     0
102
RTVSPost2010Prop52
140
1.0
102
RTVSPost2010PropOp52
 70
     0
102
RTVSPost2010Prop53
 90
        2
102
RTVSPost2010PropOp53
 70
     1
102
RTVSPost2010Prop54
  1
strokes_ogs.tif
102
RTVSPost2010PropOp54
 70
     1
102
RTVSPost2010Prop55
280
     0
102
RTVSPost2010PropOp55
 70
     1
102
RTVSPost2010Prop56
140
1.0
102
RTVSPost2010PropOp56
 70
     1
102
RTVSPost2010Prop57
140
1.0
102
RTVSPost2010PropOp57
 70
     1
102
RTVSPropertyOp0
 70
     1
102
RTVSPropertyOp1
 70
     1
102
RTVSPropertyOp2
 70
     1
102
RTVSPropertyOp3
 70
     1
102
RTVSPropertyOp4
 70
     1
102
RTVSPropertyOp5
 70
     1
102
RTVSPropertyOp6
 70
     1
102
RTVSPropertyOp7
 70
     1
102
RTVSPropertyOp8
 70
     1
102
RTVSPropertyOp9
 70
     1
102
RTVSPropertyOp10
 70
     1
102
RTVSPropertyOp11
 70
     1
102
RTVSPropertyOp12
 70
     1
102
RTVSPropertyOp13
 70
     1
102
RTVSPropertyOp14
 70
     1
102
RTVSPropertyOp15
 70
     1
102
RTVSPropertyOp16
 70
     1
102
RTVSPropertyOp17
 70
     1
102
RTVSPropertyOp18
 70
     1
102
RTVSPropertyOp19
 70
     1
102
RTVSPropertyOp20
 70
     1
102
RTVSPropertyOp21
 70
     1
102
RTVSPropertyOp22
 70
     1
102
RTVSPropertyOp23
 70
     1
102
RTVSPropertyOp24
 70
     1
102
RTVSPropertyOp25
 70
     1
102
RTVSPropertyOp26
 70
     1
102
RTVSPropertyOp27
 70
     1
102
RTVSPropertyOp28
 70
     1
102
RTVSPropertyOp29
 70
     1
102
RTVSPropertyOp30
 70
     1
102
RTVSPropertyOp31
 70
     1
102
RTVSPropertyOp32
 70
     1
102
RTVSPropertyOp33
 70
     1
102
RTVSPropertyOp34
 70
     1
102
RTVSPropertyOp35
 70
     1
102
RTVSPropertyOp36
 70
     1
102
RTVSPropertyOp37
 70
     1
102
RTVSPropertyOp38
 70
     1
102
RTVSPropertyOp39
 70
     1
102
RTVSPropertyOp40
 70
     1
102
RTVSPropertyOp41
 70
     1
102
RTVSPropertyOp42
 70
     1
102
RTVSPropertyOp43
 70
     1
102
RTVSPropertyOp44
 70
     1
102
RTVSPropertyOp45
 70
     1
102
RTVSPropertyOp46
 70
     1
102
RTVSPropertyOp47
 70
     1
102
RTVSPropertyOp48
 70
     1
102
RTVSPropertyOp49
 70
     1
102
RTVSPropertyOp50
 70
     1
102
RTVSPropertyOp51
 70
     0
102
RTVSPropertyOp52
 70
     0
102
RTVSPropertyOp53
 70
     1
102
RTVSPropertyOp54
 70
     1
102
RTVSPropertyOp55
 70
     1
102
RTVSPropertyOp56
 70
     1
102
RTVSPropertyOp57
 70
     1
102
RTVSPropertyOp58
 70
     1
102
RTVSPropertyOp59
 70
     1
102
RTVSPropertyOp60
 70
     1
102
RTVSPropertyOp61
 70
     1
102
RTVSPropertyOp62
 70
     1
  0
XRECORD
  5
1319
102
{ACAD_REACTORS
330
1318
102
}
330
1318
100
AcDbXrecord
280
     1
102
RTVSPost2010Prop28
280
     0
102
RTVSPost2010PropOp28
 70
     1
102
RTVSPost2010Prop29
280
     1
102
RTVSPost2010PropOp29
 70
     1
102
RTVSPost2010Prop30
280
     1
102
RTVSPost2010PropOp30
 70
     1
102
RTVSPost2010Prop31
280
     0
102
RTVSPost2010PropOp31
 70
     1
102
RTVSPost2010Prop32
280
     0
102
RTVSPost2010PropOp32
 70
     1
102
RTVSPost2010Prop33
280
     0
102
RTVSPost2010PropOp33
 70
     1
102
RTVSPost2010Prop34
280
     0
102
RTVSPost2010PropOp34
 70
     1
102
RTVSPost2010Prop35
280
     0
102
RTVSPost2010PropOp35
 70
     1
102
RTVSPost2010Prop36
280
     0
102
RTVSPost2010PropOp36
 70
     1
102
RTVSPost2010Prop37
 90
       50
102
RTVSPost2010PropOp37
 70
     1
102
RTVSPost2010Prop38
140
0.0
102
RTVSPost2010PropOp38
 70
     1
102
RTVSPost2010Prop39
140
1.0
102
RTVSPost2010PropOp39
 70
     1
102
RTVSPost2010Prop40
 90
        0
102
RTVSPost2010PropOp40
 70
     1
102
RTVSPost2010Prop41ColorIndex
 90
       18
102
RTVSPost2010Prop41ColorRGB
 90
        0
102
RTVSPost2010PropOp41
 70
     1
102
RTVSPost2010Prop42
 90
       50
102
RTVSPost2010PropOp42
 70
     1
102
RTVSPost2010Prop43
 90
        3
102
RTVSPost2010PropOp43
 70
     1
102
RTVSPost2010Prop44ColorIndex
 90
        5
102
RTVSPost2010Prop44ColorRGB
 90
      255
102
RTVSPost2010PropOp44
 70
     1
102
RTVSPost2010Prop45
280
     0
102
RTVSPost2010PropOp45
 70
     1
102
RTVSPost2010Prop46
 90
       50
102
RTVSPost2010PropOp46
 70
     1
102
RTVSPost2010Prop47
 90
       50
102
RTVSPost2010PropOp47
 70
     1
102
RTVSPost2010Prop48
 90
       50
102
RTVSPost2010PropOp48
 70
     1
102
RTVSPost2010Prop49
280
     0
102
RTVSPost2010PropOp49
 70
     1
102
RTVSPost2010Prop50
 90
       50
102
RTVSPost2010PropOp50
 70
     1
102
RTVSPost2010Prop51ColorIndex
 90
      256
102
RTVSPost2010Prop51ColorRGB
 90
-16777216
102
RTVSPost2010PropOp51
 70
     0
102
RTVSPost2010Prop52
140
1.0
102
RTVSPost2010PropOp52
 70
     0
102
RTVSPost2010Prop53
 90
        2
102
RTVSPost2010PropOp53
 70
     1
102
RTVSPost2010Prop54
  1
strokes_ogs.tif
102
RTVSPost2010PropOp54
 70
     1
102
RTVSPost2010Prop55
280
     0
102
RTVSPost2010PropOp55
 70
     1
102
RTVSPost2010Prop56
140
1.0
102
RTVSPost2010PropOp56
 70
     1
102
RTVSPost2010Prop57
140
1.0
102
RTVSPost2010PropOp57
 70
     1
102
RTVSPropertyOp0
 70
     1
102
RTVSPropertyOp1
 70
     1
102
RTVSPropertyOp2
 70
     1
102
RTVSPropertyOp3
 70
     1
102
RTVSPropertyOp4
 70
     1
102
RTVSPropertyOp5
 70
     1
102
RTVSPropertyOp6
 70
     1
102
RTVSPropertyOp7
 70
     1
102
RTVSPropertyOp8
 70
     1
102
RTVSPropertyOp9
 70
     1
102
RTVSPropertyOp10
 70
     1
102
RTVSPropertyOp11
 70
     1
102
RTVSPropertyOp12
 70
     1
102
RTVSPropertyOp13
 70
     1
102
RTVSPropertyOp14
 70
     1
102
RTVSPropertyOp15
 70
     1
102
RTVSPropertyOp16
 70
     1
102
RTVSPropertyOp17
 70
     1
102
RTVSPropertyOp18
 70
     1
102
RTVSPropertyOp19
 70
     1
102
RTVSPropertyOp20
 70
     1
102
RTVSPropertyOp21
 70
     1
102
RTVSPropertyOp22
 70
     1
102
RTVSPropertyOp23
 70
     1
102
RTVSPropertyOp24
 70
     1
102
RTVSPropertyOp25
 70
     1
102
RTVSPropertyOp26
 70
     1
102
RTVSPropertyOp27
 70
     1
102
RTVSPropertyOp28
 70
     1
102
RTVSPropertyOp29
 70
     1
102
RTVSPropertyOp30
 70
     1
102
RTVSPropertyOp31
 70
     1
102
RTVSPropertyOp32
 70
     1
102
RTVSPropertyOp33
 70
     1
102
RTVSPropertyOp34
 70
     1
102
RTVSPropertyOp35
 70
     1
102
RTVSPropertyOp36
 70
     1
102
RTVSPropertyOp37
 70
     1
102
RTVSPropertyOp38
 70
     1
102
RTVSPropertyOp39
 70
     1
102
RTVSPropertyOp40
 70
     1
102
RTVSPropertyOp41
 70
     1
102
RTVSPropertyOp42
 70
     1
102
RTVSPropertyOp43
 70
     1
102
RTVSPropertyOp44
 70
     1
102
RTVSPropertyOp45
 70
     1
102
RTVSPropertyOp46
 70
     1
102
RTVSPropertyOp47
 70
     1
102
RTVSPropertyOp48
 70
     1
102
RTVSPropertyOp49
 70
     1
102
RTVSPropertyOp50
 70
     1
102
RTVSPropertyOp51
 70
     0
102
RTVSPropertyOp52
 70
     0
102
RTVSPropertyOp53
 70
     1
102
RTVSPropertyOp54
 70
     1
102
RTVSPropertyOp55
 70
     1
102
RTVSPropertyOp56
 70
     1
102
RTVSPropertyOp57
 70
     1
102
RTVSPropertyOp58
 70
     1
102
RTVSPropertyOp59
 70
     1
102
RTVSPropertyOp60
 70
     1
102
RTVSPropertyOp61
 70
     1
102
RTVSPropertyOp62
 70
     1
  0
XRECORD
  5
130F
102
{ACAD_REACTORS
330
130E
102
}
330
130E
100
AcDbXrecord
280
     1
102
RTVSPost2010Prop28
280
     0
102
RTVSPost2010PropOp28
 70
     1
102
RTVSPost2010Prop29
280
     1
102
RTVSPost2010PropOp29
 70
     1
102
RTVSPost2010Prop30
280
     1
102
RTVSPost2010PropOp30
 70
     1
102
RTVSPost2010Prop31
280
     0
102
RTVSPost2010PropOp31
 70
     1
102
RTVSPost2010Prop32
280
     0
102
RTVSPost2010PropOp32
 70
     1
102
RTVSPost2010Prop33
280
     0
102
RTVSPost2010PropOp33
 70
     1
102
RTVSPost2010Prop34
280
     0
102
RTVSPost2010PropOp34
 70
     1
102
RTVSPost2010Prop35
280
     0
102
RTVSPost2010PropOp35
 70
     1
102
RTVSPost2010Prop36
280
     0
102
RTVSPost2010PropOp36
 70
     1
102
RTVSPost2010Prop37
 90
       50
102
RTVSPost2010PropOp37
 70
     1
102
RTVSPost2010Prop38
140
0.0
102
RTVSPost2010PropOp38
 70
     1
102
RTVSPost2010Prop39
140
1.0
102
RTVSPost2010PropOp39
 70
     1
102
RTVSPost2010Prop40
 90
        0
102
RTVSPost2010PropOp40
 70
     1
102
RTVSPost2010Prop41ColorIndex
 90
       18
102
RTVSPost2010Prop41ColorRGB
 90
        0
102
RTVSPost2010PropOp41
 70
     1
102
RTVSPost2010Prop42
 90
       50
102
RTVSPost2010PropOp42
 70
     1
102
RTVSPost2010Prop43
 90
        3
102
RTVSPost2010PropOp43
 70
     1
102
RTVSPost2010Prop44ColorIndex
 90
        5
102
RTVSPost2010Prop44ColorRGB
 90
      255
102
RTVSPost2010PropOp44
 70
     1
102
RTVSPost2010Prop45
280
     0
102
RTVSPost2010PropOp45
 70
     1
102
RTVSPost2010Prop46
 90
       50
102
RTVSPost2010PropOp46
 70
     1
102
RTVSPost2010Prop47
 90
       50
102
RTVSPost2010PropOp47
 70
     1
102
RTVSPost2010Prop48
 90
       50
102
RTVSPost2010PropOp48
 70
     1
102
RTVSPost2010Prop49
280
     0
102
RTVSPost2010PropOp49
 70
     1
102
RTVSPost2010Prop50
 90
       50
102
RTVSPost2010PropOp50
 70
     1
102
RTVSPost2010Prop51ColorIndex
 90
      256
102
RTVSPost2010Prop51ColorRGB
 90
-16777216
102
RTVSPost2010PropOp51
 70
     0
102
RTVSPost2010Prop52
140
1.0
102
RTVSPost2010PropOp52
 70
     0
102
RTVSPost2010Prop53
 90
        2
102
RTVSPost2010PropOp53
 70
     1
102
RTVSPost2010Prop54
  1
strokes_ogs.tif
102
RTVSPost2010PropOp54
 70
     1
102
RTVSPost2010Prop55
280
     0
102
RTVSPost2010PropOp55
 70
     1
102
RTVSPost2010Prop56
140
1.0
102
RTVSPost2010PropOp56
 70
     1
102
RTVSPost2010Prop57
140
1.0
102
RTVSPost2010PropOp57
 70
     1
102
RTVSPropertyOp0
 70
     1
102
RTVSPropertyOp1
 70
     1
102
RTVSPropertyOp2
 70
     1
102
RTVSPropertyOp3
 70
     1
102
RTVSPropertyOp4
 70
     1
102
RTVSPropertyOp5
 70
     1
102
RTVSPropertyOp6
 70
     1
102
RTVSPropertyOp7
 70
     1
102
RTVSPropertyOp8
 70
     1
102
RTVSPropertyOp9
 70
     1
102
RTVSPropertyOp10
 70
     1
102
RTVSPropertyOp11
 70
     1
102
RTVSPropertyOp12
 70
     1
102
RTVSPropertyOp13
 70
     1
102
RTVSPropertyOp14
 70
     1
102
RTVSPropertyOp15
 70
     1
102
RTVSPropertyOp16
 70
     1
102
RTVSPropertyOp17
 70
     1
102
RTVSPropertyOp18
 70
     1
102
RTVSPropertyOp19
 70
     1
102
RTVSPropertyOp20
 70
     1
102
RTVSPropertyOp21
 70
     1
102
RTVSPropertyOp22
 70
     1
102
RTVSPropertyOp23
 70
     1
102
RTVSPropertyOp24
 70
     1
102
RTVSPropertyOp25
 70
     1
102
RTVSPropertyOp26
 70
     1
102
RTVSPropertyOp27
 70
     1
102
RTVSPropertyOp28
 70
     1
102
RTVSPropertyOp29
 70
     1
102
RTVSPropertyOp30
 70
     1
102
RTVSPropertyOp31
 70
     1
102
RTVSPropertyOp32
 70
     1
102
RTVSPropertyOp33
 70
     1
102
RTVSPropertyOp34
 70
     1
102
RTVSPropertyOp35
 70
     1
102
RTVSPropertyOp36
 70
     1
102
RTVSPropertyOp37
 70
     1
102
RTVSPropertyOp38
 70
     1
102
RTVSPropertyOp39
 70
     1
102
RTVSPropertyOp40
 70
     1
102
RTVSPropertyOp41
 70
     1
102
RTVSPropertyOp42
 70
     1
102
RTVSPropertyOp43
 70
     1
102
RTVSPropertyOp44
 70
     1
102
RTVSPropertyOp45
 70
     1
102
RTVSPropertyOp46
 70
     1
102
RTVSPropertyOp47
 70
     1
102
RTVSPropertyOp48
 70
     1
102
RTVSPropertyOp49
 70
     1
102
RTVSPropertyOp50
 70
     1
102
RTVSPropertyOp51
 70
     0
102
RTVSPropertyOp52
 70
     0
102
RTVSPropertyOp53
 70
     1
102
RTVSPropertyOp54
 70
     1
102
RTVSPropertyOp55
 70
     1
102
RTVSPropertyOp56
 70
     1
102
RTVSPropertyOp57
 70
     1
102
RTVSPropertyOp58
 70
     1
102
RTVSPropertyOp59
 70
     1
102
RTVSPropertyOp60
 70
     1
102
RTVSPropertyOp61
 70
     1
102
RTVSPropertyOp62
 70
     1
  0
XRECORD
  5
1303
102
{ACAD_REACTORS
330
1302
102
}
330
1302
100
AcDbXrecord
280
     1
102
RTVSPost2010Prop28
280
     0
102
RTVSPost2010PropOp28
 70
     1
102
RTVSPost2010Prop29
280
     1
102
RTVSPost2010PropOp29
 70
     1
102
RTVSPost2010Prop30
280
     1
102
RTVSPost2010PropOp30
 70
     1
102
RTVSPost2010Prop31
280
     0
102
RTVSPost2010PropOp31
 70
     1
102
RTVSPost2010Prop32
280
     0
102
RTVSPost2010PropOp32
 70
     1
102
RTVSPost2010Prop33
280
     0
102
RTVSPost2010PropOp33
 70
     1
102
RTVSPost2010Prop34
280
     0
102
RTVSPost2010PropOp34
 70
     1
102
RTVSPost2010Prop35
280
     0
102
RTVSPost2010PropOp35
 70
     1
102
RTVSPost2010Prop36
280
     0
102
RTVSPost2010PropOp36
 70
     1
102
RTVSPost2010Prop37
 90
       50
102
RTVSPost2010PropOp37
 70
     1
102
RTVSPost2010Prop38
140
0.0
102
RTVSPost2010PropOp38
 70
     1
102
RTVSPost2010Prop39
140
1.0
102
RTVSPost2010PropOp39
 70
     1
102
RTVSPost2010Prop40
 90
        0
102
RTVSPost2010PropOp40
 70
     1
102
RTVSPost2010Prop41ColorIndex
 90
       18
102
RTVSPost2010Prop41ColorRGB
 90
        0
102
RTVSPost2010PropOp41
 70
     1
102
RTVSPost2010Prop42
 90
       50
102
RTVSPost2010PropOp42
 70
     1
102
RTVSPost2010Prop43
 90
        3
102
RTVSPost2010PropOp43
 70
     1
102
RTVSPost2010Prop44ColorIndex
 90
        5
102
RTVSPost2010Prop44ColorRGB
 90
      255
102
RTVSPost2010PropOp44
 70
     1
102
RTVSPost2010Prop45
280
     0
102
RTVSPost2010PropOp45
 70
     1
102
RTVSPost2010Prop46
 90
       50
102
RTVSPost2010PropOp46
 70
     1
102
RTVSPost2010Prop47
 90
       50
102
RTVSPost2010PropOp47
 70
     1
102
RTVSPost2010Prop48
 90
       50
102
RTVSPost2010PropOp48
 70
     1
102
RTVSPost2010Prop49
280
     0
102
RTVSPost2010PropOp49
 70
     1
102
RTVSPost2010Prop50
 90
       50
102
RTVSPost2010PropOp50
 70
     1
102
RTVSPost2010Prop51ColorIndex
 90
      256
102
RTVSPost2010Prop51ColorRGB
 90
-16777216
102
RTVSPost2010PropOp51
 70
     0
102
RTVSPost2010Prop52
140
1.0
102
RTVSPost2010PropOp52
 70
     0
102
RTVSPost2010Prop53
 90
        2
102
RTVSPost2010PropOp53
 70
     1
102
RTVSPost2010Prop54
  1
strokes_ogs.tif
102
RTVSPost2010PropOp54
 70
     1
102
RTVSPost2010Prop55
280
     0
102
RTVSPost2010PropOp55
 70
     1
102
RTVSPost2010Prop56
140
1.0
102
RTVSPost2010PropOp56
 70
     1
102
RTVSPost2010Prop57
140
1.0
102
RTVSPost2010PropOp57
 70
     1
102
RTVSPropertyOp0
 70
     1
102
RTVSPropertyOp1
 70
     1
102
RTVSPropertyOp2
 70
     1
102
RTVSPropertyOp3
 70
     1
102
RTVSPropertyOp4
 70
     1
102
RTVSPropertyOp5
 70
     1
102
RTVSPropertyOp6
 70
     1
102
RTVSPropertyOp7
 70
     1
102
RTVSPropertyOp8
 70
     1
102
RTVSPropertyOp9
 70
     1
102
RTVSPropertyOp10
 70
     1
102
RTVSPropertyOp11
 70
     1
102
RTVSPropertyOp12
 70
     1
102
RTVSPropertyOp13
 70
     1
102
RTVSPropertyOp14
 70
     1
102
RTVSPropertyOp15
 70
     1
102
RTVSPropertyOp16
 70
     1
102
RTVSPropertyOp17
 70
     1
102
RTVSPropertyOp18
 70
     1
102
RTVSPropertyOp19
 70
     1
102
RTVSPropertyOp20
 70
     1
102
RTVSPropertyOp21
 70
     1
102
RTVSPropertyOp22
 70
     1
102
RTVSPropertyOp23
 70
     1
102
RTVSPropertyOp24
 70
     1
102
RTVSPropertyOp25
 70
     1
102
RTVSPropertyOp26
 70
     1
102
RTVSPropertyOp27
 70
     1
102
RTVSPropertyOp28
 70
     1
102
RTVSPropertyOp29
 70
     1
102
RTVSPropertyOp30
 70
     1
102
RTVSPropertyOp31
 70
     1
102
RTVSPropertyOp32
 70
     1
102
RTVSPropertyOp33
 70
     1
102
RTVSPropertyOp34
 70
     1
102
RTVSPropertyOp35
 70
     1
102
RTVSPropertyOp36
 70
     1
102
RTVSPropertyOp37
 70
     1
102
RTVSPropertyOp38
 70
     1
102
RTVSPropertyOp39
 70
     1
102
RTVSPropertyOp40
 70
     1
102
RTVSPropertyOp41
 70
     1
102
RTVSPropertyOp42
 70
     1
102
RTVSPropertyOp43
 70
     1
102
RTVSPropertyOp44
 70
     1
102
RTVSPropertyOp45
 70
     1
102
RTVSPropertyOp46
 70
     1
102
RTVSPropertyOp47
 70
     1
102
RTVSPropertyOp48
 70
     1
102
RTVSPropertyOp49
 70
     1
102
RTVSPropertyOp50
 70
     1
102
RTVSPropertyOp51
 70
     0
102
RTVSPropertyOp52
 70
     0
102
RTVSPropertyOp53
 70
     1
102
RTVSPropertyOp54
 70
     1
102
RTVSPropertyOp55
 70
     1
102
RTVSPropertyOp56
 70
     1
102
RTVSPropertyOp57
 70
     1
102
RTVSPropertyOp58
 70
     1
102
RTVSPropertyOp59
 70
     1
102
RTVSPropertyOp60
 70
     1
102
RTVSPropertyOp61
 70
     1
102
RTVSPropertyOp62
 70
     1
  0
XRECORD
  5
131B
102
{ACAD_REACTORS
330
131A
102
}
330
131A
100
AcDbXrecord
280
     1
102
RTVSPost2010Prop28
280
     0
102
RTVSPost2010PropOp28
 70
     1
102
RTVSPost2010Prop29
280
     1
102
RTVSPost2010PropOp29
 70
     1
102
RTVSPost2010Prop30
280
     1
102
RTVSPost2010PropOp30
 70
     1
102
RTVSPost2010Prop31
280
     0
102
RTVSPost2010PropOp31
 70
     1
102
RTVSPost2010Prop32
280
     0
102
RTVSPost2010PropOp32
 70
     1
102
RTVSPost2010Prop33
280
     0
102
RTVSPost2010PropOp33
 70
     1
102
RTVSPost2010Prop34
280
     0
102
RTVSPost2010PropOp34
 70
     1
102
RTVSPost2010Prop35
280
     0
102
RTVSPost2010PropOp35
 70
     1
102
RTVSPost2010Prop36
280
     0
102
RTVSPost2010PropOp36
 70
     1
102
RTVSPost2010Prop37
 90
       50
102
RTVSPost2010PropOp37
 70
     1
102
RTVSPost2010Prop38
140
0.0
102
RTVSPost2010PropOp38
 70
     1
102
RTVSPost2010Prop39
140
1.0
102
RTVSPost2010PropOp39
 70
     1
102
RTVSPost2010Prop40
 90
        0
102
RTVSPost2010PropOp40
 70
     1
102
RTVSPost2010Prop41ColorIndex
 90
       18
102
RTVSPost2010Prop41ColorRGB
 90
        0
102
RTVSPost2010PropOp41
 70
     1
102
RTVSPost2010Prop42
 90
       50
102
RTVSPost2010PropOp42
 70
     1
102
RTVSPost2010Prop43
 90
        3
102
RTVSPost2010PropOp43
 70
     1
102
RTVSPost2010Prop44ColorIndex
 90
        5
102
RTVSPost2010Prop44ColorRGB
 90
      255
102
RTVSPost2010PropOp44
 70
     1
102
RTVSPost2010Prop45
280
     0
102
RTVSPost2010PropOp45
 70
     1
102
RTVSPost2010Prop46
 90
       50
102
RTVSPost2010PropOp46
 70
     1
102
RTVSPost2010Prop47
 90
       50
102
RTVSPost2010PropOp47
 70
     1
102
RTVSPost2010Prop48
 90
       50
102
RTVSPost2010PropOp48
 70
     1
102
RTVSPost2010Prop49
280
     0
102
RTVSPost2010PropOp49
 70
     1
102
RTVSPost2010Prop50
 90
       50
102
RTVSPost2010PropOp50
 70
     1
102
RTVSPost2010Prop51ColorIndex
 90
      256
102
RTVSPost2010Prop51ColorRGB
 90
-16777216
102
RTVSPost2010PropOp51
 70
     0
102
RTVSPost2010Prop52
140
1.0
102
RTVSPost2010PropOp52
 70
     0
102
RTVSPost2010Prop53
 90
        2
102
RTVSPost2010PropOp53
 70
     1
102
RTVSPost2010Prop54
  1
strokes_ogs.tif
102
RTVSPost2010PropOp54
 70
     1
102
RTVSPost2010Prop55
280
     0
102
RTVSPost2010PropOp55
 70
     1
102
RTVSPost2010Prop56
140
1.0
102
RTVSPost2010PropOp56
 70
     1
102
RTVSPost2010Prop57
140
1.0
102
RTVSPost2010PropOp57
 70
     1
102
RTVSPropertyOp0
 70
     1
102
RTVSPropertyOp1
 70
     1
102
RTVSPropertyOp2
 70
     1
102
RTVSPropertyOp3
 70
     1
102
RTVSPropertyOp4
 70
     1
102
RTVSPropertyOp5
 70
     1
102
RTVSPropertyOp6
 70
     1
102
RTVSPropertyOp7
 70
     1
102
RTVSPropertyOp8
 70
     1
102
RTVSPropertyOp9
 70
     1
102
RTVSPropertyOp10
 70
     1
102
RTVSPropertyOp11
 70
     1
102
RTVSPropertyOp12
 70
     1
102
RTVSPropertyOp13
 70
     1
102
RTVSPropertyOp14
 70
     1
102
RTVSPropertyOp15
 70
     1
102
RTVSPropertyOp16
 70
     1
102
RTVSPropertyOp17
 70
     1
102
RTVSPropertyOp18
 70
     1
102
RTVSPropertyOp19
 70
     1
102
RTVSPropertyOp20
 70
     1
102
RTVSPropertyOp21
 70
     1
102
RTVSPropertyOp22
 70
     1
102
RTVSPropertyOp23
 70
     1
102
RTVSPropertyOp24
 70
     1
102
RTVSPropertyOp25
 70
     1
102
RTVSPropertyOp26
 70
     1
102
RTVSPropertyOp27
 70
     1
102
RTVSPropertyOp28
 70
     1
102
RTVSPropertyOp29
 70
     1
102
RTVSPropertyOp30
 70
     1
102
RTVSPropertyOp31
 70
     1
102
RTVSPropertyOp32
 70
     1
102
RTVSPropertyOp33
 70
     1
102
RTVSPropertyOp34
 70
     1
102
RTVSPropertyOp35
 70
     1
102
RTVSPropertyOp36
 70
     1
102
RTVSPropertyOp37
 70
     1
102
RTVSPropertyOp38
 70
     1
102
RTVSPropertyOp39
 70
     1
102
RTVSPropertyOp40
 70
     1
102
RTVSPropertyOp41
 70
     1
102
RTVSPropertyOp42
 70
     1
102
RTVSPropertyOp43
 70
     1
102
RTVSPropertyOp44
 70
     1
102
RTVSPropertyOp45
 70
     1
102
RTVSPropertyOp46
 70
     1
102
RTVSPropertyOp47
 70
     1
102
RTVSPropertyOp48
 70
     1
102
RTVSPropertyOp49
 70
     1
102
RTVSPropertyOp50
 70
     1
102
RTVSPropertyOp51
 70
     0
102
RTVSPropertyOp52
 70
     0
102
RTVSPropertyOp53
 70
     1
102
RTVSPropertyOp54
 70
     1
102
RTVSPropertyOp55
 70
     1
102
RTVSPropertyOp56
 70
     1
102
RTVSPropertyOp57
 70
     1
102
RTVSPropertyOp58
 70
     1
102
RTVSPropertyOp59
 70
     1
102
RTVSPropertyOp60
 70
     1
102
RTVSPropertyOp61
 70
     1
102
RTVSPropertyOp62
 70
     1
  0
ENDSEC
  0
EOF
