  0
SECTION
  2
HEADER
  9
$ACADVER
  1
AC1015
  9
$ACADMAINTVER
 70
    20
  9
$DWGCODEPAGE
  3
ANSI_932
  9
$INSBASE
 10
0.0
 20
0.0
 30
0.0
  9
$EXTMIN
 10
7.411653
 20
9.999999999999998
 30
0.0
  9
$EXTMAX
 10
370.219653
 20
251.8233649999999
 30
0.0
  9
$LIMMIN
 10
0.0
 20
0.0
  9
$LIMMAX
 10
396.0
 20
273.0
  9
$ORTHOMODE
 70
     1
  9
$REGENMODE
 70
     1
  9
$FILLMODE
 70
     1
  9
$QTEXTMODE
 70
     0
  9
$MIRRTEXT
 70
     1
  9
$LTSCALE
 40
20.0
  9
$ATTMODE
 70
     1
  9
$TEXTSIZE
 40
5.0
  9
$TRACEWID
 40
1.0
  9
$TEXTSTYLE
  7
STANDARD
  9
$CLAYER
  8
0
  9
$CELTYPE
  6
BYLAYER
  9
$CECOLOR
 62
   256
  9
$CELTSCALE
 40
1.0
  9
$DISPSILH
 70
     0
  9
$DIMSCALE
 40
1.0
  9
$DIMASZ
 40
3.0
  9
$DIMEXO
 40
1.0
  9
$DIMDLI
 40
10.0
  9
$DIMRND
 40
0.0
  9
$DIMDLE
 40
0.0
  9
$DIMEXE
 40
1.0
  9
$DIMTP
 40
0.0
  9
$DIMTM
 40
0.0
  9
$DIMTXT
 40
3.2
  9
$DIMCEN
 40
0.0
  9
$DIMTSZ
 40
0.0
  9
$DIMTOL
 70
     0
  9
$DIMLIM
 70
     0
  9
$DIMTIH
 70
     0
  9
$DIMTOH
 70
     0
  9
$DIMSE1
 70
     0
  9
$DIMSE2
 70
     0
  9
$DIMTAD
 70
     3
  9
$DIMZIN
 70
     9
  9
$DIMBLK
  1

  9
$DIMASO
 70
     1
  9
$DIMSHO
 70
     1
  9
$DIMPOST
  1

  9
$DIMAPOST
  1

  9
$DIMALT
 70
     0
  9
$DIMALTD
 70
     2
  9
$DIMALTF
 40
25.4
  9
$DIMLFAC
 40
1.0
  9
$DIMTOFL
 70
     1
  9
$DIMTVP
 40
0.0
  9
$DIMTIX
 70
     0
  9
$DIMSOXD
 70
     0
  9
$DIMSAH
 70
     1
  9
$DIMBLK1
  1

  9
$DIMBLK2
  1

  9
$DIMSTYLE
  2
STANDARD
  9
$DIMCLRD
 70
     0
  9
$DIMCLRE
 70
     0
  9
$DIMCLRT
 70
     0
  9
$DIMTFAC
 40
1.0
  9
$DIMGAP
 40
1.0
  9
$DIMJUST
 70
     0
  9
$DIMSD1
 70
     0
  9
$DIMSD2
 70
     0
  9
$DIMTOLJ
 70
     1
  9
$DIMTZIN
 70
     0
  9
$DIMALTZ
 70
     0
  9
$DIMALTTZ
 70
     0
  9
$DIMUPT
 70
     0
  9
$DIMDEC
 70
     4
  9
$DIMTDEC
 70
     4
  9
$DIMALTU
 70
     2
  9
$DIMALTTD
 70
     2
  9
$DIMTXSTY
  7
STANDARD
  9
$DIMAUNIT
 70
     0
  9
$DIMADEC
 70
     0
  9
$DIMALTRND
 40
0.0
  9
$DIMAZIN
 70
     0
  9
$DIMDSEP
 70
    46
  9
$DIMATFIT
 70
     3
  9
$DIMFRAC
 70
     0
  9
$DIMLDRBLK
  1

  9
$DIMLUNIT
 70
     2
  9
$DIMLWD
 70
    -2
  9
$DIMLWE
 70
    -2
  9
$DIMTMOVE
 70
     0
  9
$LUNITS
 70
     2
  9
$LUPREC
 70
     4
  9
$SKETCHINC
 40
1.0
  9
$FILLETRAD
 40
1.199999999999999
  9
$AUNITS
 70
     0
  9
$AUPREC
 70
     2
  9
$MENU
  1
.
  9
$ELEVATION
 40
0.0
  9
$PELEVATION
 40
0.0
  9
$THICKNESS
 40
0.0
  9
$LIMCHECK
 70
     0
  9
$CHAMFERA
 40
10.0
  9
$CHAMFERB
 40
10.0
  9
$CHAMFERC
 40
0.0
  9
$CHAMFERD
 40
0.0
  9
$SKPOLY
 70
     0
  9
$TDCREATE
 40
2451074.435160533
  9
$TDUCREATE
 40
2451074.060160533
  9
$TDUPDATE
 40
2457192.601251783
  9
$TDUUPDATE
 40
2457192.226251783
  9
$TDINDWG
 40
0.0000145139
  9
$TDUSRTIMER
 40
0.0000140046
  9
$USRTIMER
 70
     1
  9
$ANGBASE
 50
0.0
  9
$ANGDIR
 70
     0
  9
$PDMODE
 70
     0
  9
$PDSIZE
 40
0.0
  9
$PLINEWID
 40
0.0
  9
$SPLFRAME
 70
     0
  9
$SPLINETYPE
 70
     6
  9
$SPLINESEGS
 70
     8
  9
$HANDSEED
  5
A0BC
  9
$SURFTAB1
 70
     6
  9
$SURFTAB2
 70
     6
  9
$SURFTYPE
 70
     6
  9
$SURFU
 70
     6
  9
$SURFV
 70
     6
  9
$UCSBASE
  2

  9
$UCSNAME
  2

  9
$UCSORG
 10
0.0
 20
0.0
 30
0.0
  9
$UCSXDIR
 10
1.0
 20
0.0
 30
0.0
  9
$UCSYDIR
 10
0.0
 20
1.0
 30
0.0
  9
$UCSORTHOREF
  2

  9
$UCSORTHOVIEW
 70
     0
  9
$UCSORGTOP
 10
0.0
 20
0.0
 30
0.0
  9
$UCSORGBOTTOM
 10
0.0
 20
0.0
 30
0.0
  9
$UCSORGLEFT
 10
0.0
 20
0.0
 30
0.0
  9
$UCSORGRIGHT
 10
0.0
 20
0.0
 30
0.0
  9
$UCSORGFRONT
 10
0.0
 20
0.0
 30
0.0
  9
$UCSORGBACK
 10
0.0
 20
0.0
 30
0.0
  9
$PUCSBASE
  2

  9
$PUCSNAME
  2

  9
$PUCSORG
 10
0.0
 20
0.0
 30
0.0
  9
$PUCSXDIR
 10
1.0
 20
0.0
 30
0.0
  9
$PUCSYDIR
 10
0.0
 20
1.0
 30
0.0
  9
$PUCSORTHOREF
  2

  9
$PUCSORTHOVIEW
 70
     0
  9
$PUCSORGTOP
 10
0.0
 20
0.0
 30
0.0
  9
$PUCSORGBOTTOM
 10
0.0
 20
0.0
 30
0.0
  9
$PUCSORGLEFT
 10
0.0
 20
0.0
 30
0.0
  9
$PUCSORGRIGHT
 10
0.0
 20
0.0
 30
0.0
  9
$PUCSORGFRONT
 10
0.0
 20
0.0
 30
0.0
  9
$PUCSORGBACK
 10
0.0
 20
0.0
 30
0.0
  9
$USERI1
 70
     0
  9
$USERI2
 70
     0
  9
$USERI3
 70
     0
  9
$USERI4
 70
     0
  9
$USERI5
 70
     0
  9
$USERR1
 40
0.0
  9
$USERR2
 40
0.0
  9
$USERR3
 40
0.0
  9
$USERR4
 40
0.0
  9
$USERR5
 40
0.0
  9
$WORLDVIEW
 70
     1
  9
$SHADEDGE
 70
     3
  9
$SHADEDIF
 70
    70
  9
$TILEMODE
 70
     1
  9
$MAXACTVP
 70
    16
  9
$PINSBASE
 10
0.0
 20
0.0
 30
0.0
  9
$PLIMCHECK
 70
     0
  9
$PEXTMIN
 10
1.000000000000000E+20
 20
1.000000000000000E+20
 30
1.000000000000000E+20
  9
$PEXTMAX
 10
-1.000000000000000E+20
 20
-1.000000000000000E+20
 30
-1.000000000000000E+20
  9
$PLIMMIN
 10
0.0
 20
0.0
  9
$PLIMMAX
 10
420.0
 20
297.0
  9
$UNITMODE
 70
     0
  9
$VISRETAIN
 70
     0
  9
$PLINEGEN
 70
     0
  9
$PSLTSCALE
 70
     0
  9
$TREEDEPTH
 70
  3020
  9
$CMLSTYLE
  2
STANDARD
  9
$CMLJUST
 70
     0
  9
$CMLSCALE
 40
1.0
  9
$PROXYGRAPHICS
 70
     1
  9
$MEASUREMENT
 70
     0
  9
$CELWEIGHT
370
    -1
  9
$ENDCAPS
280
     0
  9
$JOINSTYLE
280
     0
  9
$LWDISPLAY
290
     0
  9
$INSUNITS
 70
     0
  9
$HYPERLINKBASE
  1

  9
$STYLESHEET
  1

  9
$XEDIT
290
     1
  9
$CEPSNTYPE
380
     0
  9
$PSTYLEMODE
290
     1
  9
$FINGERPRINTGUID
  2
{437D86F1-8C12-4EF8-AA40-51C0300FD6E8}
  9
$VERSIONGUID
  2
{6D2A1EEE-F1A5-431C-AB42-E93455C5ED7B}
  9
$EXTNAMES
290
     1
  9
$PSVPSCALE
 40
0.0
  9
$OLESTARTUP
290
     0
  0
ENDSEC
  0
SECTION
  2
CLASSES
  0
CLASS
  1
ACDBDICTIONARYWDFLT
  2
AcDbDictionaryWithDefault
  3
ObjectDBX Classes
 90
        0
280
     0
281
     0
  0
CLASS
  1
ACDBPLACEHOLDER
  2
AcDbPlaceHolder
  3
ObjectDBX Classes
 90
        0
280
     0
281
     0
  0
CLASS
  1
LAYOUT
  2
AcDbLayout
  3
ObjectDBX Classes
 90
        0
280
     0
281
     0
  0
CLASS
  1
DICTIONARYVAR
  2
AcDbDictionaryVar
  3
ObjectDBX Classes
 90
        0
280
     0
281
     0
  0
CLASS
  1
MATERIAL
  2
AcDbMaterial
  3
ObjectDBX Classes
 90
     1153
280
     0
281
     0
  0
CLASS
  1
VISUALSTYLE
  2
AcDbVisualStyle
  3
ObjectDBX Classes
 90
     4095
280
     0
281
     0
  0
CLASS
  1
TABLESTYLE
  2
AcDbTableStyle
  3
ObjectDBX Classes
 90
     4095
280
     0
281
     0
  0
CLASS
  1
SCALE
  2
AcDbScale
  3
ObjectDBX Classes
 90
     1153
280
     0
281
     0
  0
CLASS
  1
MLEADERSTYLE
  2
AcDbMLeaderStyle
  3
ACDB_MLEADERSTYLE_CLASS
 90
     4095
280
     0
281
     0
  0
CLASS
  1
ACDBSECTIONVIEWSTYLE
  2
AcDbSectionViewStyle
  3
ObjectDBX Classes
 90
     1025
280
     0
281
     0
  0
CLASS
  1
ACDBDETAILVIEWSTYLE
  2
AcDbDetailViewStyle
  3
ObjectDBX Classes
 90
     1025
280
     0
281
     0
  0
CLASS
  1
CELLSTYLEMAP
  2
AcDbCellStyleMap
  3
ObjectDBX Classes
 90
     1152
280
     0
281
     0
  0
ENDSEC
  0
SECTION
  2
TABLES
  0
TABLE
  2
VPORT
  5
9E33
330
0
100
AcDbSymbolTable
 70
     1
  0
VPORT
  5
A005
330
9E33
100
AcDbSymbolTableRecord
100
AcDbViewportTableRecord
  2
*ACTIVE
 70
     0
 10
0.0
 20
0.0
 11
1.0
 21
1.0
 12
262.0634265081863
 22
130.9076162907383
 13
0.0
 23
0.0
 14
10.0
 24
10.0
 15
10.0
 25
10.0
 16
0.0
 26
0.0
 36
1.0
 17
0.0
 27
0.0
 37
0.0
 40
244.5415802183207
 41
1.899603698811096
 42
50.0
 43
0.0
 44
0.0
 50
0.0
 51
0.0
 71
     0
 72
   100
 73
     1
 74
     0
 75
     0
 76
     0
 77
     0
 78
     0
281
     0
 65
     1
110
0.0
120
0.0
130
0.0
111
1.0
121
0.0
131
0.0
112
0.0
122
1.0
132
0.0
 79
     0
146
0.0
1001
ACAD_NAV_VCDISPLAY
1070
     3
  0
ENDTAB
  0
TABLE
  2
LTYPE
  5
9E30
330
0
100
AcDbSymbolTable
 70
     4
  0
LTYPE
  5
9E3E
330
9E30
100
AcDbSymbolTableRecord
100
AcDbLinetypeTableRecord
  2
BYBLOCK
 70
     0
  3

 72
    65
 73
     0
 40
0.0
  0
LTYPE
  5
9E3F
330
9E30
100
AcDbSymbolTableRecord
100
AcDbLinetypeTableRecord
  2
BYLAYER
 70
     0
  3

 72
    65
 73
     0
 40
0.0
  0
LTYPE
  5
9E40
330
9E30
100
AcDbSymbolTableRecord
100
AcDbLinetypeTableRecord
  2
CONTINUOUS
 70
     0
  3
Solid line
 72
    65
 73
     0
 40
0.0
  0
LTYPE
  5
9E4E
330
9E30
100
AcDbSymbolTableRecord
100
AcDbLinetypeTableRecord
  2
DASHED
 70
     0
  3
__ __ __ __ __ __ __ __ __ __ __ __ __ __ __ __
 72
    65
 73
     2
 40
0.75
 49
0.5
 74
     0
 49
-0.25
 74
     0
  0
LTYPE
  5
9E4F
330
9E30
100
AcDbSymbolTableRecord
100
AcDbLinetypeTableRecord
  2
CENTER
 70
     0
  3
____ _ ____ _ ____ _ ____ _ ____ _ ____ _ ____ 
 72
    65
 73
     4
 40
2.0
 49
1.25
 74
     0
 49
-0.25
 74
     0
 49
0.25
 74
     0
 49
-0.25
 74
     0
  0
LTYPE
  5
9E50
330
9E30
100
AcDbSymbolTableRecord
100
AcDbLinetypeTableRecord
  2
PHANTOM
 70
     0
  3
______  __  __  ______  __  __  ______  __  __ 
 72
    65
 73
     6
 40
2.5
 49
1.25
 74
     0
 49
-0.25
 74
     0
 49
0.25
 74
     0
 49
-0.25
 74
     0
 49
0.25
 74
     0
 49
-0.25
 74
     0
  0
ENDTAB
  0
TABLE
  2
LAYER
  5
9E2D
330
0
100
AcDbSymbolTable
 70
     8
  0
LAYER
  5
9E3B
102
{ACAD_XDICTIONARY
360
A060
102
}
330
9E2D
100
AcDbSymbolTableRecord
100
AcDbLayerTableRecord
  2
0
 70
     0
 62
     7
  6
CONTINUOUS
370
    -3
390
A00E
  0
LAYER
  5
9E51
102
{ACAD_XDICTIONARY
360
A062
102
}
330
9E2D
100
AcDbSymbolTableRecord
100
AcDbLayerTableRecord
  2
4
 70
     0
 62
     1
  6
CENTER
370
    -3
390
A00E
  0
LAYER
  5
9E52
102
{ACAD_XDICTIONARY
360
A064
102
}
330
9E2D
100
AcDbSymbolTableRecord
100
AcDbLayerTableRecord
  2
5
 70
     0
 62
     6
  6
PHANTOM
370
    -3
390
A00E
  0
LAYER
  5
9E53
102
{ACAD_XDICTIONARY
360
A066
102
}
330
9E2D
100
AcDbSymbolTableRecord
100
AcDbLayerTableRecord
  2
1
 70
     0
 62
     7
  6
CONTINUOUS
370
    -3
390
A00E
  0
LAYER
  5
9E54
102
{ACAD_XDICTIONARY
360
A068
102
}
330
9E2D
100
AcDbSymbolTableRecord
100
AcDbLayerTableRecord
  2
2
 70
     0
 62
     4
  6
CONTINUOUS
370
    -3
390
A00E
  0
LAYER
  5
9E55
102
{ACAD_XDICTIONARY
360
A06A
102
}
330
9E2D
100
AcDbSymbolTableRecord
100
AcDbLayerTableRecord
  2
3
 70
     0
 62
     2
  6
DASHED
370
    -3
390
A00E
  0
LAYER
  5
9E56
102
{ACAD_XDICTIONARY
360
A06C
102
}
330
9E2D
100
AcDbSymbolTableRecord
100
AcDbLayerTableRecord
  2
6
 70
     0
 62
     5
  6
CONTINUOUS
370
    -3
390
A00E
  0
LAYER
  5
9E57
102
{ACAD_XDICTIONARY
360
A06E
102
}
330
9E2D
100
AcDbSymbolTableRecord
100
AcDbLayerTableRecord
  2
7
 70
     0
 62
     3
  6
CONTINUOUS
370
    -3
390
A00E
  0
ENDTAB
  0
TABLE
  2
STYLE
  5
9E2E
330
0
100
AcDbSymbolTable
 70
     1
  0
STYLE
  5
9E3C
330
9E2E
100
AcDbSymbolTableRecord
100
AcDbTextStyleTableRecord
  2
STANDARD
 70
     0
 40
0.0
 41
1.0
 50
0.0
 71
     0
 42
5.0
  3
txt
  4

  0
ENDTAB
  0
TABLE
  2
VIEW
  5
9E31
330
0
100
AcDbSymbolTable
 70
     0
  0
ENDTAB
  0
TABLE
  2
UCS
  5
9E32
330
0
100
AcDbSymbolTable
 70
     0
  0
ENDTAB
  0
TABLE
  2
APPID
  5
9E34
330
0
100
AcDbSymbolTable
 70
     3
  0
APPID
  5
9E3D
330
9E34
100
AcDbSymbolTableRecord
100
AcDbRegAppTableRecord
  2
ACAD
 70
     0
  0
APPID
  5
A07A
330
9E34
100
AcDbSymbolTableRecord
100
AcDbRegAppTableRecord
  2
ACAD_NAV_VCDISPLAY
 70
     0
  0
APPID
  5
A0B3
330
9E34
100
AcDbSymbolTableRecord
100
AcDbRegAppTableRecord
  2
ACAD_MLEADERVER
 70
     0
  0
ENDTAB
  0
TABLE
  2
DIMSTYLE
  5
9E35
330
0
100
AcDbSymbolTable
 70
     1
100
AcDbDimStyleTable
 71
     0
  0
DIMSTYLE
105
9E59
330
9E35
100
AcDbSymbolTableRecord
100
AcDbDimStyleTableRecord
  2
STANDARD
 70
     0
 41
3.0
 42
1.0
 43
10.0
 44
1.0
 73
     0
 74
     0
 77
     3
 78
     9
140
3.2
141
0.0
147
1.0
172
     1
173
     1
284
     9
285
     9
286
     9
340
9E3C
  0
ENDTAB
  0
TABLE
  2
BLOCK_RECORD
  5
9E2C
330
0
100
AcDbSymbolTable
 70
     0
  0
BLOCK_RECORD
  5
9E49
102
{ACAD_XDICTIONARY
360
A008
102
}
330
9E2C
100
AcDbSymbolTableRecord
100
AcDbBlockTableRecord
  2
*MODEL_SPACE
340
A05C
  0
BLOCK_RECORD
  5
9E45
102
{ACAD_XDICTIONARY
360
A006
102
}
330
9E2C
100
AcDbSymbolTableRecord
100
AcDbBlockTableRecord
  2
*PAPER_SPACE
340
A05D
  0
ENDTAB
  0
ENDSEC
  0
SECTION
  2
BLOCKS
  0
BLOCK
  5
9E4A
330
9E49
100
AcDbEntity
  8
0
100
AcDbBlockBegin
  2
*MODEL_SPACE
 70
     0
 10
0.0
 20
0.0
 30
0.0
  3
*MODEL_SPACE
  1

  0
ENDBLK
  5
9E4B
330
9E49
100
AcDbEntity
  8
0
100
AcDbBlockEnd
  0
BLOCK
  5
9E46
330
9E45
100
AcDbEntity
 67
     1
  8
0
100
AcDbBlockBegin
  2
*PAPER_SPACE
 70
     0
 10
0.0
 20
0.0
 30
0.0
  3
*PAPER_SPACE
  1

  0
ENDBLK
  5
9E47
330
9E45
100
AcDbEntity
 67
     1
  8
0
100
AcDbBlockEnd
  0
ENDSEC
  0
SECTION
  2
ENTITIES
  0
TEXT
  5
9E61
330
9E49
100
AcDbEntity
  8
7
  6
Continuous
100
AcDbText
 10
10.0
 20
18.0
 30
0.0
 40
3.0
  1
TYPE No.TL-296-1
100
AcDbText
  0
TEXT
  5
9E62
330
9E49
100
AcDbEntity
  8
7
  6
Continuous
100
AcDbText
 10
10.0
 20
26.0
 30
0.0
 40
3.0
  1
CODE No.1868
100
AcDbText
  0
TEXT
  5
9E63
330
9E49
100
AcDbEntity
  8
1
  6
Continuous
100
AcDbText
 10
10.0
 20
10.0
 30
0.0
 40
1.399999999999999
  1
LAYER
100
AcDbText
  0
TEXT
  5
9E64
330
9E49
100
AcDbEntity
  8
1
  6
Continuous
100
AcDbText
 10
17.97951099999998
 20
10.04873699999998
 30
0.0
 40
1.399999999999999
  1
1
100
AcDbText
  0
TEXT
  5
9E65
330
9E49
100
AcDbEntity
  8
7
  6
Continuous
100
AcDbText
 10
29.97951099999999
 20
10.04873699999998
 30
0.0
 40
1.399999999999999
  1
7
100
AcDbText
  0
TEXT
  5
9E66
330
9E49
100
AcDbEntity
  8
4
  6
CENTER
100
AcDbText
 10
23.97951099999999
 20
10.04873699999998
 30
0.0
 40
1.399999999999999
  1
4
100
AcDbText
  0
TEXT
  5
9E67
330
9E49
100
AcDbEntity
  8
3
  6
DASHED
100
AcDbText
 10
21.979511
 20
10.04873699999998
 30
0.0
 40
1.399999999999999
  1
3
100
AcDbText
  0
TEXT
  5
9E68
330
9E49
100
AcDbEntity
  8
2
  6
Continuous
100
AcDbText
 10
19.97951099999999
 20
10.04873699999998
 30
0.0
 40
1.399999999999999
  1
2
100
AcDbText
  0
TEXT
  5
9E69
330
9E49
100
AcDbEntity
  8
6
  6
Continuous
100
AcDbText
 10
27.979511
 20
10.04873699999998
 30
0.0
 40
1.399999999999999
  1
6
100
AcDbText
  0
TEXT
  5
9E6A
330
9E49
100
AcDbEntity
  8
5
  6
PHANTOM
100
AcDbText
 10
25.97951099999999
 20
10.04873699999998
 30
0.0
 40
1.399999999999999
  1
5
100
AcDbText
  0
LINE
  5
9E6B
330
9E49
100
AcDbEntity
  8
1
  6
Continuous
100
AcDbLine
 10
14.637553
 20
119.8233649999999
 30
0.0
 11
58.63755300000001
 21
119.8233649999999
 31
0.0
  0
LINE
  5
9E6C
330
9E49
100
AcDbEntity
  8
1
  6
Continuous
100
AcDbLine
 10
59.837553
 20
156.8233649999999
 30
0.0
 11
59.837553
 21
121.0233649999999
 31
0.0
  0
LINE
  5
9E6D
330
9E49
100
AcDbEntity
  8
1
  6
Continuous
100
AcDbLine
 10
13.43755299999999
 20
156.8233649999999
 30
0.0
 11
13.43755299999999
 21
121.0233649999999
 31
0.0
  0
LINE
  5
9E6E
330
9E49
100
AcDbEntity
  8
1
  6
Continuous
100
AcDbLine
 10
13.43755299999999
 20
156.8233649999999
 30
0.0
 11
14.637553
 21
156.8233649999999
 31
0.0
  0
LINE
  5
9E6F
330
9E49
100
AcDbEntity
  8
1
  6
Continuous
100
AcDbLine
 10
58.63755300000001
 20
156.8233649999999
 30
0.0
 11
59.837553
 21
156.8233649999999
 31
0.0
  0
LINE
  5
9E70
330
9E49
100
AcDbEntity
  8
1
  6
Continuous
100
AcDbLine
 10
13.43755299999999
 20
151.275365
 30
0.0
 11
59.837553
 21
151.275365
 31
0.0
  0
LINE
  5
9E71
330
9E49
100
AcDbEntity
  8
1
  6
Continuous
100
AcDbLine
 10
13.43755299999999
 20
126.543365
 30
0.0
 11
14.637553
 21
126.543365
 31
0.0
  0
LINE
  5
9E72
330
9E49
100
AcDbEntity
  8
1
  6
Continuous
100
AcDbLine
 10
58.63755300000001
 20
126.543365
 30
0.0
 11
59.837553
 21
126.543365
 31
0.0
  0
LINE
  5
9E73
330
9E49
100
AcDbEntity
  8
1
  6
Continuous
100
AcDbLine
 10
58.63755300000001
 20
119.8233649999999
 30
0.0
 11
58.63755300000001
 21
126.543365
 31
0.0
  0
LINE
  5
9E74
330
9E49
100
AcDbEntity
  8
1
  6
Continuous
100
AcDbLine
 10
58.63755300000001
 20
151.275365
 30
0.0
 11
58.63755300000001
 21
156.8233649999999
 31
0.0
  0
LINE
  5
9E75
330
9E49
100
AcDbEntity
  8
1
  6
Continuous
100
AcDbLine
 10
14.637553
 20
126.543365
 30
0.0
 11
14.637553
 21
119.8233649999999
 31
0.0
  0
LINE
  5
9E76
330
9E49
100
AcDbEntity
  8
1
  6
Continuous
100
AcDbLine
 10
14.637553
 20
156.8233649999999
 30
0.0
 11
14.637553
 21
151.275365
 31
0.0
  0
LINE
  5
9E77
330
9E49
100
AcDbEntity
  8
1
  6
Continuous
100
AcDbLine
 10
13.43755299999999
 20
121.0233649999999
 30
0.0
 11
14.637553
 21
121.0233649999999
 31
0.0
  0
LINE
  5
9E78
330
9E49
100
AcDbEntity
  8
1
  6
Continuous
100
AcDbLine
 10
58.63755300000001
 20
121.0233649999999
 30
0.0
 11
59.837553
 21
121.0233649999999
 31
0.0
  0
LINE
  5
9E79
330
9E49
100
AcDbEntity
  8
1
  6
Continuous
100
AcDbLine
 10
42.399653
 20
143.323365
 30
0.0
 11
47.63755299999998
 21
143.323365
 31
0.0
  0
LINE
  5
9E7A
330
9E49
100
AcDbEntity
  8
1
  6
Continuous
100
AcDbLine
 10
42.399653
 20
141.323365
 30
0.0
 11
47.63755299999998
 21
141.323365
 31
0.0
  0
LINE
  5
9E7B
330
9E49
100
AcDbEntity
  8
1
  6
Continuous
100
AcDbLine
 10
25.637553
 20
143.323365
 30
0.0
 11
29.841353
 21
143.323365
 31
0.0
  0
LINE
  5
9E7C
330
9E49
100
AcDbEntity
  8
1
  6
Continuous
100
AcDbLine
 10
30.775753
 20
143.323365
 30
0.0
 11
41.353053
 21
143.323365
 31
0.0
  0
LINE
  5
9E7D
330
9E49
100
AcDbEntity
  8
1
  6
Continuous
100
AcDbLine
 10
25.637553
 20
141.323365
 30
0.0
 11
29.841353
 21
141.323365
 31
0.0
  0
LINE
  5
9E7E
330
9E49
100
AcDbEntity
  8
1
  6
Continuous
100
AcDbLine
 10
30.775753
 20
141.323365
 30
0.0
 11
41.353053
 21
141.323365
 31
0.0
  0
LINE
  5
9E7F
330
9E49
100
AcDbEntity
  8
1
  6
Continuous
100
AcDbLine
 10
23.637553
 20
145.323365
 30
0.0
 11
23.637553
 21
148.322365
 31
0.0
  0
LINE
  5
9E80
330
9E49
100
AcDbEntity
  8
1
  6
Continuous
100
AcDbLine
 10
23.637553
 20
149.182365
 30
0.0
 11
23.637553
 21
151.275365
 31
0.0
  0
LINE
  5
9E81
330
9E49
100
AcDbEntity
  8
1
  6
Continuous
100
AcDbLine
 10
22.137553
 20
144.8233649999998
 30
0.0
 11
22.137553
 21
148.322365
 31
0.0
  0
LINE
  5
9E82
330
9E49
100
AcDbEntity
  8
1
  6
Continuous
100
AcDbLine
 10
22.137553
 20
149.182365
 30
0.0
 11
22.137553
 21
151.275365
 31
0.0
  0
LINE
  5
9E83
330
9E49
100
AcDbEntity
  8
1
  6
Continuous
100
AcDbLine
 10
51.13755300000001
 20
144.8233649999998
 30
0.0
 11
51.13755300000001
 21
147.6123649999999
 31
0.0
  0
LINE
  5
9E84
330
9E49
100
AcDbEntity
  8
1
  6
Continuous
100
AcDbLine
 10
51.13755300000001
 20
148.771365
 30
0.0
 11
51.13755300000001
 21
151.275365
 31
0.0
  0
LINE
  5
9E85
330
9E49
100
AcDbEntity
  8
1
  6
Continuous
100
AcDbLine
 10
49.63755299999998
 20
145.323365
 30
0.0
 11
49.63755299999998
 21
147.6123649999999
 31
0.0
  0
LINE
  5
9E86
330
9E49
100
AcDbEntity
  8
1
  6
Continuous
100
AcDbLine
 10
49.63755299999998
 20
148.771365
 30
0.0
 11
49.63755299999998
 21
151.275365
 31
0.0
  0
LINE
  5
9E87
330
9E49
100
AcDbEntity
  8
1
  6
Continuous
100
AcDbLine
 10
171.181653
 20
156.7673649999998
 30
0.0
 11
169.269653
 21
158.680365
 31
0.0
  0
LINE
  5
9E88
330
9E49
100
AcDbEntity
  8
1
  6
Continuous
100
AcDbLine
 10
173.502653
 20
156.5683649999998
 30
0.0
 11
170.329653
 21
159.7403649999999
 31
0.0
  0
LINE
  5
9E89
330
9E49
100
AcDbEntity
  8
1
  6
Continuous
100
AcDbLine
 10
170.329653
 20
159.7403649999999
 30
0.0
 11
169.269653
 21
158.680365
 31
0.0
  0
LINE
  5
9E8A
330
9E49
100
AcDbEntity
  8
5
  6
PHANTOM
100
AcDbLine
 10
177.226653
 20
137.3233649999999
 30
0.0
 11
178.426653
 21
137.3233649999999
 31
0.0
  0
LINE
  5
9E8B
330
9E49
100
AcDbEntity
  8
1
  6
Continuous
100
AcDbLine
 10
180.2266529999999
 20
122.323365
 30
0.0
 11
181.4266529999999
 21
122.323365
 31
0.0
  0
LINE
  5
9E8C
330
9E49
100
AcDbEntity
  8
1
  6
Continuous
100
AcDbLine
 10
179.4266529999999
 20
132.823365
 30
0.0
 11
181.4266529999999
 21
132.823365
 31
0.0
  0
LINE
  5
9E8D
330
9E49
100
AcDbEntity
  8
1
  6
Continuous
100
AcDbLine
 10
176.4266529999999
 20
154.002365
 30
0.0
 11
177.626653
 21
154.002365
 31
0.0
  0
LINE
  5
9E8E
330
9E49
100
AcDbEntity
  8
1
  6
Continuous
100
AcDbLine
 10
176.4266529999999
 20
145.002365
 30
0.0
 11
177.626653
 21
145.002365
 31
0.0
  0
LINE
  5
9E8F
330
9E49
100
AcDbEntity
  8
1
  6
Continuous
100
AcDbLine
 10
177.626653
 20
154.002365
 30
0.0
 11
177.626653
 21
145.002365
 31
0.0
  0
LINE
  5
9E90
330
9E49
100
AcDbEntity
  8
1
  6
Continuous
100
AcDbLine
 10
176.4266529999999
 20
135.823365
 30
0.0
 11
176.4266529999999
 21
145.002365
 31
0.0
  0
LINE
  5
9E91
330
9E49
100
AcDbEntity
  8
1
  6
Continuous
100
AcDbLine
 10
180.2266529999999
 20
122.323365
 30
0.0
 11
174.9816529999999
 21
121.1603649999998
 31
0.0
  0
LINE
  5
9E92
330
9E49
100
AcDbEntity
  8
1
  6
Continuous
100
AcDbLine
 10
180.485653
 20
121.1513649999998
 30
0.0
 11
175.240653
 21
119.9893649999999
 31
0.0
  0
LINE
  5
9E93
330
9E49
100
AcDbEntity
  8
1
  6
Continuous
100
AcDbLine
 10
166.7316529999999
 20
126.543365
 30
0.0
 11
165.743653
 21
151.275365
 31
0.0
  0
LINE
  5
9E94
330
9E49
100
AcDbEntity
  8
1
  6
Continuous
100
AcDbLine
 10
180.2266529999999
 20
122.323365
 30
0.0
 11
180.485653
 21
121.1513649999998
 31
0.0
  0
LINE
  5
9E95
330
9E49
100
AcDbEntity
  8
1
  6
Continuous
100
AcDbLine
 10
167.930653
 20
126.5913649999999
 30
0.0
 11
166.7316529999999
 21
126.543365
 31
0.0
  0
LINE
  5
9E96
330
9E49
100
AcDbEntity
  8
1
  6
Continuous
100
AcDbLine
 10
166.942653
 20
151.323365
 30
0.0
 11
165.743653
 21
151.275365
 31
0.0
  0
LINE
  5
9E97
330
9E49
100
AcDbEntity
  8
1
  6
Continuous
100
AcDbLine
 10
165.743653
 20
151.275365
 30
0.0
 11
164.126653
 21
151.275365
 31
0.0
  0
LINE
  5
9E98
330
9E49
100
AcDbEntity
  8
1
  6
Continuous
100
AcDbLine
 10
164.126653
 20
151.275365
 30
0.0
 11
164.126653
 21
143.8223649999999
 31
0.0
  0
LINE
  5
9E99
330
9E49
100
AcDbEntity
  8
1
  6
Continuous
100
AcDbLine
 10
166.1406529999999
 20
141.323365
 30
0.0
 11
164.4806529999998
 21
142.9713649999999
 31
0.0
  0
LINE
  5
9E9A
330
9E49
100
AcDbEntity
  8
1
  6
Continuous
100
AcDbLine
 10
166.942653
 20
151.323365
 30
0.0
 11
166.930653
 21
151.6233649999998
 31
0.0
  0
LINE
  5
9E9B
330
9E49
100
AcDbEntity
  8
5
  6
PHANTOM
100
AcDbLine
 10
177.226653
 20
137.3233649999999
 30
0.0
 11
177.226653
 21
145.002365
 31
0.0
  0
LINE
  5
9E9C
330
9E49
100
AcDbEntity
  8
4
  6
CENTER
100
AcDbLine
 10
181.3036529999999
 20
142.323365
 30
0.0
 11
175.536653
 21
142.323365
 31
0.0
  0
LINE
  5
9E9D
330
9E49
100
AcDbEntity
  8
4
  6
CENTER
100
AcDbLine
 10
7.411653
 20
126.8233649999999
 30
0.0
 11
64.99835299999999
 21
126.8233649999999
 31
0.0
  0
LINE
  5
9E9E
330
9E49
100
AcDbEntity
  8
1
  6
Continuous
100
AcDbLine
 10
334.2196529999998
 20
119.8233649999999
 30
0.0
 11
290.2196529999999
 21
119.8233649999999
 31
0.0
  0
LINE
  5
9E9F
330
9E49
100
AcDbEntity
  8
1
  6
Continuous
100
AcDbLine
 10
289.019653
 20
156.8233649999999
 30
0.0
 11
289.019653
 21
121.0233649999999
 31
0.0
  0
LINE
  5
9EA0
330
9E49
100
AcDbEntity
  8
1
  6
Continuous
100
AcDbLine
 10
335.4196529999999
 20
156.8233649999999
 30
0.0
 11
335.4196529999999
 21
121.0233649999999
 31
0.0
  0
LINE
  5
9EA1
330
9E49
100
AcDbEntity
  8
4
  6
CENTER
100
AcDbLine
 10
312.219653
 20
164.6533649999998
 30
0.0
 11
312.219653
 21
114.8233649999999
 31
0.0
  0
LINE
  5
9EA2
330
9E49
100
AcDbEntity
  8
1
  6
Continuous
100
AcDbLine
 10
335.4196529999999
 20
156.8233649999999
 30
0.0
 11
334.2196529999998
 21
156.8233649999999
 31
0.0
  0
LINE
  5
9EA3
330
9E49
100
AcDbEntity
  8
1
  6
Continuous
100
AcDbLine
 10
290.2196529999999
 20
156.8233649999999
 30
0.0
 11
289.019653
 21
156.8233649999999
 31
0.0
  0
LINE
  5
9EA4
330
9E49
100
AcDbEntity
  8
1
  6
Continuous
100
AcDbLine
 10
335.4196529999999
 20
121.0233649999999
 30
0.0
 11
334.2196529999998
 21
121.0233649999999
 31
0.0
  0
LINE
  5
9EA5
330
9E49
100
AcDbEntity
  8
1
  6
Continuous
100
AcDbLine
 10
290.2196529999999
 20
121.0233649999999
 30
0.0
 11
289.019653
 21
121.0233649999999
 31
0.0
  0
LINE
  5
9EA6
330
9E49
100
AcDbEntity
  8
4
  6
CENTER
100
AcDbLine
 10
341.4456529999998
 20
126.8233649999999
 30
0.0
 11
283.8596529999999
 21
126.8233649999999
 31
0.0
  0
LINE
  5
9EA7
330
9E49
100
AcDbEntity
  8
1
  6
Continuous
100
AcDbLine
 10
37.95215300000001
 20
159.5663649999998
 30
0.0
 11
56.600453
 21
157.0933649999998
 31
0.0
  0
LINE
  5
9EA8
330
9E49
100
AcDbEntity
  8
1
  6
Continuous
100
AcDbLine
 10
35.32295299999999
 20
159.5663649999998
 30
0.0
 11
16.67465299999999
 21
157.0933649999998
 31
0.0
  0
LINE
  5
9EA9
330
9E49
100
AcDbEntity
  8
1
  6
Continuous
100
AcDbLine
 10
35.32295299999999
 20
158.5053649999998
 30
0.0
 11
16.67465299999999
 21
156.0323649999999
 31
0.0
  0
LINE
  5
9EAA
330
9E49
100
AcDbEntity
  8
1
  6
Continuous
100
AcDbLine
 10
37.95215300000001
 20
158.5053649999998
 30
0.0
 11
56.600453
 21
156.0323649999999
 31
0.0
  0
LINE
  5
9EAB
330
9E49
100
AcDbEntity
  8
1
  6
Continuous
100
AcDbLine
 10
14.937553
 20
153.0233649999999
 30
0.0
 11
58.33755299999999
 21
153.0233649999999
 31
0.0
  0
LINE
  5
9EAC
330
9E49
100
AcDbEntity
  8
1
  6
Continuous
100
AcDbLine
 10
334.2196529999998
 20
121.1513649999998
 30
0.0
 11
290.2196529999999
 21
121.1513649999998
 31
0.0
  0
LINE
  5
9EAD
330
9E49
100
AcDbEntity
  8
5
  6
PHANTOM
100
AcDbLine
 10
318.219653
 20
137.3233649999999
 30
0.0
 11
306.219653
 21
137.3233649999999
 31
0.0
  0
LINE
  5
9EAE
330
9E49
100
AcDbEntity
  8
1
  6
Continuous
100
AcDbLine
 10
323.2196529999999
 20
147.3203649999998
 30
0.0
 11
301.219653
 21
147.3203649999998
 31
0.0
  0
LINE
  5
9EAF
330
9E49
100
AcDbEntity
  8
5
  6
PHANTOM
100
AcDbLine
 10
304.219653
 20
147.3203649999998
 30
0.0
 11
304.219653
 21
139.3233649999999
 31
0.0
  0
LINE
  5
9EB0
330
9E49
100
AcDbEntity
  8
5
  6
PHANTOM
100
AcDbLine
 10
320.219653
 20
147.3203649999998
 30
0.0
 11
320.219653
 21
139.3233649999999
 31
0.0
  0
LINE
  5
9EB1
330
9E49
100
AcDbEntity
  8
1
  6
Continuous
100
AcDbLine
 10
301.219653
 20
147.3203649999998
 30
0.0
 11
301.219653
 21
137.5233649999999
 31
0.0
  0
LINE
  5
9EB2
330
9E49
100
AcDbEntity
  8
1
  6
Continuous
100
AcDbLine
 10
323.2196529999999
 20
147.3203649999998
 30
0.0
 11
323.2196529999999
 21
137.5233649999999
 31
0.0
  0
LINE
  5
9EB3
330
9E49
100
AcDbEntity
  8
4
  6
CENTER
100
AcDbLine
 10
308.219653
 20
139.3233649999999
 30
0.0
 11
308.219653
 21
145.323365
 31
0.0
  0
LINE
  5
9EB4
330
9E49
100
AcDbEntity
  8
4
  6
CENTER
100
AcDbLine
 10
311.2196529999998
 20
142.323365
 30
0.0
 11
305.2196529999998
 21
142.323365
 31
0.0
  0
LINE
  5
9EB5
330
9E49
100
AcDbEntity
  8
4
  6
CENTER
100
AcDbLine
 10
316.219653
 20
139.3233649999999
 30
0.0
 11
316.219653
 21
145.323365
 31
0.0
  0
LINE
  5
9EB6
330
9E49
100
AcDbEntity
  8
4
  6
CENTER
100
AcDbLine
 10
319.2196529999999
 20
142.323365
 30
0.0
 11
313.2196529999998
 21
142.323365
 31
0.0
  0
LINE
  5
9EB7
330
9E49
100
AcDbEntity
  8
1
  6
Continuous
100
AcDbLine
 10
305.3486529999998
 20
137.5233649999999
 30
0.0
 11
301.219653
 21
137.5233649999999
 31
0.0
  0
LINE
  5
9EB8
330
9E49
100
AcDbEntity
  8
1
  6
Continuous
100
AcDbLine
 10
323.2196529999999
 20
137.5233649999999
 30
0.0
 11
319.0916529999999
 21
137.5233649999999
 31
0.0
  0
LINE
  5
9EB9
330
9E49
100
AcDbEntity
  8
1
  6
Continuous
100
AcDbLine
 10
304.791653
 20
137.9233649999999
 30
0.0
 11
301.219653
 21
137.9233649999999
 31
0.0
  0
LINE
  5
9EBA
330
9E49
100
AcDbEntity
  8
1
  6
Continuous
100
AcDbLine
 10
323.2196529999999
 20
137.9233649999999
 30
0.0
 11
319.6486529999999
 21
137.9233649999999
 31
0.0
  0
LINE
  5
9EBB
330
9E49
100
AcDbEntity
  8
1
  6
Continuous
100
AcDbLine
 10
290.2196529999999
 20
156.8233649999999
 30
0.0
 11
290.2196529999999
 21
154.002365
 31
0.0
  0
LINE
  5
9EBC
330
9E49
100
AcDbEntity
  8
1
  6
Continuous
100
AcDbLine
 10
334.2196529999998
 20
156.8233649999999
 30
0.0
 11
334.2196529999998
 21
154.002365
 31
0.0
  0
LINE
  5
9EBD
330
9E49
100
AcDbEntity
  8
1
  6
Continuous
100
AcDbLine
 10
295.219653
 20
152.0023649999999
 30
0.0
 11
295.219653
 21
147.0023649999999
 31
0.0
  0
LINE
  5
9EBE
330
9E49
100
AcDbEntity
  8
1
  6
Continuous
100
AcDbLine
 10
329.219653
 20
152.0023649999999
 30
0.0
 11
329.219653
 21
147.0023649999999
 31
0.0
  0
LINE
  5
9EBF
330
9E49
100
AcDbEntity
  8
1
  6
Continuous
100
AcDbLine
 10
293.219653
 20
154.002365
 30
0.0
 11
289.019653
 21
154.002365
 31
0.0
  0
LINE
  5
9EC0
330
9E49
100
AcDbEntity
  8
1
  6
Continuous
100
AcDbLine
 10
335.4196529999999
 20
154.002365
 30
0.0
 11
331.219653
 21
154.002365
 31
0.0
  0
LINE
  5
9EC1
330
9E49
100
AcDbEntity
  8
1
  6
Continuous
100
AcDbLine
 10
293.219653
 20
145.002365
 30
0.0
 11
289.019653
 21
145.002365
 31
0.0
  0
LINE
  5
9EC2
330
9E49
100
AcDbEntity
  8
1
  6
Continuous
100
AcDbLine
 10
335.4196529999999
 20
145.002365
 30
0.0
 11
331.219653
 21
145.002365
 31
0.0
  0
LINE
  5
9EC3
330
9E49
100
AcDbEntity
  8
1
  6
Continuous
100
AcDbLine
 10
313.534653
 20
159.5663649999998
 30
0.0
 11
332.1826529999999
 21
157.0933649999998
 31
0.0
  0
LINE
  5
9EC4
330
9E49
100
AcDbEntity
  8
1
  6
Continuous
100
AcDbLine
 10
310.9056529999999
 20
159.5663649999998
 30
0.0
 11
292.2566529999999
 21
157.0933649999998
 31
0.0
  0
LINE
  5
9EC5
330
9E49
100
AcDbEntity
  8
5
  6
PHANTOM
100
AcDbLine
 10
178.426653
 20
146.1233649999998
 30
0.0
 11
178.426653
 21
137.3233649999999
 31
0.0
  0
LINE
  5
9EC6
330
9E49
100
AcDbEntity
  8
1
  6
Continuous
100
AcDbLine
 10
181.4266529999999
 20
132.823365
 30
0.0
 11
181.4266529999999
 21
122.323365
 31
0.0
  0
LINE
  5
9EC7
330
9E49
100
AcDbEntity
  8
1
  6
Continuous
100
AcDbLine
 10
328.3906529999998
 20
153.643365
 30
0.0
 11
295.5546529999999
 21
153.643365
 31
0.0
  0
LINE
  5
9EC8
330
9E49
100
AcDbEntity
  8
1
  6
Continuous
100
AcDbLine
 10
300.5986529999999
 20
146.0133649999999
 30
0.0
 11
295.5546529999999
 21
146.0133649999999
 31
0.0
  0
LINE
  5
9EC9
330
9E49
100
AcDbEntity
  8
1
  6
Continuous
100
AcDbLine
 10
328.3906529999998
 20
146.0133649999999
 30
0.0
 11
324.3936529999999
 21
146.0133649999999
 31
0.0
  0
LINE
  5
9ECA
330
9E49
100
AcDbEntity
  8
1
  6
Continuous
100
AcDbLine
 10
299.219653
 20
131.823365
 30
0.0
 11
299.219653
 21
123.323365
 31
0.0
  0
LINE
  5
9ECB
330
9E49
100
AcDbEntity
  8
1
  6
Continuous
100
AcDbLine
 10
290.2196529999999
 20
145.002365
 30
0.0
 11
290.2196529999999
 21
132.823365
 31
0.0
  0
LINE
  5
9ECC
330
9E49
100
AcDbEntity
  8
1
  6
Continuous
100
AcDbLine
 10
290.2196529999999
 20
122.323365
 30
0.0
 11
290.2196529999999
 21
119.8233649999999
 31
0.0
  0
LINE
  5
9ECD
330
9E49
100
AcDbEntity
  8
1
  6
Continuous
100
AcDbLine
 10
320.219653
 20
131.823365
 30
0.0
 11
320.219653
 21
125.8233649999999
 31
0.0
  0
LINE
  5
9ECE
330
9E49
100
AcDbEntity
  8
1
  6
Continuous
100
AcDbLine
 10
298.2196529999999
 20
132.823365
 30
0.0
 11
289.019653
 21
132.823365
 31
0.0
  0
LINE
  5
9ECF
330
9E49
100
AcDbEntity
  8
1
  6
Continuous
100
AcDbLine
 10
335.4196529999999
 20
132.823365
 30
0.0
 11
321.2196529999999
 21
132.823365
 31
0.0
  0
LINE
  5
9ED0
330
9E49
100
AcDbEntity
  8
1
  6
Continuous
100
AcDbLine
 10
334.2196529999998
 20
145.002365
 30
0.0
 11
334.2196529999998
 21
132.823365
 31
0.0
  0
LINE
  5
9ED1
330
9E49
100
AcDbEntity
  8
1
  6
Continuous
100
AcDbLine
 10
334.2196529999998
 20
122.323365
 30
0.0
 11
334.2196529999998
 21
119.8233649999999
 31
0.0
  0
LINE
  5
9ED2
330
9E49
100
AcDbEntity
  8
1
  6
Continuous
100
AcDbLine
 10
326.219653
 20
125.8233649999999
 30
0.0
 11
326.219653
 21
123.323365
 31
0.0
  0
LINE
  5
9ED3
330
9E49
100
AcDbEntity
  8
1
  6
Continuous
100
AcDbLine
 10
289.019653
 20
122.323365
 30
0.0
 11
335.4196529999999
 21
122.323365
 31
0.0
  0
LINE
  5
9ED4
330
9E49
100
AcDbEntity
  8
1
  6
Continuous
100
AcDbLine
 10
325.7196529999998
 20
132.823365
 30
0.0
 11
325.7196529999998
 21
125.8233649999999
 31
0.0
  0
LINE
  5
9ED5
330
9E49
100
AcDbEntity
  8
1
  6
Continuous
100
AcDbLine
 10
324.719653
 20
132.823365
 30
0.0
 11
324.719653
 21
125.8233649999999
 31
0.0
  0
LINE
  5
9ED6
330
9E49
100
AcDbEntity
  8
4
  6
CENTER
100
AcDbLine
 10
295.219653
 20
123.8233649999999
 30
0.0
 11
295.219653
 21
129.823365
 31
0.0
  0
LINE
  5
9ED7
330
9E49
100
AcDbEntity
  8
4
  6
CENTER
100
AcDbLine
 10
329.219653
 20
123.8233649999999
 30
0.0
 11
329.219653
 21
129.823365
 31
0.0
  0
LINE
  5
9ED8
330
9E49
100
AcDbEntity
  8
1
  6
Continuous
100
AcDbLine
 10
321.7196529999998
 20
125.8233649999999
 30
0.0
 11
320.219653
 21
125.8233649999999
 31
0.0
  0
LINE
  5
9ED9
330
9E49
100
AcDbEntity
  8
1
  6
Continuous
100
AcDbLine
 10
326.219653
 20
125.8233649999999
 30
0.0
 11
323.7196529999998
 21
125.8233649999999
 31
0.0
  0
LINE
  5
9EDA
330
9E49
100
AcDbEntity
  8
1
  6
Continuous
100
AcDbLine
 10
58.33755299999999
 20
151.275365
 30
0.0
 11
58.33755299999999
 21
155.1103649999998
 31
0.0
  0
LINE
  5
9EDB
330
9E49
100
AcDbEntity
  8
1
  6
Continuous
100
AcDbLine
 10
14.937553
 20
155.1103649999998
 30
0.0
 11
14.937553
 21
151.275365
 31
0.0
  0
LINE
  5
9EDC
330
9E49
100
AcDbEntity
  8
1
  6
Continuous
100
AcDbLine
 10
291.719653
 20
141.3833649999999
 30
0.0
 11
291.719653
 21
132.823365
 31
0.0
  0
LINE
  5
9EDD
330
9E49
100
AcDbEntity
  8
1
  6
Continuous
100
AcDbLine
 10
332.719653
 20
141.3833649999999
 30
0.0
 11
332.719653
 21
132.823365
 31
0.0
  0
LINE
  5
9EDE
330
9E49
100
AcDbEntity
  8
1
  6
Continuous
100
AcDbLine
 10
291.719653
 20
140.783365
 30
0.0
 11
290.2196529999999
 21
140.783365
 31
0.0
  0
LINE
  5
9EDF
330
9E49
100
AcDbEntity
  8
1
  6
Continuous
100
AcDbLine
 10
334.2196529999998
 20
140.783365
 30
0.0
 11
332.719653
 21
140.783365
 31
0.0
  0
LINE
  5
9EE0
330
9E49
100
AcDbEntity
  8
1
  6
Continuous
100
AcDbLine
 10
291.719653
 20
141.3833649999999
 30
0.0
 11
290.2196529999999
 21
141.3833649999999
 31
0.0
  0
LINE
  5
9EE1
330
9E49
100
AcDbEntity
  8
1
  6
Continuous
100
AcDbLine
 10
334.2196529999998
 20
141.3833649999999
 30
0.0
 11
332.719653
 21
141.3833649999999
 31
0.0
  0
LINE
  5
9EE2
330
9E49
100
AcDbEntity
  8
1
  6
Continuous
100
AcDbLine
 10
290.5196529999999
 20
155.1103649999998
 30
0.0
 11
290.5196529999999
 21
154.002365
 31
0.0
  0
LINE
  5
9EE3
330
9E49
100
AcDbEntity
  8
1
  6
Continuous
100
AcDbLine
 10
290.5196529999999
 20
145.002365
 30
0.0
 11
290.5196529999999
 21
141.3833649999999
 31
0.0
  0
LINE
  5
9EE4
330
9E49
100
AcDbEntity
  8
1
  6
Continuous
100
AcDbLine
 10
333.9196529999999
 20
155.1103649999998
 30
0.0
 11
333.9196529999999
 21
154.002365
 31
0.0
  0
LINE
  5
9EE5
330
9E49
100
AcDbEntity
  8
1
  6
Continuous
100
AcDbLine
 10
333.9196529999999
 20
145.002365
 30
0.0
 11
333.9196529999999
 21
141.3833649999999
 31
0.0
  0
LINE
  5
9EE6
330
9E49
100
AcDbEntity
  8
1
  6
Continuous
100
AcDbLine
 10
322.1196529999998
 20
126.6233649999998
 30
0.0
 11
322.1196529999998
 21
124.4733649999999
 31
0.0
  0
LINE
  5
9EE7
330
9E49
100
AcDbEntity
  8
1
  6
Continuous
100
AcDbLine
 10
320.9196529999999
 20
125.8233649999999
 30
0.0
 11
320.9196529999999
 21
124.4733649999999
 31
0.0
  0
LINE
  5
9EE8
330
9E49
100
AcDbEntity
  8
1
  6
Continuous
100
AcDbLine
 10
319.7196529999998
 20
129.1733649999999
 30
0.0
 11
319.7196529999998
 21
124.4733649999999
 31
0.0
  0
LINE
  5
9EE9
330
9E49
100
AcDbEntity
  8
1
  6
Continuous
100
AcDbLine
 10
318.519653
 20
129.1733649999999
 30
0.0
 11
318.519653
 21
124.4733649999999
 31
0.0
  0
LINE
  5
9EEA
330
9E49
100
AcDbEntity
  8
1
  6
Continuous
100
AcDbLine
 10
317.3196529999998
 20
129.1733649999999
 30
0.0
 11
317.3196529999998
 21
124.4733649999999
 31
0.0
  0
LINE
  5
9EEB
330
9E49
100
AcDbEntity
  8
1
  6
Continuous
100
AcDbLine
 10
316.1196529999998
 20
129.1733649999999
 30
0.0
 11
316.1196529999998
 21
124.4733649999999
 31
0.0
  0
LINE
  5
9EEC
330
9E49
100
AcDbEntity
  8
1
  6
Continuous
100
AcDbLine
 10
314.9196529999999
 20
129.1733649999999
 30
0.0
 11
314.9196529999999
 21
124.4733649999999
 31
0.0
  0
LINE
  5
9EED
330
9E49
100
AcDbEntity
  8
1
  6
Continuous
100
AcDbLine
 10
313.719653
 20
129.1733649999999
 30
0.0
 11
313.719653
 21
124.4733649999999
 31
0.0
  0
LINE
  5
9EEE
330
9E49
100
AcDbEntity
  8
1
  6
Continuous
100
AcDbLine
 10
312.519653
 20
129.1733649999999
 30
0.0
 11
312.519653
 21
124.4733649999999
 31
0.0
  0
LINE
  5
9EEF
330
9E49
100
AcDbEntity
  8
1
  6
Continuous
100
AcDbLine
 10
311.3196529999999
 20
129.1733649999999
 30
0.0
 11
311.3196529999999
 21
124.4733649999999
 31
0.0
  0
LINE
  5
9EF0
330
9E49
100
AcDbEntity
  8
1
  6
Continuous
100
AcDbLine
 10
310.1196529999999
 20
129.1733649999999
 30
0.0
 11
310.1196529999999
 21
124.4733649999999
 31
0.0
  0
LINE
  5
9EF1
330
9E49
100
AcDbEntity
  8
1
  6
Continuous
100
AcDbLine
 10
308.9196529999999
 20
129.1733649999999
 30
0.0
 11
308.9196529999999
 21
124.4733649999999
 31
0.0
  0
LINE
  5
9EF2
330
9E49
100
AcDbEntity
  8
1
  6
Continuous
100
AcDbLine
 10
308.9196529999999
 20
128.3233649999999
 30
0.0
 11
299.219653
 21
128.3233649999999
 31
0.0
  0
LINE
  5
9EF3
330
9E49
100
AcDbEntity
  8
1
  6
Continuous
100
AcDbLine
 10
326.219653
 20
125.323365
 30
0.0
 11
322.1196529999998
 21
125.323365
 31
0.0
  0
LINE
  5
9EF4
330
9E49
100
AcDbEntity
  8
4
  6
CENTER
100
AcDbLine
 10
175.4266529999999
 20
123.323365
 30
0.0
 11
175.4266529999999
 21
130.3233649999999
 31
0.0
  0
LINE
  5
9EF5
330
9E49
100
AcDbEntity
  8
4
  6
CENTER
100
AcDbLine
 10
171.9266529999999
 20
126.8233649999999
 30
0.0
 11
183.256653
 21
126.8233649999999
 31
0.0
  0
LINE
  5
9EF6
330
9E49
100
AcDbEntity
  8
4
  6
CENTER
100
AcDbLine
 10
36.637553
 20
165.092365
 30
0.0
 11
36.637553
 21
114.8233649999999
 31
0.0
  0
LINE
  5
9EF7
330
9E49
100
AcDbEntity
  8
1
  6
Continuous
100
AcDbLine
 10
14.637553
 20
42.523065
 30
0.0
 11
23.13755299999999
 21
42.523065
 31
0.0
  0
LINE
  5
9EF8
330
9E49
100
AcDbEntity
  8
1
  6
Continuous
100
AcDbLine
 10
13.43755299999999
 20
57.006165
 30
0.0
 11
13.43755299999999
 21
43.72306499999999
 31
0.0
  0
LINE
  5
9EF9
330
9E49
100
AcDbEntity
  8
1
  6
Continuous
100
AcDbLine
 10
59.837553
 20
57.006165
 30
0.0
 11
59.837553
 21
43.72306499999999
 31
0.0
  0
LINE
  5
9EFA
330
9E49
100
AcDbEntity
  8
1
  6
Continuous
100
AcDbLine
 10
14.637553
 20
57.22306500000001
 30
0.0
 11
14.637553
 21
43.463365
 31
0.0
  0
LINE
  5
9EFB
330
9E49
100
AcDbEntity
  8
1
  6
Continuous
100
AcDbLine
 10
58.63755300000001
 20
57.22306500000001
 30
0.0
 11
58.63755300000001
 21
43.463365
 31
0.0
  0
LINE
  5
9EFC
330
9E49
100
AcDbEntity
  8
1
  6
Continuous
100
AcDbLine
 10
13.43755299999999
 20
56.023065
 30
0.0
 11
14.637553
 21
56.023065
 31
0.0
  0
LINE
  5
9EFD
330
9E49
100
AcDbEntity
  8
1
  6
Continuous
100
AcDbLine
 10
58.63755300000001
 20
56.023065
 30
0.0
 11
59.837553
 21
56.023065
 31
0.0
  0
LINE
  5
9EFE
330
9E49
100
AcDbEntity
  8
1
  6
Continuous
100
AcDbLine
 10
15.637553
 20
57.22306500000001
 30
0.0
 11
57.63755299999999
 21
57.22306500000001
 31
0.0
  0
LINE
  5
9EFF
330
9E49
100
AcDbEntity
  8
1
  6
Continuous
100
AcDbLine
 10
14.637553
 20
58.20616499999999
 30
0.0
 11
22.121831
 21
58.20616499999999
 31
0.0
  0
LINE
  5
9F00
330
9E49
100
AcDbEntity
  8
1
  6
Continuous
100
AcDbLine
 10
22.137553
 20
57.80826499999999
 30
0.0
 11
51.13755300000001
 21
57.80826499999999
 31
0.0
  0
LINE
  5
9F01
330
9E49
100
AcDbEntity
  8
1
  6
Continuous
100
AcDbLine
 10
51.153316
 20
58.20616499999999
 30
0.0
 11
58.63755300000001
 21
58.20616499999999
 31
0.0
  0
LINE
  5
9F02
330
9E49
100
AcDbEntity
  8
1
  6
Continuous
100
AcDbLine
 10
14.637553
 20
43.463365
 30
0.0
 11
58.63755300000001
 21
43.463365
 31
0.0
  0
LINE
  5
9F03
330
9E49
100
AcDbEntity
  8
1
  6
Continuous
100
AcDbLine
 10
308.9196529999999
 20
125.323365
 30
0.0
 11
299.219653
 21
125.323365
 31
0.0
  0
LINE
  5
9F04
330
9E49
100
AcDbEntity
  8
1
  6
Continuous
100
AcDbLine
 10
60.83755299999999
 20
50.273065
 30
0.0
 11
60.83755299999999
 21
46.773065
 31
0.0
  0
LINE
  5
9F05
330
9E49
100
AcDbEntity
  8
1
  6
Continuous
100
AcDbLine
 10
288.019653
 20
125.0733649999999
 30
0.0
 11
288.019653
 21
128.573365
 31
0.0
  0
LINE
  5
9F06
330
9E49
100
AcDbEntity
  8
1
  6
Continuous
100
AcDbLine
 10
60.83755299999999
 20
128.573365
 30
0.0
 11
60.83755299999999
 21
125.0733649999999
 31
0.0
  0
LINE
  5
9F07
330
9E49
100
AcDbEntity
  8
4
  6
CENTER
100
AcDbLine
 10
7.411653
 20
48.523065
 30
0.0
 11
64.99835299999999
 21
48.523065
 31
0.0
  0
LINE
  5
9F08
330
9E49
100
AcDbEntity
  8
1
  6
Continuous
100
AcDbLine
 10
49.117708
 20
229.8233649999999
 30
0.0
 11
24.157286
 21
229.8233649999999
 31
0.0
  0
LINE
  5
9F09
330
9E49
100
AcDbEntity
  8
1
  6
Continuous
100
AcDbLine
 10
49.11765299999999
 20
231.0233649999999
 30
0.0
 11
24.157453
 21
231.0233649999999
 31
0.0
  0
LINE
  5
9F0A
330
9E49
100
AcDbEntity
  8
1
  6
Continuous
100
AcDbLine
 10
60.83755299999999
 20
242.8733649999998
 30
0.0
 11
60.83755299999999
 21
239.3733649999998
 31
0.0
  0
LINE
  5
9F0B
330
9E49
100
AcDbEntity
  8
1
  6
Continuous
100
AcDbLine
 10
58.63755300000001
 20
232.6233649999998
 30
0.0
 11
58.63755300000001
 21
242.123365
 31
0.0
  0
LINE
  5
9F0C
330
9E49
100
AcDbEntity
  8
1
  6
Continuous
100
AcDbLine
 10
58.63755300000001
 20
243.323365
 30
0.0
 11
53.63755300000001
 21
243.323365
 31
0.0
  0
LINE
  5
9F0D
330
9E49
100
AcDbEntity
  8
1
  6
Continuous
100
AcDbLine
 10
14.637553
 20
232.6233649999998
 30
0.0
 11
14.637553
 21
242.123365
 31
0.0
  0
LINE
  5
9F0E
330
9E49
100
AcDbEntity
  8
1
  6
Continuous
100
AcDbLine
 10
53.63755300000001
 20
242.123365
 30
0.0
 11
53.63755300000001
 21
243.323365
 31
0.0
  0
LINE
  5
9F0F
330
9E49
100
AcDbEntity
  8
1
  6
Continuous
100
AcDbLine
 10
19.637553
 20
242.123365
 30
0.0
 11
19.637553
 21
243.323365
 31
0.0
  0
LINE
  5
9F10
330
9E49
100
AcDbEntity
  8
1
  6
Continuous
100
AcDbLine
 10
58.63755300000001
 20
242.123365
 30
0.0
 11
14.637553
 21
242.123365
 31
0.0
  0
LINE
  5
9F11
330
9E49
100
AcDbEntity
  8
1
  6
Continuous
100
AcDbLine
 10
19.637553
 20
243.323365
 30
0.0
 11
14.637553
 21
243.323365
 31
0.0
  0
LINE
  5
9F12
330
9E49
100
AcDbEntity
  8
1
  6
Continuous
100
AcDbLine
 10
59.837553
 20
232.6233649999998
 30
0.0
 11
59.837553
 21
245.9233649999999
 31
0.0
  0
LINE
  5
9F13
330
9E49
100
AcDbEntity
  8
1
  6
Continuous
100
AcDbLine
 10
13.43755299999999
 20
232.6233649999998
 30
0.0
 11
13.43755299999999
 21
245.9233649999999
 31
0.0
  0
LINE
  5
9F14
330
9E49
100
AcDbEntity
  8
1
  6
Continuous
100
AcDbLine
 10
14.637553
 20
243.323365
 30
0.0
 11
14.637553
 21
245.9233649999999
 31
0.0
  0
LINE
  5
9F15
330
9E49
100
AcDbEntity
  8
1
  6
Continuous
100
AcDbLine
 10
58.63755300000001
 20
243.323365
 30
0.0
 11
58.63755300000001
 21
245.9233649999999
 31
0.0
  0
LINE
  5
9F16
330
9E49
100
AcDbEntity
  8
1
  6
Continuous
100
AcDbLine
 10
28.63755300000001
 20
244.823365
 30
0.0
 11
28.63755300000001
 21
246.0233649999999
 31
0.0
  0
LINE
  5
9F17
330
9E49
100
AcDbEntity
  8
1
  6
Continuous
100
AcDbLine
 10
23.13755299999999
 20
245.9233649999999
 30
0.0
 11
14.637553
 21
245.9233649999999
 31
0.0
  0
LINE
  5
9F18
330
9E49
100
AcDbEntity
  8
1
  6
Continuous
100
AcDbLine
 10
23.13755299999999
 20
247.1233649999998
 30
0.0
 11
14.637553
 21
247.1233649999998
 31
0.0
  0
LINE
  5
9F19
330
9E49
100
AcDbEntity
  8
4
  6
CENTER
100
AcDbLine
 10
36.637553
 20
64.82306499999999
 30
0.0
 11
36.637553
 21
38.46336500000001
 31
0.0
  0
LINE
  5
9F1A
330
9E49
100
AcDbEntity
  8
1
  6
Continuous
100
AcDbLine
 10
26.73755299999999
 20
246.0233649999999
 30
0.0
 11
26.73755299999999
 21
246.3233649999998
 31
0.0
  0
LINE
  5
9F1B
330
9E49
100
AcDbEntity
  8
1
  6
Continuous
100
AcDbLine
 10
25.537553
 20
246.3233649999998
 30
0.0
 11
26.73755299999999
 21
246.3233649999998
 31
0.0
  0
LINE
  5
9F1C
330
9E49
100
AcDbEntity
  8
1
  6
Continuous
100
AcDbLine
 10
25.537553
 20
246.0233649999999
 30
0.0
 11
25.537553
 21
246.3233649999998
 31
0.0
  0
LINE
  5
9F1D
330
9E49
100
AcDbEntity
  8
1
  6
Continuous
100
AcDbLine
 10
24.137553
 20
244.823365
 30
0.0
 11
28.63755300000001
 21
244.823365
 31
0.0
  0
LINE
  5
9F1E
330
9E49
100
AcDbEntity
  8
1
  6
Continuous
100
AcDbLine
 10
58.33755299999999
 20
240.6173649999999
 30
0.0
 11
58.33755299999999
 21
242.123365
 31
0.0
  0
LINE
  5
9F1F
330
9E49
100
AcDbEntity
  8
1
  6
Continuous
100
AcDbLine
 10
14.937553
 20
240.6173649999999
 30
0.0
 11
14.937553
 21
242.123365
 31
0.0
  0
LINE
  5
9F20
330
9E49
100
AcDbEntity
  8
1
  6
Continuous
100
AcDbLine
 10
16.558853
 20
238.653365
 30
0.0
 11
34.74415299999999
 21
235.1473649999999
 31
0.0
  0
LINE
  5
9F21
330
9E49
100
AcDbEntity
  8
1
  6
Continuous
100
AcDbLine
 10
16.558853
 20
239.7143649999999
 30
0.0
 11
34.74415299999999
 21
236.2073649999999
 31
0.0
  0
LINE
  5
9F22
330
9E49
100
AcDbEntity
  8
1
  6
Continuous
100
AcDbLine
 10
56.716153
 20
239.7143649999999
 30
0.0
 11
38.530853
 21
236.2073649999999
 31
0.0
  0
LINE
  5
9F23
330
9E49
100
AcDbEntity
  8
1
  6
Continuous
100
AcDbLine
 10
56.716253
 20
238.653365
 30
0.0
 11
38.530853
 21
235.1473649999999
 31
0.0
  0
LINE
  5
9F24
330
9E49
100
AcDbEntity
  8
1
  6
Continuous
100
AcDbLine
 10
22.136629
 20
232.6233649999998
 30
0.0
 11
14.637553
 21
232.6233649999998
 31
0.0
  0
LINE
  5
9F25
330
9E49
100
AcDbEntity
  8
1
  6
Continuous
100
AcDbLine
 10
22.13767099999999
 20
231.4233649999999
 30
0.0
 11
14.637553
 21
231.4233649999999
 31
0.0
  0
LINE
  5
9F26
330
9E49
100
AcDbEntity
  8
1
  6
Continuous
100
AcDbLine
 10
51.138342
 20
232.6233649999998
 30
0.0
 11
58.63755300000001
 21
232.6233649999998
 31
0.0
  0
LINE
  5
9F27
330
9E49
100
AcDbEntity
  8
1
  6
Continuous
100
AcDbLine
 10
51.137474
 20
231.4233649999999
 30
0.0
 11
58.63755300000001
 21
231.4233649999999
 31
0.0
  0
LINE
  5
9F28
330
9E49
100
AcDbEntity
  8
4
  6
CENTER
100
AcDbLine
 10
64.067053
 20
241.1233649999998
 30
0.0
 11
7.849452999999997
 21
241.1233649999998
 31
0.0
  0
LINE
  5
9F29
330
9E49
100
AcDbEntity
  8
1
  6
Continuous
100
AcDbLine
 10
53.63755300000001
 20
242.6233649999999
 30
0.0
 11
44.63755299999998
 21
242.6233649999999
 31
0.0
  0
LINE
  5
9F2A
330
9E49
100
AcDbEntity
  8
1
  6
Continuous
100
AcDbLine
 10
49.63755299999998
 20
246.1823649999999
 30
0.0
 11
26.73755299999999
 21
246.1823649999999
 31
0.0
  0
LINE
  5
9F2B
330
9E49
100
AcDbEntity
  8
1
  6
Continuous
100
AcDbLine
 10
58.63755300000001
 20
244.6233649999999
 30
0.0
 11
57.13755299999998
 21
244.6233649999999
 31
0.0
  0
LINE
  5
9F2C
330
9E49
100
AcDbEntity
  8
1
  6
Continuous
100
AcDbLine
 10
57.13755299999998
 20
243.323365
 30
0.0
 11
57.13755299999998
 21
244.6233649999999
 31
0.0
  0
LINE
  5
9F2D
330
9E49
100
AcDbEntity
  8
1
  6
Continuous
100
AcDbLine
 10
16.137553
 20
243.323365
 30
0.0
 11
16.137553
 21
244.6233649999999
 31
0.0
  0
LINE
  5
9F2E
330
9E49
100
AcDbEntity
  8
1
  6
Continuous
100
AcDbLine
 10
16.137553
 20
244.6233649999999
 30
0.0
 11
14.637553
 21
244.6233649999999
 31
0.0
  0
LINE
  5
9F2F
330
9E49
100
AcDbEntity
  8
1
  6
Continuous
100
AcDbLine
 10
57.13755299999998
 20
235.3733649999998
 30
0.0
 11
39.703153
 21
235.3733649999998
 31
0.0
  0
LINE
  5
9F30
330
9E49
100
AcDbEntity
  8
1
  6
Continuous
100
AcDbLine
 10
33.571953
 20
235.3733649999998
 30
0.0
 11
16.137553
 21
235.3733649999998
 31
0.0
  0
LINE
  5
9F31
330
9E49
100
AcDbEntity
  8
5
  6
PHANTOM
100
AcDbLine
 10
44.63755299999998
 20
244.123365
 30
0.0
 11
28.63755300000001
 21
244.123365
 31
0.0
  0
LINE
  5
9F32
330
9E49
100
AcDbEntity
  8
5
  6
PHANTOM
100
AcDbLine
 10
44.63755299999998
 20
242.123365
 30
0.0
 11
44.63755299999998
 21
244.123365
 31
0.0
  0
LINE
  5
9F33
330
9E49
100
AcDbEntity
  8
5
  6
PHANTOM
100
AcDbLine
 10
28.63755300000001
 20
242.123365
 30
0.0
 11
28.63755300000001
 21
244.123365
 31
0.0
  0
LINE
  5
9F34
330
9E49
100
AcDbEntity
  8
1
  6
Continuous
100
AcDbLine
 10
25.537553
 20
242.6233649999999
 30
0.0
 11
19.637553
 21
242.6233649999999
 31
0.0
  0
LINE
  5
9F35
330
9E49
100
AcDbEntity
  8
1
  6
Continuous
100
AcDbLine
 10
26.73755299999999
 20
242.123365
 30
0.0
 11
26.73755299999999
 21
244.823365
 31
0.0
  0
LINE
  5
9F36
330
9E49
100
AcDbEntity
  8
1
  6
Continuous
100
AcDbLine
 10
27.937553
 20
242.123365
 30
0.0
 11
27.937553
 21
243.473365
 31
0.0
  0
LINE
  5
9F37
330
9E49
100
AcDbEntity
  8
1
  6
Continuous
100
AcDbLine
 10
25.537553
 20
242.123365
 30
0.0
 11
25.537553
 21
244.823365
 31
0.0
  0
LINE
  5
9F38
330
9E49
100
AcDbEntity
  8
4
  6
CENTER
100
AcDbLine
 10
36.637553
 20
224.8233649999999
 30
0.0
 11
36.637553
 21
251.8233649999999
 31
0.0
  0
LINE
  5
9F39
330
9E49
100
AcDbEntity
  8
1
  6
Continuous
100
AcDbLine
 10
48.113953
 20
231.7673649999999
 30
0.0
 11
25.161153
 21
231.7673649999999
 31
0.0
  0
LINE
  5
9F3A
330
9E49
100
AcDbEntity
  8
1
  6
Continuous
100
AcDbLine
 10
23.28174699999999
 20
230.2027359999999
 30
0.0
 11
22.13767099999999
 21
231.4233649999999
 31
0.0
  0
LINE
  5
9F3B
330
9E49
100
AcDbEntity
  8
1
  6
Continuous
100
AcDbLine
 10
49.993194
 20
230.2026779999999
 30
0.0
 11
51.137474
 21
231.4233649999999
 31
0.0
  0
LINE
  5
9F3C
330
9E49
100
AcDbEntity
  8
1
  6
Continuous
100
AcDbLine
 10
49.11765299999999
 20
231.0233649999999
 30
0.0
 11
50.263187
 21
232.2444029999998
 31
0.0
  0
LINE
  5
9F3D
330
9E49
100
AcDbEntity
  8
1
  6
Continuous
100
AcDbLine
 10
24.157453
 20
231.0233649999999
 30
0.0
 11
23.01173599999999
 21
232.2444549999999
 31
0.0
  0
LINE
  5
9F3E
330
9E49
100
AcDbEntity
  8
1
  6
Continuous
100
AcDbLine
 10
28.63755300000001
 20
246.0233649999999
 30
0.0
 11
24.137553
 21
246.0233649999999
 31
0.0
  0
LINE
  5
9F3F
330
9E49
100
AcDbEntity
  8
1
  6
Continuous
100
AcDbLine
 10
60.83755299999999
 20
242.8733649999998
 30
0.0
 11
59.837553
 21
242.8733649999998
 31
0.0
  0
LINE
  5
9F40
330
9E49
100
AcDbEntity
  8
1
  6
Continuous
100
AcDbLine
 10
60.83755299999999
 20
239.3733649999998
 30
0.0
 11
59.837553
 21
239.3733649999998
 31
0.0
  0
LINE
  5
9F41
330
9E49
100
AcDbEntity
  8
1
  6
Continuous
100
AcDbLine
 10
59.837553
 20
128.573365
 30
0.0
 11
60.83755299999999
 21
128.573365
 31
0.0
  0
LINE
  5
9F42
330
9E49
100
AcDbEntity
  8
1
  6
Continuous
100
AcDbLine
 10
59.837553
 20
125.0733649999999
 30
0.0
 11
60.83755299999999
 21
125.0733649999999
 31
0.0
  0
LINE
  5
9F43
330
9E49
100
AcDbEntity
  8
1
  6
Continuous
100
AcDbLine
 10
289.019653
 20
125.0733649999999
 30
0.0
 11
288.019653
 21
125.0733649999999
 31
0.0
  0
LINE
  5
9F44
330
9E49
100
AcDbEntity
  8
1
  6
Continuous
100
AcDbLine
 10
289.019653
 20
128.573365
 30
0.0
 11
288.019653
 21
128.573365
 31
0.0
  0
LINE
  5
9F45
330
9E49
100
AcDbEntity
  8
1
  6
Continuous
100
AcDbLine
 10
59.837553
 20
50.273065
 30
0.0
 11
60.83755299999999
 21
50.273065
 31
0.0
  0
LINE
  5
9F46
330
9E49
100
AcDbEntity
  8
1
  6
Continuous
100
AcDbLine
 10
59.837553
 20
46.773065
 30
0.0
 11
60.83755299999999
 21
46.773065
 31
0.0
  0
LINE
  5
9F47
330
9E49
100
AcDbEntity
  8
4
  6
CENTER
100
AcDbLine
 10
171.9266529999999
 20
156.3733649999998
 30
0.0
 11
171.9266529999999
 21
147.2733649999999
 31
0.0
  0
LINE
  5
9F48
330
9E49
100
AcDbEntity
  8
4
  6
CENTER
100
AcDbLine
 10
167.3766529999998
 20
151.8233649999999
 30
0.0
 11
176.4766529999999
 21
151.8233649999999
 31
0.0
  0
ARC
  5
9F49
330
9E49
100
AcDbEntity
  8
1
  6
Continuous
100
AcDbCircle
 10
25.637553
 20
145.323365
 30
0.0
 40
2.0
100
AcDbArc
 50
180.0
 51
270.0
  0
ARC
  5
9F4A
330
9E49
100
AcDbEntity
  8
1
  6
Continuous
100
AcDbCircle
 10
25.637553
 20
144.8233649999998
 30
0.0
 40
3.5
100
AcDbArc
 50
180.0
 51
270.0
  0
ARC
  5
9F4B
330
9E49
100
AcDbEntity
  8
1
  6
Continuous
100
AcDbCircle
 10
47.63755299999998
 20
144.8233649999998
 30
0.0
 40
3.5
100
AcDbArc
 50
270.0
 51
0.0
  0
ARC
  5
9F4C
330
9E49
100
AcDbEntity
  8
1
  6
Continuous
100
AcDbCircle
 10
179.4266529999999
 20
135.823365
 30
0.0
 40
3.0
100
AcDbArc
 50
180.0
 51
270.0
  0
CIRCLE
  5
9F4D
330
9E49
100
AcDbEntity
  8
1
  6
Continuous
100
AcDbCircle
 10
171.9266529999999
 20
151.8233649999999
 30
0.0
 40
2.549999999999998
  0
ARC
  5
9F4E
330
9E49
100
AcDbEntity
  8
1
  6
Continuous
100
AcDbCircle
 10
171.9266529999999
 20
151.8233649999999
 30
0.0
 40
5.0
100
AcDbArc
 50
25.8419
 51
182.2889999999999
  0
ARC
  5
9F4F
330
9E49
100
AcDbEntity
  8
1
  6
Continuous
100
AcDbCircle
 10
173.726653
 20
126.8233649999999
 30
0.0
 40
5.799999999999998
100
AcDbArc
 50
182.2889999999999
 51
282.498
  0
ARC
  5
9F50
330
9E49
100
AcDbEntity
  8
1
  6
Continuous
100
AcDbCircle
 10
173.726653
 20
126.8233649999999
 30
0.0
 40
7.0
100
AcDbArc
 50
182.2889999999999
 51
282.498
  0
ARC
  5
9F51
330
9E49
100
AcDbEntity
  8
1
  6
Continuous
100
AcDbCircle
 10
165.3266529999999
 20
143.8223649999999
 30
0.0
 40
1.199999999999999
100
AcDbArc
 50
180.0
 51
225.211
  0
ARC
  5
9F52
330
9E49
100
AcDbEntity
  8
5
  6
PHANTOM
100
AcDbCircle
 10
177.226653
 20
146.1233649999998
 30
0.0
 40
1.199999999999999
100
AcDbArc
 50
0.00003
 51
70.5288
  0
ARC
  5
9F53
330
9E49
100
AcDbEntity
  8
1
  6
Continuous
100
AcDbCircle
 10
47.63755299999998
 20
145.323365
 30
0.0
 40
2.0
100
AcDbArc
 50
270.0
 51
0.0
  0
ARC
  5
9F54
330
9E49
100
AcDbEntity
  8
1
  6
Continuous
100
AcDbCircle
 10
36.637553
 20
149.6533649999998
 30
0.0
 40
10.0
100
AcDbArc
 50
82.4458
 51
97.5542
  0
ARC
  5
9F55
330
9E49
100
AcDbEntity
  8
1
  6
Continuous
100
AcDbCircle
 10
36.637553
 20
148.5923649999998
 30
0.0
 40
10.0
100
AcDbArc
 50
82.4458
 51
97.5542
  0
ARC
  5
9F56
330
9E49
100
AcDbEntity
  8
1
  6
Continuous
100
AcDbCircle
 10
14.937553
 20
126.8233649999999
 30
0.0
 40
2.5
100
AcDbArc
 50
126.8699999999999
 51
233.13
  0
CIRCLE
  5
9F57
330
9E49
100
AcDbEntity
  8
5
  6
PHANTOM
100
AcDbCircle
 10
308.219653
 20
142.323365
 30
0.0
 40
1.5
  0
CIRCLE
  5
9F58
330
9E49
100
AcDbEntity
  8
5
  6
PHANTOM
100
AcDbCircle
 10
316.219653
 20
142.323365
 30
0.0
 40
1.5
  0
ARC
  5
9F59
330
9E49
100
AcDbEntity
  8
5
  6
PHANTOM
100
AcDbCircle
 10
306.219653
 20
139.3233649999999
 30
0.0
 40
2.0
100
AcDbArc
 50
180.0
 51
270.0
  0
ARC
  5
9F5A
330
9E49
100
AcDbEntity
  8
5
  6
PHANTOM
100
AcDbCircle
 10
318.219653
 20
139.3233649999999
 30
0.0
 40
2.0
100
AcDbArc
 50
270.0
 51
0.0
  0
ARC
  5
9F5B
330
9E49
100
AcDbEntity
  8
1
  6
Continuous
100
AcDbCircle
 10
331.219653
 20
152.0023649999999
 30
0.0
 40
2.0
100
AcDbArc
 50
90.0
 51
180.0
  0
ARC
  5
9F5C
330
9E49
100
AcDbEntity
  8
1
  6
Continuous
100
AcDbCircle
 10
331.219653
 20
147.0023649999999
 30
0.0
 40
2.0
100
AcDbArc
 50
180.0
 51
270.0
  0
ARC
  5
9F5D
330
9E49
100
AcDbEntity
  8
1
  6
Continuous
100
AcDbCircle
 10
293.219653
 20
152.0023649999999
 30
0.0
 40
2.0
100
AcDbArc
 50
0.0
 51
90.0
  0
ARC
  5
9F5E
330
9E49
100
AcDbEntity
  8
1
  6
Continuous
100
AcDbCircle
 10
293.219653
 20
147.0023649999999
 30
0.0
 40
2.0
100
AcDbArc
 50
270.0
 51
0.0
  0
ARC
  5
9F5F
330
9E49
100
AcDbEntity
  8
1
  6
Continuous
100
AcDbCircle
 10
333.9196529999999
 20
126.8233649999999
 30
0.0
 40
2.5
100
AcDbArc
 50
306.87
 51
53.13009999999999
  0
ARC
  5
9F60
330
9E49
100
AcDbEntity
  8
1
  6
Continuous
100
AcDbCircle
 10
312.219653
 20
149.6533649999998
 30
0.0
 40
10.0
100
AcDbArc
 50
82.4458
 51
97.5542
  0
CIRCLE
  5
9F61
330
9E49
100
AcDbEntity
  8
2
  6
Continuous
100
AcDbCircle
 10
329.219653
 20
126.8233649999999
 30
0.0
 40
1.5
  0
CIRCLE
  5
9F62
330
9E49
100
AcDbEntity
  8
2
  6
Continuous
100
AcDbCircle
 10
295.219653
 20
126.8233649999999
 30
0.0
 40
1.5
  0
ARC
  5
9F63
330
9E49
100
AcDbEntity
  8
1
  6
Continuous
100
AcDbCircle
 10
322.719653
 20
125.8233649999999
 30
0.0
 40
1.0
100
AcDbArc
 50
0.0
 51
180.0
  0
CIRCLE
  5
9F64
330
9E49
100
AcDbEntity
  8
1
  6
Continuous
100
AcDbCircle
 10
322.719653
 20
126.2233649999999
 30
0.0
 40
0.6
  0
ARC
  5
9F65
330
9E49
100
AcDbEntity
  8
1
  6
Continuous
100
AcDbCircle
 10
321.2196529999999
 20
131.823365
 30
0.0
 40
1.0
100
AcDbArc
 50
90.0
 51
180.0
  0
ARC
  5
9F66
330
9E49
100
AcDbEntity
  8
1
  6
Continuous
100
AcDbCircle
 10
327.2196529999998
 20
123.323365
 30
0.0
 40
1.0
100
AcDbArc
 50
180.0
 51
270.0
  0
ARC
  5
9F67
330
9E49
100
AcDbEntity
  8
1
  6
Continuous
100
AcDbCircle
 10
298.2196529999999
 20
123.323365
 30
0.0
 40
1.0
100
AcDbArc
 50
270.0
 51
0.0
  0
ARC
  5
9F68
330
9E49
100
AcDbEntity
  8
1
  6
Continuous
100
AcDbCircle
 10
298.2196529999999
 20
131.823365
 30
0.0
 40
1.0
100
AcDbArc
 50
0.0
 51
90.0
  0
ARC
  5
9F69
330
9E49
100
AcDbEntity
  8
1
  6
Continuous
100
AcDbCircle
 10
56.337553
 20
154.0503649999999
 30
0.0
 40
2.0
100
AcDbArc
 50
0.0
 51
82.4458
  0
ARC
  5
9F6A
330
9E49
100
AcDbEntity
  8
1
  6
Continuous
100
AcDbCircle
 10
56.337553
 20
155.1103649999998
 30
0.0
 40
2.0
100
AcDbArc
 50
0.0
 51
82.4458
  0
ARC
  5
9F6B
330
9E49
100
AcDbEntity
  8
1
  6
Continuous
100
AcDbCircle
 10
16.937553
 20
154.0503649999999
 30
0.0
 40
2.0
100
AcDbArc
 50
97.5542
 51
180.0
  0
ARC
  5
9F6C
330
9E49
100
AcDbEntity
  8
1
  6
Continuous
100
AcDbCircle
 10
16.937553
 20
155.1103649999998
 30
0.0
 40
2.0
100
AcDbArc
 50
97.5542
 51
180.0
  0
ARC
  5
9F6D
330
9E49
100
AcDbEntity
  8
1
  6
Continuous
100
AcDbCircle
 10
292.519653
 20
155.1103649999998
 30
0.0
 40
2.0
100
AcDbArc
 50
97.5542
 51
180.0
  0
ARC
  5
9F6E
330
9E49
100
AcDbEntity
  8
1
  6
Continuous
100
AcDbCircle
 10
331.9196529999999
 20
155.1103649999998
 30
0.0
 40
2.0
100
AcDbArc
 50
0.0
 51
82.4458
  0
ARC
  5
9F6F
330
9E49
100
AcDbEntity
  8
1
  6
Continuous
100
AcDbCircle
 10
321.519653
 20
124.4733649999999
 30
0.0
 40
0.6
100
AcDbArc
 50
180.0
 51
0.00001
  0
ARC
  5
9F70
330
9E49
100
AcDbEntity
  8
1
  6
Continuous
100
AcDbCircle
 10
320.3196529999999
 20
129.1733649999999
 30
0.0
 40
0.6
100
AcDbArc
 50
99.5941
 51
180.0
  0
ARC
  5
9F71
330
9E49
100
AcDbEntity
  8
1
  6
Continuous
100
AcDbCircle
 10
320.3196529999999
 20
124.4733649999999
 30
0.0
 40
0.6
100
AcDbArc
 50
180.0
 51
0.00001
  0
ARC
  5
9F72
330
9E49
100
AcDbEntity
  8
1
  6
Continuous
100
AcDbCircle
 10
319.1196529999999
 20
129.1733649999999
 30
0.0
 40
0.6
100
AcDbArc
 50
0.0
 51
180.0
  0
ARC
  5
9F73
330
9E49
100
AcDbEntity
  8
1
  6
Continuous
100
AcDbCircle
 10
319.1196529999999
 20
124.4733649999999
 30
0.0
 40
0.6
100
AcDbArc
 50
180.0
 51
0.00001
  0
ARC
  5
9F74
330
9E49
100
AcDbEntity
  8
1
  6
Continuous
100
AcDbCircle
 10
317.919653
 20
129.1733649999999
 30
0.0
 40
0.6
100
AcDbArc
 50
0.0
 51
180.0
  0
ARC
  5
9F75
330
9E49
100
AcDbEntity
  8
1
  6
Continuous
100
AcDbCircle
 10
317.919653
 20
124.4733649999999
 30
0.0
 40
0.6
100
AcDbArc
 50
180.0
 51
0.00001
  0
ARC
  5
9F76
330
9E49
100
AcDbEntity
  8
1
  6
Continuous
100
AcDbCircle
 10
316.719653
 20
129.1733649999999
 30
0.0
 40
0.6
100
AcDbArc
 50
0.0
 51
180.0
  0
ARC
  5
9F77
330
9E49
100
AcDbEntity
  8
1
  6
Continuous
100
AcDbCircle
 10
316.719653
 20
124.4733649999999
 30
0.0
 40
0.6
100
AcDbArc
 50
180.0
 51
0.00001
  0
ARC
  5
9F78
330
9E49
100
AcDbEntity
  8
1
  6
Continuous
100
AcDbCircle
 10
315.5196529999999
 20
129.1733649999999
 30
0.0
 40
0.6
100
AcDbArc
 50
0.0
 51
180.0
  0
ARC
  5
9F79
330
9E49
100
AcDbEntity
  8
1
  6
Continuous
100
AcDbCircle
 10
315.5196529999999
 20
124.4733649999999
 30
0.0
 40
0.6
100
AcDbArc
 50
180.0
 51
0.00001
  0
ARC
  5
9F7A
330
9E49
100
AcDbEntity
  8
1
  6
Continuous
100
AcDbCircle
 10
314.3196529999999
 20
129.1733649999999
 30
0.0
 40
0.6
100
AcDbArc
 50
0.0
 51
180.0
  0
ARC
  5
9F7B
330
9E49
100
AcDbEntity
  8
1
  6
Continuous
100
AcDbCircle
 10
314.3196529999999
 20
124.4733649999999
 30
0.0
 40
0.6
100
AcDbArc
 50
180.0
 51
0.00001
  0
ARC
  5
9F7C
330
9E49
100
AcDbEntity
  8
1
  6
Continuous
100
AcDbCircle
 10
313.1196529999999
 20
129.1733649999999
 30
0.0
 40
0.6
100
AcDbArc
 50
0.0
 51
180.0
  0
ARC
  5
9F7D
330
9E49
100
AcDbEntity
  8
1
  6
Continuous
100
AcDbCircle
 10
313.1196529999999
 20
124.4733649999999
 30
0.0
 40
0.6
100
AcDbArc
 50
180.0
 51
0.00001
  0
ARC
  5
9F7E
330
9E49
100
AcDbEntity
  8
1
  6
Continuous
100
AcDbCircle
 10
311.9196529999999
 20
129.1733649999999
 30
0.0
 40
0.6
100
AcDbArc
 50
0.0
 51
180.0
  0
ARC
  5
9F7F
330
9E49
100
AcDbEntity
  8
1
  6
Continuous
100
AcDbCircle
 10
311.9196529999999
 20
124.4733649999999
 30
0.0
 40
0.6
100
AcDbArc
 50
180.0
 51
0.00001
  0
ARC
  5
9F80
330
9E49
100
AcDbEntity
  8
1
  6
Continuous
100
AcDbCircle
 10
310.7196529999999
 20
129.1733649999999
 30
0.0
 40
0.6
100
AcDbArc
 50
0.0
 51
180.0
  0
ARC
  5
9F81
330
9E49
100
AcDbEntity
  8
1
  6
Continuous
100
AcDbCircle
 10
310.7196529999999
 20
124.4733649999999
 30
0.0
 40
0.6
100
AcDbArc
 50
180.0
 51
0.00001
  0
ARC
  5
9F82
330
9E49
100
AcDbEntity
  8
1
  6
Continuous
100
AcDbCircle
 10
309.5196529999999
 20
129.1733649999999
 30
0.0
 40
0.6
100
AcDbArc
 50
0.0
 51
180.0
  0
ARC
  5
9F83
330
9E49
100
AcDbEntity
  8
1
  6
Continuous
100
AcDbCircle
 10
309.5196529999999
 20
124.4733649999999
 30
0.0
 40
0.6
100
AcDbArc
 50
180.0
 51
0.00001
  0
CIRCLE
  5
9F84
330
9E49
100
AcDbEntity
  8
5
  6
PHANTOM
100
AcDbCircle
 10
316.219653
 20
142.323365
 30
0.0
 40
0.9335
  0
CIRCLE
  5
9F85
330
9E49
100
AcDbEntity
  8
5
  6
PHANTOM
100
AcDbCircle
 10
308.219653
 20
142.323365
 30
0.0
 40
0.9335
  0
ARC
  5
9F86
330
9E49
100
AcDbEntity
  8
1
  6
Continuous
100
AcDbCircle
 10
14.937553
 20
48.523065
 30
0.0
 40
2.5
100
AcDbArc
 50
126.8699999999999
 51
233.13
  0
ARC
  5
9F87
330
9E49
100
AcDbEntity
  8
1
  6
Continuous
100
AcDbCircle
 10
14.937553
 20
241.1233649999998
 30
0.0
 40
2.5
100
AcDbArc
 50
126.8699999999999
 51
233.13
  0
ARC
  5
9F88
330
9E49
100
AcDbEntity
  8
1
  6
Continuous
100
AcDbCircle
 10
36.637553
 20
244.966365
 30
0.0
 40
10.0
100
AcDbArc
 50
259.086
 51
280.9139999999998
  0
ARC
  5
9F89
330
9E49
100
AcDbEntity
  8
1
  6
Continuous
100
AcDbCircle
 10
16.937553
 20
240.6173649999999
 30
0.0
 40
2.0
100
AcDbArc
 50
180.0
 51
259.086
  0
ARC
  5
9F8A
330
9E49
100
AcDbEntity
  8
1
  6
Continuous
100
AcDbCircle
 10
36.637553
 20
246.0263649999999
 30
0.0
 40
10.0
100
AcDbArc
 50
259.086
 51
280.9139999999998
  0
ARC
  5
9F8B
330
9E49
100
AcDbEntity
  8
1
  6
Continuous
100
AcDbCircle
 10
16.937553
 20
241.6783649999999
 30
0.0
 40
2.0
100
AcDbArc
 50
180.0
 51
259.086
  0
ARC
  5
9F8C
330
9E49
100
AcDbEntity
  8
1
  6
Continuous
100
AcDbCircle
 10
56.337553
 20
240.6173649999999
 30
0.0
 40
2.0
100
AcDbArc
 50
280.9139999999998
 51
0.0
  0
ARC
  5
9F8D
330
9E49
100
AcDbEntity
  8
1
  6
Continuous
100
AcDbCircle
 10
56.337553
 20
241.6783649999999
 30
0.0
 40
2.0
100
AcDbArc
 50
280.9139999999998
 51
0.0
  0
ARC
  5
9F8E
330
9E49
100
AcDbEntity
  8
1
  6
Continuous
100
AcDbCircle
 10
57.13755299999998
 20
236.8733649999998
 30
0.0
 40
1.5
100
AcDbArc
 50
270.0
 51
0.0
  0
ARC
  5
9F8F
330
9E49
100
AcDbEntity
  8
1
  6
Continuous
100
AcDbCircle
 10
16.137553
 20
236.8733649999998
 30
0.0
 40
1.5
100
AcDbArc
 50
180.0
 51
270.0
  0
ARC
  5
9F90
330
9E49
100
AcDbEntity
  8
1
  6
Continuous
100
AcDbCircle
 10
28.53755299999999
 20
243.473365
 30
0.0
 40
0.6
100
AcDbArc
 50
80.40609999999999
 51
180.0
  0
ARC
  5
9F91
330
9E49
100
AcDbEntity
  8
1
  6
Continuous
100
AcDbCircle
 10
27.337553
 20
243.473365
 30
0.0
 40
0.6
100
AcDbArc
 50
0.0
 51
180.0
  0
ARC
  5
9F92
330
9E49
100
AcDbEntity
  8
1
  6
Continuous
100
AcDbCircle
 10
48.113953
 20
230.7673649999999
 30
0.0
 40
1.0
100
AcDbArc
 50
14.8112
 51
90.0
  0
ARC
  5
9F93
330
9E49
100
AcDbEntity
  8
1
  6
Continuous
100
AcDbCircle
 10
25.161153
 20
230.7673649999999
 30
0.0
 40
1.0
100
AcDbArc
 50
90.0
 51
165.1889999999999
  0
CIRCLE
  5
9F94
330
9E49
100
AcDbEntity
  8
1
  6
Continuous
100
AcDbCircle
 10
329.219653
 20
126.8233649999999
 30
0.0
 40
0.9335
  0
CIRCLE
  5
9F95
330
9E49
100
AcDbEntity
  8
1
  6
Continuous
100
AcDbCircle
 10
295.219653
 20
126.8233649999999
 30
0.0
 40
0.9335
  0
CIRCLE
  5
9F96
330
9E49
100
AcDbEntity
  8
1
  6
Continuous
100
AcDbCircle
 10
175.4266529999999
 20
126.8233649999999
 30
0.0
 40
1.75
  0
LINE
  5
9F97
330
9E49
100
AcDbEntity
  8
1
  6
Continuous
100
AcDbLine
 10
227.2266529999999
 20
137.3233649999999
 30
0.0
 11
227.2266529999999
 21
145.002814
 31
0.0
  0
LINE
  5
9F98
330
9E49
100
AcDbEntity
  8
1
  6
Continuous
100
AcDbLine
 10
220.587423
 20
145.131775
 30
0.0
 11
224.237423
 21
138.809789
 31
0.0
  0
LINE
  5
9F99
330
9E49
100
AcDbEntity
  8
1
  6
Continuous
100
AcDbLine
 10
221.6266529999999
 20
145.731775
 30
0.0
 11
225.2766529999999
 21
139.4097889999999
 31
0.0
  0
LINE
  5
9F9A
330
9E49
100
AcDbEntity
  8
1
  6
Continuous
100
AcDbLine
 10
227.2266529999999
 20
146.1233649999998
 30
0.0
 11
221.6266529999999
 21
145.731775
 31
0.0
  0
LINE
  5
9F9B
330
9E49
100
AcDbEntity
  8
1
  6
Continuous
100
AcDbLine
 10
227.1429459999999
 20
147.3204419999999
 30
0.0
 11
221.542946
 21
146.928851
 31
0.0
  0
LINE
  5
9F9C
330
9E49
100
AcDbEntity
  8
1
  6
Continuous
100
AcDbLine
 10
227.2266529999999
 20
145.002814
 30
0.0
 11
227.2266529999999
 21
146.1233649999998
 31
0.0
  0
ARC
  5
9F9D
330
9E49
100
AcDbEntity
  8
1
  6
Continuous
100
AcDbCircle
 10
227.2266529999999
 20
146.1233649999998
 30
0.0
 40
1.199999999999999
100
AcDbArc
 50
0.0
 51
70.528779
  0
ARC
  5
9F9E
330
9E49
100
AcDbEntity
  8
1
  6
Continuous
100
AcDbCircle
 10
227.2266529999999
 20
146.1233649999998
 30
0.0
 40
1.199999999999999
100
AcDbArc
 50
70.528779
 51
94.0
  0
LINE
  5
9F9F
330
9E49
100
AcDbEntity
  8
4
  6
CENTER
100
AcDbLine
 10
230.4801719999999
 20
142.323365
 30
0.0
 11
225.5365789999999
 21
142.323365
 31
0.0
  0
ARC
  5
9FA0
330
9E49
100
AcDbEntity
  8
1
  6
Continuous
100
AcDbCircle
 10
221.6266529999999
 20
145.731775
 30
0.0
 40
1.199999999999999
100
AcDbArc
 50
94.0
 51
210.0
  0
LINE
  5
9FA1
330
9E49
100
AcDbEntity
  8
1
  6
Continuous
100
AcDbLine
 10
225.2766529999999
 20
139.4097889999999
 30
0.0
 11
224.237423
 21
138.809789
 31
0.0
  0
LINE
  5
9FA2
330
9E49
100
AcDbEntity
  8
1
  6
Continuous
100
AcDbLine
 10
227.2266529999999
 20
137.3233649999999
 30
0.0
 11
228.426653
 21
137.3233649999999
 31
0.0
  0
LINE
  5
9FA3
330
9E49
100
AcDbEntity
  8
4
  6
CENTER
100
AcDbLine
 10
369.2196529999998
 20
142.323365
 30
0.0
 11
363.2196529999998
 21
142.323365
 31
0.0
  0
CIRCLE
  5
9FA4
330
9E49
100
AcDbEntity
  8
1
  6
Continuous
100
AcDbCircle
 10
366.219653
 20
142.323365
 30
0.0
 40
0.9335
  0
CIRCLE
  5
9FA5
330
9E49
100
AcDbEntity
  8
2
  6
Continuous
100
AcDbCircle
 10
366.219653
 20
142.323365
 30
0.0
 40
1.5
  0
LINE
  5
9FA6
330
9E49
100
AcDbEntity
  8
4
  6
CENTER
100
AcDbLine
 10
366.219653
 20
139.3233649999999
 30
0.0
 11
366.219653
 21
145.323365
 31
0.0
  0
LINE
  5
9FA7
330
9E49
100
AcDbEntity
  8
1
  6
Continuous
100
AcDbLine
 10
370.219653
 20
147.3203649999998
 30
0.0
 11
370.219653
 21
139.3233649999999
 31
0.0
  0
CIRCLE
  5
9FA8
330
9E49
100
AcDbEntity
  8
1
  6
Continuous
100
AcDbCircle
 10
358.219653
 20
142.323365
 30
0.0
 40
0.9335
  0
CIRCLE
  5
9FA9
330
9E49
100
AcDbEntity
  8
2
  6
Continuous
100
AcDbCircle
 10
358.219653
 20
142.323365
 30
0.0
 40
1.5
  0
LINE
  5
9FAA
330
9E49
100
AcDbEntity
  8
4
  6
CENTER
100
AcDbLine
 10
361.2196529999998
 20
142.323365
 30
0.0
 11
355.2196529999998
 21
142.323365
 31
0.0
  0
LINE
  5
9FAB
330
9E49
100
AcDbEntity
  8
4
  6
CENTER
100
AcDbLine
 10
358.219653
 20
139.3233649999999
 30
0.0
 11
358.219653
 21
145.323365
 31
0.0
  0
LINE
  5
9FAC
330
9E49
100
AcDbEntity
  8
1
  6
Continuous
100
AcDbLine
 10
354.219653
 20
147.3203649999998
 30
0.0
 11
354.219653
 21
139.3233649999999
 31
0.0
  0
ARC
  5
9FAD
330
9E49
100
AcDbEntity
  8
1
  6
Continuous
100
AcDbCircle
 10
356.219653
 20
139.3233649999999
 30
0.0
 40
2.0
100
AcDbArc
 50
180.0
 51
270.0
  0
LINE
  5
9FAE
330
9E49
100
AcDbEntity
  8
1
  6
Continuous
100
AcDbLine
 10
368.219653
 20
137.3233649999999
 30
0.0
 11
356.219653
 21
137.3233649999999
 31
0.0
  0
ARC
  5
9FAF
330
9E49
100
AcDbEntity
  8
1
  6
Continuous
100
AcDbCircle
 10
368.219653
 20
139.3233649999999
 30
0.0
 40
2.0
100
AcDbArc
 50
270.0
 51
0.0
  0
LINE
  5
9FB0
330
9E49
100
AcDbEntity
  8
4
  6
CENTER
100
AcDbLine
 10
362.219653
 20
150.2353169999999
 30
0.0
 11
362.219653
 21
134.2281049999999
 31
0.0
  0
LINE
  5
9FB1
330
9E49
100
AcDbEntity
  8
1
  6
Continuous
100
AcDbLine
 10
354.219653
 20
147.3203649999998
 30
0.0
 11
370.219653
 21
147.3203649999998
 31
0.0
  0
LINE
  5
9FB2
330
9E49
100
AcDbEntity
  8
1
  6
Continuous
100
AcDbLine
 10
228.426653
 20
146.1233649999998
 30
0.0
 11
228.426653
 21
137.3233649999999
 31
0.0
  0
LINE
  5
9FB3
330
9E49
100
AcDbEntity
  8
1
  6
Continuous
100
AcDbLine
 10
78.63755299999998
 20
147.3203649999998
 30
0.0
 11
94.637553
 21
147.3203649999998
 31
0.0
  0
LINE
  5
9FB4
330
9E49
100
AcDbEntity
  8
1
  6
Continuous
100
AcDbLine
 10
92.63755299999999
 20
137.3233649999999
 30
0.0
 11
80.63755299999998
 21
137.3233649999999
 31
0.0
  0
LINE
  5
9FB5
330
9E49
100
AcDbEntity
  8
4
  6
CENTER
100
AcDbLine
 10
93.63755299999999
 20
142.323365
 30
0.0
 11
87.63755299999997
 21
142.323365
 31
0.0
  0
LINE
  5
9FB6
330
9E49
100
AcDbEntity
  8
4
  6
CENTER
100
AcDbLine
 10
86.63755299999998
 20
150.2353169999999
 30
0.0
 11
86.63755299999998
 21
134.2281049999999
 31
0.0
  0
ARC
  5
9FB7
330
9E49
100
AcDbEntity
  8
1
  6
Continuous
100
AcDbCircle
 10
80.63755299999998
 20
139.3233649999999
 30
0.0
 40
2.0
100
AcDbArc
 50
180.0
 51
270.0
  0
LINE
  5
9FB8
330
9E49
100
AcDbEntity
  8
1
  6
Continuous
100
AcDbLine
 10
78.63755299999998
 20
147.3203649999998
 30
0.0
 11
78.63755299999998
 21
139.3233649999999
 31
0.0
  0
LINE
  5
9FB9
330
9E49
100
AcDbEntity
  8
4
  6
CENTER
100
AcDbLine
 10
82.63755299999997
 20
139.3233649999999
 30
0.0
 11
82.63755299999997
 21
145.323365
 31
0.0
  0
LINE
  5
9FBA
330
9E49
100
AcDbEntity
  8
4
  6
CENTER
100
AcDbLine
 10
85.63755299999998
 20
142.323365
 30
0.0
 11
79.63755299999998
 21
142.323365
 31
0.0
  0
LINE
  5
9FBB
330
9E49
100
AcDbEntity
  8
4
  6
CENTER
100
AcDbLine
 10
90.637553
 20
139.3233649999999
 30
0.0
 11
90.637553
 21
145.323365
 31
0.0
  0
ARC
  5
9FBC
330
9E49
100
AcDbEntity
  8
1
  6
Continuous
100
AcDbCircle
 10
92.63755299999999
 20
139.3233649999999
 30
0.0
 40
2.0
100
AcDbArc
 50
270.0
 51
0.0
  0
LINE
  5
9FBD
330
9E49
100
AcDbEntity
  8
1
  6
Continuous
100
AcDbLine
 10
94.637553
 20
147.3203649999998
 30
0.0
 11
94.637553
 21
139.3233649999999
 31
0.0
  0
LINE
  5
9FBE
330
9E49
100
AcDbEntity
  8
1
  6
Continuous
100
AcDbLine
 10
92.63755299999999
 20
138.809789
 30
0.0
 11
80.63755299999998
 21
138.809789
 31
0.0
  0
ARC
  5
9FBF
330
9E49
100
AcDbEntity
  8
1
  6
Continuous
100
AcDbCircle
 10
92.63755299999999
 20
140.809789
 30
0.0
 40
2.0
100
AcDbArc
 50
270.0
 51
0.0
  0
ARC
  5
9FC0
330
9E49
100
AcDbEntity
  8
1
  6
Continuous
100
AcDbCircle
 10
80.63755299999998
 20
140.809789
 30
0.0
 40
2.0
100
AcDbArc
 50
180.0
 51
270.0
  0
LINE
  5
9FC1
330
9E49
100
AcDbEntity
  8
1
  6
Continuous
100
AcDbLine
 10
93.63755299999999
 20
145.731775
 30
0.0
 11
79.63755299999998
 21
145.731775
 31
0.0
  0
LINE
  5
9FC2
330
9E49
100
AcDbEntity
  8
4
  6
CENTER
100
AcDbLine
 10
40.63755299999999
 20
239.2406939999999
 30
0.0
 11
40.63755299999999
 21
246.1823649999999
 31
0.0
  0
LINE
  5
9FC3
330
9E49
100
AcDbEntity
  8
4
  6
CENTER
100
AcDbLine
 10
32.63755299999999
 20
239.2406939999999
 30
0.0
 11
32.63755299999999
 21
246.1823649999999
 31
0.0
  0
LINE
  5
9FC4
330
9E49
100
AcDbEntity
  8
1
  6
Continuous
100
AcDbLine
 10
78.63755299999998
 20
244.123365
 30
0.0
 11
94.637553
 21
244.123365
 31
0.0
  0
LINE
  5
9FC5
330
9E49
100
AcDbEntity
  8
1
  6
Continuous
100
AcDbLine
 10
94.637553
 20
236.1233649999999
 30
0.0
 11
94.637553
 21
244.123365
 31
0.0
  0
LINE
  5
9FC6
330
9E49
100
AcDbEntity
  8
1
  6
Continuous
100
AcDbLine
 10
78.63755299999998
 20
236.1233649999999
 30
0.0
 11
78.63755299999998
 21
244.123365
 31
0.0
  0
LINE
  5
9FC7
330
9E49
100
AcDbEntity
  8
1
  6
Continuous
100
AcDbLine
 10
94.637553
 20
236.1233649999999
 30
0.0
 11
78.63755299999998
 21
236.1233649999999
 31
0.0
  0
LINE
  5
9FC8
330
9E49
100
AcDbEntity
  8
4
  6
CENTER
100
AcDbLine
 10
86.63755299999998
 20
248.3335459999999
 30
0.0
 11
86.63755299999998
 21
232.326334
 31
0.0
  0
LINE
  5
9FC9
330
9E49
100
AcDbEntity
  8
4
  6
CENTER
100
AcDbLine
 10
90.637553
 20
240.915517
 30
0.0
 11
90.637553
 21
246.915517
 31
0.0
  0
LINE
  5
9FCA
330
9E49
100
AcDbEntity
  8
4
  6
CENTER
100
AcDbLine
 10
82.63755299999997
 20
240.915517
 30
0.0
 11
82.63755299999997
 21
246.915517
 31
0.0
  0
ARC
  5
9FCB
330
9E49
100
AcDbEntity
  8
1
  6
Continuous
100
AcDbCircle
 10
14.637553
 20
245.9233649999999
 30
0.0
 40
1.199999999999999
100
AcDbArc
 50
90.0
 51
180.0
  0
ARC
  5
9FCC
330
9E49
100
AcDbEntity
  8
1
  6
Continuous
100
AcDbCircle
 10
14.637553
 20
242.123365
 30
0.0
 40
1.199999999999999
100
AcDbArc
 50
90.0
 51
180.0
  0
ARC
  5
9FCD
330
9E49
100
AcDbEntity
  8
1
  6
Continuous
100
AcDbCircle
 10
58.63755300000001
 20
242.123365
 30
0.0
 40
1.199999999999999
100
AcDbArc
 50
0.0
 51
90.0
  0
ARC
  5
9FCE
330
9E49
100
AcDbEntity
  8
1
  6
Continuous
100
AcDbCircle
 10
14.637553
 20
232.6233649999998
 30
0.0
 40
1.199999999999999
100
AcDbArc
 50
180.0
 51
270.0
  0
ARC
  5
9FCF
330
9E49
100
AcDbEntity
  8
1
  6
Continuous
100
AcDbCircle
 10
58.63755300000001
 20
232.6233649999998
 30
0.0
 40
1.199999999999999
100
AcDbArc
 50
270.0
 51
0.0
  0
ARC
  5
9FD0
330
9E49
100
AcDbEntity
  8
1
  6
Continuous
100
AcDbCircle
 10
24.157286
 20
231.0233649999999
 30
0.0
 40
1.199999999999999
100
AcDbArc
 50
223.1458009999998
 51
270.0
  0
ARC
  5
9FD1
330
9E49
100
AcDbEntity
  8
1
  6
Continuous
100
AcDbCircle
 10
49.117708
 20
231.0233649999999
 30
0.0
 40
1.199999999999999
100
AcDbArc
 50
270.0
 51
316.850434
  0
ARC
  5
9FD2
330
9E49
100
AcDbEntity
  8
1
  6
Continuous
100
AcDbCircle
 10
22.136629
 20
231.4233649999999
 30
0.0
 40
1.199999999999999
100
AcDbArc
 50
43.175993
 51
90.0
  0
ARC
  5
9FD3
330
9E49
100
AcDbEntity
  8
1
  6
Continuous
100
AcDbCircle
 10
51.138342
 20
231.4233649999999
 30
0.0
 40
1.199999999999999
100
AcDbArc
 50
90.0
 51
136.827377
  0
LINE
  5
9FD4
330
9E49
100
AcDbEntity
  8
1
  6
Continuous
100
AcDbLine
 10
49.117708
 20
59.82306499999999
 30
0.0
 11
24.157286
 21
59.82306499999999
 31
0.0
  0
LINE
  5
9FD5
330
9E49
100
AcDbEntity
  8
1
  6
Continuous
100
AcDbLine
 10
49.993194
 20
59.443751
 30
0.0
 11
51.13755300000001
 21
58.22298
 31
0.0
  0
ARC
  5
9FD6
330
9E49
100
AcDbEntity
  8
1
  6
Continuous
100
AcDbCircle
 10
49.117708
 20
58.62306499999998
 30
0.0
 40
1.199999999999999
100
AcDbArc
 50
43.149566
 51
90.0
  0
ARC
  5
9FD7
330
9E49
100
AcDbEntity
  8
1
  6
Continuous
100
AcDbCircle
 10
24.157286
 20
58.62306499999998
 30
0.0
 40
1.199999999999999
100
AcDbArc
 50
90.0
 51
136.8541989999999
  0
LINE
  5
9FD8
330
9E49
100
AcDbEntity
  8
1
  6
Continuous
100
AcDbLine
 10
23.28174699999999
 20
59.443693
 30
0.0
 11
22.137553
 21
58.222938
 31
0.0
  0
ARC
  5
9FD9
330
9E49
100
AcDbEntity
  8
1
  6
Continuous
100
AcDbCircle
 10
14.637553
 20
57.006165
 30
0.0
 40
1.199999999999999
100
AcDbArc
 50
90.0
 51
180.0
  0
ARC
  5
9FDA
330
9E49
100
AcDbEntity
  8
1
  6
Continuous
100
AcDbCircle
 10
58.63755300000001
 20
57.006165
 30
0.0
 40
1.199999999999999
100
AcDbArc
 50
0.0
 51
90.0
  0
ARC
  5
9FDB
330
9E49
100
AcDbEntity
  8
1
  6
Continuous
100
AcDbCircle
 10
58.63755300000001
 20
56.023065
 30
0.0
 40
1.199999999999999
100
AcDbArc
 50
0.0
 51
90.0
  0
ARC
  5
9FDC
330
9E49
100
AcDbEntity
  8
1
  6
Continuous
100
AcDbCircle
 10
14.637553
 20
56.023065
 30
0.0
 40
1.199999999999999
100
AcDbArc
 50
90.0
 51
180.0
  0
LINE
  5
9FDD
330
9E49
100
AcDbEntity
  8
1
  6
Continuous
100
AcDbLine
 10
58.63755300000001
 20
42.523065
 30
0.0
 11
49.63755299999998
 21
42.523065
 31
0.0
  0
LINE
  5
9FDE
330
9E49
100
AcDbEntity
  8
1
  6
Continuous
100
AcDbLine
 10
49.63755299999998
 20
43.463365
 30
0.0
 11
49.63755299999998
 21
42.523065
 31
0.0
  0
LINE
  5
9FDF
330
9E49
100
AcDbEntity
  8
1
  6
Continuous
100
AcDbLine
 10
22.137553
 20
58.222938
 30
0.0
 11
22.137553
 21
57.80826499999999
 31
0.0
  0
LINE
  5
9FE0
330
9E49
100
AcDbEntity
  8
1
  6
Continuous
100
AcDbLine
 10
51.13755300000001
 20
58.22298
 30
0.0
 11
51.13755300000001
 21
57.80826499999999
 31
0.0
  0
LINE
  5
9FE1
330
9E49
100
AcDbEntity
  8
1
  6
Continuous
100
AcDbLine
 10
58.63755300000001
 20
247.1233649999998
 30
0.0
 11
49.63755299999998
 21
247.1233649999998
 31
0.0
  0
ARC
  5
9FE2
330
9E49
100
AcDbEntity
  8
1
  6
Continuous
100
AcDbCircle
 10
58.63755300000001
 20
245.9233649999999
 30
0.0
 40
1.199999999999999
100
AcDbArc
 50
0.0
 51
90.0
  0
LINE
  5
9FE3
330
9E49
100
AcDbEntity
  8
1
  6
Continuous
100
AcDbLine
 10
58.63755300000001
 20
245.9233649999999
 30
0.0
 11
49.63755299999998
 21
245.9233649999999
 31
0.0
  0
LINE
  5
9FE4
330
9E49
100
AcDbEntity
  8
1
  6
Continuous
100
AcDbLine
 10
49.63755299999998
 20
245.9233649999999
 30
0.0
 11
49.63755299999998
 21
247.1233649999998
 31
0.0
  0
LINE
  5
9FE5
330
9E49
100
AcDbEntity
  8
1
  6
Continuous
100
AcDbLine
 10
49.63755299999998
 20
245.9233649999999
 30
0.0
 11
28.63755300000001
 21
245.9233649999999
 31
0.0
  0
LINE
  5
9FE6
330
9E49
100
AcDbEntity
  8
1
  6
Continuous
100
AcDbLine
 10
23.13755299999999
 20
247.1233649999998
 30
0.0
 11
24.137553
 21
246.0233649999999
 31
0.0
  0
LINE
  5
9FE7
330
9E49
100
AcDbEntity
  8
1
  6
Continuous
100
AcDbLine
 10
23.13755299999999
 20
245.9233649999999
 30
0.0
 11
24.137553
 21
244.823365
 31
0.0
  0
LINE
  5
9FE8
330
9E49
100
AcDbEntity
  8
1
  6
Continuous
100
AcDbLine
 10
25.537553
 20
246.1823649999999
 30
0.0
 11
23.993008
 21
246.1823649999999
 31
0.0
  0
LINE
  5
9FE9
330
9E49
100
AcDbEntity
  8
1
  6
Continuous
100
AcDbLine
 10
23.13755299999999
 20
42.523065
 30
0.0
 11
23.992371
 21
43.463365
 31
0.0
  0
ARC
  5
9FEA
330
9E49
100
AcDbEntity
  8
1
  6
Continuous
100
AcDbCircle
 10
14.637553
 20
43.72306499999999
 30
0.0
 40
1.199999999999999
100
AcDbArc
 50
180.0
 51
270.0
  0
ARC
  5
9FEB
330
9E49
100
AcDbEntity
  8
1
  6
Continuous
100
AcDbCircle
 10
58.63755300000001
 20
43.72306499999999
 30
0.0
 40
1.199999999999999
100
AcDbArc
 50
270.0
 51
0.0
  0
LINE
  5
9FEC
330
9E49
100
AcDbEntity
  8
4
  6
CENTER
100
AcDbLine
 10
82.63755299999997
 20
48.730912
 30
0.0
 11
82.63755299999997
 21
42.73091199999997
 31
0.0
  0
LINE
  5
9FED
330
9E49
100
AcDbEntity
  8
4
  6
CENTER
100
AcDbLine
 10
90.637553
 20
48.730912
 30
0.0
 11
90.637553
 21
42.73091199999997
 31
0.0
  0
LINE
  5
9FEE
330
9E49
100
AcDbEntity
  8
4
  6
CENTER
100
AcDbLine
 10
86.63755299999998
 20
41.31288399999998
 30
0.0
 11
86.63755299999998
 21
57.320095
 31
0.0
  0
LINE
  5
9FEF
330
9E49
100
AcDbEntity
  8
1
  6
Continuous
100
AcDbLine
 10
78.63755299999998
 20
53.523065
 30
0.0
 11
78.63755299999998
 21
45.523065
 31
0.0
  0
LINE
  5
9FF0
330
9E49
100
AcDbEntity
  8
1
  6
Continuous
100
AcDbLine
 10
94.637553
 20
53.523065
 30
0.0
 11
94.637553
 21
45.523065
 31
0.0
  0
LINE
  5
9FF1
330
9E49
100
AcDbEntity
  8
1
  6
Continuous
100
AcDbLine
 10
94.637553
 20
53.523065
 30
0.0
 11
78.63755299999998
 21
53.523065
 31
0.0
  0
LINE
  5
9FF2
330
9E49
100
AcDbEntity
  8
1
  6
Continuous
100
AcDbLine
 10
78.63755299999998
 20
45.523065
 30
0.0
 11
94.637553
 21
45.523065
 31
0.0
  0
LINE
  5
9FF3
330
9E49
100
AcDbEntity
  8
1
  6
Continuous
100
AcDbLine
 10
78.63755299999998
 20
46.723065
 30
0.0
 11
94.637553
 21
46.723065
 31
0.0
  0
LINE
  5
9FF4
330
9E49
100
AcDbEntity
  8
1
  6
Continuous
100
AcDbLine
 10
94.637553
 20
48.673065
 30
0.0
 11
78.63755299999998
 21
48.673065
 31
0.0
  0
LINE
  5
9FF5
330
9E49
100
AcDbEntity
  8
1
  6
Continuous
100
AcDbLine
 10
94.637553
 20
49.71229499999999
 30
0.0
 11
78.63755299999998
 21
49.71229499999999
 31
0.0
  0
LINE
  5
9FF6
330
9E49
100
AcDbEntity
  8
4
  6
CENTER
100
AcDbLine
 10
53.63755300000001
 20
123.8233649999999
 30
0.0
 11
53.63755300000001
 21
129.823365
 31
0.0
  0
LINE
  5
9FF7
330
9E49
100
AcDbEntity
  8
4
  6
CENTER
100
AcDbLine
 10
19.637553
 20
123.8233649999999
 30
0.0
 11
19.637553
 21
129.823365
 31
0.0
  0
LINE
  5
9FF8
330
9E49
100
AcDbEntity
  8
4
  6
CENTER
100
AcDbLine
 10
53.63755300000001
 20
40.092337
 30
0.0
 11
53.63755300000001
 21
46.09233699999999
 31
0.0
  0
LINE
  5
9FF9
330
9E49
100
AcDbEntity
  8
4
  6
CENTER
100
AcDbLine
 10
19.637553
 20
40.092337
 30
0.0
 11
19.637553
 21
46.09233699999999
 31
0.0
  0
LINE
  5
9FFA
330
9E49
100
AcDbEntity
  8
4
  6
CENTER
100
AcDbLine
 10
53.63755300000001
 20
244.392029
 30
0.0
 11
53.63755300000001
 21
250.3920289999999
 31
0.0
  0
LINE
  5
9FFB
330
9E49
100
AcDbEntity
  8
4
  6
CENTER
100
AcDbLine
 10
19.637553
 20
244.392029
 30
0.0
 11
19.637553
 21
250.3920289999999
 31
0.0
  0
ENDSEC
  0
SECTION
  2
OBJECTS
  0
DICTIONARY
  5
9E37
330
0
100
AcDbDictionary
281
     1
  3
ACAD_CIP_PREVIOUS_PRODUCT_INFO
350
A05F
  3
ACAD_COLOR
350
A041
  3
ACAD_DETAILVIEWSTYLE
350
A05A
  3
ACAD_GROUP
350
9E38
  3
ACAD_LAYOUT
350
9E44
  3
ACAD_MATERIAL
350
A00F
  3
ACAD_MLEADERSTYLE
350
A056
  3
ACAD_MLINESTYLE
350
9E41
  3
ACAD_PLOTSETTINGS
350
9E43
  3
ACAD_PLOTSTYLENAME
350
A00D
  3
ACAD_SCALELIST
350
A044
  3
ACAD_SECTIONVIEWSTYLE
350
A058
  3
ACAD_TABLESTYLE
350
A042
  3
ACAD_VISUALSTYLE
350
A028
  3
ACDB_RECOMPOSE_DATA
350
A07D
  3
AcDbVariableDictionary
350
A070
  3
DWGPROPS
350
A07E
  0
DICTIONARY
  5
A060
330
9E3B
100
AcDbDictionary
280
     1
281
     1
  3
ADSK_XREC_LAYER_RECONCILED
360
A061
  0
DICTIONARY
  5
A062
330
9E51
100
AcDbDictionary
280
     1
281
     1
  3
ADSK_XREC_LAYER_RECONCILED
360
A063
  0
DICTIONARY
  5
A064
330
9E52
100
AcDbDictionary
280
     1
281
     1
  3
ADSK_XREC_LAYER_RECONCILED
360
A065
  0
DICTIONARY
  5
A066
330
9E53
100
AcDbDictionary
280
     1
281
     1
  3
ADSK_XREC_LAYER_RECONCILED
360
A067
  0
DICTIONARY
  5
A068
330
9E54
100
AcDbDictionary
280
     1
281
     1
  3
ADSK_XREC_LAYER_RECONCILED
360
A069
  0
DICTIONARY
  5
A06A
330
9E55
100
AcDbDictionary
280
     1
281
     1
  3
ADSK_XREC_LAYER_RECONCILED
360
A06B
  0
DICTIONARY
  5
A06C
330
9E56
100
AcDbDictionary
280
     1
281
     1
  3
ADSK_XREC_LAYER_RECONCILED
360
A06D
  0
DICTIONARY
  5
A06E
330
9E57
100
AcDbDictionary
280
     1
281
     1
  3
ADSK_XREC_LAYER_RECONCILED
360
A06F
  0
DICTIONARY
  5
A008
330
9E49
100
AcDbDictionary
281
     1
  3
ACAD_LAYOUTSELFREF
350
A009
  0
DICTIONARY
  5
A006
330
9E45
100
AcDbDictionary
281
     1
  3
ACAD_LAYOUTSELFREF
350
A007
  0
XRECORD
  5
A05F
102
{ACAD_REACTORS
330
9E37
102
}
330
9E37
100
AcDbXrecord
280
     1
300
ACDLT
300
2014
300
ACDLT_F_S
  0
DICTIONARY
  5
A041
102
{ACAD_REACTORS
330
9E37
102
}
330
9E37
100
AcDbDictionary
281
     1
  0
DICTIONARY
  5
A05A
102
{ACAD_REACTORS
330
9E37
102
}
330
9E37
100
AcDbDictionary
281
     1
  3
Imperial24
350
A05B
  0
DICTIONARY
  5
9E38
102
{ACAD_REACTORS
330
9E37
102
}
330
9E37
100
AcDbDictionary
281
     1
  0
DICTIONARY
  5
9E44
102
{ACAD_REACTORS
330
9E37
102
}
330
9E37
100
AcDbDictionary
281
     1
  3
Model
350
A05C
  3
レイアウト1
350
A05D
  0
DICTIONARY
  5
A00F
102
{ACAD_REACTORS
330
9E37
102
}
330
9E37
100
AcDbDictionary
281
     1
  3
ByBlock
350
A018
  3
ByLayer
350
A010
  3
Global
350
A020
  0
DICTIONARY
  5
A056
102
{ACAD_REACTORS
330
9E37
102
}
330
9E37
100
AcDbDictionary
281
     1
  3
Standard
350
A057
  0
DICTIONARY
  5
9E41
102
{ACAD_REACTORS
330
9E37
102
}
330
9E37
100
AcDbDictionary
281
     1
  3
STANDARD
350
9E42
  0
DICTIONARY
  5
9E43
102
{ACAD_REACTORS
330
9E37
102
}
330
9E37
100
AcDbDictionary
281
     1
  0
ACDBDICTIONARYWDFLT
  5
A00D
102
{ACAD_REACTORS
330
9E37
102
}
330
9E37
100
AcDbDictionary
281
     1
  3
Normal
350
A00E
100
AcDbDictionaryWithDefault
340
A00E
  0
DICTIONARY
  5
A044
102
{ACAD_REACTORS
330
9E37
102
}
330
9E37
100
AcDbDictionary
281
     1
  3
A0
350
A045
  3
A1
350
A046
  3
A2
350
A047
  3
A3
350
A048
  3
A4
350
A049
  3
A5
350
A04A
  3
A6
350
A04B
  3
A7
350
A04C
  3
A8
350
A04D
  3
A9
350
A04E
  3
B0
350
A04F
  3
B1
350
A050
  3
B2
350
A051
  3
B3
350
A052
  3
B4
350
A053
  3
B5
350
A054
  3
B6
350
A055
  0
DICTIONARY
  5
A058
102
{ACAD_REACTORS
330
9E37
102
}
330
9E37
100
AcDbDictionary
281
     1
  3
Imperial24
350
A059
  0
DICTIONARY
  5
A042
102
{ACAD_REACTORS
330
9E37
102
}
330
9E37
100
AcDbDictionary
281
     1
  3
Standard
350
A043
  0
DICTIONARY
  5
A028
102
{ACAD_REACTORS
330
9E37
102
}
330
9E37
100
AcDbDictionary
281
     1
  3
2dWireframe
350
A02E
  3
Basic
350
A02D
  3
Brighten
350
A034
  3
ColorChange
350
A038
  3
Conceptual
350
A031
  3
Dim
350
A033
  3
EdgeColorOff
350
A040
  3
Facepattern
350
A037
  3
Flat
350
A029
  3
FlatWithEdges
350
A02A
  3
Gouraud
350
A02B
  3
GouraudWithEdges
350
A02C
  3
Hidden
350
A030
  3
JitterOff
350
A03E
  3
Linepattern
350
A036
  3
OverhangOff
350
A03F
  3
Realistic
350
A032
  3
Shaded
350
A03D
  3
Shaded with edges
350
A03C
  3
Shades of Gray
350
A039
  3
Sketchy
350
A03A
  3
Thicken
350
A035
  3
Wireframe
350
A02F
  3
X-Ray
350
A03B
  0
XRECORD
  5
A07D
102
{ACAD_REACTORS
330
9E37
102
}
330
9E37
100
AcDbXrecord
280
     1
 90
        1
330
A043
  0
DICTIONARY
  5
A070
102
{ACAD_REACTORS
330
9E37
102
}
330
9E37
100
AcDbDictionary
281
     1
  3
CANNOSCALE
350
A075
  3
CMLEADERSTYLE
350
A072
  3
CTABLESTYLE
350
A071
  3
CVIEWDETAILSTYLE
350
A073
  3
CVIEWSECTIONSTYLE
350
A074
  3
DIMASSOC
350
A078
  3
INDEXCTL
350
A077
  3
SORTENTS
350
A076
  3
XCLIPFRAME
350
A079
  0
XRECORD
  5
A07E
102
{ACAD_REACTORS
330
9E37
102
}
330
9E37
100
AcDbXrecord
280
     1
  1
DWGPROPS COOKIE
  2

  3

  4

  6

  7

  8
Yoshitsune
  9

300
=
301
=
302
=
303
=
304
=
305
=
306
=
307
=
308
=
309
=
 40
0.0000138425925926
 41
2451074.435160533
 42
2457192.601251783
  1

 90
        0
  0
XRECORD
  5
A061
102
{ACAD_REACTORS
330
A060
102
}
330
A060
100
AcDbXrecord
280
     1
290
     1
  0
XRECORD
  5
A063
102
{ACAD_REACTORS
330
A062
102
}
330
A062
100
AcDbXrecord
280
     1
290
     1
  0
XRECORD
  5
A065
102
{ACAD_REACTORS
330
A064
102
}
330
A064
100
AcDbXrecord
280
     1
290
     1
  0
XRECORD
  5
A067
102
{ACAD_REACTORS
330
A066
102
}
330
A066
100
AcDbXrecord
280
     1
290
     1
  0
XRECORD
  5
A069
102
{ACAD_REACTORS
330
A068
102
}
330
A068
100
AcDbXrecord
280
     1
290
     1
  0
XRECORD
  5
A06B
102
{ACAD_REACTORS
330
A06A
102
}
330
A06A
100
AcDbXrecord
280
     1
290
     1
  0
XRECORD
  5
A06D
102
{ACAD_REACTORS
330
A06C
102
}
330
A06C
100
AcDbXrecord
280
     1
290
     1
  0
XRECORD
  5
A06F
102
{ACAD_REACTORS
330
A06E
102
}
330
A06E
100
AcDbXrecord
280
     1
290
     1
  0
XRECORD
  5
A009
102
{ACAD_REACTORS
330
A008
102
}
330
A008
100
AcDbXrecord
280
     1
340
9E49
  0
XRECORD
  5
A007
102
{ACAD_REACTORS
330
A006
102
}
330
A006
100
AcDbXrecord
280
     1
340
9E45
  0
ACDBDETAILVIEWSTYLE
  5
A05B
102
{ACAD_XDICTIONARY
360
A0B6
102
}
102
{ACAD_REACTORS
330
A05A
102
}
330
A05A
100
AcDbModelDocViewStyle
 70
     0
  3
Imperial24
290
     0
100
AcDbDetailViewStyle
 70
     0
 71
     0
 90
        3
 71
     1
340
9E3C
 40
0.24
340
0
 40
0.24
300

 40
0.36
280
     3
 71
     2
340
9E40
 90
       25
 71
     3
340
9E3C
 40
0.24
 90
        1
 40
0.75
 90
        1
300
%<\AcVar ViewType \f "%tc1">% %<\AcVar ViewDetailId>%\PSCALE %<\AcVar ViewScale \f "%sn">%
 71
     4
340
9E40
 90
       25
340
9E40
 90
       25
280
     0
  0
LAYOUT
  5
A05C
102
{ACAD_XDICTIONARY
360
A0B8
102
}
102
{ACAD_REACTORS
330
9E44
102
}
330
9E44
100
AcDbPlotSettings
  1

  2
Canon LBP9100C
  4

  6

 40
0.0
 41
0.0
 42
0.0
 43
0.0
 44
0.0
 45
0.0
 46
0.0
 47
0.0
 48
0.0
 49
0.0
140
0.0
141
0.0
142
1.0
143
1.0
 70
  1712
 72
     0
 73
     0
 74
     0
  7

 75
     0
147
1.0
148
0.0
149
0.0
100
AcDbLayout
  1
Model
 70
     1
 71
     0
 10
0.0
 20
0.0
 11
12.0
 21
9.0
 12
0.0
 22
0.0
 32
0.0
 14
0.0
 24
0.0
 34
0.0
 15
0.0
 25
0.0
 35
0.0
146
0.0
 13
0.0
 23
0.0
 33
0.0
 16
1.0
 26
0.0
 36
0.0
 17
0.0
 27
1.0
 37
0.0
 76
     0
330
9E49
331
A005
  0
LAYOUT
  5
A05D
102
{ACAD_XDICTIONARY
360
A0BA
102
}
102
{ACAD_REACTORS
330
9E44
102
}
330
9E44
100
AcDbPlotSettings
  1

  2
Canon LBP9100C
  4

  6

 40
0.0
 41
0.0
 42
0.0
 43
0.0
 44
0.0
 45
0.0
 46
0.0
 47
0.0
 48
0.0
 49
0.0
140
0.0
141
0.0
142
1.0
143
1.0
 70
   688
 72
     0
 73
     0
 74
     5
  7

 75
    16
147
1.0
148
0.0
149
0.0
100
AcDbLayout
  1
レイアウト1
 70
     0
 71
     1
 10
0.0
 20
0.0
 11
420.0
 21
297.0
 12
0.0
 22
0.0
 32
0.0
 14
1.000000000000000E+20
 24
1.000000000000000E+20
 34
1.000000000000000E+20
 15
-1.000000000000000E+20
 25
-1.000000000000000E+20
 35
-1.000000000000000E+20
146
0.0
 13
0.0
 23
0.0
 33
0.0
 16
1.0
 26
0.0
 36
0.0
 17
0.0
 27
1.0
 37
0.0
 76
     0
330
9E45
  0
MATERIAL
  5
A018
102
{ACAD_XDICTIONARY
360
A019
102
}
102
{ACAD_REACTORS
330
A00F
102
}
330
A00F
100
AcDbMaterial
  1
ByBlock
 72
     0
 43
0.0208333333333333
 43
0.0
 43
0.0
 43
0.0
 43
0.0
 43
0.0208333333333333
 43
0.0
 43
0.0
 43
0.0
 43
0.0
 43
1.0
 43
0.0
 43
0.0
 43
0.0
 43
0.0
 43
1.0
 77
     0
 47
0.0208333333333333
 47
0.0
 47
0.0
 47
0.0
 47
0.0
 47
0.0208333333333333
 47
0.0
 47
0.0
 47
0.0
 47
0.0
 47
1.0
 47
0.0
 47
0.0
 47
0.0
 47
0.0
 47
1.0
171
     0
 49
0.0208333333333333
 49
0.0
 49
0.0
 49
0.0
 49
0.0
 49
0.0208333333333333
 49
0.0
 49
0.0
 49
0.0
 49
0.0
 49
1.0
 49
0.0
 49
0.0
 49
0.0
 49
0.0
 49
1.0
175
     0
142
0.0208333333333333
142
0.0
142
0.0
142
0.0
142
0.0
142
0.0208333333333333
142
0.0
142
0.0
142
0.0
142
0.0
142
1.0
142
0.0
142
0.0
142
0.0
142
0.0
142
1.0
179
     0
144
0.0208333333333333
144
0.0
144
0.0
144
0.0
144
0.0
144
0.0208333333333333
144
0.0
144
0.0
144
0.0
144
0.0
144
1.0
144
0.0
144
0.0
144
0.0
144
0.0
144
1.0
147
0.0208333333333333
147
0.0
147
0.0
147
0.0
147
0.0
147
0.0208333333333333
147
0.0
147
0.0
147
0.0
147
0.0
147
1.0
147
0.0
147
0.0
147
0.0
147
0.0
147
1.0
  0
MATERIAL
  5
A010
102
{ACAD_XDICTIONARY
360
A011
102
}
102
{ACAD_REACTORS
330
A00F
102
}
330
A00F
100
AcDbMaterial
  1
ByLayer
 72
     0
 43
0.0208333333333333
 43
0.0
 43
0.0
 43
0.0
 43
0.0
 43
0.0208333333333333
 43
0.0
 43
0.0
 43
0.0
 43
0.0
 43
1.0
 43
0.0
 43
0.0
 43
0.0
 43
0.0
 43
1.0
 77
     0
 47
0.0208333333333333
 47
0.0
 47
0.0
 47
0.0
 47
0.0
 47
0.0208333333333333
 47
0.0
 47
0.0
 47
0.0
 47
0.0
 47
1.0
 47
0.0
 47
0.0
 47
0.0
 47
0.0
 47
1.0
171
     0
 49
0.0208333333333333
 49
0.0
 49
0.0
 49
0.0
 49
0.0
 49
0.0208333333333333
 49
0.0
 49
0.0
 49
0.0
 49
0.0
 49
1.0
 49
0.0
 49
0.0
 49
0.0
 49
0.0
 49
1.0
175
     0
142
0.0208333333333333
142
0.0
142
0.0
142
0.0
142
0.0
142
0.0208333333333333
142
0.0
142
0.0
142
0.0
142
0.0
142
1.0
142
0.0
142
0.0
142
0.0
142
0.0
142
1.0
179
     0
144
0.0208333333333333
144
0.0
144
0.0
144
0.0
144
0.0
144
0.0208333333333333
144
0.0
144
0.0
144
0.0
144
0.0
144
1.0
144
0.0
144
0.0
144
0.0
144
0.0
144
1.0
147
0.0208333333333333
147
0.0
147
0.0
147
0.0
147
0.0
147
0.0208333333333333
147
0.0
147
0.0
147
0.0
147
0.0
147
1.0
147
0.0
147
0.0
147
0.0
147
0.0
147
1.0
  0
MATERIAL
  5
A020
102
{ACAD_XDICTIONARY
360
A021
102
}
102
{ACAD_REACTORS
330
A00F
102
}
330
A00F
100
AcDbMaterial
  1
Global
 72
     0
 43
0.0208333333333333
 43
0.0
 43
0.0
 43
0.0
 43
0.0
 43
0.0208333333333333
 43
0.0
 43
0.0
 43
0.0
 43
0.0
 43
1.0
 43
0.0
 43
0.0
 43
0.0
 43
0.0
 43
1.0
 77
     0
 47
0.0208333333333333
 47
0.0
 47
0.0
 47
0.0
 47
0.0
 47
0.0208333333333333
 47
0.0
 47
0.0
 47
0.0
 47
0.0
 47
1.0
 47
0.0
 47
0.0
 47
0.0
 47
0.0
 47
1.0
171
     0
 49
0.0208333333333333
 49
0.0
 49
0.0
 49
0.0
 49
0.0
 49
0.0208333333333333
 49
0.0
 49
0.0
 49
0.0
 49
0.0
 49
1.0
 49
0.0
 49
0.0
 49
0.0
 49
0.0
 49
1.0
175
     0
142
0.0208333333333333
142
0.0
142
0.0
142
0.0
142
0.0
142
0.0208333333333333
142
0.0
142
0.0
142
0.0
142
0.0
142
1.0
142
0.0
142
0.0
142
0.0
142
0.0
142
1.0
179
     0
144
0.0208333333333333
144
0.0
144
0.0
144
0.0
144
0.0
144
0.0208333333333333
144
0.0
144
0.0
144
0.0
144
0.0
144
1.0
144
0.0
144
0.0
144
0.0
144
0.0
144
1.0
147
0.0208333333333333
147
0.0
147
0.0
147
0.0
147
0.0
147
0.0208333333333333
147
0.0
147
0.0
147
0.0
147
0.0
147
1.0
147
0.0
147
0.0
147
0.0
147
0.0
147
1.0
  0
MLEADERSTYLE
  5
A057
102
{ACAD_REACTORS
330
A056
102
}
330
A056
100
AcDbMLeaderStyle
170
     2
171
     1
172
     0
 90
        2
 40
0.0
 41
0.0
173
     1
 91
-1056964608
340
9E3E
 92
       -2
290
     1
 42
0.09
291
     1
 43
0.36
  3
Standard
 44
0.18
300

342
9E3C
174
     1
178
     6
175
     1
176
     0
 93
-1056964608
 45
0.18
292
     0
297
     0
 46
0.18
 94
-1056964608
 47
1.0
 49
1.0
140
1.0
293
     1
141
0.0
294
     1
177
     0
142
1.0
295
     0
296
     0
143
0.125
1001
ACAD_MLEADERVER
1070
     2
  0
MLINESTYLE
  5
9E42
102
{ACAD_REACTORS
330
9E41
102
}
330
9E41
100
AcDbMlineStyle
  2
STANDARD
 70
     0
  3

 62
   256
 51
90.0
 52
90.0
 71
     2
 49
0.5
 62
   256
  6
BYLAYER
 49
-0.5
 62
   256
  6
BYLAYER
  0
ACDBPLACEHOLDER
  5
A00E
102
{ACAD_REACTORS
330
A00D
102
}
330
A00D
  0
SCALE
  5
A045
102
{ACAD_REACTORS
330
A044
102
}
330
A044
100
AcDbScale
 70
     0
300
1:1
140
1.0
141
1.0
290
     1
  0
SCALE
  5
A046
102
{ACAD_REACTORS
330
A044
102
}
330
A044
100
AcDbScale
 70
     0
300
1/128" = 1'-0"
140
0.0078125
141
12.0
290
     0
  0
SCALE
  5
A047
102
{ACAD_REACTORS
330
A044
102
}
330
A044
100
AcDbScale
 70
     0
300
1/64" = 1'-0"
140
0.015625
141
12.0
290
     0
  0
SCALE
  5
A048
102
{ACAD_REACTORS
330
A044
102
}
330
A044
100
AcDbScale
 70
     0
300
1/32" = 1'-0"
140
0.03125
141
12.0
290
     0
  0
SCALE
  5
A049
102
{ACAD_REACTORS
330
A044
102
}
330
A044
100
AcDbScale
 70
     0
300
1/16" = 1'-0"
140
0.0625
141
12.0
290
     0
  0
SCALE
  5
A04A
102
{ACAD_REACTORS
330
A044
102
}
330
A044
100
AcDbScale
 70
     0
300
3/32" = 1'-0"
140
0.09375
141
12.0
290
     0
  0
SCALE
  5
A04B
102
{ACAD_REACTORS
330
A044
102
}
330
A044
100
AcDbScale
 70
     0
300
1/8" = 1'-0"
140
0.125
141
12.0
290
     0
  0
SCALE
  5
A04C
102
{ACAD_REACTORS
330
A044
102
}
330
A044
100
AcDbScale
 70
     0
300
3/16" = 1'-0"
140
0.1875
141
12.0
290
     0
  0
SCALE
  5
A04D
102
{ACAD_REACTORS
330
A044
102
}
330
A044
100
AcDbScale
 70
     0
300
1/4" = 1'-0"
140
0.25
141
12.0
290
     0
  0
SCALE
  5
A04E
102
{ACAD_REACTORS
330
A044
102
}
330
A044
100
AcDbScale
 70
     0
300
3/8" = 1'-0"
140
0.375
141
12.0
290
     0
  0
SCALE
  5
A04F
102
{ACAD_REACTORS
330
A044
102
}
330
A044
100
AcDbScale
 70
     0
300
1/2" = 1'-0"
140
0.5
141
12.0
290
     0
  0
SCALE
  5
A050
102
{ACAD_REACTORS
330
A044
102
}
330
A044
100
AcDbScale
 70
     0
300
3/4" = 1'-0"
140
0.75
141
12.0
290
     0
  0
SCALE
  5
A051
102
{ACAD_REACTORS
330
A044
102
}
330
A044
100
AcDbScale
 70
     0
300
1" = 1'-0"
140
1.0
141
12.0
290
     0
  0
SCALE
  5
A052
102
{ACAD_REACTORS
330
A044
102
}
330
A044
100
AcDbScale
 70
     0
300
1-1/2" = 1'-0"
140
1.5
141
12.0
290
     0
  0
SCALE
  5
A053
102
{ACAD_REACTORS
330
A044
102
}
330
A044
100
AcDbScale
 70
     0
300
3" = 1'-0"
140
3.0
141
12.0
290
     0
  0
SCALE
  5
A054
102
{ACAD_REACTORS
330
A044
102
}
330
A044
100
AcDbScale
 70
     0
300
6" = 1'-0"
140
6.0
141
12.0
290
     0
  0
SCALE
  5
A055
102
{ACAD_REACTORS
330
A044
102
}
330
A044
100
AcDbScale
 70
     0
300
1'-0" = 1'-0"
140
12.0
141
12.0
290
     0
  0
ACDBSECTIONVIEWSTYLE
  5
A059
102
{ACAD_XDICTIONARY
360
A0B4
102
}
102
{ACAD_REACTORS
330
A058
102
}
330
A058
100
AcDbModelDocViewStyle
 70
     0
  3
Imperial24
290
     0
100
AcDbSectionViewStyle
 70
     0
 71
     0
 90
       78
 71
     1
340
9E3C
 40
0.24
340
0
340
0
 40
0.24
300
I, O, Q, S, X, Z
 40
0.48
 90
        3
 40
0.18
 90
        1
 71
     2
340
9E40
 90
       25
340
9E40
 90
       50
 40
0.24
 40
0.0
 40
0.24
 71
     3
340
9E3C
 40
0.24
 90
        1
 40
0.75
 90
        1
300
%<\AcVar ViewType \f "%tc1">% %<\AcVar ViewSectionStartId>%-%<\AcVar ViewSectionEndId>%\PSCALE %<\AcVar ViewScale \f "%sn">%
 71
     4
300
ANSI31
 40
1.0
 90
        0
290
     0
290
     0
 90
        6
 40
0.0
 40
1.570796326794896
 40
0.2617993877991494
 40
1.308996938995747
 40
-0.2617993877991494
 40
1.832595714594046
  0
TABLESTYLE
  5
A043
102
{ACAD_XDICTIONARY
360
A07B
102
}
102
{ACAD_REACTORS
330
A042
102
}
330
A042
100
AcDbTableStyle
  3
Standard
 70
     0
 71
     0
 40
0.06
 41
0.06
280
     0
281
     0
  7
STANDARD
140
0.18
170
     2
 62
     0
 63
     7
283
     0
274
    -2
284
     1
 64
     0
275
    -2
285
     1
 65
     0
276
    -2
286
     1
 66
     0
277
    -2
287
     1
 67
     0
278
    -2
288
     1
 68
     0
279
    -2
289
     1
 69
     0
  7
STANDARD
140
0.25
170
     5
 62
     0
 63
     7
283
     0
274
    -2
284
     1
 64
     0
275
    -2
285
     1
 65
     0
276
    -2
286
     1
 66
     0
277
    -2
287
     1
 67
     0
278
    -2
288
     1
 68
     0
279
    -2
289
     1
 69
     0
  7
STANDARD
140
0.18
170
     5
 62
     0
 63
     7
283
     0
274
    -2
284
     1
 64
     0
275
    -2
285
     1
 65
     0
276
    -2
286
     1
 66
     0
277
    -2
287
     1
 67
     0
278
    -2
288
     1
 68
     0
279
    -2
289
     1
 69
     0
  0
VISUALSTYLE
  5
A02E
102
{ACAD_XDICTIONARY
360
A08C
102
}
102
{ACAD_REACTORS
330
A028
102
}
330
A028
100
AcDbVisualStyle
  2
2dWireframe
 70
     4
 71
     0
 72
     2
 73
     0
 90
        0
 40
-0.6
 41
-30.0
 62
     5
 63
     7
 74
     1
 91
        4
 64
     7
 65
   257
 75
     1
175
     1
 42
1.0
 92
        0
 66
   257
 43
1.0
 76
     1
 77
     6
 78
     2
 67
     7
 79
     5
170
     0
171
     0
290
     0
174
     0
 93
        1
 44
0.0
173
     0
291
     0
 45
0.0
1001
ACAD
1000
AcDbSavedByObjectVersion
1070
     0
  0
VISUALSTYLE
  5
A02D
102
{ACAD_XDICTIONARY
360
A08A
102
}
102
{ACAD_REACTORS
330
A028
102
}
330
A028
100
AcDbVisualStyle
  2
Basic
 70
     7
 71
     1
 72
     0
 73
     1
 90
        0
 40
-0.6
 41
-30.0
 62
     5
 63
     7
 74
     0
 91
        4
 64
     7
 65
   257
 75
     1
175
     1
 42
1.0
 92
        8
 66
     7
 43
1.0
 76
     1
 77
     6
 78
     2
 67
     7
 79
     5
170
     0
171
     0
290
     0
174
     0
 93
        1
 44
0.0
173
     0
291
     1
 45
0.0
1001
ACAD
1000
AcDbSavedByObjectVersion
1070
     0
  0
VISUALSTYLE
  5
A034
102
{ACAD_XDICTIONARY
360
A098
102
}
102
{ACAD_REACTORS
330
A028
102
}
330
A028
100
AcDbVisualStyle
  2
Brighten
 70
    12
 71
     2
 72
     2
 73
     0
 90
        0
 40
-0.6
 41
-30.0
 62
     5
 63
     7
 74
     1
 91
        4
 64
     7
 65
   257
 75
     1
175
     1
 42
1.0
 92
        8
 66
     7
 43
1.0
 76
     1
 77
     6
 78
     2
 67
     7
 79
     5
170
     0
171
     0
290
     0
174
     0
 93
        1
 44
50.0
173
     0
291
     1
 45
0.0
1001
ACAD
1000
AcDbSavedByObjectVersion
1070
     0
  0
VISUALSTYLE
  5
A038
102
{ACAD_XDICTIONARY
360
A0A0
102
}
102
{ACAD_REACTORS
330
A028
102
}
330
A028
100
AcDbVisualStyle
  2
ColorChange
 70
    16
 71
     2
 72
     2
 73
     3
 90
        0
 40
-0.6
 41
-30.0
 62
     5
 63
     8
 74
     1
 91
        4
 64
     7
 65
   257
 75
     1
175
     1
 42
1.0
 92
        8
 66
     8
 43
1.0
 76
     1
 77
     6
 78
     2
 67
     7
 79
     5
170
     0
171
     0
290
     0
174
     0
 93
        1
 44
0.0
173
     0
291
     1
 45
0.0
1001
ACAD
1000
AcDbSavedByObjectVersion
1070
     0
  0
VISUALSTYLE
  5
A031
102
{ACAD_XDICTIONARY
360
A092
102
}
102
{ACAD_REACTORS
330
A028
102
}
330
A028
100
AcDbVisualStyle
  2
Conceptual
 70
     9
 71
     3
 72
     2
 73
     0
 90
        0
 40
-0.6
 41
-30.0
 62
     5
 63
     7
 74
     2
 91
        2
 64
     7
 65
   257
 75
     1
175
     1
 42
179.0
 92
        8
 66
     7
 43
1.0
 76
     1
 77
     6
 78
     2
 67
     7
 79
     3
170
     0
171
     0
290
     0
174
     0
 93
        1
 44
0.0
173
     0
291
     0
 45
0.0
1001
ACAD
1000
AcDbSavedByObjectVersion
1070
     0
  0
VISUALSTYLE
  5
A033
102
{ACAD_XDICTIONARY
360
A096
102
}
102
{ACAD_REACTORS
330
A028
102
}
330
A028
100
AcDbVisualStyle
  2
Dim
 70
    11
 71
     2
 72
     2
 73
     0
 90
        0
 40
-0.6
 41
-30.0
 62
     5
 63
     7
 74
     1
 91
        4
 64
     7
 65
   257
 75
     1
175
     1
 42
1.0
 92
        8
 66
     7
 43
1.0
 76
     1
 77
     6
 78
     2
 67
     7
 79
     5
170
     0
171
     0
290
     0
174
     0
 93
        1
 44
-50.0
173
     0
291
     1
 45
0.0
1001
ACAD
1000
AcDbSavedByObjectVersion
1070
     0
  0
VISUALSTYLE
  5
A040
102
{ACAD_XDICTIONARY
360
A0B0
102
}
102
{ACAD_REACTORS
330
A028
102
}
330
A028
100
AcDbVisualStyle
  2
EdgeColorOff
 70
    22
 71
     2
 72
     2
 73
     0
 90
        0
 40
-0.6
 41
-30.0
 62
     5
 63
     7
 74
     1
 91
        4
 64
     7
 65
   257
 75
     1
175
     1
 42
1.0
 92
        8
 66
     7
 43
1.0
 76
     1
 77
     6
 78
     2
 67
     7
 79
     5
170
     0
171
     0
290
     0
174
     0
 93
        1
 44
0.0
173
     0
291
     1
 45
0.0
1001
ACAD
1000
AcDbSavedByObjectVersion
1070
     0
  0
VISUALSTYLE
  5
A037
102
{ACAD_XDICTIONARY
360
A09E
102
}
102
{ACAD_REACTORS
330
A028
102
}
330
A028
100
AcDbVisualStyle
  2
Facepattern
 70
    15
 71
     2
 72
     2
 73
     0
 90
        0
 40
-0.6
 41
-30.0
 62
     5
 63
     7
 74
     1
 91
        4
 64
     7
 65
   257
 75
     1
175
     1
 42
1.0
 92
        8
 66
     7
 43
1.0
 76
     1
 77
     6
 78
     2
 67
     7
 79
     5
170
     0
171
     0
290
     0
174
     0
 93
        1
 44
0.0
173
     0
291
     1
 45
0.0
1001
ACAD
1000
AcDbSavedByObjectVersion
1070
     0
  0
VISUALSTYLE
  5
A029
102
{ACAD_XDICTIONARY
360
A082
102
}
102
{ACAD_REACTORS
330
A028
102
}
330
A028
100
AcDbVisualStyle
  2
Flat
 70
     0
 71
     2
 72
     1
 73
     1
 90
        2
 40
-0.6
 41
30.0
 62
     5
 63
     7
 74
     0
 91
        0
 64
     7
 65
   257
 75
     1
175
     1
 42
1.0
 92
        8
 66
     7
 43
1.0
 76
     1
 77
     6
 78
     2
 67
     7
 79
     5
170
     0
171
     0
290
     0
174
     0
 93
       13
 44
0.0
173
     0
291
     1
 45
0.0
1001
ACAD
1000
AcDbSavedByObjectVersion
1070
     0
  0
VISUALSTYLE
  5
A02A
102
{ACAD_XDICTIONARY
360
A084
102
}
102
{ACAD_REACTORS
330
A028
102
}
330
A028
100
AcDbVisualStyle
  2
FlatWithEdges
 70
     1
 71
     2
 72
     1
 73
     1
 90
        2
 40
-0.6
 41
30.0
 62
     5
 63
     7
 74
     1
 91
        0
 64
     7
 65
   257
 75
     1
175
     1
 42
1.0
 92
        0
 66
   257
 43
1.0
 76
     1
 77
     6
 78
     2
 67
     7
 79
     5
170
     0
171
     0
290
     0
174
     0
 93
       13
 44
0.0
173
     0
291
     1
 45
0.0
1001
ACAD
1000
AcDbSavedByObjectVersion
1070
     0
  0
VISUALSTYLE
  5
A02B
102
{ACAD_XDICTIONARY
360
A086
102
}
102
{ACAD_REACTORS
330
A028
102
}
330
A028
100
AcDbVisualStyle
  2
Gouraud
 70
     2
 71
     2
 72
     2
 73
     1
 90
        2
 40
-0.6
 41
30.0
 62
     5
 63
     7
 74
     0
 91
        0
 64
     7
 65
   257
 75
     1
175
     1
 42
1.0
 92
        0
 66
     7
 43
1.0
 76
     1
 77
     6
 78
     2
 67
     7
 79
     5
170
     0
171
     0
290
     0
174
     0
 93
       13
 44
0.0
173
     0
291
     1
 45
0.0
1001
ACAD
1000
AcDbSavedByObjectVersion
1070
     0
  0
VISUALSTYLE
  5
A02C
102
{ACAD_XDICTIONARY
360
A088
102
}
102
{ACAD_REACTORS
330
A028
102
}
330
A028
100
AcDbVisualStyle
  2
GouraudWithEdges
 70
     3
 71
     2
 72
     2
 73
     1
 90
        2
 40
-0.6
 41
30.0
 62
     5
 63
     7
 74
     1
 91
        0
 64
     7
 65
   257
 75
     1
175
     1
 42
1.0
 92
        0
 66
   257
 43
1.0
 76
     1
 77
     6
 78
     2
 67
     7
 79
     5
170
     0
171
     0
290
     0
174
     0
 93
       13
 44
0.0
173
     0
291
     1
 45
0.0
1001
ACAD
1000
AcDbSavedByObjectVersion
1070
     0
  0
VISUALSTYLE
  5
A030
102
{ACAD_XDICTIONARY
360
A090
102
}
102
{ACAD_REACTORS
330
A028
102
}
330
A028
100
AcDbVisualStyle
  2
Hidden
 70
     6
 71
     1
 72
     2
 73
     2
 90
        0
 40
-0.6
 41
-30.0
 62
     5
 63
     7
 74
     2
 91
        2
 64
     7
 65
   257
 75
     2
175
     1
 42
40.0
 92
        0
 66
   257
 43
1.0
 76
     1
 77
     6
 78
     2
 67
     7
 79
     3
170
     0
171
     0
290
     0
174
     0
 93
        1
 44
0.0
173
     0
291
     0
 45
0.0
1001
ACAD
1000
AcDbSavedByObjectVersion
1070
     0
  0
VISUALSTYLE
  5
A03E
102
{ACAD_XDICTIONARY
360
A0AC
102
}
102
{ACAD_REACTORS
330
A028
102
}
330
A028
100
AcDbVisualStyle
  2
JitterOff
 70
    20
 71
     2
 72
     2
 73
     0
 90
        0
 40
-0.6
 41
-30.0
 62
     5
 63
     7
 74
     1
 91
        4
 64
     7
 65
   257
 75
     1
175
     1
 42
1.0
 92
       10
 66
     7
 43
1.0
 76
     1
 77
     6
 78
     2
 67
     7
 79
     5
170
     0
171
     0
290
     0
174
     0
 93
        1
 44
0.0
173
     0
291
     1
 45
0.0
1001
ACAD
1000
AcDbSavedByObjectVersion
1070
     0
  0
VISUALSTYLE
  5
A036
102
{ACAD_XDICTIONARY
360
A09C
102
}
102
{ACAD_REACTORS
330
A028
102
}
330
A028
100
AcDbVisualStyle
  2
Linepattern
 70
    14
 71
     2
 72
     2
 73
     0
 90
        0
 40
-0.6
 41
-30.0
 62
     5
 63
     7
 74
     1
 91
        4
 64
     7
 65
   257
 75
     7
175
     7
 42
1.0
 92
        8
 66
     7
 43
1.0
 76
     1
 77
     6
 78
     2
 67
     7
 79
     5
170
     0
171
     0
290
     0
174
     0
 93
        1
 44
0.0
173
     0
291
     1
 45
0.0
1001
ACAD
1000
AcDbSavedByObjectVersion
1070
     0
  0
VISUALSTYLE
  5
A03F
102
{ACAD_XDICTIONARY
360
A0AE
102
}
102
{ACAD_REACTORS
330
A028
102
}
330
A028
100
AcDbVisualStyle
  2
OverhangOff
 70
    21
 71
     2
 72
     2
 73
     0
 90
        0
 40
-0.6
 41
-30.0
 62
     5
 63
     7
 74
     1
 91
        4
 64
     7
 65
   257
 75
     1
175
     1
 42
1.0
 92
        9
 66
     7
 43
1.0
 76
     1
 77
     6
 78
     2
 67
     7
 79
     5
170
     0
171
     0
290
     0
174
     0
 93
        1
 44
0.0
173
     0
291
     1
 45
0.0
1001
ACAD
1000
AcDbSavedByObjectVersion
1070
     0
  0
VISUALSTYLE
  5
A032
102
{ACAD_XDICTIONARY
360
A094
102
}
102
{ACAD_REACTORS
330
A028
102
}
330
A028
100
AcDbVisualStyle
  2
Realistic
 70
     8
 71
     2
 72
     3
 73
     0
 90
        2
 40
-0.6
 41
30.0
 62
     5
 63
     7
 74
     0
 91
        0
 64
     7
 65
   257
 75
     1
175
     1
 42
1.0
 92
        8
 66
   257
 43
1.0
 76
     1
 77
     6
 78
     2
 67
     7
 79
     3
170
     0
171
     0
290
     0
174
     0
 93
       13
 44
0.0
173
     0
291
     0
 45
0.0
1001
ACAD
1000
AcDbSavedByObjectVersion
1070
     0
  0
VISUALSTYLE
  5
A03D
102
{ACAD_XDICTIONARY
360
A0AA
102
}
102
{ACAD_REACTORS
330
A028
102
}
330
A028
100
AcDbVisualStyle
  2
Shaded
 70
    27
 71
     2
 72
     2
 73
     1
 90
        2
 40
-0.6
 41
30.0
 62
     5
 63
     7
 74
     0
 91
        4
 64
     7
 65
   257
 75
     1
175
     1
 42
1.0
 92
        8
 66
   257
 43
1.0
 76
     1
 77
     6
 78
     2
 67
     8
 79
     3
170
     0
171
     0
290
     0
174
     0
 93
        5
 44
0.0
173
     0
291
     0
 45
0.0
1001
ACAD
1000
AcDbSavedByObjectVersion
1070
     0
  0
VISUALSTYLE
  5
A03C
102
{ACAD_XDICTIONARY
360
A0A8
102
}
102
{ACAD_REACTORS
330
A028
102
}
330
A028
100
AcDbVisualStyle
  2
Shaded with edges
 70
    26
 71
     2
 72
     2
 73
     1
 90
        2
 40
-0.6
 41
30.0
 62
     5
 63
     7
 74
     1
 91
       10
 64
     7
 65
   257
 75
     2
175
     1
 42
1.0
 92
        8
 66
   257
 43
1.0
 76
     1
 77
     6
 78
     2
 67
     7
 79
     3
170
     0
171
     0
290
     0
174
     0
 93
        5
 44
0.0
173
     0
291
     0
 45
0.0
1001
ACAD
1000
AcDbSavedByObjectVersion
1070
     0
  0
VISUALSTYLE
  5
A039
102
{ACAD_XDICTIONARY
360
A0A2
102
}
102
{ACAD_REACTORS
330
A028
102
}
330
A028
100
AcDbVisualStyle
  2
Shades of Gray
 70
    23
 71
     2
 72
     2
 73
     3
 90
        0
 40
-0.6
 41
-30.0
 62
     5
 63
     7
 74
     2
 91
        2
 64
     7
 65
     7
 75
     1
175
     1
 42
40.0
 92
        8
 66
     7
 43
1.0
 76
     1
 77
     6
 78
     2
 67
     7
 79
     3
170
     0
171
     0
290
     0
174
     0
 93
        1
 44
0.0
173
     0
291
     0
 45
0.0
1001
ACAD
1000
AcDbSavedByObjectVersion
1070
     0
  0
VISUALSTYLE
  5
A03A
102
{ACAD_XDICTIONARY
360
A0A4
102
}
102
{ACAD_REACTORS
330
A028
102
}
330
A028
100
AcDbVisualStyle
  2
Sketchy
 70
    24
 71
     1
 72
     2
 73
     2
 90
        0
 40
-0.6
 41
-30.0
 62
     5
 63
     7
 74
     2
 91
        2
 64
     7
 65
     7
 75
     1
175
     1
 42
40.0
 92
       11
 66
     7
 43
1.0
 76
     1
 77
     6
 78
     2
 67
     7
 79
     6
170
     0
171
     0
290
     0
174
     0
 93
        1
 44
0.0
173
     0
291
     0
 45
0.0
1001
ACAD
1000
AcDbSavedByObjectVersion
1070
     0
  0
VISUALSTYLE
  5
A035
102
{ACAD_XDICTIONARY
360
A09A
102
}
102
{ACAD_REACTORS
330
A028
102
}
330
A028
100
AcDbVisualStyle
  2
Thicken
 70
    13
 71
     2
 72
     2
 73
     0
 90
        0
 40
-0.6
 41
-30.0
 62
     5
 63
     7
 74
     1
 91
        4
 64
     7
 65
   257
 75
     1
175
     1
 42
1.0
 92
       12
 66
     7
 43
1.0
 76
     1
 77
     6
 78
     2
 67
     7
 79
     5
170
     0
171
     0
290
     0
174
     0
 93
        1
 44
0.0
173
     0
291
     1
 45
0.0
1001
ACAD
1000
AcDbSavedByObjectVersion
1070
     0
  0
VISUALSTYLE
  5
A02F
102
{ACAD_XDICTIONARY
360
A08E
102
}
102
{ACAD_REACTORS
330
A028
102
}
330
A028
100
AcDbVisualStyle
  2
Wireframe
 70
     5
 71
     0
 72
     2
 73
     0
 90
        0
 40
-0.6
 41
-30.0
 62
     5
 63
     7
 74
     1
 91
        4
 64
     7
 65
   257
 75
     1
175
     1
 42
1.0
 92
        0
 66
   257
 43
1.0
 76
     1
 77
     6
 78
     2
 67
     7
 79
     3
170
     0
171
     0
290
     0
174
     0
 93
        1
 44
0.0
173
     0
291
     0
 45
0.0
1001
ACAD
1000
AcDbSavedByObjectVersion
1070
     0
  0
VISUALSTYLE
  5
A03B
102
{ACAD_XDICTIONARY
360
A0A6
102
}
102
{ACAD_REACTORS
330
A028
102
}
330
A028
100
AcDbVisualStyle
  2
X-Ray
 70
    25
 71
     2
 72
     2
 73
     1
 90
        1
 40
0.5
 41
-30.0
 62
     5
 63
     7
 74
     1
 91
        0
 64
     7
 65
   257
 75
     1
175
     1
 42
1.0
 92
        8
 66
     7
 43
1.0
 76
     1
 77
     6
 78
     2
 67
     7
 79
     3
170
     0
171
     0
290
     0
174
     0
 93
       13
 44
0.0
173
     0
291
     0
 45
0.0
1001
ACAD
1000
AcDbSavedByObjectVersion
1070
     0
  0
DICTIONARYVAR
  5
A075
102
{ACAD_REACTORS
330
A070
102
}
330
A070
100
DictionaryVariables
280
     0
  1
1:1
  0
DICTIONARYVAR
  5
A072
102
{ACAD_REACTORS
330
A070
102
}
330
A070
100
DictionaryVariables
280
     0
  1
STANDARD
  0
DICTIONARYVAR
  5
A071
102
{ACAD_REACTORS
330
A070
102
}
330
A070
100
DictionaryVariables
280
     0
  1
STANDARD
  0
DICTIONARYVAR
  5
A073
102
{ACAD_REACTORS
330
A070
102
}
330
A070
100
DictionaryVariables
280
     0
  1
Imperial24
  0
DICTIONARYVAR
  5
A074
102
{ACAD_REACTORS
330
A070
102
}
330
A070
100
DictionaryVariables
280
     0
  1
Imperial24
  0
DICTIONARYVAR
  5
A078
102
{ACAD_REACTORS
330
A070
102
}
330
A070
100
DictionaryVariables
280
     0
  1
1
  0
DICTIONARYVAR
  5
A077
102
{ACAD_REACTORS
330
A070
102
}
330
A070
100
DictionaryVariables
280
     0
  1
0
  0
DICTIONARYVAR
  5
A076
102
{ACAD_REACTORS
330
A070
102
}
330
A070
100
DictionaryVariables
280
     0
  1
127
  0
DICTIONARYVAR
  5
A079
102
{ACAD_REACTORS
330
A070
102
}
330
A070
100
DictionaryVariables
280
     0
  1
2
  0
DICTIONARY
  5
A0B6
330
A05B
100
AcDbDictionary
280
     1
281
     1
  3
ACAD_XREC_ROUNDTRIP
360
A0B7
  0
DICTIONARY
  5
A0B8
330
A05C
100
AcDbDictionary
280
     1
281
     1
  3
ACAD_XREC_ROUNDTRIP
360
A0B9
  0
DICTIONARY
  5
A0BA
330
A05D
100
AcDbDictionary
280
     1
281
     1
  3
ACAD_XREC_ROUNDTRIP
360
A0BB
  0
DICTIONARY
  5
A019
330
A018
100
AcDbDictionary
280
     1
281
     1
  3
ACAD_XREC_ROUNDTRIP
360
A080
  3
BUMPTILE
360
A01B
  3
DIFFUSETILE
360
A01A
  3
OPACITYTILE
360
A01E
  3
REFLECTIONTILE
360
A01D
  3
REFRACTIONTILE
360
A01F
  3
SPECULARTILE
360
A01C
  0
DICTIONARY
  5
A011
330
A010
100
AcDbDictionary
280
     1
281
     1
  3
ACAD_XREC_ROUNDTRIP
360
A07F
  3
BUMPTILE
360
A013
  3
DIFFUSETILE
360
A012
  3
OPACITYTILE
360
A016
  3
REFLECTIONTILE
360
A015
  3
REFRACTIONTILE
360
A017
  3
SPECULARTILE
360
A014
  0
DICTIONARY
  5
A021
330
A020
100
AcDbDictionary
280
     1
281
     1
  3
ACAD_XREC_ROUNDTRIP
360
A081
  3
BUMPTILE
360
A023
  3
DIFFUSETILE
360
A022
  3
OPACITYTILE
360
A026
  3
REFLECTIONTILE
360
A025
  3
REFRACTIONTILE
360
A027
  3
SPECULARTILE
360
A024
  0
DICTIONARY
  5
A0B4
330
A059
100
AcDbDictionary
280
     1
281
     1
  3
ACAD_XREC_ROUNDTRIP
360
A0B5
  0
DICTIONARY
  5
A07B
330
A043
100
AcDbDictionary
280
     1
281
     1
  3
ACAD_ROUNDTRIP_2008_TABLESTYLE_CELLSTYLEMAP
360
A07C
  3
ACAD_XREC_ROUNDTRIP
360
A0B2
  0
DICTIONARY
  5
A08C
330
A02E
100
AcDbDictionary
280
     1
281
     1
  3
ACAD_XREC_ROUNDTRIP
360
A08D
  0
DICTIONARY
  5
A08A
330
A02D
100
AcDbDictionary
280
     1
281
     1
  3
ACAD_XREC_ROUNDTRIP
360
A08B
  0
DICTIONARY
  5
A098
330
A034
100
AcDbDictionary
280
     1
281
     1
  3
ACAD_XREC_ROUNDTRIP
360
A099
  0
DICTIONARY
  5
A0A0
330
A038
100
AcDbDictionary
280
     1
281
     1
  3
ACAD_XREC_ROUNDTRIP
360
A0A1
  0
DICTIONARY
  5
A092
330
A031
100
AcDbDictionary
280
     1
281
     1
  3
ACAD_XREC_ROUNDTRIP
360
A093
  0
DICTIONARY
  5
A096
330
A033
100
AcDbDictionary
280
     1
281
     1
  3
ACAD_XREC_ROUNDTRIP
360
A097
  0
DICTIONARY
  5
A0B0
330
A040
100
AcDbDictionary
280
     1
281
     1
  3
ACAD_XREC_ROUNDTRIP
360
A0B1
  0
DICTIONARY
  5
A09E
330
A037
100
AcDbDictionary
280
     1
281
     1
  3
ACAD_XREC_ROUNDTRIP
360
A09F
  0
DICTIONARY
  5
A082
330
A029
100
AcDbDictionary
280
     1
281
     1
  3
ACAD_XREC_ROUNDTRIP
360
A083
  0
DICTIONARY
  5
A084
330
A02A
100
AcDbDictionary
280
     1
281
     1
  3
ACAD_XREC_ROUNDTRIP
360
A085
  0
DICTIONARY
  5
A086
330
A02B
100
AcDbDictionary
280
     1
281
     1
  3
ACAD_XREC_ROUNDTRIP
360
A087
  0
DICTIONARY
  5
A088
330
A02C
100
AcDbDictionary
280
     1
281
     1
  3
ACAD_XREC_ROUNDTRIP
360
A089
  0
DICTIONARY
  5
A090
330
A030
100
AcDbDictionary
280
     1
281
     1
  3
ACAD_XREC_ROUNDTRIP
360
A091
  0
DICTIONARY
  5
A0AC
330
A03E
100
AcDbDictionary
280
     1
281
     1
  3
ACAD_XREC_ROUNDTRIP
360
A0AD
  0
DICTIONARY
  5
A09C
330
A036
100
AcDbDictionary
280
     1
281
     1
  3
ACAD_XREC_ROUNDTRIP
360
A09D
  0
DICTIONARY
  5
A0AE
330
A03F
100
AcDbDictionary
280
     1
281
     1
  3
ACAD_XREC_ROUNDTRIP
360
A0AF
  0
DICTIONARY
  5
A094
330
A032
100
AcDbDictionary
280
     1
281
     1
  3
ACAD_XREC_ROUNDTRIP
360
A095
  0
DICTIONARY
  5
A0AA
330
A03D
100
AcDbDictionary
280
     1
281
     1
  3
ACAD_XREC_ROUNDTRIP
360
A0AB
  0
DICTIONARY
  5
A0A8
330
A03C
100
AcDbDictionary
280
     1
281
     1
  3
ACAD_XREC_ROUNDTRIP
360
A0A9
  0
DICTIONARY
  5
A0A2
330
A039
100
AcDbDictionary
280
     1
281
     1
  3
ACAD_XREC_ROUNDTRIP
360
A0A3
  0
DICTIONARY
  5
A0A4
330
A03A
100
AcDbDictionary
280
     1
281
     1
  3
ACAD_XREC_ROUNDTRIP
360
A0A5
  0
DICTIONARY
  5
A09A
330
A035
100
AcDbDictionary
280
     1
281
     1
  3
ACAD_XREC_ROUNDTRIP
360
A09B
  0
DICTIONARY
  5
A08E
330
A02F
100
AcDbDictionary
280
     1
281
     1
  3
ACAD_XREC_ROUNDTRIP
360
A08F
  0
DICTIONARY
  5
A0A6
330
A03B
100
AcDbDictionary
280
     1
281
     1
  3
ACAD_XREC_ROUNDTRIP
360
A0A7
  0
XRECORD
  5
A0B7
102
{ACAD_REACTORS
330
A0B6
102
}
330
A0B6
100
AcDbXrecord
280
     1
102
DISPLAYNAME
  1
Imperial24
102
FLAGS
 90
        0
  0
XRECORD
  5
A0B9
102
{ACAD_REACTORS
330
A0B8
102
}
330
A0B8
100
AcDbXrecord
280
     1
102
SHADEPLOT
 70
     0
102
SHADEPLOTRESLEVEL
 70
     2
102
SHADEPLOTCUSTOMDPI
 70
   300
  0
XRECORD
  5
A0BB
102
{ACAD_REACTORS
330
A0BA
102
}
330
A0BA
100
AcDbXrecord
280
     1
102
SHADEPLOT
 70
     0
102
SHADEPLOTRESLEVEL
 70
     2
102
SHADEPLOTCUSTOMDPI
 70
   300
  0
XRECORD
  5
A080
102
{ACAD_REACTORS
330
A019
102
}
330
A019
100
AcDbXrecord
280
     1
102
MATERIAL
148
0.0
149
0.0
149
0.0
 93
        0
 94
      127
282
     0
 72
     0
 77
     0
171
     0
175
     0
179
     0
273
     0
  0
XRECORD
  5
A01B
102
{ACAD_REACTORS
330
A019
102
}
330
A019
100
AcDbXrecord
280
     1
270
     1
271
     1
  0
XRECORD
  5
A01A
102
{ACAD_REACTORS
330
A019
102
}
330
A019
100
AcDbXrecord
280
     1
270
     1
271
     1
  0
XRECORD
  5
A01E
102
{ACAD_REACTORS
330
A019
102
}
330
A019
100
AcDbXrecord
280
     1
270
     1
271
     1
  0
XRECORD
  5
A01D
102
{ACAD_REACTORS
330
A019
102
}
330
A019
100
AcDbXrecord
280
     1
270
     1
271
     1
  0
XRECORD
  5
A01F
102
{ACAD_REACTORS
330
A019
102
}
330
A019
100
AcDbXrecord
280
     1
270
     1
271
     1
  0
XRECORD
  5
A01C
102
{ACAD_REACTORS
330
A019
102
}
330
A019
100
AcDbXrecord
280
     1
270
     1
271
     1
  0
XRECORD
  5
A07F
102
{ACAD_REACTORS
330
A011
102
}
330
A011
100
AcDbXrecord
280
     1
102
MATERIAL
148
0.0
149
0.0
149
0.0
 93
        0
 94
      127
282
     0
 72
     0
 77
     0
171
     0
175
     0
179
     0
273
     0
  0
XRECORD
  5
A013
102
{ACAD_REACTORS
330
A011
102
}
330
A011
100
AcDbXrecord
280
     1
270
     1
271
     1
  0
XRECORD
  5
A012
102
{ACAD_REACTORS
330
A011
102
}
330
A011
100
AcDbXrecord
280
     1
270
     1
271
     1
  0
XRECORD
  5
A016
102
{ACAD_REACTORS
330
A011
102
}
330
A011
100
AcDbXrecord
280
     1
270
     1
271
     1
  0
XRECORD
  5
A015
102
{ACAD_REACTORS
330
A011
102
}
330
A011
100
AcDbXrecord
280
     1
270
     1
271
     1
  0
XRECORD
  5
A017
102
{ACAD_REACTORS
330
A011
102
}
330
A011
100
AcDbXrecord
280
     1
270
     1
271
     1
  0
XRECORD
  5
A014
102
{ACAD_REACTORS
330
A011
102
}
330
A011
100
AcDbXrecord
280
     1
270
     1
271
     1
  0
XRECORD
  5
A081
102
{ACAD_REACTORS
330
A021
102
}
330
A021
100
AcDbXrecord
280
     1
102
MATERIAL
148
0.0
149
0.0
149
0.0
 93
        0
 94
      127
282
     0
 72
     0
 77
     0
171
     0
175
     0
179
     0
273
     0
  0
XRECORD
  5
A023
102
{ACAD_REACTORS
330
A021
102
}
330
A021
100
AcDbXrecord
280
     1
270
     1
271
     1
  0
XRECORD
  5
A022
102
{ACAD_REACTORS
330
A021
102
}
330
A021
100
AcDbXrecord
280
     1
270
     1
271
     1
  0
XRECORD
  5
A026
102
{ACAD_REACTORS
330
A021
102
}
330
A021
100
AcDbXrecord
280
     1
270
     1
271
     1
  0
XRECORD
  5
A025
102
{ACAD_REACTORS
330
A021
102
}
330
A021
100
AcDbXrecord
280
     1
270
     1
271
     1
  0
XRECORD
  5
A027
102
{ACAD_REACTORS
330
A021
102
}
330
A021
100
AcDbXrecord
280
     1
270
     1
271
     1
  0
XRECORD
  5
A024
102
{ACAD_REACTORS
330
A021
102
}
330
A021
100
AcDbXrecord
280
     1
270
     1
271
     1
  0
XRECORD
  5
A0B5
102
{ACAD_REACTORS
330
A0B4
102
}
330
A0B4
100
AcDbXrecord
280
     1
102
DISPLAYNAME
  1
Imperial24
102
FLAGS
 90
        0
  0
CELLSTYLEMAP
  5
A07C
102
{ACAD_REACTORS
330
A07B
102
}
330
A07B
100
AcDbCellStyleMap
 90
        3
300
CELLSTYLE
  1
TABLEFORMAT_BEGIN
 90
        5
170
     1
 91
        0
 92
    32768
 62
   257
 93
        1
300
CONTENTFORMAT
  1
CONTENTFORMAT_BEGIN
 90
        0
 91
        0
 92
      512
 93
        0
300

 40
0.0
140
1.0
 94
        5
 62
     0
340
9E3C
144
0.25
309
CONTENTFORMAT_END
171
     0
 94
        0
309
TABLEFORMAT_END
  1
CELLSTYLE_BEGIN
 90
        1
 91
        1
300
_TITLE
309
CELLSTYLE_END
300
CELLSTYLE
  1
TABLEFORMAT_BEGIN
 90
        5
170
     1
 91
        0
 92
        0
 62
   257
 93
        1
300
CONTENTFORMAT
  1
CONTENTFORMAT_BEGIN
 90
        0
 91
        0
 92
      512
 93
        0
300

 40
0.0
140
1.0
 94
        5
 62
     0
340
9E3C
144
0.18
309
CONTENTFORMAT_END
171
     0
 94
        0
309
TABLEFORMAT_END
  1
CELLSTYLE_BEGIN
 90
        2
 91
        1
300
_HEADER
309
CELLSTYLE_END
300
CELLSTYLE
  1
TABLEFORMAT_BEGIN
 90
        5
170
     1
 91
        0
 92
        0
 62
   257
 93
        1
300
CONTENTFORMAT
  1
CONTENTFORMAT_BEGIN
 90
        0
 91
        0
 92
      512
 93
        0
300

 40
0.0
140
1.0
 94
        2
 62
     0
340
9E3C
144
0.18
309
CONTENTFORMAT_END
171
     0
 94
        0
309
TABLEFORMAT_END
  1
CELLSTYLE_BEGIN
 90
        3
 91
        2
300
_DATA
309
CELLSTYLE_END
  0
XRECORD
  5
A0B2
102
{ACAD_REACTORS
330
A07B
102
}
330
A07B
100
AcDbXrecord
280
     1
102
ACAD_ROUNDTRIP_PRE2007_TABLESTYLE
 90
      512
 91
        0
  1

 92
      512
 93
        0
  2

 94
      512
 95
        0
  3

  0
XRECORD
  5
A08D
102
{ACAD_REACTORS
330
A08C
102
}
330
A08C
100
AcDbXrecord
280
     1
102
RTVSPost2010Prop28
280
     1
102
RTVSPost2010PropOp28
 70
     1
102
RTVSPost2010Prop29
280
     1
102
RTVSPost2010PropOp29
 70
     1
102
RTVSPost2010Prop30
280
     0
102
RTVSPost2010PropOp30
 70
     1
102
RTVSPost2010Prop31
280
     0
102
RTVSPost2010PropOp31
 70
     1
102
RTVSPost2010Prop32
280
     0
102
RTVSPost2010PropOp32
 70
     1
102
RTVSPost2010Prop33
280
     0
102
RTVSPost2010PropOp33
 70
     1
102
RTVSPost2010Prop34
280
     0
102
RTVSPost2010PropOp34
 70
     1
102
RTVSPost2010Prop35
280
     0
102
RTVSPost2010PropOp35
 70
     1
102
RTVSPost2010Prop36
280
     0
102
RTVSPost2010PropOp36
 70
     1
102
RTVSPost2010Prop37
 90
       50
102
RTVSPost2010PropOp37
 70
     1
102
RTVSPost2010Prop38
140
0.0
102
RTVSPost2010PropOp38
 70
     1
102
RTVSPost2010Prop39
140
1.0
102
RTVSPost2010PropOp39
 70
     1
102
RTVSPost2010Prop40
 90
        0
102
RTVSPost2010PropOp40
 70
     1
102
RTVSPost2010Prop41ColorIndex
 90
       18
102
RTVSPost2010Prop41ColorRGB
 90
        0
102
RTVSPost2010PropOp41
 70
     1
102
RTVSPost2010Prop42
 90
       50
102
RTVSPost2010PropOp42
 70
     1
102
RTVSPost2010Prop43
 90
        3
102
RTVSPost2010PropOp43
 70
     1
102
RTVSPost2010Prop44ColorIndex
 90
        5
102
RTVSPost2010Prop44ColorRGB
 90
      255
102
RTVSPost2010PropOp44
 70
     1
102
RTVSPost2010Prop45
280
     0
102
RTVSPost2010PropOp45
 70
     1
102
RTVSPost2010Prop46
 90
       50
102
RTVSPost2010PropOp46
 70
     1
102
RTVSPost2010Prop47
 90
       50
102
RTVSPost2010PropOp47
 70
     1
102
RTVSPost2010Prop48
 90
       50
102
RTVSPost2010PropOp48
 70
     1
102
RTVSPost2010Prop49
280
     0
102
RTVSPost2010PropOp49
 70
     1
102
RTVSPost2010Prop50
 90
       50
102
RTVSPost2010PropOp50
 70
     1
102
RTVSPost2010Prop51ColorIndex
 90
      256
102
RTVSPost2010Prop51ColorRGB
 90
-16777216
102
RTVSPost2010PropOp51
 70
     0
102
RTVSPost2010Prop52
140
1.0
102
RTVSPost2010PropOp52
 70
     0
102
RTVSPost2010Prop53
 90
        2
102
RTVSPost2010PropOp53
 70
     1
102
RTVSPost2010Prop54
  1
strokes_ogs.tif
102
RTVSPost2010PropOp54
 70
     1
102
RTVSPost2010Prop55
280
     0
102
RTVSPost2010PropOp55
 70
     1
102
RTVSPost2010Prop56
140
1.0
102
RTVSPost2010PropOp56
 70
     1
102
RTVSPost2010Prop57
140
1.0
102
RTVSPost2010PropOp57
 70
     1
102
RTVSPropertyOp0
 70
     1
102
RTVSPropertyOp1
 70
     1
102
RTVSPropertyOp2
 70
     1
102
RTVSPropertyOp3
 70
     1
102
RTVSPropertyOp4
 70
     1
102
RTVSPropertyOp5
 70
     1
102
RTVSPropertyOp6
 70
     1
102
RTVSPropertyOp7
 70
     1
102
RTVSPropertyOp8
 70
     1
102
RTVSPropertyOp9
 70
     1
102
RTVSPropertyOp10
 70
     1
102
RTVSPropertyOp11
 70
     1
102
RTVSPropertyOp12
 70
     1
102
RTVSPropertyOp13
 70
     1
102
RTVSPropertyOp14
 70
     1
102
RTVSPropertyOp15
 70
     1
102
RTVSPropertyOp16
 70
     1
102
RTVSPropertyOp17
 70
     1
102
RTVSPropertyOp18
 70
     1
102
RTVSPropertyOp19
 70
     1
102
RTVSPropertyOp20
 70
     1
102
RTVSPropertyOp21
 70
     1
102
RTVSPropertyOp22
 70
     1
102
RTVSPropertyOp23
 70
     1
102
RTVSPropertyOp24
 70
     1
102
RTVSPropertyOp25
 70
     1
102
RTVSPropertyOp26
 70
     1
102
RTVSPropertyOp27
 70
     1
102
RTVSPropertyOp28
 70
     1
102
RTVSPropertyOp29
 70
     1
102
RTVSPropertyOp30
 70
     1
102
RTVSPropertyOp31
 70
     1
102
RTVSPropertyOp32
 70
     1
102
RTVSPropertyOp33
 70
     1
102
RTVSPropertyOp34
 70
     1
102
RTVSPropertyOp35
 70
     1
102
RTVSPropertyOp36
 70
     1
102
RTVSPropertyOp37
 70
     1
102
RTVSPropertyOp38
 70
     1
102
RTVSPropertyOp39
 70
     1
102
RTVSPropertyOp40
 70
     1
102
RTVSPropertyOp41
 70
     1
102
RTVSPropertyOp42
 70
     1
102
RTVSPropertyOp43
 70
     1
102
RTVSPropertyOp44
 70
     1
102
RTVSPropertyOp45
 70
     1
102
RTVSPropertyOp46
 70
     1
102
RTVSPropertyOp47
 70
     1
102
RTVSPropertyOp48
 70
     1
102
RTVSPropertyOp49
 70
     1
102
RTVSPropertyOp50
 70
     1
102
RTVSPropertyOp51
 70
     0
102
RTVSPropertyOp52
 70
     0
102
RTVSPropertyOp53
 70
     1
102
RTVSPropertyOp54
 70
     1
102
RTVSPropertyOp55
 70
     1
102
RTVSPropertyOp56
 70
     1
102
RTVSPropertyOp57
 70
     1
102
RTVSPropertyOp58
 70
     1
102
RTVSPropertyOp59
 70
     1
102
RTVSPropertyOp60
 70
     1
102
RTVSPropertyOp61
 70
     1
102
RTVSPropertyOp62
 70
     1
  0
XRECORD
  5
A08B
102
{ACAD_REACTORS
330
A08A
102
}
330
A08A
100
AcDbXrecord
280
     1
102
RTVSPost2010Prop28
280
     0
102
RTVSPost2010PropOp28
 70
     1
102
RTVSPost2010Prop29
280
     1
102
RTVSPost2010PropOp29
 70
     1
102
RTVSPost2010Prop30
280
     1
102
RTVSPost2010PropOp30
 70
     1
102
RTVSPost2010Prop31
280
     0
102
RTVSPost2010PropOp31
 70
     1
102
RTVSPost2010Prop32
280
     0
102
RTVSPost2010PropOp32
 70
     1
102
RTVSPost2010Prop33
280
     0
102
RTVSPost2010PropOp33
 70
     1
102
RTVSPost2010Prop34
280
     0
102
RTVSPost2010PropOp34
 70
     1
102
RTVSPost2010Prop35
280
     0
102
RTVSPost2010PropOp35
 70
     1
102
RTVSPost2010Prop36
280
     0
102
RTVSPost2010PropOp36
 70
     1
102
RTVSPost2010Prop37
 90
       50
102
RTVSPost2010PropOp37
 70
     1
102
RTVSPost2010Prop38
140
0.0
102
RTVSPost2010PropOp38
 70
     1
102
RTVSPost2010Prop39
140
1.0
102
RTVSPost2010PropOp39
 70
     1
102
RTVSPost2010Prop40
 90
        0
102
RTVSPost2010PropOp40
 70
     1
102
RTVSPost2010Prop41ColorIndex
 90
       18
102
RTVSPost2010Prop41ColorRGB
 90
        0
102
RTVSPost2010PropOp41
 70
     1
102
RTVSPost2010Prop42
 90
       50
102
RTVSPost2010PropOp42
 70
     1
102
RTVSPost2010Prop43
 90
        3
102
RTVSPost2010PropOp43
 70
     1
102
RTVSPost2010Prop44ColorIndex
 90
        5
102
RTVSPost2010Prop44ColorRGB
 90
      255
102
RTVSPost2010PropOp44
 70
     1
102
RTVSPost2010Prop45
280
     0
102
RTVSPost2010PropOp45
 70
     1
102
RTVSPost2010Prop46
 90
       50
102
RTVSPost2010PropOp46
 70
     1
102
RTVSPost2010Prop47
 90
       50
102
RTVSPost2010PropOp47
 70
     1
102
RTVSPost2010Prop48
 90
       50
102
RTVSPost2010PropOp48
 70
     1
102
RTVSPost2010Prop49
280
     0
102
RTVSPost2010PropOp49
 70
     1
102
RTVSPost2010Prop50
 90
       50
102
RTVSPost2010PropOp50
 70
     1
102
RTVSPost2010Prop51ColorIndex
 90
      256
102
RTVSPost2010Prop51ColorRGB
 90
-16777216
102
RTVSPost2010PropOp51
 70
     0
102
RTVSPost2010Prop52
140
1.0
102
RTVSPost2010PropOp52
 70
     0
102
RTVSPost2010Prop53
 90
        2
102
RTVSPost2010PropOp53
 70
     1
102
RTVSPost2010Prop54
  1
strokes_ogs.tif
102
RTVSPost2010PropOp54
 70
     1
102
RTVSPost2010Prop55
280
     0
102
RTVSPost2010PropOp55
 70
     1
102
RTVSPost2010Prop56
140
1.0
102
RTVSPost2010PropOp56
 70
     1
102
RTVSPost2010Prop57
140
1.0
102
RTVSPost2010PropOp57
 70
     1
102
RTVSPropertyOp0
 70
     1
102
RTVSPropertyOp1
 70
     1
102
RTVSPropertyOp2
 70
     1
102
RTVSPropertyOp3
 70
     1
102
RTVSPropertyOp4
 70
     1
102
RTVSPropertyOp5
 70
     1
102
RTVSPropertyOp6
 70
     1
102
RTVSPropertyOp7
 70
     1
102
RTVSPropertyOp8
 70
     1
102
RTVSPropertyOp9
 70
     1
102
RTVSPropertyOp10
 70
     1
102
RTVSPropertyOp11
 70
     1
102
RTVSPropertyOp12
 70
     1
102
RTVSPropertyOp13
 70
     1
102
RTVSPropertyOp14
 70
     1
102
RTVSPropertyOp15
 70
     1
102
RTVSPropertyOp16
 70
     1
102
RTVSPropertyOp17
 70
     1
102
RTVSPropertyOp18
 70
     1
102
RTVSPropertyOp19
 70
     1
102
RTVSPropertyOp20
 70
     1
102
RTVSPropertyOp21
 70
     1
102
RTVSPropertyOp22
 70
     1
102
RTVSPropertyOp23
 70
     1
102
RTVSPropertyOp24
 70
     1
102
RTVSPropertyOp25
 70
     1
102
RTVSPropertyOp26
 70
     1
102
RTVSPropertyOp27
 70
     1
102
RTVSPropertyOp28
 70
     1
102
RTVSPropertyOp29
 70
     1
102
RTVSPropertyOp30
 70
     1
102
RTVSPropertyOp31
 70
     1
102
RTVSPropertyOp32
 70
     1
102
RTVSPropertyOp33
 70
     1
102
RTVSPropertyOp34
 70
     1
102
RTVSPropertyOp35
 70
     1
102
RTVSPropertyOp36
 70
     1
102
RTVSPropertyOp37
 70
     1
102
RTVSPropertyOp38
 70
     1
102
RTVSPropertyOp39
 70
     1
102
RTVSPropertyOp40
 70
     1
102
RTVSPropertyOp41
 70
     1
102
RTVSPropertyOp42
 70
     1
102
RTVSPropertyOp43
 70
     1
102
RTVSPropertyOp44
 70
     1
102
RTVSPropertyOp45
 70
     1
102
RTVSPropertyOp46
 70
     1
102
RTVSPropertyOp47
 70
     1
102
RTVSPropertyOp48
 70
     1
102
RTVSPropertyOp49
 70
     1
102
RTVSPropertyOp50
 70
     1
102
RTVSPropertyOp51
 70
     0
102
RTVSPropertyOp52
 70
     0
102
RTVSPropertyOp53
 70
     1
102
RTVSPropertyOp54
 70
     1
102
RTVSPropertyOp55
 70
     1
102
RTVSPropertyOp56
 70
     1
102
RTVSPropertyOp57
 70
     1
102
RTVSPropertyOp58
 70
     1
102
RTVSPropertyOp59
 70
     1
102
RTVSPropertyOp60
 70
     1
102
RTVSPropertyOp61
 70
     1
102
RTVSPropertyOp62
 70
     1
  0
XRECORD
  5
A099
102
{ACAD_REACTORS
330
A098
102
}
330
A098
100
AcDbXrecord
280
     1
102
RTVSPost2010Prop28
280
     0
102
RTVSPost2010PropOp28
 70
     1
102
RTVSPost2010Prop29
280
     1
102
RTVSPost2010PropOp29
 70
     1
102
RTVSPost2010Prop30
280
     1
102
RTVSPost2010PropOp30
 70
     1
102
RTVSPost2010Prop31
280
     0
102
RTVSPost2010PropOp31
 70
     1
102
RTVSPost2010Prop32
280
     0
102
RTVSPost2010PropOp32
 70
     1
102
RTVSPost2010Prop33
280
     0
102
RTVSPost2010PropOp33
 70
     1
102
RTVSPost2010Prop34
280
     0
102
RTVSPost2010PropOp34
 70
     1
102
RTVSPost2010Prop35
280
     0
102
RTVSPost2010PropOp35
 70
     1
102
RTVSPost2010Prop36
280
     0
102
RTVSPost2010PropOp36
 70
     1
102
RTVSPost2010Prop37
 90
       50
102
RTVSPost2010PropOp37
 70
     1
102
RTVSPost2010Prop38
140
0.0
102
RTVSPost2010PropOp38
 70
     1
102
RTVSPost2010Prop39
140
1.0
102
RTVSPost2010PropOp39
 70
     1
102
RTVSPost2010Prop40
 90
        0
102
RTVSPost2010PropOp40
 70
     1
102
RTVSPost2010Prop41ColorIndex
 90
       18
102
RTVSPost2010Prop41ColorRGB
 90
        0
102
RTVSPost2010PropOp41
 70
     1
102
RTVSPost2010Prop42
 90
       50
102
RTVSPost2010PropOp42
 70
     1
102
RTVSPost2010Prop43
 90
        3
102
RTVSPost2010PropOp43
 70
     1
102
RTVSPost2010Prop44ColorIndex
 90
        5
102
RTVSPost2010Prop44ColorRGB
 90
      255
102
RTVSPost2010PropOp44
 70
     1
102
RTVSPost2010Prop45
280
     0
102
RTVSPost2010PropOp45
 70
     1
102
RTVSPost2010Prop46
 90
       50
102
RTVSPost2010PropOp46
 70
     1
102
RTVSPost2010Prop47
 90
       50
102
RTVSPost2010PropOp47
 70
     1
102
RTVSPost2010Prop48
 90
       50
102
RTVSPost2010PropOp48
 70
     1
102
RTVSPost2010Prop49
280
     0
102
RTVSPost2010PropOp49
 70
     1
102
RTVSPost2010Prop50
 90
       50
102
RTVSPost2010PropOp50
 70
     1
102
RTVSPost2010Prop51ColorIndex
 90
      256
102
RTVSPost2010Prop51ColorRGB
 90
-16777216
102
RTVSPost2010PropOp51
 70
     0
102
RTVSPost2010Prop52
140
1.0
102
RTVSPost2010PropOp52
 70
     0
102
RTVSPost2010Prop53
 90
        2
102
RTVSPost2010PropOp53
 70
     1
102
RTVSPost2010Prop54
  1
strokes_ogs.tif
102
RTVSPost2010PropOp54
 70
     1
102
RTVSPost2010Prop55
280
     0
102
RTVSPost2010PropOp55
 70
     1
102
RTVSPost2010Prop56
140
1.0
102
RTVSPost2010PropOp56
 70
     1
102
RTVSPost2010Prop57
140
1.0
102
RTVSPost2010PropOp57
 70
     1
102
RTVSPropertyOp0
 70
     1
102
RTVSPropertyOp1
 70
     1
102
RTVSPropertyOp2
 70
     1
102
RTVSPropertyOp3
 70
     1
102
RTVSPropertyOp4
 70
     1
102
RTVSPropertyOp5
 70
     1
102
RTVSPropertyOp6
 70
     1
102
RTVSPropertyOp7
 70
     1
102
RTVSPropertyOp8
 70
     1
102
RTVSPropertyOp9
 70
     1
102
RTVSPropertyOp10
 70
     1
102
RTVSPropertyOp11
 70
     1
102
RTVSPropertyOp12
 70
     1
102
RTVSPropertyOp13
 70
     1
102
RTVSPropertyOp14
 70
     1
102
RTVSPropertyOp15
 70
     1
102
RTVSPropertyOp16
 70
     1
102
RTVSPropertyOp17
 70
     1
102
RTVSPropertyOp18
 70
     1
102
RTVSPropertyOp19
 70
     1
102
RTVSPropertyOp20
 70
     1
102
RTVSPropertyOp21
 70
     1
102
RTVSPropertyOp22
 70
     1
102
RTVSPropertyOp23
 70
     1
102
RTVSPropertyOp24
 70
     1
102
RTVSPropertyOp25
 70
     1
102
RTVSPropertyOp26
 70
     1
102
RTVSPropertyOp27
 70
     1
102
RTVSPropertyOp28
 70
     1
102
RTVSPropertyOp29
 70
     1
102
RTVSPropertyOp30
 70
     1
102
RTVSPropertyOp31
 70
     1
102
RTVSPropertyOp32
 70
     1
102
RTVSPropertyOp33
 70
     1
102
RTVSPropertyOp34
 70
     1
102
RTVSPropertyOp35
 70
     1
102
RTVSPropertyOp36
 70
     1
102
RTVSPropertyOp37
 70
     1
102
RTVSPropertyOp38
 70
     1
102
RTVSPropertyOp39
 70
     1
102
RTVSPropertyOp40
 70
     1
102
RTVSPropertyOp41
 70
     1
102
RTVSPropertyOp42
 70
     1
102
RTVSPropertyOp43
 70
     1
102
RTVSPropertyOp44
 70
     1
102
RTVSPropertyOp45
 70
     1
102
RTVSPropertyOp46
 70
     1
102
RTVSPropertyOp47
 70
     1
102
RTVSPropertyOp48
 70
     1
102
RTVSPropertyOp49
 70
     1
102
RTVSPropertyOp50
 70
     1
102
RTVSPropertyOp51
 70
     0
102
RTVSPropertyOp52
 70
     0
102
RTVSPropertyOp53
 70
     1
102
RTVSPropertyOp54
 70
     1
102
RTVSPropertyOp55
 70
     1
102
RTVSPropertyOp56
 70
     1
102
RTVSPropertyOp57
 70
     1
102
RTVSPropertyOp58
 70
     1
102
RTVSPropertyOp59
 70
     1
102
RTVSPropertyOp60
 70
     1
102
RTVSPropertyOp61
 70
     1
102
RTVSPropertyOp62
 70
     1
  0
XRECORD
  5
A0A1
102
{ACAD_REACTORS
330
A0A0
102
}
330
A0A0
100
AcDbXrecord
280
     1
102
RTVSPost2010Prop28
280
     0
102
RTVSPost2010PropOp28
 70
     1
102
RTVSPost2010Prop29
280
     1
102
RTVSPost2010PropOp29
 70
     1
102
RTVSPost2010Prop30
280
     1
102
RTVSPost2010PropOp30
 70
     1
102
RTVSPost2010Prop31
280
     0
102
RTVSPost2010PropOp31
 70
     1
102
RTVSPost2010Prop32
280
     0
102
RTVSPost2010PropOp32
 70
     1
102
RTVSPost2010Prop33
280
     0
102
RTVSPost2010PropOp33
 70
     1
102
RTVSPost2010Prop34
280
     0
102
RTVSPost2010PropOp34
 70
     1
102
RTVSPost2010Prop35
280
     0
102
RTVSPost2010PropOp35
 70
     1
102
RTVSPost2010Prop36
280
     0
102
RTVSPost2010PropOp36
 70
     1
102
RTVSPost2010Prop37
 90
       50
102
RTVSPost2010PropOp37
 70
     1
102
RTVSPost2010Prop38
140
0.0
102
RTVSPost2010PropOp38
 70
     1
102
RTVSPost2010Prop39
140
1.0
102
RTVSPost2010PropOp39
 70
     1
102
RTVSPost2010Prop40
 90
        0
102
RTVSPost2010PropOp40
 70
     1
102
RTVSPost2010Prop41ColorIndex
 90
       18
102
RTVSPost2010Prop41ColorRGB
 90
        0
102
RTVSPost2010PropOp41
 70
     1
102
RTVSPost2010Prop42
 90
       50
102
RTVSPost2010PropOp42
 70
     1
102
RTVSPost2010Prop43
 90
        3
102
RTVSPost2010PropOp43
 70
     1
102
RTVSPost2010Prop44ColorIndex
 90
        5
102
RTVSPost2010Prop44ColorRGB
 90
      255
102
RTVSPost2010PropOp44
 70
     1
102
RTVSPost2010Prop45
280
     0
102
RTVSPost2010PropOp45
 70
     1
102
RTVSPost2010Prop46
 90
       50
102
RTVSPost2010PropOp46
 70
     1
102
RTVSPost2010Prop47
 90
       50
102
RTVSPost2010PropOp47
 70
     1
102
RTVSPost2010Prop48
 90
       50
102
RTVSPost2010PropOp48
 70
     1
102
RTVSPost2010Prop49
280
     0
102
RTVSPost2010PropOp49
 70
     1
102
RTVSPost2010Prop50
 90
       50
102
RTVSPost2010PropOp50
 70
     1
102
RTVSPost2010Prop51ColorIndex
 90
      256
102
RTVSPost2010Prop51ColorRGB
 90
-16777216
102
RTVSPost2010PropOp51
 70
     0
102
RTVSPost2010Prop52
140
1.0
102
RTVSPost2010PropOp52
 70
     0
102
RTVSPost2010Prop53
 90
        2
102
RTVSPost2010PropOp53
 70
     1
102
RTVSPost2010Prop54
  1
strokes_ogs.tif
102
RTVSPost2010PropOp54
 70
     1
102
RTVSPost2010Prop55
280
     0
102
RTVSPost2010PropOp55
 70
     1
102
RTVSPost2010Prop56
140
1.0
102
RTVSPost2010PropOp56
 70
     1
102
RTVSPost2010Prop57
140
1.0
102
RTVSPost2010PropOp57
 70
     1
102
RTVSPropertyOp0
 70
     1
102
RTVSPropertyOp1
 70
     1
102
RTVSPropertyOp2
 70
     1
102
RTVSPropertyOp3
 70
     1
102
RTVSPropertyOp4
 70
     1
102
RTVSPropertyOp5
 70
     1
102
RTVSPropertyOp6
 70
     1
102
RTVSPropertyOp7
 70
     1
102
RTVSPropertyOp8
 70
     1
102
RTVSPropertyOp9
 70
     1
102
RTVSPropertyOp10
 70
     1
102
RTVSPropertyOp11
 70
     1
102
RTVSPropertyOp12
 70
     1
102
RTVSPropertyOp13
 70
     1
102
RTVSPropertyOp14
 70
     1
102
RTVSPropertyOp15
 70
     1
102
RTVSPropertyOp16
 70
     1
102
RTVSPropertyOp17
 70
     1
102
RTVSPropertyOp18
 70
     1
102
RTVSPropertyOp19
 70
     1
102
RTVSPropertyOp20
 70
     1
102
RTVSPropertyOp21
 70
     1
102
RTVSPropertyOp22
 70
     1
102
RTVSPropertyOp23
 70
     1
102
RTVSPropertyOp24
 70
     1
102
RTVSPropertyOp25
 70
     1
102
RTVSPropertyOp26
 70
     1
102
RTVSPropertyOp27
 70
     1
102
RTVSPropertyOp28
 70
     1
102
RTVSPropertyOp29
 70
     1
102
RTVSPropertyOp30
 70
     1
102
RTVSPropertyOp31
 70
     1
102
RTVSPropertyOp32
 70
     1
102
RTVSPropertyOp33
 70
     1
102
RTVSPropertyOp34
 70
     1
102
RTVSPropertyOp35
 70
     1
102
RTVSPropertyOp36
 70
     1
102
RTVSPropertyOp37
 70
     1
102
RTVSPropertyOp38
 70
     1
102
RTVSPropertyOp39
 70
     1
102
RTVSPropertyOp40
 70
     1
102
RTVSPropertyOp41
 70
     1
102
RTVSPropertyOp42
 70
     1
102
RTVSPropertyOp43
 70
     1
102
RTVSPropertyOp44
 70
     1
102
RTVSPropertyOp45
 70
     1
102
RTVSPropertyOp46
 70
     1
102
RTVSPropertyOp47
 70
     1
102
RTVSPropertyOp48
 70
     1
102
RTVSPropertyOp49
 70
     1
102
RTVSPropertyOp50
 70
     1
102
RTVSPropertyOp51
 70
     0
102
RTVSPropertyOp52
 70
     0
102
RTVSPropertyOp53
 70
     1
102
RTVSPropertyOp54
 70
     1
102
RTVSPropertyOp55
 70
     1
102
RTVSPropertyOp56
 70
     1
102
RTVSPropertyOp57
 70
     1
102
RTVSPropertyOp58
 70
     1
102
RTVSPropertyOp59
 70
     1
102
RTVSPropertyOp60
 70
     1
102
RTVSPropertyOp61
 70
     1
102
RTVSPropertyOp62
 70
     1
  0
XRECORD
  5
A093
102
{ACAD_REACTORS
330
A092
102
}
330
A092
100
AcDbXrecord
280
     1
102
RTVSPost2010Prop28
280
     0
102
RTVSPost2010PropOp28
 70
     1
102
RTVSPost2010Prop29
280
     1
102
RTVSPost2010PropOp29
 70
     1
102
RTVSPost2010Prop30
280
     1
102
RTVSPost2010PropOp30
 70
     1
102
RTVSPost2010Prop31
280
     0
102
RTVSPost2010PropOp31
 70
     1
102
RTVSPost2010Prop32
280
     0
102
RTVSPost2010PropOp32
 70
     1
102
RTVSPost2010Prop33
280
     0
102
RTVSPost2010PropOp33
 70
     1
102
RTVSPost2010Prop34
280
     0
102
RTVSPost2010PropOp34
 70
     1
102
RTVSPost2010Prop35
280
     0
102
RTVSPost2010PropOp35
 70
     1
102
RTVSPost2010Prop36
280
     0
102
RTVSPost2010PropOp36
 70
     1
102
RTVSPost2010Prop37
 90
       50
102
RTVSPost2010PropOp37
 70
     1
102
RTVSPost2010Prop38
140
0.0
102
RTVSPost2010PropOp38
 70
     1
102
RTVSPost2010Prop39
140
1.0
102
RTVSPost2010PropOp39
 70
     1
102
RTVSPost2010Prop40
 90
        0
102
RTVSPost2010PropOp40
 70
     1
102
RTVSPost2010Prop41ColorIndex
 90
       18
102
RTVSPost2010Prop41ColorRGB
 90
        0
102
RTVSPost2010PropOp41
 70
     1
102
RTVSPost2010Prop42
 90
       50
102
RTVSPost2010PropOp42
 70
     1
102
RTVSPost2010Prop43
 90
        3
102
RTVSPost2010PropOp43
 70
     1
102
RTVSPost2010Prop44ColorIndex
 90
        5
102
RTVSPost2010Prop44ColorRGB
 90
      255
102
RTVSPost2010PropOp44
 70
     1
102
RTVSPost2010Prop45
280
     0
102
RTVSPost2010PropOp45
 70
     1
102
RTVSPost2010Prop46
 90
       50
102
RTVSPost2010PropOp46
 70
     1
102
RTVSPost2010Prop47
 90
       50
102
RTVSPost2010PropOp47
 70
     1
102
RTVSPost2010Prop48
 90
       50
102
RTVSPost2010PropOp48
 70
     1
102
RTVSPost2010Prop49
280
     0
102
RTVSPost2010PropOp49
 70
     1
102
RTVSPost2010Prop50
 90
       50
102
RTVSPost2010PropOp50
 70
     1
102
RTVSPost2010Prop51ColorIndex
 90
      256
102
RTVSPost2010Prop51ColorRGB
 90
-16777216
102
RTVSPost2010PropOp51
 70
     0
102
RTVSPost2010Prop52
140
1.0
102
RTVSPost2010PropOp52
 70
     0
102
RTVSPost2010Prop53
 90
        2
102
RTVSPost2010PropOp53
 70
     1
102
RTVSPost2010Prop54
  1
strokes_ogs.tif
102
RTVSPost2010PropOp54
 70
     1
102
RTVSPost2010Prop55
280
     0
102
RTVSPost2010PropOp55
 70
     1
102
RTVSPost2010Prop56
140
1.0
102
RTVSPost2010PropOp56
 70
     1
102
RTVSPost2010Prop57
140
1.0
102
RTVSPost2010PropOp57
 70
     1
102
RTVSPropertyOp0
 70
     1
102
RTVSPropertyOp1
 70
     1
102
RTVSPropertyOp2
 70
     1
102
RTVSPropertyOp3
 70
     1
102
RTVSPropertyOp4
 70
     1
102
RTVSPropertyOp5
 70
     1
102
RTVSPropertyOp6
 70
     1
102
RTVSPropertyOp7
 70
     1
102
RTVSPropertyOp8
 70
     1
102
RTVSPropertyOp9
 70
     1
102
RTVSPropertyOp10
 70
     1
102
RTVSPropertyOp11
 70
     1
102
RTVSPropertyOp12
 70
     1
102
RTVSPropertyOp13
 70
     1
102
RTVSPropertyOp14
 70
     1
102
RTVSPropertyOp15
 70
     1
102
RTVSPropertyOp16
 70
     1
102
RTVSPropertyOp17
 70
     1
102
RTVSPropertyOp18
 70
     1
102
RTVSPropertyOp19
 70
     1
102
RTVSPropertyOp20
 70
     1
102
RTVSPropertyOp21
 70
     1
102
RTVSPropertyOp22
 70
     1
102
RTVSPropertyOp23
 70
     1
102
RTVSPropertyOp24
 70
     1
102
RTVSPropertyOp25
 70
     1
102
RTVSPropertyOp26
 70
     1
102
RTVSPropertyOp27
 70
     1
102
RTVSPropertyOp28
 70
     1
102
RTVSPropertyOp29
 70
     1
102
RTVSPropertyOp30
 70
     1
102
RTVSPropertyOp31
 70
     1
102
RTVSPropertyOp32
 70
     1
102
RTVSPropertyOp33
 70
     1
102
RTVSPropertyOp34
 70
     1
102
RTVSPropertyOp35
 70
     1
102
RTVSPropertyOp36
 70
     1
102
RTVSPropertyOp37
 70
     1
102
RTVSPropertyOp38
 70
     1
102
RTVSPropertyOp39
 70
     1
102
RTVSPropertyOp40
 70
     1
102
RTVSPropertyOp41
 70
     1
102
RTVSPropertyOp42
 70
     1
102
RTVSPropertyOp43
 70
     1
102
RTVSPropertyOp44
 70
     1
102
RTVSPropertyOp45
 70
     1
102
RTVSPropertyOp46
 70
     1
102
RTVSPropertyOp47
 70
     1
102
RTVSPropertyOp48
 70
     1
102
RTVSPropertyOp49
 70
     1
102
RTVSPropertyOp50
 70
     1
102
RTVSPropertyOp51
 70
     0
102
RTVSPropertyOp52
 70
     0
102
RTVSPropertyOp53
 70
     1
102
RTVSPropertyOp54
 70
     1
102
RTVSPropertyOp55
 70
     1
102
RTVSPropertyOp56
 70
     1
102
RTVSPropertyOp57
 70
     1
102
RTVSPropertyOp58
 70
     1
102
RTVSPropertyOp59
 70
     1
102
RTVSPropertyOp60
 70
     1
102
RTVSPropertyOp61
 70
     1
102
RTVSPropertyOp62
 70
     1
  0
XRECORD
  5
A097
102
{ACAD_REACTORS
330
A096
102
}
330
A096
100
AcDbXrecord
280
     1
102
RTVSPost2010Prop28
280
     0
102
RTVSPost2010PropOp28
 70
     1
102
RTVSPost2010Prop29
280
     1
102
RTVSPost2010PropOp29
 70
     1
102
RTVSPost2010Prop30
280
     1
102
RTVSPost2010PropOp30
 70
     1
102
RTVSPost2010Prop31
280
     0
102
RTVSPost2010PropOp31
 70
     1
102
RTVSPost2010Prop32
280
     0
102
RTVSPost2010PropOp32
 70
     1
102
RTVSPost2010Prop33
280
     0
102
RTVSPost2010PropOp33
 70
     1
102
RTVSPost2010Prop34
280
     0
102
RTVSPost2010PropOp34
 70
     1
102
RTVSPost2010Prop35
280
     0
102
RTVSPost2010PropOp35
 70
     1
102
RTVSPost2010Prop36
280
     0
102
RTVSPost2010PropOp36
 70
     1
102
RTVSPost2010Prop37
 90
       50
102
RTVSPost2010PropOp37
 70
     1
102
RTVSPost2010Prop38
140
0.0
102
RTVSPost2010PropOp38
 70
     1
102
RTVSPost2010Prop39
140
1.0
102
RTVSPost2010PropOp39
 70
     1
102
RTVSPost2010Prop40
 90
        0
102
RTVSPost2010PropOp40
 70
     1
102
RTVSPost2010Prop41ColorIndex
 90
       18
102
RTVSPost2010Prop41ColorRGB
 90
        0
102
RTVSPost2010PropOp41
 70
     1
102
RTVSPost2010Prop42
 90
       50
102
RTVSPost2010PropOp42
 70
     1
102
RTVSPost2010Prop43
 90
        3
102
RTVSPost2010PropOp43
 70
     1
102
RTVSPost2010Prop44ColorIndex
 90
        5
102
RTVSPost2010Prop44ColorRGB
 90
      255
102
RTVSPost2010PropOp44
 70
     1
102
RTVSPost2010Prop45
280
     0
102
RTVSPost2010PropOp45
 70
     1
102
RTVSPost2010Prop46
 90
       50
102
RTVSPost2010PropOp46
 70
     1
102
RTVSPost2010Prop47
 90
       50
102
RTVSPost2010PropOp47
 70
     1
102
RTVSPost2010Prop48
 90
       50
102
RTVSPost2010PropOp48
 70
     1
102
RTVSPost2010Prop49
280
     0
102
RTVSPost2010PropOp49
 70
     1
102
RTVSPost2010Prop50
 90
       50
102
RTVSPost2010PropOp50
 70
     1
102
RTVSPost2010Prop51ColorIndex
 90
      256
102
RTVSPost2010Prop51ColorRGB
 90
-16777216
102
RTVSPost2010PropOp51
 70
     0
102
RTVSPost2010Prop52
140
1.0
102
RTVSPost2010PropOp52
 70
     0
102
RTVSPost2010Prop53
 90
        2
102
RTVSPost2010PropOp53
 70
     1
102
RTVSPost2010Prop54
  1
strokes_ogs.tif
102
RTVSPost2010PropOp54
 70
     1
102
RTVSPost2010Prop55
280
     0
102
RTVSPost2010PropOp55
 70
     1
102
RTVSPost2010Prop56
140
1.0
102
RTVSPost2010PropOp56
 70
     1
102
RTVSPost2010Prop57
140
1.0
102
RTVSPost2010PropOp57
 70
     1
102
RTVSPropertyOp0
 70
     1
102
RTVSPropertyOp1
 70
     1
102
RTVSPropertyOp2
 70
     1
102
RTVSPropertyOp3
 70
     1
102
RTVSPropertyOp4
 70
     1
102
RTVSPropertyOp5
 70
     1
102
RTVSPropertyOp6
 70
     1
102
RTVSPropertyOp7
 70
     1
102
RTVSPropertyOp8
 70
     1
102
RTVSPropertyOp9
 70
     1
102
RTVSPropertyOp10
 70
     1
102
RTVSPropertyOp11
 70
     1
102
RTVSPropertyOp12
 70
     1
102
RTVSPropertyOp13
 70
     1
102
RTVSPropertyOp14
 70
     1
102
RTVSPropertyOp15
 70
     1
102
RTVSPropertyOp16
 70
     1
102
RTVSPropertyOp17
 70
     1
102
RTVSPropertyOp18
 70
     1
102
RTVSPropertyOp19
 70
     1
102
RTVSPropertyOp20
 70
     1
102
RTVSPropertyOp21
 70
     1
102
RTVSPropertyOp22
 70
     1
102
RTVSPropertyOp23
 70
     1
102
RTVSPropertyOp24
 70
     1
102
RTVSPropertyOp25
 70
     1
102
RTVSPropertyOp26
 70
     1
102
RTVSPropertyOp27
 70
     1
102
RTVSPropertyOp28
 70
     1
102
RTVSPropertyOp29
 70
     1
102
RTVSPropertyOp30
 70
     1
102
RTVSPropertyOp31
 70
     1
102
RTVSPropertyOp32
 70
     1
102
RTVSPropertyOp33
 70
     1
102
RTVSPropertyOp34
 70
     1
102
RTVSPropertyOp35
 70
     1
102
RTVSPropertyOp36
 70
     1
102
RTVSPropertyOp37
 70
     1
102
RTVSPropertyOp38
 70
     1
102
RTVSPropertyOp39
 70
     1
102
RTVSPropertyOp40
 70
     1
102
RTVSPropertyOp41
 70
     1
102
RTVSPropertyOp42
 70
     1
102
RTVSPropertyOp43
 70
     1
102
RTVSPropertyOp44
 70
     1
102
RTVSPropertyOp45
 70
     1
102
RTVSPropertyOp46
 70
     1
102
RTVSPropertyOp47
 70
     1
102
RTVSPropertyOp48
 70
     1
102
RTVSPropertyOp49
 70
     1
102
RTVSPropertyOp50
 70
     1
102
RTVSPropertyOp51
 70
     0
102
RTVSPropertyOp52
 70
     0
102
RTVSPropertyOp53
 70
     1
102
RTVSPropertyOp54
 70
     1
102
RTVSPropertyOp55
 70
     1
102
RTVSPropertyOp56
 70
     1
102
RTVSPropertyOp57
 70
     1
102
RTVSPropertyOp58
 70
     1
102
RTVSPropertyOp59
 70
     1
102
RTVSPropertyOp60
 70
     1
102
RTVSPropertyOp61
 70
     1
102
RTVSPropertyOp62
 70
     1
  0
XRECORD
  5
A0B1
102
{ACAD_REACTORS
330
A0B0
102
}
330
A0B0
100
AcDbXrecord
280
     1
102
RTVSPost2010Prop28
280
     0
102
RTVSPost2010PropOp28
 70
     1
102
RTVSPost2010Prop29
280
     1
102
RTVSPost2010PropOp29
 70
     1
102
RTVSPost2010Prop30
280
     1
102
RTVSPost2010PropOp30
 70
     1
102
RTVSPost2010Prop31
280
     0
102
RTVSPost2010PropOp31
 70
     1
102
RTVSPost2010Prop32
280
     0
102
RTVSPost2010PropOp32
 70
     1
102
RTVSPost2010Prop33
280
     0
102
RTVSPost2010PropOp33
 70
     1
102
RTVSPost2010Prop34
280
     0
102
RTVSPost2010PropOp34
 70
     1
102
RTVSPost2010Prop35
280
     0
102
RTVSPost2010PropOp35
 70
     1
102
RTVSPost2010Prop36
280
     0
102
RTVSPost2010PropOp36
 70
     1
102
RTVSPost2010Prop37
 90
       50
102
RTVSPost2010PropOp37
 70
     0
102
RTVSPost2010Prop38
140
0.0
102
RTVSPost2010PropOp38
 70
     0
102
RTVSPost2010Prop39
140
1.0
102
RTVSPost2010PropOp39
 70
     0
102
RTVSPost2010Prop40
 90
        0
102
RTVSPost2010PropOp40
 70
     0
102
RTVSPost2010Prop41ColorIndex
 90
       18
102
RTVSPost2010Prop41ColorRGB
 90
        0
102
RTVSPost2010PropOp41
 70
     0
102
RTVSPost2010Prop42
 90
       50
102
RTVSPost2010PropOp42
 70
     0
102
RTVSPost2010Prop43
 90
        3
102
RTVSPost2010PropOp43
 70
     0
102
RTVSPost2010Prop44ColorIndex
 90
        5
102
RTVSPost2010Prop44ColorRGB
 90
      255
102
RTVSPost2010PropOp44
 70
     0
102
RTVSPost2010Prop45
280
     0
102
RTVSPost2010PropOp45
 70
     1
102
RTVSPost2010Prop46
 90
       50
102
RTVSPost2010PropOp46
 70
     0
102
RTVSPost2010Prop47
 90
       50
102
RTVSPost2010PropOp47
 70
     0
102
RTVSPost2010Prop48
 90
       50
102
RTVSPost2010PropOp48
 70
     0
102
RTVSPost2010Prop49
280
     0
102
RTVSPost2010PropOp49
 70
     1
102
RTVSPost2010Prop50
 90
       50
102
RTVSPost2010PropOp50
 70
     0
102
RTVSPost2010Prop51ColorIndex
 90
      256
102
RTVSPost2010Prop51ColorRGB
 90
-16777216
102
RTVSPost2010PropOp51
 70
     0
102
RTVSPost2010Prop52
140
1.0
102
RTVSPost2010PropOp52
 70
     0
102
RTVSPost2010Prop53
 90
        2
102
RTVSPost2010PropOp53
 70
     0
102
RTVSPost2010Prop54
  1
strokes_ogs.tif
102
RTVSPost2010PropOp54
 70
     0
102
RTVSPost2010Prop55
280
     0
102
RTVSPost2010PropOp55
 70
     1
102
RTVSPost2010Prop56
140
1.0
102
RTVSPost2010PropOp56
 70
     0
102
RTVSPost2010Prop57
140
1.0
102
RTVSPost2010PropOp57
 70
     0
102
RTVSPropertyOp0
 70
     0
102
RTVSPropertyOp1
 70
     0
102
RTVSPropertyOp2
 70
     0
102
RTVSPropertyOp3
 70
     0
102
RTVSPropertyOp4
 70
     0
102
RTVSPropertyOp5
 70
     0
102
RTVSPropertyOp6
 70
     0
102
RTVSPropertyOp7
 70
     0
102
RTVSPropertyOp8
 70
     0
102
RTVSPropertyOp9
 70
     0
102
RTVSPropertyOp10
 70
     0
102
RTVSPropertyOp11
 70
     0
102
RTVSPropertyOp12
 70
     0
102
RTVSPropertyOp13
 70
     0
102
RTVSPropertyOp14
 70
     2
102
RTVSPropertyOp15
 70
     0
102
RTVSPropertyOp16
 70
     0
102
RTVSPropertyOp17
 70
     0
102
RTVSPropertyOp18
 70
     0
102
RTVSPropertyOp19
 70
     0
102
RTVSPropertyOp20
 70
     0
102
RTVSPropertyOp21
 70
     0
102
RTVSPropertyOp22
 70
     0
102
RTVSPropertyOp23
 70
     0
102
RTVSPropertyOp24
 70
     0
102
RTVSPropertyOp25
 70
     0
102
RTVSPropertyOp26
 70
     0
102
RTVSPropertyOp27
 70
     0
102
RTVSPropertyOp28
 70
     1
102
RTVSPropertyOp29
 70
     1
102
RTVSPropertyOp30
 70
     1
102
RTVSPropertyOp31
 70
     1
102
RTVSPropertyOp32
 70
     1
102
RTVSPropertyOp33
 70
     1
102
RTVSPropertyOp34
 70
     1
102
RTVSPropertyOp35
 70
     1
102
RTVSPropertyOp36
 70
     1
102
RTVSPropertyOp37
 70
     0
102
RTVSPropertyOp38
 70
     0
102
RTVSPropertyOp39
 70
     0
102
RTVSPropertyOp40
 70
     0
102
RTVSPropertyOp41
 70
     0
102
RTVSPropertyOp42
 70
     0
102
RTVSPropertyOp43
 70
     0
102
RTVSPropertyOp44
 70
     0
102
RTVSPropertyOp45
 70
     1
102
RTVSPropertyOp46
 70
     0
102
RTVSPropertyOp47
 70
     0
102
RTVSPropertyOp48
 70
     0
102
RTVSPropertyOp49
 70
     1
102
RTVSPropertyOp50
 70
     0
102
RTVSPropertyOp51
 70
     0
102
RTVSPropertyOp52
 70
     0
102
RTVSPropertyOp53
 70
     0
102
RTVSPropertyOp54
 70
     0
102
RTVSPropertyOp55
 70
     1
102
RTVSPropertyOp56
 70
     0
102
RTVSPropertyOp57
 70
     0
102
RTVSPropertyOp58
 70
     0
102
RTVSPropertyOp59
 70
     0
102
RTVSPropertyOp60
 70
     0
102
RTVSPropertyOp61
 70
     0
102
RTVSPropertyOp62
 70
     0
  0
XRECORD
  5
A09F
102
{ACAD_REACTORS
330
A09E
102
}
330
A09E
100
AcDbXrecord
280
     1
102
RTVSPost2010Prop28
280
     0
102
RTVSPost2010PropOp28
 70
     1
102
RTVSPost2010Prop29
280
     1
102
RTVSPost2010PropOp29
 70
     1
102
RTVSPost2010Prop30
280
     1
102
RTVSPost2010PropOp30
 70
     1
102
RTVSPost2010Prop31
280
     0
102
RTVSPost2010PropOp31
 70
     1
102
RTVSPost2010Prop32
280
     0
102
RTVSPost2010PropOp32
 70
     1
102
RTVSPost2010Prop33
280
     0
102
RTVSPost2010PropOp33
 70
     1
102
RTVSPost2010Prop34
280
     0
102
RTVSPost2010PropOp34
 70
     1
102
RTVSPost2010Prop35
280
     0
102
RTVSPost2010PropOp35
 70
     1
102
RTVSPost2010Prop36
280
     0
102
RTVSPost2010PropOp36
 70
     1
102
RTVSPost2010Prop37
 90
       50
102
RTVSPost2010PropOp37
 70
     1
102
RTVSPost2010Prop38
140
0.0
102
RTVSPost2010PropOp38
 70
     1
102
RTVSPost2010Prop39
140
1.0
102
RTVSPost2010PropOp39
 70
     1
102
RTVSPost2010Prop40
 90
        0
102
RTVSPost2010PropOp40
 70
     1
102
RTVSPost2010Prop41ColorIndex
 90
       18
102
RTVSPost2010Prop41ColorRGB
 90
        0
102
RTVSPost2010PropOp41
 70
     1
102
RTVSPost2010Prop42
 90
       50
102
RTVSPost2010PropOp42
 70
     1
102
RTVSPost2010Prop43
 90
        3
102
RTVSPost2010PropOp43
 70
     1
102
RTVSPost2010Prop44ColorIndex
 90
        5
102
RTVSPost2010Prop44ColorRGB
 90
      255
102
RTVSPost2010PropOp44
 70
     1
102
RTVSPost2010Prop45
280
     0
102
RTVSPost2010PropOp45
 70
     1
102
RTVSPost2010Prop46
 90
       50
102
RTVSPost2010PropOp46
 70
     1
102
RTVSPost2010Prop47
 90
       50
102
RTVSPost2010PropOp47
 70
     1
102
RTVSPost2010Prop48
 90
       50
102
RTVSPost2010PropOp48
 70
     1
102
RTVSPost2010Prop49
280
     0
102
RTVSPost2010PropOp49
 70
     1
102
RTVSPost2010Prop50
 90
       50
102
RTVSPost2010PropOp50
 70
     1
102
RTVSPost2010Prop51ColorIndex
 90
      256
102
RTVSPost2010Prop51ColorRGB
 90
-16777216
102
RTVSPost2010PropOp51
 70
     0
102
RTVSPost2010Prop52
140
1.0
102
RTVSPost2010PropOp52
 70
     0
102
RTVSPost2010Prop53
 90
        2
102
RTVSPost2010PropOp53
 70
     1
102
RTVSPost2010Prop54
  1
strokes_ogs.tif
102
RTVSPost2010PropOp54
 70
     1
102
RTVSPost2010Prop55
280
     0
102
RTVSPost2010PropOp55
 70
     1
102
RTVSPost2010Prop56
140
1.0
102
RTVSPost2010PropOp56
 70
     1
102
RTVSPost2010Prop57
140
1.0
102
RTVSPost2010PropOp57
 70
     1
102
RTVSPropertyOp0
 70
     1
102
RTVSPropertyOp1
 70
     1
102
RTVSPropertyOp2
 70
     1
102
RTVSPropertyOp3
 70
     1
102
RTVSPropertyOp4
 70
     1
102
RTVSPropertyOp5
 70
     1
102
RTVSPropertyOp6
 70
     1
102
RTVSPropertyOp7
 70
     1
102
RTVSPropertyOp8
 70
     1
102
RTVSPropertyOp9
 70
     1
102
RTVSPropertyOp10
 70
     1
102
RTVSPropertyOp11
 70
     1
102
RTVSPropertyOp12
 70
     1
102
RTVSPropertyOp13
 70
     1
102
RTVSPropertyOp14
 70
     1
102
RTVSPropertyOp15
 70
     1
102
RTVSPropertyOp16
 70
     1
102
RTVSPropertyOp17
 70
     1
102
RTVSPropertyOp18
 70
     1
102
RTVSPropertyOp19
 70
     1
102
RTVSPropertyOp20
 70
     1
102
RTVSPropertyOp21
 70
     1
102
RTVSPropertyOp22
 70
     1
102
RTVSPropertyOp23
 70
     1
102
RTVSPropertyOp24
 70
     1
102
RTVSPropertyOp25
 70
     1
102
RTVSPropertyOp26
 70
     1
102
RTVSPropertyOp27
 70
     1
102
RTVSPropertyOp28
 70
     1
102
RTVSPropertyOp29
 70
     1
102
RTVSPropertyOp30
 70
     1
102
RTVSPropertyOp31
 70
     1
102
RTVSPropertyOp32
 70
     1
102
RTVSPropertyOp33
 70
     1
102
RTVSPropertyOp34
 70
     1
102
RTVSPropertyOp35
 70
     1
102
RTVSPropertyOp36
 70
     1
102
RTVSPropertyOp37
 70
     1
102
RTVSPropertyOp38
 70
     1
102
RTVSPropertyOp39
 70
     1
102
RTVSPropertyOp40
 70
     1
102
RTVSPropertyOp41
 70
     1
102
RTVSPropertyOp42
 70
     1
102
RTVSPropertyOp43
 70
     1
102
RTVSPropertyOp44
 70
     1
102
RTVSPropertyOp45
 70
     1
102
RTVSPropertyOp46
 70
     1
102
RTVSPropertyOp47
 70
     1
102
RTVSPropertyOp48
 70
     1
102
RTVSPropertyOp49
 70
     1
102
RTVSPropertyOp50
 70
     1
102
RTVSPropertyOp51
 70
     0
102
RTVSPropertyOp52
 70
     0
102
RTVSPropertyOp53
 70
     1
102
RTVSPropertyOp54
 70
     1
102
RTVSPropertyOp55
 70
     1
102
RTVSPropertyOp56
 70
     1
102
RTVSPropertyOp57
 70
     1
102
RTVSPropertyOp58
 70
     1
102
RTVSPropertyOp59
 70
     1
102
RTVSPropertyOp60
 70
     1
102
RTVSPropertyOp61
 70
     1
102
RTVSPropertyOp62
 70
     1
  0
XRECORD
  5
A083
102
{ACAD_REACTORS
330
A082
102
}
330
A082
100
AcDbXrecord
280
     1
102
RTVSPost2010Prop28
280
     0
102
RTVSPost2010PropOp28
 70
     1
102
RTVSPost2010Prop29
280
     1
102
RTVSPost2010PropOp29
 70
     1
102
RTVSPost2010Prop30
280
     1
102
RTVSPost2010PropOp30
 70
     1
102
RTVSPost2010Prop31
280
     0
102
RTVSPost2010PropOp31
 70
     1
102
RTVSPost2010Prop32
280
     0
102
RTVSPost2010PropOp32
 70
     1
102
RTVSPost2010Prop33
280
     0
102
RTVSPost2010PropOp33
 70
     1
102
RTVSPost2010Prop34
280
     0
102
RTVSPost2010PropOp34
 70
     1
102
RTVSPost2010Prop35
280
     0
102
RTVSPost2010PropOp35
 70
     1
102
RTVSPost2010Prop36
280
     0
102
RTVSPost2010PropOp36
 70
     1
102
RTVSPost2010Prop37
 90
       50
102
RTVSPost2010PropOp37
 70
     1
102
RTVSPost2010Prop38
140
0.0
102
RTVSPost2010PropOp38
 70
     1
102
RTVSPost2010Prop39
140
1.0
102
RTVSPost2010PropOp39
 70
     1
102
RTVSPost2010Prop40
 90
        0
102
RTVSPost2010PropOp40
 70
     1
102
RTVSPost2010Prop41ColorIndex
 90
       18
102
RTVSPost2010Prop41ColorRGB
 90
        0
102
RTVSPost2010PropOp41
 70
     1
102
RTVSPost2010Prop42
 90
       50
102
RTVSPost2010PropOp42
 70
     1
102
RTVSPost2010Prop43
 90
        3
102
RTVSPost2010PropOp43
 70
     1
102
RTVSPost2010Prop44ColorIndex
 90
        5
102
RTVSPost2010Prop44ColorRGB
 90
      255
102
RTVSPost2010PropOp44
 70
     1
102
RTVSPost2010Prop45
280
     0
102
RTVSPost2010PropOp45
 70
     1
102
RTVSPost2010Prop46
 90
       50
102
RTVSPost2010PropOp46
 70
     1
102
RTVSPost2010Prop47
 90
       50
102
RTVSPost2010PropOp47
 70
     1
102
RTVSPost2010Prop48
 90
       50
102
RTVSPost2010PropOp48
 70
     1
102
RTVSPost2010Prop49
280
     0
102
RTVSPost2010PropOp49
 70
     1
102
RTVSPost2010Prop50
 90
       50
102
RTVSPost2010PropOp50
 70
     1
102
RTVSPost2010Prop51ColorIndex
 90
      256
102
RTVSPost2010Prop51ColorRGB
 90
-16777216
102
RTVSPost2010PropOp51
 70
     0
102
RTVSPost2010Prop52
140
1.0
102
RTVSPost2010PropOp52
 70
     0
102
RTVSPost2010Prop53
 90
        2
102
RTVSPost2010PropOp53
 70
     1
102
RTVSPost2010Prop54
  1
strokes_ogs.tif
102
RTVSPost2010PropOp54
 70
     1
102
RTVSPost2010Prop55
280
     0
102
RTVSPost2010PropOp55
 70
     1
102
RTVSPost2010Prop56
140
1.0
102
RTVSPost2010PropOp56
 70
     1
102
RTVSPost2010Prop57
140
1.0
102
RTVSPost2010PropOp57
 70
     1
102
RTVSPropertyOp0
 70
     1
102
RTVSPropertyOp1
 70
     1
102
RTVSPropertyOp2
 70
     1
102
RTVSPropertyOp3
 70
     1
102
RTVSPropertyOp4
 70
     1
102
RTVSPropertyOp5
 70
     1
102
RTVSPropertyOp6
 70
     1
102
RTVSPropertyOp7
 70
     1
102
RTVSPropertyOp8
 70
     1
102
RTVSPropertyOp9
 70
     1
102
RTVSPropertyOp10
 70
     1
102
RTVSPropertyOp11
 70
     1
102
RTVSPropertyOp12
 70
     1
102
RTVSPropertyOp13
 70
     1
102
RTVSPropertyOp14
 70
     1
102
RTVSPropertyOp15
 70
     1
102
RTVSPropertyOp16
 70
     1
102
RTVSPropertyOp17
 70
     1
102
RTVSPropertyOp18
 70
     1
102
RTVSPropertyOp19
 70
     1
102
RTVSPropertyOp20
 70
     1
102
RTVSPropertyOp21
 70
     1
102
RTVSPropertyOp22
 70
     1
102
RTVSPropertyOp23
 70
     1
102
RTVSPropertyOp24
 70
     1
102
RTVSPropertyOp25
 70
     1
102
RTVSPropertyOp26
 70
     1
102
RTVSPropertyOp27
 70
     1
102
RTVSPropertyOp28
 70
     1
102
RTVSPropertyOp29
 70
     1
102
RTVSPropertyOp30
 70
     1
102
RTVSPropertyOp31
 70
     1
102
RTVSPropertyOp32
 70
     1
102
RTVSPropertyOp33
 70
     1
102
RTVSPropertyOp34
 70
     1
102
RTVSPropertyOp35
 70
     1
102
RTVSPropertyOp36
 70
     1
102
RTVSPropertyOp37
 70
     1
102
RTVSPropertyOp38
 70
     1
102
RTVSPropertyOp39
 70
     1
102
RTVSPropertyOp40
 70
     1
102
RTVSPropertyOp41
 70
     1
102
RTVSPropertyOp42
 70
     1
102
RTVSPropertyOp43
 70
     1
102
RTVSPropertyOp44
 70
     1
102
RTVSPropertyOp45
 70
     1
102
RTVSPropertyOp46
 70
     1
102
RTVSPropertyOp47
 70
     1
102
RTVSPropertyOp48
 70
     1
102
RTVSPropertyOp49
 70
     1
102
RTVSPropertyOp50
 70
     1
102
RTVSPropertyOp51
 70
     0
102
RTVSPropertyOp52
 70
     0
102
RTVSPropertyOp53
 70
     1
102
RTVSPropertyOp54
 70
     1
102
RTVSPropertyOp55
 70
     1
102
RTVSPropertyOp56
 70
     1
102
RTVSPropertyOp57
 70
     1
102
RTVSPropertyOp58
 70
     1
102
RTVSPropertyOp59
 70
     1
102
RTVSPropertyOp60
 70
     1
102
RTVSPropertyOp61
 70
     1
102
RTVSPropertyOp62
 70
     1
  0
XRECORD
  5
A085
102
{ACAD_REACTORS
330
A084
102
}
330
A084
100
AcDbXrecord
280
     1
102
RTVSPost2010Prop28
280
     0
102
RTVSPost2010PropOp28
 70
     1
102
RTVSPost2010Prop29
280
     1
102
RTVSPost2010PropOp29
 70
     1
102
RTVSPost2010Prop30
280
     1
102
RTVSPost2010PropOp30
 70
     1
102
RTVSPost2010Prop31
280
     0
102
RTVSPost2010PropOp31
 70
     1
102
RTVSPost2010Prop32
280
     0
102
RTVSPost2010PropOp32
 70
     1
102
RTVSPost2010Prop33
280
     0
102
RTVSPost2010PropOp33
 70
     1
102
RTVSPost2010Prop34
280
     0
102
RTVSPost2010PropOp34
 70
     1
102
RTVSPost2010Prop35
280
     0
102
RTVSPost2010PropOp35
 70
     1
102
RTVSPost2010Prop36
280
     0
102
RTVSPost2010PropOp36
 70
     1
102
RTVSPost2010Prop37
 90
       50
102
RTVSPost2010PropOp37
 70
     1
102
RTVSPost2010Prop38
140
0.0
102
RTVSPost2010PropOp38
 70
     1
102
RTVSPost2010Prop39
140
1.0
102
RTVSPost2010PropOp39
 70
     1
102
RTVSPost2010Prop40
 90
        0
102
RTVSPost2010PropOp40
 70
     1
102
RTVSPost2010Prop41ColorIndex
 90
       18
102
RTVSPost2010Prop41ColorRGB
 90
        0
102
RTVSPost2010PropOp41
 70
     1
102
RTVSPost2010Prop42
 90
       50
102
RTVSPost2010PropOp42
 70
     1
102
RTVSPost2010Prop43
 90
        3
102
RTVSPost2010PropOp43
 70
     1
102
RTVSPost2010Prop44ColorIndex
 90
        5
102
RTVSPost2010Prop44ColorRGB
 90
      255
102
RTVSPost2010PropOp44
 70
     1
102
RTVSPost2010Prop45
280
     0
102
RTVSPost2010PropOp45
 70
     1
102
RTVSPost2010Prop46
 90
       50
102
RTVSPost2010PropOp46
 70
     1
102
RTVSPost2010Prop47
 90
       50
102
RTVSPost2010PropOp47
 70
     1
102
RTVSPost2010Prop48
 90
       50
102
RTVSPost2010PropOp48
 70
     1
102
RTVSPost2010Prop49
280
     0
102
RTVSPost2010PropOp49
 70
     1
102
RTVSPost2010Prop50
 90
       50
102
RTVSPost2010PropOp50
 70
     1
102
RTVSPost2010Prop51ColorIndex
 90
      256
102
RTVSPost2010Prop51ColorRGB
 90
-16777216
102
RTVSPost2010PropOp51
 70
     0
102
RTVSPost2010Prop52
140
1.0
102
RTVSPost2010PropOp52
 70
     0
102
RTVSPost2010Prop53
 90
        2
102
RTVSPost2010PropOp53
 70
     1
102
RTVSPost2010Prop54
  1
strokes_ogs.tif
102
RTVSPost2010PropOp54
 70
     1
102
RTVSPost2010Prop55
280
     0
102
RTVSPost2010PropOp55
 70
     1
102
RTVSPost2010Prop56
140
1.0
102
RTVSPost2010PropOp56
 70
     1
102
RTVSPost2010Prop57
140
1.0
102
RTVSPost2010PropOp57
 70
     1
102
RTVSPropertyOp0
 70
     1
102
RTVSPropertyOp1
 70
     1
102
RTVSPropertyOp2
 70
     1
102
RTVSPropertyOp3
 70
     1
102
RTVSPropertyOp4
 70
     1
102
RTVSPropertyOp5
 70
     1
102
RTVSPropertyOp6
 70
     1
102
RTVSPropertyOp7
 70
     1
102
RTVSPropertyOp8
 70
     1
102
RTVSPropertyOp9
 70
     1
102
RTVSPropertyOp10
 70
     1
102
RTVSPropertyOp11
 70
     1
102
RTVSPropertyOp12
 70
     1
102
RTVSPropertyOp13
 70
     1
102
RTVSPropertyOp14
 70
     1
102
RTVSPropertyOp15
 70
     1
102
RTVSPropertyOp16
 70
     1
102
RTVSPropertyOp17
 70
     1
102
RTVSPropertyOp18
 70
     1
102
RTVSPropertyOp19
 70
     1
102
RTVSPropertyOp20
 70
     1
102
RTVSPropertyOp21
 70
     1
102
RTVSPropertyOp22
 70
     1
102
RTVSPropertyOp23
 70
     1
102
RTVSPropertyOp24
 70
     1
102
RTVSPropertyOp25
 70
     1
102
RTVSPropertyOp26
 70
     1
102
RTVSPropertyOp27
 70
     1
102
RTVSPropertyOp28
 70
     1
102
RTVSPropertyOp29
 70
     1
102
RTVSPropertyOp30
 70
     1
102
RTVSPropertyOp31
 70
     1
102
RTVSPropertyOp32
 70
     1
102
RTVSPropertyOp33
 70
     1
102
RTVSPropertyOp34
 70
     1
102
RTVSPropertyOp35
 70
     1
102
RTVSPropertyOp36
 70
     1
102
RTVSPropertyOp37
 70
     1
102
RTVSPropertyOp38
 70
     1
102
RTVSPropertyOp39
 70
     1
102
RTVSPropertyOp40
 70
     1
102
RTVSPropertyOp41
 70
     1
102
RTVSPropertyOp42
 70
     1
102
RTVSPropertyOp43
 70
     1
102
RTVSPropertyOp44
 70
     1
102
RTVSPropertyOp45
 70
     1
102
RTVSPropertyOp46
 70
     1
102
RTVSPropertyOp47
 70
     1
102
RTVSPropertyOp48
 70
     1
102
RTVSPropertyOp49
 70
     1
102
RTVSPropertyOp50
 70
     1
102
RTVSPropertyOp51
 70
     0
102
RTVSPropertyOp52
 70
     0
102
RTVSPropertyOp53
 70
     1
102
RTVSPropertyOp54
 70
     1
102
RTVSPropertyOp55
 70
     1
102
RTVSPropertyOp56
 70
     1
102
RTVSPropertyOp57
 70
     1
102
RTVSPropertyOp58
 70
     1
102
RTVSPropertyOp59
 70
     1
102
RTVSPropertyOp60
 70
     1
102
RTVSPropertyOp61
 70
     1
102
RTVSPropertyOp62
 70
     1
  0
XRECORD
  5
A087
102
{ACAD_REACTORS
330
A086
102
}
330
A086
100
AcDbXrecord
280
     1
102
RTVSPost2010Prop28
280
     0
102
RTVSPost2010PropOp28
 70
     1
102
RTVSPost2010Prop29
280
     1
102
RTVSPost2010PropOp29
 70
     1
102
RTVSPost2010Prop30
280
     1
102
RTVSPost2010PropOp30
 70
     1
102
RTVSPost2010Prop31
280
     0
102
RTVSPost2010PropOp31
 70
     1
102
RTVSPost2010Prop32
280
     0
102
RTVSPost2010PropOp32
 70
     1
102
RTVSPost2010Prop33
280
     0
102
RTVSPost2010PropOp33
 70
     1
102
RTVSPost2010Prop34
280
     0
102
RTVSPost2010PropOp34
 70
     1
102
RTVSPost2010Prop35
280
     0
102
RTVSPost2010PropOp35
 70
     1
102
RTVSPost2010Prop36
280
     0
102
RTVSPost2010PropOp36
 70
     1
102
RTVSPost2010Prop37
 90
       50
102
RTVSPost2010PropOp37
 70
     1
102
RTVSPost2010Prop38
140
0.0
102
RTVSPost2010PropOp38
 70
     1
102
RTVSPost2010Prop39
140
1.0
102
RTVSPost2010PropOp39
 70
     1
102
RTVSPost2010Prop40
 90
        0
102
RTVSPost2010PropOp40
 70
     1
102
RTVSPost2010Prop41ColorIndex
 90
       18
102
RTVSPost2010Prop41ColorRGB
 90
        0
102
RTVSPost2010PropOp41
 70
     1
102
RTVSPost2010Prop42
 90
       50
102
RTVSPost2010PropOp42
 70
     1
102
RTVSPost2010Prop43
 90
        3
102
RTVSPost2010PropOp43
 70
     1
102
RTVSPost2010Prop44ColorIndex
 90
        5
102
RTVSPost2010Prop44ColorRGB
 90
      255
102
RTVSPost2010PropOp44
 70
     1
102
RTVSPost2010Prop45
280
     0
102
RTVSPost2010PropOp45
 70
     1
102
RTVSPost2010Prop46
 90
       50
102
RTVSPost2010PropOp46
 70
     1
102
RTVSPost2010Prop47
 90
       50
102
RTVSPost2010PropOp47
 70
     1
102
RTVSPost2010Prop48
 90
       50
102
RTVSPost2010PropOp48
 70
     1
102
RTVSPost2010Prop49
280
     0
102
RTVSPost2010PropOp49
 70
     1
102
RTVSPost2010Prop50
 90
       50
102
RTVSPost2010PropOp50
 70
     1
102
RTVSPost2010Prop51ColorIndex
 90
      256
102
RTVSPost2010Prop51ColorRGB
 90
-16777216
102
RTVSPost2010PropOp51
 70
     0
102
RTVSPost2010Prop52
140
1.0
102
RTVSPost2010PropOp52
 70
     0
102
RTVSPost2010Prop53
 90
        2
102
RTVSPost2010PropOp53
 70
     1
102
RTVSPost2010Prop54
  1
strokes_ogs.tif
102
RTVSPost2010PropOp54
 70
     1
102
RTVSPost2010Prop55
280
     0
102
RTVSPost2010PropOp55
 70
     1
102
RTVSPost2010Prop56
140
1.0
102
RTVSPost2010PropOp56
 70
     1
102
RTVSPost2010Prop57
140
1.0
102
RTVSPost2010PropOp57
 70
     1
102
RTVSPropertyOp0
 70
     1
102
RTVSPropertyOp1
 70
     1
102
RTVSPropertyOp2
 70
     1
102
RTVSPropertyOp3
 70
     1
102
RTVSPropertyOp4
 70
     1
102
RTVSPropertyOp5
 70
     1
102
RTVSPropertyOp6
 70
     1
102
RTVSPropertyOp7
 70
     1
102
RTVSPropertyOp8
 70
     1
102
RTVSPropertyOp9
 70
     1
102
RTVSPropertyOp10
 70
     1
102
RTVSPropertyOp11
 70
     1
102
RTVSPropertyOp12
 70
     1
102
RTVSPropertyOp13
 70
     1
102
RTVSPropertyOp14
 70
     1
102
RTVSPropertyOp15
 70
     1
102
RTVSPropertyOp16
 70
     1
102
RTVSPropertyOp17
 70
     1
102
RTVSPropertyOp18
 70
     1
102
RTVSPropertyOp19
 70
     1
102
RTVSPropertyOp20
 70
     1
102
RTVSPropertyOp21
 70
     1
102
RTVSPropertyOp22
 70
     1
102
RTVSPropertyOp23
 70
     1
102
RTVSPropertyOp24
 70
     1
102
RTVSPropertyOp25
 70
     1
102
RTVSPropertyOp26
 70
     1
102
RTVSPropertyOp27
 70
     1
102
RTVSPropertyOp28
 70
     1
102
RTVSPropertyOp29
 70
     1
102
RTVSPropertyOp30
 70
     1
102
RTVSPropertyOp31
 70
     1
102
RTVSPropertyOp32
 70
     1
102
RTVSPropertyOp33
 70
     1
102
RTVSPropertyOp34
 70
     1
102
RTVSPropertyOp35
 70
     1
102
RTVSPropertyOp36
 70
     1
102
RTVSPropertyOp37
 70
     1
102
RTVSPropertyOp38
 70
     1
102
RTVSPropertyOp39
 70
     1
102
RTVSPropertyOp40
 70
     1
102
RTVSPropertyOp41
 70
     1
102
RTVSPropertyOp42
 70
     1
102
RTVSPropertyOp43
 70
     1
102
RTVSPropertyOp44
 70
     1
102
RTVSPropertyOp45
 70
     1
102
RTVSPropertyOp46
 70
     1
102
RTVSPropertyOp47
 70
     1
102
RTVSPropertyOp48
 70
     1
102
RTVSPropertyOp49
 70
     1
102
RTVSPropertyOp50
 70
     1
102
RTVSPropertyOp51
 70
     0
102
RTVSPropertyOp52
 70
     0
102
RTVSPropertyOp53
 70
     1
102
RTVSPropertyOp54
 70
     1
102
RTVSPropertyOp55
 70
     1
102
RTVSPropertyOp56
 70
     1
102
RTVSPropertyOp57
 70
     1
102
RTVSPropertyOp58
 70
     1
102
RTVSPropertyOp59
 70
     1
102
RTVSPropertyOp60
 70
     1
102
RTVSPropertyOp61
 70
     1
102
RTVSPropertyOp62
 70
     1
  0
XRECORD
  5
A089
102
{ACAD_REACTORS
330
A088
102
}
330
A088
100
AcDbXrecord
280
     1
102
RTVSPost2010Prop28
280
     0
102
RTVSPost2010PropOp28
 70
     1
102
RTVSPost2010Prop29
280
     1
102
RTVSPost2010PropOp29
 70
     1
102
RTVSPost2010Prop30
280
     1
102
RTVSPost2010PropOp30
 70
     1
102
RTVSPost2010Prop31
280
     0
102
RTVSPost2010PropOp31
 70
     1
102
RTVSPost2010Prop32
280
     0
102
RTVSPost2010PropOp32
 70
     1
102
RTVSPost2010Prop33
280
     0
102
RTVSPost2010PropOp33
 70
     1
102
RTVSPost2010Prop34
280
     0
102
RTVSPost2010PropOp34
 70
     1
102
RTVSPost2010Prop35
280
     0
102
RTVSPost2010PropOp35
 70
     1
102
RTVSPost2010Prop36
280
     0
102
RTVSPost2010PropOp36
 70
     1
102
RTVSPost2010Prop37
 90
       50
102
RTVSPost2010PropOp37
 70
     1
102
RTVSPost2010Prop38
140
0.0
102
RTVSPost2010PropOp38
 70
     1
102
RTVSPost2010Prop39
140
1.0
102
RTVSPost2010PropOp39
 70
     1
102
RTVSPost2010Prop40
 90
        0
102
RTVSPost2010PropOp40
 70
     1
102
RTVSPost2010Prop41ColorIndex
 90
       18
102
RTVSPost2010Prop41ColorRGB
 90
        0
102
RTVSPost2010PropOp41
 70
     1
102
RTVSPost2010Prop42
 90
       50
102
RTVSPost2010PropOp42
 70
     1
102
RTVSPost2010Prop43
 90
        3
102
RTVSPost2010PropOp43
 70
     1
102
RTVSPost2010Prop44ColorIndex
 90
        5
102
RTVSPost2010Prop44ColorRGB
 90
      255
102
RTVSPost2010PropOp44
 70
     1
102
RTVSPost2010Prop45
280
     0
102
RTVSPost2010PropOp45
 70
     1
102
RTVSPost2010Prop46
 90
       50
102
RTVSPost2010PropOp46
 70
     1
102
RTVSPost2010Prop47
 90
       50
102
RTVSPost2010PropOp47
 70
     1
102
RTVSPost2010Prop48
 90
       50
102
RTVSPost2010PropOp48
 70
     1
102
RTVSPost2010Prop49
280
     0
102
RTVSPost2010PropOp49
 70
     1
102
RTVSPost2010Prop50
 90
       50
102
RTVSPost2010PropOp50
 70
     1
102
RTVSPost2010Prop51ColorIndex
 90
      256
102
RTVSPost2010Prop51ColorRGB
 90
-16777216
102
RTVSPost2010PropOp51
 70
     0
102
RTVSPost2010Prop52
140
1.0
102
RTVSPost2010PropOp52
 70
     0
102
RTVSPost2010Prop53
 90
        2
102
RTVSPost2010PropOp53
 70
     1
102
RTVSPost2010Prop54
  1
strokes_ogs.tif
102
RTVSPost2010PropOp54
 70
     1
102
RTVSPost2010Prop55
280
     0
102
RTVSPost2010PropOp55
 70
     1
102
RTVSPost2010Prop56
140
1.0
102
RTVSPost2010PropOp56
 70
     1
102
RTVSPost2010Prop57
140
1.0
102
RTVSPost2010PropOp57
 70
     1
102
RTVSPropertyOp0
 70
     1
102
RTVSPropertyOp1
 70
     1
102
RTVSPropertyOp2
 70
     1
102
RTVSPropertyOp3
 70
     1
102
RTVSPropertyOp4
 70
     1
102
RTVSPropertyOp5
 70
     1
102
RTVSPropertyOp6
 70
     1
102
RTVSPropertyOp7
 70
     1
102
RTVSPropertyOp8
 70
     1
102
RTVSPropertyOp9
 70
     1
102
RTVSPropertyOp10
 70
     1
102
RTVSPropertyOp11
 70
     1
102
RTVSPropertyOp12
 70
     1
102
RTVSPropertyOp13
 70
     1
102
RTVSPropertyOp14
 70
     1
102
RTVSPropertyOp15
 70
     1
102
RTVSPropertyOp16
 70
     1
102
RTVSPropertyOp17
 70
     1
102
RTVSPropertyOp18
 70
     1
102
RTVSPropertyOp19
 70
     1
102
RTVSPropertyOp20
 70
     1
102
RTVSPropertyOp21
 70
     1
102
RTVSPropertyOp22
 70
     1
102
RTVSPropertyOp23
 70
     1
102
RTVSPropertyOp24
 70
     1
102
RTVSPropertyOp25
 70
     1
102
RTVSPropertyOp26
 70
     1
102
RTVSPropertyOp27
 70
     1
102
RTVSPropertyOp28
 70
     1
102
RTVSPropertyOp29
 70
     1
102
RTVSPropertyOp30
 70
     1
102
RTVSPropertyOp31
 70
     1
102
RTVSPropertyOp32
 70
     1
102
RTVSPropertyOp33
 70
     1
102
RTVSPropertyOp34
 70
     1
102
RTVSPropertyOp35
 70
     1
102
RTVSPropertyOp36
 70
     1
102
RTVSPropertyOp37
 70
     1
102
RTVSPropertyOp38
 70
     1
102
RTVSPropertyOp39
 70
     1
102
RTVSPropertyOp40
 70
     1
102
RTVSPropertyOp41
 70
     1
102
RTVSPropertyOp42
 70
     1
102
RTVSPropertyOp43
 70
     1
102
RTVSPropertyOp44
 70
     1
102
RTVSPropertyOp45
 70
     1
102
RTVSPropertyOp46
 70
     1
102
RTVSPropertyOp47
 70
     1
102
RTVSPropertyOp48
 70
     1
102
RTVSPropertyOp49
 70
     1
102
RTVSPropertyOp50
 70
     1
102
RTVSPropertyOp51
 70
     0
102
RTVSPropertyOp52
 70
     0
102
RTVSPropertyOp53
 70
     1
102
RTVSPropertyOp54
 70
     1
102
RTVSPropertyOp55
 70
     1
102
RTVSPropertyOp56
 70
     1
102
RTVSPropertyOp57
 70
     1
102
RTVSPropertyOp58
 70
     1
102
RTVSPropertyOp59
 70
     1
102
RTVSPropertyOp60
 70
     1
102
RTVSPropertyOp61
 70
     1
102
RTVSPropertyOp62
 70
     1
  0
XRECORD
  5
A091
102
{ACAD_REACTORS
330
A090
102
}
330
A090
100
AcDbXrecord
280
     1
102
RTVSPost2010Prop28
280
     0
102
RTVSPost2010PropOp28
 70
     1
102
RTVSPost2010Prop29
280
     1
102
RTVSPost2010PropOp29
 70
     1
102
RTVSPost2010Prop30
280
     1
102
RTVSPost2010PropOp30
 70
     1
102
RTVSPost2010Prop31
280
     0
102
RTVSPost2010PropOp31
 70
     1
102
RTVSPost2010Prop32
280
     0
102
RTVSPost2010PropOp32
 70
     1
102
RTVSPost2010Prop33
280
     0
102
RTVSPost2010PropOp33
 70
     1
102
RTVSPost2010Prop34
280
     0
102
RTVSPost2010PropOp34
 70
     1
102
RTVSPost2010Prop35
280
     0
102
RTVSPost2010PropOp35
 70
     1
102
RTVSPost2010Prop36
280
     0
102
RTVSPost2010PropOp36
 70
     1
102
RTVSPost2010Prop37
 90
       50
102
RTVSPost2010PropOp37
 70
     1
102
RTVSPost2010Prop38
140
0.0
102
RTVSPost2010PropOp38
 70
     1
102
RTVSPost2010Prop39
140
1.0
102
RTVSPost2010PropOp39
 70
     1
102
RTVSPost2010Prop40
 90
        0
102
RTVSPost2010PropOp40
 70
     1
102
RTVSPost2010Prop41ColorIndex
 90
       18
102
RTVSPost2010Prop41ColorRGB
 90
        0
102
RTVSPost2010PropOp41
 70
     1
102
RTVSPost2010Prop42
 90
       50
102
RTVSPost2010PropOp42
 70
     1
102
RTVSPost2010Prop43
 90
        3
102
RTVSPost2010PropOp43
 70
     1
102
RTVSPost2010Prop44ColorIndex
 90
        5
102
RTVSPost2010Prop44ColorRGB
 90
      255
102
RTVSPost2010PropOp44
 70
     1
102
RTVSPost2010Prop45
280
     0
102
RTVSPost2010PropOp45
 70
     1
102
RTVSPost2010Prop46
 90
       50
102
RTVSPost2010PropOp46
 70
     1
102
RTVSPost2010Prop47
 90
       50
102
RTVSPost2010PropOp47
 70
     1
102
RTVSPost2010Prop48
 90
       50
102
RTVSPost2010PropOp48
 70
     1
102
RTVSPost2010Prop49
280
     0
102
RTVSPost2010PropOp49
 70
     1
102
RTVSPost2010Prop50
 90
       50
102
RTVSPost2010PropOp50
 70
     1
102
RTVSPost2010Prop51ColorIndex
 90
      256
102
RTVSPost2010Prop51ColorRGB
 90
-16777216
102
RTVSPost2010PropOp51
 70
     0
102
RTVSPost2010Prop52
140
1.0
102
RTVSPost2010PropOp52
 70
     0
102
RTVSPost2010Prop53
 90
        2
102
RTVSPost2010PropOp53
 70
     1
102
RTVSPost2010Prop54
  1
strokes_ogs.tif
102
RTVSPost2010PropOp54
 70
     1
102
RTVSPost2010Prop55
280
     0
102
RTVSPost2010PropOp55
 70
     1
102
RTVSPost2010Prop56
140
1.0
102
RTVSPost2010PropOp56
 70
     1
102
RTVSPost2010Prop57
140
1.0
102
RTVSPost2010PropOp57
 70
     1
102
RTVSPropertyOp0
 70
     1
102
RTVSPropertyOp1
 70
     1
102
RTVSPropertyOp2
 70
     1
102
RTVSPropertyOp3
 70
     1
102
RTVSPropertyOp4
 70
     1
102
RTVSPropertyOp5
 70
     1
102
RTVSPropertyOp6
 70
     1
102
RTVSPropertyOp7
 70
     1
102
RTVSPropertyOp8
 70
     1
102
RTVSPropertyOp9
 70
     1
102
RTVSPropertyOp10
 70
     1
102
RTVSPropertyOp11
 70
     1
102
RTVSPropertyOp12
 70
     1
102
RTVSPropertyOp13
 70
     1
102
RTVSPropertyOp14
 70
     1
102
RTVSPropertyOp15
 70
     1
102
RTVSPropertyOp16
 70
     1
102
RTVSPropertyOp17
 70
     1
102
RTVSPropertyOp18
 70
     1
102
RTVSPropertyOp19
 70
     1
102
RTVSPropertyOp20
 70
     1
102
RTVSPropertyOp21
 70
     1
102
RTVSPropertyOp22
 70
     1
102
RTVSPropertyOp23
 70
     1
102
RTVSPropertyOp24
 70
     1
102
RTVSPropertyOp25
 70
     1
102
RTVSPropertyOp26
 70
     1
102
RTVSPropertyOp27
 70
     1
102
RTVSPropertyOp28
 70
     1
102
RTVSPropertyOp29
 70
     1
102
RTVSPropertyOp30
 70
     1
102
RTVSPropertyOp31
 70
     1
102
RTVSPropertyOp32
 70
     1
102
RTVSPropertyOp33
 70
     1
102
RTVSPropertyOp34
 70
     1
102
RTVSPropertyOp35
 70
     1
102
RTVSPropertyOp36
 70
     1
102
RTVSPropertyOp37
 70
     1
102
RTVSPropertyOp38
 70
     1
102
RTVSPropertyOp39
 70
     1
102
RTVSPropertyOp40
 70
     1
102
RTVSPropertyOp41
 70
     1
102
RTVSPropertyOp42
 70
     1
102
RTVSPropertyOp43
 70
     1
102
RTVSPropertyOp44
 70
     1
102
RTVSPropertyOp45
 70
     1
102
RTVSPropertyOp46
 70
     1
102
RTVSPropertyOp47
 70
     1
102
RTVSPropertyOp48
 70
     1
102
RTVSPropertyOp49
 70
     1
102
RTVSPropertyOp50
 70
     1
102
RTVSPropertyOp51
 70
     0
102
RTVSPropertyOp52
 70
     0
102
RTVSPropertyOp53
 70
     1
102
RTVSPropertyOp54
 70
     1
102
RTVSPropertyOp55
 70
     1
102
RTVSPropertyOp56
 70
     1
102
RTVSPropertyOp57
 70
     1
102
RTVSPropertyOp58
 70
     1
102
RTVSPropertyOp59
 70
     1
102
RTVSPropertyOp60
 70
     1
102
RTVSPropertyOp61
 70
     1
102
RTVSPropertyOp62
 70
     1
  0
XRECORD
  5
A0AD
102
{ACAD_REACTORS
330
A0AC
102
}
330
A0AC
100
AcDbXrecord
280
     1
102
RTVSPost2010Prop28
280
     0
102
RTVSPost2010PropOp28
 70
     1
102
RTVSPost2010Prop29
280
     1
102
RTVSPost2010PropOp29
 70
     1
102
RTVSPost2010Prop30
280
     1
102
RTVSPost2010PropOp30
 70
     1
102
RTVSPost2010Prop31
280
     0
102
RTVSPost2010PropOp31
 70
     1
102
RTVSPost2010Prop32
280
     0
102
RTVSPost2010PropOp32
 70
     1
102
RTVSPost2010Prop33
280
     0
102
RTVSPost2010PropOp33
 70
     1
102
RTVSPost2010Prop34
280
     0
102
RTVSPost2010PropOp34
 70
     1
102
RTVSPost2010Prop35
280
     0
102
RTVSPost2010PropOp35
 70
     1
102
RTVSPost2010Prop36
280
     0
102
RTVSPost2010PropOp36
 70
     1
102
RTVSPost2010Prop37
 90
       50
102
RTVSPost2010PropOp37
 70
     0
102
RTVSPost2010Prop38
140
0.0
102
RTVSPost2010PropOp38
 70
     0
102
RTVSPost2010Prop39
140
1.0
102
RTVSPost2010PropOp39
 70
     0
102
RTVSPost2010Prop40
 90
        0
102
RTVSPost2010PropOp40
 70
     0
102
RTVSPost2010Prop41ColorIndex
 90
       18
102
RTVSPost2010Prop41ColorRGB
 90
        0
102
RTVSPost2010PropOp41
 70
     0
102
RTVSPost2010Prop42
 90
       50
102
RTVSPost2010PropOp42
 70
     0
102
RTVSPost2010Prop43
 90
        3
102
RTVSPost2010PropOp43
 70
     0
102
RTVSPost2010Prop44ColorIndex
 90
        5
102
RTVSPost2010Prop44ColorRGB
 90
      255
102
RTVSPost2010PropOp44
 70
     0
102
RTVSPost2010Prop45
280
     0
102
RTVSPost2010PropOp45
 70
     1
102
RTVSPost2010Prop46
 90
       50
102
RTVSPost2010PropOp46
 70
     0
102
RTVSPost2010Prop47
 90
       50
102
RTVSPost2010PropOp47
 70
     0
102
RTVSPost2010Prop48
 90
       50
102
RTVSPost2010PropOp48
 70
     0
102
RTVSPost2010Prop49
280
     0
102
RTVSPost2010PropOp49
 70
     1
102
RTVSPost2010Prop50
 90
       50
102
RTVSPost2010PropOp50
 70
     0
102
RTVSPost2010Prop51ColorIndex
 90
      256
102
RTVSPost2010Prop51ColorRGB
 90
-16777216
102
RTVSPost2010PropOp51
 70
     0
102
RTVSPost2010Prop52
140
1.0
102
RTVSPost2010PropOp52
 70
     0
102
RTVSPost2010Prop53
 90
        2
102
RTVSPost2010PropOp53
 70
     0
102
RTVSPost2010Prop54
  1
strokes_ogs.tif
102
RTVSPost2010PropOp54
 70
     0
102
RTVSPost2010Prop55
280
     0
102
RTVSPost2010PropOp55
 70
     1
102
RTVSPost2010Prop56
140
1.0
102
RTVSPost2010PropOp56
 70
     0
102
RTVSPost2010Prop57
140
1.0
102
RTVSPost2010PropOp57
 70
     0
102
RTVSPropertyOp0
 70
     0
102
RTVSPropertyOp1
 70
     0
102
RTVSPropertyOp2
 70
     0
102
RTVSPropertyOp3
 70
     0
102
RTVSPropertyOp4
 70
     0
102
RTVSPropertyOp5
 70
     0
102
RTVSPropertyOp6
 70
     0
102
RTVSPropertyOp7
 70
     0
102
RTVSPropertyOp8
 70
     0
102
RTVSPropertyOp9
 70
     0
102
RTVSPropertyOp10
 70
     0
102
RTVSPropertyOp11
 70
     0
102
RTVSPropertyOp12
 70
     0
102
RTVSPropertyOp13
 70
     0
102
RTVSPropertyOp14
 70
     2
102
RTVSPropertyOp15
 70
     0
102
RTVSPropertyOp16
 70
     0
102
RTVSPropertyOp17
 70
     0
102
RTVSPropertyOp18
 70
     0
102
RTVSPropertyOp19
 70
     0
102
RTVSPropertyOp20
 70
     0
102
RTVSPropertyOp21
 70
     0
102
RTVSPropertyOp22
 70
     0
102
RTVSPropertyOp23
 70
     0
102
RTVSPropertyOp24
 70
     0
102
RTVSPropertyOp25
 70
     0
102
RTVSPropertyOp26
 70
     0
102
RTVSPropertyOp27
 70
     0
102
RTVSPropertyOp28
 70
     1
102
RTVSPropertyOp29
 70
     1
102
RTVSPropertyOp30
 70
     1
102
RTVSPropertyOp31
 70
     1
102
RTVSPropertyOp32
 70
     1
102
RTVSPropertyOp33
 70
     1
102
RTVSPropertyOp34
 70
     1
102
RTVSPropertyOp35
 70
     1
102
RTVSPropertyOp36
 70
     1
102
RTVSPropertyOp37
 70
     0
102
RTVSPropertyOp38
 70
     0
102
RTVSPropertyOp39
 70
     0
102
RTVSPropertyOp40
 70
     0
102
RTVSPropertyOp41
 70
     0
102
RTVSPropertyOp42
 70
     0
102
RTVSPropertyOp43
 70
     0
102
RTVSPropertyOp44
 70
     0
102
RTVSPropertyOp45
 70
     1
102
RTVSPropertyOp46
 70
     0
102
RTVSPropertyOp47
 70
     0
102
RTVSPropertyOp48
 70
     0
102
RTVSPropertyOp49
 70
     1
102
RTVSPropertyOp50
 70
     0
102
RTVSPropertyOp51
 70
     0
102
RTVSPropertyOp52
 70
     0
102
RTVSPropertyOp53
 70
     0
102
RTVSPropertyOp54
 70
     0
102
RTVSPropertyOp55
 70
     1
102
RTVSPropertyOp56
 70
     0
102
RTVSPropertyOp57
 70
     0
102
RTVSPropertyOp58
 70
     0
102
RTVSPropertyOp59
 70
     0
102
RTVSPropertyOp60
 70
     0
102
RTVSPropertyOp61
 70
     0
102
RTVSPropertyOp62
 70
     0
  0
XRECORD
  5
A09D
102
{ACAD_REACTORS
330
A09C
102
}
330
A09C
100
AcDbXrecord
280
     1
102
RTVSPost2010Prop28
280
     0
102
RTVSPost2010PropOp28
 70
     1
102
RTVSPost2010Prop29
280
     1
102
RTVSPost2010PropOp29
 70
     1
102
RTVSPost2010Prop30
280
     1
102
RTVSPost2010PropOp30
 70
     1
102
RTVSPost2010Prop31
280
     0
102
RTVSPost2010PropOp31
 70
     1
102
RTVSPost2010Prop32
280
     0
102
RTVSPost2010PropOp32
 70
     1
102
RTVSPost2010Prop33
280
     0
102
RTVSPost2010PropOp33
 70
     1
102
RTVSPost2010Prop34
280
     0
102
RTVSPost2010PropOp34
 70
     1
102
RTVSPost2010Prop35
280
     0
102
RTVSPost2010PropOp35
 70
     1
102
RTVSPost2010Prop36
280
     0
102
RTVSPost2010PropOp36
 70
     1
102
RTVSPost2010Prop37
 90
       50
102
RTVSPost2010PropOp37
 70
     1
102
RTVSPost2010Prop38
140
0.0
102
RTVSPost2010PropOp38
 70
     1
102
RTVSPost2010Prop39
140
1.0
102
RTVSPost2010PropOp39
 70
     1
102
RTVSPost2010Prop40
 90
        0
102
RTVSPost2010PropOp40
 70
     1
102
RTVSPost2010Prop41ColorIndex
 90
       18
102
RTVSPost2010Prop41ColorRGB
 90
        0
102
RTVSPost2010PropOp41
 70
     1
102
RTVSPost2010Prop42
 90
       50
102
RTVSPost2010PropOp42
 70
     1
102
RTVSPost2010Prop43
 90
        3
102
RTVSPost2010PropOp43
 70
     1
102
RTVSPost2010Prop44ColorIndex
 90
        5
102
RTVSPost2010Prop44ColorRGB
 90
      255
102
RTVSPost2010PropOp44
 70
     1
102
RTVSPost2010Prop45
280
     0
102
RTVSPost2010PropOp45
 70
     1
102
RTVSPost2010Prop46
 90
       50
102
RTVSPost2010PropOp46
 70
     1
102
RTVSPost2010Prop47
 90
       50
102
RTVSPost2010PropOp47
 70
     1
102
RTVSPost2010Prop48
 90
       50
102
RTVSPost2010PropOp48
 70
     1
102
RTVSPost2010Prop49
280
     0
102
RTVSPost2010PropOp49
 70
     1
102
RTVSPost2010Prop50
 90
       50
102
RTVSPost2010PropOp50
 70
     1
102
RTVSPost2010Prop51ColorIndex
 90
      256
102
RTVSPost2010Prop51ColorRGB
 90
-16777216
102
RTVSPost2010PropOp51
 70
     0
102
RTVSPost2010Prop52
140
1.0
102
RTVSPost2010PropOp52
 70
     0
102
RTVSPost2010Prop53
 90
        2
102
RTVSPost2010PropOp53
 70
     1
102
RTVSPost2010Prop54
  1
strokes_ogs.tif
102
RTVSPost2010PropOp54
 70
     1
102
RTVSPost2010Prop55
280
     0
102
RTVSPost2010PropOp55
 70
     1
102
RTVSPost2010Prop56
140
1.0
102
RTVSPost2010PropOp56
 70
     1
102
RTVSPost2010Prop57
140
1.0
102
RTVSPost2010PropOp57
 70
     1
102
RTVSPropertyOp0
 70
     1
102
RTVSPropertyOp1
 70
     1
102
RTVSPropertyOp2
 70
     1
102
RTVSPropertyOp3
 70
     1
102
RTVSPropertyOp4
 70
     1
102
RTVSPropertyOp5
 70
     1
102
RTVSPropertyOp6
 70
     1
102
RTVSPropertyOp7
 70
     1
102
RTVSPropertyOp8
 70
     1
102
RTVSPropertyOp9
 70
     1
102
RTVSPropertyOp10
 70
     1
102
RTVSPropertyOp11
 70
     1
102
RTVSPropertyOp12
 70
     1
102
RTVSPropertyOp13
 70
     1
102
RTVSPropertyOp14
 70
     1
102
RTVSPropertyOp15
 70
     1
102
RTVSPropertyOp16
 70
     1
102
RTVSPropertyOp17
 70
     1
102
RTVSPropertyOp18
 70
     1
102
RTVSPropertyOp19
 70
     1
102
RTVSPropertyOp20
 70
     1
102
RTVSPropertyOp21
 70
     1
102
RTVSPropertyOp22
 70
     1
102
RTVSPropertyOp23
 70
     1
102
RTVSPropertyOp24
 70
     1
102
RTVSPropertyOp25
 70
     1
102
RTVSPropertyOp26
 70
     1
102
RTVSPropertyOp27
 70
     1
102
RTVSPropertyOp28
 70
     1
102
RTVSPropertyOp29
 70
     1
102
RTVSPropertyOp30
 70
     1
102
RTVSPropertyOp31
 70
     1
102
RTVSPropertyOp32
 70
     1
102
RTVSPropertyOp33
 70
     1
102
RTVSPropertyOp34
 70
     1
102
RTVSPropertyOp35
 70
     1
102
RTVSPropertyOp36
 70
     1
102
RTVSPropertyOp37
 70
     1
102
RTVSPropertyOp38
 70
     1
102
RTVSPropertyOp39
 70
     1
102
RTVSPropertyOp40
 70
     1
102
RTVSPropertyOp41
 70
     1
102
RTVSPropertyOp42
 70
     1
102
RTVSPropertyOp43
 70
     1
102
RTVSPropertyOp44
 70
     1
102
RTVSPropertyOp45
 70
     1
102
RTVSPropertyOp46
 70
     1
102
RTVSPropertyOp47
 70
     1
102
RTVSPropertyOp48
 70
     1
102
RTVSPropertyOp49
 70
     1
102
RTVSPropertyOp50
 70
     1
102
RTVSPropertyOp51
 70
     0
102
RTVSPropertyOp52
 70
     0
102
RTVSPropertyOp53
 70
     1
102
RTVSPropertyOp54
 70
     1
102
RTVSPropertyOp55
 70
     1
102
RTVSPropertyOp56
 70
     1
102
RTVSPropertyOp57
 70
     1
102
RTVSPropertyOp58
 70
     1
102
RTVSPropertyOp59
 70
     1
102
RTVSPropertyOp60
 70
     1
102
RTVSPropertyOp61
 70
     1
102
RTVSPropertyOp62
 70
     1
  0
XRECORD
  5
A0AF
102
{ACAD_REACTORS
330
A0AE
102
}
330
A0AE
100
AcDbXrecord
280
     1
102
RTVSPost2010Prop28
280
     0
102
RTVSPost2010PropOp28
 70
     1
102
RTVSPost2010Prop29
280
     1
102
RTVSPost2010PropOp29
 70
     1
102
RTVSPost2010Prop30
280
     1
102
RTVSPost2010PropOp30
 70
     1
102
RTVSPost2010Prop31
280
     0
102
RTVSPost2010PropOp31
 70
     1
102
RTVSPost2010Prop32
280
     0
102
RTVSPost2010PropOp32
 70
     1
102
RTVSPost2010Prop33
280
     0
102
RTVSPost2010PropOp33
 70
     1
102
RTVSPost2010Prop34
280
     0
102
RTVSPost2010PropOp34
 70
     1
102
RTVSPost2010Prop35
280
     0
102
RTVSPost2010PropOp35
 70
     1
102
RTVSPost2010Prop36
280
     0
102
RTVSPost2010PropOp36
 70
     1
102
RTVSPost2010Prop37
 90
       50
102
RTVSPost2010PropOp37
 70
     0
102
RTVSPost2010Prop38
140
0.0
102
RTVSPost2010PropOp38
 70
     0
102
RTVSPost2010Prop39
140
1.0
102
RTVSPost2010PropOp39
 70
     0
102
RTVSPost2010Prop40
 90
        0
102
RTVSPost2010PropOp40
 70
     0
102
RTVSPost2010Prop41ColorIndex
 90
       18
102
RTVSPost2010Prop41ColorRGB
 90
        0
102
RTVSPost2010PropOp41
 70
     0
102
RTVSPost2010Prop42
 90
       50
102
RTVSPost2010PropOp42
 70
     0
102
RTVSPost2010Prop43
 90
        3
102
RTVSPost2010PropOp43
 70
     0
102
RTVSPost2010Prop44ColorIndex
 90
        5
102
RTVSPost2010Prop44ColorRGB
 90
      255
102
RTVSPost2010PropOp44
 70
     0
102
RTVSPost2010Prop45
280
     0
102
RTVSPost2010PropOp45
 70
     1
102
RTVSPost2010Prop46
 90
       50
102
RTVSPost2010PropOp46
 70
     0
102
RTVSPost2010Prop47
 90
       50
102
RTVSPost2010PropOp47
 70
     0
102
RTVSPost2010Prop48
 90
       50
102
RTVSPost2010PropOp48
 70
     0
102
RTVSPost2010Prop49
280
     0
102
RTVSPost2010PropOp49
 70
     1
102
RTVSPost2010Prop50
 90
       50
102
RTVSPost2010PropOp50
 70
     0
102
RTVSPost2010Prop51ColorIndex
 90
      256
102
RTVSPost2010Prop51ColorRGB
 90
-16777216
102
RTVSPost2010PropOp51
 70
     0
102
RTVSPost2010Prop52
140
1.0
102
RTVSPost2010PropOp52
 70
     0
102
RTVSPost2010Prop53
 90
        2
102
RTVSPost2010PropOp53
 70
     0
102
RTVSPost2010Prop54
  1
strokes_ogs.tif
102
RTVSPost2010PropOp54
 70
     0
102
RTVSPost2010Prop55
280
     0
102
RTVSPost2010PropOp55
 70
     1
102
RTVSPost2010Prop56
140
1.0
102
RTVSPost2010PropOp56
 70
     0
102
RTVSPost2010Prop57
140
1.0
102
RTVSPost2010PropOp57
 70
     0
102
RTVSPropertyOp0
 70
     0
102
RTVSPropertyOp1
 70
     0
102
RTVSPropertyOp2
 70
     0
102
RTVSPropertyOp3
 70
     0
102
RTVSPropertyOp4
 70
     0
102
RTVSPropertyOp5
 70
     0
102
RTVSPropertyOp6
 70
     0
102
RTVSPropertyOp7
 70
     0
102
RTVSPropertyOp8
 70
     0
102
RTVSPropertyOp9
 70
     0
102
RTVSPropertyOp10
 70
     0
102
RTVSPropertyOp11
 70
     0
102
RTVSPropertyOp12
 70
     0
102
RTVSPropertyOp13
 70
     0
102
RTVSPropertyOp14
 70
     2
102
RTVSPropertyOp15
 70
     0
102
RTVSPropertyOp16
 70
     0
102
RTVSPropertyOp17
 70
     0
102
RTVSPropertyOp18
 70
     0
102
RTVSPropertyOp19
 70
     0
102
RTVSPropertyOp20
 70
     0
102
RTVSPropertyOp21
 70
     0
102
RTVSPropertyOp22
 70
     0
102
RTVSPropertyOp23
 70
     0
102
RTVSPropertyOp24
 70
     0
102
RTVSPropertyOp25
 70
     0
102
RTVSPropertyOp26
 70
     0
102
RTVSPropertyOp27
 70
     0
102
RTVSPropertyOp28
 70
     1
102
RTVSPropertyOp29
 70
     1
102
RTVSPropertyOp30
 70
     1
102
RTVSPropertyOp31
 70
     1
102
RTVSPropertyOp32
 70
     1
102
RTVSPropertyOp33
 70
     1
102
RTVSPropertyOp34
 70
     1
102
RTVSPropertyOp35
 70
     1
102
RTVSPropertyOp36
 70
     1
102
RTVSPropertyOp37
 70
     0
102
RTVSPropertyOp38
 70
     0
102
RTVSPropertyOp39
 70
     0
102
RTVSPropertyOp40
 70
     0
102
RTVSPropertyOp41
 70
     0
102
RTVSPropertyOp42
 70
     0
102
RTVSPropertyOp43
 70
     0
102
RTVSPropertyOp44
 70
     0
102
RTVSPropertyOp45
 70
     1
102
RTVSPropertyOp46
 70
     0
102
RTVSPropertyOp47
 70
     0
102
RTVSPropertyOp48
 70
     0
102
RTVSPropertyOp49
 70
     1
102
RTVSPropertyOp50
 70
     0
102
RTVSPropertyOp51
 70
     0
102
RTVSPropertyOp52
 70
     0
102
RTVSPropertyOp53
 70
     0
102
RTVSPropertyOp54
 70
     0
102
RTVSPropertyOp55
 70
     1
102
RTVSPropertyOp56
 70
     0
102
RTVSPropertyOp57
 70
     0
102
RTVSPropertyOp58
 70
     0
102
RTVSPropertyOp59
 70
     0
102
RTVSPropertyOp60
 70
     0
102
RTVSPropertyOp61
 70
     0
102
RTVSPropertyOp62
 70
     0
  0
XRECORD
  5
A095
102
{ACAD_REACTORS
330
A094
102
}
330
A094
100
AcDbXrecord
280
     1
102
RTVSPost2010Prop28
280
     0
102
RTVSPost2010PropOp28
 70
     1
102
RTVSPost2010Prop29
280
     1
102
RTVSPost2010PropOp29
 70
     1
102
RTVSPost2010Prop30
280
     1
102
RTVSPost2010PropOp30
 70
     1
102
RTVSPost2010Prop31
280
     0
102
RTVSPost2010PropOp31
 70
     1
102
RTVSPost2010Prop32
280
     0
102
RTVSPost2010PropOp32
 70
     1
102
RTVSPost2010Prop33
280
     0
102
RTVSPost2010PropOp33
 70
     1
102
RTVSPost2010Prop34
280
     0
102
RTVSPost2010PropOp34
 70
     1
102
RTVSPost2010Prop35
280
     0
102
RTVSPost2010PropOp35
 70
     1
102
RTVSPost2010Prop36
280
     0
102
RTVSPost2010PropOp36
 70
     1
102
RTVSPost2010Prop37
 90
       50
102
RTVSPost2010PropOp37
 70
     1
102
RTVSPost2010Prop38
140
0.0
102
RTVSPost2010PropOp38
 70
     1
102
RTVSPost2010Prop39
140
1.0
102
RTVSPost2010PropOp39
 70
     1
102
RTVSPost2010Prop40
 90
        0
102
RTVSPost2010PropOp40
 70
     1
102
RTVSPost2010Prop41ColorIndex
 90
       18
102
RTVSPost2010Prop41ColorRGB
 90
        0
102
RTVSPost2010PropOp41
 70
     1
102
RTVSPost2010Prop42
 90
       50
102
RTVSPost2010PropOp42
 70
     1
102
RTVSPost2010Prop43
 90
        3
102
RTVSPost2010PropOp43
 70
     1
102
RTVSPost2010Prop44ColorIndex
 90
        5
102
RTVSPost2010Prop44ColorRGB
 90
      255
102
RTVSPost2010PropOp44
 70
     1
102
RTVSPost2010Prop45
280
     0
102
RTVSPost2010PropOp45
 70
     1
102
RTVSPost2010Prop46
 90
       50
102
RTVSPost2010PropOp46
 70
     1
102
RTVSPost2010Prop47
 90
       50
102
RTVSPost2010PropOp47
 70
     1
102
RTVSPost2010Prop48
 90
       50
102
RTVSPost2010PropOp48
 70
     1
102
RTVSPost2010Prop49
280
     0
102
RTVSPost2010PropOp49
 70
     1
102
RTVSPost2010Prop50
 90
       50
102
RTVSPost2010PropOp50
 70
     1
102
RTVSPost2010Prop51ColorIndex
 90
      256
102
RTVSPost2010Prop51ColorRGB
 90
-16777216
102
RTVSPost2010PropOp51
 70
     0
102
RTVSPost2010Prop52
140
1.0
102
RTVSPost2010PropOp52
 70
     0
102
RTVSPost2010Prop53
 90
        2
102
RTVSPost2010PropOp53
 70
     1
102
RTVSPost2010Prop54
  1
strokes_ogs.tif
102
RTVSPost2010PropOp54
 70
     1
102
RTVSPost2010Prop55
280
     0
102
RTVSPost2010PropOp55
 70
     1
102
RTVSPost2010Prop56
140
1.0
102
RTVSPost2010PropOp56
 70
     1
102
RTVSPost2010Prop57
140
1.0
102
RTVSPost2010PropOp57
 70
     1
102
RTVSPropertyOp0
 70
     1
102
RTVSPropertyOp1
 70
     1
102
RTVSPropertyOp2
 70
     1
102
RTVSPropertyOp3
 70
     1
102
RTVSPropertyOp4
 70
     1
102
RTVSPropertyOp5
 70
     1
102
RTVSPropertyOp6
 70
     1
102
RTVSPropertyOp7
 70
     1
102
RTVSPropertyOp8
 70
     1
102
RTVSPropertyOp9
 70
     1
102
RTVSPropertyOp10
 70
     1
102
RTVSPropertyOp11
 70
     1
102
RTVSPropertyOp12
 70
     1
102
RTVSPropertyOp13
 70
     1
102
RTVSPropertyOp14
 70
     1
102
RTVSPropertyOp15
 70
     1
102
RTVSPropertyOp16
 70
     1
102
RTVSPropertyOp17
 70
     1
102
RTVSPropertyOp18
 70
     1
102
RTVSPropertyOp19
 70
     1
102
RTVSPropertyOp20
 70
     1
102
RTVSPropertyOp21
 70
     1
102
RTVSPropertyOp22
 70
     1
102
RTVSPropertyOp23
 70
     1
102
RTVSPropertyOp24
 70
     1
102
RTVSPropertyOp25
 70
     1
102
RTVSPropertyOp26
 70
     1
102
RTVSPropertyOp27
 70
     1
102
RTVSPropertyOp28
 70
     1
102
RTVSPropertyOp29
 70
     1
102
RTVSPropertyOp30
 70
     1
102
RTVSPropertyOp31
 70
     1
102
RTVSPropertyOp32
 70
     1
102
RTVSPropertyOp33
 70
     1
102
RTVSPropertyOp34
 70
     1
102
RTVSPropertyOp35
 70
     1
102
RTVSPropertyOp36
 70
     1
102
RTVSPropertyOp37
 70
     1
102
RTVSPropertyOp38
 70
     1
102
RTVSPropertyOp39
 70
     1
102
RTVSPropertyOp40
 70
     1
102
RTVSPropertyOp41
 70
     1
102
RTVSPropertyOp42
 70
     1
102
RTVSPropertyOp43
 70
     1
102
RTVSPropertyOp44
 70
     1
102
RTVSPropertyOp45
 70
     1
102
RTVSPropertyOp46
 70
     1
102
RTVSPropertyOp47
 70
     1
102
RTVSPropertyOp48
 70
     1
102
RTVSPropertyOp49
 70
     1
102
RTVSPropertyOp50
 70
     1
102
RTVSPropertyOp51
 70
     0
102
RTVSPropertyOp52
 70
     0
102
RTVSPropertyOp53
 70
     1
102
RTVSPropertyOp54
 70
     1
102
RTVSPropertyOp55
 70
     1
102
RTVSPropertyOp56
 70
     1
102
RTVSPropertyOp57
 70
     1
102
RTVSPropertyOp58
 70
     1
102
RTVSPropertyOp59
 70
     1
102
RTVSPropertyOp60
 70
     1
102
RTVSPropertyOp61
 70
     1
102
RTVSPropertyOp62
 70
     1
  0
XRECORD
  5
A0AB
102
{ACAD_REACTORS
330
A0AA
102
}
330
A0AA
100
AcDbXrecord
280
     1
102
RTVSPost2010Prop28
280
     0
102
RTVSPost2010PropOp28
 70
     1
102
RTVSPost2010Prop29
280
     1
102
RTVSPost2010PropOp29
 70
     1
102
RTVSPost2010Prop30
280
     1
102
RTVSPost2010PropOp30
 70
     1
102
RTVSPost2010Prop31
280
     0
102
RTVSPost2010PropOp31
 70
     1
102
RTVSPost2010Prop32
280
     0
102
RTVSPost2010PropOp32
 70
     1
102
RTVSPost2010Prop33
280
     0
102
RTVSPost2010PropOp33
 70
     1
102
RTVSPost2010Prop34
280
     0
102
RTVSPost2010PropOp34
 70
     1
102
RTVSPost2010Prop35
280
     0
102
RTVSPost2010PropOp35
 70
     1
102
RTVSPost2010Prop36
280
     0
102
RTVSPost2010PropOp36
 70
     1
102
RTVSPost2010Prop37
 90
       50
102
RTVSPost2010PropOp37
 70
     1
102
RTVSPost2010Prop38
140
0.0
102
RTVSPost2010PropOp38
 70
     1
102
RTVSPost2010Prop39
140
1.0
102
RTVSPost2010PropOp39
 70
     1
102
RTVSPost2010Prop40
 90
        0
102
RTVSPost2010PropOp40
 70
     1
102
RTVSPost2010Prop41ColorIndex
 90
       18
102
RTVSPost2010Prop41ColorRGB
 90
        0
102
RTVSPost2010PropOp41
 70
     1
102
RTVSPost2010Prop42
 90
       50
102
RTVSPost2010PropOp42
 70
     1
102
RTVSPost2010Prop43
 90
        3
102
RTVSPost2010PropOp43
 70
     1
102
RTVSPost2010Prop44ColorIndex
 90
        5
102
RTVSPost2010Prop44ColorRGB
 90
      255
102
RTVSPost2010PropOp44
 70
     1
102
RTVSPost2010Prop45
280
     0
102
RTVSPost2010PropOp45
 70
     1
102
RTVSPost2010Prop46
 90
       50
102
RTVSPost2010PropOp46
 70
     1
102
RTVSPost2010Prop47
 90
       50
102
RTVSPost2010PropOp47
 70
     1
102
RTVSPost2010Prop48
 90
       50
102
RTVSPost2010PropOp48
 70
     1
102
RTVSPost2010Prop49
280
     0
102
RTVSPost2010PropOp49
 70
     1
102
RTVSPost2010Prop50
 90
       50
102
RTVSPost2010PropOp50
 70
     1
102
RTVSPost2010Prop51ColorIndex
 90
      256
102
RTVSPost2010Prop51ColorRGB
 90
-16777216
102
RTVSPost2010PropOp51
 70
     0
102
RTVSPost2010Prop52
140
1.0
102
RTVSPost2010PropOp52
 70
     0
102
RTVSPost2010Prop53
 90
        2
102
RTVSPost2010PropOp53
 70
     1
102
RTVSPost2010Prop54
  1
strokes_ogs.tif
102
RTVSPost2010PropOp54
 70
     1
102
RTVSPost2010Prop55
280
     0
102
RTVSPost2010PropOp55
 70
     1
102
RTVSPost2010Prop56
140
1.0
102
RTVSPost2010PropOp56
 70
     1
102
RTVSPost2010Prop57
140
1.0
102
RTVSPost2010PropOp57
 70
     1
102
RTVSPropertyOp0
 70
     1
102
RTVSPropertyOp1
 70
     1
102
RTVSPropertyOp2
 70
     1
102
RTVSPropertyOp3
 70
     1
102
RTVSPropertyOp4
 70
     1
102
RTVSPropertyOp5
 70
     1
102
RTVSPropertyOp6
 70
     1
102
RTVSPropertyOp7
 70
     1
102
RTVSPropertyOp8
 70
     1
102
RTVSPropertyOp9
 70
     1
102
RTVSPropertyOp10
 70
     1
102
RTVSPropertyOp11
 70
     1
102
RTVSPropertyOp12
 70
     1
102
RTVSPropertyOp13
 70
     1
102
RTVSPropertyOp14
 70
     1
102
RTVSPropertyOp15
 70
     1
102
RTVSPropertyOp16
 70
     1
102
RTVSPropertyOp17
 70
     1
102
RTVSPropertyOp18
 70
     1
102
RTVSPropertyOp19
 70
     1
102
RTVSPropertyOp20
 70
     1
102
RTVSPropertyOp21
 70
     1
102
RTVSPropertyOp22
 70
     1
102
RTVSPropertyOp23
 70
     1
102
RTVSPropertyOp24
 70
     1
102
RTVSPropertyOp25
 70
     1
102
RTVSPropertyOp26
 70
     1
102
RTVSPropertyOp27
 70
     1
102
RTVSPropertyOp28
 70
     1
102
RTVSPropertyOp29
 70
     1
102
RTVSPropertyOp30
 70
     1
102
RTVSPropertyOp31
 70
     1
102
RTVSPropertyOp32
 70
     1
102
RTVSPropertyOp33
 70
     1
102
RTVSPropertyOp34
 70
     1
102
RTVSPropertyOp35
 70
     1
102
RTVSPropertyOp36
 70
     1
102
RTVSPropertyOp37
 70
     1
102
RTVSPropertyOp38
 70
     1
102
RTVSPropertyOp39
 70
     1
102
RTVSPropertyOp40
 70
     1
102
RTVSPropertyOp41
 70
     1
102
RTVSPropertyOp42
 70
     1
102
RTVSPropertyOp43
 70
     1
102
RTVSPropertyOp44
 70
     1
102
RTVSPropertyOp45
 70
     1
102
RTVSPropertyOp46
 70
     1
102
RTVSPropertyOp47
 70
     1
102
RTVSPropertyOp48
 70
     1
102
RTVSPropertyOp49
 70
     1
102
RTVSPropertyOp50
 70
     1
102
RTVSPropertyOp51
 70
     0
102
RTVSPropertyOp52
 70
     0
102
RTVSPropertyOp53
 70
     1
102
RTVSPropertyOp54
 70
     1
102
RTVSPropertyOp55
 70
     1
102
RTVSPropertyOp56
 70
     1
102
RTVSPropertyOp57
 70
     1
102
RTVSPropertyOp58
 70
     1
102
RTVSPropertyOp59
 70
     1
102
RTVSPropertyOp60
 70
     1
102
RTVSPropertyOp61
 70
     1
102
RTVSPropertyOp62
 70
     1
  0
XRECORD
  5
A0A9
102
{ACAD_REACTORS
330
A0A8
102
}
330
A0A8
100
AcDbXrecord
280
     1
102
RTVSPost2010Prop28
280
     0
102
RTVSPost2010PropOp28
 70
     1
102
RTVSPost2010Prop29
280
     1
102
RTVSPost2010PropOp29
 70
     1
102
RTVSPost2010Prop30
280
     1
102
RTVSPost2010PropOp30
 70
     1
102
RTVSPost2010Prop31
280
     0
102
RTVSPost2010PropOp31
 70
     1
102
RTVSPost2010Prop32
280
     0
102
RTVSPost2010PropOp32
 70
     1
102
RTVSPost2010Prop33
280
     0
102
RTVSPost2010PropOp33
 70
     1
102
RTVSPost2010Prop34
280
     0
102
RTVSPost2010PropOp34
 70
     1
102
RTVSPost2010Prop35
280
     0
102
RTVSPost2010PropOp35
 70
     1
102
RTVSPost2010Prop36
280
     0
102
RTVSPost2010PropOp36
 70
     1
102
RTVSPost2010Prop37
 90
       50
102
RTVSPost2010PropOp37
 70
     1
102
RTVSPost2010Prop38
140
0.0
102
RTVSPost2010PropOp38
 70
     1
102
RTVSPost2010Prop39
140
1.0
102
RTVSPost2010PropOp39
 70
     1
102
RTVSPost2010Prop40
 90
        0
102
RTVSPost2010PropOp40
 70
     1
102
RTVSPost2010Prop41ColorIndex
 90
       18
102
RTVSPost2010Prop41ColorRGB
 90
        0
102
RTVSPost2010PropOp41
 70
     1
102
RTVSPost2010Prop42
 90
       50
102
RTVSPost2010PropOp42
 70
     1
102
RTVSPost2010Prop43
 90
        3
102
RTVSPost2010PropOp43
 70
     1
102
RTVSPost2010Prop44ColorIndex
 90
        5
102
RTVSPost2010Prop44ColorRGB
 90
      255
102
RTVSPost2010PropOp44
 70
     1
102
RTVSPost2010Prop45
280
     0
102
RTVSPost2010PropOp45
 70
     1
102
RTVSPost2010Prop46
 90
       50
102
RTVSPost2010PropOp46
 70
     1
102
RTVSPost2010Prop47
 90
       50
102
RTVSPost2010PropOp47
 70
     1
102
RTVSPost2010Prop48
 90
       50
102
RTVSPost2010PropOp48
 70
     1
102
RTVSPost2010Prop49
280
     0
102
RTVSPost2010PropOp49
 70
     1
102
RTVSPost2010Prop50
 90
       50
102
RTVSPost2010PropOp50
 70
     1
102
RTVSPost2010Prop51ColorIndex
 90
      256
102
RTVSPost2010Prop51ColorRGB
 90
-16777216
102
RTVSPost2010PropOp51
 70
     0
102
RTVSPost2010Prop52
140
1.0
102
RTVSPost2010PropOp52
 70
     0
102
RTVSPost2010Prop53
 90
        2
102
RTVSPost2010PropOp53
 70
     1
102
RTVSPost2010Prop54
  1
strokes_ogs.tif
102
RTVSPost2010PropOp54
 70
     1
102
RTVSPost2010Prop55
280
     0
102
RTVSPost2010PropOp55
 70
     1
102
RTVSPost2010Prop56
140
1.0
102
RTVSPost2010PropOp56
 70
     1
102
RTVSPost2010Prop57
140
1.0
102
RTVSPost2010PropOp57
 70
     1
102
RTVSPropertyOp0
 70
     1
102
RTVSPropertyOp1
 70
     1
102
RTVSPropertyOp2
 70
     1
102
RTVSPropertyOp3
 70
     1
102
RTVSPropertyOp4
 70
     1
102
RTVSPropertyOp5
 70
     1
102
RTVSPropertyOp6
 70
     1
102
RTVSPropertyOp7
 70
     1
102
RTVSPropertyOp8
 70
     1
102
RTVSPropertyOp9
 70
     1
102
RTVSPropertyOp10
 70
     1
102
RTVSPropertyOp11
 70
     1
102
RTVSPropertyOp12
 70
     1
102
RTVSPropertyOp13
 70
     1
102
RTVSPropertyOp14
 70
     1
102
RTVSPropertyOp15
 70
     1
102
RTVSPropertyOp16
 70
     1
102
RTVSPropertyOp17
 70
     1
102
RTVSPropertyOp18
 70
     1
102
RTVSPropertyOp19
 70
     1
102
RTVSPropertyOp20
 70
     1
102
RTVSPropertyOp21
 70
     1
102
RTVSPropertyOp22
 70
     1
102
RTVSPropertyOp23
 70
     1
102
RTVSPropertyOp24
 70
     1
102
RTVSPropertyOp25
 70
     1
102
RTVSPropertyOp26
 70
     1
102
RTVSPropertyOp27
 70
     1
102
RTVSPropertyOp28
 70
     1
102
RTVSPropertyOp29
 70
     1
102
RTVSPropertyOp30
 70
     1
102
RTVSPropertyOp31
 70
     1
102
RTVSPropertyOp32
 70
     1
102
RTVSPropertyOp33
 70
     1
102
RTVSPropertyOp34
 70
     1
102
RTVSPropertyOp35
 70
     1
102
RTVSPropertyOp36
 70
     1
102
RTVSPropertyOp37
 70
     1
102
RTVSPropertyOp38
 70
     1
102
RTVSPropertyOp39
 70
     1
102
RTVSPropertyOp40
 70
     1
102
RTVSPropertyOp41
 70
     1
102
RTVSPropertyOp42
 70
     1
102
RTVSPropertyOp43
 70
     1
102
RTVSPropertyOp44
 70
     1
102
RTVSPropertyOp45
 70
     1
102
RTVSPropertyOp46
 70
     1
102
RTVSPropertyOp47
 70
     1
102
RTVSPropertyOp48
 70
     1
102
RTVSPropertyOp49
 70
     1
102
RTVSPropertyOp50
 70
     1
102
RTVSPropertyOp51
 70
     0
102
RTVSPropertyOp52
 70
     0
102
RTVSPropertyOp53
 70
     1
102
RTVSPropertyOp54
 70
     1
102
RTVSPropertyOp55
 70
     1
102
RTVSPropertyOp56
 70
     1
102
RTVSPropertyOp57
 70
     1
102
RTVSPropertyOp58
 70
     1
102
RTVSPropertyOp59
 70
     1
102
RTVSPropertyOp60
 70
     1
102
RTVSPropertyOp61
 70
     1
102
RTVSPropertyOp62
 70
     1
  0
XRECORD
  5
A0A3
102
{ACAD_REACTORS
330
A0A2
102
}
330
A0A2
100
AcDbXrecord
280
     1
102
RTVSPost2010Prop28
280
     0
102
RTVSPost2010PropOp28
 70
     1
102
RTVSPost2010Prop29
280
     1
102
RTVSPost2010PropOp29
 70
     1
102
RTVSPost2010Prop30
280
     1
102
RTVSPost2010PropOp30
 70
     1
102
RTVSPost2010Prop31
280
     0
102
RTVSPost2010PropOp31
 70
     1
102
RTVSPost2010Prop32
280
     0
102
RTVSPost2010PropOp32
 70
     1
102
RTVSPost2010Prop33
280
     0
102
RTVSPost2010PropOp33
 70
     1
102
RTVSPost2010Prop34
280
     0
102
RTVSPost2010PropOp34
 70
     1
102
RTVSPost2010Prop35
280
     0
102
RTVSPost2010PropOp35
 70
     1
102
RTVSPost2010Prop36
280
     0
102
RTVSPost2010PropOp36
 70
     1
102
RTVSPost2010Prop37
 90
       50
102
RTVSPost2010PropOp37
 70
     1
102
RTVSPost2010Prop38
140
0.0
102
RTVSPost2010PropOp38
 70
     1
102
RTVSPost2010Prop39
140
1.0
102
RTVSPost2010PropOp39
 70
     1
102
RTVSPost2010Prop40
 90
        0
102
RTVSPost2010PropOp40
 70
     1
102
RTVSPost2010Prop41ColorIndex
 90
       18
102
RTVSPost2010Prop41ColorRGB
 90
        0
102
RTVSPost2010PropOp41
 70
     1
102
RTVSPost2010Prop42
 90
       50
102
RTVSPost2010PropOp42
 70
     1
102
RTVSPost2010Prop43
 90
        3
102
RTVSPost2010PropOp43
 70
     1
102
RTVSPost2010Prop44ColorIndex
 90
        5
102
RTVSPost2010Prop44ColorRGB
 90
      255
102
RTVSPost2010PropOp44
 70
     1
102
RTVSPost2010Prop45
280
     0
102
RTVSPost2010PropOp45
 70
     1
102
RTVSPost2010Prop46
 90
       50
102
RTVSPost2010PropOp46
 70
     1
102
RTVSPost2010Prop47
 90
       50
102
RTVSPost2010PropOp47
 70
     1
102
RTVSPost2010Prop48
 90
       50
102
RTVSPost2010PropOp48
 70
     1
102
RTVSPost2010Prop49
280
     0
102
RTVSPost2010PropOp49
 70
     1
102
RTVSPost2010Prop50
 90
       50
102
RTVSPost2010PropOp50
 70
     1
102
RTVSPost2010Prop51ColorIndex
 90
      256
102
RTVSPost2010Prop51ColorRGB
 90
-16777216
102
RTVSPost2010PropOp51
 70
     0
102
RTVSPost2010Prop52
140
1.0
102
RTVSPost2010PropOp52
 70
     0
102
RTVSPost2010Prop53
 90
        2
102
RTVSPost2010PropOp53
 70
     1
102
RTVSPost2010Prop54
  1
strokes_ogs.tif
102
RTVSPost2010PropOp54
 70
     1
102
RTVSPost2010Prop55
280
     0
102
RTVSPost2010PropOp55
 70
     1
102
RTVSPost2010Prop56
140
1.0
102
RTVSPost2010PropOp56
 70
     1
102
RTVSPost2010Prop57
140
1.0
102
RTVSPost2010PropOp57
 70
     1
102
RTVSPropertyOp0
 70
     1
102
RTVSPropertyOp1
 70
     1
102
RTVSPropertyOp2
 70
     1
102
RTVSPropertyOp3
 70
     1
102
RTVSPropertyOp4
 70
     1
102
RTVSPropertyOp5
 70
     1
102
RTVSPropertyOp6
 70
     1
102
RTVSPropertyOp7
 70
     1
102
RTVSPropertyOp8
 70
     1
102
RTVSPropertyOp9
 70
     1
102
RTVSPropertyOp10
 70
     1
102
RTVSPropertyOp11
 70
     1
102
RTVSPropertyOp12
 70
     1
102
RTVSPropertyOp13
 70
     1
102
RTVSPropertyOp14
 70
     1
102
RTVSPropertyOp15
 70
     1
102
RTVSPropertyOp16
 70
     1
102
RTVSPropertyOp17
 70
     1
102
RTVSPropertyOp18
 70
     1
102
RTVSPropertyOp19
 70
     1
102
RTVSPropertyOp20
 70
     1
102
RTVSPropertyOp21
 70
     1
102
RTVSPropertyOp22
 70
     1
102
RTVSPropertyOp23
 70
     1
102
RTVSPropertyOp24
 70
     1
102
RTVSPropertyOp25
 70
     1
102
RTVSPropertyOp26
 70
     1
102
RTVSPropertyOp27
 70
     1
102
RTVSPropertyOp28
 70
     1
102
RTVSPropertyOp29
 70
     1
102
RTVSPropertyOp30
 70
     1
102
RTVSPropertyOp31
 70
     1
102
RTVSPropertyOp32
 70
     1
102
RTVSPropertyOp33
 70
     1
102
RTVSPropertyOp34
 70
     1
102
RTVSPropertyOp35
 70
     1
102
RTVSPropertyOp36
 70
     1
102
RTVSPropertyOp37
 70
     1
102
RTVSPropertyOp38
 70
     1
102
RTVSPropertyOp39
 70
     1
102
RTVSPropertyOp40
 70
     1
102
RTVSPropertyOp41
 70
     1
102
RTVSPropertyOp42
 70
     1
102
RTVSPropertyOp43
 70
     1
102
RTVSPropertyOp44
 70
     1
102
RTVSPropertyOp45
 70
     1
102
RTVSPropertyOp46
 70
     1
102
RTVSPropertyOp47
 70
     1
102
RTVSPropertyOp48
 70
     1
102
RTVSPropertyOp49
 70
     1
102
RTVSPropertyOp50
 70
     1
102
RTVSPropertyOp51
 70
     0
102
RTVSPropertyOp52
 70
     0
102
RTVSPropertyOp53
 70
     1
102
RTVSPropertyOp54
 70
     1
102
RTVSPropertyOp55
 70
     1
102
RTVSPropertyOp56
 70
     1
102
RTVSPropertyOp57
 70
     1
102
RTVSPropertyOp58
 70
     1
102
RTVSPropertyOp59
 70
     1
102
RTVSPropertyOp60
 70
     1
102
RTVSPropertyOp61
 70
     1
102
RTVSPropertyOp62
 70
     1
  0
XRECORD
  5
A0A5
102
{ACAD_REACTORS
330
A0A4
102
}
330
A0A4
100
AcDbXrecord
280
     1
102
RTVSPost2010Prop28
280
     0
102
RTVSPost2010PropOp28
 70
     1
102
RTVSPost2010Prop29
280
     1
102
RTVSPost2010PropOp29
 70
     1
102
RTVSPost2010Prop30
280
     1
102
RTVSPost2010PropOp30
 70
     1
102
RTVSPost2010Prop31
280
     0
102
RTVSPost2010PropOp31
 70
     1
102
RTVSPost2010Prop32
280
     0
102
RTVSPost2010PropOp32
 70
     1
102
RTVSPost2010Prop33
280
     0
102
RTVSPost2010PropOp33
 70
     1
102
RTVSPost2010Prop34
280
     0
102
RTVSPost2010PropOp34
 70
     1
102
RTVSPost2010Prop35
280
     0
102
RTVSPost2010PropOp35
 70
     1
102
RTVSPost2010Prop36
280
     0
102
RTVSPost2010PropOp36
 70
     1
102
RTVSPost2010Prop37
 90
       50
102
RTVSPost2010PropOp37
 70
     1
102
RTVSPost2010Prop38
140
0.0
102
RTVSPost2010PropOp38
 70
     1
102
RTVSPost2010Prop39
140
1.0
102
RTVSPost2010PropOp39
 70
     1
102
RTVSPost2010Prop40
 90
        0
102
RTVSPost2010PropOp40
 70
     1
102
RTVSPost2010Prop41ColorIndex
 90
       18
102
RTVSPost2010Prop41ColorRGB
 90
        0
102
RTVSPost2010PropOp41
 70
     1
102
RTVSPost2010Prop42
 90
       50
102
RTVSPost2010PropOp42
 70
     1
102
RTVSPost2010Prop43
 90
        3
102
RTVSPost2010PropOp43
 70
     1
102
RTVSPost2010Prop44ColorIndex
 90
        5
102
RTVSPost2010Prop44ColorRGB
 90
      255
102
RTVSPost2010PropOp44
 70
     1
102
RTVSPost2010Prop45
280
     0
102
RTVSPost2010PropOp45
 70
     1
102
RTVSPost2010Prop46
 90
       50
102
RTVSPost2010PropOp46
 70
     1
102
RTVSPost2010Prop47
 90
       50
102
RTVSPost2010PropOp47
 70
     1
102
RTVSPost2010Prop48
 90
       50
102
RTVSPost2010PropOp48
 70
     1
102
RTVSPost2010Prop49
280
     0
102
RTVSPost2010PropOp49
 70
     1
102
RTVSPost2010Prop50
 90
       50
102
RTVSPost2010PropOp50
 70
     1
102
RTVSPost2010Prop51ColorIndex
 90
      256
102
RTVSPost2010Prop51ColorRGB
 90
-16777216
102
RTVSPost2010PropOp51
 70
     0
102
RTVSPost2010Prop52
140
1.0
102
RTVSPost2010PropOp52
 70
     0
102
RTVSPost2010Prop53
 90
        2
102
RTVSPost2010PropOp53
 70
     1
102
RTVSPost2010Prop54
  1
strokes_ogs.tif
102
RTVSPost2010PropOp54
 70
     1
102
RTVSPost2010Prop55
280
     0
102
RTVSPost2010PropOp55
 70
     1
102
RTVSPost2010Prop56
140
1.0
102
RTVSPost2010PropOp56
 70
     1
102
RTVSPost2010Prop57
140
1.0
102
RTVSPost2010PropOp57
 70
     1
102
RTVSPropertyOp0
 70
     1
102
RTVSPropertyOp1
 70
     1
102
RTVSPropertyOp2
 70
     1
102
RTVSPropertyOp3
 70
     1
102
RTVSPropertyOp4
 70
     1
102
RTVSPropertyOp5
 70
     1
102
RTVSPropertyOp6
 70
     1
102
RTVSPropertyOp7
 70
     1
102
RTVSPropertyOp8
 70
     1
102
RTVSPropertyOp9
 70
     1
102
RTVSPropertyOp10
 70
     1
102
RTVSPropertyOp11
 70
     1
102
RTVSPropertyOp12
 70
     1
102
RTVSPropertyOp13
 70
     1
102
RTVSPropertyOp14
 70
     1
102
RTVSPropertyOp15
 70
     1
102
RTVSPropertyOp16
 70
     1
102
RTVSPropertyOp17
 70
     1
102
RTVSPropertyOp18
 70
     1
102
RTVSPropertyOp19
 70
     1
102
RTVSPropertyOp20
 70
     1
102
RTVSPropertyOp21
 70
     1
102
RTVSPropertyOp22
 70
     1
102
RTVSPropertyOp23
 70
     1
102
RTVSPropertyOp24
 70
     1
102
RTVSPropertyOp25
 70
     1
102
RTVSPropertyOp26
 70
     1
102
RTVSPropertyOp27
 70
     1
102
RTVSPropertyOp28
 70
     1
102
RTVSPropertyOp29
 70
     1
102
RTVSPropertyOp30
 70
     1
102
RTVSPropertyOp31
 70
     1
102
RTVSPropertyOp32
 70
     1
102
RTVSPropertyOp33
 70
     1
102
RTVSPropertyOp34
 70
     1
102
RTVSPropertyOp35
 70
     1
102
RTVSPropertyOp36
 70
     1
102
RTVSPropertyOp37
 70
     1
102
RTVSPropertyOp38
 70
     1
102
RTVSPropertyOp39
 70
     1
102
RTVSPropertyOp40
 70
     1
102
RTVSPropertyOp41
 70
     1
102
RTVSPropertyOp42
 70
     1
102
RTVSPropertyOp43
 70
     1
102
RTVSPropertyOp44
 70
     1
102
RTVSPropertyOp45
 70
     1
102
RTVSPropertyOp46
 70
     1
102
RTVSPropertyOp47
 70
     1
102
RTVSPropertyOp48
 70
     1
102
RTVSPropertyOp49
 70
     1
102
RTVSPropertyOp50
 70
     1
102
RTVSPropertyOp51
 70
     0
102
RTVSPropertyOp52
 70
     0
102
RTVSPropertyOp53
 70
     1
102
RTVSPropertyOp54
 70
     1
102
RTVSPropertyOp55
 70
     1
102
RTVSPropertyOp56
 70
     1
102
RTVSPropertyOp57
 70
     1
102
RTVSPropertyOp58
 70
     1
102
RTVSPropertyOp59
 70
     1
102
RTVSPropertyOp60
 70
     1
102
RTVSPropertyOp61
 70
     1
102
RTVSPropertyOp62
 70
     1
  0
XRECORD
  5
A09B
102
{ACAD_REACTORS
330
A09A
102
}
330
A09A
100
AcDbXrecord
280
     1
102
RTVSPost2010Prop28
280
     0
102
RTVSPost2010PropOp28
 70
     1
102
RTVSPost2010Prop29
280
     1
102
RTVSPost2010PropOp29
 70
     1
102
RTVSPost2010Prop30
280
     1
102
RTVSPost2010PropOp30
 70
     1
102
RTVSPost2010Prop31
280
     0
102
RTVSPost2010PropOp31
 70
     1
102
RTVSPost2010Prop32
280
     0
102
RTVSPost2010PropOp32
 70
     1
102
RTVSPost2010Prop33
280
     0
102
RTVSPost2010PropOp33
 70
     1
102
RTVSPost2010Prop34
280
     0
102
RTVSPost2010PropOp34
 70
     1
102
RTVSPost2010Prop35
280
     0
102
RTVSPost2010PropOp35
 70
     1
102
RTVSPost2010Prop36
280
     0
102
RTVSPost2010PropOp36
 70
     1
102
RTVSPost2010Prop37
 90
       50
102
RTVSPost2010PropOp37
 70
     1
102
RTVSPost2010Prop38
140
0.0
102
RTVSPost2010PropOp38
 70
     1
102
RTVSPost2010Prop39
140
1.0
102
RTVSPost2010PropOp39
 70
     1
102
RTVSPost2010Prop40
 90
        0
102
RTVSPost2010PropOp40
 70
     1
102
RTVSPost2010Prop41ColorIndex
 90
       18
102
RTVSPost2010Prop41ColorRGB
 90
        0
102
RTVSPost2010PropOp41
 70
     1
102
RTVSPost2010Prop42
 90
       50
102
RTVSPost2010PropOp42
 70
     1
102
RTVSPost2010Prop43
 90
        3
102
RTVSPost2010PropOp43
 70
     1
102
RTVSPost2010Prop44ColorIndex
 90
        5
102
RTVSPost2010Prop44ColorRGB
 90
      255
102
RTVSPost2010PropOp44
 70
     1
102
RTVSPost2010Prop45
280
     0
102
RTVSPost2010PropOp45
 70
     1
102
RTVSPost2010Prop46
 90
       50
102
RTVSPost2010PropOp46
 70
     1
102
RTVSPost2010Prop47
 90
       50
102
RTVSPost2010PropOp47
 70
     1
102
RTVSPost2010Prop48
 90
       50
102
RTVSPost2010PropOp48
 70
     1
102
RTVSPost2010Prop49
280
     0
102
RTVSPost2010PropOp49
 70
     1
102
RTVSPost2010Prop50
 90
       50
102
RTVSPost2010PropOp50
 70
     1
102
RTVSPost2010Prop51ColorIndex
 90
      256
102
RTVSPost2010Prop51ColorRGB
 90
-16777216
102
RTVSPost2010PropOp51
 70
     0
102
RTVSPost2010Prop52
140
1.0
102
RTVSPost2010PropOp52
 70
     0
102
RTVSPost2010Prop53
 90
        2
102
RTVSPost2010PropOp53
 70
     1
102
RTVSPost2010Prop54
  1
strokes_ogs.tif
102
RTVSPost2010PropOp54
 70
     1
102
RTVSPost2010Prop55
280
     0
102
RTVSPost2010PropOp55
 70
     1
102
RTVSPost2010Prop56
140
1.0
102
RTVSPost2010PropOp56
 70
     1
102
RTVSPost2010Prop57
140
1.0
102
RTVSPost2010PropOp57
 70
     1
102
RTVSPropertyOp0
 70
     1
102
RTVSPropertyOp1
 70
     1
102
RTVSPropertyOp2
 70
     1
102
RTVSPropertyOp3
 70
     1
102
RTVSPropertyOp4
 70
     1
102
RTVSPropertyOp5
 70
     1
102
RTVSPropertyOp6
 70
     1
102
RTVSPropertyOp7
 70
     1
102
RTVSPropertyOp8
 70
     1
102
RTVSPropertyOp9
 70
     1
102
RTVSPropertyOp10
 70
     1
102
RTVSPropertyOp11
 70
     1
102
RTVSPropertyOp12
 70
     1
102
RTVSPropertyOp13
 70
     1
102
RTVSPropertyOp14
 70
     1
102
RTVSPropertyOp15
 70
     1
102
RTVSPropertyOp16
 70
     1
102
RTVSPropertyOp17
 70
     1
102
RTVSPropertyOp18
 70
     1
102
RTVSPropertyOp19
 70
     1
102
RTVSPropertyOp20
 70
     1
102
RTVSPropertyOp21
 70
     1
102
RTVSPropertyOp22
 70
     1
102
RTVSPropertyOp23
 70
     1
102
RTVSPropertyOp24
 70
     1
102
RTVSPropertyOp25
 70
     1
102
RTVSPropertyOp26
 70
     1
102
RTVSPropertyOp27
 70
     1
102
RTVSPropertyOp28
 70
     1
102
RTVSPropertyOp29
 70
     1
102
RTVSPropertyOp30
 70
     1
102
RTVSPropertyOp31
 70
     1
102
RTVSPropertyOp32
 70
     1
102
RTVSPropertyOp33
 70
     1
102
RTVSPropertyOp34
 70
     1
102
RTVSPropertyOp35
 70
     1
102
RTVSPropertyOp36
 70
     1
102
RTVSPropertyOp37
 70
     1
102
RTVSPropertyOp38
 70
     1
102
RTVSPropertyOp39
 70
     1
102
RTVSPropertyOp40
 70
     1
102
RTVSPropertyOp41
 70
     1
102
RTVSPropertyOp42
 70
     1
102
RTVSPropertyOp43
 70
     1
102
RTVSPropertyOp44
 70
     1
102
RTVSPropertyOp45
 70
     1
102
RTVSPropertyOp46
 70
     1
102
RTVSPropertyOp47
 70
     1
102
RTVSPropertyOp48
 70
     1
102
RTVSPropertyOp49
 70
     1
102
RTVSPropertyOp50
 70
     1
102
RTVSPropertyOp51
 70
     0
102
RTVSPropertyOp52
 70
     0
102
RTVSPropertyOp53
 70
     1
102
RTVSPropertyOp54
 70
     1
102
RTVSPropertyOp55
 70
     1
102
RTVSPropertyOp56
 70
     1
102
RTVSPropertyOp57
 70
     1
102
RTVSPropertyOp58
 70
     1
102
RTVSPropertyOp59
 70
     1
102
RTVSPropertyOp60
 70
     1
102
RTVSPropertyOp61
 70
     1
102
RTVSPropertyOp62
 70
     1
  0
XRECORD
  5
A08F
102
{ACAD_REACTORS
330
A08E
102
}
330
A08E
100
AcDbXrecord
280
     1
102
RTVSPost2010Prop28
280
     0
102
RTVSPost2010PropOp28
 70
     1
102
RTVSPost2010Prop29
280
     1
102
RTVSPost2010PropOp29
 70
     1
102
RTVSPost2010Prop30
280
     1
102
RTVSPost2010PropOp30
 70
     1
102
RTVSPost2010Prop31
280
     0
102
RTVSPost2010PropOp31
 70
     1
102
RTVSPost2010Prop32
280
     0
102
RTVSPost2010PropOp32
 70
     1
102
RTVSPost2010Prop33
280
     0
102
RTVSPost2010PropOp33
 70
     1
102
RTVSPost2010Prop34
280
     0
102
RTVSPost2010PropOp34
 70
     1
102
RTVSPost2010Prop35
280
     0
102
RTVSPost2010PropOp35
 70
     1
102
RTVSPost2010Prop36
280
     0
102
RTVSPost2010PropOp36
 70
     1
102
RTVSPost2010Prop37
 90
       50
102
RTVSPost2010PropOp37
 70
     1
102
RTVSPost2010Prop38
140
0.0
102
RTVSPost2010PropOp38
 70
     1
102
RTVSPost2010Prop39
140
1.0
102
RTVSPost2010PropOp39
 70
     1
102
RTVSPost2010Prop40
 90
        0
102
RTVSPost2010PropOp40
 70
     1
102
RTVSPost2010Prop41ColorIndex
 90
       18
102
RTVSPost2010Prop41ColorRGB
 90
        0
102
RTVSPost2010PropOp41
 70
     1
102
RTVSPost2010Prop42
 90
       50
102
RTVSPost2010PropOp42
 70
     1
102
RTVSPost2010Prop43
 90
        3
102
RTVSPost2010PropOp43
 70
     1
102
RTVSPost2010Prop44ColorIndex
 90
        5
102
RTVSPost2010Prop44ColorRGB
 90
      255
102
RTVSPost2010PropOp44
 70
     1
102
RTVSPost2010Prop45
280
     0
102
RTVSPost2010PropOp45
 70
     1
102
RTVSPost2010Prop46
 90
       50
102
RTVSPost2010PropOp46
 70
     1
102
RTVSPost2010Prop47
 90
       50
102
RTVSPost2010PropOp47
 70
     1
102
RTVSPost2010Prop48
 90
       50
102
RTVSPost2010PropOp48
 70
     1
102
RTVSPost2010Prop49
280
     0
102
RTVSPost2010PropOp49
 70
     1
102
RTVSPost2010Prop50
 90
       50
102
RTVSPost2010PropOp50
 70
     1
102
RTVSPost2010Prop51ColorIndex
 90
      256
102
RTVSPost2010Prop51ColorRGB
 90
-16777216
102
RTVSPost2010PropOp51
 70
     0
102
RTVSPost2010Prop52
140
1.0
102
RTVSPost2010PropOp52
 70
     0
102
RTVSPost2010Prop53
 90
        2
102
RTVSPost2010PropOp53
 70
     1
102
RTVSPost2010Prop54
  1
strokes_ogs.tif
102
RTVSPost2010PropOp54
 70
     1
102
RTVSPost2010Prop55
280
     0
102
RTVSPost2010PropOp55
 70
     1
102
RTVSPost2010Prop56
140
1.0
102
RTVSPost2010PropOp56
 70
     1
102
RTVSPost2010Prop57
140
1.0
102
RTVSPost2010PropOp57
 70
     1
102
RTVSPropertyOp0
 70
     1
102
RTVSPropertyOp1
 70
     1
102
RTVSPropertyOp2
 70
     1
102
RTVSPropertyOp3
 70
     1
102
RTVSPropertyOp4
 70
     1
102
RTVSPropertyOp5
 70
     1
102
RTVSPropertyOp6
 70
     1
102
RTVSPropertyOp7
 70
     1
102
RTVSPropertyOp8
 70
     1
102
RTVSPropertyOp9
 70
     1
102
RTVSPropertyOp10
 70
     1
102
RTVSPropertyOp11
 70
     1
102
RTVSPropertyOp12
 70
     1
102
RTVSPropertyOp13
 70
     1
102
RTVSPropertyOp14
 70
     1
102
RTVSPropertyOp15
 70
     1
102
RTVSPropertyOp16
 70
     1
102
RTVSPropertyOp17
 70
     1
102
RTVSPropertyOp18
 70
     1
102
RTVSPropertyOp19
 70
     1
102
RTVSPropertyOp20
 70
     1
102
RTVSPropertyOp21
 70
     1
102
RTVSPropertyOp22
 70
     1
102
RTVSPropertyOp23
 70
     1
102
RTVSPropertyOp24
 70
     1
102
RTVSPropertyOp25
 70
     1
102
RTVSPropertyOp26
 70
     1
102
RTVSPropertyOp27
 70
     1
102
RTVSPropertyOp28
 70
     1
102
RTVSPropertyOp29
 70
     1
102
RTVSPropertyOp30
 70
     1
102
RTVSPropertyOp31
 70
     1
102
RTVSPropertyOp32
 70
     1
102
RTVSPropertyOp33
 70
     1
102
RTVSPropertyOp34
 70
     1
102
RTVSPropertyOp35
 70
     1
102
RTVSPropertyOp36
 70
     1
102
RTVSPropertyOp37
 70
     1
102
RTVSPropertyOp38
 70
     1
102
RTVSPropertyOp39
 70
     1
102
RTVSPropertyOp40
 70
     1
102
RTVSPropertyOp41
 70
     1
102
RTVSPropertyOp42
 70
     1
102
RTVSPropertyOp43
 70
     1
102
RTVSPropertyOp44
 70
     1
102
RTVSPropertyOp45
 70
     1
102
RTVSPropertyOp46
 70
     1
102
RTVSPropertyOp47
 70
     1
102
RTVSPropertyOp48
 70
     1
102
RTVSPropertyOp49
 70
     1
102
RTVSPropertyOp50
 70
     1
102
RTVSPropertyOp51
 70
     0
102
RTVSPropertyOp52
 70
     0
102
RTVSPropertyOp53
 70
     1
102
RTVSPropertyOp54
 70
     1
102
RTVSPropertyOp55
 70
     1
102
RTVSPropertyOp56
 70
     1
102
RTVSPropertyOp57
 70
     1
102
RTVSPropertyOp58
 70
     1
102
RTVSPropertyOp59
 70
     1
102
RTVSPropertyOp60
 70
     1
102
RTVSPropertyOp61
 70
     1
102
RTVSPropertyOp62
 70
     1
  0
XRECORD
  5
A0A7
102
{ACAD_REACTORS
330
A0A6
102
}
330
A0A6
100
AcDbXrecord
280
     1
102
RTVSPost2010Prop28
280
     0
102
RTVSPost2010PropOp28
 70
     1
102
RTVSPost2010Prop29
280
     1
102
RTVSPost2010PropOp29
 70
     1
102
RTVSPost2010Prop30
280
     1
102
RTVSPost2010PropOp30
 70
     1
102
RTVSPost2010Prop31
280
     0
102
RTVSPost2010PropOp31
 70
     1
102
RTVSPost2010Prop32
280
     0
102
RTVSPost2010PropOp32
 70
     1
102
RTVSPost2010Prop33
280
     0
102
RTVSPost2010PropOp33
 70
     1
102
RTVSPost2010Prop34
280
     0
102
RTVSPost2010PropOp34
 70
     1
102
RTVSPost2010Prop35
280
     0
102
RTVSPost2010PropOp35
 70
     1
102
RTVSPost2010Prop36
280
     0
102
RTVSPost2010PropOp36
 70
     1
102
RTVSPost2010Prop37
 90
       50
102
RTVSPost2010PropOp37
 70
     1
102
RTVSPost2010Prop38
140
0.0
102
RTVSPost2010PropOp38
 70
     1
102
RTVSPost2010Prop39
140
1.0
102
RTVSPost2010PropOp39
 70
     1
102
RTVSPost2010Prop40
 90
        0
102
RTVSPost2010PropOp40
 70
     1
102
RTVSPost2010Prop41ColorIndex
 90
       18
102
RTVSPost2010Prop41ColorRGB
 90
        0
102
RTVSPost2010PropOp41
 70
     1
102
RTVSPost2010Prop42
 90
       50
102
RTVSPost2010PropOp42
 70
     1
102
RTVSPost2010Prop43
 90
        3
102
RTVSPost2010PropOp43
 70
     1
102
RTVSPost2010Prop44ColorIndex
 90
        5
102
RTVSPost2010Prop44ColorRGB
 90
      255
102
RTVSPost2010PropOp44
 70
     1
102
RTVSPost2010Prop45
280
     0
102
RTVSPost2010PropOp45
 70
     1
102
RTVSPost2010Prop46
 90
       50
102
RTVSPost2010PropOp46
 70
     1
102
RTVSPost2010Prop47
 90
       50
102
RTVSPost2010PropOp47
 70
     1
102
RTVSPost2010Prop48
 90
       50
102
RTVSPost2010PropOp48
 70
     1
102
RTVSPost2010Prop49
280
     0
102
RTVSPost2010PropOp49
 70
     1
102
RTVSPost2010Prop50
 90
       50
102
RTVSPost2010PropOp50
 70
     1
102
RTVSPost2010Prop51ColorIndex
 90
      256
102
RTVSPost2010Prop51ColorRGB
 90
-16777216
102
RTVSPost2010PropOp51
 70
     0
102
RTVSPost2010Prop52
140
1.0
102
RTVSPost2010PropOp52
 70
     0
102
RTVSPost2010Prop53
 90
        2
102
RTVSPost2010PropOp53
 70
     1
102
RTVSPost2010Prop54
  1
strokes_ogs.tif
102
RTVSPost2010PropOp54
 70
     1
102
RTVSPost2010Prop55
280
     0
102
RTVSPost2010PropOp55
 70
     1
102
RTVSPost2010Prop56
140
1.0
102
RTVSPost2010PropOp56
 70
     1
102
RTVSPost2010Prop57
140
1.0
102
RTVSPost2010PropOp57
 70
     1
102
RTVSPropertyOp0
 70
     1
102
RTVSPropertyOp1
 70
     1
102
RTVSPropertyOp2
 70
     1
102
RTVSPropertyOp3
 70
     1
102
RTVSPropertyOp4
 70
     1
102
RTVSPropertyOp5
 70
     1
102
RTVSPropertyOp6
 70
     1
102
RTVSPropertyOp7
 70
     1
102
RTVSPropertyOp8
 70
     1
102
RTVSPropertyOp9
 70
     1
102
RTVSPropertyOp10
 70
     1
102
RTVSPropertyOp11
 70
     1
102
RTVSPropertyOp12
 70
     1
102
RTVSPropertyOp13
 70
     1
102
RTVSPropertyOp14
 70
     1
102
RTVSPropertyOp15
 70
     1
102
RTVSPropertyOp16
 70
     1
102
RTVSPropertyOp17
 70
     1
102
RTVSPropertyOp18
 70
     1
102
RTVSPropertyOp19
 70
     1
102
RTVSPropertyOp20
 70
     1
102
RTVSPropertyOp21
 70
     1
102
RTVSPropertyOp22
 70
     1
102
RTVSPropertyOp23
 70
     1
102
RTVSPropertyOp24
 70
     1
102
RTVSPropertyOp25
 70
     1
102
RTVSPropertyOp26
 70
     1
102
RTVSPropertyOp27
 70
     1
102
RTVSPropertyOp28
 70
     1
102
RTVSPropertyOp29
 70
     1
102
RTVSPropertyOp30
 70
     1
102
RTVSPropertyOp31
 70
     1
102
RTVSPropertyOp32
 70
     1
102
RTVSPropertyOp33
 70
     1
102
RTVSPropertyOp34
 70
     1
102
RTVSPropertyOp35
 70
     1
102
RTVSPropertyOp36
 70
     1
102
RTVSPropertyOp37
 70
     1
102
RTVSPropertyOp38
 70
     1
102
RTVSPropertyOp39
 70
     1
102
RTVSPropertyOp40
 70
     1
102
RTVSPropertyOp41
 70
     1
102
RTVSPropertyOp42
 70
     1
102
RTVSPropertyOp43
 70
     1
102
RTVSPropertyOp44
 70
     1
102
RTVSPropertyOp45
 70
     1
102
RTVSPropertyOp46
 70
     1
102
RTVSPropertyOp47
 70
     1
102
RTVSPropertyOp48
 70
     1
102
RTVSPropertyOp49
 70
     1
102
RTVSPropertyOp50
 70
     1
102
RTVSPropertyOp51
 70
     0
102
RTVSPropertyOp52
 70
     0
102
RTVSPropertyOp53
 70
     1
102
RTVSPropertyOp54
 70
     1
102
RTVSPropertyOp55
 70
     1
102
RTVSPropertyOp56
 70
     1
102
RTVSPropertyOp57
 70
     1
102
RTVSPropertyOp58
 70
     1
102
RTVSPropertyOp59
 70
     1
102
RTVSPropertyOp60
 70
     1
102
RTVSPropertyOp61
 70
     1
102
RTVSPropertyOp62
 70
     1
  0
ENDSEC
  0
EOF
