  0
SECTION
  2
HEADER
  9
$ACADVER
  1
AC1015
  9
$ACADMAINTVER
 70
    20
  9
$DWGCODEPAGE
  3
ANSI_932
  9
$INSBASE
 10
0.0
 20
0.0
 30
0.0
  9
$EXTMIN
 10
10.0
 20
9.999999999999998
 30
0.0
  9
$EXTMAX
 10
393.888579
 20
253.135558
 30
0.0
  9
$LIMMIN
 10
0.0
 20
0.0
  9
$LIMMAX
 10
396.0
 20
273.0
  9
$ORTHOMODE
 70
     1
  9
$REGENMODE
 70
     1
  9
$FILLMODE
 70
     1
  9
$QTEXTMODE
 70
     0
  9
$MIRRTEXT
 70
     1
  9
$LTSCALE
 40
20.0
  9
$ATTMODE
 70
     1
  9
$TEXTSIZE
 40
5.0
  9
$TRACEWID
 40
1.0
  9
$TEXTSTYLE
  7
STANDARD
  9
$CLAYER
  8
0
  9
$CELTYPE
  6
BYLAYER
  9
$CECOLOR
 62
   256
  9
$CELTSCALE
 40
1.0
  9
$DISPSILH
 70
     0
  9
$DIMSCALE
 40
1.0
  9
$DIMASZ
 40
3.0
  9
$DIMEXO
 40
1.0
  9
$DIMDLI
 40
10.0
  9
$DIMRND
 40
0.0
  9
$DIMDLE
 40
0.0
  9
$DIMEXE
 40
1.0
  9
$DIMTP
 40
0.0
  9
$DIMTM
 40
0.0
  9
$DIMTXT
 40
3.2
  9
$DIMCEN
 40
0.0
  9
$DIMTSZ
 40
0.0
  9
$DIMTOL
 70
     0
  9
$DIMLIM
 70
     0
  9
$DIMTIH
 70
     0
  9
$DIMTOH
 70
     0
  9
$DIMSE1
 70
     0
  9
$DIMSE2
 70
     0
  9
$DIMTAD
 70
     3
  9
$DIMZIN
 70
     9
  9
$DIMBLK
  1

  9
$DIMASO
 70
     1
  9
$DIMSHO
 70
     1
  9
$DIMPOST
  1

  9
$DIMAPOST
  1

  9
$DIMALT
 70
     0
  9
$DIMALTD
 70
     2
  9
$DIMALTF
 40
25.4
  9
$DIMLFAC
 40
1.0
  9
$DIMTOFL
 70
     1
  9
$DIMTVP
 40
0.0
  9
$DIMTIX
 70
     0
  9
$DIMSOXD
 70
     0
  9
$DIMSAH
 70
     1
  9
$DIMBLK1
  1

  9
$DIMBLK2
  1

  9
$DIMSTYLE
  2
STANDARD
  9
$DIMCLRD
 70
     0
  9
$DIMCLRE
 70
     0
  9
$DIMCLRT
 70
     0
  9
$DIMTFAC
 40
1.0
  9
$DIMGAP
 40
1.0
  9
$DIMJUST
 70
     0
  9
$DIMSD1
 70
     0
  9
$DIMSD2
 70
     0
  9
$DIMTOLJ
 70
     1
  9
$DIMTZIN
 70
     0
  9
$DIMALTZ
 70
     0
  9
$DIMALTTZ
 70
     0
  9
$DIMUPT
 70
     0
  9
$DIMDEC
 70
     4
  9
$DIMTDEC
 70
     4
  9
$DIMALTU
 70
     2
  9
$DIMALTTD
 70
     2
  9
$DIMTXSTY
  7
STANDARD
  9
$DIMAUNIT
 70
     0
  9
$DIMADEC
 70
     0
  9
$DIMALTRND
 40
0.0
  9
$DIMAZIN
 70
     0
  9
$DIMDSEP
 70
    46
  9
$DIMATFIT
 70
     3
  9
$DIMFRAC
 70
     0
  9
$DIMLDRBLK
  1

  9
$DIMLUNIT
 70
     2
  9
$DIMLWD
 70
    -2
  9
$DIMLWE
 70
    -2
  9
$DIMTMOVE
 70
     0
  9
$LUNITS
 70
     2
  9
$LUPREC
 70
     4
  9
$SKETCHINC
 40
1.0
  9
$FILLETRAD
 40
1.5
  9
$AUNITS
 70
     0
  9
$AUPREC
 70
     2
  9
$MENU
  1
.
  9
$ELEVATION
 40
0.0
  9
$PELEVATION
 40
0.0
  9
$THICKNESS
 40
0.0
  9
$LIMCHECK
 70
     0
  9
$CHAMFERA
 40
10.0
  9
$CHAMFERB
 40
10.0
  9
$CHAMFERC
 40
0.0
  9
$CHAMFERD
 40
0.0
  9
$SKPOLY
 70
     0
  9
$TDCREATE
 40
2451074.436242477
  9
$TDUCREATE
 40
2451074.061242477
  9
$TDUPDATE
 40
2457192.601260636
  9
$TDUUPDATE
 40
2457192.226260637
  9
$TDINDWG
 40
0.0000142361
  9
$TDUSRTIMER
 40
0.0000137500
  9
$USRTIMER
 70
     1
  9
$ANGBASE
 50
0.0
  9
$ANGDIR
 70
     0
  9
$PDMODE
 70
     0
  9
$PDSIZE
 40
0.0
  9
$PLINEWID
 40
0.0
  9
$SPLFRAME
 70
     0
  9
$SPLINETYPE
 70
     6
  9
$SPLINESEGS
 70
     8
  9
$HANDSEED
  5
A6D1
  9
$SURFTAB1
 70
     6
  9
$SURFTAB2
 70
     6
  9
$SURFTYPE
 70
     6
  9
$SURFU
 70
     6
  9
$SURFV
 70
     6
  9
$UCSBASE
  2

  9
$UCSNAME
  2

  9
$UCSORG
 10
0.0
 20
0.0
 30
0.0
  9
$UCSXDIR
 10
1.0
 20
0.0
 30
0.0
  9
$UCSYDIR
 10
0.0
 20
1.0
 30
0.0
  9
$UCSORTHOREF
  2

  9
$UCSORTHOVIEW
 70
     0
  9
$UCSORGTOP
 10
0.0
 20
0.0
 30
0.0
  9
$UCSORGBOTTOM
 10
0.0
 20
0.0
 30
0.0
  9
$UCSORGLEFT
 10
0.0
 20
0.0
 30
0.0
  9
$UCSORGRIGHT
 10
0.0
 20
0.0
 30
0.0
  9
$UCSORGFRONT
 10
0.0
 20
0.0
 30
0.0
  9
$UCSORGBACK
 10
0.0
 20
0.0
 30
0.0
  9
$PUCSBASE
  2

  9
$PUCSNAME
  2

  9
$PUCSORG
 10
0.0
 20
0.0
 30
0.0
  9
$PUCSXDIR
 10
1.0
 20
0.0
 30
0.0
  9
$PUCSYDIR
 10
0.0
 20
1.0
 30
0.0
  9
$PUCSORTHOREF
  2

  9
$PUCSORTHOVIEW
 70
     0
  9
$PUCSORGTOP
 10
0.0
 20
0.0
 30
0.0
  9
$PUCSORGBOTTOM
 10
0.0
 20
0.0
 30
0.0
  9
$PUCSORGLEFT
 10
0.0
 20
0.0
 30
0.0
  9
$PUCSORGRIGHT
 10
0.0
 20
0.0
 30
0.0
  9
$PUCSORGFRONT
 10
0.0
 20
0.0
 30
0.0
  9
$PUCSORGBACK
 10
0.0
 20
0.0
 30
0.0
  9
$USERI1
 70
     0
  9
$USERI2
 70
     0
  9
$USERI3
 70
     0
  9
$USERI4
 70
     0
  9
$USERI5
 70
     0
  9
$USERR1
 40
0.0
  9
$USERR2
 40
0.0
  9
$USERR3
 40
0.0
  9
$USERR4
 40
0.0
  9
$USERR5
 40
0.0
  9
$WORLDVIEW
 70
     1
  9
$SHADEDGE
 70
     3
  9
$SHADEDIF
 70
    70
  9
$TILEMODE
 70
     1
  9
$MAXACTVP
 70
    16
  9
$PINSBASE
 10
0.0
 20
0.0
 30
0.0
  9
$PLIMCHECK
 70
     0
  9
$PEXTMIN
 10
1.000000000000000E+20
 20
1.000000000000000E+20
 30
1.000000000000000E+20
  9
$PEXTMAX
 10
-1.000000000000000E+20
 20
-1.000000000000000E+20
 30
-1.000000000000000E+20
  9
$PLIMMIN
 10
0.0
 20
0.0
  9
$PLIMMAX
 10
420.0
 20
297.0
  9
$UNITMODE
 70
     0
  9
$VISRETAIN
 70
     0
  9
$PLINEGEN
 70
     0
  9
$PSLTSCALE
 70
     0
  9
$TREEDEPTH
 70
  3020
  9
$CMLSTYLE
  2
STANDARD
  9
$CMLJUST
 70
     0
  9
$CMLSCALE
 40
1.0
  9
$PROXYGRAPHICS
 70
     1
  9
$MEASUREMENT
 70
     0
  9
$CELWEIGHT
370
    -1
  9
$ENDCAPS
280
     0
  9
$JOINSTYLE
280
     0
  9
$LWDISPLAY
290
     0
  9
$INSUNITS
 70
     0
  9
$HYPERLINKBASE
  1

  9
$STYLESHEET
  1

  9
$XEDIT
290
     1
  9
$CEPSNTYPE
380
     0
  9
$PSTYLEMODE
290
     1
  9
$FINGERPRINTGUID
  2
{5A45C1AF-E060-46CB-8645-4090D50966F8}
  9
$VERSIONGUID
  2
{7B3193DE-F4FB-4A49-B349-DF1DEA77DC1A}
  9
$EXTNAMES
290
     1
  9
$PSVPSCALE
 40
0.0
  9
$OLESTARTUP
290
     0
  0
ENDSEC
  0
SECTION
  2
CLASSES
  0
CLASS
  1
ACDBDICTIONARYWDFLT
  2
AcDbDictionaryWithDefault
  3
ObjectDBX Classes
 90
        0
280
     0
281
     0
  0
CLASS
  1
ACDBPLACEHOLDER
  2
AcDbPlaceHolder
  3
ObjectDBX Classes
 90
        0
280
     0
281
     0
  0
CLASS
  1
LAYOUT
  2
AcDbLayout
  3
ObjectDBX Classes
 90
        0
280
     0
281
     0
  0
CLASS
  1
DICTIONARYVAR
  2
AcDbDictionaryVar
  3
ObjectDBX Classes
 90
        0
280
     0
281
     0
  0
CLASS
  1
MATERIAL
  2
AcDbMaterial
  3
ObjectDBX Classes
 90
     1153
280
     0
281
     0
  0
CLASS
  1
VISUALSTYLE
  2
AcDbVisualStyle
  3
ObjectDBX Classes
 90
     4095
280
     0
281
     0
  0
CLASS
  1
TABLESTYLE
  2
AcDbTableStyle
  3
ObjectDBX Classes
 90
     4095
280
     0
281
     0
  0
CLASS
  1
SCALE
  2
AcDbScale
  3
ObjectDBX Classes
 90
     1153
280
     0
281
     0
  0
CLASS
  1
MLEADERSTYLE
  2
AcDbMLeaderStyle
  3
ACDB_MLEADERSTYLE_CLASS
 90
     4095
280
     0
281
     0
  0
CLASS
  1
ACDBSECTIONVIEWSTYLE
  2
AcDbSectionViewStyle
  3
ObjectDBX Classes
 90
     1025
280
     0
281
     0
  0
CLASS
  1
ACDBDETAILVIEWSTYLE
  2
AcDbDetailViewStyle
  3
ObjectDBX Classes
 90
     1025
280
     0
281
     0
  0
CLASS
  1
CELLSTYLEMAP
  2
AcDbCellStyleMap
  3
ObjectDBX Classes
 90
     1152
280
     0
281
     0
  0
ENDSEC
  0
SECTION
  2
TABLES
  0
TABLE
  2
VPORT
  5
A425
330
0
100
AcDbSymbolTable
 70
     1
  0
VPORT
  5
A61A
330
A425
100
AcDbSymbolTableRecord
100
AcDbViewportTableRecord
  2
*ACTIVE
 70
     0
 10
0.0
 20
0.0
 11
1.0
 21
1.0
 12
275.5881508554231
 22
131.5637060742169
 13
0.0
 23
0.0
 14
10.0
 24
10.0
 15
10.0
 25
10.0
 16
0.0
 26
0.0
 36
1.0
 17
0.0
 27
0.0
 37
0.0
 40
245.8684357496273
 41
1.899603698811096
 42
50.0
 43
0.0
 44
0.0
 50
0.0
 51
0.0
 71
     0
 72
   100
 73
     1
 74
     0
 75
     0
 76
     0
 77
     0
 78
     0
281
     0
 65
     1
110
0.0
120
0.0
130
0.0
111
1.0
121
0.0
131
0.0
112
0.0
122
1.0
132
0.0
 79
     0
146
0.0
1001
ACAD_NAV_VCDISPLAY
1070
     3
  0
ENDTAB
  0
TABLE
  2
LTYPE
  5
A422
330
0
100
AcDbSymbolTable
 70
     4
  0
LTYPE
  5
A430
330
A422
100
AcDbSymbolTableRecord
100
AcDbLinetypeTableRecord
  2
BYBLOCK
 70
     0
  3

 72
    65
 73
     0
 40
0.0
  0
LTYPE
  5
A431
330
A422
100
AcDbSymbolTableRecord
100
AcDbLinetypeTableRecord
  2
BYLAYER
 70
     0
  3

 72
    65
 73
     0
 40
0.0
  0
LTYPE
  5
A432
330
A422
100
AcDbSymbolTableRecord
100
AcDbLinetypeTableRecord
  2
CONTINUOUS
 70
     0
  3
Solid line
 72
    65
 73
     0
 40
0.0
  0
LTYPE
  5
A440
330
A422
100
AcDbSymbolTableRecord
100
AcDbLinetypeTableRecord
  2
DASHED
 70
     0
  3
__ __ __ __ __ __ __ __ __ __ __ __ __ __ __ __
 72
    65
 73
     2
 40
0.75
 49
0.5
 74
     0
 49
-0.25
 74
     0
  0
LTYPE
  5
A441
330
A422
100
AcDbSymbolTableRecord
100
AcDbLinetypeTableRecord
  2
CENTER
 70
     0
  3
____ _ ____ _ ____ _ ____ _ ____ _ ____ _ ____ 
 72
    65
 73
     4
 40
2.0
 49
1.25
 74
     0
 49
-0.25
 74
     0
 49
0.25
 74
     0
 49
-0.25
 74
     0
  0
LTYPE
  5
A442
330
A422
100
AcDbSymbolTableRecord
100
AcDbLinetypeTableRecord
  2
PHANTOM
 70
     0
  3
______  __  __  ______  __  __  ______  __  __ 
 72
    65
 73
     6
 40
2.5
 49
1.25
 74
     0
 49
-0.25
 74
     0
 49
0.25
 74
     0
 49
-0.25
 74
     0
 49
0.25
 74
     0
 49
-0.25
 74
     0
  0
ENDTAB
  0
TABLE
  2
LAYER
  5
A41F
330
0
100
AcDbSymbolTable
 70
     8
  0
LAYER
  5
A42D
102
{ACAD_XDICTIONARY
360
A675
102
}
330
A41F
100
AcDbSymbolTableRecord
100
AcDbLayerTableRecord
  2
0
 70
     0
 62
     7
  6
CONTINUOUS
370
    -3
390
A623
  0
LAYER
  5
A443
102
{ACAD_XDICTIONARY
360
A677
102
}
330
A41F
100
AcDbSymbolTableRecord
100
AcDbLayerTableRecord
  2
4
 70
     0
 62
     1
  6
CENTER
370
    -3
390
A623
  0
LAYER
  5
A444
102
{ACAD_XDICTIONARY
360
A679
102
}
330
A41F
100
AcDbSymbolTableRecord
100
AcDbLayerTableRecord
  2
5
 70
     0
 62
     6
  6
PHANTOM
370
    -3
390
A623
  0
LAYER
  5
A445
102
{ACAD_XDICTIONARY
360
A67B
102
}
330
A41F
100
AcDbSymbolTableRecord
100
AcDbLayerTableRecord
  2
1
 70
     0
 62
     7
  6
CONTINUOUS
370
    -3
390
A623
  0
LAYER
  5
A446
102
{ACAD_XDICTIONARY
360
A67D
102
}
330
A41F
100
AcDbSymbolTableRecord
100
AcDbLayerTableRecord
  2
2
 70
     0
 62
     4
  6
CONTINUOUS
370
    -3
390
A623
  0
LAYER
  5
A447
102
{ACAD_XDICTIONARY
360
A67F
102
}
330
A41F
100
AcDbSymbolTableRecord
100
AcDbLayerTableRecord
  2
3
 70
     0
 62
     2
  6
DASHED
370
    -3
390
A623
  0
LAYER
  5
A448
102
{ACAD_XDICTIONARY
360
A681
102
}
330
A41F
100
AcDbSymbolTableRecord
100
AcDbLayerTableRecord
  2
6
 70
     0
 62
     5
  6
CONTINUOUS
370
    -3
390
A623
  0
LAYER
  5
A449
102
{ACAD_XDICTIONARY
360
A683
102
}
330
A41F
100
AcDbSymbolTableRecord
100
AcDbLayerTableRecord
  2
7
 70
     0
 62
     3
  6
CONTINUOUS
370
    -3
390
A623
  0
ENDTAB
  0
TABLE
  2
STYLE
  5
A420
330
0
100
AcDbSymbolTable
 70
     1
  0
STYLE
  5
A42E
330
A420
100
AcDbSymbolTableRecord
100
AcDbTextStyleTableRecord
  2
STANDARD
 70
     0
 40
0.0
 41
1.0
 50
0.0
 71
     0
 42
5.0
  3
txt
  4

  0
ENDTAB
  0
TABLE
  2
VIEW
  5
A423
330
0
100
AcDbSymbolTable
 70
     0
  0
ENDTAB
  0
TABLE
  2
UCS
  5
A424
330
0
100
AcDbSymbolTable
 70
     0
  0
ENDTAB
  0
TABLE
  2
APPID
  5
A426
330
0
100
AcDbSymbolTable
 70
     3
  0
APPID
  5
A42F
330
A426
100
AcDbSymbolTableRecord
100
AcDbRegAppTableRecord
  2
ACAD
 70
     0
  0
APPID
  5
A68F
330
A426
100
AcDbSymbolTableRecord
100
AcDbRegAppTableRecord
  2
ACAD_NAV_VCDISPLAY
 70
     0
  0
APPID
  5
A6C8
330
A426
100
AcDbSymbolTableRecord
100
AcDbRegAppTableRecord
  2
ACAD_MLEADERVER
 70
     0
  0
ENDTAB
  0
TABLE
  2
DIMSTYLE
  5
A427
330
0
100
AcDbSymbolTable
 70
     1
100
AcDbDimStyleTable
 71
     0
  0
DIMSTYLE
105
A44B
330
A427
100
AcDbSymbolTableRecord
100
AcDbDimStyleTableRecord
  2
STANDARD
 70
     0
 41
3.0
 42
1.0
 43
10.0
 44
1.0
 73
     0
 74
     0
 77
     3
 78
     9
140
3.2
141
0.0
147
1.0
172
     1
173
     1
284
     9
285
     9
286
     9
340
A42E
  0
ENDTAB
  0
TABLE
  2
BLOCK_RECORD
  5
A41E
330
0
100
AcDbSymbolTable
 70
     0
  0
BLOCK_RECORD
  5
A43B
102
{ACAD_XDICTIONARY
360
A61D
102
}
330
A41E
100
AcDbSymbolTableRecord
100
AcDbBlockTableRecord
  2
*MODEL_SPACE
340
A671
  0
BLOCK_RECORD
  5
A437
102
{ACAD_XDICTIONARY
360
A61B
102
}
330
A41E
100
AcDbSymbolTableRecord
100
AcDbBlockTableRecord
  2
*PAPER_SPACE
340
A672
  0
ENDTAB
  0
ENDSEC
  0
SECTION
  2
BLOCKS
  0
BLOCK
  5
A43C
330
A43B
100
AcDbEntity
  8
0
100
AcDbBlockBegin
  2
*MODEL_SPACE
 70
     0
 10
0.0
 20
0.0
 30
0.0
  3
*MODEL_SPACE
  1

  0
ENDBLK
  5
A43D
330
A43B
100
AcDbEntity
  8
0
100
AcDbBlockEnd
  0
BLOCK
  5
A438
330
A437
100
AcDbEntity
 67
     1
  8
0
100
AcDbBlockBegin
  2
*PAPER_SPACE
 70
     0
 10
0.0
 20
0.0
 30
0.0
  3
*PAPER_SPACE
  1

  0
ENDBLK
  5
A439
330
A437
100
AcDbEntity
 67
     1
  8
0
100
AcDbBlockEnd
  0
ENDSEC
  0
SECTION
  2
ENTITIES
  0
TEXT
  5
A453
330
A43B
100
AcDbEntity
  8
7
  6
Continuous
100
AcDbText
 10
10.0
 20
18.0
 30
0.0
 40
3.0
  1
TYPE No.TL-296-2
100
AcDbText
  0
TEXT
  5
A454
330
A43B
100
AcDbEntity
  8
7
  6
Continuous
100
AcDbText
 10
10.0
 20
26.0
 30
0.0
 40
3.0
  1
CODE No.1869
100
AcDbText
  0
TEXT
  5
A455
330
A43B
100
AcDbEntity
  8
1
  6
Continuous
100
AcDbText
 10
10.0
 20
10.0
 30
0.0
 40
1.399999999999999
  1
LAYER
100
AcDbText
  0
TEXT
  5
A456
330
A43B
100
AcDbEntity
  8
1
  6
Continuous
100
AcDbText
 10
17.97951099999998
 20
10.04873699999998
 30
0.0
 40
1.399999999999999
  1
1
100
AcDbText
  0
TEXT
  5
A457
330
A43B
100
AcDbEntity
  8
7
  6
Continuous
100
AcDbText
 10
29.97951099999999
 20
10.04873699999998
 30
0.0
 40
1.399999999999999
  1
7
100
AcDbText
  0
TEXT
  5
A458
330
A43B
100
AcDbEntity
  8
4
  6
CENTER
100
AcDbText
 10
23.97951099999999
 20
10.04873699999998
 30
0.0
 40
1.399999999999999
  1
4
100
AcDbText
  0
TEXT
  5
A459
330
A43B
100
AcDbEntity
  8
3
  6
DASHED
100
AcDbText
 10
21.979511
 20
10.04873699999998
 30
0.0
 40
1.399999999999999
  1
3
100
AcDbText
  0
TEXT
  5
A45A
330
A43B
100
AcDbEntity
  8
2
  6
Continuous
100
AcDbText
 10
19.97951099999999
 20
10.04873699999998
 30
0.0
 40
1.399999999999999
  1
2
100
AcDbText
  0
TEXT
  5
A45B
330
A43B
100
AcDbEntity
  8
6
  6
Continuous
100
AcDbText
 10
27.979511
 20
10.04873699999998
 30
0.0
 40
1.399999999999999
  1
6
100
AcDbText
  0
TEXT
  5
A45C
330
A43B
100
AcDbEntity
  8
5
  6
PHANTOM
100
AcDbText
 10
25.97951099999999
 20
10.04873699999998
 30
0.0
 40
1.399999999999999
  1
5
100
AcDbText
  0
LINE
  5
A45D
330
A43B
100
AcDbEntity
  8
1
  6
Continuous
100
AcDbLine
 10
17.556479
 20
125.835558
 30
0.0
 11
61.55657900000001
 21
125.835558
 31
0.0
  0
LINE
  5
A45E
330
A43B
100
AcDbEntity
  8
1
  6
Continuous
100
AcDbLine
 10
62.756579
 20
162.835558
 30
0.0
 11
62.756579
 21
127.0355579999999
 31
0.0
  0
LINE
  5
A45F
330
A43B
100
AcDbEntity
  8
1
  6
Continuous
100
AcDbLine
 10
16.356479
 20
162.835558
 30
0.0
 11
16.356479
 21
127.0355579999999
 31
0.0
  0
LINE
  5
A460
330
A43B
100
AcDbEntity
  8
1
  6
Continuous
100
AcDbLine
 10
16.356479
 20
162.835558
 30
0.0
 11
17.556479
 21
162.835558
 31
0.0
  0
LINE
  5
A461
330
A43B
100
AcDbEntity
  8
1
  6
Continuous
100
AcDbLine
 10
61.55657900000001
 20
162.835558
 30
0.0
 11
62.756579
 21
162.835558
 31
0.0
  0
LINE
  5
A462
330
A43B
100
AcDbEntity
  8
1
  6
Continuous
100
AcDbLine
 10
16.356479
 20
157.2875579999999
 30
0.0
 11
62.756579
 21
157.2875579999999
 31
0.0
  0
LINE
  5
A463
330
A43B
100
AcDbEntity
  8
1
  6
Continuous
100
AcDbLine
 10
16.356479
 20
132.5555579999999
 30
0.0
 11
17.556479
 21
132.5555579999999
 31
0.0
  0
LINE
  5
A464
330
A43B
100
AcDbEntity
  8
1
  6
Continuous
100
AcDbLine
 10
61.55657900000001
 20
132.5555579999999
 30
0.0
 11
62.756579
 21
132.5555579999999
 31
0.0
  0
LINE
  5
A465
330
A43B
100
AcDbEntity
  8
1
  6
Continuous
100
AcDbLine
 10
61.55657900000001
 20
125.835558
 30
0.0
 11
61.55657900000001
 21
132.5555579999999
 31
0.0
  0
LINE
  5
A466
330
A43B
100
AcDbEntity
  8
1
  6
Continuous
100
AcDbLine
 10
61.55657900000001
 20
157.2875579999999
 30
0.0
 11
61.55657900000001
 21
162.835558
 31
0.0
  0
LINE
  5
A467
330
A43B
100
AcDbEntity
  8
1
  6
Continuous
100
AcDbLine
 10
17.556479
 20
132.5555579999999
 30
0.0
 11
17.556479
 21
125.835558
 31
0.0
  0
LINE
  5
A468
330
A43B
100
AcDbEntity
  8
1
  6
Continuous
100
AcDbLine
 10
17.556479
 20
162.835558
 30
0.0
 11
17.556479
 21
157.2875579999999
 31
0.0
  0
LINE
  5
A469
330
A43B
100
AcDbEntity
  8
1
  6
Continuous
100
AcDbLine
 10
16.356479
 20
127.0355579999999
 30
0.0
 11
17.556479
 21
127.0355579999999
 31
0.0
  0
LINE
  5
A46A
330
A43B
100
AcDbEntity
  8
1
  6
Continuous
100
AcDbLine
 10
61.55657900000001
 20
127.0355579999999
 30
0.0
 11
62.756579
 21
127.0355579999999
 31
0.0
  0
LINE
  5
A46B
330
A43B
100
AcDbEntity
  8
1
  6
Continuous
100
AcDbLine
 10
45.318579
 20
149.335558
 30
0.0
 11
50.556479
 21
149.335558
 31
0.0
  0
LINE
  5
A46C
330
A43B
100
AcDbEntity
  8
1
  6
Continuous
100
AcDbLine
 10
45.318579
 20
147.3355579999999
 30
0.0
 11
50.556479
 21
147.3355579999999
 31
0.0
  0
LINE
  5
A46D
330
A43B
100
AcDbEntity
  8
1
  6
Continuous
100
AcDbLine
 10
28.556479
 20
149.335558
 30
0.0
 11
32.76027899999998
 21
149.335558
 31
0.0
  0
LINE
  5
A46E
330
A43B
100
AcDbEntity
  8
1
  6
Continuous
100
AcDbLine
 10
33.694679
 20
149.335558
 30
0.0
 11
44.27197899999998
 21
149.335558
 31
0.0
  0
LINE
  5
A46F
330
A43B
100
AcDbEntity
  8
1
  6
Continuous
100
AcDbLine
 10
28.556479
 20
147.3355579999999
 30
0.0
 11
32.76027899999998
 21
147.3355579999999
 31
0.0
  0
LINE
  5
A470
330
A43B
100
AcDbEntity
  8
1
  6
Continuous
100
AcDbLine
 10
33.694679
 20
147.3355579999999
 30
0.0
 11
44.27197899999998
 21
147.3355579999999
 31
0.0
  0
LINE
  5
A471
330
A43B
100
AcDbEntity
  8
1
  6
Continuous
100
AcDbLine
 10
26.55647899999999
 20
151.3355579999999
 30
0.0
 11
26.55647899999999
 21
154.3345579999999
 31
0.0
  0
LINE
  5
A472
330
A43B
100
AcDbEntity
  8
1
  6
Continuous
100
AcDbLine
 10
26.55647899999999
 20
155.1945579999998
 30
0.0
 11
26.55647899999999
 21
157.2875579999999
 31
0.0
  0
LINE
  5
A473
330
A43B
100
AcDbEntity
  8
1
  6
Continuous
100
AcDbLine
 10
25.056479
 20
150.8355579999999
 30
0.0
 11
25.056479
 21
154.3345579999999
 31
0.0
  0
LINE
  5
A474
330
A43B
100
AcDbEntity
  8
1
  6
Continuous
100
AcDbLine
 10
25.056479
 20
155.1945579999998
 30
0.0
 11
25.056479
 21
157.2875579999999
 31
0.0
  0
LINE
  5
A475
330
A43B
100
AcDbEntity
  8
1
  6
Continuous
100
AcDbLine
 10
54.056479
 20
150.8355579999999
 30
0.0
 11
54.056479
 21
153.624558
 31
0.0
  0
LINE
  5
A476
330
A43B
100
AcDbEntity
  8
1
  6
Continuous
100
AcDbLine
 10
54.056479
 20
154.783558
 30
0.0
 11
54.056479
 21
157.2875579999999
 31
0.0
  0
LINE
  5
A477
330
A43B
100
AcDbEntity
  8
1
  6
Continuous
100
AcDbLine
 10
52.556479
 20
151.3355579999999
 30
0.0
 11
52.556479
 21
153.624558
 31
0.0
  0
LINE
  5
A478
330
A43B
100
AcDbEntity
  8
1
  6
Continuous
100
AcDbLine
 10
52.556479
 20
154.783558
 30
0.0
 11
52.556479
 21
157.2875579999999
 31
0.0
  0
LINE
  5
A479
330
A43B
100
AcDbEntity
  8
1
  6
Continuous
100
AcDbLine
 10
174.100579
 20
162.779558
 30
0.0
 11
172.1885789999998
 21
164.692558
 31
0.0
  0
LINE
  5
A47A
330
A43B
100
AcDbEntity
  8
1
  6
Continuous
100
AcDbLine
 10
176.421579
 20
162.5805579999999
 30
0.0
 11
173.248579
 21
165.7525579999999
 31
0.0
  0
LINE
  5
A47B
330
A43B
100
AcDbEntity
  8
1
  6
Continuous
100
AcDbLine
 10
173.248579
 20
165.7525579999999
 30
0.0
 11
172.1885789999998
 21
164.692558
 31
0.0
  0
LINE
  5
A47C
330
A43B
100
AcDbEntity
  8
1
  6
Continuous
100
AcDbLine
 10
183.1455789999999
 20
128.335558
 30
0.0
 11
184.3455789999999
 21
128.335558
 31
0.0
  0
LINE
  5
A47D
330
A43B
100
AcDbEntity
  8
1
  6
Continuous
100
AcDbLine
 10
182.3455789999999
 20
138.835558
 30
0.0
 11
184.3455789999999
 21
138.835558
 31
0.0
  0
LINE
  5
A47E
330
A43B
100
AcDbEntity
  8
1
  6
Continuous
100
AcDbLine
 10
179.3455789999999
 20
160.0145579999999
 30
0.0
 11
180.545579
 21
160.0145579999999
 31
0.0
  0
LINE
  5
A47F
330
A43B
100
AcDbEntity
  8
1
  6
Continuous
100
AcDbLine
 10
179.3455789999999
 20
151.0145579999999
 30
0.0
 11
180.545579
 21
151.0145579999999
 31
0.0
  0
LINE
  5
A480
330
A43B
100
AcDbEntity
  8
1
  6
Continuous
100
AcDbLine
 10
180.545579
 20
160.0145579999999
 30
0.0
 11
180.545579
 21
151.0145579999999
 31
0.0
  0
LINE
  5
A481
330
A43B
100
AcDbEntity
  8
1
  6
Continuous
100
AcDbLine
 10
179.3455789999999
 20
141.8355579999999
 30
0.0
 11
179.3455789999999
 21
151.0145579999999
 31
0.0
  0
LINE
  5
A482
330
A43B
100
AcDbEntity
  8
1
  6
Continuous
100
AcDbLine
 10
183.1455789999999
 20
128.335558
 30
0.0
 11
177.900579
 21
127.172558
 31
0.0
  0
LINE
  5
A483
330
A43B
100
AcDbEntity
  8
1
  6
Continuous
100
AcDbLine
 10
183.404579
 20
127.1635579999999
 30
0.0
 11
178.159579
 21
126.001558
 31
0.0
  0
LINE
  5
A484
330
A43B
100
AcDbEntity
  8
1
  6
Continuous
100
AcDbLine
 10
169.6505789999999
 20
132.5555579999999
 30
0.0
 11
168.6625789999999
 21
157.2875579999999
 31
0.0
  0
LINE
  5
A485
330
A43B
100
AcDbEntity
  8
1
  6
Continuous
100
AcDbLine
 10
183.1455789999999
 20
128.335558
 30
0.0
 11
183.404579
 21
127.1635579999999
 31
0.0
  0
LINE
  5
A486
330
A43B
100
AcDbEntity
  8
1
  6
Continuous
100
AcDbLine
 10
170.849579
 20
132.6035579999999
 30
0.0
 11
169.6505789999999
 21
132.5555579999999
 31
0.0
  0
LINE
  5
A487
330
A43B
100
AcDbEntity
  8
1
  6
Continuous
100
AcDbLine
 10
169.861579
 20
157.3355579999999
 30
0.0
 11
168.6625789999999
 21
157.2875579999999
 31
0.0
  0
LINE
  5
A488
330
A43B
100
AcDbEntity
  8
1
  6
Continuous
100
AcDbLine
 10
168.6625789999999
 20
157.2875579999999
 30
0.0
 11
167.045579
 21
157.2875579999999
 31
0.0
  0
LINE
  5
A489
330
A43B
100
AcDbEntity
  8
1
  6
Continuous
100
AcDbLine
 10
167.045579
 20
157.2875579999999
 30
0.0
 11
167.045579
 21
149.8345579999999
 31
0.0
  0
LINE
  5
A48A
330
A43B
100
AcDbEntity
  8
1
  6
Continuous
100
AcDbLine
 10
169.059579
 20
147.3355579999999
 30
0.0
 11
167.399579
 21
148.9835579999999
 31
0.0
  0
LINE
  5
A48B
330
A43B
100
AcDbEntity
  8
1
  6
Continuous
100
AcDbLine
 10
169.861579
 20
157.3355579999999
 30
0.0
 11
169.849579
 21
157.6355579999998
 31
0.0
  0
LINE
  5
A48C
330
A43B
100
AcDbEntity
  8
4
  6
CENTER
100
AcDbLine
 10
10.33057899999999
 20
132.8355579999999
 30
0.0
 11
67.917579
 21
132.8355579999999
 31
0.0
  0
LINE
  5
A48D
330
A43B
100
AcDbEntity
  8
1
  6
Continuous
100
AcDbLine
 10
337.138579
 20
125.835558
 30
0.0
 11
293.1385789999998
 21
125.835558
 31
0.0
  0
LINE
  5
A48E
330
A43B
100
AcDbEntity
  8
1
  6
Continuous
100
AcDbLine
 10
291.938579
 20
162.835558
 30
0.0
 11
291.938579
 21
127.0355579999999
 31
0.0
  0
LINE
  5
A48F
330
A43B
100
AcDbEntity
  8
1
  6
Continuous
100
AcDbLine
 10
338.3385789999999
 20
162.835558
 30
0.0
 11
338.3385789999999
 21
127.0355579999999
 31
0.0
  0
LINE
  5
A490
330
A43B
100
AcDbEntity
  8
4
  6
CENTER
100
AcDbLine
 10
315.1385789999999
 20
170.665558
 30
0.0
 11
315.1385789999999
 21
120.835558
 31
0.0
  0
LINE
  5
A491
330
A43B
100
AcDbEntity
  8
1
  6
Continuous
100
AcDbLine
 10
338.3385789999999
 20
162.835558
 30
0.0
 11
337.138579
 21
162.835558
 31
0.0
  0
LINE
  5
A492
330
A43B
100
AcDbEntity
  8
1
  6
Continuous
100
AcDbLine
 10
293.1385789999998
 20
162.835558
 30
0.0
 11
291.938579
 21
162.835558
 31
0.0
  0
LINE
  5
A493
330
A43B
100
AcDbEntity
  8
1
  6
Continuous
100
AcDbLine
 10
338.3385789999999
 20
127.0355579999999
 30
0.0
 11
337.138579
 21
127.0355579999999
 31
0.0
  0
LINE
  5
A494
330
A43B
100
AcDbEntity
  8
1
  6
Continuous
100
AcDbLine
 10
293.1385789999998
 20
127.0355579999999
 30
0.0
 11
291.938579
 21
127.0355579999999
 31
0.0
  0
LINE
  5
A495
330
A43B
100
AcDbEntity
  8
4
  6
CENTER
100
AcDbLine
 10
344.364579
 20
132.8355579999999
 30
0.0
 11
286.7785789999999
 21
132.8355579999999
 31
0.0
  0
LINE
  5
A496
330
A43B
100
AcDbEntity
  8
1
  6
Continuous
100
AcDbLine
 10
40.87107899999997
 20
165.5785579999999
 30
0.0
 11
59.519579
 21
163.1055579999998
 31
0.0
  0
LINE
  5
A497
330
A43B
100
AcDbEntity
  8
1
  6
Continuous
100
AcDbLine
 10
38.241879
 20
165.5785579999999
 30
0.0
 11
19.59357899999998
 21
163.1055579999998
 31
0.0
  0
LINE
  5
A498
330
A43B
100
AcDbEntity
  8
1
  6
Continuous
100
AcDbLine
 10
38.241879
 20
164.517558
 30
0.0
 11
19.59357899999998
 21
162.0445579999999
 31
0.0
  0
LINE
  5
A499
330
A43B
100
AcDbEntity
  8
1
  6
Continuous
100
AcDbLine
 10
40.87107899999997
 20
164.517558
 30
0.0
 11
59.519579
 21
162.0445579999999
 31
0.0
  0
LINE
  5
A49A
330
A43B
100
AcDbEntity
  8
1
  6
Continuous
100
AcDbLine
 10
17.856479
 20
159.035558
 30
0.0
 11
61.256579
 21
159.035558
 31
0.0
  0
LINE
  5
A49B
330
A43B
100
AcDbEntity
  8
1
  6
Continuous
100
AcDbLine
 10
337.138579
 20
127.1635579999999
 30
0.0
 11
293.1385789999998
 21
127.1635579999999
 31
0.0
  0
LINE
  5
A49C
330
A43B
100
AcDbEntity
  8
1
  6
Continuous
100
AcDbLine
 10
326.1385789999998
 20
153.332558
 30
0.0
 11
323.138579
 21
153.332558
 31
0.0
  0
LINE
  5
A49D
330
A43B
100
AcDbEntity
  8
1
  6
Continuous
100
AcDbLine
 10
293.1385789999998
 20
162.835558
 30
0.0
 11
293.1385789999998
 21
160.0145579999999
 31
0.0
  0
LINE
  5
A49E
330
A43B
100
AcDbEntity
  8
1
  6
Continuous
100
AcDbLine
 10
337.138579
 20
162.835558
 30
0.0
 11
337.138579
 21
160.0145579999999
 31
0.0
  0
LINE
  5
A49F
330
A43B
100
AcDbEntity
  8
1
  6
Continuous
100
AcDbLine
 10
298.138579
 20
158.0145579999999
 30
0.0
 11
298.138579
 21
153.0145579999999
 31
0.0
  0
LINE
  5
A4A0
330
A43B
100
AcDbEntity
  8
1
  6
Continuous
100
AcDbLine
 10
332.1385789999999
 20
158.0145579999999
 30
0.0
 11
332.1385789999999
 21
153.0145579999999
 31
0.0
  0
LINE
  5
A4A1
330
A43B
100
AcDbEntity
  8
1
  6
Continuous
100
AcDbLine
 10
296.1385789999998
 20
160.0145579999999
 30
0.0
 11
291.938579
 21
160.0145579999999
 31
0.0
  0
LINE
  5
A4A2
330
A43B
100
AcDbEntity
  8
1
  6
Continuous
100
AcDbLine
 10
338.3385789999999
 20
160.0145579999999
 30
0.0
 11
334.1385789999999
 21
160.0145579999999
 31
0.0
  0
LINE
  5
A4A3
330
A43B
100
AcDbEntity
  8
1
  6
Continuous
100
AcDbLine
 10
296.1385789999998
 20
151.0145579999999
 30
0.0
 11
291.938579
 21
151.0145579999999
 31
0.0
  0
LINE
  5
A4A4
330
A43B
100
AcDbEntity
  8
1
  6
Continuous
100
AcDbLine
 10
338.3385789999999
 20
151.0145579999999
 30
0.0
 11
334.1385789999999
 21
151.0145579999999
 31
0.0
  0
LINE
  5
A4A5
330
A43B
100
AcDbEntity
  8
1
  6
Continuous
100
AcDbLine
 10
316.4535789999998
 20
165.5785579999999
 30
0.0
 11
335.101579
 21
163.1055579999998
 31
0.0
  0
LINE
  5
A4A6
330
A43B
100
AcDbEntity
  8
1
  6
Continuous
100
AcDbLine
 10
313.824579
 20
165.5785579999999
 30
0.0
 11
295.175579
 21
163.1055579999998
 31
0.0
  0
LINE
  5
A4A7
330
A43B
100
AcDbEntity
  8
1
  6
Continuous
100
AcDbLine
 10
184.3455789999999
 20
138.835558
 30
0.0
 11
184.3455789999999
 21
128.335558
 31
0.0
  0
LINE
  5
A4A8
330
A43B
100
AcDbEntity
  8
1
  6
Continuous
100
AcDbLine
 10
331.3095789999999
 20
159.655558
 30
0.0
 11
298.4735789999998
 21
159.655558
 31
0.0
  0
LINE
  5
A4A9
330
A43B
100
AcDbEntity
  8
1
  6
Continuous
100
AcDbLine
 10
302.138579
 20
137.835558
 30
0.0
 11
302.138579
 21
129.3355579999999
 31
0.0
  0
LINE
  5
A4AA
330
A43B
100
AcDbEntity
  8
1
  6
Continuous
100
AcDbLine
 10
293.1385789999998
 20
151.0145579999999
 30
0.0
 11
293.1385789999998
 21
138.835558
 31
0.0
  0
LINE
  5
A4AB
330
A43B
100
AcDbEntity
  8
1
  6
Continuous
100
AcDbLine
 10
293.1385789999998
 20
128.335558
 30
0.0
 11
293.1385789999998
 21
125.835558
 31
0.0
  0
LINE
  5
A4AC
330
A43B
100
AcDbEntity
  8
1
  6
Continuous
100
AcDbLine
 10
323.138579
 20
137.835558
 30
0.0
 11
323.138579
 21
131.8355579999999
 31
0.0
  0
LINE
  5
A4AD
330
A43B
100
AcDbEntity
  8
1
  6
Continuous
100
AcDbLine
 10
301.1385789999998
 20
138.835558
 30
0.0
 11
291.938579
 21
138.835558
 31
0.0
  0
LINE
  5
A4AE
330
A43B
100
AcDbEntity
  8
1
  6
Continuous
100
AcDbLine
 10
338.3385789999999
 20
138.835558
 30
0.0
 11
324.1385789999998
 21
138.835558
 31
0.0
  0
LINE
  5
A4AF
330
A43B
100
AcDbEntity
  8
1
  6
Continuous
100
AcDbLine
 10
337.138579
 20
151.0145579999999
 30
0.0
 11
337.138579
 21
138.835558
 31
0.0
  0
LINE
  5
A4B0
330
A43B
100
AcDbEntity
  8
1
  6
Continuous
100
AcDbLine
 10
337.138579
 20
128.335558
 30
0.0
 11
337.138579
 21
125.835558
 31
0.0
  0
LINE
  5
A4B1
330
A43B
100
AcDbEntity
  8
1
  6
Continuous
100
AcDbLine
 10
329.138579
 20
131.8355579999999
 30
0.0
 11
329.138579
 21
129.3355579999999
 31
0.0
  0
LINE
  5
A4B2
330
A43B
100
AcDbEntity
  8
1
  6
Continuous
100
AcDbLine
 10
291.938579
 20
128.335558
 30
0.0
 11
338.3385789999999
 21
128.335558
 31
0.0
  0
LINE
  5
A4B3
330
A43B
100
AcDbEntity
  8
1
  6
Continuous
100
AcDbLine
 10
328.638579
 20
138.835558
 30
0.0
 11
328.638579
 21
131.8355579999999
 31
0.0
  0
LINE
  5
A4B4
330
A43B
100
AcDbEntity
  8
1
  6
Continuous
100
AcDbLine
 10
327.6385789999999
 20
138.835558
 30
0.0
 11
327.6385789999999
 21
131.8355579999999
 31
0.0
  0
LINE
  5
A4B5
330
A43B
100
AcDbEntity
  8
4
  6
CENTER
100
AcDbLine
 10
298.138579
 20
129.8355579999999
 30
0.0
 11
298.138579
 21
135.835558
 31
0.0
  0
LINE
  5
A4B6
330
A43B
100
AcDbEntity
  8
4
  6
CENTER
100
AcDbLine
 10
332.1385789999999
 20
129.8355579999999
 30
0.0
 11
332.1385789999999
 21
135.835558
 31
0.0
  0
LINE
  5
A4B7
330
A43B
100
AcDbEntity
  8
1
  6
Continuous
100
AcDbLine
 10
324.638579
 20
131.8355579999999
 30
0.0
 11
323.138579
 21
131.8355579999999
 31
0.0
  0
LINE
  5
A4B8
330
A43B
100
AcDbEntity
  8
1
  6
Continuous
100
AcDbLine
 10
329.138579
 20
131.8355579999999
 30
0.0
 11
326.638579
 21
131.8355579999999
 31
0.0
  0
LINE
  5
A4B9
330
A43B
100
AcDbEntity
  8
1
  6
Continuous
100
AcDbLine
 10
61.256579
 20
157.2875579999999
 30
0.0
 11
61.256579
 21
161.1225579999999
 31
0.0
  0
LINE
  5
A4BA
330
A43B
100
AcDbEntity
  8
1
  6
Continuous
100
AcDbLine
 10
17.856479
 20
161.1225579999999
 30
0.0
 11
17.856479
 21
157.2875579999999
 31
0.0
  0
LINE
  5
A4BB
330
A43B
100
AcDbEntity
  8
1
  6
Continuous
100
AcDbLine
 10
294.6385789999999
 20
147.3955579999999
 30
0.0
 11
294.6385789999999
 21
138.835558
 31
0.0
  0
LINE
  5
A4BC
330
A43B
100
AcDbEntity
  8
1
  6
Continuous
100
AcDbLine
 10
335.638579
 20
147.3955579999999
 30
0.0
 11
335.638579
 21
138.835558
 31
0.0
  0
LINE
  5
A4BD
330
A43B
100
AcDbEntity
  8
1
  6
Continuous
100
AcDbLine
 10
294.6385789999999
 20
146.7955579999998
 30
0.0
 11
293.1385789999998
 21
146.7955579999998
 31
0.0
  0
LINE
  5
A4BE
330
A43B
100
AcDbEntity
  8
1
  6
Continuous
100
AcDbLine
 10
337.138579
 20
146.7955579999998
 30
0.0
 11
335.638579
 21
146.7955579999998
 31
0.0
  0
LINE
  5
A4BF
330
A43B
100
AcDbEntity
  8
1
  6
Continuous
100
AcDbLine
 10
294.6385789999999
 20
147.3955579999999
 30
0.0
 11
293.1385789999998
 21
147.3955579999999
 31
0.0
  0
LINE
  5
A4C0
330
A43B
100
AcDbEntity
  8
1
  6
Continuous
100
AcDbLine
 10
337.138579
 20
147.3955579999999
 30
0.0
 11
335.638579
 21
147.3955579999999
 31
0.0
  0
LINE
  5
A4C1
330
A43B
100
AcDbEntity
  8
1
  6
Continuous
100
AcDbLine
 10
293.4385789999998
 20
161.1225579999999
 30
0.0
 11
293.4385789999998
 21
160.0145579999999
 31
0.0
  0
LINE
  5
A4C2
330
A43B
100
AcDbEntity
  8
1
  6
Continuous
100
AcDbLine
 10
293.4385789999998
 20
151.0145579999999
 30
0.0
 11
293.4385789999998
 21
147.3955579999999
 31
0.0
  0
LINE
  5
A4C3
330
A43B
100
AcDbEntity
  8
1
  6
Continuous
100
AcDbLine
 10
336.838579
 20
161.1225579999999
 30
0.0
 11
336.838579
 21
160.0145579999999
 31
0.0
  0
LINE
  5
A4C4
330
A43B
100
AcDbEntity
  8
1
  6
Continuous
100
AcDbLine
 10
336.838579
 20
151.0145579999999
 30
0.0
 11
336.838579
 21
147.3955579999999
 31
0.0
  0
LINE
  5
A4C5
330
A43B
100
AcDbEntity
  8
1
  6
Continuous
100
AcDbLine
 10
325.0385790000001
 20
132.6355579999998
 30
0.0
 11
325.0385790000001
 21
130.4855579999999
 31
0.0
  0
LINE
  5
A4C6
330
A43B
100
AcDbEntity
  8
1
  6
Continuous
100
AcDbLine
 10
323.8385789999999
 20
131.8355579999999
 30
0.0
 11
323.8385789999999
 21
130.4855579999999
 31
0.0
  0
LINE
  5
A4C7
330
A43B
100
AcDbEntity
  8
1
  6
Continuous
100
AcDbLine
 10
322.638579
 20
135.1855579999999
 30
0.0
 11
322.638579
 21
130.4855579999999
 31
0.0
  0
LINE
  5
A4C8
330
A43B
100
AcDbEntity
  8
1
  6
Continuous
100
AcDbLine
 10
321.438579
 20
135.1855579999999
 30
0.0
 11
321.438579
 21
130.4855579999999
 31
0.0
  0
LINE
  5
A4C9
330
A43B
100
AcDbEntity
  8
1
  6
Continuous
100
AcDbLine
 10
320.238579
 20
135.1855579999999
 30
0.0
 11
320.238579
 21
130.4855579999999
 31
0.0
  0
LINE
  5
A4CA
330
A43B
100
AcDbEntity
  8
1
  6
Continuous
100
AcDbLine
 10
319.038579
 20
135.1855579999999
 30
0.0
 11
319.038579
 21
130.4855579999999
 31
0.0
  0
LINE
  5
A4CB
330
A43B
100
AcDbEntity
  8
1
  6
Continuous
100
AcDbLine
 10
317.838579
 20
135.1855579999999
 30
0.0
 11
317.838579
 21
130.4855579999999
 31
0.0
  0
LINE
  5
A4CC
330
A43B
100
AcDbEntity
  8
1
  6
Continuous
100
AcDbLine
 10
316.638579
 20
135.1855579999999
 30
0.0
 11
316.638579
 21
130.4855579999999
 31
0.0
  0
LINE
  5
A4CD
330
A43B
100
AcDbEntity
  8
1
  6
Continuous
100
AcDbLine
 10
315.438579
 20
135.1855579999999
 30
0.0
 11
315.438579
 21
130.4855579999999
 31
0.0
  0
LINE
  5
A4CE
330
A43B
100
AcDbEntity
  8
1
  6
Continuous
100
AcDbLine
 10
314.238579
 20
135.1855579999999
 30
0.0
 11
314.238579
 21
130.4855579999999
 31
0.0
  0
LINE
  5
A4CF
330
A43B
100
AcDbEntity
  8
1
  6
Continuous
100
AcDbLine
 10
313.038579
 20
135.1855579999999
 30
0.0
 11
313.038579
 21
130.4855579999999
 31
0.0
  0
LINE
  5
A4D0
330
A43B
100
AcDbEntity
  8
1
  6
Continuous
100
AcDbLine
 10
311.838579
 20
135.1855579999999
 30
0.0
 11
311.838579
 21
130.4855579999999
 31
0.0
  0
LINE
  5
A4D1
330
A43B
100
AcDbEntity
  8
1
  6
Continuous
100
AcDbLine
 10
311.838579
 20
134.3355579999999
 30
0.0
 11
302.138579
 21
134.3355579999999
 31
0.0
  0
LINE
  5
A4D2
330
A43B
100
AcDbEntity
  8
1
  6
Continuous
100
AcDbLine
 10
329.138579
 20
131.3355579999999
 30
0.0
 11
325.0385790000001
 21
131.3355579999999
 31
0.0
  0
LINE
  5
A4D3
330
A43B
100
AcDbEntity
  8
4
  6
CENTER
100
AcDbLine
 10
178.3455789999999
 20
129.3355579999999
 30
0.0
 11
178.3455789999999
 21
136.3355579999999
 31
0.0
  0
LINE
  5
A4D4
330
A43B
100
AcDbEntity
  8
4
  6
CENTER
100
AcDbLine
 10
174.8455789999999
 20
132.8355579999999
 30
0.0
 11
186.175579
 21
132.8355579999999
 31
0.0
  0
LINE
  5
A4D5
330
A43B
100
AcDbEntity
  8
4
  6
CENTER
100
AcDbLine
 10
39.55647899999997
 20
171.1045579999999
 30
0.0
 11
39.55647899999997
 21
120.835558
 31
0.0
  0
LINE
  5
A4D6
330
A43B
100
AcDbEntity
  8
1
  6
Continuous
100
AcDbLine
 10
311.838579
 20
131.3355579999999
 30
0.0
 11
302.138579
 21
131.3355579999999
 31
0.0
  0
LINE
  5
A4D7
330
A43B
100
AcDbEntity
  8
1
  6
Continuous
100
AcDbLine
 10
290.9385789999999
 20
131.0855579999999
 30
0.0
 11
290.9385789999999
 21
134.585558
 31
0.0
  0
LINE
  5
A4D8
330
A43B
100
AcDbEntity
  8
1
  6
Continuous
100
AcDbLine
 10
63.756579
 20
134.585558
 30
0.0
 11
63.756579
 21
131.0855579999999
 31
0.0
  0
LINE
  5
A4D9
330
A43B
100
AcDbEntity
  8
4
  6
CENTER
100
AcDbLine
 10
10.33057899999999
 20
49.535258
 30
0.0
 11
67.917579
 21
49.535258
 31
0.0
  0
LINE
  5
A4DA
330
A43B
100
AcDbEntity
  8
5
  6
PHANTOM
100
AcDbLine
 10
57.556479
 20
248.135558
 30
0.0
 11
21.55647899999999
 21
248.135558
 31
0.0
  0
LINE
  5
A4DB
330
A43B
100
AcDbEntity
  8
4
  6
CENTER
100
AcDbLine
 10
39.55647899999997
 20
65.835258
 30
0.0
 11
39.55647899999997
 21
38.53525799999999
 31
0.0
  0
LINE
  5
A4DC
330
A43B
100
AcDbEntity
  8
4
  6
CENTER
100
AcDbLine
 10
67.917579
 20
242.135558
 30
0.0
 11
10.76837899999999
 21
242.135558
 31
0.0
  0
LINE
  5
A4DD
330
A43B
100
AcDbEntity
  8
4
  6
CENTER
100
AcDbLine
 10
39.55647899999997
 20
225.8355579999999
 30
0.0
 11
39.55647899999997
 21
253.135558
 31
0.0
  0
LINE
  5
A4DE
330
A43B
100
AcDbEntity
  8
1
  6
Continuous
100
AcDbLine
 10
62.756579
 20
134.585558
 30
0.0
 11
63.756579
 21
134.585558
 31
0.0
  0
LINE
  5
A4DF
330
A43B
100
AcDbEntity
  8
1
  6
Continuous
100
AcDbLine
 10
62.756579
 20
131.0855579999999
 30
0.0
 11
63.756579
 21
131.0855579999999
 31
0.0
  0
LINE
  5
A4E0
330
A43B
100
AcDbEntity
  8
1
  6
Continuous
100
AcDbLine
 10
291.938579
 20
131.0855579999999
 30
0.0
 11
290.9385789999999
 21
131.0855579999999
 31
0.0
  0
LINE
  5
A4E1
330
A43B
100
AcDbEntity
  8
1
  6
Continuous
100
AcDbLine
 10
291.938579
 20
134.585558
 30
0.0
 11
290.9385789999999
 21
134.585558
 31
0.0
  0
LINE
  5
A4E2
330
A43B
100
AcDbEntity
  8
5
  6
PHANTOM
100
AcDbLine
 10
323.138579
 20
151.982558
 30
0.0
 11
323.138579
 21
153.485558
 31
0.0
  0
LINE
  5
A4E3
330
A43B
100
AcDbEntity
  8
5
  6
PHANTOM
100
AcDbLine
 10
307.1385789999999
 20
151.982558
 30
0.0
 11
307.1385789999999
 21
153.485558
 31
0.0
  0
LINE
  5
A4E4
330
A43B
100
AcDbEntity
  8
5
  6
PHANTOM
100
AcDbLine
 10
325.138579
 20
151.982558
 30
0.0
 11
325.138579
 21
152.335558
 31
0.0
  0
LINE
  5
A4E5
330
A43B
100
AcDbEntity
  8
5
  6
PHANTOM
100
AcDbLine
 10
328.1385789999998
 20
153.335558
 30
0.0
 11
326.1385789999998
 21
153.335558
 31
0.0
  0
LINE
  5
A4E6
330
A43B
100
AcDbEntity
  8
5
  6
PHANTOM
100
AcDbLine
 10
302.138579
 20
153.335558
 30
0.0
 11
304.138579
 21
153.335558
 31
0.0
  0
LINE
  5
A4E7
330
A43B
100
AcDbEntity
  8
5
  6
PHANTOM
100
AcDbLine
 10
301.753579
 20
143.3355579999999
 30
0.0
 11
328.5235789999999
 21
143.3355579999999
 31
0.0
  0
LINE
  5
A4E8
330
A43B
100
AcDbEntity
  8
4
  6
CENTER
100
AcDbLine
 10
302.138579
 20
142.5855579999999
 30
0.0
 11
302.138579
 21
154.0855579999999
 31
0.0
  0
LINE
  5
A4E9
330
A43B
100
AcDbEntity
  8
4
  6
CENTER
100
AcDbLine
 10
307.540579
 20
148.335558
 30
0.0
 11
295.466579
 21
148.335558
 31
0.0
  0
LINE
  5
A4EA
330
A43B
100
AcDbEntity
  8
4
  6
CENTER
100
AcDbLine
 10
328.1385789999998
 20
142.5855579999999
 30
0.0
 11
328.1385789999998
 21
154.0855579999999
 31
0.0
  0
LINE
  5
A4EB
330
A43B
100
AcDbEntity
  8
4
  6
CENTER
100
AcDbLine
 10
333.8885789999999
 20
148.335558
 30
0.0
 11
323.683579
 21
148.335558
 31
0.0
  0
LINE
  5
A4EC
330
A43B
100
AcDbEntity
  8
1
  6
Continuous
100
AcDbLine
 10
307.1385789999999
 20
153.332558
 30
0.0
 11
304.138579
 21
153.332558
 31
0.0
  0
LINE
  5
A4ED
330
A43B
100
AcDbEntity
  8
5
  6
PHANTOM
100
AcDbLine
 10
307.1385789999999
 20
153.485558
 30
0.0
 11
323.138579
 21
153.485558
 31
0.0
  0
LINE
  5
A4EE
330
A43B
100
AcDbEntity
  8
5
  6
PHANTOM
100
AcDbLine
 10
182.8455789999999
 20
143.3355579999999
 30
0.0
 11
184.3455789999999
 21
143.3355579999999
 31
0.0
  0
LINE
  5
A4EF
330
A43B
100
AcDbEntity
  8
5
  6
PHANTOM
100
AcDbLine
 10
184.3455789999999
 20
143.3355579999999
 30
0.0
 11
184.3455789999999
 21
153.335558
 31
0.0
  0
LINE
  5
A4F0
330
A43B
100
AcDbEntity
  8
5
  6
PHANTOM
100
AcDbLine
 10
182.8455789999999
 20
143.3355579999999
 30
0.0
 11
182.8455789999999
 21
153.335558
 31
0.0
  0
LINE
  5
A4F1
330
A43B
100
AcDbEntity
  8
4
  6
CENTER
100
AcDbLine
 10
180.3535789999999
 20
148.335558
 30
0.0
 11
186.9955789999999
 21
148.335558
 31
0.0
  0
LINE
  5
A4F2
330
A43B
100
AcDbEntity
  8
5
  6
PHANTOM
100
AcDbLine
 10
182.205579
 20
153.480558
 30
0.0
 11
180.545579
 21
153.3645579999999
 31
0.0
  0
LINE
  5
A4F3
330
A43B
100
AcDbEntity
  8
5
  6
PHANTOM
100
AcDbLine
 10
182.3105789999999
 20
151.9845579999999
 30
0.0
 11
180.545579
 21
151.860558
 31
0.0
  0
LINE
  5
A4F4
330
A43B
100
AcDbEntity
  8
5
  6
PHANTOM
100
AcDbLine
 10
182.8455789999999
 20
153.335558
 30
0.0
 11
184.3455789999999
 21
153.335558
 31
0.0
  0
LINE
  5
A4F5
330
A43B
100
AcDbEntity
  8
5
  6
PHANTOM
100
AcDbLine
 10
21.55647899999999
 20
246.635558
 30
0.0
 11
21.55647899999999
 21
248.135558
 31
0.0
  0
LINE
  5
A4F6
330
A43B
100
AcDbEntity
  8
5
  6
PHANTOM
100
AcDbLine
 10
57.556479
 20
246.635558
 30
0.0
 11
57.556479
 21
248.135558
 31
0.0
  0
LINE
  5
A4F7
330
A43B
100
AcDbEntity
  8
5
  6
PHANTOM
100
AcDbLine
 10
31.55647899999999
 20
243.1355579999999
 30
0.0
 11
31.55647899999999
 21
248.135558
 31
0.0
  0
LINE
  5
A4F8
330
A43B
100
AcDbEntity
  8
5
  6
PHANTOM
100
AcDbLine
 10
47.55647899999998
 20
243.1355579999999
 30
0.0
 11
47.55647899999998
 21
248.135558
 31
0.0
  0
LINE
  5
A4F9
330
A43B
100
AcDbEntity
  8
5
  6
PHANTOM
100
AcDbLine
 10
57.556479
 20
246.635558
 30
0.0
 11
47.55647899999998
 21
246.635558
 31
0.0
  0
LINE
  5
A4FA
330
A43B
100
AcDbEntity
  8
5
  6
PHANTOM
100
AcDbLine
 10
29.556479
 20
246.635558
 30
0.0
 11
29.556479
 21
248.135558
 31
0.0
  0
LINE
  5
A4FB
330
A43B
100
AcDbEntity
  8
5
  6
PHANTOM
100
AcDbLine
 10
49.55647899999998
 20
246.635558
 30
0.0
 11
49.55647899999998
 21
248.135558
 31
0.0
  0
LINE
  5
A4FC
330
A43B
100
AcDbEntity
  8
5
  6
PHANTOM
100
AcDbLine
 10
31.55647899999999
 20
246.635558
 30
0.0
 11
21.55647899999999
 21
246.635558
 31
0.0
  0
LINE
  5
A4FD
330
A43B
100
AcDbEntity
  8
4
  6
CENTER
100
AcDbLine
 10
26.55647899999999
 20
245.6355579999998
 30
0.0
 11
26.55647899999999
 21
249.135558
 31
0.0
  0
LINE
  5
A4FE
330
A43B
100
AcDbEntity
  8
4
  6
CENTER
100
AcDbLine
 10
52.556479
 20
245.6355579999998
 30
0.0
 11
52.556479
 21
249.135558
 31
0.0
  0
LINE
  5
A4FF
330
A43B
100
AcDbEntity
  8
4
  6
CENTER
100
AcDbLine
 10
174.8455789999999
 20
162.385558
 30
0.0
 11
174.8455789999999
 21
153.285558
 31
0.0
  0
LINE
  5
A500
330
A43B
100
AcDbEntity
  8
4
  6
CENTER
100
AcDbLine
 10
170.295579
 20
157.835558
 30
0.0
 11
179.395579
 21
157.835558
 31
0.0
  0
ARC
  5
A501
330
A43B
100
AcDbEntity
  8
1
  6
Continuous
100
AcDbCircle
 10
28.556479
 20
151.3355579999999
 30
0.0
 40
2.0
100
AcDbArc
 50
180.0
 51
270.0
  0
ARC
  5
A502
330
A43B
100
AcDbEntity
  8
1
  6
Continuous
100
AcDbCircle
 10
28.556479
 20
150.8355579999999
 30
0.0
 40
3.5
100
AcDbArc
 50
180.0
 51
270.0
  0
ARC
  5
A503
330
A43B
100
AcDbEntity
  8
1
  6
Continuous
100
AcDbCircle
 10
50.556479
 20
150.8355579999999
 30
0.0
 40
3.5
100
AcDbArc
 50
270.0
 51
0.0
  0
ARC
  5
A504
330
A43B
100
AcDbEntity
  8
1
  6
Continuous
100
AcDbCircle
 10
182.3455789999999
 20
141.8355579999999
 30
0.0
 40
3.0
100
AcDbArc
 50
180.0
 51
270.0
  0
CIRCLE
  5
A505
330
A43B
100
AcDbEntity
  8
1
  6
Continuous
100
AcDbCircle
 10
174.8455789999999
 20
157.835558
 30
0.0
 40
2.549999999999998
  0
ARC
  5
A506
330
A43B
100
AcDbEntity
  8
1
  6
Continuous
100
AcDbCircle
 10
174.8455789999999
 20
157.835558
 30
0.0
 40
5.0
100
AcDbArc
 50
25.8419
 51
182.2889999999999
  0
ARC
  5
A507
330
A43B
100
AcDbEntity
  8
1
  6
Continuous
100
AcDbCircle
 10
176.645579
 20
132.8355579999999
 30
0.0
 40
5.799999999999998
100
AcDbArc
 50
182.2889999999999
 51
282.498
  0
ARC
  5
A508
330
A43B
100
AcDbEntity
  8
1
  6
Continuous
100
AcDbCircle
 10
176.645579
 20
132.8355579999999
 30
0.0
 40
7.0
100
AcDbArc
 50
182.2889999999999
 51
282.498
  0
ARC
  5
A509
330
A43B
100
AcDbEntity
  8
1
  6
Continuous
100
AcDbCircle
 10
168.2455789999998
 20
149.8345579999999
 30
0.0
 40
1.199999999999999
100
AcDbArc
 50
180.0
 51
225.211
  0
ARC
  5
A50A
330
A43B
100
AcDbEntity
  8
1
  6
Continuous
100
AcDbCircle
 10
50.556479
 20
151.3355579999999
 30
0.0
 40
2.0
100
AcDbArc
 50
270.0
 51
0.0
  0
ARC
  5
A50B
330
A43B
100
AcDbEntity
  8
1
  6
Continuous
100
AcDbCircle
 10
39.55647899999997
 20
155.665558
 30
0.0
 40
10.0
100
AcDbArc
 50
82.4458
 51
97.5542
  0
ARC
  5
A50C
330
A43B
100
AcDbEntity
  8
1
  6
Continuous
100
AcDbCircle
 10
39.55647899999997
 20
154.6045579999999
 30
0.0
 40
10.0
100
AcDbArc
 50
82.4458
 51
97.5542
  0
ARC
  5
A50D
330
A43B
100
AcDbEntity
  8
1
  6
Continuous
100
AcDbCircle
 10
17.856479
 20
132.8355579999999
 30
0.0
 40
2.5
100
AcDbArc
 50
126.8699999999999
 51
233.13
  0
ARC
  5
A50E
330
A43B
100
AcDbEntity
  8
1
  6
Continuous
100
AcDbCircle
 10
334.1385789999999
 20
158.0145579999999
 30
0.0
 40
2.0
100
AcDbArc
 50
90.0
 51
180.0
  0
ARC
  5
A50F
330
A43B
100
AcDbEntity
  8
1
  6
Continuous
100
AcDbCircle
 10
334.1385789999999
 20
153.0145579999999
 30
0.0
 40
2.0
100
AcDbArc
 50
180.0
 51
270.0
  0
ARC
  5
A510
330
A43B
100
AcDbEntity
  8
1
  6
Continuous
100
AcDbCircle
 10
296.1385789999998
 20
158.0145579999999
 30
0.0
 40
2.0
100
AcDbArc
 50
0.0
 51
90.0
  0
ARC
  5
A511
330
A43B
100
AcDbEntity
  8
1
  6
Continuous
100
AcDbCircle
 10
296.1385789999998
 20
153.0145579999999
 30
0.0
 40
2.0
100
AcDbArc
 50
270.0
 51
0.0
  0
ARC
  5
A512
330
A43B
100
AcDbEntity
  8
1
  6
Continuous
100
AcDbCircle
 10
336.838579
 20
132.8355579999999
 30
0.0
 40
2.5
100
AcDbArc
 50
306.87
 51
53.13009999999999
  0
ARC
  5
A513
330
A43B
100
AcDbEntity
  8
1
  6
Continuous
100
AcDbCircle
 10
315.1385789999999
 20
155.665558
 30
0.0
 40
10.0
100
AcDbArc
 50
82.4458
 51
97.5542
  0
CIRCLE
  5
A514
330
A43B
100
AcDbEntity
  8
2
  6
Continuous
100
AcDbCircle
 10
332.1385789999999
 20
132.8355579999999
 30
0.0
 40
1.5
  0
CIRCLE
  5
A515
330
A43B
100
AcDbEntity
  8
2
  6
Continuous
100
AcDbCircle
 10
298.138579
 20
132.8355579999999
 30
0.0
 40
1.5
  0
ARC
  5
A516
330
A43B
100
AcDbEntity
  8
1
  6
Continuous
100
AcDbCircle
 10
325.6385789999999
 20
131.8355579999999
 30
0.0
 40
1.0
100
AcDbArc
 50
0.0
 51
180.0
  0
CIRCLE
  5
A517
330
A43B
100
AcDbEntity
  8
1
  6
Continuous
100
AcDbCircle
 10
325.6385789999999
 20
132.2355579999999
 30
0.0
 40
0.6
  0
ARC
  5
A518
330
A43B
100
AcDbEntity
  8
1
  6
Continuous
100
AcDbCircle
 10
324.1385789999998
 20
137.835558
 30
0.0
 40
1.0
100
AcDbArc
 50
90.0
 51
180.0
  0
ARC
  5
A519
330
A43B
100
AcDbEntity
  8
1
  6
Continuous
100
AcDbCircle
 10
330.1385789999998
 20
129.3355579999999
 30
0.0
 40
1.0
100
AcDbArc
 50
180.0
 51
270.0
  0
ARC
  5
A51A
330
A43B
100
AcDbEntity
  8
1
  6
Continuous
100
AcDbCircle
 10
301.1385789999998
 20
129.3355579999999
 30
0.0
 40
1.0
100
AcDbArc
 50
270.0
 51
0.0
  0
ARC
  5
A51B
330
A43B
100
AcDbEntity
  8
1
  6
Continuous
100
AcDbCircle
 10
301.1385789999998
 20
137.835558
 30
0.0
 40
1.0
100
AcDbArc
 50
0.0
 51
90.0
  0
ARC
  5
A51C
330
A43B
100
AcDbEntity
  8
1
  6
Continuous
100
AcDbCircle
 10
59.25647900000001
 20
160.0625579999999
 30
0.0
 40
2.0
100
AcDbArc
 50
0.0
 51
82.4458
  0
ARC
  5
A51D
330
A43B
100
AcDbEntity
  8
1
  6
Continuous
100
AcDbCircle
 10
59.25647900000001
 20
161.1225579999999
 30
0.0
 40
2.0
100
AcDbArc
 50
0.0
 51
82.4458
  0
ARC
  5
A51E
330
A43B
100
AcDbEntity
  8
1
  6
Continuous
100
AcDbCircle
 10
19.856479
 20
160.0625579999999
 30
0.0
 40
2.0
100
AcDbArc
 50
97.5542
 51
180.0
  0
ARC
  5
A51F
330
A43B
100
AcDbEntity
  8
1
  6
Continuous
100
AcDbCircle
 10
19.856479
 20
161.1225579999999
 30
0.0
 40
2.0
100
AcDbArc
 50
97.5542
 51
180.0
  0
ARC
  5
A520
330
A43B
100
AcDbEntity
  8
1
  6
Continuous
100
AcDbCircle
 10
295.4385789999999
 20
161.1225579999999
 30
0.0
 40
2.0
100
AcDbArc
 50
97.5542
 51
180.0
  0
ARC
  5
A521
330
A43B
100
AcDbEntity
  8
1
  6
Continuous
100
AcDbCircle
 10
334.838579
 20
161.1225579999999
 30
0.0
 40
2.0
100
AcDbArc
 50
0.0
 51
82.4458
  0
ARC
  5
A522
330
A43B
100
AcDbEntity
  8
1
  6
Continuous
100
AcDbCircle
 10
324.4385789999999
 20
130.4855579999999
 30
0.0
 40
0.6
100
AcDbArc
 50
180.0
 51
0.00001
  0
ARC
  5
A523
330
A43B
100
AcDbEntity
  8
1
  6
Continuous
100
AcDbCircle
 10
323.238579
 20
135.1855579999999
 30
0.0
 40
0.6
100
AcDbArc
 50
99.5941
 51
180.0
  0
ARC
  5
A524
330
A43B
100
AcDbEntity
  8
1
  6
Continuous
100
AcDbCircle
 10
323.238579
 20
130.4855579999999
 30
0.0
 40
0.6
100
AcDbArc
 50
180.0
 51
0.00001
  0
ARC
  5
A525
330
A43B
100
AcDbEntity
  8
1
  6
Continuous
100
AcDbCircle
 10
322.038579
 20
135.1855579999999
 30
0.0
 40
0.6
100
AcDbArc
 50
0.0
 51
180.0
  0
ARC
  5
A526
330
A43B
100
AcDbEntity
  8
1
  6
Continuous
100
AcDbCircle
 10
322.038579
 20
130.4855579999999
 30
0.0
 40
0.6
100
AcDbArc
 50
180.0
 51
0.00001
  0
ARC
  5
A527
330
A43B
100
AcDbEntity
  8
1
  6
Continuous
100
AcDbCircle
 10
320.8385789999999
 20
135.1855579999999
 30
0.0
 40
0.6
100
AcDbArc
 50
0.0
 51
180.0
  0
ARC
  5
A528
330
A43B
100
AcDbEntity
  8
1
  6
Continuous
100
AcDbCircle
 10
320.8385789999999
 20
130.4855579999999
 30
0.0
 40
0.6
100
AcDbArc
 50
180.0
 51
0.00001
  0
ARC
  5
A529
330
A43B
100
AcDbEntity
  8
1
  6
Continuous
100
AcDbCircle
 10
319.6385789999999
 20
135.1855579999999
 30
0.0
 40
0.6
100
AcDbArc
 50
0.0
 51
180.0
  0
ARC
  5
A52A
330
A43B
100
AcDbEntity
  8
1
  6
Continuous
100
AcDbCircle
 10
319.6385789999999
 20
130.4855579999999
 30
0.0
 40
0.6
100
AcDbArc
 50
180.0
 51
0.00001
  0
ARC
  5
A52B
330
A43B
100
AcDbEntity
  8
1
  6
Continuous
100
AcDbCircle
 10
318.438579
 20
135.1855579999999
 30
0.0
 40
0.6
100
AcDbArc
 50
0.0
 51
180.0
  0
ARC
  5
A52C
330
A43B
100
AcDbEntity
  8
1
  6
Continuous
100
AcDbCircle
 10
318.438579
 20
130.4855579999999
 30
0.0
 40
0.6
100
AcDbArc
 50
180.0
 51
0.00001
  0
ARC
  5
A52D
330
A43B
100
AcDbEntity
  8
1
  6
Continuous
100
AcDbCircle
 10
317.238579
 20
135.1855579999999
 30
0.0
 40
0.6
100
AcDbArc
 50
0.0
 51
180.0
  0
ARC
  5
A52E
330
A43B
100
AcDbEntity
  8
1
  6
Continuous
100
AcDbCircle
 10
317.238579
 20
130.4855579999999
 30
0.0
 40
0.6
100
AcDbArc
 50
180.0
 51
0.00001
  0
ARC
  5
A52F
330
A43B
100
AcDbEntity
  8
1
  6
Continuous
100
AcDbCircle
 10
316.038579
 20
135.1855579999999
 30
0.0
 40
0.6
100
AcDbArc
 50
0.0
 51
180.0
  0
ARC
  5
A530
330
A43B
100
AcDbEntity
  8
1
  6
Continuous
100
AcDbCircle
 10
316.038579
 20
130.4855579999999
 30
0.0
 40
0.6
100
AcDbArc
 50
180.0
 51
0.00001
  0
ARC
  5
A531
330
A43B
100
AcDbEntity
  8
1
  6
Continuous
100
AcDbCircle
 10
314.8385789999999
 20
135.1855579999999
 30
0.0
 40
0.6
100
AcDbArc
 50
0.0
 51
180.0
  0
ARC
  5
A532
330
A43B
100
AcDbEntity
  8
1
  6
Continuous
100
AcDbCircle
 10
314.8385789999999
 20
130.4855579999999
 30
0.0
 40
0.6
100
AcDbArc
 50
180.0
 51
0.00001
  0
ARC
  5
A533
330
A43B
100
AcDbEntity
  8
1
  6
Continuous
100
AcDbCircle
 10
313.6385789999998
 20
135.1855579999999
 30
0.0
 40
0.6
100
AcDbArc
 50
0.0
 51
180.0
  0
ARC
  5
A534
330
A43B
100
AcDbEntity
  8
1
  6
Continuous
100
AcDbCircle
 10
313.6385789999998
 20
130.4855579999999
 30
0.0
 40
0.6
100
AcDbArc
 50
180.0
 51
0.00001
  0
ARC
  5
A535
330
A43B
100
AcDbEntity
  8
1
  6
Continuous
100
AcDbCircle
 10
312.438579
 20
135.1855579999999
 30
0.0
 40
0.6
100
AcDbArc
 50
0.0
 51
180.0
  0
ARC
  5
A536
330
A43B
100
AcDbEntity
  8
1
  6
Continuous
100
AcDbCircle
 10
312.438579
 20
130.4855579999999
 30
0.0
 40
0.6
100
AcDbArc
 50
180.0
 51
0.00001
  0
CIRCLE
  5
A537
330
A43B
100
AcDbEntity
  8
1
  6
Continuous
100
AcDbCircle
 10
332.1385789999999
 20
132.8355579999999
 30
0.0
 40
0.9335
  0
CIRCLE
  5
A538
330
A43B
100
AcDbEntity
  8
1
  6
Continuous
100
AcDbCircle
 10
298.138579
 20
132.8355579999999
 30
0.0
 40
0.9335
  0
CIRCLE
  5
A539
330
A43B
100
AcDbEntity
  8
1
  6
Continuous
100
AcDbCircle
 10
178.3455789999999
 20
132.8355579999999
 30
0.0
 40
1.75
  0
ARC
  5
A53A
330
A43B
100
AcDbEntity
  8
5
  6
PHANTOM
100
AcDbCircle
 10
324.1385789999998
 20
151.982558
 30
0.0
 40
1.0
100
AcDbArc
 50
180.0
 51
0.00001
  0
ARC
  5
A53B
330
A43B
100
AcDbEntity
  8
5
  6
PHANTOM
100
AcDbCircle
 10
326.1385789999998
 20
152.335558
 30
0.0
 40
1.0
100
AcDbArc
 50
90.0
 51
180.0
  0
ARC
  5
A53C
330
A43B
100
AcDbEntity
  8
5
  6
PHANTOM
100
AcDbCircle
 10
328.1385789999998
 20
148.335558
 30
0.0
 40
5.0
100
AcDbArc
 50
270.0
 51
90.0
  0
ARC
  5
A53D
330
A43B
100
AcDbEntity
  8
5
  6
PHANTOM
100
AcDbCircle
 10
306.138579
 20
151.982558
 30
0.0
 40
1.0
100
AcDbArc
 50
180.0
 51
0.00001
  0
ARC
  5
A53E
330
A43B
100
AcDbEntity
  8
5
  6
PHANTOM
100
AcDbCircle
 10
304.138579
 20
152.335558
 30
0.0
 40
1.0
100
AcDbArc
 50
0.0
 51
90.0
  0
ARC
  5
A53F
330
A43B
100
AcDbEntity
  8
5
  6
PHANTOM
100
AcDbCircle
 10
302.138579
 20
148.335558
 30
0.0
 40
5.0
100
AcDbArc
 50
90.0
 51
270.0
  0
CIRCLE
  5
A540
330
A43B
100
AcDbEntity
  8
5
  6
PHANTOM
100
AcDbCircle
 10
328.1385789999998
 20
148.335558
 30
0.0
 40
1.649999999999999
  0
CIRCLE
  5
A541
330
A43B
100
AcDbEntity
  8
5
  6
PHANTOM
100
AcDbCircle
 10
302.138579
 20
148.335558
 30
0.0
 40
1.649999999999999
  0
ARC
  5
A542
330
A43B
100
AcDbEntity
  8
5
  6
PHANTOM
100
AcDbCircle
 10
182.3455789999999
 20
151.485558
 30
0.0
 40
2.0
100
AcDbArc
 50
67.66840000000001
 51
94.0
  0
ARC
  5
A543
330
A43B
100
AcDbEntity
  8
5
  6
PHANTOM
100
AcDbCircle
 10
182.3455789999999
 20
151.485558
 30
0.0
 40
0.5
100
AcDbArc
 50
0.000027
 51
94.0
  0
ARC
  5
A544
330
A43B
100
AcDbEntity
  8
1
  6
Continuous
100
AcDbCircle
 10
386.1385789999998
 20
152.335558
 30
0.0
 40
1.0
100
AcDbArc
 50
90.0
 51
180.0
  0
ARC
  5
A545
330
A43B
100
AcDbEntity
  8
1
  6
Continuous
100
AcDbCircle
 10
384.138579
 20
151.982558
 30
0.0
 40
1.0
100
AcDbArc
 50
180.0
 51
0.00001
  0
LINE
  5
A546
330
A43B
100
AcDbEntity
  8
1
  6
Continuous
100
AcDbLine
 10
385.138579
 20
151.982558
 30
0.0
 11
385.138579
 21
152.335558
 31
0.0
  0
LINE
  5
A547
330
A43B
100
AcDbEntity
  8
1
  6
Continuous
100
AcDbLine
 10
383.138579
 20
151.982558
 30
0.0
 11
383.138579
 21
153.485558
 31
0.0
  0
LINE
  5
A548
330
A43B
100
AcDbEntity
  8
1
  6
Continuous
100
AcDbLine
 10
388.1385789999998
 20
153.335558
 30
0.0
 11
386.1385789999998
 21
153.335558
 31
0.0
  0
ARC
  5
A549
330
A43B
100
AcDbEntity
  8
1
  6
Continuous
100
AcDbCircle
 10
388.1385789999998
 20
148.335558
 30
0.0
 40
5.0
100
AcDbArc
 50
270.0
 51
90.0
  0
LINE
  5
A54A
330
A43B
100
AcDbEntity
  8
1
  6
Continuous
100
AcDbLine
 10
361.753579
 20
143.3355579999999
 30
0.0
 11
388.5235789999999
 21
143.3355579999999
 31
0.0
  0
LINE
  5
A54B
330
A43B
100
AcDbEntity
  8
4
  6
CENTER
100
AcDbLine
 10
388.1385789999998
 20
142.5855579999999
 30
0.0
 11
388.1385789999998
 21
154.0855579999999
 31
0.0
  0
CIRCLE
  5
A54C
330
A43B
100
AcDbEntity
  8
1
  6
Continuous
100
AcDbCircle
 10
388.1385789999998
 20
148.335558
 30
0.0
 40
1.649999999999999
  0
LINE
  5
A54D
330
A43B
100
AcDbEntity
  8
4
  6
CENTER
100
AcDbLine
 10
393.888579
 20
148.335558
 30
0.0
 11
383.683579
 21
148.335558
 31
0.0
  0
LINE
  5
A54E
330
A43B
100
AcDbEntity
  8
1
  6
Continuous
100
AcDbLine
 10
367.1385789999998
 20
153.485558
 30
0.0
 11
383.138579
 21
153.485558
 31
0.0
  0
LINE
  5
A54F
330
A43B
100
AcDbEntity
  8
1
  6
Continuous
100
AcDbLine
 10
367.1385789999998
 20
151.982558
 30
0.0
 11
367.1385789999998
 21
153.485558
 31
0.0
  0
ARC
  5
A550
330
A43B
100
AcDbEntity
  8
1
  6
Continuous
100
AcDbCircle
 10
366.138579
 20
151.982558
 30
0.0
 40
1.0
100
AcDbArc
 50
180.0
 51
0.00001
  0
ARC
  5
A551
330
A43B
100
AcDbEntity
  8
1
  6
Continuous
100
AcDbCircle
 10
364.138579
 20
152.335558
 30
0.0
 40
1.0
100
AcDbArc
 50
0.0
 51
90.0
  0
LINE
  5
A552
330
A43B
100
AcDbEntity
  8
1
  6
Continuous
100
AcDbLine
 10
362.138579
 20
153.335558
 30
0.0
 11
364.138579
 21
153.335558
 31
0.0
  0
ARC
  5
A553
330
A43B
100
AcDbEntity
  8
1
  6
Continuous
100
AcDbCircle
 10
362.138579
 20
148.335558
 30
0.0
 40
5.0
100
AcDbArc
 50
90.0
 51
270.0
  0
LINE
  5
A554
330
A43B
100
AcDbEntity
  8
4
  6
CENTER
100
AcDbLine
 10
362.138579
 20
142.5855579999999
 30
0.0
 11
362.138579
 21
154.0855579999999
 31
0.0
  0
CIRCLE
  5
A555
330
A43B
100
AcDbEntity
  8
1
  6
Continuous
100
AcDbCircle
 10
362.138579
 20
148.335558
 30
0.0
 40
1.649999999999999
  0
LINE
  5
A556
330
A43B
100
AcDbEntity
  8
4
  6
CENTER
100
AcDbLine
 10
367.5405789999999
 20
148.335558
 30
0.0
 11
355.466579
 21
148.335558
 31
0.0
  0
LINE
  5
A557
330
A43B
100
AcDbEntity
  8
4
  6
CENTER
100
AcDbLine
 10
375.138579
 20
157.742942
 30
0.0
 11
375.138579
 21
139.1351779999999
 31
0.0
  0
LINE
  5
A558
330
A43B
100
AcDbEntity
  8
5
  6
PHANTOM
100
AcDbLine
 10
305.1385789999998
 20
151.982558
 30
0.0
 11
305.1385789999998
 21
152.335558
 31
0.0
  0
LINE
  5
A559
330
A43B
100
AcDbEntity
  8
1
  6
Continuous
100
AcDbLine
 10
36.490879
 20
236.385558
 30
0.0
 11
19.05647899999999
 21
236.385558
 31
0.0
  0
LINE
  5
A55A
330
A43B
100
AcDbEntity
  8
1
  6
Continuous
100
AcDbLine
 10
19.477779
 20
240.726558
 30
0.0
 11
37.66307899999999
 21
237.219558
 31
0.0
  0
LINE
  5
A55B
330
A43B
100
AcDbEntity
  8
1
  6
Continuous
100
AcDbLine
 10
19.477779
 20
239.665558
 30
0.0
 11
37.66307899999999
 21
236.1595579999999
 31
0.0
  0
LINE
  5
A55C
330
A43B
100
AcDbEntity
  8
1
  6
Continuous
100
AcDbLine
 10
52.556479
 20
246.9355579999999
 30
0.0
 11
31.55647899999999
 21
246.9355579999999
 31
0.0
  0
LINE
  5
A55D
330
A43B
100
AcDbEntity
  8
1
  6
Continuous
100
AcDbLine
 10
51.032879
 20
232.779558
 30
0.0
 11
28.08007899999999
 21
232.779558
 31
0.0
  0
LINE
  5
A55E
330
A43B
100
AcDbEntity
  8
1
  6
Continuous
100
AcDbLine
 10
52.556479
 20
247.1945579999998
 30
0.0
 11
29.656479
 21
247.1945579999998
 31
0.0
  0
LINE
  5
A55F
330
A43B
100
AcDbEntity
  8
1
  6
Continuous
100
AcDbLine
 10
61.556479
 20
243.1355579999999
 30
0.0
 11
17.556479
 21
243.1355579999999
 31
0.0
  0
LINE
  5
A560
330
A43B
100
AcDbEntity
  8
1
  6
Continuous
100
AcDbLine
 10
52.03657899999999
 20
232.035558
 30
0.0
 11
27.07637899999999
 21
232.035558
 31
0.0
  0
LINE
  5
A561
330
A43B
100
AcDbEntity
  8
1
  6
Continuous
100
AcDbLine
 10
52.03663399999999
 20
230.835558
 30
0.0
 11
27.076212
 21
230.835558
 31
0.0
  0
LINE
  5
A562
330
A43B
100
AcDbEntity
  8
1
  6
Continuous
100
AcDbLine
 10
17.556479
 20
233.635558
 30
0.0
 11
17.556479
 21
243.1355579999999
 31
0.0
  0
ARC
  5
A563
330
A43B
100
AcDbEntity
  8
1
  6
Continuous
100
AcDbCircle
 10
19.856479
 20
241.6295579999998
 30
0.0
 40
2.0
100
AcDbArc
 50
180.0
 51
259.086
  0
LINE
  5
A564
330
A43B
100
AcDbEntity
  8
1
  6
Continuous
100
AcDbLine
 10
16.356479
 20
233.635558
 30
0.0
 11
16.356479
 21
246.9355579999999
 31
0.0
  0
ARC
  5
A565
330
A43B
100
AcDbEntity
  8
1
  6
Continuous
100
AcDbCircle
 10
19.05647899999999
 20
237.885558
 30
0.0
 40
1.5
100
AcDbArc
 50
180.0
 51
270.0
  0
LINE
  5
A566
330
A43B
100
AcDbEntity
  8
1
  6
Continuous
100
AcDbLine
 10
25.056597
 20
232.4355579999999
 30
0.0
 11
17.556479
 21
232.4355579999999
 31
0.0
  0
LINE
  5
A567
330
A43B
100
AcDbEntity
  8
1
  6
Continuous
100
AcDbLine
 10
25.05555499999999
 20
233.635558
 30
0.0
 11
17.556479
 21
233.635558
 31
0.0
  0
ARC
  5
A568
330
A43B
100
AcDbEntity
  8
1
  6
Continuous
100
AcDbCircle
 10
17.556479
 20
233.635558
 30
0.0
 40
1.199999999999999
100
AcDbArc
 50
180.0
 51
270.0
  0
ARC
  5
A569
330
A43B
100
AcDbEntity
  8
1
  6
Continuous
100
AcDbCircle
 10
25.05555499999999
 20
232.4355579999999
 30
0.0
 40
1.199999999999999
100
AcDbArc
 50
43.175993
 51
90.0
  0
ARC
  5
A56A
330
A43B
100
AcDbEntity
  8
1
  6
Continuous
100
AcDbCircle
 10
27.076212
 20
232.035558
 30
0.0
 40
1.199999999999999
100
AcDbArc
 50
223.1458009999998
 51
270.0
  0
ARC
  5
A56B
330
A43B
100
AcDbEntity
  8
1
  6
Continuous
100
AcDbCircle
 10
28.08007899999999
 20
231.779558
 30
0.0
 40
1.0
100
AcDbArc
 50
90.0
 51
165.1889999999999
  0
LINE
  5
A56C
330
A43B
100
AcDbEntity
  8
1
  6
Continuous
100
AcDbLine
 10
27.07637899999999
 20
232.035558
 30
0.0
 11
25.93066199999999
 21
233.256648
 31
0.0
  0
LINE
  5
A56D
330
A43B
100
AcDbEntity
  8
1
  6
Continuous
100
AcDbLine
 10
26.200673
 20
231.214929
 30
0.0
 11
25.056597
 21
232.4355579999999
 31
0.0
  0
LINE
  5
A56E
330
A43B
100
AcDbEntity
  8
1
  6
Continuous
100
AcDbLine
 10
19.05647899999999
 20
245.6355579999998
 30
0.0
 11
17.556479
 21
245.6355579999998
 31
0.0
  0
LINE
  5
A56F
330
A43B
100
AcDbEntity
  8
1
  6
Continuous
100
AcDbLine
 10
26.056479
 20
248.135558
 30
0.0
 11
17.556479
 21
248.135558
 31
0.0
  0
LINE
  5
A570
330
A43B
100
AcDbEntity
  8
1
  6
Continuous
100
AcDbLine
 10
26.056479
 20
246.9355579999999
 30
0.0
 11
17.556479
 21
246.9355579999999
 31
0.0
  0
ARC
  5
A571
330
A43B
100
AcDbEntity
  8
1
  6
Continuous
100
AcDbCircle
 10
19.856479
 20
242.690558
 30
0.0
 40
2.0
100
AcDbArc
 50
180.0
 51
259.086
  0
LINE
  5
A572
330
A43B
100
AcDbEntity
  8
1
  6
Continuous
100
AcDbLine
 10
22.556479
 20
244.3355579999999
 30
0.0
 11
17.556479
 21
244.3355579999999
 31
0.0
  0
ARC
  5
A573
330
A43B
100
AcDbEntity
  8
1
  6
Continuous
100
AcDbCircle
 10
17.556479
 20
246.9355579999999
 30
0.0
 40
1.199999999999999
100
AcDbArc
 50
90.0
 51
180.0
  0
LINE
  5
A574
330
A43B
100
AcDbEntity
  8
1
  6
Continuous
100
AcDbLine
 10
17.856479
 20
241.6295579999998
 30
0.0
 11
17.856479
 21
243.1355579999999
 31
0.0
  0
ARC
  5
A575
330
A43B
100
AcDbEntity
  8
1
  6
Continuous
100
AcDbCircle
 10
17.556479
 20
243.1355579999999
 30
0.0
 40
1.199999999999999
100
AcDbArc
 50
90.0
 51
180.0
  0
ARC
  5
A576
330
A43B
100
AcDbEntity
  8
1
  6
Continuous
100
AcDbCircle
 10
17.856479
 20
242.135558
 30
0.0
 40
2.5
100
AcDbArc
 50
126.8699999999999
 51
233.13
  0
LINE
  5
A577
330
A43B
100
AcDbEntity
  8
1
  6
Continuous
100
AcDbLine
 10
17.556479
 20
244.3355579999999
 30
0.0
 11
17.556479
 21
246.9355579999999
 31
0.0
  0
LINE
  5
A578
330
A43B
100
AcDbEntity
  8
1
  6
Continuous
100
AcDbLine
 10
28.45647899999999
 20
247.1945579999998
 30
0.0
 11
26.91193399999999
 21
247.1945579999998
 31
0.0
  0
LINE
  5
A579
330
A43B
100
AcDbEntity
  8
1
  6
Continuous
100
AcDbLine
 10
26.056479
 20
246.9355579999999
 30
0.0
 11
27.056479
 21
245.835558
 31
0.0
  0
LINE
  5
A57A
330
A43B
100
AcDbEntity
  8
1
  6
Continuous
100
AcDbLine
 10
26.056479
 20
248.135558
 30
0.0
 11
27.056479
 21
247.035558
 31
0.0
  0
LINE
  5
A57B
330
A43B
100
AcDbEntity
  8
1
  6
Continuous
100
AcDbLine
 10
31.55647899999999
 20
247.035558
 30
0.0
 11
27.056479
 21
247.035558
 31
0.0
  0
LINE
  5
A57C
330
A43B
100
AcDbEntity
  8
1
  6
Continuous
100
AcDbLine
 10
27.056479
 20
245.835558
 30
0.0
 11
31.55647899999999
 21
245.835558
 31
0.0
  0
LINE
  5
A57D
330
A43B
100
AcDbEntity
  8
1
  6
Continuous
100
AcDbLine
 10
28.45647899999999
 20
247.035558
 30
0.0
 11
28.45647899999999
 21
247.3355579999999
 31
0.0
  0
LINE
  5
A57E
330
A43B
100
AcDbEntity
  8
1
  6
Continuous
100
AcDbLine
 10
28.45647899999999
 20
247.3355579999999
 30
0.0
 11
29.656479
 21
247.3355579999999
 31
0.0
  0
LINE
  5
A57F
330
A43B
100
AcDbEntity
  8
1
  6
Continuous
100
AcDbLine
 10
29.656479
 20
247.035558
 30
0.0
 11
29.656479
 21
247.3355579999999
 31
0.0
  0
LINE
  5
A580
330
A43B
100
AcDbEntity
  8
1
  6
Continuous
100
AcDbLine
 10
31.55647899999999
 20
245.835558
 30
0.0
 11
31.55647899999999
 21
247.035558
 31
0.0
  0
ARC
  5
A581
330
A43B
100
AcDbEntity
  8
1
  6
Continuous
100
AcDbCircle
 10
30.256479
 20
244.485558
 30
0.0
 40
0.6
100
AcDbArc
 50
0.0
 51
180.0
  0
ARC
  5
A582
330
A43B
100
AcDbEntity
  8
1
  6
Continuous
100
AcDbCircle
 10
31.456479
 20
244.485558
 30
0.0
 40
0.6
100
AcDbArc
 50
80.40609999999999
 51
180.0
  0
LINE
  5
A583
330
A43B
100
AcDbEntity
  8
1
  6
Continuous
100
AcDbLine
 10
30.85647899999999
 20
243.1355579999999
 30
0.0
 11
30.85647899999999
 21
244.485558
 31
0.0
  0
LINE
  5
A584
330
A43B
100
AcDbEntity
  8
1
  6
Continuous
100
AcDbLine
 10
28.45647899999999
 20
243.635558
 30
0.0
 11
22.556479
 21
243.635558
 31
0.0
  0
LINE
  5
A585
330
A43B
100
AcDbEntity
  8
1
  6
Continuous
100
AcDbLine
 10
22.556479
 20
243.1355579999999
 30
0.0
 11
22.556479
 21
244.3355579999999
 31
0.0
  0
LINE
  5
A586
330
A43B
100
AcDbEntity
  8
1
  6
Continuous
100
AcDbLine
 10
28.45647899999999
 20
243.1355579999999
 30
0.0
 11
28.45647899999999
 21
245.835558
 31
0.0
  0
LINE
  5
A587
330
A43B
100
AcDbEntity
  8
1
  6
Continuous
100
AcDbLine
 10
29.656479
 20
243.1355579999999
 30
0.0
 11
29.656479
 21
245.835558
 31
0.0
  0
LINE
  5
A588
330
A43B
100
AcDbEntity
  8
1
  6
Continuous
100
AcDbLine
 10
19.05647899999999
 20
244.3355579999999
 30
0.0
 11
19.05647899999999
 21
245.6355579999998
 31
0.0
  0
LINE
  5
A589
330
A43B
100
AcDbEntity
  8
1
  6
Continuous
100
AcDbLine
 10
61.556479
 20
233.635558
 30
0.0
 11
61.556479
 21
243.1355579999999
 31
0.0
  0
ARC
  5
A58A
330
A43B
100
AcDbEntity
  8
1
  6
Continuous
100
AcDbCircle
 10
59.25647900000001
 20
241.6295579999998
 30
0.0
 40
2.0
100
AcDbArc
 50
280.9139999999998
 51
0.0
  0
LINE
  5
A58B
330
A43B
100
AcDbEntity
  8
1
  6
Continuous
100
AcDbLine
 10
62.756479
 20
233.635558
 30
0.0
 11
62.756479
 21
246.9355579999999
 31
0.0
  0
LINE
  5
A58C
330
A43B
100
AcDbEntity
  8
1
  6
Continuous
100
AcDbLine
 10
59.63507899999999
 20
240.726558
 30
0.0
 11
41.44977899999999
 21
237.219558
 31
0.0
  0
LINE
  5
A58D
330
A43B
100
AcDbEntity
  8
1
  6
Continuous
100
AcDbLine
 10
59.635179
 20
239.665558
 30
0.0
 11
41.44977899999999
 21
236.1595579999999
 31
0.0
  0
LINE
  5
A58E
330
A43B
100
AcDbEntity
  8
1
  6
Continuous
100
AcDbLine
 10
60.056479
 20
236.385558
 30
0.0
 11
42.62207899999999
 21
236.385558
 31
0.0
  0
ARC
  5
A58F
330
A43B
100
AcDbEntity
  8
1
  6
Continuous
100
AcDbCircle
 10
39.55647899999997
 20
247.0385579999998
 30
0.0
 40
10.0
100
AcDbArc
 50
259.086
 51
280.9139999999998
  0
ARC
  5
A590
330
A43B
100
AcDbEntity
  8
1
  6
Continuous
100
AcDbCircle
 10
39.55647899999997
 20
245.978558
 30
0.0
 40
10.0
100
AcDbArc
 50
259.086
 51
280.9139999999998
  0
ARC
  5
A591
330
A43B
100
AcDbEntity
  8
1
  6
Continuous
100
AcDbCircle
 10
60.056479
 20
237.885558
 30
0.0
 40
1.5
100
AcDbArc
 50
270.0
 51
0.0
  0
ARC
  5
A592
330
A43B
100
AcDbEntity
  8
1
  6
Continuous
100
AcDbCircle
 10
54.057268
 20
232.4355579999999
 30
0.0
 40
1.199999999999999
100
AcDbArc
 50
90.0
 51
136.827377
  0
ARC
  5
A593
330
A43B
100
AcDbEntity
  8
1
  6
Continuous
100
AcDbCircle
 10
52.03663399999999
 20
232.035558
 30
0.0
 40
1.199999999999999
100
AcDbArc
 50
270.0
 51
316.850434
  0
ARC
  5
A594
330
A43B
100
AcDbEntity
  8
1
  6
Continuous
100
AcDbCircle
 10
61.556479
 20
233.635558
 30
0.0
 40
1.199999999999999
100
AcDbArc
 50
270.0
 51
0.0
  0
ARC
  5
A595
330
A43B
100
AcDbEntity
  8
1
  6
Continuous
100
AcDbCircle
 10
51.032879
 20
231.779558
 30
0.0
 40
1.0
100
AcDbArc
 50
14.8112
 51
90.0
  0
LINE
  5
A596
330
A43B
100
AcDbEntity
  8
1
  6
Continuous
100
AcDbLine
 10
52.03657899999999
 20
232.035558
 30
0.0
 11
53.182113
 21
233.256596
 31
0.0
  0
LINE
  5
A597
330
A43B
100
AcDbEntity
  8
1
  6
Continuous
100
AcDbLine
 10
52.912119
 20
231.214872
 30
0.0
 11
54.0564
 21
232.4355579999999
 31
0.0
  0
LINE
  5
A598
330
A43B
100
AcDbEntity
  8
1
  6
Continuous
100
AcDbLine
 10
54.0564
 20
232.4355579999999
 30
0.0
 11
61.556479
 21
232.4355579999999
 31
0.0
  0
LINE
  5
A599
330
A43B
100
AcDbEntity
  8
1
  6
Continuous
100
AcDbLine
 10
54.057268
 20
233.635558
 30
0.0
 11
61.556479
 21
233.635558
 31
0.0
  0
LINE
  5
A59A
330
A43B
100
AcDbEntity
  8
1
  6
Continuous
100
AcDbLine
 10
56.556479
 20
243.635558
 30
0.0
 11
47.55647899999998
 21
243.635558
 31
0.0
  0
LINE
  5
A59B
330
A43B
100
AcDbEntity
  8
1
  6
Continuous
100
AcDbLine
 10
52.556479
 20
246.9355579999999
 30
0.0
 11
52.556479
 21
248.135558
 31
0.0
  0
LINE
  5
A59C
330
A43B
100
AcDbEntity
  8
1
  6
Continuous
100
AcDbLine
 10
61.556479
 20
246.9355579999999
 30
0.0
 11
52.556479
 21
246.9355579999999
 31
0.0
  0
ARC
  5
A59D
330
A43B
100
AcDbEntity
  8
1
  6
Continuous
100
AcDbCircle
 10
61.556479
 20
246.9355579999999
 30
0.0
 40
1.199999999999999
100
AcDbArc
 50
0.0
 51
90.0
  0
LINE
  5
A59E
330
A43B
100
AcDbEntity
  8
1
  6
Continuous
100
AcDbLine
 10
61.556479
 20
248.135558
 30
0.0
 11
52.556479
 21
248.135558
 31
0.0
  0
LINE
  5
A59F
330
A43B
100
AcDbEntity
  8
1
  6
Continuous
100
AcDbLine
 10
61.556479
 20
245.6355579999998
 30
0.0
 11
60.056479
 21
245.6355579999998
 31
0.0
  0
ARC
  5
A5A0
330
A43B
100
AcDbEntity
  8
1
  6
Continuous
100
AcDbCircle
 10
61.556479
 20
243.1355579999999
 30
0.0
 40
1.199999999999999
100
AcDbArc
 50
0.0
 51
90.0
  0
ARC
  5
A5A1
330
A43B
100
AcDbEntity
  8
1
  6
Continuous
100
AcDbCircle
 10
59.25647900000001
 20
242.690558
 30
0.0
 40
2.0
100
AcDbArc
 50
280.9139999999998
 51
0.0
  0
LINE
  5
A5A2
330
A43B
100
AcDbEntity
  8
1
  6
Continuous
100
AcDbLine
 10
63.756479
 20
240.385558
 30
0.0
 11
62.756479
 21
240.385558
 31
0.0
  0
LINE
  5
A5A3
330
A43B
100
AcDbEntity
  8
1
  6
Continuous
100
AcDbLine
 10
63.756479
 20
243.885558
 30
0.0
 11
62.756479
 21
243.885558
 31
0.0
  0
LINE
  5
A5A4
330
A43B
100
AcDbEntity
  8
1
  6
Continuous
100
AcDbLine
 10
61.256479
 20
241.6295579999998
 30
0.0
 11
61.256479
 21
243.1355579999999
 31
0.0
  0
LINE
  5
A5A5
330
A43B
100
AcDbEntity
  8
1
  6
Continuous
100
AcDbLine
 10
56.556479
 20
243.1355579999999
 30
0.0
 11
56.556479
 21
244.3355579999999
 31
0.0
  0
LINE
  5
A5A6
330
A43B
100
AcDbEntity
  8
1
  6
Continuous
100
AcDbLine
 10
61.556479
 20
244.3355579999999
 30
0.0
 11
56.556479
 21
244.3355579999999
 31
0.0
  0
LINE
  5
A5A7
330
A43B
100
AcDbEntity
  8
1
  6
Continuous
100
AcDbLine
 10
63.756479
 20
243.885558
 30
0.0
 11
63.756479
 21
240.385558
 31
0.0
  0
LINE
  5
A5A8
330
A43B
100
AcDbEntity
  8
1
  6
Continuous
100
AcDbLine
 10
60.056479
 20
244.3355579999999
 30
0.0
 11
60.056479
 21
245.6355579999998
 31
0.0
  0
LINE
  5
A5A9
330
A43B
100
AcDbEntity
  8
1
  6
Continuous
100
AcDbLine
 10
61.556479
 20
244.3355579999999
 30
0.0
 11
61.556479
 21
246.9355579999999
 31
0.0
  0
LINE
  5
A5AA
330
A43B
100
AcDbEntity
  8
1
  6
Continuous
100
AcDbLine
 10
52.03663399999999
 20
60.835258
 30
0.0
 11
27.076212
 21
60.835258
 31
0.0
  0
LINE
  5
A5AB
330
A43B
100
AcDbEntity
  8
1
  6
Continuous
100
AcDbLine
 10
17.556479
 20
44.47555799999999
 30
0.0
 11
61.556479
 21
44.47555799999999
 31
0.0
  0
LINE
  5
A5AC
330
A43B
100
AcDbEntity
  8
1
  6
Continuous
100
AcDbLine
 10
25.056479
 20
58.820458
 30
0.0
 11
54.056479
 21
58.820458
 31
0.0
  0
LINE
  5
A5AD
330
A43B
100
AcDbEntity
  8
1
  6
Continuous
100
AcDbLine
 10
18.556479
 20
58.23525799999998
 30
0.0
 11
60.556479
 21
58.23525799999998
 31
0.0
  0
LINE
  5
A5AE
330
A43B
100
AcDbEntity
  8
1
  6
Continuous
100
AcDbLine
 10
17.556479
 20
59.218358
 30
0.0
 11
25.040757
 21
59.218358
 31
0.0
  0
LINE
  5
A5AF
330
A43B
100
AcDbEntity
  8
1
  6
Continuous
100
AcDbLine
 10
17.556479
 20
43.53525799999999
 30
0.0
 11
26.056479
 21
43.53525799999999
 31
0.0
  0
LINE
  5
A5B0
330
A43B
100
AcDbEntity
  8
1
  6
Continuous
100
AcDbLine
 10
16.356479
 20
57.035258
 30
0.0
 11
17.556479
 21
57.035258
 31
0.0
  0
LINE
  5
A5B1
330
A43B
100
AcDbEntity
  8
1
  6
Continuous
100
AcDbLine
 10
16.356479
 20
58.018358
 30
0.0
 11
16.356479
 21
44.73525799999999
 31
0.0
  0
LINE
  5
A5B2
330
A43B
100
AcDbEntity
  8
1
  6
Continuous
100
AcDbLine
 10
17.556479
 20
58.23525799999998
 30
0.0
 11
17.556479
 21
44.47555799999999
 31
0.0
  0
ARC
  5
A5B3
330
A43B
100
AcDbEntity
  8
1
  6
Continuous
100
AcDbCircle
 10
17.556479
 20
44.73525799999999
 30
0.0
 40
1.199999999999999
100
AcDbArc
 50
180.0
 51
270.0
  0
ARC
  5
A5B4
330
A43B
100
AcDbEntity
  8
1
  6
Continuous
100
AcDbCircle
 10
17.556479
 20
57.035258
 30
0.0
 40
1.199999999999999
100
AcDbArc
 50
90.0
 51
180.0
  0
ARC
  5
A5B5
330
A43B
100
AcDbEntity
  8
1
  6
Continuous
100
AcDbCircle
 10
17.556479
 20
58.018358
 30
0.0
 40
1.199999999999999
100
AcDbArc
 50
90.0
 51
180.0
  0
ARC
  5
A5B6
330
A43B
100
AcDbEntity
  8
1
  6
Continuous
100
AcDbCircle
 10
17.856479
 20
49.535258
 30
0.0
 40
2.5
100
AcDbArc
 50
126.8699999999999
 51
233.13
  0
LINE
  5
A5B7
330
A43B
100
AcDbEntity
  8
1
  6
Continuous
100
AcDbLine
 10
25.056479
 20
59.23513199999999
 30
0.0
 11
25.056479
 21
58.820458
 31
0.0
  0
LINE
  5
A5B8
330
A43B
100
AcDbEntity
  8
1
  6
Continuous
100
AcDbLine
 10
26.200673
 20
60.455886
 30
0.0
 11
25.056479
 21
59.23513199999999
 31
0.0
  0
ARC
  5
A5B9
330
A43B
100
AcDbEntity
  8
1
  6
Continuous
100
AcDbCircle
 10
27.076212
 20
59.63525799999999
 30
0.0
 40
1.199999999999999
100
AcDbArc
 50
90.0
 51
136.8541989999999
  0
LINE
  5
A5BA
330
A43B
100
AcDbEntity
  8
1
  6
Continuous
100
AcDbLine
 10
26.056479
 20
43.53525799999999
 30
0.0
 11
26.91129699999999
 21
44.47555799999999
 31
0.0
  0
LINE
  5
A5BB
330
A43B
100
AcDbEntity
  8
1
  6
Continuous
100
AcDbLine
 10
54.056479
 20
59.235173
 30
0.0
 11
54.056479
 21
58.820458
 31
0.0
  0
ARC
  5
A5BC
330
A43B
100
AcDbEntity
  8
1
  6
Continuous
100
AcDbCircle
 10
61.556479
 20
57.035258
 30
0.0
 40
1.199999999999999
100
AcDbArc
 50
0.0
 51
90.0
  0
ARC
  5
A5BD
330
A43B
100
AcDbEntity
  8
1
  6
Continuous
100
AcDbCircle
 10
61.556479
 20
58.018358
 30
0.0
 40
1.199999999999999
100
AcDbArc
 50
0.0
 51
90.0
  0
ARC
  5
A5BE
330
A43B
100
AcDbEntity
  8
1
  6
Continuous
100
AcDbCircle
 10
52.03663399999999
 20
59.63525799999999
 30
0.0
 40
1.199999999999999
100
AcDbArc
 50
43.149566
 51
90.0
  0
LINE
  5
A5BF
330
A43B
100
AcDbEntity
  8
1
  6
Continuous
100
AcDbLine
 10
52.912119
 20
60.45594399999998
 30
0.0
 11
54.056479
 21
59.235173
 31
0.0
  0
LINE
  5
A5C0
330
A43B
100
AcDbEntity
  8
1
  6
Continuous
100
AcDbLine
 10
62.756479
 20
47.78525799999999
 30
0.0
 11
63.756479
 21
47.78525799999999
 31
0.0
  0
LINE
  5
A5C1
330
A43B
100
AcDbEntity
  8
1
  6
Continuous
100
AcDbLine
 10
62.756479
 20
51.285258
 30
0.0
 11
63.756479
 21
51.285258
 31
0.0
  0
LINE
  5
A5C2
330
A43B
100
AcDbEntity
  8
1
  6
Continuous
100
AcDbLine
 10
63.756479
 20
51.285258
 30
0.0
 11
63.756479
 21
47.78525799999999
 31
0.0
  0
LINE
  5
A5C3
330
A43B
100
AcDbEntity
  8
1
  6
Continuous
100
AcDbLine
 10
54.072242
 20
59.218358
 30
0.0
 11
61.556479
 21
59.218358
 31
0.0
  0
LINE
  5
A5C4
330
A43B
100
AcDbEntity
  8
1
  6
Continuous
100
AcDbLine
 10
61.556479
 20
57.035258
 30
0.0
 11
62.756479
 21
57.035258
 31
0.0
  0
ARC
  5
A5C5
330
A43B
100
AcDbEntity
  8
1
  6
Continuous
100
AcDbCircle
 10
61.556479
 20
44.73525799999999
 30
0.0
 40
1.199999999999999
100
AcDbArc
 50
270.0
 51
0.0
  0
LINE
  5
A5C6
330
A43B
100
AcDbEntity
  8
1
  6
Continuous
100
AcDbLine
 10
52.556479
 20
44.47555799999999
 30
0.0
 11
52.556479
 21
43.53525799999999
 31
0.0
  0
LINE
  5
A5C7
330
A43B
100
AcDbEntity
  8
1
  6
Continuous
100
AcDbLine
 10
61.556479
 20
43.53525799999999
 30
0.0
 11
52.556479
 21
43.53525799999999
 31
0.0
  0
LINE
  5
A5C8
330
A43B
100
AcDbEntity
  8
1
  6
Continuous
100
AcDbLine
 10
61.556479
 20
58.23525799999998
 30
0.0
 11
61.556479
 21
44.47555799999999
 31
0.0
  0
LINE
  5
A5C9
330
A43B
100
AcDbEntity
  8
1
  6
Continuous
100
AcDbLine
 10
62.756479
 20
58.018358
 30
0.0
 11
62.756479
 21
44.73525799999999
 31
0.0
  0
LINE
  5
A5CA
330
A43B
100
AcDbEntity
  8
1
  6
Continuous
100
AcDbLine
 10
117.556479
 20
248.135558
 30
0.0
 11
81.55647900000003
 21
248.135558
 31
0.0
  0
LINE
  5
A5CB
330
A43B
100
AcDbEntity
  8
1
  6
Continuous
100
AcDbLine
 10
81.55647900000003
 20
246.635558
 30
0.0
 11
81.55647900000003
 21
248.135558
 31
0.0
  0
LINE
  5
A5CC
330
A43B
100
AcDbEntity
  8
1
  6
Continuous
100
AcDbLine
 10
89.55647899999998
 20
246.635558
 30
0.0
 11
89.55647899999998
 21
248.135558
 31
0.0
  0
LINE
  5
A5CD
330
A43B
100
AcDbEntity
  8
1
  6
Continuous
100
AcDbLine
 10
91.55647899999999
 20
246.635558
 30
0.0
 11
81.55647900000003
 21
246.635558
 31
0.0
  0
LINE
  5
A5CE
330
A43B
100
AcDbEntity
  8
1
  6
Continuous
100
AcDbLine
 10
91.55647899999999
 20
237.1355579999999
 30
0.0
 11
91.55647899999999
 21
248.135558
 31
0.0
  0
LINE
  5
A5CF
330
A43B
100
AcDbEntity
  8
4
  6
CENTER
100
AcDbLine
 10
86.55647900000003
 20
245.6355579999998
 30
0.0
 11
86.55647900000003
 21
249.135558
 31
0.0
  0
LINE
  5
A5D0
330
A43B
100
AcDbEntity
  8
1
  6
Continuous
100
AcDbLine
 10
117.556479
 20
246.635558
 30
0.0
 11
107.556479
 21
246.635558
 31
0.0
  0
LINE
  5
A5D1
330
A43B
100
AcDbEntity
  8
1
  6
Continuous
100
AcDbLine
 10
107.556479
 20
237.1355579999999
 30
0.0
 11
107.556479
 21
248.135558
 31
0.0
  0
LINE
  5
A5D2
330
A43B
100
AcDbEntity
  8
1
  6
Continuous
100
AcDbLine
 10
109.556479
 20
246.635558
 30
0.0
 11
109.556479
 21
248.135558
 31
0.0
  0
LINE
  5
A5D3
330
A43B
100
AcDbEntity
  8
1
  6
Continuous
100
AcDbLine
 10
117.556479
 20
246.635558
 30
0.0
 11
117.556479
 21
248.135558
 31
0.0
  0
LINE
  5
A5D4
330
A43B
100
AcDbEntity
  8
4
  6
CENTER
100
AcDbLine
 10
112.556479
 20
245.6355579999998
 30
0.0
 11
112.556479
 21
249.135558
 31
0.0
  0
LINE
  5
A5D5
330
A43B
100
AcDbEntity
  8
4
  6
CENTER
100
AcDbLine
 10
99.55647900000002
 20
232.1784169999999
 30
0.0
 11
99.55647900000002
 21
253.135558
 31
0.0
  0
LINE
  5
A5D6
330
A43B
100
AcDbEntity
  8
1
  6
Continuous
100
AcDbLine
 10
223.707275
 20
149.850803
 30
0.0
 11
227.1487339999999
 21
144.93589
 31
0.0
  0
LINE
  5
A5D7
330
A43B
100
AcDbEntity
  8
1
  6
Continuous
100
AcDbLine
 10
224.9360029999999
 20
150.711167
 30
0.0
 11
228.3774619999999
 21
145.7962549999998
 31
0.0
  0
LINE
  5
A5D8
330
A43B
100
AcDbEntity
  8
1
  6
Continuous
100
AcDbLine
 10
234.3455789999999
 20
143.3355579999999
 30
0.0
 11
234.3455789999999
 21
153.335558
 31
0.0
  0
LINE
  5
A5D9
330
A43B
100
AcDbEntity
  8
1
  6
Continuous
100
AcDbLine
 10
232.845579
 20
143.3355579999999
 30
0.0
 11
232.845579
 21
153.335558
 31
0.0
  0
LINE
  5
A5DA
330
A43B
100
AcDbEntity
  8
1
  6
Continuous
100
AcDbLine
 10
230.5455789999999
 20
151.862796
 30
0.0
 11
225.3107009999999
 21
151.496737
 31
0.0
  0
LINE
  5
A5DB
330
A43B
100
AcDbEntity
  8
1
  6
Continuous
100
AcDbLine
 10
230.5455789999999
 20
153.3664589999999
 30
0.0
 11
225.206066
 21
152.993084
 31
0.0
  0
LINE
  5
A5DC
330
A43B
100
AcDbEntity
  8
1
  6
Continuous
100
AcDbLine
 10
232.845579
 20
153.335558
 30
0.0
 11
234.3455789999999
 21
153.335558
 31
0.0
  0
ARC
  5
A5DD
330
A43B
100
AcDbEntity
  8
1
  6
Continuous
100
AcDbCircle
 10
232.345579
 20
151.4874429999998
 30
0.0
 40
2.0
100
AcDbArc
 50
67.52662499999999
 51
94.0
  0
LINE
  5
A5DE
330
A43B
100
AcDbEntity
  8
1
  6
Continuous
100
AcDbLine
 10
232.2060659999999
 20
153.4825709999998
 30
0.0
 11
230.5455789999999
 21
153.3664589999999
 31
0.0
  0
LINE
  5
A5DF
330
A43B
100
AcDbEntity
  8
4
  6
CENTER
100
AcDbLine
 10
230.353608
 20
148.335558
 30
0.0
 11
236.9958739999999
 21
148.335558
 31
0.0
  0
ARC
  5
A5E0
330
A43B
100
AcDbEntity
  8
1
  6
Continuous
100
AcDbCircle
 10
232.345579
 20
151.4874429999998
 30
0.0
 40
0.5
100
AcDbArc
 50
0.0
 51
94.0
  0
LINE
  5
A5E1
330
A43B
100
AcDbEntity
  8
1
  6
Continuous
100
AcDbLine
 10
232.3107009999999
 20
151.9862249999999
 30
0.0
 11
230.5455789999999
 21
151.862796
 31
0.0
  0
ARC
  5
A5E2
330
A43B
100
AcDbEntity
  8
1
  6
Continuous
100
AcDbCircle
 10
225.3455789999999
 20
150.9979549999999
 30
0.0
 40
0.5
100
AcDbArc
 50
94.0
 51
214.9999999999999
  0
LINE
  5
A5E3
330
A43B
100
AcDbEntity
  8
1
  6
Continuous
100
AcDbLine
 10
228.3774619999999
 20
145.7962549999998
 30
0.0
 11
227.1487339999999
 21
144.93589
 31
0.0
  0
LINE
  5
A5E4
330
A43B
100
AcDbEntity
  8
1
  6
Continuous
100
AcDbLine
 10
232.845579
 20
143.3355579999999
 30
0.0
 11
234.3455789999999
 21
143.3355579999999
 31
0.0
  0
ARC
  5
A5E5
330
A43B
100
AcDbEntity
  8
1
  6
Continuous
100
AcDbCircle
 10
225.3455789999999
 20
150.9979559999999
 30
0.0
 40
2.0
100
AcDbArc
 50
93.999999
 51
214.999999
  0
LINE
  5
A5E6
330
A43B
100
AcDbEntity
  8
1
  6
Continuous
100
AcDbLine
 10
107.556479
 20
237.1355579999999
 30
0.0
 11
91.55647899999999
 21
237.1355579999999
 31
0.0
  0
LINE
  5
A5E7
330
A43B
100
AcDbEntity
  8
1
  6
Continuous
100
AcDbLine
 10
86.171479
 20
143.3355579999999
 30
0.0
 11
112.941479
 21
143.3355579999999
 31
0.0
  0
LINE
  5
A5E8
330
A43B
100
AcDbEntity
  8
1
  6
Continuous
100
AcDbLine
 10
91.55647899999999
 20
153.485558
 30
0.0
 11
107.556479
 21
153.485558
 31
0.0
  0
LINE
  5
A5E9
330
A43B
100
AcDbEntity
  8
4
  6
CENTER
100
AcDbLine
 10
86.55647900000003
 20
142.5855579999999
 30
0.0
 11
86.55647900000003
 21
154.0855579999999
 31
0.0
  0
LINE
  5
A5EA
330
A43B
100
AcDbEntity
  8
4
  6
CENTER
100
AcDbLine
 10
99.55647900000002
 20
157.742942
 30
0.0
 11
99.55647900000002
 21
139.1351779999999
 31
0.0
  0
ARC
  5
A5EB
330
A43B
100
AcDbEntity
  8
1
  6
Continuous
100
AcDbCircle
 10
90.55647900000002
 20
151.982558
 30
0.0
 40
1.0
100
AcDbArc
 50
180.0
 51
0.00001
  0
LINE
  5
A5EC
330
A43B
100
AcDbEntity
  8
4
  6
CENTER
100
AcDbLine
 10
91.958479
 20
148.335558
 30
0.0
 11
79.884479
 21
148.335558
 31
0.0
  0
ARC
  5
A5ED
330
A43B
100
AcDbEntity
  8
1
  6
Continuous
100
AcDbCircle
 10
88.55647900000002
 20
152.335558
 30
0.0
 40
1.0
100
AcDbArc
 50
0.0
 51
90.0
  0
LINE
  5
A5EE
330
A43B
100
AcDbEntity
  8
1
  6
Continuous
100
AcDbLine
 10
86.55647900000003
 20
153.335558
 30
0.0
 11
88.55647900000002
 21
153.335558
 31
0.0
  0
ARC
  5
A5EF
330
A43B
100
AcDbEntity
  8
1
  6
Continuous
100
AcDbCircle
 10
86.55647900000003
 20
148.335558
 30
0.0
 40
5.0
100
AcDbArc
 50
90.0
 51
270.0
  0
CIRCLE
  5
A5F0
330
A43B
100
AcDbEntity
  8
1
  6
Continuous
100
AcDbCircle
 10
86.55647900000003
 20
148.335558
 30
0.0
 40
1.649999999999999
  0
LINE
  5
A5F1
330
A43B
100
AcDbEntity
  8
1
  6
Continuous
100
AcDbLine
 10
91.55647899999999
 20
146.43589
 30
0.0
 11
91.55647899999999
 21
153.485558
 31
0.0
  0
LINE
  5
A5F2
330
A43B
100
AcDbEntity
  8
4
  6
CENTER
100
AcDbLine
 10
112.556479
 20
142.5855579999999
 30
0.0
 11
112.556479
 21
154.0855579999999
 31
0.0
  0
ARC
  5
A5F3
330
A43B
100
AcDbEntity
  8
1
  6
Continuous
100
AcDbCircle
 10
110.556479
 20
152.335558
 30
0.0
 40
1.0
100
AcDbArc
 50
90.0
 51
180.0
  0
ARC
  5
A5F4
330
A43B
100
AcDbEntity
  8
1
  6
Continuous
100
AcDbCircle
 10
108.556479
 20
151.982558
 30
0.0
 40
1.0
100
AcDbArc
 50
180.0
 51
0.00001
  0
LINE
  5
A5F5
330
A43B
100
AcDbEntity
  8
1
  6
Continuous
100
AcDbLine
 10
109.556479
 20
151.982558
 30
0.0
 11
109.556479
 21
152.335558
 31
0.0
  0
LINE
  5
A5F6
330
A43B
100
AcDbEntity
  8
1
  6
Continuous
100
AcDbLine
 10
107.556479
 20
146.43589
 30
0.0
 11
107.556479
 21
153.485558
 31
0.0
  0
LINE
  5
A5F7
330
A43B
100
AcDbEntity
  8
1
  6
Continuous
100
AcDbLine
 10
112.556479
 20
153.335558
 30
0.0
 11
110.556479
 21
153.335558
 31
0.0
  0
CIRCLE
  5
A5F8
330
A43B
100
AcDbEntity
  8
1
  6
Continuous
100
AcDbCircle
 10
112.556479
 20
148.335558
 30
0.0
 40
1.649999999999999
  0
ARC
  5
A5F9
330
A43B
100
AcDbEntity
  8
1
  6
Continuous
100
AcDbCircle
 10
112.556479
 20
148.335558
 30
0.0
 40
5.0
100
AcDbArc
 50
270.0
 51
90.0
  0
LINE
  5
A5FA
330
A43B
100
AcDbEntity
  8
4
  6
CENTER
100
AcDbLine
 10
118.306479
 20
148.335558
 30
0.0
 11
108.101479
 21
148.335558
 31
0.0
  0
LINE
  5
A5FB
330
A43B
100
AcDbEntity
  8
1
  6
Continuous
100
AcDbLine
 10
106.056479
 20
144.93589
 30
0.0
 11
93.05647900000002
 21
144.93589
 31
0.0
  0
ARC
  5
A5FC
330
A43B
100
AcDbEntity
  8
1
  6
Continuous
100
AcDbCircle
 10
93.05647900000002
 20
146.43589
 30
0.0
 40
1.5
100
AcDbArc
 50
180.0
 51
270.0
  0
ARC
  5
A5FD
330
A43B
100
AcDbEntity
  8
1
  6
Continuous
100
AcDbCircle
 10
106.056479
 20
146.43589
 30
0.0
 40
1.5
100
AcDbArc
 50
270.0
 51
0.0
  0
LINE
  5
A5FE
330
A43B
100
AcDbEntity
  8
1
  6
Continuous
100
AcDbLine
 10
89.55647899999998
 20
151.982558
 30
0.0
 11
89.55647899999998
 21
152.335558
 31
0.0
  0
LINE
  5
A5FF
330
A43B
100
AcDbEntity
  8
1
  6
Continuous
100
AcDbLine
 10
117.556479
 20
43.53525799999999
 30
0.0
 11
81.55647900000003
 21
43.53525799999999
 31
0.0
  0
LINE
  5
A600
330
A43B
100
AcDbEntity
  8
1
  6
Continuous
100
AcDbLine
 10
107.556479
 20
54.535258
 30
0.0
 11
91.55647899999999
 21
54.535258
 31
0.0
  0
LINE
  5
A601
330
A43B
100
AcDbEntity
  8
1
  6
Continuous
100
AcDbLine
 10
91.55647899999999
 20
54.535258
 30
0.0
 11
91.55647899999999
 21
45.035258
 31
0.0
  0
LINE
  5
A602
330
A43B
100
AcDbEntity
  8
1
  6
Continuous
100
AcDbLine
 10
81.55647900000003
 20
45.035258
 30
0.0
 11
81.55647900000003
 21
43.53525799999999
 31
0.0
  0
LINE
  5
A603
330
A43B
100
AcDbEntity
  8
4
  6
CENTER
100
AcDbLine
 10
86.55647900000003
 20
46.03525799999999
 30
0.0
 11
86.55647900000003
 21
42.535258
 31
0.0
  0
LINE
  5
A604
330
A43B
100
AcDbEntity
  8
4
  6
CENTER
100
AcDbLine
 10
99.55647900000002
 20
59.492399
 30
0.0
 11
99.55647900000002
 21
38.53525799999999
 31
0.0
  0
LINE
  5
A605
330
A43B
100
AcDbEntity
  8
1
  6
Continuous
100
AcDbLine
 10
107.556479
 20
54.535258
 30
0.0
 11
107.556479
 21
45.035258
 31
0.0
  0
LINE
  5
A606
330
A43B
100
AcDbEntity
  8
1
  6
Continuous
100
AcDbLine
 10
117.556479
 20
45.035258
 30
0.0
 11
81.55647900000003
 21
45.035258
 31
0.0
  0
LINE
  5
A607
330
A43B
100
AcDbEntity
  8
1
  6
Continuous
100
AcDbLine
 10
117.556479
 20
45.035258
 30
0.0
 11
117.556479
 21
43.53525799999999
 31
0.0
  0
LINE
  5
A608
330
A43B
100
AcDbEntity
  8
4
  6
CENTER
100
AcDbLine
 10
112.556479
 20
46.03525799999999
 30
0.0
 11
112.556479
 21
42.535258
 31
0.0
  0
LINE
  5
A609
330
A43B
100
AcDbEntity
  8
1
  6
Continuous
100
AcDbLine
 10
107.556479
 20
50.732103
 30
0.0
 11
91.55647899999999
 21
50.732103
 31
0.0
  0
LINE
  5
A60A
330
A43B
100
AcDbEntity
  8
1
  6
Continuous
100
AcDbLine
 10
107.556479
 20
49.50337499999999
 30
0.0
 11
91.55647899999999
 21
49.50337499999999
 31
0.0
  0
LINE
  5
A60B
330
A43B
100
AcDbEntity
  8
4
  6
CENTER
100
AcDbLine
 10
56.55657900000001
 20
129.8355579999999
 30
0.0
 11
56.55657900000001
 21
135.835558
 31
0.0
  0
LINE
  5
A60C
330
A43B
100
AcDbEntity
  8
4
  6
CENTER
100
AcDbLine
 10
22.556579
 20
129.8355579999999
 30
0.0
 11
22.556579
 21
135.835558
 31
0.0
  0
LINE
  5
A60D
330
A43B
100
AcDbEntity
  8
4
  6
CENTER
100
AcDbLine
 10
56.55657900000001
 20
41.418354
 30
0.0
 11
56.55657900000001
 21
47.418354
 31
0.0
  0
LINE
  5
A60E
330
A43B
100
AcDbEntity
  8
4
  6
CENTER
100
AcDbLine
 10
22.556579
 20
41.418354
 30
0.0
 11
22.556579
 21
47.418354
 31
0.0
  0
LINE
  5
A60F
330
A43B
100
AcDbEntity
  8
4
  6
CENTER
100
AcDbLine
 10
56.55657900000001
 20
244.6867719999999
 30
0.0
 11
56.55657900000001
 21
250.6867719999999
 31
0.0
  0
LINE
  5
A610
330
A43B
100
AcDbEntity
  8
4
  6
CENTER
100
AcDbLine
 10
22.556579
 20
244.6867719999999
 30
0.0
 11
22.556579
 21
250.6867719999999
 31
0.0
  0
ENDSEC
  0
SECTION
  2
OBJECTS
  0
DICTIONARY
  5
A429
330
0
100
AcDbDictionary
281
     1
  3
ACAD_CIP_PREVIOUS_PRODUCT_INFO
350
A674
  3
ACAD_COLOR
350
A656
  3
ACAD_DETAILVIEWSTYLE
350
A66F
  3
ACAD_GROUP
350
A42A
  3
ACAD_LAYOUT
350
A436
  3
ACAD_MATERIAL
350
A624
  3
ACAD_MLEADERSTYLE
350
A66B
  3
ACAD_MLINESTYLE
350
A433
  3
ACAD_PLOTSETTINGS
350
A435
  3
ACAD_PLOTSTYLENAME
350
A622
  3
ACAD_SCALELIST
350
A659
  3
ACAD_SECTIONVIEWSTYLE
350
A66D
  3
ACAD_TABLESTYLE
350
A657
  3
ACAD_VISUALSTYLE
350
A63D
  3
ACDB_RECOMPOSE_DATA
350
A692
  3
AcDbVariableDictionary
350
A685
  3
DWGPROPS
350
A693
  0
DICTIONARY
  5
A675
330
A42D
100
AcDbDictionary
280
     1
281
     1
  3
ADSK_XREC_LAYER_RECONCILED
360
A676
  0
DICTIONARY
  5
A677
330
A443
100
AcDbDictionary
280
     1
281
     1
  3
ADSK_XREC_LAYER_RECONCILED
360
A678
  0
DICTIONARY
  5
A679
330
A444
100
AcDbDictionary
280
     1
281
     1
  3
ADSK_XREC_LAYER_RECONCILED
360
A67A
  0
DICTIONARY
  5
A67B
330
A445
100
AcDbDictionary
280
     1
281
     1
  3
ADSK_XREC_LAYER_RECONCILED
360
A67C
  0
DICTIONARY
  5
A67D
330
A446
100
AcDbDictionary
280
     1
281
     1
  3
ADSK_XREC_LAYER_RECONCILED
360
A67E
  0
DICTIONARY
  5
A67F
330
A447
100
AcDbDictionary
280
     1
281
     1
  3
ADSK_XREC_LAYER_RECONCILED
360
A680
  0
DICTIONARY
  5
A681
330
A448
100
AcDbDictionary
280
     1
281
     1
  3
ADSK_XREC_LAYER_RECONCILED
360
A682
  0
DICTIONARY
  5
A683
330
A449
100
AcDbDictionary
280
     1
281
     1
  3
ADSK_XREC_LAYER_RECONCILED
360
A684
  0
DICTIONARY
  5
A61D
330
A43B
100
AcDbDictionary
281
     1
  3
ACAD_LAYOUTSELFREF
350
A61E
  0
DICTIONARY
  5
A61B
330
A437
100
AcDbDictionary
281
     1
  3
ACAD_LAYOUTSELFREF
350
A61C
  0
XRECORD
  5
A674
102
{ACAD_REACTORS
330
A429
102
}
330
A429
100
AcDbXrecord
280
     1
300
ACDLT
300
2014
300
ACDLT_F_S
  0
DICTIONARY
  5
A656
102
{ACAD_REACTORS
330
A429
102
}
330
A429
100
AcDbDictionary
281
     1
  0
DICTIONARY
  5
A66F
102
{ACAD_REACTORS
330
A429
102
}
330
A429
100
AcDbDictionary
281
     1
  3
Imperial24
350
A670
  0
DICTIONARY
  5
A42A
102
{ACAD_REACTORS
330
A429
102
}
330
A429
100
AcDbDictionary
281
     1
  0
DICTIONARY
  5
A436
102
{ACAD_REACTORS
330
A429
102
}
330
A429
100
AcDbDictionary
281
     1
  3
Model
350
A671
  3
レイアウト1
350
A672
  0
DICTIONARY
  5
A624
102
{ACAD_REACTORS
330
A429
102
}
330
A429
100
AcDbDictionary
281
     1
  3
ByBlock
350
A62D
  3
ByLayer
350
A625
  3
Global
350
A635
  0
DICTIONARY
  5
A66B
102
{ACAD_REACTORS
330
A429
102
}
330
A429
100
AcDbDictionary
281
     1
  3
Standard
350
A66C
  0
DICTIONARY
  5
A433
102
{ACAD_REACTORS
330
A429
102
}
330
A429
100
AcDbDictionary
281
     1
  3
STANDARD
350
A434
  0
DICTIONARY
  5
A435
102
{ACAD_REACTORS
330
A429
102
}
330
A429
100
AcDbDictionary
281
     1
  0
ACDBDICTIONARYWDFLT
  5
A622
102
{ACAD_REACTORS
330
A429
102
}
330
A429
100
AcDbDictionary
281
     1
  3
Normal
350
A623
100
AcDbDictionaryWithDefault
340
A623
  0
DICTIONARY
  5
A659
102
{ACAD_REACTORS
330
A429
102
}
330
A429
100
AcDbDictionary
281
     1
  3
A0
350
A65A
  3
A1
350
A65B
  3
A2
350
A65C
  3
A3
350
A65D
  3
A4
350
A65E
  3
A5
350
A65F
  3
A6
350
A660
  3
A7
350
A661
  3
A8
350
A662
  3
A9
350
A663
  3
B0
350
A664
  3
B1
350
A665
  3
B2
350
A666
  3
B3
350
A667
  3
B4
350
A668
  3
B5
350
A669
  3
B6
350
A66A
  0
DICTIONARY
  5
A66D
102
{ACAD_REACTORS
330
A429
102
}
330
A429
100
AcDbDictionary
281
     1
  3
Imperial24
350
A66E
  0
DICTIONARY
  5
A657
102
{ACAD_REACTORS
330
A429
102
}
330
A429
100
AcDbDictionary
281
     1
  3
Standard
350
A658
  0
DICTIONARY
  5
A63D
102
{ACAD_REACTORS
330
A429
102
}
330
A429
100
AcDbDictionary
281
     1
  3
2dWireframe
350
A643
  3
Basic
350
A642
  3
Brighten
350
A649
  3
ColorChange
350
A64D
  3
Conceptual
350
A646
  3
Dim
350
A648
  3
EdgeColorOff
350
A655
  3
Facepattern
350
A64C
  3
Flat
350
A63E
  3
FlatWithEdges
350
A63F
  3
Gouraud
350
A640
  3
GouraudWithEdges
350
A641
  3
Hidden
350
A645
  3
JitterOff
350
A653
  3
Linepattern
350
A64B
  3
OverhangOff
350
A654
  3
Realistic
350
A647
  3
Shaded
350
A652
  3
Shaded with edges
350
A651
  3
Shades of Gray
350
A64E
  3
Sketchy
350
A64F
  3
Thicken
350
A64A
  3
Wireframe
350
A644
  3
X-Ray
350
A650
  0
XRECORD
  5
A692
102
{ACAD_REACTORS
330
A429
102
}
330
A429
100
AcDbXrecord
280
     1
 90
        1
330
A658
  0
DICTIONARY
  5
A685
102
{ACAD_REACTORS
330
A429
102
}
330
A429
100
AcDbDictionary
281
     1
  3
CANNOSCALE
350
A68A
  3
CMLEADERSTYLE
350
A687
  3
CTABLESTYLE
350
A686
  3
CVIEWDETAILSTYLE
350
A688
  3
CVIEWSECTIONSTYLE
350
A689
  3
DIMASSOC
350
A68D
  3
INDEXCTL
350
A68C
  3
SORTENTS
350
A68B
  3
XCLIPFRAME
350
A68E
  0
XRECORD
  5
A693
102
{ACAD_REACTORS
330
A429
102
}
330
A429
100
AcDbXrecord
280
     1
  1
DWGPROPS COOKIE
  2

  3

  4

  6

  7

  8
Yoshitsune
  9

300
=
301
=
302
=
303
=
304
=
305
=
306
=
307
=
308
=
309
=
 40
0.0000135532407407
 41
2451074.436242477
 42
2457192.601260636
  1

 90
        0
  0
XRECORD
  5
A676
102
{ACAD_REACTORS
330
A675
102
}
330
A675
100
AcDbXrecord
280
     1
290
     1
  0
XRECORD
  5
A678
102
{ACAD_REACTORS
330
A677
102
}
330
A677
100
AcDbXrecord
280
     1
290
     1
  0
XRECORD
  5
A67A
102
{ACAD_REACTORS
330
A679
102
}
330
A679
100
AcDbXrecord
280
     1
290
     1
  0
XRECORD
  5
A67C
102
{ACAD_REACTORS
330
A67B
102
}
330
A67B
100
AcDbXrecord
280
     1
290
     1
  0
XRECORD
  5
A67E
102
{ACAD_REACTORS
330
A67D
102
}
330
A67D
100
AcDbXrecord
280
     1
290
     1
  0
XRECORD
  5
A680
102
{ACAD_REACTORS
330
A67F
102
}
330
A67F
100
AcDbXrecord
280
     1
290
     1
  0
XRECORD
  5
A682
102
{ACAD_REACTORS
330
A681
102
}
330
A681
100
AcDbXrecord
280
     1
290
     1
  0
XRECORD
  5
A684
102
{ACAD_REACTORS
330
A683
102
}
330
A683
100
AcDbXrecord
280
     1
290
     1
  0
XRECORD
  5
A61E
102
{ACAD_REACTORS
330
A61D
102
}
330
A61D
100
AcDbXrecord
280
     1
340
A43B
  0
XRECORD
  5
A61C
102
{ACAD_REACTORS
330
A61B
102
}
330
A61B
100
AcDbXrecord
280
     1
340
A437
  0
ACDBDETAILVIEWSTYLE
  5
A670
102
{ACAD_XDICTIONARY
360
A6CB
102
}
102
{ACAD_REACTORS
330
A66F
102
}
330
A66F
100
AcDbModelDocViewStyle
 70
     0
  3
Imperial24
290
     0
100
AcDbDetailViewStyle
 70
     0
 71
     0
 90
        3
 71
     1
340
A42E
 40
0.24
340
0
 40
0.24
300

 40
0.36
280
     3
 71
     2
340
A432
 90
       25
 71
     3
340
A42E
 40
0.24
 90
        1
 40
0.75
 90
        1
300
%<\AcVar ViewType \f "%tc1">% %<\AcVar ViewDetailId>%\PSCALE %<\AcVar ViewScale \f "%sn">%
 71
     4
340
A432
 90
       25
340
A432
 90
       25
280
     0
  0
LAYOUT
  5
A671
102
{ACAD_XDICTIONARY
360
A6CD
102
}
102
{ACAD_REACTORS
330
A436
102
}
330
A436
100
AcDbPlotSettings
  1

  2
Canon LBP9100C
  4

  6

 40
0.0
 41
0.0
 42
0.0
 43
0.0
 44
0.0
 45
0.0
 46
0.0
 47
0.0
 48
0.0
 49
0.0
140
0.0
141
0.0
142
1.0
143
1.0
 70
  1712
 72
     0
 73
     0
 74
     0
  7

 75
     0
147
1.0
148
0.0
149
0.0
100
AcDbLayout
  1
Model
 70
     1
 71
     0
 10
0.0
 20
0.0
 11
12.0
 21
9.0
 12
0.0
 22
0.0
 32
0.0
 14
0.0
 24
0.0
 34
0.0
 15
0.0
 25
0.0
 35
0.0
146
0.0
 13
0.0
 23
0.0
 33
0.0
 16
1.0
 26
0.0
 36
0.0
 17
0.0
 27
1.0
 37
0.0
 76
     0
330
A43B
331
A61A
  0
LAYOUT
  5
A672
102
{ACAD_XDICTIONARY
360
A6CF
102
}
102
{ACAD_REACTORS
330
A436
102
}
330
A436
100
AcDbPlotSettings
  1

  2
Canon LBP9100C
  4

  6

 40
0.0
 41
0.0
 42
0.0
 43
0.0
 44
0.0
 45
0.0
 46
0.0
 47
0.0
 48
0.0
 49
0.0
140
0.0
141
0.0
142
1.0
143
1.0
 70
   688
 72
     0
 73
     0
 74
     5
  7

 75
    16
147
1.0
148
0.0
149
0.0
100
AcDbLayout
  1
レイアウト1
 70
     0
 71
     1
 10
0.0
 20
0.0
 11
420.0
 21
297.0
 12
0.0
 22
0.0
 32
0.0
 14
1.000000000000000E+20
 24
1.000000000000000E+20
 34
1.000000000000000E+20
 15
-1.000000000000000E+20
 25
-1.000000000000000E+20
 35
-1.000000000000000E+20
146
0.0
 13
0.0
 23
0.0
 33
0.0
 16
1.0
 26
0.0
 36
0.0
 17
0.0
 27
1.0
 37
0.0
 76
     0
330
A437
  0
MATERIAL
  5
A62D
102
{ACAD_XDICTIONARY
360
A62E
102
}
102
{ACAD_REACTORS
330
A624
102
}
330
A624
100
AcDbMaterial
  1
ByBlock
 72
     0
 43
0.0208333333333333
 43
0.0
 43
0.0
 43
0.0
 43
0.0
 43
0.0208333333333333
 43
0.0
 43
0.0
 43
0.0
 43
0.0
 43
1.0
 43
0.0
 43
0.0
 43
0.0
 43
0.0
 43
1.0
 77
     0
 47
0.0208333333333333
 47
0.0
 47
0.0
 47
0.0
 47
0.0
 47
0.0208333333333333
 47
0.0
 47
0.0
 47
0.0
 47
0.0
 47
1.0
 47
0.0
 47
0.0
 47
0.0
 47
0.0
 47
1.0
171
     0
 49
0.0208333333333333
 49
0.0
 49
0.0
 49
0.0
 49
0.0
 49
0.0208333333333333
 49
0.0
 49
0.0
 49
0.0
 49
0.0
 49
1.0
 49
0.0
 49
0.0
 49
0.0
 49
0.0
 49
1.0
175
     0
142
0.0208333333333333
142
0.0
142
0.0
142
0.0
142
0.0
142
0.0208333333333333
142
0.0
142
0.0
142
0.0
142
0.0
142
1.0
142
0.0
142
0.0
142
0.0
142
0.0
142
1.0
179
     0
144
0.0208333333333333
144
0.0
144
0.0
144
0.0
144
0.0
144
0.0208333333333333
144
0.0
144
0.0
144
0.0
144
0.0
144
1.0
144
0.0
144
0.0
144
0.0
144
0.0
144
1.0
147
0.0208333333333333
147
0.0
147
0.0
147
0.0
147
0.0
147
0.0208333333333333
147
0.0
147
0.0
147
0.0
147
0.0
147
1.0
147
0.0
147
0.0
147
0.0
147
0.0
147
1.0
  0
MATERIAL
  5
A625
102
{ACAD_XDICTIONARY
360
A626
102
}
102
{ACAD_REACTORS
330
A624
102
}
330
A624
100
AcDbMaterial
  1
ByLayer
 72
     0
 43
0.0208333333333333
 43
0.0
 43
0.0
 43
0.0
 43
0.0
 43
0.0208333333333333
 43
0.0
 43
0.0
 43
0.0
 43
0.0
 43
1.0
 43
0.0
 43
0.0
 43
0.0
 43
0.0
 43
1.0
 77
     0
 47
0.0208333333333333
 47
0.0
 47
0.0
 47
0.0
 47
0.0
 47
0.0208333333333333
 47
0.0
 47
0.0
 47
0.0
 47
0.0
 47
1.0
 47
0.0
 47
0.0
 47
0.0
 47
0.0
 47
1.0
171
     0
 49
0.0208333333333333
 49
0.0
 49
0.0
 49
0.0
 49
0.0
 49
0.0208333333333333
 49
0.0
 49
0.0
 49
0.0
 49
0.0
 49
1.0
 49
0.0
 49
0.0
 49
0.0
 49
0.0
 49
1.0
175
     0
142
0.0208333333333333
142
0.0
142
0.0
142
0.0
142
0.0
142
0.0208333333333333
142
0.0
142
0.0
142
0.0
142
0.0
142
1.0
142
0.0
142
0.0
142
0.0
142
0.0
142
1.0
179
     0
144
0.0208333333333333
144
0.0
144
0.0
144
0.0
144
0.0
144
0.0208333333333333
144
0.0
144
0.0
144
0.0
144
0.0
144
1.0
144
0.0
144
0.0
144
0.0
144
0.0
144
1.0
147
0.0208333333333333
147
0.0
147
0.0
147
0.0
147
0.0
147
0.0208333333333333
147
0.0
147
0.0
147
0.0
147
0.0
147
1.0
147
0.0
147
0.0
147
0.0
147
0.0
147
1.0
  0
MATERIAL
  5
A635
102
{ACAD_XDICTIONARY
360
A636
102
}
102
{ACAD_REACTORS
330
A624
102
}
330
A624
100
AcDbMaterial
  1
Global
 72
     0
 43
0.0208333333333333
 43
0.0
 43
0.0
 43
0.0
 43
0.0
 43
0.0208333333333333
 43
0.0
 43
0.0
 43
0.0
 43
0.0
 43
1.0
 43
0.0
 43
0.0
 43
0.0
 43
0.0
 43
1.0
 77
     0
 47
0.0208333333333333
 47
0.0
 47
0.0
 47
0.0
 47
0.0
 47
0.0208333333333333
 47
0.0
 47
0.0
 47
0.0
 47
0.0
 47
1.0
 47
0.0
 47
0.0
 47
0.0
 47
0.0
 47
1.0
171
     0
 49
0.0208333333333333
 49
0.0
 49
0.0
 49
0.0
 49
0.0
 49
0.0208333333333333
 49
0.0
 49
0.0
 49
0.0
 49
0.0
 49
1.0
 49
0.0
 49
0.0
 49
0.0
 49
0.0
 49
1.0
175
     0
142
0.0208333333333333
142
0.0
142
0.0
142
0.0
142
0.0
142
0.0208333333333333
142
0.0
142
0.0
142
0.0
142
0.0
142
1.0
142
0.0
142
0.0
142
0.0
142
0.0
142
1.0
179
     0
144
0.0208333333333333
144
0.0
144
0.0
144
0.0
144
0.0
144
0.0208333333333333
144
0.0
144
0.0
144
0.0
144
0.0
144
1.0
144
0.0
144
0.0
144
0.0
144
0.0
144
1.0
147
0.0208333333333333
147
0.0
147
0.0
147
0.0
147
0.0
147
0.0208333333333333
147
0.0
147
0.0
147
0.0
147
0.0
147
1.0
147
0.0
147
0.0
147
0.0
147
0.0
147
1.0
  0
MLEADERSTYLE
  5
A66C
102
{ACAD_REACTORS
330
A66B
102
}
330
A66B
100
AcDbMLeaderStyle
170
     2
171
     1
172
     0
 90
        2
 40
0.0
 41
0.0
173
     1
 91
-1056964608
340
A430
 92
       -2
290
     1
 42
0.09
291
     1
 43
0.36
  3
Standard
 44
0.18
300

342
A42E
174
     1
178
     6
175
     1
176
     0
 93
-1056964608
 45
0.18
292
     0
297
     0
 46
0.18
 94
-1056964608
 47
1.0
 49
1.0
140
1.0
293
     1
141
0.0
294
     1
177
     0
142
1.0
295
     0
296
     0
143
0.125
1001
ACAD_MLEADERVER
1070
     2
  0
MLINESTYLE
  5
A434
102
{ACAD_REACTORS
330
A433
102
}
330
A433
100
AcDbMlineStyle
  2
STANDARD
 70
     0
  3

 62
   256
 51
90.0
 52
90.0
 71
     2
 49
0.5
 62
   256
  6
BYLAYER
 49
-0.5
 62
   256
  6
BYLAYER
  0
ACDBPLACEHOLDER
  5
A623
102
{ACAD_REACTORS
330
A622
102
}
330
A622
  0
SCALE
  5
A65A
102
{ACAD_REACTORS
330
A659
102
}
330
A659
100
AcDbScale
 70
     0
300
1:1
140
1.0
141
1.0
290
     1
  0
SCALE
  5
A65B
102
{ACAD_REACTORS
330
A659
102
}
330
A659
100
AcDbScale
 70
     0
300
1/128" = 1'-0"
140
0.0078125
141
12.0
290
     0
  0
SCALE
  5
A65C
102
{ACAD_REACTORS
330
A659
102
}
330
A659
100
AcDbScale
 70
     0
300
1/64" = 1'-0"
140
0.015625
141
12.0
290
     0
  0
SCALE
  5
A65D
102
{ACAD_REACTORS
330
A659
102
}
330
A659
100
AcDbScale
 70
     0
300
1/32" = 1'-0"
140
0.03125
141
12.0
290
     0
  0
SCALE
  5
A65E
102
{ACAD_REACTORS
330
A659
102
}
330
A659
100
AcDbScale
 70
     0
300
1/16" = 1'-0"
140
0.0625
141
12.0
290
     0
  0
SCALE
  5
A65F
102
{ACAD_REACTORS
330
A659
102
}
330
A659
100
AcDbScale
 70
     0
300
3/32" = 1'-0"
140
0.09375
141
12.0
290
     0
  0
SCALE
  5
A660
102
{ACAD_REACTORS
330
A659
102
}
330
A659
100
AcDbScale
 70
     0
300
1/8" = 1'-0"
140
0.125
141
12.0
290
     0
  0
SCALE
  5
A661
102
{ACAD_REACTORS
330
A659
102
}
330
A659
100
AcDbScale
 70
     0
300
3/16" = 1'-0"
140
0.1875
141
12.0
290
     0
  0
SCALE
  5
A662
102
{ACAD_REACTORS
330
A659
102
}
330
A659
100
AcDbScale
 70
     0
300
1/4" = 1'-0"
140
0.25
141
12.0
290
     0
  0
SCALE
  5
A663
102
{ACAD_REACTORS
330
A659
102
}
330
A659
100
AcDbScale
 70
     0
300
3/8" = 1'-0"
140
0.375
141
12.0
290
     0
  0
SCALE
  5
A664
102
{ACAD_REACTORS
330
A659
102
}
330
A659
100
AcDbScale
 70
     0
300
1/2" = 1'-0"
140
0.5
141
12.0
290
     0
  0
SCALE
  5
A665
102
{ACAD_REACTORS
330
A659
102
}
330
A659
100
AcDbScale
 70
     0
300
3/4" = 1'-0"
140
0.75
141
12.0
290
     0
  0
SCALE
  5
A666
102
{ACAD_REACTORS
330
A659
102
}
330
A659
100
AcDbScale
 70
     0
300
1" = 1'-0"
140
1.0
141
12.0
290
     0
  0
SCALE
  5
A667
102
{ACAD_REACTORS
330
A659
102
}
330
A659
100
AcDbScale
 70
     0
300
1-1/2" = 1'-0"
140
1.5
141
12.0
290
     0
  0
SCALE
  5
A668
102
{ACAD_REACTORS
330
A659
102
}
330
A659
100
AcDbScale
 70
     0
300
3" = 1'-0"
140
3.0
141
12.0
290
     0
  0
SCALE
  5
A669
102
{ACAD_REACTORS
330
A659
102
}
330
A659
100
AcDbScale
 70
     0
300
6" = 1'-0"
140
6.0
141
12.0
290
     0
  0
SCALE
  5
A66A
102
{ACAD_REACTORS
330
A659
102
}
330
A659
100
AcDbScale
 70
     0
300
1'-0" = 1'-0"
140
12.0
141
12.0
290
     0
  0
ACDBSECTIONVIEWSTYLE
  5
A66E
102
{ACAD_XDICTIONARY
360
A6C9
102
}
102
{ACAD_REACTORS
330
A66D
102
}
330
A66D
100
AcDbModelDocViewStyle
 70
     0
  3
Imperial24
290
     0
100
AcDbSectionViewStyle
 70
     0
 71
     0
 90
       78
 71
     1
340
A42E
 40
0.24
340
0
340
0
 40
0.24
300
I, O, Q, S, X, Z
 40
0.48
 90
        3
 40
0.18
 90
        1
 71
     2
340
A432
 90
       25
340
A432
 90
       50
 40
0.24
 40
0.0
 40
0.24
 71
     3
340
A42E
 40
0.24
 90
        1
 40
0.75
 90
        1
300
%<\AcVar ViewType \f "%tc1">% %<\AcVar ViewSectionStartId>%-%<\AcVar ViewSectionEndId>%\PSCALE %<\AcVar ViewScale \f "%sn">%
 71
     4
300
ANSI31
 40
1.0
 90
        0
290
     0
290
     0
 90
        6
 40
0.0
 40
1.570796326794896
 40
0.2617993877991494
 40
1.308996938995747
 40
-0.2617993877991494
 40
1.832595714594046
  0
TABLESTYLE
  5
A658
102
{ACAD_XDICTIONARY
360
A690
102
}
102
{ACAD_REACTORS
330
A657
102
}
330
A657
100
AcDbTableStyle
  3
Standard
 70
     0
 71
     0
 40
0.06
 41
0.06
280
     0
281
     0
  7
STANDARD
140
0.18
170
     2
 62
     0
 63
     7
283
     0
274
    -2
284
     1
 64
     0
275
    -2
285
     1
 65
     0
276
    -2
286
     1
 66
     0
277
    -2
287
     1
 67
     0
278
    -2
288
     1
 68
     0
279
    -2
289
     1
 69
     0
  7
STANDARD
140
0.25
170
     5
 62
     0
 63
     7
283
     0
274
    -2
284
     1
 64
     0
275
    -2
285
     1
 65
     0
276
    -2
286
     1
 66
     0
277
    -2
287
     1
 67
     0
278
    -2
288
     1
 68
     0
279
    -2
289
     1
 69
     0
  7
STANDARD
140
0.18
170
     5
 62
     0
 63
     7
283
     0
274
    -2
284
     1
 64
     0
275
    -2
285
     1
 65
     0
276
    -2
286
     1
 66
     0
277
    -2
287
     1
 67
     0
278
    -2
288
     1
 68
     0
279
    -2
289
     1
 69
     0
  0
VISUALSTYLE
  5
A643
102
{ACAD_XDICTIONARY
360
A6A1
102
}
102
{ACAD_REACTORS
330
A63D
102
}
330
A63D
100
AcDbVisualStyle
  2
2dWireframe
 70
     4
 71
     0
 72
     2
 73
     0
 90
        0
 40
-0.6
 41
-30.0
 62
     5
 63
     7
 74
     1
 91
        4
 64
     7
 65
   257
 75
     1
175
     1
 42
1.0
 92
        0
 66
   257
 43
1.0
 76
     1
 77
     6
 78
     2
 67
     7
 79
     5
170
     0
171
     0
290
     0
174
     0
 93
        1
 44
0.0
173
     0
291
     0
 45
0.0
1001
ACAD
1000
AcDbSavedByObjectVersion
1070
     0
  0
VISUALSTYLE
  5
A642
102
{ACAD_XDICTIONARY
360
A69F
102
}
102
{ACAD_REACTORS
330
A63D
102
}
330
A63D
100
AcDbVisualStyle
  2
Basic
 70
     7
 71
     1
 72
     0
 73
     1
 90
        0
 40
-0.6
 41
-30.0
 62
     5
 63
     7
 74
     0
 91
        4
 64
     7
 65
   257
 75
     1
175
     1
 42
1.0
 92
        8
 66
     7
 43
1.0
 76
     1
 77
     6
 78
     2
 67
     7
 79
     5
170
     0
171
     0
290
     0
174
     0
 93
        1
 44
0.0
173
     0
291
     1
 45
0.0
1001
ACAD
1000
AcDbSavedByObjectVersion
1070
     0
  0
VISUALSTYLE
  5
A649
102
{ACAD_XDICTIONARY
360
A6AD
102
}
102
{ACAD_REACTORS
330
A63D
102
}
330
A63D
100
AcDbVisualStyle
  2
Brighten
 70
    12
 71
     2
 72
     2
 73
     0
 90
        0
 40
-0.6
 41
-30.0
 62
     5
 63
     7
 74
     1
 91
        4
 64
     7
 65
   257
 75
     1
175
     1
 42
1.0
 92
        8
 66
     7
 43
1.0
 76
     1
 77
     6
 78
     2
 67
     7
 79
     5
170
     0
171
     0
290
     0
174
     0
 93
        1
 44
50.0
173
     0
291
     1
 45
0.0
1001
ACAD
1000
AcDbSavedByObjectVersion
1070
     0
  0
VISUALSTYLE
  5
A64D
102
{ACAD_XDICTIONARY
360
A6B5
102
}
102
{ACAD_REACTORS
330
A63D
102
}
330
A63D
100
AcDbVisualStyle
  2
ColorChange
 70
    16
 71
     2
 72
     2
 73
     3
 90
        0
 40
-0.6
 41
-30.0
 62
     5
 63
     8
 74
     1
 91
        4
 64
     7
 65
   257
 75
     1
175
     1
 42
1.0
 92
        8
 66
     8
 43
1.0
 76
     1
 77
     6
 78
     2
 67
     7
 79
     5
170
     0
171
     0
290
     0
174
     0
 93
        1
 44
0.0
173
     0
291
     1
 45
0.0
1001
ACAD
1000
AcDbSavedByObjectVersion
1070
     0
  0
VISUALSTYLE
  5
A646
102
{ACAD_XDICTIONARY
360
A6A7
102
}
102
{ACAD_REACTORS
330
A63D
102
}
330
A63D
100
AcDbVisualStyle
  2
Conceptual
 70
     9
 71
     3
 72
     2
 73
     0
 90
        0
 40
-0.6
 41
-30.0
 62
     5
 63
     7
 74
     2
 91
        2
 64
     7
 65
   257
 75
     1
175
     1
 42
179.0
 92
        8
 66
     7
 43
1.0
 76
     1
 77
     6
 78
     2
 67
     7
 79
     3
170
     0
171
     0
290
     0
174
     0
 93
        1
 44
0.0
173
     0
291
     0
 45
0.0
1001
ACAD
1000
AcDbSavedByObjectVersion
1070
     0
  0
VISUALSTYLE
  5
A648
102
{ACAD_XDICTIONARY
360
A6AB
102
}
102
{ACAD_REACTORS
330
A63D
102
}
330
A63D
100
AcDbVisualStyle
  2
Dim
 70
    11
 71
     2
 72
     2
 73
     0
 90
        0
 40
-0.6
 41
-30.0
 62
     5
 63
     7
 74
     1
 91
        4
 64
     7
 65
   257
 75
     1
175
     1
 42
1.0
 92
        8
 66
     7
 43
1.0
 76
     1
 77
     6
 78
     2
 67
     7
 79
     5
170
     0
171
     0
290
     0
174
     0
 93
        1
 44
-50.0
173
     0
291
     1
 45
0.0
1001
ACAD
1000
AcDbSavedByObjectVersion
1070
     0
  0
VISUALSTYLE
  5
A655
102
{ACAD_XDICTIONARY
360
A6C5
102
}
102
{ACAD_REACTORS
330
A63D
102
}
330
A63D
100
AcDbVisualStyle
  2
EdgeColorOff
 70
    22
 71
     2
 72
     2
 73
     0
 90
        0
 40
-0.6
 41
-30.0
 62
     5
 63
     7
 74
     1
 91
        4
 64
     7
 65
   257
 75
     1
175
     1
 42
1.0
 92
        8
 66
     7
 43
1.0
 76
     1
 77
     6
 78
     2
 67
     7
 79
     5
170
     0
171
     0
290
     0
174
     0
 93
        1
 44
0.0
173
     0
291
     1
 45
0.0
1001
ACAD
1000
AcDbSavedByObjectVersion
1070
     0
  0
VISUALSTYLE
  5
A64C
102
{ACAD_XDICTIONARY
360
A6B3
102
}
102
{ACAD_REACTORS
330
A63D
102
}
330
A63D
100
AcDbVisualStyle
  2
Facepattern
 70
    15
 71
     2
 72
     2
 73
     0
 90
        0
 40
-0.6
 41
-30.0
 62
     5
 63
     7
 74
     1
 91
        4
 64
     7
 65
   257
 75
     1
175
     1
 42
1.0
 92
        8
 66
     7
 43
1.0
 76
     1
 77
     6
 78
     2
 67
     7
 79
     5
170
     0
171
     0
290
     0
174
     0
 93
        1
 44
0.0
173
     0
291
     1
 45
0.0
1001
ACAD
1000
AcDbSavedByObjectVersion
1070
     0
  0
VISUALSTYLE
  5
A63E
102
{ACAD_XDICTIONARY
360
A697
102
}
102
{ACAD_REACTORS
330
A63D
102
}
330
A63D
100
AcDbVisualStyle
  2
Flat
 70
     0
 71
     2
 72
     1
 73
     1
 90
        2
 40
-0.6
 41
30.0
 62
     5
 63
     7
 74
     0
 91
        0
 64
     7
 65
   257
 75
     1
175
     1
 42
1.0
 92
        8
 66
     7
 43
1.0
 76
     1
 77
     6
 78
     2
 67
     7
 79
     5
170
     0
171
     0
290
     0
174
     0
 93
       13
 44
0.0
173
     0
291
     1
 45
0.0
1001
ACAD
1000
AcDbSavedByObjectVersion
1070
     0
  0
VISUALSTYLE
  5
A63F
102
{ACAD_XDICTIONARY
360
A699
102
}
102
{ACAD_REACTORS
330
A63D
102
}
330
A63D
100
AcDbVisualStyle
  2
FlatWithEdges
 70
     1
 71
     2
 72
     1
 73
     1
 90
        2
 40
-0.6
 41
30.0
 62
     5
 63
     7
 74
     1
 91
        0
 64
     7
 65
   257
 75
     1
175
     1
 42
1.0
 92
        0
 66
   257
 43
1.0
 76
     1
 77
     6
 78
     2
 67
     7
 79
     5
170
     0
171
     0
290
     0
174
     0
 93
       13
 44
0.0
173
     0
291
     1
 45
0.0
1001
ACAD
1000
AcDbSavedByObjectVersion
1070
     0
  0
VISUALSTYLE
  5
A640
102
{ACAD_XDICTIONARY
360
A69B
102
}
102
{ACAD_REACTORS
330
A63D
102
}
330
A63D
100
AcDbVisualStyle
  2
Gouraud
 70
     2
 71
     2
 72
     2
 73
     1
 90
        2
 40
-0.6
 41
30.0
 62
     5
 63
     7
 74
     0
 91
        0
 64
     7
 65
   257
 75
     1
175
     1
 42
1.0
 92
        0
 66
     7
 43
1.0
 76
     1
 77
     6
 78
     2
 67
     7
 79
     5
170
     0
171
     0
290
     0
174
     0
 93
       13
 44
0.0
173
     0
291
     1
 45
0.0
1001
ACAD
1000
AcDbSavedByObjectVersion
1070
     0
  0
VISUALSTYLE
  5
A641
102
{ACAD_XDICTIONARY
360
A69D
102
}
102
{ACAD_REACTORS
330
A63D
102
}
330
A63D
100
AcDbVisualStyle
  2
GouraudWithEdges
 70
     3
 71
     2
 72
     2
 73
     1
 90
        2
 40
-0.6
 41
30.0
 62
     5
 63
     7
 74
     1
 91
        0
 64
     7
 65
   257
 75
     1
175
     1
 42
1.0
 92
        0
 66
   257
 43
1.0
 76
     1
 77
     6
 78
     2
 67
     7
 79
     5
170
     0
171
     0
290
     0
174
     0
 93
       13
 44
0.0
173
     0
291
     1
 45
0.0
1001
ACAD
1000
AcDbSavedByObjectVersion
1070
     0
  0
VISUALSTYLE
  5
A645
102
{ACAD_XDICTIONARY
360
A6A5
102
}
102
{ACAD_REACTORS
330
A63D
102
}
330
A63D
100
AcDbVisualStyle
  2
Hidden
 70
     6
 71
     1
 72
     2
 73
     2
 90
        0
 40
-0.6
 41
-30.0
 62
     5
 63
     7
 74
     2
 91
        2
 64
     7
 65
   257
 75
     2
175
     1
 42
40.0
 92
        0
 66
   257
 43
1.0
 76
     1
 77
     6
 78
     2
 67
     7
 79
     3
170
     0
171
     0
290
     0
174
     0
 93
        1
 44
0.0
173
     0
291
     0
 45
0.0
1001
ACAD
1000
AcDbSavedByObjectVersion
1070
     0
  0
VISUALSTYLE
  5
A653
102
{ACAD_XDICTIONARY
360
A6C1
102
}
102
{ACAD_REACTORS
330
A63D
102
}
330
A63D
100
AcDbVisualStyle
  2
JitterOff
 70
    20
 71
     2
 72
     2
 73
     0
 90
        0
 40
-0.6
 41
-30.0
 62
     5
 63
     7
 74
     1
 91
        4
 64
     7
 65
   257
 75
     1
175
     1
 42
1.0
 92
       10
 66
     7
 43
1.0
 76
     1
 77
     6
 78
     2
 67
     7
 79
     5
170
     0
171
     0
290
     0
174
     0
 93
        1
 44
0.0
173
     0
291
     1
 45
0.0
1001
ACAD
1000
AcDbSavedByObjectVersion
1070
     0
  0
VISUALSTYLE
  5
A64B
102
{ACAD_XDICTIONARY
360
A6B1
102
}
102
{ACAD_REACTORS
330
A63D
102
}
330
A63D
100
AcDbVisualStyle
  2
Linepattern
 70
    14
 71
     2
 72
     2
 73
     0
 90
        0
 40
-0.6
 41
-30.0
 62
     5
 63
     7
 74
     1
 91
        4
 64
     7
 65
   257
 75
     7
175
     7
 42
1.0
 92
        8
 66
     7
 43
1.0
 76
     1
 77
     6
 78
     2
 67
     7
 79
     5
170
     0
171
     0
290
     0
174
     0
 93
        1
 44
0.0
173
     0
291
     1
 45
0.0
1001
ACAD
1000
AcDbSavedByObjectVersion
1070
     0
  0
VISUALSTYLE
  5
A654
102
{ACAD_XDICTIONARY
360
A6C3
102
}
102
{ACAD_REACTORS
330
A63D
102
}
330
A63D
100
AcDbVisualStyle
  2
OverhangOff
 70
    21
 71
     2
 72
     2
 73
     0
 90
        0
 40
-0.6
 41
-30.0
 62
     5
 63
     7
 74
     1
 91
        4
 64
     7
 65
   257
 75
     1
175
     1
 42
1.0
 92
        9
 66
     7
 43
1.0
 76
     1
 77
     6
 78
     2
 67
     7
 79
     5
170
     0
171
     0
290
     0
174
     0
 93
        1
 44
0.0
173
     0
291
     1
 45
0.0
1001
ACAD
1000
AcDbSavedByObjectVersion
1070
     0
  0
VISUALSTYLE
  5
A647
102
{ACAD_XDICTIONARY
360
A6A9
102
}
102
{ACAD_REACTORS
330
A63D
102
}
330
A63D
100
AcDbVisualStyle
  2
Realistic
 70
     8
 71
     2
 72
     3
 73
     0
 90
        2
 40
-0.6
 41
30.0
 62
     5
 63
     7
 74
     0
 91
        0
 64
     7
 65
   257
 75
     1
175
     1
 42
1.0
 92
        8
 66
   257
 43
1.0
 76
     1
 77
     6
 78
     2
 67
     7
 79
     3
170
     0
171
     0
290
     0
174
     0
 93
       13
 44
0.0
173
     0
291
     0
 45
0.0
1001
ACAD
1000
AcDbSavedByObjectVersion
1070
     0
  0
VISUALSTYLE
  5
A652
102
{ACAD_XDICTIONARY
360
A6BF
102
}
102
{ACAD_REACTORS
330
A63D
102
}
330
A63D
100
AcDbVisualStyle
  2
Shaded
 70
    27
 71
     2
 72
     2
 73
     1
 90
        2
 40
-0.6
 41
30.0
 62
     5
 63
     7
 74
     0
 91
        4
 64
     7
 65
   257
 75
     1
175
     1
 42
1.0
 92
        8
 66
   257
 43
1.0
 76
     1
 77
     6
 78
     2
 67
     8
 79
     3
170
     0
171
     0
290
     0
174
     0
 93
        5
 44
0.0
173
     0
291
     0
 45
0.0
1001
ACAD
1000
AcDbSavedByObjectVersion
1070
     0
  0
VISUALSTYLE
  5
A651
102
{ACAD_XDICTIONARY
360
A6BD
102
}
102
{ACAD_REACTORS
330
A63D
102
}
330
A63D
100
AcDbVisualStyle
  2
Shaded with edges
 70
    26
 71
     2
 72
     2
 73
     1
 90
        2
 40
-0.6
 41
30.0
 62
     5
 63
     7
 74
     1
 91
       10
 64
     7
 65
   257
 75
     2
175
     1
 42
1.0
 92
        8
 66
   257
 43
1.0
 76
     1
 77
     6
 78
     2
 67
     7
 79
     3
170
     0
171
     0
290
     0
174
     0
 93
        5
 44
0.0
173
     0
291
     0
 45
0.0
1001
ACAD
1000
AcDbSavedByObjectVersion
1070
     0
  0
VISUALSTYLE
  5
A64E
102
{ACAD_XDICTIONARY
360
A6B7
102
}
102
{ACAD_REACTORS
330
A63D
102
}
330
A63D
100
AcDbVisualStyle
  2
Shades of Gray
 70
    23
 71
     2
 72
     2
 73
     3
 90
        0
 40
-0.6
 41
-30.0
 62
     5
 63
     7
 74
     2
 91
        2
 64
     7
 65
     7
 75
     1
175
     1
 42
40.0
 92
        8
 66
     7
 43
1.0
 76
     1
 77
     6
 78
     2
 67
     7
 79
     3
170
     0
171
     0
290
     0
174
     0
 93
        1
 44
0.0
173
     0
291
     0
 45
0.0
1001
ACAD
1000
AcDbSavedByObjectVersion
1070
     0
  0
VISUALSTYLE
  5
A64F
102
{ACAD_XDICTIONARY
360
A6B9
102
}
102
{ACAD_REACTORS
330
A63D
102
}
330
A63D
100
AcDbVisualStyle
  2
Sketchy
 70
    24
 71
     1
 72
     2
 73
     2
 90
        0
 40
-0.6
 41
-30.0
 62
     5
 63
     7
 74
     2
 91
        2
 64
     7
 65
     7
 75
     1
175
     1
 42
40.0
 92
       11
 66
     7
 43
1.0
 76
     1
 77
     6
 78
     2
 67
     7
 79
     6
170
     0
171
     0
290
     0
174
     0
 93
        1
 44
0.0
173
     0
291
     0
 45
0.0
1001
ACAD
1000
AcDbSavedByObjectVersion
1070
     0
  0
VISUALSTYLE
  5
A64A
102
{ACAD_XDICTIONARY
360
A6AF
102
}
102
{ACAD_REACTORS
330
A63D
102
}
330
A63D
100
AcDbVisualStyle
  2
Thicken
 70
    13
 71
     2
 72
     2
 73
     0
 90
        0
 40
-0.6
 41
-30.0
 62
     5
 63
     7
 74
     1
 91
        4
 64
     7
 65
   257
 75
     1
175
     1
 42
1.0
 92
       12
 66
     7
 43
1.0
 76
     1
 77
     6
 78
     2
 67
     7
 79
     5
170
     0
171
     0
290
     0
174
     0
 93
        1
 44
0.0
173
     0
291
     1
 45
0.0
1001
ACAD
1000
AcDbSavedByObjectVersion
1070
     0
  0
VISUALSTYLE
  5
A644
102
{ACAD_XDICTIONARY
360
A6A3
102
}
102
{ACAD_REACTORS
330
A63D
102
}
330
A63D
100
AcDbVisualStyle
  2
Wireframe
 70
     5
 71
     0
 72
     2
 73
     0
 90
        0
 40
-0.6
 41
-30.0
 62
     5
 63
     7
 74
     1
 91
        4
 64
     7
 65
   257
 75
     1
175
     1
 42
1.0
 92
        0
 66
   257
 43
1.0
 76
     1
 77
     6
 78
     2
 67
     7
 79
     3
170
     0
171
     0
290
     0
174
     0
 93
        1
 44
0.0
173
     0
291
     0
 45
0.0
1001
ACAD
1000
AcDbSavedByObjectVersion
1070
     0
  0
VISUALSTYLE
  5
A650
102
{ACAD_XDICTIONARY
360
A6BB
102
}
102
{ACAD_REACTORS
330
A63D
102
}
330
A63D
100
AcDbVisualStyle
  2
X-Ray
 70
    25
 71
     2
 72
     2
 73
     1
 90
        1
 40
0.5
 41
-30.0
 62
     5
 63
     7
 74
     1
 91
        0
 64
     7
 65
   257
 75
     1
175
     1
 42
1.0
 92
        8
 66
     7
 43
1.0
 76
     1
 77
     6
 78
     2
 67
     7
 79
     3
170
     0
171
     0
290
     0
174
     0
 93
       13
 44
0.0
173
     0
291
     0
 45
0.0
1001
ACAD
1000
AcDbSavedByObjectVersion
1070
     0
  0
DICTIONARYVAR
  5
A68A
102
{ACAD_REACTORS
330
A685
102
}
330
A685
100
DictionaryVariables
280
     0
  1
1:1
  0
DICTIONARYVAR
  5
A687
102
{ACAD_REACTORS
330
A685
102
}
330
A685
100
DictionaryVariables
280
     0
  1
STANDARD
  0
DICTIONARYVAR
  5
A686
102
{ACAD_REACTORS
330
A685
102
}
330
A685
100
DictionaryVariables
280
     0
  1
STANDARD
  0
DICTIONARYVAR
  5
A688
102
{ACAD_REACTORS
330
A685
102
}
330
A685
100
DictionaryVariables
280
     0
  1
Imperial24
  0
DICTIONARYVAR
  5
A689
102
{ACAD_REACTORS
330
A685
102
}
330
A685
100
DictionaryVariables
280
     0
  1
Imperial24
  0
DICTIONARYVAR
  5
A68D
102
{ACAD_REACTORS
330
A685
102
}
330
A685
100
DictionaryVariables
280
     0
  1
1
  0
DICTIONARYVAR
  5
A68C
102
{ACAD_REACTORS
330
A685
102
}
330
A685
100
DictionaryVariables
280
     0
  1
0
  0
DICTIONARYVAR
  5
A68B
102
{ACAD_REACTORS
330
A685
102
}
330
A685
100
DictionaryVariables
280
     0
  1
127
  0
DICTIONARYVAR
  5
A68E
102
{ACAD_REACTORS
330
A685
102
}
330
A685
100
DictionaryVariables
280
     0
  1
2
  0
DICTIONARY
  5
A6CB
330
A670
100
AcDbDictionary
280
     1
281
     1
  3
ACAD_XREC_ROUNDTRIP
360
A6CC
  0
DICTIONARY
  5
A6CD
330
A671
100
AcDbDictionary
280
     1
281
     1
  3
ACAD_XREC_ROUNDTRIP
360
A6CE
  0
DICTIONARY
  5
A6CF
330
A672
100
AcDbDictionary
280
     1
281
     1
  3
ACAD_XREC_ROUNDTRIP
360
A6D0
  0
DICTIONARY
  5
A62E
330
A62D
100
AcDbDictionary
280
     1
281
     1
  3
ACAD_XREC_ROUNDTRIP
360
A695
  3
BUMPTILE
360
A630
  3
DIFFUSETILE
360
A62F
  3
OPACITYTILE
360
A633
  3
REFLECTIONTILE
360
A632
  3
REFRACTIONTILE
360
A634
  3
SPECULARTILE
360
A631
  0
DICTIONARY
  5
A626
330
A625
100
AcDbDictionary
280
     1
281
     1
  3
ACAD_XREC_ROUNDTRIP
360
A694
  3
BUMPTILE
360
A628
  3
DIFFUSETILE
360
A627
  3
OPACITYTILE
360
A62B
  3
REFLECTIONTILE
360
A62A
  3
REFRACTIONTILE
360
A62C
  3
SPECULARTILE
360
A629
  0
DICTIONARY
  5
A636
330
A635
100
AcDbDictionary
280
     1
281
     1
  3
ACAD_XREC_ROUNDTRIP
360
A696
  3
BUMPTILE
360
A638
  3
DIFFUSETILE
360
A637
  3
OPACITYTILE
360
A63B
  3
REFLECTIONTILE
360
A63A
  3
REFRACTIONTILE
360
A63C
  3
SPECULARTILE
360
A639
  0
DICTIONARY
  5
A6C9
330
A66E
100
AcDbDictionary
280
     1
281
     1
  3
ACAD_XREC_ROUNDTRIP
360
A6CA
  0
DICTIONARY
  5
A690
330
A658
100
AcDbDictionary
280
     1
281
     1
  3
ACAD_ROUNDTRIP_2008_TABLESTYLE_CELLSTYLEMAP
360
A691
  3
ACAD_XREC_ROUNDTRIP
360
A6C7
  0
DICTIONARY
  5
A6A1
330
A643
100
AcDbDictionary
280
     1
281
     1
  3
ACAD_XREC_ROUNDTRIP
360
A6A2
  0
DICTIONARY
  5
A69F
330
A642
100
AcDbDictionary
280
     1
281
     1
  3
ACAD_XREC_ROUNDTRIP
360
A6A0
  0
DICTIONARY
  5
A6AD
330
A649
100
AcDbDictionary
280
     1
281
     1
  3
ACAD_XREC_ROUNDTRIP
360
A6AE
  0
DICTIONARY
  5
A6B5
330
A64D
100
AcDbDictionary
280
     1
281
     1
  3
ACAD_XREC_ROUNDTRIP
360
A6B6
  0
DICTIONARY
  5
A6A7
330
A646
100
AcDbDictionary
280
     1
281
     1
  3
ACAD_XREC_ROUNDTRIP
360
A6A8
  0
DICTIONARY
  5
A6AB
330
A648
100
AcDbDictionary
280
     1
281
     1
  3
ACAD_XREC_ROUNDTRIP
360
A6AC
  0
DICTIONARY
  5
A6C5
330
A655
100
AcDbDictionary
280
     1
281
     1
  3
ACAD_XREC_ROUNDTRIP
360
A6C6
  0
DICTIONARY
  5
A6B3
330
A64C
100
AcDbDictionary
280
     1
281
     1
  3
ACAD_XREC_ROUNDTRIP
360
A6B4
  0
DICTIONARY
  5
A697
330
A63E
100
AcDbDictionary
280
     1
281
     1
  3
ACAD_XREC_ROUNDTRIP
360
A698
  0
DICTIONARY
  5
A699
330
A63F
100
AcDbDictionary
280
     1
281
     1
  3
ACAD_XREC_ROUNDTRIP
360
A69A
  0
DICTIONARY
  5
A69B
330
A640
100
AcDbDictionary
280
     1
281
     1
  3
ACAD_XREC_ROUNDTRIP
360
A69C
  0
DICTIONARY
  5
A69D
330
A641
100
AcDbDictionary
280
     1
281
     1
  3
ACAD_XREC_ROUNDTRIP
360
A69E
  0
DICTIONARY
  5
A6A5
330
A645
100
AcDbDictionary
280
     1
281
     1
  3
ACAD_XREC_ROUNDTRIP
360
A6A6
  0
DICTIONARY
  5
A6C1
330
A653
100
AcDbDictionary
280
     1
281
     1
  3
ACAD_XREC_ROUNDTRIP
360
A6C2
  0
DICTIONARY
  5
A6B1
330
A64B
100
AcDbDictionary
280
     1
281
     1
  3
ACAD_XREC_ROUNDTRIP
360
A6B2
  0
DICTIONARY
  5
A6C3
330
A654
100
AcDbDictionary
280
     1
281
     1
  3
ACAD_XREC_ROUNDTRIP
360
A6C4
  0
DICTIONARY
  5
A6A9
330
A647
100
AcDbDictionary
280
     1
281
     1
  3
ACAD_XREC_ROUNDTRIP
360
A6AA
  0
DICTIONARY
  5
A6BF
330
A652
100
AcDbDictionary
280
     1
281
     1
  3
ACAD_XREC_ROUNDTRIP
360
A6C0
  0
DICTIONARY
  5
A6BD
330
A651
100
AcDbDictionary
280
     1
281
     1
  3
ACAD_XREC_ROUNDTRIP
360
A6BE
  0
DICTIONARY
  5
A6B7
330
A64E
100
AcDbDictionary
280
     1
281
     1
  3
ACAD_XREC_ROUNDTRIP
360
A6B8
  0
DICTIONARY
  5
A6B9
330
A64F
100
AcDbDictionary
280
     1
281
     1
  3
ACAD_XREC_ROUNDTRIP
360
A6BA
  0
DICTIONARY
  5
A6AF
330
A64A
100
AcDbDictionary
280
     1
281
     1
  3
ACAD_XREC_ROUNDTRIP
360
A6B0
  0
DICTIONARY
  5
A6A3
330
A644
100
AcDbDictionary
280
     1
281
     1
  3
ACAD_XREC_ROUNDTRIP
360
A6A4
  0
DICTIONARY
  5
A6BB
330
A650
100
AcDbDictionary
280
     1
281
     1
  3
ACAD_XREC_ROUNDTRIP
360
A6BC
  0
XRECORD
  5
A6CC
102
{ACAD_REACTORS
330
A6CB
102
}
330
A6CB
100
AcDbXrecord
280
     1
102
DISPLAYNAME
  1
Imperial24
102
FLAGS
 90
        0
  0
XRECORD
  5
A6CE
102
{ACAD_REACTORS
330
A6CD
102
}
330
A6CD
100
AcDbXrecord
280
     1
102
SHADEPLOT
 70
     0
102
SHADEPLOTRESLEVEL
 70
     2
102
SHADEPLOTCUSTOMDPI
 70
   300
  0
XRECORD
  5
A6D0
102
{ACAD_REACTORS
330
A6CF
102
}
330
A6CF
100
AcDbXrecord
280
     1
102
SHADEPLOT
 70
     0
102
SHADEPLOTRESLEVEL
 70
     2
102
SHADEPLOTCUSTOMDPI
 70
   300
  0
XRECORD
  5
A695
102
{ACAD_REACTORS
330
A62E
102
}
330
A62E
100
AcDbXrecord
280
     1
102
MATERIAL
148
0.0
149
0.0
149
0.0
 93
        0
 94
      127
282
     0
 72
     0
 77
     0
171
     0
175
     0
179
     0
273
     0
  0
XRECORD
  5
A630
102
{ACAD_REACTORS
330
A62E
102
}
330
A62E
100
AcDbXrecord
280
     1
270
     1
271
     1
  0
XRECORD
  5
A62F
102
{ACAD_REACTORS
330
A62E
102
}
330
A62E
100
AcDbXrecord
280
     1
270
     1
271
     1
  0
XRECORD
  5
A633
102
{ACAD_REACTORS
330
A62E
102
}
330
A62E
100
AcDbXrecord
280
     1
270
     1
271
     1
  0
XRECORD
  5
A632
102
{ACAD_REACTORS
330
A62E
102
}
330
A62E
100
AcDbXrecord
280
     1
270
     1
271
     1
  0
XRECORD
  5
A634
102
{ACAD_REACTORS
330
A62E
102
}
330
A62E
100
AcDbXrecord
280
     1
270
     1
271
     1
  0
XRECORD
  5
A631
102
{ACAD_REACTORS
330
A62E
102
}
330
A62E
100
AcDbXrecord
280
     1
270
     1
271
     1
  0
XRECORD
  5
A694
102
{ACAD_REACTORS
330
A626
102
}
330
A626
100
AcDbXrecord
280
     1
102
MATERIAL
148
0.0
149
0.0
149
0.0
 93
        0
 94
      127
282
     0
 72
     0
 77
     0
171
     0
175
     0
179
     0
273
     0
  0
XRECORD
  5
A628
102
{ACAD_REACTORS
330
A626
102
}
330
A626
100
AcDbXrecord
280
     1
270
     1
271
     1
  0
XRECORD
  5
A627
102
{ACAD_REACTORS
330
A626
102
}
330
A626
100
AcDbXrecord
280
     1
270
     1
271
     1
  0
XRECORD
  5
A62B
102
{ACAD_REACTORS
330
A626
102
}
330
A626
100
AcDbXrecord
280
     1
270
     1
271
     1
  0
XRECORD
  5
A62A
102
{ACAD_REACTORS
330
A626
102
}
330
A626
100
AcDbXrecord
280
     1
270
     1
271
     1
  0
XRECORD
  5
A62C
102
{ACAD_REACTORS
330
A626
102
}
330
A626
100
AcDbXrecord
280
     1
270
     1
271
     1
  0
XRECORD
  5
A629
102
{ACAD_REACTORS
330
A626
102
}
330
A626
100
AcDbXrecord
280
     1
270
     1
271
     1
  0
XRECORD
  5
A696
102
{ACAD_REACTORS
330
A636
102
}
330
A636
100
AcDbXrecord
280
     1
102
MATERIAL
148
0.0
149
0.0
149
0.0
 93
        0
 94
      127
282
     0
 72
     0
 77
     0
171
     0
175
     0
179
     0
273
     0
  0
XRECORD
  5
A638
102
{ACAD_REACTORS
330
A636
102
}
330
A636
100
AcDbXrecord
280
     1
270
     1
271
     1
  0
XRECORD
  5
A637
102
{ACAD_REACTORS
330
A636
102
}
330
A636
100
AcDbXrecord
280
     1
270
     1
271
     1
  0
XRECORD
  5
A63B
102
{ACAD_REACTORS
330
A636
102
}
330
A636
100
AcDbXrecord
280
     1
270
     1
271
     1
  0
XRECORD
  5
A63A
102
{ACAD_REACTORS
330
A636
102
}
330
A636
100
AcDbXrecord
280
     1
270
     1
271
     1
  0
XRECORD
  5
A63C
102
{ACAD_REACTORS
330
A636
102
}
330
A636
100
AcDbXrecord
280
     1
270
     1
271
     1
  0
XRECORD
  5
A639
102
{ACAD_REACTORS
330
A636
102
}
330
A636
100
AcDbXrecord
280
     1
270
     1
271
     1
  0
XRECORD
  5
A6CA
102
{ACAD_REACTORS
330
A6C9
102
}
330
A6C9
100
AcDbXrecord
280
     1
102
DISPLAYNAME
  1
Imperial24
102
FLAGS
 90
        0
  0
CELLSTYLEMAP
  5
A691
102
{ACAD_REACTORS
330
A690
102
}
330
A690
100
AcDbCellStyleMap
 90
        3
300
CELLSTYLE
  1
TABLEFORMAT_BEGIN
 90
        5
170
     1
 91
        0
 92
    32768
 62
   257
 93
        1
300
CONTENTFORMAT
  1
CONTENTFORMAT_BEGIN
 90
        0
 91
        0
 92
      512
 93
        0
300

 40
0.0
140
1.0
 94
        5
 62
     0
340
A42E
144
0.25
309
CONTENTFORMAT_END
171
     0
 94
        0
309
TABLEFORMAT_END
  1
CELLSTYLE_BEGIN
 90
        1
 91
        1
300
_TITLE
309
CELLSTYLE_END
300
CELLSTYLE
  1
TABLEFORMAT_BEGIN
 90
        5
170
     1
 91
        0
 92
        0
 62
   257
 93
        1
300
CONTENTFORMAT
  1
CONTENTFORMAT_BEGIN
 90
        0
 91
        0
 92
      512
 93
        0
300

 40
0.0
140
1.0
 94
        5
 62
     0
340
A42E
144
0.18
309
CONTENTFORMAT_END
171
     0
 94
        0
309
TABLEFORMAT_END
  1
CELLSTYLE_BEGIN
 90
        2
 91
        1
300
_HEADER
309
CELLSTYLE_END
300
CELLSTYLE
  1
TABLEFORMAT_BEGIN
 90
        5
170
     1
 91
        0
 92
        0
 62
   257
 93
        1
300
CONTENTFORMAT
  1
CONTENTFORMAT_BEGIN
 90
        0
 91
        0
 92
      512
 93
        0
300

 40
0.0
140
1.0
 94
        2
 62
     0
340
A42E
144
0.18
309
CONTENTFORMAT_END
171
     0
 94
        0
309
TABLEFORMAT_END
  1
CELLSTYLE_BEGIN
 90
        3
 91
        2
300
_DATA
309
CELLSTYLE_END
  0
XRECORD
  5
A6C7
102
{ACAD_REACTORS
330
A690
102
}
330
A690
100
AcDbXrecord
280
     1
102
ACAD_ROUNDTRIP_PRE2007_TABLESTYLE
 90
      512
 91
        0
  1

 92
      512
 93
        0
  2

 94
      512
 95
        0
  3

  0
XRECORD
  5
A6A2
102
{ACAD_REACTORS
330
A6A1
102
}
330
A6A1
100
AcDbXrecord
280
     1
102
RTVSPost2010Prop28
280
     1
102
RTVSPost2010PropOp28
 70
     1
102
RTVSPost2010Prop29
280
     1
102
RTVSPost2010PropOp29
 70
     1
102
RTVSPost2010Prop30
280
     0
102
RTVSPost2010PropOp30
 70
     1
102
RTVSPost2010Prop31
280
     0
102
RTVSPost2010PropOp31
 70
     1
102
RTVSPost2010Prop32
280
     0
102
RTVSPost2010PropOp32
 70
     1
102
RTVSPost2010Prop33
280
     0
102
RTVSPost2010PropOp33
 70
     1
102
RTVSPost2010Prop34
280
     0
102
RTVSPost2010PropOp34
 70
     1
102
RTVSPost2010Prop35
280
     0
102
RTVSPost2010PropOp35
 70
     1
102
RTVSPost2010Prop36
280
     0
102
RTVSPost2010PropOp36
 70
     1
102
RTVSPost2010Prop37
 90
       50
102
RTVSPost2010PropOp37
 70
     1
102
RTVSPost2010Prop38
140
0.0
102
RTVSPost2010PropOp38
 70
     1
102
RTVSPost2010Prop39
140
1.0
102
RTVSPost2010PropOp39
 70
     1
102
RTVSPost2010Prop40
 90
        0
102
RTVSPost2010PropOp40
 70
     1
102
RTVSPost2010Prop41ColorIndex
 90
       18
102
RTVSPost2010Prop41ColorRGB
 90
        0
102
RTVSPost2010PropOp41
 70
     1
102
RTVSPost2010Prop42
 90
       50
102
RTVSPost2010PropOp42
 70
     1
102
RTVSPost2010Prop43
 90
        3
102
RTVSPost2010PropOp43
 70
     1
102
RTVSPost2010Prop44ColorIndex
 90
        5
102
RTVSPost2010Prop44ColorRGB
 90
      255
102
RTVSPost2010PropOp44
 70
     1
102
RTVSPost2010Prop45
280
     0
102
RTVSPost2010PropOp45
 70
     1
102
RTVSPost2010Prop46
 90
       50
102
RTVSPost2010PropOp46
 70
     1
102
RTVSPost2010Prop47
 90
       50
102
RTVSPost2010PropOp47
 70
     1
102
RTVSPost2010Prop48
 90
       50
102
RTVSPost2010PropOp48
 70
     1
102
RTVSPost2010Prop49
280
     0
102
RTVSPost2010PropOp49
 70
     1
102
RTVSPost2010Prop50
 90
       50
102
RTVSPost2010PropOp50
 70
     1
102
RTVSPost2010Prop51ColorIndex
 90
      256
102
RTVSPost2010Prop51ColorRGB
 90
-16777216
102
RTVSPost2010PropOp51
 70
     0
102
RTVSPost2010Prop52
140
1.0
102
RTVSPost2010PropOp52
 70
     0
102
RTVSPost2010Prop53
 90
        2
102
RTVSPost2010PropOp53
 70
     1
102
RTVSPost2010Prop54
  1
strokes_ogs.tif
102
RTVSPost2010PropOp54
 70
     1
102
RTVSPost2010Prop55
280
     0
102
RTVSPost2010PropOp55
 70
     1
102
RTVSPost2010Prop56
140
1.0
102
RTVSPost2010PropOp56
 70
     1
102
RTVSPost2010Prop57
140
1.0
102
RTVSPost2010PropOp57
 70
     1
102
RTVSPropertyOp0
 70
     1
102
RTVSPropertyOp1
 70
     1
102
RTVSPropertyOp2
 70
     1
102
RTVSPropertyOp3
 70
     1
102
RTVSPropertyOp4
 70
     1
102
RTVSPropertyOp5
 70
     1
102
RTVSPropertyOp6
 70
     1
102
RTVSPropertyOp7
 70
     1
102
RTVSPropertyOp8
 70
     1
102
RTVSPropertyOp9
 70
     1
102
RTVSPropertyOp10
 70
     1
102
RTVSPropertyOp11
 70
     1
102
RTVSPropertyOp12
 70
     1
102
RTVSPropertyOp13
 70
     1
102
RTVSPropertyOp14
 70
     1
102
RTVSPropertyOp15
 70
     1
102
RTVSPropertyOp16
 70
     1
102
RTVSPropertyOp17
 70
     1
102
RTVSPropertyOp18
 70
     1
102
RTVSPropertyOp19
 70
     1
102
RTVSPropertyOp20
 70
     1
102
RTVSPropertyOp21
 70
     1
102
RTVSPropertyOp22
 70
     1
102
RTVSPropertyOp23
 70
     1
102
RTVSPropertyOp24
 70
     1
102
RTVSPropertyOp25
 70
     1
102
RTVSPropertyOp26
 70
     1
102
RTVSPropertyOp27
 70
     1
102
RTVSPropertyOp28
 70
     1
102
RTVSPropertyOp29
 70
     1
102
RTVSPropertyOp30
 70
     1
102
RTVSPropertyOp31
 70
     1
102
RTVSPropertyOp32
 70
     1
102
RTVSPropertyOp33
 70
     1
102
RTVSPropertyOp34
 70
     1
102
RTVSPropertyOp35
 70
     1
102
RTVSPropertyOp36
 70
     1
102
RTVSPropertyOp37
 70
     1
102
RTVSPropertyOp38
 70
     1
102
RTVSPropertyOp39
 70
     1
102
RTVSPropertyOp40
 70
     1
102
RTVSPropertyOp41
 70
     1
102
RTVSPropertyOp42
 70
     1
102
RTVSPropertyOp43
 70
     1
102
RTVSPropertyOp44
 70
     1
102
RTVSPropertyOp45
 70
     1
102
RTVSPropertyOp46
 70
     1
102
RTVSPropertyOp47
 70
     1
102
RTVSPropertyOp48
 70
     1
102
RTVSPropertyOp49
 70
     1
102
RTVSPropertyOp50
 70
     1
102
RTVSPropertyOp51
 70
     0
102
RTVSPropertyOp52
 70
     0
102
RTVSPropertyOp53
 70
     1
102
RTVSPropertyOp54
 70
     1
102
RTVSPropertyOp55
 70
     1
102
RTVSPropertyOp56
 70
     1
102
RTVSPropertyOp57
 70
     1
102
RTVSPropertyOp58
 70
     1
102
RTVSPropertyOp59
 70
     1
102
RTVSPropertyOp60
 70
     1
102
RTVSPropertyOp61
 70
     1
102
RTVSPropertyOp62
 70
     1
  0
XRECORD
  5
A6A0
102
{ACAD_REACTORS
330
A69F
102
}
330
A69F
100
AcDbXrecord
280
     1
102
RTVSPost2010Prop28
280
     0
102
RTVSPost2010PropOp28
 70
     1
102
RTVSPost2010Prop29
280
     1
102
RTVSPost2010PropOp29
 70
     1
102
RTVSPost2010Prop30
280
     1
102
RTVSPost2010PropOp30
 70
     1
102
RTVSPost2010Prop31
280
     0
102
RTVSPost2010PropOp31
 70
     1
102
RTVSPost2010Prop32
280
     0
102
RTVSPost2010PropOp32
 70
     1
102
RTVSPost2010Prop33
280
     0
102
RTVSPost2010PropOp33
 70
     1
102
RTVSPost2010Prop34
280
     0
102
RTVSPost2010PropOp34
 70
     1
102
RTVSPost2010Prop35
280
     0
102
RTVSPost2010PropOp35
 70
     1
102
RTVSPost2010Prop36
280
     0
102
RTVSPost2010PropOp36
 70
     1
102
RTVSPost2010Prop37
 90
       50
102
RTVSPost2010PropOp37
 70
     1
102
RTVSPost2010Prop38
140
0.0
102
RTVSPost2010PropOp38
 70
     1
102
RTVSPost2010Prop39
140
1.0
102
RTVSPost2010PropOp39
 70
     1
102
RTVSPost2010Prop40
 90
        0
102
RTVSPost2010PropOp40
 70
     1
102
RTVSPost2010Prop41ColorIndex
 90
       18
102
RTVSPost2010Prop41ColorRGB
 90
        0
102
RTVSPost2010PropOp41
 70
     1
102
RTVSPost2010Prop42
 90
       50
102
RTVSPost2010PropOp42
 70
     1
102
RTVSPost2010Prop43
 90
        3
102
RTVSPost2010PropOp43
 70
     1
102
RTVSPost2010Prop44ColorIndex
 90
        5
102
RTVSPost2010Prop44ColorRGB
 90
      255
102
RTVSPost2010PropOp44
 70
     1
102
RTVSPost2010Prop45
280
     0
102
RTVSPost2010PropOp45
 70
     1
102
RTVSPost2010Prop46
 90
       50
102
RTVSPost2010PropOp46
 70
     1
102
RTVSPost2010Prop47
 90
       50
102
RTVSPost2010PropOp47
 70
     1
102
RTVSPost2010Prop48
 90
       50
102
RTVSPost2010PropOp48
 70
     1
102
RTVSPost2010Prop49
280
     0
102
RTVSPost2010PropOp49
 70
     1
102
RTVSPost2010Prop50
 90
       50
102
RTVSPost2010PropOp50
 70
     1
102
RTVSPost2010Prop51ColorIndex
 90
      256
102
RTVSPost2010Prop51ColorRGB
 90
-16777216
102
RTVSPost2010PropOp51
 70
     0
102
RTVSPost2010Prop52
140
1.0
102
RTVSPost2010PropOp52
 70
     0
102
RTVSPost2010Prop53
 90
        2
102
RTVSPost2010PropOp53
 70
     1
102
RTVSPost2010Prop54
  1
strokes_ogs.tif
102
RTVSPost2010PropOp54
 70
     1
102
RTVSPost2010Prop55
280
     0
102
RTVSPost2010PropOp55
 70
     1
102
RTVSPost2010Prop56
140
1.0
102
RTVSPost2010PropOp56
 70
     1
102
RTVSPost2010Prop57
140
1.0
102
RTVSPost2010PropOp57
 70
     1
102
RTVSPropertyOp0
 70
     1
102
RTVSPropertyOp1
 70
     1
102
RTVSPropertyOp2
 70
     1
102
RTVSPropertyOp3
 70
     1
102
RTVSPropertyOp4
 70
     1
102
RTVSPropertyOp5
 70
     1
102
RTVSPropertyOp6
 70
     1
102
RTVSPropertyOp7
 70
     1
102
RTVSPropertyOp8
 70
     1
102
RTVSPropertyOp9
 70
     1
102
RTVSPropertyOp10
 70
     1
102
RTVSPropertyOp11
 70
     1
102
RTVSPropertyOp12
 70
     1
102
RTVSPropertyOp13
 70
     1
102
RTVSPropertyOp14
 70
     1
102
RTVSPropertyOp15
 70
     1
102
RTVSPropertyOp16
 70
     1
102
RTVSPropertyOp17
 70
     1
102
RTVSPropertyOp18
 70
     1
102
RTVSPropertyOp19
 70
     1
102
RTVSPropertyOp20
 70
     1
102
RTVSPropertyOp21
 70
     1
102
RTVSPropertyOp22
 70
     1
102
RTVSPropertyOp23
 70
     1
102
RTVSPropertyOp24
 70
     1
102
RTVSPropertyOp25
 70
     1
102
RTVSPropertyOp26
 70
     1
102
RTVSPropertyOp27
 70
     1
102
RTVSPropertyOp28
 70
     1
102
RTVSPropertyOp29
 70
     1
102
RTVSPropertyOp30
 70
     1
102
RTVSPropertyOp31
 70
     1
102
RTVSPropertyOp32
 70
     1
102
RTVSPropertyOp33
 70
     1
102
RTVSPropertyOp34
 70
     1
102
RTVSPropertyOp35
 70
     1
102
RTVSPropertyOp36
 70
     1
102
RTVSPropertyOp37
 70
     1
102
RTVSPropertyOp38
 70
     1
102
RTVSPropertyOp39
 70
     1
102
RTVSPropertyOp40
 70
     1
102
RTVSPropertyOp41
 70
     1
102
RTVSPropertyOp42
 70
     1
102
RTVSPropertyOp43
 70
     1
102
RTVSPropertyOp44
 70
     1
102
RTVSPropertyOp45
 70
     1
102
RTVSPropertyOp46
 70
     1
102
RTVSPropertyOp47
 70
     1
102
RTVSPropertyOp48
 70
     1
102
RTVSPropertyOp49
 70
     1
102
RTVSPropertyOp50
 70
     1
102
RTVSPropertyOp51
 70
     0
102
RTVSPropertyOp52
 70
     0
102
RTVSPropertyOp53
 70
     1
102
RTVSPropertyOp54
 70
     1
102
RTVSPropertyOp55
 70
     1
102
RTVSPropertyOp56
 70
     1
102
RTVSPropertyOp57
 70
     1
102
RTVSPropertyOp58
 70
     1
102
RTVSPropertyOp59
 70
     1
102
RTVSPropertyOp60
 70
     1
102
RTVSPropertyOp61
 70
     1
102
RTVSPropertyOp62
 70
     1
  0
XRECORD
  5
A6AE
102
{ACAD_REACTORS
330
A6AD
102
}
330
A6AD
100
AcDbXrecord
280
     1
102
RTVSPost2010Prop28
280
     0
102
RTVSPost2010PropOp28
 70
     1
102
RTVSPost2010Prop29
280
     1
102
RTVSPost2010PropOp29
 70
     1
102
RTVSPost2010Prop30
280
     1
102
RTVSPost2010PropOp30
 70
     1
102
RTVSPost2010Prop31
280
     0
102
RTVSPost2010PropOp31
 70
     1
102
RTVSPost2010Prop32
280
     0
102
RTVSPost2010PropOp32
 70
     1
102
RTVSPost2010Prop33
280
     0
102
RTVSPost2010PropOp33
 70
     1
102
RTVSPost2010Prop34
280
     0
102
RTVSPost2010PropOp34
 70
     1
102
RTVSPost2010Prop35
280
     0
102
RTVSPost2010PropOp35
 70
     1
102
RTVSPost2010Prop36
280
     0
102
RTVSPost2010PropOp36
 70
     1
102
RTVSPost2010Prop37
 90
       50
102
RTVSPost2010PropOp37
 70
     1
102
RTVSPost2010Prop38
140
0.0
102
RTVSPost2010PropOp38
 70
     1
102
RTVSPost2010Prop39
140
1.0
102
RTVSPost2010PropOp39
 70
     1
102
RTVSPost2010Prop40
 90
        0
102
RTVSPost2010PropOp40
 70
     1
102
RTVSPost2010Prop41ColorIndex
 90
       18
102
RTVSPost2010Prop41ColorRGB
 90
        0
102
RTVSPost2010PropOp41
 70
     1
102
RTVSPost2010Prop42
 90
       50
102
RTVSPost2010PropOp42
 70
     1
102
RTVSPost2010Prop43
 90
        3
102
RTVSPost2010PropOp43
 70
     1
102
RTVSPost2010Prop44ColorIndex
 90
        5
102
RTVSPost2010Prop44ColorRGB
 90
      255
102
RTVSPost2010PropOp44
 70
     1
102
RTVSPost2010Prop45
280
     0
102
RTVSPost2010PropOp45
 70
     1
102
RTVSPost2010Prop46
 90
       50
102
RTVSPost2010PropOp46
 70
     1
102
RTVSPost2010Prop47
 90
       50
102
RTVSPost2010PropOp47
 70
     1
102
RTVSPost2010Prop48
 90
       50
102
RTVSPost2010PropOp48
 70
     1
102
RTVSPost2010Prop49
280
     0
102
RTVSPost2010PropOp49
 70
     1
102
RTVSPost2010Prop50
 90
       50
102
RTVSPost2010PropOp50
 70
     1
102
RTVSPost2010Prop51ColorIndex
 90
      256
102
RTVSPost2010Prop51ColorRGB
 90
-16777216
102
RTVSPost2010PropOp51
 70
     0
102
RTVSPost2010Prop52
140
1.0
102
RTVSPost2010PropOp52
 70
     0
102
RTVSPost2010Prop53
 90
        2
102
RTVSPost2010PropOp53
 70
     1
102
RTVSPost2010Prop54
  1
strokes_ogs.tif
102
RTVSPost2010PropOp54
 70
     1
102
RTVSPost2010Prop55
280
     0
102
RTVSPost2010PropOp55
 70
     1
102
RTVSPost2010Prop56
140
1.0
102
RTVSPost2010PropOp56
 70
     1
102
RTVSPost2010Prop57
140
1.0
102
RTVSPost2010PropOp57
 70
     1
102
RTVSPropertyOp0
 70
     1
102
RTVSPropertyOp1
 70
     1
102
RTVSPropertyOp2
 70
     1
102
RTVSPropertyOp3
 70
     1
102
RTVSPropertyOp4
 70
     1
102
RTVSPropertyOp5
 70
     1
102
RTVSPropertyOp6
 70
     1
102
RTVSPropertyOp7
 70
     1
102
RTVSPropertyOp8
 70
     1
102
RTVSPropertyOp9
 70
     1
102
RTVSPropertyOp10
 70
     1
102
RTVSPropertyOp11
 70
     1
102
RTVSPropertyOp12
 70
     1
102
RTVSPropertyOp13
 70
     1
102
RTVSPropertyOp14
 70
     1
102
RTVSPropertyOp15
 70
     1
102
RTVSPropertyOp16
 70
     1
102
RTVSPropertyOp17
 70
     1
102
RTVSPropertyOp18
 70
     1
102
RTVSPropertyOp19
 70
     1
102
RTVSPropertyOp20
 70
     1
102
RTVSPropertyOp21
 70
     1
102
RTVSPropertyOp22
 70
     1
102
RTVSPropertyOp23
 70
     1
102
RTVSPropertyOp24
 70
     1
102
RTVSPropertyOp25
 70
     1
102
RTVSPropertyOp26
 70
     1
102
RTVSPropertyOp27
 70
     1
102
RTVSPropertyOp28
 70
     1
102
RTVSPropertyOp29
 70
     1
102
RTVSPropertyOp30
 70
     1
102
RTVSPropertyOp31
 70
     1
102
RTVSPropertyOp32
 70
     1
102
RTVSPropertyOp33
 70
     1
102
RTVSPropertyOp34
 70
     1
102
RTVSPropertyOp35
 70
     1
102
RTVSPropertyOp36
 70
     1
102
RTVSPropertyOp37
 70
     1
102
RTVSPropertyOp38
 70
     1
102
RTVSPropertyOp39
 70
     1
102
RTVSPropertyOp40
 70
     1
102
RTVSPropertyOp41
 70
     1
102
RTVSPropertyOp42
 70
     1
102
RTVSPropertyOp43
 70
     1
102
RTVSPropertyOp44
 70
     1
102
RTVSPropertyOp45
 70
     1
102
RTVSPropertyOp46
 70
     1
102
RTVSPropertyOp47
 70
     1
102
RTVSPropertyOp48
 70
     1
102
RTVSPropertyOp49
 70
     1
102
RTVSPropertyOp50
 70
     1
102
RTVSPropertyOp51
 70
     0
102
RTVSPropertyOp52
 70
     0
102
RTVSPropertyOp53
 70
     1
102
RTVSPropertyOp54
 70
     1
102
RTVSPropertyOp55
 70
     1
102
RTVSPropertyOp56
 70
     1
102
RTVSPropertyOp57
 70
     1
102
RTVSPropertyOp58
 70
     1
102
RTVSPropertyOp59
 70
     1
102
RTVSPropertyOp60
 70
     1
102
RTVSPropertyOp61
 70
     1
102
RTVSPropertyOp62
 70
     1
  0
XRECORD
  5
A6B6
102
{ACAD_REACTORS
330
A6B5
102
}
330
A6B5
100
AcDbXrecord
280
     1
102
RTVSPost2010Prop28
280
     0
102
RTVSPost2010PropOp28
 70
     1
102
RTVSPost2010Prop29
280
     1
102
RTVSPost2010PropOp29
 70
     1
102
RTVSPost2010Prop30
280
     1
102
RTVSPost2010PropOp30
 70
     1
102
RTVSPost2010Prop31
280
     0
102
RTVSPost2010PropOp31
 70
     1
102
RTVSPost2010Prop32
280
     0
102
RTVSPost2010PropOp32
 70
     1
102
RTVSPost2010Prop33
280
     0
102
RTVSPost2010PropOp33
 70
     1
102
RTVSPost2010Prop34
280
     0
102
RTVSPost2010PropOp34
 70
     1
102
RTVSPost2010Prop35
280
     0
102
RTVSPost2010PropOp35
 70
     1
102
RTVSPost2010Prop36
280
     0
102
RTVSPost2010PropOp36
 70
     1
102
RTVSPost2010Prop37
 90
       50
102
RTVSPost2010PropOp37
 70
     1
102
RTVSPost2010Prop38
140
0.0
102
RTVSPost2010PropOp38
 70
     1
102
RTVSPost2010Prop39
140
1.0
102
RTVSPost2010PropOp39
 70
     1
102
RTVSPost2010Prop40
 90
        0
102
RTVSPost2010PropOp40
 70
     1
102
RTVSPost2010Prop41ColorIndex
 90
       18
102
RTVSPost2010Prop41ColorRGB
 90
        0
102
RTVSPost2010PropOp41
 70
     1
102
RTVSPost2010Prop42
 90
       50
102
RTVSPost2010PropOp42
 70
     1
102
RTVSPost2010Prop43
 90
        3
102
RTVSPost2010PropOp43
 70
     1
102
RTVSPost2010Prop44ColorIndex
 90
        5
102
RTVSPost2010Prop44ColorRGB
 90
      255
102
RTVSPost2010PropOp44
 70
     1
102
RTVSPost2010Prop45
280
     0
102
RTVSPost2010PropOp45
 70
     1
102
RTVSPost2010Prop46
 90
       50
102
RTVSPost2010PropOp46
 70
     1
102
RTVSPost2010Prop47
 90
       50
102
RTVSPost2010PropOp47
 70
     1
102
RTVSPost2010Prop48
 90
       50
102
RTVSPost2010PropOp48
 70
     1
102
RTVSPost2010Prop49
280
     0
102
RTVSPost2010PropOp49
 70
     1
102
RTVSPost2010Prop50
 90
       50
102
RTVSPost2010PropOp50
 70
     1
102
RTVSPost2010Prop51ColorIndex
 90
      256
102
RTVSPost2010Prop51ColorRGB
 90
-16777216
102
RTVSPost2010PropOp51
 70
     0
102
RTVSPost2010Prop52
140
1.0
102
RTVSPost2010PropOp52
 70
     0
102
RTVSPost2010Prop53
 90
        2
102
RTVSPost2010PropOp53
 70
     1
102
RTVSPost2010Prop54
  1
strokes_ogs.tif
102
RTVSPost2010PropOp54
 70
     1
102
RTVSPost2010Prop55
280
     0
102
RTVSPost2010PropOp55
 70
     1
102
RTVSPost2010Prop56
140
1.0
102
RTVSPost2010PropOp56
 70
     1
102
RTVSPost2010Prop57
140
1.0
102
RTVSPost2010PropOp57
 70
     1
102
RTVSPropertyOp0
 70
     1
102
RTVSPropertyOp1
 70
     1
102
RTVSPropertyOp2
 70
     1
102
RTVSPropertyOp3
 70
     1
102
RTVSPropertyOp4
 70
     1
102
RTVSPropertyOp5
 70
     1
102
RTVSPropertyOp6
 70
     1
102
RTVSPropertyOp7
 70
     1
102
RTVSPropertyOp8
 70
     1
102
RTVSPropertyOp9
 70
     1
102
RTVSPropertyOp10
 70
     1
102
RTVSPropertyOp11
 70
     1
102
RTVSPropertyOp12
 70
     1
102
RTVSPropertyOp13
 70
     1
102
RTVSPropertyOp14
 70
     1
102
RTVSPropertyOp15
 70
     1
102
RTVSPropertyOp16
 70
     1
102
RTVSPropertyOp17
 70
     1
102
RTVSPropertyOp18
 70
     1
102
RTVSPropertyOp19
 70
     1
102
RTVSPropertyOp20
 70
     1
102
RTVSPropertyOp21
 70
     1
102
RTVSPropertyOp22
 70
     1
102
RTVSPropertyOp23
 70
     1
102
RTVSPropertyOp24
 70
     1
102
RTVSPropertyOp25
 70
     1
102
RTVSPropertyOp26
 70
     1
102
RTVSPropertyOp27
 70
     1
102
RTVSPropertyOp28
 70
     1
102
RTVSPropertyOp29
 70
     1
102
RTVSPropertyOp30
 70
     1
102
RTVSPropertyOp31
 70
     1
102
RTVSPropertyOp32
 70
     1
102
RTVSPropertyOp33
 70
     1
102
RTVSPropertyOp34
 70
     1
102
RTVSPropertyOp35
 70
     1
102
RTVSPropertyOp36
 70
     1
102
RTVSPropertyOp37
 70
     1
102
RTVSPropertyOp38
 70
     1
102
RTVSPropertyOp39
 70
     1
102
RTVSPropertyOp40
 70
     1
102
RTVSPropertyOp41
 70
     1
102
RTVSPropertyOp42
 70
     1
102
RTVSPropertyOp43
 70
     1
102
RTVSPropertyOp44
 70
     1
102
RTVSPropertyOp45
 70
     1
102
RTVSPropertyOp46
 70
     1
102
RTVSPropertyOp47
 70
     1
102
RTVSPropertyOp48
 70
     1
102
RTVSPropertyOp49
 70
     1
102
RTVSPropertyOp50
 70
     1
102
RTVSPropertyOp51
 70
     0
102
RTVSPropertyOp52
 70
     0
102
RTVSPropertyOp53
 70
     1
102
RTVSPropertyOp54
 70
     1
102
RTVSPropertyOp55
 70
     1
102
RTVSPropertyOp56
 70
     1
102
RTVSPropertyOp57
 70
     1
102
RTVSPropertyOp58
 70
     1
102
RTVSPropertyOp59
 70
     1
102
RTVSPropertyOp60
 70
     1
102
RTVSPropertyOp61
 70
     1
102
RTVSPropertyOp62
 70
     1
  0
XRECORD
  5
A6A8
102
{ACAD_REACTORS
330
A6A7
102
}
330
A6A7
100
AcDbXrecord
280
     1
102
RTVSPost2010Prop28
280
     0
102
RTVSPost2010PropOp28
 70
     1
102
RTVSPost2010Prop29
280
     1
102
RTVSPost2010PropOp29
 70
     1
102
RTVSPost2010Prop30
280
     1
102
RTVSPost2010PropOp30
 70
     1
102
RTVSPost2010Prop31
280
     0
102
RTVSPost2010PropOp31
 70
     1
102
RTVSPost2010Prop32
280
     0
102
RTVSPost2010PropOp32
 70
     1
102
RTVSPost2010Prop33
280
     0
102
RTVSPost2010PropOp33
 70
     1
102
RTVSPost2010Prop34
280
     0
102
RTVSPost2010PropOp34
 70
     1
102
RTVSPost2010Prop35
280
     0
102
RTVSPost2010PropOp35
 70
     1
102
RTVSPost2010Prop36
280
     0
102
RTVSPost2010PropOp36
 70
     1
102
RTVSPost2010Prop37
 90
       50
102
RTVSPost2010PropOp37
 70
     1
102
RTVSPost2010Prop38
140
0.0
102
RTVSPost2010PropOp38
 70
     1
102
RTVSPost2010Prop39
140
1.0
102
RTVSPost2010PropOp39
 70
     1
102
RTVSPost2010Prop40
 90
        0
102
RTVSPost2010PropOp40
 70
     1
102
RTVSPost2010Prop41ColorIndex
 90
       18
102
RTVSPost2010Prop41ColorRGB
 90
        0
102
RTVSPost2010PropOp41
 70
     1
102
RTVSPost2010Prop42
 90
       50
102
RTVSPost2010PropOp42
 70
     1
102
RTVSPost2010Prop43
 90
        3
102
RTVSPost2010PropOp43
 70
     1
102
RTVSPost2010Prop44ColorIndex
 90
        5
102
RTVSPost2010Prop44ColorRGB
 90
      255
102
RTVSPost2010PropOp44
 70
     1
102
RTVSPost2010Prop45
280
     0
102
RTVSPost2010PropOp45
 70
     1
102
RTVSPost2010Prop46
 90
       50
102
RTVSPost2010PropOp46
 70
     1
102
RTVSPost2010Prop47
 90
       50
102
RTVSPost2010PropOp47
 70
     1
102
RTVSPost2010Prop48
 90
       50
102
RTVSPost2010PropOp48
 70
     1
102
RTVSPost2010Prop49
280
     0
102
RTVSPost2010PropOp49
 70
     1
102
RTVSPost2010Prop50
 90
       50
102
RTVSPost2010PropOp50
 70
     1
102
RTVSPost2010Prop51ColorIndex
 90
      256
102
RTVSPost2010Prop51ColorRGB
 90
-16777216
102
RTVSPost2010PropOp51
 70
     0
102
RTVSPost2010Prop52
140
1.0
102
RTVSPost2010PropOp52
 70
     0
102
RTVSPost2010Prop53
 90
        2
102
RTVSPost2010PropOp53
 70
     1
102
RTVSPost2010Prop54
  1
strokes_ogs.tif
102
RTVSPost2010PropOp54
 70
     1
102
RTVSPost2010Prop55
280
     0
102
RTVSPost2010PropOp55
 70
     1
102
RTVSPost2010Prop56
140
1.0
102
RTVSPost2010PropOp56
 70
     1
102
RTVSPost2010Prop57
140
1.0
102
RTVSPost2010PropOp57
 70
     1
102
RTVSPropertyOp0
 70
     1
102
RTVSPropertyOp1
 70
     1
102
RTVSPropertyOp2
 70
     1
102
RTVSPropertyOp3
 70
     1
102
RTVSPropertyOp4
 70
     1
102
RTVSPropertyOp5
 70
     1
102
RTVSPropertyOp6
 70
     1
102
RTVSPropertyOp7
 70
     1
102
RTVSPropertyOp8
 70
     1
102
RTVSPropertyOp9
 70
     1
102
RTVSPropertyOp10
 70
     1
102
RTVSPropertyOp11
 70
     1
102
RTVSPropertyOp12
 70
     1
102
RTVSPropertyOp13
 70
     1
102
RTVSPropertyOp14
 70
     1
102
RTVSPropertyOp15
 70
     1
102
RTVSPropertyOp16
 70
     1
102
RTVSPropertyOp17
 70
     1
102
RTVSPropertyOp18
 70
     1
102
RTVSPropertyOp19
 70
     1
102
RTVSPropertyOp20
 70
     1
102
RTVSPropertyOp21
 70
     1
102
RTVSPropertyOp22
 70
     1
102
RTVSPropertyOp23
 70
     1
102
RTVSPropertyOp24
 70
     1
102
RTVSPropertyOp25
 70
     1
102
RTVSPropertyOp26
 70
     1
102
RTVSPropertyOp27
 70
     1
102
RTVSPropertyOp28
 70
     1
102
RTVSPropertyOp29
 70
     1
102
RTVSPropertyOp30
 70
     1
102
RTVSPropertyOp31
 70
     1
102
RTVSPropertyOp32
 70
     1
102
RTVSPropertyOp33
 70
     1
102
RTVSPropertyOp34
 70
     1
102
RTVSPropertyOp35
 70
     1
102
RTVSPropertyOp36
 70
     1
102
RTVSPropertyOp37
 70
     1
102
RTVSPropertyOp38
 70
     1
102
RTVSPropertyOp39
 70
     1
102
RTVSPropertyOp40
 70
     1
102
RTVSPropertyOp41
 70
     1
102
RTVSPropertyOp42
 70
     1
102
RTVSPropertyOp43
 70
     1
102
RTVSPropertyOp44
 70
     1
102
RTVSPropertyOp45
 70
     1
102
RTVSPropertyOp46
 70
     1
102
RTVSPropertyOp47
 70
     1
102
RTVSPropertyOp48
 70
     1
102
RTVSPropertyOp49
 70
     1
102
RTVSPropertyOp50
 70
     1
102
RTVSPropertyOp51
 70
     0
102
RTVSPropertyOp52
 70
     0
102
RTVSPropertyOp53
 70
     1
102
RTVSPropertyOp54
 70
     1
102
RTVSPropertyOp55
 70
     1
102
RTVSPropertyOp56
 70
     1
102
RTVSPropertyOp57
 70
     1
102
RTVSPropertyOp58
 70
     1
102
RTVSPropertyOp59
 70
     1
102
RTVSPropertyOp60
 70
     1
102
RTVSPropertyOp61
 70
     1
102
RTVSPropertyOp62
 70
     1
  0
XRECORD
  5
A6AC
102
{ACAD_REACTORS
330
A6AB
102
}
330
A6AB
100
AcDbXrecord
280
     1
102
RTVSPost2010Prop28
280
     0
102
RTVSPost2010PropOp28
 70
     1
102
RTVSPost2010Prop29
280
     1
102
RTVSPost2010PropOp29
 70
     1
102
RTVSPost2010Prop30
280
     1
102
RTVSPost2010PropOp30
 70
     1
102
RTVSPost2010Prop31
280
     0
102
RTVSPost2010PropOp31
 70
     1
102
RTVSPost2010Prop32
280
     0
102
RTVSPost2010PropOp32
 70
     1
102
RTVSPost2010Prop33
280
     0
102
RTVSPost2010PropOp33
 70
     1
102
RTVSPost2010Prop34
280
     0
102
RTVSPost2010PropOp34
 70
     1
102
RTVSPost2010Prop35
280
     0
102
RTVSPost2010PropOp35
 70
     1
102
RTVSPost2010Prop36
280
     0
102
RTVSPost2010PropOp36
 70
     1
102
RTVSPost2010Prop37
 90
       50
102
RTVSPost2010PropOp37
 70
     1
102
RTVSPost2010Prop38
140
0.0
102
RTVSPost2010PropOp38
 70
     1
102
RTVSPost2010Prop39
140
1.0
102
RTVSPost2010PropOp39
 70
     1
102
RTVSPost2010Prop40
 90
        0
102
RTVSPost2010PropOp40
 70
     1
102
RTVSPost2010Prop41ColorIndex
 90
       18
102
RTVSPost2010Prop41ColorRGB
 90
        0
102
RTVSPost2010PropOp41
 70
     1
102
RTVSPost2010Prop42
 90
       50
102
RTVSPost2010PropOp42
 70
     1
102
RTVSPost2010Prop43
 90
        3
102
RTVSPost2010PropOp43
 70
     1
102
RTVSPost2010Prop44ColorIndex
 90
        5
102
RTVSPost2010Prop44ColorRGB
 90
      255
102
RTVSPost2010PropOp44
 70
     1
102
RTVSPost2010Prop45
280
     0
102
RTVSPost2010PropOp45
 70
     1
102
RTVSPost2010Prop46
 90
       50
102
RTVSPost2010PropOp46
 70
     1
102
RTVSPost2010Prop47
 90
       50
102
RTVSPost2010PropOp47
 70
     1
102
RTVSPost2010Prop48
 90
       50
102
RTVSPost2010PropOp48
 70
     1
102
RTVSPost2010Prop49
280
     0
102
RTVSPost2010PropOp49
 70
     1
102
RTVSPost2010Prop50
 90
       50
102
RTVSPost2010PropOp50
 70
     1
102
RTVSPost2010Prop51ColorIndex
 90
      256
102
RTVSPost2010Prop51ColorRGB
 90
-16777216
102
RTVSPost2010PropOp51
 70
     0
102
RTVSPost2010Prop52
140
1.0
102
RTVSPost2010PropOp52
 70
     0
102
RTVSPost2010Prop53
 90
        2
102
RTVSPost2010PropOp53
 70
     1
102
RTVSPost2010Prop54
  1
strokes_ogs.tif
102
RTVSPost2010PropOp54
 70
     1
102
RTVSPost2010Prop55
280
     0
102
RTVSPost2010PropOp55
 70
     1
102
RTVSPost2010Prop56
140
1.0
102
RTVSPost2010PropOp56
 70
     1
102
RTVSPost2010Prop57
140
1.0
102
RTVSPost2010PropOp57
 70
     1
102
RTVSPropertyOp0
 70
     1
102
RTVSPropertyOp1
 70
     1
102
RTVSPropertyOp2
 70
     1
102
RTVSPropertyOp3
 70
     1
102
RTVSPropertyOp4
 70
     1
102
RTVSPropertyOp5
 70
     1
102
RTVSPropertyOp6
 70
     1
102
RTVSPropertyOp7
 70
     1
102
RTVSPropertyOp8
 70
     1
102
RTVSPropertyOp9
 70
     1
102
RTVSPropertyOp10
 70
     1
102
RTVSPropertyOp11
 70
     1
102
RTVSPropertyOp12
 70
     1
102
RTVSPropertyOp13
 70
     1
102
RTVSPropertyOp14
 70
     1
102
RTVSPropertyOp15
 70
     1
102
RTVSPropertyOp16
 70
     1
102
RTVSPropertyOp17
 70
     1
102
RTVSPropertyOp18
 70
     1
102
RTVSPropertyOp19
 70
     1
102
RTVSPropertyOp20
 70
     1
102
RTVSPropertyOp21
 70
     1
102
RTVSPropertyOp22
 70
     1
102
RTVSPropertyOp23
 70
     1
102
RTVSPropertyOp24
 70
     1
102
RTVSPropertyOp25
 70
     1
102
RTVSPropertyOp26
 70
     1
102
RTVSPropertyOp27
 70
     1
102
RTVSPropertyOp28
 70
     1
102
RTVSPropertyOp29
 70
     1
102
RTVSPropertyOp30
 70
     1
102
RTVSPropertyOp31
 70
     1
102
RTVSPropertyOp32
 70
     1
102
RTVSPropertyOp33
 70
     1
102
RTVSPropertyOp34
 70
     1
102
RTVSPropertyOp35
 70
     1
102
RTVSPropertyOp36
 70
     1
102
RTVSPropertyOp37
 70
     1
102
RTVSPropertyOp38
 70
     1
102
RTVSPropertyOp39
 70
     1
102
RTVSPropertyOp40
 70
     1
102
RTVSPropertyOp41
 70
     1
102
RTVSPropertyOp42
 70
     1
102
RTVSPropertyOp43
 70
     1
102
RTVSPropertyOp44
 70
     1
102
RTVSPropertyOp45
 70
     1
102
RTVSPropertyOp46
 70
     1
102
RTVSPropertyOp47
 70
     1
102
RTVSPropertyOp48
 70
     1
102
RTVSPropertyOp49
 70
     1
102
RTVSPropertyOp50
 70
     1
102
RTVSPropertyOp51
 70
     0
102
RTVSPropertyOp52
 70
     0
102
RTVSPropertyOp53
 70
     1
102
RTVSPropertyOp54
 70
     1
102
RTVSPropertyOp55
 70
     1
102
RTVSPropertyOp56
 70
     1
102
RTVSPropertyOp57
 70
     1
102
RTVSPropertyOp58
 70
     1
102
RTVSPropertyOp59
 70
     1
102
RTVSPropertyOp60
 70
     1
102
RTVSPropertyOp61
 70
     1
102
RTVSPropertyOp62
 70
     1
  0
XRECORD
  5
A6C6
102
{ACAD_REACTORS
330
A6C5
102
}
330
A6C5
100
AcDbXrecord
280
     1
102
RTVSPost2010Prop28
280
     0
102
RTVSPost2010PropOp28
 70
     1
102
RTVSPost2010Prop29
280
     1
102
RTVSPost2010PropOp29
 70
     1
102
RTVSPost2010Prop30
280
     1
102
RTVSPost2010PropOp30
 70
     1
102
RTVSPost2010Prop31
280
     0
102
RTVSPost2010PropOp31
 70
     1
102
RTVSPost2010Prop32
280
     0
102
RTVSPost2010PropOp32
 70
     1
102
RTVSPost2010Prop33
280
     0
102
RTVSPost2010PropOp33
 70
     1
102
RTVSPost2010Prop34
280
     0
102
RTVSPost2010PropOp34
 70
     1
102
RTVSPost2010Prop35
280
     0
102
RTVSPost2010PropOp35
 70
     1
102
RTVSPost2010Prop36
280
     0
102
RTVSPost2010PropOp36
 70
     1
102
RTVSPost2010Prop37
 90
       50
102
RTVSPost2010PropOp37
 70
     0
102
RTVSPost2010Prop38
140
0.0
102
RTVSPost2010PropOp38
 70
     0
102
RTVSPost2010Prop39
140
1.0
102
RTVSPost2010PropOp39
 70
     0
102
RTVSPost2010Prop40
 90
        0
102
RTVSPost2010PropOp40
 70
     0
102
RTVSPost2010Prop41ColorIndex
 90
       18
102
RTVSPost2010Prop41ColorRGB
 90
        0
102
RTVSPost2010PropOp41
 70
     0
102
RTVSPost2010Prop42
 90
       50
102
RTVSPost2010PropOp42
 70
     0
102
RTVSPost2010Prop43
 90
        3
102
RTVSPost2010PropOp43
 70
     0
102
RTVSPost2010Prop44ColorIndex
 90
        5
102
RTVSPost2010Prop44ColorRGB
 90
      255
102
RTVSPost2010PropOp44
 70
     0
102
RTVSPost2010Prop45
280
     0
102
RTVSPost2010PropOp45
 70
     1
102
RTVSPost2010Prop46
 90
       50
102
RTVSPost2010PropOp46
 70
     0
102
RTVSPost2010Prop47
 90
       50
102
RTVSPost2010PropOp47
 70
     0
102
RTVSPost2010Prop48
 90
       50
102
RTVSPost2010PropOp48
 70
     0
102
RTVSPost2010Prop49
280
     0
102
RTVSPost2010PropOp49
 70
     1
102
RTVSPost2010Prop50
 90
       50
102
RTVSPost2010PropOp50
 70
     0
102
RTVSPost2010Prop51ColorIndex
 90
      256
102
RTVSPost2010Prop51ColorRGB
 90
-16777216
102
RTVSPost2010PropOp51
 70
     0
102
RTVSPost2010Prop52
140
1.0
102
RTVSPost2010PropOp52
 70
     0
102
RTVSPost2010Prop53
 90
        2
102
RTVSPost2010PropOp53
 70
     0
102
RTVSPost2010Prop54
  1
strokes_ogs.tif
102
RTVSPost2010PropOp54
 70
     0
102
RTVSPost2010Prop55
280
     0
102
RTVSPost2010PropOp55
 70
     1
102
RTVSPost2010Prop56
140
1.0
102
RTVSPost2010PropOp56
 70
     0
102
RTVSPost2010Prop57
140
1.0
102
RTVSPost2010PropOp57
 70
     0
102
RTVSPropertyOp0
 70
     0
102
RTVSPropertyOp1
 70
     0
102
RTVSPropertyOp2
 70
     0
102
RTVSPropertyOp3
 70
     0
102
RTVSPropertyOp4
 70
     0
102
RTVSPropertyOp5
 70
     0
102
RTVSPropertyOp6
 70
     0
102
RTVSPropertyOp7
 70
     0
102
RTVSPropertyOp8
 70
     0
102
RTVSPropertyOp9
 70
     0
102
RTVSPropertyOp10
 70
     0
102
RTVSPropertyOp11
 70
     0
102
RTVSPropertyOp12
 70
     0
102
RTVSPropertyOp13
 70
     0
102
RTVSPropertyOp14
 70
     2
102
RTVSPropertyOp15
 70
     0
102
RTVSPropertyOp16
 70
     0
102
RTVSPropertyOp17
 70
     0
102
RTVSPropertyOp18
 70
     0
102
RTVSPropertyOp19
 70
     0
102
RTVSPropertyOp20
 70
     0
102
RTVSPropertyOp21
 70
     0
102
RTVSPropertyOp22
 70
     0
102
RTVSPropertyOp23
 70
     0
102
RTVSPropertyOp24
 70
     0
102
RTVSPropertyOp25
 70
     0
102
RTVSPropertyOp26
 70
     0
102
RTVSPropertyOp27
 70
     0
102
RTVSPropertyOp28
 70
     1
102
RTVSPropertyOp29
 70
     1
102
RTVSPropertyOp30
 70
     1
102
RTVSPropertyOp31
 70
     1
102
RTVSPropertyOp32
 70
     1
102
RTVSPropertyOp33
 70
     1
102
RTVSPropertyOp34
 70
     1
102
RTVSPropertyOp35
 70
     1
102
RTVSPropertyOp36
 70
     1
102
RTVSPropertyOp37
 70
     0
102
RTVSPropertyOp38
 70
     0
102
RTVSPropertyOp39
 70
     0
102
RTVSPropertyOp40
 70
     0
102
RTVSPropertyOp41
 70
     0
102
RTVSPropertyOp42
 70
     0
102
RTVSPropertyOp43
 70
     0
102
RTVSPropertyOp44
 70
     0
102
RTVSPropertyOp45
 70
     1
102
RTVSPropertyOp46
 70
     0
102
RTVSPropertyOp47
 70
     0
102
RTVSPropertyOp48
 70
     0
102
RTVSPropertyOp49
 70
     1
102
RTVSPropertyOp50
 70
     0
102
RTVSPropertyOp51
 70
     0
102
RTVSPropertyOp52
 70
     0
102
RTVSPropertyOp53
 70
     0
102
RTVSPropertyOp54
 70
     0
102
RTVSPropertyOp55
 70
     1
102
RTVSPropertyOp56
 70
     0
102
RTVSPropertyOp57
 70
     0
102
RTVSPropertyOp58
 70
     0
102
RTVSPropertyOp59
 70
     0
102
RTVSPropertyOp60
 70
     0
102
RTVSPropertyOp61
 70
     0
102
RTVSPropertyOp62
 70
     0
  0
XRECORD
  5
A6B4
102
{ACAD_REACTORS
330
A6B3
102
}
330
A6B3
100
AcDbXrecord
280
     1
102
RTVSPost2010Prop28
280
     0
102
RTVSPost2010PropOp28
 70
     1
102
RTVSPost2010Prop29
280
     1
102
RTVSPost2010PropOp29
 70
     1
102
RTVSPost2010Prop30
280
     1
102
RTVSPost2010PropOp30
 70
     1
102
RTVSPost2010Prop31
280
     0
102
RTVSPost2010PropOp31
 70
     1
102
RTVSPost2010Prop32
280
     0
102
RTVSPost2010PropOp32
 70
     1
102
RTVSPost2010Prop33
280
     0
102
RTVSPost2010PropOp33
 70
     1
102
RTVSPost2010Prop34
280
     0
102
RTVSPost2010PropOp34
 70
     1
102
RTVSPost2010Prop35
280
     0
102
RTVSPost2010PropOp35
 70
     1
102
RTVSPost2010Prop36
280
     0
102
RTVSPost2010PropOp36
 70
     1
102
RTVSPost2010Prop37
 90
       50
102
RTVSPost2010PropOp37
 70
     1
102
RTVSPost2010Prop38
140
0.0
102
RTVSPost2010PropOp38
 70
     1
102
RTVSPost2010Prop39
140
1.0
102
RTVSPost2010PropOp39
 70
     1
102
RTVSPost2010Prop40
 90
        0
102
RTVSPost2010PropOp40
 70
     1
102
RTVSPost2010Prop41ColorIndex
 90
       18
102
RTVSPost2010Prop41ColorRGB
 90
        0
102
RTVSPost2010PropOp41
 70
     1
102
RTVSPost2010Prop42
 90
       50
102
RTVSPost2010PropOp42
 70
     1
102
RTVSPost2010Prop43
 90
        3
102
RTVSPost2010PropOp43
 70
     1
102
RTVSPost2010Prop44ColorIndex
 90
        5
102
RTVSPost2010Prop44ColorRGB
 90
      255
102
RTVSPost2010PropOp44
 70
     1
102
RTVSPost2010Prop45
280
     0
102
RTVSPost2010PropOp45
 70
     1
102
RTVSPost2010Prop46
 90
       50
102
RTVSPost2010PropOp46
 70
     1
102
RTVSPost2010Prop47
 90
       50
102
RTVSPost2010PropOp47
 70
     1
102
RTVSPost2010Prop48
 90
       50
102
RTVSPost2010PropOp48
 70
     1
102
RTVSPost2010Prop49
280
     0
102
RTVSPost2010PropOp49
 70
     1
102
RTVSPost2010Prop50
 90
       50
102
RTVSPost2010PropOp50
 70
     1
102
RTVSPost2010Prop51ColorIndex
 90
      256
102
RTVSPost2010Prop51ColorRGB
 90
-16777216
102
RTVSPost2010PropOp51
 70
     0
102
RTVSPost2010Prop52
140
1.0
102
RTVSPost2010PropOp52
 70
     0
102
RTVSPost2010Prop53
 90
        2
102
RTVSPost2010PropOp53
 70
     1
102
RTVSPost2010Prop54
  1
strokes_ogs.tif
102
RTVSPost2010PropOp54
 70
     1
102
RTVSPost2010Prop55
280
     0
102
RTVSPost2010PropOp55
 70
     1
102
RTVSPost2010Prop56
140
1.0
102
RTVSPost2010PropOp56
 70
     1
102
RTVSPost2010Prop57
140
1.0
102
RTVSPost2010PropOp57
 70
     1
102
RTVSPropertyOp0
 70
     1
102
RTVSPropertyOp1
 70
     1
102
RTVSPropertyOp2
 70
     1
102
RTVSPropertyOp3
 70
     1
102
RTVSPropertyOp4
 70
     1
102
RTVSPropertyOp5
 70
     1
102
RTVSPropertyOp6
 70
     1
102
RTVSPropertyOp7
 70
     1
102
RTVSPropertyOp8
 70
     1
102
RTVSPropertyOp9
 70
     1
102
RTVSPropertyOp10
 70
     1
102
RTVSPropertyOp11
 70
     1
102
RTVSPropertyOp12
 70
     1
102
RTVSPropertyOp13
 70
     1
102
RTVSPropertyOp14
 70
     1
102
RTVSPropertyOp15
 70
     1
102
RTVSPropertyOp16
 70
     1
102
RTVSPropertyOp17
 70
     1
102
RTVSPropertyOp18
 70
     1
102
RTVSPropertyOp19
 70
     1
102
RTVSPropertyOp20
 70
     1
102
RTVSPropertyOp21
 70
     1
102
RTVSPropertyOp22
 70
     1
102
RTVSPropertyOp23
 70
     1
102
RTVSPropertyOp24
 70
     1
102
RTVSPropertyOp25
 70
     1
102
RTVSPropertyOp26
 70
     1
102
RTVSPropertyOp27
 70
     1
102
RTVSPropertyOp28
 70
     1
102
RTVSPropertyOp29
 70
     1
102
RTVSPropertyOp30
 70
     1
102
RTVSPropertyOp31
 70
     1
102
RTVSPropertyOp32
 70
     1
102
RTVSPropertyOp33
 70
     1
102
RTVSPropertyOp34
 70
     1
102
RTVSPropertyOp35
 70
     1
102
RTVSPropertyOp36
 70
     1
102
RTVSPropertyOp37
 70
     1
102
RTVSPropertyOp38
 70
     1
102
RTVSPropertyOp39
 70
     1
102
RTVSPropertyOp40
 70
     1
102
RTVSPropertyOp41
 70
     1
102
RTVSPropertyOp42
 70
     1
102
RTVSPropertyOp43
 70
     1
102
RTVSPropertyOp44
 70
     1
102
RTVSPropertyOp45
 70
     1
102
RTVSPropertyOp46
 70
     1
102
RTVSPropertyOp47
 70
     1
102
RTVSPropertyOp48
 70
     1
102
RTVSPropertyOp49
 70
     1
102
RTVSPropertyOp50
 70
     1
102
RTVSPropertyOp51
 70
     0
102
RTVSPropertyOp52
 70
     0
102
RTVSPropertyOp53
 70
     1
102
RTVSPropertyOp54
 70
     1
102
RTVSPropertyOp55
 70
     1
102
RTVSPropertyOp56
 70
     1
102
RTVSPropertyOp57
 70
     1
102
RTVSPropertyOp58
 70
     1
102
RTVSPropertyOp59
 70
     1
102
RTVSPropertyOp60
 70
     1
102
RTVSPropertyOp61
 70
     1
102
RTVSPropertyOp62
 70
     1
  0
XRECORD
  5
A698
102
{ACAD_REACTORS
330
A697
102
}
330
A697
100
AcDbXrecord
280
     1
102
RTVSPost2010Prop28
280
     0
102
RTVSPost2010PropOp28
 70
     1
102
RTVSPost2010Prop29
280
     1
102
RTVSPost2010PropOp29
 70
     1
102
RTVSPost2010Prop30
280
     1
102
RTVSPost2010PropOp30
 70
     1
102
RTVSPost2010Prop31
280
     0
102
RTVSPost2010PropOp31
 70
     1
102
RTVSPost2010Prop32
280
     0
102
RTVSPost2010PropOp32
 70
     1
102
RTVSPost2010Prop33
280
     0
102
RTVSPost2010PropOp33
 70
     1
102
RTVSPost2010Prop34
280
     0
102
RTVSPost2010PropOp34
 70
     1
102
RTVSPost2010Prop35
280
     0
102
RTVSPost2010PropOp35
 70
     1
102
RTVSPost2010Prop36
280
     0
102
RTVSPost2010PropOp36
 70
     1
102
RTVSPost2010Prop37
 90
       50
102
RTVSPost2010PropOp37
 70
     1
102
RTVSPost2010Prop38
140
0.0
102
RTVSPost2010PropOp38
 70
     1
102
RTVSPost2010Prop39
140
1.0
102
RTVSPost2010PropOp39
 70
     1
102
RTVSPost2010Prop40
 90
        0
102
RTVSPost2010PropOp40
 70
     1
102
RTVSPost2010Prop41ColorIndex
 90
       18
102
RTVSPost2010Prop41ColorRGB
 90
        0
102
RTVSPost2010PropOp41
 70
     1
102
RTVSPost2010Prop42
 90
       50
102
RTVSPost2010PropOp42
 70
     1
102
RTVSPost2010Prop43
 90
        3
102
RTVSPost2010PropOp43
 70
     1
102
RTVSPost2010Prop44ColorIndex
 90
        5
102
RTVSPost2010Prop44ColorRGB
 90
      255
102
RTVSPost2010PropOp44
 70
     1
102
RTVSPost2010Prop45
280
     0
102
RTVSPost2010PropOp45
 70
     1
102
RTVSPost2010Prop46
 90
       50
102
RTVSPost2010PropOp46
 70
     1
102
RTVSPost2010Prop47
 90
       50
102
RTVSPost2010PropOp47
 70
     1
102
RTVSPost2010Prop48
 90
       50
102
RTVSPost2010PropOp48
 70
     1
102
RTVSPost2010Prop49
280
     0
102
RTVSPost2010PropOp49
 70
     1
102
RTVSPost2010Prop50
 90
       50
102
RTVSPost2010PropOp50
 70
     1
102
RTVSPost2010Prop51ColorIndex
 90
      256
102
RTVSPost2010Prop51ColorRGB
 90
-16777216
102
RTVSPost2010PropOp51
 70
     0
102
RTVSPost2010Prop52
140
1.0
102
RTVSPost2010PropOp52
 70
     0
102
RTVSPost2010Prop53
 90
        2
102
RTVSPost2010PropOp53
 70
     1
102
RTVSPost2010Prop54
  1
strokes_ogs.tif
102
RTVSPost2010PropOp54
 70
     1
102
RTVSPost2010Prop55
280
     0
102
RTVSPost2010PropOp55
 70
     1
102
RTVSPost2010Prop56
140
1.0
102
RTVSPost2010PropOp56
 70
     1
102
RTVSPost2010Prop57
140
1.0
102
RTVSPost2010PropOp57
 70
     1
102
RTVSPropertyOp0
 70
     1
102
RTVSPropertyOp1
 70
     1
102
RTVSPropertyOp2
 70
     1
102
RTVSPropertyOp3
 70
     1
102
RTVSPropertyOp4
 70
     1
102
RTVSPropertyOp5
 70
     1
102
RTVSPropertyOp6
 70
     1
102
RTVSPropertyOp7
 70
     1
102
RTVSPropertyOp8
 70
     1
102
RTVSPropertyOp9
 70
     1
102
RTVSPropertyOp10
 70
     1
102
RTVSPropertyOp11
 70
     1
102
RTVSPropertyOp12
 70
     1
102
RTVSPropertyOp13
 70
     1
102
RTVSPropertyOp14
 70
     1
102
RTVSPropertyOp15
 70
     1
102
RTVSPropertyOp16
 70
     1
102
RTVSPropertyOp17
 70
     1
102
RTVSPropertyOp18
 70
     1
102
RTVSPropertyOp19
 70
     1
102
RTVSPropertyOp20
 70
     1
102
RTVSPropertyOp21
 70
     1
102
RTVSPropertyOp22
 70
     1
102
RTVSPropertyOp23
 70
     1
102
RTVSPropertyOp24
 70
     1
102
RTVSPropertyOp25
 70
     1
102
RTVSPropertyOp26
 70
     1
102
RTVSPropertyOp27
 70
     1
102
RTVSPropertyOp28
 70
     1
102
RTVSPropertyOp29
 70
     1
102
RTVSPropertyOp30
 70
     1
102
RTVSPropertyOp31
 70
     1
102
RTVSPropertyOp32
 70
     1
102
RTVSPropertyOp33
 70
     1
102
RTVSPropertyOp34
 70
     1
102
RTVSPropertyOp35
 70
     1
102
RTVSPropertyOp36
 70
     1
102
RTVSPropertyOp37
 70
     1
102
RTVSPropertyOp38
 70
     1
102
RTVSPropertyOp39
 70
     1
102
RTVSPropertyOp40
 70
     1
102
RTVSPropertyOp41
 70
     1
102
RTVSPropertyOp42
 70
     1
102
RTVSPropertyOp43
 70
     1
102
RTVSPropertyOp44
 70
     1
102
RTVSPropertyOp45
 70
     1
102
RTVSPropertyOp46
 70
     1
102
RTVSPropertyOp47
 70
     1
102
RTVSPropertyOp48
 70
     1
102
RTVSPropertyOp49
 70
     1
102
RTVSPropertyOp50
 70
     1
102
RTVSPropertyOp51
 70
     0
102
RTVSPropertyOp52
 70
     0
102
RTVSPropertyOp53
 70
     1
102
RTVSPropertyOp54
 70
     1
102
RTVSPropertyOp55
 70
     1
102
RTVSPropertyOp56
 70
     1
102
RTVSPropertyOp57
 70
     1
102
RTVSPropertyOp58
 70
     1
102
RTVSPropertyOp59
 70
     1
102
RTVSPropertyOp60
 70
     1
102
RTVSPropertyOp61
 70
     1
102
RTVSPropertyOp62
 70
     1
  0
XRECORD
  5
A69A
102
{ACAD_REACTORS
330
A699
102
}
330
A699
100
AcDbXrecord
280
     1
102
RTVSPost2010Prop28
280
     0
102
RTVSPost2010PropOp28
 70
     1
102
RTVSPost2010Prop29
280
     1
102
RTVSPost2010PropOp29
 70
     1
102
RTVSPost2010Prop30
280
     1
102
RTVSPost2010PropOp30
 70
     1
102
RTVSPost2010Prop31
280
     0
102
RTVSPost2010PropOp31
 70
     1
102
RTVSPost2010Prop32
280
     0
102
RTVSPost2010PropOp32
 70
     1
102
RTVSPost2010Prop33
280
     0
102
RTVSPost2010PropOp33
 70
     1
102
RTVSPost2010Prop34
280
     0
102
RTVSPost2010PropOp34
 70
     1
102
RTVSPost2010Prop35
280
     0
102
RTVSPost2010PropOp35
 70
     1
102
RTVSPost2010Prop36
280
     0
102
RTVSPost2010PropOp36
 70
     1
102
RTVSPost2010Prop37
 90
       50
102
RTVSPost2010PropOp37
 70
     1
102
RTVSPost2010Prop38
140
0.0
102
RTVSPost2010PropOp38
 70
     1
102
RTVSPost2010Prop39
140
1.0
102
RTVSPost2010PropOp39
 70
     1
102
RTVSPost2010Prop40
 90
        0
102
RTVSPost2010PropOp40
 70
     1
102
RTVSPost2010Prop41ColorIndex
 90
       18
102
RTVSPost2010Prop41ColorRGB
 90
        0
102
RTVSPost2010PropOp41
 70
     1
102
RTVSPost2010Prop42
 90
       50
102
RTVSPost2010PropOp42
 70
     1
102
RTVSPost2010Prop43
 90
        3
102
RTVSPost2010PropOp43
 70
     1
102
RTVSPost2010Prop44ColorIndex
 90
        5
102
RTVSPost2010Prop44ColorRGB
 90
      255
102
RTVSPost2010PropOp44
 70
     1
102
RTVSPost2010Prop45
280
     0
102
RTVSPost2010PropOp45
 70
     1
102
RTVSPost2010Prop46
 90
       50
102
RTVSPost2010PropOp46
 70
     1
102
RTVSPost2010Prop47
 90
       50
102
RTVSPost2010PropOp47
 70
     1
102
RTVSPost2010Prop48
 90
       50
102
RTVSPost2010PropOp48
 70
     1
102
RTVSPost2010Prop49
280
     0
102
RTVSPost2010PropOp49
 70
     1
102
RTVSPost2010Prop50
 90
       50
102
RTVSPost2010PropOp50
 70
     1
102
RTVSPost2010Prop51ColorIndex
 90
      256
102
RTVSPost2010Prop51ColorRGB
 90
-16777216
102
RTVSPost2010PropOp51
 70
     0
102
RTVSPost2010Prop52
140
1.0
102
RTVSPost2010PropOp52
 70
     0
102
RTVSPost2010Prop53
 90
        2
102
RTVSPost2010PropOp53
 70
     1
102
RTVSPost2010Prop54
  1
strokes_ogs.tif
102
RTVSPost2010PropOp54
 70
     1
102
RTVSPost2010Prop55
280
     0
102
RTVSPost2010PropOp55
 70
     1
102
RTVSPost2010Prop56
140
1.0
102
RTVSPost2010PropOp56
 70
     1
102
RTVSPost2010Prop57
140
1.0
102
RTVSPost2010PropOp57
 70
     1
102
RTVSPropertyOp0
 70
     1
102
RTVSPropertyOp1
 70
     1
102
RTVSPropertyOp2
 70
     1
102
RTVSPropertyOp3
 70
     1
102
RTVSPropertyOp4
 70
     1
102
RTVSPropertyOp5
 70
     1
102
RTVSPropertyOp6
 70
     1
102
RTVSPropertyOp7
 70
     1
102
RTVSPropertyOp8
 70
     1
102
RTVSPropertyOp9
 70
     1
102
RTVSPropertyOp10
 70
     1
102
RTVSPropertyOp11
 70
     1
102
RTVSPropertyOp12
 70
     1
102
RTVSPropertyOp13
 70
     1
102
RTVSPropertyOp14
 70
     1
102
RTVSPropertyOp15
 70
     1
102
RTVSPropertyOp16
 70
     1
102
RTVSPropertyOp17
 70
     1
102
RTVSPropertyOp18
 70
     1
102
RTVSPropertyOp19
 70
     1
102
RTVSPropertyOp20
 70
     1
102
RTVSPropertyOp21
 70
     1
102
RTVSPropertyOp22
 70
     1
102
RTVSPropertyOp23
 70
     1
102
RTVSPropertyOp24
 70
     1
102
RTVSPropertyOp25
 70
     1
102
RTVSPropertyOp26
 70
     1
102
RTVSPropertyOp27
 70
     1
102
RTVSPropertyOp28
 70
     1
102
RTVSPropertyOp29
 70
     1
102
RTVSPropertyOp30
 70
     1
102
RTVSPropertyOp31
 70
     1
102
RTVSPropertyOp32
 70
     1
102
RTVSPropertyOp33
 70
     1
102
RTVSPropertyOp34
 70
     1
102
RTVSPropertyOp35
 70
     1
102
RTVSPropertyOp36
 70
     1
102
RTVSPropertyOp37
 70
     1
102
RTVSPropertyOp38
 70
     1
102
RTVSPropertyOp39
 70
     1
102
RTVSPropertyOp40
 70
     1
102
RTVSPropertyOp41
 70
     1
102
RTVSPropertyOp42
 70
     1
102
RTVSPropertyOp43
 70
     1
102
RTVSPropertyOp44
 70
     1
102
RTVSPropertyOp45
 70
     1
102
RTVSPropertyOp46
 70
     1
102
RTVSPropertyOp47
 70
     1
102
RTVSPropertyOp48
 70
     1
102
RTVSPropertyOp49
 70
     1
102
RTVSPropertyOp50
 70
     1
102
RTVSPropertyOp51
 70
     0
102
RTVSPropertyOp52
 70
     0
102
RTVSPropertyOp53
 70
     1
102
RTVSPropertyOp54
 70
     1
102
RTVSPropertyOp55
 70
     1
102
RTVSPropertyOp56
 70
     1
102
RTVSPropertyOp57
 70
     1
102
RTVSPropertyOp58
 70
     1
102
RTVSPropertyOp59
 70
     1
102
RTVSPropertyOp60
 70
     1
102
RTVSPropertyOp61
 70
     1
102
RTVSPropertyOp62
 70
     1
  0
XRECORD
  5
A69C
102
{ACAD_REACTORS
330
A69B
102
}
330
A69B
100
AcDbXrecord
280
     1
102
RTVSPost2010Prop28
280
     0
102
RTVSPost2010PropOp28
 70
     1
102
RTVSPost2010Prop29
280
     1
102
RTVSPost2010PropOp29
 70
     1
102
RTVSPost2010Prop30
280
     1
102
RTVSPost2010PropOp30
 70
     1
102
RTVSPost2010Prop31
280
     0
102
RTVSPost2010PropOp31
 70
     1
102
RTVSPost2010Prop32
280
     0
102
RTVSPost2010PropOp32
 70
     1
102
RTVSPost2010Prop33
280
     0
102
RTVSPost2010PropOp33
 70
     1
102
RTVSPost2010Prop34
280
     0
102
RTVSPost2010PropOp34
 70
     1
102
RTVSPost2010Prop35
280
     0
102
RTVSPost2010PropOp35
 70
     1
102
RTVSPost2010Prop36
280
     0
102
RTVSPost2010PropOp36
 70
     1
102
RTVSPost2010Prop37
 90
       50
102
RTVSPost2010PropOp37
 70
     1
102
RTVSPost2010Prop38
140
0.0
102
RTVSPost2010PropOp38
 70
     1
102
RTVSPost2010Prop39
140
1.0
102
RTVSPost2010PropOp39
 70
     1
102
RTVSPost2010Prop40
 90
        0
102
RTVSPost2010PropOp40
 70
     1
102
RTVSPost2010Prop41ColorIndex
 90
       18
102
RTVSPost2010Prop41ColorRGB
 90
        0
102
RTVSPost2010PropOp41
 70
     1
102
RTVSPost2010Prop42
 90
       50
102
RTVSPost2010PropOp42
 70
     1
102
RTVSPost2010Prop43
 90
        3
102
RTVSPost2010PropOp43
 70
     1
102
RTVSPost2010Prop44ColorIndex
 90
        5
102
RTVSPost2010Prop44ColorRGB
 90
      255
102
RTVSPost2010PropOp44
 70
     1
102
RTVSPost2010Prop45
280
     0
102
RTVSPost2010PropOp45
 70
     1
102
RTVSPost2010Prop46
 90
       50
102
RTVSPost2010PropOp46
 70
     1
102
RTVSPost2010Prop47
 90
       50
102
RTVSPost2010PropOp47
 70
     1
102
RTVSPost2010Prop48
 90
       50
102
RTVSPost2010PropOp48
 70
     1
102
RTVSPost2010Prop49
280
     0
102
RTVSPost2010PropOp49
 70
     1
102
RTVSPost2010Prop50
 90
       50
102
RTVSPost2010PropOp50
 70
     1
102
RTVSPost2010Prop51ColorIndex
 90
      256
102
RTVSPost2010Prop51ColorRGB
 90
-16777216
102
RTVSPost2010PropOp51
 70
     0
102
RTVSPost2010Prop52
140
1.0
102
RTVSPost2010PropOp52
 70
     0
102
RTVSPost2010Prop53
 90
        2
102
RTVSPost2010PropOp53
 70
     1
102
RTVSPost2010Prop54
  1
strokes_ogs.tif
102
RTVSPost2010PropOp54
 70
     1
102
RTVSPost2010Prop55
280
     0
102
RTVSPost2010PropOp55
 70
     1
102
RTVSPost2010Prop56
140
1.0
102
RTVSPost2010PropOp56
 70
     1
102
RTVSPost2010Prop57
140
1.0
102
RTVSPost2010PropOp57
 70
     1
102
RTVSPropertyOp0
 70
     1
102
RTVSPropertyOp1
 70
     1
102
RTVSPropertyOp2
 70
     1
102
RTVSPropertyOp3
 70
     1
102
RTVSPropertyOp4
 70
     1
102
RTVSPropertyOp5
 70
     1
102
RTVSPropertyOp6
 70
     1
102
RTVSPropertyOp7
 70
     1
102
RTVSPropertyOp8
 70
     1
102
RTVSPropertyOp9
 70
     1
102
RTVSPropertyOp10
 70
     1
102
RTVSPropertyOp11
 70
     1
102
RTVSPropertyOp12
 70
     1
102
RTVSPropertyOp13
 70
     1
102
RTVSPropertyOp14
 70
     1
102
RTVSPropertyOp15
 70
     1
102
RTVSPropertyOp16
 70
     1
102
RTVSPropertyOp17
 70
     1
102
RTVSPropertyOp18
 70
     1
102
RTVSPropertyOp19
 70
     1
102
RTVSPropertyOp20
 70
     1
102
RTVSPropertyOp21
 70
     1
102
RTVSPropertyOp22
 70
     1
102
RTVSPropertyOp23
 70
     1
102
RTVSPropertyOp24
 70
     1
102
RTVSPropertyOp25
 70
     1
102
RTVSPropertyOp26
 70
     1
102
RTVSPropertyOp27
 70
     1
102
RTVSPropertyOp28
 70
     1
102
RTVSPropertyOp29
 70
     1
102
RTVSPropertyOp30
 70
     1
102
RTVSPropertyOp31
 70
     1
102
RTVSPropertyOp32
 70
     1
102
RTVSPropertyOp33
 70
     1
102
RTVSPropertyOp34
 70
     1
102
RTVSPropertyOp35
 70
     1
102
RTVSPropertyOp36
 70
     1
102
RTVSPropertyOp37
 70
     1
102
RTVSPropertyOp38
 70
     1
102
RTVSPropertyOp39
 70
     1
102
RTVSPropertyOp40
 70
     1
102
RTVSPropertyOp41
 70
     1
102
RTVSPropertyOp42
 70
     1
102
RTVSPropertyOp43
 70
     1
102
RTVSPropertyOp44
 70
     1
102
RTVSPropertyOp45
 70
     1
102
RTVSPropertyOp46
 70
     1
102
RTVSPropertyOp47
 70
     1
102
RTVSPropertyOp48
 70
     1
102
RTVSPropertyOp49
 70
     1
102
RTVSPropertyOp50
 70
     1
102
RTVSPropertyOp51
 70
     0
102
RTVSPropertyOp52
 70
     0
102
RTVSPropertyOp53
 70
     1
102
RTVSPropertyOp54
 70
     1
102
RTVSPropertyOp55
 70
     1
102
RTVSPropertyOp56
 70
     1
102
RTVSPropertyOp57
 70
     1
102
RTVSPropertyOp58
 70
     1
102
RTVSPropertyOp59
 70
     1
102
RTVSPropertyOp60
 70
     1
102
RTVSPropertyOp61
 70
     1
102
RTVSPropertyOp62
 70
     1
  0
XRECORD
  5
A69E
102
{ACAD_REACTORS
330
A69D
102
}
330
A69D
100
AcDbXrecord
280
     1
102
RTVSPost2010Prop28
280
     0
102
RTVSPost2010PropOp28
 70
     1
102
RTVSPost2010Prop29
280
     1
102
RTVSPost2010PropOp29
 70
     1
102
RTVSPost2010Prop30
280
     1
102
RTVSPost2010PropOp30
 70
     1
102
RTVSPost2010Prop31
280
     0
102
RTVSPost2010PropOp31
 70
     1
102
RTVSPost2010Prop32
280
     0
102
RTVSPost2010PropOp32
 70
     1
102
RTVSPost2010Prop33
280
     0
102
RTVSPost2010PropOp33
 70
     1
102
RTVSPost2010Prop34
280
     0
102
RTVSPost2010PropOp34
 70
     1
102
RTVSPost2010Prop35
280
     0
102
RTVSPost2010PropOp35
 70
     1
102
RTVSPost2010Prop36
280
     0
102
RTVSPost2010PropOp36
 70
     1
102
RTVSPost2010Prop37
 90
       50
102
RTVSPost2010PropOp37
 70
     1
102
RTVSPost2010Prop38
140
0.0
102
RTVSPost2010PropOp38
 70
     1
102
RTVSPost2010Prop39
140
1.0
102
RTVSPost2010PropOp39
 70
     1
102
RTVSPost2010Prop40
 90
        0
102
RTVSPost2010PropOp40
 70
     1
102
RTVSPost2010Prop41ColorIndex
 90
       18
102
RTVSPost2010Prop41ColorRGB
 90
        0
102
RTVSPost2010PropOp41
 70
     1
102
RTVSPost2010Prop42
 90
       50
102
RTVSPost2010PropOp42
 70
     1
102
RTVSPost2010Prop43
 90
        3
102
RTVSPost2010PropOp43
 70
     1
102
RTVSPost2010Prop44ColorIndex
 90
        5
102
RTVSPost2010Prop44ColorRGB
 90
      255
102
RTVSPost2010PropOp44
 70
     1
102
RTVSPost2010Prop45
280
     0
102
RTVSPost2010PropOp45
 70
     1
102
RTVSPost2010Prop46
 90
       50
102
RTVSPost2010PropOp46
 70
     1
102
RTVSPost2010Prop47
 90
       50
102
RTVSPost2010PropOp47
 70
     1
102
RTVSPost2010Prop48
 90
       50
102
RTVSPost2010PropOp48
 70
     1
102
RTVSPost2010Prop49
280
     0
102
RTVSPost2010PropOp49
 70
     1
102
RTVSPost2010Prop50
 90
       50
102
RTVSPost2010PropOp50
 70
     1
102
RTVSPost2010Prop51ColorIndex
 90
      256
102
RTVSPost2010Prop51ColorRGB
 90
-16777216
102
RTVSPost2010PropOp51
 70
     0
102
RTVSPost2010Prop52
140
1.0
102
RTVSPost2010PropOp52
 70
     0
102
RTVSPost2010Prop53
 90
        2
102
RTVSPost2010PropOp53
 70
     1
102
RTVSPost2010Prop54
  1
strokes_ogs.tif
102
RTVSPost2010PropOp54
 70
     1
102
RTVSPost2010Prop55
280
     0
102
RTVSPost2010PropOp55
 70
     1
102
RTVSPost2010Prop56
140
1.0
102
RTVSPost2010PropOp56
 70
     1
102
RTVSPost2010Prop57
140
1.0
102
RTVSPost2010PropOp57
 70
     1
102
RTVSPropertyOp0
 70
     1
102
RTVSPropertyOp1
 70
     1
102
RTVSPropertyOp2
 70
     1
102
RTVSPropertyOp3
 70
     1
102
RTVSPropertyOp4
 70
     1
102
RTVSPropertyOp5
 70
     1
102
RTVSPropertyOp6
 70
     1
102
RTVSPropertyOp7
 70
     1
102
RTVSPropertyOp8
 70
     1
102
RTVSPropertyOp9
 70
     1
102
RTVSPropertyOp10
 70
     1
102
RTVSPropertyOp11
 70
     1
102
RTVSPropertyOp12
 70
     1
102
RTVSPropertyOp13
 70
     1
102
RTVSPropertyOp14
 70
     1
102
RTVSPropertyOp15
 70
     1
102
RTVSPropertyOp16
 70
     1
102
RTVSPropertyOp17
 70
     1
102
RTVSPropertyOp18
 70
     1
102
RTVSPropertyOp19
 70
     1
102
RTVSPropertyOp20
 70
     1
102
RTVSPropertyOp21
 70
     1
102
RTVSPropertyOp22
 70
     1
102
RTVSPropertyOp23
 70
     1
102
RTVSPropertyOp24
 70
     1
102
RTVSPropertyOp25
 70
     1
102
RTVSPropertyOp26
 70
     1
102
RTVSPropertyOp27
 70
     1
102
RTVSPropertyOp28
 70
     1
102
RTVSPropertyOp29
 70
     1
102
RTVSPropertyOp30
 70
     1
102
RTVSPropertyOp31
 70
     1
102
RTVSPropertyOp32
 70
     1
102
RTVSPropertyOp33
 70
     1
102
RTVSPropertyOp34
 70
     1
102
RTVSPropertyOp35
 70
     1
102
RTVSPropertyOp36
 70
     1
102
RTVSPropertyOp37
 70
     1
102
RTVSPropertyOp38
 70
     1
102
RTVSPropertyOp39
 70
     1
102
RTVSPropertyOp40
 70
     1
102
RTVSPropertyOp41
 70
     1
102
RTVSPropertyOp42
 70
     1
102
RTVSPropertyOp43
 70
     1
102
RTVSPropertyOp44
 70
     1
102
RTVSPropertyOp45
 70
     1
102
RTVSPropertyOp46
 70
     1
102
RTVSPropertyOp47
 70
     1
102
RTVSPropertyOp48
 70
     1
102
RTVSPropertyOp49
 70
     1
102
RTVSPropertyOp50
 70
     1
102
RTVSPropertyOp51
 70
     0
102
RTVSPropertyOp52
 70
     0
102
RTVSPropertyOp53
 70
     1
102
RTVSPropertyOp54
 70
     1
102
RTVSPropertyOp55
 70
     1
102
RTVSPropertyOp56
 70
     1
102
RTVSPropertyOp57
 70
     1
102
RTVSPropertyOp58
 70
     1
102
RTVSPropertyOp59
 70
     1
102
RTVSPropertyOp60
 70
     1
102
RTVSPropertyOp61
 70
     1
102
RTVSPropertyOp62
 70
     1
  0
XRECORD
  5
A6A6
102
{ACAD_REACTORS
330
A6A5
102
}
330
A6A5
100
AcDbXrecord
280
     1
102
RTVSPost2010Prop28
280
     0
102
RTVSPost2010PropOp28
 70
     1
102
RTVSPost2010Prop29
280
     1
102
RTVSPost2010PropOp29
 70
     1
102
RTVSPost2010Prop30
280
     1
102
RTVSPost2010PropOp30
 70
     1
102
RTVSPost2010Prop31
280
     0
102
RTVSPost2010PropOp31
 70
     1
102
RTVSPost2010Prop32
280
     0
102
RTVSPost2010PropOp32
 70
     1
102
RTVSPost2010Prop33
280
     0
102
RTVSPost2010PropOp33
 70
     1
102
RTVSPost2010Prop34
280
     0
102
RTVSPost2010PropOp34
 70
     1
102
RTVSPost2010Prop35
280
     0
102
RTVSPost2010PropOp35
 70
     1
102
RTVSPost2010Prop36
280
     0
102
RTVSPost2010PropOp36
 70
     1
102
RTVSPost2010Prop37
 90
       50
102
RTVSPost2010PropOp37
 70
     1
102
RTVSPost2010Prop38
140
0.0
102
RTVSPost2010PropOp38
 70
     1
102
RTVSPost2010Prop39
140
1.0
102
RTVSPost2010PropOp39
 70
     1
102
RTVSPost2010Prop40
 90
        0
102
RTVSPost2010PropOp40
 70
     1
102
RTVSPost2010Prop41ColorIndex
 90
       18
102
RTVSPost2010Prop41ColorRGB
 90
        0
102
RTVSPost2010PropOp41
 70
     1
102
RTVSPost2010Prop42
 90
       50
102
RTVSPost2010PropOp42
 70
     1
102
RTVSPost2010Prop43
 90
        3
102
RTVSPost2010PropOp43
 70
     1
102
RTVSPost2010Prop44ColorIndex
 90
        5
102
RTVSPost2010Prop44ColorRGB
 90
      255
102
RTVSPost2010PropOp44
 70
     1
102
RTVSPost2010Prop45
280
     0
102
RTVSPost2010PropOp45
 70
     1
102
RTVSPost2010Prop46
 90
       50
102
RTVSPost2010PropOp46
 70
     1
102
RTVSPost2010Prop47
 90
       50
102
RTVSPost2010PropOp47
 70
     1
102
RTVSPost2010Prop48
 90
       50
102
RTVSPost2010PropOp48
 70
     1
102
RTVSPost2010Prop49
280
     0
102
RTVSPost2010PropOp49
 70
     1
102
RTVSPost2010Prop50
 90
       50
102
RTVSPost2010PropOp50
 70
     1
102
RTVSPost2010Prop51ColorIndex
 90
      256
102
RTVSPost2010Prop51ColorRGB
 90
-16777216
102
RTVSPost2010PropOp51
 70
     0
102
RTVSPost2010Prop52
140
1.0
102
RTVSPost2010PropOp52
 70
     0
102
RTVSPost2010Prop53
 90
        2
102
RTVSPost2010PropOp53
 70
     1
102
RTVSPost2010Prop54
  1
strokes_ogs.tif
102
RTVSPost2010PropOp54
 70
     1
102
RTVSPost2010Prop55
280
     0
102
RTVSPost2010PropOp55
 70
     1
102
RTVSPost2010Prop56
140
1.0
102
RTVSPost2010PropOp56
 70
     1
102
RTVSPost2010Prop57
140
1.0
102
RTVSPost2010PropOp57
 70
     1
102
RTVSPropertyOp0
 70
     1
102
RTVSPropertyOp1
 70
     1
102
RTVSPropertyOp2
 70
     1
102
RTVSPropertyOp3
 70
     1
102
RTVSPropertyOp4
 70
     1
102
RTVSPropertyOp5
 70
     1
102
RTVSPropertyOp6
 70
     1
102
RTVSPropertyOp7
 70
     1
102
RTVSPropertyOp8
 70
     1
102
RTVSPropertyOp9
 70
     1
102
RTVSPropertyOp10
 70
     1
102
RTVSPropertyOp11
 70
     1
102
RTVSPropertyOp12
 70
     1
102
RTVSPropertyOp13
 70
     1
102
RTVSPropertyOp14
 70
     1
102
RTVSPropertyOp15
 70
     1
102
RTVSPropertyOp16
 70
     1
102
RTVSPropertyOp17
 70
     1
102
RTVSPropertyOp18
 70
     1
102
RTVSPropertyOp19
 70
     1
102
RTVSPropertyOp20
 70
     1
102
RTVSPropertyOp21
 70
     1
102
RTVSPropertyOp22
 70
     1
102
RTVSPropertyOp23
 70
     1
102
RTVSPropertyOp24
 70
     1
102
RTVSPropertyOp25
 70
     1
102
RTVSPropertyOp26
 70
     1
102
RTVSPropertyOp27
 70
     1
102
RTVSPropertyOp28
 70
     1
102
RTVSPropertyOp29
 70
     1
102
RTVSPropertyOp30
 70
     1
102
RTVSPropertyOp31
 70
     1
102
RTVSPropertyOp32
 70
     1
102
RTVSPropertyOp33
 70
     1
102
RTVSPropertyOp34
 70
     1
102
RTVSPropertyOp35
 70
     1
102
RTVSPropertyOp36
 70
     1
102
RTVSPropertyOp37
 70
     1
102
RTVSPropertyOp38
 70
     1
102
RTVSPropertyOp39
 70
     1
102
RTVSPropertyOp40
 70
     1
102
RTVSPropertyOp41
 70
     1
102
RTVSPropertyOp42
 70
     1
102
RTVSPropertyOp43
 70
     1
102
RTVSPropertyOp44
 70
     1
102
RTVSPropertyOp45
 70
     1
102
RTVSPropertyOp46
 70
     1
102
RTVSPropertyOp47
 70
     1
102
RTVSPropertyOp48
 70
     1
102
RTVSPropertyOp49
 70
     1
102
RTVSPropertyOp50
 70
     1
102
RTVSPropertyOp51
 70
     0
102
RTVSPropertyOp52
 70
     0
102
RTVSPropertyOp53
 70
     1
102
RTVSPropertyOp54
 70
     1
102
RTVSPropertyOp55
 70
     1
102
RTVSPropertyOp56
 70
     1
102
RTVSPropertyOp57
 70
     1
102
RTVSPropertyOp58
 70
     1
102
RTVSPropertyOp59
 70
     1
102
RTVSPropertyOp60
 70
     1
102
RTVSPropertyOp61
 70
     1
102
RTVSPropertyOp62
 70
     1
  0
XRECORD
  5
A6C2
102
{ACAD_REACTORS
330
A6C1
102
}
330
A6C1
100
AcDbXrecord
280
     1
102
RTVSPost2010Prop28
280
     0
102
RTVSPost2010PropOp28
 70
     1
102
RTVSPost2010Prop29
280
     1
102
RTVSPost2010PropOp29
 70
     1
102
RTVSPost2010Prop30
280
     1
102
RTVSPost2010PropOp30
 70
     1
102
RTVSPost2010Prop31
280
     0
102
RTVSPost2010PropOp31
 70
     1
102
RTVSPost2010Prop32
280
     0
102
RTVSPost2010PropOp32
 70
     1
102
RTVSPost2010Prop33
280
     0
102
RTVSPost2010PropOp33
 70
     1
102
RTVSPost2010Prop34
280
     0
102
RTVSPost2010PropOp34
 70
     1
102
RTVSPost2010Prop35
280
     0
102
RTVSPost2010PropOp35
 70
     1
102
RTVSPost2010Prop36
280
     0
102
RTVSPost2010PropOp36
 70
     1
102
RTVSPost2010Prop37
 90
       50
102
RTVSPost2010PropOp37
 70
     0
102
RTVSPost2010Prop38
140
0.0
102
RTVSPost2010PropOp38
 70
     0
102
RTVSPost2010Prop39
140
1.0
102
RTVSPost2010PropOp39
 70
     0
102
RTVSPost2010Prop40
 90
        0
102
RTVSPost2010PropOp40
 70
     0
102
RTVSPost2010Prop41ColorIndex
 90
       18
102
RTVSPost2010Prop41ColorRGB
 90
        0
102
RTVSPost2010PropOp41
 70
     0
102
RTVSPost2010Prop42
 90
       50
102
RTVSPost2010PropOp42
 70
     0
102
RTVSPost2010Prop43
 90
        3
102
RTVSPost2010PropOp43
 70
     0
102
RTVSPost2010Prop44ColorIndex
 90
        5
102
RTVSPost2010Prop44ColorRGB
 90
      255
102
RTVSPost2010PropOp44
 70
     0
102
RTVSPost2010Prop45
280
     0
102
RTVSPost2010PropOp45
 70
     1
102
RTVSPost2010Prop46
 90
       50
102
RTVSPost2010PropOp46
 70
     0
102
RTVSPost2010Prop47
 90
       50
102
RTVSPost2010PropOp47
 70
     0
102
RTVSPost2010Prop48
 90
       50
102
RTVSPost2010PropOp48
 70
     0
102
RTVSPost2010Prop49
280
     0
102
RTVSPost2010PropOp49
 70
     1
102
RTVSPost2010Prop50
 90
       50
102
RTVSPost2010PropOp50
 70
     0
102
RTVSPost2010Prop51ColorIndex
 90
      256
102
RTVSPost2010Prop51ColorRGB
 90
-16777216
102
RTVSPost2010PropOp51
 70
     0
102
RTVSPost2010Prop52
140
1.0
102
RTVSPost2010PropOp52
 70
     0
102
RTVSPost2010Prop53
 90
        2
102
RTVSPost2010PropOp53
 70
     0
102
RTVSPost2010Prop54
  1
strokes_ogs.tif
102
RTVSPost2010PropOp54
 70
     0
102
RTVSPost2010Prop55
280
     0
102
RTVSPost2010PropOp55
 70
     1
102
RTVSPost2010Prop56
140
1.0
102
RTVSPost2010PropOp56
 70
     0
102
RTVSPost2010Prop57
140
1.0
102
RTVSPost2010PropOp57
 70
     0
102
RTVSPropertyOp0
 70
     0
102
RTVSPropertyOp1
 70
     0
102
RTVSPropertyOp2
 70
     0
102
RTVSPropertyOp3
 70
     0
102
RTVSPropertyOp4
 70
     0
102
RTVSPropertyOp5
 70
     0
102
RTVSPropertyOp6
 70
     0
102
RTVSPropertyOp7
 70
     0
102
RTVSPropertyOp8
 70
     0
102
RTVSPropertyOp9
 70
     0
102
RTVSPropertyOp10
 70
     0
102
RTVSPropertyOp11
 70
     0
102
RTVSPropertyOp12
 70
     0
102
RTVSPropertyOp13
 70
     0
102
RTVSPropertyOp14
 70
     2
102
RTVSPropertyOp15
 70
     0
102
RTVSPropertyOp16
 70
     0
102
RTVSPropertyOp17
 70
     0
102
RTVSPropertyOp18
 70
     0
102
RTVSPropertyOp19
 70
     0
102
RTVSPropertyOp20
 70
     0
102
RTVSPropertyOp21
 70
     0
102
RTVSPropertyOp22
 70
     0
102
RTVSPropertyOp23
 70
     0
102
RTVSPropertyOp24
 70
     0
102
RTVSPropertyOp25
 70
     0
102
RTVSPropertyOp26
 70
     0
102
RTVSPropertyOp27
 70
     0
102
RTVSPropertyOp28
 70
     1
102
RTVSPropertyOp29
 70
     1
102
RTVSPropertyOp30
 70
     1
102
RTVSPropertyOp31
 70
     1
102
RTVSPropertyOp32
 70
     1
102
RTVSPropertyOp33
 70
     1
102
RTVSPropertyOp34
 70
     1
102
RTVSPropertyOp35
 70
     1
102
RTVSPropertyOp36
 70
     1
102
RTVSPropertyOp37
 70
     0
102
RTVSPropertyOp38
 70
     0
102
RTVSPropertyOp39
 70
     0
102
RTVSPropertyOp40
 70
     0
102
RTVSPropertyOp41
 70
     0
102
RTVSPropertyOp42
 70
     0
102
RTVSPropertyOp43
 70
     0
102
RTVSPropertyOp44
 70
     0
102
RTVSPropertyOp45
 70
     1
102
RTVSPropertyOp46
 70
     0
102
RTVSPropertyOp47
 70
     0
102
RTVSPropertyOp48
 70
     0
102
RTVSPropertyOp49
 70
     1
102
RTVSPropertyOp50
 70
     0
102
RTVSPropertyOp51
 70
     0
102
RTVSPropertyOp52
 70
     0
102
RTVSPropertyOp53
 70
     0
102
RTVSPropertyOp54
 70
     0
102
RTVSPropertyOp55
 70
     1
102
RTVSPropertyOp56
 70
     0
102
RTVSPropertyOp57
 70
     0
102
RTVSPropertyOp58
 70
     0
102
RTVSPropertyOp59
 70
     0
102
RTVSPropertyOp60
 70
     0
102
RTVSPropertyOp61
 70
     0
102
RTVSPropertyOp62
 70
     0
  0
XRECORD
  5
A6B2
102
{ACAD_REACTORS
330
A6B1
102
}
330
A6B1
100
AcDbXrecord
280
     1
102
RTVSPost2010Prop28
280
     0
102
RTVSPost2010PropOp28
 70
     1
102
RTVSPost2010Prop29
280
     1
102
RTVSPost2010PropOp29
 70
     1
102
RTVSPost2010Prop30
280
     1
102
RTVSPost2010PropOp30
 70
     1
102
RTVSPost2010Prop31
280
     0
102
RTVSPost2010PropOp31
 70
     1
102
RTVSPost2010Prop32
280
     0
102
RTVSPost2010PropOp32
 70
     1
102
RTVSPost2010Prop33
280
     0
102
RTVSPost2010PropOp33
 70
     1
102
RTVSPost2010Prop34
280
     0
102
RTVSPost2010PropOp34
 70
     1
102
RTVSPost2010Prop35
280
     0
102
RTVSPost2010PropOp35
 70
     1
102
RTVSPost2010Prop36
280
     0
102
RTVSPost2010PropOp36
 70
     1
102
RTVSPost2010Prop37
 90
       50
102
RTVSPost2010PropOp37
 70
     1
102
RTVSPost2010Prop38
140
0.0
102
RTVSPost2010PropOp38
 70
     1
102
RTVSPost2010Prop39
140
1.0
102
RTVSPost2010PropOp39
 70
     1
102
RTVSPost2010Prop40
 90
        0
102
RTVSPost2010PropOp40
 70
     1
102
RTVSPost2010Prop41ColorIndex
 90
       18
102
RTVSPost2010Prop41ColorRGB
 90
        0
102
RTVSPost2010PropOp41
 70
     1
102
RTVSPost2010Prop42
 90
       50
102
RTVSPost2010PropOp42
 70
     1
102
RTVSPost2010Prop43
 90
        3
102
RTVSPost2010PropOp43
 70
     1
102
RTVSPost2010Prop44ColorIndex
 90
        5
102
RTVSPost2010Prop44ColorRGB
 90
      255
102
RTVSPost2010PropOp44
 70
     1
102
RTVSPost2010Prop45
280
     0
102
RTVSPost2010PropOp45
 70
     1
102
RTVSPost2010Prop46
 90
       50
102
RTVSPost2010PropOp46
 70
     1
102
RTVSPost2010Prop47
 90
       50
102
RTVSPost2010PropOp47
 70
     1
102
RTVSPost2010Prop48
 90
       50
102
RTVSPost2010PropOp48
 70
     1
102
RTVSPost2010Prop49
280
     0
102
RTVSPost2010PropOp49
 70
     1
102
RTVSPost2010Prop50
 90
       50
102
RTVSPost2010PropOp50
 70
     1
102
RTVSPost2010Prop51ColorIndex
 90
      256
102
RTVSPost2010Prop51ColorRGB
 90
-16777216
102
RTVSPost2010PropOp51
 70
     0
102
RTVSPost2010Prop52
140
1.0
102
RTVSPost2010PropOp52
 70
     0
102
RTVSPost2010Prop53
 90
        2
102
RTVSPost2010PropOp53
 70
     1
102
RTVSPost2010Prop54
  1
strokes_ogs.tif
102
RTVSPost2010PropOp54
 70
     1
102
RTVSPost2010Prop55
280
     0
102
RTVSPost2010PropOp55
 70
     1
102
RTVSPost2010Prop56
140
1.0
102
RTVSPost2010PropOp56
 70
     1
102
RTVSPost2010Prop57
140
1.0
102
RTVSPost2010PropOp57
 70
     1
102
RTVSPropertyOp0
 70
     1
102
RTVSPropertyOp1
 70
     1
102
RTVSPropertyOp2
 70
     1
102
RTVSPropertyOp3
 70
     1
102
RTVSPropertyOp4
 70
     1
102
RTVSPropertyOp5
 70
     1
102
RTVSPropertyOp6
 70
     1
102
RTVSPropertyOp7
 70
     1
102
RTVSPropertyOp8
 70
     1
102
RTVSPropertyOp9
 70
     1
102
RTVSPropertyOp10
 70
     1
102
RTVSPropertyOp11
 70
     1
102
RTVSPropertyOp12
 70
     1
102
RTVSPropertyOp13
 70
     1
102
RTVSPropertyOp14
 70
     1
102
RTVSPropertyOp15
 70
     1
102
RTVSPropertyOp16
 70
     1
102
RTVSPropertyOp17
 70
     1
102
RTVSPropertyOp18
 70
     1
102
RTVSPropertyOp19
 70
     1
102
RTVSPropertyOp20
 70
     1
102
RTVSPropertyOp21
 70
     1
102
RTVSPropertyOp22
 70
     1
102
RTVSPropertyOp23
 70
     1
102
RTVSPropertyOp24
 70
     1
102
RTVSPropertyOp25
 70
     1
102
RTVSPropertyOp26
 70
     1
102
RTVSPropertyOp27
 70
     1
102
RTVSPropertyOp28
 70
     1
102
RTVSPropertyOp29
 70
     1
102
RTVSPropertyOp30
 70
     1
102
RTVSPropertyOp31
 70
     1
102
RTVSPropertyOp32
 70
     1
102
RTVSPropertyOp33
 70
     1
102
RTVSPropertyOp34
 70
     1
102
RTVSPropertyOp35
 70
     1
102
RTVSPropertyOp36
 70
     1
102
RTVSPropertyOp37
 70
     1
102
RTVSPropertyOp38
 70
     1
102
RTVSPropertyOp39
 70
     1
102
RTVSPropertyOp40
 70
     1
102
RTVSPropertyOp41
 70
     1
102
RTVSPropertyOp42
 70
     1
102
RTVSPropertyOp43
 70
     1
102
RTVSPropertyOp44
 70
     1
102
RTVSPropertyOp45
 70
     1
102
RTVSPropertyOp46
 70
     1
102
RTVSPropertyOp47
 70
     1
102
RTVSPropertyOp48
 70
     1
102
RTVSPropertyOp49
 70
     1
102
RTVSPropertyOp50
 70
     1
102
RTVSPropertyOp51
 70
     0
102
RTVSPropertyOp52
 70
     0
102
RTVSPropertyOp53
 70
     1
102
RTVSPropertyOp54
 70
     1
102
RTVSPropertyOp55
 70
     1
102
RTVSPropertyOp56
 70
     1
102
RTVSPropertyOp57
 70
     1
102
RTVSPropertyOp58
 70
     1
102
RTVSPropertyOp59
 70
     1
102
RTVSPropertyOp60
 70
     1
102
RTVSPropertyOp61
 70
     1
102
RTVSPropertyOp62
 70
     1
  0
XRECORD
  5
A6C4
102
{ACAD_REACTORS
330
A6C3
102
}
330
A6C3
100
AcDbXrecord
280
     1
102
RTVSPost2010Prop28
280
     0
102
RTVSPost2010PropOp28
 70
     1
102
RTVSPost2010Prop29
280
     1
102
RTVSPost2010PropOp29
 70
     1
102
RTVSPost2010Prop30
280
     1
102
RTVSPost2010PropOp30
 70
     1
102
RTVSPost2010Prop31
280
     0
102
RTVSPost2010PropOp31
 70
     1
102
RTVSPost2010Prop32
280
     0
102
RTVSPost2010PropOp32
 70
     1
102
RTVSPost2010Prop33
280
     0
102
RTVSPost2010PropOp33
 70
     1
102
RTVSPost2010Prop34
280
     0
102
RTVSPost2010PropOp34
 70
     1
102
RTVSPost2010Prop35
280
     0
102
RTVSPost2010PropOp35
 70
     1
102
RTVSPost2010Prop36
280
     0
102
RTVSPost2010PropOp36
 70
     1
102
RTVSPost2010Prop37
 90
       50
102
RTVSPost2010PropOp37
 70
     0
102
RTVSPost2010Prop38
140
0.0
102
RTVSPost2010PropOp38
 70
     0
102
RTVSPost2010Prop39
140
1.0
102
RTVSPost2010PropOp39
 70
     0
102
RTVSPost2010Prop40
 90
        0
102
RTVSPost2010PropOp40
 70
     0
102
RTVSPost2010Prop41ColorIndex
 90
       18
102
RTVSPost2010Prop41ColorRGB
 90
        0
102
RTVSPost2010PropOp41
 70
     0
102
RTVSPost2010Prop42
 90
       50
102
RTVSPost2010PropOp42
 70
     0
102
RTVSPost2010Prop43
 90
        3
102
RTVSPost2010PropOp43
 70
     0
102
RTVSPost2010Prop44ColorIndex
 90
        5
102
RTVSPost2010Prop44ColorRGB
 90
      255
102
RTVSPost2010PropOp44
 70
     0
102
RTVSPost2010Prop45
280
     0
102
RTVSPost2010PropOp45
 70
     1
102
RTVSPost2010Prop46
 90
       50
102
RTVSPost2010PropOp46
 70
     0
102
RTVSPost2010Prop47
 90
       50
102
RTVSPost2010PropOp47
 70
     0
102
RTVSPost2010Prop48
 90
       50
102
RTVSPost2010PropOp48
 70
     0
102
RTVSPost2010Prop49
280
     0
102
RTVSPost2010PropOp49
 70
     1
102
RTVSPost2010Prop50
 90
       50
102
RTVSPost2010PropOp50
 70
     0
102
RTVSPost2010Prop51ColorIndex
 90
      256
102
RTVSPost2010Prop51ColorRGB
 90
-16777216
102
RTVSPost2010PropOp51
 70
     0
102
RTVSPost2010Prop52
140
1.0
102
RTVSPost2010PropOp52
 70
     0
102
RTVSPost2010Prop53
 90
        2
102
RTVSPost2010PropOp53
 70
     0
102
RTVSPost2010Prop54
  1
strokes_ogs.tif
102
RTVSPost2010PropOp54
 70
     0
102
RTVSPost2010Prop55
280
     0
102
RTVSPost2010PropOp55
 70
     1
102
RTVSPost2010Prop56
140
1.0
102
RTVSPost2010PropOp56
 70
     0
102
RTVSPost2010Prop57
140
1.0
102
RTVSPost2010PropOp57
 70
     0
102
RTVSPropertyOp0
 70
     0
102
RTVSPropertyOp1
 70
     0
102
RTVSPropertyOp2
 70
     0
102
RTVSPropertyOp3
 70
     0
102
RTVSPropertyOp4
 70
     0
102
RTVSPropertyOp5
 70
     0
102
RTVSPropertyOp6
 70
     0
102
RTVSPropertyOp7
 70
     0
102
RTVSPropertyOp8
 70
     0
102
RTVSPropertyOp9
 70
     0
102
RTVSPropertyOp10
 70
     0
102
RTVSPropertyOp11
 70
     0
102
RTVSPropertyOp12
 70
     0
102
RTVSPropertyOp13
 70
     0
102
RTVSPropertyOp14
 70
     2
102
RTVSPropertyOp15
 70
     0
102
RTVSPropertyOp16
 70
     0
102
RTVSPropertyOp17
 70
     0
102
RTVSPropertyOp18
 70
     0
102
RTVSPropertyOp19
 70
     0
102
RTVSPropertyOp20
 70
     0
102
RTVSPropertyOp21
 70
     0
102
RTVSPropertyOp22
 70
     0
102
RTVSPropertyOp23
 70
     0
102
RTVSPropertyOp24
 70
     0
102
RTVSPropertyOp25
 70
     0
102
RTVSPropertyOp26
 70
     0
102
RTVSPropertyOp27
 70
     0
102
RTVSPropertyOp28
 70
     1
102
RTVSPropertyOp29
 70
     1
102
RTVSPropertyOp30
 70
     1
102
RTVSPropertyOp31
 70
     1
102
RTVSPropertyOp32
 70
     1
102
RTVSPropertyOp33
 70
     1
102
RTVSPropertyOp34
 70
     1
102
RTVSPropertyOp35
 70
     1
102
RTVSPropertyOp36
 70
     1
102
RTVSPropertyOp37
 70
     0
102
RTVSPropertyOp38
 70
     0
102
RTVSPropertyOp39
 70
     0
102
RTVSPropertyOp40
 70
     0
102
RTVSPropertyOp41
 70
     0
102
RTVSPropertyOp42
 70
     0
102
RTVSPropertyOp43
 70
     0
102
RTVSPropertyOp44
 70
     0
102
RTVSPropertyOp45
 70
     1
102
RTVSPropertyOp46
 70
     0
102
RTVSPropertyOp47
 70
     0
102
RTVSPropertyOp48
 70
     0
102
RTVSPropertyOp49
 70
     1
102
RTVSPropertyOp50
 70
     0
102
RTVSPropertyOp51
 70
     0
102
RTVSPropertyOp52
 70
     0
102
RTVSPropertyOp53
 70
     0
102
RTVSPropertyOp54
 70
     0
102
RTVSPropertyOp55
 70
     1
102
RTVSPropertyOp56
 70
     0
102
RTVSPropertyOp57
 70
     0
102
RTVSPropertyOp58
 70
     0
102
RTVSPropertyOp59
 70
     0
102
RTVSPropertyOp60
 70
     0
102
RTVSPropertyOp61
 70
     0
102
RTVSPropertyOp62
 70
     0
  0
XRECORD
  5
A6AA
102
{ACAD_REACTORS
330
A6A9
102
}
330
A6A9
100
AcDbXrecord
280
     1
102
RTVSPost2010Prop28
280
     0
102
RTVSPost2010PropOp28
 70
     1
102
RTVSPost2010Prop29
280
     1
102
RTVSPost2010PropOp29
 70
     1
102
RTVSPost2010Prop30
280
     1
102
RTVSPost2010PropOp30
 70
     1
102
RTVSPost2010Prop31
280
     0
102
RTVSPost2010PropOp31
 70
     1
102
RTVSPost2010Prop32
280
     0
102
RTVSPost2010PropOp32
 70
     1
102
RTVSPost2010Prop33
280
     0
102
RTVSPost2010PropOp33
 70
     1
102
RTVSPost2010Prop34
280
     0
102
RTVSPost2010PropOp34
 70
     1
102
RTVSPost2010Prop35
280
     0
102
RTVSPost2010PropOp35
 70
     1
102
RTVSPost2010Prop36
280
     0
102
RTVSPost2010PropOp36
 70
     1
102
RTVSPost2010Prop37
 90
       50
102
RTVSPost2010PropOp37
 70
     1
102
RTVSPost2010Prop38
140
0.0
102
RTVSPost2010PropOp38
 70
     1
102
RTVSPost2010Prop39
140
1.0
102
RTVSPost2010PropOp39
 70
     1
102
RTVSPost2010Prop40
 90
        0
102
RTVSPost2010PropOp40
 70
     1
102
RTVSPost2010Prop41ColorIndex
 90
       18
102
RTVSPost2010Prop41ColorRGB
 90
        0
102
RTVSPost2010PropOp41
 70
     1
102
RTVSPost2010Prop42
 90
       50
102
RTVSPost2010PropOp42
 70
     1
102
RTVSPost2010Prop43
 90
        3
102
RTVSPost2010PropOp43
 70
     1
102
RTVSPost2010Prop44ColorIndex
 90
        5
102
RTVSPost2010Prop44ColorRGB
 90
      255
102
RTVSPost2010PropOp44
 70
     1
102
RTVSPost2010Prop45
280
     0
102
RTVSPost2010PropOp45
 70
     1
102
RTVSPost2010Prop46
 90
       50
102
RTVSPost2010PropOp46
 70
     1
102
RTVSPost2010Prop47
 90
       50
102
RTVSPost2010PropOp47
 70
     1
102
RTVSPost2010Prop48
 90
       50
102
RTVSPost2010PropOp48
 70
     1
102
RTVSPost2010Prop49
280
     0
102
RTVSPost2010PropOp49
 70
     1
102
RTVSPost2010Prop50
 90
       50
102
RTVSPost2010PropOp50
 70
     1
102
RTVSPost2010Prop51ColorIndex
 90
      256
102
RTVSPost2010Prop51ColorRGB
 90
-16777216
102
RTVSPost2010PropOp51
 70
     0
102
RTVSPost2010Prop52
140
1.0
102
RTVSPost2010PropOp52
 70
     0
102
RTVSPost2010Prop53
 90
        2
102
RTVSPost2010PropOp53
 70
     1
102
RTVSPost2010Prop54
  1
strokes_ogs.tif
102
RTVSPost2010PropOp54
 70
     1
102
RTVSPost2010Prop55
280
     0
102
RTVSPost2010PropOp55
 70
     1
102
RTVSPost2010Prop56
140
1.0
102
RTVSPost2010PropOp56
 70
     1
102
RTVSPost2010Prop57
140
1.0
102
RTVSPost2010PropOp57
 70
     1
102
RTVSPropertyOp0
 70
     1
102
RTVSPropertyOp1
 70
     1
102
RTVSPropertyOp2
 70
     1
102
RTVSPropertyOp3
 70
     1
102
RTVSPropertyOp4
 70
     1
102
RTVSPropertyOp5
 70
     1
102
RTVSPropertyOp6
 70
     1
102
RTVSPropertyOp7
 70
     1
102
RTVSPropertyOp8
 70
     1
102
RTVSPropertyOp9
 70
     1
102
RTVSPropertyOp10
 70
     1
102
RTVSPropertyOp11
 70
     1
102
RTVSPropertyOp12
 70
     1
102
RTVSPropertyOp13
 70
     1
102
RTVSPropertyOp14
 70
     1
102
RTVSPropertyOp15
 70
     1
102
RTVSPropertyOp16
 70
     1
102
RTVSPropertyOp17
 70
     1
102
RTVSPropertyOp18
 70
     1
102
RTVSPropertyOp19
 70
     1
102
RTVSPropertyOp20
 70
     1
102
RTVSPropertyOp21
 70
     1
102
RTVSPropertyOp22
 70
     1
102
RTVSPropertyOp23
 70
     1
102
RTVSPropertyOp24
 70
     1
102
RTVSPropertyOp25
 70
     1
102
RTVSPropertyOp26
 70
     1
102
RTVSPropertyOp27
 70
     1
102
RTVSPropertyOp28
 70
     1
102
RTVSPropertyOp29
 70
     1
102
RTVSPropertyOp30
 70
     1
102
RTVSPropertyOp31
 70
     1
102
RTVSPropertyOp32
 70
     1
102
RTVSPropertyOp33
 70
     1
102
RTVSPropertyOp34
 70
     1
102
RTVSPropertyOp35
 70
     1
102
RTVSPropertyOp36
 70
     1
102
RTVSPropertyOp37
 70
     1
102
RTVSPropertyOp38
 70
     1
102
RTVSPropertyOp39
 70
     1
102
RTVSPropertyOp40
 70
     1
102
RTVSPropertyOp41
 70
     1
102
RTVSPropertyOp42
 70
     1
102
RTVSPropertyOp43
 70
     1
102
RTVSPropertyOp44
 70
     1
102
RTVSPropertyOp45
 70
     1
102
RTVSPropertyOp46
 70
     1
102
RTVSPropertyOp47
 70
     1
102
RTVSPropertyOp48
 70
     1
102
RTVSPropertyOp49
 70
     1
102
RTVSPropertyOp50
 70
     1
102
RTVSPropertyOp51
 70
     0
102
RTVSPropertyOp52
 70
     0
102
RTVSPropertyOp53
 70
     1
102
RTVSPropertyOp54
 70
     1
102
RTVSPropertyOp55
 70
     1
102
RTVSPropertyOp56
 70
     1
102
RTVSPropertyOp57
 70
     1
102
RTVSPropertyOp58
 70
     1
102
RTVSPropertyOp59
 70
     1
102
RTVSPropertyOp60
 70
     1
102
RTVSPropertyOp61
 70
     1
102
RTVSPropertyOp62
 70
     1
  0
XRECORD
  5
A6C0
102
{ACAD_REACTORS
330
A6BF
102
}
330
A6BF
100
AcDbXrecord
280
     1
102
RTVSPost2010Prop28
280
     0
102
RTVSPost2010PropOp28
 70
     1
102
RTVSPost2010Prop29
280
     1
102
RTVSPost2010PropOp29
 70
     1
102
RTVSPost2010Prop30
280
     1
102
RTVSPost2010PropOp30
 70
     1
102
RTVSPost2010Prop31
280
     0
102
RTVSPost2010PropOp31
 70
     1
102
RTVSPost2010Prop32
280
     0
102
RTVSPost2010PropOp32
 70
     1
102
RTVSPost2010Prop33
280
     0
102
RTVSPost2010PropOp33
 70
     1
102
RTVSPost2010Prop34
280
     0
102
RTVSPost2010PropOp34
 70
     1
102
RTVSPost2010Prop35
280
     0
102
RTVSPost2010PropOp35
 70
     1
102
RTVSPost2010Prop36
280
     0
102
RTVSPost2010PropOp36
 70
     1
102
RTVSPost2010Prop37
 90
       50
102
RTVSPost2010PropOp37
 70
     1
102
RTVSPost2010Prop38
140
0.0
102
RTVSPost2010PropOp38
 70
     1
102
RTVSPost2010Prop39
140
1.0
102
RTVSPost2010PropOp39
 70
     1
102
RTVSPost2010Prop40
 90
        0
102
RTVSPost2010PropOp40
 70
     1
102
RTVSPost2010Prop41ColorIndex
 90
       18
102
RTVSPost2010Prop41ColorRGB
 90
        0
102
RTVSPost2010PropOp41
 70
     1
102
RTVSPost2010Prop42
 90
       50
102
RTVSPost2010PropOp42
 70
     1
102
RTVSPost2010Prop43
 90
        3
102
RTVSPost2010PropOp43
 70
     1
102
RTVSPost2010Prop44ColorIndex
 90
        5
102
RTVSPost2010Prop44ColorRGB
 90
      255
102
RTVSPost2010PropOp44
 70
     1
102
RTVSPost2010Prop45
280
     0
102
RTVSPost2010PropOp45
 70
     1
102
RTVSPost2010Prop46
 90
       50
102
RTVSPost2010PropOp46
 70
     1
102
RTVSPost2010Prop47
 90
       50
102
RTVSPost2010PropOp47
 70
     1
102
RTVSPost2010Prop48
 90
       50
102
RTVSPost2010PropOp48
 70
     1
102
RTVSPost2010Prop49
280
     0
102
RTVSPost2010PropOp49
 70
     1
102
RTVSPost2010Prop50
 90
       50
102
RTVSPost2010PropOp50
 70
     1
102
RTVSPost2010Prop51ColorIndex
 90
      256
102
RTVSPost2010Prop51ColorRGB
 90
-16777216
102
RTVSPost2010PropOp51
 70
     0
102
RTVSPost2010Prop52
140
1.0
102
RTVSPost2010PropOp52
 70
     0
102
RTVSPost2010Prop53
 90
        2
102
RTVSPost2010PropOp53
 70
     1
102
RTVSPost2010Prop54
  1
strokes_ogs.tif
102
RTVSPost2010PropOp54
 70
     1
102
RTVSPost2010Prop55
280
     0
102
RTVSPost2010PropOp55
 70
     1
102
RTVSPost2010Prop56
140
1.0
102
RTVSPost2010PropOp56
 70
     1
102
RTVSPost2010Prop57
140
1.0
102
RTVSPost2010PropOp57
 70
     1
102
RTVSPropertyOp0
 70
     1
102
RTVSPropertyOp1
 70
     1
102
RTVSPropertyOp2
 70
     1
102
RTVSPropertyOp3
 70
     1
102
RTVSPropertyOp4
 70
     1
102
RTVSPropertyOp5
 70
     1
102
RTVSPropertyOp6
 70
     1
102
RTVSPropertyOp7
 70
     1
102
RTVSPropertyOp8
 70
     1
102
RTVSPropertyOp9
 70
     1
102
RTVSPropertyOp10
 70
     1
102
RTVSPropertyOp11
 70
     1
102
RTVSPropertyOp12
 70
     1
102
RTVSPropertyOp13
 70
     1
102
RTVSPropertyOp14
 70
     1
102
RTVSPropertyOp15
 70
     1
102
RTVSPropertyOp16
 70
     1
102
RTVSPropertyOp17
 70
     1
102
RTVSPropertyOp18
 70
     1
102
RTVSPropertyOp19
 70
     1
102
RTVSPropertyOp20
 70
     1
102
RTVSPropertyOp21
 70
     1
102
RTVSPropertyOp22
 70
     1
102
RTVSPropertyOp23
 70
     1
102
RTVSPropertyOp24
 70
     1
102
RTVSPropertyOp25
 70
     1
102
RTVSPropertyOp26
 70
     1
102
RTVSPropertyOp27
 70
     1
102
RTVSPropertyOp28
 70
     1
102
RTVSPropertyOp29
 70
     1
102
RTVSPropertyOp30
 70
     1
102
RTVSPropertyOp31
 70
     1
102
RTVSPropertyOp32
 70
     1
102
RTVSPropertyOp33
 70
     1
102
RTVSPropertyOp34
 70
     1
102
RTVSPropertyOp35
 70
     1
102
RTVSPropertyOp36
 70
     1
102
RTVSPropertyOp37
 70
     1
102
RTVSPropertyOp38
 70
     1
102
RTVSPropertyOp39
 70
     1
102
RTVSPropertyOp40
 70
     1
102
RTVSPropertyOp41
 70
     1
102
RTVSPropertyOp42
 70
     1
102
RTVSPropertyOp43
 70
     1
102
RTVSPropertyOp44
 70
     1
102
RTVSPropertyOp45
 70
     1
102
RTVSPropertyOp46
 70
     1
102
RTVSPropertyOp47
 70
     1
102
RTVSPropertyOp48
 70
     1
102
RTVSPropertyOp49
 70
     1
102
RTVSPropertyOp50
 70
     1
102
RTVSPropertyOp51
 70
     0
102
RTVSPropertyOp52
 70
     0
102
RTVSPropertyOp53
 70
     1
102
RTVSPropertyOp54
 70
     1
102
RTVSPropertyOp55
 70
     1
102
RTVSPropertyOp56
 70
     1
102
RTVSPropertyOp57
 70
     1
102
RTVSPropertyOp58
 70
     1
102
RTVSPropertyOp59
 70
     1
102
RTVSPropertyOp60
 70
     1
102
RTVSPropertyOp61
 70
     1
102
RTVSPropertyOp62
 70
     1
  0
XRECORD
  5
A6BE
102
{ACAD_REACTORS
330
A6BD
102
}
330
A6BD
100
AcDbXrecord
280
     1
102
RTVSPost2010Prop28
280
     0
102
RTVSPost2010PropOp28
 70
     1
102
RTVSPost2010Prop29
280
     1
102
RTVSPost2010PropOp29
 70
     1
102
RTVSPost2010Prop30
280
     1
102
RTVSPost2010PropOp30
 70
     1
102
RTVSPost2010Prop31
280
     0
102
RTVSPost2010PropOp31
 70
     1
102
RTVSPost2010Prop32
280
     0
102
RTVSPost2010PropOp32
 70
     1
102
RTVSPost2010Prop33
280
     0
102
RTVSPost2010PropOp33
 70
     1
102
RTVSPost2010Prop34
280
     0
102
RTVSPost2010PropOp34
 70
     1
102
RTVSPost2010Prop35
280
     0
102
RTVSPost2010PropOp35
 70
     1
102
RTVSPost2010Prop36
280
     0
102
RTVSPost2010PropOp36
 70
     1
102
RTVSPost2010Prop37
 90
       50
102
RTVSPost2010PropOp37
 70
     1
102
RTVSPost2010Prop38
140
0.0
102
RTVSPost2010PropOp38
 70
     1
102
RTVSPost2010Prop39
140
1.0
102
RTVSPost2010PropOp39
 70
     1
102
RTVSPost2010Prop40
 90
        0
102
RTVSPost2010PropOp40
 70
     1
102
RTVSPost2010Prop41ColorIndex
 90
       18
102
RTVSPost2010Prop41ColorRGB
 90
        0
102
RTVSPost2010PropOp41
 70
     1
102
RTVSPost2010Prop42
 90
       50
102
RTVSPost2010PropOp42
 70
     1
102
RTVSPost2010Prop43
 90
        3
102
RTVSPost2010PropOp43
 70
     1
102
RTVSPost2010Prop44ColorIndex
 90
        5
102
RTVSPost2010Prop44ColorRGB
 90
      255
102
RTVSPost2010PropOp44
 70
     1
102
RTVSPost2010Prop45
280
     0
102
RTVSPost2010PropOp45
 70
     1
102
RTVSPost2010Prop46
 90
       50
102
RTVSPost2010PropOp46
 70
     1
102
RTVSPost2010Prop47
 90
       50
102
RTVSPost2010PropOp47
 70
     1
102
RTVSPost2010Prop48
 90
       50
102
RTVSPost2010PropOp48
 70
     1
102
RTVSPost2010Prop49
280
     0
102
RTVSPost2010PropOp49
 70
     1
102
RTVSPost2010Prop50
 90
       50
102
RTVSPost2010PropOp50
 70
     1
102
RTVSPost2010Prop51ColorIndex
 90
      256
102
RTVSPost2010Prop51ColorRGB
 90
-16777216
102
RTVSPost2010PropOp51
 70
     0
102
RTVSPost2010Prop52
140
1.0
102
RTVSPost2010PropOp52
 70
     0
102
RTVSPost2010Prop53
 90
        2
102
RTVSPost2010PropOp53
 70
     1
102
RTVSPost2010Prop54
  1
strokes_ogs.tif
102
RTVSPost2010PropOp54
 70
     1
102
RTVSPost2010Prop55
280
     0
102
RTVSPost2010PropOp55
 70
     1
102
RTVSPost2010Prop56
140
1.0
102
RTVSPost2010PropOp56
 70
     1
102
RTVSPost2010Prop57
140
1.0
102
RTVSPost2010PropOp57
 70
     1
102
RTVSPropertyOp0
 70
     1
102
RTVSPropertyOp1
 70
     1
102
RTVSPropertyOp2
 70
     1
102
RTVSPropertyOp3
 70
     1
102
RTVSPropertyOp4
 70
     1
102
RTVSPropertyOp5
 70
     1
102
RTVSPropertyOp6
 70
     1
102
RTVSPropertyOp7
 70
     1
102
RTVSPropertyOp8
 70
     1
102
RTVSPropertyOp9
 70
     1
102
RTVSPropertyOp10
 70
     1
102
RTVSPropertyOp11
 70
     1
102
RTVSPropertyOp12
 70
     1
102
RTVSPropertyOp13
 70
     1
102
RTVSPropertyOp14
 70
     1
102
RTVSPropertyOp15
 70
     1
102
RTVSPropertyOp16
 70
     1
102
RTVSPropertyOp17
 70
     1
102
RTVSPropertyOp18
 70
     1
102
RTVSPropertyOp19
 70
     1
102
RTVSPropertyOp20
 70
     1
102
RTVSPropertyOp21
 70
     1
102
RTVSPropertyOp22
 70
     1
102
RTVSPropertyOp23
 70
     1
102
RTVSPropertyOp24
 70
     1
102
RTVSPropertyOp25
 70
     1
102
RTVSPropertyOp26
 70
     1
102
RTVSPropertyOp27
 70
     1
102
RTVSPropertyOp28
 70
     1
102
RTVSPropertyOp29
 70
     1
102
RTVSPropertyOp30
 70
     1
102
RTVSPropertyOp31
 70
     1
102
RTVSPropertyOp32
 70
     1
102
RTVSPropertyOp33
 70
     1
102
RTVSPropertyOp34
 70
     1
102
RTVSPropertyOp35
 70
     1
102
RTVSPropertyOp36
 70
     1
102
RTVSPropertyOp37
 70
     1
102
RTVSPropertyOp38
 70
     1
102
RTVSPropertyOp39
 70
     1
102
RTVSPropertyOp40
 70
     1
102
RTVSPropertyOp41
 70
     1
102
RTVSPropertyOp42
 70
     1
102
RTVSPropertyOp43
 70
     1
102
RTVSPropertyOp44
 70
     1
102
RTVSPropertyOp45
 70
     1
102
RTVSPropertyOp46
 70
     1
102
RTVSPropertyOp47
 70
     1
102
RTVSPropertyOp48
 70
     1
102
RTVSPropertyOp49
 70
     1
102
RTVSPropertyOp50
 70
     1
102
RTVSPropertyOp51
 70
     0
102
RTVSPropertyOp52
 70
     0
102
RTVSPropertyOp53
 70
     1
102
RTVSPropertyOp54
 70
     1
102
RTVSPropertyOp55
 70
     1
102
RTVSPropertyOp56
 70
     1
102
RTVSPropertyOp57
 70
     1
102
RTVSPropertyOp58
 70
     1
102
RTVSPropertyOp59
 70
     1
102
RTVSPropertyOp60
 70
     1
102
RTVSPropertyOp61
 70
     1
102
RTVSPropertyOp62
 70
     1
  0
XRECORD
  5
A6B8
102
{ACAD_REACTORS
330
A6B7
102
}
330
A6B7
100
AcDbXrecord
280
     1
102
RTVSPost2010Prop28
280
     0
102
RTVSPost2010PropOp28
 70
     1
102
RTVSPost2010Prop29
280
     1
102
RTVSPost2010PropOp29
 70
     1
102
RTVSPost2010Prop30
280
     1
102
RTVSPost2010PropOp30
 70
     1
102
RTVSPost2010Prop31
280
     0
102
RTVSPost2010PropOp31
 70
     1
102
RTVSPost2010Prop32
280
     0
102
RTVSPost2010PropOp32
 70
     1
102
RTVSPost2010Prop33
280
     0
102
RTVSPost2010PropOp33
 70
     1
102
RTVSPost2010Prop34
280
     0
102
RTVSPost2010PropOp34
 70
     1
102
RTVSPost2010Prop35
280
     0
102
RTVSPost2010PropOp35
 70
     1
102
RTVSPost2010Prop36
280
     0
102
RTVSPost2010PropOp36
 70
     1
102
RTVSPost2010Prop37
 90
       50
102
RTVSPost2010PropOp37
 70
     1
102
RTVSPost2010Prop38
140
0.0
102
RTVSPost2010PropOp38
 70
     1
102
RTVSPost2010Prop39
140
1.0
102
RTVSPost2010PropOp39
 70
     1
102
RTVSPost2010Prop40
 90
        0
102
RTVSPost2010PropOp40
 70
     1
102
RTVSPost2010Prop41ColorIndex
 90
       18
102
RTVSPost2010Prop41ColorRGB
 90
        0
102
RTVSPost2010PropOp41
 70
     1
102
RTVSPost2010Prop42
 90
       50
102
RTVSPost2010PropOp42
 70
     1
102
RTVSPost2010Prop43
 90
        3
102
RTVSPost2010PropOp43
 70
     1
102
RTVSPost2010Prop44ColorIndex
 90
        5
102
RTVSPost2010Prop44ColorRGB
 90
      255
102
RTVSPost2010PropOp44
 70
     1
102
RTVSPost2010Prop45
280
     0
102
RTVSPost2010PropOp45
 70
     1
102
RTVSPost2010Prop46
 90
       50
102
RTVSPost2010PropOp46
 70
     1
102
RTVSPost2010Prop47
 90
       50
102
RTVSPost2010PropOp47
 70
     1
102
RTVSPost2010Prop48
 90
       50
102
RTVSPost2010PropOp48
 70
     1
102
RTVSPost2010Prop49
280
     0
102
RTVSPost2010PropOp49
 70
     1
102
RTVSPost2010Prop50
 90
       50
102
RTVSPost2010PropOp50
 70
     1
102
RTVSPost2010Prop51ColorIndex
 90
      256
102
RTVSPost2010Prop51ColorRGB
 90
-16777216
102
RTVSPost2010PropOp51
 70
     0
102
RTVSPost2010Prop52
140
1.0
102
RTVSPost2010PropOp52
 70
     0
102
RTVSPost2010Prop53
 90
        2
102
RTVSPost2010PropOp53
 70
     1
102
RTVSPost2010Prop54
  1
strokes_ogs.tif
102
RTVSPost2010PropOp54
 70
     1
102
RTVSPost2010Prop55
280
     0
102
RTVSPost2010PropOp55
 70
     1
102
RTVSPost2010Prop56
140
1.0
102
RTVSPost2010PropOp56
 70
     1
102
RTVSPost2010Prop57
140
1.0
102
RTVSPost2010PropOp57
 70
     1
102
RTVSPropertyOp0
 70
     1
102
RTVSPropertyOp1
 70
     1
102
RTVSPropertyOp2
 70
     1
102
RTVSPropertyOp3
 70
     1
102
RTVSPropertyOp4
 70
     1
102
RTVSPropertyOp5
 70
     1
102
RTVSPropertyOp6
 70
     1
102
RTVSPropertyOp7
 70
     1
102
RTVSPropertyOp8
 70
     1
102
RTVSPropertyOp9
 70
     1
102
RTVSPropertyOp10
 70
     1
102
RTVSPropertyOp11
 70
     1
102
RTVSPropertyOp12
 70
     1
102
RTVSPropertyOp13
 70
     1
102
RTVSPropertyOp14
 70
     1
102
RTVSPropertyOp15
 70
     1
102
RTVSPropertyOp16
 70
     1
102
RTVSPropertyOp17
 70
     1
102
RTVSPropertyOp18
 70
     1
102
RTVSPropertyOp19
 70
     1
102
RTVSPropertyOp20
 70
     1
102
RTVSPropertyOp21
 70
     1
102
RTVSPropertyOp22
 70
     1
102
RTVSPropertyOp23
 70
     1
102
RTVSPropertyOp24
 70
     1
102
RTVSPropertyOp25
 70
     1
102
RTVSPropertyOp26
 70
     1
102
RTVSPropertyOp27
 70
     1
102
RTVSPropertyOp28
 70
     1
102
RTVSPropertyOp29
 70
     1
102
RTVSPropertyOp30
 70
     1
102
RTVSPropertyOp31
 70
     1
102
RTVSPropertyOp32
 70
     1
102
RTVSPropertyOp33
 70
     1
102
RTVSPropertyOp34
 70
     1
102
RTVSPropertyOp35
 70
     1
102
RTVSPropertyOp36
 70
     1
102
RTVSPropertyOp37
 70
     1
102
RTVSPropertyOp38
 70
     1
102
RTVSPropertyOp39
 70
     1
102
RTVSPropertyOp40
 70
     1
102
RTVSPropertyOp41
 70
     1
102
RTVSPropertyOp42
 70
     1
102
RTVSPropertyOp43
 70
     1
102
RTVSPropertyOp44
 70
     1
102
RTVSPropertyOp45
 70
     1
102
RTVSPropertyOp46
 70
     1
102
RTVSPropertyOp47
 70
     1
102
RTVSPropertyOp48
 70
     1
102
RTVSPropertyOp49
 70
     1
102
RTVSPropertyOp50
 70
     1
102
RTVSPropertyOp51
 70
     0
102
RTVSPropertyOp52
 70
     0
102
RTVSPropertyOp53
 70
     1
102
RTVSPropertyOp54
 70
     1
102
RTVSPropertyOp55
 70
     1
102
RTVSPropertyOp56
 70
     1
102
RTVSPropertyOp57
 70
     1
102
RTVSPropertyOp58
 70
     1
102
RTVSPropertyOp59
 70
     1
102
RTVSPropertyOp60
 70
     1
102
RTVSPropertyOp61
 70
     1
102
RTVSPropertyOp62
 70
     1
  0
XRECORD
  5
A6BA
102
{ACAD_REACTORS
330
A6B9
102
}
330
A6B9
100
AcDbXrecord
280
     1
102
RTVSPost2010Prop28
280
     0
102
RTVSPost2010PropOp28
 70
     1
102
RTVSPost2010Prop29
280
     1
102
RTVSPost2010PropOp29
 70
     1
102
RTVSPost2010Prop30
280
     1
102
RTVSPost2010PropOp30
 70
     1
102
RTVSPost2010Prop31
280
     0
102
RTVSPost2010PropOp31
 70
     1
102
RTVSPost2010Prop32
280
     0
102
RTVSPost2010PropOp32
 70
     1
102
RTVSPost2010Prop33
280
     0
102
RTVSPost2010PropOp33
 70
     1
102
RTVSPost2010Prop34
280
     0
102
RTVSPost2010PropOp34
 70
     1
102
RTVSPost2010Prop35
280
     0
102
RTVSPost2010PropOp35
 70
     1
102
RTVSPost2010Prop36
280
     0
102
RTVSPost2010PropOp36
 70
     1
102
RTVSPost2010Prop37
 90
       50
102
RTVSPost2010PropOp37
 70
     1
102
RTVSPost2010Prop38
140
0.0
102
RTVSPost2010PropOp38
 70
     1
102
RTVSPost2010Prop39
140
1.0
102
RTVSPost2010PropOp39
 70
     1
102
RTVSPost2010Prop40
 90
        0
102
RTVSPost2010PropOp40
 70
     1
102
RTVSPost2010Prop41ColorIndex
 90
       18
102
RTVSPost2010Prop41ColorRGB
 90
        0
102
RTVSPost2010PropOp41
 70
     1
102
RTVSPost2010Prop42
 90
       50
102
RTVSPost2010PropOp42
 70
     1
102
RTVSPost2010Prop43
 90
        3
102
RTVSPost2010PropOp43
 70
     1
102
RTVSPost2010Prop44ColorIndex
 90
        5
102
RTVSPost2010Prop44ColorRGB
 90
      255
102
RTVSPost2010PropOp44
 70
     1
102
RTVSPost2010Prop45
280
     0
102
RTVSPost2010PropOp45
 70
     1
102
RTVSPost2010Prop46
 90
       50
102
RTVSPost2010PropOp46
 70
     1
102
RTVSPost2010Prop47
 90
       50
102
RTVSPost2010PropOp47
 70
     1
102
RTVSPost2010Prop48
 90
       50
102
RTVSPost2010PropOp48
 70
     1
102
RTVSPost2010Prop49
280
     0
102
RTVSPost2010PropOp49
 70
     1
102
RTVSPost2010Prop50
 90
       50
102
RTVSPost2010PropOp50
 70
     1
102
RTVSPost2010Prop51ColorIndex
 90
      256
102
RTVSPost2010Prop51ColorRGB
 90
-16777216
102
RTVSPost2010PropOp51
 70
     0
102
RTVSPost2010Prop52
140
1.0
102
RTVSPost2010PropOp52
 70
     0
102
RTVSPost2010Prop53
 90
        2
102
RTVSPost2010PropOp53
 70
     1
102
RTVSPost2010Prop54
  1
strokes_ogs.tif
102
RTVSPost2010PropOp54
 70
     1
102
RTVSPost2010Prop55
280
     0
102
RTVSPost2010PropOp55
 70
     1
102
RTVSPost2010Prop56
140
1.0
102
RTVSPost2010PropOp56
 70
     1
102
RTVSPost2010Prop57
140
1.0
102
RTVSPost2010PropOp57
 70
     1
102
RTVSPropertyOp0
 70
     1
102
RTVSPropertyOp1
 70
     1
102
RTVSPropertyOp2
 70
     1
102
RTVSPropertyOp3
 70
     1
102
RTVSPropertyOp4
 70
     1
102
RTVSPropertyOp5
 70
     1
102
RTVSPropertyOp6
 70
     1
102
RTVSPropertyOp7
 70
     1
102
RTVSPropertyOp8
 70
     1
102
RTVSPropertyOp9
 70
     1
102
RTVSPropertyOp10
 70
     1
102
RTVSPropertyOp11
 70
     1
102
RTVSPropertyOp12
 70
     1
102
RTVSPropertyOp13
 70
     1
102
RTVSPropertyOp14
 70
     1
102
RTVSPropertyOp15
 70
     1
102
RTVSPropertyOp16
 70
     1
102
RTVSPropertyOp17
 70
     1
102
RTVSPropertyOp18
 70
     1
102
RTVSPropertyOp19
 70
     1
102
RTVSPropertyOp20
 70
     1
102
RTVSPropertyOp21
 70
     1
102
RTVSPropertyOp22
 70
     1
102
RTVSPropertyOp23
 70
     1
102
RTVSPropertyOp24
 70
     1
102
RTVSPropertyOp25
 70
     1
102
RTVSPropertyOp26
 70
     1
102
RTVSPropertyOp27
 70
     1
102
RTVSPropertyOp28
 70
     1
102
RTVSPropertyOp29
 70
     1
102
RTVSPropertyOp30
 70
     1
102
RTVSPropertyOp31
 70
     1
102
RTVSPropertyOp32
 70
     1
102
RTVSPropertyOp33
 70
     1
102
RTVSPropertyOp34
 70
     1
102
RTVSPropertyOp35
 70
     1
102
RTVSPropertyOp36
 70
     1
102
RTVSPropertyOp37
 70
     1
102
RTVSPropertyOp38
 70
     1
102
RTVSPropertyOp39
 70
     1
102
RTVSPropertyOp40
 70
     1
102
RTVSPropertyOp41
 70
     1
102
RTVSPropertyOp42
 70
     1
102
RTVSPropertyOp43
 70
     1
102
RTVSPropertyOp44
 70
     1
102
RTVSPropertyOp45
 70
     1
102
RTVSPropertyOp46
 70
     1
102
RTVSPropertyOp47
 70
     1
102
RTVSPropertyOp48
 70
     1
102
RTVSPropertyOp49
 70
     1
102
RTVSPropertyOp50
 70
     1
102
RTVSPropertyOp51
 70
     0
102
RTVSPropertyOp52
 70
     0
102
RTVSPropertyOp53
 70
     1
102
RTVSPropertyOp54
 70
     1
102
RTVSPropertyOp55
 70
     1
102
RTVSPropertyOp56
 70
     1
102
RTVSPropertyOp57
 70
     1
102
RTVSPropertyOp58
 70
     1
102
RTVSPropertyOp59
 70
     1
102
RTVSPropertyOp60
 70
     1
102
RTVSPropertyOp61
 70
     1
102
RTVSPropertyOp62
 70
     1
  0
XRECORD
  5
A6B0
102
{ACAD_REACTORS
330
A6AF
102
}
330
A6AF
100
AcDbXrecord
280
     1
102
RTVSPost2010Prop28
280
     0
102
RTVSPost2010PropOp28
 70
     1
102
RTVSPost2010Prop29
280
     1
102
RTVSPost2010PropOp29
 70
     1
102
RTVSPost2010Prop30
280
     1
102
RTVSPost2010PropOp30
 70
     1
102
RTVSPost2010Prop31
280
     0
102
RTVSPost2010PropOp31
 70
     1
102
RTVSPost2010Prop32
280
     0
102
RTVSPost2010PropOp32
 70
     1
102
RTVSPost2010Prop33
280
     0
102
RTVSPost2010PropOp33
 70
     1
102
RTVSPost2010Prop34
280
     0
102
RTVSPost2010PropOp34
 70
     1
102
RTVSPost2010Prop35
280
     0
102
RTVSPost2010PropOp35
 70
     1
102
RTVSPost2010Prop36
280
     0
102
RTVSPost2010PropOp36
 70
     1
102
RTVSPost2010Prop37
 90
       50
102
RTVSPost2010PropOp37
 70
     1
102
RTVSPost2010Prop38
140
0.0
102
RTVSPost2010PropOp38
 70
     1
102
RTVSPost2010Prop39
140
1.0
102
RTVSPost2010PropOp39
 70
     1
102
RTVSPost2010Prop40
 90
        0
102
RTVSPost2010PropOp40
 70
     1
102
RTVSPost2010Prop41ColorIndex
 90
       18
102
RTVSPost2010Prop41ColorRGB
 90
        0
102
RTVSPost2010PropOp41
 70
     1
102
RTVSPost2010Prop42
 90
       50
102
RTVSPost2010PropOp42
 70
     1
102
RTVSPost2010Prop43
 90
        3
102
RTVSPost2010PropOp43
 70
     1
102
RTVSPost2010Prop44ColorIndex
 90
        5
102
RTVSPost2010Prop44ColorRGB
 90
      255
102
RTVSPost2010PropOp44
 70
     1
102
RTVSPost2010Prop45
280
     0
102
RTVSPost2010PropOp45
 70
     1
102
RTVSPost2010Prop46
 90
       50
102
RTVSPost2010PropOp46
 70
     1
102
RTVSPost2010Prop47
 90
       50
102
RTVSPost2010PropOp47
 70
     1
102
RTVSPost2010Prop48
 90
       50
102
RTVSPost2010PropOp48
 70
     1
102
RTVSPost2010Prop49
280
     0
102
RTVSPost2010PropOp49
 70
     1
102
RTVSPost2010Prop50
 90
       50
102
RTVSPost2010PropOp50
 70
     1
102
RTVSPost2010Prop51ColorIndex
 90
      256
102
RTVSPost2010Prop51ColorRGB
 90
-16777216
102
RTVSPost2010PropOp51
 70
     0
102
RTVSPost2010Prop52
140
1.0
102
RTVSPost2010PropOp52
 70
     0
102
RTVSPost2010Prop53
 90
        2
102
RTVSPost2010PropOp53
 70
     1
102
RTVSPost2010Prop54
  1
strokes_ogs.tif
102
RTVSPost2010PropOp54
 70
     1
102
RTVSPost2010Prop55
280
     0
102
RTVSPost2010PropOp55
 70
     1
102
RTVSPost2010Prop56
140
1.0
102
RTVSPost2010PropOp56
 70
     1
102
RTVSPost2010Prop57
140
1.0
102
RTVSPost2010PropOp57
 70
     1
102
RTVSPropertyOp0
 70
     1
102
RTVSPropertyOp1
 70
     1
102
RTVSPropertyOp2
 70
     1
102
RTVSPropertyOp3
 70
     1
102
RTVSPropertyOp4
 70
     1
102
RTVSPropertyOp5
 70
     1
102
RTVSPropertyOp6
 70
     1
102
RTVSPropertyOp7
 70
     1
102
RTVSPropertyOp8
 70
     1
102
RTVSPropertyOp9
 70
     1
102
RTVSPropertyOp10
 70
     1
102
RTVSPropertyOp11
 70
     1
102
RTVSPropertyOp12
 70
     1
102
RTVSPropertyOp13
 70
     1
102
RTVSPropertyOp14
 70
     1
102
RTVSPropertyOp15
 70
     1
102
RTVSPropertyOp16
 70
     1
102
RTVSPropertyOp17
 70
     1
102
RTVSPropertyOp18
 70
     1
102
RTVSPropertyOp19
 70
     1
102
RTVSPropertyOp20
 70
     1
102
RTVSPropertyOp21
 70
     1
102
RTVSPropertyOp22
 70
     1
102
RTVSPropertyOp23
 70
     1
102
RTVSPropertyOp24
 70
     1
102
RTVSPropertyOp25
 70
     1
102
RTVSPropertyOp26
 70
     1
102
RTVSPropertyOp27
 70
     1
102
RTVSPropertyOp28
 70
     1
102
RTVSPropertyOp29
 70
     1
102
RTVSPropertyOp30
 70
     1
102
RTVSPropertyOp31
 70
     1
102
RTVSPropertyOp32
 70
     1
102
RTVSPropertyOp33
 70
     1
102
RTVSPropertyOp34
 70
     1
102
RTVSPropertyOp35
 70
     1
102
RTVSPropertyOp36
 70
     1
102
RTVSPropertyOp37
 70
     1
102
RTVSPropertyOp38
 70
     1
102
RTVSPropertyOp39
 70
     1
102
RTVSPropertyOp40
 70
     1
102
RTVSPropertyOp41
 70
     1
102
RTVSPropertyOp42
 70
     1
102
RTVSPropertyOp43
 70
     1
102
RTVSPropertyOp44
 70
     1
102
RTVSPropertyOp45
 70
     1
102
RTVSPropertyOp46
 70
     1
102
RTVSPropertyOp47
 70
     1
102
RTVSPropertyOp48
 70
     1
102
RTVSPropertyOp49
 70
     1
102
RTVSPropertyOp50
 70
     1
102
RTVSPropertyOp51
 70
     0
102
RTVSPropertyOp52
 70
     0
102
RTVSPropertyOp53
 70
     1
102
RTVSPropertyOp54
 70
     1
102
RTVSPropertyOp55
 70
     1
102
RTVSPropertyOp56
 70
     1
102
RTVSPropertyOp57
 70
     1
102
RTVSPropertyOp58
 70
     1
102
RTVSPropertyOp59
 70
     1
102
RTVSPropertyOp60
 70
     1
102
RTVSPropertyOp61
 70
     1
102
RTVSPropertyOp62
 70
     1
  0
XRECORD
  5
A6A4
102
{ACAD_REACTORS
330
A6A3
102
}
330
A6A3
100
AcDbXrecord
280
     1
102
RTVSPost2010Prop28
280
     0
102
RTVSPost2010PropOp28
 70
     1
102
RTVSPost2010Prop29
280
     1
102
RTVSPost2010PropOp29
 70
     1
102
RTVSPost2010Prop30
280
     1
102
RTVSPost2010PropOp30
 70
     1
102
RTVSPost2010Prop31
280
     0
102
RTVSPost2010PropOp31
 70
     1
102
RTVSPost2010Prop32
280
     0
102
RTVSPost2010PropOp32
 70
     1
102
RTVSPost2010Prop33
280
     0
102
RTVSPost2010PropOp33
 70
     1
102
RTVSPost2010Prop34
280
     0
102
RTVSPost2010PropOp34
 70
     1
102
RTVSPost2010Prop35
280
     0
102
RTVSPost2010PropOp35
 70
     1
102
RTVSPost2010Prop36
280
     0
102
RTVSPost2010PropOp36
 70
     1
102
RTVSPost2010Prop37
 90
       50
102
RTVSPost2010PropOp37
 70
     1
102
RTVSPost2010Prop38
140
0.0
102
RTVSPost2010PropOp38
 70
     1
102
RTVSPost2010Prop39
140
1.0
102
RTVSPost2010PropOp39
 70
     1
102
RTVSPost2010Prop40
 90
        0
102
RTVSPost2010PropOp40
 70
     1
102
RTVSPost2010Prop41ColorIndex
 90
       18
102
RTVSPost2010Prop41ColorRGB
 90
        0
102
RTVSPost2010PropOp41
 70
     1
102
RTVSPost2010Prop42
 90
       50
102
RTVSPost2010PropOp42
 70
     1
102
RTVSPost2010Prop43
 90
        3
102
RTVSPost2010PropOp43
 70
     1
102
RTVSPost2010Prop44ColorIndex
 90
        5
102
RTVSPost2010Prop44ColorRGB
 90
      255
102
RTVSPost2010PropOp44
 70
     1
102
RTVSPost2010Prop45
280
     0
102
RTVSPost2010PropOp45
 70
     1
102
RTVSPost2010Prop46
 90
       50
102
RTVSPost2010PropOp46
 70
     1
102
RTVSPost2010Prop47
 90
       50
102
RTVSPost2010PropOp47
 70
     1
102
RTVSPost2010Prop48
 90
       50
102
RTVSPost2010PropOp48
 70
     1
102
RTVSPost2010Prop49
280
     0
102
RTVSPost2010PropOp49
 70
     1
102
RTVSPost2010Prop50
 90
       50
102
RTVSPost2010PropOp50
 70
     1
102
RTVSPost2010Prop51ColorIndex
 90
      256
102
RTVSPost2010Prop51ColorRGB
 90
-16777216
102
RTVSPost2010PropOp51
 70
     0
102
RTVSPost2010Prop52
140
1.0
102
RTVSPost2010PropOp52
 70
     0
102
RTVSPost2010Prop53
 90
        2
102
RTVSPost2010PropOp53
 70
     1
102
RTVSPost2010Prop54
  1
strokes_ogs.tif
102
RTVSPost2010PropOp54
 70
     1
102
RTVSPost2010Prop55
280
     0
102
RTVSPost2010PropOp55
 70
     1
102
RTVSPost2010Prop56
140
1.0
102
RTVSPost2010PropOp56
 70
     1
102
RTVSPost2010Prop57
140
1.0
102
RTVSPost2010PropOp57
 70
     1
102
RTVSPropertyOp0
 70
     1
102
RTVSPropertyOp1
 70
     1
102
RTVSPropertyOp2
 70
     1
102
RTVSPropertyOp3
 70
     1
102
RTVSPropertyOp4
 70
     1
102
RTVSPropertyOp5
 70
     1
102
RTVSPropertyOp6
 70
     1
102
RTVSPropertyOp7
 70
     1
102
RTVSPropertyOp8
 70
     1
102
RTVSPropertyOp9
 70
     1
102
RTVSPropertyOp10
 70
     1
102
RTVSPropertyOp11
 70
     1
102
RTVSPropertyOp12
 70
     1
102
RTVSPropertyOp13
 70
     1
102
RTVSPropertyOp14
 70
     1
102
RTVSPropertyOp15
 70
     1
102
RTVSPropertyOp16
 70
     1
102
RTVSPropertyOp17
 70
     1
102
RTVSPropertyOp18
 70
     1
102
RTVSPropertyOp19
 70
     1
102
RTVSPropertyOp20
 70
     1
102
RTVSPropertyOp21
 70
     1
102
RTVSPropertyOp22
 70
     1
102
RTVSPropertyOp23
 70
     1
102
RTVSPropertyOp24
 70
     1
102
RTVSPropertyOp25
 70
     1
102
RTVSPropertyOp26
 70
     1
102
RTVSPropertyOp27
 70
     1
102
RTVSPropertyOp28
 70
     1
102
RTVSPropertyOp29
 70
     1
102
RTVSPropertyOp30
 70
     1
102
RTVSPropertyOp31
 70
     1
102
RTVSPropertyOp32
 70
     1
102
RTVSPropertyOp33
 70
     1
102
RTVSPropertyOp34
 70
     1
102
RTVSPropertyOp35
 70
     1
102
RTVSPropertyOp36
 70
     1
102
RTVSPropertyOp37
 70
     1
102
RTVSPropertyOp38
 70
     1
102
RTVSPropertyOp39
 70
     1
102
RTVSPropertyOp40
 70
     1
102
RTVSPropertyOp41
 70
     1
102
RTVSPropertyOp42
 70
     1
102
RTVSPropertyOp43
 70
     1
102
RTVSPropertyOp44
 70
     1
102
RTVSPropertyOp45
 70
     1
102
RTVSPropertyOp46
 70
     1
102
RTVSPropertyOp47
 70
     1
102
RTVSPropertyOp48
 70
     1
102
RTVSPropertyOp49
 70
     1
102
RTVSPropertyOp50
 70
     1
102
RTVSPropertyOp51
 70
     0
102
RTVSPropertyOp52
 70
     0
102
RTVSPropertyOp53
 70
     1
102
RTVSPropertyOp54
 70
     1
102
RTVSPropertyOp55
 70
     1
102
RTVSPropertyOp56
 70
     1
102
RTVSPropertyOp57
 70
     1
102
RTVSPropertyOp58
 70
     1
102
RTVSPropertyOp59
 70
     1
102
RTVSPropertyOp60
 70
     1
102
RTVSPropertyOp61
 70
     1
102
RTVSPropertyOp62
 70
     1
  0
XRECORD
  5
A6BC
102
{ACAD_REACTORS
330
A6BB
102
}
330
A6BB
100
AcDbXrecord
280
     1
102
RTVSPost2010Prop28
280
     0
102
RTVSPost2010PropOp28
 70
     1
102
RTVSPost2010Prop29
280
     1
102
RTVSPost2010PropOp29
 70
     1
102
RTVSPost2010Prop30
280
     1
102
RTVSPost2010PropOp30
 70
     1
102
RTVSPost2010Prop31
280
     0
102
RTVSPost2010PropOp31
 70
     1
102
RTVSPost2010Prop32
280
     0
102
RTVSPost2010PropOp32
 70
     1
102
RTVSPost2010Prop33
280
     0
102
RTVSPost2010PropOp33
 70
     1
102
RTVSPost2010Prop34
280
     0
102
RTVSPost2010PropOp34
 70
     1
102
RTVSPost2010Prop35
280
     0
102
RTVSPost2010PropOp35
 70
     1
102
RTVSPost2010Prop36
280
     0
102
RTVSPost2010PropOp36
 70
     1
102
RTVSPost2010Prop37
 90
       50
102
RTVSPost2010PropOp37
 70
     1
102
RTVSPost2010Prop38
140
0.0
102
RTVSPost2010PropOp38
 70
     1
102
RTVSPost2010Prop39
140
1.0
102
RTVSPost2010PropOp39
 70
     1
102
RTVSPost2010Prop40
 90
        0
102
RTVSPost2010PropOp40
 70
     1
102
RTVSPost2010Prop41ColorIndex
 90
       18
102
RTVSPost2010Prop41ColorRGB
 90
        0
102
RTVSPost2010PropOp41
 70
     1
102
RTVSPost2010Prop42
 90
       50
102
RTVSPost2010PropOp42
 70
     1
102
RTVSPost2010Prop43
 90
        3
102
RTVSPost2010PropOp43
 70
     1
102
RTVSPost2010Prop44ColorIndex
 90
        5
102
RTVSPost2010Prop44ColorRGB
 90
      255
102
RTVSPost2010PropOp44
 70
     1
102
RTVSPost2010Prop45
280
     0
102
RTVSPost2010PropOp45
 70
     1
102
RTVSPost2010Prop46
 90
       50
102
RTVSPost2010PropOp46
 70
     1
102
RTVSPost2010Prop47
 90
       50
102
RTVSPost2010PropOp47
 70
     1
102
RTVSPost2010Prop48
 90
       50
102
RTVSPost2010PropOp48
 70
     1
102
RTVSPost2010Prop49
280
     0
102
RTVSPost2010PropOp49
 70
     1
102
RTVSPost2010Prop50
 90
       50
102
RTVSPost2010PropOp50
 70
     1
102
RTVSPost2010Prop51ColorIndex
 90
      256
102
RTVSPost2010Prop51ColorRGB
 90
-16777216
102
RTVSPost2010PropOp51
 70
     0
102
RTVSPost2010Prop52
140
1.0
102
RTVSPost2010PropOp52
 70
     0
102
RTVSPost2010Prop53
 90
        2
102
RTVSPost2010PropOp53
 70
     1
102
RTVSPost2010Prop54
  1
strokes_ogs.tif
102
RTVSPost2010PropOp54
 70
     1
102
RTVSPost2010Prop55
280
     0
102
RTVSPost2010PropOp55
 70
     1
102
RTVSPost2010Prop56
140
1.0
102
RTVSPost2010PropOp56
 70
     1
102
RTVSPost2010Prop57
140
1.0
102
RTVSPost2010PropOp57
 70
     1
102
RTVSPropertyOp0
 70
     1
102
RTVSPropertyOp1
 70
     1
102
RTVSPropertyOp2
 70
     1
102
RTVSPropertyOp3
 70
     1
102
RTVSPropertyOp4
 70
     1
102
RTVSPropertyOp5
 70
     1
102
RTVSPropertyOp6
 70
     1
102
RTVSPropertyOp7
 70
     1
102
RTVSPropertyOp8
 70
     1
102
RTVSPropertyOp9
 70
     1
102
RTVSPropertyOp10
 70
     1
102
RTVSPropertyOp11
 70
     1
102
RTVSPropertyOp12
 70
     1
102
RTVSPropertyOp13
 70
     1
102
RTVSPropertyOp14
 70
     1
102
RTVSPropertyOp15
 70
     1
102
RTVSPropertyOp16
 70
     1
102
RTVSPropertyOp17
 70
     1
102
RTVSPropertyOp18
 70
     1
102
RTVSPropertyOp19
 70
     1
102
RTVSPropertyOp20
 70
     1
102
RTVSPropertyOp21
 70
     1
102
RTVSPropertyOp22
 70
     1
102
RTVSPropertyOp23
 70
     1
102
RTVSPropertyOp24
 70
     1
102
RTVSPropertyOp25
 70
     1
102
RTVSPropertyOp26
 70
     1
102
RTVSPropertyOp27
 70
     1
102
RTVSPropertyOp28
 70
     1
102
RTVSPropertyOp29
 70
     1
102
RTVSPropertyOp30
 70
     1
102
RTVSPropertyOp31
 70
     1
102
RTVSPropertyOp32
 70
     1
102
RTVSPropertyOp33
 70
     1
102
RTVSPropertyOp34
 70
     1
102
RTVSPropertyOp35
 70
     1
102
RTVSPropertyOp36
 70
     1
102
RTVSPropertyOp37
 70
     1
102
RTVSPropertyOp38
 70
     1
102
RTVSPropertyOp39
 70
     1
102
RTVSPropertyOp40
 70
     1
102
RTVSPropertyOp41
 70
     1
102
RTVSPropertyOp42
 70
     1
102
RTVSPropertyOp43
 70
     1
102
RTVSPropertyOp44
 70
     1
102
RTVSPropertyOp45
 70
     1
102
RTVSPropertyOp46
 70
     1
102
RTVSPropertyOp47
 70
     1
102
RTVSPropertyOp48
 70
     1
102
RTVSPropertyOp49
 70
     1
102
RTVSPropertyOp50
 70
     1
102
RTVSPropertyOp51
 70
     0
102
RTVSPropertyOp52
 70
     0
102
RTVSPropertyOp53
 70
     1
102
RTVSPropertyOp54
 70
     1
102
RTVSPropertyOp55
 70
     1
102
RTVSPropertyOp56
 70
     1
102
RTVSPropertyOp57
 70
     1
102
RTVSPropertyOp58
 70
     1
102
RTVSPropertyOp59
 70
     1
102
RTVSPropertyOp60
 70
     1
102
RTVSPropertyOp61
 70
     1
102
RTVSPropertyOp62
 70
     1
  0
ENDSEC
  0
EOF
