  0
SECTION
  2
HEADER
  9
$ACADVER
  1
AC1015
  9
$ACADMAINTVER
 70
    20
  9
$DWGCODEPAGE
  3
ANSI_932
  9
$INSBASE
 10
0.0
 20
0.0
 30
0.0
  9
$EXTMIN
 10
10.0
 20
9.999999999999998
 30
0.0
  9
$EXTMAX
 10
394.6162479999999
 20
263.765754
 30
0.0
  9
$LIMMIN
 10
0.0
 20
0.0
  9
$LIMMAX
 10
396.0
 20
273.0
  9
$ORTHOMODE
 70
     1
  9
$REGENMODE
 70
     1
  9
$FILLMODE
 70
     1
  9
$QTEXTMODE
 70
     0
  9
$MIRRTEXT
 70
     1
  9
$LTSCALE
 40
20.0
  9
$ATTMODE
 70
     1
  9
$TEXTSIZE
 40
5.0
  9
$TRACEWID
 40
1.0
  9
$TEXTSTYLE
  7
STANDARD
  9
$CLAYER
  8
0
  9
$CELTYPE
  6
BYLAYER
  9
$CECOLOR
 62
   256
  9
$CELTSCALE
 40
1.0
  9
$DISPSILH
 70
     0
  9
$DIMSCALE
 40
1.0
  9
$DIMASZ
 40
3.0
  9
$DIMEXO
 40
1.0
  9
$DIMDLI
 40
10.0
  9
$DIMRND
 40
0.0
  9
$DIMDLE
 40
0.0
  9
$DIMEXE
 40
1.0
  9
$DIMTP
 40
0.0
  9
$DIMTM
 40
0.0
  9
$DIMTXT
 40
3.2
  9
$DIMCEN
 40
0.0
  9
$DIMTSZ
 40
0.0
  9
$DIMTOL
 70
     0
  9
$DIMLIM
 70
     0
  9
$DIMTIH
 70
     0
  9
$DIMTOH
 70
     0
  9
$DIMSE1
 70
     0
  9
$DIMSE2
 70
     0
  9
$DIMTAD
 70
     3
  9
$DIMZIN
 70
     8
  9
$DIMBLK
  1

  9
$DIMASO
 70
     1
  9
$DIMSHO
 70
     1
  9
$DIMPOST
  1

  9
$DIMAPOST
  1

  9
$DIMALT
 70
     0
  9
$DIMALTD
 70
     2
  9
$DIMALTF
 40
25.4
  9
$DIMLFAC
 40
1.0
  9
$DIMTOFL
 70
     1
  9
$DIMTVP
 40
0.0
  9
$DIMTIX
 70
     0
  9
$DIMSOXD
 70
     0
  9
$DIMSAH
 70
     1
  9
$DIMBLK1
  1

  9
$DIMBLK2
  1

  9
$DIMSTYLE
  2
STANDARD
  9
$DIMCLRD
 70
     0
  9
$DIMCLRE
 70
     0
  9
$DIMCLRT
 70
     0
  9
$DIMTFAC
 40
1.0
  9
$DIMGAP
 40
1.0
  9
$DIMJUST
 70
     0
  9
$DIMSD1
 70
     0
  9
$DIMSD2
 70
     0
  9
$DIMTOLJ
 70
     1
  9
$DIMTZIN
 70
     0
  9
$DIMALTZ
 70
     0
  9
$DIMALTTZ
 70
     0
  9
$DIMUPT
 70
     0
  9
$DIMDEC
 70
     4
  9
$DIMTDEC
 70
     4
  9
$DIMALTU
 70
     2
  9
$DIMALTTD
 70
     2
  9
$DIMTXSTY
  7
STANDARD
  9
$DIMAUNIT
 70
     0
  9
$DIMADEC
 70
     0
  9
$DIMALTRND
 40
0.0
  9
$DIMAZIN
 70
     0
  9
$DIMDSEP
 70
    46
  9
$DIMATFIT
 70
     3
  9
$DIMFRAC
 70
     0
  9
$DIMLDRBLK
  1

  9
$DIMLUNIT
 70
     2
  9
$DIMLWD
 70
    -2
  9
$DIMLWE
 70
    -2
  9
$DIMTMOVE
 70
     0
  9
$LUNITS
 70
     2
  9
$LUPREC
 70
     4
  9
$SKETCHINC
 40
1.0
  9
$FILLETRAD
 40
0.0
  9
$AUNITS
 70
     0
  9
$AUPREC
 70
     2
  9
$MENU
  1
.
  9
$ELEVATION
 40
0.0
  9
$PELEVATION
 40
0.0
  9
$THICKNESS
 40
0.0
  9
$LIMCHECK
 70
     0
  9
$CHAMFERA
 40
10.0
  9
$CHAMFERB
 40
10.0
  9
$CHAMFERC
 40
0.0
  9
$CHAMFERD
 40
0.0
  9
$SKPOLY
 70
     0
  9
$TDCREATE
 40
2450980.389524653
  9
$TDUCREATE
 40
2450980.014524652
  9
$TDUPDATE
 40
2457192.601281239
  9
$TDUUPDATE
 40
2457192.226281239
  9
$TDINDWG
 40
0.0000146528
  9
$TDUSRTIMER
 40
0.0000141667
  9
$USRTIMER
 70
     1
  9
$ANGBASE
 50
0.0
  9
$ANGDIR
 70
     0
  9
$PDMODE
 70
     0
  9
$PDSIZE
 40
0.0
  9
$PLINEWID
 40
0.0
  9
$SPLFRAME
 70
     0
  9
$SPLINETYPE
 70
     6
  9
$SPLINESEGS
 70
     8
  9
$HANDSEED
  5
997C
  9
$SURFTAB1
 70
     6
  9
$SURFTAB2
 70
     6
  9
$SURFTYPE
 70
     6
  9
$SURFU
 70
     6
  9
$SURFV
 70
     6
  9
$UCSBASE
  2

  9
$UCSNAME
  2

  9
$UCSORG
 10
0.0
 20
0.0
 30
0.0
  9
$UCSXDIR
 10
1.0
 20
0.0
 30
0.0
  9
$UCSYDIR
 10
0.0
 20
1.0
 30
0.0
  9
$UCSORTHOREF
  2

  9
$UCSORTHOVIEW
 70
     0
  9
$UCSORGTOP
 10
0.0
 20
0.0
 30
0.0
  9
$UCSORGBOTTOM
 10
0.0
 20
0.0
 30
0.0
  9
$UCSORGLEFT
 10
0.0
 20
0.0
 30
0.0
  9
$UCSORGRIGHT
 10
0.0
 20
0.0
 30
0.0
  9
$UCSORGFRONT
 10
0.0
 20
0.0
 30
0.0
  9
$UCSORGBACK
 10
0.0
 20
0.0
 30
0.0
  9
$PUCSBASE
  2

  9
$PUCSNAME
  2

  9
$PUCSORG
 10
0.0
 20
0.0
 30
0.0
  9
$PUCSXDIR
 10
1.0
 20
0.0
 30
0.0
  9
$PUCSYDIR
 10
0.0
 20
1.0
 30
0.0
  9
$PUCSORTHOREF
  2

  9
$PUCSORTHOVIEW
 70
     0
  9
$PUCSORGTOP
 10
0.0
 20
0.0
 30
0.0
  9
$PUCSORGBOTTOM
 10
0.0
 20
0.0
 30
0.0
  9
$PUCSORGLEFT
 10
0.0
 20
0.0
 30
0.0
  9
$PUCSORGRIGHT
 10
0.0
 20
0.0
 30
0.0
  9
$PUCSORGFRONT
 10
0.0
 20
0.0
 30
0.0
  9
$PUCSORGBACK
 10
0.0
 20
0.0
 30
0.0
  9
$USERI1
 70
     0
  9
$USERI2
 70
     0
  9
$USERI3
 70
     0
  9
$USERI4
 70
     0
  9
$USERI5
 70
     0
  9
$USERR1
 40
0.0
  9
$USERR2
 40
0.0
  9
$USERR3
 40
0.0
  9
$USERR4
 40
0.0
  9
$USERR5
 40
0.0
  9
$WORLDVIEW
 70
     1
  9
$SHADEDGE
 70
     3
  9
$SHADEDIF
 70
    70
  9
$TILEMODE
 70
     1
  9
$MAXACTVP
 70
    16
  9
$PINSBASE
 10
0.0
 20
0.0
 30
0.0
  9
$PLIMCHECK
 70
     0
  9
$PEXTMIN
 10
1.000000000000000E+20
 20
1.000000000000000E+20
 30
1.000000000000000E+20
  9
$PEXTMAX
 10
-1.000000000000000E+20
 20
-1.000000000000000E+20
 30
-1.000000000000000E+20
  9
$PLIMMIN
 10
0.0
 20
0.0
  9
$PLIMMAX
 10
420.0
 20
297.0
  9
$UNITMODE
 70
     0
  9
$VISRETAIN
 70
     0
  9
$PLINEGEN
 70
     0
  9
$PSLTSCALE
 70
     0
  9
$TREEDEPTH
 70
  3020
  9
$CMLSTYLE
  2
STANDARD
  9
$CMLJUST
 70
     0
  9
$CMLSCALE
 40
1.0
  9
$PROXYGRAPHICS
 70
     1
  9
$MEASUREMENT
 70
     0
  9
$CELWEIGHT
370
    -1
  9
$ENDCAPS
280
     0
  9
$JOINSTYLE
280
     0
  9
$LWDISPLAY
290
     0
  9
$INSUNITS
 70
     0
  9
$HYPERLINKBASE
  1

  9
$STYLESHEET
  1

  9
$XEDIT
290
     1
  9
$CEPSNTYPE
380
     0
  9
$PSTYLEMODE
290
     1
  9
$FINGERPRINTGUID
  2
{DF223B0F-1128-442E-B767-35DDF905FA29}
  9
$VERSIONGUID
  2
{CDA20F76-B4DA-4FDC-97EE-13FF5C15B74A}
  9
$EXTNAMES
290
     1
  9
$PSVPSCALE
 40
0.0
  9
$OLESTARTUP
290
     0
  0
ENDSEC
  0
SECTION
  2
CLASSES
  0
CLASS
  1
ACDBDICTIONARYWDFLT
  2
AcDbDictionaryWithDefault
  3
ObjectDBX Classes
 90
        0
280
     0
281
     0
  0
CLASS
  1
ACDBPLACEHOLDER
  2
AcDbPlaceHolder
  3
ObjectDBX Classes
 90
        0
280
     0
281
     0
  0
CLASS
  1
LAYOUT
  2
AcDbLayout
  3
ObjectDBX Classes
 90
        0
280
     0
281
     0
  0
CLASS
  1
DICTIONARYVAR
  2
AcDbDictionaryVar
  3
ObjectDBX Classes
 90
        0
280
     0
281
     0
  0
CLASS
  1
MATERIAL
  2
AcDbMaterial
  3
ObjectDBX Classes
 90
     1153
280
     0
281
     0
  0
CLASS
  1
VISUALSTYLE
  2
AcDbVisualStyle
  3
ObjectDBX Classes
 90
     4095
280
     0
281
     0
  0
CLASS
  1
TABLESTYLE
  2
AcDbTableStyle
  3
ObjectDBX Classes
 90
     4095
280
     0
281
     0
  0
CLASS
  1
SCALE
  2
AcDbScale
  3
ObjectDBX Classes
 90
     1153
280
     0
281
     0
  0
CLASS
  1
MLEADERSTYLE
  2
AcDbMLeaderStyle
  3
ACDB_MLEADERSTYLE_CLASS
 90
     4095
280
     0
281
     0
  0
CLASS
  1
ACDBSECTIONVIEWSTYLE
  2
AcDbSectionViewStyle
  3
ObjectDBX Classes
 90
     1025
280
     0
281
     0
  0
CLASS
  1
ACDBDETAILVIEWSTYLE
  2
AcDbDetailViewStyle
  3
ObjectDBX Classes
 90
     1025
280
     0
281
     0
  0
CLASS
  1
CELLSTYLEMAP
  2
AcDbCellStyleMap
  3
ObjectDBX Classes
 90
     1152
280
     0
281
     0
  0
ENDSEC
  0
SECTION
  2
TABLES
  0
TABLE
  2
VPORT
  5
96D6
330
0
100
AcDbSymbolTable
 70
     1
  0
VPORT
  5
98C5
330
96D6
100
AcDbSymbolTableRecord
100
AcDbViewportTableRecord
  2
*ACTIVE
 70
     0
 10
0.0
 20
0.0
 11
1.0
 21
1.0
 12
279.1743432942429
 22
136.8853232068768
 13
0.0
 23
0.0
 14
10.0
 24
10.0
 15
10.0
 25
10.0
 16
0.0
 26
0.0
 36
1.0
 17
0.0
 27
0.0
 37
0.0
 40
256.6307083924471
 41
1.899603698811096
 42
50.0
 43
0.0
 44
0.0
 50
0.0
 51
0.0
 71
     0
 72
   100
 73
     1
 74
     0
 75
     0
 76
     0
 77
     0
 78
     0
281
     0
 65
     1
110
0.0
120
0.0
130
0.0
111
1.0
121
0.0
131
0.0
112
0.0
122
1.0
132
0.0
 79
     0
146
0.0
1001
ACAD_NAV_VCDISPLAY
1070
     3
  0
ENDTAB
  0
TABLE
  2
LTYPE
  5
96D3
330
0
100
AcDbSymbolTable
 70
     4
  0
LTYPE
  5
96E1
330
96D3
100
AcDbSymbolTableRecord
100
AcDbLinetypeTableRecord
  2
BYBLOCK
 70
     0
  3

 72
    65
 73
     0
 40
0.0
  0
LTYPE
  5
96E2
330
96D3
100
AcDbSymbolTableRecord
100
AcDbLinetypeTableRecord
  2
BYLAYER
 70
     0
  3

 72
    65
 73
     0
 40
0.0
  0
LTYPE
  5
96E3
330
96D3
100
AcDbSymbolTableRecord
100
AcDbLinetypeTableRecord
  2
CONTINUOUS
 70
     0
  3
Solid line
 72
    65
 73
     0
 40
0.0
  0
LTYPE
  5
96F1
330
96D3
100
AcDbSymbolTableRecord
100
AcDbLinetypeTableRecord
  2
DASHED
 70
     0
  3
__ __ __ __ __ __ __ __ __ __ __ __ __ __ __ __
 72
    65
 73
     2
 40
0.75
 49
0.5
 74
     0
 49
-0.25
 74
     0
  0
LTYPE
  5
96F2
330
96D3
100
AcDbSymbolTableRecord
100
AcDbLinetypeTableRecord
  2
CENTER
 70
     0
  3
____ _ ____ _ ____ _ ____ _ ____ _ ____ _ ____ 
 72
    65
 73
     4
 40
2.0
 49
1.25
 74
     0
 49
-0.25
 74
     0
 49
0.25
 74
     0
 49
-0.25
 74
     0
  0
LTYPE
  5
96F3
330
96D3
100
AcDbSymbolTableRecord
100
AcDbLinetypeTableRecord
  2
PHANTOM
 70
     0
  3
______  __  __  ______  __  __  ______  __  __ 
 72
    65
 73
     6
 40
2.5
 49
1.25
 74
     0
 49
-0.25
 74
     0
 49
0.25
 74
     0
 49
-0.25
 74
     0
 49
0.25
 74
     0
 49
-0.25
 74
     0
  0
ENDTAB
  0
TABLE
  2
LAYER
  5
96D0
330
0
100
AcDbSymbolTable
 70
     8
  0
LAYER
  5
96DE
102
{ACAD_XDICTIONARY
360
9920
102
}
330
96D0
100
AcDbSymbolTableRecord
100
AcDbLayerTableRecord
  2
0
 70
     0
 62
     7
  6
CONTINUOUS
370
    -3
390
98CE
  0
LAYER
  5
96F4
102
{ACAD_XDICTIONARY
360
9922
102
}
330
96D0
100
AcDbSymbolTableRecord
100
AcDbLayerTableRecord
  2
4
 70
     0
 62
     1
  6
CENTER
370
    -3
390
98CE
  0
LAYER
  5
96F5
102
{ACAD_XDICTIONARY
360
9924
102
}
330
96D0
100
AcDbSymbolTableRecord
100
AcDbLayerTableRecord
  2
5
 70
     0
 62
     6
  6
PHANTOM
370
    -3
390
98CE
  0
LAYER
  5
96F6
102
{ACAD_XDICTIONARY
360
9926
102
}
330
96D0
100
AcDbSymbolTableRecord
100
AcDbLayerTableRecord
  2
1
 70
     0
 62
     7
  6
CONTINUOUS
370
    -3
390
98CE
  0
LAYER
  5
96F7
102
{ACAD_XDICTIONARY
360
9928
102
}
330
96D0
100
AcDbSymbolTableRecord
100
AcDbLayerTableRecord
  2
2
 70
     0
 62
     4
  6
CONTINUOUS
370
    -3
390
98CE
  0
LAYER
  5
96F8
102
{ACAD_XDICTIONARY
360
992A
102
}
330
96D0
100
AcDbSymbolTableRecord
100
AcDbLayerTableRecord
  2
3
 70
     0
 62
     2
  6
DASHED
370
    -3
390
98CE
  0
LAYER
  5
96F9
102
{ACAD_XDICTIONARY
360
992C
102
}
330
96D0
100
AcDbSymbolTableRecord
100
AcDbLayerTableRecord
  2
6
 70
     0
 62
     5
  6
CONTINUOUS
370
    -3
390
98CE
  0
LAYER
  5
96FA
102
{ACAD_XDICTIONARY
360
992E
102
}
330
96D0
100
AcDbSymbolTableRecord
100
AcDbLayerTableRecord
  2
7
 70
     0
 62
     3
  6
CONTINUOUS
370
    -3
390
98CE
  0
ENDTAB
  0
TABLE
  2
STYLE
  5
96D1
330
0
100
AcDbSymbolTable
 70
     1
  0
STYLE
  5
96DF
330
96D1
100
AcDbSymbolTableRecord
100
AcDbTextStyleTableRecord
  2
STANDARD
 70
     0
 40
0.0
 41
1.0
 50
0.0
 71
     0
 42
5.0
  3
txt
  4

  0
ENDTAB
  0
TABLE
  2
VIEW
  5
96D4
330
0
100
AcDbSymbolTable
 70
     0
  0
ENDTAB
  0
TABLE
  2
UCS
  5
96D5
330
0
100
AcDbSymbolTable
 70
     0
  0
ENDTAB
  0
TABLE
  2
APPID
  5
96D7
330
0
100
AcDbSymbolTable
 70
     3
  0
APPID
  5
96E0
330
96D7
100
AcDbSymbolTableRecord
100
AcDbRegAppTableRecord
  2
ACAD
 70
     0
  0
APPID
  5
993A
330
96D7
100
AcDbSymbolTableRecord
100
AcDbRegAppTableRecord
  2
ACAD_NAV_VCDISPLAY
 70
     0
  0
APPID
  5
9973
330
96D7
100
AcDbSymbolTableRecord
100
AcDbRegAppTableRecord
  2
ACAD_MLEADERVER
 70
     0
  0
ENDTAB
  0
TABLE
  2
DIMSTYLE
  5
96D8
330
0
100
AcDbSymbolTable
 70
     1
100
AcDbDimStyleTable
 71
     0
  0
DIMSTYLE
105
96FC
330
96D8
100
AcDbSymbolTableRecord
100
AcDbDimStyleTableRecord
  2
STANDARD
 70
     0
 41
3.0
 42
1.0
 43
10.0
 44
1.0
 73
     0
 74
     0
 77
     3
 78
     8
140
3.2
141
0.0
147
1.0
172
     1
173
     1
284
     8
285
     8
286
     8
340
96DF
  0
ENDTAB
  0
TABLE
  2
BLOCK_RECORD
  5
96CF
330
0
100
AcDbSymbolTable
 70
     0
  0
BLOCK_RECORD
  5
96EC
102
{ACAD_XDICTIONARY
360
98C8
102
}
330
96CF
100
AcDbSymbolTableRecord
100
AcDbBlockTableRecord
  2
*MODEL_SPACE
340
991C
  0
BLOCK_RECORD
  5
96E8
102
{ACAD_XDICTIONARY
360
98C6
102
}
330
96CF
100
AcDbSymbolTableRecord
100
AcDbBlockTableRecord
  2
*PAPER_SPACE
340
991D
  0
ENDTAB
  0
ENDSEC
  0
SECTION
  2
BLOCKS
  0
BLOCK
  5
96ED
330
96EC
100
AcDbEntity
  8
0
100
AcDbBlockBegin
  2
*MODEL_SPACE
 70
     0
 10
0.0
 20
0.0
 30
0.0
  3
*MODEL_SPACE
  1

  0
ENDBLK
  5
96EE
330
96EC
100
AcDbEntity
  8
0
100
AcDbBlockEnd
  0
BLOCK
  5
96E9
330
96E8
100
AcDbEntity
 67
     1
  8
0
100
AcDbBlockBegin
  2
*PAPER_SPACE
 70
     0
 10
0.0
 20
0.0
 30
0.0
  3
*PAPER_SPACE
  1

  0
ENDBLK
  5
96EA
330
96E8
100
AcDbEntity
 67
     1
  8
0
100
AcDbBlockEnd
  0
ENDSEC
  0
SECTION
  2
ENTITIES
  0
TEXT
  5
9704
330
96EC
100
AcDbEntity
  8
7
  6
Continuous
100
AcDbText
 10
10.0
 20
18.0
 30
0.0
 40
3.0
  1
TYPE No.TL-297-2
100
AcDbText
  0
TEXT
  5
9705
330
96EC
100
AcDbEntity
  8
7
  6
Continuous
100
AcDbText
 10
10.0
 20
26.0
 30
0.0
 40
3.0
  1
CODE No.1829
100
AcDbText
  0
TEXT
  5
9706
330
96EC
100
AcDbEntity
  8
1
  6
Continuous
100
AcDbText
 10
10.0
 20
10.0
 30
0.0
 40
1.399999999999999
  1
LAYER
100
AcDbText
  0
TEXT
  5
9707
330
96EC
100
AcDbEntity
  8
1
  6
Continuous
100
AcDbText
 10
17.97951099999998
 20
10.04873699999998
 30
0.0
 40
1.399999999999999
  1
1
100
AcDbText
  0
TEXT
  5
9708
330
96EC
100
AcDbEntity
  8
7
  6
Continuous
100
AcDbText
 10
29.97951099999999
 20
10.04873699999998
 30
0.0
 40
1.399999999999999
  1
7
100
AcDbText
  0
TEXT
  5
9709
330
96EC
100
AcDbEntity
  8
4
  6
CENTER
100
AcDbText
 10
23.97951099999999
 20
10.04873699999998
 30
0.0
 40
1.399999999999999
  1
4
100
AcDbText
  0
TEXT
  5
970A
330
96EC
100
AcDbEntity
  8
3
  6
DASHED
100
AcDbText
 10
21.979511
 20
10.04873699999998
 30
0.0
 40
1.399999999999999
  1
3
100
AcDbText
  0
TEXT
  5
970B
330
96EC
100
AcDbEntity
  8
2
  6
Continuous
100
AcDbText
 10
19.97951099999999
 20
10.04873699999998
 30
0.0
 40
1.399999999999999
  1
2
100
AcDbText
  0
TEXT
  5
970C
330
96EC
100
AcDbEntity
  8
6
  6
Continuous
100
AcDbText
 10
27.979511
 20
10.04873699999998
 30
0.0
 40
1.399999999999999
  1
6
100
AcDbText
  0
TEXT
  5
970D
330
96EC
100
AcDbEntity
  8
5
  6
PHANTOM
100
AcDbText
 10
25.97951099999999
 20
10.04873699999998
 30
0.0
 40
1.399999999999999
  1
5
100
AcDbText
  0
LINE
  5
970E
330
96EC
100
AcDbEntity
  8
1
  6
Continuous
100
AcDbLine
 10
310.094245
 20
50.294265
 30
0.0
 11
310.094245
 21
46.99581
 31
0.0
  0
LINE
  5
970F
330
96EC
100
AcDbEntity
  8
4
  6
CENTER
100
AcDbLine
 10
325.9334099999999
 20
48.645011
 30
0.0
 11
308.2334279999999
 21
48.645011
 31
0.0
  0
LINE
  5
9710
330
96EC
100
AcDbEntity
  8
1
  6
Continuous
100
AcDbLine
 10
312.8201359999998
 20
44.895011
 30
0.0
 11
311.9748299999999
 21
44.895011
 31
0.0
  0
LINE
  5
9711
330
96EC
100
AcDbEntity
  8
1
  6
Continuous
100
AcDbLine
 10
312.8201359999998
 20
52.395011
 30
0.0
 11
311.9748299999999
 21
52.395011
 31
0.0
  0
LINE
  5
9712
330
96EC
100
AcDbEntity
  8
1
  6
Continuous
100
AcDbLine
 10
311.194007
 20
52.019713
 30
0.0
 11
310.31333
 21
50.91894400000001
 31
0.0
  0
LINE
  5
9713
330
96EC
100
AcDbEntity
  8
1
  6
Continuous
100
AcDbLine
 10
310.31333
 20
46.371115
 30
0.0
 11
311.1939759999998
 21
45.270362
 31
0.0
  0
LINE
  5
9714
330
96EC
100
AcDbEntity
  8
1
  6
Continuous
100
AcDbLine
 10
315.394233
 20
45.945014
 30
0.0
 11
313.5942449999999
 21
45.945014
 31
0.0
  0
LINE
  5
9715
330
96EC
100
AcDbEntity
  8
1
  6
Continuous
100
AcDbLine
 10
315.394233
 20
51.345008
 30
0.0
 11
313.5942449999999
 21
51.345008
 31
0.0
  0
LINE
  5
9716
330
96EC
100
AcDbEntity
  8
1
  6
Continuous
100
AcDbLine
 10
313.080573
 20
52.243865
 30
0.0
 11
313.5942449999999
 21
51.34501499999998
 31
0.0
  0
LINE
  5
9717
330
96EC
100
AcDbEntity
  8
1
  6
Continuous
100
AcDbLine
 10
313.594214
 20
45.945014
 30
0.0
 11
313.080573
 21
45.04620999999999
 31
0.0
  0
LINE
  5
9718
330
96EC
100
AcDbEntity
  8
1
  6
Continuous
100
AcDbLine
 10
311.5942449999999
 20
49.64501099999999
 30
0.0
 11
311.5942449999999
 21
47.64501099999999
 31
0.0
  0
LINE
  5
9719
330
96EC
100
AcDbEntity
  8
1
  6
Continuous
100
AcDbLine
 10
322.2942259999999
 20
46.64501099999998
 30
0.0
 11
312.594245
 21
46.64501099999998
 31
0.0
  0
LINE
  5
971A
330
96EC
100
AcDbEntity
  8
1
  6
Continuous
100
AcDbLine
 10
322.2942259999999
 20
50.645011
 30
0.0
 11
312.594245
 21
50.645011
 31
0.0
  0
LINE
  5
971B
330
96EC
100
AcDbEntity
  8
1
  6
Continuous
100
AcDbLine
 10
322.2942259999999
 20
55.145011
 30
0.0
 11
322.2942259999999
 21
42.14501099999997
 31
0.0
  0
LINE
  5
971C
330
96EC
100
AcDbEntity
  8
1
  6
Continuous
100
AcDbLine
 10
315.394233
 20
45.945014
 30
0.0
 11
315.394233
 21
45.787459
 31
0.0
  0
LINE
  5
971D
330
96EC
100
AcDbEntity
  8
1
  6
Continuous
100
AcDbLine
 10
323.2942259999999
 20
42.14501099999997
 30
0.0
 11
322.2942259999999
 21
42.14501099999997
 31
0.0
  0
LINE
  5
971E
330
96EC
100
AcDbEntity
  8
1
  6
Continuous
100
AcDbLine
 10
323.2942259999999
 20
55.145011
 30
0.0
 11
322.2942259999999
 21
55.145011
 31
0.0
  0
LINE
  5
971F
330
96EC
100
AcDbEntity
  8
1
  6
Continuous
100
AcDbLine
 10
323.2942259999999
 20
55.145011
 30
0.0
 11
323.2942259999999
 21
42.14501099999997
 31
0.0
  0
LINE
  5
9720
330
96EC
100
AcDbEntity
  8
1
  6
Continuous
100
AcDbLine
 10
323.794226
 20
54.24500899999999
 30
0.0
 11
323.794226
 21
43.04501199999999
 31
0.0
  0
LINE
  5
9721
330
96EC
100
AcDbEntity
  8
1
  6
Continuous
100
AcDbLine
 10
323.794226
 20
43.04501199999999
 30
0.0
 11
323.2942259999999
 21
42.145003
 31
0.0
  0
LINE
  5
9722
330
96EC
100
AcDbEntity
  8
1
  6
Continuous
100
AcDbLine
 10
323.2942259999999
 20
55.145011
 30
0.0
 11
323.794226
 21
54.24500899999999
 31
0.0
  0
LINE
  5
9723
330
96EC
100
AcDbEntity
  8
1
  6
Continuous
100
AcDbLine
 10
321.794226
 20
45.14501099999999
 30
0.0
 11
321.794226
 21
43.495009
 31
0.0
  0
LINE
  5
9724
330
96EC
100
AcDbEntity
  8
1
  6
Continuous
100
AcDbLine
 10
322.2942259999999
 20
43.195014
 30
0.0
 11
322.0942449999999
 21
43.195014
 31
0.0
  0
LINE
  5
9725
330
96EC
100
AcDbEntity
  8
1
  6
Continuous
100
AcDbLine
 10
322.2942259999999
 20
54.09500799999999
 30
0.0
 11
322.0942449999999
 21
54.09500799999999
 31
0.0
  0
LINE
  5
9726
330
96EC
100
AcDbEntity
  8
1
  6
Continuous
100
AcDbLine
 10
319.794226
 20
42.345008
 30
0.0
 11
319.2942259999999
 21
42.345008
 31
0.0
  0
LINE
  5
9727
330
96EC
100
AcDbEntity
  8
1
  6
Continuous
100
AcDbLine
 10
319.794226
 20
42.64501099999999
 30
0.0
 11
319.794226
 21
42.345008
 31
0.0
  0
LINE
  5
9728
330
96EC
100
AcDbEntity
  8
1
  6
Continuous
100
AcDbLine
 10
319.794226
 20
42.645003
 30
0.0
 11
320.6403869999999
 21
42.871756
 31
0.0
  0
LINE
  5
9729
330
96EC
100
AcDbEntity
  8
1
  6
Continuous
100
AcDbLine
 10
316.378241
 20
44.064711
 30
0.0
 11
319.2942259999999
 21
42.34502299999999
 31
0.0
  0
LINE
  5
972A
330
96EC
100
AcDbEntity
  8
1
  6
Continuous
100
AcDbLine
 10
317.7935549999999
 20
44.390998
 30
0.0
 11
319.227973
 21
43.545012
 31
0.0
  0
LINE
  5
972B
330
96EC
100
AcDbEntity
  8
1
  6
Continuous
100
AcDbLine
 10
320.551734
 20
43.545012
 30
0.0
 11
319.227973
 21
43.545012
 31
0.0
  0
LINE
  5
972C
330
96EC
100
AcDbEntity
  8
1
  6
Continuous
100
AcDbLine
 10
322.2942259999999
 20
45.14501099999999
 30
0.0
 11
317.5942449999999
 21
45.14501099999999
 31
0.0
  0
LINE
  5
972D
330
96EC
100
AcDbEntity
  8
1
  6
Continuous
100
AcDbLine
 10
320.2942259999999
 20
46.64501099999998
 30
0.0
 11
320.2942259999999
 21
45.445014
 31
0.0
  0
LINE
  5
972E
330
96EC
100
AcDbEntity
  8
1
  6
Continuous
100
AcDbLine
 10
317.2942259999999
 20
46.64501099999998
 30
0.0
 11
317.2942259999999
 21
45.445014
 31
0.0
  0
LINE
  5
972F
330
96EC
100
AcDbEntity
  8
1
  6
Continuous
100
AcDbLine
 10
315.394233
 20
51.345008
 30
0.0
 11
315.394233
 21
51.502608
 31
0.0
  0
LINE
  5
9730
330
96EC
100
AcDbEntity
  8
1
  6
Continuous
100
AcDbLine
 10
316.3782109999999
 20
53.22535600000001
 30
0.0
 11
319.2942259999999
 21
54.945014
 31
0.0
  0
LINE
  5
9731
330
96EC
100
AcDbEntity
  8
1
  6
Continuous
100
AcDbLine
 10
319.794226
 20
54.945014
 30
0.0
 11
319.2942259999999
 21
54.945014
 31
0.0
  0
LINE
  5
9732
330
96EC
100
AcDbEntity
  8
1
  6
Continuous
100
AcDbLine
 10
319.794226
 20
54.64501099999999
 30
0.0
 11
319.794226
 21
54.945014
 31
0.0
  0
LINE
  5
9733
330
96EC
100
AcDbEntity
  8
1
  6
Continuous
100
AcDbLine
 10
319.794226
 20
54.64501099999999
 30
0.0
 11
320.6403869999999
 21
54.41831099999999
 31
0.0
  0
LINE
  5
9734
330
96EC
100
AcDbEntity
  8
1
  6
Continuous
100
AcDbLine
 10
320.551734
 20
53.74500900000001
 30
0.0
 11
319.227973
 21
53.74500900000001
 31
0.0
  0
LINE
  5
9735
330
96EC
100
AcDbEntity
  8
1
  6
Continuous
100
AcDbLine
 10
317.7935249999998
 20
52.89904700000001
 30
0.0
 11
319.228003
 21
53.74501699999999
 31
0.0
  0
LINE
  5
9736
330
96EC
100
AcDbEntity
  8
1
  6
Continuous
100
AcDbLine
 10
317.2942259999999
 20
50.645011
 30
0.0
 11
317.2942259999999
 21
51.845008
 31
0.0
  0
LINE
  5
9737
330
96EC
100
AcDbEntity
  8
1
  6
Continuous
100
AcDbLine
 10
322.2942259999999
 20
52.14501099999999
 30
0.0
 11
317.5942449999999
 21
52.14501099999999
 31
0.0
  0
LINE
  5
9738
330
96EC
100
AcDbEntity
  8
1
  6
Continuous
100
AcDbLine
 10
320.2942259999999
 20
50.645011
 30
0.0
 11
320.2942259999999
 21
51.845008
 31
0.0
  0
LINE
  5
9739
330
96EC
100
AcDbEntity
  8
1
  6
Continuous
100
AcDbLine
 10
321.794226
 20
53.79501199999999
 30
0.0
 11
321.794226
 21
52.14501099999999
 31
0.0
  0
LINE
  5
973A
330
96EC
100
AcDbEntity
  8
1
  6
Continuous
100
AcDbLine
 10
380.6162479999999
 20
54.14501099999998
 30
0.0
 11
380.6162479999999
 21
43.145011
 31
0.0
  0
LINE
  5
973B
330
96EC
100
AcDbEntity
  8
1
  6
Continuous
100
AcDbLine
 10
392.6162479999999
 20
54.14501099999998
 30
0.0
 11
392.6162479999999
 21
43.145011
 31
0.0
  0
LINE
  5
973C
330
96EC
100
AcDbEntity
  8
1
  6
Continuous
100
AcDbLine
 10
381.616248
 20
55.145011
 30
0.0
 11
391.616248
 21
55.145011
 31
0.0
  0
LINE
  5
973D
330
96EC
100
AcDbEntity
  8
1
  6
Continuous
100
AcDbLine
 10
381.616248
 20
42.14501099999997
 30
0.0
 11
391.616248
 21
42.14501099999997
 31
0.0
  0
LINE
  5
973E
330
96EC
100
AcDbEntity
  8
1
  6
Continuous
100
AcDbLine
 10
382.5162419999998
 20
43.04501199999999
 30
0.0
 11
390.716224
 21
43.04501199999999
 31
0.0
  0
LINE
  5
973F
330
96EC
100
AcDbEntity
  8
1
  6
Continuous
100
AcDbLine
 10
391.716224
 20
44.045012
 30
0.0
 11
391.716224
 21
53.245009
 31
0.0
  0
LINE
  5
9740
330
96EC
100
AcDbEntity
  8
1
  6
Continuous
100
AcDbLine
 10
390.716224
 20
54.24500899999999
 30
0.0
 11
382.5162419999998
 21
54.24500899999999
 31
0.0
  0
LINE
  5
9741
330
96EC
100
AcDbEntity
  8
1
  6
Continuous
100
AcDbLine
 10
381.516242
 20
53.245009
 30
0.0
 11
381.516242
 21
44.045012
 31
0.0
  0
LINE
  5
9742
330
96EC
100
AcDbEntity
  8
4
  6
CENTER
100
AcDbLine
 10
386.6162479999999
 20
57.14501099999999
 30
0.0
 11
386.6162479999999
 21
40.14501099999999
 31
0.0
  0
LINE
  5
9743
330
96EC
100
AcDbEntity
  8
4
  6
CENTER
100
AcDbLine
 10
394.6162479999999
 20
48.645011
 30
0.0
 11
378.6162479999999
 21
48.645011
 31
0.0
  0
LINE
  5
9744
330
96EC
100
AcDbEntity
  8
4
  6
CENTER
100
AcDbLine
 10
308.2334279999999
 20
132.7657539999999
 30
0.0
 11
325.9334099999999
 21
132.7657539999999
 31
0.0
  0
LINE
  5
9745
330
96EC
100
AcDbEntity
  8
1
  6
Continuous
100
AcDbLine
 10
323.794226
 20
137.8657599999999
 30
0.0
 11
323.794226
 21
127.6657469999999
 31
0.0
  0
LINE
  5
9746
330
96EC
100
AcDbEntity
  8
1
  6
Continuous
100
AcDbLine
 10
322.2942259999999
 20
126.765754
 30
0.0
 11
323.2942259999999
 21
126.765754
 31
0.0
  0
LINE
  5
9747
330
96EC
100
AcDbEntity
  8
1
  6
Continuous
100
AcDbLine
 10
322.2942259999999
 20
138.7657539999999
 30
0.0
 11
323.2942259999999
 21
138.7657539999999
 31
0.0
  0
LINE
  5
9748
330
96EC
100
AcDbEntity
  8
1
  6
Continuous
100
AcDbLine
 10
323.2942259999999
 20
138.7657539999999
 30
0.0
 11
323.2942259999999
 21
126.765754
 31
0.0
  0
LINE
  5
9749
330
96EC
100
AcDbEntity
  8
1
  6
Continuous
100
AcDbLine
 10
322.2942259999999
 20
138.7657539999999
 30
0.0
 11
322.2942259999999
 21
126.765754
 31
0.0
  0
LINE
  5
974A
330
96EC
100
AcDbEntity
  8
1
  6
Continuous
100
AcDbLine
 10
323.2942259999999
 20
138.7657539999999
 30
0.0
 11
323.794226
 21
137.8657599999999
 31
0.0
  0
LINE
  5
974B
330
96EC
100
AcDbEntity
  8
1
  6
Continuous
100
AcDbLine
 10
323.2942259999999
 20
126.765754
 30
0.0
 11
323.7942569999999
 21
127.6657629999998
 31
0.0
  0
LINE
  5
974C
330
96EC
100
AcDbEntity
  8
1
  6
Continuous
100
AcDbLine
 10
310.094245
 20
134.215751
 30
0.0
 11
310.094245
 21
131.3157569999999
 31
0.0
  0
LINE
  5
974D
330
96EC
100
AcDbEntity
  8
1
  6
Continuous
100
AcDbLine
 10
310.3942329999998
 20
131.0157539999999
 30
0.0
 11
322.2942259999999
 21
131.0157539999999
 31
0.0
  0
LINE
  5
974E
330
96EC
100
AcDbEntity
  8
1
  6
Continuous
100
AcDbLine
 10
310.3942329999998
 20
134.5157539999999
 30
0.0
 11
322.2942259999999
 21
134.5157539999999
 31
0.0
  0
LINE
  5
974F
330
96EC
100
AcDbEntity
  8
1
  6
Continuous
100
AcDbLine
 10
321.794226
 20
134.5157539999999
 30
0.0
 11
321.794226
 21
131.0157539999999
 31
0.0
  0
LINE
  5
9750
330
96EC
100
AcDbEntity
  8
1
  6
Continuous
100
AcDbLine
 10
313.5942449999999
 20
134.215751
 30
0.0
 11
313.5942449999999
 21
131.3157569999999
 31
0.0
  0
LINE
  5
9751
330
96EC
100
AcDbEntity
  8
1
  6
Continuous
100
AcDbLine
 10
315.400458
 20
134.5157539999999
 30
0.0
 11
315.400458
 21
131.0157539999999
 31
0.0
  0
LINE
  5
9752
330
96EC
100
AcDbEntity
  8
1
  6
Continuous
100
AcDbLine
 10
320.894172
 20
134.5157539999999
 30
0.0
 11
320.894172
 21
131.0157539999999
 31
0.0
  0
LINE
  5
9753
330
96EC
100
AcDbEntity
  8
1
  6
Continuous
100
AcDbLine
 10
311.4942689999999
 20
134.0157539999999
 30
0.0
 11
311.4942689999999
 21
131.5157539999999
 31
0.0
  0
LINE
  5
9754
330
96EC
100
AcDbEntity
  8
1
  6
Continuous
100
AcDbLine
 10
312.9941779999999
 20
134.0157539999999
 30
0.0
 11
312.9941779999999
 21
131.5157539999999
 31
0.0
  0
LINE
  5
9755
330
96EC
100
AcDbEntity
  8
1
  6
Continuous
100
AcDbLine
 10
320.2942259999999
 20
137.7657539999999
 30
0.0
 11
322.2942259999999
 21
137.7657539999999
 31
0.0
  0
LINE
  5
9756
330
96EC
100
AcDbEntity
  8
1
  6
Continuous
100
AcDbLine
 10
320.2942259999999
 20
127.765754
 30
0.0
 11
322.2942259999999
 21
127.765754
 31
0.0
  0
LINE
  5
9757
330
96EC
100
AcDbEntity
  8
1
  6
Continuous
100
AcDbLine
 10
317.2942259999999
 20
135.465751
 30
0.0
 11
317.2942259999999
 21
134.5157539999999
 31
0.0
  0
LINE
  5
9758
330
96EC
100
AcDbEntity
  8
1
  6
Continuous
100
AcDbLine
 10
317.2942259999999
 20
135.465751
 30
0.0
 11
320.2942259999999
 21
137.765738
 31
0.0
  0
LINE
  5
9759
330
96EC
100
AcDbEntity
  8
1
  6
Continuous
100
AcDbLine
 10
317.2942259999999
 20
130.065757
 30
0.0
 11
320.2942259999999
 21
127.765754
 31
0.0
  0
LINE
  5
975A
330
96EC
100
AcDbEntity
  8
1
  6
Continuous
100
AcDbLine
 10
317.2942259999999
 20
131.0157539999999
 30
0.0
 11
317.2942259999999
 21
130.065757
 31
0.0
  0
LINE
  5
975B
330
96EC
100
AcDbEntity
  8
1
  6
Continuous
100
AcDbLine
 10
253.9722359999999
 20
54.14501099999998
 30
0.0
 11
253.9722359999999
 21
43.145011
 31
0.0
  0
LINE
  5
975C
330
96EC
100
AcDbEntity
  8
1
  6
Continuous
100
AcDbLine
 10
241.9722359999999
 20
54.14501099999998
 30
0.0
 11
241.9722359999999
 21
43.145011
 31
0.0
  0
LINE
  5
975D
330
96EC
100
AcDbEntity
  8
1
  6
Continuous
100
AcDbLine
 10
252.972236
 20
55.145011
 30
0.0
 11
242.9722359999999
 21
55.145011
 31
0.0
  0
LINE
  5
975E
330
96EC
100
AcDbEntity
  8
1
  6
Continuous
100
AcDbLine
 10
252.972236
 20
42.14501099999997
 30
0.0
 11
242.9722359999999
 21
42.14501099999997
 31
0.0
  0
LINE
  5
975F
330
96EC
100
AcDbEntity
  8
4
  6
CENTER
100
AcDbLine
 10
247.9722359999999
 20
56.225562
 30
0.0
 11
247.9722359999999
 21
41.110312
 31
0.0
  0
LINE
  5
9760
330
96EC
100
AcDbEntity
  8
4
  6
CENTER
100
AcDbLine
 10
240.903479
 20
48.645011
 30
0.0
 11
254.950476
 21
48.645011
 31
0.0
  0
LINE
  5
9761
330
96EC
100
AcDbEntity
  8
1
  6
Continuous
100
AcDbLine
 10
246.2222359999999
 20
54.945014
 30
0.0
 11
246.2222359999999
 21
42.345008
 31
0.0
  0
LINE
  5
9762
330
96EC
100
AcDbEntity
  8
1
  6
Continuous
100
AcDbLine
 10
249.7222359999999
 20
54.945014
 30
0.0
 11
249.7222359999999
 21
42.345008
 31
0.0
  0
LINE
  5
9763
330
96EC
100
AcDbEntity
  8
1
  6
Continuous
100
AcDbLine
 10
242.9722359999999
 20
51.845008
 30
0.0
 11
242.9722359999999
 21
50.645011
 31
0.0
  0
LINE
  5
9764
330
96EC
100
AcDbEntity
  8
1
  6
Continuous
100
AcDbLine
 10
252.972236
 20
51.845008
 30
0.0
 11
252.972236
 21
50.645011
 31
0.0
  0
LINE
  5
9765
330
96EC
100
AcDbEntity
  8
1
  6
Continuous
100
AcDbLine
 10
246.2222359999999
 20
54.945014
 30
0.0
 11
249.7222359999999
 21
54.945014
 31
0.0
  0
LINE
  5
9766
330
96EC
100
AcDbEntity
  8
1
  6
Continuous
100
AcDbLine
 10
246.2222359999999
 20
42.345008
 30
0.0
 11
249.7222359999999
 21
42.345008
 31
0.0
  0
LINE
  5
9767
330
96EC
100
AcDbEntity
  8
1
  6
Continuous
100
AcDbLine
 10
243.2722229999999
 20
52.14501099999999
 30
0.0
 11
246.2222359999999
 21
52.14501099999999
 31
0.0
  0
LINE
  5
9768
330
96EC
100
AcDbEntity
  8
1
  6
Continuous
100
AcDbLine
 10
243.2722229999999
 20
45.14501099999999
 30
0.0
 11
246.2222359999999
 21
45.14501099999999
 31
0.0
  0
LINE
  5
9769
330
96EC
100
AcDbEntity
  8
1
  6
Continuous
100
AcDbLine
 10
249.7222359999999
 20
52.14501099999999
 30
0.0
 11
252.6722169999999
 21
52.14501099999999
 31
0.0
  0
LINE
  5
976A
330
96EC
100
AcDbEntity
  8
1
  6
Continuous
100
AcDbLine
 10
249.7222359999999
 20
45.14501099999999
 30
0.0
 11
252.6722169999999
 21
45.14501099999999
 31
0.0
  0
LINE
  5
976B
330
96EC
100
AcDbEntity
  8
1
  6
Continuous
100
AcDbLine
 10
246.2222359999999
 20
52.395011
 30
0.0
 11
249.7222359999999
 21
52.395011
 31
0.0
  0
LINE
  5
976C
330
96EC
100
AcDbEntity
  8
1
  6
Continuous
100
AcDbLine
 10
246.2222359999999
 20
44.895011
 30
0.0
 11
249.7222359999999
 21
44.895011
 31
0.0
  0
LINE
  5
976D
330
96EC
100
AcDbEntity
  8
1
  6
Continuous
100
AcDbLine
 10
319.2942259999999
 20
134.5157539999999
 30
0.0
 11
319.2942259999999
 21
131.0157539999999
 31
0.0
  0
LINE
  5
976E
330
96EC
100
AcDbEntity
  8
1
  6
Continuous
100
AcDbLine
 10
319.794226
 20
134.5157539999999
 30
0.0
 11
319.794226
 21
131.0157539999999
 31
0.0
  0
LINE
  5
976F
330
96EC
100
AcDbEntity
  8
1
  6
Continuous
100
AcDbLine
 10
246.722236
 20
50.64509499999999
 30
0.0
 11
249.2222359999999
 21
50.64509499999999
 31
0.0
  0
LINE
  5
9770
330
96EC
100
AcDbEntity
  8
1
  6
Continuous
100
AcDbLine
 10
246.722236
 20
46.64495
 30
0.0
 11
249.2222359999999
 21
46.64495
 31
0.0
  0
LINE
  5
9771
330
96EC
100
AcDbEntity
  8
1
  6
Continuous
100
AcDbLine
 10
242.9722359999999
 20
50.645011
 30
0.0
 11
246.2222359999999
 21
50.645011
 31
0.0
  0
LINE
  5
9772
330
96EC
100
AcDbEntity
  8
1
  6
Continuous
100
AcDbLine
 10
242.9722359999999
 20
46.64501099999998
 30
0.0
 11
246.2222359999999
 21
46.64501099999998
 31
0.0
  0
LINE
  5
9773
330
96EC
100
AcDbEntity
  8
1
  6
Continuous
100
AcDbLine
 10
242.9722359999999
 20
46.64501099999998
 30
0.0
 11
242.9722359999999
 21
45.445006
 31
0.0
  0
LINE
  5
9774
330
96EC
100
AcDbEntity
  8
1
  6
Continuous
100
AcDbLine
 10
252.972236
 20
46.64501099999998
 30
0.0
 11
252.972236
 21
45.445006
 31
0.0
  0
LINE
  5
9775
330
96EC
100
AcDbEntity
  8
1
  6
Continuous
100
AcDbLine
 10
249.7222359999999
 20
46.64501099999998
 30
0.0
 11
252.972236
 21
46.64501099999998
 31
0.0
  0
LINE
  5
9776
330
96EC
100
AcDbEntity
  8
1
  6
Continuous
100
AcDbLine
 10
249.7222359999999
 20
50.645011
 30
0.0
 11
252.972236
 21
50.645011
 31
0.0
  0
LINE
  5
9777
330
96EC
100
AcDbEntity
  8
1
  6
Continuous
100
AcDbLine
 10
110.9654449999998
 20
39.145003
 30
0.0
 11
108.0855019999999
 21
41.561599
 31
0.0
  0
LINE
  5
9778
330
96EC
100
AcDbEntity
  8
1
  6
Continuous
100
AcDbLine
 10
111.0652679999999
 20
42.390105
 30
0.0
 11
110.8817659999999
 21
42.544059
 31
0.0
  0
LINE
  5
9779
330
96EC
100
AcDbEntity
  8
1
  6
Continuous
100
AcDbLine
 10
109.2034669999998
 20
42.581664
 30
0.0
 11
108.4655669999998
 21
43.20081199999999
 31
0.0
  0
LINE
  5
977A
330
96EC
100
AcDbEntity
  8
1
  6
Continuous
100
AcDbLine
 10
109.881308
 20
42.456008
 30
0.0
 11
110.397559
 21
42.633811
 31
0.0
  0
LINE
  5
977B
330
96EC
100
AcDbEntity
  8
1
  6
Continuous
100
AcDbLine
 10
107.669852
 20
42.155249
 30
0.0
 11
106.718558
 21
44.768805
 31
0.0
  0
LINE
  5
977C
330
96EC
100
AcDbEntity
  8
1
  6
Continuous
100
AcDbLine
 10
107.965461
 20
44.59500799999999
 30
0.0
 11
107.965461
 21
44.273261
 31
0.0
  0
LINE
  5
977D
330
96EC
100
AcDbEntity
  8
4
  6
CENTER
100
AcDbLine
 10
110.2262639999999
 20
48.645011
 30
0.0
 11
83.060714
 21
48.645011
 31
0.0
  0
LINE
  5
977E
330
96EC
100
AcDbEntity
  8
1
  6
Continuous
100
AcDbLine
 10
106.1549599999999
 20
45.245009
 30
0.0
 11
105.8654699999999
 21
45.245009
 31
0.0
  0
LINE
  5
977F
330
96EC
100
AcDbEntity
  8
1
  6
Continuous
100
AcDbLine
 10
106.718573
 20
44.768805
 30
0.0
 11
106.587973
 21
44.995009
 31
0.0
  0
LINE
  5
9780
330
96EC
100
AcDbEntity
  8
1
  6
Continuous
100
AcDbLine
 10
110.9654609999999
 20
58.145003
 30
0.0
 11
108.0855169999999
 21
55.72846099999999
 31
0.0
  0
LINE
  5
9781
330
96EC
100
AcDbEntity
  8
1
  6
Continuous
100
AcDbLine
 10
109.203452
 20
54.708411
 30
0.0
 11
108.465552
 21
54.089263
 31
0.0
  0
LINE
  5
9782
330
96EC
100
AcDbEntity
  8
1
  6
Continuous
100
AcDbLine
 10
109.881308
 20
54.83405199999999
 30
0.0
 11
110.397559
 21
54.656249
 31
0.0
  0
LINE
  5
9783
330
96EC
100
AcDbEntity
  8
1
  6
Continuous
100
AcDbLine
 10
107.669852
 20
55.13480999999998
 30
0.0
 11
106.718558
 21
52.521262
 31
0.0
  0
LINE
  5
9784
330
96EC
100
AcDbEntity
  8
1
  6
Continuous
100
AcDbLine
 10
107.965461
 20
52.695014
 30
0.0
 11
107.965461
 21
53.01681399999999
 31
0.0
  0
LINE
  5
9785
330
96EC
100
AcDbEntity
  8
1
  6
Continuous
100
AcDbLine
 10
106.1549599999999
 20
52.045012
 30
0.0
 11
105.8654699999999
 21
52.045012
 31
0.0
  0
LINE
  5
9786
330
96EC
100
AcDbEntity
  8
1
  6
Continuous
100
AcDbLine
 10
106.718558
 20
52.52124699999999
 30
0.0
 11
106.587958
 21
52.295005
 31
0.0
  0
LINE
  5
9787
330
96EC
100
AcDbEntity
  8
1
  6
Continuous
100
AcDbLine
 10
107.36547
 20
45.995963
 30
0.0
 11
107.36547
 21
51.29411199999999
 31
0.0
  0
LINE
  5
9788
330
96EC
100
AcDbEntity
  8
1
  6
Continuous
100
AcDbLine
 10
105.8654699999999
 20
41.64501099999998
 30
0.0
 11
105.8654699999999
 21
55.645011
 31
0.0
  0
LINE
  5
9789
330
96EC
100
AcDbEntity
  8
1
  6
Continuous
100
AcDbLine
 10
105.8654699999999
 20
41.64501099999998
 30
0.0
 11
101.36547
 21
41.64501099999998
 31
0.0
  0
LINE
  5
978A
330
96EC
100
AcDbEntity
  8
1
  6
Continuous
100
AcDbLine
 10
105.8654699999999
 20
55.645011
 30
0.0
 11
101.36547
 21
55.645011
 31
0.0
  0
LINE
  5
978B
330
96EC
100
AcDbEntity
  8
1
  6
Continuous
100
AcDbLine
 10
85.36546199999998
 20
44.045012
 30
0.0
 11
85.36546199999998
 21
53.245009
 31
0.0
  0
LINE
  5
978C
330
96EC
100
AcDbEntity
  8
1
  6
Continuous
100
AcDbLine
 10
101.36547
 20
43.245009
 30
0.0
 11
86.165458
 21
43.245009
 31
0.0
  0
LINE
  5
978D
330
96EC
100
AcDbEntity
  8
1
  6
Continuous
100
AcDbLine
 10
101.36547
 20
54.045012
 30
0.0
 11
86.165458
 21
54.045012
 31
0.0
  0
LINE
  5
978E
330
96EC
100
AcDbEntity
  8
1
  6
Continuous
100
AcDbLine
 10
101.36547
 20
41.64501099999998
 30
0.0
 11
101.36547
 21
43.245009
 31
0.0
  0
LINE
  5
978F
330
96EC
100
AcDbEntity
  8
1
  6
Continuous
100
AcDbLine
 10
101.36547
 20
54.045012
 30
0.0
 11
101.36547
 21
55.645011
 31
0.0
  0
LINE
  5
9790
330
96EC
100
AcDbEntity
  8
1
  6
Continuous
100
AcDbLine
 10
99.03920599999999
 20
54.54276199999998
 30
0.0
 11
98.53971000000001
 21
54.564406
 31
0.0
  0
LINE
  5
9791
330
96EC
100
AcDbEntity
  8
1
  6
Continuous
100
AcDbLine
 10
98.53971000000001
 20
54.564414
 30
0.0
 11
96.66545800000001
 21
54.045012
 31
0.0
  0
LINE
  5
9792
330
96EC
100
AcDbEntity
  8
1
  6
Continuous
100
AcDbLine
 10
99.03920599999999
 20
54.542754
 30
0.0
 11
99.08051200000002
 21
54.34075799999999
 31
0.0
  0
LINE
  5
9793
330
96EC
100
AcDbEntity
  8
1
  6
Continuous
100
AcDbLine
 10
99.96886299999999
 20
54.05205399999999
 30
0.0
 11
99.46930600000001
 21
54.073653
 31
0.0
  0
LINE
  5
9794
330
96EC
100
AcDbEntity
  8
1
  6
Continuous
100
AcDbLine
 10
99.08051200000002
 20
54.34075100000001
 30
0.0
 11
99.46930600000001
 21
54.073653
 31
0.0
  0
LINE
  5
9795
330
96EC
100
AcDbEntity
  8
1
  6
Continuous
100
AcDbLine
 10
99.96857300000002
 20
54.045012
 30
0.0
 11
99.96886299999999
 21
54.052062
 31
0.0
  0
LINE
  5
9796
330
96EC
100
AcDbEntity
  8
1
  6
Continuous
100
AcDbLine
 10
99.039222
 20
42.747306
 30
0.0
 11
98.53971000000001
 21
42.725653
 31
0.0
  0
LINE
  5
9797
330
96EC
100
AcDbEntity
  8
1
  6
Continuous
100
AcDbLine
 10
98.53971000000001
 20
42.725653
 30
0.0
 11
96.66545800000001
 21
43.245002
 31
0.0
  0
LINE
  5
9798
330
96EC
100
AcDbEntity
  8
1
  6
Continuous
100
AcDbLine
 10
99.039222
 20
42.747313
 30
0.0
 11
99.08051200000002
 21
42.94930899999999
 31
0.0
  0
LINE
  5
9799
330
96EC
100
AcDbEntity
  8
1
  6
Continuous
100
AcDbLine
 10
99.96886299999999
 20
43.23800499999999
 30
0.0
 11
99.46930600000001
 21
43.216361
 31
0.0
  0
LINE
  5
979A
330
96EC
100
AcDbEntity
  8
1
  6
Continuous
100
AcDbLine
 10
99.08051200000002
 20
42.94930899999999
 30
0.0
 11
99.46930600000001
 21
43.21635299999999
 31
0.0
  0
LINE
  5
979B
330
96EC
100
AcDbEntity
  8
1
  6
Continuous
100
AcDbLine
 10
99.968558
 20
43.245009
 30
0.0
 11
99.96886299999999
 21
43.238013
 31
0.0
  0
LINE
  5
979C
330
96EC
100
AcDbEntity
  8
1
  6
Continuous
100
AcDbLine
 10
103.6654579999999
 20
48.74500900000001
 30
0.0
 11
103.6654579999999
 21
50.545012
 31
0.0
  0
LINE
  5
979D
330
96EC
100
AcDbEntity
  8
1
  6
Continuous
100
AcDbLine
 10
102.6654579999999
 20
48.845008
 30
0.0
 11
102.6654579999999
 21
50.445014
 31
0.0
  0
LINE
  5
979E
330
96EC
100
AcDbEntity
  8
1
  6
Continuous
100
AcDbLine
 10
100.86547
 20
48.845008
 30
0.0
 11
100.86547
 21
50.445014
 31
0.0
  0
LINE
  5
979F
330
96EC
100
AcDbEntity
  8
1
  6
Continuous
100
AcDbLine
 10
103.6654579999999
 20
48.845008
 30
0.0
 11
100.86547
 21
48.845008
 31
0.0
  0
LINE
  5
97A0
330
96EC
100
AcDbEntity
  8
1
  6
Continuous
100
AcDbLine
 10
103.6654579999999
 20
50.445014
 30
0.0
 11
100.86547
 21
50.445014
 31
0.0
  0
LINE
  5
97A1
330
96EC
100
AcDbEntity
  8
1
  6
Continuous
100
AcDbLine
 10
92.36546199999999
 20
48.74500900000001
 30
0.0
 11
103.6654579999999
 21
48.74500900000001
 31
0.0
  0
LINE
  5
97A2
330
96EC
100
AcDbEntity
  8
1
  6
Continuous
100
AcDbLine
 10
92.36546199999999
 20
50.545012
 30
0.0
 11
103.6654579999999
 21
50.545012
 31
0.0
  0
LINE
  5
97A3
330
96EC
100
AcDbEntity
  8
1
  6
Continuous
100
AcDbLine
 10
105.8654699999999
 20
127.86576
 30
0.0
 11
86.165458
 21
127.86576
 31
0.0
  0
LINE
  5
97A4
330
96EC
100
AcDbEntity
  8
1
  6
Continuous
100
AcDbLine
 10
105.8654699999999
 20
127.86576
 30
0.0
 11
105.8654699999999
 21
137.6657629999999
 31
0.0
  0
LINE
  5
97A5
330
96EC
100
AcDbEntity
  8
1
  6
Continuous
100
AcDbLine
 10
85.36546199999998
 20
128.665763
 30
0.0
 11
85.36546199999998
 21
136.8657599999999
 31
0.0
  0
LINE
  5
97A6
330
96EC
100
AcDbEntity
  8
1
  6
Continuous
100
AcDbLine
 10
105.8654699999999
 20
137.6657629999999
 30
0.0
 11
86.165458
 21
137.6657629999999
 31
0.0
  0
LINE
  5
97A7
330
96EC
100
AcDbEntity
  8
1
  6
Continuous
100
AcDbLine
 10
101.36547
 20
127.86576
 30
0.0
 11
101.36547
 21
137.6657629999999
 31
0.0
  0
LINE
  5
97A8
330
96EC
100
AcDbEntity
  8
4
  6
CENTER
100
AcDbLine
 10
113.7046429999999
 20
132.7657539999999
 30
0.0
 11
83.50463899999999
 21
132.7657539999999
 31
0.0
  0
LINE
  5
97A9
330
96EC
100
AcDbEntity
  8
1
  6
Continuous
100
AcDbLine
 10
99.96546100000001
 20
134.7657539999999
 30
0.0
 11
96.66545800000001
 21
134.7657539999999
 31
0.0
  0
LINE
  5
97AA
330
96EC
100
AcDbEntity
  8
1
  6
Continuous
100
AcDbLine
 10
101.36547
 20
136.6657629999999
 30
0.0
 11
96.165458
 21
136.6657629999999
 31
0.0
  0
LINE
  5
97AB
330
96EC
100
AcDbEntity
  8
1
  6
Continuous
100
AcDbLine
 10
99.96546100000001
 20
130.7657539999999
 30
0.0
 11
96.66545800000001
 21
130.7657539999999
 31
0.0
  0
LINE
  5
97AC
330
96EC
100
AcDbEntity
  8
1
  6
Continuous
100
AcDbLine
 10
101.36547
 20
129.065757
 30
0.0
 11
96.165458
 21
129.065757
 31
0.0
  0
LINE
  5
97AD
330
96EC
100
AcDbEntity
  8
1
  6
Continuous
100
AcDbLine
 10
99.96546100000001
 20
130.7657539999999
 30
0.0
 11
99.96546100000001
 21
134.7657539999999
 31
0.0
  0
LINE
  5
97AE
330
96EC
100
AcDbEntity
  8
1
  6
Continuous
100
AcDbLine
 10
99.465461
 20
130.7657539999999
 30
0.0
 11
99.465461
 21
134.7657539999999
 31
0.0
  0
LINE
  5
97AF
330
96EC
100
AcDbEntity
  8
1
  6
Continuous
100
AcDbLine
 10
99.06546699999999
 20
130.7657539999999
 30
0.0
 11
99.06546699999999
 21
134.7657539999999
 31
0.0
  0
LINE
  5
97B0
330
96EC
100
AcDbEntity
  8
1
  6
Continuous
100
AcDbLine
 10
99.015464
 20
130.7657539999999
 30
0.0
 11
99.015464
 21
134.7657539999999
 31
0.0
  0
LINE
  5
97B1
330
96EC
100
AcDbEntity
  8
1
  6
Continuous
100
AcDbLine
 10
98.515464
 20
130.7657539999999
 30
0.0
 11
98.515464
 21
134.7657539999999
 31
0.0
  0
LINE
  5
97B2
330
96EC
100
AcDbEntity
  8
1
  6
Continuous
100
AcDbLine
 10
96.66545800000001
 20
130.7657539999999
 30
0.0
 11
96.66545800000001
 21
134.7657539999999
 31
0.0
  0
LINE
  5
97B3
330
96EC
100
AcDbEntity
  8
1
  6
Continuous
100
AcDbLine
 10
96.165458
 20
135.2657539999999
 30
0.0
 11
96.165458
 21
136.6657629999999
 31
0.0
  0
LINE
  5
97B4
330
96EC
100
AcDbEntity
  8
1
  6
Continuous
100
AcDbLine
 10
96.165458
 20
129.065757
 30
0.0
 11
96.165458
 21
130.265754
 31
0.0
  0
LINE
  5
97B5
330
96EC
100
AcDbEntity
  8
1
  6
Continuous
100
AcDbLine
 10
111.565467
 20
134.7657539999999
 30
0.0
 11
105.8654699999999
 21
134.7657539999999
 31
0.0
  0
LINE
  5
97B6
330
96EC
100
AcDbEntity
  8
1
  6
Continuous
100
AcDbLine
 10
111.565467
 20
130.7657539999999
 30
0.0
 11
105.8654699999999
 21
130.7657539999999
 31
0.0
  0
LINE
  5
97B7
330
96EC
100
AcDbEntity
  8
1
  6
Continuous
100
AcDbLine
 10
111.565467
 20
130.7657539999999
 30
0.0
 11
111.565467
 21
134.7657539999999
 31
0.0
  0
LINE
  5
97B8
330
96EC
100
AcDbEntity
  8
1
  6
Continuous
100
AcDbLine
 10
110.9654609999999
 20
130.7657539999999
 30
0.0
 11
110.9654609999999
 21
134.7657539999999
 31
0.0
  0
LINE
  5
97B9
330
96EC
100
AcDbEntity
  8
1
  6
Continuous
100
AcDbLine
 10
94.86546999999999
 20
48.74500900000001
 30
0.0
 11
94.86546999999999
 21
50.545012
 31
0.0
  0
LINE
  5
97BA
330
96EC
100
AcDbEntity
  8
1
  6
Continuous
100
AcDbLine
 10
92.36546199999999
 20
48.74500900000001
 30
0.0
 11
92.36546199999999
 21
50.545012
 31
0.0
  0
LINE
  5
97BB
330
96EC
100
AcDbEntity
  8
1
  6
Continuous
100
AcDbLine
 10
110.9654609999999
 20
39.14501099999998
 30
0.0
 11
111.448508
 21
39.720656
 31
0.0
  0
LINE
  5
97BC
330
96EC
100
AcDbEntity
  8
1
  6
Continuous
100
AcDbLine
 10
111.237311
 20
42.087813
 30
0.0
 11
111.558905
 21
40.12280899999999
 31
0.0
  0
LINE
  5
97BD
330
96EC
100
AcDbEntity
  8
1
  6
Continuous
100
AcDbLine
 10
111.0652679999999
 20
54.899955
 30
0.0
 11
110.8817509999998
 21
54.74600099999999
 31
0.0
  0
LINE
  5
97BE
330
96EC
100
AcDbEntity
  8
1
  6
Continuous
100
AcDbLine
 10
111.237311
 20
55.20226899999999
 30
0.0
 11
111.558905
 21
57.16725799999998
 31
0.0
  0
LINE
  5
97BF
330
96EC
100
AcDbEntity
  8
1
  6
Continuous
100
AcDbLine
 10
110.9654609999999
 20
58.145011
 30
0.0
 11
111.4485229999998
 21
57.56941099999998
 31
0.0
  0
LINE
  5
97C0
330
96EC
100
AcDbEntity
  8
1
  6
Continuous
100
AcDbLine
 10
170.469764
 20
55.645011
 30
0.0
 11
172.56977
 21
55.645011
 31
0.0
  0
LINE
  5
97C1
330
96EC
100
AcDbEntity
  8
1
  6
Continuous
100
AcDbLine
 10
170.469764
 20
41.64501099999998
 30
0.0
 11
172.56977
 21
41.64501099999998
 31
0.0
  0
LINE
  5
97C2
330
96EC
100
AcDbEntity
  8
4
  6
CENTER
100
AcDbLine
 10
174.56977
 20
60.145011
 30
0.0
 11
174.56977
 21
37.145003
 31
0.0
  0
LINE
  5
97C3
330
96EC
100
AcDbEntity
  8
1
  6
Continuous
100
AcDbLine
 10
169.669776
 20
54.84500799999999
 30
0.0
 11
169.669776
 21
42.445006
 31
0.0
  0
LINE
  5
97C4
330
96EC
100
AcDbEntity
  8
1
  6
Continuous
100
AcDbLine
 10
179.469764
 20
54.84500799999999
 30
0.0
 11
179.469764
 21
42.445006
 31
0.0
  0
LINE
  5
97C5
330
96EC
100
AcDbEntity
  8
1
  6
Continuous
100
AcDbLine
 10
172.56977
 20
58.145011
 30
0.0
 11
172.56977
 21
39.145003
 31
0.0
  0
LINE
  5
97C6
330
96EC
100
AcDbEntity
  8
1
  6
Continuous
100
AcDbLine
 10
176.56977
 20
58.145011
 30
0.0
 11
176.56977
 21
39.145003
 31
0.0
  0
LINE
  5
97C7
330
96EC
100
AcDbEntity
  8
1
  6
Continuous
100
AcDbLine
 10
172.56977
 20
58.145011
 30
0.0
 11
176.56977
 21
58.145011
 31
0.0
  0
LINE
  5
97C8
330
96EC
100
AcDbEntity
  8
1
  6
Continuous
100
AcDbLine
 10
172.56977
 20
39.145003
 30
0.0
 11
176.56977
 21
39.145003
 31
0.0
  0
LINE
  5
97C9
330
96EC
100
AcDbEntity
  8
1
  6
Continuous
100
AcDbLine
 10
176.56977
 20
55.645011
 30
0.0
 11
178.669776
 21
55.645011
 31
0.0
  0
LINE
  5
97CA
330
96EC
100
AcDbEntity
  8
1
  6
Continuous
100
AcDbLine
 10
176.56977
 20
41.64501099999998
 30
0.0
 11
178.669776
 21
41.64501099999998
 31
0.0
  0
LINE
  5
97CB
330
96EC
100
AcDbEntity
  8
1
  6
Continuous
100
AcDbLine
 10
172.56977
 20
51.29411199999999
 30
0.0
 11
176.56977
 21
51.29411199999999
 31
0.0
  0
LINE
  5
97CC
330
96EC
100
AcDbEntity
  8
1
  6
Continuous
100
AcDbLine
 10
172.56977
 20
45.995963
 30
0.0
 11
176.56977
 21
45.995963
 31
0.0
  0
LINE
  5
97CD
330
96EC
100
AcDbEntity
  8
1
  6
Continuous
100
AcDbLine
 10
172.56977
 20
42.66106299999999
 30
0.0
 11
176.56977
 21
42.66106299999999
 31
0.0
  0
LINE
  5
97CE
330
96EC
100
AcDbEntity
  8
1
  6
Continuous
100
AcDbLine
 10
172.56977
 20
54.62901200000001
 30
0.0
 11
176.56977
 21
54.62901200000001
 31
0.0
  0
LINE
  5
97CF
330
96EC
100
AcDbEntity
  8
1
  6
Continuous
100
AcDbLine
 10
172.56977
 20
44.845008
 30
0.0
 11
176.56977
 21
44.845008
 31
0.0
  0
LINE
  5
97D0
330
96EC
100
AcDbEntity
  8
1
  6
Continuous
100
AcDbLine
 10
172.56977
 20
52.445014
 30
0.0
 11
176.56977
 21
52.445014
 31
0.0
  0
LINE
  5
97D1
330
96EC
100
AcDbEntity
  8
1
  6
Continuous
100
AcDbLine
 10
173.06977
 20
45.245009
 30
0.0
 11
176.06977
 21
45.245009
 31
0.0
  0
LINE
  5
97D2
330
96EC
100
AcDbEntity
  8
4
  6
CENTER
100
AcDbLine
 10
167.669776
 20
48.645011
 30
0.0
 11
181.469764
 21
48.645011
 31
0.0
  0
LINE
  5
97D3
330
96EC
100
AcDbEntity
  8
1
  6
Continuous
100
AcDbLine
 10
173.06977
 20
57.32868100000001
 30
0.0
 11
176.06977
 21
57.32868100000001
 31
0.0
  0
LINE
  5
97D4
330
96EC
100
AcDbEntity
  8
1
  6
Continuous
100
AcDbLine
 10
173.06977
 20
39.96134099999999
 30
0.0
 11
176.06977
 21
39.96134099999999
 31
0.0
  0
LINE
  5
97D5
330
96EC
100
AcDbEntity
  8
1
  6
Continuous
100
AcDbLine
 10
173.06977
 20
52.045012
 30
0.0
 11
176.06977
 21
52.045012
 31
0.0
  0
LINE
  5
97D6
330
96EC
100
AcDbEntity
  8
1
  6
Continuous
100
AcDbLine
 10
26.261157
 20
55.645011
 30
0.0
 11
18.061156
 21
55.645011
 31
0.0
  0
LINE
  5
97D7
330
96EC
100
AcDbEntity
  8
1
  6
Continuous
100
AcDbLine
 10
26.261157
 20
41.64501099999998
 30
0.0
 11
18.061156
 21
41.64501099999998
 31
0.0
  0
LINE
  5
97D8
330
96EC
100
AcDbEntity
  8
4
  6
CENTER
100
AcDbLine
 10
22.16115499999999
 20
60.145011
 30
0.0
 11
22.16115499999999
 21
37.145003
 31
0.0
  0
LINE
  5
97D9
330
96EC
100
AcDbEntity
  8
1
  6
Continuous
100
AcDbLine
 10
27.061156
 20
54.84500799999999
 30
0.0
 11
27.061156
 21
42.445006
 31
0.0
  0
LINE
  5
97DA
330
96EC
100
AcDbEntity
  8
1
  6
Continuous
100
AcDbLine
 10
17.261157
 20
54.84500799999999
 30
0.0
 11
17.261157
 21
42.445006
 31
0.0
  0
LINE
  5
97DB
330
96EC
100
AcDbEntity
  8
1
  6
Continuous
100
AcDbLine
 10
24.161155
 20
58.145011
 30
0.0
 11
20.16115499999998
 21
58.145011
 31
0.0
  0
LINE
  5
97DC
330
96EC
100
AcDbEntity
  8
1
  6
Continuous
100
AcDbLine
 10
20.16115499999998
 20
58.145011
 30
0.0
 11
20.16115499999998
 21
55.645011
 31
0.0
  0
LINE
  5
97DD
330
96EC
100
AcDbEntity
  8
1
  6
Continuous
100
AcDbLine
 10
24.161155
 20
58.145011
 30
0.0
 11
24.161155
 21
55.645011
 31
0.0
  0
LINE
  5
97DE
330
96EC
100
AcDbEntity
  8
1
  6
Continuous
100
AcDbLine
 10
24.161155
 20
39.145003
 30
0.0
 11
20.16115499999998
 21
39.145003
 31
0.0
  0
LINE
  5
97DF
330
96EC
100
AcDbEntity
  8
4
  6
CENTER
100
AcDbLine
 10
29.061156
 20
48.645011
 30
0.0
 11
15.261157
 21
48.645011
 31
0.0
  0
LINE
  5
97E0
330
96EC
100
AcDbEntity
  8
1
  6
Continuous
100
AcDbLine
 10
24.161155
 20
41.64501099999998
 30
0.0
 11
24.161155
 21
39.145003
 31
0.0
  0
LINE
  5
97E1
330
96EC
100
AcDbEntity
  8
1
  6
Continuous
100
AcDbLine
 10
20.16115499999998
 20
41.64501099999998
 30
0.0
 11
20.16115499999998
 21
39.145003
 31
0.0
  0
LINE
  5
97E2
330
96EC
100
AcDbEntity
  8
1
  6
Continuous
100
AcDbLine
 10
20.16115499999998
 20
54.564414
 30
0.0
 11
24.161155
 21
54.564414
 31
0.0
  0
LINE
  5
97E3
330
96EC
100
AcDbEntity
  8
1
  6
Continuous
100
AcDbLine
 10
17.261157
 20
54.045012
 30
0.0
 11
27.061156
 21
54.045012
 31
0.0
  0
LINE
  5
97E4
330
96EC
100
AcDbEntity
  8
1
  6
Continuous
100
AcDbLine
 10
17.261157
 20
43.245009
 30
0.0
 11
27.061156
 21
43.245009
 31
0.0
  0
LINE
  5
97E5
330
96EC
100
AcDbEntity
  8
1
  6
Continuous
100
AcDbLine
 10
20.16115499999998
 20
54.564414
 30
0.0
 11
20.16115499999998
 21
54.045012
 31
0.0
  0
LINE
  5
97E6
330
96EC
100
AcDbEntity
  8
1
  6
Continuous
100
AcDbLine
 10
24.161155
 20
54.564414
 30
0.0
 11
24.161155
 21
54.045012
 31
0.0
  0
LINE
  5
97E7
330
96EC
100
AcDbEntity
  8
1
  6
Continuous
100
AcDbLine
 10
20.16115499999998
 20
42.7256
 30
0.0
 11
24.161155
 21
42.7256
 31
0.0
  0
LINE
  5
97E8
330
96EC
100
AcDbEntity
  8
1
  6
Continuous
100
AcDbLine
 10
24.161155
 20
42.7256
 30
0.0
 11
24.161155
 21
43.245009
 31
0.0
  0
LINE
  5
97E9
330
96EC
100
AcDbEntity
  8
1
  6
Continuous
100
AcDbLine
 10
20.16115499999998
 20
42.7256
 30
0.0
 11
20.16115499999998
 21
43.245009
 31
0.0
  0
ARC
  5
97EA
330
96EC
100
AcDbEntity
  8
1
  6
Continuous
100
AcDbCircle
 10
311.9748299999999
 20
51.395011
 30
0.0
 40
1.0
100
AcDbArc
 50
89.99998900000001
 51
141.340178
  0
ARC
  5
97EB
330
96EC
100
AcDbEntity
  8
1
  6
Continuous
100
AcDbCircle
 10
311.094245
 20
50.294265
 30
0.0
 40
1.0
100
AcDbArc
 50
141.340178
 51
179.999978
  0
ARC
  5
97EC
330
96EC
100
AcDbEntity
  8
1
  6
Continuous
100
AcDbCircle
 10
311.094245
 20
46.99581
 30
0.0
 40
1.0
100
AcDbArc
 50
179.999978
 51
218.659777
  0
ARC
  5
97ED
330
96EC
100
AcDbEntity
  8
1
  6
Continuous
100
AcDbCircle
 10
311.9748299999999
 20
45.89501099999998
 30
0.0
 40
1.0
100
AcDbArc
 50
218.659781
 51
269.99997
  0
ARC
  5
97EE
330
96EC
100
AcDbEntity
  8
1
  6
Continuous
100
AcDbCircle
 10
312.8201359999998
 20
45.195014
 30
0.0
 40
0.3
100
AcDbArc
 50
269.99997
 51
330.255062
  0
ARC
  5
97EF
330
96EC
100
AcDbEntity
  8
1
  6
Continuous
100
AcDbCircle
 10
312.8201359999998
 20
52.095008
 30
0.0
 40
0.3
100
AcDbArc
 50
29.744897
 51
89.99998900000001
  0
ARC
  5
97F0
330
96EC
100
AcDbEntity
  8
1
  6
Continuous
100
AcDbCircle
 10
312.594245
 20
49.64501099999999
 30
0.0
 40
1.0
100
AcDbArc
 50
89.99998900000001
 51
179.999978
  0
ARC
  5
97F1
330
96EC
100
AcDbEntity
  8
1
  6
Continuous
100
AcDbCircle
 10
312.594245
 20
47.64501099999999
 30
0.0
 40
1.0
100
AcDbArc
 50
179.999978
 51
269.999973
  0
ARC
  5
97F2
330
96EC
100
AcDbEntity
  8
1
  6
Continuous
100
AcDbCircle
 10
322.0942449999999
 20
53.79501199999999
 30
0.0
 40
0.3
100
AcDbArc
 50
89.99998900000001
 51
179.999978
  0
ARC
  5
97F3
330
96EC
100
AcDbEntity
  8
1
  6
Continuous
100
AcDbCircle
 10
322.0942449999999
 20
43.495009
 30
0.0
 40
0.3
100
AcDbArc
 50
179.999978
 51
269.999973
  0
ARC
  5
97F4
330
96EC
100
AcDbEntity
  8
1
  6
Continuous
100
AcDbCircle
 10
320.551734
 20
43.202559
 30
0.0
 40
0.34245
100
AcDbArc
 50
284.9999669999998
 51
89.99998900000001
  0
ARC
  5
97F5
330
96EC
100
AcDbEntity
  8
1
  6
Continuous
100
AcDbCircle
 10
317.9993349999999
 20
44.73995900000001
 30
0.0
 40
0.4051000000000001
100
AcDbArc
 50
89.99998900000001
 51
239.4702849999999
  0
ARC
  5
97F6
330
96EC
100
AcDbEntity
  8
1
  6
Continuous
100
AcDbCircle
 10
317.394233
 20
45.787459
 30
0.0
 40
2.0
100
AcDbArc
 50
179.999978
 51
239.4702849999999
  0
ARC
  5
97F7
330
96EC
100
AcDbEntity
  8
1
  6
Continuous
100
AcDbCircle
 10
317.5942449999999
 20
45.445014
 30
0.0
 40
0.3
100
AcDbArc
 50
179.999978
 51
269.999973
  0
ARC
  5
97F8
330
96EC
100
AcDbEntity
  8
1
  6
Continuous
100
AcDbCircle
 10
317.394233
 20
51.502608
 30
0.0
 40
2.0
100
AcDbArc
 50
120.529685
 51
179.999978
  0
ARC
  5
97F9
330
96EC
100
AcDbEntity
  8
1
  6
Continuous
100
AcDbCircle
 10
320.551734
 20
54.08750799999999
 30
0.0
 40
0.34245
100
AcDbArc
 50
269.99997
 51
74.99999200000002
  0
ARC
  5
97FA
330
96EC
100
AcDbEntity
  8
1
  6
Continuous
100
AcDbCircle
 10
317.9993349999999
 20
52.550109
 30
0.0
 40
0.4051000000000001
100
AcDbArc
 50
120.529685
 51
269.999973
  0
ARC
  5
97FB
330
96EC
100
AcDbEntity
  8
1
  6
Continuous
100
AcDbCircle
 10
317.5942449999999
 20
51.845008
 30
0.0
 40
0.3
100
AcDbArc
 50
89.99998900000001
 51
179.999978
  0
ARC
  5
97FC
330
96EC
100
AcDbEntity
  8
1
  6
Continuous
100
AcDbCircle
 10
381.616248
 20
54.14501099999998
 30
0.0
 40
1.0
100
AcDbArc
 50
89.99998900000001
 51
179.999978
  0
ARC
  5
97FD
330
96EC
100
AcDbEntity
  8
1
  6
Continuous
100
AcDbCircle
 10
381.616248
 20
43.145011
 30
0.0
 40
1.0
100
AcDbArc
 50
179.999978
 51
269.999973
  0
ARC
  5
97FE
330
96EC
100
AcDbEntity
  8
1
  6
Continuous
100
AcDbCircle
 10
391.616248
 20
43.145011
 30
0.0
 40
1.0
100
AcDbArc
 50
269.99997
 51
0.0
  0
ARC
  5
97FF
330
96EC
100
AcDbEntity
  8
1
  6
Continuous
100
AcDbCircle
 10
391.616248
 20
54.14501099999998
 30
0.0
 40
1.0
100
AcDbArc
 50
0.0
 51
89.99998900000001
  0
ARC
  5
9800
330
96EC
100
AcDbEntity
  8
1
  6
Continuous
100
AcDbCircle
 10
382.5162419999998
 20
44.045012
 30
0.0
 40
1.0
100
AcDbArc
 50
179.999978
 51
269.999973
  0
ARC
  5
9801
330
96EC
100
AcDbEntity
  8
1
  6
Continuous
100
AcDbCircle
 10
390.716224
 20
44.045012
 30
0.0
 40
1.0
100
AcDbArc
 50
269.99997
 51
0.0
  0
ARC
  5
9802
330
96EC
100
AcDbEntity
  8
1
  6
Continuous
100
AcDbCircle
 10
382.5162419999998
 20
53.245009
 30
0.0
 40
1.0
100
AcDbArc
 50
89.99998900000001
 51
179.999978
  0
ARC
  5
9803
330
96EC
100
AcDbEntity
  8
1
  6
Continuous
100
AcDbCircle
 10
390.716224
 20
53.245009
 30
0.0
 40
1.0
100
AcDbArc
 50
0.0
 51
89.99998900000001
  0
ARC
  5
9804
330
96EC
100
AcDbEntity
  8
1
  6
Continuous
100
AcDbCircle
 10
310.3942329999998
 20
134.215751
 30
0.0
 40
0.3
100
AcDbArc
 50
90.00000300000001
 51
180.000005
  0
ARC
  5
9805
330
96EC
100
AcDbEntity
  8
1
  6
Continuous
100
AcDbCircle
 10
310.3942329999998
 20
131.3157569999999
 30
0.0
 40
0.3
100
AcDbArc
 50
179.9999909999999
 51
270.000001
  0
ARC
  5
9806
330
96EC
100
AcDbEntity
  8
1
  6
Continuous
100
AcDbCircle
 10
313.294226
 20
134.215751
 30
0.0
 40
0.3
100
AcDbArc
 50
0.0
 51
90.00000300000001
  0
ARC
  5
9807
330
96EC
100
AcDbEntity
  8
1
  6
Continuous
100
AcDbCircle
 10
313.294226
 20
131.3157569999999
 30
0.0
 40
0.3
100
AcDbArc
 50
269.9999969999999
 51
0.0
  0
ARC
  5
9808
330
96EC
100
AcDbEntity
  8
1
  6
Continuous
100
AcDbCircle
 10
252.972236
 20
54.14501099999998
 30
0.0
 40
1.0
100
AcDbArc
 50
0.000022
 51
90.00000900000001
  0
ARC
  5
9809
330
96EC
100
AcDbEntity
  8
1
  6
Continuous
100
AcDbCircle
 10
252.972236
 20
43.145011
 30
0.0
 40
1.0
100
AcDbArc
 50
270.0000249999998
 51
0.000022
  0
ARC
  5
980A
330
96EC
100
AcDbEntity
  8
1
  6
Continuous
100
AcDbCircle
 10
242.9722359999999
 20
43.145011
 30
0.0
 40
1.0
100
AcDbArc
 50
179.9999909999999
 51
270.0000279999998
  0
ARC
  5
980B
330
96EC
100
AcDbEntity
  8
1
  6
Continuous
100
AcDbCircle
 10
242.9722359999999
 20
54.14501099999998
 30
0.0
 40
1.0
100
AcDbArc
 50
90.00000900000001
 51
180.000005
  0
ARC
  5
980C
330
96EC
100
AcDbEntity
  8
1
  6
Continuous
100
AcDbCircle
 10
252.6722169999999
 20
51.845008
 30
0.0
 40
0.3
100
AcDbArc
 50
0.0
 51
90.00000300000001
  0
ARC
  5
980D
330
96EC
100
AcDbEntity
  8
1
  6
Continuous
100
AcDbCircle
 10
252.6722169999999
 20
45.445006
 30
0.0
 40
0.3
100
AcDbArc
 50
269.9999969999999
 51
0.0
  0
ARC
  5
980E
330
96EC
100
AcDbEntity
  8
1
  6
Continuous
100
AcDbCircle
 10
243.2722229999999
 20
45.445006
 30
0.0
 40
0.3
100
AcDbArc
 50
179.9999909999999
 51
270.000001
  0
ARC
  5
980F
330
96EC
100
AcDbEntity
  8
1
  6
Continuous
100
AcDbCircle
 10
243.2722229999999
 20
51.845008
 30
0.0
 40
0.3
100
AcDbArc
 50
90.00000300000001
 51
180.000005
  0
ARC
  5
9810
330
96EC
100
AcDbEntity
  8
1
  6
Continuous
100
AcDbCircle
 10
109.6534179999999
 20
43.11791099999999
 30
0.0
 40
0.7
100
AcDbArc
 50
229.999971
 51
288.9999649999999
  0
ARC
  5
9811
330
96EC
100
AcDbEntity
  8
1
  6
Continuous
100
AcDbCircle
 10
108.985419
 20
42.63406299999997
 30
0.0
 40
1.399999999999999
100
AcDbArc
 50
199.999977
 51
229.999971
  0
ARC
  5
9812
330
96EC
100
AcDbEntity
  8
1
  6
Continuous
100
AcDbCircle
 10
109.36547
 20
44.273261
 30
0.0
 40
1.399999999999999
100
AcDbArc
 50
179.999978
 51
229.999981
  0
ARC
  5
9813
330
96EC
100
AcDbEntity
  8
1
  6
Continuous
100
AcDbCircle
 10
107.715461
 20
44.59500799999999
 30
0.0
 40
0.25
100
AcDbArc
 50
0.0
 51
119.9263879999999
  0
ARC
  5
9814
330
96EC
100
AcDbEntity
  8
1
  6
Continuous
100
AcDbCircle
 10
106.1549599999999
 20
44.745009
 30
0.0
 40
0.5
100
AcDbArc
 50
29.999997
 51
89.99998900000001
  0
ARC
  5
9815
330
96EC
100
AcDbEntity
  8
1
  6
Continuous
100
AcDbCircle
 10
107.3413149999999
 20
45.245009
 30
0.0
 40
0.5
100
AcDbArc
 50
110.1690869999999
 51
299.9263649999999
  0
ARC
  5
9816
330
96EC
100
AcDbEntity
  8
1
  6
Continuous
100
AcDbCircle
 10
107.0654669999999
 20
45.995963
 30
0.0
 40
0.3
100
AcDbArc
 50
290.169164
 51
0.0
  0
ARC
  5
9817
330
96EC
100
AcDbEntity
  8
1
  6
Continuous
100
AcDbCircle
 10
109.6534179999999
 20
54.172164
 30
0.0
 40
0.7
100
AcDbArc
 50
70.999994
 51
129.999988
  0
ARC
  5
9818
330
96EC
100
AcDbEntity
  8
1
  6
Continuous
100
AcDbCircle
 10
108.985419
 20
54.656012
 30
0.0
 40
1.399999999999999
100
AcDbArc
 50
129.999988
 51
159.9999819999999
  0
ARC
  5
9819
330
96EC
100
AcDbEntity
  8
1
  6
Continuous
100
AcDbCircle
 10
109.36547
 20
53.01681399999999
 30
0.0
 40
1.399999999999999
100
AcDbArc
 50
129.999988
 51
179.999978
  0
ARC
  5
981A
330
96EC
100
AcDbEntity
  8
1
  6
Continuous
100
AcDbCircle
 10
107.715461
 20
52.695014
 30
0.0
 40
0.25
100
AcDbArc
 50
240.0735709999999
 51
0.0
  0
ARC
  5
981B
330
96EC
100
AcDbEntity
  8
1
  6
Continuous
100
AcDbCircle
 10
106.1549599999999
 20
52.54501199999999
 30
0.0
 40
0.5
100
AcDbArc
 50
269.99997
 51
329.9999619999999
  0
ARC
  5
981C
330
96EC
100
AcDbEntity
  8
1
  6
Continuous
100
AcDbCircle
 10
107.3413149999999
 20
52.045012
 30
0.0
 40
0.5
100
AcDbArc
 50
60.07359000000001
 51
249.8288399999999
  0
ARC
  5
981D
330
96EC
100
AcDbEntity
  8
1
  6
Continuous
100
AcDbCircle
 10
107.0654669999999
 20
51.29411199999999
 30
0.0
 40
0.3
100
AcDbArc
 50
0.0
 51
69.83079499999999
  0
ARC
  5
981E
330
96EC
100
AcDbEntity
  8
1
  6
Continuous
100
AcDbCircle
 10
86.165458
 20
44.045012
 30
0.0
 40
0.8
100
AcDbArc
 50
179.999978
 51
269.999973
  0
ARC
  5
981F
330
96EC
100
AcDbEntity
  8
1
  6
Continuous
100
AcDbCircle
 10
86.165458
 20
53.245009
 30
0.0
 40
0.8
100
AcDbArc
 50
89.99998900000001
 51
179.999978
  0
ARC
  5
9820
330
96EC
100
AcDbEntity
  8
1
  6
Continuous
100
AcDbCircle
 10
86.165458
 20
128.665763
 30
0.0
 40
0.8
100
AcDbArc
 50
180.000022
 51
270.0000109999999
  0
ARC
  5
9821
330
96EC
100
AcDbEntity
  8
1
  6
Continuous
100
AcDbCircle
 10
86.165458
 20
136.8657599999999
 30
0.0
 40
0.8
100
AcDbArc
 50
90.00003000000004
 51
180.0000189999999
  0
ARC
  5
9822
330
96EC
100
AcDbEntity
  8
1
  6
Continuous
100
AcDbCircle
 10
96.66545800000001
 20
130.265754
 30
0.0
 40
0.5
100
AcDbArc
 50
90.00003000000004
 51
180.0000189999999
  0
ARC
  5
9823
330
96EC
100
AcDbEntity
  8
1
  6
Continuous
100
AcDbCircle
 10
96.66545800000001
 20
135.2657539999999
 30
0.0
 40
0.5
100
AcDbArc
 50
180.000022
 51
270.0000109999999
  0
ARC
  5
9824
330
96EC
100
AcDbEntity
  8
1
  6
Continuous
100
AcDbCircle
 10
111.0654669999999
 20
40.04205999999999
 30
0.0
 40
0.5
100
AcDbArc
 50
319.9999639999999
 51
9.294999
  0
ARC
  5
9825
330
96EC
100
AcDbEntity
  8
1
  6
Continuous
100
AcDbCircle
 10
111.0654669999999
 20
57.248015
 30
0.0
 40
0.5
100
AcDbArc
 50
350.7049589999998
 51
39.99999499999999
  0
ARC
  5
9826
330
96EC
100
AcDbEntity
  8
1
  6
Continuous
100
AcDbCircle
 10
110.5603699999999
 20
55.129012
 30
0.0
 40
0.5
100
AcDbArc
 50
250.999969
 51
309.9999659999999
  0
ARC
  5
9827
330
96EC
100
AcDbEntity
  8
1
  6
Continuous
100
AcDbCircle
 10
110.743857
 20
55.283011
 30
0.0
 40
0.5
100
AcDbArc
 50
309.9999659999999
 51
350.7049589999998
  0
ARC
  5
9828
330
96EC
100
AcDbEntity
  8
1
  6
Continuous
100
AcDbCircle
 10
110.5603699999999
 20
42.16106299999998
 30
0.0
 40
0.5
100
AcDbArc
 50
49.99999299999999
 51
108.9999909999998
  0
ARC
  5
9829
330
96EC
100
AcDbEntity
  8
1
  6
Continuous
100
AcDbCircle
 10
110.743857
 20
42.007064
 30
0.0
 40
0.5
100
AcDbArc
 50
9.294999
 51
49.99999299999999
  0
ARC
  5
982A
330
96EC
100
AcDbEntity
  8
1
  6
Continuous
100
AcDbCircle
 10
26.261157
 20
54.84500799999999
 30
0.0
 40
0.8
100
AcDbArc
 50
0.0
 51
90.00000300000001
  0
ARC
  5
982B
330
96EC
100
AcDbEntity
  8
1
  6
Continuous
100
AcDbCircle
 10
26.261157
 20
42.445006
 30
0.0
 40
0.8
100
AcDbArc
 50
269.9999969999999
 51
0.0
  0
ARC
  5
982C
330
96EC
100
AcDbEntity
  8
1
  6
Continuous
100
AcDbCircle
 10
18.061156
 20
42.445006
 30
0.0
 40
0.8
100
AcDbArc
 50
179.9999909999999
 51
270.000001
  0
ARC
  5
982D
330
96EC
100
AcDbEntity
  8
1
  6
Continuous
100
AcDbCircle
 10
18.061156
 20
54.84500799999999
 30
0.0
 40
0.8
100
AcDbArc
 50
90.00000300000001
 51
180.000005
  0
ARC
  5
982E
330
96EC
100
AcDbEntity
  8
1
  6
Continuous
100
AcDbCircle
 10
178.669776
 20
54.84500799999999
 30
0.0
 40
0.8
100
AcDbArc
 50
0.0
 51
90.00000300000001
  0
ARC
  5
982F
330
96EC
100
AcDbEntity
  8
1
  6
Continuous
100
AcDbCircle
 10
178.669776
 20
42.445006
 30
0.0
 40
0.8
100
AcDbArc
 50
269.9999969999999
 51
0.0
  0
ARC
  5
9830
330
96EC
100
AcDbEntity
  8
1
  6
Continuous
100
AcDbCircle
 10
170.469764
 20
54.84500799999999
 30
0.0
 40
0.8
100
AcDbArc
 50
90.00000300000001
 51
180.000005
  0
ARC
  5
9831
330
96EC
100
AcDbEntity
  8
1
  6
Continuous
100
AcDbCircle
 10
170.469764
 20
42.445006
 30
0.0
 40
0.8
100
AcDbArc
 50
179.9999909999999
 51
270.000001
  0
LINE
  5
9832
330
96EC
100
AcDbEntity
  8
1
  6
Continuous
100
AcDbLine
 10
105.8654699999999
 20
191.645011
 30
0.0
 11
105.8654699999999
 21
205.645011
 31
0.0
  0
ARC
  5
9833
330
96EC
100
AcDbEntity
  8
1
  6
Continuous
100
AcDbCircle
 10
86.165458
 20
194.045012
 30
0.0
 40
0.8
100
AcDbArc
 50
179.999978
 51
269.999973
  0
LINE
  5
9834
330
96EC
100
AcDbEntity
  8
1
  6
Continuous
100
AcDbLine
 10
101.36547
 20
193.245009
 30
0.0
 11
86.165458
 21
193.245009
 31
0.0
  0
LINE
  5
9835
330
96EC
100
AcDbEntity
  8
1
  6
Continuous
100
AcDbLine
 10
108.8654699999999
 20
192.8565419999999
 30
0.0
 11
105.8654769999999
 21
192.856551
 31
0.0
  0
LINE
  5
9836
330
96EC
100
AcDbEntity
  8
1
  6
Continuous
100
AcDbLine
 10
106.856016
 20
195.4065909999999
 30
0.0
 11
106.6164859999999
 21
195.406572
 31
0.0
  0
LINE
  5
9837
330
96EC
100
AcDbEntity
  8
1
  6
Continuous
100
AcDbLine
 10
105.906692
 20
194.696036
 30
0.0
 11
106.187871
 21
195.164082
 31
0.0
  0
LINE
  5
9838
330
96EC
100
AcDbEntity
  8
1
  6
Continuous
100
AcDbLine
 10
108.8654769999999
 20
192.856558
 30
0.0
 11
108.865491
 21
193.608025
 31
0.0
  0
LINE
  5
9839
330
96EC
100
AcDbEntity
  8
1
  6
Continuous
100
AcDbLine
 10
107.1821179999999
 20
195.2856099999999
 30
0.0
 11
108.69156
 21
193.987053
 31
0.0
  0
ARC
  5
983A
330
96EC
100
AcDbEntity
  8
1
  6
Continuous
100
AcDbCircle
 10
105.3066529999999
 20
195.0565959999999
 30
0.0
 40
0.7
100
AcDbArc
 50
322.971098
 51
329.0002199999999
  0
ARC
  5
983B
330
96EC
100
AcDbEntity
  8
1
  6
Continuous
100
AcDbCircle
 10
108.36547
 20
193.6080179999999
 30
0.0
 40
0.5
100
AcDbArc
 50
0.000219
 51
49.29525400000001
  0
ARC
  5
983C
330
96EC
100
AcDbEntity
  8
1
  6
Continuous
100
AcDbCircle
 10
106.6164689999999
 20
194.906591
 30
0.0
 40
0.5
100
AcDbArc
 50
90.00024900000004
 51
149.000246
  0
ARC
  5
983D
330
96EC
100
AcDbEntity
  8
1
  6
Continuous
100
AcDbCircle
 10
106.856017
 20
194.906565
 30
0.0
 40
0.5
100
AcDbArc
 50
49.29525400000001
 51
90.00024900000004
  0
LINE
  5
983E
330
96EC
100
AcDbEntity
  8
1
  6
Continuous
100
AcDbLine
 10
105.8654699999999
 20
191.645011
 30
0.0
 11
101.36547
 21
191.645011
 31
0.0
  0
LINE
  5
983F
330
96EC
100
AcDbEntity
  8
1
  6
Continuous
100
AcDbLine
 10
101.36547
 20
191.645011
 30
0.0
 11
101.36547
 21
193.245009
 31
0.0
  0
LINE
  5
9840
330
96EC
100
AcDbEntity
  8
1
  6
Continuous
100
AcDbLine
 10
99.039222
 20
192.747306
 30
0.0
 11
98.53971000000001
 21
192.725653
 31
0.0
  0
LINE
  5
9841
330
96EC
100
AcDbEntity
  8
1
  6
Continuous
100
AcDbLine
 10
98.53971000000001
 20
192.725653
 30
0.0
 11
96.66545800000001
 21
193.245002
 31
0.0
  0
LINE
  5
9842
330
96EC
100
AcDbEntity
  8
1
  6
Continuous
100
AcDbLine
 10
99.039222
 20
192.7473129999999
 30
0.0
 11
99.08051200000002
 21
192.949309
 31
0.0
  0
LINE
  5
9843
330
96EC
100
AcDbEntity
  8
1
  6
Continuous
100
AcDbLine
 10
99.96886299999999
 20
193.2380049999999
 30
0.0
 11
99.46930600000001
 21
193.216361
 31
0.0
  0
LINE
  5
9844
330
96EC
100
AcDbEntity
  8
1
  6
Continuous
100
AcDbLine
 10
99.08051200000002
 20
192.949309
 30
0.0
 11
99.46930600000001
 21
193.216353
 31
0.0
  0
LINE
  5
9845
330
96EC
100
AcDbEntity
  8
1
  6
Continuous
100
AcDbLine
 10
99.968558
 20
193.245009
 30
0.0
 11
99.96886299999999
 21
193.238013
 31
0.0
  0
LINE
  5
9846
330
96EC
100
AcDbEntity
  8
1
  6
Continuous
100
AcDbLine
 10
92.36546199999999
 20
198.745009
 30
0.0
 11
103.6654579999999
 21
198.745009
 31
0.0
  0
LINE
  5
9847
330
96EC
100
AcDbEntity
  8
1
  6
Continuous
100
AcDbLine
 10
92.36546199999999
 20
200.545012
 30
0.0
 11
103.6654579999999
 21
200.545012
 31
0.0
  0
LINE
  5
9848
330
96EC
100
AcDbEntity
  8
1
  6
Continuous
100
AcDbLine
 10
101.36547
 20
204.045012
 30
0.0
 11
86.165458
 21
204.045012
 31
0.0
  0
LINE
  5
9849
330
96EC
100
AcDbEntity
  8
4
  6
CENTER
100
AcDbLine
 10
119.1218279999999
 20
198.645011
 30
0.0
 11
83.060714
 21
198.645011
 31
0.0
  0
LINE
  5
984A
330
96EC
100
AcDbEntity
  8
1
  6
Continuous
100
AcDbLine
 10
92.36546199999999
 20
198.745009
 30
0.0
 11
92.36546199999999
 21
200.545012
 31
0.0
  0
LINE
  5
984B
330
96EC
100
AcDbEntity
  8
1
  6
Continuous
100
AcDbLine
 10
85.36546199999998
 20
194.045012
 30
0.0
 11
85.36546199999998
 21
203.245009
 31
0.0
  0
ARC
  5
984C
330
96EC
100
AcDbEntity
  8
1
  6
Continuous
100
AcDbCircle
 10
86.165458
 20
203.245009
 30
0.0
 40
0.8
100
AcDbArc
 50
89.99998900000001
 51
179.999978
  0
LINE
  5
984D
330
96EC
100
AcDbEntity
  8
1
  6
Continuous
100
AcDbLine
 10
105.8654699999999
 20
205.645011
 30
0.0
 11
101.36547
 21
205.645011
 31
0.0
  0
LINE
  5
984E
330
96EC
100
AcDbEntity
  8
1
  6
Continuous
100
AcDbLine
 10
101.36547
 20
204.045012
 30
0.0
 11
101.36547
 21
205.645011
 31
0.0
  0
LINE
  5
984F
330
96EC
100
AcDbEntity
  8
1
  6
Continuous
100
AcDbLine
 10
99.03920599999999
 20
204.542762
 30
0.0
 11
98.53971000000001
 21
204.5644059999999
 31
0.0
  0
LINE
  5
9850
330
96EC
100
AcDbEntity
  8
1
  6
Continuous
100
AcDbLine
 10
98.53971000000001
 20
204.5644139999999
 30
0.0
 11
96.66545800000001
 21
204.045012
 31
0.0
  0
LINE
  5
9851
330
96EC
100
AcDbEntity
  8
1
  6
Continuous
100
AcDbLine
 10
99.03920599999999
 20
204.5427539999999
 30
0.0
 11
99.08051200000002
 21
204.3407579999999
 31
0.0
  0
LINE
  5
9852
330
96EC
100
AcDbEntity
  8
1
  6
Continuous
100
AcDbLine
 10
99.96886299999999
 20
204.052054
 30
0.0
 11
99.46930600000001
 21
204.073653
 31
0.0
  0
LINE
  5
9853
330
96EC
100
AcDbEntity
  8
1
  6
Continuous
100
AcDbLine
 10
99.08051200000002
 20
204.340751
 30
0.0
 11
99.46930600000001
 21
204.073653
 31
0.0
  0
LINE
  5
9854
330
96EC
100
AcDbEntity
  8
1
  6
Continuous
100
AcDbLine
 10
99.96857300000002
 20
204.045012
 30
0.0
 11
99.96886299999999
 21
204.052062
 31
0.0
  0
LINE
  5
9855
330
96EC
100
AcDbEntity
  8
1
  6
Continuous
100
AcDbLine
 10
103.6654579999999
 20
198.745009
 30
0.0
 11
103.6654579999999
 21
200.545012
 31
0.0
  0
LINE
  5
9856
330
96EC
100
AcDbEntity
  8
1
  6
Continuous
100
AcDbLine
 10
99.96546100000001
 20
198.845015
 30
0.0
 11
99.96546100000001
 21
200.4450209999999
 31
0.0
  0
LINE
  5
9857
330
96EC
100
AcDbEntity
  8
1
  6
Continuous
100
AcDbLine
 10
98.16547300000001
 20
198.845015
 30
0.0
 11
98.16547300000001
 21
200.4450209999999
 31
0.0
  0
LINE
  5
9858
330
96EC
100
AcDbEntity
  8
1
  6
Continuous
100
AcDbLine
 10
99.96546100000001
 20
198.845015
 30
0.0
 11
98.16547300000001
 21
198.845015
 31
0.0
  0
LINE
  5
9859
330
96EC
100
AcDbEntity
  8
1
  6
Continuous
100
AcDbLine
 10
99.96546100000001
 20
200.4450209999999
 30
0.0
 11
98.16547300000001
 21
200.4450209999999
 31
0.0
  0
LINE
  5
985A
330
96EC
100
AcDbEntity
  8
1
  6
Continuous
100
AcDbLine
 10
105.8654699999999
 20
252.8657599999999
 30
0.0
 11
105.8654699999999
 21
262.6657629999999
 31
0.0
  0
LINE
  5
985B
330
96EC
100
AcDbEntity
  8
1
  6
Continuous
100
AcDbLine
 10
101.36547
 20
252.8657599999999
 30
0.0
 11
101.36547
 21
262.6657629999999
 31
0.0
  0
LINE
  5
985C
330
96EC
100
AcDbEntity
  8
1
  6
Continuous
100
AcDbLine
 10
99.96546100000001
 20
255.765754
 30
0.0
 11
99.96546100000001
 21
259.765754
 31
0.0
  0
LINE
  5
985D
330
96EC
100
AcDbEntity
  8
1
  6
Continuous
100
AcDbLine
 10
99.465461
 20
255.765754
 30
0.0
 11
99.465461
 21
259.765754
 31
0.0
  0
LINE
  5
985E
330
96EC
100
AcDbEntity
  8
1
  6
Continuous
100
AcDbLine
 10
99.06546699999999
 20
255.765754
 30
0.0
 11
99.06546699999999
 21
259.765754
 31
0.0
  0
LINE
  5
985F
330
96EC
100
AcDbEntity
  8
1
  6
Continuous
100
AcDbLine
 10
99.015464
 20
255.765754
 30
0.0
 11
99.015464
 21
259.765754
 31
0.0
  0
LINE
  5
9860
330
96EC
100
AcDbEntity
  8
1
  6
Continuous
100
AcDbLine
 10
98.515464
 20
255.765754
 30
0.0
 11
98.515464
 21
259.765754
 31
0.0
  0
LINE
  5
9861
330
96EC
100
AcDbEntity
  8
1
  6
Continuous
100
AcDbLine
 10
96.66545800000001
 20
255.765754
 30
0.0
 11
96.66545800000001
 21
259.765754
 31
0.0
  0
LINE
  5
9862
330
96EC
100
AcDbEntity
  8
1
  6
Continuous
100
AcDbLine
 10
85.36546199999998
 20
253.665763
 30
0.0
 11
85.36546199999998
 21
261.86576
 31
0.0
  0
LINE
  5
9863
330
96EC
100
AcDbEntity
  8
1
  6
Continuous
100
AcDbLine
 10
105.8654699999999
 20
252.8657599999999
 30
0.0
 11
86.165458
 21
252.8657599999999
 31
0.0
  0
ARC
  5
9864
330
96EC
100
AcDbEntity
  8
1
  6
Continuous
100
AcDbCircle
 10
86.165458
 20
253.665763
 30
0.0
 40
0.8
100
AcDbArc
 50
180.000022
 51
270.0000109999999
  0
LINE
  5
9865
330
96EC
100
AcDbEntity
  8
1
  6
Continuous
100
AcDbLine
 10
99.96546100000001
 20
255.765754
 30
0.0
 11
96.66545800000001
 21
255.765754
 31
0.0
  0
LINE
  5
9866
330
96EC
100
AcDbEntity
  8
1
  6
Continuous
100
AcDbLine
 10
101.36547
 20
254.065757
 30
0.0
 11
96.165458
 21
254.065757
 31
0.0
  0
LINE
  5
9867
330
96EC
100
AcDbEntity
  8
1
  6
Continuous
100
AcDbLine
 10
96.165458
 20
254.065757
 30
0.0
 11
96.165458
 21
255.2657539999999
 31
0.0
  0
ARC
  5
9868
330
96EC
100
AcDbEntity
  8
1
  6
Continuous
100
AcDbCircle
 10
96.66545800000001
 20
255.2657539999999
 30
0.0
 40
0.5
100
AcDbArc
 50
90.00003000000004
 51
180.0000189999999
  0
LINE
  5
9869
330
96EC
100
AcDbEntity
  8
1
  6
Continuous
100
AcDbLine
 10
108.8654699999999
 20
255.765754
 30
0.0
 11
105.8654699999999
 21
255.765754
 31
0.0
  0
LINE
  5
986A
330
96EC
100
AcDbEntity
  8
1
  6
Continuous
100
AcDbLine
 10
105.8654699999999
 20
262.6657629999999
 30
0.0
 11
86.165458
 21
262.6657629999999
 31
0.0
  0
LINE
  5
986B
330
96EC
100
AcDbEntity
  8
4
  6
CENTER
100
AcDbLine
 10
118.963074
 20
257.765754
 30
0.0
 11
83.50463899999999
 21
257.765754
 31
0.0
  0
ARC
  5
986C
330
96EC
100
AcDbEntity
  8
1
  6
Continuous
100
AcDbCircle
 10
86.165458
 20
261.86576
 30
0.0
 40
0.8
100
AcDbArc
 50
90.00003000000004
 51
180.0000189999999
  0
LINE
  5
986D
330
96EC
100
AcDbEntity
  8
1
  6
Continuous
100
AcDbLine
 10
99.96546100000001
 20
259.765754
 30
0.0
 11
96.66545800000001
 21
259.765754
 31
0.0
  0
LINE
  5
986E
330
96EC
100
AcDbEntity
  8
1
  6
Continuous
100
AcDbLine
 10
101.36547
 20
261.6657629999999
 30
0.0
 11
96.165458
 21
261.6657629999999
 31
0.0
  0
LINE
  5
986F
330
96EC
100
AcDbEntity
  8
1
  6
Continuous
100
AcDbLine
 10
96.165458
 20
260.265754
 30
0.0
 11
96.165458
 21
261.6657629999999
 31
0.0
  0
ARC
  5
9870
330
96EC
100
AcDbEntity
  8
1
  6
Continuous
100
AcDbCircle
 10
96.66545800000001
 20
260.265754
 30
0.0
 40
0.5
100
AcDbArc
 50
180.000022
 51
270.0000109999999
  0
LINE
  5
9871
330
96EC
100
AcDbEntity
  8
1
  6
Continuous
100
AcDbLine
 10
108.8654699999999
 20
259.765754
 30
0.0
 11
105.8654699999999
 21
259.765754
 31
0.0
  0
LINE
  5
9872
330
96EC
100
AcDbEntity
  8
1
  6
Continuous
100
AcDbLine
 10
114.5654699999999
 20
195.145011
 30
0.0
 11
109.8654879999999
 21
195.145011
 31
0.0
  0
LINE
  5
9873
330
96EC
100
AcDbEntity
  8
1
  6
Continuous
100
AcDbLine
 10
114.5654699999999
 20
202.1450109999999
 30
0.0
 11
109.8654879999999
 21
202.1450109999999
 31
0.0
  0
LINE
  5
9874
330
96EC
100
AcDbEntity
  8
1
  6
Continuous
100
AcDbLine
 10
108.649454
 20
203.225356
 30
0.0
 11
111.5654699999999
 21
204.9450139999999
 31
0.0
  0
LINE
  5
9875
330
96EC
100
AcDbEntity
  8
1
  6
Continuous
100
AcDbLine
 10
110.0647679999999
 20
202.899047
 30
0.0
 11
111.499247
 21
203.745017
 31
0.0
  0
LINE
  5
9876
330
96EC
100
AcDbEntity
  8
1
  6
Continuous
100
AcDbLine
 10
108.649485
 20
194.064711
 30
0.0
 11
111.5654699999999
 21
192.345023
 31
0.0
  0
LINE
  5
9877
330
96EC
100
AcDbEntity
  8
1
  6
Continuous
100
AcDbLine
 10
110.0647979999999
 20
194.3909979999999
 30
0.0
 11
111.4992159999999
 21
193.545012
 31
0.0
  0
LINE
  5
9878
330
96EC
100
AcDbEntity
  8
1
  6
Continuous
100
AcDbLine
 10
114.5654699999999
 20
196.645011
 30
0.0
 11
105.8654699999999
 21
196.645011
 31
0.0
  0
LINE
  5
9879
330
96EC
100
AcDbEntity
  8
1
  6
Continuous
100
AcDbLine
 10
114.5654699999999
 20
200.645011
 30
0.0
 11
105.8654699999999
 21
200.645011
 31
0.0
  0
ARC
  5
987A
330
96EC
100
AcDbEntity
  8
1
  6
Continuous
100
AcDbCircle
 10
109.665476
 20
195.787459
 30
0.0
 40
2.0
100
AcDbArc
 50
179.999978
 51
239.4702849999999
  0
LINE
  5
987B
330
96EC
100
AcDbEntity
  8
1
  6
Continuous
100
AcDbLine
 10
109.5654699999999
 20
196.645011
 30
0.0
 11
109.5654699999999
 21
195.4450139999999
 31
0.0
  0
LINE
  5
987C
330
96EC
100
AcDbEntity
  8
1
  6
Continuous
100
AcDbLine
 10
109.5654699999999
 20
200.645011
 30
0.0
 11
109.5654699999999
 21
201.845008
 31
0.0
  0
ARC
  5
987D
330
96EC
100
AcDbEntity
  8
1
  6
Continuous
100
AcDbCircle
 10
109.8654879999999
 20
195.4450139999999
 30
0.0
 40
0.3
100
AcDbArc
 50
179.999978
 51
269.999973
  0
ARC
  5
987E
330
96EC
100
AcDbEntity
  8
1
  6
Continuous
100
AcDbCircle
 10
109.8654879999999
 20
201.845008
 30
0.0
 40
0.3
100
AcDbArc
 50
89.99998900000001
 51
179.999978
  0
ARC
  5
987F
330
96EC
100
AcDbEntity
  8
1
  6
Continuous
100
AcDbCircle
 10
110.2705779999999
 20
194.739959
 30
0.0
 40
0.4051000000000001
100
AcDbArc
 50
89.99998900000001
 51
239.4702849999999
  0
ARC
  5
9880
330
96EC
100
AcDbEntity
  8
1
  6
Continuous
100
AcDbCircle
 10
110.2705779999999
 20
202.550109
 30
0.0
 40
0.4051000000000001
100
AcDbArc
 50
120.529685
 51
269.999973
  0
LINE
  5
9881
330
96EC
100
AcDbEntity
  8
1
  6
Continuous
100
AcDbLine
 10
107.665476
 20
195.9450139999999
 30
0.0
 11
107.665476
 21
195.787459
 31
0.0
  0
LINE
  5
9882
330
96EC
100
AcDbEntity
  8
1
  6
Continuous
100
AcDbLine
 10
107.665476
 20
195.9450139999999
 30
0.0
 11
105.8654879999999
 21
195.9450139999999
 31
0.0
  0
LINE
  5
9883
330
96EC
100
AcDbEntity
  8
1
  6
Continuous
100
AcDbLine
 10
114.5654699999999
 20
205.145011
 30
0.0
 11
114.5654699999999
 21
192.145011
 31
0.0
  0
LINE
  5
9884
330
96EC
100
AcDbEntity
  8
1
  6
Continuous
100
AcDbLine
 10
115.5654699999999
 20
205.145011
 30
0.0
 11
115.5654699999999
 21
192.145011
 31
0.0
  0
LINE
  5
9885
330
96EC
100
AcDbEntity
  8
1
  6
Continuous
100
AcDbLine
 10
116.06547
 20
204.2450089999999
 30
0.0
 11
116.06547
 21
193.045012
 31
0.0
  0
LINE
  5
9886
330
96EC
100
AcDbEntity
  8
1
  6
Continuous
100
AcDbLine
 10
114.06547
 20
195.145011
 30
0.0
 11
114.06547
 21
193.495009
 31
0.0
  0
LINE
  5
9887
330
96EC
100
AcDbEntity
  8
1
  6
Continuous
100
AcDbLine
 10
112.06547
 20
192.6450029999998
 30
0.0
 11
112.911631
 21
192.871756
 31
0.0
  0
LINE
  5
9888
330
96EC
100
AcDbEntity
  8
1
  6
Continuous
100
AcDbLine
 10
112.8229769999999
 20
193.545012
 30
0.0
 11
111.4992159999999
 21
193.545012
 31
0.0
  0
LINE
  5
9889
330
96EC
100
AcDbEntity
  8
1
  6
Continuous
100
AcDbLine
 10
112.06547
 20
192.345008
 30
0.0
 11
111.5654699999999
 21
192.345008
 31
0.0
  0
LINE
  5
988A
330
96EC
100
AcDbEntity
  8
1
  6
Continuous
100
AcDbLine
 10
112.06547
 20
192.645011
 30
0.0
 11
112.06547
 21
192.345008
 31
0.0
  0
ARC
  5
988B
330
96EC
100
AcDbEntity
  8
1
  6
Continuous
100
AcDbCircle
 10
114.3654879999999
 20
193.495009
 30
0.0
 40
0.3
100
AcDbArc
 50
179.999978
 51
269.999973
  0
ARC
  5
988C
330
96EC
100
AcDbEntity
  8
1
  6
Continuous
100
AcDbCircle
 10
112.8229769999999
 20
193.202559
 30
0.0
 40
0.34245
100
AcDbArc
 50
284.9999669999998
 51
89.99998900000001
  0
LINE
  5
988D
330
96EC
100
AcDbEntity
  8
1
  6
Continuous
100
AcDbLine
 10
115.5654699999999
 20
192.145011
 30
0.0
 11
114.5654699999999
 21
192.145011
 31
0.0
  0
LINE
  5
988E
330
96EC
100
AcDbEntity
  8
1
  6
Continuous
100
AcDbLine
 10
116.06547
 20
193.045012
 30
0.0
 11
115.5654699999999
 21
192.145003
 31
0.0
  0
LINE
  5
988F
330
96EC
100
AcDbEntity
  8
1
  6
Continuous
100
AcDbLine
 10
114.5654699999999
 20
193.1950139999999
 30
0.0
 11
114.3654879999999
 21
193.1950139999999
 31
0.0
  0
LINE
  5
9890
330
96EC
100
AcDbEntity
  8
1
  6
Continuous
100
AcDbLine
 10
112.06547
 20
204.645011
 30
0.0
 11
112.911631
 21
204.418311
 31
0.0
  0
LINE
  5
9891
330
96EC
100
AcDbEntity
  8
1
  6
Continuous
100
AcDbLine
 10
112.8229769999999
 20
203.745009
 30
0.0
 11
111.4992159999999
 21
203.745009
 31
0.0
  0
LINE
  5
9892
330
96EC
100
AcDbEntity
  8
1
  6
Continuous
100
AcDbLine
 10
112.06547
 20
204.9450139999999
 30
0.0
 11
111.5654699999999
 21
204.9450139999999
 31
0.0
  0
LINE
  5
9893
330
96EC
100
AcDbEntity
  8
1
  6
Continuous
100
AcDbLine
 10
112.06547
 20
204.645011
 30
0.0
 11
112.06547
 21
204.9450139999999
 31
0.0
  0
ARC
  5
9894
330
96EC
100
AcDbEntity
  8
1
  6
Continuous
100
AcDbCircle
 10
114.3654879999999
 20
203.795012
 30
0.0
 40
0.3
100
AcDbArc
 50
89.99998900000001
 51
179.999978
  0
LINE
  5
9895
330
96EC
100
AcDbEntity
  8
1
  6
Continuous
100
AcDbLine
 10
112.5654699999999
 20
196.645011
 30
0.0
 11
112.5654699999999
 21
195.4450139999999
 31
0.0
  0
LINE
  5
9896
330
96EC
100
AcDbEntity
  8
1
  6
Continuous
100
AcDbLine
 10
112.5654699999999
 20
200.645011
 30
0.0
 11
112.5654699999999
 21
201.845008
 31
0.0
  0
LINE
  5
9897
330
96EC
100
AcDbEntity
  8
1
  6
Continuous
100
AcDbLine
 10
114.06547
 20
203.795012
 30
0.0
 11
114.06547
 21
202.1450109999999
 31
0.0
  0
ARC
  5
9898
330
96EC
100
AcDbEntity
  8
1
  6
Continuous
100
AcDbCircle
 10
112.8229769999999
 20
204.087508
 30
0.0
 40
0.34245
100
AcDbArc
 50
269.99997
 51
74.99999200000002
  0
LINE
  5
9899
330
96EC
100
AcDbEntity
  8
1
  6
Continuous
100
AcDbLine
 10
115.5654699999999
 20
205.145011
 30
0.0
 11
114.5654699999999
 21
205.145011
 31
0.0
  0
LINE
  5
989A
330
96EC
100
AcDbEntity
  8
1
  6
Continuous
100
AcDbLine
 10
115.5654699999999
 20
205.145011
 30
0.0
 11
116.06547
 21
204.2450089999999
 31
0.0
  0
LINE
  5
989B
330
96EC
100
AcDbEntity
  8
1
  6
Continuous
100
AcDbLine
 10
114.5654699999999
 20
204.0950079999999
 30
0.0
 11
114.3654879999999
 21
204.0950079999999
 31
0.0
  0
LINE
  5
989C
330
96EC
100
AcDbEntity
  8
1
  6
Continuous
100
AcDbLine
 10
109.5654699999999
 20
260.4657509999999
 30
0.0
 11
112.5654699999999
 21
262.765738
 31
0.0
  0
LINE
  5
989D
330
96EC
100
AcDbEntity
  8
1
  6
Continuous
100
AcDbLine
 10
109.5654699999999
 20
255.0657569999999
 30
0.0
 11
112.5654699999999
 21
252.7657539999999
 31
0.0
  0
LINE
  5
989E
330
96EC
100
AcDbEntity
  8
1
  6
Continuous
100
AcDbLine
 10
108.8654699999999
 20
256.015754
 30
0.0
 11
114.5654699999999
 21
256.015754
 31
0.0
  0
LINE
  5
989F
330
96EC
100
AcDbEntity
  8
1
  6
Continuous
100
AcDbLine
 10
108.8654699999999
 20
259.515754
 30
0.0
 11
114.5654699999999
 21
259.515754
 31
0.0
  0
LINE
  5
98A0
330
96EC
100
AcDbEntity
  8
1
  6
Continuous
100
AcDbLine
 10
109.5654699999999
 20
256.015754
 30
0.0
 11
109.5654699999999
 21
255.0657569999999
 31
0.0
  0
LINE
  5
98A1
330
96EC
100
AcDbEntity
  8
1
  6
Continuous
100
AcDbLine
 10
109.5654699999999
 20
260.4657509999999
 30
0.0
 11
109.5654699999999
 21
259.515754
 31
0.0
  0
LINE
  5
98A2
330
96EC
100
AcDbEntity
  8
1
  6
Continuous
100
AcDbLine
 10
116.06547
 20
262.86576
 30
0.0
 11
116.06547
 21
252.6657469999999
 31
0.0
  0
LINE
  5
98A3
330
96EC
100
AcDbEntity
  8
1
  6
Continuous
100
AcDbLine
 10
115.5654699999999
 20
263.765754
 30
0.0
 11
115.5654699999999
 21
251.765754
 31
0.0
  0
LINE
  5
98A4
330
96EC
100
AcDbEntity
  8
1
  6
Continuous
100
AcDbLine
 10
114.5654699999999
 20
263.765754
 30
0.0
 11
114.5654699999999
 21
251.765754
 31
0.0
  0
LINE
  5
98A5
330
96EC
100
AcDbEntity
  8
1
  6
Continuous
100
AcDbLine
 10
114.06547
 20
259.515754
 30
0.0
 11
114.06547
 21
256.015754
 31
0.0
  0
LINE
  5
98A6
330
96EC
100
AcDbEntity
  8
1
  6
Continuous
100
AcDbLine
 10
113.1654149999999
 20
259.515754
 30
0.0
 11
113.1654149999999
 21
256.015754
 31
0.0
  0
LINE
  5
98A7
330
96EC
100
AcDbEntity
  8
1
  6
Continuous
100
AcDbLine
 10
111.5654699999999
 20
259.515754
 30
0.0
 11
111.5654699999999
 21
256.015754
 31
0.0
  0
LINE
  5
98A8
330
96EC
100
AcDbEntity
  8
1
  6
Continuous
100
AcDbLine
 10
112.06547
 20
259.515754
 30
0.0
 11
112.06547
 21
256.015754
 31
0.0
  0
LINE
  5
98A9
330
96EC
100
AcDbEntity
  8
1
  6
Continuous
100
AcDbLine
 10
114.5654699999999
 20
251.765754
 30
0.0
 11
115.5654699999999
 21
251.765754
 31
0.0
  0
LINE
  5
98AA
330
96EC
100
AcDbEntity
  8
1
  6
Continuous
100
AcDbLine
 10
115.5654699999999
 20
251.765754
 30
0.0
 11
116.0654999999999
 21
252.6657629999998
 31
0.0
  0
LINE
  5
98AB
330
96EC
100
AcDbEntity
  8
1
  6
Continuous
100
AcDbLine
 10
112.5654699999999
 20
252.7657539999999
 30
0.0
 11
114.5654699999999
 21
252.7657539999999
 31
0.0
  0
LINE
  5
98AC
330
96EC
100
AcDbEntity
  8
1
  6
Continuous
100
AcDbLine
 10
114.5654699999999
 20
263.765754
 30
0.0
 11
115.5654699999999
 21
263.765754
 31
0.0
  0
LINE
  5
98AD
330
96EC
100
AcDbEntity
  8
1
  6
Continuous
100
AcDbLine
 10
115.5654699999999
 20
263.765754
 30
0.0
 11
116.06547
 21
262.86576
 31
0.0
  0
LINE
  5
98AE
330
96EC
100
AcDbEntity
  8
1
  6
Continuous
100
AcDbLine
 10
112.5654699999999
 20
262.765754
 30
0.0
 11
114.5654699999999
 21
262.765754
 31
0.0
  0
LINE
  5
98AF
330
96EC
100
AcDbEntity
  8
1
  6
Continuous
100
AcDbLine
 10
108.8654699999999
 20
255.765754
 30
0.0
 11
108.8654699999999
 21
259.765754
 31
0.0
  0
ARC
  5
98B0
330
96EC
100
AcDbEntity
  8
1
  6
Continuous
100
AcDbCircle
 10
105.3066529999999
 20
202.233426
 30
0.0
 40
0.7
100
AcDbArc
 50
30.99978
 51
37.02890200000001
  0
ARC
  5
98B1
330
96EC
100
AcDbEntity
  8
1
  6
Continuous
100
AcDbCircle
 10
106.856017
 20
202.3834569999999
 30
0.0
 40
0.5
100
AcDbArc
 50
269.999751
 51
310.7047459999999
  0
ARC
  5
98B2
330
96EC
100
AcDbEntity
  8
1
  6
Continuous
100
AcDbCircle
 10
106.6164689999999
 20
202.3834299999998
 30
0.0
 40
0.5
100
AcDbArc
 50
210.999754
 51
269.999751
  0
LINE
  5
98B3
330
96EC
100
AcDbEntity
  8
1
  6
Continuous
100
AcDbLine
 10
105.906692
 20
202.5939849999998
 30
0.0
 11
106.187871
 21
202.1259399999999
 31
0.0
  0
LINE
  5
98B4
330
96EC
100
AcDbEntity
  8
1
  6
Continuous
100
AcDbLine
 10
106.856016
 20
201.8834309999999
 30
0.0
 11
106.6164859999999
 21
201.88345
 31
0.0
  0
LINE
  5
98B5
330
96EC
100
AcDbEntity
  8
1
  6
Continuous
100
AcDbLine
 10
107.1821179999999
 20
202.004411
 30
0.0
 11
108.69156
 21
203.3029679999999
 31
0.0
  0
LINE
  5
98B6
330
96EC
100
AcDbEntity
  8
1
  6
Continuous
100
AcDbLine
 10
108.8654699999999
 20
204.433479
 30
0.0
 11
105.8654769999999
 21
204.433471
 31
0.0
  0
ARC
  5
98B7
330
96EC
100
AcDbEntity
  8
1
  6
Continuous
100
AcDbCircle
 10
108.36547
 20
203.682004
 30
0.0
 40
0.5
100
AcDbArc
 50
310.7047459999999
 51
359.999781
  0
LINE
  5
98B8
330
96EC
100
AcDbEntity
  8
1
  6
Continuous
100
AcDbLine
 10
108.8654769999999
 20
204.4334629999999
 30
0.0
 11
108.865491
 21
203.6819969999998
 31
0.0
  0
LINE
  5
98B9
330
96EC
100
AcDbEntity
  8
1
  6
Continuous
100
AcDbLine
 10
107.665476
 20
201.345008
 30
0.0
 11
107.665476
 21
201.502562
 31
0.0
  0
LINE
  5
98BA
330
96EC
100
AcDbEntity
  8
1
  6
Continuous
100
AcDbLine
 10
107.665476
 20
201.345008
 30
0.0
 11
105.8654879999999
 21
201.345008
 31
0.0
  0
ARC
  5
98BB
330
96EC
100
AcDbEntity
  8
1
  6
Continuous
100
AcDbCircle
 10
109.665476
 20
201.502562
 30
0.0
 40
2.0
100
AcDbArc
 50
120.529715
 51
180.000022
  0
ENDSEC
  0
SECTION
  2
OBJECTS
  0
DICTIONARY
  5
96DA
330
0
100
AcDbDictionary
281
     1
  3
ACAD_CIP_PREVIOUS_PRODUCT_INFO
350
991F
  3
ACAD_COLOR
350
9901
  3
ACAD_DETAILVIEWSTYLE
350
991A
  3
ACAD_GROUP
350
96DB
  3
ACAD_LAYOUT
350
96E7
  3
ACAD_MATERIAL
350
98CF
  3
ACAD_MLEADERSTYLE
350
9916
  3
ACAD_MLINESTYLE
350
96E4
  3
ACAD_PLOTSETTINGS
350
96E6
  3
ACAD_PLOTSTYLENAME
350
98CD
  3
ACAD_SCALELIST
350
9904
  3
ACAD_SECTIONVIEWSTYLE
350
9918
  3
ACAD_TABLESTYLE
350
9902
  3
ACAD_VISUALSTYLE
350
98E8
  3
ACDB_RECOMPOSE_DATA
350
993D
  3
AcDbVariableDictionary
350
9930
  3
DWGPROPS
350
993E
  0
DICTIONARY
  5
9920
330
96DE
100
AcDbDictionary
280
     1
281
     1
  3
ADSK_XREC_LAYER_RECONCILED
360
9921
  0
DICTIONARY
  5
9922
330
96F4
100
AcDbDictionary
280
     1
281
     1
  3
ADSK_XREC_LAYER_RECONCILED
360
9923
  0
DICTIONARY
  5
9924
330
96F5
100
AcDbDictionary
280
     1
281
     1
  3
ADSK_XREC_LAYER_RECONCILED
360
9925
  0
DICTIONARY
  5
9926
330
96F6
100
AcDbDictionary
280
     1
281
     1
  3
ADSK_XREC_LAYER_RECONCILED
360
9927
  0
DICTIONARY
  5
9928
330
96F7
100
AcDbDictionary
280
     1
281
     1
  3
ADSK_XREC_LAYER_RECONCILED
360
9929
  0
DICTIONARY
  5
992A
330
96F8
100
AcDbDictionary
280
     1
281
     1
  3
ADSK_XREC_LAYER_RECONCILED
360
992B
  0
DICTIONARY
  5
992C
330
96F9
100
AcDbDictionary
280
     1
281
     1
  3
ADSK_XREC_LAYER_RECONCILED
360
992D
  0
DICTIONARY
  5
992E
330
96FA
100
AcDbDictionary
280
     1
281
     1
  3
ADSK_XREC_LAYER_RECONCILED
360
992F
  0
DICTIONARY
  5
98C8
330
96EC
100
AcDbDictionary
281
     1
  3
ACAD_LAYOUTSELFREF
350
98C9
  0
DICTIONARY
  5
98C6
330
96E8
100
AcDbDictionary
281
     1
  3
ACAD_LAYOUTSELFREF
350
98C7
  0
XRECORD
  5
991F
102
{ACAD_REACTORS
330
96DA
102
}
330
96DA
100
AcDbXrecord
280
     1
300
ACDLT
300
2014
300
ACDLT_F_S
  0
DICTIONARY
  5
9901
102
{ACAD_REACTORS
330
96DA
102
}
330
96DA
100
AcDbDictionary
281
     1
  0
DICTIONARY
  5
991A
102
{ACAD_REACTORS
330
96DA
102
}
330
96DA
100
AcDbDictionary
281
     1
  3
Imperial24
350
991B
  0
DICTIONARY
  5
96DB
102
{ACAD_REACTORS
330
96DA
102
}
330
96DA
100
AcDbDictionary
281
     1
  0
DICTIONARY
  5
96E7
102
{ACAD_REACTORS
330
96DA
102
}
330
96DA
100
AcDbDictionary
281
     1
  3
Model
350
991C
  3
レイアウト1
350
991D
  0
DICTIONARY
  5
98CF
102
{ACAD_REACTORS
330
96DA
102
}
330
96DA
100
AcDbDictionary
281
     1
  3
ByBlock
350
98D8
  3
ByLayer
350
98D0
  3
Global
350
98E0
  0
DICTIONARY
  5
9916
102
{ACAD_REACTORS
330
96DA
102
}
330
96DA
100
AcDbDictionary
281
     1
  3
Standard
350
9917
  0
DICTIONARY
  5
96E4
102
{ACAD_REACTORS
330
96DA
102
}
330
96DA
100
AcDbDictionary
281
     1
  3
STANDARD
350
96E5
  0
DICTIONARY
  5
96E6
102
{ACAD_REACTORS
330
96DA
102
}
330
96DA
100
AcDbDictionary
281
     1
  0
ACDBDICTIONARYWDFLT
  5
98CD
102
{ACAD_REACTORS
330
96DA
102
}
330
96DA
100
AcDbDictionary
281
     1
  3
Normal
350
98CE
100
AcDbDictionaryWithDefault
340
98CE
  0
DICTIONARY
  5
9904
102
{ACAD_REACTORS
330
96DA
102
}
330
96DA
100
AcDbDictionary
281
     1
  3
A0
350
9905
  3
A1
350
9906
  3
A2
350
9907
  3
A3
350
9908
  3
A4
350
9909
  3
A5
350
990A
  3
A6
350
990B
  3
A7
350
990C
  3
A8
350
990D
  3
A9
350
990E
  3
B0
350
990F
  3
B1
350
9910
  3
B2
350
9911
  3
B3
350
9912
  3
B4
350
9913
  3
B5
350
9914
  3
B6
350
9915
  0
DICTIONARY
  5
9918
102
{ACAD_REACTORS
330
96DA
102
}
330
96DA
100
AcDbDictionary
281
     1
  3
Imperial24
350
9919
  0
DICTIONARY
  5
9902
102
{ACAD_REACTORS
330
96DA
102
}
330
96DA
100
AcDbDictionary
281
     1
  3
Standard
350
9903
  0
DICTIONARY
  5
98E8
102
{ACAD_REACTORS
330
96DA
102
}
330
96DA
100
AcDbDictionary
281
     1
  3
2dWireframe
350
98EE
  3
Basic
350
98ED
  3
Brighten
350
98F4
  3
ColorChange
350
98F8
  3
Conceptual
350
98F1
  3
Dim
350
98F3
  3
EdgeColorOff
350
9900
  3
Facepattern
350
98F7
  3
Flat
350
98E9
  3
FlatWithEdges
350
98EA
  3
Gouraud
350
98EB
  3
GouraudWithEdges
350
98EC
  3
Hidden
350
98F0
  3
JitterOff
350
98FE
  3
Linepattern
350
98F6
  3
OverhangOff
350
98FF
  3
Realistic
350
98F2
  3
Shaded
350
98FD
  3
Shaded with edges
350
98FC
  3
Shades of Gray
350
98F9
  3
Sketchy
350
98FA
  3
Thicken
350
98F5
  3
Wireframe
350
98EF
  3
X-Ray
350
98FB
  0
XRECORD
  5
993D
102
{ACAD_REACTORS
330
96DA
102
}
330
96DA
100
AcDbXrecord
280
     1
 90
        1
330
9903
  0
DICTIONARY
  5
9930
102
{ACAD_REACTORS
330
96DA
102
}
330
96DA
100
AcDbDictionary
281
     1
  3
CANNOSCALE
350
9935
  3
CMLEADERSTYLE
350
9932
  3
CTABLESTYLE
350
9931
  3
CVIEWDETAILSTYLE
350
9933
  3
CVIEWSECTIONSTYLE
350
9934
  3
DIMASSOC
350
9938
  3
INDEXCTL
350
9937
  3
SORTENTS
350
9936
  3
XCLIPFRAME
350
9939
  0
XRECORD
  5
993E
102
{ACAD_REACTORS
330
96DA
102
}
330
96DA
100
AcDbXrecord
280
     1
  1
DWGPROPS COOKIE
  2

  3

  4

  6

  7

  8
Yoshitsune
  9

300
=
301
=
302
=
303
=
304
=
305
=
306
=
307
=
308
=
309
=
 40
0.0000139351851852
 41
2450980.389524653
 42
2457192.601281239
  1

 90
        0
  0
XRECORD
  5
9921
102
{ACAD_REACTORS
330
9920
102
}
330
9920
100
AcDbXrecord
280
     1
290
     1
  0
XRECORD
  5
9923
102
{ACAD_REACTORS
330
9922
102
}
330
9922
100
AcDbXrecord
280
     1
290
     1
  0
XRECORD
  5
9925
102
{ACAD_REACTORS
330
9924
102
}
330
9924
100
AcDbXrecord
280
     1
290
     1
  0
XRECORD
  5
9927
102
{ACAD_REACTORS
330
9926
102
}
330
9926
100
AcDbXrecord
280
     1
290
     1
  0
XRECORD
  5
9929
102
{ACAD_REACTORS
330
9928
102
}
330
9928
100
AcDbXrecord
280
     1
290
     1
  0
XRECORD
  5
992B
102
{ACAD_REACTORS
330
992A
102
}
330
992A
100
AcDbXrecord
280
     1
290
     1
  0
XRECORD
  5
992D
102
{ACAD_REACTORS
330
992C
102
}
330
992C
100
AcDbXrecord
280
     1
290
     1
  0
XRECORD
  5
992F
102
{ACAD_REACTORS
330
992E
102
}
330
992E
100
AcDbXrecord
280
     1
290
     1
  0
XRECORD
  5
98C9
102
{ACAD_REACTORS
330
98C8
102
}
330
98C8
100
AcDbXrecord
280
     1
340
96EC
  0
XRECORD
  5
98C7
102
{ACAD_REACTORS
330
98C6
102
}
330
98C6
100
AcDbXrecord
280
     1
340
96E8
  0
ACDBDETAILVIEWSTYLE
  5
991B
102
{ACAD_XDICTIONARY
360
9976
102
}
102
{ACAD_REACTORS
330
991A
102
}
330
991A
100
AcDbModelDocViewStyle
 70
     0
  3
Imperial24
290
     0
100
AcDbDetailViewStyle
 70
     0
 71
     0
 90
        3
 71
     1
340
96DF
 40
0.24
340
0
 40
0.24
300

 40
0.36
280
     3
 71
     2
340
96E3
 90
       25
 71
     3
340
96DF
 40
0.24
 90
        1
 40
0.75
 90
        1
300
%<\AcVar ViewType \f "%tc1">% %<\AcVar ViewDetailId>%\PSCALE %<\AcVar ViewScale \f "%sn">%
 71
     4
340
96E3
 90
       25
340
96E3
 90
       25
280
     0
  0
LAYOUT
  5
991C
102
{ACAD_XDICTIONARY
360
9978
102
}
102
{ACAD_REACTORS
330
96E7
102
}
330
96E7
100
AcDbPlotSettings
  1

  2
Canon LBP9100C
  4

  6

 40
0.0
 41
0.0
 42
0.0
 43
0.0
 44
0.0
 45
0.0
 46
0.0
 47
0.0
 48
0.0
 49
0.0
140
0.0
141
0.0
142
1.0
143
1.0
 70
  1712
 72
     0
 73
     0
 74
     0
  7

 75
     0
147
1.0
148
0.0
149
0.0
100
AcDbLayout
  1
Model
 70
     1
 71
     0
 10
0.0
 20
0.0
 11
12.0
 21
9.0
 12
0.0
 22
0.0
 32
0.0
 14
0.0
 24
0.0
 34
0.0
 15
0.0
 25
0.0
 35
0.0
146
0.0
 13
0.0
 23
0.0
 33
0.0
 16
1.0
 26
0.0
 36
0.0
 17
0.0
 27
1.0
 37
0.0
 76
     0
330
96EC
331
98C5
  0
LAYOUT
  5
991D
102
{ACAD_XDICTIONARY
360
997A
102
}
102
{ACAD_REACTORS
330
96E7
102
}
330
96E7
100
AcDbPlotSettings
  1

  2
Canon LBP9100C
  4

  6

 40
0.0
 41
0.0
 42
0.0
 43
0.0
 44
0.0
 45
0.0
 46
0.0
 47
0.0
 48
0.0
 49
0.0
140
0.0
141
0.0
142
1.0
143
1.0
 70
   688
 72
     0
 73
     0
 74
     5
  7

 75
    16
147
1.0
148
0.0
149
0.0
100
AcDbLayout
  1
レイアウト1
 70
     0
 71
     1
 10
0.0
 20
0.0
 11
420.0
 21
297.0
 12
0.0
 22
0.0
 32
0.0
 14
1.000000000000000E+20
 24
1.000000000000000E+20
 34
1.000000000000000E+20
 15
-1.000000000000000E+20
 25
-1.000000000000000E+20
 35
-1.000000000000000E+20
146
0.0
 13
0.0
 23
0.0
 33
0.0
 16
1.0
 26
0.0
 36
0.0
 17
0.0
 27
1.0
 37
0.0
 76
     0
330
96E8
  0
MATERIAL
  5
98D8
102
{ACAD_XDICTIONARY
360
98D9
102
}
102
{ACAD_REACTORS
330
98CF
102
}
330
98CF
100
AcDbMaterial
  1
ByBlock
 72
     0
 43
0.0208333333333333
 43
0.0
 43
0.0
 43
0.0
 43
0.0
 43
0.0208333333333333
 43
0.0
 43
0.0
 43
0.0
 43
0.0
 43
1.0
 43
0.0
 43
0.0
 43
0.0
 43
0.0
 43
1.0
 77
     0
 47
0.0208333333333333
 47
0.0
 47
0.0
 47
0.0
 47
0.0
 47
0.0208333333333333
 47
0.0
 47
0.0
 47
0.0
 47
0.0
 47
1.0
 47
0.0
 47
0.0
 47
0.0
 47
0.0
 47
1.0
171
     0
 49
0.0208333333333333
 49
0.0
 49
0.0
 49
0.0
 49
0.0
 49
0.0208333333333333
 49
0.0
 49
0.0
 49
0.0
 49
0.0
 49
1.0
 49
0.0
 49
0.0
 49
0.0
 49
0.0
 49
1.0
175
     0
142
0.0208333333333333
142
0.0
142
0.0
142
0.0
142
0.0
142
0.0208333333333333
142
0.0
142
0.0
142
0.0
142
0.0
142
1.0
142
0.0
142
0.0
142
0.0
142
0.0
142
1.0
179
     0
144
0.0208333333333333
144
0.0
144
0.0
144
0.0
144
0.0
144
0.0208333333333333
144
0.0
144
0.0
144
0.0
144
0.0
144
1.0
144
0.0
144
0.0
144
0.0
144
0.0
144
1.0
147
0.0208333333333333
147
0.0
147
0.0
147
0.0
147
0.0
147
0.0208333333333333
147
0.0
147
0.0
147
0.0
147
0.0
147
1.0
147
0.0
147
0.0
147
0.0
147
0.0
147
1.0
  0
MATERIAL
  5
98D0
102
{ACAD_XDICTIONARY
360
98D1
102
}
102
{ACAD_REACTORS
330
98CF
102
}
330
98CF
100
AcDbMaterial
  1
ByLayer
 72
     0
 43
0.0208333333333333
 43
0.0
 43
0.0
 43
0.0
 43
0.0
 43
0.0208333333333333
 43
0.0
 43
0.0
 43
0.0
 43
0.0
 43
1.0
 43
0.0
 43
0.0
 43
0.0
 43
0.0
 43
1.0
 77
     0
 47
0.0208333333333333
 47
0.0
 47
0.0
 47
0.0
 47
0.0
 47
0.0208333333333333
 47
0.0
 47
0.0
 47
0.0
 47
0.0
 47
1.0
 47
0.0
 47
0.0
 47
0.0
 47
0.0
 47
1.0
171
     0
 49
0.0208333333333333
 49
0.0
 49
0.0
 49
0.0
 49
0.0
 49
0.0208333333333333
 49
0.0
 49
0.0
 49
0.0
 49
0.0
 49
1.0
 49
0.0
 49
0.0
 49
0.0
 49
0.0
 49
1.0
175
     0
142
0.0208333333333333
142
0.0
142
0.0
142
0.0
142
0.0
142
0.0208333333333333
142
0.0
142
0.0
142
0.0
142
0.0
142
1.0
142
0.0
142
0.0
142
0.0
142
0.0
142
1.0
179
     0
144
0.0208333333333333
144
0.0
144
0.0
144
0.0
144
0.0
144
0.0208333333333333
144
0.0
144
0.0
144
0.0
144
0.0
144
1.0
144
0.0
144
0.0
144
0.0
144
0.0
144
1.0
147
0.0208333333333333
147
0.0
147
0.0
147
0.0
147
0.0
147
0.0208333333333333
147
0.0
147
0.0
147
0.0
147
0.0
147
1.0
147
0.0
147
0.0
147
0.0
147
0.0
147
1.0
  0
MATERIAL
  5
98E0
102
{ACAD_XDICTIONARY
360
98E1
102
}
102
{ACAD_REACTORS
330
98CF
102
}
330
98CF
100
AcDbMaterial
  1
Global
 72
     0
 43
0.0208333333333333
 43
0.0
 43
0.0
 43
0.0
 43
0.0
 43
0.0208333333333333
 43
0.0
 43
0.0
 43
0.0
 43
0.0
 43
1.0
 43
0.0
 43
0.0
 43
0.0
 43
0.0
 43
1.0
 77
     0
 47
0.0208333333333333
 47
0.0
 47
0.0
 47
0.0
 47
0.0
 47
0.0208333333333333
 47
0.0
 47
0.0
 47
0.0
 47
0.0
 47
1.0
 47
0.0
 47
0.0
 47
0.0
 47
0.0
 47
1.0
171
     0
 49
0.0208333333333333
 49
0.0
 49
0.0
 49
0.0
 49
0.0
 49
0.0208333333333333
 49
0.0
 49
0.0
 49
0.0
 49
0.0
 49
1.0
 49
0.0
 49
0.0
 49
0.0
 49
0.0
 49
1.0
175
     0
142
0.0208333333333333
142
0.0
142
0.0
142
0.0
142
0.0
142
0.0208333333333333
142
0.0
142
0.0
142
0.0
142
0.0
142
1.0
142
0.0
142
0.0
142
0.0
142
0.0
142
1.0
179
     0
144
0.0208333333333333
144
0.0
144
0.0
144
0.0
144
0.0
144
0.0208333333333333
144
0.0
144
0.0
144
0.0
144
0.0
144
1.0
144
0.0
144
0.0
144
0.0
144
0.0
144
1.0
147
0.0208333333333333
147
0.0
147
0.0
147
0.0
147
0.0
147
0.0208333333333333
147
0.0
147
0.0
147
0.0
147
0.0
147
1.0
147
0.0
147
0.0
147
0.0
147
0.0
147
1.0
  0
MLEADERSTYLE
  5
9917
102
{ACAD_REACTORS
330
9916
102
}
330
9916
100
AcDbMLeaderStyle
170
     2
171
     1
172
     0
 90
        2
 40
0.0
 41
0.0
173
     1
 91
-1056964608
340
96E1
 92
       -2
290
     1
 42
0.09
291
     1
 43
0.36
  3
Standard
 44
0.18
300

342
96DF
174
     1
178
     6
175
     1
176
     0
 93
-1056964608
 45
0.18
292
     0
297
     0
 46
0.18
 94
-1056964608
 47
1.0
 49
1.0
140
1.0
293
     1
141
0.0
294
     1
177
     0
142
1.0
295
     0
296
     0
143
0.125
1001
ACAD_MLEADERVER
1070
     2
  0
MLINESTYLE
  5
96E5
102
{ACAD_REACTORS
330
96E4
102
}
330
96E4
100
AcDbMlineStyle
  2
STANDARD
 70
     0
  3

 62
   256
 51
90.0
 52
90.0
 71
     2
 49
0.5
 62
   256
  6
BYLAYER
 49
-0.5
 62
   256
  6
BYLAYER
  0
ACDBPLACEHOLDER
  5
98CE
102
{ACAD_REACTORS
330
98CD
102
}
330
98CD
  0
SCALE
  5
9905
102
{ACAD_REACTORS
330
9904
102
}
330
9904
100
AcDbScale
 70
     0
300
1:1
140
1.0
141
1.0
290
     1
  0
SCALE
  5
9906
102
{ACAD_REACTORS
330
9904
102
}
330
9904
100
AcDbScale
 70
     0
300
1/128" = 1'-0"
140
0.0078125
141
12.0
290
     0
  0
SCALE
  5
9907
102
{ACAD_REACTORS
330
9904
102
}
330
9904
100
AcDbScale
 70
     0
300
1/64" = 1'-0"
140
0.015625
141
12.0
290
     0
  0
SCALE
  5
9908
102
{ACAD_REACTORS
330
9904
102
}
330
9904
100
AcDbScale
 70
     0
300
1/32" = 1'-0"
140
0.03125
141
12.0
290
     0
  0
SCALE
  5
9909
102
{ACAD_REACTORS
330
9904
102
}
330
9904
100
AcDbScale
 70
     0
300
1/16" = 1'-0"
140
0.0625
141
12.0
290
     0
  0
SCALE
  5
990A
102
{ACAD_REACTORS
330
9904
102
}
330
9904
100
AcDbScale
 70
     0
300
3/32" = 1'-0"
140
0.09375
141
12.0
290
     0
  0
SCALE
  5
990B
102
{ACAD_REACTORS
330
9904
102
}
330
9904
100
AcDbScale
 70
     0
300
1/8" = 1'-0"
140
0.125
141
12.0
290
     0
  0
SCALE
  5
990C
102
{ACAD_REACTORS
330
9904
102
}
330
9904
100
AcDbScale
 70
     0
300
3/16" = 1'-0"
140
0.1875
141
12.0
290
     0
  0
SCALE
  5
990D
102
{ACAD_REACTORS
330
9904
102
}
330
9904
100
AcDbScale
 70
     0
300
1/4" = 1'-0"
140
0.25
141
12.0
290
     0
  0
SCALE
  5
990E
102
{ACAD_REACTORS
330
9904
102
}
330
9904
100
AcDbScale
 70
     0
300
3/8" = 1'-0"
140
0.375
141
12.0
290
     0
  0
SCALE
  5
990F
102
{ACAD_REACTORS
330
9904
102
}
330
9904
100
AcDbScale
 70
     0
300
1/2" = 1'-0"
140
0.5
141
12.0
290
     0
  0
SCALE
  5
9910
102
{ACAD_REACTORS
330
9904
102
}
330
9904
100
AcDbScale
 70
     0
300
3/4" = 1'-0"
140
0.75
141
12.0
290
     0
  0
SCALE
  5
9911
102
{ACAD_REACTORS
330
9904
102
}
330
9904
100
AcDbScale
 70
     0
300
1" = 1'-0"
140
1.0
141
12.0
290
     0
  0
SCALE
  5
9912
102
{ACAD_REACTORS
330
9904
102
}
330
9904
100
AcDbScale
 70
     0
300
1-1/2" = 1'-0"
140
1.5
141
12.0
290
     0
  0
SCALE
  5
9913
102
{ACAD_REACTORS
330
9904
102
}
330
9904
100
AcDbScale
 70
     0
300
3" = 1'-0"
140
3.0
141
12.0
290
     0
  0
SCALE
  5
9914
102
{ACAD_REACTORS
330
9904
102
}
330
9904
100
AcDbScale
 70
     0
300
6" = 1'-0"
140
6.0
141
12.0
290
     0
  0
SCALE
  5
9915
102
{ACAD_REACTORS
330
9904
102
}
330
9904
100
AcDbScale
 70
     0
300
1'-0" = 1'-0"
140
12.0
141
12.0
290
     0
  0
ACDBSECTIONVIEWSTYLE
  5
9919
102
{ACAD_XDICTIONARY
360
9974
102
}
102
{ACAD_REACTORS
330
9918
102
}
330
9918
100
AcDbModelDocViewStyle
 70
     0
  3
Imperial24
290
     0
100
AcDbSectionViewStyle
 70
     0
 71
     0
 90
       78
 71
     1
340
96DF
 40
0.24
340
0
340
0
 40
0.24
300
I, O, Q, S, X, Z
 40
0.48
 90
        3
 40
0.18
 90
        1
 71
     2
340
96E3
 90
       25
340
96E3
 90
       50
 40
0.24
 40
0.0
 40
0.24
 71
     3
340
96DF
 40
0.24
 90
        1
 40
0.75
 90
        1
300
%<\AcVar ViewType \f "%tc1">% %<\AcVar ViewSectionStartId>%-%<\AcVar ViewSectionEndId>%\PSCALE %<\AcVar ViewScale \f "%sn">%
 71
     4
300
ANSI31
 40
1.0
 90
        0
290
     0
290
     0
 90
        6
 40
0.0
 40
1.570796326794896
 40
0.2617993877991494
 40
1.308996938995747
 40
-0.2617993877991494
 40
1.832595714594046
  0
TABLESTYLE
  5
9903
102
{ACAD_XDICTIONARY
360
993B
102
}
102
{ACAD_REACTORS
330
9902
102
}
330
9902
100
AcDbTableStyle
  3
Standard
 70
     0
 71
     0
 40
0.06
 41
0.06
280
     0
281
     0
  7
STANDARD
140
0.18
170
     2
 62
     0
 63
     7
283
     0
274
    -2
284
     1
 64
     0
275
    -2
285
     1
 65
     0
276
    -2
286
     1
 66
     0
277
    -2
287
     1
 67
     0
278
    -2
288
     1
 68
     0
279
    -2
289
     1
 69
     0
  7
STANDARD
140
0.25
170
     5
 62
     0
 63
     7
283
     0
274
    -2
284
     1
 64
     0
275
    -2
285
     1
 65
     0
276
    -2
286
     1
 66
     0
277
    -2
287
     1
 67
     0
278
    -2
288
     1
 68
     0
279
    -2
289
     1
 69
     0
  7
STANDARD
140
0.18
170
     5
 62
     0
 63
     7
283
     0
274
    -2
284
     1
 64
     0
275
    -2
285
     1
 65
     0
276
    -2
286
     1
 66
     0
277
    -2
287
     1
 67
     0
278
    -2
288
     1
 68
     0
279
    -2
289
     1
 69
     0
  0
VISUALSTYLE
  5
98EE
102
{ACAD_XDICTIONARY
360
994C
102
}
102
{ACAD_REACTORS
330
98E8
102
}
330
98E8
100
AcDbVisualStyle
  2
2dWireframe
 70
     4
 71
     0
 72
     2
 73
     0
 90
        0
 40
-0.6
 41
-30.0
 62
     5
 63
     7
 74
     1
 91
        4
 64
     7
 65
   257
 75
     1
175
     1
 42
1.0
 92
        0
 66
   257
 43
1.0
 76
     1
 77
     6
 78
     2
 67
     7
 79
     5
170
     0
171
     0
290
     0
174
     0
 93
        1
 44
0.0
173
     0
291
     0
 45
0.0
1001
ACAD
1000
AcDbSavedByObjectVersion
1070
     0
  0
VISUALSTYLE
  5
98ED
102
{ACAD_XDICTIONARY
360
994A
102
}
102
{ACAD_REACTORS
330
98E8
102
}
330
98E8
100
AcDbVisualStyle
  2
Basic
 70
     7
 71
     1
 72
     0
 73
     1
 90
        0
 40
-0.6
 41
-30.0
 62
     5
 63
     7
 74
     0
 91
        4
 64
     7
 65
   257
 75
     1
175
     1
 42
1.0
 92
        8
 66
     7
 43
1.0
 76
     1
 77
     6
 78
     2
 67
     7
 79
     5
170
     0
171
     0
290
     0
174
     0
 93
        1
 44
0.0
173
     0
291
     1
 45
0.0
1001
ACAD
1000
AcDbSavedByObjectVersion
1070
     0
  0
VISUALSTYLE
  5
98F4
102
{ACAD_XDICTIONARY
360
9958
102
}
102
{ACAD_REACTORS
330
98E8
102
}
330
98E8
100
AcDbVisualStyle
  2
Brighten
 70
    12
 71
     2
 72
     2
 73
     0
 90
        0
 40
-0.6
 41
-30.0
 62
     5
 63
     7
 74
     1
 91
        4
 64
     7
 65
   257
 75
     1
175
     1
 42
1.0
 92
        8
 66
     7
 43
1.0
 76
     1
 77
     6
 78
     2
 67
     7
 79
     5
170
     0
171
     0
290
     0
174
     0
 93
        1
 44
50.0
173
     0
291
     1
 45
0.0
1001
ACAD
1000
AcDbSavedByObjectVersion
1070
     0
  0
VISUALSTYLE
  5
98F8
102
{ACAD_XDICTIONARY
360
9960
102
}
102
{ACAD_REACTORS
330
98E8
102
}
330
98E8
100
AcDbVisualStyle
  2
ColorChange
 70
    16
 71
     2
 72
     2
 73
     3
 90
        0
 40
-0.6
 41
-30.0
 62
     5
 63
     8
 74
     1
 91
        4
 64
     7
 65
   257
 75
     1
175
     1
 42
1.0
 92
        8
 66
     8
 43
1.0
 76
     1
 77
     6
 78
     2
 67
     7
 79
     5
170
     0
171
     0
290
     0
174
     0
 93
        1
 44
0.0
173
     0
291
     1
 45
0.0
1001
ACAD
1000
AcDbSavedByObjectVersion
1070
     0
  0
VISUALSTYLE
  5
98F1
102
{ACAD_XDICTIONARY
360
9952
102
}
102
{ACAD_REACTORS
330
98E8
102
}
330
98E8
100
AcDbVisualStyle
  2
Conceptual
 70
     9
 71
     3
 72
     2
 73
     0
 90
        0
 40
-0.6
 41
-30.0
 62
     5
 63
     7
 74
     2
 91
        2
 64
     7
 65
   257
 75
     1
175
     1
 42
179.0
 92
        8
 66
     7
 43
1.0
 76
     1
 77
     6
 78
     2
 67
     7
 79
     3
170
     0
171
     0
290
     0
174
     0
 93
        1
 44
0.0
173
     0
291
     0
 45
0.0
1001
ACAD
1000
AcDbSavedByObjectVersion
1070
     0
  0
VISUALSTYLE
  5
98F3
102
{ACAD_XDICTIONARY
360
9956
102
}
102
{ACAD_REACTORS
330
98E8
102
}
330
98E8
100
AcDbVisualStyle
  2
Dim
 70
    11
 71
     2
 72
     2
 73
     0
 90
        0
 40
-0.6
 41
-30.0
 62
     5
 63
     7
 74
     1
 91
        4
 64
     7
 65
   257
 75
     1
175
     1
 42
1.0
 92
        8
 66
     7
 43
1.0
 76
     1
 77
     6
 78
     2
 67
     7
 79
     5
170
     0
171
     0
290
     0
174
     0
 93
        1
 44
-50.0
173
     0
291
     1
 45
0.0
1001
ACAD
1000
AcDbSavedByObjectVersion
1070
     0
  0
VISUALSTYLE
  5
9900
102
{ACAD_XDICTIONARY
360
9970
102
}
102
{ACAD_REACTORS
330
98E8
102
}
330
98E8
100
AcDbVisualStyle
  2
EdgeColorOff
 70
    22
 71
     2
 72
     2
 73
     0
 90
        0
 40
-0.6
 41
-30.0
 62
     5
 63
     7
 74
     1
 91
        4
 64
     7
 65
   257
 75
     1
175
     1
 42
1.0
 92
        8
 66
     7
 43
1.0
 76
     1
 77
     6
 78
     2
 67
     7
 79
     5
170
     0
171
     0
290
     0
174
     0
 93
        1
 44
0.0
173
     0
291
     1
 45
0.0
1001
ACAD
1000
AcDbSavedByObjectVersion
1070
     0
  0
VISUALSTYLE
  5
98F7
102
{ACAD_XDICTIONARY
360
995E
102
}
102
{ACAD_REACTORS
330
98E8
102
}
330
98E8
100
AcDbVisualStyle
  2
Facepattern
 70
    15
 71
     2
 72
     2
 73
     0
 90
        0
 40
-0.6
 41
-30.0
 62
     5
 63
     7
 74
     1
 91
        4
 64
     7
 65
   257
 75
     1
175
     1
 42
1.0
 92
        8
 66
     7
 43
1.0
 76
     1
 77
     6
 78
     2
 67
     7
 79
     5
170
     0
171
     0
290
     0
174
     0
 93
        1
 44
0.0
173
     0
291
     1
 45
0.0
1001
ACAD
1000
AcDbSavedByObjectVersion
1070
     0
  0
VISUALSTYLE
  5
98E9
102
{ACAD_XDICTIONARY
360
9942
102
}
102
{ACAD_REACTORS
330
98E8
102
}
330
98E8
100
AcDbVisualStyle
  2
Flat
 70
     0
 71
     2
 72
     1
 73
     1
 90
        2
 40
-0.6
 41
30.0
 62
     5
 63
     7
 74
     0
 91
        0
 64
     7
 65
   257
 75
     1
175
     1
 42
1.0
 92
        8
 66
     7
 43
1.0
 76
     1
 77
     6
 78
     2
 67
     7
 79
     5
170
     0
171
     0
290
     0
174
     0
 93
       13
 44
0.0
173
     0
291
     1
 45
0.0
1001
ACAD
1000
AcDbSavedByObjectVersion
1070
     0
  0
VISUALSTYLE
  5
98EA
102
{ACAD_XDICTIONARY
360
9944
102
}
102
{ACAD_REACTORS
330
98E8
102
}
330
98E8
100
AcDbVisualStyle
  2
FlatWithEdges
 70
     1
 71
     2
 72
     1
 73
     1
 90
        2
 40
-0.6
 41
30.0
 62
     5
 63
     7
 74
     1
 91
        0
 64
     7
 65
   257
 75
     1
175
     1
 42
1.0
 92
        0
 66
   257
 43
1.0
 76
     1
 77
     6
 78
     2
 67
     7
 79
     5
170
     0
171
     0
290
     0
174
     0
 93
       13
 44
0.0
173
     0
291
     1
 45
0.0
1001
ACAD
1000
AcDbSavedByObjectVersion
1070
     0
  0
VISUALSTYLE
  5
98EB
102
{ACAD_XDICTIONARY
360
9946
102
}
102
{ACAD_REACTORS
330
98E8
102
}
330
98E8
100
AcDbVisualStyle
  2
Gouraud
 70
     2
 71
     2
 72
     2
 73
     1
 90
        2
 40
-0.6
 41
30.0
 62
     5
 63
     7
 74
     0
 91
        0
 64
     7
 65
   257
 75
     1
175
     1
 42
1.0
 92
        0
 66
     7
 43
1.0
 76
     1
 77
     6
 78
     2
 67
     7
 79
     5
170
     0
171
     0
290
     0
174
     0
 93
       13
 44
0.0
173
     0
291
     1
 45
0.0
1001
ACAD
1000
AcDbSavedByObjectVersion
1070
     0
  0
VISUALSTYLE
  5
98EC
102
{ACAD_XDICTIONARY
360
9948
102
}
102
{ACAD_REACTORS
330
98E8
102
}
330
98E8
100
AcDbVisualStyle
  2
GouraudWithEdges
 70
     3
 71
     2
 72
     2
 73
     1
 90
        2
 40
-0.6
 41
30.0
 62
     5
 63
     7
 74
     1
 91
        0
 64
     7
 65
   257
 75
     1
175
     1
 42
1.0
 92
        0
 66
   257
 43
1.0
 76
     1
 77
     6
 78
     2
 67
     7
 79
     5
170
     0
171
     0
290
     0
174
     0
 93
       13
 44
0.0
173
     0
291
     1
 45
0.0
1001
ACAD
1000
AcDbSavedByObjectVersion
1070
     0
  0
VISUALSTYLE
  5
98F0
102
{ACAD_XDICTIONARY
360
9950
102
}
102
{ACAD_REACTORS
330
98E8
102
}
330
98E8
100
AcDbVisualStyle
  2
Hidden
 70
     6
 71
     1
 72
     2
 73
     2
 90
        0
 40
-0.6
 41
-30.0
 62
     5
 63
     7
 74
     2
 91
        2
 64
     7
 65
   257
 75
     2
175
     1
 42
40.0
 92
        0
 66
   257
 43
1.0
 76
     1
 77
     6
 78
     2
 67
     7
 79
     3
170
     0
171
     0
290
     0
174
     0
 93
        1
 44
0.0
173
     0
291
     0
 45
0.0
1001
ACAD
1000
AcDbSavedByObjectVersion
1070
     0
  0
VISUALSTYLE
  5
98FE
102
{ACAD_XDICTIONARY
360
996C
102
}
102
{ACAD_REACTORS
330
98E8
102
}
330
98E8
100
AcDbVisualStyle
  2
JitterOff
 70
    20
 71
     2
 72
     2
 73
     0
 90
        0
 40
-0.6
 41
-30.0
 62
     5
 63
     7
 74
     1
 91
        4
 64
     7
 65
   257
 75
     1
175
     1
 42
1.0
 92
       10
 66
     7
 43
1.0
 76
     1
 77
     6
 78
     2
 67
     7
 79
     5
170
     0
171
     0
290
     0
174
     0
 93
        1
 44
0.0
173
     0
291
     1
 45
0.0
1001
ACAD
1000
AcDbSavedByObjectVersion
1070
     0
  0
VISUALSTYLE
  5
98F6
102
{ACAD_XDICTIONARY
360
995C
102
}
102
{ACAD_REACTORS
330
98E8
102
}
330
98E8
100
AcDbVisualStyle
  2
Linepattern
 70
    14
 71
     2
 72
     2
 73
     0
 90
        0
 40
-0.6
 41
-30.0
 62
     5
 63
     7
 74
     1
 91
        4
 64
     7
 65
   257
 75
     7
175
     7
 42
1.0
 92
        8
 66
     7
 43
1.0
 76
     1
 77
     6
 78
     2
 67
     7
 79
     5
170
     0
171
     0
290
     0
174
     0
 93
        1
 44
0.0
173
     0
291
     1
 45
0.0
1001
ACAD
1000
AcDbSavedByObjectVersion
1070
     0
  0
VISUALSTYLE
  5
98FF
102
{ACAD_XDICTIONARY
360
996E
102
}
102
{ACAD_REACTORS
330
98E8
102
}
330
98E8
100
AcDbVisualStyle
  2
OverhangOff
 70
    21
 71
     2
 72
     2
 73
     0
 90
        0
 40
-0.6
 41
-30.0
 62
     5
 63
     7
 74
     1
 91
        4
 64
     7
 65
   257
 75
     1
175
     1
 42
1.0
 92
        9
 66
     7
 43
1.0
 76
     1
 77
     6
 78
     2
 67
     7
 79
     5
170
     0
171
     0
290
     0
174
     0
 93
        1
 44
0.0
173
     0
291
     1
 45
0.0
1001
ACAD
1000
AcDbSavedByObjectVersion
1070
     0
  0
VISUALSTYLE
  5
98F2
102
{ACAD_XDICTIONARY
360
9954
102
}
102
{ACAD_REACTORS
330
98E8
102
}
330
98E8
100
AcDbVisualStyle
  2
Realistic
 70
     8
 71
     2
 72
     3
 73
     0
 90
        2
 40
-0.6
 41
30.0
 62
     5
 63
     7
 74
     0
 91
        0
 64
     7
 65
   257
 75
     1
175
     1
 42
1.0
 92
        8
 66
   257
 43
1.0
 76
     1
 77
     6
 78
     2
 67
     7
 79
     3
170
     0
171
     0
290
     0
174
     0
 93
       13
 44
0.0
173
     0
291
     0
 45
0.0
1001
ACAD
1000
AcDbSavedByObjectVersion
1070
     0
  0
VISUALSTYLE
  5
98FD
102
{ACAD_XDICTIONARY
360
996A
102
}
102
{ACAD_REACTORS
330
98E8
102
}
330
98E8
100
AcDbVisualStyle
  2
Shaded
 70
    27
 71
     2
 72
     2
 73
     1
 90
        2
 40
-0.6
 41
30.0
 62
     5
 63
     7
 74
     0
 91
        4
 64
     7
 65
   257
 75
     1
175
     1
 42
1.0
 92
        8
 66
   257
 43
1.0
 76
     1
 77
     6
 78
     2
 67
     8
 79
     3
170
     0
171
     0
290
     0
174
     0
 93
        5
 44
0.0
173
     0
291
     0
 45
0.0
1001
ACAD
1000
AcDbSavedByObjectVersion
1070
     0
  0
VISUALSTYLE
  5
98FC
102
{ACAD_XDICTIONARY
360
9968
102
}
102
{ACAD_REACTORS
330
98E8
102
}
330
98E8
100
AcDbVisualStyle
  2
Shaded with edges
 70
    26
 71
     2
 72
     2
 73
     1
 90
        2
 40
-0.6
 41
30.0
 62
     5
 63
     7
 74
     1
 91
       10
 64
     7
 65
   257
 75
     2
175
     1
 42
1.0
 92
        8
 66
   257
 43
1.0
 76
     1
 77
     6
 78
     2
 67
     7
 79
     3
170
     0
171
     0
290
     0
174
     0
 93
        5
 44
0.0
173
     0
291
     0
 45
0.0
1001
ACAD
1000
AcDbSavedByObjectVersion
1070
     0
  0
VISUALSTYLE
  5
98F9
102
{ACAD_XDICTIONARY
360
9962
102
}
102
{ACAD_REACTORS
330
98E8
102
}
330
98E8
100
AcDbVisualStyle
  2
Shades of Gray
 70
    23
 71
     2
 72
     2
 73
     3
 90
        0
 40
-0.6
 41
-30.0
 62
     5
 63
     7
 74
     2
 91
        2
 64
     7
 65
     7
 75
     1
175
     1
 42
40.0
 92
        8
 66
     7
 43
1.0
 76
     1
 77
     6
 78
     2
 67
     7
 79
     3
170
     0
171
     0
290
     0
174
     0
 93
        1
 44
0.0
173
     0
291
     0
 45
0.0
1001
ACAD
1000
AcDbSavedByObjectVersion
1070
     0
  0
VISUALSTYLE
  5
98FA
102
{ACAD_XDICTIONARY
360
9964
102
}
102
{ACAD_REACTORS
330
98E8
102
}
330
98E8
100
AcDbVisualStyle
  2
Sketchy
 70
    24
 71
     1
 72
     2
 73
     2
 90
        0
 40
-0.6
 41
-30.0
 62
     5
 63
     7
 74
     2
 91
        2
 64
     7
 65
     7
 75
     1
175
     1
 42
40.0
 92
       11
 66
     7
 43
1.0
 76
     1
 77
     6
 78
     2
 67
     7
 79
     6
170
     0
171
     0
290
     0
174
     0
 93
        1
 44
0.0
173
     0
291
     0
 45
0.0
1001
ACAD
1000
AcDbSavedByObjectVersion
1070
     0
  0
VISUALSTYLE
  5
98F5
102
{ACAD_XDICTIONARY
360
995A
102
}
102
{ACAD_REACTORS
330
98E8
102
}
330
98E8
100
AcDbVisualStyle
  2
Thicken
 70
    13
 71
     2
 72
     2
 73
     0
 90
        0
 40
-0.6
 41
-30.0
 62
     5
 63
     7
 74
     1
 91
        4
 64
     7
 65
   257
 75
     1
175
     1
 42
1.0
 92
       12
 66
     7
 43
1.0
 76
     1
 77
     6
 78
     2
 67
     7
 79
     5
170
     0
171
     0
290
     0
174
     0
 93
        1
 44
0.0
173
     0
291
     1
 45
0.0
1001
ACAD
1000
AcDbSavedByObjectVersion
1070
     0
  0
VISUALSTYLE
  5
98EF
102
{ACAD_XDICTIONARY
360
994E
102
}
102
{ACAD_REACTORS
330
98E8
102
}
330
98E8
100
AcDbVisualStyle
  2
Wireframe
 70
     5
 71
     0
 72
     2
 73
     0
 90
        0
 40
-0.6
 41
-30.0
 62
     5
 63
     7
 74
     1
 91
        4
 64
     7
 65
   257
 75
     1
175
     1
 42
1.0
 92
        0
 66
   257
 43
1.0
 76
     1
 77
     6
 78
     2
 67
     7
 79
     3
170
     0
171
     0
290
     0
174
     0
 93
        1
 44
0.0
173
     0
291
     0
 45
0.0
1001
ACAD
1000
AcDbSavedByObjectVersion
1070
     0
  0
VISUALSTYLE
  5
98FB
102
{ACAD_XDICTIONARY
360
9966
102
}
102
{ACAD_REACTORS
330
98E8
102
}
330
98E8
100
AcDbVisualStyle
  2
X-Ray
 70
    25
 71
     2
 72
     2
 73
     1
 90
        1
 40
0.5
 41
-30.0
 62
     5
 63
     7
 74
     1
 91
        0
 64
     7
 65
   257
 75
     1
175
     1
 42
1.0
 92
        8
 66
     7
 43
1.0
 76
     1
 77
     6
 78
     2
 67
     7
 79
     3
170
     0
171
     0
290
     0
174
     0
 93
       13
 44
0.0
173
     0
291
     0
 45
0.0
1001
ACAD
1000
AcDbSavedByObjectVersion
1070
     0
  0
DICTIONARYVAR
  5
9935
102
{ACAD_REACTORS
330
9930
102
}
330
9930
100
DictionaryVariables
280
     0
  1
1:1
  0
DICTIONARYVAR
  5
9932
102
{ACAD_REACTORS
330
9930
102
}
330
9930
100
DictionaryVariables
280
     0
  1
STANDARD
  0
DICTIONARYVAR
  5
9931
102
{ACAD_REACTORS
330
9930
102
}
330
9930
100
DictionaryVariables
280
     0
  1
STANDARD
  0
DICTIONARYVAR
  5
9933
102
{ACAD_REACTORS
330
9930
102
}
330
9930
100
DictionaryVariables
280
     0
  1
Imperial24
  0
DICTIONARYVAR
  5
9934
102
{ACAD_REACTORS
330
9930
102
}
330
9930
100
DictionaryVariables
280
     0
  1
Imperial24
  0
DICTIONARYVAR
  5
9938
102
{ACAD_REACTORS
330
9930
102
}
330
9930
100
DictionaryVariables
280
     0
  1
1
  0
DICTIONARYVAR
  5
9937
102
{ACAD_REACTORS
330
9930
102
}
330
9930
100
DictionaryVariables
280
     0
  1
0
  0
DICTIONARYVAR
  5
9936
102
{ACAD_REACTORS
330
9930
102
}
330
9930
100
DictionaryVariables
280
     0
  1
127
  0
DICTIONARYVAR
  5
9939
102
{ACAD_REACTORS
330
9930
102
}
330
9930
100
DictionaryVariables
280
     0
  1
2
  0
DICTIONARY
  5
9976
330
991B
100
AcDbDictionary
280
     1
281
     1
  3
ACAD_XREC_ROUNDTRIP
360
9977
  0
DICTIONARY
  5
9978
330
991C
100
AcDbDictionary
280
     1
281
     1
  3
ACAD_XREC_ROUNDTRIP
360
9979
  0
DICTIONARY
  5
997A
330
991D
100
AcDbDictionary
280
     1
281
     1
  3
ACAD_XREC_ROUNDTRIP
360
997B
  0
DICTIONARY
  5
98D9
330
98D8
100
AcDbDictionary
280
     1
281
     1
  3
ACAD_XREC_ROUNDTRIP
360
9940
  3
BUMPTILE
360
98DB
  3
DIFFUSETILE
360
98DA
  3
OPACITYTILE
360
98DE
  3
REFLECTIONTILE
360
98DD
  3
REFRACTIONTILE
360
98DF
  3
SPECULARTILE
360
98DC
  0
DICTIONARY
  5
98D1
330
98D0
100
AcDbDictionary
280
     1
281
     1
  3
ACAD_XREC_ROUNDTRIP
360
993F
  3
BUMPTILE
360
98D3
  3
DIFFUSETILE
360
98D2
  3
OPACITYTILE
360
98D6
  3
REFLECTIONTILE
360
98D5
  3
REFRACTIONTILE
360
98D7
  3
SPECULARTILE
360
98D4
  0
DICTIONARY
  5
98E1
330
98E0
100
AcDbDictionary
280
     1
281
     1
  3
ACAD_XREC_ROUNDTRIP
360
9941
  3
BUMPTILE
360
98E3
  3
DIFFUSETILE
360
98E2
  3
OPACITYTILE
360
98E6
  3
REFLECTIONTILE
360
98E5
  3
REFRACTIONTILE
360
98E7
  3
SPECULARTILE
360
98E4
  0
DICTIONARY
  5
9974
330
9919
100
AcDbDictionary
280
     1
281
     1
  3
ACAD_XREC_ROUNDTRIP
360
9975
  0
DICTIONARY
  5
993B
330
9903
100
AcDbDictionary
280
     1
281
     1
  3
ACAD_ROUNDTRIP_2008_TABLESTYLE_CELLSTYLEMAP
360
993C
  3
ACAD_XREC_ROUNDTRIP
360
9972
  0
DICTIONARY
  5
994C
330
98EE
100
AcDbDictionary
280
     1
281
     1
  3
ACAD_XREC_ROUNDTRIP
360
994D
  0
DICTIONARY
  5
994A
330
98ED
100
AcDbDictionary
280
     1
281
     1
  3
ACAD_XREC_ROUNDTRIP
360
994B
  0
DICTIONARY
  5
9958
330
98F4
100
AcDbDictionary
280
     1
281
     1
  3
ACAD_XREC_ROUNDTRIP
360
9959
  0
DICTIONARY
  5
9960
330
98F8
100
AcDbDictionary
280
     1
281
     1
  3
ACAD_XREC_ROUNDTRIP
360
9961
  0
DICTIONARY
  5
9952
330
98F1
100
AcDbDictionary
280
     1
281
     1
  3
ACAD_XREC_ROUNDTRIP
360
9953
  0
DICTIONARY
  5
9956
330
98F3
100
AcDbDictionary
280
     1
281
     1
  3
ACAD_XREC_ROUNDTRIP
360
9957
  0
DICTIONARY
  5
9970
330
9900
100
AcDbDictionary
280
     1
281
     1
  3
ACAD_XREC_ROUNDTRIP
360
9971
  0
DICTIONARY
  5
995E
330
98F7
100
AcDbDictionary
280
     1
281
     1
  3
ACAD_XREC_ROUNDTRIP
360
995F
  0
DICTIONARY
  5
9942
330
98E9
100
AcDbDictionary
280
     1
281
     1
  3
ACAD_XREC_ROUNDTRIP
360
9943
  0
DICTIONARY
  5
9944
330
98EA
100
AcDbDictionary
280
     1
281
     1
  3
ACAD_XREC_ROUNDTRIP
360
9945
  0
DICTIONARY
  5
9946
330
98EB
100
AcDbDictionary
280
     1
281
     1
  3
ACAD_XREC_ROUNDTRIP
360
9947
  0
DICTIONARY
  5
9948
330
98EC
100
AcDbDictionary
280
     1
281
     1
  3
ACAD_XREC_ROUNDTRIP
360
9949
  0
DICTIONARY
  5
9950
330
98F0
100
AcDbDictionary
280
     1
281
     1
  3
ACAD_XREC_ROUNDTRIP
360
9951
  0
DICTIONARY
  5
996C
330
98FE
100
AcDbDictionary
280
     1
281
     1
  3
ACAD_XREC_ROUNDTRIP
360
996D
  0
DICTIONARY
  5
995C
330
98F6
100
AcDbDictionary
280
     1
281
     1
  3
ACAD_XREC_ROUNDTRIP
360
995D
  0
DICTIONARY
  5
996E
330
98FF
100
AcDbDictionary
280
     1
281
     1
  3
ACAD_XREC_ROUNDTRIP
360
996F
  0
DICTIONARY
  5
9954
330
98F2
100
AcDbDictionary
280
     1
281
     1
  3
ACAD_XREC_ROUNDTRIP
360
9955
  0
DICTIONARY
  5
996A
330
98FD
100
AcDbDictionary
280
     1
281
     1
  3
ACAD_XREC_ROUNDTRIP
360
996B
  0
DICTIONARY
  5
9968
330
98FC
100
AcDbDictionary
280
     1
281
     1
  3
ACAD_XREC_ROUNDTRIP
360
9969
  0
DICTIONARY
  5
9962
330
98F9
100
AcDbDictionary
280
     1
281
     1
  3
ACAD_XREC_ROUNDTRIP
360
9963
  0
DICTIONARY
  5
9964
330
98FA
100
AcDbDictionary
280
     1
281
     1
  3
ACAD_XREC_ROUNDTRIP
360
9965
  0
DICTIONARY
  5
995A
330
98F5
100
AcDbDictionary
280
     1
281
     1
  3
ACAD_XREC_ROUNDTRIP
360
995B
  0
DICTIONARY
  5
994E
330
98EF
100
AcDbDictionary
280
     1
281
     1
  3
ACAD_XREC_ROUNDTRIP
360
994F
  0
DICTIONARY
  5
9966
330
98FB
100
AcDbDictionary
280
     1
281
     1
  3
ACAD_XREC_ROUNDTRIP
360
9967
  0
XRECORD
  5
9977
102
{ACAD_REACTORS
330
9976
102
}
330
9976
100
AcDbXrecord
280
     1
102
DISPLAYNAME
  1
Imperial24
102
FLAGS
 90
        0
  0
XRECORD
  5
9979
102
{ACAD_REACTORS
330
9978
102
}
330
9978
100
AcDbXrecord
280
     1
102
SHADEPLOT
 70
     0
102
SHADEPLOTRESLEVEL
 70
     2
102
SHADEPLOTCUSTOMDPI
 70
   300
  0
XRECORD
  5
997B
102
{ACAD_REACTORS
330
997A
102
}
330
997A
100
AcDbXrecord
280
     1
102
SHADEPLOT
 70
     0
102
SHADEPLOTRESLEVEL
 70
     2
102
SHADEPLOTCUSTOMDPI
 70
   300
  0
XRECORD
  5
9940
102
{ACAD_REACTORS
330
98D9
102
}
330
98D9
100
AcDbXrecord
280
     1
102
MATERIAL
148
0.0
149
0.0
149
0.0
 93
        0
 94
      127
282
     0
 72
     0
 77
     0
171
     0
175
     0
179
     0
273
     0
  0
XRECORD
  5
98DB
102
{ACAD_REACTORS
330
98D9
102
}
330
98D9
100
AcDbXrecord
280
     1
270
     1
271
     1
  0
XRECORD
  5
98DA
102
{ACAD_REACTORS
330
98D9
102
}
330
98D9
100
AcDbXrecord
280
     1
270
     1
271
     1
  0
XRECORD
  5
98DE
102
{ACAD_REACTORS
330
98D9
102
}
330
98D9
100
AcDbXrecord
280
     1
270
     1
271
     1
  0
XRECORD
  5
98DD
102
{ACAD_REACTORS
330
98D9
102
}
330
98D9
100
AcDbXrecord
280
     1
270
     1
271
     1
  0
XRECORD
  5
98DF
102
{ACAD_REACTORS
330
98D9
102
}
330
98D9
100
AcDbXrecord
280
     1
270
     1
271
     1
  0
XRECORD
  5
98DC
102
{ACAD_REACTORS
330
98D9
102
}
330
98D9
100
AcDbXrecord
280
     1
270
     1
271
     1
  0
XRECORD
  5
993F
102
{ACAD_REACTORS
330
98D1
102
}
330
98D1
100
AcDbXrecord
280
     1
102
MATERIAL
148
0.0
149
0.0
149
0.0
 93
        0
 94
      127
282
     0
 72
     0
 77
     0
171
     0
175
     0
179
     0
273
     0
  0
XRECORD
  5
98D3
102
{ACAD_REACTORS
330
98D1
102
}
330
98D1
100
AcDbXrecord
280
     1
270
     1
271
     1
  0
XRECORD
  5
98D2
102
{ACAD_REACTORS
330
98D1
102
}
330
98D1
100
AcDbXrecord
280
     1
270
     1
271
     1
  0
XRECORD
  5
98D6
102
{ACAD_REACTORS
330
98D1
102
}
330
98D1
100
AcDbXrecord
280
     1
270
     1
271
     1
  0
XRECORD
  5
98D5
102
{ACAD_REACTORS
330
98D1
102
}
330
98D1
100
AcDbXrecord
280
     1
270
     1
271
     1
  0
XRECORD
  5
98D7
102
{ACAD_REACTORS
330
98D1
102
}
330
98D1
100
AcDbXrecord
280
     1
270
     1
271
     1
  0
XRECORD
  5
98D4
102
{ACAD_REACTORS
330
98D1
102
}
330
98D1
100
AcDbXrecord
280
     1
270
     1
271
     1
  0
XRECORD
  5
9941
102
{ACAD_REACTORS
330
98E1
102
}
330
98E1
100
AcDbXrecord
280
     1
102
MATERIAL
148
0.0
149
0.0
149
0.0
 93
        0
 94
      127
282
     0
 72
     0
 77
     0
171
     0
175
     0
179
     0
273
     0
  0
XRECORD
  5
98E3
102
{ACAD_REACTORS
330
98E1
102
}
330
98E1
100
AcDbXrecord
280
     1
270
     1
271
     1
  0
XRECORD
  5
98E2
102
{ACAD_REACTORS
330
98E1
102
}
330
98E1
100
AcDbXrecord
280
     1
270
     1
271
     1
  0
XRECORD
  5
98E6
102
{ACAD_REACTORS
330
98E1
102
}
330
98E1
100
AcDbXrecord
280
     1
270
     1
271
     1
  0
XRECORD
  5
98E5
102
{ACAD_REACTORS
330
98E1
102
}
330
98E1
100
AcDbXrecord
280
     1
270
     1
271
     1
  0
XRECORD
  5
98E7
102
{ACAD_REACTORS
330
98E1
102
}
330
98E1
100
AcDbXrecord
280
     1
270
     1
271
     1
  0
XRECORD
  5
98E4
102
{ACAD_REACTORS
330
98E1
102
}
330
98E1
100
AcDbXrecord
280
     1
270
     1
271
     1
  0
XRECORD
  5
9975
102
{ACAD_REACTORS
330
9974
102
}
330
9974
100
AcDbXrecord
280
     1
102
DISPLAYNAME
  1
Imperial24
102
FLAGS
 90
        0
  0
CELLSTYLEMAP
  5
993C
102
{ACAD_REACTORS
330
993B
102
}
330
993B
100
AcDbCellStyleMap
 90
        3
300
CELLSTYLE
  1
TABLEFORMAT_BEGIN
 90
        5
170
     1
 91
        0
 92
    32768
 62
   257
 93
        1
300
CONTENTFORMAT
  1
CONTENTFORMAT_BEGIN
 90
        0
 91
        0
 92
      512
 93
        0
300

 40
0.0
140
1.0
 94
        5
 62
     0
340
96DF
144
0.25
309
CONTENTFORMAT_END
171
     0
 94
        0
309
TABLEFORMAT_END
  1
CELLSTYLE_BEGIN
 90
        1
 91
        1
300
_TITLE
309
CELLSTYLE_END
300
CELLSTYLE
  1
TABLEFORMAT_BEGIN
 90
        5
170
     1
 91
        0
 92
        0
 62
   257
 93
        1
300
CONTENTFORMAT
  1
CONTENTFORMAT_BEGIN
 90
        0
 91
        0
 92
      512
 93
        0
300

 40
0.0
140
1.0
 94
        5
 62
     0
340
96DF
144
0.18
309
CONTENTFORMAT_END
171
     0
 94
        0
309
TABLEFORMAT_END
  1
CELLSTYLE_BEGIN
 90
        2
 91
        1
300
_HEADER
309
CELLSTYLE_END
300
CELLSTYLE
  1
TABLEFORMAT_BEGIN
 90
        5
170
     1
 91
        0
 92
        0
 62
   257
 93
        1
300
CONTENTFORMAT
  1
CONTENTFORMAT_BEGIN
 90
        0
 91
        0
 92
      512
 93
        0
300

 40
0.0
140
1.0
 94
        2
 62
     0
340
96DF
144
0.18
309
CONTENTFORMAT_END
171
     0
 94
        0
309
TABLEFORMAT_END
  1
CELLSTYLE_BEGIN
 90
        3
 91
        2
300
_DATA
309
CELLSTYLE_END
  0
XRECORD
  5
9972
102
{ACAD_REACTORS
330
993B
102
}
330
993B
100
AcDbXrecord
280
     1
102
ACAD_ROUNDTRIP_PRE2007_TABLESTYLE
 90
      512
 91
        0
  1

 92
      512
 93
        0
  2

 94
      512
 95
        0
  3

  0
XRECORD
  5
994D
102
{ACAD_REACTORS
330
994C
102
}
330
994C
100
AcDbXrecord
280
     1
102
RTVSPost2010Prop28
280
     1
102
RTVSPost2010PropOp28
 70
     1
102
RTVSPost2010Prop29
280
     1
102
RTVSPost2010PropOp29
 70
     1
102
RTVSPost2010Prop30
280
     0
102
RTVSPost2010PropOp30
 70
     1
102
RTVSPost2010Prop31
280
     0
102
RTVSPost2010PropOp31
 70
     1
102
RTVSPost2010Prop32
280
     0
102
RTVSPost2010PropOp32
 70
     1
102
RTVSPost2010Prop33
280
     0
102
RTVSPost2010PropOp33
 70
     1
102
RTVSPost2010Prop34
280
     0
102
RTVSPost2010PropOp34
 70
     1
102
RTVSPost2010Prop35
280
     0
102
RTVSPost2010PropOp35
 70
     1
102
RTVSPost2010Prop36
280
     0
102
RTVSPost2010PropOp36
 70
     1
102
RTVSPost2010Prop37
 90
       50
102
RTVSPost2010PropOp37
 70
     1
102
RTVSPost2010Prop38
140
0.0
102
RTVSPost2010PropOp38
 70
     1
102
RTVSPost2010Prop39
140
1.0
102
RTVSPost2010PropOp39
 70
     1
102
RTVSPost2010Prop40
 90
        0
102
RTVSPost2010PropOp40
 70
     1
102
RTVSPost2010Prop41ColorIndex
 90
       18
102
RTVSPost2010Prop41ColorRGB
 90
        0
102
RTVSPost2010PropOp41
 70
     1
102
RTVSPost2010Prop42
 90
       50
102
RTVSPost2010PropOp42
 70
     1
102
RTVSPost2010Prop43
 90
        3
102
RTVSPost2010PropOp43
 70
     1
102
RTVSPost2010Prop44ColorIndex
 90
        5
102
RTVSPost2010Prop44ColorRGB
 90
      255
102
RTVSPost2010PropOp44
 70
     1
102
RTVSPost2010Prop45
280
     0
102
RTVSPost2010PropOp45
 70
     1
102
RTVSPost2010Prop46
 90
       50
102
RTVSPost2010PropOp46
 70
     1
102
RTVSPost2010Prop47
 90
       50
102
RTVSPost2010PropOp47
 70
     1
102
RTVSPost2010Prop48
 90
       50
102
RTVSPost2010PropOp48
 70
     1
102
RTVSPost2010Prop49
280
     0
102
RTVSPost2010PropOp49
 70
     1
102
RTVSPost2010Prop50
 90
       50
102
RTVSPost2010PropOp50
 70
     1
102
RTVSPost2010Prop51ColorIndex
 90
      256
102
RTVSPost2010Prop51ColorRGB
 90
-16777216
102
RTVSPost2010PropOp51
 70
     0
102
RTVSPost2010Prop52
140
1.0
102
RTVSPost2010PropOp52
 70
     0
102
RTVSPost2010Prop53
 90
        2
102
RTVSPost2010PropOp53
 70
     1
102
RTVSPost2010Prop54
  1
strokes_ogs.tif
102
RTVSPost2010PropOp54
 70
     1
102
RTVSPost2010Prop55
280
     0
102
RTVSPost2010PropOp55
 70
     1
102
RTVSPost2010Prop56
140
1.0
102
RTVSPost2010PropOp56
 70
     1
102
RTVSPost2010Prop57
140
1.0
102
RTVSPost2010PropOp57
 70
     1
102
RTVSPropertyOp0
 70
     1
102
RTVSPropertyOp1
 70
     1
102
RTVSPropertyOp2
 70
     1
102
RTVSPropertyOp3
 70
     1
102
RTVSPropertyOp4
 70
     1
102
RTVSPropertyOp5
 70
     1
102
RTVSPropertyOp6
 70
     1
102
RTVSPropertyOp7
 70
     1
102
RTVSPropertyOp8
 70
     1
102
RTVSPropertyOp9
 70
     1
102
RTVSPropertyOp10
 70
     1
102
RTVSPropertyOp11
 70
     1
102
RTVSPropertyOp12
 70
     1
102
RTVSPropertyOp13
 70
     1
102
RTVSPropertyOp14
 70
     1
102
RTVSPropertyOp15
 70
     1
102
RTVSPropertyOp16
 70
     1
102
RTVSPropertyOp17
 70
     1
102
RTVSPropertyOp18
 70
     1
102
RTVSPropertyOp19
 70
     1
102
RTVSPropertyOp20
 70
     1
102
RTVSPropertyOp21
 70
     1
102
RTVSPropertyOp22
 70
     1
102
RTVSPropertyOp23
 70
     1
102
RTVSPropertyOp24
 70
     1
102
RTVSPropertyOp25
 70
     1
102
RTVSPropertyOp26
 70
     1
102
RTVSPropertyOp27
 70
     1
102
RTVSPropertyOp28
 70
     1
102
RTVSPropertyOp29
 70
     1
102
RTVSPropertyOp30
 70
     1
102
RTVSPropertyOp31
 70
     1
102
RTVSPropertyOp32
 70
     1
102
RTVSPropertyOp33
 70
     1
102
RTVSPropertyOp34
 70
     1
102
RTVSPropertyOp35
 70
     1
102
RTVSPropertyOp36
 70
     1
102
RTVSPropertyOp37
 70
     1
102
RTVSPropertyOp38
 70
     1
102
RTVSPropertyOp39
 70
     1
102
RTVSPropertyOp40
 70
     1
102
RTVSPropertyOp41
 70
     1
102
RTVSPropertyOp42
 70
     1
102
RTVSPropertyOp43
 70
     1
102
RTVSPropertyOp44
 70
     1
102
RTVSPropertyOp45
 70
     1
102
RTVSPropertyOp46
 70
     1
102
RTVSPropertyOp47
 70
     1
102
RTVSPropertyOp48
 70
     1
102
RTVSPropertyOp49
 70
     1
102
RTVSPropertyOp50
 70
     1
102
RTVSPropertyOp51
 70
     0
102
RTVSPropertyOp52
 70
     0
102
RTVSPropertyOp53
 70
     1
102
RTVSPropertyOp54
 70
     1
102
RTVSPropertyOp55
 70
     1
102
RTVSPropertyOp56
 70
     1
102
RTVSPropertyOp57
 70
     1
102
RTVSPropertyOp58
 70
     1
102
RTVSPropertyOp59
 70
     1
102
RTVSPropertyOp60
 70
     1
102
RTVSPropertyOp61
 70
     1
102
RTVSPropertyOp62
 70
     1
  0
XRECORD
  5
994B
102
{ACAD_REACTORS
330
994A
102
}
330
994A
100
AcDbXrecord
280
     1
102
RTVSPost2010Prop28
280
     0
102
RTVSPost2010PropOp28
 70
     1
102
RTVSPost2010Prop29
280
     1
102
RTVSPost2010PropOp29
 70
     1
102
RTVSPost2010Prop30
280
     1
102
RTVSPost2010PropOp30
 70
     1
102
RTVSPost2010Prop31
280
     0
102
RTVSPost2010PropOp31
 70
     1
102
RTVSPost2010Prop32
280
     0
102
RTVSPost2010PropOp32
 70
     1
102
RTVSPost2010Prop33
280
     0
102
RTVSPost2010PropOp33
 70
     1
102
RTVSPost2010Prop34
280
     0
102
RTVSPost2010PropOp34
 70
     1
102
RTVSPost2010Prop35
280
     0
102
RTVSPost2010PropOp35
 70
     1
102
RTVSPost2010Prop36
280
     0
102
RTVSPost2010PropOp36
 70
     1
102
RTVSPost2010Prop37
 90
       50
102
RTVSPost2010PropOp37
 70
     1
102
RTVSPost2010Prop38
140
0.0
102
RTVSPost2010PropOp38
 70
     1
102
RTVSPost2010Prop39
140
1.0
102
RTVSPost2010PropOp39
 70
     1
102
RTVSPost2010Prop40
 90
        0
102
RTVSPost2010PropOp40
 70
     1
102
RTVSPost2010Prop41ColorIndex
 90
       18
102
RTVSPost2010Prop41ColorRGB
 90
        0
102
RTVSPost2010PropOp41
 70
     1
102
RTVSPost2010Prop42
 90
       50
102
RTVSPost2010PropOp42
 70
     1
102
RTVSPost2010Prop43
 90
        3
102
RTVSPost2010PropOp43
 70
     1
102
RTVSPost2010Prop44ColorIndex
 90
        5
102
RTVSPost2010Prop44ColorRGB
 90
      255
102
RTVSPost2010PropOp44
 70
     1
102
RTVSPost2010Prop45
280
     0
102
RTVSPost2010PropOp45
 70
     1
102
RTVSPost2010Prop46
 90
       50
102
RTVSPost2010PropOp46
 70
     1
102
RTVSPost2010Prop47
 90
       50
102
RTVSPost2010PropOp47
 70
     1
102
RTVSPost2010Prop48
 90
       50
102
RTVSPost2010PropOp48
 70
     1
102
RTVSPost2010Prop49
280
     0
102
RTVSPost2010PropOp49
 70
     1
102
RTVSPost2010Prop50
 90
       50
102
RTVSPost2010PropOp50
 70
     1
102
RTVSPost2010Prop51ColorIndex
 90
      256
102
RTVSPost2010Prop51ColorRGB
 90
-16777216
102
RTVSPost2010PropOp51
 70
     0
102
RTVSPost2010Prop52
140
1.0
102
RTVSPost2010PropOp52
 70
     0
102
RTVSPost2010Prop53
 90
        2
102
RTVSPost2010PropOp53
 70
     1
102
RTVSPost2010Prop54
  1
strokes_ogs.tif
102
RTVSPost2010PropOp54
 70
     1
102
RTVSPost2010Prop55
280
     0
102
RTVSPost2010PropOp55
 70
     1
102
RTVSPost2010Prop56
140
1.0
102
RTVSPost2010PropOp56
 70
     1
102
RTVSPost2010Prop57
140
1.0
102
RTVSPost2010PropOp57
 70
     1
102
RTVSPropertyOp0
 70
     1
102
RTVSPropertyOp1
 70
     1
102
RTVSPropertyOp2
 70
     1
102
RTVSPropertyOp3
 70
     1
102
RTVSPropertyOp4
 70
     1
102
RTVSPropertyOp5
 70
     1
102
RTVSPropertyOp6
 70
     1
102
RTVSPropertyOp7
 70
     1
102
RTVSPropertyOp8
 70
     1
102
RTVSPropertyOp9
 70
     1
102
RTVSPropertyOp10
 70
     1
102
RTVSPropertyOp11
 70
     1
102
RTVSPropertyOp12
 70
     1
102
RTVSPropertyOp13
 70
     1
102
RTVSPropertyOp14
 70
     1
102
RTVSPropertyOp15
 70
     1
102
RTVSPropertyOp16
 70
     1
102
RTVSPropertyOp17
 70
     1
102
RTVSPropertyOp18
 70
     1
102
RTVSPropertyOp19
 70
     1
102
RTVSPropertyOp20
 70
     1
102
RTVSPropertyOp21
 70
     1
102
RTVSPropertyOp22
 70
     1
102
RTVSPropertyOp23
 70
     1
102
RTVSPropertyOp24
 70
     1
102
RTVSPropertyOp25
 70
     1
102
RTVSPropertyOp26
 70
     1
102
RTVSPropertyOp27
 70
     1
102
RTVSPropertyOp28
 70
     1
102
RTVSPropertyOp29
 70
     1
102
RTVSPropertyOp30
 70
     1
102
RTVSPropertyOp31
 70
     1
102
RTVSPropertyOp32
 70
     1
102
RTVSPropertyOp33
 70
     1
102
RTVSPropertyOp34
 70
     1
102
RTVSPropertyOp35
 70
     1
102
RTVSPropertyOp36
 70
     1
102
RTVSPropertyOp37
 70
     1
102
RTVSPropertyOp38
 70
     1
102
RTVSPropertyOp39
 70
     1
102
RTVSPropertyOp40
 70
     1
102
RTVSPropertyOp41
 70
     1
102
RTVSPropertyOp42
 70
     1
102
RTVSPropertyOp43
 70
     1
102
RTVSPropertyOp44
 70
     1
102
RTVSPropertyOp45
 70
     1
102
RTVSPropertyOp46
 70
     1
102
RTVSPropertyOp47
 70
     1
102
RTVSPropertyOp48
 70
     1
102
RTVSPropertyOp49
 70
     1
102
RTVSPropertyOp50
 70
     1
102
RTVSPropertyOp51
 70
     0
102
RTVSPropertyOp52
 70
     0
102
RTVSPropertyOp53
 70
     1
102
RTVSPropertyOp54
 70
     1
102
RTVSPropertyOp55
 70
     1
102
RTVSPropertyOp56
 70
     1
102
RTVSPropertyOp57
 70
     1
102
RTVSPropertyOp58
 70
     1
102
RTVSPropertyOp59
 70
     1
102
RTVSPropertyOp60
 70
     1
102
RTVSPropertyOp61
 70
     1
102
RTVSPropertyOp62
 70
     1
  0
XRECORD
  5
9959
102
{ACAD_REACTORS
330
9958
102
}
330
9958
100
AcDbXrecord
280
     1
102
RTVSPost2010Prop28
280
     0
102
RTVSPost2010PropOp28
 70
     1
102
RTVSPost2010Prop29
280
     1
102
RTVSPost2010PropOp29
 70
     1
102
RTVSPost2010Prop30
280
     1
102
RTVSPost2010PropOp30
 70
     1
102
RTVSPost2010Prop31
280
     0
102
RTVSPost2010PropOp31
 70
     1
102
RTVSPost2010Prop32
280
     0
102
RTVSPost2010PropOp32
 70
     1
102
RTVSPost2010Prop33
280
     0
102
RTVSPost2010PropOp33
 70
     1
102
RTVSPost2010Prop34
280
     0
102
RTVSPost2010PropOp34
 70
     1
102
RTVSPost2010Prop35
280
     0
102
RTVSPost2010PropOp35
 70
     1
102
RTVSPost2010Prop36
280
     0
102
RTVSPost2010PropOp36
 70
     1
102
RTVSPost2010Prop37
 90
       50
102
RTVSPost2010PropOp37
 70
     1
102
RTVSPost2010Prop38
140
0.0
102
RTVSPost2010PropOp38
 70
     1
102
RTVSPost2010Prop39
140
1.0
102
RTVSPost2010PropOp39
 70
     1
102
RTVSPost2010Prop40
 90
        0
102
RTVSPost2010PropOp40
 70
     1
102
RTVSPost2010Prop41ColorIndex
 90
       18
102
RTVSPost2010Prop41ColorRGB
 90
        0
102
RTVSPost2010PropOp41
 70
     1
102
RTVSPost2010Prop42
 90
       50
102
RTVSPost2010PropOp42
 70
     1
102
RTVSPost2010Prop43
 90
        3
102
RTVSPost2010PropOp43
 70
     1
102
RTVSPost2010Prop44ColorIndex
 90
        5
102
RTVSPost2010Prop44ColorRGB
 90
      255
102
RTVSPost2010PropOp44
 70
     1
102
RTVSPost2010Prop45
280
     0
102
RTVSPost2010PropOp45
 70
     1
102
RTVSPost2010Prop46
 90
       50
102
RTVSPost2010PropOp46
 70
     1
102
RTVSPost2010Prop47
 90
       50
102
RTVSPost2010PropOp47
 70
     1
102
RTVSPost2010Prop48
 90
       50
102
RTVSPost2010PropOp48
 70
     1
102
RTVSPost2010Prop49
280
     0
102
RTVSPost2010PropOp49
 70
     1
102
RTVSPost2010Prop50
 90
       50
102
RTVSPost2010PropOp50
 70
     1
102
RTVSPost2010Prop51ColorIndex
 90
      256
102
RTVSPost2010Prop51ColorRGB
 90
-16777216
102
RTVSPost2010PropOp51
 70
     0
102
RTVSPost2010Prop52
140
1.0
102
RTVSPost2010PropOp52
 70
     0
102
RTVSPost2010Prop53
 90
        2
102
RTVSPost2010PropOp53
 70
     1
102
RTVSPost2010Prop54
  1
strokes_ogs.tif
102
RTVSPost2010PropOp54
 70
     1
102
RTVSPost2010Prop55
280
     0
102
RTVSPost2010PropOp55
 70
     1
102
RTVSPost2010Prop56
140
1.0
102
RTVSPost2010PropOp56
 70
     1
102
RTVSPost2010Prop57
140
1.0
102
RTVSPost2010PropOp57
 70
     1
102
RTVSPropertyOp0
 70
     1
102
RTVSPropertyOp1
 70
     1
102
RTVSPropertyOp2
 70
     1
102
RTVSPropertyOp3
 70
     1
102
RTVSPropertyOp4
 70
     1
102
RTVSPropertyOp5
 70
     1
102
RTVSPropertyOp6
 70
     1
102
RTVSPropertyOp7
 70
     1
102
RTVSPropertyOp8
 70
     1
102
RTVSPropertyOp9
 70
     1
102
RTVSPropertyOp10
 70
     1
102
RTVSPropertyOp11
 70
     1
102
RTVSPropertyOp12
 70
     1
102
RTVSPropertyOp13
 70
     1
102
RTVSPropertyOp14
 70
     1
102
RTVSPropertyOp15
 70
     1
102
RTVSPropertyOp16
 70
     1
102
RTVSPropertyOp17
 70
     1
102
RTVSPropertyOp18
 70
     1
102
RTVSPropertyOp19
 70
     1
102
RTVSPropertyOp20
 70
     1
102
RTVSPropertyOp21
 70
     1
102
RTVSPropertyOp22
 70
     1
102
RTVSPropertyOp23
 70
     1
102
RTVSPropertyOp24
 70
     1
102
RTVSPropertyOp25
 70
     1
102
RTVSPropertyOp26
 70
     1
102
RTVSPropertyOp27
 70
     1
102
RTVSPropertyOp28
 70
     1
102
RTVSPropertyOp29
 70
     1
102
RTVSPropertyOp30
 70
     1
102
RTVSPropertyOp31
 70
     1
102
RTVSPropertyOp32
 70
     1
102
RTVSPropertyOp33
 70
     1
102
RTVSPropertyOp34
 70
     1
102
RTVSPropertyOp35
 70
     1
102
RTVSPropertyOp36
 70
     1
102
RTVSPropertyOp37
 70
     1
102
RTVSPropertyOp38
 70
     1
102
RTVSPropertyOp39
 70
     1
102
RTVSPropertyOp40
 70
     1
102
RTVSPropertyOp41
 70
     1
102
RTVSPropertyOp42
 70
     1
102
RTVSPropertyOp43
 70
     1
102
RTVSPropertyOp44
 70
     1
102
RTVSPropertyOp45
 70
     1
102
RTVSPropertyOp46
 70
     1
102
RTVSPropertyOp47
 70
     1
102
RTVSPropertyOp48
 70
     1
102
RTVSPropertyOp49
 70
     1
102
RTVSPropertyOp50
 70
     1
102
RTVSPropertyOp51
 70
     0
102
RTVSPropertyOp52
 70
     0
102
RTVSPropertyOp53
 70
     1
102
RTVSPropertyOp54
 70
     1
102
RTVSPropertyOp55
 70
     1
102
RTVSPropertyOp56
 70
     1
102
RTVSPropertyOp57
 70
     1
102
RTVSPropertyOp58
 70
     1
102
RTVSPropertyOp59
 70
     1
102
RTVSPropertyOp60
 70
     1
102
RTVSPropertyOp61
 70
     1
102
RTVSPropertyOp62
 70
     1
  0
XRECORD
  5
9961
102
{ACAD_REACTORS
330
9960
102
}
330
9960
100
AcDbXrecord
280
     1
102
RTVSPost2010Prop28
280
     0
102
RTVSPost2010PropOp28
 70
     1
102
RTVSPost2010Prop29
280
     1
102
RTVSPost2010PropOp29
 70
     1
102
RTVSPost2010Prop30
280
     1
102
RTVSPost2010PropOp30
 70
     1
102
RTVSPost2010Prop31
280
     0
102
RTVSPost2010PropOp31
 70
     1
102
RTVSPost2010Prop32
280
     0
102
RTVSPost2010PropOp32
 70
     1
102
RTVSPost2010Prop33
280
     0
102
RTVSPost2010PropOp33
 70
     1
102
RTVSPost2010Prop34
280
     0
102
RTVSPost2010PropOp34
 70
     1
102
RTVSPost2010Prop35
280
     0
102
RTVSPost2010PropOp35
 70
     1
102
RTVSPost2010Prop36
280
     0
102
RTVSPost2010PropOp36
 70
     1
102
RTVSPost2010Prop37
 90
       50
102
RTVSPost2010PropOp37
 70
     1
102
RTVSPost2010Prop38
140
0.0
102
RTVSPost2010PropOp38
 70
     1
102
RTVSPost2010Prop39
140
1.0
102
RTVSPost2010PropOp39
 70
     1
102
RTVSPost2010Prop40
 90
        0
102
RTVSPost2010PropOp40
 70
     1
102
RTVSPost2010Prop41ColorIndex
 90
       18
102
RTVSPost2010Prop41ColorRGB
 90
        0
102
RTVSPost2010PropOp41
 70
     1
102
RTVSPost2010Prop42
 90
       50
102
RTVSPost2010PropOp42
 70
     1
102
RTVSPost2010Prop43
 90
        3
102
RTVSPost2010PropOp43
 70
     1
102
RTVSPost2010Prop44ColorIndex
 90
        5
102
RTVSPost2010Prop44ColorRGB
 90
      255
102
RTVSPost2010PropOp44
 70
     1
102
RTVSPost2010Prop45
280
     0
102
RTVSPost2010PropOp45
 70
     1
102
RTVSPost2010Prop46
 90
       50
102
RTVSPost2010PropOp46
 70
     1
102
RTVSPost2010Prop47
 90
       50
102
RTVSPost2010PropOp47
 70
     1
102
RTVSPost2010Prop48
 90
       50
102
RTVSPost2010PropOp48
 70
     1
102
RTVSPost2010Prop49
280
     0
102
RTVSPost2010PropOp49
 70
     1
102
RTVSPost2010Prop50
 90
       50
102
RTVSPost2010PropOp50
 70
     1
102
RTVSPost2010Prop51ColorIndex
 90
      256
102
RTVSPost2010Prop51ColorRGB
 90
-16777216
102
RTVSPost2010PropOp51
 70
     0
102
RTVSPost2010Prop52
140
1.0
102
RTVSPost2010PropOp52
 70
     0
102
RTVSPost2010Prop53
 90
        2
102
RTVSPost2010PropOp53
 70
     1
102
RTVSPost2010Prop54
  1
strokes_ogs.tif
102
RTVSPost2010PropOp54
 70
     1
102
RTVSPost2010Prop55
280
     0
102
RTVSPost2010PropOp55
 70
     1
102
RTVSPost2010Prop56
140
1.0
102
RTVSPost2010PropOp56
 70
     1
102
RTVSPost2010Prop57
140
1.0
102
RTVSPost2010PropOp57
 70
     1
102
RTVSPropertyOp0
 70
     1
102
RTVSPropertyOp1
 70
     1
102
RTVSPropertyOp2
 70
     1
102
RTVSPropertyOp3
 70
     1
102
RTVSPropertyOp4
 70
     1
102
RTVSPropertyOp5
 70
     1
102
RTVSPropertyOp6
 70
     1
102
RTVSPropertyOp7
 70
     1
102
RTVSPropertyOp8
 70
     1
102
RTVSPropertyOp9
 70
     1
102
RTVSPropertyOp10
 70
     1
102
RTVSPropertyOp11
 70
     1
102
RTVSPropertyOp12
 70
     1
102
RTVSPropertyOp13
 70
     1
102
RTVSPropertyOp14
 70
     1
102
RTVSPropertyOp15
 70
     1
102
RTVSPropertyOp16
 70
     1
102
RTVSPropertyOp17
 70
     1
102
RTVSPropertyOp18
 70
     1
102
RTVSPropertyOp19
 70
     1
102
RTVSPropertyOp20
 70
     1
102
RTVSPropertyOp21
 70
     1
102
RTVSPropertyOp22
 70
     1
102
RTVSPropertyOp23
 70
     1
102
RTVSPropertyOp24
 70
     1
102
RTVSPropertyOp25
 70
     1
102
RTVSPropertyOp26
 70
     1
102
RTVSPropertyOp27
 70
     1
102
RTVSPropertyOp28
 70
     1
102
RTVSPropertyOp29
 70
     1
102
RTVSPropertyOp30
 70
     1
102
RTVSPropertyOp31
 70
     1
102
RTVSPropertyOp32
 70
     1
102
RTVSPropertyOp33
 70
     1
102
RTVSPropertyOp34
 70
     1
102
RTVSPropertyOp35
 70
     1
102
RTVSPropertyOp36
 70
     1
102
RTVSPropertyOp37
 70
     1
102
RTVSPropertyOp38
 70
     1
102
RTVSPropertyOp39
 70
     1
102
RTVSPropertyOp40
 70
     1
102
RTVSPropertyOp41
 70
     1
102
RTVSPropertyOp42
 70
     1
102
RTVSPropertyOp43
 70
     1
102
RTVSPropertyOp44
 70
     1
102
RTVSPropertyOp45
 70
     1
102
RTVSPropertyOp46
 70
     1
102
RTVSPropertyOp47
 70
     1
102
RTVSPropertyOp48
 70
     1
102
RTVSPropertyOp49
 70
     1
102
RTVSPropertyOp50
 70
     1
102
RTVSPropertyOp51
 70
     0
102
RTVSPropertyOp52
 70
     0
102
RTVSPropertyOp53
 70
     1
102
RTVSPropertyOp54
 70
     1
102
RTVSPropertyOp55
 70
     1
102
RTVSPropertyOp56
 70
     1
102
RTVSPropertyOp57
 70
     1
102
RTVSPropertyOp58
 70
     1
102
RTVSPropertyOp59
 70
     1
102
RTVSPropertyOp60
 70
     1
102
RTVSPropertyOp61
 70
     1
102
RTVSPropertyOp62
 70
     1
  0
XRECORD
  5
9953
102
{ACAD_REACTORS
330
9952
102
}
330
9952
100
AcDbXrecord
280
     1
102
RTVSPost2010Prop28
280
     0
102
RTVSPost2010PropOp28
 70
     1
102
RTVSPost2010Prop29
280
     1
102
RTVSPost2010PropOp29
 70
     1
102
RTVSPost2010Prop30
280
     1
102
RTVSPost2010PropOp30
 70
     1
102
RTVSPost2010Prop31
280
     0
102
RTVSPost2010PropOp31
 70
     1
102
RTVSPost2010Prop32
280
     0
102
RTVSPost2010PropOp32
 70
     1
102
RTVSPost2010Prop33
280
     0
102
RTVSPost2010PropOp33
 70
     1
102
RTVSPost2010Prop34
280
     0
102
RTVSPost2010PropOp34
 70
     1
102
RTVSPost2010Prop35
280
     0
102
RTVSPost2010PropOp35
 70
     1
102
RTVSPost2010Prop36
280
     0
102
RTVSPost2010PropOp36
 70
     1
102
RTVSPost2010Prop37
 90
       50
102
RTVSPost2010PropOp37
 70
     1
102
RTVSPost2010Prop38
140
0.0
102
RTVSPost2010PropOp38
 70
     1
102
RTVSPost2010Prop39
140
1.0
102
RTVSPost2010PropOp39
 70
     1
102
RTVSPost2010Prop40
 90
        0
102
RTVSPost2010PropOp40
 70
     1
102
RTVSPost2010Prop41ColorIndex
 90
       18
102
RTVSPost2010Prop41ColorRGB
 90
        0
102
RTVSPost2010PropOp41
 70
     1
102
RTVSPost2010Prop42
 90
       50
102
RTVSPost2010PropOp42
 70
     1
102
RTVSPost2010Prop43
 90
        3
102
RTVSPost2010PropOp43
 70
     1
102
RTVSPost2010Prop44ColorIndex
 90
        5
102
RTVSPost2010Prop44ColorRGB
 90
      255
102
RTVSPost2010PropOp44
 70
     1
102
RTVSPost2010Prop45
280
     0
102
RTVSPost2010PropOp45
 70
     1
102
RTVSPost2010Prop46
 90
       50
102
RTVSPost2010PropOp46
 70
     1
102
RTVSPost2010Prop47
 90
       50
102
RTVSPost2010PropOp47
 70
     1
102
RTVSPost2010Prop48
 90
       50
102
RTVSPost2010PropOp48
 70
     1
102
RTVSPost2010Prop49
280
     0
102
RTVSPost2010PropOp49
 70
     1
102
RTVSPost2010Prop50
 90
       50
102
RTVSPost2010PropOp50
 70
     1
102
RTVSPost2010Prop51ColorIndex
 90
      256
102
RTVSPost2010Prop51ColorRGB
 90
-16777216
102
RTVSPost2010PropOp51
 70
     0
102
RTVSPost2010Prop52
140
1.0
102
RTVSPost2010PropOp52
 70
     0
102
RTVSPost2010Prop53
 90
        2
102
RTVSPost2010PropOp53
 70
     1
102
RTVSPost2010Prop54
  1
strokes_ogs.tif
102
RTVSPost2010PropOp54
 70
     1
102
RTVSPost2010Prop55
280
     0
102
RTVSPost2010PropOp55
 70
     1
102
RTVSPost2010Prop56
140
1.0
102
RTVSPost2010PropOp56
 70
     1
102
RTVSPost2010Prop57
140
1.0
102
RTVSPost2010PropOp57
 70
     1
102
RTVSPropertyOp0
 70
     1
102
RTVSPropertyOp1
 70
     1
102
RTVSPropertyOp2
 70
     1
102
RTVSPropertyOp3
 70
     1
102
RTVSPropertyOp4
 70
     1
102
RTVSPropertyOp5
 70
     1
102
RTVSPropertyOp6
 70
     1
102
RTVSPropertyOp7
 70
     1
102
RTVSPropertyOp8
 70
     1
102
RTVSPropertyOp9
 70
     1
102
RTVSPropertyOp10
 70
     1
102
RTVSPropertyOp11
 70
     1
102
RTVSPropertyOp12
 70
     1
102
RTVSPropertyOp13
 70
     1
102
RTVSPropertyOp14
 70
     1
102
RTVSPropertyOp15
 70
     1
102
RTVSPropertyOp16
 70
     1
102
RTVSPropertyOp17
 70
     1
102
RTVSPropertyOp18
 70
     1
102
RTVSPropertyOp19
 70
     1
102
RTVSPropertyOp20
 70
     1
102
RTVSPropertyOp21
 70
     1
102
RTVSPropertyOp22
 70
     1
102
RTVSPropertyOp23
 70
     1
102
RTVSPropertyOp24
 70
     1
102
RTVSPropertyOp25
 70
     1
102
RTVSPropertyOp26
 70
     1
102
RTVSPropertyOp27
 70
     1
102
RTVSPropertyOp28
 70
     1
102
RTVSPropertyOp29
 70
     1
102
RTVSPropertyOp30
 70
     1
102
RTVSPropertyOp31
 70
     1
102
RTVSPropertyOp32
 70
     1
102
RTVSPropertyOp33
 70
     1
102
RTVSPropertyOp34
 70
     1
102
RTVSPropertyOp35
 70
     1
102
RTVSPropertyOp36
 70
     1
102
RTVSPropertyOp37
 70
     1
102
RTVSPropertyOp38
 70
     1
102
RTVSPropertyOp39
 70
     1
102
RTVSPropertyOp40
 70
     1
102
RTVSPropertyOp41
 70
     1
102
RTVSPropertyOp42
 70
     1
102
RTVSPropertyOp43
 70
     1
102
RTVSPropertyOp44
 70
     1
102
RTVSPropertyOp45
 70
     1
102
RTVSPropertyOp46
 70
     1
102
RTVSPropertyOp47
 70
     1
102
RTVSPropertyOp48
 70
     1
102
RTVSPropertyOp49
 70
     1
102
RTVSPropertyOp50
 70
     1
102
RTVSPropertyOp51
 70
     0
102
RTVSPropertyOp52
 70
     0
102
RTVSPropertyOp53
 70
     1
102
RTVSPropertyOp54
 70
     1
102
RTVSPropertyOp55
 70
     1
102
RTVSPropertyOp56
 70
     1
102
RTVSPropertyOp57
 70
     1
102
RTVSPropertyOp58
 70
     1
102
RTVSPropertyOp59
 70
     1
102
RTVSPropertyOp60
 70
     1
102
RTVSPropertyOp61
 70
     1
102
RTVSPropertyOp62
 70
     1
  0
XRECORD
  5
9957
102
{ACAD_REACTORS
330
9956
102
}
330
9956
100
AcDbXrecord
280
     1
102
RTVSPost2010Prop28
280
     0
102
RTVSPost2010PropOp28
 70
     1
102
RTVSPost2010Prop29
280
     1
102
RTVSPost2010PropOp29
 70
     1
102
RTVSPost2010Prop30
280
     1
102
RTVSPost2010PropOp30
 70
     1
102
RTVSPost2010Prop31
280
     0
102
RTVSPost2010PropOp31
 70
     1
102
RTVSPost2010Prop32
280
     0
102
RTVSPost2010PropOp32
 70
     1
102
RTVSPost2010Prop33
280
     0
102
RTVSPost2010PropOp33
 70
     1
102
RTVSPost2010Prop34
280
     0
102
RTVSPost2010PropOp34
 70
     1
102
RTVSPost2010Prop35
280
     0
102
RTVSPost2010PropOp35
 70
     1
102
RTVSPost2010Prop36
280
     0
102
RTVSPost2010PropOp36
 70
     1
102
RTVSPost2010Prop37
 90
       50
102
RTVSPost2010PropOp37
 70
     1
102
RTVSPost2010Prop38
140
0.0
102
RTVSPost2010PropOp38
 70
     1
102
RTVSPost2010Prop39
140
1.0
102
RTVSPost2010PropOp39
 70
     1
102
RTVSPost2010Prop40
 90
        0
102
RTVSPost2010PropOp40
 70
     1
102
RTVSPost2010Prop41ColorIndex
 90
       18
102
RTVSPost2010Prop41ColorRGB
 90
        0
102
RTVSPost2010PropOp41
 70
     1
102
RTVSPost2010Prop42
 90
       50
102
RTVSPost2010PropOp42
 70
     1
102
RTVSPost2010Prop43
 90
        3
102
RTVSPost2010PropOp43
 70
     1
102
RTVSPost2010Prop44ColorIndex
 90
        5
102
RTVSPost2010Prop44ColorRGB
 90
      255
102
RTVSPost2010PropOp44
 70
     1
102
RTVSPost2010Prop45
280
     0
102
RTVSPost2010PropOp45
 70
     1
102
RTVSPost2010Prop46
 90
       50
102
RTVSPost2010PropOp46
 70
     1
102
RTVSPost2010Prop47
 90
       50
102
RTVSPost2010PropOp47
 70
     1
102
RTVSPost2010Prop48
 90
       50
102
RTVSPost2010PropOp48
 70
     1
102
RTVSPost2010Prop49
280
     0
102
RTVSPost2010PropOp49
 70
     1
102
RTVSPost2010Prop50
 90
       50
102
RTVSPost2010PropOp50
 70
     1
102
RTVSPost2010Prop51ColorIndex
 90
      256
102
RTVSPost2010Prop51ColorRGB
 90
-16777216
102
RTVSPost2010PropOp51
 70
     0
102
RTVSPost2010Prop52
140
1.0
102
RTVSPost2010PropOp52
 70
     0
102
RTVSPost2010Prop53
 90
        2
102
RTVSPost2010PropOp53
 70
     1
102
RTVSPost2010Prop54
  1
strokes_ogs.tif
102
RTVSPost2010PropOp54
 70
     1
102
RTVSPost2010Prop55
280
     0
102
RTVSPost2010PropOp55
 70
     1
102
RTVSPost2010Prop56
140
1.0
102
RTVSPost2010PropOp56
 70
     1
102
RTVSPost2010Prop57
140
1.0
102
RTVSPost2010PropOp57
 70
     1
102
RTVSPropertyOp0
 70
     1
102
RTVSPropertyOp1
 70
     1
102
RTVSPropertyOp2
 70
     1
102
RTVSPropertyOp3
 70
     1
102
RTVSPropertyOp4
 70
     1
102
RTVSPropertyOp5
 70
     1
102
RTVSPropertyOp6
 70
     1
102
RTVSPropertyOp7
 70
     1
102
RTVSPropertyOp8
 70
     1
102
RTVSPropertyOp9
 70
     1
102
RTVSPropertyOp10
 70
     1
102
RTVSPropertyOp11
 70
     1
102
RTVSPropertyOp12
 70
     1
102
RTVSPropertyOp13
 70
     1
102
RTVSPropertyOp14
 70
     1
102
RTVSPropertyOp15
 70
     1
102
RTVSPropertyOp16
 70
     1
102
RTVSPropertyOp17
 70
     1
102
RTVSPropertyOp18
 70
     1
102
RTVSPropertyOp19
 70
     1
102
RTVSPropertyOp20
 70
     1
102
RTVSPropertyOp21
 70
     1
102
RTVSPropertyOp22
 70
     1
102
RTVSPropertyOp23
 70
     1
102
RTVSPropertyOp24
 70
     1
102
RTVSPropertyOp25
 70
     1
102
RTVSPropertyOp26
 70
     1
102
RTVSPropertyOp27
 70
     1
102
RTVSPropertyOp28
 70
     1
102
RTVSPropertyOp29
 70
     1
102
RTVSPropertyOp30
 70
     1
102
RTVSPropertyOp31
 70
     1
102
RTVSPropertyOp32
 70
     1
102
RTVSPropertyOp33
 70
     1
102
RTVSPropertyOp34
 70
     1
102
RTVSPropertyOp35
 70
     1
102
RTVSPropertyOp36
 70
     1
102
RTVSPropertyOp37
 70
     1
102
RTVSPropertyOp38
 70
     1
102
RTVSPropertyOp39
 70
     1
102
RTVSPropertyOp40
 70
     1
102
RTVSPropertyOp41
 70
     1
102
RTVSPropertyOp42
 70
     1
102
RTVSPropertyOp43
 70
     1
102
RTVSPropertyOp44
 70
     1
102
RTVSPropertyOp45
 70
     1
102
RTVSPropertyOp46
 70
     1
102
RTVSPropertyOp47
 70
     1
102
RTVSPropertyOp48
 70
     1
102
RTVSPropertyOp49
 70
     1
102
RTVSPropertyOp50
 70
     1
102
RTVSPropertyOp51
 70
     0
102
RTVSPropertyOp52
 70
     0
102
RTVSPropertyOp53
 70
     1
102
RTVSPropertyOp54
 70
     1
102
RTVSPropertyOp55
 70
     1
102
RTVSPropertyOp56
 70
     1
102
RTVSPropertyOp57
 70
     1
102
RTVSPropertyOp58
 70
     1
102
RTVSPropertyOp59
 70
     1
102
RTVSPropertyOp60
 70
     1
102
RTVSPropertyOp61
 70
     1
102
RTVSPropertyOp62
 70
     1
  0
XRECORD
  5
9971
102
{ACAD_REACTORS
330
9970
102
}
330
9970
100
AcDbXrecord
280
     1
102
RTVSPost2010Prop28
280
     0
102
RTVSPost2010PropOp28
 70
     1
102
RTVSPost2010Prop29
280
     1
102
RTVSPost2010PropOp29
 70
     1
102
RTVSPost2010Prop30
280
     1
102
RTVSPost2010PropOp30
 70
     1
102
RTVSPost2010Prop31
280
     0
102
RTVSPost2010PropOp31
 70
     1
102
RTVSPost2010Prop32
280
     0
102
RTVSPost2010PropOp32
 70
     1
102
RTVSPost2010Prop33
280
     0
102
RTVSPost2010PropOp33
 70
     1
102
RTVSPost2010Prop34
280
     0
102
RTVSPost2010PropOp34
 70
     1
102
RTVSPost2010Prop35
280
     0
102
RTVSPost2010PropOp35
 70
     1
102
RTVSPost2010Prop36
280
     0
102
RTVSPost2010PropOp36
 70
     1
102
RTVSPost2010Prop37
 90
       50
102
RTVSPost2010PropOp37
 70
     0
102
RTVSPost2010Prop38
140
0.0
102
RTVSPost2010PropOp38
 70
     0
102
RTVSPost2010Prop39
140
1.0
102
RTVSPost2010PropOp39
 70
     0
102
RTVSPost2010Prop40
 90
        0
102
RTVSPost2010PropOp40
 70
     0
102
RTVSPost2010Prop41ColorIndex
 90
       18
102
RTVSPost2010Prop41ColorRGB
 90
        0
102
RTVSPost2010PropOp41
 70
     0
102
RTVSPost2010Prop42
 90
       50
102
RTVSPost2010PropOp42
 70
     0
102
RTVSPost2010Prop43
 90
        3
102
RTVSPost2010PropOp43
 70
     0
102
RTVSPost2010Prop44ColorIndex
 90
        5
102
RTVSPost2010Prop44ColorRGB
 90
      255
102
RTVSPost2010PropOp44
 70
     0
102
RTVSPost2010Prop45
280
     0
102
RTVSPost2010PropOp45
 70
     1
102
RTVSPost2010Prop46
 90
       50
102
RTVSPost2010PropOp46
 70
     0
102
RTVSPost2010Prop47
 90
       50
102
RTVSPost2010PropOp47
 70
     0
102
RTVSPost2010Prop48
 90
       50
102
RTVSPost2010PropOp48
 70
     0
102
RTVSPost2010Prop49
280
     0
102
RTVSPost2010PropOp49
 70
     1
102
RTVSPost2010Prop50
 90
       50
102
RTVSPost2010PropOp50
 70
     0
102
RTVSPost2010Prop51ColorIndex
 90
      256
102
RTVSPost2010Prop51ColorRGB
 90
-16777216
102
RTVSPost2010PropOp51
 70
     0
102
RTVSPost2010Prop52
140
1.0
102
RTVSPost2010PropOp52
 70
     0
102
RTVSPost2010Prop53
 90
        2
102
RTVSPost2010PropOp53
 70
     0
102
RTVSPost2010Prop54
  1
strokes_ogs.tif
102
RTVSPost2010PropOp54
 70
     0
102
RTVSPost2010Prop55
280
     0
102
RTVSPost2010PropOp55
 70
     1
102
RTVSPost2010Prop56
140
1.0
102
RTVSPost2010PropOp56
 70
     0
102
RTVSPost2010Prop57
140
1.0
102
RTVSPost2010PropOp57
 70
     0
102
RTVSPropertyOp0
 70
     0
102
RTVSPropertyOp1
 70
     0
102
RTVSPropertyOp2
 70
     0
102
RTVSPropertyOp3
 70
     0
102
RTVSPropertyOp4
 70
     0
102
RTVSPropertyOp5
 70
     0
102
RTVSPropertyOp6
 70
     0
102
RTVSPropertyOp7
 70
     0
102
RTVSPropertyOp8
 70
     0
102
RTVSPropertyOp9
 70
     0
102
RTVSPropertyOp10
 70
     0
102
RTVSPropertyOp11
 70
     0
102
RTVSPropertyOp12
 70
     0
102
RTVSPropertyOp13
 70
     0
102
RTVSPropertyOp14
 70
     2
102
RTVSPropertyOp15
 70
     0
102
RTVSPropertyOp16
 70
     0
102
RTVSPropertyOp17
 70
     0
102
RTVSPropertyOp18
 70
     0
102
RTVSPropertyOp19
 70
     0
102
RTVSPropertyOp20
 70
     0
102
RTVSPropertyOp21
 70
     0
102
RTVSPropertyOp22
 70
     0
102
RTVSPropertyOp23
 70
     0
102
RTVSPropertyOp24
 70
     0
102
RTVSPropertyOp25
 70
     0
102
RTVSPropertyOp26
 70
     0
102
RTVSPropertyOp27
 70
     0
102
RTVSPropertyOp28
 70
     1
102
RTVSPropertyOp29
 70
     1
102
RTVSPropertyOp30
 70
     1
102
RTVSPropertyOp31
 70
     1
102
RTVSPropertyOp32
 70
     1
102
RTVSPropertyOp33
 70
     1
102
RTVSPropertyOp34
 70
     1
102
RTVSPropertyOp35
 70
     1
102
RTVSPropertyOp36
 70
     1
102
RTVSPropertyOp37
 70
     0
102
RTVSPropertyOp38
 70
     0
102
RTVSPropertyOp39
 70
     0
102
RTVSPropertyOp40
 70
     0
102
RTVSPropertyOp41
 70
     0
102
RTVSPropertyOp42
 70
     0
102
RTVSPropertyOp43
 70
     0
102
RTVSPropertyOp44
 70
     0
102
RTVSPropertyOp45
 70
     1
102
RTVSPropertyOp46
 70
     0
102
RTVSPropertyOp47
 70
     0
102
RTVSPropertyOp48
 70
     0
102
RTVSPropertyOp49
 70
     1
102
RTVSPropertyOp50
 70
     0
102
RTVSPropertyOp51
 70
     0
102
RTVSPropertyOp52
 70
     0
102
RTVSPropertyOp53
 70
     0
102
RTVSPropertyOp54
 70
     0
102
RTVSPropertyOp55
 70
     1
102
RTVSPropertyOp56
 70
     0
102
RTVSPropertyOp57
 70
     0
102
RTVSPropertyOp58
 70
     0
102
RTVSPropertyOp59
 70
     0
102
RTVSPropertyOp60
 70
     0
102
RTVSPropertyOp61
 70
     0
102
RTVSPropertyOp62
 70
     0
  0
XRECORD
  5
995F
102
{ACAD_REACTORS
330
995E
102
}
330
995E
100
AcDbXrecord
280
     1
102
RTVSPost2010Prop28
280
     0
102
RTVSPost2010PropOp28
 70
     1
102
RTVSPost2010Prop29
280
     1
102
RTVSPost2010PropOp29
 70
     1
102
RTVSPost2010Prop30
280
     1
102
RTVSPost2010PropOp30
 70
     1
102
RTVSPost2010Prop31
280
     0
102
RTVSPost2010PropOp31
 70
     1
102
RTVSPost2010Prop32
280
     0
102
RTVSPost2010PropOp32
 70
     1
102
RTVSPost2010Prop33
280
     0
102
RTVSPost2010PropOp33
 70
     1
102
RTVSPost2010Prop34
280
     0
102
RTVSPost2010PropOp34
 70
     1
102
RTVSPost2010Prop35
280
     0
102
RTVSPost2010PropOp35
 70
     1
102
RTVSPost2010Prop36
280
     0
102
RTVSPost2010PropOp36
 70
     1
102
RTVSPost2010Prop37
 90
       50
102
RTVSPost2010PropOp37
 70
     1
102
RTVSPost2010Prop38
140
0.0
102
RTVSPost2010PropOp38
 70
     1
102
RTVSPost2010Prop39
140
1.0
102
RTVSPost2010PropOp39
 70
     1
102
RTVSPost2010Prop40
 90
        0
102
RTVSPost2010PropOp40
 70
     1
102
RTVSPost2010Prop41ColorIndex
 90
       18
102
RTVSPost2010Prop41ColorRGB
 90
        0
102
RTVSPost2010PropOp41
 70
     1
102
RTVSPost2010Prop42
 90
       50
102
RTVSPost2010PropOp42
 70
     1
102
RTVSPost2010Prop43
 90
        3
102
RTVSPost2010PropOp43
 70
     1
102
RTVSPost2010Prop44ColorIndex
 90
        5
102
RTVSPost2010Prop44ColorRGB
 90
      255
102
RTVSPost2010PropOp44
 70
     1
102
RTVSPost2010Prop45
280
     0
102
RTVSPost2010PropOp45
 70
     1
102
RTVSPost2010Prop46
 90
       50
102
RTVSPost2010PropOp46
 70
     1
102
RTVSPost2010Prop47
 90
       50
102
RTVSPost2010PropOp47
 70
     1
102
RTVSPost2010Prop48
 90
       50
102
RTVSPost2010PropOp48
 70
     1
102
RTVSPost2010Prop49
280
     0
102
RTVSPost2010PropOp49
 70
     1
102
RTVSPost2010Prop50
 90
       50
102
RTVSPost2010PropOp50
 70
     1
102
RTVSPost2010Prop51ColorIndex
 90
      256
102
RTVSPost2010Prop51ColorRGB
 90
-16777216
102
RTVSPost2010PropOp51
 70
     0
102
RTVSPost2010Prop52
140
1.0
102
RTVSPost2010PropOp52
 70
     0
102
RTVSPost2010Prop53
 90
        2
102
RTVSPost2010PropOp53
 70
     1
102
RTVSPost2010Prop54
  1
strokes_ogs.tif
102
RTVSPost2010PropOp54
 70
     1
102
RTVSPost2010Prop55
280
     0
102
RTVSPost2010PropOp55
 70
     1
102
RTVSPost2010Prop56
140
1.0
102
RTVSPost2010PropOp56
 70
     1
102
RTVSPost2010Prop57
140
1.0
102
RTVSPost2010PropOp57
 70
     1
102
RTVSPropertyOp0
 70
     1
102
RTVSPropertyOp1
 70
     1
102
RTVSPropertyOp2
 70
     1
102
RTVSPropertyOp3
 70
     1
102
RTVSPropertyOp4
 70
     1
102
RTVSPropertyOp5
 70
     1
102
RTVSPropertyOp6
 70
     1
102
RTVSPropertyOp7
 70
     1
102
RTVSPropertyOp8
 70
     1
102
RTVSPropertyOp9
 70
     1
102
RTVSPropertyOp10
 70
     1
102
RTVSPropertyOp11
 70
     1
102
RTVSPropertyOp12
 70
     1
102
RTVSPropertyOp13
 70
     1
102
RTVSPropertyOp14
 70
     1
102
RTVSPropertyOp15
 70
     1
102
RTVSPropertyOp16
 70
     1
102
RTVSPropertyOp17
 70
     1
102
RTVSPropertyOp18
 70
     1
102
RTVSPropertyOp19
 70
     1
102
RTVSPropertyOp20
 70
     1
102
RTVSPropertyOp21
 70
     1
102
RTVSPropertyOp22
 70
     1
102
RTVSPropertyOp23
 70
     1
102
RTVSPropertyOp24
 70
     1
102
RTVSPropertyOp25
 70
     1
102
RTVSPropertyOp26
 70
     1
102
RTVSPropertyOp27
 70
     1
102
RTVSPropertyOp28
 70
     1
102
RTVSPropertyOp29
 70
     1
102
RTVSPropertyOp30
 70
     1
102
RTVSPropertyOp31
 70
     1
102
RTVSPropertyOp32
 70
     1
102
RTVSPropertyOp33
 70
     1
102
RTVSPropertyOp34
 70
     1
102
RTVSPropertyOp35
 70
     1
102
RTVSPropertyOp36
 70
     1
102
RTVSPropertyOp37
 70
     1
102
RTVSPropertyOp38
 70
     1
102
RTVSPropertyOp39
 70
     1
102
RTVSPropertyOp40
 70
     1
102
RTVSPropertyOp41
 70
     1
102
RTVSPropertyOp42
 70
     1
102
RTVSPropertyOp43
 70
     1
102
RTVSPropertyOp44
 70
     1
102
RTVSPropertyOp45
 70
     1
102
RTVSPropertyOp46
 70
     1
102
RTVSPropertyOp47
 70
     1
102
RTVSPropertyOp48
 70
     1
102
RTVSPropertyOp49
 70
     1
102
RTVSPropertyOp50
 70
     1
102
RTVSPropertyOp51
 70
     0
102
RTVSPropertyOp52
 70
     0
102
RTVSPropertyOp53
 70
     1
102
RTVSPropertyOp54
 70
     1
102
RTVSPropertyOp55
 70
     1
102
RTVSPropertyOp56
 70
     1
102
RTVSPropertyOp57
 70
     1
102
RTVSPropertyOp58
 70
     1
102
RTVSPropertyOp59
 70
     1
102
RTVSPropertyOp60
 70
     1
102
RTVSPropertyOp61
 70
     1
102
RTVSPropertyOp62
 70
     1
  0
XRECORD
  5
9943
102
{ACAD_REACTORS
330
9942
102
}
330
9942
100
AcDbXrecord
280
     1
102
RTVSPost2010Prop28
280
     0
102
RTVSPost2010PropOp28
 70
     1
102
RTVSPost2010Prop29
280
     1
102
RTVSPost2010PropOp29
 70
     1
102
RTVSPost2010Prop30
280
     1
102
RTVSPost2010PropOp30
 70
     1
102
RTVSPost2010Prop31
280
     0
102
RTVSPost2010PropOp31
 70
     1
102
RTVSPost2010Prop32
280
     0
102
RTVSPost2010PropOp32
 70
     1
102
RTVSPost2010Prop33
280
     0
102
RTVSPost2010PropOp33
 70
     1
102
RTVSPost2010Prop34
280
     0
102
RTVSPost2010PropOp34
 70
     1
102
RTVSPost2010Prop35
280
     0
102
RTVSPost2010PropOp35
 70
     1
102
RTVSPost2010Prop36
280
     0
102
RTVSPost2010PropOp36
 70
     1
102
RTVSPost2010Prop37
 90
       50
102
RTVSPost2010PropOp37
 70
     1
102
RTVSPost2010Prop38
140
0.0
102
RTVSPost2010PropOp38
 70
     1
102
RTVSPost2010Prop39
140
1.0
102
RTVSPost2010PropOp39
 70
     1
102
RTVSPost2010Prop40
 90
        0
102
RTVSPost2010PropOp40
 70
     1
102
RTVSPost2010Prop41ColorIndex
 90
       18
102
RTVSPost2010Prop41ColorRGB
 90
        0
102
RTVSPost2010PropOp41
 70
     1
102
RTVSPost2010Prop42
 90
       50
102
RTVSPost2010PropOp42
 70
     1
102
RTVSPost2010Prop43
 90
        3
102
RTVSPost2010PropOp43
 70
     1
102
RTVSPost2010Prop44ColorIndex
 90
        5
102
RTVSPost2010Prop44ColorRGB
 90
      255
102
RTVSPost2010PropOp44
 70
     1
102
RTVSPost2010Prop45
280
     0
102
RTVSPost2010PropOp45
 70
     1
102
RTVSPost2010Prop46
 90
       50
102
RTVSPost2010PropOp46
 70
     1
102
RTVSPost2010Prop47
 90
       50
102
RTVSPost2010PropOp47
 70
     1
102
RTVSPost2010Prop48
 90
       50
102
RTVSPost2010PropOp48
 70
     1
102
RTVSPost2010Prop49
280
     0
102
RTVSPost2010PropOp49
 70
     1
102
RTVSPost2010Prop50
 90
       50
102
RTVSPost2010PropOp50
 70
     1
102
RTVSPost2010Prop51ColorIndex
 90
      256
102
RTVSPost2010Prop51ColorRGB
 90
-16777216
102
RTVSPost2010PropOp51
 70
     0
102
RTVSPost2010Prop52
140
1.0
102
RTVSPost2010PropOp52
 70
     0
102
RTVSPost2010Prop53
 90
        2
102
RTVSPost2010PropOp53
 70
     1
102
RTVSPost2010Prop54
  1
strokes_ogs.tif
102
RTVSPost2010PropOp54
 70
     1
102
RTVSPost2010Prop55
280
     0
102
RTVSPost2010PropOp55
 70
     1
102
RTVSPost2010Prop56
140
1.0
102
RTVSPost2010PropOp56
 70
     1
102
RTVSPost2010Prop57
140
1.0
102
RTVSPost2010PropOp57
 70
     1
102
RTVSPropertyOp0
 70
     1
102
RTVSPropertyOp1
 70
     1
102
RTVSPropertyOp2
 70
     1
102
RTVSPropertyOp3
 70
     1
102
RTVSPropertyOp4
 70
     1
102
RTVSPropertyOp5
 70
     1
102
RTVSPropertyOp6
 70
     1
102
RTVSPropertyOp7
 70
     1
102
RTVSPropertyOp8
 70
     1
102
RTVSPropertyOp9
 70
     1
102
RTVSPropertyOp10
 70
     1
102
RTVSPropertyOp11
 70
     1
102
RTVSPropertyOp12
 70
     1
102
RTVSPropertyOp13
 70
     1
102
RTVSPropertyOp14
 70
     1
102
RTVSPropertyOp15
 70
     1
102
RTVSPropertyOp16
 70
     1
102
RTVSPropertyOp17
 70
     1
102
RTVSPropertyOp18
 70
     1
102
RTVSPropertyOp19
 70
     1
102
RTVSPropertyOp20
 70
     1
102
RTVSPropertyOp21
 70
     1
102
RTVSPropertyOp22
 70
     1
102
RTVSPropertyOp23
 70
     1
102
RTVSPropertyOp24
 70
     1
102
RTVSPropertyOp25
 70
     1
102
RTVSPropertyOp26
 70
     1
102
RTVSPropertyOp27
 70
     1
102
RTVSPropertyOp28
 70
     1
102
RTVSPropertyOp29
 70
     1
102
RTVSPropertyOp30
 70
     1
102
RTVSPropertyOp31
 70
     1
102
RTVSPropertyOp32
 70
     1
102
RTVSPropertyOp33
 70
     1
102
RTVSPropertyOp34
 70
     1
102
RTVSPropertyOp35
 70
     1
102
RTVSPropertyOp36
 70
     1
102
RTVSPropertyOp37
 70
     1
102
RTVSPropertyOp38
 70
     1
102
RTVSPropertyOp39
 70
     1
102
RTVSPropertyOp40
 70
     1
102
RTVSPropertyOp41
 70
     1
102
RTVSPropertyOp42
 70
     1
102
RTVSPropertyOp43
 70
     1
102
RTVSPropertyOp44
 70
     1
102
RTVSPropertyOp45
 70
     1
102
RTVSPropertyOp46
 70
     1
102
RTVSPropertyOp47
 70
     1
102
RTVSPropertyOp48
 70
     1
102
RTVSPropertyOp49
 70
     1
102
RTVSPropertyOp50
 70
     1
102
RTVSPropertyOp51
 70
     0
102
RTVSPropertyOp52
 70
     0
102
RTVSPropertyOp53
 70
     1
102
RTVSPropertyOp54
 70
     1
102
RTVSPropertyOp55
 70
     1
102
RTVSPropertyOp56
 70
     1
102
RTVSPropertyOp57
 70
     1
102
RTVSPropertyOp58
 70
     1
102
RTVSPropertyOp59
 70
     1
102
RTVSPropertyOp60
 70
     1
102
RTVSPropertyOp61
 70
     1
102
RTVSPropertyOp62
 70
     1
  0
XRECORD
  5
9945
102
{ACAD_REACTORS
330
9944
102
}
330
9944
100
AcDbXrecord
280
     1
102
RTVSPost2010Prop28
280
     0
102
RTVSPost2010PropOp28
 70
     1
102
RTVSPost2010Prop29
280
     1
102
RTVSPost2010PropOp29
 70
     1
102
RTVSPost2010Prop30
280
     1
102
RTVSPost2010PropOp30
 70
     1
102
RTVSPost2010Prop31
280
     0
102
RTVSPost2010PropOp31
 70
     1
102
RTVSPost2010Prop32
280
     0
102
RTVSPost2010PropOp32
 70
     1
102
RTVSPost2010Prop33
280
     0
102
RTVSPost2010PropOp33
 70
     1
102
RTVSPost2010Prop34
280
     0
102
RTVSPost2010PropOp34
 70
     1
102
RTVSPost2010Prop35
280
     0
102
RTVSPost2010PropOp35
 70
     1
102
RTVSPost2010Prop36
280
     0
102
RTVSPost2010PropOp36
 70
     1
102
RTVSPost2010Prop37
 90
       50
102
RTVSPost2010PropOp37
 70
     1
102
RTVSPost2010Prop38
140
0.0
102
RTVSPost2010PropOp38
 70
     1
102
RTVSPost2010Prop39
140
1.0
102
RTVSPost2010PropOp39
 70
     1
102
RTVSPost2010Prop40
 90
        0
102
RTVSPost2010PropOp40
 70
     1
102
RTVSPost2010Prop41ColorIndex
 90
       18
102
RTVSPost2010Prop41ColorRGB
 90
        0
102
RTVSPost2010PropOp41
 70
     1
102
RTVSPost2010Prop42
 90
       50
102
RTVSPost2010PropOp42
 70
     1
102
RTVSPost2010Prop43
 90
        3
102
RTVSPost2010PropOp43
 70
     1
102
RTVSPost2010Prop44ColorIndex
 90
        5
102
RTVSPost2010Prop44ColorRGB
 90
      255
102
RTVSPost2010PropOp44
 70
     1
102
RTVSPost2010Prop45
280
     0
102
RTVSPost2010PropOp45
 70
     1
102
RTVSPost2010Prop46
 90
       50
102
RTVSPost2010PropOp46
 70
     1
102
RTVSPost2010Prop47
 90
       50
102
RTVSPost2010PropOp47
 70
     1
102
RTVSPost2010Prop48
 90
       50
102
RTVSPost2010PropOp48
 70
     1
102
RTVSPost2010Prop49
280
     0
102
RTVSPost2010PropOp49
 70
     1
102
RTVSPost2010Prop50
 90
       50
102
RTVSPost2010PropOp50
 70
     1
102
RTVSPost2010Prop51ColorIndex
 90
      256
102
RTVSPost2010Prop51ColorRGB
 90
-16777216
102
RTVSPost2010PropOp51
 70
     0
102
RTVSPost2010Prop52
140
1.0
102
RTVSPost2010PropOp52
 70
     0
102
RTVSPost2010Prop53
 90
        2
102
RTVSPost2010PropOp53
 70
     1
102
RTVSPost2010Prop54
  1
strokes_ogs.tif
102
RTVSPost2010PropOp54
 70
     1
102
RTVSPost2010Prop55
280
     0
102
RTVSPost2010PropOp55
 70
     1
102
RTVSPost2010Prop56
140
1.0
102
RTVSPost2010PropOp56
 70
     1
102
RTVSPost2010Prop57
140
1.0
102
RTVSPost2010PropOp57
 70
     1
102
RTVSPropertyOp0
 70
     1
102
RTVSPropertyOp1
 70
     1
102
RTVSPropertyOp2
 70
     1
102
RTVSPropertyOp3
 70
     1
102
RTVSPropertyOp4
 70
     1
102
RTVSPropertyOp5
 70
     1
102
RTVSPropertyOp6
 70
     1
102
RTVSPropertyOp7
 70
     1
102
RTVSPropertyOp8
 70
     1
102
RTVSPropertyOp9
 70
     1
102
RTVSPropertyOp10
 70
     1
102
RTVSPropertyOp11
 70
     1
102
RTVSPropertyOp12
 70
     1
102
RTVSPropertyOp13
 70
     1
102
RTVSPropertyOp14
 70
     1
102
RTVSPropertyOp15
 70
     1
102
RTVSPropertyOp16
 70
     1
102
RTVSPropertyOp17
 70
     1
102
RTVSPropertyOp18
 70
     1
102
RTVSPropertyOp19
 70
     1
102
RTVSPropertyOp20
 70
     1
102
RTVSPropertyOp21
 70
     1
102
RTVSPropertyOp22
 70
     1
102
RTVSPropertyOp23
 70
     1
102
RTVSPropertyOp24
 70
     1
102
RTVSPropertyOp25
 70
     1
102
RTVSPropertyOp26
 70
     1
102
RTVSPropertyOp27
 70
     1
102
RTVSPropertyOp28
 70
     1
102
RTVSPropertyOp29
 70
     1
102
RTVSPropertyOp30
 70
     1
102
RTVSPropertyOp31
 70
     1
102
RTVSPropertyOp32
 70
     1
102
RTVSPropertyOp33
 70
     1
102
RTVSPropertyOp34
 70
     1
102
RTVSPropertyOp35
 70
     1
102
RTVSPropertyOp36
 70
     1
102
RTVSPropertyOp37
 70
     1
102
RTVSPropertyOp38
 70
     1
102
RTVSPropertyOp39
 70
     1
102
RTVSPropertyOp40
 70
     1
102
RTVSPropertyOp41
 70
     1
102
RTVSPropertyOp42
 70
     1
102
RTVSPropertyOp43
 70
     1
102
RTVSPropertyOp44
 70
     1
102
RTVSPropertyOp45
 70
     1
102
RTVSPropertyOp46
 70
     1
102
RTVSPropertyOp47
 70
     1
102
RTVSPropertyOp48
 70
     1
102
RTVSPropertyOp49
 70
     1
102
RTVSPropertyOp50
 70
     1
102
RTVSPropertyOp51
 70
     0
102
RTVSPropertyOp52
 70
     0
102
RTVSPropertyOp53
 70
     1
102
RTVSPropertyOp54
 70
     1
102
RTVSPropertyOp55
 70
     1
102
RTVSPropertyOp56
 70
     1
102
RTVSPropertyOp57
 70
     1
102
RTVSPropertyOp58
 70
     1
102
RTVSPropertyOp59
 70
     1
102
RTVSPropertyOp60
 70
     1
102
RTVSPropertyOp61
 70
     1
102
RTVSPropertyOp62
 70
     1
  0
XRECORD
  5
9947
102
{ACAD_REACTORS
330
9946
102
}
330
9946
100
AcDbXrecord
280
     1
102
RTVSPost2010Prop28
280
     0
102
RTVSPost2010PropOp28
 70
     1
102
RTVSPost2010Prop29
280
     1
102
RTVSPost2010PropOp29
 70
     1
102
RTVSPost2010Prop30
280
     1
102
RTVSPost2010PropOp30
 70
     1
102
RTVSPost2010Prop31
280
     0
102
RTVSPost2010PropOp31
 70
     1
102
RTVSPost2010Prop32
280
     0
102
RTVSPost2010PropOp32
 70
     1
102
RTVSPost2010Prop33
280
     0
102
RTVSPost2010PropOp33
 70
     1
102
RTVSPost2010Prop34
280
     0
102
RTVSPost2010PropOp34
 70
     1
102
RTVSPost2010Prop35
280
     0
102
RTVSPost2010PropOp35
 70
     1
102
RTVSPost2010Prop36
280
     0
102
RTVSPost2010PropOp36
 70
     1
102
RTVSPost2010Prop37
 90
       50
102
RTVSPost2010PropOp37
 70
     1
102
RTVSPost2010Prop38
140
0.0
102
RTVSPost2010PropOp38
 70
     1
102
RTVSPost2010Prop39
140
1.0
102
RTVSPost2010PropOp39
 70
     1
102
RTVSPost2010Prop40
 90
        0
102
RTVSPost2010PropOp40
 70
     1
102
RTVSPost2010Prop41ColorIndex
 90
       18
102
RTVSPost2010Prop41ColorRGB
 90
        0
102
RTVSPost2010PropOp41
 70
     1
102
RTVSPost2010Prop42
 90
       50
102
RTVSPost2010PropOp42
 70
     1
102
RTVSPost2010Prop43
 90
        3
102
RTVSPost2010PropOp43
 70
     1
102
RTVSPost2010Prop44ColorIndex
 90
        5
102
RTVSPost2010Prop44ColorRGB
 90
      255
102
RTVSPost2010PropOp44
 70
     1
102
RTVSPost2010Prop45
280
     0
102
RTVSPost2010PropOp45
 70
     1
102
RTVSPost2010Prop46
 90
       50
102
RTVSPost2010PropOp46
 70
     1
102
RTVSPost2010Prop47
 90
       50
102
RTVSPost2010PropOp47
 70
     1
102
RTVSPost2010Prop48
 90
       50
102
RTVSPost2010PropOp48
 70
     1
102
RTVSPost2010Prop49
280
     0
102
RTVSPost2010PropOp49
 70
     1
102
RTVSPost2010Prop50
 90
       50
102
RTVSPost2010PropOp50
 70
     1
102
RTVSPost2010Prop51ColorIndex
 90
      256
102
RTVSPost2010Prop51ColorRGB
 90
-16777216
102
RTVSPost2010PropOp51
 70
     0
102
RTVSPost2010Prop52
140
1.0
102
RTVSPost2010PropOp52
 70
     0
102
RTVSPost2010Prop53
 90
        2
102
RTVSPost2010PropOp53
 70
     1
102
RTVSPost2010Prop54
  1
strokes_ogs.tif
102
RTVSPost2010PropOp54
 70
     1
102
RTVSPost2010Prop55
280
     0
102
RTVSPost2010PropOp55
 70
     1
102
RTVSPost2010Prop56
140
1.0
102
RTVSPost2010PropOp56
 70
     1
102
RTVSPost2010Prop57
140
1.0
102
RTVSPost2010PropOp57
 70
     1
102
RTVSPropertyOp0
 70
     1
102
RTVSPropertyOp1
 70
     1
102
RTVSPropertyOp2
 70
     1
102
RTVSPropertyOp3
 70
     1
102
RTVSPropertyOp4
 70
     1
102
RTVSPropertyOp5
 70
     1
102
RTVSPropertyOp6
 70
     1
102
RTVSPropertyOp7
 70
     1
102
RTVSPropertyOp8
 70
     1
102
RTVSPropertyOp9
 70
     1
102
RTVSPropertyOp10
 70
     1
102
RTVSPropertyOp11
 70
     1
102
RTVSPropertyOp12
 70
     1
102
RTVSPropertyOp13
 70
     1
102
RTVSPropertyOp14
 70
     1
102
RTVSPropertyOp15
 70
     1
102
RTVSPropertyOp16
 70
     1
102
RTVSPropertyOp17
 70
     1
102
RTVSPropertyOp18
 70
     1
102
RTVSPropertyOp19
 70
     1
102
RTVSPropertyOp20
 70
     1
102
RTVSPropertyOp21
 70
     1
102
RTVSPropertyOp22
 70
     1
102
RTVSPropertyOp23
 70
     1
102
RTVSPropertyOp24
 70
     1
102
RTVSPropertyOp25
 70
     1
102
RTVSPropertyOp26
 70
     1
102
RTVSPropertyOp27
 70
     1
102
RTVSPropertyOp28
 70
     1
102
RTVSPropertyOp29
 70
     1
102
RTVSPropertyOp30
 70
     1
102
RTVSPropertyOp31
 70
     1
102
RTVSPropertyOp32
 70
     1
102
RTVSPropertyOp33
 70
     1
102
RTVSPropertyOp34
 70
     1
102
RTVSPropertyOp35
 70
     1
102
RTVSPropertyOp36
 70
     1
102
RTVSPropertyOp37
 70
     1
102
RTVSPropertyOp38
 70
     1
102
RTVSPropertyOp39
 70
     1
102
RTVSPropertyOp40
 70
     1
102
RTVSPropertyOp41
 70
     1
102
RTVSPropertyOp42
 70
     1
102
RTVSPropertyOp43
 70
     1
102
RTVSPropertyOp44
 70
     1
102
RTVSPropertyOp45
 70
     1
102
RTVSPropertyOp46
 70
     1
102
RTVSPropertyOp47
 70
     1
102
RTVSPropertyOp48
 70
     1
102
RTVSPropertyOp49
 70
     1
102
RTVSPropertyOp50
 70
     1
102
RTVSPropertyOp51
 70
     0
102
RTVSPropertyOp52
 70
     0
102
RTVSPropertyOp53
 70
     1
102
RTVSPropertyOp54
 70
     1
102
RTVSPropertyOp55
 70
     1
102
RTVSPropertyOp56
 70
     1
102
RTVSPropertyOp57
 70
     1
102
RTVSPropertyOp58
 70
     1
102
RTVSPropertyOp59
 70
     1
102
RTVSPropertyOp60
 70
     1
102
RTVSPropertyOp61
 70
     1
102
RTVSPropertyOp62
 70
     1
  0
XRECORD
  5
9949
102
{ACAD_REACTORS
330
9948
102
}
330
9948
100
AcDbXrecord
280
     1
102
RTVSPost2010Prop28
280
     0
102
RTVSPost2010PropOp28
 70
     1
102
RTVSPost2010Prop29
280
     1
102
RTVSPost2010PropOp29
 70
     1
102
RTVSPost2010Prop30
280
     1
102
RTVSPost2010PropOp30
 70
     1
102
RTVSPost2010Prop31
280
     0
102
RTVSPost2010PropOp31
 70
     1
102
RTVSPost2010Prop32
280
     0
102
RTVSPost2010PropOp32
 70
     1
102
RTVSPost2010Prop33
280
     0
102
RTVSPost2010PropOp33
 70
     1
102
RTVSPost2010Prop34
280
     0
102
RTVSPost2010PropOp34
 70
     1
102
RTVSPost2010Prop35
280
     0
102
RTVSPost2010PropOp35
 70
     1
102
RTVSPost2010Prop36
280
     0
102
RTVSPost2010PropOp36
 70
     1
102
RTVSPost2010Prop37
 90
       50
102
RTVSPost2010PropOp37
 70
     1
102
RTVSPost2010Prop38
140
0.0
102
RTVSPost2010PropOp38
 70
     1
102
RTVSPost2010Prop39
140
1.0
102
RTVSPost2010PropOp39
 70
     1
102
RTVSPost2010Prop40
 90
        0
102
RTVSPost2010PropOp40
 70
     1
102
RTVSPost2010Prop41ColorIndex
 90
       18
102
RTVSPost2010Prop41ColorRGB
 90
        0
102
RTVSPost2010PropOp41
 70
     1
102
RTVSPost2010Prop42
 90
       50
102
RTVSPost2010PropOp42
 70
     1
102
RTVSPost2010Prop43
 90
        3
102
RTVSPost2010PropOp43
 70
     1
102
RTVSPost2010Prop44ColorIndex
 90
        5
102
RTVSPost2010Prop44ColorRGB
 90
      255
102
RTVSPost2010PropOp44
 70
     1
102
RTVSPost2010Prop45
280
     0
102
RTVSPost2010PropOp45
 70
     1
102
RTVSPost2010Prop46
 90
       50
102
RTVSPost2010PropOp46
 70
     1
102
RTVSPost2010Prop47
 90
       50
102
RTVSPost2010PropOp47
 70
     1
102
RTVSPost2010Prop48
 90
       50
102
RTVSPost2010PropOp48
 70
     1
102
RTVSPost2010Prop49
280
     0
102
RTVSPost2010PropOp49
 70
     1
102
RTVSPost2010Prop50
 90
       50
102
RTVSPost2010PropOp50
 70
     1
102
RTVSPost2010Prop51ColorIndex
 90
      256
102
RTVSPost2010Prop51ColorRGB
 90
-16777216
102
RTVSPost2010PropOp51
 70
     0
102
RTVSPost2010Prop52
140
1.0
102
RTVSPost2010PropOp52
 70
     0
102
RTVSPost2010Prop53
 90
        2
102
RTVSPost2010PropOp53
 70
     1
102
RTVSPost2010Prop54
  1
strokes_ogs.tif
102
RTVSPost2010PropOp54
 70
     1
102
RTVSPost2010Prop55
280
     0
102
RTVSPost2010PropOp55
 70
     1
102
RTVSPost2010Prop56
140
1.0
102
RTVSPost2010PropOp56
 70
     1
102
RTVSPost2010Prop57
140
1.0
102
RTVSPost2010PropOp57
 70
     1
102
RTVSPropertyOp0
 70
     1
102
RTVSPropertyOp1
 70
     1
102
RTVSPropertyOp2
 70
     1
102
RTVSPropertyOp3
 70
     1
102
RTVSPropertyOp4
 70
     1
102
RTVSPropertyOp5
 70
     1
102
RTVSPropertyOp6
 70
     1
102
RTVSPropertyOp7
 70
     1
102
RTVSPropertyOp8
 70
     1
102
RTVSPropertyOp9
 70
     1
102
RTVSPropertyOp10
 70
     1
102
RTVSPropertyOp11
 70
     1
102
RTVSPropertyOp12
 70
     1
102
RTVSPropertyOp13
 70
     1
102
RTVSPropertyOp14
 70
     1
102
RTVSPropertyOp15
 70
     1
102
RTVSPropertyOp16
 70
     1
102
RTVSPropertyOp17
 70
     1
102
RTVSPropertyOp18
 70
     1
102
RTVSPropertyOp19
 70
     1
102
RTVSPropertyOp20
 70
     1
102
RTVSPropertyOp21
 70
     1
102
RTVSPropertyOp22
 70
     1
102
RTVSPropertyOp23
 70
     1
102
RTVSPropertyOp24
 70
     1
102
RTVSPropertyOp25
 70
     1
102
RTVSPropertyOp26
 70
     1
102
RTVSPropertyOp27
 70
     1
102
RTVSPropertyOp28
 70
     1
102
RTVSPropertyOp29
 70
     1
102
RTVSPropertyOp30
 70
     1
102
RTVSPropertyOp31
 70
     1
102
RTVSPropertyOp32
 70
     1
102
RTVSPropertyOp33
 70
     1
102
RTVSPropertyOp34
 70
     1
102
RTVSPropertyOp35
 70
     1
102
RTVSPropertyOp36
 70
     1
102
RTVSPropertyOp37
 70
     1
102
RTVSPropertyOp38
 70
     1
102
RTVSPropertyOp39
 70
     1
102
RTVSPropertyOp40
 70
     1
102
RTVSPropertyOp41
 70
     1
102
RTVSPropertyOp42
 70
     1
102
RTVSPropertyOp43
 70
     1
102
RTVSPropertyOp44
 70
     1
102
RTVSPropertyOp45
 70
     1
102
RTVSPropertyOp46
 70
     1
102
RTVSPropertyOp47
 70
     1
102
RTVSPropertyOp48
 70
     1
102
RTVSPropertyOp49
 70
     1
102
RTVSPropertyOp50
 70
     1
102
RTVSPropertyOp51
 70
     0
102
RTVSPropertyOp52
 70
     0
102
RTVSPropertyOp53
 70
     1
102
RTVSPropertyOp54
 70
     1
102
RTVSPropertyOp55
 70
     1
102
RTVSPropertyOp56
 70
     1
102
RTVSPropertyOp57
 70
     1
102
RTVSPropertyOp58
 70
     1
102
RTVSPropertyOp59
 70
     1
102
RTVSPropertyOp60
 70
     1
102
RTVSPropertyOp61
 70
     1
102
RTVSPropertyOp62
 70
     1
  0
XRECORD
  5
9951
102
{ACAD_REACTORS
330
9950
102
}
330
9950
100
AcDbXrecord
280
     1
102
RTVSPost2010Prop28
280
     0
102
RTVSPost2010PropOp28
 70
     1
102
RTVSPost2010Prop29
280
     1
102
RTVSPost2010PropOp29
 70
     1
102
RTVSPost2010Prop30
280
     1
102
RTVSPost2010PropOp30
 70
     1
102
RTVSPost2010Prop31
280
     0
102
RTVSPost2010PropOp31
 70
     1
102
RTVSPost2010Prop32
280
     0
102
RTVSPost2010PropOp32
 70
     1
102
RTVSPost2010Prop33
280
     0
102
RTVSPost2010PropOp33
 70
     1
102
RTVSPost2010Prop34
280
     0
102
RTVSPost2010PropOp34
 70
     1
102
RTVSPost2010Prop35
280
     0
102
RTVSPost2010PropOp35
 70
     1
102
RTVSPost2010Prop36
280
     0
102
RTVSPost2010PropOp36
 70
     1
102
RTVSPost2010Prop37
 90
       50
102
RTVSPost2010PropOp37
 70
     1
102
RTVSPost2010Prop38
140
0.0
102
RTVSPost2010PropOp38
 70
     1
102
RTVSPost2010Prop39
140
1.0
102
RTVSPost2010PropOp39
 70
     1
102
RTVSPost2010Prop40
 90
        0
102
RTVSPost2010PropOp40
 70
     1
102
RTVSPost2010Prop41ColorIndex
 90
       18
102
RTVSPost2010Prop41ColorRGB
 90
        0
102
RTVSPost2010PropOp41
 70
     1
102
RTVSPost2010Prop42
 90
       50
102
RTVSPost2010PropOp42
 70
     1
102
RTVSPost2010Prop43
 90
        3
102
RTVSPost2010PropOp43
 70
     1
102
RTVSPost2010Prop44ColorIndex
 90
        5
102
RTVSPost2010Prop44ColorRGB
 90
      255
102
RTVSPost2010PropOp44
 70
     1
102
RTVSPost2010Prop45
280
     0
102
RTVSPost2010PropOp45
 70
     1
102
RTVSPost2010Prop46
 90
       50
102
RTVSPost2010PropOp46
 70
     1
102
RTVSPost2010Prop47
 90
       50
102
RTVSPost2010PropOp47
 70
     1
102
RTVSPost2010Prop48
 90
       50
102
RTVSPost2010PropOp48
 70
     1
102
RTVSPost2010Prop49
280
     0
102
RTVSPost2010PropOp49
 70
     1
102
RTVSPost2010Prop50
 90
       50
102
RTVSPost2010PropOp50
 70
     1
102
RTVSPost2010Prop51ColorIndex
 90
      256
102
RTVSPost2010Prop51ColorRGB
 90
-16777216
102
RTVSPost2010PropOp51
 70
     0
102
RTVSPost2010Prop52
140
1.0
102
RTVSPost2010PropOp52
 70
     0
102
RTVSPost2010Prop53
 90
        2
102
RTVSPost2010PropOp53
 70
     1
102
RTVSPost2010Prop54
  1
strokes_ogs.tif
102
RTVSPost2010PropOp54
 70
     1
102
RTVSPost2010Prop55
280
     0
102
RTVSPost2010PropOp55
 70
     1
102
RTVSPost2010Prop56
140
1.0
102
RTVSPost2010PropOp56
 70
     1
102
RTVSPost2010Prop57
140
1.0
102
RTVSPost2010PropOp57
 70
     1
102
RTVSPropertyOp0
 70
     1
102
RTVSPropertyOp1
 70
     1
102
RTVSPropertyOp2
 70
     1
102
RTVSPropertyOp3
 70
     1
102
RTVSPropertyOp4
 70
     1
102
RTVSPropertyOp5
 70
     1
102
RTVSPropertyOp6
 70
     1
102
RTVSPropertyOp7
 70
     1
102
RTVSPropertyOp8
 70
     1
102
RTVSPropertyOp9
 70
     1
102
RTVSPropertyOp10
 70
     1
102
RTVSPropertyOp11
 70
     1
102
RTVSPropertyOp12
 70
     1
102
RTVSPropertyOp13
 70
     1
102
RTVSPropertyOp14
 70
     1
102
RTVSPropertyOp15
 70
     1
102
RTVSPropertyOp16
 70
     1
102
RTVSPropertyOp17
 70
     1
102
RTVSPropertyOp18
 70
     1
102
RTVSPropertyOp19
 70
     1
102
RTVSPropertyOp20
 70
     1
102
RTVSPropertyOp21
 70
     1
102
RTVSPropertyOp22
 70
     1
102
RTVSPropertyOp23
 70
     1
102
RTVSPropertyOp24
 70
     1
102
RTVSPropertyOp25
 70
     1
102
RTVSPropertyOp26
 70
     1
102
RTVSPropertyOp27
 70
     1
102
RTVSPropertyOp28
 70
     1
102
RTVSPropertyOp29
 70
     1
102
RTVSPropertyOp30
 70
     1
102
RTVSPropertyOp31
 70
     1
102
RTVSPropertyOp32
 70
     1
102
RTVSPropertyOp33
 70
     1
102
RTVSPropertyOp34
 70
     1
102
RTVSPropertyOp35
 70
     1
102
RTVSPropertyOp36
 70
     1
102
RTVSPropertyOp37
 70
     1
102
RTVSPropertyOp38
 70
     1
102
RTVSPropertyOp39
 70
     1
102
RTVSPropertyOp40
 70
     1
102
RTVSPropertyOp41
 70
     1
102
RTVSPropertyOp42
 70
     1
102
RTVSPropertyOp43
 70
     1
102
RTVSPropertyOp44
 70
     1
102
RTVSPropertyOp45
 70
     1
102
RTVSPropertyOp46
 70
     1
102
RTVSPropertyOp47
 70
     1
102
RTVSPropertyOp48
 70
     1
102
RTVSPropertyOp49
 70
     1
102
RTVSPropertyOp50
 70
     1
102
RTVSPropertyOp51
 70
     0
102
RTVSPropertyOp52
 70
     0
102
RTVSPropertyOp53
 70
     1
102
RTVSPropertyOp54
 70
     1
102
RTVSPropertyOp55
 70
     1
102
RTVSPropertyOp56
 70
     1
102
RTVSPropertyOp57
 70
     1
102
RTVSPropertyOp58
 70
     1
102
RTVSPropertyOp59
 70
     1
102
RTVSPropertyOp60
 70
     1
102
RTVSPropertyOp61
 70
     1
102
RTVSPropertyOp62
 70
     1
  0
XRECORD
  5
996D
102
{ACAD_REACTORS
330
996C
102
}
330
996C
100
AcDbXrecord
280
     1
102
RTVSPost2010Prop28
280
     0
102
RTVSPost2010PropOp28
 70
     1
102
RTVSPost2010Prop29
280
     1
102
RTVSPost2010PropOp29
 70
     1
102
RTVSPost2010Prop30
280
     1
102
RTVSPost2010PropOp30
 70
     1
102
RTVSPost2010Prop31
280
     0
102
RTVSPost2010PropOp31
 70
     1
102
RTVSPost2010Prop32
280
     0
102
RTVSPost2010PropOp32
 70
     1
102
RTVSPost2010Prop33
280
     0
102
RTVSPost2010PropOp33
 70
     1
102
RTVSPost2010Prop34
280
     0
102
RTVSPost2010PropOp34
 70
     1
102
RTVSPost2010Prop35
280
     0
102
RTVSPost2010PropOp35
 70
     1
102
RTVSPost2010Prop36
280
     0
102
RTVSPost2010PropOp36
 70
     1
102
RTVSPost2010Prop37
 90
       50
102
RTVSPost2010PropOp37
 70
     0
102
RTVSPost2010Prop38
140
0.0
102
RTVSPost2010PropOp38
 70
     0
102
RTVSPost2010Prop39
140
1.0
102
RTVSPost2010PropOp39
 70
     0
102
RTVSPost2010Prop40
 90
        0
102
RTVSPost2010PropOp40
 70
     0
102
RTVSPost2010Prop41ColorIndex
 90
       18
102
RTVSPost2010Prop41ColorRGB
 90
        0
102
RTVSPost2010PropOp41
 70
     0
102
RTVSPost2010Prop42
 90
       50
102
RTVSPost2010PropOp42
 70
     0
102
RTVSPost2010Prop43
 90
        3
102
RTVSPost2010PropOp43
 70
     0
102
RTVSPost2010Prop44ColorIndex
 90
        5
102
RTVSPost2010Prop44ColorRGB
 90
      255
102
RTVSPost2010PropOp44
 70
     0
102
RTVSPost2010Prop45
280
     0
102
RTVSPost2010PropOp45
 70
     1
102
RTVSPost2010Prop46
 90
       50
102
RTVSPost2010PropOp46
 70
     0
102
RTVSPost2010Prop47
 90
       50
102
RTVSPost2010PropOp47
 70
     0
102
RTVSPost2010Prop48
 90
       50
102
RTVSPost2010PropOp48
 70
     0
102
RTVSPost2010Prop49
280
     0
102
RTVSPost2010PropOp49
 70
     1
102
RTVSPost2010Prop50
 90
       50
102
RTVSPost2010PropOp50
 70
     0
102
RTVSPost2010Prop51ColorIndex
 90
      256
102
RTVSPost2010Prop51ColorRGB
 90
-16777216
102
RTVSPost2010PropOp51
 70
     0
102
RTVSPost2010Prop52
140
1.0
102
RTVSPost2010PropOp52
 70
     0
102
RTVSPost2010Prop53
 90
        2
102
RTVSPost2010PropOp53
 70
     0
102
RTVSPost2010Prop54
  1
strokes_ogs.tif
102
RTVSPost2010PropOp54
 70
     0
102
RTVSPost2010Prop55
280
     0
102
RTVSPost2010PropOp55
 70
     1
102
RTVSPost2010Prop56
140
1.0
102
RTVSPost2010PropOp56
 70
     0
102
RTVSPost2010Prop57
140
1.0
102
RTVSPost2010PropOp57
 70
     0
102
RTVSPropertyOp0
 70
     0
102
RTVSPropertyOp1
 70
     0
102
RTVSPropertyOp2
 70
     0
102
RTVSPropertyOp3
 70
     0
102
RTVSPropertyOp4
 70
     0
102
RTVSPropertyOp5
 70
     0
102
RTVSPropertyOp6
 70
     0
102
RTVSPropertyOp7
 70
     0
102
RTVSPropertyOp8
 70
     0
102
RTVSPropertyOp9
 70
     0
102
RTVSPropertyOp10
 70
     0
102
RTVSPropertyOp11
 70
     0
102
RTVSPropertyOp12
 70
     0
102
RTVSPropertyOp13
 70
     0
102
RTVSPropertyOp14
 70
     2
102
RTVSPropertyOp15
 70
     0
102
RTVSPropertyOp16
 70
     0
102
RTVSPropertyOp17
 70
     0
102
RTVSPropertyOp18
 70
     0
102
RTVSPropertyOp19
 70
     0
102
RTVSPropertyOp20
 70
     0
102
RTVSPropertyOp21
 70
     0
102
RTVSPropertyOp22
 70
     0
102
RTVSPropertyOp23
 70
     0
102
RTVSPropertyOp24
 70
     0
102
RTVSPropertyOp25
 70
     0
102
RTVSPropertyOp26
 70
     0
102
RTVSPropertyOp27
 70
     0
102
RTVSPropertyOp28
 70
     1
102
RTVSPropertyOp29
 70
     1
102
RTVSPropertyOp30
 70
     1
102
RTVSPropertyOp31
 70
     1
102
RTVSPropertyOp32
 70
     1
102
RTVSPropertyOp33
 70
     1
102
RTVSPropertyOp34
 70
     1
102
RTVSPropertyOp35
 70
     1
102
RTVSPropertyOp36
 70
     1
102
RTVSPropertyOp37
 70
     0
102
RTVSPropertyOp38
 70
     0
102
RTVSPropertyOp39
 70
     0
102
RTVSPropertyOp40
 70
     0
102
RTVSPropertyOp41
 70
     0
102
RTVSPropertyOp42
 70
     0
102
RTVSPropertyOp43
 70
     0
102
RTVSPropertyOp44
 70
     0
102
RTVSPropertyOp45
 70
     1
102
RTVSPropertyOp46
 70
     0
102
RTVSPropertyOp47
 70
     0
102
RTVSPropertyOp48
 70
     0
102
RTVSPropertyOp49
 70
     1
102
RTVSPropertyOp50
 70
     0
102
RTVSPropertyOp51
 70
     0
102
RTVSPropertyOp52
 70
     0
102
RTVSPropertyOp53
 70
     0
102
RTVSPropertyOp54
 70
     0
102
RTVSPropertyOp55
 70
     1
102
RTVSPropertyOp56
 70
     0
102
RTVSPropertyOp57
 70
     0
102
RTVSPropertyOp58
 70
     0
102
RTVSPropertyOp59
 70
     0
102
RTVSPropertyOp60
 70
     0
102
RTVSPropertyOp61
 70
     0
102
RTVSPropertyOp62
 70
     0
  0
XRECORD
  5
995D
102
{ACAD_REACTORS
330
995C
102
}
330
995C
100
AcDbXrecord
280
     1
102
RTVSPost2010Prop28
280
     0
102
RTVSPost2010PropOp28
 70
     1
102
RTVSPost2010Prop29
280
     1
102
RTVSPost2010PropOp29
 70
     1
102
RTVSPost2010Prop30
280
     1
102
RTVSPost2010PropOp30
 70
     1
102
RTVSPost2010Prop31
280
     0
102
RTVSPost2010PropOp31
 70
     1
102
RTVSPost2010Prop32
280
     0
102
RTVSPost2010PropOp32
 70
     1
102
RTVSPost2010Prop33
280
     0
102
RTVSPost2010PropOp33
 70
     1
102
RTVSPost2010Prop34
280
     0
102
RTVSPost2010PropOp34
 70
     1
102
RTVSPost2010Prop35
280
     0
102
RTVSPost2010PropOp35
 70
     1
102
RTVSPost2010Prop36
280
     0
102
RTVSPost2010PropOp36
 70
     1
102
RTVSPost2010Prop37
 90
       50
102
RTVSPost2010PropOp37
 70
     1
102
RTVSPost2010Prop38
140
0.0
102
RTVSPost2010PropOp38
 70
     1
102
RTVSPost2010Prop39
140
1.0
102
RTVSPost2010PropOp39
 70
     1
102
RTVSPost2010Prop40
 90
        0
102
RTVSPost2010PropOp40
 70
     1
102
RTVSPost2010Prop41ColorIndex
 90
       18
102
RTVSPost2010Prop41ColorRGB
 90
        0
102
RTVSPost2010PropOp41
 70
     1
102
RTVSPost2010Prop42
 90
       50
102
RTVSPost2010PropOp42
 70
     1
102
RTVSPost2010Prop43
 90
        3
102
RTVSPost2010PropOp43
 70
     1
102
RTVSPost2010Prop44ColorIndex
 90
        5
102
RTVSPost2010Prop44ColorRGB
 90
      255
102
RTVSPost2010PropOp44
 70
     1
102
RTVSPost2010Prop45
280
     0
102
RTVSPost2010PropOp45
 70
     1
102
RTVSPost2010Prop46
 90
       50
102
RTVSPost2010PropOp46
 70
     1
102
RTVSPost2010Prop47
 90
       50
102
RTVSPost2010PropOp47
 70
     1
102
RTVSPost2010Prop48
 90
       50
102
RTVSPost2010PropOp48
 70
     1
102
RTVSPost2010Prop49
280
     0
102
RTVSPost2010PropOp49
 70
     1
102
RTVSPost2010Prop50
 90
       50
102
RTVSPost2010PropOp50
 70
     1
102
RTVSPost2010Prop51ColorIndex
 90
      256
102
RTVSPost2010Prop51ColorRGB
 90
-16777216
102
RTVSPost2010PropOp51
 70
     0
102
RTVSPost2010Prop52
140
1.0
102
RTVSPost2010PropOp52
 70
     0
102
RTVSPost2010Prop53
 90
        2
102
RTVSPost2010PropOp53
 70
     1
102
RTVSPost2010Prop54
  1
strokes_ogs.tif
102
RTVSPost2010PropOp54
 70
     1
102
RTVSPost2010Prop55
280
     0
102
RTVSPost2010PropOp55
 70
     1
102
RTVSPost2010Prop56
140
1.0
102
RTVSPost2010PropOp56
 70
     1
102
RTVSPost2010Prop57
140
1.0
102
RTVSPost2010PropOp57
 70
     1
102
RTVSPropertyOp0
 70
     1
102
RTVSPropertyOp1
 70
     1
102
RTVSPropertyOp2
 70
     1
102
RTVSPropertyOp3
 70
     1
102
RTVSPropertyOp4
 70
     1
102
RTVSPropertyOp5
 70
     1
102
RTVSPropertyOp6
 70
     1
102
RTVSPropertyOp7
 70
     1
102
RTVSPropertyOp8
 70
     1
102
RTVSPropertyOp9
 70
     1
102
RTVSPropertyOp10
 70
     1
102
RTVSPropertyOp11
 70
     1
102
RTVSPropertyOp12
 70
     1
102
RTVSPropertyOp13
 70
     1
102
RTVSPropertyOp14
 70
     1
102
RTVSPropertyOp15
 70
     1
102
RTVSPropertyOp16
 70
     1
102
RTVSPropertyOp17
 70
     1
102
RTVSPropertyOp18
 70
     1
102
RTVSPropertyOp19
 70
     1
102
RTVSPropertyOp20
 70
     1
102
RTVSPropertyOp21
 70
     1
102
RTVSPropertyOp22
 70
     1
102
RTVSPropertyOp23
 70
     1
102
RTVSPropertyOp24
 70
     1
102
RTVSPropertyOp25
 70
     1
102
RTVSPropertyOp26
 70
     1
102
RTVSPropertyOp27
 70
     1
102
RTVSPropertyOp28
 70
     1
102
RTVSPropertyOp29
 70
     1
102
RTVSPropertyOp30
 70
     1
102
RTVSPropertyOp31
 70
     1
102
RTVSPropertyOp32
 70
     1
102
RTVSPropertyOp33
 70
     1
102
RTVSPropertyOp34
 70
     1
102
RTVSPropertyOp35
 70
     1
102
RTVSPropertyOp36
 70
     1
102
RTVSPropertyOp37
 70
     1
102
RTVSPropertyOp38
 70
     1
102
RTVSPropertyOp39
 70
     1
102
RTVSPropertyOp40
 70
     1
102
RTVSPropertyOp41
 70
     1
102
RTVSPropertyOp42
 70
     1
102
RTVSPropertyOp43
 70
     1
102
RTVSPropertyOp44
 70
     1
102
RTVSPropertyOp45
 70
     1
102
RTVSPropertyOp46
 70
     1
102
RTVSPropertyOp47
 70
     1
102
RTVSPropertyOp48
 70
     1
102
RTVSPropertyOp49
 70
     1
102
RTVSPropertyOp50
 70
     1
102
RTVSPropertyOp51
 70
     0
102
RTVSPropertyOp52
 70
     0
102
RTVSPropertyOp53
 70
     1
102
RTVSPropertyOp54
 70
     1
102
RTVSPropertyOp55
 70
     1
102
RTVSPropertyOp56
 70
     1
102
RTVSPropertyOp57
 70
     1
102
RTVSPropertyOp58
 70
     1
102
RTVSPropertyOp59
 70
     1
102
RTVSPropertyOp60
 70
     1
102
RTVSPropertyOp61
 70
     1
102
RTVSPropertyOp62
 70
     1
  0
XRECORD
  5
996F
102
{ACAD_REACTORS
330
996E
102
}
330
996E
100
AcDbXrecord
280
     1
102
RTVSPost2010Prop28
280
     0
102
RTVSPost2010PropOp28
 70
     1
102
RTVSPost2010Prop29
280
     1
102
RTVSPost2010PropOp29
 70
     1
102
RTVSPost2010Prop30
280
     1
102
RTVSPost2010PropOp30
 70
     1
102
RTVSPost2010Prop31
280
     0
102
RTVSPost2010PropOp31
 70
     1
102
RTVSPost2010Prop32
280
     0
102
RTVSPost2010PropOp32
 70
     1
102
RTVSPost2010Prop33
280
     0
102
RTVSPost2010PropOp33
 70
     1
102
RTVSPost2010Prop34
280
     0
102
RTVSPost2010PropOp34
 70
     1
102
RTVSPost2010Prop35
280
     0
102
RTVSPost2010PropOp35
 70
     1
102
RTVSPost2010Prop36
280
     0
102
RTVSPost2010PropOp36
 70
     1
102
RTVSPost2010Prop37
 90
       50
102
RTVSPost2010PropOp37
 70
     0
102
RTVSPost2010Prop38
140
0.0
102
RTVSPost2010PropOp38
 70
     0
102
RTVSPost2010Prop39
140
1.0
102
RTVSPost2010PropOp39
 70
     0
102
RTVSPost2010Prop40
 90
        0
102
RTVSPost2010PropOp40
 70
     0
102
RTVSPost2010Prop41ColorIndex
 90
       18
102
RTVSPost2010Prop41ColorRGB
 90
        0
102
RTVSPost2010PropOp41
 70
     0
102
RTVSPost2010Prop42
 90
       50
102
RTVSPost2010PropOp42
 70
     0
102
RTVSPost2010Prop43
 90
        3
102
RTVSPost2010PropOp43
 70
     0
102
RTVSPost2010Prop44ColorIndex
 90
        5
102
RTVSPost2010Prop44ColorRGB
 90
      255
102
RTVSPost2010PropOp44
 70
     0
102
RTVSPost2010Prop45
280
     0
102
RTVSPost2010PropOp45
 70
     1
102
RTVSPost2010Prop46
 90
       50
102
RTVSPost2010PropOp46
 70
     0
102
RTVSPost2010Prop47
 90
       50
102
RTVSPost2010PropOp47
 70
     0
102
RTVSPost2010Prop48
 90
       50
102
RTVSPost2010PropOp48
 70
     0
102
RTVSPost2010Prop49
280
     0
102
RTVSPost2010PropOp49
 70
     1
102
RTVSPost2010Prop50
 90
       50
102
RTVSPost2010PropOp50
 70
     0
102
RTVSPost2010Prop51ColorIndex
 90
      256
102
RTVSPost2010Prop51ColorRGB
 90
-16777216
102
RTVSPost2010PropOp51
 70
     0
102
RTVSPost2010Prop52
140
1.0
102
RTVSPost2010PropOp52
 70
     0
102
RTVSPost2010Prop53
 90
        2
102
RTVSPost2010PropOp53
 70
     0
102
RTVSPost2010Prop54
  1
strokes_ogs.tif
102
RTVSPost2010PropOp54
 70
     0
102
RTVSPost2010Prop55
280
     0
102
RTVSPost2010PropOp55
 70
     1
102
RTVSPost2010Prop56
140
1.0
102
RTVSPost2010PropOp56
 70
     0
102
RTVSPost2010Prop57
140
1.0
102
RTVSPost2010PropOp57
 70
     0
102
RTVSPropertyOp0
 70
     0
102
RTVSPropertyOp1
 70
     0
102
RTVSPropertyOp2
 70
     0
102
RTVSPropertyOp3
 70
     0
102
RTVSPropertyOp4
 70
     0
102
RTVSPropertyOp5
 70
     0
102
RTVSPropertyOp6
 70
     0
102
RTVSPropertyOp7
 70
     0
102
RTVSPropertyOp8
 70
     0
102
RTVSPropertyOp9
 70
     0
102
RTVSPropertyOp10
 70
     0
102
RTVSPropertyOp11
 70
     0
102
RTVSPropertyOp12
 70
     0
102
RTVSPropertyOp13
 70
     0
102
RTVSPropertyOp14
 70
     2
102
RTVSPropertyOp15
 70
     0
102
RTVSPropertyOp16
 70
     0
102
RTVSPropertyOp17
 70
     0
102
RTVSPropertyOp18
 70
     0
102
RTVSPropertyOp19
 70
     0
102
RTVSPropertyOp20
 70
     0
102
RTVSPropertyOp21
 70
     0
102
RTVSPropertyOp22
 70
     0
102
RTVSPropertyOp23
 70
     0
102
RTVSPropertyOp24
 70
     0
102
RTVSPropertyOp25
 70
     0
102
RTVSPropertyOp26
 70
     0
102
RTVSPropertyOp27
 70
     0
102
RTVSPropertyOp28
 70
     1
102
RTVSPropertyOp29
 70
     1
102
RTVSPropertyOp30
 70
     1
102
RTVSPropertyOp31
 70
     1
102
RTVSPropertyOp32
 70
     1
102
RTVSPropertyOp33
 70
     1
102
RTVSPropertyOp34
 70
     1
102
RTVSPropertyOp35
 70
     1
102
RTVSPropertyOp36
 70
     1
102
RTVSPropertyOp37
 70
     0
102
RTVSPropertyOp38
 70
     0
102
RTVSPropertyOp39
 70
     0
102
RTVSPropertyOp40
 70
     0
102
RTVSPropertyOp41
 70
     0
102
RTVSPropertyOp42
 70
     0
102
RTVSPropertyOp43
 70
     0
102
RTVSPropertyOp44
 70
     0
102
RTVSPropertyOp45
 70
     1
102
RTVSPropertyOp46
 70
     0
102
RTVSPropertyOp47
 70
     0
102
RTVSPropertyOp48
 70
     0
102
RTVSPropertyOp49
 70
     1
102
RTVSPropertyOp50
 70
     0
102
RTVSPropertyOp51
 70
     0
102
RTVSPropertyOp52
 70
     0
102
RTVSPropertyOp53
 70
     0
102
RTVSPropertyOp54
 70
     0
102
RTVSPropertyOp55
 70
     1
102
RTVSPropertyOp56
 70
     0
102
RTVSPropertyOp57
 70
     0
102
RTVSPropertyOp58
 70
     0
102
RTVSPropertyOp59
 70
     0
102
RTVSPropertyOp60
 70
     0
102
RTVSPropertyOp61
 70
     0
102
RTVSPropertyOp62
 70
     0
  0
XRECORD
  5
9955
102
{ACAD_REACTORS
330
9954
102
}
330
9954
100
AcDbXrecord
280
     1
102
RTVSPost2010Prop28
280
     0
102
RTVSPost2010PropOp28
 70
     1
102
RTVSPost2010Prop29
280
     1
102
RTVSPost2010PropOp29
 70
     1
102
RTVSPost2010Prop30
280
     1
102
RTVSPost2010PropOp30
 70
     1
102
RTVSPost2010Prop31
280
     0
102
RTVSPost2010PropOp31
 70
     1
102
RTVSPost2010Prop32
280
     0
102
RTVSPost2010PropOp32
 70
     1
102
RTVSPost2010Prop33
280
     0
102
RTVSPost2010PropOp33
 70
     1
102
RTVSPost2010Prop34
280
     0
102
RTVSPost2010PropOp34
 70
     1
102
RTVSPost2010Prop35
280
     0
102
RTVSPost2010PropOp35
 70
     1
102
RTVSPost2010Prop36
280
     0
102
RTVSPost2010PropOp36
 70
     1
102
RTVSPost2010Prop37
 90
       50
102
RTVSPost2010PropOp37
 70
     1
102
RTVSPost2010Prop38
140
0.0
102
RTVSPost2010PropOp38
 70
     1
102
RTVSPost2010Prop39
140
1.0
102
RTVSPost2010PropOp39
 70
     1
102
RTVSPost2010Prop40
 90
        0
102
RTVSPost2010PropOp40
 70
     1
102
RTVSPost2010Prop41ColorIndex
 90
       18
102
RTVSPost2010Prop41ColorRGB
 90
        0
102
RTVSPost2010PropOp41
 70
     1
102
RTVSPost2010Prop42
 90
       50
102
RTVSPost2010PropOp42
 70
     1
102
RTVSPost2010Prop43
 90
        3
102
RTVSPost2010PropOp43
 70
     1
102
RTVSPost2010Prop44ColorIndex
 90
        5
102
RTVSPost2010Prop44ColorRGB
 90
      255
102
RTVSPost2010PropOp44
 70
     1
102
RTVSPost2010Prop45
280
     0
102
RTVSPost2010PropOp45
 70
     1
102
RTVSPost2010Prop46
 90
       50
102
RTVSPost2010PropOp46
 70
     1
102
RTVSPost2010Prop47
 90
       50
102
RTVSPost2010PropOp47
 70
     1
102
RTVSPost2010Prop48
 90
       50
102
RTVSPost2010PropOp48
 70
     1
102
RTVSPost2010Prop49
280
     0
102
RTVSPost2010PropOp49
 70
     1
102
RTVSPost2010Prop50
 90
       50
102
RTVSPost2010PropOp50
 70
     1
102
RTVSPost2010Prop51ColorIndex
 90
      256
102
RTVSPost2010Prop51ColorRGB
 90
-16777216
102
RTVSPost2010PropOp51
 70
     0
102
RTVSPost2010Prop52
140
1.0
102
RTVSPost2010PropOp52
 70
     0
102
RTVSPost2010Prop53
 90
        2
102
RTVSPost2010PropOp53
 70
     1
102
RTVSPost2010Prop54
  1
strokes_ogs.tif
102
RTVSPost2010PropOp54
 70
     1
102
RTVSPost2010Prop55
280
     0
102
RTVSPost2010PropOp55
 70
     1
102
RTVSPost2010Prop56
140
1.0
102
RTVSPost2010PropOp56
 70
     1
102
RTVSPost2010Prop57
140
1.0
102
RTVSPost2010PropOp57
 70
     1
102
RTVSPropertyOp0
 70
     1
102
RTVSPropertyOp1
 70
     1
102
RTVSPropertyOp2
 70
     1
102
RTVSPropertyOp3
 70
     1
102
RTVSPropertyOp4
 70
     1
102
RTVSPropertyOp5
 70
     1
102
RTVSPropertyOp6
 70
     1
102
RTVSPropertyOp7
 70
     1
102
RTVSPropertyOp8
 70
     1
102
RTVSPropertyOp9
 70
     1
102
RTVSPropertyOp10
 70
     1
102
RTVSPropertyOp11
 70
     1
102
RTVSPropertyOp12
 70
     1
102
RTVSPropertyOp13
 70
     1
102
RTVSPropertyOp14
 70
     1
102
RTVSPropertyOp15
 70
     1
102
RTVSPropertyOp16
 70
     1
102
RTVSPropertyOp17
 70
     1
102
RTVSPropertyOp18
 70
     1
102
RTVSPropertyOp19
 70
     1
102
RTVSPropertyOp20
 70
     1
102
RTVSPropertyOp21
 70
     1
102
RTVSPropertyOp22
 70
     1
102
RTVSPropertyOp23
 70
     1
102
RTVSPropertyOp24
 70
     1
102
RTVSPropertyOp25
 70
     1
102
RTVSPropertyOp26
 70
     1
102
RTVSPropertyOp27
 70
     1
102
RTVSPropertyOp28
 70
     1
102
RTVSPropertyOp29
 70
     1
102
RTVSPropertyOp30
 70
     1
102
RTVSPropertyOp31
 70
     1
102
RTVSPropertyOp32
 70
     1
102
RTVSPropertyOp33
 70
     1
102
RTVSPropertyOp34
 70
     1
102
RTVSPropertyOp35
 70
     1
102
RTVSPropertyOp36
 70
     1
102
RTVSPropertyOp37
 70
     1
102
RTVSPropertyOp38
 70
     1
102
RTVSPropertyOp39
 70
     1
102
RTVSPropertyOp40
 70
     1
102
RTVSPropertyOp41
 70
     1
102
RTVSPropertyOp42
 70
     1
102
RTVSPropertyOp43
 70
     1
102
RTVSPropertyOp44
 70
     1
102
RTVSPropertyOp45
 70
     1
102
RTVSPropertyOp46
 70
     1
102
RTVSPropertyOp47
 70
     1
102
RTVSPropertyOp48
 70
     1
102
RTVSPropertyOp49
 70
     1
102
RTVSPropertyOp50
 70
     1
102
RTVSPropertyOp51
 70
     0
102
RTVSPropertyOp52
 70
     0
102
RTVSPropertyOp53
 70
     1
102
RTVSPropertyOp54
 70
     1
102
RTVSPropertyOp55
 70
     1
102
RTVSPropertyOp56
 70
     1
102
RTVSPropertyOp57
 70
     1
102
RTVSPropertyOp58
 70
     1
102
RTVSPropertyOp59
 70
     1
102
RTVSPropertyOp60
 70
     1
102
RTVSPropertyOp61
 70
     1
102
RTVSPropertyOp62
 70
     1
  0
XRECORD
  5
996B
102
{ACAD_REACTORS
330
996A
102
}
330
996A
100
AcDbXrecord
280
     1
102
RTVSPost2010Prop28
280
     0
102
RTVSPost2010PropOp28
 70
     1
102
RTVSPost2010Prop29
280
     1
102
RTVSPost2010PropOp29
 70
     1
102
RTVSPost2010Prop30
280
     1
102
RTVSPost2010PropOp30
 70
     1
102
RTVSPost2010Prop31
280
     0
102
RTVSPost2010PropOp31
 70
     1
102
RTVSPost2010Prop32
280
     0
102
RTVSPost2010PropOp32
 70
     1
102
RTVSPost2010Prop33
280
     0
102
RTVSPost2010PropOp33
 70
     1
102
RTVSPost2010Prop34
280
     0
102
RTVSPost2010PropOp34
 70
     1
102
RTVSPost2010Prop35
280
     0
102
RTVSPost2010PropOp35
 70
     1
102
RTVSPost2010Prop36
280
     0
102
RTVSPost2010PropOp36
 70
     1
102
RTVSPost2010Prop37
 90
       50
102
RTVSPost2010PropOp37
 70
     1
102
RTVSPost2010Prop38
140
0.0
102
RTVSPost2010PropOp38
 70
     1
102
RTVSPost2010Prop39
140
1.0
102
RTVSPost2010PropOp39
 70
     1
102
RTVSPost2010Prop40
 90
        0
102
RTVSPost2010PropOp40
 70
     1
102
RTVSPost2010Prop41ColorIndex
 90
       18
102
RTVSPost2010Prop41ColorRGB
 90
        0
102
RTVSPost2010PropOp41
 70
     1
102
RTVSPost2010Prop42
 90
       50
102
RTVSPost2010PropOp42
 70
     1
102
RTVSPost2010Prop43
 90
        3
102
RTVSPost2010PropOp43
 70
     1
102
RTVSPost2010Prop44ColorIndex
 90
        5
102
RTVSPost2010Prop44ColorRGB
 90
      255
102
RTVSPost2010PropOp44
 70
     1
102
RTVSPost2010Prop45
280
     0
102
RTVSPost2010PropOp45
 70
     1
102
RTVSPost2010Prop46
 90
       50
102
RTVSPost2010PropOp46
 70
     1
102
RTVSPost2010Prop47
 90
       50
102
RTVSPost2010PropOp47
 70
     1
102
RTVSPost2010Prop48
 90
       50
102
RTVSPost2010PropOp48
 70
     1
102
RTVSPost2010Prop49
280
     0
102
RTVSPost2010PropOp49
 70
     1
102
RTVSPost2010Prop50
 90
       50
102
RTVSPost2010PropOp50
 70
     1
102
RTVSPost2010Prop51ColorIndex
 90
      256
102
RTVSPost2010Prop51ColorRGB
 90
-16777216
102
RTVSPost2010PropOp51
 70
     0
102
RTVSPost2010Prop52
140
1.0
102
RTVSPost2010PropOp52
 70
     0
102
RTVSPost2010Prop53
 90
        2
102
RTVSPost2010PropOp53
 70
     1
102
RTVSPost2010Prop54
  1
strokes_ogs.tif
102
RTVSPost2010PropOp54
 70
     1
102
RTVSPost2010Prop55
280
     0
102
RTVSPost2010PropOp55
 70
     1
102
RTVSPost2010Prop56
140
1.0
102
RTVSPost2010PropOp56
 70
     1
102
RTVSPost2010Prop57
140
1.0
102
RTVSPost2010PropOp57
 70
     1
102
RTVSPropertyOp0
 70
     1
102
RTVSPropertyOp1
 70
     1
102
RTVSPropertyOp2
 70
     1
102
RTVSPropertyOp3
 70
     1
102
RTVSPropertyOp4
 70
     1
102
RTVSPropertyOp5
 70
     1
102
RTVSPropertyOp6
 70
     1
102
RTVSPropertyOp7
 70
     1
102
RTVSPropertyOp8
 70
     1
102
RTVSPropertyOp9
 70
     1
102
RTVSPropertyOp10
 70
     1
102
RTVSPropertyOp11
 70
     1
102
RTVSPropertyOp12
 70
     1
102
RTVSPropertyOp13
 70
     1
102
RTVSPropertyOp14
 70
     1
102
RTVSPropertyOp15
 70
     1
102
RTVSPropertyOp16
 70
     1
102
RTVSPropertyOp17
 70
     1
102
RTVSPropertyOp18
 70
     1
102
RTVSPropertyOp19
 70
     1
102
RTVSPropertyOp20
 70
     1
102
RTVSPropertyOp21
 70
     1
102
RTVSPropertyOp22
 70
     1
102
RTVSPropertyOp23
 70
     1
102
RTVSPropertyOp24
 70
     1
102
RTVSPropertyOp25
 70
     1
102
RTVSPropertyOp26
 70
     1
102
RTVSPropertyOp27
 70
     1
102
RTVSPropertyOp28
 70
     1
102
RTVSPropertyOp29
 70
     1
102
RTVSPropertyOp30
 70
     1
102
RTVSPropertyOp31
 70
     1
102
RTVSPropertyOp32
 70
     1
102
RTVSPropertyOp33
 70
     1
102
RTVSPropertyOp34
 70
     1
102
RTVSPropertyOp35
 70
     1
102
RTVSPropertyOp36
 70
     1
102
RTVSPropertyOp37
 70
     1
102
RTVSPropertyOp38
 70
     1
102
RTVSPropertyOp39
 70
     1
102
RTVSPropertyOp40
 70
     1
102
RTVSPropertyOp41
 70
     1
102
RTVSPropertyOp42
 70
     1
102
RTVSPropertyOp43
 70
     1
102
RTVSPropertyOp44
 70
     1
102
RTVSPropertyOp45
 70
     1
102
RTVSPropertyOp46
 70
     1
102
RTVSPropertyOp47
 70
     1
102
RTVSPropertyOp48
 70
     1
102
RTVSPropertyOp49
 70
     1
102
RTVSPropertyOp50
 70
     1
102
RTVSPropertyOp51
 70
     0
102
RTVSPropertyOp52
 70
     0
102
RTVSPropertyOp53
 70
     1
102
RTVSPropertyOp54
 70
     1
102
RTVSPropertyOp55
 70
     1
102
RTVSPropertyOp56
 70
     1
102
RTVSPropertyOp57
 70
     1
102
RTVSPropertyOp58
 70
     1
102
RTVSPropertyOp59
 70
     1
102
RTVSPropertyOp60
 70
     1
102
RTVSPropertyOp61
 70
     1
102
RTVSPropertyOp62
 70
     1
  0
XRECORD
  5
9969
102
{ACAD_REACTORS
330
9968
102
}
330
9968
100
AcDbXrecord
280
     1
102
RTVSPost2010Prop28
280
     0
102
RTVSPost2010PropOp28
 70
     1
102
RTVSPost2010Prop29
280
     1
102
RTVSPost2010PropOp29
 70
     1
102
RTVSPost2010Prop30
280
     1
102
RTVSPost2010PropOp30
 70
     1
102
RTVSPost2010Prop31
280
     0
102
RTVSPost2010PropOp31
 70
     1
102
RTVSPost2010Prop32
280
     0
102
RTVSPost2010PropOp32
 70
     1
102
RTVSPost2010Prop33
280
     0
102
RTVSPost2010PropOp33
 70
     1
102
RTVSPost2010Prop34
280
     0
102
RTVSPost2010PropOp34
 70
     1
102
RTVSPost2010Prop35
280
     0
102
RTVSPost2010PropOp35
 70
     1
102
RTVSPost2010Prop36
280
     0
102
RTVSPost2010PropOp36
 70
     1
102
RTVSPost2010Prop37
 90
       50
102
RTVSPost2010PropOp37
 70
     1
102
RTVSPost2010Prop38
140
0.0
102
RTVSPost2010PropOp38
 70
     1
102
RTVSPost2010Prop39
140
1.0
102
RTVSPost2010PropOp39
 70
     1
102
RTVSPost2010Prop40
 90
        0
102
RTVSPost2010PropOp40
 70
     1
102
RTVSPost2010Prop41ColorIndex
 90
       18
102
RTVSPost2010Prop41ColorRGB
 90
        0
102
RTVSPost2010PropOp41
 70
     1
102
RTVSPost2010Prop42
 90
       50
102
RTVSPost2010PropOp42
 70
     1
102
RTVSPost2010Prop43
 90
        3
102
RTVSPost2010PropOp43
 70
     1
102
RTVSPost2010Prop44ColorIndex
 90
        5
102
RTVSPost2010Prop44ColorRGB
 90
      255
102
RTVSPost2010PropOp44
 70
     1
102
RTVSPost2010Prop45
280
     0
102
RTVSPost2010PropOp45
 70
     1
102
RTVSPost2010Prop46
 90
       50
102
RTVSPost2010PropOp46
 70
     1
102
RTVSPost2010Prop47
 90
       50
102
RTVSPost2010PropOp47
 70
     1
102
RTVSPost2010Prop48
 90
       50
102
RTVSPost2010PropOp48
 70
     1
102
RTVSPost2010Prop49
280
     0
102
RTVSPost2010PropOp49
 70
     1
102
RTVSPost2010Prop50
 90
       50
102
RTVSPost2010PropOp50
 70
     1
102
RTVSPost2010Prop51ColorIndex
 90
      256
102
RTVSPost2010Prop51ColorRGB
 90
-16777216
102
RTVSPost2010PropOp51
 70
     0
102
RTVSPost2010Prop52
140
1.0
102
RTVSPost2010PropOp52
 70
     0
102
RTVSPost2010Prop53
 90
        2
102
RTVSPost2010PropOp53
 70
     1
102
RTVSPost2010Prop54
  1
strokes_ogs.tif
102
RTVSPost2010PropOp54
 70
     1
102
RTVSPost2010Prop55
280
     0
102
RTVSPost2010PropOp55
 70
     1
102
RTVSPost2010Prop56
140
1.0
102
RTVSPost2010PropOp56
 70
     1
102
RTVSPost2010Prop57
140
1.0
102
RTVSPost2010PropOp57
 70
     1
102
RTVSPropertyOp0
 70
     1
102
RTVSPropertyOp1
 70
     1
102
RTVSPropertyOp2
 70
     1
102
RTVSPropertyOp3
 70
     1
102
RTVSPropertyOp4
 70
     1
102
RTVSPropertyOp5
 70
     1
102
RTVSPropertyOp6
 70
     1
102
RTVSPropertyOp7
 70
     1
102
RTVSPropertyOp8
 70
     1
102
RTVSPropertyOp9
 70
     1
102
RTVSPropertyOp10
 70
     1
102
RTVSPropertyOp11
 70
     1
102
RTVSPropertyOp12
 70
     1
102
RTVSPropertyOp13
 70
     1
102
RTVSPropertyOp14
 70
     1
102
RTVSPropertyOp15
 70
     1
102
RTVSPropertyOp16
 70
     1
102
RTVSPropertyOp17
 70
     1
102
RTVSPropertyOp18
 70
     1
102
RTVSPropertyOp19
 70
     1
102
RTVSPropertyOp20
 70
     1
102
RTVSPropertyOp21
 70
     1
102
RTVSPropertyOp22
 70
     1
102
RTVSPropertyOp23
 70
     1
102
RTVSPropertyOp24
 70
     1
102
RTVSPropertyOp25
 70
     1
102
RTVSPropertyOp26
 70
     1
102
RTVSPropertyOp27
 70
     1
102
RTVSPropertyOp28
 70
     1
102
RTVSPropertyOp29
 70
     1
102
RTVSPropertyOp30
 70
     1
102
RTVSPropertyOp31
 70
     1
102
RTVSPropertyOp32
 70
     1
102
RTVSPropertyOp33
 70
     1
102
RTVSPropertyOp34
 70
     1
102
RTVSPropertyOp35
 70
     1
102
RTVSPropertyOp36
 70
     1
102
RTVSPropertyOp37
 70
     1
102
RTVSPropertyOp38
 70
     1
102
RTVSPropertyOp39
 70
     1
102
RTVSPropertyOp40
 70
     1
102
RTVSPropertyOp41
 70
     1
102
RTVSPropertyOp42
 70
     1
102
RTVSPropertyOp43
 70
     1
102
RTVSPropertyOp44
 70
     1
102
RTVSPropertyOp45
 70
     1
102
RTVSPropertyOp46
 70
     1
102
RTVSPropertyOp47
 70
     1
102
RTVSPropertyOp48
 70
     1
102
RTVSPropertyOp49
 70
     1
102
RTVSPropertyOp50
 70
     1
102
RTVSPropertyOp51
 70
     0
102
RTVSPropertyOp52
 70
     0
102
RTVSPropertyOp53
 70
     1
102
RTVSPropertyOp54
 70
     1
102
RTVSPropertyOp55
 70
     1
102
RTVSPropertyOp56
 70
     1
102
RTVSPropertyOp57
 70
     1
102
RTVSPropertyOp58
 70
     1
102
RTVSPropertyOp59
 70
     1
102
RTVSPropertyOp60
 70
     1
102
RTVSPropertyOp61
 70
     1
102
RTVSPropertyOp62
 70
     1
  0
XRECORD
  5
9963
102
{ACAD_REACTORS
330
9962
102
}
330
9962
100
AcDbXrecord
280
     1
102
RTVSPost2010Prop28
280
     0
102
RTVSPost2010PropOp28
 70
     1
102
RTVSPost2010Prop29
280
     1
102
RTVSPost2010PropOp29
 70
     1
102
RTVSPost2010Prop30
280
     1
102
RTVSPost2010PropOp30
 70
     1
102
RTVSPost2010Prop31
280
     0
102
RTVSPost2010PropOp31
 70
     1
102
RTVSPost2010Prop32
280
     0
102
RTVSPost2010PropOp32
 70
     1
102
RTVSPost2010Prop33
280
     0
102
RTVSPost2010PropOp33
 70
     1
102
RTVSPost2010Prop34
280
     0
102
RTVSPost2010PropOp34
 70
     1
102
RTVSPost2010Prop35
280
     0
102
RTVSPost2010PropOp35
 70
     1
102
RTVSPost2010Prop36
280
     0
102
RTVSPost2010PropOp36
 70
     1
102
RTVSPost2010Prop37
 90
       50
102
RTVSPost2010PropOp37
 70
     1
102
RTVSPost2010Prop38
140
0.0
102
RTVSPost2010PropOp38
 70
     1
102
RTVSPost2010Prop39
140
1.0
102
RTVSPost2010PropOp39
 70
     1
102
RTVSPost2010Prop40
 90
        0
102
RTVSPost2010PropOp40
 70
     1
102
RTVSPost2010Prop41ColorIndex
 90
       18
102
RTVSPost2010Prop41ColorRGB
 90
        0
102
RTVSPost2010PropOp41
 70
     1
102
RTVSPost2010Prop42
 90
       50
102
RTVSPost2010PropOp42
 70
     1
102
RTVSPost2010Prop43
 90
        3
102
RTVSPost2010PropOp43
 70
     1
102
RTVSPost2010Prop44ColorIndex
 90
        5
102
RTVSPost2010Prop44ColorRGB
 90
      255
102
RTVSPost2010PropOp44
 70
     1
102
RTVSPost2010Prop45
280
     0
102
RTVSPost2010PropOp45
 70
     1
102
RTVSPost2010Prop46
 90
       50
102
RTVSPost2010PropOp46
 70
     1
102
RTVSPost2010Prop47
 90
       50
102
RTVSPost2010PropOp47
 70
     1
102
RTVSPost2010Prop48
 90
       50
102
RTVSPost2010PropOp48
 70
     1
102
RTVSPost2010Prop49
280
     0
102
RTVSPost2010PropOp49
 70
     1
102
RTVSPost2010Prop50
 90
       50
102
RTVSPost2010PropOp50
 70
     1
102
RTVSPost2010Prop51ColorIndex
 90
      256
102
RTVSPost2010Prop51ColorRGB
 90
-16777216
102
RTVSPost2010PropOp51
 70
     0
102
RTVSPost2010Prop52
140
1.0
102
RTVSPost2010PropOp52
 70
     0
102
RTVSPost2010Prop53
 90
        2
102
RTVSPost2010PropOp53
 70
     1
102
RTVSPost2010Prop54
  1
strokes_ogs.tif
102
RTVSPost2010PropOp54
 70
     1
102
RTVSPost2010Prop55
280
     0
102
RTVSPost2010PropOp55
 70
     1
102
RTVSPost2010Prop56
140
1.0
102
RTVSPost2010PropOp56
 70
     1
102
RTVSPost2010Prop57
140
1.0
102
RTVSPost2010PropOp57
 70
     1
102
RTVSPropertyOp0
 70
     1
102
RTVSPropertyOp1
 70
     1
102
RTVSPropertyOp2
 70
     1
102
RTVSPropertyOp3
 70
     1
102
RTVSPropertyOp4
 70
     1
102
RTVSPropertyOp5
 70
     1
102
RTVSPropertyOp6
 70
     1
102
RTVSPropertyOp7
 70
     1
102
RTVSPropertyOp8
 70
     1
102
RTVSPropertyOp9
 70
     1
102
RTVSPropertyOp10
 70
     1
102
RTVSPropertyOp11
 70
     1
102
RTVSPropertyOp12
 70
     1
102
RTVSPropertyOp13
 70
     1
102
RTVSPropertyOp14
 70
     1
102
RTVSPropertyOp15
 70
     1
102
RTVSPropertyOp16
 70
     1
102
RTVSPropertyOp17
 70
     1
102
RTVSPropertyOp18
 70
     1
102
RTVSPropertyOp19
 70
     1
102
RTVSPropertyOp20
 70
     1
102
RTVSPropertyOp21
 70
     1
102
RTVSPropertyOp22
 70
     1
102
RTVSPropertyOp23
 70
     1
102
RTVSPropertyOp24
 70
     1
102
RTVSPropertyOp25
 70
     1
102
RTVSPropertyOp26
 70
     1
102
RTVSPropertyOp27
 70
     1
102
RTVSPropertyOp28
 70
     1
102
RTVSPropertyOp29
 70
     1
102
RTVSPropertyOp30
 70
     1
102
RTVSPropertyOp31
 70
     1
102
RTVSPropertyOp32
 70
     1
102
RTVSPropertyOp33
 70
     1
102
RTVSPropertyOp34
 70
     1
102
RTVSPropertyOp35
 70
     1
102
RTVSPropertyOp36
 70
     1
102
RTVSPropertyOp37
 70
     1
102
RTVSPropertyOp38
 70
     1
102
RTVSPropertyOp39
 70
     1
102
RTVSPropertyOp40
 70
     1
102
RTVSPropertyOp41
 70
     1
102
RTVSPropertyOp42
 70
     1
102
RTVSPropertyOp43
 70
     1
102
RTVSPropertyOp44
 70
     1
102
RTVSPropertyOp45
 70
     1
102
RTVSPropertyOp46
 70
     1
102
RTVSPropertyOp47
 70
     1
102
RTVSPropertyOp48
 70
     1
102
RTVSPropertyOp49
 70
     1
102
RTVSPropertyOp50
 70
     1
102
RTVSPropertyOp51
 70
     0
102
RTVSPropertyOp52
 70
     0
102
RTVSPropertyOp53
 70
     1
102
RTVSPropertyOp54
 70
     1
102
RTVSPropertyOp55
 70
     1
102
RTVSPropertyOp56
 70
     1
102
RTVSPropertyOp57
 70
     1
102
RTVSPropertyOp58
 70
     1
102
RTVSPropertyOp59
 70
     1
102
RTVSPropertyOp60
 70
     1
102
RTVSPropertyOp61
 70
     1
102
RTVSPropertyOp62
 70
     1
  0
XRECORD
  5
9965
102
{ACAD_REACTORS
330
9964
102
}
330
9964
100
AcDbXrecord
280
     1
102
RTVSPost2010Prop28
280
     0
102
RTVSPost2010PropOp28
 70
     1
102
RTVSPost2010Prop29
280
     1
102
RTVSPost2010PropOp29
 70
     1
102
RTVSPost2010Prop30
280
     1
102
RTVSPost2010PropOp30
 70
     1
102
RTVSPost2010Prop31
280
     0
102
RTVSPost2010PropOp31
 70
     1
102
RTVSPost2010Prop32
280
     0
102
RTVSPost2010PropOp32
 70
     1
102
RTVSPost2010Prop33
280
     0
102
RTVSPost2010PropOp33
 70
     1
102
RTVSPost2010Prop34
280
     0
102
RTVSPost2010PropOp34
 70
     1
102
RTVSPost2010Prop35
280
     0
102
RTVSPost2010PropOp35
 70
     1
102
RTVSPost2010Prop36
280
     0
102
RTVSPost2010PropOp36
 70
     1
102
RTVSPost2010Prop37
 90
       50
102
RTVSPost2010PropOp37
 70
     1
102
RTVSPost2010Prop38
140
0.0
102
RTVSPost2010PropOp38
 70
     1
102
RTVSPost2010Prop39
140
1.0
102
RTVSPost2010PropOp39
 70
     1
102
RTVSPost2010Prop40
 90
        0
102
RTVSPost2010PropOp40
 70
     1
102
RTVSPost2010Prop41ColorIndex
 90
       18
102
RTVSPost2010Prop41ColorRGB
 90
        0
102
RTVSPost2010PropOp41
 70
     1
102
RTVSPost2010Prop42
 90
       50
102
RTVSPost2010PropOp42
 70
     1
102
RTVSPost2010Prop43
 90
        3
102
RTVSPost2010PropOp43
 70
     1
102
RTVSPost2010Prop44ColorIndex
 90
        5
102
RTVSPost2010Prop44ColorRGB
 90
      255
102
RTVSPost2010PropOp44
 70
     1
102
RTVSPost2010Prop45
280
     0
102
RTVSPost2010PropOp45
 70
     1
102
RTVSPost2010Prop46
 90
       50
102
RTVSPost2010PropOp46
 70
     1
102
RTVSPost2010Prop47
 90
       50
102
RTVSPost2010PropOp47
 70
     1
102
RTVSPost2010Prop48
 90
       50
102
RTVSPost2010PropOp48
 70
     1
102
RTVSPost2010Prop49
280
     0
102
RTVSPost2010PropOp49
 70
     1
102
RTVSPost2010Prop50
 90
       50
102
RTVSPost2010PropOp50
 70
     1
102
RTVSPost2010Prop51ColorIndex
 90
      256
102
RTVSPost2010Prop51ColorRGB
 90
-16777216
102
RTVSPost2010PropOp51
 70
     0
102
RTVSPost2010Prop52
140
1.0
102
RTVSPost2010PropOp52
 70
     0
102
RTVSPost2010Prop53
 90
        2
102
RTVSPost2010PropOp53
 70
     1
102
RTVSPost2010Prop54
  1
strokes_ogs.tif
102
RTVSPost2010PropOp54
 70
     1
102
RTVSPost2010Prop55
280
     0
102
RTVSPost2010PropOp55
 70
     1
102
RTVSPost2010Prop56
140
1.0
102
RTVSPost2010PropOp56
 70
     1
102
RTVSPost2010Prop57
140
1.0
102
RTVSPost2010PropOp57
 70
     1
102
RTVSPropertyOp0
 70
     1
102
RTVSPropertyOp1
 70
     1
102
RTVSPropertyOp2
 70
     1
102
RTVSPropertyOp3
 70
     1
102
RTVSPropertyOp4
 70
     1
102
RTVSPropertyOp5
 70
     1
102
RTVSPropertyOp6
 70
     1
102
RTVSPropertyOp7
 70
     1
102
RTVSPropertyOp8
 70
     1
102
RTVSPropertyOp9
 70
     1
102
RTVSPropertyOp10
 70
     1
102
RTVSPropertyOp11
 70
     1
102
RTVSPropertyOp12
 70
     1
102
RTVSPropertyOp13
 70
     1
102
RTVSPropertyOp14
 70
     1
102
RTVSPropertyOp15
 70
     1
102
RTVSPropertyOp16
 70
     1
102
RTVSPropertyOp17
 70
     1
102
RTVSPropertyOp18
 70
     1
102
RTVSPropertyOp19
 70
     1
102
RTVSPropertyOp20
 70
     1
102
RTVSPropertyOp21
 70
     1
102
RTVSPropertyOp22
 70
     1
102
RTVSPropertyOp23
 70
     1
102
RTVSPropertyOp24
 70
     1
102
RTVSPropertyOp25
 70
     1
102
RTVSPropertyOp26
 70
     1
102
RTVSPropertyOp27
 70
     1
102
RTVSPropertyOp28
 70
     1
102
RTVSPropertyOp29
 70
     1
102
RTVSPropertyOp30
 70
     1
102
RTVSPropertyOp31
 70
     1
102
RTVSPropertyOp32
 70
     1
102
RTVSPropertyOp33
 70
     1
102
RTVSPropertyOp34
 70
     1
102
RTVSPropertyOp35
 70
     1
102
RTVSPropertyOp36
 70
     1
102
RTVSPropertyOp37
 70
     1
102
RTVSPropertyOp38
 70
     1
102
RTVSPropertyOp39
 70
     1
102
RTVSPropertyOp40
 70
     1
102
RTVSPropertyOp41
 70
     1
102
RTVSPropertyOp42
 70
     1
102
RTVSPropertyOp43
 70
     1
102
RTVSPropertyOp44
 70
     1
102
RTVSPropertyOp45
 70
     1
102
RTVSPropertyOp46
 70
     1
102
RTVSPropertyOp47
 70
     1
102
RTVSPropertyOp48
 70
     1
102
RTVSPropertyOp49
 70
     1
102
RTVSPropertyOp50
 70
     1
102
RTVSPropertyOp51
 70
     0
102
RTVSPropertyOp52
 70
     0
102
RTVSPropertyOp53
 70
     1
102
RTVSPropertyOp54
 70
     1
102
RTVSPropertyOp55
 70
     1
102
RTVSPropertyOp56
 70
     1
102
RTVSPropertyOp57
 70
     1
102
RTVSPropertyOp58
 70
     1
102
RTVSPropertyOp59
 70
     1
102
RTVSPropertyOp60
 70
     1
102
RTVSPropertyOp61
 70
     1
102
RTVSPropertyOp62
 70
     1
  0
XRECORD
  5
995B
102
{ACAD_REACTORS
330
995A
102
}
330
995A
100
AcDbXrecord
280
     1
102
RTVSPost2010Prop28
280
     0
102
RTVSPost2010PropOp28
 70
     1
102
RTVSPost2010Prop29
280
     1
102
RTVSPost2010PropOp29
 70
     1
102
RTVSPost2010Prop30
280
     1
102
RTVSPost2010PropOp30
 70
     1
102
RTVSPost2010Prop31
280
     0
102
RTVSPost2010PropOp31
 70
     1
102
RTVSPost2010Prop32
280
     0
102
RTVSPost2010PropOp32
 70
     1
102
RTVSPost2010Prop33
280
     0
102
RTVSPost2010PropOp33
 70
     1
102
RTVSPost2010Prop34
280
     0
102
RTVSPost2010PropOp34
 70
     1
102
RTVSPost2010Prop35
280
     0
102
RTVSPost2010PropOp35
 70
     1
102
RTVSPost2010Prop36
280
     0
102
RTVSPost2010PropOp36
 70
     1
102
RTVSPost2010Prop37
 90
       50
102
RTVSPost2010PropOp37
 70
     1
102
RTVSPost2010Prop38
140
0.0
102
RTVSPost2010PropOp38
 70
     1
102
RTVSPost2010Prop39
140
1.0
102
RTVSPost2010PropOp39
 70
     1
102
RTVSPost2010Prop40
 90
        0
102
RTVSPost2010PropOp40
 70
     1
102
RTVSPost2010Prop41ColorIndex
 90
       18
102
RTVSPost2010Prop41ColorRGB
 90
        0
102
RTVSPost2010PropOp41
 70
     1
102
RTVSPost2010Prop42
 90
       50
102
RTVSPost2010PropOp42
 70
     1
102
RTVSPost2010Prop43
 90
        3
102
RTVSPost2010PropOp43
 70
     1
102
RTVSPost2010Prop44ColorIndex
 90
        5
102
RTVSPost2010Prop44ColorRGB
 90
      255
102
RTVSPost2010PropOp44
 70
     1
102
RTVSPost2010Prop45
280
     0
102
RTVSPost2010PropOp45
 70
     1
102
RTVSPost2010Prop46
 90
       50
102
RTVSPost2010PropOp46
 70
     1
102
RTVSPost2010Prop47
 90
       50
102
RTVSPost2010PropOp47
 70
     1
102
RTVSPost2010Prop48
 90
       50
102
RTVSPost2010PropOp48
 70
     1
102
RTVSPost2010Prop49
280
     0
102
RTVSPost2010PropOp49
 70
     1
102
RTVSPost2010Prop50
 90
       50
102
RTVSPost2010PropOp50
 70
     1
102
RTVSPost2010Prop51ColorIndex
 90
      256
102
RTVSPost2010Prop51ColorRGB
 90
-16777216
102
RTVSPost2010PropOp51
 70
     0
102
RTVSPost2010Prop52
140
1.0
102
RTVSPost2010PropOp52
 70
     0
102
RTVSPost2010Prop53
 90
        2
102
RTVSPost2010PropOp53
 70
     1
102
RTVSPost2010Prop54
  1
strokes_ogs.tif
102
RTVSPost2010PropOp54
 70
     1
102
RTVSPost2010Prop55
280
     0
102
RTVSPost2010PropOp55
 70
     1
102
RTVSPost2010Prop56
140
1.0
102
RTVSPost2010PropOp56
 70
     1
102
RTVSPost2010Prop57
140
1.0
102
RTVSPost2010PropOp57
 70
     1
102
RTVSPropertyOp0
 70
     1
102
RTVSPropertyOp1
 70
     1
102
RTVSPropertyOp2
 70
     1
102
RTVSPropertyOp3
 70
     1
102
RTVSPropertyOp4
 70
     1
102
RTVSPropertyOp5
 70
     1
102
RTVSPropertyOp6
 70
     1
102
RTVSPropertyOp7
 70
     1
102
RTVSPropertyOp8
 70
     1
102
RTVSPropertyOp9
 70
     1
102
RTVSPropertyOp10
 70
     1
102
RTVSPropertyOp11
 70
     1
102
RTVSPropertyOp12
 70
     1
102
RTVSPropertyOp13
 70
     1
102
RTVSPropertyOp14
 70
     1
102
RTVSPropertyOp15
 70
     1
102
RTVSPropertyOp16
 70
     1
102
RTVSPropertyOp17
 70
     1
102
RTVSPropertyOp18
 70
     1
102
RTVSPropertyOp19
 70
     1
102
RTVSPropertyOp20
 70
     1
102
RTVSPropertyOp21
 70
     1
102
RTVSPropertyOp22
 70
     1
102
RTVSPropertyOp23
 70
     1
102
RTVSPropertyOp24
 70
     1
102
RTVSPropertyOp25
 70
     1
102
RTVSPropertyOp26
 70
     1
102
RTVSPropertyOp27
 70
     1
102
RTVSPropertyOp28
 70
     1
102
RTVSPropertyOp29
 70
     1
102
RTVSPropertyOp30
 70
     1
102
RTVSPropertyOp31
 70
     1
102
RTVSPropertyOp32
 70
     1
102
RTVSPropertyOp33
 70
     1
102
RTVSPropertyOp34
 70
     1
102
RTVSPropertyOp35
 70
     1
102
RTVSPropertyOp36
 70
     1
102
RTVSPropertyOp37
 70
     1
102
RTVSPropertyOp38
 70
     1
102
RTVSPropertyOp39
 70
     1
102
RTVSPropertyOp40
 70
     1
102
RTVSPropertyOp41
 70
     1
102
RTVSPropertyOp42
 70
     1
102
RTVSPropertyOp43
 70
     1
102
RTVSPropertyOp44
 70
     1
102
RTVSPropertyOp45
 70
     1
102
RTVSPropertyOp46
 70
     1
102
RTVSPropertyOp47
 70
     1
102
RTVSPropertyOp48
 70
     1
102
RTVSPropertyOp49
 70
     1
102
RTVSPropertyOp50
 70
     1
102
RTVSPropertyOp51
 70
     0
102
RTVSPropertyOp52
 70
     0
102
RTVSPropertyOp53
 70
     1
102
RTVSPropertyOp54
 70
     1
102
RTVSPropertyOp55
 70
     1
102
RTVSPropertyOp56
 70
     1
102
RTVSPropertyOp57
 70
     1
102
RTVSPropertyOp58
 70
     1
102
RTVSPropertyOp59
 70
     1
102
RTVSPropertyOp60
 70
     1
102
RTVSPropertyOp61
 70
     1
102
RTVSPropertyOp62
 70
     1
  0
XRECORD
  5
994F
102
{ACAD_REACTORS
330
994E
102
}
330
994E
100
AcDbXrecord
280
     1
102
RTVSPost2010Prop28
280
     0
102
RTVSPost2010PropOp28
 70
     1
102
RTVSPost2010Prop29
280
     1
102
RTVSPost2010PropOp29
 70
     1
102
RTVSPost2010Prop30
280
     1
102
RTVSPost2010PropOp30
 70
     1
102
RTVSPost2010Prop31
280
     0
102
RTVSPost2010PropOp31
 70
     1
102
RTVSPost2010Prop32
280
     0
102
RTVSPost2010PropOp32
 70
     1
102
RTVSPost2010Prop33
280
     0
102
RTVSPost2010PropOp33
 70
     1
102
RTVSPost2010Prop34
280
     0
102
RTVSPost2010PropOp34
 70
     1
102
RTVSPost2010Prop35
280
     0
102
RTVSPost2010PropOp35
 70
     1
102
RTVSPost2010Prop36
280
     0
102
RTVSPost2010PropOp36
 70
     1
102
RTVSPost2010Prop37
 90
       50
102
RTVSPost2010PropOp37
 70
     1
102
RTVSPost2010Prop38
140
0.0
102
RTVSPost2010PropOp38
 70
     1
102
RTVSPost2010Prop39
140
1.0
102
RTVSPost2010PropOp39
 70
     1
102
RTVSPost2010Prop40
 90
        0
102
RTVSPost2010PropOp40
 70
     1
102
RTVSPost2010Prop41ColorIndex
 90
       18
102
RTVSPost2010Prop41ColorRGB
 90
        0
102
RTVSPost2010PropOp41
 70
     1
102
RTVSPost2010Prop42
 90
       50
102
RTVSPost2010PropOp42
 70
     1
102
RTVSPost2010Prop43
 90
        3
102
RTVSPost2010PropOp43
 70
     1
102
RTVSPost2010Prop44ColorIndex
 90
        5
102
RTVSPost2010Prop44ColorRGB
 90
      255
102
RTVSPost2010PropOp44
 70
     1
102
RTVSPost2010Prop45
280
     0
102
RTVSPost2010PropOp45
 70
     1
102
RTVSPost2010Prop46
 90
       50
102
RTVSPost2010PropOp46
 70
     1
102
RTVSPost2010Prop47
 90
       50
102
RTVSPost2010PropOp47
 70
     1
102
RTVSPost2010Prop48
 90
       50
102
RTVSPost2010PropOp48
 70
     1
102
RTVSPost2010Prop49
280
     0
102
RTVSPost2010PropOp49
 70
     1
102
RTVSPost2010Prop50
 90
       50
102
RTVSPost2010PropOp50
 70
     1
102
RTVSPost2010Prop51ColorIndex
 90
      256
102
RTVSPost2010Prop51ColorRGB
 90
-16777216
102
RTVSPost2010PropOp51
 70
     0
102
RTVSPost2010Prop52
140
1.0
102
RTVSPost2010PropOp52
 70
     0
102
RTVSPost2010Prop53
 90
        2
102
RTVSPost2010PropOp53
 70
     1
102
RTVSPost2010Prop54
  1
strokes_ogs.tif
102
RTVSPost2010PropOp54
 70
     1
102
RTVSPost2010Prop55
280
     0
102
RTVSPost2010PropOp55
 70
     1
102
RTVSPost2010Prop56
140
1.0
102
RTVSPost2010PropOp56
 70
     1
102
RTVSPost2010Prop57
140
1.0
102
RTVSPost2010PropOp57
 70
     1
102
RTVSPropertyOp0
 70
     1
102
RTVSPropertyOp1
 70
     1
102
RTVSPropertyOp2
 70
     1
102
RTVSPropertyOp3
 70
     1
102
RTVSPropertyOp4
 70
     1
102
RTVSPropertyOp5
 70
     1
102
RTVSPropertyOp6
 70
     1
102
RTVSPropertyOp7
 70
     1
102
RTVSPropertyOp8
 70
     1
102
RTVSPropertyOp9
 70
     1
102
RTVSPropertyOp10
 70
     1
102
RTVSPropertyOp11
 70
     1
102
RTVSPropertyOp12
 70
     1
102
RTVSPropertyOp13
 70
     1
102
RTVSPropertyOp14
 70
     1
102
RTVSPropertyOp15
 70
     1
102
RTVSPropertyOp16
 70
     1
102
RTVSPropertyOp17
 70
     1
102
RTVSPropertyOp18
 70
     1
102
RTVSPropertyOp19
 70
     1
102
RTVSPropertyOp20
 70
     1
102
RTVSPropertyOp21
 70
     1
102
RTVSPropertyOp22
 70
     1
102
RTVSPropertyOp23
 70
     1
102
RTVSPropertyOp24
 70
     1
102
RTVSPropertyOp25
 70
     1
102
RTVSPropertyOp26
 70
     1
102
RTVSPropertyOp27
 70
     1
102
RTVSPropertyOp28
 70
     1
102
RTVSPropertyOp29
 70
     1
102
RTVSPropertyOp30
 70
     1
102
RTVSPropertyOp31
 70
     1
102
RTVSPropertyOp32
 70
     1
102
RTVSPropertyOp33
 70
     1
102
RTVSPropertyOp34
 70
     1
102
RTVSPropertyOp35
 70
     1
102
RTVSPropertyOp36
 70
     1
102
RTVSPropertyOp37
 70
     1
102
RTVSPropertyOp38
 70
     1
102
RTVSPropertyOp39
 70
     1
102
RTVSPropertyOp40
 70
     1
102
RTVSPropertyOp41
 70
     1
102
RTVSPropertyOp42
 70
     1
102
RTVSPropertyOp43
 70
     1
102
RTVSPropertyOp44
 70
     1
102
RTVSPropertyOp45
 70
     1
102
RTVSPropertyOp46
 70
     1
102
RTVSPropertyOp47
 70
     1
102
RTVSPropertyOp48
 70
     1
102
RTVSPropertyOp49
 70
     1
102
RTVSPropertyOp50
 70
     1
102
RTVSPropertyOp51
 70
     0
102
RTVSPropertyOp52
 70
     0
102
RTVSPropertyOp53
 70
     1
102
RTVSPropertyOp54
 70
     1
102
RTVSPropertyOp55
 70
     1
102
RTVSPropertyOp56
 70
     1
102
RTVSPropertyOp57
 70
     1
102
RTVSPropertyOp58
 70
     1
102
RTVSPropertyOp59
 70
     1
102
RTVSPropertyOp60
 70
     1
102
RTVSPropertyOp61
 70
     1
102
RTVSPropertyOp62
 70
     1
  0
XRECORD
  5
9967
102
{ACAD_REACTORS
330
9966
102
}
330
9966
100
AcDbXrecord
280
     1
102
RTVSPost2010Prop28
280
     0
102
RTVSPost2010PropOp28
 70
     1
102
RTVSPost2010Prop29
280
     1
102
RTVSPost2010PropOp29
 70
     1
102
RTVSPost2010Prop30
280
     1
102
RTVSPost2010PropOp30
 70
     1
102
RTVSPost2010Prop31
280
     0
102
RTVSPost2010PropOp31
 70
     1
102
RTVSPost2010Prop32
280
     0
102
RTVSPost2010PropOp32
 70
     1
102
RTVSPost2010Prop33
280
     0
102
RTVSPost2010PropOp33
 70
     1
102
RTVSPost2010Prop34
280
     0
102
RTVSPost2010PropOp34
 70
     1
102
RTVSPost2010Prop35
280
     0
102
RTVSPost2010PropOp35
 70
     1
102
RTVSPost2010Prop36
280
     0
102
RTVSPost2010PropOp36
 70
     1
102
RTVSPost2010Prop37
 90
       50
102
RTVSPost2010PropOp37
 70
     1
102
RTVSPost2010Prop38
140
0.0
102
RTVSPost2010PropOp38
 70
     1
102
RTVSPost2010Prop39
140
1.0
102
RTVSPost2010PropOp39
 70
     1
102
RTVSPost2010Prop40
 90
        0
102
RTVSPost2010PropOp40
 70
     1
102
RTVSPost2010Prop41ColorIndex
 90
       18
102
RTVSPost2010Prop41ColorRGB
 90
        0
102
RTVSPost2010PropOp41
 70
     1
102
RTVSPost2010Prop42
 90
       50
102
RTVSPost2010PropOp42
 70
     1
102
RTVSPost2010Prop43
 90
        3
102
RTVSPost2010PropOp43
 70
     1
102
RTVSPost2010Prop44ColorIndex
 90
        5
102
RTVSPost2010Prop44ColorRGB
 90
      255
102
RTVSPost2010PropOp44
 70
     1
102
RTVSPost2010Prop45
280
     0
102
RTVSPost2010PropOp45
 70
     1
102
RTVSPost2010Prop46
 90
       50
102
RTVSPost2010PropOp46
 70
     1
102
RTVSPost2010Prop47
 90
       50
102
RTVSPost2010PropOp47
 70
     1
102
RTVSPost2010Prop48
 90
       50
102
RTVSPost2010PropOp48
 70
     1
102
RTVSPost2010Prop49
280
     0
102
RTVSPost2010PropOp49
 70
     1
102
RTVSPost2010Prop50
 90
       50
102
RTVSPost2010PropOp50
 70
     1
102
RTVSPost2010Prop51ColorIndex
 90
      256
102
RTVSPost2010Prop51ColorRGB
 90
-16777216
102
RTVSPost2010PropOp51
 70
     0
102
RTVSPost2010Prop52
140
1.0
102
RTVSPost2010PropOp52
 70
     0
102
RTVSPost2010Prop53
 90
        2
102
RTVSPost2010PropOp53
 70
     1
102
RTVSPost2010Prop54
  1
strokes_ogs.tif
102
RTVSPost2010PropOp54
 70
     1
102
RTVSPost2010Prop55
280
     0
102
RTVSPost2010PropOp55
 70
     1
102
RTVSPost2010Prop56
140
1.0
102
RTVSPost2010PropOp56
 70
     1
102
RTVSPost2010Prop57
140
1.0
102
RTVSPost2010PropOp57
 70
     1
102
RTVSPropertyOp0
 70
     1
102
RTVSPropertyOp1
 70
     1
102
RTVSPropertyOp2
 70
     1
102
RTVSPropertyOp3
 70
     1
102
RTVSPropertyOp4
 70
     1
102
RTVSPropertyOp5
 70
     1
102
RTVSPropertyOp6
 70
     1
102
RTVSPropertyOp7
 70
     1
102
RTVSPropertyOp8
 70
     1
102
RTVSPropertyOp9
 70
     1
102
RTVSPropertyOp10
 70
     1
102
RTVSPropertyOp11
 70
     1
102
RTVSPropertyOp12
 70
     1
102
RTVSPropertyOp13
 70
     1
102
RTVSPropertyOp14
 70
     1
102
RTVSPropertyOp15
 70
     1
102
RTVSPropertyOp16
 70
     1
102
RTVSPropertyOp17
 70
     1
102
RTVSPropertyOp18
 70
     1
102
RTVSPropertyOp19
 70
     1
102
RTVSPropertyOp20
 70
     1
102
RTVSPropertyOp21
 70
     1
102
RTVSPropertyOp22
 70
     1
102
RTVSPropertyOp23
 70
     1
102
RTVSPropertyOp24
 70
     1
102
RTVSPropertyOp25
 70
     1
102
RTVSPropertyOp26
 70
     1
102
RTVSPropertyOp27
 70
     1
102
RTVSPropertyOp28
 70
     1
102
RTVSPropertyOp29
 70
     1
102
RTVSPropertyOp30
 70
     1
102
RTVSPropertyOp31
 70
     1
102
RTVSPropertyOp32
 70
     1
102
RTVSPropertyOp33
 70
     1
102
RTVSPropertyOp34
 70
     1
102
RTVSPropertyOp35
 70
     1
102
RTVSPropertyOp36
 70
     1
102
RTVSPropertyOp37
 70
     1
102
RTVSPropertyOp38
 70
     1
102
RTVSPropertyOp39
 70
     1
102
RTVSPropertyOp40
 70
     1
102
RTVSPropertyOp41
 70
     1
102
RTVSPropertyOp42
 70
     1
102
RTVSPropertyOp43
 70
     1
102
RTVSPropertyOp44
 70
     1
102
RTVSPropertyOp45
 70
     1
102
RTVSPropertyOp46
 70
     1
102
RTVSPropertyOp47
 70
     1
102
RTVSPropertyOp48
 70
     1
102
RTVSPropertyOp49
 70
     1
102
RTVSPropertyOp50
 70
     1
102
RTVSPropertyOp51
 70
     0
102
RTVSPropertyOp52
 70
     0
102
RTVSPropertyOp53
 70
     1
102
RTVSPropertyOp54
 70
     1
102
RTVSPropertyOp55
 70
     1
102
RTVSPropertyOp56
 70
     1
102
RTVSPropertyOp57
 70
     1
102
RTVSPropertyOp58
 70
     1
102
RTVSPropertyOp59
 70
     1
102
RTVSPropertyOp60
 70
     1
102
RTVSPropertyOp61
 70
     1
102
RTVSPropertyOp62
 70
     1
  0
ENDSEC
  0
EOF
