  0
SECTION
  2
HEADER
  9
$ACADVER
  1
AC1015
  9
$ACADMAINTVER
 70
    20
  9
$DWGCODEPAGE
  3
ANSI_932
  9
$INSBASE
 10
0.0
 20
0.0
 30
0.0
  9
$EXTMIN
 10
10.000001
 20
10.000001
 30
0.0
  9
$EXTMAX
 10
425.5522809999998
 20
263.690806
 30
0.0
  9
$LIMMIN
 10
0.0
 20
0.0
  9
$LIMMAX
 10
495.0
 20
341.25
  9
$ORTHOMODE
 70
     0
  9
$REGENMODE
 70
     1
  9
$FILLMODE
 70
     1
  9
$QTEXTMODE
 70
     0
  9
$MIRRTEXT
 70
     1
  9
$LTSCALE
 40
20.0
  9
$ATTMODE
 70
     1
  9
$TEXTSIZE
 40
5.0
  9
$TRACEWID
 40
1.0
  9
$TEXTSTYLE
  7
STANDARD
  9
$CLAYER
  8
0
  9
$CELTYPE
  6
BYLAYER
  9
$CECOLOR
 62
   256
  9
$CELTSCALE
 40
1.0
  9
$DISPSILH
 70
     0
  9
$DIMSCALE
 40
1.0
  9
$DIMASZ
 40
2.5
  9
$DIMEXO
 40
1.0
  9
$DIMDLI
 40
10.0
  9
$DIMRND
 40
0.0
  9
$DIMDLE
 40
0.0
  9
$DIMEXE
 40
1.0
  9
$DIMTP
 40
0.0
  9
$DIMTM
 40
0.0
  9
$DIMTXT
 40
3.2
  9
$DIMCEN
 40
0.0
  9
$DIMTSZ
 40
0.0
  9
$DIMTOL
 70
     0
  9
$DIMLIM
 70
     0
  9
$DIMTIH
 70
     0
  9
$DIMTOH
 70
     0
  9
$DIMSE1
 70
     0
  9
$DIMSE2
 70
     0
  9
$DIMTAD
 70
     3
  9
$DIMZIN
 70
     8
  9
$DIMBLK
  1

  9
$DIMASO
 70
     1
  9
$DIMSHO
 70
     1
  9
$DIMPOST
  1

  9
$DIMAPOST
  1

  9
$DIMALT
 70
     0
  9
$DIMALTD
 70
     2
  9
$DIMALTF
 40
25.4
  9
$DIMLFAC
 40
1.0
  9
$DIMTOFL
 70
     1
  9
$DIMTVP
 40
0.0
  9
$DIMTIX
 70
     0
  9
$DIMSOXD
 70
     0
  9
$DIMSAH
 70
     1
  9
$DIMBLK1
  1
OPEN
  9
$DIMBLK2
  1
OPEN
  9
$DIMSTYLE
  2
STANDARD
  9
$DIMCLRD
 70
     0
  9
$DIMCLRE
 70
     0
  9
$DIMCLRT
 70
     0
  9
$DIMTFAC
 40
1.0
  9
$DIMGAP
 40
1.0
  9
$DIMJUST
 70
     0
  9
$DIMSD1
 70
     0
  9
$DIMSD2
 70
     0
  9
$DIMTOLJ
 70
     1
  9
$DIMTZIN
 70
     0
  9
$DIMALTZ
 70
     0
  9
$DIMALTTZ
 70
     0
  9
$DIMUPT
 70
     0
  9
$DIMDEC
 70
     4
  9
$DIMTDEC
 70
     4
  9
$DIMALTU
 70
     2
  9
$DIMALTTD
 70
     2
  9
$DIMTXSTY
  7
STANDARD
  9
$DIMAUNIT
 70
     0
  9
$DIMADEC
 70
     0
  9
$DIMALTRND
 40
0.0
  9
$DIMAZIN
 70
     0
  9
$DIMDSEP
 70
    46
  9
$DIMATFIT
 70
     3
  9
$DIMFRAC
 70
     0
  9
$DIMLDRBLK
  1
OPEN
  9
$DIMLUNIT
 70
     2
  9
$DIMLWD
 70
    -2
  9
$DIMLWE
 70
    -2
  9
$DIMTMOVE
 70
     0
  9
$LUNITS
 70
     2
  9
$LUPREC
 70
     4
  9
$SKETCHINC
 40
1.0
  9
$FILLETRAD
 40
2.5
  9
$AUNITS
 70
     0
  9
$AUPREC
 70
     2
  9
$MENU
  1
.
  9
$ELEVATION
 40
0.0
  9
$PELEVATION
 40
0.0
  9
$THICKNESS
 40
0.0
  9
$LIMCHECK
 70
     0
  9
$CHAMFERA
 40
10.0
  9
$CHAMFERB
 40
10.0
  9
$CHAMFERC
 40
0.0
  9
$CHAMFERD
 40
0.0
  9
$SKPOLY
 70
     0
  9
$TDCREATE
 40
2451344.659119213
  9
$TDUCREATE
 40
2451344.284119213
  9
$TDUPDATE
 40
2457192.601360509
  9
$TDUUPDATE
 40
2457192.226360509
  9
$TDINDWG
 40
0.0000144792
  9
$TDUSRTIMER
 40
0.0000141782
  9
$USRTIMER
 70
     1
  9
$ANGBASE
 50
0.0
  9
$ANGDIR
 70
     0
  9
$PDMODE
 70
     0
  9
$PDSIZE
 40
0.0
  9
$PLINEWID
 40
0.0
  9
$SPLFRAME
 70
     0
  9
$SPLINETYPE
 70
     6
  9
$SPLINESEGS
 70
     8
  9
$HANDSEED
  5
AB5A
  9
$SURFTAB1
 70
     6
  9
$SURFTAB2
 70
     6
  9
$SURFTYPE
 70
     6
  9
$SURFU
 70
     6
  9
$SURFV
 70
     6
  9
$UCSBASE
  2

  9
$UCSNAME
  2

  9
$UCSORG
 10
0.0
 20
0.0
 30
0.0
  9
$UCSXDIR
 10
1.0
 20
0.0
 30
0.0
  9
$UCSYDIR
 10
0.0
 20
1.0
 30
0.0
  9
$UCSORTHOREF
  2

  9
$UCSORTHOVIEW
 70
     0
  9
$UCSORGTOP
 10
0.0
 20
0.0
 30
0.0
  9
$UCSORGBOTTOM
 10
0.0
 20
0.0
 30
0.0
  9
$UCSORGLEFT
 10
0.0
 20
0.0
 30
0.0
  9
$UCSORGRIGHT
 10
0.0
 20
0.0
 30
0.0
  9
$UCSORGFRONT
 10
0.0
 20
0.0
 30
0.0
  9
$UCSORGBACK
 10
0.0
 20
0.0
 30
0.0
  9
$PUCSBASE
  2

  9
$PUCSNAME
  2

  9
$PUCSORG
 10
0.0
 20
0.0
 30
0.0
  9
$PUCSXDIR
 10
1.0
 20
0.0
 30
0.0
  9
$PUCSYDIR
 10
0.0
 20
1.0
 30
0.0
  9
$PUCSORTHOREF
  2

  9
$PUCSORTHOVIEW
 70
     0
  9
$PUCSORGTOP
 10
0.0
 20
0.0
 30
0.0
  9
$PUCSORGBOTTOM
 10
0.0
 20
0.0
 30
0.0
  9
$PUCSORGLEFT
 10
0.0
 20
0.0
 30
0.0
  9
$PUCSORGRIGHT
 10
0.0
 20
0.0
 30
0.0
  9
$PUCSORGFRONT
 10
0.0
 20
0.0
 30
0.0
  9
$PUCSORGBACK
 10
0.0
 20
0.0
 30
0.0
  9
$USERI1
 70
     0
  9
$USERI2
 70
     0
  9
$USERI3
 70
     0
  9
$USERI4
 70
     0
  9
$USERI5
 70
     0
  9
$USERR1
 40
0.0
  9
$USERR2
 40
0.0
  9
$USERR3
 40
0.0
  9
$USERR4
 40
0.0
  9
$USERR5
 40
0.0
  9
$WORLDVIEW
 70
     1
  9
$SHADEDGE
 70
     3
  9
$SHADEDIF
 70
    70
  9
$TILEMODE
 70
     1
  9
$MAXACTVP
 70
    16
  9
$PINSBASE
 10
0.0
 20
0.0
 30
0.0
  9
$PLIMCHECK
 70
     0
  9
$PEXTMIN
 10
1.000000000000000E+20
 20
1.000000000000000E+20
 30
1.000000000000000E+20
  9
$PEXTMAX
 10
-1.000000000000000E+20
 20
-1.000000000000000E+20
 30
-1.000000000000000E+20
  9
$PLIMMIN
 10
0.0
 20
0.0
  9
$PLIMMAX
 10
420.0
 20
297.0
  9
$UNITMODE
 70
     0
  9
$VISRETAIN
 70
     0
  9
$PLINEGEN
 70
     0
  9
$PSLTSCALE
 70
     0
  9
$TREEDEPTH
 70
  3020
  9
$CMLSTYLE
  2
STANDARD
  9
$CMLJUST
 70
     0
  9
$CMLSCALE
 40
1.0
  9
$PROXYGRAPHICS
 70
     1
  9
$MEASUREMENT
 70
     0
  9
$CELWEIGHT
370
    -1
  9
$ENDCAPS
280
     0
  9
$JOINSTYLE
280
     0
  9
$LWDISPLAY
290
     0
  9
$INSUNITS
 70
     0
  9
$HYPERLINKBASE
  1

  9
$STYLESHEET
  1

  9
$XEDIT
290
     1
  9
$CEPSNTYPE
380
     0
  9
$PSTYLEMODE
290
     1
  9
$FINGERPRINTGUID
  2
{EA07BB67-7E08-4897-B98D-52DE090BA313}
  9
$VERSIONGUID
  2
{B9A73156-ACD0-479B-AA15-0D49E08A9076}
  9
$EXTNAMES
290
     1
  9
$PSVPSCALE
 40
0.0
  9
$OLESTARTUP
290
     0
  0
ENDSEC
  0
SECTION
  2
CLASSES
  0
CLASS
  1
ACDBDICTIONARYWDFLT
  2
AcDbDictionaryWithDefault
  3
ObjectDBX Classes
 90
        0
280
     0
281
     0
  0
CLASS
  1
ACDBPLACEHOLDER
  2
AcDbPlaceHolder
  3
ObjectDBX Classes
 90
        0
280
     0
281
     0
  0
CLASS
  1
LAYOUT
  2
AcDbLayout
  3
ObjectDBX Classes
 90
        0
280
     0
281
     0
  0
CLASS
  1
DICTIONARYVAR
  2
AcDbDictionaryVar
  3
ObjectDBX Classes
 90
        0
280
     0
281
     0
  0
CLASS
  1
MATERIAL
  2
AcDbMaterial
  3
ObjectDBX Classes
 90
     1153
280
     0
281
     0
  0
CLASS
  1
VISUALSTYLE
  2
AcDbVisualStyle
  3
ObjectDBX Classes
 90
     4095
280
     0
281
     0
  0
CLASS
  1
TABLESTYLE
  2
AcDbTableStyle
  3
ObjectDBX Classes
 90
     4095
280
     0
281
     0
  0
CLASS
  1
SCALE
  2
AcDbScale
  3
ObjectDBX Classes
 90
     1153
280
     0
281
     0
  0
CLASS
  1
MLEADERSTYLE
  2
AcDbMLeaderStyle
  3
ACDB_MLEADERSTYLE_CLASS
 90
     4095
280
     0
281
     0
  0
CLASS
  1
ACDBSECTIONVIEWSTYLE
  2
AcDbSectionViewStyle
  3
ObjectDBX Classes
 90
     1025
280
     0
281
     0
  0
CLASS
  1
ACDBDETAILVIEWSTYLE
  2
AcDbDetailViewStyle
  3
ObjectDBX Classes
 90
     1025
280
     0
281
     0
  0
CLASS
  1
CELLSTYLEMAP
  2
AcDbCellStyleMap
  3
ObjectDBX Classes
 90
     1152
280
     0
281
     0
  0
ENDSEC
  0
SECTION
  2
TABLES
  0
TABLE
  2
VPORT
  5
A7AD
330
0
100
AcDbSymbolTable
 70
     1
  0
VPORT
  5
AAA3
330
A7AD
100
AcDbSymbolTableRecord
100
AcDbViewportTableRecord
  2
*ACTIVE
 70
     0
 10
0.0
 20
0.0
 11
1.0
 21
1.0
 12
294.6239684456102
 22
136.8441875380454
 13
0.0
 23
0.0
 14
10.0
 24
10.0
 15
10.0
 25
10.0
 16
0.0
 26
0.0
 36
1.0
 17
0.0
 27
0.0
 37
0.0
 40
256.5517288161938
 41
1.899603698811096
 42
50.0
 43
0.0
 44
0.0
 50
0.0
 51
0.0
 71
     0
 72
   100
 73
     1
 74
     0
 75
     0
 76
     0
 77
     0
 78
     0
281
     0
 65
     1
110
0.0
120
0.0
130
0.0
111
1.0
121
0.0
131
0.0
112
0.0
122
1.0
132
0.0
 79
     0
146
0.0
1001
ACAD_NAV_VCDISPLAY
1070
     3
  0
ENDTAB
  0
TABLE
  2
LTYPE
  5
A7AA
330
0
100
AcDbSymbolTable
 70
     4
  0
LTYPE
  5
A7B8
330
A7AA
100
AcDbSymbolTableRecord
100
AcDbLinetypeTableRecord
  2
BYBLOCK
 70
     0
  3

 72
    65
 73
     0
 40
0.0
  0
LTYPE
  5
A7B9
330
A7AA
100
AcDbSymbolTableRecord
100
AcDbLinetypeTableRecord
  2
BYLAYER
 70
     0
  3

 72
    65
 73
     0
 40
0.0
  0
LTYPE
  5
A7BA
330
A7AA
100
AcDbSymbolTableRecord
100
AcDbLinetypeTableRecord
  2
CONTINUOUS
 70
     0
  3
Solid line
 72
    65
 73
     0
 40
0.0
  0
LTYPE
  5
A7C8
330
A7AA
100
AcDbSymbolTableRecord
100
AcDbLinetypeTableRecord
  2
DASHED
 70
     0
  3
__ __ __ __ __ __ __ __ __ __ __ __ __ __ __ __
 72
    65
 73
     2
 40
0.75
 49
0.5
 74
     0
 49
-0.25
 74
     0
  0
LTYPE
  5
A7C9
330
A7AA
100
AcDbSymbolTableRecord
100
AcDbLinetypeTableRecord
  2
CENTER
 70
     0
  3
____ _ ____ _ ____ _ ____ _ ____ _ ____ _ ____ 
 72
    65
 73
     4
 40
2.0
 49
1.25
 74
     0
 49
-0.25
 74
     0
 49
0.25
 74
     0
 49
-0.25
 74
     0
  0
LTYPE
  5
A7CA
330
A7AA
100
AcDbSymbolTableRecord
100
AcDbLinetypeTableRecord
  2
PHANTOM
 70
     0
  3
______  __  __  ______  __  __  ______  __  __ 
 72
    65
 73
     6
 40
2.5
 49
1.25
 74
     0
 49
-0.25
 74
     0
 49
0.25
 74
     0
 49
-0.25
 74
     0
 49
0.25
 74
     0
 49
-0.25
 74
     0
  0
ENDTAB
  0
TABLE
  2
LAYER
  5
A7A7
330
0
100
AcDbSymbolTable
 70
     8
  0
LAYER
  5
A7B5
102
{ACAD_XDICTIONARY
360
AAFE
102
}
330
A7A7
100
AcDbSymbolTableRecord
100
AcDbLayerTableRecord
  2
0
 70
     0
 62
     7
  6
CONTINUOUS
370
    -3
390
AAAC
  0
LAYER
  5
A7CB
102
{ACAD_XDICTIONARY
360
AB00
102
}
330
A7A7
100
AcDbSymbolTableRecord
100
AcDbLayerTableRecord
  2
4
 70
     0
 62
     1
  6
CENTER
370
    -3
390
AAAC
  0
LAYER
  5
A7CC
102
{ACAD_XDICTIONARY
360
AB02
102
}
330
A7A7
100
AcDbSymbolTableRecord
100
AcDbLayerTableRecord
  2
5
 70
     0
 62
     6
  6
PHANTOM
370
    -3
390
AAAC
  0
LAYER
  5
A7CD
102
{ACAD_XDICTIONARY
360
AB04
102
}
330
A7A7
100
AcDbSymbolTableRecord
100
AcDbLayerTableRecord
  2
1
 70
     0
 62
     7
  6
CONTINUOUS
370
    -3
390
AAAC
  0
LAYER
  5
A7CE
102
{ACAD_XDICTIONARY
360
AB06
102
}
330
A7A7
100
AcDbSymbolTableRecord
100
AcDbLayerTableRecord
  2
2
 70
     0
 62
     4
  6
CONTINUOUS
370
    -3
390
AAAC
  0
LAYER
  5
A7CF
102
{ACAD_XDICTIONARY
360
AB08
102
}
330
A7A7
100
AcDbSymbolTableRecord
100
AcDbLayerTableRecord
  2
3
 70
     0
 62
     2
  6
DASHED
370
    -3
390
AAAC
  0
LAYER
  5
A7D0
102
{ACAD_XDICTIONARY
360
AB0A
102
}
330
A7A7
100
AcDbSymbolTableRecord
100
AcDbLayerTableRecord
  2
6
 70
     0
 62
     5
  6
CONTINUOUS
370
    -3
390
AAAC
  0
LAYER
  5
A7D1
102
{ACAD_XDICTIONARY
360
AB0C
102
}
330
A7A7
100
AcDbSymbolTableRecord
100
AcDbLayerTableRecord
  2
7
 70
     0
 62
     3
  6
CONTINUOUS
370
    -3
390
AAAC
  0
ENDTAB
  0
TABLE
  2
STYLE
  5
A7A8
330
0
100
AcDbSymbolTable
 70
     1
  0
STYLE
  5
A7B6
330
A7A8
100
AcDbSymbolTableRecord
100
AcDbTextStyleTableRecord
  2
STANDARD
 70
     0
 40
0.0
 41
1.0
 50
0.0
 71
     0
 42
5.0
  3
txt
  4

  0
ENDTAB
  0
TABLE
  2
VIEW
  5
A7AB
330
0
100
AcDbSymbolTable
 70
     0
  0
ENDTAB
  0
TABLE
  2
UCS
  5
A7AC
330
0
100
AcDbSymbolTable
 70
     0
  0
ENDTAB
  0
TABLE
  2
APPID
  5
A7AE
330
0
100
AcDbSymbolTable
 70
     3
  0
APPID
  5
A7B7
330
A7AE
100
AcDbSymbolTableRecord
100
AcDbRegAppTableRecord
  2
ACAD
 70
     0
  0
APPID
  5
AB18
330
A7AE
100
AcDbSymbolTableRecord
100
AcDbRegAppTableRecord
  2
ACAD_NAV_VCDISPLAY
 70
     0
  0
APPID
  5
AB51
330
A7AE
100
AcDbSymbolTableRecord
100
AcDbRegAppTableRecord
  2
ACAD_MLEADERVER
 70
     0
  0
ENDTAB
  0
TABLE
  2
DIMSTYLE
  5
A7AF
330
0
100
AcDbSymbolTable
 70
     1
100
AcDbDimStyleTable
 71
     0
  0
DIMSTYLE
105
A7D3
330
A7AF
100
AcDbSymbolTableRecord
100
AcDbDimStyleTableRecord
  2
STANDARD
 70
     0
 41
2.5
 42
1.0
 43
10.0
 44
1.0
 73
     0
 74
     0
 77
     3
 78
     8
140
3.2
141
0.0
147
1.0
172
     1
173
     1
284
     8
285
     8
286
     8
340
A7B6
  0
ENDTAB
  0
TABLE
  2
BLOCK_RECORD
  5
A7A6
330
0
100
AcDbSymbolTable
 70
     1
  0
BLOCK_RECORD
  5
A7C3
102
{ACAD_XDICTIONARY
360
AAA6
102
}
330
A7A6
100
AcDbSymbolTableRecord
100
AcDbBlockTableRecord
  2
*MODEL_SPACE
340
AAFA
  0
BLOCK_RECORD
  5
A7BF
102
{ACAD_XDICTIONARY
360
AAA4
102
}
330
A7A6
100
AcDbSymbolTableRecord
100
AcDbBlockTableRecord
  2
*PAPER_SPACE
340
AAFB
  0
BLOCK_RECORD
  5
A7DB
330
A7A6
100
AcDbSymbolTableRecord
100
AcDbBlockTableRecord
  2
_OPEN
340
0
  0
ENDTAB
  0
ENDSEC
  0
SECTION
  2
BLOCKS
  0
BLOCK
  5
A7C4
330
A7C3
100
AcDbEntity
  8
0
100
AcDbBlockBegin
  2
*MODEL_SPACE
 70
     0
 10
0.0
 20
0.0
 30
0.0
  3
*MODEL_SPACE
  1

  0
ENDBLK
  5
A7C5
330
A7C3
100
AcDbEntity
  8
0
100
AcDbBlockEnd
  0
BLOCK
  5
A7C0
330
A7BF
100
AcDbEntity
 67
     1
  8
0
100
AcDbBlockBegin
  2
*PAPER_SPACE
 70
     0
 10
0.0
 20
0.0
 30
0.0
  3
*PAPER_SPACE
  1

  0
ENDBLK
  5
A7C1
330
A7BF
100
AcDbEntity
 67
     1
  8
0
100
AcDbBlockEnd
  0
BLOCK
  5
A7DC
330
A7DB
100
AcDbEntity
  8
0
100
AcDbBlockBegin
  2
_OPEN
 70
     0
 10
0.0
 20
0.0
 30
0.0
  3
_OPEN
  1

  0
LINE
  5
A7DD
330
A7DB
100
AcDbEntity
  8
0
  6
ByBlock
 62
     0
100
AcDbLine
 10
-1.0
 20
0.166667
 30
0.0
 11
0.0
 21
0.0
 31
0.0
  0
LINE
  5
A7DE
330
A7DB
100
AcDbEntity
  8
0
  6
ByBlock
 62
     0
100
AcDbLine
 10
0.0
 20
0.0
 30
0.0
 11
-1.0
 21
-0.166667
 31
0.0
  0
LINE
  5
A7DF
330
A7DB
100
AcDbEntity
  8
0
  6
ByBlock
 62
     0
100
AcDbLine
 10
0.0
 20
0.0
 30
0.0
 11
-1.0
 21
0.0
 31
0.0
  0
ENDBLK
  5
A7E0
330
A7DB
100
AcDbEntity
  8
0
100
AcDbBlockEnd
  0
ENDSEC
  0
SECTION
  2
ENTITIES
  0
LINE
  5
A7E1
330
A7C3
100
AcDbEntity
  8
1
  6
Continuous
100
AcDbLine
 10
100.4556449999999
 20
161.6507239999999
 30
0.0
 11
100.4556449999999
 21
181.6507239999999
 31
0.0
  0
LINE
  5
A7E2
330
A7C3
100
AcDbEntity
  8
1
  6
Continuous
100
AcDbLine
 10
102.4556449999999
 20
161.1507239999999
 30
0.0
 11
102.4556449999999
 21
182.150724
 31
0.0
  0
LINE
  5
A7E3
330
A7C3
100
AcDbEntity
  8
1
  6
Continuous
100
AcDbLine
 10
98.355645
 20
176.950724
 30
0.0
 11
98.355645
 21
166.3507239999999
 31
0.0
  0
LINE
  5
A7E4
330
A7C3
100
AcDbEntity
  8
1
  6
Continuous
100
AcDbLine
 10
99.79950399999999
 20
175.81582
 30
0.0
 11
98.66297900000001
 21
176.1793999999999
 31
0.0
  0
LINE
  5
A7E5
330
A7C3
100
AcDbEntity
  8
1
  6
Continuous
100
AcDbLine
 10
95.35564499999999
 20
177.150724
 30
0.0
 11
95.35564499999999
 21
175.6507239999999
 31
0.0
  0
LINE
  5
A7E6
330
A7C3
100
AcDbEntity
  8
1
  6
Continuous
100
AcDbLine
 10
92.805645
 20
176.050724
 30
0.0
 11
92.11282399999999
 21
175.6507239999999
 31
0.0
  0
LINE
  5
A7E7
330
A7C3
100
AcDbEntity
  8
1
  6
Continuous
100
AcDbLine
 10
93.10564499999999
 20
176.050724
 30
0.0
 11
93.15564499999997
 21
175.8507239999999
 31
0.0
  0
LINE
  5
A7E8
330
A7C3
100
AcDbEntity
  8
1
  6
Continuous
100
AcDbLine
 10
93.10564499999999
 20
176.050724
 30
0.0
 11
93.15564499999997
 21
175.8507239999999
 31
0.0
  0
LINE
  5
A7E9
330
A7C3
100
AcDbEntity
  8
4
  6
CENTER
100
AcDbLine
 10
32.01450100000001
 20
86.61114399999998
 30
0.0
 11
32.01450100000001
 21
99.61114399999999
 31
0.0
  0
TEXT
  5
A7EA
330
A7C3
100
AcDbEntity
  8
7
  6
Continuous
100
AcDbText
 10
10.000001
 20
26.000001
 30
0.0
 40
3.0
  1
CODE No.1439
100
AcDbText
  0
TEXT
  5
A7EB
330
A7C3
100
AcDbEntity
  8
7
  6
Continuous
100
AcDbText
 10
10.000001
 20
18.000001
 30
0.0
 40
3.0
  1
TYPE No.TL-304-1
100
AcDbText
  0
TEXT
  5
A7EC
330
A7C3
100
AcDbEntity
  8
1
  6
Continuous
100
AcDbText
 10
10.000001
 20
10.000001
 30
0.0
 40
1.399999999999999
  1
LAYER
100
AcDbText
  0
TEXT
  5
A7ED
330
A7C3
100
AcDbEntity
  8
5
  6
PHANTOM
100
AcDbText
 10
25.979512
 20
10.048738
 30
0.0
 40
1.399999999999999
  1
5
100
AcDbText
  0
TEXT
  5
A7EE
330
A7C3
100
AcDbEntity
  8
6
  6
Continuous
100
AcDbText
 10
27.97951199999999
 20
10.048738
 30
0.0
 40
1.399999999999999
  1
6
100
AcDbText
  0
TEXT
  5
A7EF
330
A7C3
100
AcDbEntity
  8
2
  6
Continuous
100
AcDbText
 10
19.979512
 20
10.048738
 30
0.0
 40
1.399999999999999
  1
2
100
AcDbText
  0
TEXT
  5
A7F0
330
A7C3
100
AcDbEntity
  8
3
  6
DASHED
100
AcDbText
 10
21.97951199999998
 20
10.048738
 30
0.0
 40
1.399999999999999
  1
3
100
AcDbText
  0
TEXT
  5
A7F1
330
A7C3
100
AcDbEntity
  8
4
  6
CENTER
100
AcDbText
 10
23.979512
 20
10.048738
 30
0.0
 40
1.399999999999999
  1
4
100
AcDbText
  0
TEXT
  5
A7F2
330
A7C3
100
AcDbEntity
  8
7
  6
Continuous
100
AcDbText
 10
29.979512
 20
10.048738
 30
0.0
 40
1.399999999999999
  1
7
100
AcDbText
  0
TEXT
  5
A7F3
330
A7C3
100
AcDbEntity
  8
1
  6
Continuous
100
AcDbText
 10
17.97951199999999
 20
10.048738
 30
0.0
 40
1.399999999999999
  1
1
100
AcDbText
  0
LINE
  5
A7F4
330
A7C3
100
AcDbEntity
  8
1
  6
Continuous
100
AcDbLine
 10
94.45559600000001
 20
52.480739
 30
0.0
 11
97.255596
 21
52.480739
 31
0.0
  0
LINE
  5
A7F5
330
A7C3
100
AcDbEntity
  8
1
  6
Continuous
100
AcDbLine
 10
94.45559600000001
 20
63.480739
 30
0.0
 11
97.255596
 21
63.480739
 31
0.0
  0
LINE
  5
A7F6
330
A7C3
100
AcDbEntity
  8
4
  6
CENTER
100
AcDbLine
 10
79.25559599999998
 20
57.980739
 30
0.0
 11
104.455596
 21
57.980739
 31
0.0
  0
LINE
  5
A7F7
330
A7C3
100
AcDbEntity
  8
1
  6
Continuous
100
AcDbLine
 10
83.00559599999997
 20
53.98073899999999
 30
0.0
 11
94.45559600000001
 21
53.98073899999999
 31
0.0
  0
ARC
  5
A7F8
330
A7C3
100
AcDbEntity
  8
1
  6
Continuous
100
AcDbCircle
 10
83.00559599999997
 20
54.730739
 30
0.0
 40
0.75
100
AcDbArc
 50
180.0
 51
270.0
  0
LINE
  5
A7F9
330
A7C3
100
AcDbEntity
  8
1
  6
Continuous
100
AcDbLine
 10
91.905596
 20
53.580739
 30
0.0
 11
92.20559599999999
 21
53.580739
 31
0.0
  0
LINE
  5
A7FA
330
A7C3
100
AcDbEntity
  8
1
  6
Continuous
100
AcDbLine
 10
91.905596
 20
53.580739
 30
0.0
 11
91.212776
 21
53.98073899999999
 31
0.0
  0
ARC
  5
A7FB
330
A7C3
100
AcDbEntity
  8
1
  6
Continuous
100
AcDbCircle
 10
93.955596
 20
53.480739
 30
0.0
 40
0.5
100
AcDbArc
 50
0.0
 51
90.0
  0
LINE
  5
A7FC
330
A7C3
100
AcDbEntity
  8
1
  6
Continuous
100
AcDbLine
 10
92.255596
 20
53.780739
 30
0.0
 11
92.57559599999996
 21
53.98073899999999
 31
0.0
  0
LINE
  5
A7FD
330
A7C3
100
AcDbEntity
  8
1
  6
Continuous
100
AcDbLine
 10
92.20559599999999
 20
53.580739
 30
0.0
 11
92.255596
 21
53.780739
 31
0.0
  0
LINE
  5
A7FE
330
A7C3
100
AcDbEntity
  8
1
  6
Continuous
100
AcDbLine
 10
94.45559600000001
 20
52.480739
 30
0.0
 11
94.45559600000001
 21
53.98073899999999
 31
0.0
  0
LINE
  5
A7FF
330
A7C3
100
AcDbEntity
  8
1
  6
Continuous
100
AcDbLine
 10
83.00559599999997
 20
61.980739
 30
0.0
 11
94.45559600000001
 21
61.980739
 31
0.0
  0
ARC
  5
A800
330
A7C3
100
AcDbEntity
  8
1
  6
Continuous
100
AcDbCircle
 10
83.00559599999997
 20
61.230739
 30
0.0
 40
0.75
100
AcDbArc
 50
90.0
 51
180.0
  0
LINE
  5
A801
330
A7C3
100
AcDbEntity
  8
1
  6
Continuous
100
AcDbLine
 10
91.905596
 20
62.38073899999999
 30
0.0
 11
92.20559599999999
 21
62.38073899999999
 31
0.0
  0
LINE
  5
A802
330
A7C3
100
AcDbEntity
  8
1
  6
Continuous
100
AcDbLine
 10
91.905596
 20
62.38073899999999
 30
0.0
 11
91.212776
 21
61.980739
 31
0.0
  0
ARC
  5
A803
330
A7C3
100
AcDbEntity
  8
1
  6
Continuous
100
AcDbCircle
 10
93.955596
 20
62.480739
 30
0.0
 40
0.5
100
AcDbArc
 50
270.0
 51
0.0
  0
LINE
  5
A804
330
A7C3
100
AcDbEntity
  8
1
  6
Continuous
100
AcDbLine
 10
92.255596
 20
62.180739
 30
0.0
 11
92.57559599999996
 21
61.980739
 31
0.0
  0
LINE
  5
A805
330
A7C3
100
AcDbEntity
  8
1
  6
Continuous
100
AcDbLine
 10
92.20559599999999
 20
62.38073899999999
 30
0.0
 11
92.255596
 21
62.180739
 31
0.0
  0
LINE
  5
A806
330
A7C3
100
AcDbEntity
  8
1
  6
Continuous
100
AcDbLine
 10
94.45559600000001
 20
63.480739
 30
0.0
 11
94.45559600000001
 21
61.980739
 31
0.0
  0
LINE
  5
A807
330
A7C3
100
AcDbEntity
  8
1
  6
Continuous
100
AcDbLine
 10
82.25559599999998
 20
54.730739
 30
0.0
 11
82.25559599999998
 21
61.230739
 31
0.0
  0
ARC
  5
A808
330
A7C3
100
AcDbEntity
  8
1
  6
Continuous
100
AcDbCircle
 10
97.255596
 20
52.680739
 30
0.0
 40
0.2
100
AcDbArc
 50
270.0
 51
0.0
  0
LINE
  5
A809
330
A7C3
100
AcDbEntity
  8
1
  6
Continuous
100
AcDbLine
 10
97.45559599999999
 20
55.030739
 30
0.0
 11
97.85881500000002
 21
55.030739
 31
0.0
  0
ARC
  5
A80A
330
A7C3
100
AcDbEntity
  8
1
  6
Continuous
100
AcDbCircle
 10
97.255596
 20
56.980739
 30
0.0
 40
1.3
100
AcDbArc
 50
304.4005
 51
0.0
  0
ARC
  5
A80B
330
A7C3
100
AcDbEntity
  8
1
  6
Continuous
100
AcDbCircle
 10
98.064706
 20
55.58984800000001
 30
0.0
 40
0.30911
100
AcDbArc
 50
120.187454
 51
270.0
  0
ARC
  5
A80C
330
A7C3
100
AcDbEntity
  8
1
  6
Continuous
100
AcDbCircle
 10
101.183939
 20
53.34058
 30
0.0
 40
0.5
100
AcDbArc
 50
27.5
 51
134.4999999999998
  0
LINE
  5
A80D
330
A7C3
100
AcDbEntity
  8
1
  6
Continuous
100
AcDbLine
 10
99.707146
 20
52.062968
 30
0.0
 11
98.30232100000001
 21
54.761613
 31
0.0
  0
ARC
  5
A80E
330
A7C3
100
AcDbEntity
  8
1
  6
Continuous
100
AcDbCircle
 10
101.9555959999999
 20
51.555045
 30
0.0
 40
0.5
100
AcDbArc
 50
328.421609
 51
19.23738999999999
  0
ARC
  5
A80F
330
A7C3
100
AcDbEntity
  8
1
  6
Continuous
100
AcDbCircle
 10
89.20941500000003
 20
47.107027
 30
0.0
 40
14.0
100
AcDbArc
 50
19.23738999999999
 51
27.5
  0
ARC
  5
A810
330
A7C3
100
AcDbEntity
  8
1
  6
Continuous
100
AcDbCircle
 10
101.894554
 20
51.455739
 30
0.0
 40
0.5
100
AcDbArc
 50
253.358025
 51
328.421609
  0
LINE
  5
A811
330
A7C3
100
AcDbEntity
  8
1
  6
Continuous
100
AcDbLine
 10
100.833485
 20
53.69720499999999
 30
0.0
 11
100.390694
 21
53.262075
 31
0.0
  0
LINE
  5
A812
330
A7C3
100
AcDbEntity
  8
1
  6
Continuous
100
AcDbLine
 10
102.3815589999999
 20
51.293213
 30
0.0
 11
102.320516
 21
51.193906
 31
0.0
  0
LINE
  5
A813
330
A7C3
100
AcDbEntity
  8
1
  6
Continuous
100
AcDbLine
 10
101.7513589999998
 20
50.97668200000001
 30
0.0
 11
100.608077
 21
51.318421
 31
0.0
  0
ARC
  5
A814
330
A7C3
100
AcDbEntity
  8
1
  6
Continuous
100
AcDbCircle
 10
98.918847
 20
55.65633100000001
 30
0.0
 40
0.2
100
AcDbArc
 50
3.691519
 51
136.4999999999998
  0
LINE
  5
A815
330
A7C3
100
AcDbEntity
  8
1
  6
Continuous
100
AcDbLine
 10
98.77377199999999
 20
55.794002
 30
0.0
 11
98.39021200000001
 21
55.389814
 31
0.0
  0
ARC
  5
A816
330
A7C3
100
AcDbEntity
  8
1
  6
Continuous
100
AcDbCircle
 10
102.4367929999999
 20
55.883304
 30
0.0
 40
3.325260999999998
100
AcDbArc
 50
183.691519
 51
232.0248229999999
  0
ARC
  5
A817
330
A7C3
100
AcDbEntity
  8
1
  6
Continuous
100
AcDbCircle
 10
101.0376629999999
 20
52.755591
 30
0.0
 40
1.5
100
AcDbArc
 50
207.5
 51
253.358025
  0
ARC
  5
A818
330
A7C3
100
AcDbEntity
  8
1
  6
Continuous
100
AcDbCircle
 10
97.85881500000002
 20
54.53073899999999
 30
0.0
 40
0.5
100
AcDbArc
 50
27.5
 51
90.0
  0
ARC
  5
A819
330
A7C3
100
AcDbEntity
  8
1
  6
Continuous
100
AcDbCircle
 10
98.13633100000002
 20
55.630739
 30
0.0
 40
0.35
100
AcDbArc
 50
270.0
 51
316.5
  0
LINE
  5
A81A
330
A7C3
100
AcDbEntity
  8
1
  6
Continuous
100
AcDbLine
 10
98.064706
 20
55.28073899999998
 30
0.0
 11
98.13633100000002
 21
55.28073899999998
 31
0.0
  0
LINE
  5
A81B
330
A7C3
100
AcDbEntity
  8
1
  6
Continuous
100
AcDbLine
 10
99.173632
 20
53.08784
 30
0.0
 11
99.668392
 21
54.041208
 31
0.0
  0
LINE
  5
A81C
330
A7C3
100
AcDbEntity
  8
1
  6
Continuous
100
AcDbLine
 10
99.738626
 20
52.005588
 30
0.0
 11
100.390694
 21
53.262075
 31
0.0
  0
ARC
  5
A81D
330
A7C3
100
AcDbEntity
  8
1
  6
Continuous
100
AcDbCircle
 10
97.255596
 20
63.28073899999999
 30
0.0
 40
0.2
100
AcDbArc
 50
0.0
 51
90.0
  0
LINE
  5
A81E
330
A7C3
100
AcDbEntity
  8
1
  6
Continuous
100
AcDbLine
 10
97.45559599999999
 20
60.930739
 30
0.0
 11
97.85881500000002
 21
60.930739
 31
0.0
  0
ARC
  5
A81F
330
A7C3
100
AcDbEntity
  8
1
  6
Continuous
100
AcDbCircle
 10
97.255596
 20
58.98073899999999
 30
0.0
 40
1.3
100
AcDbArc
 50
0.0
 51
59.81254599999998
  0
ARC
  5
A820
330
A7C3
100
AcDbEntity
  8
1
  6
Continuous
100
AcDbCircle
 10
98.064706
 20
60.37162900000001
 30
0.0
 40
0.30911
100
AcDbArc
 50
90.0
 51
239.812546
  0
ARC
  5
A821
330
A7C3
100
AcDbEntity
  8
1
  6
Continuous
100
AcDbCircle
 10
101.183939
 20
62.620897
 30
0.0
 40
0.5
100
AcDbArc
 50
225.4999999999998
 51
332.5
  0
LINE
  5
A822
330
A7C3
100
AcDbEntity
  8
1
  6
Continuous
100
AcDbLine
 10
99.707146
 20
63.89850899999999
 30
0.0
 11
98.30232100000001
 21
61.199864
 31
0.0
  0
LINE
  5
A823
330
A7C3
100
AcDbEntity
  8
1
  6
Continuous
100
AcDbLine
 10
100.833485
 20
62.26427199999999
 30
0.0
 11
100.390694
 21
62.699402
 31
0.0
  0
ARC
  5
A824
330
A7C3
100
AcDbEntity
  8
1
  6
Continuous
100
AcDbCircle
 10
98.918847
 20
60.305146
 30
0.0
 40
0.2
100
AcDbArc
 50
223.5
 51
356.3084809999998
  0
LINE
  5
A825
330
A7C3
100
AcDbEntity
  8
1
  6
Continuous
100
AcDbLine
 10
98.77377199999999
 20
60.16747500000001
 30
0.0
 11
98.39021200000001
 21
60.571663
 31
0.0
  0
ARC
  5
A826
330
A7C3
100
AcDbEntity
  8
1
  6
Continuous
100
AcDbCircle
 10
102.4367929999999
 20
60.078173
 30
0.0
 40
3.325260999999998
100
AcDbArc
 50
127.975177
 51
176.308481
  0
ARC
  5
A827
330
A7C3
100
AcDbEntity
  8
1
  6
Continuous
100
AcDbCircle
 10
97.85881500000002
 20
61.430739
 30
0.0
 40
0.5
100
AcDbArc
 50
270.0
 51
332.5
  0
ARC
  5
A828
330
A7C3
100
AcDbEntity
  8
1
  6
Continuous
100
AcDbCircle
 10
98.13633100000002
 20
60.330739
 30
0.0
 40
0.35
100
AcDbArc
 50
43.5
 51
90.0
  0
LINE
  5
A829
330
A7C3
100
AcDbEntity
  8
1
  6
Continuous
100
AcDbLine
 10
98.064706
 20
60.680739
 30
0.0
 11
98.13633100000002
 21
60.680739
 31
0.0
  0
LINE
  5
A82A
330
A7C3
100
AcDbEntity
  8
1
  6
Continuous
100
AcDbLine
 10
99.173632
 20
62.873637
 30
0.0
 11
99.668392
 21
61.920269
 31
0.0
  0
LINE
  5
A82B
330
A7C3
100
AcDbEntity
  8
1
  6
Continuous
100
AcDbLine
 10
99.738626
 20
63.95589000000001
 30
0.0
 11
100.390694
 21
62.699402
 31
0.0
  0
ARC
  5
A82C
330
A7C3
100
AcDbEntity
  8
1
  6
Continuous
100
AcDbCircle
 10
101.9555959999999
 20
64.406432
 30
0.0
 40
0.5
100
AcDbArc
 50
340.7626099999999
 51
31.57839099999999
  0
ARC
  5
A82D
330
A7C3
100
AcDbEntity
  8
1
  6
Continuous
100
AcDbCircle
 10
101.894554
 20
64.50573900000001
 30
0.0
 40
0.5
100
AcDbArc
 50
31.57839099999999
 51
106.641975
  0
LINE
  5
A82E
330
A7C3
100
AcDbEntity
  8
1
  6
Continuous
100
AcDbLine
 10
102.3815589999999
 20
64.66826400000001
 30
0.0
 11
102.320516
 21
64.76757099999999
 31
0.0
  0
LINE
  5
A82F
330
A7C3
100
AcDbEntity
  8
1
  6
Continuous
100
AcDbLine
 10
101.7513589999998
 20
64.98479499999999
 30
0.0
 11
100.608077
 21
64.643056
 31
0.0
  0
ARC
  5
A830
330
A7C3
100
AcDbEntity
  8
1
  6
Continuous
100
AcDbCircle
 10
89.20941500000003
 20
68.85445
 30
0.0
 40
14.0
100
AcDbArc
 50
332.5
 51
340.7626099999999
  0
ARC
  5
A831
330
A7C3
100
AcDbEntity
  8
1
  6
Continuous
100
AcDbCircle
 10
101.0376629999999
 20
63.205886
 30
0.0
 40
1.5
100
AcDbArc
 50
106.641975
 51
152.5
  0
LINE
  5
A832
330
A7C3
100
AcDbEntity
  8
1
  6
Continuous
100
AcDbLine
 10
97.45559599999999
 20
52.680739
 30
0.0
 11
97.45559599999999
 21
63.28073899999999
 31
0.0
  0
LINE
  5
A833
330
A7C3
100
AcDbEntity
  8
1
  6
Continuous
100
AcDbLine
 10
98.55559599999999
 20
56.980739
 30
0.0
 11
98.55559599999999
 21
58.98073899999999
 31
0.0
  0
LINE
  5
A834
330
A7C3
100
AcDbEntity
  8
1
  6
Continuous
100
AcDbLine
 10
30.214501
 20
92.21114400000001
 30
0.0
 11
32.01450100000001
 21
92.40976100000001
 31
0.0
  0
LINE
  5
A835
330
A7C3
100
AcDbEntity
  8
1
  6
Continuous
100
AcDbLine
 10
30.214501
 20
94.011144
 30
0.0
 11
32.01450100000001
 21
93.812528
 31
0.0
  0
LINE
  5
A836
330
A7C3
100
AcDbEntity
  8
1
  6
Continuous
100
AcDbLine
 10
32.01450100000001
 20
92.21114400000001
 30
0.0
 11
29.514501
 21
92.21114400000001
 31
0.0
  0
LINE
  5
A837
330
A7C3
100
AcDbEntity
  8
1
  6
Continuous
100
AcDbLine
 10
32.01450100000001
 20
94.011144
 30
0.0
 11
29.514501
 21
94.011144
 31
0.0
  0
LINE
  5
A838
330
A7C3
100
AcDbEntity
  8
1
  6
Continuous
100
AcDbLine
 10
32.01450100000001
 20
90.61114399999999
 30
0.0
 11
30.014501
 21
90.61114399999999
 31
0.0
  0
LINE
  5
A839
330
A7C3
100
AcDbEntity
  8
1
  6
Continuous
100
AcDbLine
 10
32.01450100000001
 20
95.61114399999999
 30
0.0
 11
30.014501
 21
95.61114399999999
 31
0.0
  0
LINE
  5
A83A
330
A7C3
100
AcDbEntity
  8
1
  6
Continuous
100
AcDbLine
 10
36.764501
 20
89.61114399999997
 30
0.0
 11
27.264501
 21
89.61114399999997
 31
0.0
  0
LINE
  5
A83B
330
A7C3
100
AcDbEntity
  8
1
  6
Continuous
100
AcDbLine
 10
36.764501
 20
96.611144
 30
0.0
 11
27.264501
 21
96.611144
 31
0.0
  0
LINE
  5
A83C
330
A7C3
100
AcDbEntity
  8
4
  6
CENTER
100
AcDbLine
 10
42.02900099999999
 20
93.11114399999999
 30
0.0
 11
22.000001
 21
93.11114399999999
 31
0.0
  0
LINE
  5
A83D
330
A7C3
100
AcDbEntity
  8
1
  6
Continuous
100
AcDbLine
 10
28.014501
 20
90.61114399999999
 30
0.0
 11
27.514501
 21
90.61114399999999
 31
0.0
  0
LINE
  5
A83E
330
A7C3
100
AcDbEntity
  8
1
  6
Continuous
100
AcDbLine
 10
28.014501
 20
95.61114399999999
 30
0.0
 11
27.514501
 21
95.61114399999999
 31
0.0
  0
LINE
  5
A83F
330
A7C3
100
AcDbEntity
  8
1
  6
Continuous
100
AcDbLine
 10
27.514501
 20
90.61114399999999
 30
0.0
 11
27.514501
 21
95.61114399999999
 31
0.0
  0
LINE
  5
A840
330
A7C3
100
AcDbEntity
  8
1
  6
Continuous
100
AcDbLine
 10
31.349531
 20
92.03484399999997
 30
0.0
 11
29.514501
 21
92.03484399999997
 31
0.0
  0
LINE
  5
A841
330
A7C3
100
AcDbEntity
  8
1
  6
Continuous
100
AcDbLine
 10
29.514501
 20
91.38743599999999
 30
0.0
 11
31.349531
 21
91.38743599999999
 31
0.0
  0
LINE
  5
A842
330
A7C3
100
AcDbEntity
  8
1
  6
Continuous
100
AcDbLine
 10
31.349531
 20
91.38743599999999
 30
0.0
 11
31.349531
 21
92.03484399999997
 31
0.0
  0
LINE
  5
A843
330
A7C3
100
AcDbEntity
  8
1
  6
Continuous
100
AcDbLine
 10
31.349531
 20
94.18744399999999
 30
0.0
 11
29.514501
 21
94.18744399999999
 31
0.0
  0
LINE
  5
A844
330
A7C3
100
AcDbEntity
  8
1
  6
Continuous
100
AcDbLine
 10
29.514501
 20
94.83485299999999
 30
0.0
 11
31.349531
 21
94.83485299999999
 31
0.0
  0
LINE
  5
A845
330
A7C3
100
AcDbEntity
  8
1
  6
Continuous
100
AcDbLine
 10
31.349531
 20
94.83485299999999
 30
0.0
 11
31.349531
 21
94.18744399999999
 31
0.0
  0
LINE
  5
A846
330
A7C3
100
AcDbEntity
  8
1
  6
Continuous
100
AcDbLine
 10
30.214501
 20
92.21114400000001
 30
0.0
 11
30.214501
 21
94.011144
 31
0.0
  0
LINE
  5
A847
330
A7C3
100
AcDbEntity
  8
1
  6
Continuous
100
AcDbLine
 10
30.014501
 20
91.21114400000001
 30
0.0
 11
30.014501
 21
90.61114399999999
 31
0.0
  0
LINE
  5
A848
330
A7C3
100
AcDbEntity
  8
1
  6
Continuous
100
AcDbLine
 10
30.014501
 20
91.21114400000001
 30
0.0
 11
29.514501
 21
91.21114400000001
 31
0.0
  0
LINE
  5
A849
330
A7C3
100
AcDbEntity
  8
1
  6
Continuous
100
AcDbLine
 10
30.014501
 20
95.01114399999996
 30
0.0
 11
29.514501
 21
95.01114399999996
 31
0.0
  0
LINE
  5
A84A
330
A7C3
100
AcDbEntity
  8
1
  6
Continuous
100
AcDbLine
 10
29.514501
 20
95.01114399999996
 30
0.0
 11
29.514501
 21
91.21114400000001
 31
0.0
  0
LINE
  5
A84B
330
A7C3
100
AcDbEntity
  8
1
  6
Continuous
100
AcDbLine
 10
30.014501
 20
95.61114399999999
 30
0.0
 11
30.014501
 21
95.01114399999996
 31
0.0
  0
ARC
  5
A84C
330
A7C3
100
AcDbEntity
  8
1
  6
Continuous
100
AcDbCircle
 10
28.21450099999999
 20
96.41114399999999
 30
0.0
 40
0.2
100
AcDbArc
 50
90.0
 51
180.0
  0
ARC
  5
A84D
330
A7C3
100
AcDbEntity
  8
1
  6
Continuous
100
AcDbCircle
 10
28.21450099999999
 20
89.811144
 30
0.0
 40
0.2
100
AcDbArc
 50
180.0
 51
270.0
  0
LINE
  5
A84E
330
A7C3
100
AcDbEntity
  8
1
  6
Continuous
100
AcDbLine
 10
25.000001
 20
95.01114399999996
 30
0.0
 11
25.706101
 21
95.01114399999996
 31
0.0
  0
LINE
  5
A84F
330
A7C3
100
AcDbEntity
  8
1
  6
Continuous
100
AcDbLine
 10
25.000001
 20
91.21114400000001
 30
0.0
 11
25.706101
 21
91.21114400000001
 31
0.0
  0
LINE
  5
A850
330
A7C3
100
AcDbEntity
  8
0
  6
Continuous
100
AcDbLine
 10
25.000001
 20
91.21114400000001
 30
0.0
 11
25.000001
 21
95.01114399999996
 31
0.0
  0
LINE
  5
A851
330
A7C3
100
AcDbEntity
  8
1
  6
Continuous
100
AcDbLine
 10
26.51450099999999
 20
90.361144
 30
0.0
 11
26.51450099999999
 21
95.86114399999999
 31
0.0
  0
LINE
  5
A852
330
A7C3
100
AcDbEntity
  8
1
  6
Continuous
100
AcDbLine
 10
26.51450099999999
 20
95.61114399999999
 30
0.0
 11
25.706101
 21
95.01114399999996
 31
0.0
  0
LINE
  5
A853
330
A7C3
100
AcDbEntity
  8
1
  6
Continuous
100
AcDbLine
 10
25.706101
 20
91.21114400000001
 30
0.0
 11
26.51450099999999
 21
90.61114399999999
 31
0.0
  0
LINE
  5
A854
330
A7C3
100
AcDbEntity
  8
1
  6
Continuous
100
AcDbLine
 10
25.706101
 20
91.21114400000001
 30
0.0
 11
25.706101
 21
95.01114399999996
 31
0.0
  0
ARC
  5
A855
330
A7C3
100
AcDbEntity
  8
1
  6
Continuous
100
AcDbCircle
 10
27.264501
 20
90.361144
 30
0.0
 40
0.75
100
AcDbArc
 50
180.0
 51
270.0
  0
ARC
  5
A856
330
A7C3
100
AcDbEntity
  8
1
  6
Continuous
100
AcDbCircle
 10
27.264501
 20
95.86114399999999
 30
0.0
 40
0.75
100
AcDbArc
 50
90.0
 51
180.0
  0
LINE
  5
A857
330
A7C3
100
AcDbEntity
  8
1
  6
Continuous
100
AcDbLine
 10
26.51450099999999
 20
90.361144
 30
0.0
 11
26.51450099999999
 21
95.86114399999999
 31
0.0
  0
LINE
  5
A858
330
A7C3
100
AcDbEntity
  8
1
  6
Continuous
100
AcDbLine
 10
28.014501
 20
91.11114399999999
 30
0.0
 11
27.614501
 21
91.11114399999999
 31
0.0
  0
LINE
  5
A859
330
A7C3
100
AcDbEntity
  8
1
  6
Continuous
100
AcDbLine
 10
28.014501
 20
95.111144
 30
0.0
 11
27.614501
 21
95.111144
 31
0.0
  0
LINE
  5
A85A
330
A7C3
100
AcDbEntity
  8
1
  6
Continuous
100
AcDbLine
 10
27.614501
 20
91.11114399999999
 30
0.0
 11
27.614501
 21
95.111144
 31
0.0
  0
LINE
  5
A85B
330
A7C3
100
AcDbEntity
  8
1
  6
Continuous
100
AcDbLine
 10
28.014501
 20
89.811144
 30
0.0
 11
28.014501
 21
96.41114399999999
 31
0.0
  0
LINE
  5
A85C
330
A7C3
100
AcDbEntity
  8
1
  6
Continuous
100
AcDbLine
 10
36.514501
 20
90.61114399999999
 30
0.0
 11
36.014501
 21
90.61114399999999
 31
0.0
  0
LINE
  5
A85D
330
A7C3
100
AcDbEntity
  8
1
  6
Continuous
100
AcDbLine
 10
36.514501
 20
95.61114399999999
 30
0.0
 11
36.014501
 21
95.61114399999999
 31
0.0
  0
LINE
  5
A85E
330
A7C3
100
AcDbEntity
  8
1
  6
Continuous
100
AcDbLine
 10
36.514501
 20
90.61114399999999
 30
0.0
 11
36.514501
 21
95.61114399999999
 31
0.0
  0
LINE
  5
A85F
330
A7C3
100
AcDbEntity
  8
1
  6
Continuous
100
AcDbLine
 10
32.01450100000001
 20
95.61114399999999
 30
0.0
 11
32.01450100000001
 21
90.61114399999999
 31
0.0
  0
ARC
  5
A860
330
A7C3
100
AcDbEntity
  8
1
  6
Continuous
100
AcDbCircle
 10
35.814501
 20
89.811144
 30
0.0
 40
0.2
100
AcDbArc
 50
270.0
 51
0.0
  0
ARC
  5
A861
330
A7C3
100
AcDbEntity
  8
1
  6
Continuous
100
AcDbCircle
 10
35.814501
 20
96.41114399999999
 30
0.0
 40
0.2
100
AcDbArc
 50
0.0
 51
90.0
  0
LINE
  5
A862
330
A7C3
100
AcDbEntity
  8
1
  6
Continuous
100
AcDbLine
 10
38.322901
 20
91.21114400000001
 30
0.0
 11
37.514501
 21
90.61114399999999
 31
0.0
  0
LINE
  5
A863
330
A7C3
100
AcDbEntity
  8
1
  6
Continuous
100
AcDbLine
 10
37.514501
 20
95.61114399999999
 30
0.0
 11
38.322901
 21
95.01114399999996
 31
0.0
  0
ARC
  5
A864
330
A7C3
100
AcDbEntity
  8
1
  6
Continuous
100
AcDbCircle
 10
36.764501
 20
90.361144
 30
0.0
 40
0.75
100
AcDbArc
 50
270.0
 51
0.0
  0
ARC
  5
A865
330
A7C3
100
AcDbEntity
  8
1
  6
Continuous
100
AcDbCircle
 10
36.764501
 20
95.86114399999999
 30
0.0
 40
0.75
100
AcDbArc
 50
0.0
 51
90.0
  0
LINE
  5
A866
330
A7C3
100
AcDbEntity
  8
1
  6
Continuous
100
AcDbLine
 10
38.322901
 20
91.21114400000001
 30
0.0
 11
38.322901
 21
95.01114399999996
 31
0.0
  0
LINE
  5
A867
330
A7C3
100
AcDbEntity
  8
1
  6
Continuous
100
AcDbLine
 10
39.029001
 20
91.21114400000001
 30
0.0
 11
38.322901
 21
91.21114400000001
 31
0.0
  0
LINE
  5
A868
330
A7C3
100
AcDbEntity
  8
1
  6
Continuous
100
AcDbLine
 10
39.029001
 20
95.01114399999996
 30
0.0
 11
38.322901
 21
95.01114399999996
 31
0.0
  0
LINE
  5
A869
330
A7C3
100
AcDbEntity
  8
1
  6
Continuous
100
AcDbLine
 10
36.414501
 20
91.11114399999999
 30
0.0
 11
36.014501
 21
91.11114399999999
 31
0.0
  0
LINE
  5
A86A
330
A7C3
100
AcDbEntity
  8
1
  6
Continuous
100
AcDbLine
 10
36.414501
 20
95.111144
 30
0.0
 11
36.014501
 21
95.111144
 31
0.0
  0
LINE
  5
A86B
330
A7C3
100
AcDbEntity
  8
1
  6
Continuous
100
AcDbLine
 10
36.414501
 20
91.11114399999999
 30
0.0
 11
36.414501
 21
95.111144
 31
0.0
  0
LINE
  5
A86C
330
A7C3
100
AcDbEntity
  8
1
  6
Continuous
100
AcDbLine
 10
37.514501
 20
90.361144
 30
0.0
 11
37.514501
 21
95.86114399999999
 31
0.0
  0
LINE
  5
A86D
330
A7C3
100
AcDbEntity
  8
1
  6
Continuous
100
AcDbLine
 10
36.014501
 20
89.811144
 30
0.0
 11
36.014501
 21
96.41114399999999
 31
0.0
  0
LINE
  5
A86E
330
A7C3
100
AcDbEntity
  8
0
  6
Continuous
100
AcDbLine
 10
39.029001
 20
91.21114400000001
 30
0.0
 11
39.029001
 21
95.01114399999996
 31
0.0
  0
ARC
  5
A86F
330
A7C3
100
AcDbEntity
  8
1
  6
Continuous
100
AcDbCircle
 10
102.4367929999999
 20
130.33893
 30
0.0
 40
3.325260999999998
100
AcDbArc
 50
127.975177
 51
176.308481
  0
LINE
  5
A870
330
A7C3
100
AcDbEntity
  8
1
  6
Continuous
100
AcDbLine
 10
99.707146
 20
134.159266
 30
0.0
 11
98.30232100000001
 21
131.4606209999998
 31
0.0
  0
ARC
  5
A871
330
A7C3
100
AcDbEntity
  8
1
  6
Continuous
100
AcDbCircle
 10
83.00559599999997
 20
131.4914949999999
 30
0.0
 40
0.75
100
AcDbArc
 50
90.0
 51
180.0
  0
LINE
  5
A872
330
A7C3
100
AcDbEntity
  8
1
  6
Continuous
100
AcDbLine
 10
97.45559599999999
 20
133.541495
 30
0.0
 11
97.45559599999999
 21
122.941495
 31
0.0
  0
LINE
  5
A873
330
A7C3
100
AcDbEntity
  8
4
  6
CENTER
100
AcDbLine
 10
79.25559599999998
 20
93.11114399999999
 30
0.0
 11
105.455596
 21
93.11114399999999
 31
0.0
  0
LINE
  5
A874
330
A7C3
100
AcDbEntity
  8
1
  6
Continuous
100
AcDbLine
 10
83.00559599999997
 20
89.61114399999997
 30
0.0
 11
97.255596
 21
89.61114399999997
 31
0.0
  0
LINE
  5
A875
330
A7C3
100
AcDbEntity
  8
1
  6
Continuous
100
AcDbLine
 10
83.00559599999997
 20
96.611144
 30
0.0
 11
97.255596
 21
96.611144
 31
0.0
  0
LINE
  5
A876
330
A7C3
100
AcDbEntity
  8
1
  6
Continuous
100
AcDbLine
 10
94.45559600000001
 20
122.741495
 30
0.0
 11
97.255596
 21
122.741495
 31
0.0
  0
LINE
  5
A877
330
A7C3
100
AcDbEntity
  8
4
  6
CENTER
100
AcDbLine
 10
79.25559599999998
 20
128.2414949999999
 30
0.0
 11
104.455596
 21
128.2414949999999
 31
0.0
  0
ARC
  5
A878
330
A7C3
100
AcDbEntity
  8
1
  6
Continuous
100
AcDbCircle
 10
83.00559599999997
 20
90.361144
 30
0.0
 40
0.75
100
AcDbArc
 50
180.0
 51
270.0
  0
ARC
  5
A879
330
A7C3
100
AcDbEntity
  8
1
  6
Continuous
100
AcDbCircle
 10
83.00559599999997
 20
95.86114399999999
 30
0.0
 40
0.75
100
AcDbArc
 50
90.0
 51
180.0
  0
ARC
  5
A87A
330
A7C3
100
AcDbEntity
  8
1
  6
Continuous
100
AcDbCircle
 10
90.755596
 20
90.81114400000002
 30
0.0
 40
0.3
100
AcDbArc
 50
90.0
 51
270.0
  0
LINE
  5
A87B
330
A7C3
100
AcDbEntity
  8
1
  6
Continuous
100
AcDbLine
 10
90.755596
 20
90.51114400000001
 30
0.0
 11
94.45559600000001
 21
90.51114400000001
 31
0.0
  0
LINE
  5
A87C
330
A7C3
100
AcDbEntity
  8
1
  6
Continuous
100
AcDbLine
 10
90.755596
 20
91.11114399999999
 30
0.0
 11
93.055596
 21
91.11114399999999
 31
0.0
  0
LINE
  5
A87D
330
A7C3
100
AcDbEntity
  8
1
  6
Continuous
100
AcDbLine
 10
91.905596
 20
94.86114399999999
 30
0.0
 11
91.905596
 21
93.36114399999999
 31
0.0
  0
LINE
  5
A87E
330
A7C3
100
AcDbEntity
  8
1
  6
Continuous
100
AcDbLine
 10
91.905596
 20
92.861144
 30
0.0
 11
91.905596
 21
91.361144
 31
0.0
  0
ARC
  5
A87F
330
A7C3
100
AcDbEntity
  8
1
  6
Continuous
100
AcDbCircle
 10
90.755596
 20
95.41114399999999
 30
0.0
 40
0.3
100
AcDbArc
 50
90.0
 51
270.0
  0
LINE
  5
A880
330
A7C3
100
AcDbEntity
  8
1
  6
Continuous
100
AcDbLine
 10
93.055596
 20
95.111144
 30
0.0
 11
93.055596
 21
91.11114399999999
 31
0.0
  0
LINE
  5
A881
330
A7C3
100
AcDbEntity
  8
1
  6
Continuous
100
AcDbLine
 10
92.55559599999999
 20
95.111144
 30
0.0
 11
92.55559599999999
 21
91.11114399999999
 31
0.0
  0
LINE
  5
A882
330
A7C3
100
AcDbEntity
  8
1
  6
Continuous
100
AcDbLine
 10
92.20559599999999
 20
95.111144
 30
0.0
 11
92.20559599999999
 21
91.11114399999999
 31
0.0
  0
LINE
  5
A883
330
A7C3
100
AcDbEntity
  8
1
  6
Continuous
100
AcDbLine
 10
91.212776
 20
95.111144
 30
0.0
 11
91.212776
 21
91.11114399999999
 31
0.0
  0
LINE
  5
A884
330
A7C3
100
AcDbEntity
  8
1
  6
Continuous
100
AcDbLine
 10
90.755596
 20
95.71114399999999
 30
0.0
 11
94.45559600000001
 21
95.71114399999999
 31
0.0
  0
LINE
  5
A885
330
A7C3
100
AcDbEntity
  8
1
  6
Continuous
100
AcDbLine
 10
94.45559600000001
 20
96.611144
 30
0.0
 11
94.45559600000001
 21
89.61114399999997
 31
0.0
  0
LINE
  5
A886
330
A7C3
100
AcDbEntity
  8
1
  6
Continuous
100
AcDbLine
 10
82.25559599999998
 20
95.86114399999999
 30
0.0
 11
82.25559599999998
 21
90.361144
 31
0.0
  0
LINE
  5
A887
330
A7C3
100
AcDbEntity
  8
1
  6
Continuous
100
AcDbLine
 10
90.755596
 20
95.111144
 30
0.0
 11
93.055596
 21
95.111144
 31
0.0
  0
LINE
  5
A888
330
A7C3
100
AcDbEntity
  8
1
  6
Continuous
100
AcDbLine
 10
94.45559600000001
 20
122.741495
 30
0.0
 11
94.45559600000001
 21
124.241495
 31
0.0
  0
LINE
  5
A889
330
A7C3
100
AcDbEntity
  8
1
  6
Continuous
100
AcDbLine
 10
92.20559599999999
 20
123.8414949999999
 30
0.0
 11
92.255596
 21
124.0414949999999
 31
0.0
  0
LINE
  5
A88A
330
A7C3
100
AcDbEntity
  8
1
  6
Continuous
100
AcDbLine
 10
92.255596
 20
124.0414949999999
 30
0.0
 11
92.57559599999996
 21
124.241495
 31
0.0
  0
LINE
  5
A88B
330
A7C3
100
AcDbEntity
  8
1
  6
Continuous
100
AcDbLine
 10
83.00559599999997
 20
124.241495
 30
0.0
 11
94.45559600000001
 21
124.241495
 31
0.0
  0
ARC
  5
A88C
330
A7C3
100
AcDbEntity
  8
1
  6
Continuous
100
AcDbCircle
 10
93.955596
 20
123.741495
 30
0.0
 40
0.5
100
AcDbArc
 50
0.0
 51
90.0
  0
LINE
  5
A88D
330
A7C3
100
AcDbEntity
  8
1
  6
Continuous
100
AcDbLine
 10
91.905596
 20
123.8414949999999
 30
0.0
 11
91.212776
 21
124.241495
 31
0.0
  0
LINE
  5
A88E
330
A7C3
100
AcDbEntity
  8
1
  6
Continuous
100
AcDbLine
 10
91.905596
 20
123.8414949999999
 30
0.0
 11
92.20559599999999
 21
123.8414949999999
 31
0.0
  0
LINE
  5
A88F
330
A7C3
100
AcDbEntity
  8
1
  6
Continuous
100
AcDbLine
 10
93.90559600000001
 20
128.441495
 30
0.0
 11
93.90559600000001
 21
127.4414949999999
 31
0.0
  0
LINE
  5
A890
330
A7C3
100
AcDbEntity
  8
1
  6
Continuous
100
AcDbLine
 10
95.10559599999997
 20
128.441495
 30
0.0
 11
95.10559599999997
 21
127.4414949999999
 31
0.0
  0
LINE
  5
A891
330
A7C3
100
AcDbEntity
  8
1
  6
Continuous
100
AcDbLine
 10
95.70559600000001
 20
128.441495
 30
0.0
 11
95.70559600000001
 21
127.4414949999999
 31
0.0
  0
LINE
  5
A892
330
A7C3
100
AcDbEntity
  8
1
  6
Continuous
100
AcDbLine
 10
87.50559599999998
 20
128.441495
 30
0.0
 11
87.50559599999998
 21
127.4414949999999
 31
0.0
  0
LINE
  5
A893
330
A7C3
100
AcDbEntity
  8
1
  6
Continuous
100
AcDbLine
 10
87.50559599999998
 20
127.4414949999999
 30
0.0
 11
95.70559600000001
 21
127.4414949999999
 31
0.0
  0
LINE
  5
A894
330
A7C3
100
AcDbEntity
  8
1
  6
Continuous
100
AcDbLine
 10
87.50559599999998
 20
128.441495
 30
0.0
 11
95.70559600000001
 21
128.441495
 31
0.0
  0
ARC
  5
A895
330
A7C3
100
AcDbEntity
  8
1
  6
Continuous
100
AcDbCircle
 10
83.00559599999997
 20
124.9914949999999
 30
0.0
 40
0.75
100
AcDbArc
 50
180.0
 51
270.0
  0
LINE
  5
A896
330
A7C3
100
AcDbEntity
  8
1
  6
Continuous
100
AcDbLine
 10
82.25559599999998
 20
131.4914949999999
 30
0.0
 11
82.25559599999998
 21
124.9914949999999
 31
0.0
  0
LINE
  5
A897
330
A7C3
100
AcDbEntity
  8
1
  6
Continuous
100
AcDbLine
 10
100.000135
 20
94.51114399999999
 30
0.0
 11
100.000135
 21
91.71114399999996
 31
0.0
  0
LINE
  5
A898
330
A7C3
100
AcDbEntity
  8
1
  6
Continuous
100
AcDbLine
 10
99.668392
 20
90.61114399999999
 30
0.0
 11
100.390694
 21
91.21114400000001
 31
0.0
  0
LINE
  5
A899
330
A7C3
100
AcDbEntity
  8
1
  6
Continuous
100
AcDbLine
 10
99.173632
 20
90.61114399999999
 30
0.0
 11
99.707146
 21
91.21114400000001
 31
0.0
  0
LINE
  5
A89A
330
A7C3
100
AcDbEntity
  8
1
  6
Continuous
100
AcDbLine
 10
97.45559599999999
 20
90.61114399999999
 30
0.0
 11
99.668392
 21
90.61114399999999
 31
0.0
  0
LINE
  5
A89B
330
A7C3
100
AcDbEntity
  8
1
  6
Continuous
100
AcDbLine
 10
97.85881500000002
 20
95.04114399999997
 30
0.0
 11
97.85881500000002
 21
91.18114400000001
 31
0.0
  0
LINE
  5
A89C
330
A7C3
100
AcDbEntity
  8
1
  6
Continuous
100
AcDbLine
 10
99.668392
 20
95.61114399999999
 30
0.0
 11
100.390694
 21
95.01114399999996
 31
0.0
  0
LINE
  5
A89D
330
A7C3
100
AcDbEntity
  8
1
  6
Continuous
100
AcDbLine
 10
99.173632
 20
95.61114399999999
 30
0.0
 11
99.707146
 21
95.01114399999996
 31
0.0
  0
LINE
  5
A89E
330
A7C3
100
AcDbEntity
  8
1
  6
Continuous
100
AcDbLine
 10
99.707146
 20
95.01114399999996
 30
0.0
 11
102.455596
 21
95.01114399999996
 31
0.0
  0
LINE
  5
A89F
330
A7C3
100
AcDbEntity
  8
1
  6
Continuous
100
AcDbLine
 10
97.45559599999999
 20
95.61114399999999
 30
0.0
 11
99.668392
 21
95.61114399999999
 31
0.0
  0
LINE
  5
A8A0
330
A7C3
100
AcDbEntity
  8
1
  6
Continuous
100
AcDbLine
 10
99.707146
 20
91.21114400000001
 30
0.0
 11
102.455596
 21
91.21114400000001
 31
0.0
  0
LINE
  5
A8A1
330
A7C3
100
AcDbEntity
  8
1
  6
Continuous
100
AcDbLine
 10
102.455596
 20
95.01114399999996
 30
0.0
 11
102.455596
 21
91.21114400000001
 31
0.0
  0
ARC
  5
A8A2
330
A7C3
100
AcDbEntity
  8
1
  6
Continuous
100
AcDbCircle
 10
97.255596
 20
96.41114399999999
 30
0.0
 40
0.2
100
AcDbArc
 50
0.0
 51
90.0
  0
ARC
  5
A8A3
330
A7C3
100
AcDbEntity
  8
1
  6
Continuous
100
AcDbCircle
 10
97.255596
 20
89.811144
 30
0.0
 40
0.2
100
AcDbArc
 50
270.0
 51
0.0
  0
LINE
  5
A8A4
330
A7C3
100
AcDbEntity
  8
1
  6
Continuous
100
AcDbLine
 10
97.45559599999999
 20
96.41114399999999
 30
0.0
 11
97.45559599999999
 21
89.811144
 31
0.0
  0
LINE
  5
A8A5
330
A7C3
100
AcDbEntity
  8
1
  6
Continuous
100
AcDbLine
 10
99.738626
 20
122.2663439999999
 30
0.0
 11
100.390694
 21
123.522832
 31
0.0
  0
LINE
  5
A8A6
330
A7C3
100
AcDbEntity
  8
1
  6
Continuous
100
AcDbLine
 10
99.173632
 20
123.348597
 30
0.0
 11
99.668392
 21
124.3019649999999
 31
0.0
  0
LINE
  5
A8A7
330
A7C3
100
AcDbEntity
  8
1
  6
Continuous
100
AcDbLine
 10
98.064706
 20
125.541495
 30
0.0
 11
98.13633100000002
 21
125.541495
 31
0.0
  0
ARC
  5
A8A8
330
A7C3
100
AcDbEntity
  8
1
  6
Continuous
100
AcDbCircle
 10
98.13633100000002
 20
125.8914949999999
 30
0.0
 40
0.35
100
AcDbArc
 50
270.0
 51
316.5
  0
ARC
  5
A8A9
330
A7C3
100
AcDbEntity
  8
1
  6
Continuous
100
AcDbCircle
 10
97.85881500000002
 20
124.7914949999999
 30
0.0
 40
0.5
100
AcDbArc
 50
27.5
 51
90.0
  0
ARC
  5
A8AA
330
A7C3
100
AcDbEntity
  8
1
  6
Continuous
100
AcDbCircle
 10
101.0376629999999
 20
123.0163479999998
 30
0.0
 40
1.5
100
AcDbArc
 50
207.5
 51
253.358025
  0
ARC
  5
A8AB
330
A7C3
100
AcDbEntity
  8
1
  6
Continuous
100
AcDbCircle
 10
102.4367929999999
 20
126.1440609999999
 30
0.0
 40
3.325260999999998
100
AcDbArc
 50
183.691519
 51
232.0248229999999
  0
LINE
  5
A8AC
330
A7C3
100
AcDbEntity
  8
1
  6
Continuous
100
AcDbLine
 10
98.77377199999999
 20
126.054759
 30
0.0
 11
98.39021200000001
 21
125.650571
 31
0.0
  0
ARC
  5
A8AD
330
A7C3
100
AcDbEntity
  8
1
  6
Continuous
100
AcDbCircle
 10
98.918847
 20
125.9170879999998
 30
0.0
 40
0.2
100
AcDbArc
 50
3.691519
 51
136.4999999999998
  0
LINE
  5
A8AE
330
A7C3
100
AcDbEntity
  8
1
  6
Continuous
100
AcDbLine
 10
101.7513589999998
 20
121.2374389999999
 30
0.0
 11
100.608077
 21
121.5791779999999
 31
0.0
  0
LINE
  5
A8AF
330
A7C3
100
AcDbEntity
  8
1
  6
Continuous
100
AcDbLine
 10
102.3815589999999
 20
121.5539699999998
 30
0.0
 11
102.320516
 21
121.4546629999999
 31
0.0
  0
LINE
  5
A8B0
330
A7C3
100
AcDbEntity
  8
1
  6
Continuous
100
AcDbLine
 10
100.833485
 20
123.9579619999999
 30
0.0
 11
100.390694
 21
123.522832
 31
0.0
  0
ARC
  5
A8B1
330
A7C3
100
AcDbEntity
  8
1
  6
Continuous
100
AcDbCircle
 10
101.894554
 20
121.7164949999999
 30
0.0
 40
0.5
100
AcDbArc
 50
253.358025
 51
328.421609
  0
ARC
  5
A8B2
330
A7C3
100
AcDbEntity
  8
1
  6
Continuous
100
AcDbCircle
 10
89.20941500000003
 20
117.367784
 30
0.0
 40
14.0
100
AcDbArc
 50
19.23738999999999
 51
27.5
  0
ARC
  5
A8B3
330
A7C3
100
AcDbEntity
  8
1
  6
Continuous
100
AcDbCircle
 10
101.9555959999999
 20
121.815802
 30
0.0
 40
0.5
100
AcDbArc
 50
328.421609
 51
19.23738999999999
  0
LINE
  5
A8B4
330
A7C3
100
AcDbEntity
  8
1
  6
Continuous
100
AcDbLine
 10
99.707146
 20
122.3237249999999
 30
0.0
 11
98.30232100000001
 21
125.02237
 31
0.0
  0
ARC
  5
A8B5
330
A7C3
100
AcDbEntity
  8
1
  6
Continuous
100
AcDbCircle
 10
101.183939
 20
123.601337
 30
0.0
 40
0.5
100
AcDbArc
 50
27.5
 51
134.4999999999998
  0
ARC
  5
A8B6
330
A7C3
100
AcDbEntity
  8
1
  6
Continuous
100
AcDbCircle
 10
98.064706
 20
125.850605
 30
0.0
 40
0.30911
100
AcDbArc
 50
120.187454
 51
270.0
  0
ARC
  5
A8B7
330
A7C3
100
AcDbEntity
  8
1
  6
Continuous
100
AcDbCircle
 10
97.255596
 20
127.2414949999999
 30
0.0
 40
1.3
100
AcDbArc
 50
300.187454
 51
0.0
  0
LINE
  5
A8B8
330
A7C3
100
AcDbEntity
  8
1
  6
Continuous
100
AcDbLine
 10
97.45559599999999
 20
125.291495
 30
0.0
 11
97.85881500000002
 21
125.291495
 31
0.0
  0
ARC
  5
A8B9
330
A7C3
100
AcDbEntity
  8
1
  6
Continuous
100
AcDbCircle
 10
97.255596
 20
122.941495
 30
0.0
 40
0.2
100
AcDbArc
 50
270.0
 51
0.0
  0
LINE
  5
A8BA
330
A7C3
100
AcDbEntity
  8
1
  6
Continuous
100
AcDbLine
 10
98.064706
 20
130.941495
 30
0.0
 11
98.13633100000002
 21
130.941495
 31
0.0
  0
ARC
  5
A8BB
330
A7C3
100
AcDbEntity
  8
1
  6
Continuous
100
AcDbCircle
 10
98.13633100000002
 20
130.591495
 30
0.0
 40
0.35
100
AcDbArc
 50
43.5
 51
90.0
  0
ARC
  5
A8BC
330
A7C3
100
AcDbEntity
  8
1
  6
Continuous
100
AcDbCircle
 10
97.85881500000002
 20
131.691495
 30
0.0
 40
0.5
100
AcDbArc
 50
270.0
 51
332.5
  0
LINE
  5
A8BD
330
A7C3
100
AcDbEntity
  8
1
  6
Continuous
100
AcDbLine
 10
98.77377199999999
 20
130.428232
 30
0.0
 11
98.39021200000001
 21
130.8324199999999
 31
0.0
  0
ARC
  5
A8BE
330
A7C3
100
AcDbEntity
  8
1
  6
Continuous
100
AcDbCircle
 10
98.918847
 20
130.5659029999999
 30
0.0
 40
0.2
100
AcDbArc
 50
223.5
 51
356.3084809999998
  0
ARC
  5
A8BF
330
A7C3
100
AcDbEntity
  8
1
  6
Continuous
100
AcDbCircle
 10
98.064706
 20
130.632386
 30
0.0
 40
0.30911
100
AcDbArc
 50
90.0
 51
239.812546
  0
ARC
  5
A8C0
330
A7C3
100
AcDbEntity
  8
1
  6
Continuous
100
AcDbCircle
 10
97.255596
 20
129.2414949999999
 30
0.0
 40
1.3
100
AcDbArc
 50
0.0
 51
55.5995
  0
LINE
  5
A8C1
330
A7C3
100
AcDbEntity
  8
1
  6
Continuous
100
AcDbLine
 10
98.55559599999999
 20
129.2414949999999
 30
0.0
 11
98.55559599999999
 21
127.2414949999999
 31
0.0
  0
LINE
  5
A8C2
330
A7C3
100
AcDbEntity
  8
1
  6
Continuous
100
AcDbLine
 10
97.45559599999999
 20
131.191495
 30
0.0
 11
97.85881500000002
 21
131.191495
 31
0.0
  0
LINE
  5
A8C3
330
A7C3
100
AcDbEntity
  8
1
  6
Continuous
100
AcDbLine
 10
95.35564499999999
 20
166.1507239999999
 30
0.0
 11
98.155645
 21
166.1507239999999
 31
0.0
  0
LINE
  5
A8C4
330
A7C3
100
AcDbEntity
  8
4
  6
CENTER
100
AcDbLine
 10
80.15564499999998
 20
171.650724
 30
0.0
 11
105.3556449999999
 21
171.650724
 31
0.0
  0
LINE
  5
A8C5
330
A7C3
100
AcDbEntity
  8
1
  6
Continuous
100
AcDbLine
 10
94.45559600000001
 20
133.7414949999998
 30
0.0
 11
97.255596
 21
133.7414949999998
 31
0.0
  0
LINE
  5
A8C6
330
A7C3
100
AcDbEntity
  8
1
  6
Continuous
100
AcDbLine
 10
94.45559600000001
 20
133.7414949999998
 30
0.0
 11
94.45559600000001
 21
132.2414949999999
 31
0.0
  0
LINE
  5
A8C7
330
A7C3
100
AcDbEntity
  8
1
  6
Continuous
100
AcDbLine
 10
92.20559599999999
 20
132.6414949999999
 30
0.0
 11
92.255596
 21
132.4414949999998
 31
0.0
  0
LINE
  5
A8C8
330
A7C3
100
AcDbEntity
  8
1
  6
Continuous
100
AcDbLine
 10
92.255596
 20
132.4414949999998
 30
0.0
 11
92.57559599999996
 21
132.2414949999999
 31
0.0
  0
LINE
  5
A8C9
330
A7C3
100
AcDbEntity
  8
1
  6
Continuous
100
AcDbLine
 10
83.00559599999997
 20
132.2414949999999
 30
0.0
 11
94.45559600000001
 21
132.2414949999999
 31
0.0
  0
ARC
  5
A8CA
330
A7C3
100
AcDbEntity
  8
1
  6
Continuous
100
AcDbCircle
 10
93.955596
 20
132.7414949999998
 30
0.0
 40
0.5
100
AcDbArc
 50
270.0
 51
0.0
  0
LINE
  5
A8CB
330
A7C3
100
AcDbEntity
  8
1
  6
Continuous
100
AcDbLine
 10
91.905596
 20
132.6414949999999
 30
0.0
 11
91.212776
 21
132.2414949999999
 31
0.0
  0
LINE
  5
A8CC
330
A7C3
100
AcDbEntity
  8
1
  6
Continuous
100
AcDbLine
 10
91.905596
 20
132.6414949999999
 30
0.0
 11
92.20559599999999
 21
132.6414949999999
 31
0.0
  0
LINE
  5
A8CD
330
A7C3
100
AcDbEntity
  8
1
  6
Continuous
100
AcDbLine
 10
83.15564499999998
 20
168.4007239999999
 30
0.0
 11
83.15564499999998
 21
174.900724
 31
0.0
  0
ARC
  5
A8CE
330
A7C3
100
AcDbEntity
  8
1
  6
Continuous
100
AcDbCircle
 10
83.90564499999998
 20
174.900724
 30
0.0
 40
0.75
100
AcDbArc
 50
90.0
 51
180.0
  0
LINE
  5
A8CF
330
A7C3
100
AcDbEntity
  8
1
  6
Continuous
100
AcDbLine
 10
93.15564499999997
 20
175.8507239999999
 30
0.0
 11
93.475645
 21
175.6507239999999
 31
0.0
  0
LINE
  5
A8D0
330
A7C3
100
AcDbEntity
  8
1
  6
Continuous
100
AcDbLine
 10
83.90564499999998
 20
175.6507239999999
 30
0.0
 11
95.35564499999999
 21
175.6507239999999
 31
0.0
  0
LINE
  5
A8D1
330
A7C3
100
AcDbEntity
  8
1
  6
Continuous
100
AcDbLine
 10
95.35564499999999
 20
167.650724
 30
0.0
 11
95.35564499999999
 21
166.1507239999999
 31
0.0
  0
ARC
  5
A8D2
330
A7C3
100
AcDbEntity
  8
1
  6
Continuous
100
AcDbCircle
 10
83.90564499999998
 20
168.4007239999999
 30
0.0
 40
0.75
100
AcDbArc
 50
180.0
 51
270.0
  0
LINE
  5
A8D3
330
A7C3
100
AcDbEntity
  8
1
  6
Continuous
100
AcDbLine
 10
92.805645
 20
167.2507239999999
 30
0.0
 11
93.10564499999999
 21
167.2507239999999
 31
0.0
  0
LINE
  5
A8D4
330
A7C3
100
AcDbEntity
  8
1
  6
Continuous
100
AcDbLine
 10
92.805645
 20
167.2507239999999
 30
0.0
 11
92.11282399999999
 21
167.650724
 31
0.0
  0
LINE
  5
A8D5
330
A7C3
100
AcDbEntity
  8
1
  6
Continuous
100
AcDbLine
 10
93.10564499999999
 20
167.2507239999999
 30
0.0
 11
93.15564499999997
 21
167.450724
 31
0.0
  0
LINE
  5
A8D6
330
A7C3
100
AcDbEntity
  8
1
  6
Continuous
100
AcDbLine
 10
93.15564499999997
 20
167.450724
 30
0.0
 11
93.475645
 21
167.650724
 31
0.0
  0
LINE
  5
A8D7
330
A7C3
100
AcDbEntity
  8
1
  6
Continuous
100
AcDbLine
 10
83.90564499999998
 20
167.650724
 30
0.0
 11
95.35564499999999
 21
167.650724
 31
0.0
  0
LINE
  5
A8D8
330
A7C3
100
AcDbEntity
  8
1
  6
Continuous
100
AcDbLine
 10
99.738626
 20
134.216646
 30
0.0
 11
100.390694
 21
132.9601589999998
 31
0.0
  0
LINE
  5
A8D9
330
A7C3
100
AcDbEntity
  8
1
  6
Continuous
100
AcDbLine
 10
99.173632
 20
133.1343939999999
 30
0.0
 11
99.668392
 21
132.181026
 31
0.0
  0
ARC
  5
A8DA
330
A7C3
100
AcDbEntity
  8
1
  6
Continuous
100
AcDbCircle
 10
101.0376629999999
 20
133.466643
 30
0.0
 40
1.5
100
AcDbArc
 50
106.641975
 51
152.5
  0
LINE
  5
A8DB
330
A7C3
100
AcDbEntity
  8
1
  6
Continuous
100
AcDbLine
 10
101.7513589999998
 20
135.245552
 30
0.0
 11
100.608077
 21
134.9038129999998
 31
0.0
  0
LINE
  5
A8DC
330
A7C3
100
AcDbEntity
  8
1
  6
Continuous
100
AcDbLine
 10
102.3815589999999
 20
134.929021
 30
0.0
 11
102.320516
 21
135.0283279999999
 31
0.0
  0
LINE
  5
A8DD
330
A7C3
100
AcDbEntity
  8
1
  6
Continuous
100
AcDbLine
 10
100.833485
 20
132.5250289999999
 30
0.0
 11
100.390694
 21
132.9601589999998
 31
0.0
  0
ARC
  5
A8DE
330
A7C3
100
AcDbEntity
  8
1
  6
Continuous
100
AcDbCircle
 10
101.894554
 20
134.7664949999999
 30
0.0
 40
0.5
100
AcDbArc
 50
31.57839099999999
 51
106.641975
  0
ARC
  5
A8DF
330
A7C3
100
AcDbEntity
  8
1
  6
Continuous
100
AcDbCircle
 10
89.20941500000003
 20
139.1152069999999
 30
0.0
 40
14.0
100
AcDbArc
 50
332.5
 51
340.7626099999999
  0
ARC
  5
A8E0
330
A7C3
100
AcDbEntity
  8
1
  6
Continuous
100
AcDbCircle
 10
101.9555959999999
 20
134.6671889999998
 30
0.0
 40
0.5
100
AcDbArc
 50
340.7626099999999
 51
31.57839099999999
  0
ARC
  5
A8E1
330
A7C3
100
AcDbEntity
  8
1
  6
Continuous
100
AcDbCircle
 10
101.183939
 20
132.881654
 30
0.0
 40
0.5
100
AcDbArc
 50
225.4999999999998
 51
332.5
  0
ARC
  5
A8E2
330
A7C3
100
AcDbEntity
  8
1
  6
Continuous
100
AcDbCircle
 10
97.255596
 20
133.541495
 30
0.0
 40
0.2
100
AcDbArc
 50
0.0
 51
90.0
  0
ARC
  5
A8E3
330
A7C3
100
AcDbEntity
  8
1
  6
Continuous
100
AcDbCircle
 10
91.63392399999999
 20
186.0919029999998
 30
0.0
 40
14.0
100
AcDbArc
 50
298.6934309999999
 51
306.380896
  0
LINE
  5
A8E4
330
A7C3
100
AcDbEntity
  8
1
  6
Continuous
100
AcDbLine
 10
100.1408569999999
 20
175.198713
 30
0.0
 11
100.146558
 21
175.3151409999999
 31
0.0
  0
ARC
  5
A8E5
330
A7C3
100
AcDbEntity
  8
1
  6
Continuous
100
AcDbCircle
 10
99.64145600000001
 20
175.223167
 30
0.0
 40
0.5
100
AcDbArc
 50
306.380896
 51
357.1966779999999
  0
ARC
  5
A8E6
330
A7C3
100
AcDbEntity
  8
1
  6
Continuous
100
AcDbCircle
 10
99.64715700000001
 20
175.3395949999998
 30
0.0
 40
0.5
100
AcDbArc
 50
357.1966779999999
 51
72.260261
  0
LINE
  5
A8E7
330
A7C3
100
AcDbEntity
  8
4
  6
CENTER
100
AcDbLine
 10
97.455645
 20
164.650724
 30
0.0
 11
105.4556449999999
 21
164.650724
 31
0.0
  0
ARC
  5
A8E8
330
A7C3
100
AcDbEntity
  8
1
  6
Continuous
100
AcDbCircle
 10
98.155645
 20
166.3507239999999
 30
0.0
 40
0.2
100
AcDbArc
 50
270.0
 51
0.0
  0
ARC
  5
A8E9
330
A7C3
100
AcDbEntity
  8
1
  6
Continuous
100
AcDbCircle
 10
99.64145600000001
 20
168.078282
 30
0.0
 40
0.5
100
AcDbArc
 50
2.803322
 51
53.61910400000001
  0
ARC
  5
A8EA
330
A7C3
100
AcDbEntity
  8
1
  6
Continuous
100
AcDbCircle
 10
91.63392399999999
 20
157.2095449999999
 30
0.0
 40
14.0
100
AcDbArc
 50
53.61910400000001
 51
61.30656899999999
  0
ARC
  5
A8EB
330
A7C3
100
AcDbEntity
  8
1
  6
Continuous
100
AcDbCircle
 10
99.64715700000001
 20
167.9618539999999
 30
0.0
 40
0.5
100
AcDbArc
 50
287.739739
 51
2.803322
  0
LINE
  5
A8EC
330
A7C3
100
AcDbEntity
  8
1
  6
Continuous
100
AcDbLine
 10
100.1408569999999
 20
168.1027359999999
 30
0.0
 11
100.146558
 21
167.986308
 31
0.0
  0
LINE
  5
A8ED
330
A7C3
100
AcDbEntity
  8
1
  6
Continuous
100
AcDbLine
 10
99.79950399999999
 20
167.4856289999999
 30
0.0
 11
98.66297900000001
 21
167.122049
 31
0.0
  0
ARC
  5
A8EE
330
A7C3
100
AcDbEntity
  8
1
  6
Continuous
100
AcDbCircle
 10
98.20593800000001
 20
168.5507239999998
 30
0.0
 40
1.5
100
AcDbArc
 50
275.727922
 51
287.73976
  0
LINE
  5
A8EF
330
A7C3
100
AcDbEntity
  8
1
  6
Continuous
100
AcDbLine
 10
98.355645
 20
169.650724
 30
0.0
 11
99.45564500000001
 21
169.650724
 31
0.0
  0
LINE
  5
A8F0
330
A7C3
100
AcDbEntity
  8
1
  6
Continuous
100
AcDbLine
 10
100.9556449999999
 20
161.1507239999999
 30
0.0
 11
102.4556449999999
 21
161.1507239999999
 31
0.0
  0
ARC
  5
A8F1
330
A7C3
100
AcDbEntity
  8
1
  6
Continuous
100
AcDbCircle
 10
100.9556449999999
 20
161.6507239999999
 30
0.0
 40
0.5
100
AcDbArc
 50
180.0
 51
270.0
  0
ARC
  5
A8F2
330
A7C3
100
AcDbEntity
  8
1
  6
Continuous
100
AcDbCircle
 10
99.45564500000001
 20
168.650724
 30
0.0
 40
1.0
100
AcDbArc
 50
0.0
 51
90.0
  0
LINE
  5
A8F3
330
A7C3
100
AcDbEntity
  8
1
  6
Continuous
100
AcDbLine
 10
98.355645
 20
173.6507239999999
 30
0.0
 11
99.45564500000001
 21
173.6507239999999
 31
0.0
  0
ARC
  5
A8F4
330
A7C3
100
AcDbEntity
  8
1
  6
Continuous
100
AcDbCircle
 10
99.45564500000001
 20
174.6507239999999
 30
0.0
 40
1.0
100
AcDbArc
 50
270.0
 51
0.0
  0
LINE
  5
A8F5
330
A7C3
100
AcDbEntity
  8
4
  6
CENTER
100
AcDbLine
 10
152.6966899999998
 20
86.61114399999998
 30
0.0
 11
152.6966899999998
 21
99.61114399999999
 31
0.0
  0
LINE
  5
A8F6
330
A7C3
100
AcDbEntity
  8
1
  6
Continuous
100
AcDbLine
 10
159.7111899999999
 20
91.21114400000001
 30
0.0
 11
156.83669
 21
91.21114400000001
 31
0.0
  0
LINE
  5
A8F7
330
A7C3
100
AcDbEntity
  8
1
  6
Continuous
100
AcDbLine
 10
159.7111899999999
 20
95.01114399999996
 30
0.0
 11
156.83669
 21
95.01114399999996
 31
0.0
  0
LINE
  5
A8F8
330
A7C3
100
AcDbEntity
  8
4
  6
CENTER
100
AcDbLine
 10
142.68219
 20
93.11114399999999
 30
0.0
 11
162.7111899999999
 21
93.11114399999999
 31
0.0
  0
LINE
  5
A8F9
330
A7C3
100
AcDbEntity
  8
1
  6
Continuous
100
AcDbLine
 10
154.6966899999999
 20
90.61114399999999
 30
0.0
 11
154.6966899999999
 21
95.61114399999999
 31
0.0
  0
LINE
  5
A8FA
330
A7C3
100
AcDbEntity
  8
1
  6
Continuous
100
AcDbLine
 10
150.6966899999999
 20
90.61114399999999
 30
0.0
 11
150.6966899999999
 21
95.61114399999999
 31
0.0
  0
LINE
  5
A8FB
330
A7C3
100
AcDbEntity
  8
1
  6
Continuous
100
AcDbLine
 10
156.83669
 20
91.21114400000001
 30
0.0
 11
156.83669
 21
95.01114399999996
 31
0.0
  0
LINE
  5
A8FC
330
A7C3
100
AcDbEntity
  8
1
  6
Continuous
100
AcDbLine
 10
148.55669
 20
91.21114400000001
 30
0.0
 11
148.55669
 21
95.01114399999996
 31
0.0
  0
LINE
  5
A8FD
330
A7C3
100
AcDbEntity
  8
1
  6
Continuous
100
AcDbLine
 10
158.1966899999999
 20
95.61114399999999
 30
0.0
 11
158.1966899999999
 21
95.86114399999999
 31
0.0
  0
LINE
  5
A8FE
330
A7C3
100
AcDbEntity
  8
1
  6
Continuous
100
AcDbLine
 10
158.1966899999999
 20
95.61114399999999
 30
0.0
 11
158.1966899999999
 21
95.86114399999999
 31
0.0
  0
LINE
  5
A8FF
330
A7C3
100
AcDbEntity
  8
1
  6
Continuous
100
AcDbLine
 10
147.1966899999999
 20
95.61114399999999
 30
0.0
 11
147.1966899999999
 21
95.86114399999999
 31
0.0
  0
LINE
  5
A900
330
A7C3
100
AcDbEntity
  8
1
  6
Continuous
100
AcDbLine
 10
145.68219
 20
95.01114399999996
 30
0.0
 11
148.55669
 21
95.01114399999996
 31
0.0
  0
LINE
  5
A901
330
A7C3
100
AcDbEntity
  8
1
  6
Continuous
100
AcDbLine
 10
145.68219
 20
91.21114400000001
 30
0.0
 11
148.55669
 21
91.21114400000001
 31
0.0
  0
LINE
  5
A902
330
A7C3
100
AcDbEntity
  8
0
  6
Continuous
100
AcDbLine
 10
145.68219
 20
91.21114400000001
 30
0.0
 11
145.68219
 21
95.01114399999996
 31
0.0
  0
ARC
  5
A903
330
A7C3
100
AcDbEntity
  8
1
  6
Continuous
100
AcDbCircle
 10
147.94669
 20
95.86114399999999
 30
0.0
 40
0.75
100
AcDbArc
 50
90.0
 51
180.0
  0
LINE
  5
A904
330
A7C3
100
AcDbEntity
  8
1
  6
Continuous
100
AcDbLine
 10
147.1966899999999
 20
90.361144
 30
0.0
 11
147.1966899999999
 21
90.61114399999999
 31
0.0
  0
ARC
  5
A905
330
A7C3
100
AcDbEntity
  8
1
  6
Continuous
100
AcDbCircle
 10
147.94669
 20
90.361144
 30
0.0
 40
0.75
100
AcDbArc
 50
180.0
 51
270.0
  0
LINE
  5
A906
330
A7C3
100
AcDbEntity
  8
1
  6
Continuous
100
AcDbLine
 10
147.1966899999999
 20
95.61114399999999
 30
0.0
 11
146.3882899999999
 21
95.01114399999996
 31
0.0
  0
LINE
  5
A907
330
A7C3
100
AcDbEntity
  8
1
  6
Continuous
100
AcDbLine
 10
146.3882899999999
 20
91.21114400000001
 30
0.0
 11
147.1966899999999
 21
90.61114399999999
 31
0.0
  0
ARC
  5
A908
330
A7C3
100
AcDbEntity
  8
1
  6
Continuous
100
AcDbCircle
 10
157.44669
 20
95.86114399999999
 30
0.0
 40
0.75
100
AcDbArc
 50
0.0
 51
90.0
  0
LINE
  5
A909
330
A7C3
100
AcDbEntity
  8
1
  6
Continuous
100
AcDbLine
 10
158.1966899999999
 20
90.361144
 30
0.0
 11
158.1966899999999
 21
90.61114399999999
 31
0.0
  0
ARC
  5
A90A
330
A7C3
100
AcDbEntity
  8
1
  6
Continuous
100
AcDbCircle
 10
157.44669
 20
90.361144
 30
0.0
 40
0.75
100
AcDbArc
 50
270.0
 51
0.0
  0
LINE
  5
A90B
330
A7C3
100
AcDbEntity
  8
1
  6
Continuous
100
AcDbLine
 10
159.00509
 20
91.21114400000001
 30
0.0
 11
158.1966899999999
 21
90.61114399999999
 31
0.0
  0
LINE
  5
A90C
330
A7C3
100
AcDbEntity
  8
1
  6
Continuous
100
AcDbLine
 10
158.1966899999999
 20
95.61114399999999
 30
0.0
 11
159.00509
 21
95.01114399999996
 31
0.0
  0
LINE
  5
A90D
330
A7C3
100
AcDbEntity
  8
1
  6
Continuous
100
AcDbLine
 10
158.1966899999999
 20
90.361144
 30
0.0
 11
158.1966899999999
 21
90.61114399999999
 31
0.0
  0
LINE
  5
A90E
330
A7C3
100
AcDbEntity
  8
1
  6
Continuous
100
AcDbLine
 10
147.1966899999999
 20
95.61114399999999
 30
0.0
 11
158.1966899999999
 21
95.61114399999999
 31
0.0
  0
LINE
  5
A90F
330
A7C3
100
AcDbEntity
  8
1
  6
Continuous
100
AcDbLine
 10
147.1966899999999
 20
90.61114399999999
 30
0.0
 11
158.1966899999999
 21
90.61114399999999
 31
0.0
  0
LINE
  5
A910
330
A7C3
100
AcDbEntity
  8
1
  6
Continuous
100
AcDbLine
 10
147.94669
 20
96.611144
 30
0.0
 11
157.44669
 21
96.611144
 31
0.0
  0
LINE
  5
A911
330
A7C3
100
AcDbEntity
  8
1
  6
Continuous
100
AcDbLine
 10
147.94669
 20
89.61114399999997
 30
0.0
 11
157.44669
 21
89.61114399999997
 31
0.0
  0
LINE
  5
A912
330
A7C3
100
AcDbEntity
  8
0
  6
Continuous
100
AcDbLine
 10
159.7111899999999
 20
91.21114400000001
 30
0.0
 11
159.7111899999999
 21
95.01114399999996
 31
0.0
  0
LINE
  5
A913
330
A7C3
100
AcDbEntity
  8
4
  6
CENTER
100
AcDbLine
 10
226.137785
 20
93.11114399999999
 30
0.0
 11
199.9377849999999
 21
93.11114399999999
 31
0.0
  0
LINE
  5
A914
330
A7C3
100
AcDbEntity
  8
1
  6
Continuous
100
AcDbLine
 10
207.9377849999999
 20
90.61114399999999
 30
0.0
 11
205.724989
 21
90.61114399999999
 31
0.0
  0
LINE
  5
A915
330
A7C3
100
AcDbEntity
  8
1
  6
Continuous
100
AcDbLine
 10
207.9377849999999
 20
95.61114399999999
 30
0.0
 11
205.724989
 21
95.61114399999999
 31
0.0
  0
LINE
  5
A916
330
A7C3
100
AcDbEntity
  8
1
  6
Continuous
100
AcDbLine
 10
205.686235
 20
95.01114399999996
 30
0.0
 11
202.9377849999999
 21
95.01114399999996
 31
0.0
  0
LINE
  5
A917
330
A7C3
100
AcDbEntity
  8
1
  6
Continuous
100
AcDbLine
 10
205.686235
 20
91.21114400000001
 30
0.0
 11
202.9377849999999
 21
91.21114400000001
 31
0.0
  0
LINE
  5
A918
330
A7C3
100
AcDbEntity
  8
1
  6
Continuous
100
AcDbLine
 10
206.2197489999999
 20
90.61114399999999
 30
0.0
 11
205.686235
 21
91.21114400000001
 31
0.0
  0
LINE
  5
A919
330
A7C3
100
AcDbEntity
  8
1
  6
Continuous
100
AcDbLine
 10
205.724989
 20
90.61114399999999
 30
0.0
 11
205.0026869999999
 21
91.21114400000001
 31
0.0
  0
LINE
  5
A91A
330
A7C3
100
AcDbEntity
  8
1
  6
Continuous
100
AcDbLine
 10
206.2197489999999
 20
95.61114399999999
 30
0.0
 11
205.686235
 21
95.01114399999996
 31
0.0
  0
LINE
  5
A91B
330
A7C3
100
AcDbEntity
  8
1
  6
Continuous
100
AcDbLine
 10
205.724989
 20
95.61114399999999
 30
0.0
 11
205.0026869999999
 21
95.01114399999996
 31
0.0
  0
LINE
  5
A91C
330
A7C3
100
AcDbEntity
  8
1
  6
Continuous
100
AcDbLine
 10
205.3932459999999
 20
94.51114399999999
 30
0.0
 11
205.3932459999999
 21
91.71114399999996
 31
0.0
  0
LINE
  5
A91D
330
A7C3
100
AcDbEntity
  8
1
  6
Continuous
100
AcDbLine
 10
202.9377849999999
 20
95.01114399999996
 30
0.0
 11
202.9377849999999
 21
91.21114400000001
 31
0.0
  0
LINE
  5
A91E
330
A7C3
100
AcDbEntity
  8
1
  6
Continuous
100
AcDbLine
 10
207.9377849999999
 20
96.41114399999999
 30
0.0
 11
207.9377849999999
 21
89.811144
 31
0.0
  0
ARC
  5
A91F
330
A7C3
100
AcDbEntity
  8
1
  6
Continuous
100
AcDbCircle
 10
208.1377849999999
 20
89.811144
 30
0.0
 40
0.2
100
AcDbArc
 50
180.0
 51
270.0
  0
ARC
  5
A920
330
A7C3
100
AcDbEntity
  8
1
  6
Continuous
100
AcDbCircle
 10
208.1377849999999
 20
96.41114399999999
 30
0.0
 40
0.2
100
AcDbArc
 50
90.0
 51
180.0
  0
LINE
  5
A921
330
A7C3
100
AcDbEntity
  8
1
  6
Continuous
100
AcDbLine
 10
207.5345659999999
 20
95.04114399999997
 30
0.0
 11
207.5345659999999
 21
91.18114400000001
 31
0.0
  0
LINE
  5
A922
330
A7C3
100
AcDbEntity
  8
1
  6
Continuous
100
AcDbLine
 10
223.137785
 20
95.86114399999999
 30
0.0
 11
223.137785
 21
90.361144
 31
0.0
  0
ARC
  5
A923
330
A7C3
100
AcDbEntity
  8
1
  6
Continuous
100
AcDbCircle
 10
222.387785
 20
90.361144
 30
0.0
 40
0.75
100
AcDbArc
 50
270.0
 51
0.0
  0
ARC
  5
A924
330
A7C3
100
AcDbEntity
  8
1
  6
Continuous
100
AcDbCircle
 10
222.387785
 20
95.86114399999999
 30
0.0
 40
0.75
100
AcDbArc
 50
0.0
 51
90.0
  0
ARC
  5
A925
330
A7C3
100
AcDbEntity
  8
1
  6
Continuous
100
AcDbCircle
 10
214.6377849999999
 20
90.81114400000002
 30
0.0
 40
0.3
100
AcDbArc
 50
270.0
 51
90.0
  0
LINE
  5
A926
330
A7C3
100
AcDbEntity
  8
1
  6
Continuous
100
AcDbLine
 10
210.9377849999999
 20
96.611144
 30
0.0
 11
210.9377849999999
 21
89.61114399999997
 31
0.0
  0
LINE
  5
A927
330
A7C3
100
AcDbEntity
  8
1
  6
Continuous
100
AcDbLine
 10
214.6377849999999
 20
90.51114400000001
 30
0.0
 11
210.9377849999999
 21
90.51114400000001
 31
0.0
  0
LINE
  5
A928
330
A7C3
100
AcDbEntity
  8
1
  6
Continuous
100
AcDbLine
 10
214.6377849999999
 20
95.111144
 30
0.0
 11
212.3377849999999
 21
95.111144
 31
0.0
  0
LINE
  5
A929
330
A7C3
100
AcDbEntity
  8
1
  6
Continuous
100
AcDbLine
 10
214.6377849999999
 20
95.71114399999999
 30
0.0
 11
210.9377849999999
 21
95.71114399999999
 31
0.0
  0
ARC
  5
A92A
330
A7C3
100
AcDbEntity
  8
1
  6
Continuous
100
AcDbCircle
 10
214.6377849999999
 20
95.41114399999999
 30
0.0
 40
0.3
100
AcDbArc
 50
270.0
 51
90.0
  0
LINE
  5
A92B
330
A7C3
100
AcDbEntity
  8
1
  6
Continuous
100
AcDbLine
 10
213.487785
 20
94.86114399999999
 30
0.0
 11
213.487785
 21
93.36114399999999
 31
0.0
  0
LINE
  5
A92C
330
A7C3
100
AcDbEntity
  8
1
  6
Continuous
100
AcDbLine
 10
214.6377849999999
 20
91.11114399999999
 30
0.0
 11
212.3377849999999
 21
91.11114399999999
 31
0.0
  0
LINE
  5
A92D
330
A7C3
100
AcDbEntity
  8
1
  6
Continuous
100
AcDbLine
 10
214.180605
 20
95.111144
 30
0.0
 11
214.180605
 21
91.11114399999999
 31
0.0
  0
LINE
  5
A92E
330
A7C3
100
AcDbEntity
  8
1
  6
Continuous
100
AcDbLine
 10
213.1877849999999
 20
95.111144
 30
0.0
 11
213.1877849999999
 21
91.11114399999999
 31
0.0
  0
LINE
  5
A92F
330
A7C3
100
AcDbEntity
  8
1
  6
Continuous
100
AcDbLine
 10
212.837785
 20
95.111144
 30
0.0
 11
212.837785
 21
91.11114399999999
 31
0.0
  0
LINE
  5
A930
330
A7C3
100
AcDbEntity
  8
1
  6
Continuous
100
AcDbLine
 10
212.3377849999999
 20
95.111144
 30
0.0
 11
212.3377849999999
 21
91.11114399999999
 31
0.0
  0
LINE
  5
A931
330
A7C3
100
AcDbEntity
  8
1
  6
Continuous
100
AcDbLine
 10
213.487785
 20
92.861144
 30
0.0
 11
213.487785
 21
91.361144
 31
0.0
  0
LINE
  5
A932
330
A7C3
100
AcDbEntity
  8
1
  6
Continuous
100
AcDbLine
 10
222.387785
 20
89.61114399999997
 30
0.0
 11
208.1377849999999
 21
89.61114399999997
 31
0.0
  0
LINE
  5
A933
330
A7C3
100
AcDbEntity
  8
1
  6
Continuous
100
AcDbLine
 10
222.387785
 20
96.611144
 30
0.0
 11
208.1377849999999
 21
96.611144
 31
0.0
  0
LINE
  5
A934
330
A7C3
100
AcDbEntity
  8
1
  6
Continuous
100
AcDbLine
 10
22.514501
 20
208.9207539999999
 30
0.0
 11
41.514501
 21
208.9207539999999
 31
0.0
  0
LINE
  5
A935
330
A7C3
100
AcDbEntity
  8
1
  6
Continuous
100
AcDbLine
 10
41.514501
 20
215.920754
 30
0.0
 11
22.514501
 21
215.920754
 31
0.0
  0
LINE
  5
A936
330
A7C3
100
AcDbEntity
  8
1
  6
Continuous
100
AcDbLine
 10
30.214501
 20
211.520754
 30
0.0
 11
32.01450100000001
 21
211.71937
 31
0.0
  0
LINE
  5
A937
330
A7C3
100
AcDbEntity
  8
1
  6
Continuous
100
AcDbLine
 10
30.214501
 20
213.3207539999999
 30
0.0
 11
32.01450100000001
 21
213.122137
 31
0.0
  0
LINE
  5
A938
330
A7C3
100
AcDbEntity
  8
1
  6
Continuous
100
AcDbLine
 10
32.01450100000001
 20
213.3207539999999
 30
0.0
 11
29.514501
 21
213.3207539999999
 31
0.0
  0
LINE
  5
A939
330
A7C3
100
AcDbEntity
  8
1
  6
Continuous
100
AcDbLine
 10
32.01450100000001
 20
211.520754
 30
0.0
 11
29.514501
 21
211.520754
 31
0.0
  0
LINE
  5
A93A
330
A7C3
100
AcDbEntity
  8
1
  6
Continuous
100
AcDbLine
 10
32.01450100000001
 20
209.920754
 30
0.0
 11
30.014501
 21
209.920754
 31
0.0
  0
LINE
  5
A93B
330
A7C3
100
AcDbEntity
  8
1
  6
Continuous
100
AcDbLine
 10
32.01450100000001
 20
214.9207539999999
 30
0.0
 11
30.014501
 21
214.9207539999999
 31
0.0
  0
LINE
  5
A93C
330
A7C3
100
AcDbEntity
  8
1
  6
Continuous
100
AcDbLine
 10
36.764501
 20
208.9207539999999
 30
0.0
 11
27.264501
 21
208.9207539999999
 31
0.0
  0
LINE
  5
A93D
330
A7C3
100
AcDbEntity
  8
1
  6
Continuous
100
AcDbLine
 10
36.764501
 20
215.920754
 30
0.0
 11
27.264501
 21
215.920754
 31
0.0
  0
LINE
  5
A93E
330
A7C3
100
AcDbEntity
  8
4
  6
CENTER
100
AcDbLine
 10
42.02900099999999
 20
212.420754
 30
0.0
 11
22.000001
 21
212.420754
 31
0.0
  0
LINE
  5
A93F
330
A7C3
100
AcDbEntity
  8
1
  6
Continuous
100
AcDbLine
 10
21.51450099999999
 20
214.9207539999999
 30
0.0
 11
21.51450099999999
 21
209.920754
 31
0.0
  0
LINE
  5
A940
330
A7C3
100
AcDbEntity
  8
4
  6
CENTER
100
AcDbLine
 10
25.014501
 20
215.9707539999998
 30
0.0
 11
25.014501
 21
208.870754
 31
0.0
  0
ARC
  5
A941
330
A7C3
100
AcDbEntity
  8
1
  6
Continuous
100
AcDbCircle
 10
22.514501
 20
209.920754
 30
0.0
 40
1.0
100
AcDbArc
 50
180.0
 51
270.0
  0
ARC
  5
A942
330
A7C3
100
AcDbEntity
  8
1
  6
Continuous
100
AcDbCircle
 10
22.514501
 20
214.9207539999999
 30
0.0
 40
1.0
100
AcDbArc
 50
90.0
 51
180.0
  0
ARC
  5
A943
330
A7C3
100
AcDbEntity
  8
1
  6
Continuous
100
AcDbCircle
 10
25.014501
 20
212.420754
 30
0.0
 40
2.799999999999998
100
AcDbArc
 50
57.60763499999999
 51
302.3923649999999
  0
CIRCLE
  5
A944
330
A7C3
100
AcDbEntity
  8
1
  6
Continuous
100
AcDbCircle
 10
25.014501
 20
212.420754
 30
0.0
 40
1.3
  0
LINE
  5
A945
330
A7C3
100
AcDbEntity
  8
1
  6
Continuous
100
AcDbLine
 10
28.014501
 20
209.920754
 30
0.0
 11
27.514501
 21
209.920754
 31
0.0
  0
LINE
  5
A946
330
A7C3
100
AcDbEntity
  8
1
  6
Continuous
100
AcDbLine
 10
28.014501
 20
214.9207539999999
 30
0.0
 11
27.514501
 21
214.9207539999999
 31
0.0
  0
LINE
  5
A947
330
A7C3
100
AcDbEntity
  8
1
  6
Continuous
100
AcDbLine
 10
27.514501
 20
209.920754
 30
0.0
 11
27.514501
 21
214.9207539999999
 31
0.0
  0
LINE
  5
A948
330
A7C3
100
AcDbEntity
  8
1
  6
Continuous
100
AcDbLine
 10
31.349531
 20
211.344454
 30
0.0
 11
29.514501
 21
211.344454
 31
0.0
  0
LINE
  5
A949
330
A7C3
100
AcDbEntity
  8
1
  6
Continuous
100
AcDbLine
 10
29.514501
 20
210.697045
 30
0.0
 11
31.349531
 21
210.697045
 31
0.0
  0
LINE
  5
A94A
330
A7C3
100
AcDbEntity
  8
1
  6
Continuous
100
AcDbLine
 10
31.349531
 20
210.697045
 30
0.0
 11
31.349531
 21
211.344454
 31
0.0
  0
LINE
  5
A94B
330
A7C3
100
AcDbEntity
  8
1
  6
Continuous
100
AcDbLine
 10
31.349531
 20
214.144462
 30
0.0
 11
31.349531
 21
213.4970539999999
 31
0.0
  0
LINE
  5
A94C
330
A7C3
100
AcDbEntity
  8
1
  6
Continuous
100
AcDbLine
 10
31.349531
 20
213.4970539999999
 30
0.0
 11
29.514501
 21
213.4970539999999
 31
0.0
  0
LINE
  5
A94D
330
A7C3
100
AcDbEntity
  8
1
  6
Continuous
100
AcDbLine
 10
29.514501
 20
214.144462
 30
0.0
 11
31.349531
 21
214.144462
 31
0.0
  0
LINE
  5
A94E
330
A7C3
100
AcDbEntity
  8
1
  6
Continuous
100
AcDbLine
 10
30.214501
 20
211.520754
 30
0.0
 11
30.214501
 21
213.3207539999999
 31
0.0
  0
LINE
  5
A94F
330
A7C3
100
AcDbEntity
  8
1
  6
Continuous
100
AcDbLine
 10
30.014501
 20
210.520754
 30
0.0
 11
30.014501
 21
209.920754
 31
0.0
  0
LINE
  5
A950
330
A7C3
100
AcDbEntity
  8
1
  6
Continuous
100
AcDbLine
 10
30.014501
 20
214.9207539999999
 30
0.0
 11
30.014501
 21
214.320754
 31
0.0
  0
LINE
  5
A951
330
A7C3
100
AcDbEntity
  8
1
  6
Continuous
100
AcDbLine
 10
30.014501
 20
210.520754
 30
0.0
 11
29.514501
 21
210.520754
 31
0.0
  0
LINE
  5
A952
330
A7C3
100
AcDbEntity
  8
1
  6
Continuous
100
AcDbLine
 10
30.014501
 20
214.320754
 30
0.0
 11
29.514501
 21
214.320754
 31
0.0
  0
LINE
  5
A953
330
A7C3
100
AcDbEntity
  8
1
  6
Continuous
100
AcDbLine
 10
29.514501
 20
214.320754
 30
0.0
 11
29.514501
 21
210.520754
 31
0.0
  0
ARC
  5
A954
330
A7C3
100
AcDbEntity
  8
1
  6
Continuous
100
AcDbCircle
 10
28.21450099999999
 20
215.7207539999999
 30
0.0
 40
0.2
100
AcDbArc
 50
90.0
 51
180.0
  0
LINE
  5
A955
330
A7C3
100
AcDbEntity
  8
1
  6
Continuous
100
AcDbLine
 10
28.014501
 20
209.120754
 30
0.0
 11
28.014501
 21
215.7207539999999
 31
0.0
  0
ARC
  5
A956
330
A7C3
100
AcDbEntity
  8
1
  6
Continuous
100
AcDbCircle
 10
28.21450099999999
 20
209.120754
 30
0.0
 40
0.2
100
AcDbArc
 50
180.0
 51
270.0
  0
LINE
  5
A957
330
A7C3
100
AcDbEntity
  8
0
  6
Continuous
100
AcDbLine
 10
25.000001
 20
210.520754
 30
0.0
 11
25.000001
 21
214.320754
 31
0.0
  0
LINE
  5
A958
330
A7C3
100
AcDbEntity
  8
1
  6
Continuous
100
AcDbLine
 10
26.51450099999999
 20
209.6707539999999
 30
0.0
 11
26.51450099999999
 21
215.1707539999999
 31
0.0
  0
ARC
  5
A959
330
A7C3
100
AcDbEntity
  8
1
  6
Continuous
100
AcDbCircle
 10
27.264501
 20
209.6707539999999
 30
0.0
 40
0.75
100
AcDbArc
 50
180.0
 51
270.0
  0
LINE
  5
A95A
330
A7C3
100
AcDbEntity
  8
1
  6
Continuous
100
AcDbLine
 10
26.51450099999999
 20
209.6707539999999
 30
0.0
 11
26.51450099999999
 21
215.1707539999999
 31
0.0
  0
ARC
  5
A95B
330
A7C3
100
AcDbEntity
  8
1
  6
Continuous
100
AcDbCircle
 10
27.264501
 20
215.1707539999999
 30
0.0
 40
0.75
100
AcDbArc
 50
90.0
 51
180.0
  0
LINE
  5
A95C
330
A7C3
100
AcDbEntity
  8
1
  6
Continuous
100
AcDbLine
 10
28.014501
 20
210.4207539999999
 30
0.0
 11
27.614501
 21
210.4207539999999
 31
0.0
  0
LINE
  5
A95D
330
A7C3
100
AcDbEntity
  8
1
  6
Continuous
100
AcDbLine
 10
28.014501
 20
214.420754
 30
0.0
 11
27.614501
 21
214.420754
 31
0.0
  0
LINE
  5
A95E
330
A7C3
100
AcDbEntity
  8
1
  6
Continuous
100
AcDbLine
 10
27.614501
 20
210.4207539999999
 30
0.0
 11
27.614501
 21
214.420754
 31
0.0
  0
LINE
  5
A95F
330
A7C3
100
AcDbEntity
  8
1
  6
Continuous
100
AcDbLine
 10
42.514501
 20
209.920754
 30
0.0
 11
42.514501
 21
214.9207539999999
 31
0.0
  0
LINE
  5
A960
330
A7C3
100
AcDbEntity
  8
4
  6
CENTER
100
AcDbLine
 10
39.014501
 20
215.9707539999998
 30
0.0
 11
39.014501
 21
208.870754
 31
0.0
  0
ARC
  5
A961
330
A7C3
100
AcDbEntity
  8
1
  6
Continuous
100
AcDbCircle
 10
39.014501
 20
212.420754
 30
0.0
 40
2.799999999999998
100
AcDbArc
 50
237.607635
 51
122.3923649999999
  0
CIRCLE
  5
A962
330
A7C3
100
AcDbEntity
  8
1
  6
Continuous
100
AcDbCircle
 10
39.014501
 20
212.420754
 30
0.0
 40
1.3
  0
ARC
  5
A963
330
A7C3
100
AcDbEntity
  8
1
  6
Continuous
100
AcDbCircle
 10
41.514501
 20
209.920754
 30
0.0
 40
1.0
100
AcDbArc
 50
270.0
 51
0.0
  0
ARC
  5
A964
330
A7C3
100
AcDbEntity
  8
1
  6
Continuous
100
AcDbCircle
 10
41.514501
 20
214.9207539999999
 30
0.0
 40
1.0
100
AcDbArc
 50
0.0
 51
90.0
  0
LINE
  5
A965
330
A7C3
100
AcDbEntity
  8
1
  6
Continuous
100
AcDbLine
 10
36.514501
 20
209.920754
 30
0.0
 11
36.014501
 21
209.920754
 31
0.0
  0
LINE
  5
A966
330
A7C3
100
AcDbEntity
  8
1
  6
Continuous
100
AcDbLine
 10
36.514501
 20
214.9207539999999
 30
0.0
 11
36.014501
 21
214.9207539999999
 31
0.0
  0
LINE
  5
A967
330
A7C3
100
AcDbEntity
  8
1
  6
Continuous
100
AcDbLine
 10
36.514501
 20
209.920754
 30
0.0
 11
36.514501
 21
214.9207539999999
 31
0.0
  0
LINE
  5
A968
330
A7C3
100
AcDbEntity
  8
1
  6
Continuous
100
AcDbLine
 10
32.01450100000001
 20
214.9207539999999
 30
0.0
 11
32.01450100000001
 21
209.920754
 31
0.0
  0
ARC
  5
A969
330
A7C3
100
AcDbEntity
  8
1
  6
Continuous
100
AcDbCircle
 10
35.814501
 20
209.120754
 30
0.0
 40
0.2
100
AcDbArc
 50
270.0
 51
0.0
  0
LINE
  5
A96A
330
A7C3
100
AcDbEntity
  8
1
  6
Continuous
100
AcDbLine
 10
36.014501
 20
209.120754
 30
0.0
 11
36.014501
 21
215.7207539999999
 31
0.0
  0
ARC
  5
A96B
330
A7C3
100
AcDbEntity
  8
1
  6
Continuous
100
AcDbCircle
 10
35.814501
 20
215.7207539999999
 30
0.0
 40
0.2
100
AcDbArc
 50
0.0
 51
90.0
  0
ARC
  5
A96C
330
A7C3
100
AcDbEntity
  8
1
  6
Continuous
100
AcDbCircle
 10
36.764501
 20
209.6707539999999
 30
0.0
 40
0.75
100
AcDbArc
 50
270.0
 51
0.0
  0
LINE
  5
A96D
330
A7C3
100
AcDbEntity
  8
1
  6
Continuous
100
AcDbLine
 10
37.514501
 20
209.6707539999999
 30
0.0
 11
37.514501
 21
215.1707539999999
 31
0.0
  0
ARC
  5
A96E
330
A7C3
100
AcDbEntity
  8
1
  6
Continuous
100
AcDbCircle
 10
36.764501
 20
215.1707539999999
 30
0.0
 40
0.75
100
AcDbArc
 50
0.0
 51
90.0
  0
LINE
  5
A96F
330
A7C3
100
AcDbEntity
  8
1
  6
Continuous
100
AcDbLine
 10
36.414501
 20
210.4207539999999
 30
0.0
 11
36.414501
 21
214.420754
 31
0.0
  0
LINE
  5
A970
330
A7C3
100
AcDbEntity
  8
1
  6
Continuous
100
AcDbLine
 10
36.414501
 20
210.4207539999999
 30
0.0
 11
36.014501
 21
210.4207539999999
 31
0.0
  0
LINE
  5
A971
330
A7C3
100
AcDbEntity
  8
1
  6
Continuous
100
AcDbLine
 10
36.414501
 20
214.420754
 30
0.0
 11
36.014501
 21
214.420754
 31
0.0
  0
LINE
  5
A972
330
A7C3
100
AcDbEntity
  8
4
  6
CENTER
100
AcDbLine
 10
32.01450100000001
 20
205.920754
 30
0.0
 11
32.01450100000001
 21
218.9207539999999
 31
0.0
  0
LINE
  5
A973
330
A7C3
100
AcDbEntity
  8
1
  6
Continuous
100
AcDbLine
 10
95.35564499999999
 20
177.150724
 30
0.0
 11
98.155645
 21
177.150724
 31
0.0
  0
LINE
  5
A974
330
A7C3
100
AcDbEntity
  8
4
  6
CENTER
100
AcDbLine
 10
92.65562499999999
 20
212.4207479999999
 30
0.0
 11
105.455625
 21
212.4207479999999
 31
0.0
  0
LINE
  5
A975
330
A7C3
100
AcDbEntity
  8
4
  6
CENTER
100
AcDbLine
 10
80.15559600000001
 20
212.4207649999999
 30
0.0
 11
105.455596
 21
212.4207649999999
 31
0.0
  0
LINE
  5
A976
330
A7C3
100
AcDbEntity
  8
1
  6
Continuous
100
AcDbLine
 10
83.90559600000001
 20
215.9207649999999
 30
0.0
 11
98.155596
 21
215.9207649999999
 31
0.0
  0
LINE
  5
A977
330
A7C3
100
AcDbEntity
  8
1
  6
Continuous
100
AcDbLine
 10
83.90559600000001
 20
208.920765
 30
0.0
 11
98.155596
 21
208.920765
 31
0.0
  0
LINE
  5
A978
330
A7C3
100
AcDbEntity
  8
1
  6
Continuous
100
AcDbLine
 10
92.805645
 20
176.050724
 30
0.0
 11
93.10564499999999
 21
176.050724
 31
0.0
  0
LINE
  5
A979
330
A7C3
100
AcDbEntity
  8
1
  6
Continuous
100
AcDbLine
 10
92.805596
 20
212.1707649999999
 30
0.0
 11
92.805596
 21
210.6707649999999
 31
0.0
  0
LINE
  5
A97A
330
A7C3
100
AcDbEntity
  8
1
  6
Continuous
100
AcDbLine
 10
93.955596
 20
214.4207649999999
 30
0.0
 11
93.955596
 21
210.4207649999999
 31
0.0
  0
LINE
  5
A97B
330
A7C3
100
AcDbEntity
  8
1
  6
Continuous
100
AcDbLine
 10
93.45559599999999
 20
214.4207649999999
 30
0.0
 11
93.45559599999999
 21
210.4207649999999
 31
0.0
  0
LINE
  5
A97C
330
A7C3
100
AcDbEntity
  8
1
  6
Continuous
100
AcDbLine
 10
93.10559600000001
 20
214.4207649999999
 30
0.0
 11
93.10559600000001
 21
210.4207649999999
 31
0.0
  0
LINE
  5
A97D
330
A7C3
100
AcDbEntity
  8
1
  6
Continuous
100
AcDbLine
 10
92.112776
 20
214.4207649999999
 30
0.0
 11
92.112776
 21
210.4207649999999
 31
0.0
  0
LINE
  5
A97E
330
A7C3
100
AcDbEntity
  8
1
  6
Continuous
100
AcDbLine
 10
91.65559599999999
 20
210.4207649999999
 30
0.0
 11
93.955596
 21
210.4207649999999
 31
0.0
  0
LINE
  5
A97F
330
A7C3
100
AcDbEntity
  8
1
  6
Continuous
100
AcDbLine
 10
92.805596
 20
214.1707649999999
 30
0.0
 11
92.805596
 21
212.6707649999999
 31
0.0
  0
ARC
  5
A980
330
A7C3
100
AcDbEntity
  8
1
  6
Continuous
100
AcDbCircle
 10
91.65559599999999
 20
214.7207649999999
 30
0.0
 40
0.3
100
AcDbArc
 50
90.0
 51
270.0
  0
LINE
  5
A981
330
A7C3
100
AcDbEntity
  8
1
  6
Continuous
100
AcDbLine
 10
91.65559599999999
 20
215.020765
 30
0.0
 11
95.35559599999999
 21
215.020765
 31
0.0
  0
LINE
  5
A982
330
A7C3
100
AcDbEntity
  8
1
  6
Continuous
100
AcDbLine
 10
91.65559599999999
 20
214.4207649999999
 30
0.0
 11
93.955596
 21
214.4207649999999
 31
0.0
  0
LINE
  5
A983
330
A7C3
100
AcDbEntity
  8
1
  6
Continuous
100
AcDbLine
 10
91.65559599999999
 20
209.8207649999999
 30
0.0
 11
95.35559599999999
 21
209.8207649999999
 31
0.0
  0
LINE
  5
A984
330
A7C3
100
AcDbEntity
  8
1
  6
Continuous
100
AcDbLine
 10
95.35559599999999
 20
215.9207649999999
 30
0.0
 11
95.35559599999999
 21
208.920765
 31
0.0
  0
ARC
  5
A985
330
A7C3
100
AcDbEntity
  8
1
  6
Continuous
100
AcDbCircle
 10
91.65559599999999
 20
210.1207649999998
 30
0.0
 40
0.3
100
AcDbArc
 50
90.0
 51
270.0
  0
ARC
  5
A986
330
A7C3
100
AcDbEntity
  8
1
  6
Continuous
100
AcDbCircle
 10
83.90559600000001
 20
215.170765
 30
0.0
 40
0.75
100
AcDbArc
 50
90.0
 51
180.0
  0
ARC
  5
A987
330
A7C3
100
AcDbEntity
  8
1
  6
Continuous
100
AcDbCircle
 10
83.90559600000001
 20
209.6707649999999
 30
0.0
 40
0.75
100
AcDbArc
 50
180.0
 51
270.0
  0
LINE
  5
A988
330
A7C3
100
AcDbEntity
  8
1
  6
Continuous
100
AcDbLine
 10
83.155596
 20
215.170765
 30
0.0
 11
83.155596
 21
209.6707649999999
 31
0.0
  0
LINE
  5
A989
330
A7C3
100
AcDbEntity
  8
4
  6
CENTER
100
AcDbLine
 10
97.455645
 20
178.6507239999999
 30
0.0
 11
105.4556449999999
 21
178.6507239999999
 31
0.0
  0
ARC
  5
A98A
330
A7C3
100
AcDbEntity
  8
1
  6
Continuous
100
AcDbCircle
 10
98.155645
 20
176.950724
 30
0.0
 40
0.2
100
AcDbArc
 50
0.0
 51
90.0
  0
ARC
  5
A98B
330
A7C3
100
AcDbEntity
  8
1
  6
Continuous
100
AcDbCircle
 10
98.20593800000001
 20
174.7507249999999
 30
0.0
 40
1.5
100
AcDbArc
 50
72.260261
 51
84.27207799999997
  0
LINE
  5
A98C
330
A7C3
100
AcDbEntity
  8
1
  6
Continuous
100
AcDbLine
 10
100.9556449999999
 20
182.150724
 30
0.0
 11
102.4556449999999
 21
182.150724
 31
0.0
  0
ARC
  5
A98D
330
A7C3
100
AcDbEntity
  8
1
  6
Continuous
100
AcDbCircle
 10
100.9556449999999
 20
181.6507239999999
 30
0.0
 40
0.5
100
AcDbArc
 50
90.0
 51
180.0
  0
LINE
  5
A98E
330
A7C3
100
AcDbEntity
  8
1
  6
Continuous
100
AcDbLine
 10
100.9556249999999
 20
215.920748
 30
0.0
 11
102.455625
 21
215.920748
 31
0.0
  0
LINE
  5
A98F
330
A7C3
100
AcDbEntity
  8
1
  6
Continuous
100
AcDbLine
 10
100.9556249999999
 20
208.920748
 30
0.0
 11
102.455625
 21
208.920748
 31
0.0
  0
ARC
  5
A990
330
A7C3
100
AcDbEntity
  8
1
  6
Continuous
100
AcDbCircle
 10
100.9556249999999
 20
215.420748
 30
0.0
 40
0.5
100
AcDbArc
 50
90.0
 51
180.0
  0
ARC
  5
A991
330
A7C3
100
AcDbEntity
  8
1
  6
Continuous
100
AcDbCircle
 10
100.9556249999999
 20
209.420748
 30
0.0
 40
0.5
100
AcDbArc
 50
180.0
 51
270.0
  0
LINE
  5
A992
330
A7C3
100
AcDbEntity
  8
1
  6
Continuous
100
AcDbLine
 10
100.455625
 20
209.420748
 30
0.0
 11
100.455625
 21
215.420748
 31
0.0
  0
LINE
  5
A993
330
A7C3
100
AcDbEntity
  8
1
  6
Continuous
100
AcDbLine
 10
102.455625
 20
208.920748
 30
0.0
 11
102.455625
 21
215.920748
 31
0.0
  0
LINE
  5
A994
330
A7C3
100
AcDbEntity
  8
1
  6
Continuous
100
AcDbLine
 10
100.1471569999998
 20
213.920748
 30
0.0
 11
100.455625
 21
213.920748
 31
0.0
  0
LINE
  5
A995
330
A7C3
100
AcDbEntity
  8
1
  6
Continuous
100
AcDbLine
 10
100.1471569999998
 20
210.920748
 30
0.0
 11
100.455625
 21
210.920748
 31
0.0
  0
LINE
  5
A996
330
A7C3
100
AcDbEntity
  8
1
  6
Continuous
100
AcDbLine
 10
100.1471569999998
 20
214.3207649999999
 30
0.0
 11
100.1471569999998
 21
210.5207649999999
 31
0.0
  0
LINE
  5
A997
330
A7C3
100
AcDbEntity
  8
1
  6
Continuous
100
AcDbLine
 10
98.59169600000001
 20
213.820765
 30
0.0
 11
98.59169600000001
 21
211.0207649999999
 31
0.0
  0
ARC
  5
A998
330
A7C3
100
AcDbEntity
  8
1
  6
Continuous
100
AcDbCircle
 10
98.155596
 20
215.720765
 30
0.0
 40
0.2
100
AcDbArc
 50
0.0
 51
90.0
  0
ARC
  5
A999
330
A7C3
100
AcDbEntity
  8
1
  6
Continuous
100
AcDbCircle
 10
98.155596
 20
209.1207649999998
 30
0.0
 40
0.2
100
AcDbArc
 50
270.0
 51
0.0
  0
LINE
  5
A99A
330
A7C3
100
AcDbEntity
  8
1
  6
Continuous
100
AcDbLine
 10
98.35559600000001
 20
215.720765
 30
0.0
 11
98.35559600000001
 21
209.1207649999998
 31
0.0
  0
LINE
  5
A99B
330
A7C3
100
AcDbEntity
  8
1
  6
Continuous
100
AcDbLine
 10
98.35559600000001
 20
210.5207649999999
 30
0.0
 11
100.1471569999998
 21
210.5207649999999
 31
0.0
  0
LINE
  5
A99C
330
A7C3
100
AcDbEntity
  8
1
  6
Continuous
100
AcDbLine
 10
98.35559600000001
 20
214.3207649999999
 30
0.0
 11
100.1471569999998
 21
214.3207649999999
 31
0.0
  0
LINE
  5
A99D
330
A7C3
100
AcDbEntity
  8
1
  6
Continuous
100
AcDbLine
 10
88.40564499999997
 20
252.390806
 30
0.0
 11
96.60564499999999
 21
252.390806
 31
0.0
  0
LINE
  5
A99E
330
A7C3
100
AcDbEntity
  8
1
  6
Continuous
100
AcDbLine
 10
88.40564499999997
 20
253.3908059999999
 30
0.0
 11
96.60564499999999
 21
253.3908059999999
 31
0.0
  0
LINE
  5
A99F
330
A7C3
100
AcDbEntity
  8
1
  6
Continuous
100
AcDbLine
 10
95.35564499999999
 20
247.6908059999999
 30
0.0
 11
98.155645
 21
247.6908059999999
 31
0.0
  0
LINE
  5
A9A0
330
A7C3
100
AcDbEntity
  8
1
  6
Continuous
100
AcDbLine
 10
95.35564499999999
 20
258.690806
 30
0.0
 11
98.155645
 21
258.690806
 31
0.0
  0
LINE
  5
A9A1
330
A7C3
100
AcDbEntity
  8
4
  6
CENTER
100
AcDbLine
 10
80.15564499999998
 20
253.190806
 30
0.0
 11
105.3556449999999
 21
253.190806
 31
0.0
  0
LINE
  5
A9A2
330
A7C3
100
AcDbEntity
  8
1
  6
Continuous
100
AcDbLine
 10
94.755645
 20
253.3908059999999
 30
0.0
 11
94.755645
 21
252.390806
 31
0.0
  0
LINE
  5
A9A3
330
A7C3
100
AcDbEntity
  8
1
  6
Continuous
100
AcDbLine
 10
88.40564499999997
 20
253.3908059999999
 30
0.0
 11
88.40564499999997
 21
252.390806
 31
0.0
  0
LINE
  5
A9A4
330
A7C3
100
AcDbEntity
  8
1
  6
Continuous
100
AcDbLine
 10
83.90564499999998
 20
249.190806
 30
0.0
 11
95.35564499999999
 21
249.190806
 31
0.0
  0
LINE
  5
A9A5
330
A7C3
100
AcDbEntity
  8
1
  6
Continuous
100
AcDbLine
 10
93.10564499999999
 20
248.790806
 30
0.0
 11
93.15564499999997
 21
248.9908059999999
 31
0.0
  0
LINE
  5
A9A6
330
A7C3
100
AcDbEntity
  8
1
  6
Continuous
100
AcDbLine
 10
93.15564499999997
 20
248.9908059999999
 30
0.0
 11
93.475645
 21
249.190806
 31
0.0
  0
LINE
  5
A9A7
330
A7C3
100
AcDbEntity
  8
1
  6
Continuous
100
AcDbLine
 10
93.10564499999999
 20
248.790806
 30
0.0
 11
93.15564499999997
 21
248.9908059999999
 31
0.0
  0
LINE
  5
A9A8
330
A7C3
100
AcDbEntity
  8
1
  6
Continuous
100
AcDbLine
 10
93.15564499999997
 20
257.3908059999999
 30
0.0
 11
93.475645
 21
257.190806
 31
0.0
  0
LINE
  5
A9A9
330
A7C3
100
AcDbEntity
  8
1
  6
Continuous
100
AcDbLine
 10
93.10564499999999
 20
257.5908059999998
 30
0.0
 11
93.15564499999997
 21
257.3908059999999
 31
0.0
  0
LINE
  5
A9AA
330
A7C3
100
AcDbEntity
  8
1
  6
Continuous
100
AcDbLine
 10
83.90564499999998
 20
257.190806
 30
0.0
 11
95.35564499999999
 21
257.190806
 31
0.0
  0
LINE
  5
A9AB
330
A7C3
100
AcDbEntity
  8
1
  6
Continuous
100
AcDbLine
 10
95.35564499999999
 20
257.190806
 30
0.0
 11
95.35564499999999
 21
258.690806
 31
0.0
  0
LINE
  5
A9AC
330
A7C3
100
AcDbEntity
  8
1
  6
Continuous
100
AcDbLine
 10
95.35564499999999
 20
247.6908059999999
 30
0.0
 11
95.35564499999999
 21
249.190806
 31
0.0
  0
LINE
  5
A9AD
330
A7C3
100
AcDbEntity
  8
1
  6
Continuous
100
AcDbLine
 10
92.805645
 20
257.5908059999998
 30
0.0
 11
92.11282399999999
 21
257.190806
 31
0.0
  0
LINE
  5
A9AE
330
A7C3
100
AcDbEntity
  8
1
  6
Continuous
100
AcDbLine
 10
92.805645
 20
257.5908059999998
 30
0.0
 11
93.10564499999999
 21
257.5908059999998
 31
0.0
  0
LINE
  5
A9AF
330
A7C3
100
AcDbEntity
  8
1
  6
Continuous
100
AcDbLine
 10
92.805645
 20
248.790806
 30
0.0
 11
92.11282399999999
 21
249.190806
 31
0.0
  0
LINE
  5
A9B0
330
A7C3
100
AcDbEntity
  8
1
  6
Continuous
100
AcDbLine
 10
92.805645
 20
248.790806
 30
0.0
 11
93.10564499999999
 21
248.790806
 31
0.0
  0
LINE
  5
A9B1
330
A7C3
100
AcDbEntity
  8
1
  6
Continuous
100
AcDbLine
 10
91.305645
 20
253.3908059999999
 30
0.0
 11
91.305645
 21
252.390806
 31
0.0
  0
LINE
  5
A9B2
330
A7C3
100
AcDbEntity
  8
1
  6
Continuous
100
AcDbLine
 10
91.90564499999997
 20
253.3908059999999
 30
0.0
 11
91.90564499999997
 21
252.390806
 31
0.0
  0
LINE
  5
A9B3
330
A7C3
100
AcDbEntity
  8
1
  6
Continuous
100
AcDbLine
 10
90.10564499999999
 20
253.3908059999999
 30
0.0
 11
90.10564499999999
 21
252.390806
 31
0.0
  0
ARC
  5
A9B4
330
A7C3
100
AcDbEntity
  8
1
  6
Continuous
100
AcDbCircle
 10
83.90564499999998
 20
249.9408059999999
 30
0.0
 40
0.75
100
AcDbArc
 50
180.0
 51
270.0
  0
ARC
  5
A9B5
330
A7C3
100
AcDbEntity
  8
1
  6
Continuous
100
AcDbCircle
 10
83.90564499999998
 20
256.440806
 30
0.0
 40
0.75
100
AcDbArc
 50
90.0
 51
180.0
  0
LINE
  5
A9B6
330
A7C3
100
AcDbEntity
  8
1
  6
Continuous
100
AcDbLine
 10
83.15564499999998
 20
256.440806
 30
0.0
 11
83.15564499999998
 21
249.9408059999999
 31
0.0
  0
LINE
  5
A9B7
330
A7C3
100
AcDbEntity
  8
1
  6
Continuous
100
AcDbLine
 10
96.60564499999999
 20
252.390806
 30
0.0
 11
96.60564499999999
 21
253.3908059999999
 31
0.0
  0
LINE
  5
A9B8
330
A7C3
100
AcDbEntity
  8
1
  6
Continuous
100
AcDbLine
 10
98.355645
 20
247.890806
 30
0.0
 11
98.355645
 21
258.490806
 31
0.0
  0
LINE
  5
A9B9
330
A7C3
100
AcDbEntity
  8
4
  6
CENTER
100
AcDbLine
 10
97.455645
 20
260.1908059999999
 30
0.0
 11
105.4556449999999
 21
260.1908059999999
 31
0.0
  0
LINE
  5
A9BA
330
A7C3
100
AcDbEntity
  8
4
  6
CENTER
100
AcDbLine
 10
97.455645
 20
246.190806
 30
0.0
 11
105.4556449999999
 21
246.190806
 31
0.0
  0
ARC
  5
A9BB
330
A7C3
100
AcDbEntity
  8
1
  6
Continuous
100
AcDbCircle
 10
99.45564500000001
 20
256.1908059999999
 30
0.0
 40
1.0
100
AcDbArc
 50
270.0
 51
0.0
  0
ARC
  5
A9BC
330
A7C3
100
AcDbEntity
  8
1
  6
Continuous
100
AcDbCircle
 10
99.45564500000001
 20
250.190806
 30
0.0
 40
1.0
100
AcDbArc
 50
0.0
 51
90.0
  0
ARC
  5
A9BD
330
A7C3
100
AcDbEntity
  8
1
  6
Continuous
100
AcDbCircle
 10
100.9556449999999
 20
243.190806
 30
0.0
 40
0.5
100
AcDbArc
 50
180.0
 51
270.0
  0
ARC
  5
A9BE
330
A7C3
100
AcDbEntity
  8
1
  6
Continuous
100
AcDbCircle
 10
100.9556449999999
 20
263.190806
 30
0.0
 40
0.5
100
AcDbArc
 50
90.0
 51
180.0
  0
LINE
  5
A9BF
330
A7C3
100
AcDbEntity
  8
1
  6
Continuous
100
AcDbLine
 10
100.9556449999999
 20
263.690806
 30
0.0
 11
102.4556449999999
 21
263.690806
 31
0.0
  0
LINE
  5
A9C0
330
A7C3
100
AcDbEntity
  8
1
  6
Continuous
100
AcDbLine
 10
100.9556449999999
 20
242.690806
 30
0.0
 11
102.4556449999999
 21
242.690806
 31
0.0
  0
LINE
  5
A9C1
330
A7C3
100
AcDbEntity
  8
1
  6
Continuous
100
AcDbLine
 10
102.4556449999999
 20
263.690806
 30
0.0
 11
102.4556449999999
 21
242.690806
 31
0.0
  0
LINE
  5
A9C2
330
A7C3
100
AcDbEntity
  8
1
  6
Continuous
100
AcDbLine
 10
100.4556449999999
 20
263.190806
 30
0.0
 11
100.4556449999999
 21
243.190806
 31
0.0
  0
ARC
  5
A9C3
330
A7C3
100
AcDbEntity
  8
1
  6
Continuous
100
AcDbCircle
 10
91.63392399999999
 20
238.749627
 30
0.0
 40
14.0
100
AcDbArc
 50
53.61910400000001
 51
61.30656899999999
  0
ARC
  5
A9C4
330
A7C3
100
AcDbEntity
  8
1
  6
Continuous
100
AcDbCircle
 10
99.64145600000001
 20
249.6183629999999
 30
0.0
 40
0.5
100
AcDbArc
 50
2.803322
 51
53.61910400000001
  0
LINE
  5
A9C5
330
A7C3
100
AcDbEntity
  8
1
  6
Continuous
100
AcDbLine
 10
100.1408569999999
 20
249.6428169999998
 30
0.0
 11
100.146558
 21
249.5263889999999
 31
0.0
  0
ARC
  5
A9C6
330
A7C3
100
AcDbEntity
  8
1
  6
Continuous
100
AcDbCircle
 10
99.64715700000001
 20
249.501935
 30
0.0
 40
0.5
100
AcDbArc
 50
287.739739
 51
2.803322
  0
LINE
  5
A9C7
330
A7C3
100
AcDbEntity
  8
1
  6
Continuous
100
AcDbLine
 10
99.79950399999999
 20
249.02571
 30
0.0
 11
98.66297900000001
 21
248.6621299999999
 31
0.0
  0
ARC
  5
A9C8
330
A7C3
100
AcDbEntity
  8
1
  6
Continuous
100
AcDbCircle
 10
98.20593800000001
 20
250.090805
 30
0.0
 40
1.5
100
AcDbArc
 50
275.727922
 51
287.739739
  0
LINE
  5
A9C9
330
A7C3
100
AcDbEntity
  8
1
  6
Continuous
100
AcDbLine
 10
98.355645
 20
251.190806
 30
0.0
 11
99.45564500000001
 21
251.190806
 31
0.0
  0
LINE
  5
A9CA
330
A7C3
100
AcDbEntity
  8
1
  6
Continuous
100
AcDbLine
 10
98.355645
 20
255.190806
 30
0.0
 11
99.45564500000001
 21
255.190806
 31
0.0
  0
ARC
  5
A9CB
330
A7C3
100
AcDbEntity
  8
1
  6
Continuous
100
AcDbCircle
 10
98.20593800000001
 20
256.2908059999999
 30
0.0
 40
1.5
100
AcDbArc
 50
72.26023999999998
 51
84.27207799999997
  0
LINE
  5
A9CC
330
A7C3
100
AcDbEntity
  8
1
  6
Continuous
100
AcDbLine
 10
99.79950399999999
 20
257.3559009999998
 30
0.0
 11
98.66297900000001
 21
257.7194809999999
 31
0.0
  0
LINE
  5
A9CD
330
A7C3
100
AcDbEntity
  8
1
  6
Continuous
100
AcDbLine
 10
100.1408569999999
 20
256.7387939999999
 30
0.0
 11
100.146558
 21
256.855222
 31
0.0
  0
ARC
  5
A9CE
330
A7C3
100
AcDbEntity
  8
1
  6
Continuous
100
AcDbCircle
 10
99.64715700000001
 20
256.8796759999999
 30
0.0
 40
0.5
100
AcDbArc
 50
357.1966779999999
 51
72.260261
  0
ARC
  5
A9CF
330
A7C3
100
AcDbEntity
  8
1
  6
Continuous
100
AcDbCircle
 10
91.63392399999999
 20
267.631985
 30
0.0
 40
14.0
100
AcDbArc
 50
298.6934309999999
 51
306.380896
  0
ARC
  5
A9D0
330
A7C3
100
AcDbEntity
  8
1
  6
Continuous
100
AcDbCircle
 10
99.64145600000001
 20
256.7632479999999
 30
0.0
 40
0.5
100
AcDbArc
 50
306.380896
 51
357.1966779999999
  0
ARC
  5
A9D1
330
A7C3
100
AcDbEntity
  8
1
  6
Continuous
100
AcDbCircle
 10
98.155645
 20
247.890806
 30
0.0
 40
0.2
100
AcDbArc
 50
270.0
 51
0.0
  0
ARC
  5
A9D2
330
A7C3
100
AcDbEntity
  8
1
  6
Continuous
100
AcDbCircle
 10
98.155645
 20
258.490806
 30
0.0
 40
0.2
100
AcDbArc
 50
0.0
 51
90.0
  0
CIRCLE
  5
A9D3
330
A7C3
100
AcDbEntity
  8
1
  6
Continuous
100
AcDbCircle
 10
160.596762
 20
212.4207129999998
 30
0.0
 40
1.3
  0
LINE
  5
A9D4
330
A7C3
100
AcDbEntity
  8
1
  6
Continuous
100
AcDbLine
 10
163.096762
 20
208.9207129999998
 30
0.0
 11
144.096762
 21
208.9207129999998
 31
0.0
  0
LINE
  5
A9D5
330
A7C3
100
AcDbEntity
  8
1
  6
Continuous
100
AcDbLine
 10
144.096762
 20
215.9207129999999
 30
0.0
 11
163.096762
 21
215.9207129999999
 31
0.0
  0
LINE
  5
A9D6
330
A7C3
100
AcDbEntity
  8
4
  6
CENTER
100
AcDbLine
 10
140.096762
 20
212.4207129999998
 30
0.0
 11
167.096762
 21
212.4207129999998
 31
0.0
  0
ARC
  5
A9D7
330
A7C3
100
AcDbEntity
  8
1
  6
Continuous
100
AcDbCircle
 10
144.096762
 20
209.9207129999999
 30
0.0
 40
1.0
100
AcDbArc
 50
180.0
 51
270.0
  0
ARC
  5
A9D8
330
A7C3
100
AcDbEntity
  8
1
  6
Continuous
100
AcDbCircle
 10
144.096762
 20
214.9207129999998
 30
0.0
 40
1.0
100
AcDbArc
 50
90.0
 51
180.0
  0
LINE
  5
A9D9
330
A7C3
100
AcDbEntity
  8
1
  6
Continuous
100
AcDbLine
 10
143.096762
 20
209.9207129999999
 30
0.0
 11
143.096762
 21
214.9207129999998
 31
0.0
  0
LINE
  5
A9DA
330
A7C3
100
AcDbEntity
  8
1
  6
Continuous
100
AcDbLine
 10
154.696762
 20
211.3207129999999
 30
0.0
 11
154.696762
 21
213.1207129999999
 31
0.0
  0
CIRCLE
  5
A9DB
330
A7C3
100
AcDbEntity
  8
1
  6
Continuous
100
AcDbCircle
 10
146.596762
 20
212.4207129999998
 30
0.0
 40
1.3
  0
LINE
  5
A9DC
330
A7C3
100
AcDbEntity
  8
4
  6
CENTER
100
AcDbLine
 10
146.596762
 20
215.970713
 30
0.0
 11
146.596762
 21
208.8707129999999
 31
0.0
  0
ARC
  5
A9DD
330
A7C3
100
AcDbEntity
  8
1
  6
Continuous
100
AcDbCircle
 10
152.696762
 20
211.3207129999999
 30
0.0
 40
0.2
100
AcDbArc
 50
180.0
 51
270.0
  0
LINE
  5
A9DE
330
A7C3
100
AcDbEntity
  8
1
  6
Continuous
100
AcDbLine
 10
152.696762
 20
211.1207129999999
 30
0.0
 11
154.4967619999999
 21
211.1207129999999
 31
0.0
  0
LINE
  5
A9DF
330
A7C3
100
AcDbEntity
  8
1
  6
Continuous
100
AcDbLine
 10
152.4967619999999
 20
211.3207129999999
 30
0.0
 11
152.4967619999999
 21
213.1207129999999
 31
0.0
  0
LINE
  5
A9E0
330
A7C3
100
AcDbEntity
  8
1
  6
Continuous
100
AcDbLine
 10
152.696762
 20
213.3207129999999
 30
0.0
 11
154.4967619999999
 21
213.3207129999999
 31
0.0
  0
ARC
  5
A9E1
330
A7C3
100
AcDbEntity
  8
1
  6
Continuous
100
AcDbCircle
 10
152.696762
 20
213.1207129999999
 30
0.0
 40
0.2
100
AcDbArc
 50
90.0
 51
180.0
  0
CIRCLE
  5
A9E2
330
A7C3
100
AcDbEntity
  8
1
  6
Continuous
100
AcDbCircle
 10
153.596762
 20
212.220713
 30
0.0
 40
0.5
  0
LINE
  5
A9E3
330
A7C3
100
AcDbEntity
  8
4
  6
CENTER
100
AcDbLine
 10
153.596762
 20
205.9207129999998
 30
0.0
 11
153.596762
 21
218.9207129999998
 31
0.0
  0
ARC
  5
A9E4
330
A7C3
100
AcDbEntity
  8
1
  6
Continuous
100
AcDbCircle
 10
154.4967619999999
 20
211.3207129999999
 30
0.0
 40
0.2
100
AcDbArc
 50
270.0
 51
0.0
  0
ARC
  5
A9E5
330
A7C3
100
AcDbEntity
  8
1
  6
Continuous
100
AcDbCircle
 10
154.4967619999999
 20
213.1207129999999
 30
0.0
 40
0.2
100
AcDbArc
 50
0.0
 51
90.0
  0
ARC
  5
A9E6
330
A7C3
100
AcDbEntity
  8
1
  6
Continuous
100
AcDbCircle
 10
163.096762
 20
209.9207129999999
 30
0.0
 40
1.0
100
AcDbArc
 50
270.0
 51
0.0
  0
ARC
  5
A9E7
330
A7C3
100
AcDbEntity
  8
1
  6
Continuous
100
AcDbCircle
 10
163.096762
 20
214.9207129999998
 30
0.0
 40
1.0
100
AcDbArc
 50
0.0
 51
90.0
  0
LINE
  5
A9E8
330
A7C3
100
AcDbEntity
  8
4
  6
CENTER
100
AcDbLine
 10
160.596762
 20
215.970713
 30
0.0
 11
160.596762
 21
208.8707129999999
 31
0.0
  0
LINE
  5
A9E9
330
A7C3
100
AcDbEntity
  8
1
  6
Continuous
100
AcDbLine
 10
164.096762
 20
214.9207129999998
 30
0.0
 11
164.096762
 21
209.9207129999999
 31
0.0
  0
ARC
  5
A9EA
330
A7C3
100
AcDbEntity
  8
1
  6
Continuous
100
AcDbCircle
 10
223.2879279999999
 20
215.170765
 30
0.0
 40
0.75
100
AcDbArc
 50
0.0
 51
90.0
  0
ARC
  5
A9EB
330
A7C3
100
AcDbEntity
  8
1
  6
Continuous
100
AcDbCircle
 10
223.2879279999999
 20
209.6707649999999
 30
0.0
 40
0.75
100
AcDbArc
 50
270.0
 51
0.0
  0
LINE
  5
A9EC
330
A7C3
100
AcDbEntity
  8
4
  6
CENTER
100
AcDbLine
 10
227.0379279999999
 20
212.4207649999999
 30
0.0
 11
201.737928
 21
212.4207649999999
 31
0.0
  0
LINE
  5
A9ED
330
A7C3
100
AcDbEntity
  8
1
  6
Continuous
100
AcDbLine
 10
208.837928
 20
210.5207649999999
 30
0.0
 11
207.0463659999998
 21
210.5207649999999
 31
0.0
  0
LINE
  5
A9EE
330
A7C3
100
AcDbEntity
  8
1
  6
Continuous
100
AcDbLine
 10
208.837928
 20
214.3207649999999
 30
0.0
 11
207.0463659999998
 21
214.3207649999999
 31
0.0
  0
LINE
  5
A9EF
330
A7C3
100
AcDbEntity
  8
4
  6
CENTER
100
AcDbLine
 10
214.5378979999999
 20
212.4207479999999
 30
0.0
 11
201.737898
 21
212.4207479999999
 31
0.0
  0
LINE
  5
A9F0
330
A7C3
100
AcDbEntity
  8
1
  6
Continuous
100
AcDbLine
 10
207.0463659999998
 20
214.3207649999999
 30
0.0
 11
207.0463659999998
 21
210.5207649999999
 31
0.0
  0
LINE
  5
A9F1
330
A7C3
100
AcDbEntity
  8
1
  6
Continuous
100
AcDbLine
 10
207.0463659999998
 20
210.920748
 30
0.0
 11
206.7378979999999
 21
210.920748
 31
0.0
  0
LINE
  5
A9F2
330
A7C3
100
AcDbEntity
  8
1
  6
Continuous
100
AcDbLine
 10
207.0463659999998
 20
213.920748
 30
0.0
 11
206.7378979999999
 21
213.920748
 31
0.0
  0
LINE
  5
A9F3
330
A7C3
100
AcDbEntity
  8
1
  6
Continuous
100
AcDbLine
 10
204.7378979999999
 20
208.920748
 30
0.0
 11
204.7378979999999
 21
215.920748
 31
0.0
  0
LINE
  5
A9F4
330
A7C3
100
AcDbEntity
  8
1
  6
Continuous
100
AcDbLine
 10
206.7378979999999
 20
209.420748
 30
0.0
 11
206.7378979999999
 21
215.420748
 31
0.0
  0
ARC
  5
A9F5
330
A7C3
100
AcDbEntity
  8
1
  6
Continuous
100
AcDbCircle
 10
206.237898
 20
209.420748
 30
0.0
 40
0.5
100
AcDbArc
 50
270.0
 51
0.0
  0
ARC
  5
A9F6
330
A7C3
100
AcDbEntity
  8
1
  6
Continuous
100
AcDbCircle
 10
206.237898
 20
215.420748
 30
0.0
 40
0.5
100
AcDbArc
 50
0.0
 51
90.0
  0
LINE
  5
A9F7
330
A7C3
100
AcDbEntity
  8
1
  6
Continuous
100
AcDbLine
 10
206.237898
 20
208.920748
 30
0.0
 11
204.7378979999999
 21
208.920748
 31
0.0
  0
LINE
  5
A9F8
330
A7C3
100
AcDbEntity
  8
1
  6
Continuous
100
AcDbLine
 10
206.237898
 20
215.920748
 30
0.0
 11
204.7378979999999
 21
215.920748
 31
0.0
  0
LINE
  5
A9F9
330
A7C3
100
AcDbEntity
  8
1
  6
Continuous
100
AcDbLine
 10
208.6018269999999
 20
213.820765
 30
0.0
 11
208.6018269999999
 21
211.0207649999999
 31
0.0
  0
LINE
  5
A9FA
330
A7C3
100
AcDbEntity
  8
1
  6
Continuous
100
AcDbLine
 10
208.837928
 20
215.720765
 30
0.0
 11
208.837928
 21
209.1207649999998
 31
0.0
  0
ARC
  5
A9FB
330
A7C3
100
AcDbEntity
  8
1
  6
Continuous
100
AcDbCircle
 10
209.037928
 20
215.720765
 30
0.0
 40
0.2
100
AcDbArc
 50
90.0
 51
180.0
  0
ARC
  5
A9FC
330
A7C3
100
AcDbEntity
  8
1
  6
Continuous
100
AcDbCircle
 10
209.037928
 20
209.1207649999998
 30
0.0
 40
0.2
100
AcDbArc
 50
180.0
 51
270.0
  0
LINE
  5
A9FD
330
A7C3
100
AcDbEntity
  8
1
  6
Continuous
100
AcDbLine
 10
214.3879279999999
 20
212.1707649999999
 30
0.0
 11
214.3879279999999
 21
210.6707649999999
 31
0.0
  0
LINE
  5
A9FE
330
A7C3
100
AcDbEntity
  8
1
  6
Continuous
100
AcDbLine
 10
213.2379279999999
 20
214.4207649999999
 30
0.0
 11
213.2379279999999
 21
210.4207649999999
 31
0.0
  0
LINE
  5
A9FF
330
A7C3
100
AcDbEntity
  8
1
  6
Continuous
100
AcDbLine
 10
213.7379279999999
 20
214.4207649999999
 30
0.0
 11
213.7379279999999
 21
210.4207649999999
 31
0.0
  0
LINE
  5
AA00
330
A7C3
100
AcDbEntity
  8
1
  6
Continuous
100
AcDbLine
 10
214.0879279999999
 20
214.4207649999999
 30
0.0
 11
214.0879279999999
 21
210.4207649999999
 31
0.0
  0
LINE
  5
AA01
330
A7C3
100
AcDbEntity
  8
1
  6
Continuous
100
AcDbLine
 10
215.080748
 20
214.4207649999999
 30
0.0
 11
215.080748
 21
210.4207649999999
 31
0.0
  0
LINE
  5
AA02
330
A7C3
100
AcDbEntity
  8
1
  6
Continuous
100
AcDbLine
 10
215.537928
 20
210.4207649999999
 30
0.0
 11
213.2379279999999
 21
210.4207649999999
 31
0.0
  0
LINE
  5
AA03
330
A7C3
100
AcDbEntity
  8
1
  6
Continuous
100
AcDbLine
 10
214.3879279999999
 20
214.1707649999999
 30
0.0
 11
214.3879279999999
 21
212.6707649999999
 31
0.0
  0
ARC
  5
AA04
330
A7C3
100
AcDbEntity
  8
1
  6
Continuous
100
AcDbCircle
 10
215.537928
 20
214.7207649999999
 30
0.0
 40
0.3
100
AcDbArc
 50
270.0
 51
90.0
  0
LINE
  5
AA05
330
A7C3
100
AcDbEntity
  8
1
  6
Continuous
100
AcDbLine
 10
215.537928
 20
215.020765
 30
0.0
 11
211.8379279999998
 21
215.020765
 31
0.0
  0
LINE
  5
AA06
330
A7C3
100
AcDbEntity
  8
1
  6
Continuous
100
AcDbLine
 10
215.537928
 20
214.4207649999999
 30
0.0
 11
213.2379279999999
 21
214.4207649999999
 31
0.0
  0
LINE
  5
AA07
330
A7C3
100
AcDbEntity
  8
1
  6
Continuous
100
AcDbLine
 10
215.537928
 20
209.8207649999999
 30
0.0
 11
211.8379279999998
 21
209.8207649999999
 31
0.0
  0
LINE
  5
AA08
330
A7C3
100
AcDbEntity
  8
1
  6
Continuous
100
AcDbLine
 10
211.8379279999998
 20
215.9207649999999
 30
0.0
 11
211.8379279999998
 21
208.920765
 31
0.0
  0
ARC
  5
AA09
330
A7C3
100
AcDbEntity
  8
1
  6
Continuous
100
AcDbCircle
 10
215.537928
 20
210.1207649999998
 30
0.0
 40
0.3
100
AcDbArc
 50
270.0
 51
90.0
  0
LINE
  5
AA0A
330
A7C3
100
AcDbEntity
  8
1
  6
Continuous
100
AcDbLine
 10
223.2879279999999
 20
215.9207649999999
 30
0.0
 11
209.037928
 21
215.9207649999999
 31
0.0
  0
LINE
  5
AA0B
330
A7C3
100
AcDbEntity
  8
1
  6
Continuous
100
AcDbLine
 10
223.2879279999999
 20
208.920765
 30
0.0
 11
209.037928
 21
208.920765
 31
0.0
  0
LINE
  5
AA0C
330
A7C3
100
AcDbEntity
  8
1
  6
Continuous
100
AcDbLine
 10
224.0379279999999
 20
215.170765
 30
0.0
 11
224.0379279999999
 21
209.6707649999999
 31
0.0
  0
ARC
  5
AA0D
330
A7C3
100
AcDbEntity
  8
1
  6
Continuous
100
AcDbCircle
 10
382.8481709999999
 20
92.01105599999999
 30
0.0
 40
0.2
100
AcDbArc
 50
270.0
 51
0.0
  0
ARC
  5
AA0E
330
A7C3
100
AcDbEntity
  8
1
  6
Continuous
100
AcDbCircle
 10
382.8481709999999
 20
93.81105599999999
 30
0.0
 40
0.2
100
AcDbArc
 50
0.0
 51
90.0
  0
LINE
  5
AA0F
330
A7C3
100
AcDbEntity
  8
1
  6
Continuous
100
AcDbLine
 10
391.448171
 20
89.61105600000001
 30
0.0
 11
372.448171
 21
89.61105600000001
 31
0.0
  0
LINE
  5
AA10
330
A7C3
100
AcDbEntity
  8
1
  6
Continuous
100
AcDbLine
 10
372.448171
 20
96.611056
 30
0.0
 11
391.448171
 21
96.611056
 31
0.0
  0
LINE
  5
AA11
330
A7C3
100
AcDbEntity
  8
4
  6
CENTER
100
AcDbLine
 10
368.448171
 20
93.11105600000001
 30
0.0
 11
395.4481709999998
 21
93.11105600000001
 31
0.0
  0
LINE
  5
AA12
330
A7C3
100
AcDbEntity
  8
4
  6
CENTER
100
AcDbLine
 10
381.948171
 20
86.611056
 30
0.0
 11
381.948171
 21
99.61105600000001
 31
0.0
  0
LINE
  5
AA13
330
A7C3
100
AcDbEntity
  8
4
  6
CENTER
100
AcDbLine
 10
309.139951
 20
86.611056
 30
0.0
 11
309.139951
 21
99.61105600000001
 31
0.0
  0
LINE
  5
AA14
330
A7C3
100
AcDbEntity
  8
4
  6
CENTER
100
AcDbLine
 10
344.044077
 20
64.98075400000001
 30
0.0
 11
352.044077
 21
64.98075400000001
 31
0.0
  0
LINE
  5
AA15
330
A7C3
100
AcDbEntity
  8
4
  6
CENTER
100
AcDbLine
 10
338.344077
 20
57.980754
 30
0.0
 11
352.044077
 21
57.980754
 31
0.0
  0
LINE
  5
AA16
330
A7C3
100
AcDbEntity
  8
4
  6
CENTER
100
AcDbLine
 10
344.044077
 20
50.98075399999999
 30
0.0
 11
352.044077
 21
50.98075399999999
 31
0.0
  0
LINE
  5
AA17
330
A7C3
100
AcDbEntity
  8
1
  6
Continuous
100
AcDbLine
 10
349.044077
 20
47.480754
 30
0.0
 11
349.044077
 21
68.480754
 31
0.0
  0
LINE
  5
AA18
330
A7C3
100
AcDbEntity
  8
1
  6
Continuous
100
AcDbLine
 10
347.044077
 20
47.980754
 30
0.0
 11
347.044077
 21
67.980754
 31
0.0
  0
LINE
  5
AA19
330
A7C3
100
AcDbEntity
  8
1
  6
Continuous
100
AcDbLine
 10
343.994077
 20
58.73075400000001
 30
0.0
 11
347.044077
 21
58.73075400000001
 31
0.0
  0
LINE
  5
AA1A
330
A7C3
100
AcDbEntity
  8
1
  6
Continuous
100
AcDbLine
 10
344.1440769999999
 20
59.98075400000001
 30
0.0
 11
346.044077
 21
59.98075400000001
 31
0.0
  0
LINE
  5
AA1B
330
A7C3
100
AcDbEntity
  8
1
  6
Continuous
100
AcDbLine
 10
343.994077
 20
57.23075399999999
 30
0.0
 11
347.044077
 21
57.23075399999999
 31
0.0
  0
LINE
  5
AA1C
330
A7C3
100
AcDbEntity
  8
1
  6
Continuous
100
AcDbLine
 10
344.1440769999999
 20
55.98075399999999
 30
0.0
 11
346.044077
 21
55.98075399999999
 31
0.0
  0
LINE
  5
AA1D
330
A7C3
100
AcDbEntity
  8
1
  6
Continuous
100
AcDbLine
 10
341.3440770000002
 20
56.74834499999999
 30
0.0
 11
341.3440770000002
 21
59.21316199999999
 31
0.0
  0
ARC
  5
AA1E
330
A7C3
100
AcDbEntity
  8
1
  6
Continuous
100
AcDbCircle
 10
343.994077
 20
57.980754
 30
0.0
 40
0.75
100
AcDbArc
 50
90.0
 51
270.0
  0
ARC
  5
AA1F
330
A7C3
100
AcDbEntity
  8
1
  6
Continuous
100
AcDbCircle
 10
343.6440769999999
 20
60.180754
 30
0.0
 40
0.5
100
AcDbArc
 50
0.0
 51
90.0
  0
LINE
  5
AA20
330
A7C3
100
AcDbEntity
  8
1
  6
Continuous
100
AcDbLine
 10
343.2954649999999
 20
60.680754
 30
0.0
 11
343.6440769999999
 21
60.680754
 31
0.0
  0
LINE
  5
AA21
330
A7C3
100
AcDbEntity
  8
1
  6
Continuous
100
AcDbLine
 10
341.566727
 20
59.629187
 30
0.0
 11
343.0181149999999
 21
60.596779
 31
0.0
  0
ARC
  5
AA22
330
A7C3
100
AcDbEntity
  8
1
  6
Continuous
100
AcDbCircle
 10
341.8440770000001
 20
59.21316199999999
 30
0.0
 40
0.5
100
AcDbArc
 50
123.690068
 51
180.0
  0
ARC
  5
AA23
330
A7C3
100
AcDbEntity
  8
1
  6
Continuous
100
AcDbCircle
 10
343.2954649999999
 20
60.180754
 30
0.0
 40
0.5
100
AcDbArc
 50
90.0
 51
123.690068
  0
LINE
  5
AA24
330
A7C3
100
AcDbEntity
  8
1
  6
Continuous
100
AcDbLine
 10
344.1440769999999
 20
60.180754
 30
0.0
 11
344.1440769999999
 21
59.98075400000001
 31
0.0
  0
ARC
  5
AA25
330
A7C3
100
AcDbEntity
  8
1
  6
Continuous
100
AcDbCircle
 10
343.6440769999999
 20
55.780754
 30
0.0
 40
0.5
100
AcDbArc
 50
270.0
 51
0.0
  0
LINE
  5
AA26
330
A7C3
100
AcDbEntity
  8
1
  6
Continuous
100
AcDbLine
 10
343.2954649999999
 20
55.280754
 30
0.0
 11
343.6440769999999
 21
55.280754
 31
0.0
  0
LINE
  5
AA27
330
A7C3
100
AcDbEntity
  8
1
  6
Continuous
100
AcDbLine
 10
341.566727
 20
56.33231999999999
 30
0.0
 11
343.0181149999999
 21
55.364728
 31
0.0
  0
ARC
  5
AA28
330
A7C3
100
AcDbEntity
  8
1
  6
Continuous
100
AcDbCircle
 10
341.8440770000001
 20
56.74834499999999
 30
0.0
 40
0.5
100
AcDbArc
 50
180.0
 51
236.3099319999999
  0
ARC
  5
AA29
330
A7C3
100
AcDbEntity
  8
1
  6
Continuous
100
AcDbCircle
 10
343.2954649999999
 20
55.780754
 30
0.0
 40
0.5
100
AcDbArc
 50
236.3099319999999
 51
270.0
  0
LINE
  5
AA2A
330
A7C3
100
AcDbEntity
  8
1
  6
Continuous
100
AcDbLine
 10
344.1440769999999
 20
55.780754
 30
0.0
 11
344.1440769999999
 21
55.98075399999999
 31
0.0
  0
ARC
  5
AA2B
330
A7C3
100
AcDbEntity
  8
1
  6
Continuous
100
AcDbCircle
 10
346.044077
 20
60.98075399999999
 30
0.0
 40
1.0
100
AcDbArc
 50
270.0
 51
0.0
  0
ARC
  5
AA2C
330
A7C3
100
AcDbEntity
  8
1
  6
Continuous
100
AcDbCircle
 10
347.544077
 20
47.980754
 30
0.0
 40
0.5
100
AcDbArc
 50
180.0
 51
270.0
  0
ARC
  5
AA2D
330
A7C3
100
AcDbEntity
  8
1
  6
Continuous
100
AcDbCircle
 10
346.044077
 20
54.98075400000001
 30
0.0
 40
1.0
100
AcDbArc
 50
0.0
 51
90.0
  0
LINE
  5
AA2E
330
A7C3
100
AcDbEntity
  8
1
  6
Continuous
100
AcDbLine
 10
347.544077
 20
47.480754
 30
0.0
 11
349.044077
 21
47.480754
 31
0.0
  0
ARC
  5
AA2F
330
A7C3
100
AcDbEntity
  8
1
  6
Continuous
100
AcDbCircle
 10
347.544077
 20
67.980754
 30
0.0
 40
0.5
100
AcDbArc
 50
90.0
 51
180.0
  0
LINE
  5
AA30
330
A7C3
100
AcDbEntity
  8
1
  6
Continuous
100
AcDbLine
 10
347.544077
 20
68.480754
 30
0.0
 11
349.044077
 21
68.480754
 31
0.0
  0
ARC
  5
AA31
330
A7C3
100
AcDbEntity
  8
1
  6
Continuous
100
AcDbCircle
 10
318.639951
 20
95.61105600000001
 30
0.0
 40
1.0
100
AcDbArc
 50
0.0
 51
90.0
  0
ARC
  5
AA32
330
A7C3
100
AcDbEntity
  8
1
  6
Continuous
100
AcDbCircle
 10
318.639951
 20
90.61105600000001
 30
0.0
 40
1.0
100
AcDbArc
 50
270.0
 51
0.0
  0
LINE
  5
AA33
330
A7C3
100
AcDbEntity
  8
4
  6
CENTER
100
AcDbLine
 10
322.639951
 20
93.11105600000001
 30
0.0
 11
295.639951
 21
93.11105600000001
 31
0.0
  0
LINE
  5
AA34
330
A7C3
100
AcDbEntity
  8
1
  6
Continuous
100
AcDbLine
 10
299.6399509999998
 20
89.61105600000001
 30
0.0
 11
318.639951
 21
89.61105600000001
 31
0.0
  0
LINE
  5
AA35
330
A7C3
100
AcDbEntity
  8
1
  6
Continuous
100
AcDbLine
 10
318.639951
 20
96.611056
 30
0.0
 11
299.6399509999998
 21
96.611056
 31
0.0
  0
CIRCLE
  5
AA36
330
A7C3
100
AcDbEntity
  8
1
  6
Continuous
100
AcDbCircle
 10
302.139951
 20
93.11105600000001
 30
0.0
 40
2.799999999999998
  0
CIRCLE
  5
AA37
330
A7C3
100
AcDbEntity
  8
1
  6
Continuous
100
AcDbCircle
 10
302.139951
 20
93.11105600000001
 30
0.0
 40
1.3
  0
ARC
  5
AA38
330
A7C3
100
AcDbEntity
  8
1
  6
Continuous
100
AcDbCircle
 10
299.6399509999998
 20
90.61105600000001
 30
0.0
 40
1.0
100
AcDbArc
 50
180.0
 51
270.0
  0
ARC
  5
AA39
330
A7C3
100
AcDbEntity
  8
1
  6
Continuous
100
AcDbCircle
 10
299.6399509999998
 20
95.61105600000001
 30
0.0
 40
1.0
100
AcDbArc
 50
90.0
 51
180.0
  0
LINE
  5
AA3A
330
A7C3
100
AcDbEntity
  8
1
  6
Continuous
100
AcDbLine
 10
298.639951
 20
95.61105600000001
 30
0.0
 11
298.639951
 21
90.61105600000001
 31
0.0
  0
LINE
  5
AA3B
330
A7C3
100
AcDbEntity
  8
4
  6
CENTER
100
AcDbLine
 10
302.139951
 20
96.66105600000001
 30
0.0
 11
302.139951
 21
89.56105599999999
 31
0.0
  0
LINE
  5
AA3C
330
A7C3
100
AcDbEntity
  8
1
  6
Continuous
100
AcDbLine
 10
310.639951
 20
94.111056
 30
0.0
 11
310.639951
 21
92.11105600000001
 31
0.0
  0
LINE
  5
AA3D
330
A7C3
100
AcDbEntity
  8
1
  6
Continuous
100
AcDbLine
 10
307.6399509999999
 20
94.111056
 30
0.0
 11
307.6399509999999
 21
92.11105600000001
 31
0.0
  0
LINE
  5
AA3E
330
A7C3
100
AcDbEntity
  8
4
  6
CENTER
100
AcDbLine
 10
316.1399509999998
 20
96.66105600000001
 30
0.0
 11
316.1399509999998
 21
89.56105599999999
 31
0.0
  0
CIRCLE
  5
AA3F
330
A7C3
100
AcDbEntity
  8
1
  6
Continuous
100
AcDbCircle
 10
316.1399509999998
 20
93.11105600000001
 30
0.0
 40
2.799999999999998
  0
CIRCLE
  5
AA40
330
A7C3
100
AcDbEntity
  8
1
  6
Continuous
100
AcDbCircle
 10
316.1399509999998
 20
93.11105600000001
 30
0.0
 40
1.3
  0
ARC
  5
AA41
330
A7C3
100
AcDbEntity
  8
1
  6
Continuous
100
AcDbCircle
 10
311.4559759999999
 20
91.911056
 30
0.0
 40
0.3
100
AcDbArc
 50
270.0
 51
0.0
  0
ARC
  5
AA42
330
A7C3
100
AcDbEntity
  8
1
  6
Continuous
100
AcDbCircle
 10
311.4559759999999
 20
94.311056
 30
0.0
 40
0.3
100
AcDbArc
 50
0.0
 51
90.0
  0
LINE
  5
AA43
330
A7C3
100
AcDbEntity
  8
1
  6
Continuous
100
AcDbLine
 10
311.7559759999999
 20
94.311056
 30
0.0
 11
311.7559759999999
 21
91.911056
 31
0.0
  0
ARC
  5
AA44
330
A7C3
100
AcDbEntity
  8
1
  6
Continuous
100
AcDbCircle
 10
306.8239249999999
 20
91.911056
 30
0.0
 40
0.3
100
AcDbArc
 50
180.0
 51
270.0
  0
ARC
  5
AA45
330
A7C3
100
AcDbEntity
  8
1
  6
Continuous
100
AcDbCircle
 10
306.8239249999999
 20
94.311056
 30
0.0
 40
0.3
100
AcDbArc
 50
90.0
 51
180.0
  0
LINE
  5
AA46
330
A7C3
100
AcDbEntity
  8
1
  6
Continuous
100
AcDbLine
 10
306.523925
 20
94.311056
 30
0.0
 11
306.523925
 21
91.911056
 31
0.0
  0
LINE
  5
AA47
330
A7C3
100
AcDbEntity
  8
1
  6
Continuous
100
AcDbLine
 10
306.8239249999999
 20
94.61105600000001
 30
0.0
 11
311.4559759999999
 21
94.61105600000001
 31
0.0
  0
LINE
  5
AA48
330
A7C3
100
AcDbEntity
  8
1
  6
Continuous
100
AcDbLine
 10
306.8239249999999
 20
91.611056
 30
0.0
 11
311.4559759999999
 21
91.611056
 31
0.0
  0
LINE
  5
AA49
330
A7C3
100
AcDbEntity
  8
1
  6
Continuous
100
AcDbLine
 10
349.044077
 20
138.741456
 30
0.0
 11
349.044077
 21
117.741456
 31
0.0
  0
LINE
  5
AA4A
330
A7C3
100
AcDbEntity
  8
1
  6
Continuous
100
AcDbLine
 10
347.044077
 20
138.2414559999999
 30
0.0
 11
347.044077
 21
118.2414559999999
 31
0.0
  0
LINE
  5
AA4B
330
A7C3
100
AcDbEntity
  8
4
  6
CENTER
100
AcDbLine
 10
344.044077
 20
121.241456
 30
0.0
 11
352.044077
 21
121.241456
 31
0.0
  0
LINE
  5
AA4C
330
A7C3
100
AcDbEntity
  8
4
  6
CENTER
100
AcDbLine
 10
338.344061
 20
93.11110500000003
 30
0.0
 11
352.044061
 21
93.11110500000003
 31
0.0
  0
LINE
  5
AA4D
330
A7C3
100
AcDbEntity
  8
4
  6
CENTER
100
AcDbLine
 10
338.344077
 20
128.241456
 30
0.0
 11
352.044077
 21
128.241456
 31
0.0
  0
LINE
  5
AA4E
330
A7C3
100
AcDbEntity
  8
1
  6
Continuous
100
AcDbLine
 10
319.6399509999999
 20
90.61105600000001
 30
0.0
 11
319.6399509999999
 21
95.61105600000001
 31
0.0
  0
ARC
  5
AA4F
330
A7C3
100
AcDbEntity
  8
1
  6
Continuous
100
AcDbCircle
 10
343.844061
 20
94.311105
 30
0.0
 40
0.3
100
AcDbArc
 50
0.0
 51
90.0
  0
ARC
  5
AA50
330
A7C3
100
AcDbEntity
  8
1
  6
Continuous
100
AcDbCircle
 10
343.844061
 20
91.911105
 30
0.0
 40
0.3
100
AcDbArc
 50
270.0
 51
0.0
  0
ARC
  5
AA51
330
A7C3
100
AcDbEntity
  8
1
  6
Continuous
100
AcDbCircle
 10
341.6440609999999
 20
94.311105
 30
0.0
 40
0.3
100
AcDbArc
 50
90.0
 51
180.0
  0
ARC
  5
AA52
330
A7C3
100
AcDbEntity
  8
1
  6
Continuous
100
AcDbCircle
 10
341.6440609999999
 20
91.911105
 30
0.0
 40
0.3
100
AcDbArc
 50
180.0
 51
270.0
  0
LINE
  5
AA53
330
A7C3
100
AcDbEntity
  8
1
  6
Continuous
100
AcDbLine
 10
349.044061
 20
89.61110500000001
 30
0.0
 11
349.044061
 21
96.61110500000004
 31
0.0
  0
LINE
  5
AA54
330
A7C3
100
AcDbEntity
  8
1
  6
Continuous
100
AcDbLine
 10
347.044061
 20
90.11110499999999
 30
0.0
 11
347.044061
 21
96.11110500000002
 31
0.0
  0
ARC
  5
AA55
330
A7C3
100
AcDbEntity
  8
1
  6
Continuous
100
AcDbCircle
 10
347.544061
 20
96.11110500000002
 30
0.0
 40
0.5
100
AcDbArc
 50
90.0
 51
180.0
  0
LINE
  5
AA56
330
A7C3
100
AcDbEntity
  8
1
  6
Continuous
100
AcDbLine
 10
347.544061
 20
96.61110500000004
 30
0.0
 11
349.044061
 21
96.61110500000004
 31
0.0
  0
ARC
  5
AA57
330
A7C3
100
AcDbEntity
  8
1
  6
Continuous
100
AcDbCircle
 10
347.544061
 20
90.11110499999999
 30
0.0
 40
0.5
100
AcDbArc
 50
180.0
 51
270.0
  0
LINE
  5
AA58
330
A7C3
100
AcDbEntity
  8
1
  6
Continuous
100
AcDbLine
 10
347.544061
 20
89.61110500000001
 30
0.0
 11
349.044061
 21
89.61110500000001
 31
0.0
  0
LINE
  5
AA59
330
A7C3
100
AcDbEntity
  8
1
  6
Continuous
100
AcDbLine
 10
343.1440609999999
 20
94.11110500000004
 30
0.0
 11
343.1440609999999
 21
92.111105
 31
0.0
  0
LINE
  5
AA5A
330
A7C3
100
AcDbEntity
  8
1
  6
Continuous
100
AcDbLine
 10
341.344061
 20
94.311105
 30
0.0
 11
341.344061
 21
91.911105
 31
0.0
  0
LINE
  5
AA5B
330
A7C3
100
AcDbEntity
  8
1
  6
Continuous
100
AcDbLine
 10
341.6440609999999
 20
91.61110500000004
 30
0.0
 11
347.044061
 21
91.61110500000004
 31
0.0
  0
LINE
  5
AA5C
330
A7C3
100
AcDbEntity
  8
1
  6
Continuous
100
AcDbLine
 10
344.1440609999999
 20
91.911105
 30
0.0
 11
344.1440609999999
 21
93.11110500000003
 31
0.0
  0
LINE
  5
AA5D
330
A7C3
100
AcDbEntity
  8
1
  6
Continuous
100
AcDbLine
 10
341.6440609999999
 20
94.611105
 30
0.0
 11
347.044061
 21
94.611105
 31
0.0
  0
LINE
  5
AA5E
330
A7C3
100
AcDbEntity
  8
1
  6
Continuous
100
AcDbLine
 10
344.1440609999999
 20
94.311105
 30
0.0
 11
344.1440609999999
 21
93.11110500000003
 31
0.0
  0
LINE
  5
AA5F
330
A7C3
100
AcDbEntity
  8
1
  6
Continuous
100
AcDbLine
 10
343.994077
 20
127.491456
 30
0.0
 11
347.044077
 21
127.491456
 31
0.0
  0
LINE
  5
AA60
330
A7C3
100
AcDbEntity
  8
1
  6
Continuous
100
AcDbLine
 10
343.994077
 20
128.9914559999999
 30
0.0
 11
347.044077
 21
128.9914559999999
 31
0.0
  0
ARC
  5
AA61
330
A7C3
100
AcDbEntity
  8
1
  6
Continuous
100
AcDbCircle
 10
343.994077
 20
128.241456
 30
0.0
 40
0.75
100
AcDbArc
 50
90.0
 51
270.0
  0
ARC
  5
AA62
330
A7C3
100
AcDbEntity
  8
1
  6
Continuous
100
AcDbCircle
 10
346.044077
 20
131.241456
 30
0.0
 40
1.0
100
AcDbArc
 50
270.0
 51
0.0
  0
ARC
  5
AA63
330
A7C3
100
AcDbEntity
  8
1
  6
Continuous
100
AcDbCircle
 10
346.044077
 20
125.241456
 30
0.0
 40
1.0
100
AcDbArc
 50
0.0
 51
90.0
  0
ARC
  5
AA64
330
A7C3
100
AcDbEntity
  8
1
  6
Continuous
100
AcDbCircle
 10
347.544077
 20
118.2414559999999
 30
0.0
 40
0.5
100
AcDbArc
 50
180.0
 51
270.0
  0
LINE
  5
AA65
330
A7C3
100
AcDbEntity
  8
1
  6
Continuous
100
AcDbLine
 10
347.544077
 20
117.741456
 30
0.0
 11
349.044077
 21
117.741456
 31
0.0
  0
LINE
  5
AA66
330
A7C3
100
AcDbEntity
  8
1
  6
Continuous
100
AcDbLine
 10
344.1440769999999
 20
126.241456
 30
0.0
 11
346.044077
 21
126.241456
 31
0.0
  0
ARC
  5
AA67
330
A7C3
100
AcDbEntity
  8
1
  6
Continuous
100
AcDbCircle
 10
343.6440769999999
 20
126.041456
 30
0.0
 40
0.5
100
AcDbArc
 50
270.0
 51
0.0
  0
ARC
  5
AA68
330
A7C3
100
AcDbEntity
  8
1
  6
Continuous
100
AcDbCircle
 10
343.2954649999999
 20
126.041456
 30
0.0
 40
0.5
100
AcDbArc
 50
236.3099319999999
 51
270.0
  0
ARC
  5
AA69
330
A7C3
100
AcDbEntity
  8
1
  6
Continuous
100
AcDbCircle
 10
341.8440770000001
 20
127.0090479999998
 30
0.0
 40
0.5
100
AcDbArc
 50
180.0
 51
236.3099319999999
  0
LINE
  5
AA6A
330
A7C3
100
AcDbEntity
  8
1
  6
Continuous
100
AcDbLine
 10
341.566727
 20
126.593023
 30
0.0
 11
343.0181149999999
 21
125.625431
 31
0.0
  0
LINE
  5
AA6B
330
A7C3
100
AcDbEntity
  8
1
  6
Continuous
100
AcDbLine
 10
344.1440769999999
 20
126.041456
 30
0.0
 11
344.1440769999999
 21
126.241456
 31
0.0
  0
LINE
  5
AA6C
330
A7C3
100
AcDbEntity
  8
1
  6
Continuous
100
AcDbLine
 10
343.2954649999999
 20
125.541456
 30
0.0
 11
343.6440769999999
 21
125.541456
 31
0.0
  0
LINE
  5
AA6D
330
A7C3
100
AcDbEntity
  8
1
  6
Continuous
100
AcDbLine
 10
344.1440769999999
 20
130.241456
 30
0.0
 11
346.044077
 21
130.241456
 31
0.0
  0
ARC
  5
AA6E
330
A7C3
100
AcDbEntity
  8
1
  6
Continuous
100
AcDbCircle
 10
343.6440769999999
 20
130.4414559999999
 30
0.0
 40
0.5
100
AcDbArc
 50
0.0
 51
90.0
  0
ARC
  5
AA6F
330
A7C3
100
AcDbEntity
  8
1
  6
Continuous
100
AcDbCircle
 10
343.2954649999999
 20
130.4414559999999
 30
0.0
 40
0.5
100
AcDbArc
 50
90.0
 51
123.690068
  0
ARC
  5
AA70
330
A7C3
100
AcDbEntity
  8
1
  6
Continuous
100
AcDbCircle
 10
341.8440770000001
 20
129.4738649999999
 30
0.0
 40
0.5
100
AcDbArc
 50
123.690068
 51
180.0
  0
LINE
  5
AA71
330
A7C3
100
AcDbEntity
  8
1
  6
Continuous
100
AcDbLine
 10
341.566727
 20
129.8898899999997
 30
0.0
 11
343.0181149999999
 21
130.857482
 31
0.0
  0
LINE
  5
AA72
330
A7C3
100
AcDbEntity
  8
1
  6
Continuous
100
AcDbLine
 10
344.1440769999999
 20
130.4414559999999
 30
0.0
 11
344.1440769999999
 21
130.241456
 31
0.0
  0
LINE
  5
AA73
330
A7C3
100
AcDbEntity
  8
1
  6
Continuous
100
AcDbLine
 10
341.3440770000002
 20
129.4738649999999
 30
0.0
 11
341.3440770000002
 21
127.0090479999998
 31
0.0
  0
LINE
  5
AA74
330
A7C3
100
AcDbEntity
  8
1
  6
Continuous
100
AcDbLine
 10
343.2954649999999
 20
130.941456
 30
0.0
 11
343.6440769999999
 21
130.941456
 31
0.0
  0
ARC
  5
AA75
330
A7C3
100
AcDbEntity
  8
1
  6
Continuous
100
AcDbCircle
 10
381.0481709999999
 20
92.01105599999999
 30
0.0
 40
0.2
100
AcDbArc
 50
180.0
 51
270.0
  0
ARC
  5
AA76
330
A7C3
100
AcDbEntity
  8
1
  6
Continuous
100
AcDbCircle
 10
381.0481709999999
 20
93.81105599999999
 30
0.0
 40
0.2
100
AcDbArc
 50
90.0
 51
180.0
  0
CIRCLE
  5
AA77
330
A7C3
100
AcDbEntity
  8
1
  6
Continuous
100
AcDbCircle
 10
381.948171
 20
92.91105599999999
 30
0.0
 40
0.5
  0
LINE
  5
AA78
330
A7C3
100
AcDbEntity
  8
1
  6
Continuous
100
AcDbLine
 10
380.8481709999999
 20
92.01105599999999
 30
0.0
 11
380.8481709999999
 21
93.81105599999999
 31
0.0
  0
LINE
  5
AA79
330
A7C3
100
AcDbEntity
  8
1
  6
Continuous
100
AcDbLine
 10
381.0481709999999
 20
91.811056
 30
0.0
 11
382.8481709999999
 21
91.811056
 31
0.0
  0
LINE
  5
AA7A
330
A7C3
100
AcDbEntity
  8
1
  6
Continuous
100
AcDbLine
 10
381.0481709999999
 20
94.01105599999999
 30
0.0
 11
382.8481709999999
 21
94.01105599999999
 31
0.0
  0
LINE
  5
AA7B
330
A7C3
100
AcDbEntity
  8
1
  6
Continuous
100
AcDbLine
 10
371.448171
 20
90.61105600000001
 30
0.0
 11
371.448171
 21
95.61105600000001
 31
0.0
  0
LINE
  5
AA7C
330
A7C3
100
AcDbEntity
  8
4
  6
CENTER
100
AcDbLine
 10
374.9481709999998
 20
96.66105600000001
 30
0.0
 11
374.9481709999998
 21
89.56105599999999
 31
0.0
  0
CIRCLE
  5
AA7D
330
A7C3
100
AcDbEntity
  8
1
  6
Continuous
100
AcDbCircle
 10
374.9481709999998
 20
93.11105600000001
 30
0.0
 40
1.3
  0
ARC
  5
AA7E
330
A7C3
100
AcDbEntity
  8
1
  6
Continuous
100
AcDbCircle
 10
372.448171
 20
90.61105600000001
 30
0.0
 40
1.0
100
AcDbArc
 50
180.0
 51
270.0
  0
ARC
  5
AA7F
330
A7C3
100
AcDbEntity
  8
1
  6
Continuous
100
AcDbCircle
 10
372.448171
 20
95.61105600000001
 30
0.0
 40
1.0
100
AcDbArc
 50
90.0
 51
180.0
  0
LINE
  5
AA80
330
A7C3
100
AcDbEntity
  8
4
  6
CENTER
100
AcDbLine
 10
344.044077
 20
135.2414559999999
 30
0.0
 11
352.044077
 21
135.2414559999999
 31
0.0
  0
ARC
  5
AA81
330
A7C3
100
AcDbEntity
  8
1
  6
Continuous
100
AcDbCircle
 10
347.544077
 20
138.2414559999999
 30
0.0
 40
0.5
100
AcDbArc
 50
90.0
 51
180.0
  0
LINE
  5
AA82
330
A7C3
100
AcDbEntity
  8
1
  6
Continuous
100
AcDbLine
 10
347.544077
 20
138.741456
 30
0.0
 11
349.044077
 21
138.741456
 31
0.0
  0
LINE
  5
AA83
330
A7C3
100
AcDbEntity
  8
1
  6
Continuous
100
AcDbLine
 10
416.3522809999998
 20
96.61110500000004
 30
0.0
 11
414.852281
 21
96.61110500000004
 31
0.0
  0
LINE
  5
AA84
330
A7C3
100
AcDbEntity
  8
1
  6
Continuous
100
AcDbLine
 10
416.3522809999998
 20
89.61110500000001
 30
0.0
 11
414.852281
 21
89.61110500000001
 31
0.0
  0
LINE
  5
AA85
330
A7C3
100
AcDbEntity
  8
4
  6
CENTER
100
AcDbLine
 10
425.5522809999998
 20
93.11110500000003
 30
0.0
 11
411.8522809999998
 21
93.11110500000003
 31
0.0
  0
LINE
  5
AA86
330
A7C3
100
AcDbEntity
  8
1
  6
Continuous
100
AcDbLine
 10
383.0481709999999
 20
92.01105599999999
 30
0.0
 11
383.0481709999999
 21
93.81105599999999
 31
0.0
  0
LINE
  5
AA87
330
A7C3
100
AcDbEntity
  8
1
  6
Continuous
100
AcDbLine
 10
392.448171
 20
95.61105600000001
 30
0.0
 11
392.448171
 21
90.61105600000001
 31
0.0
  0
LINE
  5
AA88
330
A7C3
100
AcDbEntity
  8
4
  6
CENTER
100
AcDbLine
 10
388.948171
 20
96.66105600000001
 30
0.0
 11
388.948171
 21
89.56105599999999
 31
0.0
  0
ARC
  5
AA89
330
A7C3
100
AcDbEntity
  8
1
  6
Continuous
100
AcDbCircle
 10
391.448171
 20
90.61105600000001
 30
0.0
 40
1.0
100
AcDbArc
 50
270.0
 51
0.0
  0
ARC
  5
AA8A
330
A7C3
100
AcDbEntity
  8
1
  6
Continuous
100
AcDbCircle
 10
391.448171
 20
95.61105600000001
 30
0.0
 40
1.0
100
AcDbArc
 50
0.0
 51
90.0
  0
CIRCLE
  5
AA8B
330
A7C3
100
AcDbEntity
  8
1
  6
Continuous
100
AcDbCircle
 10
388.948171
 20
93.11105600000001
 30
0.0
 40
1.3
  0
LINE
  5
AA8C
330
A7C3
100
AcDbEntity
  8
1
  6
Continuous
100
AcDbLine
 10
414.852281
 20
89.61110500000001
 30
0.0
 11
414.852281
 21
96.61110500000004
 31
0.0
  0
ARC
  5
AA8D
330
A7C3
100
AcDbEntity
  8
1
  6
Continuous
100
AcDbCircle
 10
416.3522809999998
 20
96.11110500000002
 30
0.0
 40
0.5
100
AcDbArc
 50
0.0
 51
90.0
  0
ARC
  5
AA8E
330
A7C3
100
AcDbEntity
  8
1
  6
Continuous
100
AcDbCircle
 10
416.3522809999998
 20
90.11110499999999
 30
0.0
 40
0.5
100
AcDbArc
 50
270.0
 51
0.0
  0
LINE
  5
AA8F
330
A7C3
100
AcDbEntity
  8
1
  6
Continuous
100
AcDbLine
 10
416.8522809999998
 20
90.11110499999999
 30
0.0
 11
416.8522809999998
 21
96.11110500000002
 31
0.0
  0
ARC
  5
AA90
330
A7C3
100
AcDbEntity
  8
1
  6
Continuous
100
AcDbCircle
 10
422.252281
 20
94.311105
 30
0.0
 40
0.3
100
AcDbArc
 50
0.0
 51
90.0
  0
ARC
  5
AA91
330
A7C3
100
AcDbEntity
  8
1
  6
Continuous
100
AcDbCircle
 10
422.252281
 20
91.911105
 30
0.0
 40
0.3
100
AcDbArc
 50
270.0
 51
0.0
  0
LINE
  5
AA92
330
A7C3
100
AcDbEntity
  8
1
  6
Continuous
100
AcDbLine
 10
422.5522809999998
 20
94.311105
 30
0.0
 11
422.5522809999998
 21
91.911105
 31
0.0
  0
LINE
  5
AA93
330
A7C3
100
AcDbEntity
  8
1
  6
Continuous
100
AcDbLine
 10
419.7522809999998
 20
94.311105
 30
0.0
 11
419.7522809999998
 21
93.11110500000003
 31
0.0
  0
ARC
  5
AA94
330
A7C3
100
AcDbEntity
  8
1
  6
Continuous
100
AcDbCircle
 10
420.0522809999998
 20
94.311105
 30
0.0
 40
0.3
100
AcDbArc
 50
90.0
 51
180.0
  0
ARC
  5
AA95
330
A7C3
100
AcDbEntity
  8
1
  6
Continuous
100
AcDbCircle
 10
420.0522809999998
 20
91.911105
 30
0.0
 40
0.3
100
AcDbArc
 50
180.0
 51
270.0
  0
LINE
  5
AA96
330
A7C3
100
AcDbEntity
  8
1
  6
Continuous
100
AcDbLine
 10
419.7522809999998
 20
91.911105
 30
0.0
 11
419.7522809999998
 21
93.11110500000003
 31
0.0
  0
LINE
  5
AA97
330
A7C3
100
AcDbEntity
  8
1
  6
Continuous
100
AcDbLine
 10
420.7522809999998
 20
94.11110500000004
 30
0.0
 11
420.7522809999998
 21
92.111105
 31
0.0
  0
LINE
  5
AA98
330
A7C3
100
AcDbEntity
  8
1
  6
Continuous
100
AcDbLine
 10
422.252281
 20
94.611105
 30
0.0
 11
416.8522809999998
 21
94.611105
 31
0.0
  0
LINE
  5
AA99
330
A7C3
100
AcDbEntity
  8
1
  6
Continuous
100
AcDbLine
 10
422.252281
 20
91.61110500000004
 30
0.0
 11
416.8522809999998
 21
91.61110500000004
 31
0.0
  0
ENDSEC
  0
SECTION
  2
OBJECTS
  0
DICTIONARY
  5
A7B1
330
0
100
AcDbDictionary
281
     1
  3
ACAD_CIP_PREVIOUS_PRODUCT_INFO
350
AAFD
  3
ACAD_COLOR
350
AADF
  3
ACAD_DETAILVIEWSTYLE
350
AAF8
  3
ACAD_GROUP
350
A7B2
  3
ACAD_LAYOUT
350
A7BE
  3
ACAD_MATERIAL
350
AAAD
  3
ACAD_MLEADERSTYLE
350
AAF4
  3
ACAD_MLINESTYLE
350
A7BB
  3
ACAD_PLOTSETTINGS
350
A7BD
  3
ACAD_PLOTSTYLENAME
350
AAAB
  3
ACAD_SCALELIST
350
AAE2
  3
ACAD_SECTIONVIEWSTYLE
350
AAF6
  3
ACAD_TABLESTYLE
350
AAE0
  3
ACAD_VISUALSTYLE
350
AAC6
  3
ACDB_RECOMPOSE_DATA
350
AB1B
  3
AcDbVariableDictionary
350
AB0E
  3
DWGPROPS
350
AB1C
  0
DICTIONARY
  5
AAFE
330
A7B5
100
AcDbDictionary
280
     1
281
     1
  3
ADSK_XREC_LAYER_RECONCILED
360
AAFF
  0
DICTIONARY
  5
AB00
330
A7CB
100
AcDbDictionary
280
     1
281
     1
  3
ADSK_XREC_LAYER_RECONCILED
360
AB01
  0
DICTIONARY
  5
AB02
330
A7CC
100
AcDbDictionary
280
     1
281
     1
  3
ADSK_XREC_LAYER_RECONCILED
360
AB03
  0
DICTIONARY
  5
AB04
330
A7CD
100
AcDbDictionary
280
     1
281
     1
  3
ADSK_XREC_LAYER_RECONCILED
360
AB05
  0
DICTIONARY
  5
AB06
330
A7CE
100
AcDbDictionary
280
     1
281
     1
  3
ADSK_XREC_LAYER_RECONCILED
360
AB07
  0
DICTIONARY
  5
AB08
330
A7CF
100
AcDbDictionary
280
     1
281
     1
  3
ADSK_XREC_LAYER_RECONCILED
360
AB09
  0
DICTIONARY
  5
AB0A
330
A7D0
100
AcDbDictionary
280
     1
281
     1
  3
ADSK_XREC_LAYER_RECONCILED
360
AB0B
  0
DICTIONARY
  5
AB0C
330
A7D1
100
AcDbDictionary
280
     1
281
     1
  3
ADSK_XREC_LAYER_RECONCILED
360
AB0D
  0
DICTIONARY
  5
AAA6
330
A7C3
100
AcDbDictionary
281
     1
  3
ACAD_LAYOUTSELFREF
350
AAA7
  0
DICTIONARY
  5
AAA4
330
A7BF
100
AcDbDictionary
281
     1
  3
ACAD_LAYOUTSELFREF
350
AAA5
  0
XRECORD
  5
AAFD
102
{ACAD_REACTORS
330
A7B1
102
}
330
A7B1
100
AcDbXrecord
280
     1
300
ACDLT
300
2014
300
ACDLT_F_S
  0
DICTIONARY
  5
AADF
102
{ACAD_REACTORS
330
A7B1
102
}
330
A7B1
100
AcDbDictionary
281
     1
  0
DICTIONARY
  5
AAF8
102
{ACAD_REACTORS
330
A7B1
102
}
330
A7B1
100
AcDbDictionary
281
     1
  3
Imperial24
350
AAF9
  0
DICTIONARY
  5
A7B2
102
{ACAD_REACTORS
330
A7B1
102
}
330
A7B1
100
AcDbDictionary
281
     1
  0
DICTIONARY
  5
A7BE
102
{ACAD_REACTORS
330
A7B1
102
}
330
A7B1
100
AcDbDictionary
281
     1
  3
Model
350
AAFA
  3
レイアウト1
350
AAFB
  0
DICTIONARY
  5
AAAD
102
{ACAD_REACTORS
330
A7B1
102
}
330
A7B1
100
AcDbDictionary
281
     1
  3
ByBlock
350
AAB6
  3
ByLayer
350
AAAE
  3
Global
350
AABE
  0
DICTIONARY
  5
AAF4
102
{ACAD_REACTORS
330
A7B1
102
}
330
A7B1
100
AcDbDictionary
281
     1
  3
Standard
350
AAF5
  0
DICTIONARY
  5
A7BB
102
{ACAD_REACTORS
330
A7B1
102
}
330
A7B1
100
AcDbDictionary
281
     1
  3
STANDARD
350
A7BC
  0
DICTIONARY
  5
A7BD
102
{ACAD_REACTORS
330
A7B1
102
}
330
A7B1
100
AcDbDictionary
281
     1
  0
ACDBDICTIONARYWDFLT
  5
AAAB
102
{ACAD_REACTORS
330
A7B1
102
}
330
A7B1
100
AcDbDictionary
281
     1
  3
Normal
350
AAAC
100
AcDbDictionaryWithDefault
340
AAAC
  0
DICTIONARY
  5
AAE2
102
{ACAD_REACTORS
330
A7B1
102
}
330
A7B1
100
AcDbDictionary
281
     1
  3
A0
350
AAE3
  3
A1
350
AAE4
  3
A2
350
AAE5
  3
A3
350
AAE6
  3
A4
350
AAE7
  3
A5
350
AAE8
  3
A6
350
AAE9
  3
A7
350
AAEA
  3
A8
350
AAEB
  3
A9
350
AAEC
  3
B0
350
AAED
  3
B1
350
AAEE
  3
B2
350
AAEF
  3
B3
350
AAF0
  3
B4
350
AAF1
  3
B5
350
AAF2
  3
B6
350
AAF3
  0
DICTIONARY
  5
AAF6
102
{ACAD_REACTORS
330
A7B1
102
}
330
A7B1
100
AcDbDictionary
281
     1
  3
Imperial24
350
AAF7
  0
DICTIONARY
  5
AAE0
102
{ACAD_REACTORS
330
A7B1
102
}
330
A7B1
100
AcDbDictionary
281
     1
  3
Standard
350
AAE1
  0
DICTIONARY
  5
AAC6
102
{ACAD_REACTORS
330
A7B1
102
}
330
A7B1
100
AcDbDictionary
281
     1
  3
2dWireframe
350
AACC
  3
Basic
350
AACB
  3
Brighten
350
AAD2
  3
ColorChange
350
AAD6
  3
Conceptual
350
AACF
  3
Dim
350
AAD1
  3
EdgeColorOff
350
AADE
  3
Facepattern
350
AAD5
  3
Flat
350
AAC7
  3
FlatWithEdges
350
AAC8
  3
Gouraud
350
AAC9
  3
GouraudWithEdges
350
AACA
  3
Hidden
350
AACE
  3
JitterOff
350
AADC
  3
Linepattern
350
AAD4
  3
OverhangOff
350
AADD
  3
Realistic
350
AAD0
  3
Shaded
350
AADB
  3
Shaded with edges
350
AADA
  3
Shades of Gray
350
AAD7
  3
Sketchy
350
AAD8
  3
Thicken
350
AAD3
  3
Wireframe
350
AACD
  3
X-Ray
350
AAD9
  0
XRECORD
  5
AB1B
102
{ACAD_REACTORS
330
A7B1
102
}
330
A7B1
100
AcDbXrecord
280
     1
 90
        1
330
AAE1
  0
DICTIONARY
  5
AB0E
102
{ACAD_REACTORS
330
A7B1
102
}
330
A7B1
100
AcDbDictionary
281
     1
  3
CANNOSCALE
350
AB13
  3
CMLEADERSTYLE
350
AB10
  3
CTABLESTYLE
350
AB0F
  3
CVIEWDETAILSTYLE
350
AB11
  3
CVIEWSECTIONSTYLE
350
AB12
  3
DIMASSOC
350
AB16
  3
INDEXCTL
350
AB15
  3
SORTENTS
350
AB14
  3
XCLIPFRAME
350
AB17
  0
XRECORD
  5
AB1C
102
{ACAD_REACTORS
330
A7B1
102
}
330
A7B1
100
AcDbXrecord
280
     1
  1
DWGPROPS COOKIE
  2

  3

  4

  6

  7

  8
Yoshitsune
  9

300
=
301
=
302
=
303
=
304
=
305
=
306
=
307
=
308
=
309
=
 40
0.00001375
 41
2451344.659119213
 42
2457192.601360509
  1

 90
        0
  0
XRECORD
  5
AAFF
102
{ACAD_REACTORS
330
AAFE
102
}
330
AAFE
100
AcDbXrecord
280
     1
290
     1
  0
XRECORD
  5
AB01
102
{ACAD_REACTORS
330
AB00
102
}
330
AB00
100
AcDbXrecord
280
     1
290
     1
  0
XRECORD
  5
AB03
102
{ACAD_REACTORS
330
AB02
102
}
330
AB02
100
AcDbXrecord
280
     1
290
     1
  0
XRECORD
  5
AB05
102
{ACAD_REACTORS
330
AB04
102
}
330
AB04
100
AcDbXrecord
280
     1
290
     1
  0
XRECORD
  5
AB07
102
{ACAD_REACTORS
330
AB06
102
}
330
AB06
100
AcDbXrecord
280
     1
290
     1
  0
XRECORD
  5
AB09
102
{ACAD_REACTORS
330
AB08
102
}
330
AB08
100
AcDbXrecord
280
     1
290
     1
  0
XRECORD
  5
AB0B
102
{ACAD_REACTORS
330
AB0A
102
}
330
AB0A
100
AcDbXrecord
280
     1
290
     1
  0
XRECORD
  5
AB0D
102
{ACAD_REACTORS
330
AB0C
102
}
330
AB0C
100
AcDbXrecord
280
     1
290
     1
  0
XRECORD
  5
AAA7
102
{ACAD_REACTORS
330
AAA6
102
}
330
AAA6
100
AcDbXrecord
280
     1
340
A7C3
  0
XRECORD
  5
AAA5
102
{ACAD_REACTORS
330
AAA4
102
}
330
AAA4
100
AcDbXrecord
280
     1
340
A7BF
  0
ACDBDETAILVIEWSTYLE
  5
AAF9
102
{ACAD_XDICTIONARY
360
AB54
102
}
102
{ACAD_REACTORS
330
AAF8
102
}
330
AAF8
100
AcDbModelDocViewStyle
 70
     0
  3
Imperial24
290
     0
100
AcDbDetailViewStyle
 70
     0
 71
     0
 90
        3
 71
     1
340
A7B6
 40
0.24
340
0
 40
0.24
300

 40
0.36
280
     3
 71
     2
340
A7BA
 90
       25
 71
     3
340
A7B6
 40
0.24
 90
        1
 40
0.75
 90
        1
300
%<\AcVar ViewType \f "%tc1">% %<\AcVar ViewDetailId>%\PSCALE %<\AcVar ViewScale \f "%sn">%
 71
     4
340
A7BA
 90
       25
340
A7BA
 90
       25
280
     0
  0
LAYOUT
  5
AAFA
102
{ACAD_XDICTIONARY
360
AB56
102
}
102
{ACAD_REACTORS
330
A7BE
102
}
330
A7BE
100
AcDbPlotSettings
  1

  2
Canon LBP9100C
  4

  6

 40
0.0
 41
0.0
 42
0.0
 43
0.0
 44
0.0
 45
0.0
 46
0.0
 47
0.0
 48
0.0
 49
0.0
140
0.0
141
0.0
142
1.0
143
1.0
 70
  1712
 72
     0
 73
     0
 74
     0
  7

 75
     0
147
1.0
148
0.0
149
0.0
100
AcDbLayout
  1
Model
 70
     1
 71
     0
 10
0.0
 20
0.0
 11
12.0
 21
9.0
 12
0.0
 22
0.0
 32
0.0
 14
0.0
 24
0.0
 34
0.0
 15
0.0
 25
0.0
 35
0.0
146
0.0
 13
0.0
 23
0.0
 33
0.0
 16
1.0
 26
0.0
 36
0.0
 17
0.0
 27
1.0
 37
0.0
 76
     0
330
A7C3
331
AAA3
  0
LAYOUT
  5
AAFB
102
{ACAD_XDICTIONARY
360
AB58
102
}
102
{ACAD_REACTORS
330
A7BE
102
}
330
A7BE
100
AcDbPlotSettings
  1

  2
Canon LBP9100C
  4

  6

 40
0.0
 41
0.0
 42
0.0
 43
0.0
 44
0.0
 45
0.0
 46
0.0
 47
0.0
 48
0.0
 49
0.0
140
0.0
141
0.0
142
1.0
143
1.0
 70
   688
 72
     0
 73
     0
 74
     5
  7

 75
    16
147
1.0
148
0.0
149
0.0
100
AcDbLayout
  1
レイアウト1
 70
     0
 71
     1
 10
0.0
 20
0.0
 11
420.0
 21
297.0
 12
0.0
 22
0.0
 32
0.0
 14
1.000000000000000E+20
 24
1.000000000000000E+20
 34
1.000000000000000E+20
 15
-1.000000000000000E+20
 25
-1.000000000000000E+20
 35
-1.000000000000000E+20
146
0.0
 13
0.0
 23
0.0
 33
0.0
 16
1.0
 26
0.0
 36
0.0
 17
0.0
 27
1.0
 37
0.0
 76
     0
330
A7BF
  0
MATERIAL
  5
AAB6
102
{ACAD_XDICTIONARY
360
AAB7
102
}
102
{ACAD_REACTORS
330
AAAD
102
}
330
AAAD
100
AcDbMaterial
  1
ByBlock
 72
     0
 43
0.0208333333333333
 43
0.0
 43
0.0
 43
0.0
 43
0.0
 43
0.0208333333333333
 43
0.0
 43
0.0
 43
0.0
 43
0.0
 43
1.0
 43
0.0
 43
0.0
 43
0.0
 43
0.0
 43
1.0
 77
     0
 47
0.0208333333333333
 47
0.0
 47
0.0
 47
0.0
 47
0.0
 47
0.0208333333333333
 47
0.0
 47
0.0
 47
0.0
 47
0.0
 47
1.0
 47
0.0
 47
0.0
 47
0.0
 47
0.0
 47
1.0
171
     0
 49
0.0208333333333333
 49
0.0
 49
0.0
 49
0.0
 49
0.0
 49
0.0208333333333333
 49
0.0
 49
0.0
 49
0.0
 49
0.0
 49
1.0
 49
0.0
 49
0.0
 49
0.0
 49
0.0
 49
1.0
175
     0
142
0.0208333333333333
142
0.0
142
0.0
142
0.0
142
0.0
142
0.0208333333333333
142
0.0
142
0.0
142
0.0
142
0.0
142
1.0
142
0.0
142
0.0
142
0.0
142
0.0
142
1.0
179
     0
144
0.0208333333333333
144
0.0
144
0.0
144
0.0
144
0.0
144
0.0208333333333333
144
0.0
144
0.0
144
0.0
144
0.0
144
1.0
144
0.0
144
0.0
144
0.0
144
0.0
144
1.0
147
0.0208333333333333
147
0.0
147
0.0
147
0.0
147
0.0
147
0.0208333333333333
147
0.0
147
0.0
147
0.0
147
0.0
147
1.0
147
0.0
147
0.0
147
0.0
147
0.0
147
1.0
  0
MATERIAL
  5
AAAE
102
{ACAD_XDICTIONARY
360
AAAF
102
}
102
{ACAD_REACTORS
330
AAAD
102
}
330
AAAD
100
AcDbMaterial
  1
ByLayer
 72
     0
 43
0.0208333333333333
 43
0.0
 43
0.0
 43
0.0
 43
0.0
 43
0.0208333333333333
 43
0.0
 43
0.0
 43
0.0
 43
0.0
 43
1.0
 43
0.0
 43
0.0
 43
0.0
 43
0.0
 43
1.0
 77
     0
 47
0.0208333333333333
 47
0.0
 47
0.0
 47
0.0
 47
0.0
 47
0.0208333333333333
 47
0.0
 47
0.0
 47
0.0
 47
0.0
 47
1.0
 47
0.0
 47
0.0
 47
0.0
 47
0.0
 47
1.0
171
     0
 49
0.0208333333333333
 49
0.0
 49
0.0
 49
0.0
 49
0.0
 49
0.0208333333333333
 49
0.0
 49
0.0
 49
0.0
 49
0.0
 49
1.0
 49
0.0
 49
0.0
 49
0.0
 49
0.0
 49
1.0
175
     0
142
0.0208333333333333
142
0.0
142
0.0
142
0.0
142
0.0
142
0.0208333333333333
142
0.0
142
0.0
142
0.0
142
0.0
142
1.0
142
0.0
142
0.0
142
0.0
142
0.0
142
1.0
179
     0
144
0.0208333333333333
144
0.0
144
0.0
144
0.0
144
0.0
144
0.0208333333333333
144
0.0
144
0.0
144
0.0
144
0.0
144
1.0
144
0.0
144
0.0
144
0.0
144
0.0
144
1.0
147
0.0208333333333333
147
0.0
147
0.0
147
0.0
147
0.0
147
0.0208333333333333
147
0.0
147
0.0
147
0.0
147
0.0
147
1.0
147
0.0
147
0.0
147
0.0
147
0.0
147
1.0
  0
MATERIAL
  5
AABE
102
{ACAD_XDICTIONARY
360
AABF
102
}
102
{ACAD_REACTORS
330
AAAD
102
}
330
AAAD
100
AcDbMaterial
  1
Global
 72
     0
 43
0.0208333333333333
 43
0.0
 43
0.0
 43
0.0
 43
0.0
 43
0.0208333333333333
 43
0.0
 43
0.0
 43
0.0
 43
0.0
 43
1.0
 43
0.0
 43
0.0
 43
0.0
 43
0.0
 43
1.0
 77
     0
 47
0.0208333333333333
 47
0.0
 47
0.0
 47
0.0
 47
0.0
 47
0.0208333333333333
 47
0.0
 47
0.0
 47
0.0
 47
0.0
 47
1.0
 47
0.0
 47
0.0
 47
0.0
 47
0.0
 47
1.0
171
     0
 49
0.0208333333333333
 49
0.0
 49
0.0
 49
0.0
 49
0.0
 49
0.0208333333333333
 49
0.0
 49
0.0
 49
0.0
 49
0.0
 49
1.0
 49
0.0
 49
0.0
 49
0.0
 49
0.0
 49
1.0
175
     0
142
0.0208333333333333
142
0.0
142
0.0
142
0.0
142
0.0
142
0.0208333333333333
142
0.0
142
0.0
142
0.0
142
0.0
142
1.0
142
0.0
142
0.0
142
0.0
142
0.0
142
1.0
179
     0
144
0.0208333333333333
144
0.0
144
0.0
144
0.0
144
0.0
144
0.0208333333333333
144
0.0
144
0.0
144
0.0
144
0.0
144
1.0
144
0.0
144
0.0
144
0.0
144
0.0
144
1.0
147
0.0208333333333333
147
0.0
147
0.0
147
0.0
147
0.0
147
0.0208333333333333
147
0.0
147
0.0
147
0.0
147
0.0
147
1.0
147
0.0
147
0.0
147
0.0
147
0.0
147
1.0
  0
MLEADERSTYLE
  5
AAF5
102
{ACAD_REACTORS
330
AAF4
102
}
330
AAF4
100
AcDbMLeaderStyle
170
     2
171
     1
172
     0
 90
        2
 40
0.0
 41
0.0
173
     1
 91
-1056964608
340
A7B8
 92
       -2
290
     1
 42
0.09
291
     1
 43
0.36
  3
Standard
 44
0.18
300

342
A7B6
174
     1
178
     6
175
     1
176
     0
 93
-1056964608
 45
0.18
292
     0
297
     0
 46
0.18
 94
-1056964608
 47
1.0
 49
1.0
140
1.0
293
     1
141
0.0
294
     1
177
     0
142
1.0
295
     0
296
     0
143
0.125
1001
ACAD_MLEADERVER
1070
     2
  0
MLINESTYLE
  5
A7BC
102
{ACAD_REACTORS
330
A7BB
102
}
330
A7BB
100
AcDbMlineStyle
  2
STANDARD
 70
     0
  3

 62
   256
 51
90.0
 52
90.0
 71
     2
 49
0.5
 62
   256
  6
BYLAYER
 49
-0.5
 62
   256
  6
BYLAYER
  0
ACDBPLACEHOLDER
  5
AAAC
102
{ACAD_REACTORS
330
AAAB
102
}
330
AAAB
  0
SCALE
  5
AAE3
102
{ACAD_REACTORS
330
AAE2
102
}
330
AAE2
100
AcDbScale
 70
     0
300
1:1
140
1.0
141
1.0
290
     1
  0
SCALE
  5
AAE4
102
{ACAD_REACTORS
330
AAE2
102
}
330
AAE2
100
AcDbScale
 70
     0
300
1/128" = 1'-0"
140
0.0078125
141
12.0
290
     0
  0
SCALE
  5
AAE5
102
{ACAD_REACTORS
330
AAE2
102
}
330
AAE2
100
AcDbScale
 70
     0
300
1/64" = 1'-0"
140
0.015625
141
12.0
290
     0
  0
SCALE
  5
AAE6
102
{ACAD_REACTORS
330
AAE2
102
}
330
AAE2
100
AcDbScale
 70
     0
300
1/32" = 1'-0"
140
0.03125
141
12.0
290
     0
  0
SCALE
  5
AAE7
102
{ACAD_REACTORS
330
AAE2
102
}
330
AAE2
100
AcDbScale
 70
     0
300
1/16" = 1'-0"
140
0.0625
141
12.0
290
     0
  0
SCALE
  5
AAE8
102
{ACAD_REACTORS
330
AAE2
102
}
330
AAE2
100
AcDbScale
 70
     0
300
3/32" = 1'-0"
140
0.09375
141
12.0
290
     0
  0
SCALE
  5
AAE9
102
{ACAD_REACTORS
330
AAE2
102
}
330
AAE2
100
AcDbScale
 70
     0
300
1/8" = 1'-0"
140
0.125
141
12.0
290
     0
  0
SCALE
  5
AAEA
102
{ACAD_REACTORS
330
AAE2
102
}
330
AAE2
100
AcDbScale
 70
     0
300
3/16" = 1'-0"
140
0.1875
141
12.0
290
     0
  0
SCALE
  5
AAEB
102
{ACAD_REACTORS
330
AAE2
102
}
330
AAE2
100
AcDbScale
 70
     0
300
1/4" = 1'-0"
140
0.25
141
12.0
290
     0
  0
SCALE
  5
AAEC
102
{ACAD_REACTORS
330
AAE2
102
}
330
AAE2
100
AcDbScale
 70
     0
300
3/8" = 1'-0"
140
0.375
141
12.0
290
     0
  0
SCALE
  5
AAED
102
{ACAD_REACTORS
330
AAE2
102
}
330
AAE2
100
AcDbScale
 70
     0
300
1/2" = 1'-0"
140
0.5
141
12.0
290
     0
  0
SCALE
  5
AAEE
102
{ACAD_REACTORS
330
AAE2
102
}
330
AAE2
100
AcDbScale
 70
     0
300
3/4" = 1'-0"
140
0.75
141
12.0
290
     0
  0
SCALE
  5
AAEF
102
{ACAD_REACTORS
330
AAE2
102
}
330
AAE2
100
AcDbScale
 70
     0
300
1" = 1'-0"
140
1.0
141
12.0
290
     0
  0
SCALE
  5
AAF0
102
{ACAD_REACTORS
330
AAE2
102
}
330
AAE2
100
AcDbScale
 70
     0
300
1-1/2" = 1'-0"
140
1.5
141
12.0
290
     0
  0
SCALE
  5
AAF1
102
{ACAD_REACTORS
330
AAE2
102
}
330
AAE2
100
AcDbScale
 70
     0
300
3" = 1'-0"
140
3.0
141
12.0
290
     0
  0
SCALE
  5
AAF2
102
{ACAD_REACTORS
330
AAE2
102
}
330
AAE2
100
AcDbScale
 70
     0
300
6" = 1'-0"
140
6.0
141
12.0
290
     0
  0
SCALE
  5
AAF3
102
{ACAD_REACTORS
330
AAE2
102
}
330
AAE2
100
AcDbScale
 70
     0
300
1'-0" = 1'-0"
140
12.0
141
12.0
290
     0
  0
ACDBSECTIONVIEWSTYLE
  5
AAF7
102
{ACAD_XDICTIONARY
360
AB52
102
}
102
{ACAD_REACTORS
330
AAF6
102
}
330
AAF6
100
AcDbModelDocViewStyle
 70
     0
  3
Imperial24
290
     0
100
AcDbSectionViewStyle
 70
     0
 71
     0
 90
       78
 71
     1
340
A7B6
 40
0.24
340
0
340
0
 40
0.24
300
I, O, Q, S, X, Z
 40
0.48
 90
        3
 40
0.18
 90
        1
 71
     2
340
A7BA
 90
       25
340
A7BA
 90
       50
 40
0.24
 40
0.0
 40
0.24
 71
     3
340
A7B6
 40
0.24
 90
        1
 40
0.75
 90
        1
300
%<\AcVar ViewType \f "%tc1">% %<\AcVar ViewSectionStartId>%-%<\AcVar ViewSectionEndId>%\PSCALE %<\AcVar ViewScale \f "%sn">%
 71
     4
300
ANSI31
 40
1.0
 90
        0
290
     0
290
     0
 90
        6
 40
0.0
 40
1.570796326794896
 40
0.2617993877991494
 40
1.308996938995747
 40
-0.2617993877991494
 40
1.832595714594046
  0
TABLESTYLE
  5
AAE1
102
{ACAD_XDICTIONARY
360
AB19
102
}
102
{ACAD_REACTORS
330
AAE0
102
}
330
AAE0
100
AcDbTableStyle
  3
Standard
 70
     0
 71
     0
 40
0.06
 41
0.06
280
     0
281
     0
  7
STANDARD
140
0.18
170
     2
 62
     0
 63
     7
283
     0
274
    -2
284
     1
 64
     0
275
    -2
285
     1
 65
     0
276
    -2
286
     1
 66
     0
277
    -2
287
     1
 67
     0
278
    -2
288
     1
 68
     0
279
    -2
289
     1
 69
     0
  7
STANDARD
140
0.25
170
     5
 62
     0
 63
     7
283
     0
274
    -2
284
     1
 64
     0
275
    -2
285
     1
 65
     0
276
    -2
286
     1
 66
     0
277
    -2
287
     1
 67
     0
278
    -2
288
     1
 68
     0
279
    -2
289
     1
 69
     0
  7
STANDARD
140
0.18
170
     5
 62
     0
 63
     7
283
     0
274
    -2
284
     1
 64
     0
275
    -2
285
     1
 65
     0
276
    -2
286
     1
 66
     0
277
    -2
287
     1
 67
     0
278
    -2
288
     1
 68
     0
279
    -2
289
     1
 69
     0
  0
VISUALSTYLE
  5
AACC
102
{ACAD_XDICTIONARY
360
AB2A
102
}
102
{ACAD_REACTORS
330
AAC6
102
}
330
AAC6
100
AcDbVisualStyle
  2
2dWireframe
 70
     4
 71
     0
 72
     2
 73
     0
 90
        0
 40
-0.6
 41
-30.0
 62
     5
 63
     7
 74
     1
 91
        4
 64
     7
 65
   257
 75
     1
175
     1
 42
1.0
 92
        0
 66
   257
 43
1.0
 76
     1
 77
     6
 78
     2
 67
     7
 79
     5
170
     0
171
     0
290
     0
174
     0
 93
        1
 44
0.0
173
     0
291
     0
 45
0.0
1001
ACAD
1000
AcDbSavedByObjectVersion
1070
     0
  0
VISUALSTYLE
  5
AACB
102
{ACAD_XDICTIONARY
360
AB28
102
}
102
{ACAD_REACTORS
330
AAC6
102
}
330
AAC6
100
AcDbVisualStyle
  2
Basic
 70
     7
 71
     1
 72
     0
 73
     1
 90
        0
 40
-0.6
 41
-30.0
 62
     5
 63
     7
 74
     0
 91
        4
 64
     7
 65
   257
 75
     1
175
     1
 42
1.0
 92
        8
 66
     7
 43
1.0
 76
     1
 77
     6
 78
     2
 67
     7
 79
     5
170
     0
171
     0
290
     0
174
     0
 93
        1
 44
0.0
173
     0
291
     1
 45
0.0
1001
ACAD
1000
AcDbSavedByObjectVersion
1070
     0
  0
VISUALSTYLE
  5
AAD2
102
{ACAD_XDICTIONARY
360
AB36
102
}
102
{ACAD_REACTORS
330
AAC6
102
}
330
AAC6
100
AcDbVisualStyle
  2
Brighten
 70
    12
 71
     2
 72
     2
 73
     0
 90
        0
 40
-0.6
 41
-30.0
 62
     5
 63
     7
 74
     1
 91
        4
 64
     7
 65
   257
 75
     1
175
     1
 42
1.0
 92
        8
 66
     7
 43
1.0
 76
     1
 77
     6
 78
     2
 67
     7
 79
     5
170
     0
171
     0
290
     0
174
     0
 93
        1
 44
50.0
173
     0
291
     1
 45
0.0
1001
ACAD
1000
AcDbSavedByObjectVersion
1070
     0
  0
VISUALSTYLE
  5
AAD6
102
{ACAD_XDICTIONARY
360
AB3E
102
}
102
{ACAD_REACTORS
330
AAC6
102
}
330
AAC6
100
AcDbVisualStyle
  2
ColorChange
 70
    16
 71
     2
 72
     2
 73
     3
 90
        0
 40
-0.6
 41
-30.0
 62
     5
 63
     8
 74
     1
 91
        4
 64
     7
 65
   257
 75
     1
175
     1
 42
1.0
 92
        8
 66
     8
 43
1.0
 76
     1
 77
     6
 78
     2
 67
     7
 79
     5
170
     0
171
     0
290
     0
174
     0
 93
        1
 44
0.0
173
     0
291
     1
 45
0.0
1001
ACAD
1000
AcDbSavedByObjectVersion
1070
     0
  0
VISUALSTYLE
  5
AACF
102
{ACAD_XDICTIONARY
360
AB30
102
}
102
{ACAD_REACTORS
330
AAC6
102
}
330
AAC6
100
AcDbVisualStyle
  2
Conceptual
 70
     9
 71
     3
 72
     2
 73
     0
 90
        0
 40
-0.6
 41
-30.0
 62
     5
 63
     7
 74
     2
 91
        2
 64
     7
 65
   257
 75
     1
175
     1
 42
179.0
 92
        8
 66
     7
 43
1.0
 76
     1
 77
     6
 78
     2
 67
     7
 79
     3
170
     0
171
     0
290
     0
174
     0
 93
        1
 44
0.0
173
     0
291
     0
 45
0.0
1001
ACAD
1000
AcDbSavedByObjectVersion
1070
     0
  0
VISUALSTYLE
  5
AAD1
102
{ACAD_XDICTIONARY
360
AB34
102
}
102
{ACAD_REACTORS
330
AAC6
102
}
330
AAC6
100
AcDbVisualStyle
  2
Dim
 70
    11
 71
     2
 72
     2
 73
     0
 90
        0
 40
-0.6
 41
-30.0
 62
     5
 63
     7
 74
     1
 91
        4
 64
     7
 65
   257
 75
     1
175
     1
 42
1.0
 92
        8
 66
     7
 43
1.0
 76
     1
 77
     6
 78
     2
 67
     7
 79
     5
170
     0
171
     0
290
     0
174
     0
 93
        1
 44
-50.0
173
     0
291
     1
 45
0.0
1001
ACAD
1000
AcDbSavedByObjectVersion
1070
     0
  0
VISUALSTYLE
  5
AADE
102
{ACAD_XDICTIONARY
360
AB4E
102
}
102
{ACAD_REACTORS
330
AAC6
102
}
330
AAC6
100
AcDbVisualStyle
  2
EdgeColorOff
 70
    22
 71
     2
 72
     2
 73
     0
 90
        0
 40
-0.6
 41
-30.0
 62
     5
 63
     7
 74
     1
 91
        4
 64
     7
 65
   257
 75
     1
175
     1
 42
1.0
 92
        8
 66
     7
 43
1.0
 76
     1
 77
     6
 78
     2
 67
     7
 79
     5
170
     0
171
     0
290
     0
174
     0
 93
        1
 44
0.0
173
     0
291
     1
 45
0.0
1001
ACAD
1000
AcDbSavedByObjectVersion
1070
     0
  0
VISUALSTYLE
  5
AAD5
102
{ACAD_XDICTIONARY
360
AB3C
102
}
102
{ACAD_REACTORS
330
AAC6
102
}
330
AAC6
100
AcDbVisualStyle
  2
Facepattern
 70
    15
 71
     2
 72
     2
 73
     0
 90
        0
 40
-0.6
 41
-30.0
 62
     5
 63
     7
 74
     1
 91
        4
 64
     7
 65
   257
 75
     1
175
     1
 42
1.0
 92
        8
 66
     7
 43
1.0
 76
     1
 77
     6
 78
     2
 67
     7
 79
     5
170
     0
171
     0
290
     0
174
     0
 93
        1
 44
0.0
173
     0
291
     1
 45
0.0
1001
ACAD
1000
AcDbSavedByObjectVersion
1070
     0
  0
VISUALSTYLE
  5
AAC7
102
{ACAD_XDICTIONARY
360
AB20
102
}
102
{ACAD_REACTORS
330
AAC6
102
}
330
AAC6
100
AcDbVisualStyle
  2
Flat
 70
     0
 71
     2
 72
     1
 73
     1
 90
        2
 40
-0.6
 41
30.0
 62
     5
 63
     7
 74
     0
 91
        0
 64
     7
 65
   257
 75
     1
175
     1
 42
1.0
 92
        8
 66
     7
 43
1.0
 76
     1
 77
     6
 78
     2
 67
     7
 79
     5
170
     0
171
     0
290
     0
174
     0
 93
       13
 44
0.0
173
     0
291
     1
 45
0.0
1001
ACAD
1000
AcDbSavedByObjectVersion
1070
     0
  0
VISUALSTYLE
  5
AAC8
102
{ACAD_XDICTIONARY
360
AB22
102
}
102
{ACAD_REACTORS
330
AAC6
102
}
330
AAC6
100
AcDbVisualStyle
  2
FlatWithEdges
 70
     1
 71
     2
 72
     1
 73
     1
 90
        2
 40
-0.6
 41
30.0
 62
     5
 63
     7
 74
     1
 91
        0
 64
     7
 65
   257
 75
     1
175
     1
 42
1.0
 92
        0
 66
   257
 43
1.0
 76
     1
 77
     6
 78
     2
 67
     7
 79
     5
170
     0
171
     0
290
     0
174
     0
 93
       13
 44
0.0
173
     0
291
     1
 45
0.0
1001
ACAD
1000
AcDbSavedByObjectVersion
1070
     0
  0
VISUALSTYLE
  5
AAC9
102
{ACAD_XDICTIONARY
360
AB24
102
}
102
{ACAD_REACTORS
330
AAC6
102
}
330
AAC6
100
AcDbVisualStyle
  2
Gouraud
 70
     2
 71
     2
 72
     2
 73
     1
 90
        2
 40
-0.6
 41
30.0
 62
     5
 63
     7
 74
     0
 91
        0
 64
     7
 65
   257
 75
     1
175
     1
 42
1.0
 92
        0
 66
     7
 43
1.0
 76
     1
 77
     6
 78
     2
 67
     7
 79
     5
170
     0
171
     0
290
     0
174
     0
 93
       13
 44
0.0
173
     0
291
     1
 45
0.0
1001
ACAD
1000
AcDbSavedByObjectVersion
1070
     0
  0
VISUALSTYLE
  5
AACA
102
{ACAD_XDICTIONARY
360
AB26
102
}
102
{ACAD_REACTORS
330
AAC6
102
}
330
AAC6
100
AcDbVisualStyle
  2
GouraudWithEdges
 70
     3
 71
     2
 72
     2
 73
     1
 90
        2
 40
-0.6
 41
30.0
 62
     5
 63
     7
 74
     1
 91
        0
 64
     7
 65
   257
 75
     1
175
     1
 42
1.0
 92
        0
 66
   257
 43
1.0
 76
     1
 77
     6
 78
     2
 67
     7
 79
     5
170
     0
171
     0
290
     0
174
     0
 93
       13
 44
0.0
173
     0
291
     1
 45
0.0
1001
ACAD
1000
AcDbSavedByObjectVersion
1070
     0
  0
VISUALSTYLE
  5
AACE
102
{ACAD_XDICTIONARY
360
AB2E
102
}
102
{ACAD_REACTORS
330
AAC6
102
}
330
AAC6
100
AcDbVisualStyle
  2
Hidden
 70
     6
 71
     1
 72
     2
 73
     2
 90
        0
 40
-0.6
 41
-30.0
 62
     5
 63
     7
 74
     2
 91
        2
 64
     7
 65
   257
 75
     2
175
     1
 42
40.0
 92
        0
 66
   257
 43
1.0
 76
     1
 77
     6
 78
     2
 67
     7
 79
     3
170
     0
171
     0
290
     0
174
     0
 93
        1
 44
0.0
173
     0
291
     0
 45
0.0
1001
ACAD
1000
AcDbSavedByObjectVersion
1070
     0
  0
VISUALSTYLE
  5
AADC
102
{ACAD_XDICTIONARY
360
AB4A
102
}
102
{ACAD_REACTORS
330
AAC6
102
}
330
AAC6
100
AcDbVisualStyle
  2
JitterOff
 70
    20
 71
     2
 72
     2
 73
     0
 90
        0
 40
-0.6
 41
-30.0
 62
     5
 63
     7
 74
     1
 91
        4
 64
     7
 65
   257
 75
     1
175
     1
 42
1.0
 92
       10
 66
     7
 43
1.0
 76
     1
 77
     6
 78
     2
 67
     7
 79
     5
170
     0
171
     0
290
     0
174
     0
 93
        1
 44
0.0
173
     0
291
     1
 45
0.0
1001
ACAD
1000
AcDbSavedByObjectVersion
1070
     0
  0
VISUALSTYLE
  5
AAD4
102
{ACAD_XDICTIONARY
360
AB3A
102
}
102
{ACAD_REACTORS
330
AAC6
102
}
330
AAC6
100
AcDbVisualStyle
  2
Linepattern
 70
    14
 71
     2
 72
     2
 73
     0
 90
        0
 40
-0.6
 41
-30.0
 62
     5
 63
     7
 74
     1
 91
        4
 64
     7
 65
   257
 75
     7
175
     7
 42
1.0
 92
        8
 66
     7
 43
1.0
 76
     1
 77
     6
 78
     2
 67
     7
 79
     5
170
     0
171
     0
290
     0
174
     0
 93
        1
 44
0.0
173
     0
291
     1
 45
0.0
1001
ACAD
1000
AcDbSavedByObjectVersion
1070
     0
  0
VISUALSTYLE
  5
AADD
102
{ACAD_XDICTIONARY
360
AB4C
102
}
102
{ACAD_REACTORS
330
AAC6
102
}
330
AAC6
100
AcDbVisualStyle
  2
OverhangOff
 70
    21
 71
     2
 72
     2
 73
     0
 90
        0
 40
-0.6
 41
-30.0
 62
     5
 63
     7
 74
     1
 91
        4
 64
     7
 65
   257
 75
     1
175
     1
 42
1.0
 92
        9
 66
     7
 43
1.0
 76
     1
 77
     6
 78
     2
 67
     7
 79
     5
170
     0
171
     0
290
     0
174
     0
 93
        1
 44
0.0
173
     0
291
     1
 45
0.0
1001
ACAD
1000
AcDbSavedByObjectVersion
1070
     0
  0
VISUALSTYLE
  5
AAD0
102
{ACAD_XDICTIONARY
360
AB32
102
}
102
{ACAD_REACTORS
330
AAC6
102
}
330
AAC6
100
AcDbVisualStyle
  2
Realistic
 70
     8
 71
     2
 72
     3
 73
     0
 90
        2
 40
-0.6
 41
30.0
 62
     5
 63
     7
 74
     0
 91
        0
 64
     7
 65
   257
 75
     1
175
     1
 42
1.0
 92
        8
 66
   257
 43
1.0
 76
     1
 77
     6
 78
     2
 67
     7
 79
     3
170
     0
171
     0
290
     0
174
     0
 93
       13
 44
0.0
173
     0
291
     0
 45
0.0
1001
ACAD
1000
AcDbSavedByObjectVersion
1070
     0
  0
VISUALSTYLE
  5
AADB
102
{ACAD_XDICTIONARY
360
AB48
102
}
102
{ACAD_REACTORS
330
AAC6
102
}
330
AAC6
100
AcDbVisualStyle
  2
Shaded
 70
    27
 71
     2
 72
     2
 73
     1
 90
        2
 40
-0.6
 41
30.0
 62
     5
 63
     7
 74
     0
 91
        4
 64
     7
 65
   257
 75
     1
175
     1
 42
1.0
 92
        8
 66
   257
 43
1.0
 76
     1
 77
     6
 78
     2
 67
     8
 79
     3
170
     0
171
     0
290
     0
174
     0
 93
        5
 44
0.0
173
     0
291
     0
 45
0.0
1001
ACAD
1000
AcDbSavedByObjectVersion
1070
     0
  0
VISUALSTYLE
  5
AADA
102
{ACAD_XDICTIONARY
360
AB46
102
}
102
{ACAD_REACTORS
330
AAC6
102
}
330
AAC6
100
AcDbVisualStyle
  2
Shaded with edges
 70
    26
 71
     2
 72
     2
 73
     1
 90
        2
 40
-0.6
 41
30.0
 62
     5
 63
     7
 74
     1
 91
       10
 64
     7
 65
   257
 75
     2
175
     1
 42
1.0
 92
        8
 66
   257
 43
1.0
 76
     1
 77
     6
 78
     2
 67
     7
 79
     3
170
     0
171
     0
290
     0
174
     0
 93
        5
 44
0.0
173
     0
291
     0
 45
0.0
1001
ACAD
1000
AcDbSavedByObjectVersion
1070
     0
  0
VISUALSTYLE
  5
AAD7
102
{ACAD_XDICTIONARY
360
AB40
102
}
102
{ACAD_REACTORS
330
AAC6
102
}
330
AAC6
100
AcDbVisualStyle
  2
Shades of Gray
 70
    23
 71
     2
 72
     2
 73
     3
 90
        0
 40
-0.6
 41
-30.0
 62
     5
 63
     7
 74
     2
 91
        2
 64
     7
 65
     7
 75
     1
175
     1
 42
40.0
 92
        8
 66
     7
 43
1.0
 76
     1
 77
     6
 78
     2
 67
     7
 79
     3
170
     0
171
     0
290
     0
174
     0
 93
        1
 44
0.0
173
     0
291
     0
 45
0.0
1001
ACAD
1000
AcDbSavedByObjectVersion
1070
     0
  0
VISUALSTYLE
  5
AAD8
102
{ACAD_XDICTIONARY
360
AB42
102
}
102
{ACAD_REACTORS
330
AAC6
102
}
330
AAC6
100
AcDbVisualStyle
  2
Sketchy
 70
    24
 71
     1
 72
     2
 73
     2
 90
        0
 40
-0.6
 41
-30.0
 62
     5
 63
     7
 74
     2
 91
        2
 64
     7
 65
     7
 75
     1
175
     1
 42
40.0
 92
       11
 66
     7
 43
1.0
 76
     1
 77
     6
 78
     2
 67
     7
 79
     6
170
     0
171
     0
290
     0
174
     0
 93
        1
 44
0.0
173
     0
291
     0
 45
0.0
1001
ACAD
1000
AcDbSavedByObjectVersion
1070
     0
  0
VISUALSTYLE
  5
AAD3
102
{ACAD_XDICTIONARY
360
AB38
102
}
102
{ACAD_REACTORS
330
AAC6
102
}
330
AAC6
100
AcDbVisualStyle
  2
Thicken
 70
    13
 71
     2
 72
     2
 73
     0
 90
        0
 40
-0.6
 41
-30.0
 62
     5
 63
     7
 74
     1
 91
        4
 64
     7
 65
   257
 75
     1
175
     1
 42
1.0
 92
       12
 66
     7
 43
1.0
 76
     1
 77
     6
 78
     2
 67
     7
 79
     5
170
     0
171
     0
290
     0
174
     0
 93
        1
 44
0.0
173
     0
291
     1
 45
0.0
1001
ACAD
1000
AcDbSavedByObjectVersion
1070
     0
  0
VISUALSTYLE
  5
AACD
102
{ACAD_XDICTIONARY
360
AB2C
102
}
102
{ACAD_REACTORS
330
AAC6
102
}
330
AAC6
100
AcDbVisualStyle
  2
Wireframe
 70
     5
 71
     0
 72
     2
 73
     0
 90
        0
 40
-0.6
 41
-30.0
 62
     5
 63
     7
 74
     1
 91
        4
 64
     7
 65
   257
 75
     1
175
     1
 42
1.0
 92
        0
 66
   257
 43
1.0
 76
     1
 77
     6
 78
     2
 67
     7
 79
     3
170
     0
171
     0
290
     0
174
     0
 93
        1
 44
0.0
173
     0
291
     0
 45
0.0
1001
ACAD
1000
AcDbSavedByObjectVersion
1070
     0
  0
VISUALSTYLE
  5
AAD9
102
{ACAD_XDICTIONARY
360
AB44
102
}
102
{ACAD_REACTORS
330
AAC6
102
}
330
AAC6
100
AcDbVisualStyle
  2
X-Ray
 70
    25
 71
     2
 72
     2
 73
     1
 90
        1
 40
0.5
 41
-30.0
 62
     5
 63
     7
 74
     1
 91
        0
 64
     7
 65
   257
 75
     1
175
     1
 42
1.0
 92
        8
 66
     7
 43
1.0
 76
     1
 77
     6
 78
     2
 67
     7
 79
     3
170
     0
171
     0
290
     0
174
     0
 93
       13
 44
0.0
173
     0
291
     0
 45
0.0
1001
ACAD
1000
AcDbSavedByObjectVersion
1070
     0
  0
DICTIONARYVAR
  5
AB13
102
{ACAD_REACTORS
330
AB0E
102
}
330
AB0E
100
DictionaryVariables
280
     0
  1
1:1
  0
DICTIONARYVAR
  5
AB10
102
{ACAD_REACTORS
330
AB0E
102
}
330
AB0E
100
DictionaryVariables
280
     0
  1
STANDARD
  0
DICTIONARYVAR
  5
AB0F
102
{ACAD_REACTORS
330
AB0E
102
}
330
AB0E
100
DictionaryVariables
280
     0
  1
STANDARD
  0
DICTIONARYVAR
  5
AB11
102
{ACAD_REACTORS
330
AB0E
102
}
330
AB0E
100
DictionaryVariables
280
     0
  1
Imperial24
  0
DICTIONARYVAR
  5
AB12
102
{ACAD_REACTORS
330
AB0E
102
}
330
AB0E
100
DictionaryVariables
280
     0
  1
Imperial24
  0
DICTIONARYVAR
  5
AB16
102
{ACAD_REACTORS
330
AB0E
102
}
330
AB0E
100
DictionaryVariables
280
     0
  1
1
  0
DICTIONARYVAR
  5
AB15
102
{ACAD_REACTORS
330
AB0E
102
}
330
AB0E
100
DictionaryVariables
280
     0
  1
0
  0
DICTIONARYVAR
  5
AB14
102
{ACAD_REACTORS
330
AB0E
102
}
330
AB0E
100
DictionaryVariables
280
     0
  1
127
  0
DICTIONARYVAR
  5
AB17
102
{ACAD_REACTORS
330
AB0E
102
}
330
AB0E
100
DictionaryVariables
280
     0
  1
2
  0
DICTIONARY
  5
AB54
330
AAF9
100
AcDbDictionary
280
     1
281
     1
  3
ACAD_XREC_ROUNDTRIP
360
AB55
  0
DICTIONARY
  5
AB56
330
AAFA
100
AcDbDictionary
280
     1
281
     1
  3
ACAD_XREC_ROUNDTRIP
360
AB57
  0
DICTIONARY
  5
AB58
330
AAFB
100
AcDbDictionary
280
     1
281
     1
  3
ACAD_XREC_ROUNDTRIP
360
AB59
  0
DICTIONARY
  5
AAB7
330
AAB6
100
AcDbDictionary
280
     1
281
     1
  3
ACAD_XREC_ROUNDTRIP
360
AB1E
  3
BUMPTILE
360
AAB9
  3
DIFFUSETILE
360
AAB8
  3
OPACITYTILE
360
AABC
  3
REFLECTIONTILE
360
AABB
  3
REFRACTIONTILE
360
AABD
  3
SPECULARTILE
360
AABA
  0
DICTIONARY
  5
AAAF
330
AAAE
100
AcDbDictionary
280
     1
281
     1
  3
ACAD_XREC_ROUNDTRIP
360
AB1D
  3
BUMPTILE
360
AAB1
  3
DIFFUSETILE
360
AAB0
  3
OPACITYTILE
360
AAB4
  3
REFLECTIONTILE
360
AAB3
  3
REFRACTIONTILE
360
AAB5
  3
SPECULARTILE
360
AAB2
  0
DICTIONARY
  5
AABF
330
AABE
100
AcDbDictionary
280
     1
281
     1
  3
ACAD_XREC_ROUNDTRIP
360
AB1F
  3
BUMPTILE
360
AAC1
  3
DIFFUSETILE
360
AAC0
  3
OPACITYTILE
360
AAC4
  3
REFLECTIONTILE
360
AAC3
  3
REFRACTIONTILE
360
AAC5
  3
SPECULARTILE
360
AAC2
  0
DICTIONARY
  5
AB52
330
AAF7
100
AcDbDictionary
280
     1
281
     1
  3
ACAD_XREC_ROUNDTRIP
360
AB53
  0
DICTIONARY
  5
AB19
330
AAE1
100
AcDbDictionary
280
     1
281
     1
  3
ACAD_ROUNDTRIP_2008_TABLESTYLE_CELLSTYLEMAP
360
AB1A
  3
ACAD_XREC_ROUNDTRIP
360
AB50
  0
DICTIONARY
  5
AB2A
330
AACC
100
AcDbDictionary
280
     1
281
     1
  3
ACAD_XREC_ROUNDTRIP
360
AB2B
  0
DICTIONARY
  5
AB28
330
AACB
100
AcDbDictionary
280
     1
281
     1
  3
ACAD_XREC_ROUNDTRIP
360
AB29
  0
DICTIONARY
  5
AB36
330
AAD2
100
AcDbDictionary
280
     1
281
     1
  3
ACAD_XREC_ROUNDTRIP
360
AB37
  0
DICTIONARY
  5
AB3E
330
AAD6
100
AcDbDictionary
280
     1
281
     1
  3
ACAD_XREC_ROUNDTRIP
360
AB3F
  0
DICTIONARY
  5
AB30
330
AACF
100
AcDbDictionary
280
     1
281
     1
  3
ACAD_XREC_ROUNDTRIP
360
AB31
  0
DICTIONARY
  5
AB34
330
AAD1
100
AcDbDictionary
280
     1
281
     1
  3
ACAD_XREC_ROUNDTRIP
360
AB35
  0
DICTIONARY
  5
AB4E
330
AADE
100
AcDbDictionary
280
     1
281
     1
  3
ACAD_XREC_ROUNDTRIP
360
AB4F
  0
DICTIONARY
  5
AB3C
330
AAD5
100
AcDbDictionary
280
     1
281
     1
  3
ACAD_XREC_ROUNDTRIP
360
AB3D
  0
DICTIONARY
  5
AB20
330
AAC7
100
AcDbDictionary
280
     1
281
     1
  3
ACAD_XREC_ROUNDTRIP
360
AB21
  0
DICTIONARY
  5
AB22
330
AAC8
100
AcDbDictionary
280
     1
281
     1
  3
ACAD_XREC_ROUNDTRIP
360
AB23
  0
DICTIONARY
  5
AB24
330
AAC9
100
AcDbDictionary
280
     1
281
     1
  3
ACAD_XREC_ROUNDTRIP
360
AB25
  0
DICTIONARY
  5
AB26
330
AACA
100
AcDbDictionary
280
     1
281
     1
  3
ACAD_XREC_ROUNDTRIP
360
AB27
  0
DICTIONARY
  5
AB2E
330
AACE
100
AcDbDictionary
280
     1
281
     1
  3
ACAD_XREC_ROUNDTRIP
360
AB2F
  0
DICTIONARY
  5
AB4A
330
AADC
100
AcDbDictionary
280
     1
281
     1
  3
ACAD_XREC_ROUNDTRIP
360
AB4B
  0
DICTIONARY
  5
AB3A
330
AAD4
100
AcDbDictionary
280
     1
281
     1
  3
ACAD_XREC_ROUNDTRIP
360
AB3B
  0
DICTIONARY
  5
AB4C
330
AADD
100
AcDbDictionary
280
     1
281
     1
  3
ACAD_XREC_ROUNDTRIP
360
AB4D
  0
DICTIONARY
  5
AB32
330
AAD0
100
AcDbDictionary
280
     1
281
     1
  3
ACAD_XREC_ROUNDTRIP
360
AB33
  0
DICTIONARY
  5
AB48
330
AADB
100
AcDbDictionary
280
     1
281
     1
  3
ACAD_XREC_ROUNDTRIP
360
AB49
  0
DICTIONARY
  5
AB46
330
AADA
100
AcDbDictionary
280
     1
281
     1
  3
ACAD_XREC_ROUNDTRIP
360
AB47
  0
DICTIONARY
  5
AB40
330
AAD7
100
AcDbDictionary
280
     1
281
     1
  3
ACAD_XREC_ROUNDTRIP
360
AB41
  0
DICTIONARY
  5
AB42
330
AAD8
100
AcDbDictionary
280
     1
281
     1
  3
ACAD_XREC_ROUNDTRIP
360
AB43
  0
DICTIONARY
  5
AB38
330
AAD3
100
AcDbDictionary
280
     1
281
     1
  3
ACAD_XREC_ROUNDTRIP
360
AB39
  0
DICTIONARY
  5
AB2C
330
AACD
100
AcDbDictionary
280
     1
281
     1
  3
ACAD_XREC_ROUNDTRIP
360
AB2D
  0
DICTIONARY
  5
AB44
330
AAD9
100
AcDbDictionary
280
     1
281
     1
  3
ACAD_XREC_ROUNDTRIP
360
AB45
  0
XRECORD
  5
AB55
102
{ACAD_REACTORS
330
AB54
102
}
330
AB54
100
AcDbXrecord
280
     1
102
DISPLAYNAME
  1
Imperial24
102
FLAGS
 90
        0
  0
XRECORD
  5
AB57
102
{ACAD_REACTORS
330
AB56
102
}
330
AB56
100
AcDbXrecord
280
     1
102
SHADEPLOT
 70
     0
102
SHADEPLOTRESLEVEL
 70
     2
102
SHADEPLOTCUSTOMDPI
 70
   300
  0
XRECORD
  5
AB59
102
{ACAD_REACTORS
330
AB58
102
}
330
AB58
100
AcDbXrecord
280
     1
102
SHADEPLOT
 70
     0
102
SHADEPLOTRESLEVEL
 70
     2
102
SHADEPLOTCUSTOMDPI
 70
   300
  0
XRECORD
  5
AB1E
102
{ACAD_REACTORS
330
AAB7
102
}
330
AAB7
100
AcDbXrecord
280
     1
102
MATERIAL
148
0.0
149
0.0
149
0.0
 93
        0
 94
      127
282
     0
 72
     0
 77
     0
171
     0
175
     0
179
     0
273
     0
  0
XRECORD
  5
AAB9
102
{ACAD_REACTORS
330
AAB7
102
}
330
AAB7
100
AcDbXrecord
280
     1
270
     1
271
     1
  0
XRECORD
  5
AAB8
102
{ACAD_REACTORS
330
AAB7
102
}
330
AAB7
100
AcDbXrecord
280
     1
270
     1
271
     1
  0
XRECORD
  5
AABC
102
{ACAD_REACTORS
330
AAB7
102
}
330
AAB7
100
AcDbXrecord
280
     1
270
     1
271
     1
  0
XRECORD
  5
AABB
102
{ACAD_REACTORS
330
AAB7
102
}
330
AAB7
100
AcDbXrecord
280
     1
270
     1
271
     1
  0
XRECORD
  5
AABD
102
{ACAD_REACTORS
330
AAB7
102
}
330
AAB7
100
AcDbXrecord
280
     1
270
     1
271
     1
  0
XRECORD
  5
AABA
102
{ACAD_REACTORS
330
AAB7
102
}
330
AAB7
100
AcDbXrecord
280
     1
270
     1
271
     1
  0
XRECORD
  5
AB1D
102
{ACAD_REACTORS
330
AAAF
102
}
330
AAAF
100
AcDbXrecord
280
     1
102
MATERIAL
148
0.0
149
0.0
149
0.0
 93
        0
 94
      127
282
     0
 72
     0
 77
     0
171
     0
175
     0
179
     0
273
     0
  0
XRECORD
  5
AAB1
102
{ACAD_REACTORS
330
AAAF
102
}
330
AAAF
100
AcDbXrecord
280
     1
270
     1
271
     1
  0
XRECORD
  5
AAB0
102
{ACAD_REACTORS
330
AAAF
102
}
330
AAAF
100
AcDbXrecord
280
     1
270
     1
271
     1
  0
XRECORD
  5
AAB4
102
{ACAD_REACTORS
330
AAAF
102
}
330
AAAF
100
AcDbXrecord
280
     1
270
     1
271
     1
  0
XRECORD
  5
AAB3
102
{ACAD_REACTORS
330
AAAF
102
}
330
AAAF
100
AcDbXrecord
280
     1
270
     1
271
     1
  0
XRECORD
  5
AAB5
102
{ACAD_REACTORS
330
AAAF
102
}
330
AAAF
100
AcDbXrecord
280
     1
270
     1
271
     1
  0
XRECORD
  5
AAB2
102
{ACAD_REACTORS
330
AAAF
102
}
330
AAAF
100
AcDbXrecord
280
     1
270
     1
271
     1
  0
XRECORD
  5
AB1F
102
{ACAD_REACTORS
330
AABF
102
}
330
AABF
100
AcDbXrecord
280
     1
102
MATERIAL
148
0.0
149
0.0
149
0.0
 93
        0
 94
      127
282
     0
 72
     0
 77
     0
171
     0
175
     0
179
     0
273
     0
  0
XRECORD
  5
AAC1
102
{ACAD_REACTORS
330
AABF
102
}
330
AABF
100
AcDbXrecord
280
     1
270
     1
271
     1
  0
XRECORD
  5
AAC0
102
{ACAD_REACTORS
330
AABF
102
}
330
AABF
100
AcDbXrecord
280
     1
270
     1
271
     1
  0
XRECORD
  5
AAC4
102
{ACAD_REACTORS
330
AABF
102
}
330
AABF
100
AcDbXrecord
280
     1
270
     1
271
     1
  0
XRECORD
  5
AAC3
102
{ACAD_REACTORS
330
AABF
102
}
330
AABF
100
AcDbXrecord
280
     1
270
     1
271
     1
  0
XRECORD
  5
AAC5
102
{ACAD_REACTORS
330
AABF
102
}
330
AABF
100
AcDbXrecord
280
     1
270
     1
271
     1
  0
XRECORD
  5
AAC2
102
{ACAD_REACTORS
330
AABF
102
}
330
AABF
100
AcDbXrecord
280
     1
270
     1
271
     1
  0
XRECORD
  5
AB53
102
{ACAD_REACTORS
330
AB52
102
}
330
AB52
100
AcDbXrecord
280
     1
102
DISPLAYNAME
  1
Imperial24
102
FLAGS
 90
        0
  0
CELLSTYLEMAP
  5
AB1A
102
{ACAD_REACTORS
330
AB19
102
}
330
AB19
100
AcDbCellStyleMap
 90
        3
300
CELLSTYLE
  1
TABLEFORMAT_BEGIN
 90
        5
170
     1
 91
        0
 92
    32768
 62
   257
 93
        1
300
CONTENTFORMAT
  1
CONTENTFORMAT_BEGIN
 90
        0
 91
        0
 92
      512
 93
        0
300

 40
0.0
140
1.0
 94
        5
 62
     0
340
A7B6
144
0.25
309
CONTENTFORMAT_END
171
     0
 94
        0
309
TABLEFORMAT_END
  1
CELLSTYLE_BEGIN
 90
        1
 91
        1
300
_TITLE
309
CELLSTYLE_END
300
CELLSTYLE
  1
TABLEFORMAT_BEGIN
 90
        5
170
     1
 91
        0
 92
        0
 62
   257
 93
        1
300
CONTENTFORMAT
  1
CONTENTFORMAT_BEGIN
 90
        0
 91
        0
 92
      512
 93
        0
300

 40
0.0
140
1.0
 94
        5
 62
     0
340
A7B6
144
0.18
309
CONTENTFORMAT_END
171
     0
 94
        0
309
TABLEFORMAT_END
  1
CELLSTYLE_BEGIN
 90
        2
 91
        1
300
_HEADER
309
CELLSTYLE_END
300
CELLSTYLE
  1
TABLEFORMAT_BEGIN
 90
        5
170
     1
 91
        0
 92
        0
 62
   257
 93
        1
300
CONTENTFORMAT
  1
CONTENTFORMAT_BEGIN
 90
        0
 91
        0
 92
      512
 93
        0
300

 40
0.0
140
1.0
 94
        2
 62
     0
340
A7B6
144
0.18
309
CONTENTFORMAT_END
171
     0
 94
        0
309
TABLEFORMAT_END
  1
CELLSTYLE_BEGIN
 90
        3
 91
        2
300
_DATA
309
CELLSTYLE_END
  0
XRECORD
  5
AB50
102
{ACAD_REACTORS
330
AB19
102
}
330
AB19
100
AcDbXrecord
280
     1
102
ACAD_ROUNDTRIP_PRE2007_TABLESTYLE
 90
      512
 91
        0
  1

 92
      512
 93
        0
  2

 94
      512
 95
        0
  3

  0
XRECORD
  5
AB2B
102
{ACAD_REACTORS
330
AB2A
102
}
330
AB2A
100
AcDbXrecord
280
     1
102
RTVSPost2010Prop28
280
     1
102
RTVSPost2010PropOp28
 70
     1
102
RTVSPost2010Prop29
280
     1
102
RTVSPost2010PropOp29
 70
     1
102
RTVSPost2010Prop30
280
     0
102
RTVSPost2010PropOp30
 70
     1
102
RTVSPost2010Prop31
280
     0
102
RTVSPost2010PropOp31
 70
     1
102
RTVSPost2010Prop32
280
     0
102
RTVSPost2010PropOp32
 70
     1
102
RTVSPost2010Prop33
280
     0
102
RTVSPost2010PropOp33
 70
     1
102
RTVSPost2010Prop34
280
     0
102
RTVSPost2010PropOp34
 70
     1
102
RTVSPost2010Prop35
280
     0
102
RTVSPost2010PropOp35
 70
     1
102
RTVSPost2010Prop36
280
     0
102
RTVSPost2010PropOp36
 70
     1
102
RTVSPost2010Prop37
 90
       50
102
RTVSPost2010PropOp37
 70
     1
102
RTVSPost2010Prop38
140
0.0
102
RTVSPost2010PropOp38
 70
     1
102
RTVSPost2010Prop39
140
1.0
102
RTVSPost2010PropOp39
 70
     1
102
RTVSPost2010Prop40
 90
        0
102
RTVSPost2010PropOp40
 70
     1
102
RTVSPost2010Prop41ColorIndex
 90
       18
102
RTVSPost2010Prop41ColorRGB
 90
        0
102
RTVSPost2010PropOp41
 70
     1
102
RTVSPost2010Prop42
 90
       50
102
RTVSPost2010PropOp42
 70
     1
102
RTVSPost2010Prop43
 90
        3
102
RTVSPost2010PropOp43
 70
     1
102
RTVSPost2010Prop44ColorIndex
 90
        5
102
RTVSPost2010Prop44ColorRGB
 90
      255
102
RTVSPost2010PropOp44
 70
     1
102
RTVSPost2010Prop45
280
     0
102
RTVSPost2010PropOp45
 70
     1
102
RTVSPost2010Prop46
 90
       50
102
RTVSPost2010PropOp46
 70
     1
102
RTVSPost2010Prop47
 90
       50
102
RTVSPost2010PropOp47
 70
     1
102
RTVSPost2010Prop48
 90
       50
102
RTVSPost2010PropOp48
 70
     1
102
RTVSPost2010Prop49
280
     0
102
RTVSPost2010PropOp49
 70
     1
102
RTVSPost2010Prop50
 90
       50
102
RTVSPost2010PropOp50
 70
     1
102
RTVSPost2010Prop51ColorIndex
 90
      256
102
RTVSPost2010Prop51ColorRGB
 90
-16777216
102
RTVSPost2010PropOp51
 70
     0
102
RTVSPost2010Prop52
140
1.0
102
RTVSPost2010PropOp52
 70
     0
102
RTVSPost2010Prop53
 90
        2
102
RTVSPost2010PropOp53
 70
     1
102
RTVSPost2010Prop54
  1
strokes_ogs.tif
102
RTVSPost2010PropOp54
 70
     1
102
RTVSPost2010Prop55
280
     0
102
RTVSPost2010PropOp55
 70
     1
102
RTVSPost2010Prop56
140
1.0
102
RTVSPost2010PropOp56
 70
     1
102
RTVSPost2010Prop57
140
1.0
102
RTVSPost2010PropOp57
 70
     1
102
RTVSPropertyOp0
 70
     1
102
RTVSPropertyOp1
 70
     1
102
RTVSPropertyOp2
 70
     1
102
RTVSPropertyOp3
 70
     1
102
RTVSPropertyOp4
 70
     1
102
RTVSPropertyOp5
 70
     1
102
RTVSPropertyOp6
 70
     1
102
RTVSPropertyOp7
 70
     1
102
RTVSPropertyOp8
 70
     1
102
RTVSPropertyOp9
 70
     1
102
RTVSPropertyOp10
 70
     1
102
RTVSPropertyOp11
 70
     1
102
RTVSPropertyOp12
 70
     1
102
RTVSPropertyOp13
 70
     1
102
RTVSPropertyOp14
 70
     1
102
RTVSPropertyOp15
 70
     1
102
RTVSPropertyOp16
 70
     1
102
RTVSPropertyOp17
 70
     1
102
RTVSPropertyOp18
 70
     1
102
RTVSPropertyOp19
 70
     1
102
RTVSPropertyOp20
 70
     1
102
RTVSPropertyOp21
 70
     1
102
RTVSPropertyOp22
 70
     1
102
RTVSPropertyOp23
 70
     1
102
RTVSPropertyOp24
 70
     1
102
RTVSPropertyOp25
 70
     1
102
RTVSPropertyOp26
 70
     1
102
RTVSPropertyOp27
 70
     1
102
RTVSPropertyOp28
 70
     1
102
RTVSPropertyOp29
 70
     1
102
RTVSPropertyOp30
 70
     1
102
RTVSPropertyOp31
 70
     1
102
RTVSPropertyOp32
 70
     1
102
RTVSPropertyOp33
 70
     1
102
RTVSPropertyOp34
 70
     1
102
RTVSPropertyOp35
 70
     1
102
RTVSPropertyOp36
 70
     1
102
RTVSPropertyOp37
 70
     1
102
RTVSPropertyOp38
 70
     1
102
RTVSPropertyOp39
 70
     1
102
RTVSPropertyOp40
 70
     1
102
RTVSPropertyOp41
 70
     1
102
RTVSPropertyOp42
 70
     1
102
RTVSPropertyOp43
 70
     1
102
RTVSPropertyOp44
 70
     1
102
RTVSPropertyOp45
 70
     1
102
RTVSPropertyOp46
 70
     1
102
RTVSPropertyOp47
 70
     1
102
RTVSPropertyOp48
 70
     1
102
RTVSPropertyOp49
 70
     1
102
RTVSPropertyOp50
 70
     1
102
RTVSPropertyOp51
 70
     0
102
RTVSPropertyOp52
 70
     0
102
RTVSPropertyOp53
 70
     1
102
RTVSPropertyOp54
 70
     1
102
RTVSPropertyOp55
 70
     1
102
RTVSPropertyOp56
 70
     1
102
RTVSPropertyOp57
 70
     1
102
RTVSPropertyOp58
 70
     1
102
RTVSPropertyOp59
 70
     1
102
RTVSPropertyOp60
 70
     1
102
RTVSPropertyOp61
 70
     1
102
RTVSPropertyOp62
 70
     1
  0
XRECORD
  5
AB29
102
{ACAD_REACTORS
330
AB28
102
}
330
AB28
100
AcDbXrecord
280
     1
102
RTVSPost2010Prop28
280
     0
102
RTVSPost2010PropOp28
 70
     1
102
RTVSPost2010Prop29
280
     1
102
RTVSPost2010PropOp29
 70
     1
102
RTVSPost2010Prop30
280
     1
102
RTVSPost2010PropOp30
 70
     1
102
RTVSPost2010Prop31
280
     0
102
RTVSPost2010PropOp31
 70
     1
102
RTVSPost2010Prop32
280
     0
102
RTVSPost2010PropOp32
 70
     1
102
RTVSPost2010Prop33
280
     0
102
RTVSPost2010PropOp33
 70
     1
102
RTVSPost2010Prop34
280
     0
102
RTVSPost2010PropOp34
 70
     1
102
RTVSPost2010Prop35
280
     0
102
RTVSPost2010PropOp35
 70
     1
102
RTVSPost2010Prop36
280
     0
102
RTVSPost2010PropOp36
 70
     1
102
RTVSPost2010Prop37
 90
       50
102
RTVSPost2010PropOp37
 70
     1
102
RTVSPost2010Prop38
140
0.0
102
RTVSPost2010PropOp38
 70
     1
102
RTVSPost2010Prop39
140
1.0
102
RTVSPost2010PropOp39
 70
     1
102
RTVSPost2010Prop40
 90
        0
102
RTVSPost2010PropOp40
 70
     1
102
RTVSPost2010Prop41ColorIndex
 90
       18
102
RTVSPost2010Prop41ColorRGB
 90
        0
102
RTVSPost2010PropOp41
 70
     1
102
RTVSPost2010Prop42
 90
       50
102
RTVSPost2010PropOp42
 70
     1
102
RTVSPost2010Prop43
 90
        3
102
RTVSPost2010PropOp43
 70
     1
102
RTVSPost2010Prop44ColorIndex
 90
        5
102
RTVSPost2010Prop44ColorRGB
 90
      255
102
RTVSPost2010PropOp44
 70
     1
102
RTVSPost2010Prop45
280
     0
102
RTVSPost2010PropOp45
 70
     1
102
RTVSPost2010Prop46
 90
       50
102
RTVSPost2010PropOp46
 70
     1
102
RTVSPost2010Prop47
 90
       50
102
RTVSPost2010PropOp47
 70
     1
102
RTVSPost2010Prop48
 90
       50
102
RTVSPost2010PropOp48
 70
     1
102
RTVSPost2010Prop49
280
     0
102
RTVSPost2010PropOp49
 70
     1
102
RTVSPost2010Prop50
 90
       50
102
RTVSPost2010PropOp50
 70
     1
102
RTVSPost2010Prop51ColorIndex
 90
      256
102
RTVSPost2010Prop51ColorRGB
 90
-16777216
102
RTVSPost2010PropOp51
 70
     0
102
RTVSPost2010Prop52
140
1.0
102
RTVSPost2010PropOp52
 70
     0
102
RTVSPost2010Prop53
 90
        2
102
RTVSPost2010PropOp53
 70
     1
102
RTVSPost2010Prop54
  1
strokes_ogs.tif
102
RTVSPost2010PropOp54
 70
     1
102
RTVSPost2010Prop55
280
     0
102
RTVSPost2010PropOp55
 70
     1
102
RTVSPost2010Prop56
140
1.0
102
RTVSPost2010PropOp56
 70
     1
102
RTVSPost2010Prop57
140
1.0
102
RTVSPost2010PropOp57
 70
     1
102
RTVSPropertyOp0
 70
     1
102
RTVSPropertyOp1
 70
     1
102
RTVSPropertyOp2
 70
     1
102
RTVSPropertyOp3
 70
     1
102
RTVSPropertyOp4
 70
     1
102
RTVSPropertyOp5
 70
     1
102
RTVSPropertyOp6
 70
     1
102
RTVSPropertyOp7
 70
     1
102
RTVSPropertyOp8
 70
     1
102
RTVSPropertyOp9
 70
     1
102
RTVSPropertyOp10
 70
     1
102
RTVSPropertyOp11
 70
     1
102
RTVSPropertyOp12
 70
     1
102
RTVSPropertyOp13
 70
     1
102
RTVSPropertyOp14
 70
     1
102
RTVSPropertyOp15
 70
     1
102
RTVSPropertyOp16
 70
     1
102
RTVSPropertyOp17
 70
     1
102
RTVSPropertyOp18
 70
     1
102
RTVSPropertyOp19
 70
     1
102
RTVSPropertyOp20
 70
     1
102
RTVSPropertyOp21
 70
     1
102
RTVSPropertyOp22
 70
     1
102
RTVSPropertyOp23
 70
     1
102
RTVSPropertyOp24
 70
     1
102
RTVSPropertyOp25
 70
     1
102
RTVSPropertyOp26
 70
     1
102
RTVSPropertyOp27
 70
     1
102
RTVSPropertyOp28
 70
     1
102
RTVSPropertyOp29
 70
     1
102
RTVSPropertyOp30
 70
     1
102
RTVSPropertyOp31
 70
     1
102
RTVSPropertyOp32
 70
     1
102
RTVSPropertyOp33
 70
     1
102
RTVSPropertyOp34
 70
     1
102
RTVSPropertyOp35
 70
     1
102
RTVSPropertyOp36
 70
     1
102
RTVSPropertyOp37
 70
     1
102
RTVSPropertyOp38
 70
     1
102
RTVSPropertyOp39
 70
     1
102
RTVSPropertyOp40
 70
     1
102
RTVSPropertyOp41
 70
     1
102
RTVSPropertyOp42
 70
     1
102
RTVSPropertyOp43
 70
     1
102
RTVSPropertyOp44
 70
     1
102
RTVSPropertyOp45
 70
     1
102
RTVSPropertyOp46
 70
     1
102
RTVSPropertyOp47
 70
     1
102
RTVSPropertyOp48
 70
     1
102
RTVSPropertyOp49
 70
     1
102
RTVSPropertyOp50
 70
     1
102
RTVSPropertyOp51
 70
     0
102
RTVSPropertyOp52
 70
     0
102
RTVSPropertyOp53
 70
     1
102
RTVSPropertyOp54
 70
     1
102
RTVSPropertyOp55
 70
     1
102
RTVSPropertyOp56
 70
     1
102
RTVSPropertyOp57
 70
     1
102
RTVSPropertyOp58
 70
     1
102
RTVSPropertyOp59
 70
     1
102
RTVSPropertyOp60
 70
     1
102
RTVSPropertyOp61
 70
     1
102
RTVSPropertyOp62
 70
     1
  0
XRECORD
  5
AB37
102
{ACAD_REACTORS
330
AB36
102
}
330
AB36
100
AcDbXrecord
280
     1
102
RTVSPost2010Prop28
280
     0
102
RTVSPost2010PropOp28
 70
     1
102
RTVSPost2010Prop29
280
     1
102
RTVSPost2010PropOp29
 70
     1
102
RTVSPost2010Prop30
280
     1
102
RTVSPost2010PropOp30
 70
     1
102
RTVSPost2010Prop31
280
     0
102
RTVSPost2010PropOp31
 70
     1
102
RTVSPost2010Prop32
280
     0
102
RTVSPost2010PropOp32
 70
     1
102
RTVSPost2010Prop33
280
     0
102
RTVSPost2010PropOp33
 70
     1
102
RTVSPost2010Prop34
280
     0
102
RTVSPost2010PropOp34
 70
     1
102
RTVSPost2010Prop35
280
     0
102
RTVSPost2010PropOp35
 70
     1
102
RTVSPost2010Prop36
280
     0
102
RTVSPost2010PropOp36
 70
     1
102
RTVSPost2010Prop37
 90
       50
102
RTVSPost2010PropOp37
 70
     1
102
RTVSPost2010Prop38
140
0.0
102
RTVSPost2010PropOp38
 70
     1
102
RTVSPost2010Prop39
140
1.0
102
RTVSPost2010PropOp39
 70
     1
102
RTVSPost2010Prop40
 90
        0
102
RTVSPost2010PropOp40
 70
     1
102
RTVSPost2010Prop41ColorIndex
 90
       18
102
RTVSPost2010Prop41ColorRGB
 90
        0
102
RTVSPost2010PropOp41
 70
     1
102
RTVSPost2010Prop42
 90
       50
102
RTVSPost2010PropOp42
 70
     1
102
RTVSPost2010Prop43
 90
        3
102
RTVSPost2010PropOp43
 70
     1
102
RTVSPost2010Prop44ColorIndex
 90
        5
102
RTVSPost2010Prop44ColorRGB
 90
      255
102
RTVSPost2010PropOp44
 70
     1
102
RTVSPost2010Prop45
280
     0
102
RTVSPost2010PropOp45
 70
     1
102
RTVSPost2010Prop46
 90
       50
102
RTVSPost2010PropOp46
 70
     1
102
RTVSPost2010Prop47
 90
       50
102
RTVSPost2010PropOp47
 70
     1
102
RTVSPost2010Prop48
 90
       50
102
RTVSPost2010PropOp48
 70
     1
102
RTVSPost2010Prop49
280
     0
102
RTVSPost2010PropOp49
 70
     1
102
RTVSPost2010Prop50
 90
       50
102
RTVSPost2010PropOp50
 70
     1
102
RTVSPost2010Prop51ColorIndex
 90
      256
102
RTVSPost2010Prop51ColorRGB
 90
-16777216
102
RTVSPost2010PropOp51
 70
     0
102
RTVSPost2010Prop52
140
1.0
102
RTVSPost2010PropOp52
 70
     0
102
RTVSPost2010Prop53
 90
        2
102
RTVSPost2010PropOp53
 70
     1
102
RTVSPost2010Prop54
  1
strokes_ogs.tif
102
RTVSPost2010PropOp54
 70
     1
102
RTVSPost2010Prop55
280
     0
102
RTVSPost2010PropOp55
 70
     1
102
RTVSPost2010Prop56
140
1.0
102
RTVSPost2010PropOp56
 70
     1
102
RTVSPost2010Prop57
140
1.0
102
RTVSPost2010PropOp57
 70
     1
102
RTVSPropertyOp0
 70
     1
102
RTVSPropertyOp1
 70
     1
102
RTVSPropertyOp2
 70
     1
102
RTVSPropertyOp3
 70
     1
102
RTVSPropertyOp4
 70
     1
102
RTVSPropertyOp5
 70
     1
102
RTVSPropertyOp6
 70
     1
102
RTVSPropertyOp7
 70
     1
102
RTVSPropertyOp8
 70
     1
102
RTVSPropertyOp9
 70
     1
102
RTVSPropertyOp10
 70
     1
102
RTVSPropertyOp11
 70
     1
102
RTVSPropertyOp12
 70
     1
102
RTVSPropertyOp13
 70
     1
102
RTVSPropertyOp14
 70
     1
102
RTVSPropertyOp15
 70
     1
102
RTVSPropertyOp16
 70
     1
102
RTVSPropertyOp17
 70
     1
102
RTVSPropertyOp18
 70
     1
102
RTVSPropertyOp19
 70
     1
102
RTVSPropertyOp20
 70
     1
102
RTVSPropertyOp21
 70
     1
102
RTVSPropertyOp22
 70
     1
102
RTVSPropertyOp23
 70
     1
102
RTVSPropertyOp24
 70
     1
102
RTVSPropertyOp25
 70
     1
102
RTVSPropertyOp26
 70
     1
102
RTVSPropertyOp27
 70
     1
102
RTVSPropertyOp28
 70
     1
102
RTVSPropertyOp29
 70
     1
102
RTVSPropertyOp30
 70
     1
102
RTVSPropertyOp31
 70
     1
102
RTVSPropertyOp32
 70
     1
102
RTVSPropertyOp33
 70
     1
102
RTVSPropertyOp34
 70
     1
102
RTVSPropertyOp35
 70
     1
102
RTVSPropertyOp36
 70
     1
102
RTVSPropertyOp37
 70
     1
102
RTVSPropertyOp38
 70
     1
102
RTVSPropertyOp39
 70
     1
102
RTVSPropertyOp40
 70
     1
102
RTVSPropertyOp41
 70
     1
102
RTVSPropertyOp42
 70
     1
102
RTVSPropertyOp43
 70
     1
102
RTVSPropertyOp44
 70
     1
102
RTVSPropertyOp45
 70
     1
102
RTVSPropertyOp46
 70
     1
102
RTVSPropertyOp47
 70
     1
102
RTVSPropertyOp48
 70
     1
102
RTVSPropertyOp49
 70
     1
102
RTVSPropertyOp50
 70
     1
102
RTVSPropertyOp51
 70
     0
102
RTVSPropertyOp52
 70
     0
102
RTVSPropertyOp53
 70
     1
102
RTVSPropertyOp54
 70
     1
102
RTVSPropertyOp55
 70
     1
102
RTVSPropertyOp56
 70
     1
102
RTVSPropertyOp57
 70
     1
102
RTVSPropertyOp58
 70
     1
102
RTVSPropertyOp59
 70
     1
102
RTVSPropertyOp60
 70
     1
102
RTVSPropertyOp61
 70
     1
102
RTVSPropertyOp62
 70
     1
  0
XRECORD
  5
AB3F
102
{ACAD_REACTORS
330
AB3E
102
}
330
AB3E
100
AcDbXrecord
280
     1
102
RTVSPost2010Prop28
280
     0
102
RTVSPost2010PropOp28
 70
     1
102
RTVSPost2010Prop29
280
     1
102
RTVSPost2010PropOp29
 70
     1
102
RTVSPost2010Prop30
280
     1
102
RTVSPost2010PropOp30
 70
     1
102
RTVSPost2010Prop31
280
     0
102
RTVSPost2010PropOp31
 70
     1
102
RTVSPost2010Prop32
280
     0
102
RTVSPost2010PropOp32
 70
     1
102
RTVSPost2010Prop33
280
     0
102
RTVSPost2010PropOp33
 70
     1
102
RTVSPost2010Prop34
280
     0
102
RTVSPost2010PropOp34
 70
     1
102
RTVSPost2010Prop35
280
     0
102
RTVSPost2010PropOp35
 70
     1
102
RTVSPost2010Prop36
280
     0
102
RTVSPost2010PropOp36
 70
     1
102
RTVSPost2010Prop37
 90
       50
102
RTVSPost2010PropOp37
 70
     1
102
RTVSPost2010Prop38
140
0.0
102
RTVSPost2010PropOp38
 70
     1
102
RTVSPost2010Prop39
140
1.0
102
RTVSPost2010PropOp39
 70
     1
102
RTVSPost2010Prop40
 90
        0
102
RTVSPost2010PropOp40
 70
     1
102
RTVSPost2010Prop41ColorIndex
 90
       18
102
RTVSPost2010Prop41ColorRGB
 90
        0
102
RTVSPost2010PropOp41
 70
     1
102
RTVSPost2010Prop42
 90
       50
102
RTVSPost2010PropOp42
 70
     1
102
RTVSPost2010Prop43
 90
        3
102
RTVSPost2010PropOp43
 70
     1
102
RTVSPost2010Prop44ColorIndex
 90
        5
102
RTVSPost2010Prop44ColorRGB
 90
      255
102
RTVSPost2010PropOp44
 70
     1
102
RTVSPost2010Prop45
280
     0
102
RTVSPost2010PropOp45
 70
     1
102
RTVSPost2010Prop46
 90
       50
102
RTVSPost2010PropOp46
 70
     1
102
RTVSPost2010Prop47
 90
       50
102
RTVSPost2010PropOp47
 70
     1
102
RTVSPost2010Prop48
 90
       50
102
RTVSPost2010PropOp48
 70
     1
102
RTVSPost2010Prop49
280
     0
102
RTVSPost2010PropOp49
 70
     1
102
RTVSPost2010Prop50
 90
       50
102
RTVSPost2010PropOp50
 70
     1
102
RTVSPost2010Prop51ColorIndex
 90
      256
102
RTVSPost2010Prop51ColorRGB
 90
-16777216
102
RTVSPost2010PropOp51
 70
     0
102
RTVSPost2010Prop52
140
1.0
102
RTVSPost2010PropOp52
 70
     0
102
RTVSPost2010Prop53
 90
        2
102
RTVSPost2010PropOp53
 70
     1
102
RTVSPost2010Prop54
  1
strokes_ogs.tif
102
RTVSPost2010PropOp54
 70
     1
102
RTVSPost2010Prop55
280
     0
102
RTVSPost2010PropOp55
 70
     1
102
RTVSPost2010Prop56
140
1.0
102
RTVSPost2010PropOp56
 70
     1
102
RTVSPost2010Prop57
140
1.0
102
RTVSPost2010PropOp57
 70
     1
102
RTVSPropertyOp0
 70
     1
102
RTVSPropertyOp1
 70
     1
102
RTVSPropertyOp2
 70
     1
102
RTVSPropertyOp3
 70
     1
102
RTVSPropertyOp4
 70
     1
102
RTVSPropertyOp5
 70
     1
102
RTVSPropertyOp6
 70
     1
102
RTVSPropertyOp7
 70
     1
102
RTVSPropertyOp8
 70
     1
102
RTVSPropertyOp9
 70
     1
102
RTVSPropertyOp10
 70
     1
102
RTVSPropertyOp11
 70
     1
102
RTVSPropertyOp12
 70
     1
102
RTVSPropertyOp13
 70
     1
102
RTVSPropertyOp14
 70
     1
102
RTVSPropertyOp15
 70
     1
102
RTVSPropertyOp16
 70
     1
102
RTVSPropertyOp17
 70
     1
102
RTVSPropertyOp18
 70
     1
102
RTVSPropertyOp19
 70
     1
102
RTVSPropertyOp20
 70
     1
102
RTVSPropertyOp21
 70
     1
102
RTVSPropertyOp22
 70
     1
102
RTVSPropertyOp23
 70
     1
102
RTVSPropertyOp24
 70
     1
102
RTVSPropertyOp25
 70
     1
102
RTVSPropertyOp26
 70
     1
102
RTVSPropertyOp27
 70
     1
102
RTVSPropertyOp28
 70
     1
102
RTVSPropertyOp29
 70
     1
102
RTVSPropertyOp30
 70
     1
102
RTVSPropertyOp31
 70
     1
102
RTVSPropertyOp32
 70
     1
102
RTVSPropertyOp33
 70
     1
102
RTVSPropertyOp34
 70
     1
102
RTVSPropertyOp35
 70
     1
102
RTVSPropertyOp36
 70
     1
102
RTVSPropertyOp37
 70
     1
102
RTVSPropertyOp38
 70
     1
102
RTVSPropertyOp39
 70
     1
102
RTVSPropertyOp40
 70
     1
102
RTVSPropertyOp41
 70
     1
102
RTVSPropertyOp42
 70
     1
102
RTVSPropertyOp43
 70
     1
102
RTVSPropertyOp44
 70
     1
102
RTVSPropertyOp45
 70
     1
102
RTVSPropertyOp46
 70
     1
102
RTVSPropertyOp47
 70
     1
102
RTVSPropertyOp48
 70
     1
102
RTVSPropertyOp49
 70
     1
102
RTVSPropertyOp50
 70
     1
102
RTVSPropertyOp51
 70
     0
102
RTVSPropertyOp52
 70
     0
102
RTVSPropertyOp53
 70
     1
102
RTVSPropertyOp54
 70
     1
102
RTVSPropertyOp55
 70
     1
102
RTVSPropertyOp56
 70
     1
102
RTVSPropertyOp57
 70
     1
102
RTVSPropertyOp58
 70
     1
102
RTVSPropertyOp59
 70
     1
102
RTVSPropertyOp60
 70
     1
102
RTVSPropertyOp61
 70
     1
102
RTVSPropertyOp62
 70
     1
  0
XRECORD
  5
AB31
102
{ACAD_REACTORS
330
AB30
102
}
330
AB30
100
AcDbXrecord
280
     1
102
RTVSPost2010Prop28
280
     0
102
RTVSPost2010PropOp28
 70
     1
102
RTVSPost2010Prop29
280
     1
102
RTVSPost2010PropOp29
 70
     1
102
RTVSPost2010Prop30
280
     1
102
RTVSPost2010PropOp30
 70
     1
102
RTVSPost2010Prop31
280
     0
102
RTVSPost2010PropOp31
 70
     1
102
RTVSPost2010Prop32
280
     0
102
RTVSPost2010PropOp32
 70
     1
102
RTVSPost2010Prop33
280
     0
102
RTVSPost2010PropOp33
 70
     1
102
RTVSPost2010Prop34
280
     0
102
RTVSPost2010PropOp34
 70
     1
102
RTVSPost2010Prop35
280
     0
102
RTVSPost2010PropOp35
 70
     1
102
RTVSPost2010Prop36
280
     0
102
RTVSPost2010PropOp36
 70
     1
102
RTVSPost2010Prop37
 90
       50
102
RTVSPost2010PropOp37
 70
     1
102
RTVSPost2010Prop38
140
0.0
102
RTVSPost2010PropOp38
 70
     1
102
RTVSPost2010Prop39
140
1.0
102
RTVSPost2010PropOp39
 70
     1
102
RTVSPost2010Prop40
 90
        0
102
RTVSPost2010PropOp40
 70
     1
102
RTVSPost2010Prop41ColorIndex
 90
       18
102
RTVSPost2010Prop41ColorRGB
 90
        0
102
RTVSPost2010PropOp41
 70
     1
102
RTVSPost2010Prop42
 90
       50
102
RTVSPost2010PropOp42
 70
     1
102
RTVSPost2010Prop43
 90
        3
102
RTVSPost2010PropOp43
 70
     1
102
RTVSPost2010Prop44ColorIndex
 90
        5
102
RTVSPost2010Prop44ColorRGB
 90
      255
102
RTVSPost2010PropOp44
 70
     1
102
RTVSPost2010Prop45
280
     0
102
RTVSPost2010PropOp45
 70
     1
102
RTVSPost2010Prop46
 90
       50
102
RTVSPost2010PropOp46
 70
     1
102
RTVSPost2010Prop47
 90
       50
102
RTVSPost2010PropOp47
 70
     1
102
RTVSPost2010Prop48
 90
       50
102
RTVSPost2010PropOp48
 70
     1
102
RTVSPost2010Prop49
280
     0
102
RTVSPost2010PropOp49
 70
     1
102
RTVSPost2010Prop50
 90
       50
102
RTVSPost2010PropOp50
 70
     1
102
RTVSPost2010Prop51ColorIndex
 90
      256
102
RTVSPost2010Prop51ColorRGB
 90
-16777216
102
RTVSPost2010PropOp51
 70
     0
102
RTVSPost2010Prop52
140
1.0
102
RTVSPost2010PropOp52
 70
     0
102
RTVSPost2010Prop53
 90
        2
102
RTVSPost2010PropOp53
 70
     1
102
RTVSPost2010Prop54
  1
strokes_ogs.tif
102
RTVSPost2010PropOp54
 70
     1
102
RTVSPost2010Prop55
280
     0
102
RTVSPost2010PropOp55
 70
     1
102
RTVSPost2010Prop56
140
1.0
102
RTVSPost2010PropOp56
 70
     1
102
RTVSPost2010Prop57
140
1.0
102
RTVSPost2010PropOp57
 70
     1
102
RTVSPropertyOp0
 70
     1
102
RTVSPropertyOp1
 70
     1
102
RTVSPropertyOp2
 70
     1
102
RTVSPropertyOp3
 70
     1
102
RTVSPropertyOp4
 70
     1
102
RTVSPropertyOp5
 70
     1
102
RTVSPropertyOp6
 70
     1
102
RTVSPropertyOp7
 70
     1
102
RTVSPropertyOp8
 70
     1
102
RTVSPropertyOp9
 70
     1
102
RTVSPropertyOp10
 70
     1
102
RTVSPropertyOp11
 70
     1
102
RTVSPropertyOp12
 70
     1
102
RTVSPropertyOp13
 70
     1
102
RTVSPropertyOp14
 70
     1
102
RTVSPropertyOp15
 70
     1
102
RTVSPropertyOp16
 70
     1
102
RTVSPropertyOp17
 70
     1
102
RTVSPropertyOp18
 70
     1
102
RTVSPropertyOp19
 70
     1
102
RTVSPropertyOp20
 70
     1
102
RTVSPropertyOp21
 70
     1
102
RTVSPropertyOp22
 70
     1
102
RTVSPropertyOp23
 70
     1
102
RTVSPropertyOp24
 70
     1
102
RTVSPropertyOp25
 70
     1
102
RTVSPropertyOp26
 70
     1
102
RTVSPropertyOp27
 70
     1
102
RTVSPropertyOp28
 70
     1
102
RTVSPropertyOp29
 70
     1
102
RTVSPropertyOp30
 70
     1
102
RTVSPropertyOp31
 70
     1
102
RTVSPropertyOp32
 70
     1
102
RTVSPropertyOp33
 70
     1
102
RTVSPropertyOp34
 70
     1
102
RTVSPropertyOp35
 70
     1
102
RTVSPropertyOp36
 70
     1
102
RTVSPropertyOp37
 70
     1
102
RTVSPropertyOp38
 70
     1
102
RTVSPropertyOp39
 70
     1
102
RTVSPropertyOp40
 70
     1
102
RTVSPropertyOp41
 70
     1
102
RTVSPropertyOp42
 70
     1
102
RTVSPropertyOp43
 70
     1
102
RTVSPropertyOp44
 70
     1
102
RTVSPropertyOp45
 70
     1
102
RTVSPropertyOp46
 70
     1
102
RTVSPropertyOp47
 70
     1
102
RTVSPropertyOp48
 70
     1
102
RTVSPropertyOp49
 70
     1
102
RTVSPropertyOp50
 70
     1
102
RTVSPropertyOp51
 70
     0
102
RTVSPropertyOp52
 70
     0
102
RTVSPropertyOp53
 70
     1
102
RTVSPropertyOp54
 70
     1
102
RTVSPropertyOp55
 70
     1
102
RTVSPropertyOp56
 70
     1
102
RTVSPropertyOp57
 70
     1
102
RTVSPropertyOp58
 70
     1
102
RTVSPropertyOp59
 70
     1
102
RTVSPropertyOp60
 70
     1
102
RTVSPropertyOp61
 70
     1
102
RTVSPropertyOp62
 70
     1
  0
XRECORD
  5
AB35
102
{ACAD_REACTORS
330
AB34
102
}
330
AB34
100
AcDbXrecord
280
     1
102
RTVSPost2010Prop28
280
     0
102
RTVSPost2010PropOp28
 70
     1
102
RTVSPost2010Prop29
280
     1
102
RTVSPost2010PropOp29
 70
     1
102
RTVSPost2010Prop30
280
     1
102
RTVSPost2010PropOp30
 70
     1
102
RTVSPost2010Prop31
280
     0
102
RTVSPost2010PropOp31
 70
     1
102
RTVSPost2010Prop32
280
     0
102
RTVSPost2010PropOp32
 70
     1
102
RTVSPost2010Prop33
280
     0
102
RTVSPost2010PropOp33
 70
     1
102
RTVSPost2010Prop34
280
     0
102
RTVSPost2010PropOp34
 70
     1
102
RTVSPost2010Prop35
280
     0
102
RTVSPost2010PropOp35
 70
     1
102
RTVSPost2010Prop36
280
     0
102
RTVSPost2010PropOp36
 70
     1
102
RTVSPost2010Prop37
 90
       50
102
RTVSPost2010PropOp37
 70
     1
102
RTVSPost2010Prop38
140
0.0
102
RTVSPost2010PropOp38
 70
     1
102
RTVSPost2010Prop39
140
1.0
102
RTVSPost2010PropOp39
 70
     1
102
RTVSPost2010Prop40
 90
        0
102
RTVSPost2010PropOp40
 70
     1
102
RTVSPost2010Prop41ColorIndex
 90
       18
102
RTVSPost2010Prop41ColorRGB
 90
        0
102
RTVSPost2010PropOp41
 70
     1
102
RTVSPost2010Prop42
 90
       50
102
RTVSPost2010PropOp42
 70
     1
102
RTVSPost2010Prop43
 90
        3
102
RTVSPost2010PropOp43
 70
     1
102
RTVSPost2010Prop44ColorIndex
 90
        5
102
RTVSPost2010Prop44ColorRGB
 90
      255
102
RTVSPost2010PropOp44
 70
     1
102
RTVSPost2010Prop45
280
     0
102
RTVSPost2010PropOp45
 70
     1
102
RTVSPost2010Prop46
 90
       50
102
RTVSPost2010PropOp46
 70
     1
102
RTVSPost2010Prop47
 90
       50
102
RTVSPost2010PropOp47
 70
     1
102
RTVSPost2010Prop48
 90
       50
102
RTVSPost2010PropOp48
 70
     1
102
RTVSPost2010Prop49
280
     0
102
RTVSPost2010PropOp49
 70
     1
102
RTVSPost2010Prop50
 90
       50
102
RTVSPost2010PropOp50
 70
     1
102
RTVSPost2010Prop51ColorIndex
 90
      256
102
RTVSPost2010Prop51ColorRGB
 90
-16777216
102
RTVSPost2010PropOp51
 70
     0
102
RTVSPost2010Prop52
140
1.0
102
RTVSPost2010PropOp52
 70
     0
102
RTVSPost2010Prop53
 90
        2
102
RTVSPost2010PropOp53
 70
     1
102
RTVSPost2010Prop54
  1
strokes_ogs.tif
102
RTVSPost2010PropOp54
 70
     1
102
RTVSPost2010Prop55
280
     0
102
RTVSPost2010PropOp55
 70
     1
102
RTVSPost2010Prop56
140
1.0
102
RTVSPost2010PropOp56
 70
     1
102
RTVSPost2010Prop57
140
1.0
102
RTVSPost2010PropOp57
 70
     1
102
RTVSPropertyOp0
 70
     1
102
RTVSPropertyOp1
 70
     1
102
RTVSPropertyOp2
 70
     1
102
RTVSPropertyOp3
 70
     1
102
RTVSPropertyOp4
 70
     1
102
RTVSPropertyOp5
 70
     1
102
RTVSPropertyOp6
 70
     1
102
RTVSPropertyOp7
 70
     1
102
RTVSPropertyOp8
 70
     1
102
RTVSPropertyOp9
 70
     1
102
RTVSPropertyOp10
 70
     1
102
RTVSPropertyOp11
 70
     1
102
RTVSPropertyOp12
 70
     1
102
RTVSPropertyOp13
 70
     1
102
RTVSPropertyOp14
 70
     1
102
RTVSPropertyOp15
 70
     1
102
RTVSPropertyOp16
 70
     1
102
RTVSPropertyOp17
 70
     1
102
RTVSPropertyOp18
 70
     1
102
RTVSPropertyOp19
 70
     1
102
RTVSPropertyOp20
 70
     1
102
RTVSPropertyOp21
 70
     1
102
RTVSPropertyOp22
 70
     1
102
RTVSPropertyOp23
 70
     1
102
RTVSPropertyOp24
 70
     1
102
RTVSPropertyOp25
 70
     1
102
RTVSPropertyOp26
 70
     1
102
RTVSPropertyOp27
 70
     1
102
RTVSPropertyOp28
 70
     1
102
RTVSPropertyOp29
 70
     1
102
RTVSPropertyOp30
 70
     1
102
RTVSPropertyOp31
 70
     1
102
RTVSPropertyOp32
 70
     1
102
RTVSPropertyOp33
 70
     1
102
RTVSPropertyOp34
 70
     1
102
RTVSPropertyOp35
 70
     1
102
RTVSPropertyOp36
 70
     1
102
RTVSPropertyOp37
 70
     1
102
RTVSPropertyOp38
 70
     1
102
RTVSPropertyOp39
 70
     1
102
RTVSPropertyOp40
 70
     1
102
RTVSPropertyOp41
 70
     1
102
RTVSPropertyOp42
 70
     1
102
RTVSPropertyOp43
 70
     1
102
RTVSPropertyOp44
 70
     1
102
RTVSPropertyOp45
 70
     1
102
RTVSPropertyOp46
 70
     1
102
RTVSPropertyOp47
 70
     1
102
RTVSPropertyOp48
 70
     1
102
RTVSPropertyOp49
 70
     1
102
RTVSPropertyOp50
 70
     1
102
RTVSPropertyOp51
 70
     0
102
RTVSPropertyOp52
 70
     0
102
RTVSPropertyOp53
 70
     1
102
RTVSPropertyOp54
 70
     1
102
RTVSPropertyOp55
 70
     1
102
RTVSPropertyOp56
 70
     1
102
RTVSPropertyOp57
 70
     1
102
RTVSPropertyOp58
 70
     1
102
RTVSPropertyOp59
 70
     1
102
RTVSPropertyOp60
 70
     1
102
RTVSPropertyOp61
 70
     1
102
RTVSPropertyOp62
 70
     1
  0
XRECORD
  5
AB4F
102
{ACAD_REACTORS
330
AB4E
102
}
330
AB4E
100
AcDbXrecord
280
     1
102
RTVSPost2010Prop28
280
     0
102
RTVSPost2010PropOp28
 70
     1
102
RTVSPost2010Prop29
280
     1
102
RTVSPost2010PropOp29
 70
     1
102
RTVSPost2010Prop30
280
     1
102
RTVSPost2010PropOp30
 70
     1
102
RTVSPost2010Prop31
280
     0
102
RTVSPost2010PropOp31
 70
     1
102
RTVSPost2010Prop32
280
     0
102
RTVSPost2010PropOp32
 70
     1
102
RTVSPost2010Prop33
280
     0
102
RTVSPost2010PropOp33
 70
     1
102
RTVSPost2010Prop34
280
     0
102
RTVSPost2010PropOp34
 70
     1
102
RTVSPost2010Prop35
280
     0
102
RTVSPost2010PropOp35
 70
     1
102
RTVSPost2010Prop36
280
     0
102
RTVSPost2010PropOp36
 70
     1
102
RTVSPost2010Prop37
 90
       50
102
RTVSPost2010PropOp37
 70
     0
102
RTVSPost2010Prop38
140
0.0
102
RTVSPost2010PropOp38
 70
     0
102
RTVSPost2010Prop39
140
1.0
102
RTVSPost2010PropOp39
 70
     0
102
RTVSPost2010Prop40
 90
        0
102
RTVSPost2010PropOp40
 70
     0
102
RTVSPost2010Prop41ColorIndex
 90
       18
102
RTVSPost2010Prop41ColorRGB
 90
        0
102
RTVSPost2010PropOp41
 70
     0
102
RTVSPost2010Prop42
 90
       50
102
RTVSPost2010PropOp42
 70
     0
102
RTVSPost2010Prop43
 90
        3
102
RTVSPost2010PropOp43
 70
     0
102
RTVSPost2010Prop44ColorIndex
 90
        5
102
RTVSPost2010Prop44ColorRGB
 90
      255
102
RTVSPost2010PropOp44
 70
     0
102
RTVSPost2010Prop45
280
     0
102
RTVSPost2010PropOp45
 70
     1
102
RTVSPost2010Prop46
 90
       50
102
RTVSPost2010PropOp46
 70
     0
102
RTVSPost2010Prop47
 90
       50
102
RTVSPost2010PropOp47
 70
     0
102
RTVSPost2010Prop48
 90
       50
102
RTVSPost2010PropOp48
 70
     0
102
RTVSPost2010Prop49
280
     0
102
RTVSPost2010PropOp49
 70
     1
102
RTVSPost2010Prop50
 90
       50
102
RTVSPost2010PropOp50
 70
     0
102
RTVSPost2010Prop51ColorIndex
 90
      256
102
RTVSPost2010Prop51ColorRGB
 90
-16777216
102
RTVSPost2010PropOp51
 70
     0
102
RTVSPost2010Prop52
140
1.0
102
RTVSPost2010PropOp52
 70
     0
102
RTVSPost2010Prop53
 90
        2
102
RTVSPost2010PropOp53
 70
     0
102
RTVSPost2010Prop54
  1
strokes_ogs.tif
102
RTVSPost2010PropOp54
 70
     0
102
RTVSPost2010Prop55
280
     0
102
RTVSPost2010PropOp55
 70
     1
102
RTVSPost2010Prop56
140
1.0
102
RTVSPost2010PropOp56
 70
     0
102
RTVSPost2010Prop57
140
1.0
102
RTVSPost2010PropOp57
 70
     0
102
RTVSPropertyOp0
 70
     0
102
RTVSPropertyOp1
 70
     0
102
RTVSPropertyOp2
 70
     0
102
RTVSPropertyOp3
 70
     0
102
RTVSPropertyOp4
 70
     0
102
RTVSPropertyOp5
 70
     0
102
RTVSPropertyOp6
 70
     0
102
RTVSPropertyOp7
 70
     0
102
RTVSPropertyOp8
 70
     0
102
RTVSPropertyOp9
 70
     0
102
RTVSPropertyOp10
 70
     0
102
RTVSPropertyOp11
 70
     0
102
RTVSPropertyOp12
 70
     0
102
RTVSPropertyOp13
 70
     0
102
RTVSPropertyOp14
 70
     2
102
RTVSPropertyOp15
 70
     0
102
RTVSPropertyOp16
 70
     0
102
RTVSPropertyOp17
 70
     0
102
RTVSPropertyOp18
 70
     0
102
RTVSPropertyOp19
 70
     0
102
RTVSPropertyOp20
 70
     0
102
RTVSPropertyOp21
 70
     0
102
RTVSPropertyOp22
 70
     0
102
RTVSPropertyOp23
 70
     0
102
RTVSPropertyOp24
 70
     0
102
RTVSPropertyOp25
 70
     0
102
RTVSPropertyOp26
 70
     0
102
RTVSPropertyOp27
 70
     0
102
RTVSPropertyOp28
 70
     1
102
RTVSPropertyOp29
 70
     1
102
RTVSPropertyOp30
 70
     1
102
RTVSPropertyOp31
 70
     1
102
RTVSPropertyOp32
 70
     1
102
RTVSPropertyOp33
 70
     1
102
RTVSPropertyOp34
 70
     1
102
RTVSPropertyOp35
 70
     1
102
RTVSPropertyOp36
 70
     1
102
RTVSPropertyOp37
 70
     0
102
RTVSPropertyOp38
 70
     0
102
RTVSPropertyOp39
 70
     0
102
RTVSPropertyOp40
 70
     0
102
RTVSPropertyOp41
 70
     0
102
RTVSPropertyOp42
 70
     0
102
RTVSPropertyOp43
 70
     0
102
RTVSPropertyOp44
 70
     0
102
RTVSPropertyOp45
 70
     1
102
RTVSPropertyOp46
 70
     0
102
RTVSPropertyOp47
 70
     0
102
RTVSPropertyOp48
 70
     0
102
RTVSPropertyOp49
 70
     1
102
RTVSPropertyOp50
 70
     0
102
RTVSPropertyOp51
 70
     0
102
RTVSPropertyOp52
 70
     0
102
RTVSPropertyOp53
 70
     0
102
RTVSPropertyOp54
 70
     0
102
RTVSPropertyOp55
 70
     1
102
RTVSPropertyOp56
 70
     0
102
RTVSPropertyOp57
 70
     0
102
RTVSPropertyOp58
 70
     0
102
RTVSPropertyOp59
 70
     0
102
RTVSPropertyOp60
 70
     0
102
RTVSPropertyOp61
 70
     0
102
RTVSPropertyOp62
 70
     0
  0
XRECORD
  5
AB3D
102
{ACAD_REACTORS
330
AB3C
102
}
330
AB3C
100
AcDbXrecord
280
     1
102
RTVSPost2010Prop28
280
     0
102
RTVSPost2010PropOp28
 70
     1
102
RTVSPost2010Prop29
280
     1
102
RTVSPost2010PropOp29
 70
     1
102
RTVSPost2010Prop30
280
     1
102
RTVSPost2010PropOp30
 70
     1
102
RTVSPost2010Prop31
280
     0
102
RTVSPost2010PropOp31
 70
     1
102
RTVSPost2010Prop32
280
     0
102
RTVSPost2010PropOp32
 70
     1
102
RTVSPost2010Prop33
280
     0
102
RTVSPost2010PropOp33
 70
     1
102
RTVSPost2010Prop34
280
     0
102
RTVSPost2010PropOp34
 70
     1
102
RTVSPost2010Prop35
280
     0
102
RTVSPost2010PropOp35
 70
     1
102
RTVSPost2010Prop36
280
     0
102
RTVSPost2010PropOp36
 70
     1
102
RTVSPost2010Prop37
 90
       50
102
RTVSPost2010PropOp37
 70
     1
102
RTVSPost2010Prop38
140
0.0
102
RTVSPost2010PropOp38
 70
     1
102
RTVSPost2010Prop39
140
1.0
102
RTVSPost2010PropOp39
 70
     1
102
RTVSPost2010Prop40
 90
        0
102
RTVSPost2010PropOp40
 70
     1
102
RTVSPost2010Prop41ColorIndex
 90
       18
102
RTVSPost2010Prop41ColorRGB
 90
        0
102
RTVSPost2010PropOp41
 70
     1
102
RTVSPost2010Prop42
 90
       50
102
RTVSPost2010PropOp42
 70
     1
102
RTVSPost2010Prop43
 90
        3
102
RTVSPost2010PropOp43
 70
     1
102
RTVSPost2010Prop44ColorIndex
 90
        5
102
RTVSPost2010Prop44ColorRGB
 90
      255
102
RTVSPost2010PropOp44
 70
     1
102
RTVSPost2010Prop45
280
     0
102
RTVSPost2010PropOp45
 70
     1
102
RTVSPost2010Prop46
 90
       50
102
RTVSPost2010PropOp46
 70
     1
102
RTVSPost2010Prop47
 90
       50
102
RTVSPost2010PropOp47
 70
     1
102
RTVSPost2010Prop48
 90
       50
102
RTVSPost2010PropOp48
 70
     1
102
RTVSPost2010Prop49
280
     0
102
RTVSPost2010PropOp49
 70
     1
102
RTVSPost2010Prop50
 90
       50
102
RTVSPost2010PropOp50
 70
     1
102
RTVSPost2010Prop51ColorIndex
 90
      256
102
RTVSPost2010Prop51ColorRGB
 90
-16777216
102
RTVSPost2010PropOp51
 70
     0
102
RTVSPost2010Prop52
140
1.0
102
RTVSPost2010PropOp52
 70
     0
102
RTVSPost2010Prop53
 90
        2
102
RTVSPost2010PropOp53
 70
     1
102
RTVSPost2010Prop54
  1
strokes_ogs.tif
102
RTVSPost2010PropOp54
 70
     1
102
RTVSPost2010Prop55
280
     0
102
RTVSPost2010PropOp55
 70
     1
102
RTVSPost2010Prop56
140
1.0
102
RTVSPost2010PropOp56
 70
     1
102
RTVSPost2010Prop57
140
1.0
102
RTVSPost2010PropOp57
 70
     1
102
RTVSPropertyOp0
 70
     1
102
RTVSPropertyOp1
 70
     1
102
RTVSPropertyOp2
 70
     1
102
RTVSPropertyOp3
 70
     1
102
RTVSPropertyOp4
 70
     1
102
RTVSPropertyOp5
 70
     1
102
RTVSPropertyOp6
 70
     1
102
RTVSPropertyOp7
 70
     1
102
RTVSPropertyOp8
 70
     1
102
RTVSPropertyOp9
 70
     1
102
RTVSPropertyOp10
 70
     1
102
RTVSPropertyOp11
 70
     1
102
RTVSPropertyOp12
 70
     1
102
RTVSPropertyOp13
 70
     1
102
RTVSPropertyOp14
 70
     1
102
RTVSPropertyOp15
 70
     1
102
RTVSPropertyOp16
 70
     1
102
RTVSPropertyOp17
 70
     1
102
RTVSPropertyOp18
 70
     1
102
RTVSPropertyOp19
 70
     1
102
RTVSPropertyOp20
 70
     1
102
RTVSPropertyOp21
 70
     1
102
RTVSPropertyOp22
 70
     1
102
RTVSPropertyOp23
 70
     1
102
RTVSPropertyOp24
 70
     1
102
RTVSPropertyOp25
 70
     1
102
RTVSPropertyOp26
 70
     1
102
RTVSPropertyOp27
 70
     1
102
RTVSPropertyOp28
 70
     1
102
RTVSPropertyOp29
 70
     1
102
RTVSPropertyOp30
 70
     1
102
RTVSPropertyOp31
 70
     1
102
RTVSPropertyOp32
 70
     1
102
RTVSPropertyOp33
 70
     1
102
RTVSPropertyOp34
 70
     1
102
RTVSPropertyOp35
 70
     1
102
RTVSPropertyOp36
 70
     1
102
RTVSPropertyOp37
 70
     1
102
RTVSPropertyOp38
 70
     1
102
RTVSPropertyOp39
 70
     1
102
RTVSPropertyOp40
 70
     1
102
RTVSPropertyOp41
 70
     1
102
RTVSPropertyOp42
 70
     1
102
RTVSPropertyOp43
 70
     1
102
RTVSPropertyOp44
 70
     1
102
RTVSPropertyOp45
 70
     1
102
RTVSPropertyOp46
 70
     1
102
RTVSPropertyOp47
 70
     1
102
RTVSPropertyOp48
 70
     1
102
RTVSPropertyOp49
 70
     1
102
RTVSPropertyOp50
 70
     1
102
RTVSPropertyOp51
 70
     0
102
RTVSPropertyOp52
 70
     0
102
RTVSPropertyOp53
 70
     1
102
RTVSPropertyOp54
 70
     1
102
RTVSPropertyOp55
 70
     1
102
RTVSPropertyOp56
 70
     1
102
RTVSPropertyOp57
 70
     1
102
RTVSPropertyOp58
 70
     1
102
RTVSPropertyOp59
 70
     1
102
RTVSPropertyOp60
 70
     1
102
RTVSPropertyOp61
 70
     1
102
RTVSPropertyOp62
 70
     1
  0
XRECORD
  5
AB21
102
{ACAD_REACTORS
330
AB20
102
}
330
AB20
100
AcDbXrecord
280
     1
102
RTVSPost2010Prop28
280
     0
102
RTVSPost2010PropOp28
 70
     1
102
RTVSPost2010Prop29
280
     1
102
RTVSPost2010PropOp29
 70
     1
102
RTVSPost2010Prop30
280
     1
102
RTVSPost2010PropOp30
 70
     1
102
RTVSPost2010Prop31
280
     0
102
RTVSPost2010PropOp31
 70
     1
102
RTVSPost2010Prop32
280
     0
102
RTVSPost2010PropOp32
 70
     1
102
RTVSPost2010Prop33
280
     0
102
RTVSPost2010PropOp33
 70
     1
102
RTVSPost2010Prop34
280
     0
102
RTVSPost2010PropOp34
 70
     1
102
RTVSPost2010Prop35
280
     0
102
RTVSPost2010PropOp35
 70
     1
102
RTVSPost2010Prop36
280
     0
102
RTVSPost2010PropOp36
 70
     1
102
RTVSPost2010Prop37
 90
       50
102
RTVSPost2010PropOp37
 70
     1
102
RTVSPost2010Prop38
140
0.0
102
RTVSPost2010PropOp38
 70
     1
102
RTVSPost2010Prop39
140
1.0
102
RTVSPost2010PropOp39
 70
     1
102
RTVSPost2010Prop40
 90
        0
102
RTVSPost2010PropOp40
 70
     1
102
RTVSPost2010Prop41ColorIndex
 90
       18
102
RTVSPost2010Prop41ColorRGB
 90
        0
102
RTVSPost2010PropOp41
 70
     1
102
RTVSPost2010Prop42
 90
       50
102
RTVSPost2010PropOp42
 70
     1
102
RTVSPost2010Prop43
 90
        3
102
RTVSPost2010PropOp43
 70
     1
102
RTVSPost2010Prop44ColorIndex
 90
        5
102
RTVSPost2010Prop44ColorRGB
 90
      255
102
RTVSPost2010PropOp44
 70
     1
102
RTVSPost2010Prop45
280
     0
102
RTVSPost2010PropOp45
 70
     1
102
RTVSPost2010Prop46
 90
       50
102
RTVSPost2010PropOp46
 70
     1
102
RTVSPost2010Prop47
 90
       50
102
RTVSPost2010PropOp47
 70
     1
102
RTVSPost2010Prop48
 90
       50
102
RTVSPost2010PropOp48
 70
     1
102
RTVSPost2010Prop49
280
     0
102
RTVSPost2010PropOp49
 70
     1
102
RTVSPost2010Prop50
 90
       50
102
RTVSPost2010PropOp50
 70
     1
102
RTVSPost2010Prop51ColorIndex
 90
      256
102
RTVSPost2010Prop51ColorRGB
 90
-16777216
102
RTVSPost2010PropOp51
 70
     0
102
RTVSPost2010Prop52
140
1.0
102
RTVSPost2010PropOp52
 70
     0
102
RTVSPost2010Prop53
 90
        2
102
RTVSPost2010PropOp53
 70
     1
102
RTVSPost2010Prop54
  1
strokes_ogs.tif
102
RTVSPost2010PropOp54
 70
     1
102
RTVSPost2010Prop55
280
     0
102
RTVSPost2010PropOp55
 70
     1
102
RTVSPost2010Prop56
140
1.0
102
RTVSPost2010PropOp56
 70
     1
102
RTVSPost2010Prop57
140
1.0
102
RTVSPost2010PropOp57
 70
     1
102
RTVSPropertyOp0
 70
     1
102
RTVSPropertyOp1
 70
     1
102
RTVSPropertyOp2
 70
     1
102
RTVSPropertyOp3
 70
     1
102
RTVSPropertyOp4
 70
     1
102
RTVSPropertyOp5
 70
     1
102
RTVSPropertyOp6
 70
     1
102
RTVSPropertyOp7
 70
     1
102
RTVSPropertyOp8
 70
     1
102
RTVSPropertyOp9
 70
     1
102
RTVSPropertyOp10
 70
     1
102
RTVSPropertyOp11
 70
     1
102
RTVSPropertyOp12
 70
     1
102
RTVSPropertyOp13
 70
     1
102
RTVSPropertyOp14
 70
     1
102
RTVSPropertyOp15
 70
     1
102
RTVSPropertyOp16
 70
     1
102
RTVSPropertyOp17
 70
     1
102
RTVSPropertyOp18
 70
     1
102
RTVSPropertyOp19
 70
     1
102
RTVSPropertyOp20
 70
     1
102
RTVSPropertyOp21
 70
     1
102
RTVSPropertyOp22
 70
     1
102
RTVSPropertyOp23
 70
     1
102
RTVSPropertyOp24
 70
     1
102
RTVSPropertyOp25
 70
     1
102
RTVSPropertyOp26
 70
     1
102
RTVSPropertyOp27
 70
     1
102
RTVSPropertyOp28
 70
     1
102
RTVSPropertyOp29
 70
     1
102
RTVSPropertyOp30
 70
     1
102
RTVSPropertyOp31
 70
     1
102
RTVSPropertyOp32
 70
     1
102
RTVSPropertyOp33
 70
     1
102
RTVSPropertyOp34
 70
     1
102
RTVSPropertyOp35
 70
     1
102
RTVSPropertyOp36
 70
     1
102
RTVSPropertyOp37
 70
     1
102
RTVSPropertyOp38
 70
     1
102
RTVSPropertyOp39
 70
     1
102
RTVSPropertyOp40
 70
     1
102
RTVSPropertyOp41
 70
     1
102
RTVSPropertyOp42
 70
     1
102
RTVSPropertyOp43
 70
     1
102
RTVSPropertyOp44
 70
     1
102
RTVSPropertyOp45
 70
     1
102
RTVSPropertyOp46
 70
     1
102
RTVSPropertyOp47
 70
     1
102
RTVSPropertyOp48
 70
     1
102
RTVSPropertyOp49
 70
     1
102
RTVSPropertyOp50
 70
     1
102
RTVSPropertyOp51
 70
     0
102
RTVSPropertyOp52
 70
     0
102
RTVSPropertyOp53
 70
     1
102
RTVSPropertyOp54
 70
     1
102
RTVSPropertyOp55
 70
     1
102
RTVSPropertyOp56
 70
     1
102
RTVSPropertyOp57
 70
     1
102
RTVSPropertyOp58
 70
     1
102
RTVSPropertyOp59
 70
     1
102
RTVSPropertyOp60
 70
     1
102
RTVSPropertyOp61
 70
     1
102
RTVSPropertyOp62
 70
     1
  0
XRECORD
  5
AB23
102
{ACAD_REACTORS
330
AB22
102
}
330
AB22
100
AcDbXrecord
280
     1
102
RTVSPost2010Prop28
280
     0
102
RTVSPost2010PropOp28
 70
     1
102
RTVSPost2010Prop29
280
     1
102
RTVSPost2010PropOp29
 70
     1
102
RTVSPost2010Prop30
280
     1
102
RTVSPost2010PropOp30
 70
     1
102
RTVSPost2010Prop31
280
     0
102
RTVSPost2010PropOp31
 70
     1
102
RTVSPost2010Prop32
280
     0
102
RTVSPost2010PropOp32
 70
     1
102
RTVSPost2010Prop33
280
     0
102
RTVSPost2010PropOp33
 70
     1
102
RTVSPost2010Prop34
280
     0
102
RTVSPost2010PropOp34
 70
     1
102
RTVSPost2010Prop35
280
     0
102
RTVSPost2010PropOp35
 70
     1
102
RTVSPost2010Prop36
280
     0
102
RTVSPost2010PropOp36
 70
     1
102
RTVSPost2010Prop37
 90
       50
102
RTVSPost2010PropOp37
 70
     1
102
RTVSPost2010Prop38
140
0.0
102
RTVSPost2010PropOp38
 70
     1
102
RTVSPost2010Prop39
140
1.0
102
RTVSPost2010PropOp39
 70
     1
102
RTVSPost2010Prop40
 90
        0
102
RTVSPost2010PropOp40
 70
     1
102
RTVSPost2010Prop41ColorIndex
 90
       18
102
RTVSPost2010Prop41ColorRGB
 90
        0
102
RTVSPost2010PropOp41
 70
     1
102
RTVSPost2010Prop42
 90
       50
102
RTVSPost2010PropOp42
 70
     1
102
RTVSPost2010Prop43
 90
        3
102
RTVSPost2010PropOp43
 70
     1
102
RTVSPost2010Prop44ColorIndex
 90
        5
102
RTVSPost2010Prop44ColorRGB
 90
      255
102
RTVSPost2010PropOp44
 70
     1
102
RTVSPost2010Prop45
280
     0
102
RTVSPost2010PropOp45
 70
     1
102
RTVSPost2010Prop46
 90
       50
102
RTVSPost2010PropOp46
 70
     1
102
RTVSPost2010Prop47
 90
       50
102
RTVSPost2010PropOp47
 70
     1
102
RTVSPost2010Prop48
 90
       50
102
RTVSPost2010PropOp48
 70
     1
102
RTVSPost2010Prop49
280
     0
102
RTVSPost2010PropOp49
 70
     1
102
RTVSPost2010Prop50
 90
       50
102
RTVSPost2010PropOp50
 70
     1
102
RTVSPost2010Prop51ColorIndex
 90
      256
102
RTVSPost2010Prop51ColorRGB
 90
-16777216
102
RTVSPost2010PropOp51
 70
     0
102
RTVSPost2010Prop52
140
1.0
102
RTVSPost2010PropOp52
 70
     0
102
RTVSPost2010Prop53
 90
        2
102
RTVSPost2010PropOp53
 70
     1
102
RTVSPost2010Prop54
  1
strokes_ogs.tif
102
RTVSPost2010PropOp54
 70
     1
102
RTVSPost2010Prop55
280
     0
102
RTVSPost2010PropOp55
 70
     1
102
RTVSPost2010Prop56
140
1.0
102
RTVSPost2010PropOp56
 70
     1
102
RTVSPost2010Prop57
140
1.0
102
RTVSPost2010PropOp57
 70
     1
102
RTVSPropertyOp0
 70
     1
102
RTVSPropertyOp1
 70
     1
102
RTVSPropertyOp2
 70
     1
102
RTVSPropertyOp3
 70
     1
102
RTVSPropertyOp4
 70
     1
102
RTVSPropertyOp5
 70
     1
102
RTVSPropertyOp6
 70
     1
102
RTVSPropertyOp7
 70
     1
102
RTVSPropertyOp8
 70
     1
102
RTVSPropertyOp9
 70
     1
102
RTVSPropertyOp10
 70
     1
102
RTVSPropertyOp11
 70
     1
102
RTVSPropertyOp12
 70
     1
102
RTVSPropertyOp13
 70
     1
102
RTVSPropertyOp14
 70
     1
102
RTVSPropertyOp15
 70
     1
102
RTVSPropertyOp16
 70
     1
102
RTVSPropertyOp17
 70
     1
102
RTVSPropertyOp18
 70
     1
102
RTVSPropertyOp19
 70
     1
102
RTVSPropertyOp20
 70
     1
102
RTVSPropertyOp21
 70
     1
102
RTVSPropertyOp22
 70
     1
102
RTVSPropertyOp23
 70
     1
102
RTVSPropertyOp24
 70
     1
102
RTVSPropertyOp25
 70
     1
102
RTVSPropertyOp26
 70
     1
102
RTVSPropertyOp27
 70
     1
102
RTVSPropertyOp28
 70
     1
102
RTVSPropertyOp29
 70
     1
102
RTVSPropertyOp30
 70
     1
102
RTVSPropertyOp31
 70
     1
102
RTVSPropertyOp32
 70
     1
102
RTVSPropertyOp33
 70
     1
102
RTVSPropertyOp34
 70
     1
102
RTVSPropertyOp35
 70
     1
102
RTVSPropertyOp36
 70
     1
102
RTVSPropertyOp37
 70
     1
102
RTVSPropertyOp38
 70
     1
102
RTVSPropertyOp39
 70
     1
102
RTVSPropertyOp40
 70
     1
102
RTVSPropertyOp41
 70
     1
102
RTVSPropertyOp42
 70
     1
102
RTVSPropertyOp43
 70
     1
102
RTVSPropertyOp44
 70
     1
102
RTVSPropertyOp45
 70
     1
102
RTVSPropertyOp46
 70
     1
102
RTVSPropertyOp47
 70
     1
102
RTVSPropertyOp48
 70
     1
102
RTVSPropertyOp49
 70
     1
102
RTVSPropertyOp50
 70
     1
102
RTVSPropertyOp51
 70
     0
102
RTVSPropertyOp52
 70
     0
102
RTVSPropertyOp53
 70
     1
102
RTVSPropertyOp54
 70
     1
102
RTVSPropertyOp55
 70
     1
102
RTVSPropertyOp56
 70
     1
102
RTVSPropertyOp57
 70
     1
102
RTVSPropertyOp58
 70
     1
102
RTVSPropertyOp59
 70
     1
102
RTVSPropertyOp60
 70
     1
102
RTVSPropertyOp61
 70
     1
102
RTVSPropertyOp62
 70
     1
  0
XRECORD
  5
AB25
102
{ACAD_REACTORS
330
AB24
102
}
330
AB24
100
AcDbXrecord
280
     1
102
RTVSPost2010Prop28
280
     0
102
RTVSPost2010PropOp28
 70
     1
102
RTVSPost2010Prop29
280
     1
102
RTVSPost2010PropOp29
 70
     1
102
RTVSPost2010Prop30
280
     1
102
RTVSPost2010PropOp30
 70
     1
102
RTVSPost2010Prop31
280
     0
102
RTVSPost2010PropOp31
 70
     1
102
RTVSPost2010Prop32
280
     0
102
RTVSPost2010PropOp32
 70
     1
102
RTVSPost2010Prop33
280
     0
102
RTVSPost2010PropOp33
 70
     1
102
RTVSPost2010Prop34
280
     0
102
RTVSPost2010PropOp34
 70
     1
102
RTVSPost2010Prop35
280
     0
102
RTVSPost2010PropOp35
 70
     1
102
RTVSPost2010Prop36
280
     0
102
RTVSPost2010PropOp36
 70
     1
102
RTVSPost2010Prop37
 90
       50
102
RTVSPost2010PropOp37
 70
     1
102
RTVSPost2010Prop38
140
0.0
102
RTVSPost2010PropOp38
 70
     1
102
RTVSPost2010Prop39
140
1.0
102
RTVSPost2010PropOp39
 70
     1
102
RTVSPost2010Prop40
 90
        0
102
RTVSPost2010PropOp40
 70
     1
102
RTVSPost2010Prop41ColorIndex
 90
       18
102
RTVSPost2010Prop41ColorRGB
 90
        0
102
RTVSPost2010PropOp41
 70
     1
102
RTVSPost2010Prop42
 90
       50
102
RTVSPost2010PropOp42
 70
     1
102
RTVSPost2010Prop43
 90
        3
102
RTVSPost2010PropOp43
 70
     1
102
RTVSPost2010Prop44ColorIndex
 90
        5
102
RTVSPost2010Prop44ColorRGB
 90
      255
102
RTVSPost2010PropOp44
 70
     1
102
RTVSPost2010Prop45
280
     0
102
RTVSPost2010PropOp45
 70
     1
102
RTVSPost2010Prop46
 90
       50
102
RTVSPost2010PropOp46
 70
     1
102
RTVSPost2010Prop47
 90
       50
102
RTVSPost2010PropOp47
 70
     1
102
RTVSPost2010Prop48
 90
       50
102
RTVSPost2010PropOp48
 70
     1
102
RTVSPost2010Prop49
280
     0
102
RTVSPost2010PropOp49
 70
     1
102
RTVSPost2010Prop50
 90
       50
102
RTVSPost2010PropOp50
 70
     1
102
RTVSPost2010Prop51ColorIndex
 90
      256
102
RTVSPost2010Prop51ColorRGB
 90
-16777216
102
RTVSPost2010PropOp51
 70
     0
102
RTVSPost2010Prop52
140
1.0
102
RTVSPost2010PropOp52
 70
     0
102
RTVSPost2010Prop53
 90
        2
102
RTVSPost2010PropOp53
 70
     1
102
RTVSPost2010Prop54
  1
strokes_ogs.tif
102
RTVSPost2010PropOp54
 70
     1
102
RTVSPost2010Prop55
280
     0
102
RTVSPost2010PropOp55
 70
     1
102
RTVSPost2010Prop56
140
1.0
102
RTVSPost2010PropOp56
 70
     1
102
RTVSPost2010Prop57
140
1.0
102
RTVSPost2010PropOp57
 70
     1
102
RTVSPropertyOp0
 70
     1
102
RTVSPropertyOp1
 70
     1
102
RTVSPropertyOp2
 70
     1
102
RTVSPropertyOp3
 70
     1
102
RTVSPropertyOp4
 70
     1
102
RTVSPropertyOp5
 70
     1
102
RTVSPropertyOp6
 70
     1
102
RTVSPropertyOp7
 70
     1
102
RTVSPropertyOp8
 70
     1
102
RTVSPropertyOp9
 70
     1
102
RTVSPropertyOp10
 70
     1
102
RTVSPropertyOp11
 70
     1
102
RTVSPropertyOp12
 70
     1
102
RTVSPropertyOp13
 70
     1
102
RTVSPropertyOp14
 70
     1
102
RTVSPropertyOp15
 70
     1
102
RTVSPropertyOp16
 70
     1
102
RTVSPropertyOp17
 70
     1
102
RTVSPropertyOp18
 70
     1
102
RTVSPropertyOp19
 70
     1
102
RTVSPropertyOp20
 70
     1
102
RTVSPropertyOp21
 70
     1
102
RTVSPropertyOp22
 70
     1
102
RTVSPropertyOp23
 70
     1
102
RTVSPropertyOp24
 70
     1
102
RTVSPropertyOp25
 70
     1
102
RTVSPropertyOp26
 70
     1
102
RTVSPropertyOp27
 70
     1
102
RTVSPropertyOp28
 70
     1
102
RTVSPropertyOp29
 70
     1
102
RTVSPropertyOp30
 70
     1
102
RTVSPropertyOp31
 70
     1
102
RTVSPropertyOp32
 70
     1
102
RTVSPropertyOp33
 70
     1
102
RTVSPropertyOp34
 70
     1
102
RTVSPropertyOp35
 70
     1
102
RTVSPropertyOp36
 70
     1
102
RTVSPropertyOp37
 70
     1
102
RTVSPropertyOp38
 70
     1
102
RTVSPropertyOp39
 70
     1
102
RTVSPropertyOp40
 70
     1
102
RTVSPropertyOp41
 70
     1
102
RTVSPropertyOp42
 70
     1
102
RTVSPropertyOp43
 70
     1
102
RTVSPropertyOp44
 70
     1
102
RTVSPropertyOp45
 70
     1
102
RTVSPropertyOp46
 70
     1
102
RTVSPropertyOp47
 70
     1
102
RTVSPropertyOp48
 70
     1
102
RTVSPropertyOp49
 70
     1
102
RTVSPropertyOp50
 70
     1
102
RTVSPropertyOp51
 70
     0
102
RTVSPropertyOp52
 70
     0
102
RTVSPropertyOp53
 70
     1
102
RTVSPropertyOp54
 70
     1
102
RTVSPropertyOp55
 70
     1
102
RTVSPropertyOp56
 70
     1
102
RTVSPropertyOp57
 70
     1
102
RTVSPropertyOp58
 70
     1
102
RTVSPropertyOp59
 70
     1
102
RTVSPropertyOp60
 70
     1
102
RTVSPropertyOp61
 70
     1
102
RTVSPropertyOp62
 70
     1
  0
XRECORD
  5
AB27
102
{ACAD_REACTORS
330
AB26
102
}
330
AB26
100
AcDbXrecord
280
     1
102
RTVSPost2010Prop28
280
     0
102
RTVSPost2010PropOp28
 70
     1
102
RTVSPost2010Prop29
280
     1
102
RTVSPost2010PropOp29
 70
     1
102
RTVSPost2010Prop30
280
     1
102
RTVSPost2010PropOp30
 70
     1
102
RTVSPost2010Prop31
280
     0
102
RTVSPost2010PropOp31
 70
     1
102
RTVSPost2010Prop32
280
     0
102
RTVSPost2010PropOp32
 70
     1
102
RTVSPost2010Prop33
280
     0
102
RTVSPost2010PropOp33
 70
     1
102
RTVSPost2010Prop34
280
     0
102
RTVSPost2010PropOp34
 70
     1
102
RTVSPost2010Prop35
280
     0
102
RTVSPost2010PropOp35
 70
     1
102
RTVSPost2010Prop36
280
     0
102
RTVSPost2010PropOp36
 70
     1
102
RTVSPost2010Prop37
 90
       50
102
RTVSPost2010PropOp37
 70
     1
102
RTVSPost2010Prop38
140
0.0
102
RTVSPost2010PropOp38
 70
     1
102
RTVSPost2010Prop39
140
1.0
102
RTVSPost2010PropOp39
 70
     1
102
RTVSPost2010Prop40
 90
        0
102
RTVSPost2010PropOp40
 70
     1
102
RTVSPost2010Prop41ColorIndex
 90
       18
102
RTVSPost2010Prop41ColorRGB
 90
        0
102
RTVSPost2010PropOp41
 70
     1
102
RTVSPost2010Prop42
 90
       50
102
RTVSPost2010PropOp42
 70
     1
102
RTVSPost2010Prop43
 90
        3
102
RTVSPost2010PropOp43
 70
     1
102
RTVSPost2010Prop44ColorIndex
 90
        5
102
RTVSPost2010Prop44ColorRGB
 90
      255
102
RTVSPost2010PropOp44
 70
     1
102
RTVSPost2010Prop45
280
     0
102
RTVSPost2010PropOp45
 70
     1
102
RTVSPost2010Prop46
 90
       50
102
RTVSPost2010PropOp46
 70
     1
102
RTVSPost2010Prop47
 90
       50
102
RTVSPost2010PropOp47
 70
     1
102
RTVSPost2010Prop48
 90
       50
102
RTVSPost2010PropOp48
 70
     1
102
RTVSPost2010Prop49
280
     0
102
RTVSPost2010PropOp49
 70
     1
102
RTVSPost2010Prop50
 90
       50
102
RTVSPost2010PropOp50
 70
     1
102
RTVSPost2010Prop51ColorIndex
 90
      256
102
RTVSPost2010Prop51ColorRGB
 90
-16777216
102
RTVSPost2010PropOp51
 70
     0
102
RTVSPost2010Prop52
140
1.0
102
RTVSPost2010PropOp52
 70
     0
102
RTVSPost2010Prop53
 90
        2
102
RTVSPost2010PropOp53
 70
     1
102
RTVSPost2010Prop54
  1
strokes_ogs.tif
102
RTVSPost2010PropOp54
 70
     1
102
RTVSPost2010Prop55
280
     0
102
RTVSPost2010PropOp55
 70
     1
102
RTVSPost2010Prop56
140
1.0
102
RTVSPost2010PropOp56
 70
     1
102
RTVSPost2010Prop57
140
1.0
102
RTVSPost2010PropOp57
 70
     1
102
RTVSPropertyOp0
 70
     1
102
RTVSPropertyOp1
 70
     1
102
RTVSPropertyOp2
 70
     1
102
RTVSPropertyOp3
 70
     1
102
RTVSPropertyOp4
 70
     1
102
RTVSPropertyOp5
 70
     1
102
RTVSPropertyOp6
 70
     1
102
RTVSPropertyOp7
 70
     1
102
RTVSPropertyOp8
 70
     1
102
RTVSPropertyOp9
 70
     1
102
RTVSPropertyOp10
 70
     1
102
RTVSPropertyOp11
 70
     1
102
RTVSPropertyOp12
 70
     1
102
RTVSPropertyOp13
 70
     1
102
RTVSPropertyOp14
 70
     1
102
RTVSPropertyOp15
 70
     1
102
RTVSPropertyOp16
 70
     1
102
RTVSPropertyOp17
 70
     1
102
RTVSPropertyOp18
 70
     1
102
RTVSPropertyOp19
 70
     1
102
RTVSPropertyOp20
 70
     1
102
RTVSPropertyOp21
 70
     1
102
RTVSPropertyOp22
 70
     1
102
RTVSPropertyOp23
 70
     1
102
RTVSPropertyOp24
 70
     1
102
RTVSPropertyOp25
 70
     1
102
RTVSPropertyOp26
 70
     1
102
RTVSPropertyOp27
 70
     1
102
RTVSPropertyOp28
 70
     1
102
RTVSPropertyOp29
 70
     1
102
RTVSPropertyOp30
 70
     1
102
RTVSPropertyOp31
 70
     1
102
RTVSPropertyOp32
 70
     1
102
RTVSPropertyOp33
 70
     1
102
RTVSPropertyOp34
 70
     1
102
RTVSPropertyOp35
 70
     1
102
RTVSPropertyOp36
 70
     1
102
RTVSPropertyOp37
 70
     1
102
RTVSPropertyOp38
 70
     1
102
RTVSPropertyOp39
 70
     1
102
RTVSPropertyOp40
 70
     1
102
RTVSPropertyOp41
 70
     1
102
RTVSPropertyOp42
 70
     1
102
RTVSPropertyOp43
 70
     1
102
RTVSPropertyOp44
 70
     1
102
RTVSPropertyOp45
 70
     1
102
RTVSPropertyOp46
 70
     1
102
RTVSPropertyOp47
 70
     1
102
RTVSPropertyOp48
 70
     1
102
RTVSPropertyOp49
 70
     1
102
RTVSPropertyOp50
 70
     1
102
RTVSPropertyOp51
 70
     0
102
RTVSPropertyOp52
 70
     0
102
RTVSPropertyOp53
 70
     1
102
RTVSPropertyOp54
 70
     1
102
RTVSPropertyOp55
 70
     1
102
RTVSPropertyOp56
 70
     1
102
RTVSPropertyOp57
 70
     1
102
RTVSPropertyOp58
 70
     1
102
RTVSPropertyOp59
 70
     1
102
RTVSPropertyOp60
 70
     1
102
RTVSPropertyOp61
 70
     1
102
RTVSPropertyOp62
 70
     1
  0
XRECORD
  5
AB2F
102
{ACAD_REACTORS
330
AB2E
102
}
330
AB2E
100
AcDbXrecord
280
     1
102
RTVSPost2010Prop28
280
     0
102
RTVSPost2010PropOp28
 70
     1
102
RTVSPost2010Prop29
280
     1
102
RTVSPost2010PropOp29
 70
     1
102
RTVSPost2010Prop30
280
     1
102
RTVSPost2010PropOp30
 70
     1
102
RTVSPost2010Prop31
280
     0
102
RTVSPost2010PropOp31
 70
     1
102
RTVSPost2010Prop32
280
     0
102
RTVSPost2010PropOp32
 70
     1
102
RTVSPost2010Prop33
280
     0
102
RTVSPost2010PropOp33
 70
     1
102
RTVSPost2010Prop34
280
     0
102
RTVSPost2010PropOp34
 70
     1
102
RTVSPost2010Prop35
280
     0
102
RTVSPost2010PropOp35
 70
     1
102
RTVSPost2010Prop36
280
     0
102
RTVSPost2010PropOp36
 70
     1
102
RTVSPost2010Prop37
 90
       50
102
RTVSPost2010PropOp37
 70
     1
102
RTVSPost2010Prop38
140
0.0
102
RTVSPost2010PropOp38
 70
     1
102
RTVSPost2010Prop39
140
1.0
102
RTVSPost2010PropOp39
 70
     1
102
RTVSPost2010Prop40
 90
        0
102
RTVSPost2010PropOp40
 70
     1
102
RTVSPost2010Prop41ColorIndex
 90
       18
102
RTVSPost2010Prop41ColorRGB
 90
        0
102
RTVSPost2010PropOp41
 70
     1
102
RTVSPost2010Prop42
 90
       50
102
RTVSPost2010PropOp42
 70
     1
102
RTVSPost2010Prop43
 90
        3
102
RTVSPost2010PropOp43
 70
     1
102
RTVSPost2010Prop44ColorIndex
 90
        5
102
RTVSPost2010Prop44ColorRGB
 90
      255
102
RTVSPost2010PropOp44
 70
     1
102
RTVSPost2010Prop45
280
     0
102
RTVSPost2010PropOp45
 70
     1
102
RTVSPost2010Prop46
 90
       50
102
RTVSPost2010PropOp46
 70
     1
102
RTVSPost2010Prop47
 90
       50
102
RTVSPost2010PropOp47
 70
     1
102
RTVSPost2010Prop48
 90
       50
102
RTVSPost2010PropOp48
 70
     1
102
RTVSPost2010Prop49
280
     0
102
RTVSPost2010PropOp49
 70
     1
102
RTVSPost2010Prop50
 90
       50
102
RTVSPost2010PropOp50
 70
     1
102
RTVSPost2010Prop51ColorIndex
 90
      256
102
RTVSPost2010Prop51ColorRGB
 90
-16777216
102
RTVSPost2010PropOp51
 70
     0
102
RTVSPost2010Prop52
140
1.0
102
RTVSPost2010PropOp52
 70
     0
102
RTVSPost2010Prop53
 90
        2
102
RTVSPost2010PropOp53
 70
     1
102
RTVSPost2010Prop54
  1
strokes_ogs.tif
102
RTVSPost2010PropOp54
 70
     1
102
RTVSPost2010Prop55
280
     0
102
RTVSPost2010PropOp55
 70
     1
102
RTVSPost2010Prop56
140
1.0
102
RTVSPost2010PropOp56
 70
     1
102
RTVSPost2010Prop57
140
1.0
102
RTVSPost2010PropOp57
 70
     1
102
RTVSPropertyOp0
 70
     1
102
RTVSPropertyOp1
 70
     1
102
RTVSPropertyOp2
 70
     1
102
RTVSPropertyOp3
 70
     1
102
RTVSPropertyOp4
 70
     1
102
RTVSPropertyOp5
 70
     1
102
RTVSPropertyOp6
 70
     1
102
RTVSPropertyOp7
 70
     1
102
RTVSPropertyOp8
 70
     1
102
RTVSPropertyOp9
 70
     1
102
RTVSPropertyOp10
 70
     1
102
RTVSPropertyOp11
 70
     1
102
RTVSPropertyOp12
 70
     1
102
RTVSPropertyOp13
 70
     1
102
RTVSPropertyOp14
 70
     1
102
RTVSPropertyOp15
 70
     1
102
RTVSPropertyOp16
 70
     1
102
RTVSPropertyOp17
 70
     1
102
RTVSPropertyOp18
 70
     1
102
RTVSPropertyOp19
 70
     1
102
RTVSPropertyOp20
 70
     1
102
RTVSPropertyOp21
 70
     1
102
RTVSPropertyOp22
 70
     1
102
RTVSPropertyOp23
 70
     1
102
RTVSPropertyOp24
 70
     1
102
RTVSPropertyOp25
 70
     1
102
RTVSPropertyOp26
 70
     1
102
RTVSPropertyOp27
 70
     1
102
RTVSPropertyOp28
 70
     1
102
RTVSPropertyOp29
 70
     1
102
RTVSPropertyOp30
 70
     1
102
RTVSPropertyOp31
 70
     1
102
RTVSPropertyOp32
 70
     1
102
RTVSPropertyOp33
 70
     1
102
RTVSPropertyOp34
 70
     1
102
RTVSPropertyOp35
 70
     1
102
RTVSPropertyOp36
 70
     1
102
RTVSPropertyOp37
 70
     1
102
RTVSPropertyOp38
 70
     1
102
RTVSPropertyOp39
 70
     1
102
RTVSPropertyOp40
 70
     1
102
RTVSPropertyOp41
 70
     1
102
RTVSPropertyOp42
 70
     1
102
RTVSPropertyOp43
 70
     1
102
RTVSPropertyOp44
 70
     1
102
RTVSPropertyOp45
 70
     1
102
RTVSPropertyOp46
 70
     1
102
RTVSPropertyOp47
 70
     1
102
RTVSPropertyOp48
 70
     1
102
RTVSPropertyOp49
 70
     1
102
RTVSPropertyOp50
 70
     1
102
RTVSPropertyOp51
 70
     0
102
RTVSPropertyOp52
 70
     0
102
RTVSPropertyOp53
 70
     1
102
RTVSPropertyOp54
 70
     1
102
RTVSPropertyOp55
 70
     1
102
RTVSPropertyOp56
 70
     1
102
RTVSPropertyOp57
 70
     1
102
RTVSPropertyOp58
 70
     1
102
RTVSPropertyOp59
 70
     1
102
RTVSPropertyOp60
 70
     1
102
RTVSPropertyOp61
 70
     1
102
RTVSPropertyOp62
 70
     1
  0
XRECORD
  5
AB4B
102
{ACAD_REACTORS
330
AB4A
102
}
330
AB4A
100
AcDbXrecord
280
     1
102
RTVSPost2010Prop28
280
     0
102
RTVSPost2010PropOp28
 70
     1
102
RTVSPost2010Prop29
280
     1
102
RTVSPost2010PropOp29
 70
     1
102
RTVSPost2010Prop30
280
     1
102
RTVSPost2010PropOp30
 70
     1
102
RTVSPost2010Prop31
280
     0
102
RTVSPost2010PropOp31
 70
     1
102
RTVSPost2010Prop32
280
     0
102
RTVSPost2010PropOp32
 70
     1
102
RTVSPost2010Prop33
280
     0
102
RTVSPost2010PropOp33
 70
     1
102
RTVSPost2010Prop34
280
     0
102
RTVSPost2010PropOp34
 70
     1
102
RTVSPost2010Prop35
280
     0
102
RTVSPost2010PropOp35
 70
     1
102
RTVSPost2010Prop36
280
     0
102
RTVSPost2010PropOp36
 70
     1
102
RTVSPost2010Prop37
 90
       50
102
RTVSPost2010PropOp37
 70
     0
102
RTVSPost2010Prop38
140
0.0
102
RTVSPost2010PropOp38
 70
     0
102
RTVSPost2010Prop39
140
1.0
102
RTVSPost2010PropOp39
 70
     0
102
RTVSPost2010Prop40
 90
        0
102
RTVSPost2010PropOp40
 70
     0
102
RTVSPost2010Prop41ColorIndex
 90
       18
102
RTVSPost2010Prop41ColorRGB
 90
        0
102
RTVSPost2010PropOp41
 70
     0
102
RTVSPost2010Prop42
 90
       50
102
RTVSPost2010PropOp42
 70
     0
102
RTVSPost2010Prop43
 90
        3
102
RTVSPost2010PropOp43
 70
     0
102
RTVSPost2010Prop44ColorIndex
 90
        5
102
RTVSPost2010Prop44ColorRGB
 90
      255
102
RTVSPost2010PropOp44
 70
     0
102
RTVSPost2010Prop45
280
     0
102
RTVSPost2010PropOp45
 70
     1
102
RTVSPost2010Prop46
 90
       50
102
RTVSPost2010PropOp46
 70
     0
102
RTVSPost2010Prop47
 90
       50
102
RTVSPost2010PropOp47
 70
     0
102
RTVSPost2010Prop48
 90
       50
102
RTVSPost2010PropOp48
 70
     0
102
RTVSPost2010Prop49
280
     0
102
RTVSPost2010PropOp49
 70
     1
102
RTVSPost2010Prop50
 90
       50
102
RTVSPost2010PropOp50
 70
     0
102
RTVSPost2010Prop51ColorIndex
 90
      256
102
RTVSPost2010Prop51ColorRGB
 90
-16777216
102
RTVSPost2010PropOp51
 70
     0
102
RTVSPost2010Prop52
140
1.0
102
RTVSPost2010PropOp52
 70
     0
102
RTVSPost2010Prop53
 90
        2
102
RTVSPost2010PropOp53
 70
     0
102
RTVSPost2010Prop54
  1
strokes_ogs.tif
102
RTVSPost2010PropOp54
 70
     0
102
RTVSPost2010Prop55
280
     0
102
RTVSPost2010PropOp55
 70
     1
102
RTVSPost2010Prop56
140
1.0
102
RTVSPost2010PropOp56
 70
     0
102
RTVSPost2010Prop57
140
1.0
102
RTVSPost2010PropOp57
 70
     0
102
RTVSPropertyOp0
 70
     0
102
RTVSPropertyOp1
 70
     0
102
RTVSPropertyOp2
 70
     0
102
RTVSPropertyOp3
 70
     0
102
RTVSPropertyOp4
 70
     0
102
RTVSPropertyOp5
 70
     0
102
RTVSPropertyOp6
 70
     0
102
RTVSPropertyOp7
 70
     0
102
RTVSPropertyOp8
 70
     0
102
RTVSPropertyOp9
 70
     0
102
RTVSPropertyOp10
 70
     0
102
RTVSPropertyOp11
 70
     0
102
RTVSPropertyOp12
 70
     0
102
RTVSPropertyOp13
 70
     0
102
RTVSPropertyOp14
 70
     2
102
RTVSPropertyOp15
 70
     0
102
RTVSPropertyOp16
 70
     0
102
RTVSPropertyOp17
 70
     0
102
RTVSPropertyOp18
 70
     0
102
RTVSPropertyOp19
 70
     0
102
RTVSPropertyOp20
 70
     0
102
RTVSPropertyOp21
 70
     0
102
RTVSPropertyOp22
 70
     0
102
RTVSPropertyOp23
 70
     0
102
RTVSPropertyOp24
 70
     0
102
RTVSPropertyOp25
 70
     0
102
RTVSPropertyOp26
 70
     0
102
RTVSPropertyOp27
 70
     0
102
RTVSPropertyOp28
 70
     1
102
RTVSPropertyOp29
 70
     1
102
RTVSPropertyOp30
 70
     1
102
RTVSPropertyOp31
 70
     1
102
RTVSPropertyOp32
 70
     1
102
RTVSPropertyOp33
 70
     1
102
RTVSPropertyOp34
 70
     1
102
RTVSPropertyOp35
 70
     1
102
RTVSPropertyOp36
 70
     1
102
RTVSPropertyOp37
 70
     0
102
RTVSPropertyOp38
 70
     0
102
RTVSPropertyOp39
 70
     0
102
RTVSPropertyOp40
 70
     0
102
RTVSPropertyOp41
 70
     0
102
RTVSPropertyOp42
 70
     0
102
RTVSPropertyOp43
 70
     0
102
RTVSPropertyOp44
 70
     0
102
RTVSPropertyOp45
 70
     1
102
RTVSPropertyOp46
 70
     0
102
RTVSPropertyOp47
 70
     0
102
RTVSPropertyOp48
 70
     0
102
RTVSPropertyOp49
 70
     1
102
RTVSPropertyOp50
 70
     0
102
RTVSPropertyOp51
 70
     0
102
RTVSPropertyOp52
 70
     0
102
RTVSPropertyOp53
 70
     0
102
RTVSPropertyOp54
 70
     0
102
RTVSPropertyOp55
 70
     1
102
RTVSPropertyOp56
 70
     0
102
RTVSPropertyOp57
 70
     0
102
RTVSPropertyOp58
 70
     0
102
RTVSPropertyOp59
 70
     0
102
RTVSPropertyOp60
 70
     0
102
RTVSPropertyOp61
 70
     0
102
RTVSPropertyOp62
 70
     0
  0
XRECORD
  5
AB3B
102
{ACAD_REACTORS
330
AB3A
102
}
330
AB3A
100
AcDbXrecord
280
     1
102
RTVSPost2010Prop28
280
     0
102
RTVSPost2010PropOp28
 70
     1
102
RTVSPost2010Prop29
280
     1
102
RTVSPost2010PropOp29
 70
     1
102
RTVSPost2010Prop30
280
     1
102
RTVSPost2010PropOp30
 70
     1
102
RTVSPost2010Prop31
280
     0
102
RTVSPost2010PropOp31
 70
     1
102
RTVSPost2010Prop32
280
     0
102
RTVSPost2010PropOp32
 70
     1
102
RTVSPost2010Prop33
280
     0
102
RTVSPost2010PropOp33
 70
     1
102
RTVSPost2010Prop34
280
     0
102
RTVSPost2010PropOp34
 70
     1
102
RTVSPost2010Prop35
280
     0
102
RTVSPost2010PropOp35
 70
     1
102
RTVSPost2010Prop36
280
     0
102
RTVSPost2010PropOp36
 70
     1
102
RTVSPost2010Prop37
 90
       50
102
RTVSPost2010PropOp37
 70
     1
102
RTVSPost2010Prop38
140
0.0
102
RTVSPost2010PropOp38
 70
     1
102
RTVSPost2010Prop39
140
1.0
102
RTVSPost2010PropOp39
 70
     1
102
RTVSPost2010Prop40
 90
        0
102
RTVSPost2010PropOp40
 70
     1
102
RTVSPost2010Prop41ColorIndex
 90
       18
102
RTVSPost2010Prop41ColorRGB
 90
        0
102
RTVSPost2010PropOp41
 70
     1
102
RTVSPost2010Prop42
 90
       50
102
RTVSPost2010PropOp42
 70
     1
102
RTVSPost2010Prop43
 90
        3
102
RTVSPost2010PropOp43
 70
     1
102
RTVSPost2010Prop44ColorIndex
 90
        5
102
RTVSPost2010Prop44ColorRGB
 90
      255
102
RTVSPost2010PropOp44
 70
     1
102
RTVSPost2010Prop45
280
     0
102
RTVSPost2010PropOp45
 70
     1
102
RTVSPost2010Prop46
 90
       50
102
RTVSPost2010PropOp46
 70
     1
102
RTVSPost2010Prop47
 90
       50
102
RTVSPost2010PropOp47
 70
     1
102
RTVSPost2010Prop48
 90
       50
102
RTVSPost2010PropOp48
 70
     1
102
RTVSPost2010Prop49
280
     0
102
RTVSPost2010PropOp49
 70
     1
102
RTVSPost2010Prop50
 90
       50
102
RTVSPost2010PropOp50
 70
     1
102
RTVSPost2010Prop51ColorIndex
 90
      256
102
RTVSPost2010Prop51ColorRGB
 90
-16777216
102
RTVSPost2010PropOp51
 70
     0
102
RTVSPost2010Prop52
140
1.0
102
RTVSPost2010PropOp52
 70
     0
102
RTVSPost2010Prop53
 90
        2
102
RTVSPost2010PropOp53
 70
     1
102
RTVSPost2010Prop54
  1
strokes_ogs.tif
102
RTVSPost2010PropOp54
 70
     1
102
RTVSPost2010Prop55
280
     0
102
RTVSPost2010PropOp55
 70
     1
102
RTVSPost2010Prop56
140
1.0
102
RTVSPost2010PropOp56
 70
     1
102
RTVSPost2010Prop57
140
1.0
102
RTVSPost2010PropOp57
 70
     1
102
RTVSPropertyOp0
 70
     1
102
RTVSPropertyOp1
 70
     1
102
RTVSPropertyOp2
 70
     1
102
RTVSPropertyOp3
 70
     1
102
RTVSPropertyOp4
 70
     1
102
RTVSPropertyOp5
 70
     1
102
RTVSPropertyOp6
 70
     1
102
RTVSPropertyOp7
 70
     1
102
RTVSPropertyOp8
 70
     1
102
RTVSPropertyOp9
 70
     1
102
RTVSPropertyOp10
 70
     1
102
RTVSPropertyOp11
 70
     1
102
RTVSPropertyOp12
 70
     1
102
RTVSPropertyOp13
 70
     1
102
RTVSPropertyOp14
 70
     1
102
RTVSPropertyOp15
 70
     1
102
RTVSPropertyOp16
 70
     1
102
RTVSPropertyOp17
 70
     1
102
RTVSPropertyOp18
 70
     1
102
RTVSPropertyOp19
 70
     1
102
RTVSPropertyOp20
 70
     1
102
RTVSPropertyOp21
 70
     1
102
RTVSPropertyOp22
 70
     1
102
RTVSPropertyOp23
 70
     1
102
RTVSPropertyOp24
 70
     1
102
RTVSPropertyOp25
 70
     1
102
RTVSPropertyOp26
 70
     1
102
RTVSPropertyOp27
 70
     1
102
RTVSPropertyOp28
 70
     1
102
RTVSPropertyOp29
 70
     1
102
RTVSPropertyOp30
 70
     1
102
RTVSPropertyOp31
 70
     1
102
RTVSPropertyOp32
 70
     1
102
RTVSPropertyOp33
 70
     1
102
RTVSPropertyOp34
 70
     1
102
RTVSPropertyOp35
 70
     1
102
RTVSPropertyOp36
 70
     1
102
RTVSPropertyOp37
 70
     1
102
RTVSPropertyOp38
 70
     1
102
RTVSPropertyOp39
 70
     1
102
RTVSPropertyOp40
 70
     1
102
RTVSPropertyOp41
 70
     1
102
RTVSPropertyOp42
 70
     1
102
RTVSPropertyOp43
 70
     1
102
RTVSPropertyOp44
 70
     1
102
RTVSPropertyOp45
 70
     1
102
RTVSPropertyOp46
 70
     1
102
RTVSPropertyOp47
 70
     1
102
RTVSPropertyOp48
 70
     1
102
RTVSPropertyOp49
 70
     1
102
RTVSPropertyOp50
 70
     1
102
RTVSPropertyOp51
 70
     0
102
RTVSPropertyOp52
 70
     0
102
RTVSPropertyOp53
 70
     1
102
RTVSPropertyOp54
 70
     1
102
RTVSPropertyOp55
 70
     1
102
RTVSPropertyOp56
 70
     1
102
RTVSPropertyOp57
 70
     1
102
RTVSPropertyOp58
 70
     1
102
RTVSPropertyOp59
 70
     1
102
RTVSPropertyOp60
 70
     1
102
RTVSPropertyOp61
 70
     1
102
RTVSPropertyOp62
 70
     1
  0
XRECORD
  5
AB4D
102
{ACAD_REACTORS
330
AB4C
102
}
330
AB4C
100
AcDbXrecord
280
     1
102
RTVSPost2010Prop28
280
     0
102
RTVSPost2010PropOp28
 70
     1
102
RTVSPost2010Prop29
280
     1
102
RTVSPost2010PropOp29
 70
     1
102
RTVSPost2010Prop30
280
     1
102
RTVSPost2010PropOp30
 70
     1
102
RTVSPost2010Prop31
280
     0
102
RTVSPost2010PropOp31
 70
     1
102
RTVSPost2010Prop32
280
     0
102
RTVSPost2010PropOp32
 70
     1
102
RTVSPost2010Prop33
280
     0
102
RTVSPost2010PropOp33
 70
     1
102
RTVSPost2010Prop34
280
     0
102
RTVSPost2010PropOp34
 70
     1
102
RTVSPost2010Prop35
280
     0
102
RTVSPost2010PropOp35
 70
     1
102
RTVSPost2010Prop36
280
     0
102
RTVSPost2010PropOp36
 70
     1
102
RTVSPost2010Prop37
 90
       50
102
RTVSPost2010PropOp37
 70
     0
102
RTVSPost2010Prop38
140
0.0
102
RTVSPost2010PropOp38
 70
     0
102
RTVSPost2010Prop39
140
1.0
102
RTVSPost2010PropOp39
 70
     0
102
RTVSPost2010Prop40
 90
        0
102
RTVSPost2010PropOp40
 70
     0
102
RTVSPost2010Prop41ColorIndex
 90
       18
102
RTVSPost2010Prop41ColorRGB
 90
        0
102
RTVSPost2010PropOp41
 70
     0
102
RTVSPost2010Prop42
 90
       50
102
RTVSPost2010PropOp42
 70
     0
102
RTVSPost2010Prop43
 90
        3
102
RTVSPost2010PropOp43
 70
     0
102
RTVSPost2010Prop44ColorIndex
 90
        5
102
RTVSPost2010Prop44ColorRGB
 90
      255
102
RTVSPost2010PropOp44
 70
     0
102
RTVSPost2010Prop45
280
     0
102
RTVSPost2010PropOp45
 70
     1
102
RTVSPost2010Prop46
 90
       50
102
RTVSPost2010PropOp46
 70
     0
102
RTVSPost2010Prop47
 90
       50
102
RTVSPost2010PropOp47
 70
     0
102
RTVSPost2010Prop48
 90
       50
102
RTVSPost2010PropOp48
 70
     0
102
RTVSPost2010Prop49
280
     0
102
RTVSPost2010PropOp49
 70
     1
102
RTVSPost2010Prop50
 90
       50
102
RTVSPost2010PropOp50
 70
     0
102
RTVSPost2010Prop51ColorIndex
 90
      256
102
RTVSPost2010Prop51ColorRGB
 90
-16777216
102
RTVSPost2010PropOp51
 70
     0
102
RTVSPost2010Prop52
140
1.0
102
RTVSPost2010PropOp52
 70
     0
102
RTVSPost2010Prop53
 90
        2
102
RTVSPost2010PropOp53
 70
     0
102
RTVSPost2010Prop54
  1
strokes_ogs.tif
102
RTVSPost2010PropOp54
 70
     0
102
RTVSPost2010Prop55
280
     0
102
RTVSPost2010PropOp55
 70
     1
102
RTVSPost2010Prop56
140
1.0
102
RTVSPost2010PropOp56
 70
     0
102
RTVSPost2010Prop57
140
1.0
102
RTVSPost2010PropOp57
 70
     0
102
RTVSPropertyOp0
 70
     0
102
RTVSPropertyOp1
 70
     0
102
RTVSPropertyOp2
 70
     0
102
RTVSPropertyOp3
 70
     0
102
RTVSPropertyOp4
 70
     0
102
RTVSPropertyOp5
 70
     0
102
RTVSPropertyOp6
 70
     0
102
RTVSPropertyOp7
 70
     0
102
RTVSPropertyOp8
 70
     0
102
RTVSPropertyOp9
 70
     0
102
RTVSPropertyOp10
 70
     0
102
RTVSPropertyOp11
 70
     0
102
RTVSPropertyOp12
 70
     0
102
RTVSPropertyOp13
 70
     0
102
RTVSPropertyOp14
 70
     2
102
RTVSPropertyOp15
 70
     0
102
RTVSPropertyOp16
 70
     0
102
RTVSPropertyOp17
 70
     0
102
RTVSPropertyOp18
 70
     0
102
RTVSPropertyOp19
 70
     0
102
RTVSPropertyOp20
 70
     0
102
RTVSPropertyOp21
 70
     0
102
RTVSPropertyOp22
 70
     0
102
RTVSPropertyOp23
 70
     0
102
RTVSPropertyOp24
 70
     0
102
RTVSPropertyOp25
 70
     0
102
RTVSPropertyOp26
 70
     0
102
RTVSPropertyOp27
 70
     0
102
RTVSPropertyOp28
 70
     1
102
RTVSPropertyOp29
 70
     1
102
RTVSPropertyOp30
 70
     1
102
RTVSPropertyOp31
 70
     1
102
RTVSPropertyOp32
 70
     1
102
RTVSPropertyOp33
 70
     1
102
RTVSPropertyOp34
 70
     1
102
RTVSPropertyOp35
 70
     1
102
RTVSPropertyOp36
 70
     1
102
RTVSPropertyOp37
 70
     0
102
RTVSPropertyOp38
 70
     0
102
RTVSPropertyOp39
 70
     0
102
RTVSPropertyOp40
 70
     0
102
RTVSPropertyOp41
 70
     0
102
RTVSPropertyOp42
 70
     0
102
RTVSPropertyOp43
 70
     0
102
RTVSPropertyOp44
 70
     0
102
RTVSPropertyOp45
 70
     1
102
RTVSPropertyOp46
 70
     0
102
RTVSPropertyOp47
 70
     0
102
RTVSPropertyOp48
 70
     0
102
RTVSPropertyOp49
 70
     1
102
RTVSPropertyOp50
 70
     0
102
RTVSPropertyOp51
 70
     0
102
RTVSPropertyOp52
 70
     0
102
RTVSPropertyOp53
 70
     0
102
RTVSPropertyOp54
 70
     0
102
RTVSPropertyOp55
 70
     1
102
RTVSPropertyOp56
 70
     0
102
RTVSPropertyOp57
 70
     0
102
RTVSPropertyOp58
 70
     0
102
RTVSPropertyOp59
 70
     0
102
RTVSPropertyOp60
 70
     0
102
RTVSPropertyOp61
 70
     0
102
RTVSPropertyOp62
 70
     0
  0
XRECORD
  5
AB33
102
{ACAD_REACTORS
330
AB32
102
}
330
AB32
100
AcDbXrecord
280
     1
102
RTVSPost2010Prop28
280
     0
102
RTVSPost2010PropOp28
 70
     1
102
RTVSPost2010Prop29
280
     1
102
RTVSPost2010PropOp29
 70
     1
102
RTVSPost2010Prop30
280
     1
102
RTVSPost2010PropOp30
 70
     1
102
RTVSPost2010Prop31
280
     0
102
RTVSPost2010PropOp31
 70
     1
102
RTVSPost2010Prop32
280
     0
102
RTVSPost2010PropOp32
 70
     1
102
RTVSPost2010Prop33
280
     0
102
RTVSPost2010PropOp33
 70
     1
102
RTVSPost2010Prop34
280
     0
102
RTVSPost2010PropOp34
 70
     1
102
RTVSPost2010Prop35
280
     0
102
RTVSPost2010PropOp35
 70
     1
102
RTVSPost2010Prop36
280
     0
102
RTVSPost2010PropOp36
 70
     1
102
RTVSPost2010Prop37
 90
       50
102
RTVSPost2010PropOp37
 70
     1
102
RTVSPost2010Prop38
140
0.0
102
RTVSPost2010PropOp38
 70
     1
102
RTVSPost2010Prop39
140
1.0
102
RTVSPost2010PropOp39
 70
     1
102
RTVSPost2010Prop40
 90
        0
102
RTVSPost2010PropOp40
 70
     1
102
RTVSPost2010Prop41ColorIndex
 90
       18
102
RTVSPost2010Prop41ColorRGB
 90
        0
102
RTVSPost2010PropOp41
 70
     1
102
RTVSPost2010Prop42
 90
       50
102
RTVSPost2010PropOp42
 70
     1
102
RTVSPost2010Prop43
 90
        3
102
RTVSPost2010PropOp43
 70
     1
102
RTVSPost2010Prop44ColorIndex
 90
        5
102
RTVSPost2010Prop44ColorRGB
 90
      255
102
RTVSPost2010PropOp44
 70
     1
102
RTVSPost2010Prop45
280
     0
102
RTVSPost2010PropOp45
 70
     1
102
RTVSPost2010Prop46
 90
       50
102
RTVSPost2010PropOp46
 70
     1
102
RTVSPost2010Prop47
 90
       50
102
RTVSPost2010PropOp47
 70
     1
102
RTVSPost2010Prop48
 90
       50
102
RTVSPost2010PropOp48
 70
     1
102
RTVSPost2010Prop49
280
     0
102
RTVSPost2010PropOp49
 70
     1
102
RTVSPost2010Prop50
 90
       50
102
RTVSPost2010PropOp50
 70
     1
102
RTVSPost2010Prop51ColorIndex
 90
      256
102
RTVSPost2010Prop51ColorRGB
 90
-16777216
102
RTVSPost2010PropOp51
 70
     0
102
RTVSPost2010Prop52
140
1.0
102
RTVSPost2010PropOp52
 70
     0
102
RTVSPost2010Prop53
 90
        2
102
RTVSPost2010PropOp53
 70
     1
102
RTVSPost2010Prop54
  1
strokes_ogs.tif
102
RTVSPost2010PropOp54
 70
     1
102
RTVSPost2010Prop55
280
     0
102
RTVSPost2010PropOp55
 70
     1
102
RTVSPost2010Prop56
140
1.0
102
RTVSPost2010PropOp56
 70
     1
102
RTVSPost2010Prop57
140
1.0
102
RTVSPost2010PropOp57
 70
     1
102
RTVSPropertyOp0
 70
     1
102
RTVSPropertyOp1
 70
     1
102
RTVSPropertyOp2
 70
     1
102
RTVSPropertyOp3
 70
     1
102
RTVSPropertyOp4
 70
     1
102
RTVSPropertyOp5
 70
     1
102
RTVSPropertyOp6
 70
     1
102
RTVSPropertyOp7
 70
     1
102
RTVSPropertyOp8
 70
     1
102
RTVSPropertyOp9
 70
     1
102
RTVSPropertyOp10
 70
     1
102
RTVSPropertyOp11
 70
     1
102
RTVSPropertyOp12
 70
     1
102
RTVSPropertyOp13
 70
     1
102
RTVSPropertyOp14
 70
     1
102
RTVSPropertyOp15
 70
     1
102
RTVSPropertyOp16
 70
     1
102
RTVSPropertyOp17
 70
     1
102
RTVSPropertyOp18
 70
     1
102
RTVSPropertyOp19
 70
     1
102
RTVSPropertyOp20
 70
     1
102
RTVSPropertyOp21
 70
     1
102
RTVSPropertyOp22
 70
     1
102
RTVSPropertyOp23
 70
     1
102
RTVSPropertyOp24
 70
     1
102
RTVSPropertyOp25
 70
     1
102
RTVSPropertyOp26
 70
     1
102
RTVSPropertyOp27
 70
     1
102
RTVSPropertyOp28
 70
     1
102
RTVSPropertyOp29
 70
     1
102
RTVSPropertyOp30
 70
     1
102
RTVSPropertyOp31
 70
     1
102
RTVSPropertyOp32
 70
     1
102
RTVSPropertyOp33
 70
     1
102
RTVSPropertyOp34
 70
     1
102
RTVSPropertyOp35
 70
     1
102
RTVSPropertyOp36
 70
     1
102
RTVSPropertyOp37
 70
     1
102
RTVSPropertyOp38
 70
     1
102
RTVSPropertyOp39
 70
     1
102
RTVSPropertyOp40
 70
     1
102
RTVSPropertyOp41
 70
     1
102
RTVSPropertyOp42
 70
     1
102
RTVSPropertyOp43
 70
     1
102
RTVSPropertyOp44
 70
     1
102
RTVSPropertyOp45
 70
     1
102
RTVSPropertyOp46
 70
     1
102
RTVSPropertyOp47
 70
     1
102
RTVSPropertyOp48
 70
     1
102
RTVSPropertyOp49
 70
     1
102
RTVSPropertyOp50
 70
     1
102
RTVSPropertyOp51
 70
     0
102
RTVSPropertyOp52
 70
     0
102
RTVSPropertyOp53
 70
     1
102
RTVSPropertyOp54
 70
     1
102
RTVSPropertyOp55
 70
     1
102
RTVSPropertyOp56
 70
     1
102
RTVSPropertyOp57
 70
     1
102
RTVSPropertyOp58
 70
     1
102
RTVSPropertyOp59
 70
     1
102
RTVSPropertyOp60
 70
     1
102
RTVSPropertyOp61
 70
     1
102
RTVSPropertyOp62
 70
     1
  0
XRECORD
  5
AB49
102
{ACAD_REACTORS
330
AB48
102
}
330
AB48
100
AcDbXrecord
280
     1
102
RTVSPost2010Prop28
280
     0
102
RTVSPost2010PropOp28
 70
     1
102
RTVSPost2010Prop29
280
     1
102
RTVSPost2010PropOp29
 70
     1
102
RTVSPost2010Prop30
280
     1
102
RTVSPost2010PropOp30
 70
     1
102
RTVSPost2010Prop31
280
     0
102
RTVSPost2010PropOp31
 70
     1
102
RTVSPost2010Prop32
280
     0
102
RTVSPost2010PropOp32
 70
     1
102
RTVSPost2010Prop33
280
     0
102
RTVSPost2010PropOp33
 70
     1
102
RTVSPost2010Prop34
280
     0
102
RTVSPost2010PropOp34
 70
     1
102
RTVSPost2010Prop35
280
     0
102
RTVSPost2010PropOp35
 70
     1
102
RTVSPost2010Prop36
280
     0
102
RTVSPost2010PropOp36
 70
     1
102
RTVSPost2010Prop37
 90
       50
102
RTVSPost2010PropOp37
 70
     1
102
RTVSPost2010Prop38
140
0.0
102
RTVSPost2010PropOp38
 70
     1
102
RTVSPost2010Prop39
140
1.0
102
RTVSPost2010PropOp39
 70
     1
102
RTVSPost2010Prop40
 90
        0
102
RTVSPost2010PropOp40
 70
     1
102
RTVSPost2010Prop41ColorIndex
 90
       18
102
RTVSPost2010Prop41ColorRGB
 90
        0
102
RTVSPost2010PropOp41
 70
     1
102
RTVSPost2010Prop42
 90
       50
102
RTVSPost2010PropOp42
 70
     1
102
RTVSPost2010Prop43
 90
        3
102
RTVSPost2010PropOp43
 70
     1
102
RTVSPost2010Prop44ColorIndex
 90
        5
102
RTVSPost2010Prop44ColorRGB
 90
      255
102
RTVSPost2010PropOp44
 70
     1
102
RTVSPost2010Prop45
280
     0
102
RTVSPost2010PropOp45
 70
     1
102
RTVSPost2010Prop46
 90
       50
102
RTVSPost2010PropOp46
 70
     1
102
RTVSPost2010Prop47
 90
       50
102
RTVSPost2010PropOp47
 70
     1
102
RTVSPost2010Prop48
 90
       50
102
RTVSPost2010PropOp48
 70
     1
102
RTVSPost2010Prop49
280
     0
102
RTVSPost2010PropOp49
 70
     1
102
RTVSPost2010Prop50
 90
       50
102
RTVSPost2010PropOp50
 70
     1
102
RTVSPost2010Prop51ColorIndex
 90
      256
102
RTVSPost2010Prop51ColorRGB
 90
-16777216
102
RTVSPost2010PropOp51
 70
     0
102
RTVSPost2010Prop52
140
1.0
102
RTVSPost2010PropOp52
 70
     0
102
RTVSPost2010Prop53
 90
        2
102
RTVSPost2010PropOp53
 70
     1
102
RTVSPost2010Prop54
  1
strokes_ogs.tif
102
RTVSPost2010PropOp54
 70
     1
102
RTVSPost2010Prop55
280
     0
102
RTVSPost2010PropOp55
 70
     1
102
RTVSPost2010Prop56
140
1.0
102
RTVSPost2010PropOp56
 70
     1
102
RTVSPost2010Prop57
140
1.0
102
RTVSPost2010PropOp57
 70
     1
102
RTVSPropertyOp0
 70
     1
102
RTVSPropertyOp1
 70
     1
102
RTVSPropertyOp2
 70
     1
102
RTVSPropertyOp3
 70
     1
102
RTVSPropertyOp4
 70
     1
102
RTVSPropertyOp5
 70
     1
102
RTVSPropertyOp6
 70
     1
102
RTVSPropertyOp7
 70
     1
102
RTVSPropertyOp8
 70
     1
102
RTVSPropertyOp9
 70
     1
102
RTVSPropertyOp10
 70
     1
102
RTVSPropertyOp11
 70
     1
102
RTVSPropertyOp12
 70
     1
102
RTVSPropertyOp13
 70
     1
102
RTVSPropertyOp14
 70
     1
102
RTVSPropertyOp15
 70
     1
102
RTVSPropertyOp16
 70
     1
102
RTVSPropertyOp17
 70
     1
102
RTVSPropertyOp18
 70
     1
102
RTVSPropertyOp19
 70
     1
102
RTVSPropertyOp20
 70
     1
102
RTVSPropertyOp21
 70
     1
102
RTVSPropertyOp22
 70
     1
102
RTVSPropertyOp23
 70
     1
102
RTVSPropertyOp24
 70
     1
102
RTVSPropertyOp25
 70
     1
102
RTVSPropertyOp26
 70
     1
102
RTVSPropertyOp27
 70
     1
102
RTVSPropertyOp28
 70
     1
102
RTVSPropertyOp29
 70
     1
102
RTVSPropertyOp30
 70
     1
102
RTVSPropertyOp31
 70
     1
102
RTVSPropertyOp32
 70
     1
102
RTVSPropertyOp33
 70
     1
102
RTVSPropertyOp34
 70
     1
102
RTVSPropertyOp35
 70
     1
102
RTVSPropertyOp36
 70
     1
102
RTVSPropertyOp37
 70
     1
102
RTVSPropertyOp38
 70
     1
102
RTVSPropertyOp39
 70
     1
102
RTVSPropertyOp40
 70
     1
102
RTVSPropertyOp41
 70
     1
102
RTVSPropertyOp42
 70
     1
102
RTVSPropertyOp43
 70
     1
102
RTVSPropertyOp44
 70
     1
102
RTVSPropertyOp45
 70
     1
102
RTVSPropertyOp46
 70
     1
102
RTVSPropertyOp47
 70
     1
102
RTVSPropertyOp48
 70
     1
102
RTVSPropertyOp49
 70
     1
102
RTVSPropertyOp50
 70
     1
102
RTVSPropertyOp51
 70
     0
102
RTVSPropertyOp52
 70
     0
102
RTVSPropertyOp53
 70
     1
102
RTVSPropertyOp54
 70
     1
102
RTVSPropertyOp55
 70
     1
102
RTVSPropertyOp56
 70
     1
102
RTVSPropertyOp57
 70
     1
102
RTVSPropertyOp58
 70
     1
102
RTVSPropertyOp59
 70
     1
102
RTVSPropertyOp60
 70
     1
102
RTVSPropertyOp61
 70
     1
102
RTVSPropertyOp62
 70
     1
  0
XRECORD
  5
AB47
102
{ACAD_REACTORS
330
AB46
102
}
330
AB46
100
AcDbXrecord
280
     1
102
RTVSPost2010Prop28
280
     0
102
RTVSPost2010PropOp28
 70
     1
102
RTVSPost2010Prop29
280
     1
102
RTVSPost2010PropOp29
 70
     1
102
RTVSPost2010Prop30
280
     1
102
RTVSPost2010PropOp30
 70
     1
102
RTVSPost2010Prop31
280
     0
102
RTVSPost2010PropOp31
 70
     1
102
RTVSPost2010Prop32
280
     0
102
RTVSPost2010PropOp32
 70
     1
102
RTVSPost2010Prop33
280
     0
102
RTVSPost2010PropOp33
 70
     1
102
RTVSPost2010Prop34
280
     0
102
RTVSPost2010PropOp34
 70
     1
102
RTVSPost2010Prop35
280
     0
102
RTVSPost2010PropOp35
 70
     1
102
RTVSPost2010Prop36
280
     0
102
RTVSPost2010PropOp36
 70
     1
102
RTVSPost2010Prop37
 90
       50
102
RTVSPost2010PropOp37
 70
     1
102
RTVSPost2010Prop38
140
0.0
102
RTVSPost2010PropOp38
 70
     1
102
RTVSPost2010Prop39
140
1.0
102
RTVSPost2010PropOp39
 70
     1
102
RTVSPost2010Prop40
 90
        0
102
RTVSPost2010PropOp40
 70
     1
102
RTVSPost2010Prop41ColorIndex
 90
       18
102
RTVSPost2010Prop41ColorRGB
 90
        0
102
RTVSPost2010PropOp41
 70
     1
102
RTVSPost2010Prop42
 90
       50
102
RTVSPost2010PropOp42
 70
     1
102
RTVSPost2010Prop43
 90
        3
102
RTVSPost2010PropOp43
 70
     1
102
RTVSPost2010Prop44ColorIndex
 90
        5
102
RTVSPost2010Prop44ColorRGB
 90
      255
102
RTVSPost2010PropOp44
 70
     1
102
RTVSPost2010Prop45
280
     0
102
RTVSPost2010PropOp45
 70
     1
102
RTVSPost2010Prop46
 90
       50
102
RTVSPost2010PropOp46
 70
     1
102
RTVSPost2010Prop47
 90
       50
102
RTVSPost2010PropOp47
 70
     1
102
RTVSPost2010Prop48
 90
       50
102
RTVSPost2010PropOp48
 70
     1
102
RTVSPost2010Prop49
280
     0
102
RTVSPost2010PropOp49
 70
     1
102
RTVSPost2010Prop50
 90
       50
102
RTVSPost2010PropOp50
 70
     1
102
RTVSPost2010Prop51ColorIndex
 90
      256
102
RTVSPost2010Prop51ColorRGB
 90
-16777216
102
RTVSPost2010PropOp51
 70
     0
102
RTVSPost2010Prop52
140
1.0
102
RTVSPost2010PropOp52
 70
     0
102
RTVSPost2010Prop53
 90
        2
102
RTVSPost2010PropOp53
 70
     1
102
RTVSPost2010Prop54
  1
strokes_ogs.tif
102
RTVSPost2010PropOp54
 70
     1
102
RTVSPost2010Prop55
280
     0
102
RTVSPost2010PropOp55
 70
     1
102
RTVSPost2010Prop56
140
1.0
102
RTVSPost2010PropOp56
 70
     1
102
RTVSPost2010Prop57
140
1.0
102
RTVSPost2010PropOp57
 70
     1
102
RTVSPropertyOp0
 70
     1
102
RTVSPropertyOp1
 70
     1
102
RTVSPropertyOp2
 70
     1
102
RTVSPropertyOp3
 70
     1
102
RTVSPropertyOp4
 70
     1
102
RTVSPropertyOp5
 70
     1
102
RTVSPropertyOp6
 70
     1
102
RTVSPropertyOp7
 70
     1
102
RTVSPropertyOp8
 70
     1
102
RTVSPropertyOp9
 70
     1
102
RTVSPropertyOp10
 70
     1
102
RTVSPropertyOp11
 70
     1
102
RTVSPropertyOp12
 70
     1
102
RTVSPropertyOp13
 70
     1
102
RTVSPropertyOp14
 70
     1
102
RTVSPropertyOp15
 70
     1
102
RTVSPropertyOp16
 70
     1
102
RTVSPropertyOp17
 70
     1
102
RTVSPropertyOp18
 70
     1
102
RTVSPropertyOp19
 70
     1
102
RTVSPropertyOp20
 70
     1
102
RTVSPropertyOp21
 70
     1
102
RTVSPropertyOp22
 70
     1
102
RTVSPropertyOp23
 70
     1
102
RTVSPropertyOp24
 70
     1
102
RTVSPropertyOp25
 70
     1
102
RTVSPropertyOp26
 70
     1
102
RTVSPropertyOp27
 70
     1
102
RTVSPropertyOp28
 70
     1
102
RTVSPropertyOp29
 70
     1
102
RTVSPropertyOp30
 70
     1
102
RTVSPropertyOp31
 70
     1
102
RTVSPropertyOp32
 70
     1
102
RTVSPropertyOp33
 70
     1
102
RTVSPropertyOp34
 70
     1
102
RTVSPropertyOp35
 70
     1
102
RTVSPropertyOp36
 70
     1
102
RTVSPropertyOp37
 70
     1
102
RTVSPropertyOp38
 70
     1
102
RTVSPropertyOp39
 70
     1
102
RTVSPropertyOp40
 70
     1
102
RTVSPropertyOp41
 70
     1
102
RTVSPropertyOp42
 70
     1
102
RTVSPropertyOp43
 70
     1
102
RTVSPropertyOp44
 70
     1
102
RTVSPropertyOp45
 70
     1
102
RTVSPropertyOp46
 70
     1
102
RTVSPropertyOp47
 70
     1
102
RTVSPropertyOp48
 70
     1
102
RTVSPropertyOp49
 70
     1
102
RTVSPropertyOp50
 70
     1
102
RTVSPropertyOp51
 70
     0
102
RTVSPropertyOp52
 70
     0
102
RTVSPropertyOp53
 70
     1
102
RTVSPropertyOp54
 70
     1
102
RTVSPropertyOp55
 70
     1
102
RTVSPropertyOp56
 70
     1
102
RTVSPropertyOp57
 70
     1
102
RTVSPropertyOp58
 70
     1
102
RTVSPropertyOp59
 70
     1
102
RTVSPropertyOp60
 70
     1
102
RTVSPropertyOp61
 70
     1
102
RTVSPropertyOp62
 70
     1
  0
XRECORD
  5
AB41
102
{ACAD_REACTORS
330
AB40
102
}
330
AB40
100
AcDbXrecord
280
     1
102
RTVSPost2010Prop28
280
     0
102
RTVSPost2010PropOp28
 70
     1
102
RTVSPost2010Prop29
280
     1
102
RTVSPost2010PropOp29
 70
     1
102
RTVSPost2010Prop30
280
     1
102
RTVSPost2010PropOp30
 70
     1
102
RTVSPost2010Prop31
280
     0
102
RTVSPost2010PropOp31
 70
     1
102
RTVSPost2010Prop32
280
     0
102
RTVSPost2010PropOp32
 70
     1
102
RTVSPost2010Prop33
280
     0
102
RTVSPost2010PropOp33
 70
     1
102
RTVSPost2010Prop34
280
     0
102
RTVSPost2010PropOp34
 70
     1
102
RTVSPost2010Prop35
280
     0
102
RTVSPost2010PropOp35
 70
     1
102
RTVSPost2010Prop36
280
     0
102
RTVSPost2010PropOp36
 70
     1
102
RTVSPost2010Prop37
 90
       50
102
RTVSPost2010PropOp37
 70
     1
102
RTVSPost2010Prop38
140
0.0
102
RTVSPost2010PropOp38
 70
     1
102
RTVSPost2010Prop39
140
1.0
102
RTVSPost2010PropOp39
 70
     1
102
RTVSPost2010Prop40
 90
        0
102
RTVSPost2010PropOp40
 70
     1
102
RTVSPost2010Prop41ColorIndex
 90
       18
102
RTVSPost2010Prop41ColorRGB
 90
        0
102
RTVSPost2010PropOp41
 70
     1
102
RTVSPost2010Prop42
 90
       50
102
RTVSPost2010PropOp42
 70
     1
102
RTVSPost2010Prop43
 90
        3
102
RTVSPost2010PropOp43
 70
     1
102
RTVSPost2010Prop44ColorIndex
 90
        5
102
RTVSPost2010Prop44ColorRGB
 90
      255
102
RTVSPost2010PropOp44
 70
     1
102
RTVSPost2010Prop45
280
     0
102
RTVSPost2010PropOp45
 70
     1
102
RTVSPost2010Prop46
 90
       50
102
RTVSPost2010PropOp46
 70
     1
102
RTVSPost2010Prop47
 90
       50
102
RTVSPost2010PropOp47
 70
     1
102
RTVSPost2010Prop48
 90
       50
102
RTVSPost2010PropOp48
 70
     1
102
RTVSPost2010Prop49
280
     0
102
RTVSPost2010PropOp49
 70
     1
102
RTVSPost2010Prop50
 90
       50
102
RTVSPost2010PropOp50
 70
     1
102
RTVSPost2010Prop51ColorIndex
 90
      256
102
RTVSPost2010Prop51ColorRGB
 90
-16777216
102
RTVSPost2010PropOp51
 70
     0
102
RTVSPost2010Prop52
140
1.0
102
RTVSPost2010PropOp52
 70
     0
102
RTVSPost2010Prop53
 90
        2
102
RTVSPost2010PropOp53
 70
     1
102
RTVSPost2010Prop54
  1
strokes_ogs.tif
102
RTVSPost2010PropOp54
 70
     1
102
RTVSPost2010Prop55
280
     0
102
RTVSPost2010PropOp55
 70
     1
102
RTVSPost2010Prop56
140
1.0
102
RTVSPost2010PropOp56
 70
     1
102
RTVSPost2010Prop57
140
1.0
102
RTVSPost2010PropOp57
 70
     1
102
RTVSPropertyOp0
 70
     1
102
RTVSPropertyOp1
 70
     1
102
RTVSPropertyOp2
 70
     1
102
RTVSPropertyOp3
 70
     1
102
RTVSPropertyOp4
 70
     1
102
RTVSPropertyOp5
 70
     1
102
RTVSPropertyOp6
 70
     1
102
RTVSPropertyOp7
 70
     1
102
RTVSPropertyOp8
 70
     1
102
RTVSPropertyOp9
 70
     1
102
RTVSPropertyOp10
 70
     1
102
RTVSPropertyOp11
 70
     1
102
RTVSPropertyOp12
 70
     1
102
RTVSPropertyOp13
 70
     1
102
RTVSPropertyOp14
 70
     1
102
RTVSPropertyOp15
 70
     1
102
RTVSPropertyOp16
 70
     1
102
RTVSPropertyOp17
 70
     1
102
RTVSPropertyOp18
 70
     1
102
RTVSPropertyOp19
 70
     1
102
RTVSPropertyOp20
 70
     1
102
RTVSPropertyOp21
 70
     1
102
RTVSPropertyOp22
 70
     1
102
RTVSPropertyOp23
 70
     1
102
RTVSPropertyOp24
 70
     1
102
RTVSPropertyOp25
 70
     1
102
RTVSPropertyOp26
 70
     1
102
RTVSPropertyOp27
 70
     1
102
RTVSPropertyOp28
 70
     1
102
RTVSPropertyOp29
 70
     1
102
RTVSPropertyOp30
 70
     1
102
RTVSPropertyOp31
 70
     1
102
RTVSPropertyOp32
 70
     1
102
RTVSPropertyOp33
 70
     1
102
RTVSPropertyOp34
 70
     1
102
RTVSPropertyOp35
 70
     1
102
RTVSPropertyOp36
 70
     1
102
RTVSPropertyOp37
 70
     1
102
RTVSPropertyOp38
 70
     1
102
RTVSPropertyOp39
 70
     1
102
RTVSPropertyOp40
 70
     1
102
RTVSPropertyOp41
 70
     1
102
RTVSPropertyOp42
 70
     1
102
RTVSPropertyOp43
 70
     1
102
RTVSPropertyOp44
 70
     1
102
RTVSPropertyOp45
 70
     1
102
RTVSPropertyOp46
 70
     1
102
RTVSPropertyOp47
 70
     1
102
RTVSPropertyOp48
 70
     1
102
RTVSPropertyOp49
 70
     1
102
RTVSPropertyOp50
 70
     1
102
RTVSPropertyOp51
 70
     0
102
RTVSPropertyOp52
 70
     0
102
RTVSPropertyOp53
 70
     1
102
RTVSPropertyOp54
 70
     1
102
RTVSPropertyOp55
 70
     1
102
RTVSPropertyOp56
 70
     1
102
RTVSPropertyOp57
 70
     1
102
RTVSPropertyOp58
 70
     1
102
RTVSPropertyOp59
 70
     1
102
RTVSPropertyOp60
 70
     1
102
RTVSPropertyOp61
 70
     1
102
RTVSPropertyOp62
 70
     1
  0
XRECORD
  5
AB43
102
{ACAD_REACTORS
330
AB42
102
}
330
AB42
100
AcDbXrecord
280
     1
102
RTVSPost2010Prop28
280
     0
102
RTVSPost2010PropOp28
 70
     1
102
RTVSPost2010Prop29
280
     1
102
RTVSPost2010PropOp29
 70
     1
102
RTVSPost2010Prop30
280
     1
102
RTVSPost2010PropOp30
 70
     1
102
RTVSPost2010Prop31
280
     0
102
RTVSPost2010PropOp31
 70
     1
102
RTVSPost2010Prop32
280
     0
102
RTVSPost2010PropOp32
 70
     1
102
RTVSPost2010Prop33
280
     0
102
RTVSPost2010PropOp33
 70
     1
102
RTVSPost2010Prop34
280
     0
102
RTVSPost2010PropOp34
 70
     1
102
RTVSPost2010Prop35
280
     0
102
RTVSPost2010PropOp35
 70
     1
102
RTVSPost2010Prop36
280
     0
102
RTVSPost2010PropOp36
 70
     1
102
RTVSPost2010Prop37
 90
       50
102
RTVSPost2010PropOp37
 70
     1
102
RTVSPost2010Prop38
140
0.0
102
RTVSPost2010PropOp38
 70
     1
102
RTVSPost2010Prop39
140
1.0
102
RTVSPost2010PropOp39
 70
     1
102
RTVSPost2010Prop40
 90
        0
102
RTVSPost2010PropOp40
 70
     1
102
RTVSPost2010Prop41ColorIndex
 90
       18
102
RTVSPost2010Prop41ColorRGB
 90
        0
102
RTVSPost2010PropOp41
 70
     1
102
RTVSPost2010Prop42
 90
       50
102
RTVSPost2010PropOp42
 70
     1
102
RTVSPost2010Prop43
 90
        3
102
RTVSPost2010PropOp43
 70
     1
102
RTVSPost2010Prop44ColorIndex
 90
        5
102
RTVSPost2010Prop44ColorRGB
 90
      255
102
RTVSPost2010PropOp44
 70
     1
102
RTVSPost2010Prop45
280
     0
102
RTVSPost2010PropOp45
 70
     1
102
RTVSPost2010Prop46
 90
       50
102
RTVSPost2010PropOp46
 70
     1
102
RTVSPost2010Prop47
 90
       50
102
RTVSPost2010PropOp47
 70
     1
102
RTVSPost2010Prop48
 90
       50
102
RTVSPost2010PropOp48
 70
     1
102
RTVSPost2010Prop49
280
     0
102
RTVSPost2010PropOp49
 70
     1
102
RTVSPost2010Prop50
 90
       50
102
RTVSPost2010PropOp50
 70
     1
102
RTVSPost2010Prop51ColorIndex
 90
      256
102
RTVSPost2010Prop51ColorRGB
 90
-16777216
102
RTVSPost2010PropOp51
 70
     0
102
RTVSPost2010Prop52
140
1.0
102
RTVSPost2010PropOp52
 70
     0
102
RTVSPost2010Prop53
 90
        2
102
RTVSPost2010PropOp53
 70
     1
102
RTVSPost2010Prop54
  1
strokes_ogs.tif
102
RTVSPost2010PropOp54
 70
     1
102
RTVSPost2010Prop55
280
     0
102
RTVSPost2010PropOp55
 70
     1
102
RTVSPost2010Prop56
140
1.0
102
RTVSPost2010PropOp56
 70
     1
102
RTVSPost2010Prop57
140
1.0
102
RTVSPost2010PropOp57
 70
     1
102
RTVSPropertyOp0
 70
     1
102
RTVSPropertyOp1
 70
     1
102
RTVSPropertyOp2
 70
     1
102
RTVSPropertyOp3
 70
     1
102
RTVSPropertyOp4
 70
     1
102
RTVSPropertyOp5
 70
     1
102
RTVSPropertyOp6
 70
     1
102
RTVSPropertyOp7
 70
     1
102
RTVSPropertyOp8
 70
     1
102
RTVSPropertyOp9
 70
     1
102
RTVSPropertyOp10
 70
     1
102
RTVSPropertyOp11
 70
     1
102
RTVSPropertyOp12
 70
     1
102
RTVSPropertyOp13
 70
     1
102
RTVSPropertyOp14
 70
     1
102
RTVSPropertyOp15
 70
     1
102
RTVSPropertyOp16
 70
     1
102
RTVSPropertyOp17
 70
     1
102
RTVSPropertyOp18
 70
     1
102
RTVSPropertyOp19
 70
     1
102
RTVSPropertyOp20
 70
     1
102
RTVSPropertyOp21
 70
     1
102
RTVSPropertyOp22
 70
     1
102
RTVSPropertyOp23
 70
     1
102
RTVSPropertyOp24
 70
     1
102
RTVSPropertyOp25
 70
     1
102
RTVSPropertyOp26
 70
     1
102
RTVSPropertyOp27
 70
     1
102
RTVSPropertyOp28
 70
     1
102
RTVSPropertyOp29
 70
     1
102
RTVSPropertyOp30
 70
     1
102
RTVSPropertyOp31
 70
     1
102
RTVSPropertyOp32
 70
     1
102
RTVSPropertyOp33
 70
     1
102
RTVSPropertyOp34
 70
     1
102
RTVSPropertyOp35
 70
     1
102
RTVSPropertyOp36
 70
     1
102
RTVSPropertyOp37
 70
     1
102
RTVSPropertyOp38
 70
     1
102
RTVSPropertyOp39
 70
     1
102
RTVSPropertyOp40
 70
     1
102
RTVSPropertyOp41
 70
     1
102
RTVSPropertyOp42
 70
     1
102
RTVSPropertyOp43
 70
     1
102
RTVSPropertyOp44
 70
     1
102
RTVSPropertyOp45
 70
     1
102
RTVSPropertyOp46
 70
     1
102
RTVSPropertyOp47
 70
     1
102
RTVSPropertyOp48
 70
     1
102
RTVSPropertyOp49
 70
     1
102
RTVSPropertyOp50
 70
     1
102
RTVSPropertyOp51
 70
     0
102
RTVSPropertyOp52
 70
     0
102
RTVSPropertyOp53
 70
     1
102
RTVSPropertyOp54
 70
     1
102
RTVSPropertyOp55
 70
     1
102
RTVSPropertyOp56
 70
     1
102
RTVSPropertyOp57
 70
     1
102
RTVSPropertyOp58
 70
     1
102
RTVSPropertyOp59
 70
     1
102
RTVSPropertyOp60
 70
     1
102
RTVSPropertyOp61
 70
     1
102
RTVSPropertyOp62
 70
     1
  0
XRECORD
  5
AB39
102
{ACAD_REACTORS
330
AB38
102
}
330
AB38
100
AcDbXrecord
280
     1
102
RTVSPost2010Prop28
280
     0
102
RTVSPost2010PropOp28
 70
     1
102
RTVSPost2010Prop29
280
     1
102
RTVSPost2010PropOp29
 70
     1
102
RTVSPost2010Prop30
280
     1
102
RTVSPost2010PropOp30
 70
     1
102
RTVSPost2010Prop31
280
     0
102
RTVSPost2010PropOp31
 70
     1
102
RTVSPost2010Prop32
280
     0
102
RTVSPost2010PropOp32
 70
     1
102
RTVSPost2010Prop33
280
     0
102
RTVSPost2010PropOp33
 70
     1
102
RTVSPost2010Prop34
280
     0
102
RTVSPost2010PropOp34
 70
     1
102
RTVSPost2010Prop35
280
     0
102
RTVSPost2010PropOp35
 70
     1
102
RTVSPost2010Prop36
280
     0
102
RTVSPost2010PropOp36
 70
     1
102
RTVSPost2010Prop37
 90
       50
102
RTVSPost2010PropOp37
 70
     1
102
RTVSPost2010Prop38
140
0.0
102
RTVSPost2010PropOp38
 70
     1
102
RTVSPost2010Prop39
140
1.0
102
RTVSPost2010PropOp39
 70
     1
102
RTVSPost2010Prop40
 90
        0
102
RTVSPost2010PropOp40
 70
     1
102
RTVSPost2010Prop41ColorIndex
 90
       18
102
RTVSPost2010Prop41ColorRGB
 90
        0
102
RTVSPost2010PropOp41
 70
     1
102
RTVSPost2010Prop42
 90
       50
102
RTVSPost2010PropOp42
 70
     1
102
RTVSPost2010Prop43
 90
        3
102
RTVSPost2010PropOp43
 70
     1
102
RTVSPost2010Prop44ColorIndex
 90
        5
102
RTVSPost2010Prop44ColorRGB
 90
      255
102
RTVSPost2010PropOp44
 70
     1
102
RTVSPost2010Prop45
280
     0
102
RTVSPost2010PropOp45
 70
     1
102
RTVSPost2010Prop46
 90
       50
102
RTVSPost2010PropOp46
 70
     1
102
RTVSPost2010Prop47
 90
       50
102
RTVSPost2010PropOp47
 70
     1
102
RTVSPost2010Prop48
 90
       50
102
RTVSPost2010PropOp48
 70
     1
102
RTVSPost2010Prop49
280
     0
102
RTVSPost2010PropOp49
 70
     1
102
RTVSPost2010Prop50
 90
       50
102
RTVSPost2010PropOp50
 70
     1
102
RTVSPost2010Prop51ColorIndex
 90
      256
102
RTVSPost2010Prop51ColorRGB
 90
-16777216
102
RTVSPost2010PropOp51
 70
     0
102
RTVSPost2010Prop52
140
1.0
102
RTVSPost2010PropOp52
 70
     0
102
RTVSPost2010Prop53
 90
        2
102
RTVSPost2010PropOp53
 70
     1
102
RTVSPost2010Prop54
  1
strokes_ogs.tif
102
RTVSPost2010PropOp54
 70
     1
102
RTVSPost2010Prop55
280
     0
102
RTVSPost2010PropOp55
 70
     1
102
RTVSPost2010Prop56
140
1.0
102
RTVSPost2010PropOp56
 70
     1
102
RTVSPost2010Prop57
140
1.0
102
RTVSPost2010PropOp57
 70
     1
102
RTVSPropertyOp0
 70
     1
102
RTVSPropertyOp1
 70
     1
102
RTVSPropertyOp2
 70
     1
102
RTVSPropertyOp3
 70
     1
102
RTVSPropertyOp4
 70
     1
102
RTVSPropertyOp5
 70
     1
102
RTVSPropertyOp6
 70
     1
102
RTVSPropertyOp7
 70
     1
102
RTVSPropertyOp8
 70
     1
102
RTVSPropertyOp9
 70
     1
102
RTVSPropertyOp10
 70
     1
102
RTVSPropertyOp11
 70
     1
102
RTVSPropertyOp12
 70
     1
102
RTVSPropertyOp13
 70
     1
102
RTVSPropertyOp14
 70
     1
102
RTVSPropertyOp15
 70
     1
102
RTVSPropertyOp16
 70
     1
102
RTVSPropertyOp17
 70
     1
102
RTVSPropertyOp18
 70
     1
102
RTVSPropertyOp19
 70
     1
102
RTVSPropertyOp20
 70
     1
102
RTVSPropertyOp21
 70
     1
102
RTVSPropertyOp22
 70
     1
102
RTVSPropertyOp23
 70
     1
102
RTVSPropertyOp24
 70
     1
102
RTVSPropertyOp25
 70
     1
102
RTVSPropertyOp26
 70
     1
102
RTVSPropertyOp27
 70
     1
102
RTVSPropertyOp28
 70
     1
102
RTVSPropertyOp29
 70
     1
102
RTVSPropertyOp30
 70
     1
102
RTVSPropertyOp31
 70
     1
102
RTVSPropertyOp32
 70
     1
102
RTVSPropertyOp33
 70
     1
102
RTVSPropertyOp34
 70
     1
102
RTVSPropertyOp35
 70
     1
102
RTVSPropertyOp36
 70
     1
102
RTVSPropertyOp37
 70
     1
102
RTVSPropertyOp38
 70
     1
102
RTVSPropertyOp39
 70
     1
102
RTVSPropertyOp40
 70
     1
102
RTVSPropertyOp41
 70
     1
102
RTVSPropertyOp42
 70
     1
102
RTVSPropertyOp43
 70
     1
102
RTVSPropertyOp44
 70
     1
102
RTVSPropertyOp45
 70
     1
102
RTVSPropertyOp46
 70
     1
102
RTVSPropertyOp47
 70
     1
102
RTVSPropertyOp48
 70
     1
102
RTVSPropertyOp49
 70
     1
102
RTVSPropertyOp50
 70
     1
102
RTVSPropertyOp51
 70
     0
102
RTVSPropertyOp52
 70
     0
102
RTVSPropertyOp53
 70
     1
102
RTVSPropertyOp54
 70
     1
102
RTVSPropertyOp55
 70
     1
102
RTVSPropertyOp56
 70
     1
102
RTVSPropertyOp57
 70
     1
102
RTVSPropertyOp58
 70
     1
102
RTVSPropertyOp59
 70
     1
102
RTVSPropertyOp60
 70
     1
102
RTVSPropertyOp61
 70
     1
102
RTVSPropertyOp62
 70
     1
  0
XRECORD
  5
AB2D
102
{ACAD_REACTORS
330
AB2C
102
}
330
AB2C
100
AcDbXrecord
280
     1
102
RTVSPost2010Prop28
280
     0
102
RTVSPost2010PropOp28
 70
     1
102
RTVSPost2010Prop29
280
     1
102
RTVSPost2010PropOp29
 70
     1
102
RTVSPost2010Prop30
280
     1
102
RTVSPost2010PropOp30
 70
     1
102
RTVSPost2010Prop31
280
     0
102
RTVSPost2010PropOp31
 70
     1
102
RTVSPost2010Prop32
280
     0
102
RTVSPost2010PropOp32
 70
     1
102
RTVSPost2010Prop33
280
     0
102
RTVSPost2010PropOp33
 70
     1
102
RTVSPost2010Prop34
280
     0
102
RTVSPost2010PropOp34
 70
     1
102
RTVSPost2010Prop35
280
     0
102
RTVSPost2010PropOp35
 70
     1
102
RTVSPost2010Prop36
280
     0
102
RTVSPost2010PropOp36
 70
     1
102
RTVSPost2010Prop37
 90
       50
102
RTVSPost2010PropOp37
 70
     1
102
RTVSPost2010Prop38
140
0.0
102
RTVSPost2010PropOp38
 70
     1
102
RTVSPost2010Prop39
140
1.0
102
RTVSPost2010PropOp39
 70
     1
102
RTVSPost2010Prop40
 90
        0
102
RTVSPost2010PropOp40
 70
     1
102
RTVSPost2010Prop41ColorIndex
 90
       18
102
RTVSPost2010Prop41ColorRGB
 90
        0
102
RTVSPost2010PropOp41
 70
     1
102
RTVSPost2010Prop42
 90
       50
102
RTVSPost2010PropOp42
 70
     1
102
RTVSPost2010Prop43
 90
        3
102
RTVSPost2010PropOp43
 70
     1
102
RTVSPost2010Prop44ColorIndex
 90
        5
102
RTVSPost2010Prop44ColorRGB
 90
      255
102
RTVSPost2010PropOp44
 70
     1
102
RTVSPost2010Prop45
280
     0
102
RTVSPost2010PropOp45
 70
     1
102
RTVSPost2010Prop46
 90
       50
102
RTVSPost2010PropOp46
 70
     1
102
RTVSPost2010Prop47
 90
       50
102
RTVSPost2010PropOp47
 70
     1
102
RTVSPost2010Prop48
 90
       50
102
RTVSPost2010PropOp48
 70
     1
102
RTVSPost2010Prop49
280
     0
102
RTVSPost2010PropOp49
 70
     1
102
RTVSPost2010Prop50
 90
       50
102
RTVSPost2010PropOp50
 70
     1
102
RTVSPost2010Prop51ColorIndex
 90
      256
102
RTVSPost2010Prop51ColorRGB
 90
-16777216
102
RTVSPost2010PropOp51
 70
     0
102
RTVSPost2010Prop52
140
1.0
102
RTVSPost2010PropOp52
 70
     0
102
RTVSPost2010Prop53
 90
        2
102
RTVSPost2010PropOp53
 70
     1
102
RTVSPost2010Prop54
  1
strokes_ogs.tif
102
RTVSPost2010PropOp54
 70
     1
102
RTVSPost2010Prop55
280
     0
102
RTVSPost2010PropOp55
 70
     1
102
RTVSPost2010Prop56
140
1.0
102
RTVSPost2010PropOp56
 70
     1
102
RTVSPost2010Prop57
140
1.0
102
RTVSPost2010PropOp57
 70
     1
102
RTVSPropertyOp0
 70
     1
102
RTVSPropertyOp1
 70
     1
102
RTVSPropertyOp2
 70
     1
102
RTVSPropertyOp3
 70
     1
102
RTVSPropertyOp4
 70
     1
102
RTVSPropertyOp5
 70
     1
102
RTVSPropertyOp6
 70
     1
102
RTVSPropertyOp7
 70
     1
102
RTVSPropertyOp8
 70
     1
102
RTVSPropertyOp9
 70
     1
102
RTVSPropertyOp10
 70
     1
102
RTVSPropertyOp11
 70
     1
102
RTVSPropertyOp12
 70
     1
102
RTVSPropertyOp13
 70
     1
102
RTVSPropertyOp14
 70
     1
102
RTVSPropertyOp15
 70
     1
102
RTVSPropertyOp16
 70
     1
102
RTVSPropertyOp17
 70
     1
102
RTVSPropertyOp18
 70
     1
102
RTVSPropertyOp19
 70
     1
102
RTVSPropertyOp20
 70
     1
102
RTVSPropertyOp21
 70
     1
102
RTVSPropertyOp22
 70
     1
102
RTVSPropertyOp23
 70
     1
102
RTVSPropertyOp24
 70
     1
102
RTVSPropertyOp25
 70
     1
102
RTVSPropertyOp26
 70
     1
102
RTVSPropertyOp27
 70
     1
102
RTVSPropertyOp28
 70
     1
102
RTVSPropertyOp29
 70
     1
102
RTVSPropertyOp30
 70
     1
102
RTVSPropertyOp31
 70
     1
102
RTVSPropertyOp32
 70
     1
102
RTVSPropertyOp33
 70
     1
102
RTVSPropertyOp34
 70
     1
102
RTVSPropertyOp35
 70
     1
102
RTVSPropertyOp36
 70
     1
102
RTVSPropertyOp37
 70
     1
102
RTVSPropertyOp38
 70
     1
102
RTVSPropertyOp39
 70
     1
102
RTVSPropertyOp40
 70
     1
102
RTVSPropertyOp41
 70
     1
102
RTVSPropertyOp42
 70
     1
102
RTVSPropertyOp43
 70
     1
102
RTVSPropertyOp44
 70
     1
102
RTVSPropertyOp45
 70
     1
102
RTVSPropertyOp46
 70
     1
102
RTVSPropertyOp47
 70
     1
102
RTVSPropertyOp48
 70
     1
102
RTVSPropertyOp49
 70
     1
102
RTVSPropertyOp50
 70
     1
102
RTVSPropertyOp51
 70
     0
102
RTVSPropertyOp52
 70
     0
102
RTVSPropertyOp53
 70
     1
102
RTVSPropertyOp54
 70
     1
102
RTVSPropertyOp55
 70
     1
102
RTVSPropertyOp56
 70
     1
102
RTVSPropertyOp57
 70
     1
102
RTVSPropertyOp58
 70
     1
102
RTVSPropertyOp59
 70
     1
102
RTVSPropertyOp60
 70
     1
102
RTVSPropertyOp61
 70
     1
102
RTVSPropertyOp62
 70
     1
  0
XRECORD
  5
AB45
102
{ACAD_REACTORS
330
AB44
102
}
330
AB44
100
AcDbXrecord
280
     1
102
RTVSPost2010Prop28
280
     0
102
RTVSPost2010PropOp28
 70
     1
102
RTVSPost2010Prop29
280
     1
102
RTVSPost2010PropOp29
 70
     1
102
RTVSPost2010Prop30
280
     1
102
RTVSPost2010PropOp30
 70
     1
102
RTVSPost2010Prop31
280
     0
102
RTVSPost2010PropOp31
 70
     1
102
RTVSPost2010Prop32
280
     0
102
RTVSPost2010PropOp32
 70
     1
102
RTVSPost2010Prop33
280
     0
102
RTVSPost2010PropOp33
 70
     1
102
RTVSPost2010Prop34
280
     0
102
RTVSPost2010PropOp34
 70
     1
102
RTVSPost2010Prop35
280
     0
102
RTVSPost2010PropOp35
 70
     1
102
RTVSPost2010Prop36
280
     0
102
RTVSPost2010PropOp36
 70
     1
102
RTVSPost2010Prop37
 90
       50
102
RTVSPost2010PropOp37
 70
     1
102
RTVSPost2010Prop38
140
0.0
102
RTVSPost2010PropOp38
 70
     1
102
RTVSPost2010Prop39
140
1.0
102
RTVSPost2010PropOp39
 70
     1
102
RTVSPost2010Prop40
 90
        0
102
RTVSPost2010PropOp40
 70
     1
102
RTVSPost2010Prop41ColorIndex
 90
       18
102
RTVSPost2010Prop41ColorRGB
 90
        0
102
RTVSPost2010PropOp41
 70
     1
102
RTVSPost2010Prop42
 90
       50
102
RTVSPost2010PropOp42
 70
     1
102
RTVSPost2010Prop43
 90
        3
102
RTVSPost2010PropOp43
 70
     1
102
RTVSPost2010Prop44ColorIndex
 90
        5
102
RTVSPost2010Prop44ColorRGB
 90
      255
102
RTVSPost2010PropOp44
 70
     1
102
RTVSPost2010Prop45
280
     0
102
RTVSPost2010PropOp45
 70
     1
102
RTVSPost2010Prop46
 90
       50
102
RTVSPost2010PropOp46
 70
     1
102
RTVSPost2010Prop47
 90
       50
102
RTVSPost2010PropOp47
 70
     1
102
RTVSPost2010Prop48
 90
       50
102
RTVSPost2010PropOp48
 70
     1
102
RTVSPost2010Prop49
280
     0
102
RTVSPost2010PropOp49
 70
     1
102
RTVSPost2010Prop50
 90
       50
102
RTVSPost2010PropOp50
 70
     1
102
RTVSPost2010Prop51ColorIndex
 90
      256
102
RTVSPost2010Prop51ColorRGB
 90
-16777216
102
RTVSPost2010PropOp51
 70
     0
102
RTVSPost2010Prop52
140
1.0
102
RTVSPost2010PropOp52
 70
     0
102
RTVSPost2010Prop53
 90
        2
102
RTVSPost2010PropOp53
 70
     1
102
RTVSPost2010Prop54
  1
strokes_ogs.tif
102
RTVSPost2010PropOp54
 70
     1
102
RTVSPost2010Prop55
280
     0
102
RTVSPost2010PropOp55
 70
     1
102
RTVSPost2010Prop56
140
1.0
102
RTVSPost2010PropOp56
 70
     1
102
RTVSPost2010Prop57
140
1.0
102
RTVSPost2010PropOp57
 70
     1
102
RTVSPropertyOp0
 70
     1
102
RTVSPropertyOp1
 70
     1
102
RTVSPropertyOp2
 70
     1
102
RTVSPropertyOp3
 70
     1
102
RTVSPropertyOp4
 70
     1
102
RTVSPropertyOp5
 70
     1
102
RTVSPropertyOp6
 70
     1
102
RTVSPropertyOp7
 70
     1
102
RTVSPropertyOp8
 70
     1
102
RTVSPropertyOp9
 70
     1
102
RTVSPropertyOp10
 70
     1
102
RTVSPropertyOp11
 70
     1
102
RTVSPropertyOp12
 70
     1
102
RTVSPropertyOp13
 70
     1
102
RTVSPropertyOp14
 70
     1
102
RTVSPropertyOp15
 70
     1
102
RTVSPropertyOp16
 70
     1
102
RTVSPropertyOp17
 70
     1
102
RTVSPropertyOp18
 70
     1
102
RTVSPropertyOp19
 70
     1
102
RTVSPropertyOp20
 70
     1
102
RTVSPropertyOp21
 70
     1
102
RTVSPropertyOp22
 70
     1
102
RTVSPropertyOp23
 70
     1
102
RTVSPropertyOp24
 70
     1
102
RTVSPropertyOp25
 70
     1
102
RTVSPropertyOp26
 70
     1
102
RTVSPropertyOp27
 70
     1
102
RTVSPropertyOp28
 70
     1
102
RTVSPropertyOp29
 70
     1
102
RTVSPropertyOp30
 70
     1
102
RTVSPropertyOp31
 70
     1
102
RTVSPropertyOp32
 70
     1
102
RTVSPropertyOp33
 70
     1
102
RTVSPropertyOp34
 70
     1
102
RTVSPropertyOp35
 70
     1
102
RTVSPropertyOp36
 70
     1
102
RTVSPropertyOp37
 70
     1
102
RTVSPropertyOp38
 70
     1
102
RTVSPropertyOp39
 70
     1
102
RTVSPropertyOp40
 70
     1
102
RTVSPropertyOp41
 70
     1
102
RTVSPropertyOp42
 70
     1
102
RTVSPropertyOp43
 70
     1
102
RTVSPropertyOp44
 70
     1
102
RTVSPropertyOp45
 70
     1
102
RTVSPropertyOp46
 70
     1
102
RTVSPropertyOp47
 70
     1
102
RTVSPropertyOp48
 70
     1
102
RTVSPropertyOp49
 70
     1
102
RTVSPropertyOp50
 70
     1
102
RTVSPropertyOp51
 70
     0
102
RTVSPropertyOp52
 70
     0
102
RTVSPropertyOp53
 70
     1
102
RTVSPropertyOp54
 70
     1
102
RTVSPropertyOp55
 70
     1
102
RTVSPropertyOp56
 70
     1
102
RTVSPropertyOp57
 70
     1
102
RTVSPropertyOp58
 70
     1
102
RTVSPropertyOp59
 70
     1
102
RTVSPropertyOp60
 70
     1
102
RTVSPropertyOp61
 70
     1
102
RTVSPropertyOp62
 70
     1
  0
ENDSEC
  0
EOF
