  0
SECTION
  2
HEADER
  9
$ACADVER
  1
AC1015
  9
$ACADMAINTVER
 70
    20
  9
$DWGCODEPAGE
  3
ANSI_932
  9
$INSBASE
 10
0.0
 20
0.0
 30
0.0
  9
$EXTMIN
 10
10.000001
 20
10.000001
 30
0.0
  9
$EXTMAX
 10
422.638457
 20
267.406131
 30
0.0
  9
$LIMMIN
 10
0.0
 20
0.0
  9
$LIMMAX
 10
495.0
 20
341.25
  9
$ORTHOMODE
 70
     0
  9
$REGENMODE
 70
     1
  9
$FILLMODE
 70
     1
  9
$QTEXTMODE
 70
     0
  9
$MIRRTEXT
 70
     1
  9
$LTSCALE
 40
20.0
  9
$ATTMODE
 70
     1
  9
$TEXTSIZE
 40
5.0
  9
$TRACEWID
 40
1.0
  9
$TEXTSTYLE
  7
STANDARD
  9
$CLAYER
  8
0
  9
$CELTYPE
  6
BYLAYER
  9
$CECOLOR
 62
   256
  9
$CELTSCALE
 40
1.0
  9
$DISPSILH
 70
     0
  9
$DIMSCALE
 40
1.0
  9
$DIMASZ
 40
2.5
  9
$DIMEXO
 40
1.0
  9
$DIMDLI
 40
10.0
  9
$DIMRND
 40
0.0
  9
$DIMDLE
 40
0.0
  9
$DIMEXE
 40
1.0
  9
$DIMTP
 40
0.0
  9
$DIMTM
 40
0.0
  9
$DIMTXT
 40
3.2
  9
$DIMCEN
 40
0.0
  9
$DIMTSZ
 40
0.0
  9
$DIMTOL
 70
     0
  9
$DIMLIM
 70
     0
  9
$DIMTIH
 70
     0
  9
$DIMTOH
 70
     0
  9
$DIMSE1
 70
     0
  9
$DIMSE2
 70
     0
  9
$DIMTAD
 70
     3
  9
$DIMZIN
 70
     8
  9
$DIMBLK
  1

  9
$DIMASO
 70
     1
  9
$DIMSHO
 70
     1
  9
$DIMPOST
  1

  9
$DIMAPOST
  1

  9
$DIMALT
 70
     0
  9
$DIMALTD
 70
     2
  9
$DIMALTF
 40
25.4
  9
$DIMLFAC
 40
1.0
  9
$DIMTOFL
 70
     1
  9
$DIMTVP
 40
0.0
  9
$DIMTIX
 70
     0
  9
$DIMSOXD
 70
     0
  9
$DIMSAH
 70
     1
  9
$DIMBLK1
  1
OPEN
  9
$DIMBLK2
  1
OPEN
  9
$DIMSTYLE
  2
STANDARD
  9
$DIMCLRD
 70
     0
  9
$DIMCLRE
 70
     0
  9
$DIMCLRT
 70
     0
  9
$DIMTFAC
 40
1.0
  9
$DIMGAP
 40
1.0
  9
$DIMJUST
 70
     0
  9
$DIMSD1
 70
     0
  9
$DIMSD2
 70
     0
  9
$DIMTOLJ
 70
     1
  9
$DIMTZIN
 70
     0
  9
$DIMALTZ
 70
     0
  9
$DIMALTTZ
 70
     0
  9
$DIMUPT
 70
     0
  9
$DIMDEC
 70
     4
  9
$DIMTDEC
 70
     4
  9
$DIMALTU
 70
     2
  9
$DIMALTTD
 70
     2
  9
$DIMTXSTY
  7
STANDARD
  9
$DIMAUNIT
 70
     0
  9
$DIMADEC
 70
     0
  9
$DIMALTRND
 40
0.0
  9
$DIMAZIN
 70
     0
  9
$DIMDSEP
 70
    46
  9
$DIMATFIT
 70
     3
  9
$DIMFRAC
 70
     0
  9
$DIMLDRBLK
  1
OPEN
  9
$DIMLUNIT
 70
     2
  9
$DIMLWD
 70
    -2
  9
$DIMLWE
 70
    -2
  9
$DIMTMOVE
 70
     0
  9
$LUNITS
 70
     2
  9
$LUPREC
 70
     4
  9
$SKETCHINC
 40
1.0
  9
$FILLETRAD
 40
2.5
  9
$AUNITS
 70
     0
  9
$AUPREC
 70
     2
  9
$MENU
  1
.
  9
$ELEVATION
 40
0.0
  9
$PELEVATION
 40
0.0
  9
$THICKNESS
 40
0.0
  9
$LIMCHECK
 70
     0
  9
$CHAMFERA
 40
10.0
  9
$CHAMFERB
 40
10.0
  9
$CHAMFERC
 40
0.0
  9
$CHAMFERD
 40
0.0
  9
$SKPOLY
 70
     0
  9
$TDCREATE
 40
2451345.476611458
  9
$TDUCREATE
 40
2451345.101611458
  9
$TDUPDATE
 40
2457192.601371285
  9
$TDUUPDATE
 40
2457192.226371285
  9
$TDINDWG
 40
0.0000167130
  9
$TDUSRTIMER
 40
0.0000158796
  9
$USRTIMER
 70
     1
  9
$ANGBASE
 50
0.0
  9
$ANGDIR
 70
     0
  9
$PDMODE
 70
     0
  9
$PDSIZE
 40
0.0
  9
$PLINEWID
 40
0.0
  9
$SPLFRAME
 70
     0
  9
$SPLINETYPE
 70
     6
  9
$SPLINESEGS
 70
     8
  9
$HANDSEED
  5
B2D0
  9
$SURFTAB1
 70
     6
  9
$SURFTAB2
 70
     6
  9
$SURFTYPE
 70
     6
  9
$SURFU
 70
     6
  9
$SURFV
 70
     6
  9
$UCSBASE
  2

  9
$UCSNAME
  2

  9
$UCSORG
 10
0.0
 20
0.0
 30
0.0
  9
$UCSXDIR
 10
1.0
 20
0.0
 30
0.0
  9
$UCSYDIR
 10
0.0
 20
1.0
 30
0.0
  9
$UCSORTHOREF
  2

  9
$UCSORTHOVIEW
 70
     0
  9
$UCSORGTOP
 10
0.0
 20
0.0
 30
0.0
  9
$UCSORGBOTTOM
 10
0.0
 20
0.0
 30
0.0
  9
$UCSORGLEFT
 10
0.0
 20
0.0
 30
0.0
  9
$UCSORGRIGHT
 10
0.0
 20
0.0
 30
0.0
  9
$UCSORGFRONT
 10
0.0
 20
0.0
 30
0.0
  9
$UCSORGBACK
 10
0.0
 20
0.0
 30
0.0
  9
$PUCSBASE
  2

  9
$PUCSNAME
  2

  9
$PUCSORG
 10
0.0
 20
0.0
 30
0.0
  9
$PUCSXDIR
 10
1.0
 20
0.0
 30
0.0
  9
$PUCSYDIR
 10
0.0
 20
1.0
 30
0.0
  9
$PUCSORTHOREF
  2

  9
$PUCSORTHOVIEW
 70
     0
  9
$PUCSORGTOP
 10
0.0
 20
0.0
 30
0.0
  9
$PUCSORGBOTTOM
 10
0.0
 20
0.0
 30
0.0
  9
$PUCSORGLEFT
 10
0.0
 20
0.0
 30
0.0
  9
$PUCSORGRIGHT
 10
0.0
 20
0.0
 30
0.0
  9
$PUCSORGFRONT
 10
0.0
 20
0.0
 30
0.0
  9
$PUCSORGBACK
 10
0.0
 20
0.0
 30
0.0
  9
$USERI1
 70
     0
  9
$USERI2
 70
     0
  9
$USERI3
 70
     0
  9
$USERI4
 70
     0
  9
$USERI5
 70
     0
  9
$USERR1
 40
0.0
  9
$USERR2
 40
0.0
  9
$USERR3
 40
0.0
  9
$USERR4
 40
0.0
  9
$USERR5
 40
0.0
  9
$WORLDVIEW
 70
     1
  9
$SHADEDGE
 70
     3
  9
$SHADEDIF
 70
    70
  9
$TILEMODE
 70
     1
  9
$MAXACTVP
 70
    16
  9
$PINSBASE
 10
0.0
 20
0.0
 30
0.0
  9
$PLIMCHECK
 70
     0
  9
$PEXTMIN
 10
1.000000000000000E+20
 20
1.000000000000000E+20
 30
1.000000000000000E+20
  9
$PEXTMAX
 10
-1.000000000000000E+20
 20
-1.000000000000000E+20
 30
-1.000000000000000E+20
  9
$PLIMMIN
 10
0.0
 20
0.0
  9
$PLIMMAX
 10
420.0
 20
297.0
  9
$UNITMODE
 70
     0
  9
$VISRETAIN
 70
     0
  9
$PLINEGEN
 70
     0
  9
$PSLTSCALE
 70
     0
  9
$TREEDEPTH
 70
  3020
  9
$CMLSTYLE
  2
STANDARD
  9
$CMLJUST
 70
     0
  9
$CMLSCALE
 40
1.0
  9
$PROXYGRAPHICS
 70
     1
  9
$MEASUREMENT
 70
     0
  9
$CELWEIGHT
370
    -1
  9
$ENDCAPS
280
     0
  9
$JOINSTYLE
280
     0
  9
$LWDISPLAY
290
     0
  9
$INSUNITS
 70
     0
  9
$HYPERLINKBASE
  1

  9
$STYLESHEET
  1

  9
$XEDIT
290
     1
  9
$CEPSNTYPE
380
     0
  9
$PSTYLEMODE
290
     1
  9
$FINGERPRINTGUID
  2
{938F2C20-6629-4A76-B2C2-1B3F2EEB654C}
  9
$VERSIONGUID
  2
{D0D577D0-8564-4E49-93F6-D0C96F4BCA35}
  9
$EXTNAMES
290
     1
  9
$PSVPSCALE
 40
0.0
  9
$OLESTARTUP
290
     0
  0
ENDSEC
  0
SECTION
  2
CLASSES
  0
CLASS
  1
ACDBDICTIONARYWDFLT
  2
AcDbDictionaryWithDefault
  3
ObjectDBX Classes
 90
        0
280
     0
281
     0
  0
CLASS
  1
ACDBPLACEHOLDER
  2
AcDbPlaceHolder
  3
ObjectDBX Classes
 90
        0
280
     0
281
     0
  0
CLASS
  1
LAYOUT
  2
AcDbLayout
  3
ObjectDBX Classes
 90
        0
280
     0
281
     0
  0
CLASS
  1
DICTIONARYVAR
  2
AcDbDictionaryVar
  3
ObjectDBX Classes
 90
        0
280
     0
281
     0
  0
CLASS
  1
MATERIAL
  2
AcDbMaterial
  3
ObjectDBX Classes
 90
     1153
280
     0
281
     0
  0
CLASS
  1
VISUALSTYLE
  2
AcDbVisualStyle
  3
ObjectDBX Classes
 90
     4095
280
     0
281
     0
  0
CLASS
  1
TABLESTYLE
  2
AcDbTableStyle
  3
ObjectDBX Classes
 90
     4095
280
     0
281
     0
  0
CLASS
  1
SCALE
  2
AcDbScale
  3
ObjectDBX Classes
 90
     1153
280
     0
281
     0
  0
CLASS
  1
MLEADERSTYLE
  2
AcDbMLeaderStyle
  3
ACDB_MLEADERSTYLE_CLASS
 90
     4095
280
     0
281
     0
  0
CLASS
  1
ACDBSECTIONVIEWSTYLE
  2
AcDbSectionViewStyle
  3
ObjectDBX Classes
 90
     1025
280
     0
281
     0
  0
CLASS
  1
ACDBDETAILVIEWSTYLE
  2
AcDbDetailViewStyle
  3
ObjectDBX Classes
 90
     1025
280
     0
281
     0
  0
CLASS
  1
CELLSTYLEMAP
  2
AcDbCellStyleMap
  3
ObjectDBX Classes
 90
     1152
280
     0
281
     0
  0
ENDSEC
  0
SECTION
  2
TABLES
  0
TABLE
  2
VPORT
  5
AE7D
330
0
100
AcDbSymbolTable
 70
     1
  0
VPORT
  5
B219
330
AE7D
100
AcDbSymbolTableRecord
100
AcDbViewportTableRecord
  2
*ACTIVE
 70
     0
 10
0.0
 20
0.0
 11
1.0
 21
1.0
 12
294.2976409946984
 22
138.7057121221217
 13
0.0
 23
0.0
 14
10.0
 24
10.0
 15
10.0
 25
10.0
 16
0.0
 26
0.0
 36
1.0
 17
0.0
 27
0.0
 37
0.0
 40
260.3164181212898
 41
1.899603698811096
 42
50.0
 43
0.0
 44
0.0
 50
0.0
 51
0.0
 71
     0
 72
   100
 73
     1
 74
     0
 75
     0
 76
     0
 77
     0
 78
     0
281
     0
 65
     1
110
0.0
120
0.0
130
0.0
111
1.0
121
0.0
131
0.0
112
0.0
122
1.0
132
0.0
 79
     0
146
0.0
1001
ACAD_NAV_VCDISPLAY
1070
     3
  0
ENDTAB
  0
TABLE
  2
LTYPE
  5
AE7A
330
0
100
AcDbSymbolTable
 70
     4
  0
LTYPE
  5
AE88
330
AE7A
100
AcDbSymbolTableRecord
100
AcDbLinetypeTableRecord
  2
BYBLOCK
 70
     0
  3

 72
    65
 73
     0
 40
0.0
  0
LTYPE
  5
AE89
330
AE7A
100
AcDbSymbolTableRecord
100
AcDbLinetypeTableRecord
  2
BYLAYER
 70
     0
  3

 72
    65
 73
     0
 40
0.0
  0
LTYPE
  5
AE8A
330
AE7A
100
AcDbSymbolTableRecord
100
AcDbLinetypeTableRecord
  2
CONTINUOUS
 70
     0
  3
Solid line
 72
    65
 73
     0
 40
0.0
  0
LTYPE
  5
AE98
330
AE7A
100
AcDbSymbolTableRecord
100
AcDbLinetypeTableRecord
  2
DASHED
 70
     0
  3
__ __ __ __ __ __ __ __ __ __ __ __ __ __ __ __
 72
    65
 73
     2
 40
0.75
 49
0.5
 74
     0
 49
-0.25
 74
     0
  0
LTYPE
  5
AE99
330
AE7A
100
AcDbSymbolTableRecord
100
AcDbLinetypeTableRecord
  2
CENTER
 70
     0
  3
____ _ ____ _ ____ _ ____ _ ____ _ ____ _ ____ 
 72
    65
 73
     4
 40
2.0
 49
1.25
 74
     0
 49
-0.25
 74
     0
 49
0.25
 74
     0
 49
-0.25
 74
     0
  0
LTYPE
  5
AE9A
330
AE7A
100
AcDbSymbolTableRecord
100
AcDbLinetypeTableRecord
  2
PHANTOM
 70
     0
  3
______  __  __  ______  __  __  ______  __  __ 
 72
    65
 73
     6
 40
2.5
 49
1.25
 74
     0
 49
-0.25
 74
     0
 49
0.25
 74
     0
 49
-0.25
 74
     0
 49
0.25
 74
     0
 49
-0.25
 74
     0
  0
ENDTAB
  0
TABLE
  2
LAYER
  5
AE77
330
0
100
AcDbSymbolTable
 70
     8
  0
LAYER
  5
AE85
102
{ACAD_XDICTIONARY
360
B274
102
}
330
AE77
100
AcDbSymbolTableRecord
100
AcDbLayerTableRecord
  2
0
 70
     0
 62
     7
  6
CONTINUOUS
370
    -3
390
B222
  0
LAYER
  5
AE9B
102
{ACAD_XDICTIONARY
360
B276
102
}
330
AE77
100
AcDbSymbolTableRecord
100
AcDbLayerTableRecord
  2
4
 70
     0
 62
     1
  6
CENTER
370
    -3
390
B222
  0
LAYER
  5
AE9C
102
{ACAD_XDICTIONARY
360
B278
102
}
330
AE77
100
AcDbSymbolTableRecord
100
AcDbLayerTableRecord
  2
5
 70
     0
 62
     6
  6
PHANTOM
370
    -3
390
B222
  0
LAYER
  5
AE9D
102
{ACAD_XDICTIONARY
360
B27A
102
}
330
AE77
100
AcDbSymbolTableRecord
100
AcDbLayerTableRecord
  2
1
 70
     0
 62
     7
  6
CONTINUOUS
370
    -3
390
B222
  0
LAYER
  5
AE9E
102
{ACAD_XDICTIONARY
360
B27C
102
}
330
AE77
100
AcDbSymbolTableRecord
100
AcDbLayerTableRecord
  2
2
 70
     0
 62
     4
  6
CONTINUOUS
370
    -3
390
B222
  0
LAYER
  5
AE9F
102
{ACAD_XDICTIONARY
360
B27E
102
}
330
AE77
100
AcDbSymbolTableRecord
100
AcDbLayerTableRecord
  2
3
 70
     0
 62
     2
  6
DASHED
370
    -3
390
B222
  0
LAYER
  5
AEA0
102
{ACAD_XDICTIONARY
360
B280
102
}
330
AE77
100
AcDbSymbolTableRecord
100
AcDbLayerTableRecord
  2
6
 70
     0
 62
     5
  6
CONTINUOUS
370
    -3
390
B222
  0
LAYER
  5
AEA1
102
{ACAD_XDICTIONARY
360
B282
102
}
330
AE77
100
AcDbSymbolTableRecord
100
AcDbLayerTableRecord
  2
7
 70
     0
 62
     3
  6
CONTINUOUS
370
    -3
390
B222
  0
ENDTAB
  0
TABLE
  2
STYLE
  5
AE78
330
0
100
AcDbSymbolTable
 70
     1
  0
STYLE
  5
AE86
330
AE78
100
AcDbSymbolTableRecord
100
AcDbTextStyleTableRecord
  2
STANDARD
 70
     0
 40
0.0
 41
1.0
 50
0.0
 71
     0
 42
5.0
  3
txt
  4

  0
ENDTAB
  0
TABLE
  2
VIEW
  5
AE7B
330
0
100
AcDbSymbolTable
 70
     0
  0
ENDTAB
  0
TABLE
  2
UCS
  5
AE7C
330
0
100
AcDbSymbolTable
 70
     0
  0
ENDTAB
  0
TABLE
  2
APPID
  5
AE7E
330
0
100
AcDbSymbolTable
 70
     3
  0
APPID
  5
AE87
330
AE7E
100
AcDbSymbolTableRecord
100
AcDbRegAppTableRecord
  2
ACAD
 70
     0
  0
APPID
  5
B28E
330
AE7E
100
AcDbSymbolTableRecord
100
AcDbRegAppTableRecord
  2
ACAD_NAV_VCDISPLAY
 70
     0
  0
APPID
  5
B2C7
330
AE7E
100
AcDbSymbolTableRecord
100
AcDbRegAppTableRecord
  2
ACAD_MLEADERVER
 70
     0
  0
ENDTAB
  0
TABLE
  2
DIMSTYLE
  5
AE7F
330
0
100
AcDbSymbolTable
 70
     1
100
AcDbDimStyleTable
 71
     0
  0
DIMSTYLE
105
AEA3
330
AE7F
100
AcDbSymbolTableRecord
100
AcDbDimStyleTableRecord
  2
STANDARD
 70
     0
 41
2.5
 42
1.0
 43
10.0
 44
1.0
 73
     0
 74
     0
 77
     3
 78
     8
140
3.2
141
0.0
147
1.0
172
     1
173
     1
284
     8
285
     8
286
     8
340
AE86
  0
ENDTAB
  0
TABLE
  2
BLOCK_RECORD
  5
AE76
330
0
100
AcDbSymbolTable
 70
     1
  0
BLOCK_RECORD
  5
AE93
102
{ACAD_XDICTIONARY
360
B21C
102
}
330
AE76
100
AcDbSymbolTableRecord
100
AcDbBlockTableRecord
  2
*MODEL_SPACE
340
B270
  0
BLOCK_RECORD
  5
AE8F
102
{ACAD_XDICTIONARY
360
B21A
102
}
330
AE76
100
AcDbSymbolTableRecord
100
AcDbBlockTableRecord
  2
*PAPER_SPACE
340
B271
  0
BLOCK_RECORD
  5
AEAB
330
AE76
100
AcDbSymbolTableRecord
100
AcDbBlockTableRecord
  2
_OPEN
340
0
  0
ENDTAB
  0
ENDSEC
  0
SECTION
  2
BLOCKS
  0
BLOCK
  5
AE94
330
AE93
100
AcDbEntity
  8
0
100
AcDbBlockBegin
  2
*MODEL_SPACE
 70
     0
 10
0.0
 20
0.0
 30
0.0
  3
*MODEL_SPACE
  1

  0
ENDBLK
  5
AE95
330
AE93
100
AcDbEntity
  8
0
100
AcDbBlockEnd
  0
BLOCK
  5
AE90
330
AE8F
100
AcDbEntity
 67
     1
  8
0
100
AcDbBlockBegin
  2
*PAPER_SPACE
 70
     0
 10
0.0
 20
0.0
 30
0.0
  3
*PAPER_SPACE
  1

  0
ENDBLK
  5
AE91
330
AE8F
100
AcDbEntity
 67
     1
  8
0
100
AcDbBlockEnd
  0
BLOCK
  5
AEAC
330
AEAB
100
AcDbEntity
  8
0
100
AcDbBlockBegin
  2
_OPEN
 70
     0
 10
0.0
 20
0.0
 30
0.0
  3
_OPEN
  1

  0
LINE
  5
AEAD
330
AEAB
100
AcDbEntity
  8
0
  6
ByBlock
 62
     0
100
AcDbLine
 10
-1.0
 20
0.166667
 30
0.0
 11
0.0
 21
0.0
 31
0.0
  0
LINE
  5
AEAE
330
AEAB
100
AcDbEntity
  8
0
  6
ByBlock
 62
     0
100
AcDbLine
 10
0.0
 20
0.0
 30
0.0
 11
-1.0
 21
-0.166667
 31
0.0
  0
LINE
  5
AEAF
330
AEAB
100
AcDbEntity
  8
0
  6
ByBlock
 62
     0
100
AcDbLine
 10
0.0
 20
0.0
 30
0.0
 11
-1.0
 21
0.0
 31
0.0
  0
ENDBLK
  5
AEB0
330
AEAB
100
AcDbEntity
  8
0
100
AcDbBlockEnd
  0
ENDSEC
  0
SECTION
  2
ENTITIES
  0
LINE
  5
AEB1
330
AE93
100
AcDbEntity
  8
4
  6
CENTER
100
AcDbLine
 10
32.01450100000001
 20
86.61114399999998
 30
0.0
 11
32.01450100000001
 21
99.61114399999999
 31
0.0
  0
TEXT
  5
AEB2
330
AE93
100
AcDbEntity
  8
7
  6
Continuous
100
AcDbText
 10
10.000001
 20
26.000001
 30
0.0
 40
3.0
  1
CODE No.1440
100
AcDbText
  0
TEXT
  5
AEB3
330
AE93
100
AcDbEntity
  8
7
  6
Continuous
100
AcDbText
 10
10.000001
 20
18.000001
 30
0.0
 40
3.0
  1
TYPE No.TL-304-2
100
AcDbText
  0
TEXT
  5
AEB4
330
AE93
100
AcDbEntity
  8
1
  6
Continuous
100
AcDbText
 10
10.000001
 20
10.000001
 30
0.0
 40
1.399999999999999
  1
LAYER
100
AcDbText
  0
TEXT
  5
AEB5
330
AE93
100
AcDbEntity
  8
5
  6
PHANTOM
100
AcDbText
 10
25.979512
 20
10.048738
 30
0.0
 40
1.399999999999999
  1
5
100
AcDbText
  0
TEXT
  5
AEB6
330
AE93
100
AcDbEntity
  8
6
  6
Continuous
100
AcDbText
 10
27.97951199999999
 20
10.048738
 30
0.0
 40
1.399999999999999
  1
6
100
AcDbText
  0
TEXT
  5
AEB7
330
AE93
100
AcDbEntity
  8
2
  6
Continuous
100
AcDbText
 10
19.979512
 20
10.048738
 30
0.0
 40
1.399999999999999
  1
2
100
AcDbText
  0
TEXT
  5
AEB8
330
AE93
100
AcDbEntity
  8
3
  6
DASHED
100
AcDbText
 10
21.97951199999998
 20
10.048738
 30
0.0
 40
1.399999999999999
  1
3
100
AcDbText
  0
TEXT
  5
AEB9
330
AE93
100
AcDbEntity
  8
4
  6
CENTER
100
AcDbText
 10
23.979512
 20
10.048738
 30
0.0
 40
1.399999999999999
  1
4
100
AcDbText
  0
TEXT
  5
AEBA
330
AE93
100
AcDbEntity
  8
7
  6
Continuous
100
AcDbText
 10
29.979512
 20
10.048738
 30
0.0
 40
1.399999999999999
  1
7
100
AcDbText
  0
TEXT
  5
AEBB
330
AE93
100
AcDbEntity
  8
1
  6
Continuous
100
AcDbText
 10
17.97951199999999
 20
10.048738
 30
0.0
 40
1.399999999999999
  1
1
100
AcDbText
  0
LINE
  5
AEBC
330
AE93
100
AcDbEntity
  8
4
  6
CENTER
100
AcDbLine
 10
79.25559599999998
 20
57.980739
 30
0.0
 11
104.455596
 21
57.980739
 31
0.0
  0
LINE
  5
AEBD
330
AE93
100
AcDbEntity
  8
1
  6
Continuous
100
AcDbLine
 10
94.45559600000001
 20
63.480739
 30
0.0
 11
97.255596
 21
63.480739
 31
0.0
  0
LINE
  5
AEBE
330
AE93
100
AcDbEntity
  8
1
  6
Continuous
100
AcDbLine
 10
94.45559600000001
 20
52.480739
 30
0.0
 11
97.255596
 21
52.480739
 31
0.0
  0
LINE
  5
AEBF
330
AE93
100
AcDbEntity
  8
1
  6
Continuous
100
AcDbLine
 10
82.25559599999998
 20
54.730739
 30
0.0
 11
82.25559599999998
 21
61.230739
 31
0.0
  0
LINE
  5
AEC0
330
AE93
100
AcDbEntity
  8
1
  6
Continuous
100
AcDbLine
 10
94.45559600000001
 20
63.480739
 30
0.0
 11
94.45559600000001
 21
61.980739
 31
0.0
  0
LINE
  5
AEC1
330
AE93
100
AcDbEntity
  8
1
  6
Continuous
100
AcDbLine
 10
92.20559599999999
 20
62.38073899999999
 30
0.0
 11
92.255596
 21
62.180739
 31
0.0
  0
LINE
  5
AEC2
330
AE93
100
AcDbEntity
  8
1
  6
Continuous
100
AcDbLine
 10
92.255596
 20
62.180739
 30
0.0
 11
92.57559599999996
 21
61.980739
 31
0.0
  0
ARC
  5
AEC3
330
AE93
100
AcDbEntity
  8
1
  6
Continuous
100
AcDbCircle
 10
93.955596
 20
62.480739
 30
0.0
 40
0.5
100
AcDbArc
 50
270.0
 51
0.0
  0
LINE
  5
AEC4
330
AE93
100
AcDbEntity
  8
1
  6
Continuous
100
AcDbLine
 10
91.905596
 20
62.38073899999999
 30
0.0
 11
91.212776
 21
61.980739
 31
0.0
  0
LINE
  5
AEC5
330
AE93
100
AcDbEntity
  8
1
  6
Continuous
100
AcDbLine
 10
91.905596
 20
62.38073899999999
 30
0.0
 11
92.20559599999999
 21
62.38073899999999
 31
0.0
  0
ARC
  5
AEC6
330
AE93
100
AcDbEntity
  8
1
  6
Continuous
100
AcDbCircle
 10
83.00559599999997
 20
61.230739
 30
0.0
 40
0.75
100
AcDbArc
 50
90.0
 51
180.0
  0
LINE
  5
AEC7
330
AE93
100
AcDbEntity
  8
1
  6
Continuous
100
AcDbLine
 10
83.00559599999997
 20
61.980739
 30
0.0
 11
94.45559600000001
 21
61.980739
 31
0.0
  0
LINE
  5
AEC8
330
AE93
100
AcDbEntity
  8
1
  6
Continuous
100
AcDbLine
 10
94.45559600000001
 20
52.480739
 30
0.0
 11
94.45559600000001
 21
53.98073899999999
 31
0.0
  0
LINE
  5
AEC9
330
AE93
100
AcDbEntity
  8
1
  6
Continuous
100
AcDbLine
 10
92.20559599999999
 20
53.580739
 30
0.0
 11
92.255596
 21
53.780739
 31
0.0
  0
LINE
  5
AECA
330
AE93
100
AcDbEntity
  8
1
  6
Continuous
100
AcDbLine
 10
92.255596
 20
53.780739
 30
0.0
 11
92.57559599999996
 21
53.98073899999999
 31
0.0
  0
ARC
  5
AECB
330
AE93
100
AcDbEntity
  8
1
  6
Continuous
100
AcDbCircle
 10
93.955596
 20
53.480739
 30
0.0
 40
0.5
100
AcDbArc
 50
0.0
 51
90.0
  0
LINE
  5
AECC
330
AE93
100
AcDbEntity
  8
1
  6
Continuous
100
AcDbLine
 10
91.905596
 20
53.580739
 30
0.0
 11
91.212776
 21
53.98073899999999
 31
0.0
  0
LINE
  5
AECD
330
AE93
100
AcDbEntity
  8
1
  6
Continuous
100
AcDbLine
 10
91.905596
 20
53.580739
 30
0.0
 11
92.20559599999999
 21
53.580739
 31
0.0
  0
ARC
  5
AECE
330
AE93
100
AcDbEntity
  8
1
  6
Continuous
100
AcDbCircle
 10
83.00559599999997
 20
54.730739
 30
0.0
 40
0.75
100
AcDbArc
 50
180.0
 51
270.0
  0
LINE
  5
AECF
330
AE93
100
AcDbEntity
  8
1
  6
Continuous
100
AcDbLine
 10
83.00559599999997
 20
53.98073899999999
 30
0.0
 11
94.45559600000001
 21
53.98073899999999
 31
0.0
  0
LINE
  5
AED0
330
AE93
100
AcDbEntity
  8
1
  6
Continuous
100
AcDbLine
 10
98.55559599999999
 20
56.980739
 30
0.0
 11
98.55559599999999
 21
58.98073899999999
 31
0.0
  0
LINE
  5
AED1
330
AE93
100
AcDbEntity
  8
1
  6
Continuous
100
AcDbLine
 10
97.45559599999999
 20
52.680739
 30
0.0
 11
97.45559599999999
 21
63.28073899999999
 31
0.0
  0
ARC
  5
AED2
330
AE93
100
AcDbEntity
  8
1
  6
Continuous
100
AcDbCircle
 10
101.0376629999999
 20
63.205886
 30
0.0
 40
1.5
100
AcDbArc
 50
106.641975
 51
152.5
  0
ARC
  5
AED3
330
AE93
100
AcDbEntity
  8
1
  6
Continuous
100
AcDbCircle
 10
89.20941500000003
 20
68.85445
 30
0.0
 40
14.0
100
AcDbArc
 50
332.5
 51
340.7626099999999
  0
LINE
  5
AED4
330
AE93
100
AcDbEntity
  8
1
  6
Continuous
100
AcDbLine
 10
101.7513589999998
 20
64.98479499999999
 30
0.0
 11
100.608077
 21
64.643056
 31
0.0
  0
LINE
  5
AED5
330
AE93
100
AcDbEntity
  8
1
  6
Continuous
100
AcDbLine
 10
102.3815589999999
 20
64.66826400000001
 30
0.0
 11
102.320516
 21
64.76757099999999
 31
0.0
  0
ARC
  5
AED6
330
AE93
100
AcDbEntity
  8
1
  6
Continuous
100
AcDbCircle
 10
101.894554
 20
64.50573900000001
 30
0.0
 40
0.5
100
AcDbArc
 50
31.57839099999999
 51
106.641975
  0
ARC
  5
AED7
330
AE93
100
AcDbEntity
  8
1
  6
Continuous
100
AcDbCircle
 10
101.9555959999999
 20
64.406432
 30
0.0
 40
0.5
100
AcDbArc
 50
340.7626099999999
 51
31.57839099999999
  0
LINE
  5
AED8
330
AE93
100
AcDbEntity
  8
1
  6
Continuous
100
AcDbLine
 10
99.738626
 20
63.95589000000001
 30
0.0
 11
100.390694
 21
62.699402
 31
0.0
  0
LINE
  5
AED9
330
AE93
100
AcDbEntity
  8
1
  6
Continuous
100
AcDbLine
 10
99.173632
 20
62.873637
 30
0.0
 11
99.668392
 21
61.920269
 31
0.0
  0
LINE
  5
AEDA
330
AE93
100
AcDbEntity
  8
1
  6
Continuous
100
AcDbLine
 10
98.064706
 20
60.680739
 30
0.0
 11
98.13633100000002
 21
60.680739
 31
0.0
  0
ARC
  5
AEDB
330
AE93
100
AcDbEntity
  8
1
  6
Continuous
100
AcDbCircle
 10
98.13633100000002
 20
60.330739
 30
0.0
 40
0.35
100
AcDbArc
 50
43.5
 51
90.0
  0
ARC
  5
AEDC
330
AE93
100
AcDbEntity
  8
1
  6
Continuous
100
AcDbCircle
 10
97.85881500000002
 20
61.430739
 30
0.0
 40
0.5
100
AcDbArc
 50
270.0
 51
332.5
  0
ARC
  5
AEDD
330
AE93
100
AcDbEntity
  8
1
  6
Continuous
100
AcDbCircle
 10
102.4367929999999
 20
60.078173
 30
0.0
 40
3.325260999999998
100
AcDbArc
 50
127.975177
 51
176.308481
  0
LINE
  5
AEDE
330
AE93
100
AcDbEntity
  8
1
  6
Continuous
100
AcDbLine
 10
98.77377199999999
 20
60.16747500000001
 30
0.0
 11
98.39021200000001
 21
60.571663
 31
0.0
  0
ARC
  5
AEDF
330
AE93
100
AcDbEntity
  8
1
  6
Continuous
100
AcDbCircle
 10
98.918847
 20
60.305146
 30
0.0
 40
0.2
100
AcDbArc
 50
223.5
 51
356.3084809999998
  0
LINE
  5
AEE0
330
AE93
100
AcDbEntity
  8
1
  6
Continuous
100
AcDbLine
 10
100.833485
 20
62.26427199999999
 30
0.0
 11
100.390694
 21
62.699402
 31
0.0
  0
LINE
  5
AEE1
330
AE93
100
AcDbEntity
  8
1
  6
Continuous
100
AcDbLine
 10
99.707146
 20
63.89850899999999
 30
0.0
 11
98.30232100000001
 21
61.199864
 31
0.0
  0
ARC
  5
AEE2
330
AE93
100
AcDbEntity
  8
1
  6
Continuous
100
AcDbCircle
 10
101.183939
 20
62.620897
 30
0.0
 40
0.5
100
AcDbArc
 50
225.4999999999998
 51
332.5
  0
ARC
  5
AEE3
330
AE93
100
AcDbEntity
  8
1
  6
Continuous
100
AcDbCircle
 10
98.064706
 20
60.37162900000001
 30
0.0
 40
0.30911
100
AcDbArc
 50
90.0
 51
239.812546
  0
ARC
  5
AEE4
330
AE93
100
AcDbEntity
  8
1
  6
Continuous
100
AcDbCircle
 10
97.255596
 20
58.98073899999999
 30
0.0
 40
1.3
100
AcDbArc
 50
0.0
 51
59.81254599999998
  0
LINE
  5
AEE5
330
AE93
100
AcDbEntity
  8
1
  6
Continuous
100
AcDbLine
 10
97.45559599999999
 20
60.930739
 30
0.0
 11
97.85881500000002
 21
60.930739
 31
0.0
  0
ARC
  5
AEE6
330
AE93
100
AcDbEntity
  8
1
  6
Continuous
100
AcDbCircle
 10
97.255596
 20
63.28073899999999
 30
0.0
 40
0.2
100
AcDbArc
 50
0.0
 51
90.0
  0
LINE
  5
AEE7
330
AE93
100
AcDbEntity
  8
1
  6
Continuous
100
AcDbLine
 10
99.738626
 20
52.005588
 30
0.0
 11
100.390694
 21
53.262075
 31
0.0
  0
LINE
  5
AEE8
330
AE93
100
AcDbEntity
  8
1
  6
Continuous
100
AcDbLine
 10
99.173632
 20
53.08784
 30
0.0
 11
99.668392
 21
54.041208
 31
0.0
  0
LINE
  5
AEE9
330
AE93
100
AcDbEntity
  8
1
  6
Continuous
100
AcDbLine
 10
98.064706
 20
55.28073899999998
 30
0.0
 11
98.13633100000002
 21
55.28073899999998
 31
0.0
  0
ARC
  5
AEEA
330
AE93
100
AcDbEntity
  8
1
  6
Continuous
100
AcDbCircle
 10
98.13633100000002
 20
55.630739
 30
0.0
 40
0.35
100
AcDbArc
 50
270.0
 51
316.5
  0
ARC
  5
AEEB
330
AE93
100
AcDbEntity
  8
1
  6
Continuous
100
AcDbCircle
 10
97.85881500000002
 20
54.53073899999999
 30
0.0
 40
0.5
100
AcDbArc
 50
27.5
 51
90.0
  0
ARC
  5
AEEC
330
AE93
100
AcDbEntity
  8
1
  6
Continuous
100
AcDbCircle
 10
101.0376629999999
 20
52.755591
 30
0.0
 40
1.5
100
AcDbArc
 50
207.5
 51
253.358025
  0
ARC
  5
AEED
330
AE93
100
AcDbEntity
  8
1
  6
Continuous
100
AcDbCircle
 10
102.4367929999999
 20
55.883304
 30
0.0
 40
3.325260999999998
100
AcDbArc
 50
183.691519
 51
232.0248229999999
  0
LINE
  5
AEEE
330
AE93
100
AcDbEntity
  8
1
  6
Continuous
100
AcDbLine
 10
98.77377199999999
 20
55.794002
 30
0.0
 11
98.39021200000001
 21
55.389814
 31
0.0
  0
ARC
  5
AEEF
330
AE93
100
AcDbEntity
  8
1
  6
Continuous
100
AcDbCircle
 10
98.918847
 20
55.65633100000001
 30
0.0
 40
0.2
100
AcDbArc
 50
3.691519
 51
136.4999999999998
  0
LINE
  5
AEF0
330
AE93
100
AcDbEntity
  8
1
  6
Continuous
100
AcDbLine
 10
101.7513589999998
 20
50.97668200000001
 30
0.0
 11
100.608077
 21
51.318421
 31
0.0
  0
LINE
  5
AEF1
330
AE93
100
AcDbEntity
  8
1
  6
Continuous
100
AcDbLine
 10
102.3815589999999
 20
51.293213
 30
0.0
 11
102.320516
 21
51.193906
 31
0.0
  0
LINE
  5
AEF2
330
AE93
100
AcDbEntity
  8
1
  6
Continuous
100
AcDbLine
 10
100.833485
 20
53.69720499999999
 30
0.0
 11
100.390694
 21
53.262075
 31
0.0
  0
ARC
  5
AEF3
330
AE93
100
AcDbEntity
  8
1
  6
Continuous
100
AcDbCircle
 10
101.894554
 20
51.455739
 30
0.0
 40
0.5
100
AcDbArc
 50
253.358025
 51
328.421609
  0
ARC
  5
AEF4
330
AE93
100
AcDbEntity
  8
1
  6
Continuous
100
AcDbCircle
 10
89.20941500000003
 20
47.107027
 30
0.0
 40
14.0
100
AcDbArc
 50
19.23738999999999
 51
27.5
  0
ARC
  5
AEF5
330
AE93
100
AcDbEntity
  8
1
  6
Continuous
100
AcDbCircle
 10
101.9555959999999
 20
51.555045
 30
0.0
 40
0.5
100
AcDbArc
 50
328.421609
 51
19.23738999999999
  0
LINE
  5
AEF6
330
AE93
100
AcDbEntity
  8
1
  6
Continuous
100
AcDbLine
 10
99.707146
 20
52.062968
 30
0.0
 11
98.30232100000001
 21
54.761613
 31
0.0
  0
ARC
  5
AEF7
330
AE93
100
AcDbEntity
  8
1
  6
Continuous
100
AcDbCircle
 10
101.183939
 20
53.34058
 30
0.0
 40
0.5
100
AcDbArc
 50
27.5
 51
134.4999999999998
  0
ARC
  5
AEF8
330
AE93
100
AcDbEntity
  8
1
  6
Continuous
100
AcDbCircle
 10
98.064706
 20
55.58984800000001
 30
0.0
 40
0.30911
100
AcDbArc
 50
120.187454
 51
270.0
  0
ARC
  5
AEF9
330
AE93
100
AcDbEntity
  8
1
  6
Continuous
100
AcDbCircle
 10
97.255596
 20
56.980739
 30
0.0
 40
1.3
100
AcDbArc
 50
304.4005
 51
0.0
  0
LINE
  5
AEFA
330
AE93
100
AcDbEntity
  8
1
  6
Continuous
100
AcDbLine
 10
97.45559599999999
 20
55.030739
 30
0.0
 11
97.85881500000002
 21
55.030739
 31
0.0
  0
ARC
  5
AEFB
330
AE93
100
AcDbEntity
  8
1
  6
Continuous
100
AcDbCircle
 10
97.255596
 20
52.680739
 30
0.0
 40
0.2
100
AcDbArc
 50
270.0
 51
0.0
  0
LINE
  5
AEFC
330
AE93
100
AcDbEntity
  8
4
  6
CENTER
100
AcDbLine
 10
42.02900099999999
 20
93.11114399999999
 30
0.0
 11
22.000001
 21
93.11114399999999
 31
0.0
  0
LINE
  5
AEFD
330
AE93
100
AcDbEntity
  8
1
  6
Continuous
100
AcDbLine
 10
36.764501
 20
96.611144
 30
0.0
 11
27.264501
 21
96.611144
 31
0.0
  0
LINE
  5
AEFE
330
AE93
100
AcDbEntity
  8
1
  6
Continuous
100
AcDbLine
 10
36.764501
 20
89.61114399999997
 30
0.0
 11
27.264501
 21
89.61114399999997
 31
0.0
  0
LINE
  5
AEFF
330
AE93
100
AcDbEntity
  8
1
  6
Continuous
100
AcDbLine
 10
32.01450100000001
 20
95.61114399999999
 30
0.0
 11
30.014501
 21
95.61114399999999
 31
0.0
  0
LINE
  5
AF00
330
AE93
100
AcDbEntity
  8
1
  6
Continuous
100
AcDbLine
 10
32.01450100000001
 20
90.61114399999999
 30
0.0
 11
30.014501
 21
90.61114399999999
 31
0.0
  0
LINE
  5
AF01
330
AE93
100
AcDbEntity
  8
1
  6
Continuous
100
AcDbLine
 10
32.01450100000001
 20
94.011144
 30
0.0
 11
29.514501
 21
94.011144
 31
0.0
  0
LINE
  5
AF02
330
AE93
100
AcDbEntity
  8
1
  6
Continuous
100
AcDbLine
 10
32.01450100000001
 20
92.21114400000001
 30
0.0
 11
29.514501
 21
92.21114400000001
 31
0.0
  0
LINE
  5
AF03
330
AE93
100
AcDbEntity
  8
1
  6
Continuous
100
AcDbLine
 10
30.214501
 20
94.011144
 30
0.0
 11
32.01450100000001
 21
93.812528
 31
0.0
  0
LINE
  5
AF04
330
AE93
100
AcDbEntity
  8
1
  6
Continuous
100
AcDbLine
 10
30.214501
 20
92.21114400000001
 30
0.0
 11
32.01450100000001
 21
92.40976100000001
 31
0.0
  0
LINE
  5
AF05
330
AE93
100
AcDbEntity
  8
1
  6
Continuous
100
AcDbLine
 10
28.014501
 20
89.811144
 30
0.0
 11
28.014501
 21
96.41114399999999
 31
0.0
  0
LINE
  5
AF06
330
AE93
100
AcDbEntity
  8
1
  6
Continuous
100
AcDbLine
 10
27.614501
 20
91.11114399999999
 30
0.0
 11
27.614501
 21
95.111144
 31
0.0
  0
LINE
  5
AF07
330
AE93
100
AcDbEntity
  8
1
  6
Continuous
100
AcDbLine
 10
28.014501
 20
95.111144
 30
0.0
 11
27.614501
 21
95.111144
 31
0.0
  0
LINE
  5
AF08
330
AE93
100
AcDbEntity
  8
1
  6
Continuous
100
AcDbLine
 10
28.014501
 20
91.11114399999999
 30
0.0
 11
27.614501
 21
91.11114399999999
 31
0.0
  0
LINE
  5
AF09
330
AE93
100
AcDbEntity
  8
1
  6
Continuous
100
AcDbLine
 10
26.51450099999999
 20
90.361144
 30
0.0
 11
26.51450099999999
 21
95.86114399999999
 31
0.0
  0
ARC
  5
AF0A
330
AE93
100
AcDbEntity
  8
1
  6
Continuous
100
AcDbCircle
 10
27.264501
 20
95.86114399999999
 30
0.0
 40
0.75
100
AcDbArc
 50
90.0
 51
180.0
  0
ARC
  5
AF0B
330
AE93
100
AcDbEntity
  8
1
  6
Continuous
100
AcDbCircle
 10
27.264501
 20
90.361144
 30
0.0
 40
0.75
100
AcDbArc
 50
180.0
 51
270.0
  0
LINE
  5
AF0C
330
AE93
100
AcDbEntity
  8
1
  6
Continuous
100
AcDbLine
 10
25.706101
 20
91.21114400000001
 30
0.0
 11
25.706101
 21
95.01114399999996
 31
0.0
  0
LINE
  5
AF0D
330
AE93
100
AcDbEntity
  8
1
  6
Continuous
100
AcDbLine
 10
25.706101
 20
91.21114400000001
 30
0.0
 11
26.51450099999999
 21
90.61114399999999
 31
0.0
  0
LINE
  5
AF0E
330
AE93
100
AcDbEntity
  8
1
  6
Continuous
100
AcDbLine
 10
26.51450099999999
 20
95.61114399999999
 30
0.0
 11
25.706101
 21
95.01114399999996
 31
0.0
  0
LINE
  5
AF0F
330
AE93
100
AcDbEntity
  8
1
  6
Continuous
100
AcDbLine
 10
26.51450099999999
 20
90.361144
 30
0.0
 11
26.51450099999999
 21
95.86114399999999
 31
0.0
  0
LINE
  5
AF10
330
AE93
100
AcDbEntity
  8
1
  6
Continuous
100
AcDbLine
 10
25.000001
 20
91.21114400000001
 30
0.0
 11
25.000001
 21
95.01114399999996
 31
0.0
  0
LINE
  5
AF11
330
AE93
100
AcDbEntity
  8
1
  6
Continuous
100
AcDbLine
 10
25.000001
 20
91.21114400000001
 30
0.0
 11
25.706101
 21
91.21114400000001
 31
0.0
  0
LINE
  5
AF12
330
AE93
100
AcDbEntity
  8
1
  6
Continuous
100
AcDbLine
 10
25.000001
 20
95.01114399999996
 30
0.0
 11
25.706101
 21
95.01114399999996
 31
0.0
  0
ARC
  5
AF13
330
AE93
100
AcDbEntity
  8
1
  6
Continuous
100
AcDbCircle
 10
28.21450099999999
 20
89.811144
 30
0.0
 40
0.2
100
AcDbArc
 50
180.0
 51
270.0
  0
ARC
  5
AF14
330
AE93
100
AcDbEntity
  8
1
  6
Continuous
100
AcDbCircle
 10
28.21450099999999
 20
96.41114399999999
 30
0.0
 40
0.2
100
AcDbArc
 50
90.0
 51
180.0
  0
LINE
  5
AF15
330
AE93
100
AcDbEntity
  8
1
  6
Continuous
100
AcDbLine
 10
30.014501
 20
95.61114399999999
 30
0.0
 11
30.014501
 21
95.01114399999996
 31
0.0
  0
LINE
  5
AF16
330
AE93
100
AcDbEntity
  8
1
  6
Continuous
100
AcDbLine
 10
29.514501
 20
95.01114399999996
 30
0.0
 11
29.514501
 21
91.21114400000001
 31
0.0
  0
LINE
  5
AF17
330
AE93
100
AcDbEntity
  8
1
  6
Continuous
100
AcDbLine
 10
30.014501
 20
95.01114399999996
 30
0.0
 11
29.514501
 21
95.01114399999996
 31
0.0
  0
LINE
  5
AF18
330
AE93
100
AcDbEntity
  8
1
  6
Continuous
100
AcDbLine
 10
30.014501
 20
91.21114400000001
 30
0.0
 11
29.514501
 21
91.21114400000001
 31
0.0
  0
LINE
  5
AF19
330
AE93
100
AcDbEntity
  8
1
  6
Continuous
100
AcDbLine
 10
30.014501
 20
91.21114400000001
 30
0.0
 11
30.014501
 21
90.61114399999999
 31
0.0
  0
LINE
  5
AF1A
330
AE93
100
AcDbEntity
  8
1
  6
Continuous
100
AcDbLine
 10
30.214501
 20
92.21114400000001
 30
0.0
 11
30.214501
 21
94.011144
 31
0.0
  0
LINE
  5
AF1B
330
AE93
100
AcDbEntity
  8
1
  6
Continuous
100
AcDbLine
 10
31.349531
 20
94.83485299999999
 30
0.0
 11
31.349531
 21
94.18744399999999
 31
0.0
  0
LINE
  5
AF1C
330
AE93
100
AcDbEntity
  8
1
  6
Continuous
100
AcDbLine
 10
29.514501
 20
94.83485299999999
 30
0.0
 11
31.349531
 21
94.83485299999999
 31
0.0
  0
LINE
  5
AF1D
330
AE93
100
AcDbEntity
  8
1
  6
Continuous
100
AcDbLine
 10
31.349531
 20
94.18744399999999
 30
0.0
 11
29.514501
 21
94.18744399999999
 31
0.0
  0
LINE
  5
AF1E
330
AE93
100
AcDbEntity
  8
1
  6
Continuous
100
AcDbLine
 10
31.349531
 20
91.38743599999999
 30
0.0
 11
31.349531
 21
92.03484399999997
 31
0.0
  0
LINE
  5
AF1F
330
AE93
100
AcDbEntity
  8
1
  6
Continuous
100
AcDbLine
 10
29.514501
 20
91.38743599999999
 30
0.0
 11
31.349531
 21
91.38743599999999
 31
0.0
  0
LINE
  5
AF20
330
AE93
100
AcDbEntity
  8
1
  6
Continuous
100
AcDbLine
 10
31.349531
 20
92.03484399999997
 30
0.0
 11
29.514501
 21
92.03484399999997
 31
0.0
  0
LINE
  5
AF21
330
AE93
100
AcDbEntity
  8
1
  6
Continuous
100
AcDbLine
 10
27.514501
 20
90.61114399999999
 30
0.0
 11
27.514501
 21
95.61114399999999
 31
0.0
  0
LINE
  5
AF22
330
AE93
100
AcDbEntity
  8
1
  6
Continuous
100
AcDbLine
 10
28.014501
 20
95.61114399999999
 30
0.0
 11
27.514501
 21
95.61114399999999
 31
0.0
  0
LINE
  5
AF23
330
AE93
100
AcDbEntity
  8
1
  6
Continuous
100
AcDbLine
 10
28.014501
 20
90.61114399999999
 30
0.0
 11
27.514501
 21
90.61114399999999
 31
0.0
  0
LINE
  5
AF24
330
AE93
100
AcDbEntity
  8
1
  6
Continuous
100
AcDbLine
 10
39.029001
 20
91.21114400000001
 30
0.0
 11
39.029001
 21
95.01114399999996
 31
0.0
  0
LINE
  5
AF25
330
AE93
100
AcDbEntity
  8
1
  6
Continuous
100
AcDbLine
 10
36.014501
 20
89.811144
 30
0.0
 11
36.014501
 21
96.41114399999999
 31
0.0
  0
LINE
  5
AF26
330
AE93
100
AcDbEntity
  8
1
  6
Continuous
100
AcDbLine
 10
37.514501
 20
90.361144
 30
0.0
 11
37.514501
 21
95.86114399999999
 31
0.0
  0
LINE
  5
AF27
330
AE93
100
AcDbEntity
  8
1
  6
Continuous
100
AcDbLine
 10
36.414501
 20
91.11114399999999
 30
0.0
 11
36.414501
 21
95.111144
 31
0.0
  0
LINE
  5
AF28
330
AE93
100
AcDbEntity
  8
1
  6
Continuous
100
AcDbLine
 10
36.414501
 20
95.111144
 30
0.0
 11
36.014501
 21
95.111144
 31
0.0
  0
LINE
  5
AF29
330
AE93
100
AcDbEntity
  8
1
  6
Continuous
100
AcDbLine
 10
36.414501
 20
91.11114399999999
 30
0.0
 11
36.014501
 21
91.11114399999999
 31
0.0
  0
LINE
  5
AF2A
330
AE93
100
AcDbEntity
  8
1
  6
Continuous
100
AcDbLine
 10
39.029001
 20
95.01114399999996
 30
0.0
 11
38.322901
 21
95.01114399999996
 31
0.0
  0
LINE
  5
AF2B
330
AE93
100
AcDbEntity
  8
1
  6
Continuous
100
AcDbLine
 10
39.029001
 20
91.21114400000001
 30
0.0
 11
38.322901
 21
91.21114400000001
 31
0.0
  0
LINE
  5
AF2C
330
AE93
100
AcDbEntity
  8
1
  6
Continuous
100
AcDbLine
 10
38.322901
 20
91.21114400000001
 30
0.0
 11
38.322901
 21
95.01114399999996
 31
0.0
  0
ARC
  5
AF2D
330
AE93
100
AcDbEntity
  8
1
  6
Continuous
100
AcDbCircle
 10
36.764501
 20
95.86114399999999
 30
0.0
 40
0.75
100
AcDbArc
 50
0.0
 51
90.0
  0
ARC
  5
AF2E
330
AE93
100
AcDbEntity
  8
1
  6
Continuous
100
AcDbCircle
 10
36.764501
 20
90.361144
 30
0.0
 40
0.75
100
AcDbArc
 50
270.0
 51
0.0
  0
LINE
  5
AF2F
330
AE93
100
AcDbEntity
  8
1
  6
Continuous
100
AcDbLine
 10
37.514501
 20
95.61114399999999
 30
0.0
 11
38.322901
 21
95.01114399999996
 31
0.0
  0
LINE
  5
AF30
330
AE93
100
AcDbEntity
  8
1
  6
Continuous
100
AcDbLine
 10
38.322901
 20
91.21114400000001
 30
0.0
 11
37.514501
 21
90.61114399999999
 31
0.0
  0
ARC
  5
AF31
330
AE93
100
AcDbEntity
  8
1
  6
Continuous
100
AcDbCircle
 10
35.814501
 20
96.41114399999999
 30
0.0
 40
0.2
100
AcDbArc
 50
0.0
 51
90.0
  0
ARC
  5
AF32
330
AE93
100
AcDbEntity
  8
1
  6
Continuous
100
AcDbCircle
 10
35.814501
 20
89.811144
 30
0.0
 40
0.2
100
AcDbArc
 50
270.0
 51
0.0
  0
LINE
  5
AF33
330
AE93
100
AcDbEntity
  8
1
  6
Continuous
100
AcDbLine
 10
32.01450100000001
 20
95.61114399999999
 30
0.0
 11
32.01450100000001
 21
90.61114399999999
 31
0.0
  0
LINE
  5
AF34
330
AE93
100
AcDbEntity
  8
1
  6
Continuous
100
AcDbLine
 10
36.514501
 20
90.61114399999999
 30
0.0
 11
36.514501
 21
95.61114399999999
 31
0.0
  0
LINE
  5
AF35
330
AE93
100
AcDbEntity
  8
1
  6
Continuous
100
AcDbLine
 10
36.514501
 20
95.61114399999999
 30
0.0
 11
36.014501
 21
95.61114399999999
 31
0.0
  0
LINE
  5
AF36
330
AE93
100
AcDbEntity
  8
1
  6
Continuous
100
AcDbLine
 10
36.514501
 20
90.61114399999999
 30
0.0
 11
36.014501
 21
90.61114399999999
 31
0.0
  0
LINE
  5
AF37
330
AE93
100
AcDbEntity
  8
1
  6
Continuous
100
AcDbLine
 10
97.45559599999999
 20
133.541495
 30
0.0
 11
97.45559599999999
 21
122.941495
 31
0.0
  0
ARC
  5
AF38
330
AE93
100
AcDbEntity
  8
1
  6
Continuous
100
AcDbCircle
 10
83.00559599999997
 20
131.4914949999999
 30
0.0
 40
0.75
100
AcDbArc
 50
90.0
 51
180.0
  0
LINE
  5
AF39
330
AE93
100
AcDbEntity
  8
1
  6
Continuous
100
AcDbLine
 10
99.707146
 20
134.159266
 30
0.0
 11
98.30232100000001
 21
131.4606209999998
 31
0.0
  0
ARC
  5
AF3A
330
AE93
100
AcDbEntity
  8
1
  6
Continuous
100
AcDbCircle
 10
102.4367929999999
 20
130.33893
 30
0.0
 40
3.325260999999998
100
AcDbArc
 50
127.975177
 51
176.308481
  0
LINE
  5
AF3B
330
AE93
100
AcDbEntity
  8
4
  6
CENTER
100
AcDbLine
 10
79.25559599999998
 20
128.2414949999999
 30
0.0
 11
104.455596
 21
128.2414949999999
 31
0.0
  0
LINE
  5
AF3C
330
AE93
100
AcDbEntity
  8
1
  6
Continuous
100
AcDbLine
 10
94.45559600000001
 20
122.741495
 30
0.0
 11
97.255596
 21
122.741495
 31
0.0
  0
LINE
  5
AF3D
330
AE93
100
AcDbEntity
  8
1
  6
Continuous
100
AcDbLine
 10
83.00559599999997
 20
96.611144
 30
0.0
 11
97.255596
 21
96.611144
 31
0.0
  0
LINE
  5
AF3E
330
AE93
100
AcDbEntity
  8
1
  6
Continuous
100
AcDbLine
 10
83.00559599999997
 20
89.61114399999997
 30
0.0
 11
97.255596
 21
89.61114399999997
 31
0.0
  0
LINE
  5
AF3F
330
AE93
100
AcDbEntity
  8
4
  6
CENTER
100
AcDbLine
 10
79.25559599999998
 20
93.11114399999999
 30
0.0
 11
105.455596
 21
93.11114399999999
 31
0.0
  0
LINE
  5
AF40
330
AE93
100
AcDbEntity
  8
1
  6
Continuous
100
AcDbLine
 10
90.755596
 20
95.111144
 30
0.0
 11
93.055596
 21
95.111144
 31
0.0
  0
LINE
  5
AF41
330
AE93
100
AcDbEntity
  8
1
  6
Continuous
100
AcDbLine
 10
82.25559599999998
 20
95.86114399999999
 30
0.0
 11
82.25559599999998
 21
90.361144
 31
0.0
  0
LINE
  5
AF42
330
AE93
100
AcDbEntity
  8
1
  6
Continuous
100
AcDbLine
 10
94.45559600000001
 20
96.611144
 30
0.0
 11
94.45559600000001
 21
89.61114399999997
 31
0.0
  0
LINE
  5
AF43
330
AE93
100
AcDbEntity
  8
1
  6
Continuous
100
AcDbLine
 10
90.755596
 20
95.71114399999999
 30
0.0
 11
94.45559600000001
 21
95.71114399999999
 31
0.0
  0
LINE
  5
AF44
330
AE93
100
AcDbEntity
  8
1
  6
Continuous
100
AcDbLine
 10
91.212776
 20
95.111144
 30
0.0
 11
91.212776
 21
91.11114399999999
 31
0.0
  0
LINE
  5
AF45
330
AE93
100
AcDbEntity
  8
1
  6
Continuous
100
AcDbLine
 10
92.20559599999999
 20
95.111144
 30
0.0
 11
92.20559599999999
 21
91.11114399999999
 31
0.0
  0
LINE
  5
AF46
330
AE93
100
AcDbEntity
  8
1
  6
Continuous
100
AcDbLine
 10
92.55559599999999
 20
95.111144
 30
0.0
 11
92.55559599999999
 21
91.11114399999999
 31
0.0
  0
LINE
  5
AF47
330
AE93
100
AcDbEntity
  8
1
  6
Continuous
100
AcDbLine
 10
93.055596
 20
95.111144
 30
0.0
 11
93.055596
 21
91.11114399999999
 31
0.0
  0
ARC
  5
AF48
330
AE93
100
AcDbEntity
  8
1
  6
Continuous
100
AcDbCircle
 10
90.755596
 20
95.41114399999999
 30
0.0
 40
0.3
100
AcDbArc
 50
90.0
 51
270.0
  0
LINE
  5
AF49
330
AE93
100
AcDbEntity
  8
1
  6
Continuous
100
AcDbLine
 10
91.905596
 20
92.861144
 30
0.0
 11
91.905596
 21
91.361144
 31
0.0
  0
LINE
  5
AF4A
330
AE93
100
AcDbEntity
  8
1
  6
Continuous
100
AcDbLine
 10
91.905596
 20
94.86114399999999
 30
0.0
 11
91.905596
 21
93.36114399999999
 31
0.0
  0
LINE
  5
AF4B
330
AE93
100
AcDbEntity
  8
1
  6
Continuous
100
AcDbLine
 10
90.755596
 20
91.11114399999999
 30
0.0
 11
93.055596
 21
91.11114399999999
 31
0.0
  0
LINE
  5
AF4C
330
AE93
100
AcDbEntity
  8
1
  6
Continuous
100
AcDbLine
 10
90.755596
 20
90.51114400000001
 30
0.0
 11
94.45559600000001
 21
90.51114400000001
 31
0.0
  0
ARC
  5
AF4D
330
AE93
100
AcDbEntity
  8
1
  6
Continuous
100
AcDbCircle
 10
90.755596
 20
90.81114400000002
 30
0.0
 40
0.3
100
AcDbArc
 50
90.0
 51
270.0
  0
ARC
  5
AF4E
330
AE93
100
AcDbEntity
  8
1
  6
Continuous
100
AcDbCircle
 10
83.00559599999997
 20
95.86114399999999
 30
0.0
 40
0.75
100
AcDbArc
 50
90.0
 51
180.0
  0
ARC
  5
AF4F
330
AE93
100
AcDbEntity
  8
1
  6
Continuous
100
AcDbCircle
 10
83.00559599999997
 20
90.361144
 30
0.0
 40
0.75
100
AcDbArc
 50
180.0
 51
270.0
  0
LINE
  5
AF50
330
AE93
100
AcDbEntity
  8
1
  6
Continuous
100
AcDbLine
 10
82.25559599999998
 20
131.4914949999999
 30
0.0
 11
82.25559599999998
 21
124.9914949999999
 31
0.0
  0
ARC
  5
AF51
330
AE93
100
AcDbEntity
  8
1
  6
Continuous
100
AcDbCircle
 10
83.00559599999997
 20
124.9914949999999
 30
0.0
 40
0.75
100
AcDbArc
 50
180.0
 51
270.0
  0
LINE
  5
AF52
330
AE93
100
AcDbEntity
  8
1
  6
Continuous
100
AcDbLine
 10
87.50559599999998
 20
128.441495
 30
0.0
 11
95.70559600000001
 21
128.441495
 31
0.0
  0
LINE
  5
AF53
330
AE93
100
AcDbEntity
  8
1
  6
Continuous
100
AcDbLine
 10
87.50559599999998
 20
127.4414949999999
 30
0.0
 11
95.70559600000001
 21
127.4414949999999
 31
0.0
  0
LINE
  5
AF54
330
AE93
100
AcDbEntity
  8
1
  6
Continuous
100
AcDbLine
 10
87.50559599999998
 20
128.441495
 30
0.0
 11
87.50559599999998
 21
127.4414949999999
 31
0.0
  0
LINE
  5
AF55
330
AE93
100
AcDbEntity
  8
1
  6
Continuous
100
AcDbLine
 10
95.70559600000001
 20
128.441495
 30
0.0
 11
95.70559600000001
 21
127.4414949999999
 31
0.0
  0
LINE
  5
AF56
330
AE93
100
AcDbEntity
  8
1
  6
Continuous
100
AcDbLine
 10
95.10559599999997
 20
128.441495
 30
0.0
 11
95.10559599999997
 21
127.4414949999999
 31
0.0
  0
LINE
  5
AF57
330
AE93
100
AcDbEntity
  8
1
  6
Continuous
100
AcDbLine
 10
93.90559600000001
 20
128.441495
 30
0.0
 11
93.90559600000001
 21
127.4414949999999
 31
0.0
  0
LINE
  5
AF58
330
AE93
100
AcDbEntity
  8
1
  6
Continuous
100
AcDbLine
 10
91.905596
 20
123.8414949999999
 30
0.0
 11
92.20559599999999
 21
123.8414949999999
 31
0.0
  0
LINE
  5
AF59
330
AE93
100
AcDbEntity
  8
1
  6
Continuous
100
AcDbLine
 10
91.905596
 20
123.8414949999999
 30
0.0
 11
91.212776
 21
124.241495
 31
0.0
  0
ARC
  5
AF5A
330
AE93
100
AcDbEntity
  8
1
  6
Continuous
100
AcDbCircle
 10
93.955596
 20
123.741495
 30
0.0
 40
0.5
100
AcDbArc
 50
0.0
 51
90.0
  0
LINE
  5
AF5B
330
AE93
100
AcDbEntity
  8
1
  6
Continuous
100
AcDbLine
 10
83.00559599999997
 20
124.241495
 30
0.0
 11
94.45559600000001
 21
124.241495
 31
0.0
  0
LINE
  5
AF5C
330
AE93
100
AcDbEntity
  8
1
  6
Continuous
100
AcDbLine
 10
92.255596
 20
124.0414949999999
 30
0.0
 11
92.57559599999996
 21
124.241495
 31
0.0
  0
LINE
  5
AF5D
330
AE93
100
AcDbEntity
  8
1
  6
Continuous
100
AcDbLine
 10
92.20559599999999
 20
123.8414949999999
 30
0.0
 11
92.255596
 21
124.0414949999999
 31
0.0
  0
LINE
  5
AF5E
330
AE93
100
AcDbEntity
  8
1
  6
Continuous
100
AcDbLine
 10
94.45559600000001
 20
122.741495
 30
0.0
 11
94.45559600000001
 21
124.241495
 31
0.0
  0
LINE
  5
AF5F
330
AE93
100
AcDbEntity
  8
1
  6
Continuous
100
AcDbLine
 10
97.45559599999999
 20
96.41114399999999
 30
0.0
 11
97.45559599999999
 21
89.811144
 31
0.0
  0
ARC
  5
AF60
330
AE93
100
AcDbEntity
  8
1
  6
Continuous
100
AcDbCircle
 10
97.255596
 20
89.811144
 30
0.0
 40
0.2
100
AcDbArc
 50
270.0
 51
0.0
  0
ARC
  5
AF61
330
AE93
100
AcDbEntity
  8
1
  6
Continuous
100
AcDbCircle
 10
97.255596
 20
96.41114399999999
 30
0.0
 40
0.2
100
AcDbArc
 50
0.0
 51
90.0
  0
LINE
  5
AF62
330
AE93
100
AcDbEntity
  8
1
  6
Continuous
100
AcDbLine
 10
102.455596
 20
95.01114399999996
 30
0.0
 11
102.455596
 21
91.21114400000001
 31
0.0
  0
LINE
  5
AF63
330
AE93
100
AcDbEntity
  8
1
  6
Continuous
100
AcDbLine
 10
99.707146
 20
91.21114400000001
 30
0.0
 11
102.455596
 21
91.21114400000001
 31
0.0
  0
LINE
  5
AF64
330
AE93
100
AcDbEntity
  8
1
  6
Continuous
100
AcDbLine
 10
97.45559599999999
 20
95.61114399999999
 30
0.0
 11
99.668392
 21
95.61114399999999
 31
0.0
  0
LINE
  5
AF65
330
AE93
100
AcDbEntity
  8
1
  6
Continuous
100
AcDbLine
 10
99.707146
 20
95.01114399999996
 30
0.0
 11
102.455596
 21
95.01114399999996
 31
0.0
  0
LINE
  5
AF66
330
AE93
100
AcDbEntity
  8
1
  6
Continuous
100
AcDbLine
 10
99.173632
 20
95.61114399999999
 30
0.0
 11
99.707146
 21
95.01114399999996
 31
0.0
  0
LINE
  5
AF67
330
AE93
100
AcDbEntity
  8
1
  6
Continuous
100
AcDbLine
 10
99.668392
 20
95.61114399999999
 30
0.0
 11
100.390694
 21
95.01114399999996
 31
0.0
  0
LINE
  5
AF68
330
AE93
100
AcDbEntity
  8
1
  6
Continuous
100
AcDbLine
 10
97.85881500000002
 20
95.04114399999997
 30
0.0
 11
97.85881500000002
 21
91.18114400000001
 31
0.0
  0
LINE
  5
AF69
330
AE93
100
AcDbEntity
  8
1
  6
Continuous
100
AcDbLine
 10
97.45559599999999
 20
90.61114399999999
 30
0.0
 11
99.668392
 21
90.61114399999999
 31
0.0
  0
LINE
  5
AF6A
330
AE93
100
AcDbEntity
  8
1
  6
Continuous
100
AcDbLine
 10
99.173632
 20
90.61114399999999
 30
0.0
 11
99.707146
 21
91.21114400000001
 31
0.0
  0
LINE
  5
AF6B
330
AE93
100
AcDbEntity
  8
1
  6
Continuous
100
AcDbLine
 10
99.668392
 20
90.61114399999999
 30
0.0
 11
100.390694
 21
91.21114400000001
 31
0.0
  0
LINE
  5
AF6C
330
AE93
100
AcDbEntity
  8
1
  6
Continuous
100
AcDbLine
 10
100.000135
 20
94.51114399999999
 30
0.0
 11
100.000135
 21
91.71114399999996
 31
0.0
  0
LINE
  5
AF6D
330
AE93
100
AcDbEntity
  8
1
  6
Continuous
100
AcDbLine
 10
97.45559599999999
 20
131.191495
 30
0.0
 11
97.85881500000002
 21
131.191495
 31
0.0
  0
LINE
  5
AF6E
330
AE93
100
AcDbEntity
  8
1
  6
Continuous
100
AcDbLine
 10
98.55559599999999
 20
129.2414949999999
 30
0.0
 11
98.55559599999999
 21
127.2414949999999
 31
0.0
  0
ARC
  5
AF6F
330
AE93
100
AcDbEntity
  8
1
  6
Continuous
100
AcDbCircle
 10
97.255596
 20
129.2414949999999
 30
0.0
 40
1.3
100
AcDbArc
 50
0.0
 51
55.5995
  0
ARC
  5
AF70
330
AE93
100
AcDbEntity
  8
1
  6
Continuous
100
AcDbCircle
 10
98.064706
 20
130.632386
 30
0.0
 40
0.30911
100
AcDbArc
 50
90.0
 51
239.812546
  0
ARC
  5
AF71
330
AE93
100
AcDbEntity
  8
1
  6
Continuous
100
AcDbCircle
 10
98.918847
 20
130.5659029999999
 30
0.0
 40
0.2
100
AcDbArc
 50
223.5
 51
356.3084809999998
  0
LINE
  5
AF72
330
AE93
100
AcDbEntity
  8
1
  6
Continuous
100
AcDbLine
 10
98.77377199999999
 20
130.428232
 30
0.0
 11
98.39021200000001
 21
130.8324199999999
 31
0.0
  0
ARC
  5
AF73
330
AE93
100
AcDbEntity
  8
1
  6
Continuous
100
AcDbCircle
 10
97.85881500000002
 20
131.691495
 30
0.0
 40
0.5
100
AcDbArc
 50
270.0
 51
332.5
  0
ARC
  5
AF74
330
AE93
100
AcDbEntity
  8
1
  6
Continuous
100
AcDbCircle
 10
98.13633100000002
 20
130.591495
 30
0.0
 40
0.35
100
AcDbArc
 50
43.5
 51
90.0
  0
LINE
  5
AF75
330
AE93
100
AcDbEntity
  8
1
  6
Continuous
100
AcDbLine
 10
98.064706
 20
130.941495
 30
0.0
 11
98.13633100000002
 21
130.941495
 31
0.0
  0
ARC
  5
AF76
330
AE93
100
AcDbEntity
  8
1
  6
Continuous
100
AcDbCircle
 10
97.255596
 20
122.941495
 30
0.0
 40
0.2
100
AcDbArc
 50
270.0
 51
0.0
  0
LINE
  5
AF77
330
AE93
100
AcDbEntity
  8
1
  6
Continuous
100
AcDbLine
 10
97.45559599999999
 20
125.291495
 30
0.0
 11
97.85881500000002
 21
125.291495
 31
0.0
  0
ARC
  5
AF78
330
AE93
100
AcDbEntity
  8
1
  6
Continuous
100
AcDbCircle
 10
97.255596
 20
127.2414949999999
 30
0.0
 40
1.3
100
AcDbArc
 50
300.187454
 51
0.0
  0
ARC
  5
AF79
330
AE93
100
AcDbEntity
  8
1
  6
Continuous
100
AcDbCircle
 10
98.064706
 20
125.850605
 30
0.0
 40
0.30911
100
AcDbArc
 50
120.187454
 51
270.0
  0
ARC
  5
AF7A
330
AE93
100
AcDbEntity
  8
1
  6
Continuous
100
AcDbCircle
 10
101.183939
 20
123.601337
 30
0.0
 40
0.5
100
AcDbArc
 50
27.5
 51
134.4999999999998
  0
LINE
  5
AF7B
330
AE93
100
AcDbEntity
  8
1
  6
Continuous
100
AcDbLine
 10
99.707146
 20
122.3237249999999
 30
0.0
 11
98.30232100000001
 21
125.02237
 31
0.0
  0
ARC
  5
AF7C
330
AE93
100
AcDbEntity
  8
1
  6
Continuous
100
AcDbCircle
 10
101.9555959999999
 20
121.815802
 30
0.0
 40
0.5
100
AcDbArc
 50
328.421609
 51
19.23738999999999
  0
ARC
  5
AF7D
330
AE93
100
AcDbEntity
  8
1
  6
Continuous
100
AcDbCircle
 10
89.20941500000003
 20
117.367784
 30
0.0
 40
14.0
100
AcDbArc
 50
19.23738999999999
 51
27.5
  0
ARC
  5
AF7E
330
AE93
100
AcDbEntity
  8
1
  6
Continuous
100
AcDbCircle
 10
101.894554
 20
121.7164949999999
 30
0.0
 40
0.5
100
AcDbArc
 50
253.358025
 51
328.421609
  0
LINE
  5
AF7F
330
AE93
100
AcDbEntity
  8
1
  6
Continuous
100
AcDbLine
 10
100.833485
 20
123.9579619999999
 30
0.0
 11
100.390694
 21
123.522832
 31
0.0
  0
LINE
  5
AF80
330
AE93
100
AcDbEntity
  8
1
  6
Continuous
100
AcDbLine
 10
102.3815589999999
 20
121.5539699999998
 30
0.0
 11
102.320516
 21
121.4546629999999
 31
0.0
  0
LINE
  5
AF81
330
AE93
100
AcDbEntity
  8
1
  6
Continuous
100
AcDbLine
 10
101.7513589999998
 20
121.2374389999999
 30
0.0
 11
100.608077
 21
121.5791779999999
 31
0.0
  0
ARC
  5
AF82
330
AE93
100
AcDbEntity
  8
1
  6
Continuous
100
AcDbCircle
 10
98.918847
 20
125.9170879999998
 30
0.0
 40
0.2
100
AcDbArc
 50
3.691519
 51
136.4999999999998
  0
LINE
  5
AF83
330
AE93
100
AcDbEntity
  8
1
  6
Continuous
100
AcDbLine
 10
98.77377199999999
 20
126.054759
 30
0.0
 11
98.39021200000001
 21
125.650571
 31
0.0
  0
ARC
  5
AF84
330
AE93
100
AcDbEntity
  8
1
  6
Continuous
100
AcDbCircle
 10
102.4367929999999
 20
126.1440609999999
 30
0.0
 40
3.325260999999998
100
AcDbArc
 50
183.691519
 51
232.0248229999999
  0
ARC
  5
AF85
330
AE93
100
AcDbEntity
  8
1
  6
Continuous
100
AcDbCircle
 10
101.0376629999999
 20
123.0163479999998
 30
0.0
 40
1.5
100
AcDbArc
 50
207.5
 51
253.358025
  0
ARC
  5
AF86
330
AE93
100
AcDbEntity
  8
1
  6
Continuous
100
AcDbCircle
 10
97.85881500000002
 20
124.7914949999999
 30
0.0
 40
0.5
100
AcDbArc
 50
27.5
 51
90.0
  0
ARC
  5
AF87
330
AE93
100
AcDbEntity
  8
1
  6
Continuous
100
AcDbCircle
 10
98.13633100000002
 20
125.8914949999999
 30
0.0
 40
0.35
100
AcDbArc
 50
270.0
 51
316.5
  0
LINE
  5
AF88
330
AE93
100
AcDbEntity
  8
1
  6
Continuous
100
AcDbLine
 10
98.064706
 20
125.541495
 30
0.0
 11
98.13633100000002
 21
125.541495
 31
0.0
  0
LINE
  5
AF89
330
AE93
100
AcDbEntity
  8
1
  6
Continuous
100
AcDbLine
 10
99.173632
 20
123.348597
 30
0.0
 11
99.668392
 21
124.3019649999999
 31
0.0
  0
LINE
  5
AF8A
330
AE93
100
AcDbEntity
  8
1
  6
Continuous
100
AcDbLine
 10
99.738626
 20
122.2663439999999
 30
0.0
 11
100.390694
 21
123.522832
 31
0.0
  0
LINE
  5
AF8B
330
AE93
100
AcDbEntity
  8
1
  6
Continuous
100
AcDbLine
 10
94.45559600000001
 20
133.7414949999998
 30
0.0
 11
97.255596
 21
133.7414949999998
 31
0.0
  0
LINE
  5
AF8C
330
AE93
100
AcDbEntity
  8
1
  6
Continuous
100
AcDbLine
 10
91.905596
 20
132.6414949999999
 30
0.0
 11
92.20559599999999
 21
132.6414949999999
 31
0.0
  0
LINE
  5
AF8D
330
AE93
100
AcDbEntity
  8
1
  6
Continuous
100
AcDbLine
 10
91.905596
 20
132.6414949999999
 30
0.0
 11
91.212776
 21
132.2414949999999
 31
0.0
  0
ARC
  5
AF8E
330
AE93
100
AcDbEntity
  8
1
  6
Continuous
100
AcDbCircle
 10
93.955596
 20
132.7414949999998
 30
0.0
 40
0.5
100
AcDbArc
 50
270.0
 51
0.0
  0
LINE
  5
AF8F
330
AE93
100
AcDbEntity
  8
1
  6
Continuous
100
AcDbLine
 10
83.00559599999997
 20
132.2414949999999
 30
0.0
 11
94.45559600000001
 21
132.2414949999999
 31
0.0
  0
LINE
  5
AF90
330
AE93
100
AcDbEntity
  8
1
  6
Continuous
100
AcDbLine
 10
92.255596
 20
132.4414949999998
 30
0.0
 11
92.57559599999996
 21
132.2414949999999
 31
0.0
  0
LINE
  5
AF91
330
AE93
100
AcDbEntity
  8
1
  6
Continuous
100
AcDbLine
 10
92.20559599999999
 20
132.6414949999999
 30
0.0
 11
92.255596
 21
132.4414949999998
 31
0.0
  0
LINE
  5
AF92
330
AE93
100
AcDbEntity
  8
1
  6
Continuous
100
AcDbLine
 10
94.45559600000001
 20
133.7414949999998
 30
0.0
 11
94.45559600000001
 21
132.2414949999999
 31
0.0
  0
ARC
  5
AF93
330
AE93
100
AcDbEntity
  8
1
  6
Continuous
100
AcDbCircle
 10
97.255596
 20
133.541495
 30
0.0
 40
0.2
100
AcDbArc
 50
0.0
 51
90.0
  0
ARC
  5
AF94
330
AE93
100
AcDbEntity
  8
1
  6
Continuous
100
AcDbCircle
 10
101.183939
 20
132.881654
 30
0.0
 40
0.5
100
AcDbArc
 50
225.4999999999998
 51
332.5
  0
ARC
  5
AF95
330
AE93
100
AcDbEntity
  8
1
  6
Continuous
100
AcDbCircle
 10
101.9555959999999
 20
134.6671889999998
 30
0.0
 40
0.5
100
AcDbArc
 50
340.7626099999999
 51
31.57839099999999
  0
ARC
  5
AF96
330
AE93
100
AcDbEntity
  8
1
  6
Continuous
100
AcDbCircle
 10
89.20941500000003
 20
139.1152069999999
 30
0.0
 40
14.0
100
AcDbArc
 50
332.5
 51
340.7626099999999
  0
ARC
  5
AF97
330
AE93
100
AcDbEntity
  8
1
  6
Continuous
100
AcDbCircle
 10
101.894554
 20
134.7664949999999
 30
0.0
 40
0.5
100
AcDbArc
 50
31.57839099999999
 51
106.641975
  0
LINE
  5
AF98
330
AE93
100
AcDbEntity
  8
1
  6
Continuous
100
AcDbLine
 10
100.833485
 20
132.5250289999999
 30
0.0
 11
100.390694
 21
132.9601589999998
 31
0.0
  0
LINE
  5
AF99
330
AE93
100
AcDbEntity
  8
1
  6
Continuous
100
AcDbLine
 10
102.3815589999999
 20
134.929021
 30
0.0
 11
102.320516
 21
135.0283279999999
 31
0.0
  0
LINE
  5
AF9A
330
AE93
100
AcDbEntity
  8
1
  6
Continuous
100
AcDbLine
 10
101.7513589999998
 20
135.245552
 30
0.0
 11
100.608077
 21
134.9038129999998
 31
0.0
  0
ARC
  5
AF9B
330
AE93
100
AcDbEntity
  8
1
  6
Continuous
100
AcDbCircle
 10
101.0376629999999
 20
133.466643
 30
0.0
 40
1.5
100
AcDbArc
 50
106.641975
 51
152.5
  0
LINE
  5
AF9C
330
AE93
100
AcDbEntity
  8
1
  6
Continuous
100
AcDbLine
 10
99.173632
 20
133.1343939999999
 30
0.0
 11
99.668392
 21
132.181026
 31
0.0
  0
LINE
  5
AF9D
330
AE93
100
AcDbEntity
  8
1
  6
Continuous
100
AcDbLine
 10
99.738626
 20
134.216646
 30
0.0
 11
100.390694
 21
132.9601589999998
 31
0.0
  0
LINE
  5
AF9E
330
AE93
100
AcDbEntity
  8
4
  6
CENTER
100
AcDbLine
 10
152.6966899999998
 20
86.61114399999998
 30
0.0
 11
152.6966899999998
 21
99.61114399999999
 31
0.0
  0
LINE
  5
AF9F
330
AE93
100
AcDbEntity
  8
4
  6
CENTER
100
AcDbLine
 10
142.68219
 20
93.11114399999999
 30
0.0
 11
162.7111899999999
 21
93.11114399999999
 31
0.0
  0
LINE
  5
AFA0
330
AE93
100
AcDbEntity
  8
1
  6
Continuous
100
AcDbLine
 10
159.7111899999999
 20
95.01114399999996
 30
0.0
 11
156.83669
 21
95.01114399999996
 31
0.0
  0
LINE
  5
AFA1
330
AE93
100
AcDbEntity
  8
1
  6
Continuous
100
AcDbLine
 10
159.7111899999999
 20
91.21114400000001
 30
0.0
 11
156.83669
 21
91.21114400000001
 31
0.0
  0
LINE
  5
AFA2
330
AE93
100
AcDbEntity
  8
1
  6
Continuous
100
AcDbLine
 10
147.94669
 20
89.61114399999997
 30
0.0
 11
157.44669
 21
89.61114399999997
 31
0.0
  0
LINE
  5
AFA3
330
AE93
100
AcDbEntity
  8
1
  6
Continuous
100
AcDbLine
 10
147.94669
 20
96.611144
 30
0.0
 11
157.44669
 21
96.611144
 31
0.0
  0
LINE
  5
AFA4
330
AE93
100
AcDbEntity
  8
1
  6
Continuous
100
AcDbLine
 10
147.1966899999999
 20
90.61114399999999
 30
0.0
 11
158.1966899999999
 21
90.61114399999999
 31
0.0
  0
LINE
  5
AFA5
330
AE93
100
AcDbEntity
  8
1
  6
Continuous
100
AcDbLine
 10
147.1966899999999
 20
95.61114399999999
 30
0.0
 11
158.1966899999999
 21
95.61114399999999
 31
0.0
  0
LINE
  5
AFA6
330
AE93
100
AcDbEntity
  8
1
  6
Continuous
100
AcDbLine
 10
158.1966899999999
 20
90.361144
 30
0.0
 11
158.1966899999999
 21
90.61114399999999
 31
0.0
  0
LINE
  5
AFA7
330
AE93
100
AcDbEntity
  8
1
  6
Continuous
100
AcDbLine
 10
158.1966899999999
 20
95.61114399999999
 30
0.0
 11
159.00509
 21
95.01114399999996
 31
0.0
  0
LINE
  5
AFA8
330
AE93
100
AcDbEntity
  8
1
  6
Continuous
100
AcDbLine
 10
159.00509
 20
91.21114400000001
 30
0.0
 11
158.1966899999999
 21
90.61114399999999
 31
0.0
  0
ARC
  5
AFA9
330
AE93
100
AcDbEntity
  8
1
  6
Continuous
100
AcDbCircle
 10
157.44669
 20
90.361144
 30
0.0
 40
0.75
100
AcDbArc
 50
270.0
 51
0.0
  0
LINE
  5
AFAA
330
AE93
100
AcDbEntity
  8
1
  6
Continuous
100
AcDbLine
 10
158.1966899999999
 20
90.361144
 30
0.0
 11
158.1966899999999
 21
90.61114399999999
 31
0.0
  0
ARC
  5
AFAB
330
AE93
100
AcDbEntity
  8
1
  6
Continuous
100
AcDbCircle
 10
157.44669
 20
95.86114399999999
 30
0.0
 40
0.75
100
AcDbArc
 50
0.0
 51
90.0
  0
LINE
  5
AFAC
330
AE93
100
AcDbEntity
  8
1
  6
Continuous
100
AcDbLine
 10
146.3882899999999
 20
91.21114400000001
 30
0.0
 11
147.1966899999999
 21
90.61114399999999
 31
0.0
  0
LINE
  5
AFAD
330
AE93
100
AcDbEntity
  8
1
  6
Continuous
100
AcDbLine
 10
147.1966899999999
 20
95.61114399999999
 30
0.0
 11
146.3882899999999
 21
95.01114399999996
 31
0.0
  0
ARC
  5
AFAE
330
AE93
100
AcDbEntity
  8
1
  6
Continuous
100
AcDbCircle
 10
147.94669
 20
90.361144
 30
0.0
 40
0.75
100
AcDbArc
 50
180.0
 51
270.0
  0
LINE
  5
AFAF
330
AE93
100
AcDbEntity
  8
1
  6
Continuous
100
AcDbLine
 10
147.1966899999999
 20
90.361144
 30
0.0
 11
147.1966899999999
 21
90.61114399999999
 31
0.0
  0
ARC
  5
AFB0
330
AE93
100
AcDbEntity
  8
1
  6
Continuous
100
AcDbCircle
 10
147.94669
 20
95.86114399999999
 30
0.0
 40
0.75
100
AcDbArc
 50
90.0
 51
180.0
  0
LINE
  5
AFB1
330
AE93
100
AcDbEntity
  8
1
  6
Continuous
100
AcDbLine
 10
145.68219
 20
91.21114400000001
 30
0.0
 11
145.68219
 21
95.01114399999996
 31
0.0
  0
LINE
  5
AFB2
330
AE93
100
AcDbEntity
  8
1
  6
Continuous
100
AcDbLine
 10
145.68219
 20
91.21114400000001
 30
0.0
 11
148.55669
 21
91.21114400000001
 31
0.0
  0
LINE
  5
AFB3
330
AE93
100
AcDbEntity
  8
1
  6
Continuous
100
AcDbLine
 10
145.68219
 20
95.01114399999996
 30
0.0
 11
148.55669
 21
95.01114399999996
 31
0.0
  0
LINE
  5
AFB4
330
AE93
100
AcDbEntity
  8
1
  6
Continuous
100
AcDbLine
 10
147.1966899999999
 20
95.61114399999999
 30
0.0
 11
147.1966899999999
 21
95.86114399999999
 31
0.0
  0
LINE
  5
AFB5
330
AE93
100
AcDbEntity
  8
1
  6
Continuous
100
AcDbLine
 10
158.1966899999999
 20
95.61114399999999
 30
0.0
 11
158.1966899999999
 21
95.86114399999999
 31
0.0
  0
LINE
  5
AFB6
330
AE93
100
AcDbEntity
  8
1
  6
Continuous
100
AcDbLine
 10
158.1966899999999
 20
95.61114399999999
 30
0.0
 11
158.1966899999999
 21
95.86114399999999
 31
0.0
  0
LINE
  5
AFB7
330
AE93
100
AcDbEntity
  8
1
  6
Continuous
100
AcDbLine
 10
148.55669
 20
91.21114400000001
 30
0.0
 11
148.55669
 21
95.01114399999996
 31
0.0
  0
LINE
  5
AFB8
330
AE93
100
AcDbEntity
  8
1
  6
Continuous
100
AcDbLine
 10
156.83669
 20
91.21114400000001
 30
0.0
 11
156.83669
 21
95.01114399999996
 31
0.0
  0
LINE
  5
AFB9
330
AE93
100
AcDbEntity
  8
1
  6
Continuous
100
AcDbLine
 10
150.6966899999999
 20
90.61114399999999
 30
0.0
 11
150.6966899999999
 21
95.61114399999999
 31
0.0
  0
LINE
  5
AFBA
330
AE93
100
AcDbEntity
  8
1
  6
Continuous
100
AcDbLine
 10
154.6966899999999
 20
90.61114399999999
 30
0.0
 11
154.6966899999999
 21
95.61114399999999
 31
0.0
  0
LINE
  5
AFBB
330
AE93
100
AcDbEntity
  8
1
  6
Continuous
100
AcDbLine
 10
159.7111899999999
 20
91.21114400000001
 30
0.0
 11
159.7111899999999
 21
95.01114399999996
 31
0.0
  0
LINE
  5
AFBC
330
AE93
100
AcDbEntity
  8
4
  6
CENTER
100
AcDbLine
 10
226.137785
 20
93.11114399999999
 30
0.0
 11
199.9377849999999
 21
93.11114399999999
 31
0.0
  0
LINE
  5
AFBD
330
AE93
100
AcDbEntity
  8
1
  6
Continuous
100
AcDbLine
 10
207.9377849999999
 20
95.61114399999999
 30
0.0
 11
205.724989
 21
95.61114399999999
 31
0.0
  0
LINE
  5
AFBE
330
AE93
100
AcDbEntity
  8
1
  6
Continuous
100
AcDbLine
 10
207.9377849999999
 20
90.61114399999999
 30
0.0
 11
205.724989
 21
90.61114399999999
 31
0.0
  0
LINE
  5
AFBF
330
AE93
100
AcDbEntity
  8
1
  6
Continuous
100
AcDbLine
 10
202.9377849999999
 20
95.01114399999996
 30
0.0
 11
202.9377849999999
 21
91.21114400000001
 31
0.0
  0
LINE
  5
AFC0
330
AE93
100
AcDbEntity
  8
1
  6
Continuous
100
AcDbLine
 10
205.3932459999999
 20
94.51114399999999
 30
0.0
 11
205.3932459999999
 21
91.71114399999996
 31
0.0
  0
LINE
  5
AFC1
330
AE93
100
AcDbEntity
  8
1
  6
Continuous
100
AcDbLine
 10
205.724989
 20
95.61114399999999
 30
0.0
 11
205.0026869999999
 21
95.01114399999996
 31
0.0
  0
LINE
  5
AFC2
330
AE93
100
AcDbEntity
  8
1
  6
Continuous
100
AcDbLine
 10
206.2197489999999
 20
95.61114399999999
 30
0.0
 11
205.686235
 21
95.01114399999996
 31
0.0
  0
LINE
  5
AFC3
330
AE93
100
AcDbEntity
  8
1
  6
Continuous
100
AcDbLine
 10
205.724989
 20
90.61114399999999
 30
0.0
 11
205.0026869999999
 21
91.21114400000001
 31
0.0
  0
LINE
  5
AFC4
330
AE93
100
AcDbEntity
  8
1
  6
Continuous
100
AcDbLine
 10
206.2197489999999
 20
90.61114399999999
 30
0.0
 11
205.686235
 21
91.21114400000001
 31
0.0
  0
LINE
  5
AFC5
330
AE93
100
AcDbEntity
  8
1
  6
Continuous
100
AcDbLine
 10
205.686235
 20
91.21114400000001
 30
0.0
 11
202.9377849999999
 21
91.21114400000001
 31
0.0
  0
LINE
  5
AFC6
330
AE93
100
AcDbEntity
  8
1
  6
Continuous
100
AcDbLine
 10
205.686235
 20
95.01114399999996
 30
0.0
 11
202.9377849999999
 21
95.01114399999996
 31
0.0
  0
LINE
  5
AFC7
330
AE93
100
AcDbEntity
  8
1
  6
Continuous
100
AcDbLine
 10
222.387785
 20
96.611144
 30
0.0
 11
208.1377849999999
 21
96.611144
 31
0.0
  0
LINE
  5
AFC8
330
AE93
100
AcDbEntity
  8
1
  6
Continuous
100
AcDbLine
 10
222.387785
 20
89.61114399999997
 30
0.0
 11
208.1377849999999
 21
89.61114399999997
 31
0.0
  0
LINE
  5
AFC9
330
AE93
100
AcDbEntity
  8
1
  6
Continuous
100
AcDbLine
 10
213.487785
 20
92.861144
 30
0.0
 11
213.487785
 21
91.361144
 31
0.0
  0
LINE
  5
AFCA
330
AE93
100
AcDbEntity
  8
1
  6
Continuous
100
AcDbLine
 10
212.3377849999999
 20
95.111144
 30
0.0
 11
212.3377849999999
 21
91.11114399999999
 31
0.0
  0
LINE
  5
AFCB
330
AE93
100
AcDbEntity
  8
1
  6
Continuous
100
AcDbLine
 10
212.837785
 20
95.111144
 30
0.0
 11
212.837785
 21
91.11114399999999
 31
0.0
  0
LINE
  5
AFCC
330
AE93
100
AcDbEntity
  8
1
  6
Continuous
100
AcDbLine
 10
213.1877849999999
 20
95.111144
 30
0.0
 11
213.1877849999999
 21
91.11114399999999
 31
0.0
  0
LINE
  5
AFCD
330
AE93
100
AcDbEntity
  8
1
  6
Continuous
100
AcDbLine
 10
214.180605
 20
95.111144
 30
0.0
 11
214.180605
 21
91.11114399999999
 31
0.0
  0
LINE
  5
AFCE
330
AE93
100
AcDbEntity
  8
1
  6
Continuous
100
AcDbLine
 10
214.6377849999999
 20
91.11114399999999
 30
0.0
 11
212.3377849999999
 21
91.11114399999999
 31
0.0
  0
LINE
  5
AFCF
330
AE93
100
AcDbEntity
  8
1
  6
Continuous
100
AcDbLine
 10
213.487785
 20
94.86114399999999
 30
0.0
 11
213.487785
 21
93.36114399999999
 31
0.0
  0
ARC
  5
AFD0
330
AE93
100
AcDbEntity
  8
1
  6
Continuous
100
AcDbCircle
 10
214.6377849999999
 20
95.41114399999999
 30
0.0
 40
0.3
100
AcDbArc
 50
270.0
 51
90.0
  0
LINE
  5
AFD1
330
AE93
100
AcDbEntity
  8
1
  6
Continuous
100
AcDbLine
 10
214.6377849999999
 20
95.71114399999999
 30
0.0
 11
210.9377849999999
 21
95.71114399999999
 31
0.0
  0
LINE
  5
AFD2
330
AE93
100
AcDbEntity
  8
1
  6
Continuous
100
AcDbLine
 10
214.6377849999999
 20
95.111144
 30
0.0
 11
212.3377849999999
 21
95.111144
 31
0.0
  0
LINE
  5
AFD3
330
AE93
100
AcDbEntity
  8
1
  6
Continuous
100
AcDbLine
 10
214.6377849999999
 20
90.51114400000001
 30
0.0
 11
210.9377849999999
 21
90.51114400000001
 31
0.0
  0
LINE
  5
AFD4
330
AE93
100
AcDbEntity
  8
1
  6
Continuous
100
AcDbLine
 10
210.9377849999999
 20
96.611144
 30
0.0
 11
210.9377849999999
 21
89.61114399999997
 31
0.0
  0
ARC
  5
AFD5
330
AE93
100
AcDbEntity
  8
1
  6
Continuous
100
AcDbCircle
 10
214.6377849999999
 20
90.81114400000002
 30
0.0
 40
0.3
100
AcDbArc
 50
270.0
 51
90.0
  0
ARC
  5
AFD6
330
AE93
100
AcDbEntity
  8
1
  6
Continuous
100
AcDbCircle
 10
222.387785
 20
95.86114399999999
 30
0.0
 40
0.75
100
AcDbArc
 50
0.0
 51
90.0
  0
ARC
  5
AFD7
330
AE93
100
AcDbEntity
  8
1
  6
Continuous
100
AcDbCircle
 10
222.387785
 20
90.361144
 30
0.0
 40
0.75
100
AcDbArc
 50
270.0
 51
0.0
  0
LINE
  5
AFD8
330
AE93
100
AcDbEntity
  8
1
  6
Continuous
100
AcDbLine
 10
223.137785
 20
95.86114399999999
 30
0.0
 11
223.137785
 21
90.361144
 31
0.0
  0
LINE
  5
AFD9
330
AE93
100
AcDbEntity
  8
1
  6
Continuous
100
AcDbLine
 10
207.5345659999999
 20
95.04114399999997
 30
0.0
 11
207.5345659999999
 21
91.18114400000001
 31
0.0
  0
ARC
  5
AFDA
330
AE93
100
AcDbEntity
  8
1
  6
Continuous
100
AcDbCircle
 10
208.1377849999999
 20
96.41114399999999
 30
0.0
 40
0.2
100
AcDbArc
 50
90.0
 51
180.0
  0
ARC
  5
AFDB
330
AE93
100
AcDbEntity
  8
1
  6
Continuous
100
AcDbCircle
 10
208.1377849999999
 20
89.811144
 30
0.0
 40
0.2
100
AcDbArc
 50
180.0
 51
270.0
  0
LINE
  5
AFDC
330
AE93
100
AcDbEntity
  8
1
  6
Continuous
100
AcDbLine
 10
207.9377849999999
 20
96.41114399999999
 30
0.0
 11
207.9377849999999
 21
89.811144
 31
0.0
  0
ARC
  5
AFDD
330
AE93
100
AcDbEntity
  8
1
  6
Continuous
100
AcDbCircle
 10
99.95561700000001
 20
263.263725
 30
0.0
 40
2.0
100
AcDbArc
 50
120.529706
 51
161.264294
  0
LINE
  5
AFDE
330
AE93
100
AcDbEntity
  8
1
  6
Continuous
100
AcDbLine
 10
97.45561700000001
 20
267.206131
 30
0.0
 11
97.45561700000001
 21
256.606131
 31
0.0
  0
LINE
  5
AFDF
330
AE93
100
AcDbEntity
  8
1
  6
Continuous
100
AcDbLine
 10
82.255617
 20
265.156131
 30
0.0
 11
82.255617
 21
258.656131
 31
0.0
  0
LINE
  5
AFE0
330
AE93
100
AcDbEntity
  8
1
  6
Continuous
100
AcDbLine
 10
106.355617
 20
266.0061309999999
 30
0.0
 11
106.355617
 21
257.8061309999998
 31
0.0
  0
LINE
  5
AFE1
330
AE93
100
AcDbEntity
  8
1
  6
Continuous
100
AcDbLine
 10
105.8556169999999
 20
266.906131
 30
0.0
 11
105.8556169999999
 21
256.906131
 31
0.0
  0
LINE
  5
AFE2
330
AE93
100
AcDbEntity
  8
1
  6
Continuous
100
AcDbLine
 10
104.355617
 20
265.5561309999999
 30
0.0
 11
104.355617
 21
263.906131
 31
0.0
  0
ARC
  5
AFE3
330
AE93
100
AcDbEntity
  8
1
  6
Continuous
100
AcDbCircle
 10
100.412935
 20
264.16345
 30
0.0
 40
0.257319
100
AcDbArc
 50
120.529706
 51
270.0
  0
LINE
  5
AFE4
330
AE93
100
AcDbEntity
  8
1
  6
Continuous
100
AcDbLine
 10
104.855617
 20
266.906131
 30
0.0
 11
104.855617
 21
256.906131
 31
0.0
  0
LINE
  5
AFE5
330
AE93
100
AcDbEntity
  8
4
  6
CENTER
100
AcDbLine
 10
32.01450100000001
 20
219.275763
 30
0.0
 11
32.01450100000001
 21
234.2757629999999
 31
0.0
  0
LINE
  5
AFE6
330
AE93
100
AcDbEntity
  8
1
  6
Continuous
100
AcDbLine
 10
28.014501
 20
231.2757629999999
 30
0.0
 11
36.014501
 21
231.2757629999999
 31
0.0
  0
LINE
  5
AFE7
330
AE93
100
AcDbEntity
  8
1
  6
Continuous
100
AcDbLine
 10
28.014501
 20
222.2757629999999
 30
0.0
 11
36.014501
 21
222.2757629999999
 31
0.0
  0
LINE
  5
AFE8
330
AE93
100
AcDbEntity
  8
1
  6
Continuous
100
AcDbLine
 10
30.214501
 20
225.8757629999998
 30
0.0
 11
32.01450100000001
 21
226.0743799999999
 31
0.0
  0
LINE
  5
AFE9
330
AE93
100
AcDbEntity
  8
1
  6
Continuous
100
AcDbLine
 10
30.214501
 20
227.675763
 30
0.0
 11
32.01450100000001
 21
227.4771470000001
 31
0.0
  0
LINE
  5
AFEA
330
AE93
100
AcDbEntity
  8
1
  6
Continuous
100
AcDbLine
 10
32.01450100000001
 20
225.8757629999998
 30
0.0
 11
29.514501
 21
225.8757629999998
 31
0.0
  0
LINE
  5
AFEB
330
AE93
100
AcDbEntity
  8
1
  6
Continuous
100
AcDbLine
 10
32.01450100000001
 20
227.675763
 30
0.0
 11
29.514501
 21
227.675763
 31
0.0
  0
LINE
  5
AFEC
330
AE93
100
AcDbEntity
  8
1
  6
Continuous
100
AcDbLine
 10
32.01450100000001
 20
224.2757629999999
 30
0.0
 11
30.014501
 21
224.2757629999999
 31
0.0
  0
LINE
  5
AFED
330
AE93
100
AcDbEntity
  8
1
  6
Continuous
100
AcDbLine
 10
32.01450100000001
 20
229.275763
 30
0.0
 11
30.014501
 21
229.275763
 31
0.0
  0
LINE
  5
AFEE
330
AE93
100
AcDbEntity
  8
1
  6
Continuous
100
AcDbLine
 10
36.764501
 20
223.275763
 30
0.0
 11
27.264501
 21
223.275763
 31
0.0
  0
LINE
  5
AFEF
330
AE93
100
AcDbEntity
  8
1
  6
Continuous
100
AcDbLine
 10
36.764501
 20
230.2757629999999
 30
0.0
 11
27.264501
 21
230.2757629999999
 31
0.0
  0
LINE
  5
AFF0
330
AE93
100
AcDbEntity
  8
4
  6
CENTER
100
AcDbLine
 10
40.514501
 20
226.7757629999999
 30
0.0
 11
23.514501
 21
226.7757629999999
 31
0.0
  0
LINE
  5
AFF1
330
AE93
100
AcDbEntity
  8
1
  6
Continuous
100
AcDbLine
 10
27.014501
 20
223.3186569999999
 30
0.0
 11
27.014501
 21
223.275763
 31
0.0
  0
LINE
  5
AFF2
330
AE93
100
AcDbEntity
  8
1
  6
Continuous
100
AcDbLine
 10
27.014501
 20
230.2757629999999
 30
0.0
 11
27.014501
 21
230.2328699999999
 31
0.0
  0
ARC
  5
AFF3
330
AE93
100
AcDbEntity
  8
1
  6
Continuous
100
AcDbCircle
 10
28.014501
 20
223.275763
 30
0.0
 40
1.0
100
AcDbArc
 50
180.0
 51
270.0
  0
ARC
  5
AFF4
330
AE93
100
AcDbEntity
  8
1
  6
Continuous
100
AcDbCircle
 10
28.014501
 20
230.2757629999999
 30
0.0
 40
1.0
100
AcDbArc
 50
90.0
 51
180.0
  0
LINE
  5
AFF5
330
AE93
100
AcDbEntity
  8
1
  6
Continuous
100
AcDbLine
 10
28.014501
 20
224.2757629999999
 30
0.0
 11
27.514501
 21
224.2757629999999
 31
0.0
  0
LINE
  5
AFF6
330
AE93
100
AcDbEntity
  8
1
  6
Continuous
100
AcDbLine
 10
28.014501
 20
229.275763
 30
0.0
 11
27.514501
 21
229.275763
 31
0.0
  0
LINE
  5
AFF7
330
AE93
100
AcDbEntity
  8
1
  6
Continuous
100
AcDbLine
 10
27.514501
 20
224.2757629999999
 30
0.0
 11
27.514501
 21
229.275763
 31
0.0
  0
LINE
  5
AFF8
330
AE93
100
AcDbEntity
  8
1
  6
Continuous
100
AcDbLine
 10
31.349531
 20
225.6994629999999
 30
0.0
 11
29.514501
 21
225.6994629999999
 31
0.0
  0
LINE
  5
AFF9
330
AE93
100
AcDbEntity
  8
1
  6
Continuous
100
AcDbLine
 10
29.514501
 20
225.0520549999999
 30
0.0
 11
31.349531
 21
225.0520549999999
 31
0.0
  0
LINE
  5
AFFA
330
AE93
100
AcDbEntity
  8
1
  6
Continuous
100
AcDbLine
 10
31.349531
 20
225.0520549999999
 30
0.0
 11
31.349531
 21
225.6994629999999
 31
0.0
  0
LINE
  5
AFFB
330
AE93
100
AcDbEntity
  8
1
  6
Continuous
100
AcDbLine
 10
31.349531
 20
227.852063
 30
0.0
 11
29.514501
 21
227.852063
 31
0.0
  0
LINE
  5
AFFC
330
AE93
100
AcDbEntity
  8
1
  6
Continuous
100
AcDbLine
 10
29.514501
 20
228.499472
 30
0.0
 11
31.349531
 21
228.499472
 31
0.0
  0
LINE
  5
AFFD
330
AE93
100
AcDbEntity
  8
1
  6
Continuous
100
AcDbLine
 10
31.349531
 20
228.499472
 30
0.0
 11
31.349531
 21
227.852063
 31
0.0
  0
LINE
  5
AFFE
330
AE93
100
AcDbEntity
  8
1
  6
Continuous
100
AcDbLine
 10
30.214501
 20
225.8757629999998
 30
0.0
 11
30.214501
 21
227.675763
 31
0.0
  0
LINE
  5
AFFF
330
AE93
100
AcDbEntity
  8
1
  6
Continuous
100
AcDbLine
 10
30.014501
 20
224.8757629999999
 30
0.0
 11
30.014501
 21
224.2757629999999
 31
0.0
  0
LINE
  5
B000
330
AE93
100
AcDbEntity
  8
1
  6
Continuous
100
AcDbLine
 10
30.014501
 20
224.8757629999999
 30
0.0
 11
29.514501
 21
224.8757629999999
 31
0.0
  0
LINE
  5
B001
330
AE93
100
AcDbEntity
  8
1
  6
Continuous
100
AcDbLine
 10
30.014501
 20
228.6757629999999
 30
0.0
 11
29.514501
 21
228.6757629999999
 31
0.0
  0
LINE
  5
B002
330
AE93
100
AcDbEntity
  8
1
  6
Continuous
100
AcDbLine
 10
29.514501
 20
228.6757629999999
 30
0.0
 11
29.514501
 21
224.8757629999999
 31
0.0
  0
LINE
  5
B003
330
AE93
100
AcDbEntity
  8
1
  6
Continuous
100
AcDbLine
 10
30.014501
 20
229.275763
 30
0.0
 11
30.014501
 21
228.6757629999999
 31
0.0
  0
ARC
  5
B004
330
AE93
100
AcDbEntity
  8
1
  6
Continuous
100
AcDbCircle
 10
28.21450099999999
 20
230.075763
 30
0.0
 40
0.2
100
AcDbArc
 50
90.0
 51
180.0
  0
ARC
  5
B005
330
AE93
100
AcDbEntity
  8
1
  6
Continuous
100
AcDbCircle
 10
28.21450099999999
 20
223.475763
 30
0.0
 40
0.2
100
AcDbArc
 50
180.0
 51
270.0
  0
LINE
  5
B006
330
AE93
100
AcDbEntity
  8
1
  6
Continuous
100
AcDbLine
 10
26.51450099999999
 20
224.0257629999999
 30
0.0
 11
26.51450099999999
 21
229.525763
 31
0.0
  0
ARC
  5
B007
330
AE93
100
AcDbEntity
  8
1
  6
Continuous
100
AcDbCircle
 10
27.264501
 20
224.0257629999999
 30
0.0
 40
0.75
100
AcDbArc
 50
180.0
 51
270.0
  0
ARC
  5
B008
330
AE93
100
AcDbEntity
  8
1
  6
Continuous
100
AcDbCircle
 10
27.264501
 20
229.525763
 30
0.0
 40
0.75
100
AcDbArc
 50
90.0
 51
180.0
  0
LINE
  5
B009
330
AE93
100
AcDbEntity
  8
1
  6
Continuous
100
AcDbLine
 10
26.51450099999999
 20
224.0257629999999
 30
0.0
 11
26.51450099999999
 21
229.525763
 31
0.0
  0
LINE
  5
B00A
330
AE93
100
AcDbEntity
  8
1
  6
Continuous
100
AcDbLine
 10
28.014501
 20
224.7757629999999
 30
0.0
 11
27.614501
 21
224.7757629999999
 31
0.0
  0
LINE
  5
B00B
330
AE93
100
AcDbEntity
  8
1
  6
Continuous
100
AcDbLine
 10
28.014501
 20
228.7757629999999
 30
0.0
 11
27.614501
 21
228.7757629999999
 31
0.0
  0
LINE
  5
B00C
330
AE93
100
AcDbEntity
  8
1
  6
Continuous
100
AcDbLine
 10
27.614501
 20
224.7757629999999
 30
0.0
 11
27.614501
 21
228.7757629999999
 31
0.0
  0
LINE
  5
B00D
330
AE93
100
AcDbEntity
  8
1
  6
Continuous
100
AcDbLine
 10
28.014501
 20
223.475763
 30
0.0
 11
28.014501
 21
230.075763
 31
0.0
  0
LINE
  5
B00E
330
AE93
100
AcDbEntity
  8
1
  6
Continuous
100
AcDbLine
 10
37.01450100000001
 20
223.3186569999999
 30
0.0
 11
37.01450100000001
 21
223.275763
 31
0.0
  0
ARC
  5
B00F
330
AE93
100
AcDbEntity
  8
1
  6
Continuous
100
AcDbCircle
 10
36.014501
 20
230.2757629999999
 30
0.0
 40
1.0
100
AcDbArc
 50
0.0
 51
90.0
  0
LINE
  5
B010
330
AE93
100
AcDbEntity
  8
1
  6
Continuous
100
AcDbLine
 10
37.01450100000001
 20
230.2757629999999
 30
0.0
 11
37.01450100000001
 21
230.2328699999999
 31
0.0
  0
ARC
  5
B011
330
AE93
100
AcDbEntity
  8
1
  6
Continuous
100
AcDbCircle
 10
36.014501
 20
223.275763
 30
0.0
 40
1.0
100
AcDbArc
 50
270.0
 51
0.0
  0
LINE
  5
B012
330
AE93
100
AcDbEntity
  8
1
  6
Continuous
100
AcDbLine
 10
36.514501
 20
224.2757629999999
 30
0.0
 11
36.014501
 21
224.2757629999999
 31
0.0
  0
LINE
  5
B013
330
AE93
100
AcDbEntity
  8
1
  6
Continuous
100
AcDbLine
 10
36.514501
 20
229.275763
 30
0.0
 11
36.014501
 21
229.275763
 31
0.0
  0
LINE
  5
B014
330
AE93
100
AcDbEntity
  8
1
  6
Continuous
100
AcDbLine
 10
36.514501
 20
224.2757629999999
 30
0.0
 11
36.514501
 21
229.275763
 31
0.0
  0
LINE
  5
B015
330
AE93
100
AcDbEntity
  8
1
  6
Continuous
100
AcDbLine
 10
32.01450100000001
 20
229.275763
 30
0.0
 11
32.01450100000001
 21
224.2757629999999
 31
0.0
  0
ARC
  5
B016
330
AE93
100
AcDbEntity
  8
1
  6
Continuous
100
AcDbCircle
 10
35.814501
 20
223.475763
 30
0.0
 40
0.2
100
AcDbArc
 50
270.0
 51
0.0
  0
ARC
  5
B017
330
AE93
100
AcDbEntity
  8
1
  6
Continuous
100
AcDbCircle
 10
35.814501
 20
230.075763
 30
0.0
 40
0.2
100
AcDbArc
 50
0.0
 51
90.0
  0
ARC
  5
B018
330
AE93
100
AcDbEntity
  8
1
  6
Continuous
100
AcDbCircle
 10
36.764501
 20
224.0257629999999
 30
0.0
 40
0.75
100
AcDbArc
 50
270.0
 51
0.0
  0
ARC
  5
B019
330
AE93
100
AcDbEntity
  8
1
  6
Continuous
100
AcDbCircle
 10
36.764501
 20
229.525763
 30
0.0
 40
0.75
100
AcDbArc
 50
0.0
 51
90.0
  0
LINE
  5
B01A
330
AE93
100
AcDbEntity
  8
1
  6
Continuous
100
AcDbLine
 10
36.414501
 20
224.7757629999999
 30
0.0
 11
36.014501
 21
224.7757629999999
 31
0.0
  0
LINE
  5
B01B
330
AE93
100
AcDbEntity
  8
1
  6
Continuous
100
AcDbLine
 10
36.414501
 20
228.7757629999999
 30
0.0
 11
36.014501
 21
228.7757629999999
 31
0.0
  0
LINE
  5
B01C
330
AE93
100
AcDbEntity
  8
1
  6
Continuous
100
AcDbLine
 10
36.414501
 20
224.7757629999999
 30
0.0
 11
36.414501
 21
228.7757629999999
 31
0.0
  0
LINE
  5
B01D
330
AE93
100
AcDbEntity
  8
1
  6
Continuous
100
AcDbLine
 10
37.514501
 20
224.0257629999999
 30
0.0
 11
37.514501
 21
229.525763
 31
0.0
  0
LINE
  5
B01E
330
AE93
100
AcDbEntity
  8
1
  6
Continuous
100
AcDbLine
 10
36.014501
 20
223.475763
 30
0.0
 11
36.014501
 21
230.075763
 31
0.0
  0
LINE
  5
B01F
330
AE93
100
AcDbEntity
  8
4
  6
CENTER
100
AcDbLine
 10
79.255617
 20
191.645407
 30
0.0
 11
109.355617
 21
191.645407
 31
0.0
  0
LINE
  5
B020
330
AE93
100
AcDbEntity
  8
1
  6
Continuous
100
AcDbLine
 10
94.455617
 20
186.145407
 30
0.0
 11
97.255617
 21
186.145407
 31
0.0
  0
LINE
  5
B021
330
AE93
100
AcDbEntity
  8
1
  6
Continuous
100
AcDbLine
 10
94.455617
 20
197.145407
 30
0.0
 11
97.255617
 21
197.145407
 31
0.0
  0
LINE
  5
B022
330
AE93
100
AcDbEntity
  8
1
  6
Continuous
100
AcDbLine
 10
83.00561700000001
 20
187.645407
 30
0.0
 11
94.455617
 21
187.645407
 31
0.0
  0
LINE
  5
B023
330
AE93
100
AcDbEntity
  8
1
  6
Continuous
100
AcDbLine
 10
92.255617
 20
187.4454069999999
 30
0.0
 11
92.57561700000001
 21
187.645407
 31
0.0
  0
LINE
  5
B024
330
AE93
100
AcDbEntity
  8
1
  6
Continuous
100
AcDbLine
 10
92.20561700000001
 20
187.245407
 30
0.0
 11
92.255617
 21
187.4454069999999
 31
0.0
  0
LINE
  5
B025
330
AE93
100
AcDbEntity
  8
1
  6
Continuous
100
AcDbLine
 10
94.455617
 20
187.645407
 30
0.0
 11
94.455617
 21
186.145407
 31
0.0
  0
LINE
  5
B026
330
AE93
100
AcDbEntity
  8
1
  6
Continuous
100
AcDbLine
 10
91.90561700000001
 20
187.245407
 30
0.0
 11
91.21279599999999
 21
187.645407
 31
0.0
  0
LINE
  5
B027
330
AE93
100
AcDbEntity
  8
1
  6
Continuous
100
AcDbLine
 10
91.90561700000001
 20
187.245407
 30
0.0
 11
92.20561700000001
 21
187.245407
 31
0.0
  0
ARC
  5
B028
330
AE93
100
AcDbEntity
  8
1
  6
Continuous
100
AcDbCircle
 10
83.00561700000001
 20
188.395407
 30
0.0
 40
0.75
100
AcDbArc
 50
180.0
 51
270.0
  0
LINE
  5
B029
330
AE93
100
AcDbEntity
  8
1
  6
Continuous
100
AcDbLine
 10
83.00561700000001
 20
195.645407
 30
0.0
 11
94.455617
 21
195.645407
 31
0.0
  0
LINE
  5
B02A
330
AE93
100
AcDbEntity
  8
1
  6
Continuous
100
AcDbLine
 10
92.20561700000001
 20
196.045407
 30
0.0
 11
92.255617
 21
195.8454069999999
 31
0.0
  0
LINE
  5
B02B
330
AE93
100
AcDbEntity
  8
1
  6
Continuous
100
AcDbLine
 10
92.255617
 20
195.8454069999999
 30
0.0
 11
92.57561700000001
 21
195.645407
 31
0.0
  0
LINE
  5
B02C
330
AE93
100
AcDbEntity
  8
1
  6
Continuous
100
AcDbLine
 10
92.20561700000001
 20
196.045407
 30
0.0
 11
92.255617
 21
195.8454069999999
 31
0.0
  0
LINE
  5
B02D
330
AE93
100
AcDbEntity
  8
1
  6
Continuous
100
AcDbLine
 10
94.455617
 20
197.145407
 30
0.0
 11
94.455617
 21
195.645407
 31
0.0
  0
LINE
  5
B02E
330
AE93
100
AcDbEntity
  8
1
  6
Continuous
100
AcDbLine
 10
91.90561700000001
 20
196.045407
 30
0.0
 11
91.21279599999999
 21
195.645407
 31
0.0
  0
LINE
  5
B02F
330
AE93
100
AcDbEntity
  8
1
  6
Continuous
100
AcDbLine
 10
91.90561700000001
 20
196.045407
 30
0.0
 11
92.20561700000001
 21
196.045407
 31
0.0
  0
ARC
  5
B030
330
AE93
100
AcDbEntity
  8
1
  6
Continuous
100
AcDbCircle
 10
83.00561700000001
 20
194.895407
 30
0.0
 40
0.75
100
AcDbArc
 50
90.0
 51
180.0
  0
LINE
  5
B031
330
AE93
100
AcDbEntity
  8
1
  6
Continuous
100
AcDbLine
 10
82.255617
 20
188.395407
 30
0.0
 11
82.255617
 21
194.895407
 31
0.0
  0
LINE
  5
B032
330
AE93
100
AcDbEntity
  8
1
  6
Continuous
100
AcDbLine
 10
99.85561700000005
 20
189.9454069999999
 30
0.0
 11
99.85561700000005
 21
190.895407
 31
0.0
  0
LINE
  5
B033
330
AE93
100
AcDbEntity
  8
1
  6
Continuous
100
AcDbLine
 10
102.855617
 20
189.645407
 30
0.0
 11
102.855617
 21
190.895407
 31
0.0
  0
ARC
  5
B034
330
AE93
100
AcDbEntity
  8
1
  6
Continuous
100
AcDbCircle
 10
100.155617
 20
189.9454069999999
 30
0.0
 40
0.3
100
AcDbArc
 50
180.0
 51
270.0
  0
LINE
  5
B035
330
AE93
100
AcDbEntity
  8
1
  6
Continuous
100
AcDbLine
 10
99.24082900000001
 20
188.097418
 30
0.0
 11
99.24653000000001
 21
187.9809899999999
 31
0.0
  0
ARC
  5
B036
330
AE93
100
AcDbEntity
  8
1
  6
Continuous
100
AcDbCircle
 10
98.747129
 20
187.9565359999998
 30
0.0
 40
0.5
100
AcDbArc
 50
287.739739
 51
2.803322
  0
ARC
  5
B037
330
AE93
100
AcDbEntity
  8
1
  6
Continuous
100
AcDbCircle
 10
98.74142800000001
 20
188.072964
 30
0.0
 40
0.5
100
AcDbArc
 50
2.803322
 51
53.61910400000001
  0
LINE
  5
B038
330
AE93
100
AcDbEntity
  8
1
  6
Continuous
100
AcDbLine
 10
106.355617
 20
187.545407
 30
0.0
 11
105.8556169999999
 21
186.6454069999998
 31
0.0
  0
LINE
  5
B039
330
AE93
100
AcDbEntity
  8
1
  6
Continuous
100
AcDbLine
 10
104.855617
 20
186.6454069999998
 30
0.0
 11
105.8556169999999
 21
186.6454069999998
 31
0.0
  0
ARC
  5
B03A
330
AE93
100
AcDbEntity
  8
1
  6
Continuous
100
AcDbCircle
 10
104.655617
 20
187.995407
 30
0.0
 40
0.3
100
AcDbArc
 50
180.0
 51
270.0
  0
LINE
  5
B03B
330
AE93
100
AcDbEntity
  8
1
  6
Continuous
100
AcDbLine
 10
104.655617
 20
187.695407
 30
0.0
 11
104.855617
 21
187.695407
 31
0.0
  0
LINE
  5
B03C
330
AE93
100
AcDbEntity
  8
1
  6
Continuous
100
AcDbLine
 10
100.155617
 20
189.645407
 30
0.0
 11
104.855617
 21
189.645407
 31
0.0
  0
LINE
  5
B03D
330
AE93
100
AcDbEntity
  8
1
  6
Continuous
100
AcDbLine
 10
104.355617
 20
187.995407
 30
0.0
 11
104.355617
 21
189.645407
 31
0.0
  0
ARC
  5
B03E
330
AE93
100
AcDbEntity
  8
1
  6
Continuous
100
AcDbCircle
 10
100.412935
 20
189.3880879999999
 30
0.0
 40
0.257319
100
AcDbArc
 50
90.0
 51
239.470294
  0
LINE
  5
B03F
330
AE93
100
AcDbEntity
  8
1
  6
Continuous
100
AcDbLine
 10
100.2822209999998
 20
189.1664429999999
 30
0.0
 11
102.183109
 21
188.045407
 31
0.0
  0
LINE
  5
B040
330
AE93
100
AcDbEntity
  8
1
  6
Continuous
100
AcDbLine
 10
102.355617
 20
187.145407
 30
0.0
 11
103.5320369999999
 21
187.4553029999999
 31
0.0
  0
ARC
  5
B041
330
AE93
100
AcDbEntity
  8
1
  6
Continuous
100
AcDbCircle
 10
103.455617
 20
187.7454069999998
 30
0.0
 40
0.3
100
AcDbArc
 50
284.757791
 51
90.0
  0
LINE
  5
B042
330
AE93
100
AcDbEntity
  8
1
  6
Continuous
100
AcDbLine
 10
102.183109
 20
188.045407
 30
0.0
 11
103.455617
 21
188.045407
 31
0.0
  0
LINE
  5
B043
330
AE93
100
AcDbEntity
  8
1
  6
Continuous
100
AcDbLine
 10
102.355617
 20
186.845407
 30
0.0
 11
102.355617
 21
187.145407
 31
0.0
  0
LINE
  5
B044
330
AE93
100
AcDbEntity
  8
1
  6
Continuous
100
AcDbLine
 10
98.93964699999999
 20
188.5650809999999
 30
0.0
 11
101.855617
 21
186.845407
 31
0.0
  0
LINE
  5
B045
330
AE93
100
AcDbEntity
  8
1
  6
Continuous
100
AcDbLine
 10
101.855617
 20
186.845407
 30
0.0
 11
102.355617
 21
186.845407
 31
0.0
  0
ARC
  5
B046
330
AE93
100
AcDbEntity
  8
1
  6
Continuous
100
AcDbCircle
 10
97.30591
 20
188.545406
 30
0.0
 40
1.5
100
AcDbArc
 50
275.727922
 51
287.739739
  0
ARC
  5
B047
330
AE93
100
AcDbEntity
  8
1
  6
Continuous
100
AcDbCircle
 10
97.255617
 20
186.3454069999999
 30
0.0
 40
0.2
100
AcDbArc
 50
270.0
 51
0.0
  0
LINE
  5
B048
330
AE93
100
AcDbEntity
  8
1
  6
Continuous
100
AcDbLine
 10
97.45561700000001
 20
189.645407
 30
0.0
 11
98.061596
 21
189.645407
 31
0.0
  0
ARC
  5
B049
330
AE93
100
AcDbEntity
  8
1
  6
Continuous
100
AcDbCircle
 10
99.95561700000001
 20
190.2878129999998
 30
0.0
 40
2.0
100
AcDbArc
 50
198.735706
 51
239.470294
  0
LINE
  5
B04A
330
AE93
100
AcDbEntity
  8
1
  6
Continuous
100
AcDbLine
 10
98.89947600000001
 20
187.480311
 30
0.0
 11
97.762951
 21
187.1167309999999
 31
0.0
  0
ARC
  5
B04B
330
AE93
100
AcDbEntity
  8
1
  6
Continuous
100
AcDbCircle
 10
90.733896
 20
177.2042279999998
 30
0.0
 40
14.0
100
AcDbArc
 50
53.61910400000001
 51
61.30656899999999
  0
LINE
  5
B04C
330
AE93
100
AcDbEntity
  8
1
  6
Continuous
100
AcDbLine
 10
97.45561700000001
 20
190.895407
 30
0.0
 11
104.855617
 21
190.895407
 31
0.0
  0
LINE
  5
B04D
330
AE93
100
AcDbEntity
  8
1
  6
Continuous
100
AcDbLine
 10
97.45561700000001
 20
192.395407
 30
0.0
 11
104.855617
 21
192.395407
 31
0.0
  0
ARC
  5
B04E
330
AE93
100
AcDbEntity
  8
1
  6
Continuous
100
AcDbCircle
 10
100.155617
 20
193.3454069999999
 30
0.0
 40
0.3
100
AcDbArc
 50
90.0
 51
180.0
  0
ARC
  5
B04F
330
AE93
100
AcDbEntity
  8
1
  6
Continuous
100
AcDbCircle
 10
98.74142800000001
 20
195.217849
 30
0.0
 40
0.5
100
AcDbArc
 50
306.380896
 51
357.1966779999999
  0
LINE
  5
B050
330
AE93
100
AcDbEntity
  8
1
  6
Continuous
100
AcDbLine
 10
99.24082900000001
 20
195.193395
 30
0.0
 11
99.24653000000001
 21
195.3098229999999
 31
0.0
  0
ARC
  5
B051
330
AE93
100
AcDbEntity
  8
1
  6
Continuous
100
AcDbCircle
 10
98.747129
 20
195.3342769999999
 30
0.0
 40
0.5
100
AcDbArc
 50
357.1966779999999
 51
72.260261
  0
LINE
  5
B052
330
AE93
100
AcDbEntity
  8
1
  6
Continuous
100
AcDbLine
 10
106.355617
 20
195.745407
 30
0.0
 11
105.8556169999999
 21
196.645407
 31
0.0
  0
LINE
  5
B053
330
AE93
100
AcDbEntity
  8
1
  6
Continuous
100
AcDbLine
 10
104.855617
 20
196.645407
 30
0.0
 11
105.8556169999999
 21
196.645407
 31
0.0
  0
ARC
  5
B054
330
AE93
100
AcDbEntity
  8
1
  6
Continuous
100
AcDbCircle
 10
104.655617
 20
195.295407
 30
0.0
 40
0.3
100
AcDbArc
 50
90.0
 51
180.0
  0
LINE
  5
B055
330
AE93
100
AcDbEntity
  8
1
  6
Continuous
100
AcDbLine
 10
104.655617
 20
195.5954069999999
 30
0.0
 11
104.855617
 21
195.5954069999999
 31
0.0
  0
LINE
  5
B056
330
AE93
100
AcDbEntity
  8
1
  6
Continuous
100
AcDbLine
 10
100.155617
 20
193.645407
 30
0.0
 11
104.855617
 21
193.645407
 31
0.0
  0
LINE
  5
B057
330
AE93
100
AcDbEntity
  8
1
  6
Continuous
100
AcDbLine
 10
104.355617
 20
195.295407
 30
0.0
 11
104.355617
 21
193.645407
 31
0.0
  0
ARC
  5
B058
330
AE93
100
AcDbEntity
  8
1
  6
Continuous
100
AcDbCircle
 10
100.412935
 20
193.902725
 30
0.0
 40
0.257319
100
AcDbArc
 50
120.529706
 51
270.0
  0
LINE
  5
B059
330
AE93
100
AcDbEntity
  8
1
  6
Continuous
100
AcDbLine
 10
100.2822209999998
 20
194.124371
 30
0.0
 11
102.183109
 21
195.245407
 31
0.0
  0
LINE
  5
B05A
330
AE93
100
AcDbEntity
  8
1
  6
Continuous
100
AcDbLine
 10
102.355617
 20
196.145407
 30
0.0
 11
103.5320369999999
 21
195.83551
 31
0.0
  0
ARC
  5
B05B
330
AE93
100
AcDbEntity
  8
1
  6
Continuous
100
AcDbCircle
 10
103.455617
 20
195.545407
 30
0.0
 40
0.3
100
AcDbArc
 50
270.0
 51
75.242209
  0
LINE
  5
B05C
330
AE93
100
AcDbEntity
  8
1
  6
Continuous
100
AcDbLine
 10
102.183109
 20
195.245407
 30
0.0
 11
103.455617
 21
195.245407
 31
0.0
  0
LINE
  5
B05D
330
AE93
100
AcDbEntity
  8
1
  6
Continuous
100
AcDbLine
 10
102.355617
 20
196.445407
 30
0.0
 11
102.355617
 21
196.145407
 31
0.0
  0
LINE
  5
B05E
330
AE93
100
AcDbEntity
  8
1
  6
Continuous
100
AcDbLine
 10
98.93964699999999
 20
194.725732
 30
0.0
 11
101.855617
 21
196.445407
 31
0.0
  0
LINE
  5
B05F
330
AE93
100
AcDbEntity
  8
1
  6
Continuous
100
AcDbLine
 10
101.855617
 20
196.445407
 30
0.0
 11
102.355617
 21
196.445407
 31
0.0
  0
ARC
  5
B060
330
AE93
100
AcDbEntity
  8
1
  6
Continuous
100
AcDbCircle
 10
97.30591
 20
194.745407
 30
0.0
 40
1.5
100
AcDbArc
 50
72.260261
 51
84.27207799999997
  0
ARC
  5
B061
330
AE93
100
AcDbEntity
  8
1
  6
Continuous
100
AcDbCircle
 10
97.255617
 20
196.9454069999999
 30
0.0
 40
0.2
100
AcDbArc
 50
0.0
 51
90.0
  0
LINE
  5
B062
330
AE93
100
AcDbEntity
  8
1
  6
Continuous
100
AcDbLine
 10
97.45561700000001
 20
193.645407
 30
0.0
 11
98.061596
 21
193.645407
 31
0.0
  0
ARC
  5
B063
330
AE93
100
AcDbEntity
  8
1
  6
Continuous
100
AcDbCircle
 10
99.95561700000001
 20
193.003
 30
0.0
 40
2.0
100
AcDbArc
 50
120.529706
 51
161.264294
  0
ARC
  5
B064
330
AE93
100
AcDbEntity
  8
1
  6
Continuous
100
AcDbCircle
 10
90.733896
 20
206.086586
 30
0.0
 40
14.0
100
AcDbArc
 50
298.6934309999999
 51
306.380896
  0
LINE
  5
B065
330
AE93
100
AcDbEntity
  8
1
  6
Continuous
100
AcDbLine
 10
98.89947600000001
 20
195.8105019999999
 30
0.0
 11
97.762951
 21
196.1740819999999
 31
0.0
  0
LINE
  5
B066
330
AE93
100
AcDbEntity
  8
1
  6
Continuous
100
AcDbLine
 10
102.855617
 20
192.395407
 30
0.0
 11
102.855617
 21
193.645407
 31
0.0
  0
LINE
  5
B067
330
AE93
100
AcDbEntity
  8
1
  6
Continuous
100
AcDbLine
 10
106.355617
 20
187.545407
 30
0.0
 11
106.355617
 21
195.745407
 31
0.0
  0
LINE
  5
B068
330
AE93
100
AcDbEntity
  8
1
  6
Continuous
100
AcDbLine
 10
105.8556169999999
 20
186.6454069999998
 30
0.0
 11
105.8556169999999
 21
196.645407
 31
0.0
  0
LINE
  5
B069
330
AE93
100
AcDbEntity
  8
1
  6
Continuous
100
AcDbLine
 10
104.855617
 20
186.6454069999998
 30
0.0
 11
104.855617
 21
196.645407
 31
0.0
  0
LINE
  5
B06A
330
AE93
100
AcDbEntity
  8
1
  6
Continuous
100
AcDbLine
 10
97.45561700000001
 20
186.3454069999999
 30
0.0
 11
97.45561700000001
 21
196.9454069999999
 31
0.0
  0
LINE
  5
B06B
330
AE93
100
AcDbEntity
  8
1
  6
Continuous
100
AcDbLine
 10
99.85561700000005
 20
192.395407
 30
0.0
 11
99.85561700000005
 21
193.3454069999999
 31
0.0
  0
LINE
  5
B06C
330
AE93
100
AcDbEntity
  8
4
  6
CENTER
100
AcDbLine
 10
90.85557900000001
 20
226.7757689999999
 30
0.0
 11
109.355579
 21
226.7757689999999
 31
0.0
  0
LINE
  5
B06D
330
AE93
100
AcDbEntity
  8
4
  6
CENTER
100
AcDbLine
 10
79.25559599999998
 20
226.7757689999999
 30
0.0
 11
105.455596
 21
226.7757689999999
 31
0.0
  0
LINE
  5
B06E
330
AE93
100
AcDbEntity
  8
1
  6
Continuous
100
AcDbLine
 10
83.00559599999997
 20
223.275769
 30
0.0
 11
97.255596
 21
223.275769
 31
0.0
  0
LINE
  5
B06F
330
AE93
100
AcDbEntity
  8
1
  6
Continuous
100
AcDbLine
 10
83.00559599999997
 20
230.2757689999999
 30
0.0
 11
97.255596
 21
230.2757689999999
 31
0.0
  0
LINE
  5
B070
330
AE93
100
AcDbEntity
  8
1
  6
Continuous
100
AcDbLine
 10
94.455617
 20
256.406131
 30
0.0
 11
97.255617
 21
256.406131
 31
0.0
  0
LINE
  5
B071
330
AE93
100
AcDbEntity
  8
4
  6
CENTER
100
AcDbLine
 10
79.255617
 20
261.906131
 30
0.0
 11
109.355617
 21
261.906131
 31
0.0
  0
ARC
  5
B072
330
AE93
100
AcDbEntity
  8
1
  6
Continuous
100
AcDbCircle
 10
83.00559599999997
 20
224.0257689999999
 30
0.0
 40
0.75
100
AcDbArc
 50
180.0
 51
270.0
  0
ARC
  5
B073
330
AE93
100
AcDbEntity
  8
1
  6
Continuous
100
AcDbCircle
 10
83.00559599999997
 20
229.525769
 30
0.0
 40
0.75
100
AcDbArc
 50
90.0
 51
180.0
  0
ARC
  5
B074
330
AE93
100
AcDbEntity
  8
1
  6
Continuous
100
AcDbCircle
 10
90.755596
 20
224.4757689999999
 30
0.0
 40
0.3
100
AcDbArc
 50
90.0
 51
270.0
  0
LINE
  5
B075
330
AE93
100
AcDbEntity
  8
1
  6
Continuous
100
AcDbLine
 10
90.755596
 20
224.175769
 30
0.0
 11
94.45559600000001
 21
224.175769
 31
0.0
  0
LINE
  5
B076
330
AE93
100
AcDbEntity
  8
1
  6
Continuous
100
AcDbLine
 10
90.755596
 20
224.7757689999999
 30
0.0
 11
93.055596
 21
224.7757689999999
 31
0.0
  0
LINE
  5
B077
330
AE93
100
AcDbEntity
  8
1
  6
Continuous
100
AcDbLine
 10
91.905596
 20
228.5257689999999
 30
0.0
 11
91.905596
 21
227.025769
 31
0.0
  0
LINE
  5
B078
330
AE93
100
AcDbEntity
  8
1
  6
Continuous
100
AcDbLine
 10
91.905596
 20
226.5257689999998
 30
0.0
 11
91.905596
 21
225.025769
 31
0.0
  0
ARC
  5
B079
330
AE93
100
AcDbEntity
  8
1
  6
Continuous
100
AcDbCircle
 10
90.755596
 20
229.0757689999999
 30
0.0
 40
0.3
100
AcDbArc
 50
90.0
 51
270.0
  0
LINE
  5
B07A
330
AE93
100
AcDbEntity
  8
1
  6
Continuous
100
AcDbLine
 10
93.055596
 20
228.7757689999998
 30
0.0
 11
93.055596
 21
224.7757689999999
 31
0.0
  0
LINE
  5
B07B
330
AE93
100
AcDbEntity
  8
1
  6
Continuous
100
AcDbLine
 10
92.55559599999999
 20
228.7757689999998
 30
0.0
 11
92.55559599999999
 21
224.7757689999999
 31
0.0
  0
LINE
  5
B07C
330
AE93
100
AcDbEntity
  8
1
  6
Continuous
100
AcDbLine
 10
92.20559599999999
 20
228.7757689999998
 30
0.0
 11
92.20559599999999
 21
224.7757689999999
 31
0.0
  0
LINE
  5
B07D
330
AE93
100
AcDbEntity
  8
1
  6
Continuous
100
AcDbLine
 10
91.212776
 20
228.7757689999998
 30
0.0
 11
91.212776
 21
224.7757689999999
 31
0.0
  0
LINE
  5
B07E
330
AE93
100
AcDbEntity
  8
1
  6
Continuous
100
AcDbLine
 10
90.755596
 20
229.375769
 30
0.0
 11
94.45559600000001
 21
229.375769
 31
0.0
  0
LINE
  5
B07F
330
AE93
100
AcDbEntity
  8
1
  6
Continuous
100
AcDbLine
 10
94.45559600000001
 20
230.2757689999999
 30
0.0
 11
94.45559600000001
 21
223.275769
 31
0.0
  0
LINE
  5
B080
330
AE93
100
AcDbEntity
  8
1
  6
Continuous
100
AcDbLine
 10
82.25559599999998
 20
229.525769
 30
0.0
 11
82.25559599999998
 21
224.0257689999999
 31
0.0
  0
LINE
  5
B081
330
AE93
100
AcDbEntity
  8
1
  6
Continuous
100
AcDbLine
 10
90.755596
 20
228.7757689999998
 30
0.0
 11
93.055596
 21
228.7757689999998
 31
0.0
  0
LINE
  5
B082
330
AE93
100
AcDbEntity
  8
1
  6
Continuous
100
AcDbLine
 10
93.85561700000002
 20
262.1061309999999
 30
0.0
 11
93.85561700000002
 21
261.106131
 31
0.0
  0
LINE
  5
B083
330
AE93
100
AcDbEntity
  8
1
  6
Continuous
100
AcDbLine
 10
95.705617
 20
262.1061309999999
 30
0.0
 11
95.705617
 21
261.106131
 31
0.0
  0
LINE
  5
B085
330
AE93
100
AcDbEntity
  8
1
  6
Continuous
100
AcDbLine
 10
87.505617
 20
262.1061309999999
 30
0.0
 11
87.505617
 21
261.106131
 31
0.0
  0
LINE
  5
B086
330
AE93
100
AcDbEntity
  8
1
  6
Continuous
100
AcDbLine
 10
83.00561700000001
 20
257.906131
 30
0.0
 11
94.455617
 21
257.906131
 31
0.0
  0
LINE
  5
B087
330
AE93
100
AcDbEntity
  8
1
  6
Continuous
100
AcDbLine
 10
92.20561700000001
 20
257.5061309999999
 30
0.0
 11
92.255617
 21
257.706131
 31
0.0
  0
LINE
  5
B088
330
AE93
100
AcDbEntity
  8
1
  6
Continuous
100
AcDbLine
 10
92.255617
 20
257.706131
 30
0.0
 11
92.57561700000001
 21
257.906131
 31
0.0
  0
LINE
  5
B089
330
AE93
100
AcDbEntity
  8
1
  6
Continuous
100
AcDbLine
 10
92.20561700000001
 20
257.5061309999999
 30
0.0
 11
92.255617
 21
257.706131
 31
0.0
  0
LINE
  5
B08A
330
AE93
100
AcDbEntity
  8
1
  6
Continuous
100
AcDbLine
 10
94.455617
 20
256.406131
 30
0.0
 11
94.455617
 21
257.906131
 31
0.0
  0
LINE
  5
B08B
330
AE93
100
AcDbEntity
  8
1
  6
Continuous
100
AcDbLine
 10
91.90561700000001
 20
257.5061309999999
 30
0.0
 11
91.21279599999999
 21
257.906131
 31
0.0
  0
LINE
  5
B08C
330
AE93
100
AcDbEntity
  8
1
  6
Continuous
100
AcDbLine
 10
91.90561700000001
 20
257.5061309999999
 30
0.0
 11
92.20561700000001
 21
257.5061309999999
 31
0.0
  0
LINE
  5
B08D
330
AE93
100
AcDbEntity
  8
1
  6
Continuous
100
AcDbLine
 10
90.40561700000001
 20
262.1061309999999
 30
0.0
 11
90.40561700000001
 21
261.106131
 31
0.0
  0
LINE
  5
B08E
330
AE93
100
AcDbEntity
  8
1
  6
Continuous
100
AcDbLine
 10
91.005617
 20
262.1061309999999
 30
0.0
 11
91.005617
 21
261.106131
 31
0.0
  0
LINE
  5
B08F
330
AE93
100
AcDbEntity
  8
1
  6
Continuous
100
AcDbLine
 10
89.205617
 20
262.1061309999999
 30
0.0
 11
89.205617
 21
261.106131
 31
0.0
  0
LINE
  5
B090
330
AE93
100
AcDbEntity
  8
1
  6
Continuous
100
AcDbLine
 10
87.505617
 20
261.106131
 30
0.0
 11
95.705617
 21
261.106131
 31
0.0
  0
LINE
  5
B091
330
AE93
100
AcDbEntity
  8
1
  6
Continuous
100
AcDbLine
 10
87.505617
 20
262.1061309999999
 30
0.0
 11
95.705617
 21
262.1061309999999
 31
0.0
  0
ARC
  5
B092
330
AE93
100
AcDbEntity
  8
1
  6
Continuous
100
AcDbCircle
 10
83.00561700000001
 20
258.656131
 30
0.0
 40
0.75
100
AcDbArc
 50
180.0
 51
270.0
  0
LINE
  5
B093
330
AE93
100
AcDbEntity
  8
1
  6
Continuous
100
AcDbLine
 10
104.8555789999999
 20
231.275769
 30
0.0
 11
105.8555789999999
 21
231.275769
 31
0.0
  0
LINE
  5
B094
330
AE93
100
AcDbEntity
  8
1
  6
Continuous
100
AcDbLine
 10
106.355579
 20
230.3757689999999
 30
0.0
 11
105.8555789999999
 21
231.275769
 31
0.0
  0
LINE
  5
B095
330
AE93
100
AcDbEntity
  8
1
  6
Continuous
100
AcDbLine
 10
102.8555789999999
 20
230.2757689999999
 30
0.0
 11
104.8555789999999
 21
230.2757689999999
 31
0.0
  0
LINE
  5
B096
330
AE93
100
AcDbEntity
  8
1
  6
Continuous
100
AcDbLine
 10
104.355579
 20
228.2757689999999
 30
0.0
 11
104.8555789999999
 21
228.2757689999999
 31
0.0
  0
LINE
  5
B097
330
AE93
100
AcDbEntity
  8
1
  6
Continuous
100
AcDbLine
 10
104.8555789999999
 20
222.2757689999999
 30
0.0
 11
105.8555789999999
 21
222.2757689999999
 31
0.0
  0
LINE
  5
B098
330
AE93
100
AcDbEntity
  8
1
  6
Continuous
100
AcDbLine
 10
106.355579
 20
223.175769
 30
0.0
 11
105.8555789999999
 21
222.2757689999999
 31
0.0
  0
LINE
  5
B099
330
AE93
100
AcDbEntity
  8
1
  6
Continuous
100
AcDbLine
 10
102.8555789999999
 20
223.275769
 30
0.0
 11
104.8555789999999
 21
223.275769
 31
0.0
  0
LINE
  5
B09A
330
AE93
100
AcDbEntity
  8
1
  6
Continuous
100
AcDbLine
 10
104.355579
 20
225.275769
 30
0.0
 11
104.8555789999999
 21
225.275769
 31
0.0
  0
LINE
  5
B09B
330
AE93
100
AcDbEntity
  8
1
  6
Continuous
100
AcDbLine
 10
101.855579
 20
227.775769
 30
0.0
 11
101.855579
 21
225.775769
 31
0.0
  0
LINE
  5
B09C
330
AE93
100
AcDbEntity
  8
1
  6
Continuous
100
AcDbLine
 10
102.355579
 20
228.2757689999999
 30
0.0
 11
102.355579
 21
225.275769
 31
0.0
  0
LINE
  5
B09D
330
AE93
100
AcDbEntity
  8
1
  6
Continuous
100
AcDbLine
 10
103.755579
 20
228.2757689999999
 30
0.0
 11
103.755579
 21
225.275769
 31
0.0
  0
LINE
  5
B09E
330
AE93
100
AcDbEntity
  8
1
  6
Continuous
100
AcDbLine
 10
104.355579
 20
228.2757689999999
 30
0.0
 11
104.355579
 21
225.275769
 31
0.0
  0
LINE
  5
B09F
330
AE93
100
AcDbEntity
  8
1
  6
Continuous
100
AcDbLine
 10
104.8555789999999
 20
231.275769
 30
0.0
 11
104.8555789999999
 21
222.2757689999999
 31
0.0
  0
LINE
  5
B0A0
330
AE93
100
AcDbEntity
  8
1
  6
Continuous
100
AcDbLine
 10
105.8555789999999
 20
231.275769
 30
0.0
 11
105.8555789999999
 21
222.2757689999999
 31
0.0
  0
LINE
  5
B0A1
330
AE93
100
AcDbEntity
  8
1
  6
Continuous
100
AcDbLine
 10
106.355579
 20
230.3757689999999
 30
0.0
 11
106.355579
 21
223.175769
 31
0.0
  0
LINE
  5
B0A2
330
AE93
100
AcDbEntity
  8
1
  6
Continuous
100
AcDbLine
 10
99.85557900000001
 20
228.2757689999999
 30
0.0
 11
102.8555789999999
 21
230.2757689999999
 31
0.0
  0
LINE
  5
B0A3
330
AE93
100
AcDbEntity
  8
1
  6
Continuous
100
AcDbLine
 10
99.24712900000001
 20
228.2757689999999
 30
0.0
 11
103.755579
 21
228.2757689999999
 31
0.0
  0
LINE
  5
B0A4
330
AE93
100
AcDbEntity
  8
1
  6
Continuous
100
AcDbLine
 10
99.85557900000001
 20
225.275769
 30
0.0
 11
102.8555789999999
 21
223.275769
 31
0.0
  0
LINE
  5
B0A5
330
AE93
100
AcDbEntity
  8
1
  6
Continuous
100
AcDbLine
 10
99.24712900000001
 20
225.275769
 30
0.0
 11
103.755579
 21
225.275769
 31
0.0
  0
LINE
  5
B0A6
330
AE93
100
AcDbEntity
  8
1
  6
Continuous
100
AcDbLine
 10
97.45559599999999
 20
228.6757689999999
 30
0.0
 11
99.24712900000001
 21
228.6757689999999
 31
0.0
  0
LINE
  5
B0A7
330
AE93
100
AcDbEntity
  8
1
  6
Continuous
100
AcDbLine
 10
97.45559599999999
 20
224.875769
 30
0.0
 11
99.24712900000001
 21
224.875769
 31
0.0
  0
LINE
  5
B0A8
330
AE93
100
AcDbEntity
  8
1
  6
Continuous
100
AcDbLine
 10
99.24712900000001
 20
228.6757689999999
 30
0.0
 11
99.24712900000001
 21
224.875769
 31
0.0
  0
ARC
  5
B0A9
330
AE93
100
AcDbEntity
  8
1
  6
Continuous
100
AcDbCircle
 10
97.255596
 20
230.075769
 30
0.0
 40
0.2
100
AcDbArc
 50
0.0
 51
90.0
  0
ARC
  5
B0AA
330
AE93
100
AcDbEntity
  8
1
  6
Continuous
100
AcDbCircle
 10
97.255596
 20
223.4757689999999
 30
0.0
 40
0.2
100
AcDbArc
 50
270.0
 51
0.0
  0
LINE
  5
B0AB
330
AE93
100
AcDbEntity
  8
1
  6
Continuous
100
AcDbLine
 10
97.45559599999999
 20
230.075769
 30
0.0
 11
97.45559599999999
 21
223.4757689999999
 31
0.0
  0
LINE
  5
B0AC
330
AE93
100
AcDbEntity
  8
1
  6
Continuous
100
AcDbLine
 10
99.85561700000005
 20
263.606131
 30
0.0
 11
99.85561700000005
 21
262.656131
 31
0.0
  0
LINE
  5
B0AD
330
AE93
100
AcDbEntity
  8
1
  6
Continuous
100
AcDbLine
 10
99.85561700000005
 20
261.156131
 30
0.0
 11
99.85561700000005
 21
260.206131
 31
0.0
  0
LINE
  5
B0AE
330
AE93
100
AcDbEntity
  8
1
  6
Continuous
100
AcDbLine
 10
102.855617
 20
263.906131
 30
0.0
 11
102.855617
 21
262.656131
 31
0.0
  0
LINE
  5
B0AF
330
AE93
100
AcDbEntity
  8
1
  6
Continuous
100
AcDbLine
 10
102.855617
 20
261.156131
 30
0.0
 11
102.855617
 21
259.906131
 31
0.0
  0
ARC
  5
B0B0
330
AE93
100
AcDbEntity
  8
1
  6
Continuous
100
AcDbCircle
 10
100.155617
 20
263.606131
 30
0.0
 40
0.3
100
AcDbArc
 50
90.0
 51
180.0
  0
ARC
  5
B0B1
330
AE93
100
AcDbEntity
  8
1
  6
Continuous
100
AcDbCircle
 10
100.155617
 20
260.206131
 30
0.0
 40
0.3
100
AcDbArc
 50
180.0
 51
270.0
  0
ARC
  5
B0B2
330
AE93
100
AcDbEntity
  8
1
  6
Continuous
100
AcDbCircle
 10
99.95561700000001
 20
260.548538
 30
0.0
 40
2.0
100
AcDbArc
 50
198.735706
 51
239.470294
  0
ARC
  5
B0B3
330
AE93
100
AcDbEntity
  8
1
  6
Continuous
100
AcDbCircle
 10
90.733896
 20
247.464952
 30
0.0
 40
14.0
100
AcDbArc
 50
53.61910400000001
 51
61.30656899999999
  0
ARC
  5
B0B4
330
AE93
100
AcDbEntity
  8
1
  6
Continuous
100
AcDbCircle
 10
98.74142800000001
 20
258.3336889999998
 30
0.0
 40
0.5
100
AcDbArc
 50
2.803322
 51
53.61910400000001
  0
LINE
  5
B0B5
330
AE93
100
AcDbEntity
  8
1
  6
Continuous
100
AcDbLine
 10
99.24082900000001
 20
258.3581429999999
 30
0.0
 11
99.24653000000001
 21
258.2417149999999
 31
0.0
  0
ARC
  5
B0B6
330
AE93
100
AcDbEntity
  8
1
  6
Continuous
100
AcDbCircle
 10
98.747129
 20
258.217261
 30
0.0
 40
0.5
100
AcDbArc
 50
287.739739
 51
2.803322
  0
LINE
  5
B0B7
330
AE93
100
AcDbEntity
  8
1
  6
Continuous
100
AcDbLine
 10
98.89947600000001
 20
257.741036
 30
0.0
 11
97.762951
 21
257.3774559999999
 31
0.0
  0
ARC
  5
B0B8
330
AE93
100
AcDbEntity
  8
1
  6
Continuous
100
AcDbCircle
 10
97.30591
 20
258.806131
 30
0.0
 40
1.5
100
AcDbArc
 50
275.727922
 51
287.739739
  0
ARC
  5
B0B9
330
AE93
100
AcDbEntity
  8
1
  6
Continuous
100
AcDbCircle
 10
97.255617
 20
256.606131
 30
0.0
 40
0.2
100
AcDbArc
 50
270.0
 51
0.0
  0
LINE
  5
B0BA
330
AE93
100
AcDbEntity
  8
1
  6
Continuous
100
AcDbLine
 10
106.355617
 20
257.8061309999998
 30
0.0
 11
105.8556169999999
 21
256.906131
 31
0.0
  0
LINE
  5
B0BB
330
AE93
100
AcDbEntity
  8
1
  6
Continuous
100
AcDbLine
 10
104.855617
 20
256.906131
 30
0.0
 11
105.8556169999999
 21
256.906131
 31
0.0
  0
ARC
  5
B0BC
330
AE93
100
AcDbEntity
  8
1
  6
Continuous
100
AcDbCircle
 10
104.655617
 20
258.2561309999999
 30
0.0
 40
0.3
100
AcDbArc
 50
180.0
 51
270.0
  0
LINE
  5
B0BD
330
AE93
100
AcDbEntity
  8
1
  6
Continuous
100
AcDbLine
 10
104.655617
 20
257.956131
 30
0.0
 11
104.855617
 21
257.956131
 31
0.0
  0
LINE
  5
B0BE
330
AE93
100
AcDbEntity
  8
1
  6
Continuous
100
AcDbLine
 10
100.155617
 20
259.906131
 30
0.0
 11
104.855617
 21
259.906131
 31
0.0
  0
LINE
  5
B0BF
330
AE93
100
AcDbEntity
  8
1
  6
Continuous
100
AcDbLine
 10
97.45561700000001
 20
259.906131
 30
0.0
 11
98.061596
 21
259.906131
 31
0.0
  0
LINE
  5
B0C0
330
AE93
100
AcDbEntity
  8
1
  6
Continuous
100
AcDbLine
 10
104.355617
 20
258.2561309999999
 30
0.0
 11
104.355617
 21
259.906131
 31
0.0
  0
ARC
  5
B0C1
330
AE93
100
AcDbEntity
  8
1
  6
Continuous
100
AcDbCircle
 10
100.412935
 20
259.6488129999999
 30
0.0
 40
0.257319
100
AcDbArc
 50
90.0
 51
239.470294
  0
LINE
  5
B0C2
330
AE93
100
AcDbEntity
  8
1
  6
Continuous
100
AcDbLine
 10
100.2822209999998
 20
259.4271669999999
 30
0.0
 11
102.183109
 21
258.306131
 31
0.0
  0
LINE
  5
B0C3
330
AE93
100
AcDbEntity
  8
1
  6
Continuous
100
AcDbLine
 10
102.355617
 20
257.406131
 30
0.0
 11
103.5320369999999
 21
257.716028
 31
0.0
  0
ARC
  5
B0C4
330
AE93
100
AcDbEntity
  8
1
  6
Continuous
100
AcDbCircle
 10
103.455617
 20
258.006131
 30
0.0
 40
0.3
100
AcDbArc
 50
284.757791
 51
90.0
  0
LINE
  5
B0C5
330
AE93
100
AcDbEntity
  8
1
  6
Continuous
100
AcDbLine
 10
102.183109
 20
258.306131
 30
0.0
 11
103.455617
 21
258.306131
 31
0.0
  0
LINE
  5
B0C6
330
AE93
100
AcDbEntity
  8
1
  6
Continuous
100
AcDbLine
 10
102.355617
 20
257.106131
 30
0.0
 11
102.355617
 21
257.406131
 31
0.0
  0
LINE
  5
B0C7
330
AE93
100
AcDbEntity
  8
1
  6
Continuous
100
AcDbLine
 10
98.93964699999999
 20
258.825806
 30
0.0
 11
101.855617
 21
257.106131
 31
0.0
  0
LINE
  5
B0C8
330
AE93
100
AcDbEntity
  8
1
  6
Continuous
100
AcDbLine
 10
101.855617
 20
257.106131
 30
0.0
 11
102.355617
 21
257.106131
 31
0.0
  0
LINE
  5
B0C9
330
AE93
100
AcDbEntity
  8
1
  6
Continuous
100
AcDbLine
 10
97.45561700000001
 20
262.656131
 30
0.0
 11
104.855617
 21
262.656131
 31
0.0
  0
LINE
  5
B0CA
330
AE93
100
AcDbEntity
  8
1
  6
Continuous
100
AcDbLine
 10
97.45561700000001
 20
261.156131
 30
0.0
 11
104.855617
 21
261.156131
 31
0.0
  0
LINE
  5
B0CB
330
AE93
100
AcDbEntity
  8
1
  6
Continuous
100
AcDbLine
 10
100.155617
 20
263.906131
 30
0.0
 11
104.855617
 21
263.906131
 31
0.0
  0
LINE
  5
B0CC
330
AE93
100
AcDbEntity
  8
1
  6
Continuous
100
AcDbLine
 10
97.45561700000001
 20
263.906131
 30
0.0
 11
98.061596
 21
263.906131
 31
0.0
  0
LINE
  5
B0CD
330
AE93
100
AcDbEntity
  8
1
  6
Continuous
100
AcDbLine
 10
94.455617
 20
267.406131
 30
0.0
 11
97.255617
 21
267.406131
 31
0.0
  0
LINE
  5
B0CE
330
AE93
100
AcDbEntity
  8
1
  6
Continuous
100
AcDbLine
 10
92.255617
 20
266.106131
 30
0.0
 11
92.57561700000001
 21
265.906131
 31
0.0
  0
LINE
  5
B0CF
330
AE93
100
AcDbEntity
  8
1
  6
Continuous
100
AcDbLine
 10
92.20561700000001
 20
266.3061309999998
 30
0.0
 11
92.255617
 21
266.106131
 31
0.0
  0
LINE
  5
B0D0
330
AE93
100
AcDbEntity
  8
1
  6
Continuous
100
AcDbLine
 10
83.00561700000001
 20
265.906131
 30
0.0
 11
94.455617
 21
265.906131
 31
0.0
  0
LINE
  5
B0D1
330
AE93
100
AcDbEntity
  8
1
  6
Continuous
100
AcDbLine
 10
94.455617
 20
265.906131
 30
0.0
 11
94.455617
 21
267.406131
 31
0.0
  0
LINE
  5
B0D2
330
AE93
100
AcDbEntity
  8
1
  6
Continuous
100
AcDbLine
 10
91.90561700000001
 20
266.3061309999998
 30
0.0
 11
91.21279599999999
 21
265.906131
 31
0.0
  0
LINE
  5
B0D3
330
AE93
100
AcDbEntity
  8
1
  6
Continuous
100
AcDbLine
 10
91.90561700000001
 20
266.3061309999998
 30
0.0
 11
92.20561700000001
 21
266.3061309999998
 31
0.0
  0
ARC
  5
B0D4
330
AE93
100
AcDbEntity
  8
1
  6
Continuous
100
AcDbCircle
 10
83.00561700000001
 20
265.156131
 30
0.0
 40
0.75
100
AcDbArc
 50
90.0
 51
180.0
  0
ARC
  5
B0D5
330
AE93
100
AcDbEntity
  8
1
  6
Continuous
100
AcDbCircle
 10
97.30591
 20
265.0061319999999
 30
0.0
 40
1.5
100
AcDbArc
 50
72.260261
 51
84.27207799999997
  0
LINE
  5
B0D6
330
AE93
100
AcDbEntity
  8
1
  6
Continuous
100
AcDbLine
 10
98.89947600000001
 20
266.071227
 30
0.0
 11
97.762951
 21
266.4348069999999
 31
0.0
  0
LINE
  5
B0D7
330
AE93
100
AcDbEntity
  8
1
  6
Continuous
100
AcDbLine
 10
99.24082900000001
 20
265.4541200000001
 30
0.0
 11
99.24653000000001
 21
265.5705479999999
 31
0.0
  0
ARC
  5
B0D8
330
AE93
100
AcDbEntity
  8
1
  6
Continuous
100
AcDbCircle
 10
98.747129
 20
265.595002
 30
0.0
 40
0.5
100
AcDbArc
 50
357.1966779999999
 51
72.260261
  0
ARC
  5
B0D9
330
AE93
100
AcDbEntity
  8
1
  6
Continuous
100
AcDbCircle
 10
90.733896
 20
276.34731
 30
0.0
 40
14.0
100
AcDbArc
 50
298.6934309999999
 51
306.380896
  0
ARC
  5
B0DA
330
AE93
100
AcDbEntity
  8
1
  6
Continuous
100
AcDbCircle
 10
98.74142800000001
 20
265.4785739999999
 30
0.0
 40
0.5
100
AcDbArc
 50
306.380896
 51
357.1966779999999
  0
ARC
  5
B0DB
330
AE93
100
AcDbEntity
  8
1
  6
Continuous
100
AcDbCircle
 10
97.255617
 20
267.206131
 30
0.0
 40
0.2
100
AcDbArc
 50
0.0
 51
90.0
  0
LINE
  5
B0DC
330
AE93
100
AcDbEntity
  8
1
  6
Continuous
100
AcDbLine
 10
106.355617
 20
266.0061309999999
 30
0.0
 11
105.8556169999999
 21
266.906131
 31
0.0
  0
LINE
  5
B0DD
330
AE93
100
AcDbEntity
  8
1
  6
Continuous
100
AcDbLine
 10
104.855617
 20
266.906131
 30
0.0
 11
105.8556169999999
 21
266.906131
 31
0.0
  0
ARC
  5
B0DE
330
AE93
100
AcDbEntity
  8
1
  6
Continuous
100
AcDbCircle
 10
104.655617
 20
265.5561309999999
 30
0.0
 40
0.3
100
AcDbArc
 50
90.0
 51
180.0
  0
LINE
  5
B0DF
330
AE93
100
AcDbEntity
  8
1
  6
Continuous
100
AcDbLine
 10
104.655617
 20
265.856131
 30
0.0
 11
104.855617
 21
265.856131
 31
0.0
  0
LINE
  5
B0E0
330
AE93
100
AcDbEntity
  8
1
  6
Continuous
100
AcDbLine
 10
100.2822209999998
 20
264.385095
 30
0.0
 11
102.183109
 21
265.5061309999999
 31
0.0
  0
LINE
  5
B0E1
330
AE93
100
AcDbEntity
  8
1
  6
Continuous
100
AcDbLine
 10
102.355617
 20
266.406131
 30
0.0
 11
103.5320369999999
 21
266.0962349999999
 31
0.0
  0
ARC
  5
B0E2
330
AE93
100
AcDbEntity
  8
1
  6
Continuous
100
AcDbCircle
 10
103.455617
 20
265.8061309999999
 30
0.0
 40
0.3
100
AcDbArc
 50
270.0
 51
75.242209
  0
LINE
  5
B0E3
330
AE93
100
AcDbEntity
  8
1
  6
Continuous
100
AcDbLine
 10
102.183109
 20
265.5061309999999
 30
0.0
 11
103.455617
 21
265.5061309999999
 31
0.0
  0
LINE
  5
B0E4
330
AE93
100
AcDbEntity
  8
1
  6
Continuous
100
AcDbLine
 10
102.355617
 20
266.706131
 30
0.0
 11
102.355617
 21
266.406131
 31
0.0
  0
LINE
  5
B0E5
330
AE93
100
AcDbEntity
  8
1
  6
Continuous
100
AcDbLine
 10
98.93964699999999
 20
264.9864569999999
 30
0.0
 11
101.855617
 21
266.706131
 31
0.0
  0
LINE
  5
B0E6
330
AE93
100
AcDbEntity
  8
1
  6
Continuous
100
AcDbLine
 10
101.855617
 20
266.706131
 30
0.0
 11
102.355617
 21
266.706131
 31
0.0
  0
LINE
  5
B0E7
330
AE93
100
AcDbEntity
  8
4
  6
CENTER
100
AcDbLine
 10
156.1519179999999
 20
234.2757359999999
 30
0.0
 11
156.1519179999999
 21
219.2757359999998
 31
0.0
  0
ARC
  5
B0E8
330
AE93
100
AcDbEntity
  8
1
  6
Continuous
100
AcDbCircle
 10
159.251918
 20
224.175736
 30
0.0
 40
1.0
100
AcDbArc
 50
270.0
 51
0.0
  0
ARC
  5
B0E9
330
AE93
100
AcDbEntity
  8
1
  6
Continuous
100
AcDbCircle
 10
159.251918
 20
229.3757359999999
 30
0.0
 40
1.0
100
AcDbArc
 50
0.0
 51
90.0
  0
LINE
  5
B0EA
330
AE93
100
AcDbEntity
  8
1
  6
Continuous
100
AcDbLine
 10
160.1519179999999
 20
222.275736
 30
0.0
 11
152.151918
 21
222.275736
 31
0.0
  0
LINE
  5
B0EB
330
AE93
100
AcDbEntity
  8
1
  6
Continuous
100
AcDbLine
 10
160.1519179999999
 20
231.2757359999999
 30
0.0
 11
152.151918
 21
231.2757359999999
 31
0.0
  0
LINE
  5
B0EC
330
AE93
100
AcDbEntity
  8
4
  6
CENTER
100
AcDbLine
 10
164.1519179999999
 20
226.775736
 30
0.0
 11
148.151918
 21
226.775736
 31
0.0
  0
LINE
  5
B0ED
330
AE93
100
AcDbEntity
  8
1
  6
Continuous
100
AcDbLine
 10
150.6519179999999
 20
224.025736
 30
0.0
 11
150.6519179999999
 21
229.5257359999999
 31
0.0
  0
LINE
  5
B0EE
330
AE93
100
AcDbEntity
  8
1
  6
Continuous
100
AcDbLine
 10
150.6519179999999
 20
229.2757359999999
 30
0.0
 11
150.6519179999999
 21
229.5257359999999
 31
0.0
  0
ARC
  5
B0EF
330
AE93
100
AcDbEntity
  8
1
  6
Continuous
100
AcDbCircle
 10
151.401918
 20
229.5257359999999
 30
0.0
 40
0.75
100
AcDbArc
 50
109.4712209999999
 51
180.0
  0
LINE
  5
B0F0
330
AE93
100
AcDbEntity
  8
1
  6
Continuous
100
AcDbLine
 10
150.6519179999999
 20
224.025736
 30
0.0
 11
150.6519179999999
 21
224.275736
 31
0.0
  0
ARC
  5
B0F1
330
AE93
100
AcDbEntity
  8
1
  6
Continuous
100
AcDbCircle
 10
151.401918
 20
224.025736
 30
0.0
 40
0.75
100
AcDbArc
 50
180.0
 51
250.5287789999999
  0
ARC
  5
B0F2
330
AE93
100
AcDbEntity
  8
1
  6
Continuous
100
AcDbCircle
 10
152.151918
 20
230.275736
 30
0.0
 40
1.0
100
AcDbArc
 50
90.0
 51
180.0
  0
ARC
  5
B0F3
330
AE93
100
AcDbEntity
  8
1
  6
Continuous
100
AcDbCircle
 10
152.151918
 20
223.2757359999999
 30
0.0
 40
1.0
100
AcDbArc
 50
180.0
 51
270.0
  0
ARC
  5
B0F4
330
AE93
100
AcDbEntity
  8
1
  6
Continuous
100
AcDbCircle
 10
153.0519179999998
 20
224.175736
 30
0.0
 40
1.0
100
AcDbArc
 50
180.0
 51
270.0
  0
LINE
  5
B0F5
330
AE93
100
AcDbEntity
  8
1
  6
Continuous
100
AcDbLine
 10
159.251918
 20
223.175736
 30
0.0
 11
153.0519179999998
 21
223.175736
 31
0.0
  0
LINE
  5
B0F6
330
AE93
100
AcDbEntity
  8
1
  6
Continuous
100
AcDbLine
 10
153.0519179999998
 20
230.375736
 30
0.0
 11
159.251918
 21
230.375736
 31
0.0
  0
ARC
  5
B0F7
330
AE93
100
AcDbEntity
  8
1
  6
Continuous
100
AcDbCircle
 10
153.0519179999998
 20
229.3757359999999
 30
0.0
 40
1.0
100
AcDbArc
 50
90.0
 51
180.0
  0
LINE
  5
B0F8
330
AE93
100
AcDbEntity
  8
1
  6
Continuous
100
AcDbLine
 10
152.0519179999998
 20
224.175736
 30
0.0
 11
152.0519179999998
 21
229.3757359999999
 31
0.0
  0
LINE
  5
B0F9
330
AE93
100
AcDbEntity
  8
1
  6
Continuous
100
AcDbLine
 10
151.151918
 20
230.275736
 30
0.0
 11
151.151918
 21
223.2757359999999
 31
0.0
  0
LINE
  5
B0FA
330
AE93
100
AcDbEntity
  8
1
  6
Continuous
100
AcDbLine
 10
161.651918
 20
224.025736
 30
0.0
 11
161.651918
 21
229.5257359999999
 31
0.0
  0
LINE
  5
B0FB
330
AE93
100
AcDbEntity
  8
1
  6
Continuous
100
AcDbLine
 10
161.651918
 20
229.2757359999999
 30
0.0
 11
161.651918
 21
229.5257359999999
 31
0.0
  0
LINE
  5
B0FC
330
AE93
100
AcDbEntity
  8
1
  6
Continuous
100
AcDbLine
 10
161.651918
 20
229.2757359999999
 30
0.0
 11
161.651918
 21
229.5257359999999
 31
0.0
  0
ARC
  5
B0FD
330
AE93
100
AcDbEntity
  8
1
  6
Continuous
100
AcDbCircle
 10
160.9019179999999
 20
229.5257359999999
 30
0.0
 40
0.75
100
AcDbArc
 50
0.0
 51
70.528779
  0
LINE
  5
B0FE
330
AE93
100
AcDbEntity
  8
1
  6
Continuous
100
AcDbLine
 10
161.651918
 20
224.025736
 30
0.0
 11
161.651918
 21
224.275736
 31
0.0
  0
ARC
  5
B0FF
330
AE93
100
AcDbEntity
  8
1
  6
Continuous
100
AcDbCircle
 10
160.9019179999999
 20
224.025736
 30
0.0
 40
0.75
100
AcDbArc
 50
289.471221
 51
0.0
  0
LINE
  5
B100
330
AE93
100
AcDbEntity
  8
1
  6
Continuous
100
AcDbLine
 10
161.651918
 20
224.025736
 30
0.0
 11
161.651918
 21
224.275736
 31
0.0
  0
LINE
  5
B101
330
AE93
100
AcDbEntity
  8
1
  6
Continuous
100
AcDbLine
 10
160.2519179999999
 20
229.3757359999999
 30
0.0
 11
160.2519179999999
 21
224.175736
 31
0.0
  0
ARC
  5
B102
330
AE93
100
AcDbEntity
  8
1
  6
Continuous
100
AcDbCircle
 10
160.1519179999999
 20
230.275736
 30
0.0
 40
1.0
100
AcDbArc
 50
0.0
 51
90.0
  0
ARC
  5
B103
330
AE93
100
AcDbEntity
  8
1
  6
Continuous
100
AcDbCircle
 10
160.1519179999999
 20
223.2757359999999
 30
0.0
 40
1.0
100
AcDbArc
 50
270.0
 51
0.0
  0
LINE
  5
B104
330
AE93
100
AcDbEntity
  8
1
  6
Continuous
100
AcDbLine
 10
161.1519179999999
 20
230.275736
 30
0.0
 11
161.1519179999999
 21
223.2757359999999
 31
0.0
  0
LINE
  5
B105
330
AE93
100
AcDbEntity
  8
1
  6
Continuous
100
AcDbLine
 10
229.298241
 20
230.2757689999999
 30
0.0
 11
215.0482409999999
 21
230.2757689999999
 31
0.0
  0
LINE
  5
B106
330
AE93
100
AcDbEntity
  8
1
  6
Continuous
100
AcDbLine
 10
229.298241
 20
223.275769
 30
0.0
 11
215.0482409999999
 21
223.275769
 31
0.0
  0
LINE
  5
B107
330
AE93
100
AcDbEntity
  8
4
  6
CENTER
100
AcDbLine
 10
233.048241
 20
226.7757689999999
 30
0.0
 11
206.848241
 21
226.7757689999999
 31
0.0
  0
LINE
  5
B108
330
AE93
100
AcDbEntity
  8
1
  6
Continuous
100
AcDbLine
 10
207.448258
 20
222.2757689999999
 30
0.0
 11
206.4482579999999
 21
222.2757689999999
 31
0.0
  0
LINE
  5
B109
330
AE93
100
AcDbEntity
  8
1
  6
Continuous
100
AcDbLine
 10
207.448258
 20
231.275769
 30
0.0
 11
206.4482579999999
 21
231.275769
 31
0.0
  0
LINE
  5
B10A
330
AE93
100
AcDbEntity
  8
4
  6
CENTER
100
AcDbLine
 10
221.448258
 20
226.7757689999999
 30
0.0
 11
202.948258
 21
226.7757689999999
 31
0.0
  0
LINE
  5
B10B
330
AE93
100
AcDbEntity
  8
1
  6
Continuous
100
AcDbLine
 10
205.948258
 20
230.3757689999999
 30
0.0
 11
205.948258
 21
223.175769
 31
0.0
  0
LINE
  5
B10C
330
AE93
100
AcDbEntity
  8
1
  6
Continuous
100
AcDbLine
 10
206.4482579999999
 20
231.275769
 30
0.0
 11
206.4482579999999
 21
222.2757689999999
 31
0.0
  0
LINE
  5
B10D
330
AE93
100
AcDbEntity
  8
1
  6
Continuous
100
AcDbLine
 10
205.948258
 20
223.175769
 30
0.0
 11
206.4482579999999
 21
222.2757689999999
 31
0.0
  0
LINE
  5
B10E
330
AE93
100
AcDbEntity
  8
1
  6
Continuous
100
AcDbLine
 10
205.948258
 20
230.3757689999999
 30
0.0
 11
206.4482579999999
 21
231.275769
 31
0.0
  0
LINE
  5
B10F
330
AE93
100
AcDbEntity
  8
1
  6
Continuous
100
AcDbLine
 10
214.848241
 20
230.075769
 30
0.0
 11
214.848241
 21
223.4757689999999
 31
0.0
  0
ARC
  5
B110
330
AE93
100
AcDbEntity
  8
1
  6
Continuous
100
AcDbCircle
 10
215.0482409999999
 20
223.4757689999999
 30
0.0
 40
0.2
100
AcDbArc
 50
180.0
 51
270.0
  0
ARC
  5
B111
330
AE93
100
AcDbEntity
  8
1
  6
Continuous
100
AcDbCircle
 10
215.0482409999999
 20
230.075769
 30
0.0
 40
0.2
100
AcDbArc
 50
90.0
 51
180.0
  0
LINE
  5
B112
330
AE93
100
AcDbEntity
  8
1
  6
Continuous
100
AcDbLine
 10
213.056707
 20
228.6757689999999
 30
0.0
 11
213.056707
 21
224.875769
 31
0.0
  0
LINE
  5
B113
330
AE93
100
AcDbEntity
  8
1
  6
Continuous
100
AcDbLine
 10
214.848241
 20
224.875769
 30
0.0
 11
213.056707
 21
224.875769
 31
0.0
  0
LINE
  5
B114
330
AE93
100
AcDbEntity
  8
1
  6
Continuous
100
AcDbLine
 10
214.848241
 20
228.6757689999999
 30
0.0
 11
213.056707
 21
228.6757689999999
 31
0.0
  0
LINE
  5
B115
330
AE93
100
AcDbEntity
  8
1
  6
Continuous
100
AcDbLine
 10
213.056707
 20
225.275769
 30
0.0
 11
208.5482579999998
 21
225.275769
 31
0.0
  0
LINE
  5
B116
330
AE93
100
AcDbEntity
  8
1
  6
Continuous
100
AcDbLine
 10
212.448258
 20
225.275769
 30
0.0
 11
209.448258
 21
223.275769
 31
0.0
  0
LINE
  5
B117
330
AE93
100
AcDbEntity
  8
1
  6
Continuous
100
AcDbLine
 10
213.056707
 20
228.2757689999999
 30
0.0
 11
208.5482579999998
 21
228.2757689999999
 31
0.0
  0
LINE
  5
B118
330
AE93
100
AcDbEntity
  8
1
  6
Continuous
100
AcDbLine
 10
212.448258
 20
228.2757689999999
 30
0.0
 11
209.448258
 21
230.2757689999999
 31
0.0
  0
LINE
  5
B119
330
AE93
100
AcDbEntity
  8
1
  6
Continuous
100
AcDbLine
 10
207.448258
 20
231.275769
 30
0.0
 11
207.448258
 21
222.2757689999999
 31
0.0
  0
LINE
  5
B11A
330
AE93
100
AcDbEntity
  8
1
  6
Continuous
100
AcDbLine
 10
207.948258
 20
228.2757689999999
 30
0.0
 11
207.948258
 21
225.275769
 31
0.0
  0
LINE
  5
B11B
330
AE93
100
AcDbEntity
  8
1
  6
Continuous
100
AcDbLine
 10
208.5482579999998
 20
228.2757689999999
 30
0.0
 11
208.5482579999998
 21
225.275769
 31
0.0
  0
LINE
  5
B11C
330
AE93
100
AcDbEntity
  8
1
  6
Continuous
100
AcDbLine
 10
209.948258
 20
228.2757689999999
 30
0.0
 11
209.948258
 21
225.275769
 31
0.0
  0
LINE
  5
B11D
330
AE93
100
AcDbEntity
  8
1
  6
Continuous
100
AcDbLine
 10
210.4482579999999
 20
227.775769
 30
0.0
 11
210.4482579999999
 21
225.775769
 31
0.0
  0
LINE
  5
B11E
330
AE93
100
AcDbEntity
  8
1
  6
Continuous
100
AcDbLine
 10
207.948258
 20
225.275769
 30
0.0
 11
207.448258
 21
225.275769
 31
0.0
  0
LINE
  5
B11F
330
AE93
100
AcDbEntity
  8
1
  6
Continuous
100
AcDbLine
 10
209.448258
 20
223.275769
 30
0.0
 11
207.448258
 21
223.275769
 31
0.0
  0
LINE
  5
B120
330
AE93
100
AcDbEntity
  8
1
  6
Continuous
100
AcDbLine
 10
207.948258
 20
228.2757689999999
 30
0.0
 11
207.448258
 21
228.2757689999999
 31
0.0
  0
LINE
  5
B121
330
AE93
100
AcDbEntity
  8
1
  6
Continuous
100
AcDbLine
 10
209.448258
 20
230.2757689999999
 30
0.0
 11
207.448258
 21
230.2757689999999
 31
0.0
  0
LINE
  5
B122
330
AE93
100
AcDbEntity
  8
1
  6
Continuous
100
AcDbLine
 10
221.5482409999999
 20
228.7757689999998
 30
0.0
 11
219.248241
 21
228.7757689999998
 31
0.0
  0
LINE
  5
B123
330
AE93
100
AcDbEntity
  8
1
  6
Continuous
100
AcDbLine
 10
217.8482409999999
 20
230.2757689999999
 30
0.0
 11
217.8482409999999
 21
223.275769
 31
0.0
  0
LINE
  5
B124
330
AE93
100
AcDbEntity
  8
1
  6
Continuous
100
AcDbLine
 10
221.5482409999999
 20
229.375769
 30
0.0
 11
217.8482409999999
 21
229.375769
 31
0.0
  0
LINE
  5
B125
330
AE93
100
AcDbEntity
  8
1
  6
Continuous
100
AcDbLine
 10
221.0910609999999
 20
228.7757689999998
 30
0.0
 11
221.0910609999999
 21
224.7757689999999
 31
0.0
  0
LINE
  5
B126
330
AE93
100
AcDbEntity
  8
1
  6
Continuous
100
AcDbLine
 10
220.0982409999999
 20
228.7757689999998
 30
0.0
 11
220.0982409999999
 21
224.7757689999999
 31
0.0
  0
LINE
  5
B127
330
AE93
100
AcDbEntity
  8
1
  6
Continuous
100
AcDbLine
 10
219.748241
 20
228.7757689999998
 30
0.0
 11
219.748241
 21
224.7757689999999
 31
0.0
  0
LINE
  5
B128
330
AE93
100
AcDbEntity
  8
1
  6
Continuous
100
AcDbLine
 10
219.248241
 20
228.7757689999998
 30
0.0
 11
219.248241
 21
224.7757689999999
 31
0.0
  0
ARC
  5
B129
330
AE93
100
AcDbEntity
  8
1
  6
Continuous
100
AcDbCircle
 10
221.5482409999999
 20
229.0757689999999
 30
0.0
 40
0.3
100
AcDbArc
 50
270.0
 51
90.0
  0
LINE
  5
B12A
330
AE93
100
AcDbEntity
  8
1
  6
Continuous
100
AcDbLine
 10
220.398241
 20
226.5257689999998
 30
0.0
 11
220.398241
 21
225.025769
 31
0.0
  0
LINE
  5
B12B
330
AE93
100
AcDbEntity
  8
1
  6
Continuous
100
AcDbLine
 10
220.398241
 20
228.5257689999999
 30
0.0
 11
220.398241
 21
227.025769
 31
0.0
  0
LINE
  5
B12C
330
AE93
100
AcDbEntity
  8
1
  6
Continuous
100
AcDbLine
 10
221.5482409999999
 20
224.7757689999999
 30
0.0
 11
219.248241
 21
224.7757689999999
 31
0.0
  0
LINE
  5
B12D
330
AE93
100
AcDbEntity
  8
1
  6
Continuous
100
AcDbLine
 10
221.5482409999999
 20
224.175769
 30
0.0
 11
217.8482409999999
 21
224.175769
 31
0.0
  0
ARC
  5
B12E
330
AE93
100
AcDbEntity
  8
1
  6
Continuous
100
AcDbCircle
 10
221.5482409999999
 20
224.4757689999999
 30
0.0
 40
0.3
100
AcDbArc
 50
270.0
 51
90.0
  0
LINE
  5
B12F
330
AE93
100
AcDbEntity
  8
1
  6
Continuous
100
AcDbLine
 10
230.0482409999999
 20
229.525769
 30
0.0
 11
230.0482409999999
 21
224.0257689999999
 31
0.0
  0
ARC
  5
B130
330
AE93
100
AcDbEntity
  8
1
  6
Continuous
100
AcDbCircle
 10
229.298241
 20
229.525769
 30
0.0
 40
0.75
100
AcDbArc
 50
0.0
 51
90.0
  0
ARC
  5
B131
330
AE93
100
AcDbEntity
  8
1
  6
Continuous
100
AcDbCircle
 10
229.298241
 20
224.0257689999999
 30
0.0
 40
0.75
100
AcDbArc
 50
270.0
 51
0.0
  0
LINE
  5
B132
330
AE93
100
AcDbEntity
  8
4
  6
CENTER
100
AcDbLine
 10
295.336838
 20
101.111061
 30
0.0
 11
295.336838
 21
85.11106099999997
 31
0.0
  0
LINE
  5
B133
330
AE93
100
AcDbEntity
  8
4
  6
CENTER
100
AcDbLine
 10
374.204584
 20
100.6110609999999
 30
0.0
 11
374.204584
 21
85.61106099999998
 31
0.0
  0
LINE
  5
B134
330
AE93
100
AcDbEntity
  8
4
  6
CENTER
100
AcDbLine
 10
325.770711
 20
57.980759
 30
0.0
 11
344.270711
 21
57.980759
 31
0.0
  0
LINE
  5
B135
330
AE93
100
AcDbEntity
  8
1
  6
Continuous
100
AcDbLine
 10
333.8547409999998
 20
54.90043299999999
 30
0.0
 11
336.770711
 21
53.180759
 31
0.0
  0
ARC
  5
B136
330
AE93
100
AcDbEntity
  8
1
  6
Continuous
100
AcDbCircle
 10
335.3280299999998
 20
55.72344000000001
 30
0.0
 40
0.257319
100
AcDbArc
 50
90.0
 51
239.470294
  0
LINE
  5
B137
330
AE93
100
AcDbEntity
  8
1
  6
Continuous
100
AcDbLine
 10
335.0707109999999
 20
55.980759
 30
0.0
 11
339.770711
 21
55.980759
 31
0.0
  0
LINE
  5
B138
330
AE93
100
AcDbEntity
  8
1
  6
Continuous
100
AcDbLine
 10
331.020711
 20
58.73075899999999
 30
0.0
 11
339.770711
 21
58.73075899999999
 31
0.0
  0
LINE
  5
B139
330
AE93
100
AcDbEntity
  8
1
  6
Continuous
100
AcDbLine
 10
331.020711
 20
57.230759
 30
0.0
 11
339.770711
 21
57.230759
 31
0.0
  0
LINE
  5
B13A
330
AE93
100
AcDbEntity
  8
1
  6
Continuous
100
AcDbLine
 10
333.8547409999998
 20
61.061084
 30
0.0
 11
336.770711
 21
62.78075900000001
 31
0.0
  0
ARC
  5
B13B
330
AE93
100
AcDbEntity
  8
1
  6
Continuous
100
AcDbCircle
 10
335.3280299999998
 20
60.23807699999998
 30
0.0
 40
0.257319
100
AcDbArc
 50
120.529706
 51
270.0
  0
LINE
  5
B13C
330
AE93
100
AcDbEntity
  8
1
  6
Continuous
100
AcDbLine
 10
335.0707109999999
 20
59.98075899999999
 30
0.0
 11
339.770711
 21
59.98075899999999
 31
0.0
  0
LINE
  5
B13D
330
AE93
100
AcDbEntity
  8
1
  6
Continuous
100
AcDbLine
 10
331.5707109999999
 20
55.980759
 30
0.0
 11
332.976691
 21
55.980759
 31
0.0
  0
LINE
  5
B13E
330
AE93
100
AcDbEntity
  8
1
  6
Continuous
100
AcDbLine
 10
331.5707109999999
 20
59.98075899999999
 30
0.0
 11
332.976691
 21
59.98075899999999
 31
0.0
  0
LINE
  5
B13F
330
AE93
100
AcDbEntity
  8
1
  6
Continuous
100
AcDbLine
 10
330.722099
 20
55.28075900000001
 30
0.0
 11
331.0707109999999
 21
55.28075900000001
 31
0.0
  0
LINE
  5
B140
330
AE93
100
AcDbEntity
  8
1
  6
Continuous
100
AcDbLine
 10
331.5707109999999
 20
55.78075899999999
 30
0.0
 11
331.5707109999999
 21
55.980759
 31
0.0
  0
LINE
  5
B141
330
AE93
100
AcDbEntity
  8
1
  6
Continuous
100
AcDbLine
 10
328.9930109999999
 20
56.332558
 30
0.0
 11
330.444749
 21
55.36473299999999
 31
0.0
  0
ARC
  5
B142
330
AE93
100
AcDbEntity
  8
1
  6
Continuous
100
AcDbCircle
 10
329.270711
 20
56.74835
 30
0.0
 40
0.5
100
AcDbArc
 50
180.0
 51
236.3099319999999
  0
ARC
  5
B143
330
AE93
100
AcDbEntity
  8
1
  6
Continuous
100
AcDbCircle
 10
330.722099
 20
55.78075899999999
 30
0.0
 40
0.5
100
AcDbArc
 50
236.3099319999999
 51
270.0
  0
ARC
  5
B144
330
AE93
100
AcDbEntity
  8
1
  6
Continuous
100
AcDbCircle
 10
331.0707109999999
 20
55.78075899999999
 30
0.0
 40
0.5
100
AcDbArc
 50
270.0
 51
0.0
  0
LINE
  5
B145
330
AE93
100
AcDbEntity
  8
1
  6
Continuous
100
AcDbLine
 10
330.722099
 20
60.680759
 30
0.0
 11
331.0707109999999
 21
60.680759
 31
0.0
  0
LINE
  5
B146
330
AE93
100
AcDbEntity
  8
1
  6
Continuous
100
AcDbLine
 10
331.5707109999999
 20
60.18075899999999
 30
0.0
 11
331.5707109999999
 21
59.98075899999999
 31
0.0
  0
LINE
  5
B147
330
AE93
100
AcDbEntity
  8
1
  6
Continuous
100
AcDbLine
 10
328.9930109999999
 20
59.62895899999999
 30
0.0
 11
330.444749
 21
60.596784
 31
0.0
  0
ARC
  5
B148
330
AE93
100
AcDbEntity
  8
1
  6
Continuous
100
AcDbCircle
 10
329.270711
 20
59.21316700000001
 30
0.0
 40
0.5
100
AcDbArc
 50
123.690068
 51
180.0
  0
ARC
  5
B149
330
AE93
100
AcDbEntity
  8
1
  6
Continuous
100
AcDbCircle
 10
330.722099
 20
60.18075899999999
 30
0.0
 40
0.5
100
AcDbArc
 50
90.0
 51
123.690068
  0
ARC
  5
B14A
330
AE93
100
AcDbEntity
  8
1
  6
Continuous
100
AcDbCircle
 10
331.0707109999999
 20
60.18075899999999
 30
0.0
 40
0.5
100
AcDbArc
 50
0.0
 51
90.0
  0
ARC
  5
B14C
330
AE93
100
AcDbEntity
  8
1
  6
Continuous
100
AcDbCircle
 10
334.8707109999998
 20
59.338352
 30
0.0
 40
2.0
100
AcDbArc
 50
120.529706
 51
161.264294
  0
ARC
  5
B14D
330
AE93
100
AcDbEntity
  8
1
  6
Continuous
100
AcDbCircle
 10
334.8707109999998
 20
56.623165
 30
0.0
 40
2.0
100
AcDbArc
 50
198.735706
 51
239.470294
  0
ARC
  5
B14E
330
AE93
100
AcDbEntity
  8
1
  6
Continuous
100
AcDbCircle
 10
331.020711
 20
57.980759
 30
0.0
 40
0.75
100
AcDbArc
 50
90.0
 51
270.0
  0
ARC
  5
B14F
330
AE93
100
AcDbEntity
  8
1
  6
Continuous
100
AcDbCircle
 10
335.0707109999999
 20
59.68075899999998
 30
0.0
 40
0.3
100
AcDbArc
 50
90.0
 51
180.0
  0
ARC
  5
B150
330
AE93
100
AcDbEntity
  8
1
  6
Continuous
100
AcDbCircle
 10
335.0707109999999
 20
56.28075899999998
 30
0.0
 40
0.3
100
AcDbArc
 50
180.0
 51
270.0
  0
LINE
  5
B151
330
AE93
100
AcDbEntity
  8
1
  6
Continuous
100
AcDbLine
 10
334.7707109999999
 20
58.73075899999999
 30
0.0
 11
334.7707109999999
 21
59.68075899999998
 31
0.0
  0
LINE
  5
B152
330
AE93
100
AcDbEntity
  8
1
  6
Continuous
100
AcDbLine
 10
334.7707109999999
 20
56.28075899999998
 30
0.0
 11
334.7707109999999
 21
57.230759
 31
0.0
  0
LINE
  5
B153
330
AE93
100
AcDbEntity
  8
1
  6
Continuous
100
AcDbLine
 10
328.7707109999999
 20
56.74835
 30
0.0
 11
328.7707109999999
 21
59.21316700000001
 31
0.0
  0
LINE
  5
B154
330
AE93
100
AcDbEntity
  8
1
  6
Continuous
100
AcDbLine
 10
336.770711
 20
53.180759
 30
0.0
 11
337.270711
 21
53.180759
 31
0.0
  0
LINE
  5
B155
330
AE93
100
AcDbEntity
  8
1
  6
Continuous
100
AcDbLine
 10
339.770711
 20
52.980759
 30
0.0
 11
339.770711
 21
62.980759
 31
0.0
  0
LINE
  5
B156
330
AE93
100
AcDbEntity
  8
1
  6
Continuous
100
AcDbLine
 10
337.270711
 20
53.180759
 30
0.0
 11
337.270711
 21
53.480759
 31
0.0
  0
LINE
  5
B157
330
AE93
100
AcDbEntity
  8
1
  6
Continuous
100
AcDbLine
 10
337.0982029999999
 20
54.380759
 30
0.0
 11
338.3707109999999
 21
54.380759
 31
0.0
  0
ARC
  5
B158
330
AE93
100
AcDbEntity
  8
1
  6
Continuous
100
AcDbCircle
 10
338.3707109999999
 20
54.080759
 30
0.0
 40
0.3
100
AcDbArc
 50
284.757791
 51
90.0
  0
LINE
  5
B159
330
AE93
100
AcDbEntity
  8
1
  6
Continuous
100
AcDbLine
 10
337.270711
 20
53.480759
 30
0.0
 11
338.447131
 21
53.79065500000001
 31
0.0
  0
LINE
  5
B15A
330
AE93
100
AcDbEntity
  8
1
  6
Continuous
100
AcDbLine
 10
335.197316
 20
55.50179499999998
 30
0.0
 11
337.0982029999999
 21
54.380759
 31
0.0
  0
LINE
  5
B15B
330
AE93
100
AcDbEntity
  8
1
  6
Continuous
100
AcDbLine
 10
339.2707109999999
 20
54.33075899999999
 30
0.0
 11
339.2707109999999
 21
55.980759
 31
0.0
  0
LINE
  5
B15C
330
AE93
100
AcDbEntity
  8
1
  6
Continuous
100
AcDbLine
 10
339.5707109999999
 20
54.03075900000001
 30
0.0
 11
339.770711
 21
54.03075900000001
 31
0.0
  0
ARC
  5
B15D
330
AE93
100
AcDbEntity
  8
1
  6
Continuous
100
AcDbCircle
 10
339.5707109999999
 20
54.33075899999999
 30
0.0
 40
0.3
100
AcDbArc
 50
180.0
 51
270.0
  0
LINE
  5
B15E
330
AE93
100
AcDbEntity
  8
1
  6
Continuous
100
AcDbLine
 10
340.770711
 20
52.980759
 30
0.0
 11
340.770711
 21
62.980759
 31
0.0
  0
LINE
  5
B15F
330
AE93
100
AcDbEntity
  8
1
  6
Continuous
100
AcDbLine
 10
341.2707109999999
 20
53.880759
 30
0.0
 11
341.2707109999999
 21
62.08075899999999
 31
0.0
  0
LINE
  5
B160
330
AE93
100
AcDbEntity
  8
1
  6
Continuous
100
AcDbLine
 10
339.770711
 20
52.980759
 30
0.0
 11
340.770711
 21
52.980759
 31
0.0
  0
LINE
  5
B161
330
AE93
100
AcDbEntity
  8
1
  6
Continuous
100
AcDbLine
 10
341.2707109999999
 20
53.880759
 30
0.0
 11
340.770711
 21
52.980759
 31
0.0
  0
LINE
  5
B162
330
AE93
100
AcDbEntity
  8
1
  6
Continuous
100
AcDbLine
 10
336.770711
 20
62.78075900000001
 30
0.0
 11
337.270711
 21
62.78075900000001
 31
0.0
  0
LINE
  5
B163
330
AE93
100
AcDbEntity
  8
1
  6
Continuous
100
AcDbLine
 10
337.270711
 20
62.78075900000001
 30
0.0
 11
337.270711
 21
62.48075899999999
 31
0.0
  0
LINE
  5
B164
330
AE93
100
AcDbEntity
  8
1
  6
Continuous
100
AcDbLine
 10
337.0982029999999
 20
61.580759
 30
0.0
 11
338.3707109999999
 21
61.580759
 31
0.0
  0
ARC
  5
B165
330
AE93
100
AcDbEntity
  8
1
  6
Continuous
100
AcDbCircle
 10
338.3707109999999
 20
61.880759
 30
0.0
 40
0.3
100
AcDbArc
 50
270.0
 51
75.242209
  0
LINE
  5
B166
330
AE93
100
AcDbEntity
  8
1
  6
Continuous
100
AcDbLine
 10
337.270711
 20
62.48075899999999
 30
0.0
 11
338.447131
 21
62.170862
 31
0.0
  0
LINE
  5
B167
330
AE93
100
AcDbEntity
  8
1
  6
Continuous
100
AcDbLine
 10
335.197316
 20
60.459722
 30
0.0
 11
337.0982029999999
 21
61.580759
 31
0.0
  0
LINE
  5
B168
330
AE93
100
AcDbEntity
  8
1
  6
Continuous
100
AcDbLine
 10
339.2707109999999
 20
61.63075899999999
 30
0.0
 11
339.2707109999999
 21
59.98075899999999
 31
0.0
  0
LINE
  5
B169
330
AE93
100
AcDbEntity
  8
1
  6
Continuous
100
AcDbLine
 10
339.5707109999999
 20
61.930759
 30
0.0
 11
339.770711
 21
61.930759
 31
0.0
  0
ARC
  5
B16A
330
AE93
100
AcDbEntity
  8
1
  6
Continuous
100
AcDbCircle
 10
339.5707109999999
 20
61.63075899999999
 30
0.0
 40
0.3
100
AcDbArc
 50
90.0
 51
180.0
  0
LINE
  5
B16B
330
AE93
100
AcDbEntity
  8
1
  6
Continuous
100
AcDbLine
 10
339.770711
 20
62.980759
 30
0.0
 11
340.770711
 21
62.980759
 31
0.0
  0
LINE
  5
B16C
330
AE93
100
AcDbEntity
  8
1
  6
Continuous
100
AcDbLine
 10
341.2707109999999
 20
62.08075899999999
 30
0.0
 11
340.770711
 21
62.980759
 31
0.0
  0
LINE
  5
B16D
330
AE93
100
AcDbEntity
  8
1
  6
Continuous
100
AcDbLine
 10
337.770711
 20
58.73075899999999
 30
0.0
 11
337.770711
 21
59.98075899999999
 31
0.0
  0
LINE
  5
B16E
330
AE93
100
AcDbEntity
  8
1
  6
Continuous
100
AcDbLine
 10
337.770711
 20
55.980759
 30
0.0
 11
337.770711
 21
57.230759
 31
0.0
  0
LINE
  5
B16F
330
AE93
100
AcDbEntity
  8
1
  6
Continuous
100
AcDbLine
 10
297.336838
 20
91.61106100000001
 30
0.0
 11
297.336838
 21
89.611061
 31
0.0
  0
LINE
  5
B170
330
AE93
100
AcDbEntity
  8
1
  6
Continuous
100
AcDbLine
 10
293.336838
 20
91.61106100000001
 30
0.0
 11
293.336838
 21
89.611061
 31
0.0
  0
LINE
  5
B171
330
AE93
100
AcDbEntity
  8
1
  6
Continuous
100
AcDbLine
 10
296.0868379999999
 20
91.61106100000001
 30
0.0
 11
296.0868379999999
 21
89.611061
 31
0.0
  0
LINE
  5
B172
330
AE93
100
AcDbEntity
  8
1
  6
Continuous
100
AcDbLine
 10
294.5868379999998
 20
91.61106100000001
 30
0.0
 11
294.5868379999998
 21
89.611061
 31
0.0
  0
LINE
  5
B173
330
AE93
100
AcDbEntity
  8
1
  6
Continuous
100
AcDbLine
 10
294.5868379999998
 20
89.611061
 30
0.0
 11
293.336838
 21
89.611061
 31
0.0
  0
LINE
  5
B174
330
AE93
100
AcDbEntity
  8
1
  6
Continuous
100
AcDbLine
 10
294.5868379999998
 20
96.61106100000001
 30
0.0
 11
293.336838
 21
96.61106100000001
 31
0.0
  0
LINE
  5
B175
330
AE93
100
AcDbEntity
  8
1
  6
Continuous
100
AcDbLine
 10
296.0868379999999
 20
96.61106100000001
 30
0.0
 11
296.0868379999999
 21
94.611061
 31
0.0
  0
LINE
  5
B176
330
AE93
100
AcDbEntity
  8
1
  6
Continuous
100
AcDbLine
 10
294.5868379999998
 20
96.61106100000001
 30
0.0
 11
294.5868379999998
 21
94.611061
 31
0.0
  0
LINE
  5
B177
330
AE93
100
AcDbEntity
  8
1
  6
Continuous
100
AcDbLine
 10
297.336838
 20
96.61106100000001
 30
0.0
 11
297.336838
 21
94.611061
 31
0.0
  0
LINE
  5
B178
330
AE93
100
AcDbEntity
  8
1
  6
Continuous
100
AcDbLine
 10
293.336838
 20
96.61106100000001
 30
0.0
 11
293.336838
 21
94.611061
 31
0.0
  0
LINE
  5
B179
330
AE93
100
AcDbEntity
  8
1
  6
Continuous
100
AcDbLine
 10
300.136838
 20
94.611061
 30
0.0
 11
300.136838
 21
91.61106100000001
 31
0.0
  0
LINE
  5
B17A
330
AE93
100
AcDbEntity
  8
1
  6
Continuous
100
AcDbLine
 10
290.536838
 20
94.611061
 30
0.0
 11
290.536838
 21
91.61106100000001
 31
0.0
  0
LINE
  5
B17B
330
AE93
100
AcDbEntity
  8
1
  6
Continuous
100
AcDbLine
 10
298.0368379999998
 20
94.611061
 30
0.0
 11
298.0368379999998
 21
91.61106100000001
 31
0.0
  0
LINE
  5
B17C
330
AE93
100
AcDbEntity
  8
1
  6
Continuous
100
AcDbLine
 10
292.6368379999999
 20
94.611061
 30
0.0
 11
292.6368379999999
 21
91.61106100000001
 31
0.0
  0
LINE
  5
B17D
330
AE93
100
AcDbEntity
  8
1
  6
Continuous
100
AcDbLine
 10
296.836838
 20
94.611061
 30
0.0
 11
296.836838
 21
91.61106100000001
 31
0.0
  0
LINE
  5
B17E
330
AE93
100
AcDbEntity
  8
1
  6
Continuous
100
AcDbLine
 10
293.836838
 20
94.611061
 30
0.0
 11
293.836838
 21
91.61106100000001
 31
0.0
  0
LINE
  5
B17F
330
AE93
100
AcDbEntity
  8
1
  6
Continuous
100
AcDbLine
 10
297.336838
 20
89.611061
 30
0.0
 11
296.0868379999999
 21
89.611061
 31
0.0
  0
LINE
  5
B180
330
AE93
100
AcDbEntity
  8
1
  6
Continuous
100
AcDbLine
 10
297.336838
 20
96.61106100000001
 30
0.0
 11
296.0868379999999
 21
96.61106100000001
 31
0.0
  0
LINE
  5
B181
330
AE93
100
AcDbEntity
  8
1
  6
Continuous
100
AcDbLine
 10
300.136838
 20
91.61106100000001
 30
0.0
 11
290.536838
 21
91.61106100000001
 31
0.0
  0
LINE
  5
B182
330
AE93
100
AcDbEntity
  8
1
  6
Continuous
100
AcDbLine
 10
300.136838
 20
94.611061
 30
0.0
 11
290.536838
 21
94.611061
 31
0.0
  0
LINE
  5
B183
330
AE93
100
AcDbEntity
  8
1
  6
Continuous
100
AcDbLine
 10
290.3368379999998
 20
96.61106100000001
 30
0.0
 11
290.3368379999998
 21
89.611061
 31
0.0
  0
ARC
  5
B184
330
AE93
100
AcDbEntity
  8
1
  6
Continuous
100
AcDbCircle
 10
291.336838
 20
89.611061
 30
0.0
 40
1.0
100
AcDbArc
 50
180.0
 51
270.0
  0
ARC
  5
B185
330
AE93
100
AcDbEntity
  8
1
  6
Continuous
100
AcDbCircle
 10
291.336838
 20
96.61106100000001
 30
0.0
 40
1.0
100
AcDbArc
 50
90.0
 51
180.0
  0
ARC
  5
B186
330
AE93
100
AcDbEntity
  8
1
  6
Continuous
100
AcDbCircle
 10
299.336838
 20
89.611061
 30
0.0
 40
1.0
100
AcDbArc
 50
270.0
 51
0.0
  0
ARC
  5
B187
330
AE93
100
AcDbEntity
  8
1
  6
Continuous
100
AcDbCircle
 10
299.336838
 20
96.61106100000001
 30
0.0
 40
1.0
100
AcDbArc
 50
0.0
 51
90.0
  0
LINE
  5
B188
330
AE93
100
AcDbEntity
  8
1
  6
Continuous
100
AcDbLine
 10
300.3368379999999
 20
96.61106100000001
 30
0.0
 11
300.3368379999999
 21
89.611061
 31
0.0
  0
LINE
  5
B189
330
AE93
100
AcDbEntity
  8
4
  6
CENTER
100
AcDbLine
 10
302.8368379999998
 20
93.11106100000001
 30
0.0
 11
287.8368379999999
 21
93.11106100000001
 31
0.0
  0
LINE
  5
B18A
330
AE93
100
AcDbEntity
  8
1
  6
Continuous
100
AcDbLine
 10
291.336838
 20
97.61106100000001
 30
0.0
 11
299.336838
 21
97.61106100000001
 31
0.0
  0
LINE
  5
B18B
330
AE93
100
AcDbEntity
  8
1
  6
Continuous
100
AcDbLine
 10
291.336838
 20
88.61106099999997
 30
0.0
 11
299.336838
 21
88.61106099999997
 31
0.0
  0
LINE
  5
B18C
330
AE93
100
AcDbEntity
  8
1
  6
Continuous
100
AcDbLine
 10
341.2707109999999
 20
132.341461
 30
0.0
 11
341.2707109999999
 21
124.141461
 31
0.0
  0
LINE
  5
B18D
330
AE93
100
AcDbEntity
  8
1
  6
Continuous
100
AcDbLine
 10
340.770711
 20
133.2414609999999
 30
0.0
 11
340.770711
 21
123.241461
 31
0.0
  0
ARC
  5
B18E
330
AE93
100
AcDbEntity
  8
1
  6
Continuous
100
AcDbCircle
 10
339.5707109999999
 20
131.8914609999999
 30
0.0
 40
0.3
100
AcDbArc
 50
90.0
 51
180.0
  0
ARC
  5
B18F
330
AE93
100
AcDbEntity
  8
1
  6
Continuous
100
AcDbCircle
 10
338.3707109999999
 20
132.1414609999999
 30
0.0
 40
0.3
100
AcDbArc
 50
270.0
 51
75.242209
  0
LINE
  5
B190
330
AE93
100
AcDbEntity
  8
1
  6
Continuous
100
AcDbLine
 10
333.8547409999998
 20
131.321787
 30
0.0
 11
336.770711
 21
133.041461
 31
0.0
  0
LINE
  5
B191
330
AE93
100
AcDbEntity
  8
1
  6
Continuous
100
AcDbLine
 10
339.770711
 20
133.2414609999999
 30
0.0
 11
339.770711
 21
123.241461
 31
0.0
  0
LINE
  5
B192
330
AE93
100
AcDbEntity
  8
1
  6
Continuous
100
AcDbLine
 10
329.270711
 20
91.61111
 30
0.0
 11
338.6707109999999
 21
91.61111
 31
0.0
  0
LINE
  5
B193
330
AE93
100
AcDbEntity
  8
1
  6
Continuous
100
AcDbLine
 10
334.7707109999999
 20
91.61111
 30
0.0
 11
337.770711
 21
89.61110999999998
 31
0.0
  0
LINE
  5
B194
330
AE93
100
AcDbEntity
  8
1
  6
Continuous
100
AcDbLine
 10
329.270711
 20
94.61111
 30
0.0
 11
338.6707109999999
 21
94.61111
 31
0.0
  0
LINE
  5
B195
330
AE93
100
AcDbEntity
  8
1
  6
Continuous
100
AcDbLine
 10
334.7707109999999
 20
94.61111
 30
0.0
 11
337.770711
 21
96.61111
 31
0.0
  0
LINE
  5
B196
330
AE93
100
AcDbEntity
  8
4
  6
CENTER
100
AcDbLine
 10
325.770711
 20
93.11111
 30
0.0
 11
344.270711
 21
93.11111
 31
0.0
  0
LINE
  5
B197
330
AE93
100
AcDbEntity
  8
1
  6
Continuous
100
AcDbLine
 10
330.5707109999999
 20
94.11111
 30
0.0
 11
330.5707109999999
 21
92.11111
 31
0.0
  0
LINE
  5
B198
330
AE93
100
AcDbEntity
  8
1
  6
Continuous
100
AcDbLine
 10
328.7707109999999
 20
94.11111
 30
0.0
 11
328.7707109999999
 21
92.11111
 31
0.0
  0
ARC
  5
B199
330
AE93
100
AcDbEntity
  8
1
  6
Continuous
100
AcDbCircle
 10
331.0707109999999
 20
92.11111
 30
0.0
 40
0.5
100
AcDbArc
 50
270.0
 51
0.0
  0
LINE
  5
B19A
330
AE93
100
AcDbEntity
  8
1
  6
Continuous
100
AcDbLine
 10
331.5707109999999
 20
92.11111
 30
0.0
 11
331.5707109999999
 21
93.11111
 31
0.0
  0
ARC
  5
B19B
330
AE93
100
AcDbEntity
  8
1
  6
Continuous
100
AcDbCircle
 10
329.270711
 20
92.11111
 30
0.0
 40
0.5
100
AcDbArc
 50
180.0
 51
270.0
  0
ARC
  5
B19C
330
AE93
100
AcDbEntity
  8
1
  6
Continuous
100
AcDbCircle
 10
331.0707109999999
 20
94.11111
 30
0.0
 40
0.5
100
AcDbArc
 50
0.0
 51
90.0
  0
LINE
  5
B19D
330
AE93
100
AcDbEntity
  8
1
  6
Continuous
100
AcDbLine
 10
331.5707109999999
 20
94.11111
 30
0.0
 11
331.5707109999999
 21
93.11111
 31
0.0
  0
ARC
  5
B19E
330
AE93
100
AcDbEntity
  8
1
  6
Continuous
100
AcDbCircle
 10
329.270711
 20
94.11111
 30
0.0
 40
0.5
100
AcDbArc
 50
90.0
 51
180.0
  0
LINE
  5
B19F
330
AE93
100
AcDbEntity
  8
1
  6
Continuous
100
AcDbLine
 10
341.2707109999999
 20
96.71111000000001
 30
0.0
 11
341.2707109999999
 21
89.51111
 31
0.0
  0
LINE
  5
B1A0
330
AE93
100
AcDbEntity
  8
1
  6
Continuous
100
AcDbLine
 10
340.770711
 20
97.61110999999999
 30
0.0
 11
340.770711
 21
88.61110999999999
 31
0.0
  0
LINE
  5
B1A1
330
AE93
100
AcDbEntity
  8
1
  6
Continuous
100
AcDbLine
 10
339.770711
 20
97.61110999999999
 30
0.0
 11
339.770711
 21
88.61110999999999
 31
0.0
  0
LINE
  5
B1A2
330
AE93
100
AcDbEntity
  8
1
  6
Continuous
100
AcDbLine
 10
339.2707109999999
 20
94.61111
 30
0.0
 11
339.2707109999999
 21
91.61111
 31
0.0
  0
LINE
  5
B1A3
330
AE93
100
AcDbEntity
  8
1
  6
Continuous
100
AcDbLine
 10
338.6707109999999
 20
94.61111
 30
0.0
 11
338.6707109999999
 21
91.61111
 31
0.0
  0
LINE
  5
B1A4
330
AE93
100
AcDbEntity
  8
1
  6
Continuous
100
AcDbLine
 10
337.270711
 20
94.61111
 30
0.0
 11
337.270711
 21
91.61111
 31
0.0
  0
LINE
  5
B1A5
330
AE93
100
AcDbEntity
  8
1
  6
Continuous
100
AcDbLine
 10
336.770711
 20
94.11111
 30
0.0
 11
336.770711
 21
92.11111
 31
0.0
  0
LINE
  5
B1A6
330
AE93
100
AcDbEntity
  8
1
  6
Continuous
100
AcDbLine
 10
339.2707109999999
 20
91.61111
 30
0.0
 11
339.770711
 21
91.61111
 31
0.0
  0
LINE
  5
B1A7
330
AE93
100
AcDbEntity
  8
1
  6
Continuous
100
AcDbLine
 10
337.770711
 20
89.61110999999998
 30
0.0
 11
339.770711
 21
89.61110999999998
 31
0.0
  0
LINE
  5
B1A8
330
AE93
100
AcDbEntity
  8
1
  6
Continuous
100
AcDbLine
 10
341.2707109999999
 20
89.51111
 30
0.0
 11
340.770711
 21
88.61110999999999
 31
0.0
  0
LINE
  5
B1A9
330
AE93
100
AcDbEntity
  8
1
  6
Continuous
100
AcDbLine
 10
339.770711
 20
88.61110999999999
 30
0.0
 11
340.770711
 21
88.61110999999999
 31
0.0
  0
LINE
  5
B1AA
330
AE93
100
AcDbEntity
  8
1
  6
Continuous
100
AcDbLine
 10
339.2707109999999
 20
94.61111
 30
0.0
 11
339.770711
 21
94.61111
 31
0.0
  0
LINE
  5
B1AB
330
AE93
100
AcDbEntity
  8
1
  6
Continuous
100
AcDbLine
 10
337.770711
 20
96.61111
 30
0.0
 11
339.770711
 21
96.61111
 31
0.0
  0
LINE
  5
B1AC
330
AE93
100
AcDbEntity
  8
1
  6
Continuous
100
AcDbLine
 10
341.2707109999999
 20
96.71111000000001
 30
0.0
 11
340.770711
 21
97.61110999999999
 31
0.0
  0
LINE
  5
B1AD
330
AE93
100
AcDbEntity
  8
1
  6
Continuous
100
AcDbLine
 10
339.770711
 20
97.61110999999999
 30
0.0
 11
340.770711
 21
97.61110999999999
 31
0.0
  0
LINE
  5
B1AE
330
AE93
100
AcDbEntity
  8
1
  6
Continuous
100
AcDbLine
 10
335.0707109999999
 20
126.241461
 30
0.0
 11
339.770711
 21
126.241461
 31
0.0
  0
ARC
  5
B1AF
330
AE93
100
AcDbEntity
  8
1
  6
Continuous
100
AcDbCircle
 10
335.3280299999998
 20
125.9841429999999
 30
0.0
 40
0.257319
100
AcDbArc
 50
90.0
 51
239.470294
  0
LINE
  5
B1B0
330
AE93
100
AcDbEntity
  8
1
  6
Continuous
100
AcDbLine
 10
333.8547409999998
 20
125.161136
 30
0.0
 11
336.770711
 21
123.4414609999999
 31
0.0
  0
LINE
  5
B1B1
330
AE93
100
AcDbEntity
  8
1
  6
Continuous
100
AcDbLine
 10
331.020711
 20
128.9914609999999
 30
0.0
 11
339.770711
 21
128.9914609999999
 31
0.0
  0
LINE
  5
B1B2
330
AE93
100
AcDbEntity
  8
1
  6
Continuous
100
AcDbLine
 10
331.020711
 20
127.491461
 30
0.0
 11
339.770711
 21
127.491461
 31
0.0
  0
LINE
  5
B1B3
330
AE93
100
AcDbEntity
  8
1
  6
Continuous
100
AcDbLine
 10
335.0707109999999
 20
130.2414609999999
 30
0.0
 11
339.770711
 21
130.2414609999999
 31
0.0
  0
ARC
  5
B1B4
330
AE93
100
AcDbEntity
  8
1
  6
Continuous
100
AcDbCircle
 10
335.3280299999998
 20
130.49878
 30
0.0
 40
0.257319
100
AcDbArc
 50
120.529706
 51
270.0
  0
LINE
  5
B1B5
330
AE93
100
AcDbEntity
  8
4
  6
CENTER
100
AcDbLine
 10
325.770711
 20
128.2414609999999
 30
0.0
 11
344.270711
 21
128.2414609999999
 31
0.0
  0
LINE
  5
B1B6
330
AE93
100
AcDbEntity
  8
1
  6
Continuous
100
AcDbLine
 10
328.7707109999999
 20
129.47387
 30
0.0
 11
328.7707109999999
 21
127.009053
 31
0.0
  0
LINE
  5
B1B7
330
AE93
100
AcDbEntity
  8
1
  6
Continuous
100
AcDbLine
 10
334.7707109999999
 20
129.941461
 30
0.0
 11
334.7707109999999
 21
128.9914609999999
 31
0.0
  0
LINE
  5
B1B8
330
AE93
100
AcDbEntity
  8
1
  6
Continuous
100
AcDbLine
 10
334.7707109999999
 20
127.491461
 30
0.0
 11
334.7707109999999
 21
126.541461
 31
0.0
  0
ARC
  5
B1B9
330
AE93
100
AcDbEntity
  8
1
  6
Continuous
100
AcDbCircle
 10
335.0707109999999
 20
129.941461
 30
0.0
 40
0.3
100
AcDbArc
 50
90.0
 51
180.0
  0
ARC
  5
B1BA
330
AE93
100
AcDbEntity
  8
1
  6
Continuous
100
AcDbCircle
 10
335.0707109999999
 20
126.541461
 30
0.0
 40
0.3
100
AcDbArc
 50
180.0
 51
270.0
  0
ARC
  5
B1BB
330
AE93
100
AcDbEntity
  8
1
  6
Continuous
100
AcDbCircle
 10
331.020711
 20
128.2414609999999
 30
0.0
 40
0.75
100
AcDbArc
 50
90.0
 51
270.0
  0
ARC
  5
B1BC
330
AE93
100
AcDbEntity
  8
1
  6
Continuous
100
AcDbCircle
 10
334.8707109999998
 20
129.5990549999999
 30
0.0
 40
2.0
100
AcDbArc
 50
120.529706
 51
161.264294
  0
ARC
  5
B1BD
330
AE93
100
AcDbEntity
  8
1
  6
Continuous
100
AcDbCircle
 10
334.8707109999998
 20
126.8838679999998
 30
0.0
 40
2.0
100
AcDbArc
 50
198.735706
 51
239.470294
  0
ARC
  5
B1BF
330
AE93
100
AcDbEntity
  8
1
  6
Continuous
100
AcDbCircle
 10
331.0707109999999
 20
126.041461
 30
0.0
 40
0.5
100
AcDbArc
 50
270.0
 51
0.0
  0
ARC
  5
B1C0
330
AE93
100
AcDbEntity
  8
1
  6
Continuous
100
AcDbCircle
 10
330.722099
 20
126.041461
 30
0.0
 40
0.5
100
AcDbArc
 50
236.3099319999999
 51
270.0
  0
ARC
  5
B1C1
330
AE93
100
AcDbEntity
  8
1
  6
Continuous
100
AcDbCircle
 10
329.270711
 20
127.009053
 30
0.0
 40
0.5
100
AcDbArc
 50
180.0
 51
236.3099319999999
  0
LINE
  5
B1C2
330
AE93
100
AcDbEntity
  8
1
  6
Continuous
100
AcDbLine
 10
328.9930109999999
 20
126.593261
 30
0.0
 11
330.444749
 21
125.625436
 31
0.0
  0
LINE
  5
B1C3
330
AE93
100
AcDbEntity
  8
1
  6
Continuous
100
AcDbLine
 10
331.5707109999999
 20
126.041461
 30
0.0
 11
331.5707109999999
 21
126.241461
 31
0.0
  0
LINE
  5
B1C4
330
AE93
100
AcDbEntity
  8
1
  6
Continuous
100
AcDbLine
 10
330.722099
 20
125.541461
 30
0.0
 11
331.0707109999999
 21
125.541461
 31
0.0
  0
ARC
  5
B1C5
330
AE93
100
AcDbEntity
  8
1
  6
Continuous
100
AcDbCircle
 10
331.0707109999999
 20
130.441461
 30
0.0
 40
0.5
100
AcDbArc
 50
0.0
 51
90.0
  0
ARC
  5
B1C6
330
AE93
100
AcDbEntity
  8
1
  6
Continuous
100
AcDbCircle
 10
330.722099
 20
130.441461
 30
0.0
 40
0.5
100
AcDbArc
 50
90.0
 51
123.690068
  0
ARC
  5
B1C7
330
AE93
100
AcDbEntity
  8
1
  6
Continuous
100
AcDbCircle
 10
329.270711
 20
129.47387
 30
0.0
 40
0.5
100
AcDbArc
 50
123.690068
 51
180.0
  0
LINE
  5
B1C8
330
AE93
100
AcDbEntity
  8
1
  6
Continuous
100
AcDbLine
 10
328.9930109999999
 20
129.8896619999999
 30
0.0
 11
330.444749
 21
130.8574869999999
 31
0.0
  0
LINE
  5
B1C9
330
AE93
100
AcDbEntity
  8
1
  6
Continuous
100
AcDbLine
 10
331.5707109999999
 20
130.441461
 30
0.0
 11
331.5707109999999
 21
130.2414609999999
 31
0.0
  0
LINE
  5
B1CA
330
AE93
100
AcDbEntity
  8
1
  6
Continuous
100
AcDbLine
 10
330.722099
 20
130.941461
 30
0.0
 11
331.0707109999999
 21
130.941461
 31
0.0
  0
LINE
  5
B1CB
330
AE93
100
AcDbEntity
  8
1
  6
Continuous
100
AcDbLine
 10
331.5707109999999
 20
126.241461
 30
0.0
 11
332.976691
 21
126.241461
 31
0.0
  0
LINE
  5
B1CC
330
AE93
100
AcDbEntity
  8
1
  6
Continuous
100
AcDbLine
 10
331.5707109999999
 20
130.2414609999999
 30
0.0
 11
332.976691
 21
130.2414609999999
 31
0.0
  0
LINE
  5
B1CD
330
AE93
100
AcDbEntity
  8
1
  6
Continuous
100
AcDbLine
 10
337.770711
 20
130.2414609999999
 30
0.0
 11
337.770711
 21
128.9914609999999
 31
0.0
  0
LINE
  5
B1CE
330
AE93
100
AcDbEntity
  8
1
  6
Continuous
100
AcDbLine
 10
337.770711
 20
127.491461
 30
0.0
 11
337.770711
 21
126.241461
 31
0.0
  0
LINE
  5
B1CF
330
AE93
100
AcDbEntity
  8
1
  6
Continuous
100
AcDbLine
 10
341.2707109999999
 20
124.141461
 30
0.0
 11
340.770711
 21
123.241461
 31
0.0
  0
LINE
  5
B1D0
330
AE93
100
AcDbEntity
  8
1
  6
Continuous
100
AcDbLine
 10
339.770711
 20
123.241461
 30
0.0
 11
340.770711
 21
123.241461
 31
0.0
  0
ARC
  5
B1D1
330
AE93
100
AcDbEntity
  8
1
  6
Continuous
100
AcDbCircle
 10
339.5707109999999
 20
124.591461
 30
0.0
 40
0.3
100
AcDbArc
 50
180.0
 51
270.0
  0
LINE
  5
B1D2
330
AE93
100
AcDbEntity
  8
1
  6
Continuous
100
AcDbLine
 10
339.5707109999999
 20
124.291461
 30
0.0
 11
339.770711
 21
124.291461
 31
0.0
  0
LINE
  5
B1D3
330
AE93
100
AcDbEntity
  8
1
  6
Continuous
100
AcDbLine
 10
339.2707109999999
 20
124.591461
 30
0.0
 11
339.2707109999999
 21
126.241461
 31
0.0
  0
LINE
  5
B1D4
330
AE93
100
AcDbEntity
  8
1
  6
Continuous
100
AcDbLine
 10
335.197316
 20
125.7624979999998
 30
0.0
 11
337.0982029999999
 21
124.641461
 31
0.0
  0
LINE
  5
B1D5
330
AE93
100
AcDbEntity
  8
1
  6
Continuous
100
AcDbLine
 10
337.270711
 20
123.741461
 30
0.0
 11
338.447131
 21
124.051358
 31
0.0
  0
ARC
  5
B1D6
330
AE93
100
AcDbEntity
  8
1
  6
Continuous
100
AcDbCircle
 10
338.3707109999999
 20
124.341461
 30
0.0
 40
0.3
100
AcDbArc
 50
284.757791
 51
90.0
  0
LINE
  5
B1D7
330
AE93
100
AcDbEntity
  8
1
  6
Continuous
100
AcDbLine
 10
337.0982029999999
 20
124.641461
 30
0.0
 11
338.3707109999999
 21
124.641461
 31
0.0
  0
LINE
  5
B1D8
330
AE93
100
AcDbEntity
  8
1
  6
Continuous
100
AcDbLine
 10
337.270711
 20
123.4414609999999
 30
0.0
 11
337.270711
 21
123.741461
 31
0.0
  0
LINE
  5
B1D9
330
AE93
100
AcDbEntity
  8
1
  6
Continuous
100
AcDbLine
 10
336.770711
 20
123.4414609999999
 30
0.0
 11
337.270711
 21
123.4414609999999
 31
0.0
  0
LINE
  5
B1DA
330
AE93
100
AcDbEntity
  8
1
  6
Continuous
100
AcDbLine
 10
339.2707109999999
 20
131.8914609999999
 30
0.0
 11
339.2707109999999
 21
130.2414609999999
 31
0.0
  0
LINE
  5
B1DB
330
AE93
100
AcDbEntity
  8
1
  6
Continuous
100
AcDbLine
 10
335.197316
 20
130.720425
 30
0.0
 11
337.0982029999999
 21
131.841461
 31
0.0
  0
LINE
  5
B1DC
330
AE93
100
AcDbEntity
  8
1
  6
Continuous
100
AcDbLine
 10
337.0982029999999
 20
131.841461
 30
0.0
 11
338.3707109999999
 21
131.841461
 31
0.0
  0
LINE
  5
B1DD
330
AE93
100
AcDbEntity
  8
4
  6
CENTER
100
AcDbLine
 10
382.204584
 20
93.11106100000001
 30
0.0
 11
366.204584
 21
93.11106100000001
 31
0.0
  0
ARC
  5
B1DE
330
AE93
100
AcDbEntity
  8
1
  6
Continuous
100
AcDbCircle
 10
371.104584
 20
90.511061
 30
0.0
 40
1.0
100
AcDbArc
 50
180.0
 51
270.0
  0
LINE
  5
B1DF
330
AE93
100
AcDbEntity
  8
1
  6
Continuous
100
AcDbLine
 10
377.3045839999999
 20
89.511061
 30
0.0
 11
371.104584
 21
89.511061
 31
0.0
  0
ARC
  5
B1E0
330
AE93
100
AcDbEntity
  8
1
  6
Continuous
100
AcDbCircle
 10
377.3045839999999
 20
90.511061
 30
0.0
 40
1.0
100
AcDbArc
 50
270.0
 51
0.0
  0
LINE
  5
B1E1
330
AE93
100
AcDbEntity
  8
1
  6
Continuous
100
AcDbLine
 10
378.3045839999999
 20
95.71106099999999
 30
0.0
 11
378.3045839999999
 21
90.511061
 31
0.0
  0
ARC
  5
B1E2
330
AE93
100
AcDbEntity
  8
1
  6
Continuous
100
AcDbCircle
 10
377.3045839999999
 20
95.71106099999999
 30
0.0
 40
1.0
100
AcDbArc
 50
0.0
 51
90.0
  0
LINE
  5
B1E3
330
AE93
100
AcDbEntity
  8
1
  6
Continuous
100
AcDbLine
 10
371.104584
 20
96.71106100000001
 30
0.0
 11
377.3045839999999
 21
96.71106100000001
 31
0.0
  0
ARC
  5
B1E4
330
AE93
100
AcDbEntity
  8
1
  6
Continuous
100
AcDbCircle
 10
371.104584
 20
95.71106099999999
 30
0.0
 40
1.0
100
AcDbArc
 50
90.0
 51
180.0
  0
LINE
  5
B1E5
330
AE93
100
AcDbEntity
  8
1
  6
Continuous
100
AcDbLine
 10
370.1045839999999
 20
90.511061
 30
0.0
 11
370.1045839999999
 21
95.71106099999999
 31
0.0
  0
ARC
  5
B1E6
330
AE93
100
AcDbEntity
  8
1
  6
Continuous
100
AcDbCircle
 10
370.204584
 20
96.61106100000001
 30
0.0
 40
1.0
100
AcDbArc
 50
90.0
 51
180.0
  0
ARC
  5
B1E7
330
AE93
100
AcDbEntity
  8
1
  6
Continuous
100
AcDbCircle
 10
378.204584
 20
96.61106100000001
 30
0.0
 40
1.0
100
AcDbArc
 50
0.0
 51
90.0
  0
ARC
  5
B1E8
330
AE93
100
AcDbEntity
  8
1
  6
Continuous
100
AcDbCircle
 10
378.204584
 20
89.611061
 30
0.0
 40
1.0
100
AcDbArc
 50
270.0
 51
0.0
  0
ARC
  5
B1E9
330
AE93
100
AcDbEntity
  8
1
  6
Continuous
100
AcDbCircle
 10
370.204584
 20
89.611061
 30
0.0
 40
1.0
100
AcDbArc
 50
180.0
 51
270.0
  0
LINE
  5
B1EA
330
AE93
100
AcDbEntity
  8
1
  6
Continuous
100
AcDbLine
 10
379.204584
 20
96.61106100000001
 30
0.0
 11
379.204584
 21
89.611061
 31
0.0
  0
LINE
  5
B1EB
330
AE93
100
AcDbEntity
  8
1
  6
Continuous
100
AcDbLine
 10
369.204584
 20
96.61106100000001
 30
0.0
 11
369.204584
 21
89.611061
 31
0.0
  0
LINE
  5
B1EC
330
AE93
100
AcDbEntity
  8
1
  6
Continuous
100
AcDbLine
 10
378.204584
 20
88.61106099999997
 30
0.0
 11
370.204584
 21
88.61106099999997
 31
0.0
  0
LINE
  5
B1ED
330
AE93
100
AcDbEntity
  8
1
  6
Continuous
100
AcDbLine
 10
378.204584
 20
97.61106100000001
 30
0.0
 11
370.204584
 21
97.61106100000001
 31
0.0
  0
LINE
  5
B1EE
330
AE93
100
AcDbEntity
  8
1
  6
Continuous
100
AcDbLine
 10
341.2707109999999
 20
132.341461
 30
0.0
 11
340.770711
 21
133.2414609999999
 31
0.0
  0
LINE
  5
B1EF
330
AE93
100
AcDbEntity
  8
1
  6
Continuous
100
AcDbLine
 10
339.770711
 20
133.2414609999999
 30
0.0
 11
340.770711
 21
133.2414609999999
 31
0.0
  0
LINE
  5
B1F0
330
AE93
100
AcDbEntity
  8
1
  6
Continuous
100
AcDbLine
 10
339.5707109999999
 20
132.191461
 30
0.0
 11
339.770711
 21
132.191461
 31
0.0
  0
LINE
  5
B1F1
330
AE93
100
AcDbEntity
  8
1
  6
Continuous
100
AcDbLine
 10
337.270711
 20
132.7414609999999
 30
0.0
 11
338.447131
 21
132.4315649999997
 31
0.0
  0
LINE
  5
B1F2
330
AE93
100
AcDbEntity
  8
1
  6
Continuous
100
AcDbLine
 10
337.270711
 20
133.041461
 30
0.0
 11
337.270711
 21
132.7414609999999
 31
0.0
  0
LINE
  5
B1F3
330
AE93
100
AcDbEntity
  8
1
  6
Continuous
100
AcDbLine
 10
336.770711
 20
133.041461
 30
0.0
 11
337.270711
 21
133.041461
 31
0.0
  0
LINE
  5
B1F4
330
AE93
100
AcDbEntity
  8
4
  6
CENTER
100
AcDbLine
 10
422.638457
 20
93.11111
 30
0.0
 11
404.1384569999998
 21
93.11111
 31
0.0
  0
LINE
  5
B1F5
330
AE93
100
AcDbEntity
  8
1
  6
Continuous
100
AcDbLine
 10
419.1384569999998
 20
94.61111
 30
0.0
 11
409.738457
 21
94.61111
 31
0.0
  0
LINE
  5
B1F6
330
AE93
100
AcDbEntity
  8
1
  6
Continuous
100
AcDbLine
 10
419.1384569999998
 20
91.61111
 30
0.0
 11
409.738457
 21
91.61111
 31
0.0
  0
LINE
  5
B1F7
330
AE93
100
AcDbEntity
  8
1
  6
Continuous
100
AcDbLine
 10
408.6384569999998
 20
97.61110999999999
 30
0.0
 11
407.638457
 21
97.61110999999999
 31
0.0
  0
LINE
  5
B1F8
330
AE93
100
AcDbEntity
  8
1
  6
Continuous
100
AcDbLine
 10
407.1384569999998
 20
96.71111000000001
 30
0.0
 11
407.638457
 21
97.61110999999999
 31
0.0
  0
LINE
  5
B1F9
330
AE93
100
AcDbEntity
  8
1
  6
Continuous
100
AcDbLine
 10
410.6384569999998
 20
96.61111
 30
0.0
 11
408.6384569999998
 21
96.61111
 31
0.0
  0
LINE
  5
B1FA
330
AE93
100
AcDbEntity
  8
1
  6
Continuous
100
AcDbLine
 10
409.1384569999998
 20
94.61111
 30
0.0
 11
408.6384569999998
 21
94.61111
 31
0.0
  0
LINE
  5
B1FB
330
AE93
100
AcDbEntity
  8
1
  6
Continuous
100
AcDbLine
 10
408.6384569999998
 20
88.61110999999999
 30
0.0
 11
407.638457
 21
88.61110999999999
 31
0.0
  0
LINE
  5
B1FC
330
AE93
100
AcDbEntity
  8
1
  6
Continuous
100
AcDbLine
 10
407.1384569999998
 20
89.51111
 30
0.0
 11
407.638457
 21
88.61110999999999
 31
0.0
  0
LINE
  5
B1FD
330
AE93
100
AcDbEntity
  8
1
  6
Continuous
100
AcDbLine
 10
410.6384569999998
 20
89.61110999999998
 30
0.0
 11
408.6384569999998
 21
89.61110999999998
 31
0.0
  0
LINE
  5
B1FE
330
AE93
100
AcDbEntity
  8
1
  6
Continuous
100
AcDbLine
 10
409.1384569999998
 20
91.61111
 30
0.0
 11
408.6384569999998
 21
91.61111
 31
0.0
  0
LINE
  5
B1FF
330
AE93
100
AcDbEntity
  8
1
  6
Continuous
100
AcDbLine
 10
411.6384569999998
 20
94.11111
 30
0.0
 11
411.6384569999998
 21
92.11111
 31
0.0
  0
LINE
  5
B200
330
AE93
100
AcDbEntity
  8
1
  6
Continuous
100
AcDbLine
 10
411.1384569999998
 20
94.61111
 30
0.0
 11
411.1384569999998
 21
91.61111
 31
0.0
  0
LINE
  5
B201
330
AE93
100
AcDbEntity
  8
1
  6
Continuous
100
AcDbLine
 10
409.738457
 20
94.61111
 30
0.0
 11
409.738457
 21
91.61111
 31
0.0
  0
LINE
  5
B202
330
AE93
100
AcDbEntity
  8
1
  6
Continuous
100
AcDbLine
 10
409.1384569999998
 20
94.61111
 30
0.0
 11
409.1384569999998
 21
91.61111
 31
0.0
  0
LINE
  5
B203
330
AE93
100
AcDbEntity
  8
1
  6
Continuous
100
AcDbLine
 10
408.6384569999998
 20
97.61110999999999
 30
0.0
 11
408.6384569999998
 21
88.61110999999999
 31
0.0
  0
LINE
  5
B204
330
AE93
100
AcDbEntity
  8
1
  6
Continuous
100
AcDbLine
 10
407.638457
 20
97.61110999999999
 30
0.0
 11
407.638457
 21
88.61110999999999
 31
0.0
  0
LINE
  5
B205
330
AE93
100
AcDbEntity
  8
1
  6
Continuous
100
AcDbLine
 10
407.1384569999998
 20
96.71111000000001
 30
0.0
 11
407.1384569999998
 21
89.51111
 31
0.0
  0
LINE
  5
B206
330
AE93
100
AcDbEntity
  8
1
  6
Continuous
100
AcDbLine
 10
413.6384569999998
 20
94.61111
 30
0.0
 11
410.6384569999998
 21
96.61111
 31
0.0
  0
LINE
  5
B207
330
AE93
100
AcDbEntity
  8
1
  6
Continuous
100
AcDbLine
 10
413.6384569999998
 20
91.61111
 30
0.0
 11
410.6384569999998
 21
89.61110999999998
 31
0.0
  0
ARC
  5
B208
330
AE93
100
AcDbEntity
  8
1
  6
Continuous
100
AcDbCircle
 10
419.1384569999998
 20
94.11111
 30
0.0
 40
0.5
100
AcDbArc
 50
0.0
 51
90.0
  0
LINE
  5
B209
330
AE93
100
AcDbEntity
  8
1
  6
Continuous
100
AcDbLine
 10
416.8384569999998
 20
94.11111
 30
0.0
 11
416.8384569999998
 21
93.11111
 31
0.0
  0
ARC
  5
B20A
330
AE93
100
AcDbEntity
  8
1
  6
Continuous
100
AcDbCircle
 10
417.338457
 20
94.11111
 30
0.0
 40
0.5
100
AcDbArc
 50
90.0
 51
180.0
  0
ARC
  5
B20B
330
AE93
100
AcDbEntity
  8
1
  6
Continuous
100
AcDbCircle
 10
419.1384569999998
 20
92.11111
 30
0.0
 40
0.5
100
AcDbArc
 50
270.0
 51
0.0
  0
LINE
  5
B20C
330
AE93
100
AcDbEntity
  8
1
  6
Continuous
100
AcDbLine
 10
416.8384569999998
 20
92.11111
 30
0.0
 11
416.8384569999998
 21
93.11111
 31
0.0
  0
ARC
  5
B20D
330
AE93
100
AcDbEntity
  8
1
  6
Continuous
100
AcDbCircle
 10
417.338457
 20
92.11111
 30
0.0
 40
0.5
100
AcDbArc
 50
180.0
 51
270.0
  0
LINE
  5
B20E
330
AE93
100
AcDbEntity
  8
1
  6
Continuous
100
AcDbLine
 10
419.638457
 20
94.11111
 30
0.0
 11
419.638457
 21
92.11111
 31
0.0
  0
LINE
  5
B20F
330
AE93
100
AcDbEntity
  8
1
  6
Continuous
100
AcDbLine
 10
417.838457
 20
94.11111
 30
0.0
 11
417.838457
 21
92.11111
 31
0.0
  0
ENDSEC
  0
SECTION
  2
OBJECTS
  0
DICTIONARY
  5
AE81
330
0
100
AcDbDictionary
281
     1
  3
ACAD_CIP_PREVIOUS_PRODUCT_INFO
350
B273
  3
ACAD_COLOR
350
B255
  3
ACAD_DETAILVIEWSTYLE
350
B26E
  3
ACAD_GROUP
350
AE82
  3
ACAD_LAYOUT
350
AE8E
  3
ACAD_MATERIAL
350
B223
  3
ACAD_MLEADERSTYLE
350
B26A
  3
ACAD_MLINESTYLE
350
AE8B
  3
ACAD_PLOTSETTINGS
350
AE8D
  3
ACAD_PLOTSTYLENAME
350
B221
  3
ACAD_SCALELIST
350
B258
  3
ACAD_SECTIONVIEWSTYLE
350
B26C
  3
ACAD_TABLESTYLE
350
B256
  3
ACAD_VISUALSTYLE
350
B23C
  3
ACDB_RECOMPOSE_DATA
350
B291
  3
AcDbVariableDictionary
350
B284
  3
DWGPROPS
350
B292
  0
DICTIONARY
  5
B274
330
AE85
100
AcDbDictionary
280
     1
281
     1
  3
ADSK_XREC_LAYER_RECONCILED
360
B275
  0
DICTIONARY
  5
B276
330
AE9B
100
AcDbDictionary
280
     1
281
     1
  3
ADSK_XREC_LAYER_RECONCILED
360
B277
  0
DICTIONARY
  5
B278
330
AE9C
100
AcDbDictionary
280
     1
281
     1
  3
ADSK_XREC_LAYER_RECONCILED
360
B279
  0
DICTIONARY
  5
B27A
330
AE9D
100
AcDbDictionary
280
     1
281
     1
  3
ADSK_XREC_LAYER_RECONCILED
360
B27B
  0
DICTIONARY
  5
B27C
330
AE9E
100
AcDbDictionary
280
     1
281
     1
  3
ADSK_XREC_LAYER_RECONCILED
360
B27D
  0
DICTIONARY
  5
B27E
330
AE9F
100
AcDbDictionary
280
     1
281
     1
  3
ADSK_XREC_LAYER_RECONCILED
360
B27F
  0
DICTIONARY
  5
B280
330
AEA0
100
AcDbDictionary
280
     1
281
     1
  3
ADSK_XREC_LAYER_RECONCILED
360
B281
  0
DICTIONARY
  5
B282
330
AEA1
100
AcDbDictionary
280
     1
281
     1
  3
ADSK_XREC_LAYER_RECONCILED
360
B283
  0
DICTIONARY
  5
B21C
330
AE93
100
AcDbDictionary
281
     1
  3
ACAD_LAYOUTSELFREF
350
B21D
  0
DICTIONARY
  5
B21A
330
AE8F
100
AcDbDictionary
281
     1
  3
ACAD_LAYOUTSELFREF
350
B21B
  0
XRECORD
  5
B273
102
{ACAD_REACTORS
330
AE81
102
}
330
AE81
100
AcDbXrecord
280
     1
300
ACDLT
300
2014
300
ACDLT_F_S
  0
DICTIONARY
  5
B255
102
{ACAD_REACTORS
330
AE81
102
}
330
AE81
100
AcDbDictionary
281
     1
  0
DICTIONARY
  5
B26E
102
{ACAD_REACTORS
330
AE81
102
}
330
AE81
100
AcDbDictionary
281
     1
  3
Imperial24
350
B26F
  0
DICTIONARY
  5
AE82
102
{ACAD_REACTORS
330
AE81
102
}
330
AE81
100
AcDbDictionary
281
     1
  0
DICTIONARY
  5
AE8E
102
{ACAD_REACTORS
330
AE81
102
}
330
AE81
100
AcDbDictionary
281
     1
  3
Model
350
B270
  3
レイアウト1
350
B271
  0
DICTIONARY
  5
B223
102
{ACAD_REACTORS
330
AE81
102
}
330
AE81
100
AcDbDictionary
281
     1
  3
ByBlock
350
B22C
  3
ByLayer
350
B224
  3
Global
350
B234
  0
DICTIONARY
  5
B26A
102
{ACAD_REACTORS
330
AE81
102
}
330
AE81
100
AcDbDictionary
281
     1
  3
Standard
350
B26B
  0
DICTIONARY
  5
AE8B
102
{ACAD_REACTORS
330
AE81
102
}
330
AE81
100
AcDbDictionary
281
     1
  3
STANDARD
350
AE8C
  0
DICTIONARY
  5
AE8D
102
{ACAD_REACTORS
330
AE81
102
}
330
AE81
100
AcDbDictionary
281
     1
  0
ACDBDICTIONARYWDFLT
  5
B221
102
{ACAD_REACTORS
330
AE81
102
}
330
AE81
100
AcDbDictionary
281
     1
  3
Normal
350
B222
100
AcDbDictionaryWithDefault
340
B222
  0
DICTIONARY
  5
B258
102
{ACAD_REACTORS
330
AE81
102
}
330
AE81
100
AcDbDictionary
281
     1
  3
A0
350
B259
  3
A1
350
B25A
  3
A2
350
B25B
  3
A3
350
B25C
  3
A4
350
B25D
  3
A5
350
B25E
  3
A6
350
B25F
  3
A7
350
B260
  3
A8
350
B261
  3
A9
350
B262
  3
B0
350
B263
  3
B1
350
B264
  3
B2
350
B265
  3
B3
350
B266
  3
B4
350
B267
  3
B5
350
B268
  3
B6
350
B269
  0
DICTIONARY
  5
B26C
102
{ACAD_REACTORS
330
AE81
102
}
330
AE81
100
AcDbDictionary
281
     1
  3
Imperial24
350
B26D
  0
DICTIONARY
  5
B256
102
{ACAD_REACTORS
330
AE81
102
}
330
AE81
100
AcDbDictionary
281
     1
  3
Standard
350
B257
  0
DICTIONARY
  5
B23C
102
{ACAD_REACTORS
330
AE81
102
}
330
AE81
100
AcDbDictionary
281
     1
  3
2dWireframe
350
B242
  3
Basic
350
B241
  3
Brighten
350
B248
  3
ColorChange
350
B24C
  3
Conceptual
350
B245
  3
Dim
350
B247
  3
EdgeColorOff
350
B254
  3
Facepattern
350
B24B
  3
Flat
350
B23D
  3
FlatWithEdges
350
B23E
  3
Gouraud
350
B23F
  3
GouraudWithEdges
350
B240
  3
Hidden
350
B244
  3
JitterOff
350
B252
  3
Linepattern
350
B24A
  3
OverhangOff
350
B253
  3
Realistic
350
B246
  3
Shaded
350
B251
  3
Shaded with edges
350
B250
  3
Shades of Gray
350
B24D
  3
Sketchy
350
B24E
  3
Thicken
350
B249
  3
Wireframe
350
B243
  3
X-Ray
350
B24F
  0
XRECORD
  5
B291
102
{ACAD_REACTORS
330
AE81
102
}
330
AE81
100
AcDbXrecord
280
     1
 90
        1
330
B257
  0
DICTIONARY
  5
B284
102
{ACAD_REACTORS
330
AE81
102
}
330
AE81
100
AcDbDictionary
281
     1
  3
CANNOSCALE
350
B289
  3
CMLEADERSTYLE
350
B286
  3
CTABLESTYLE
350
B285
  3
CVIEWDETAILSTYLE
350
B287
  3
CVIEWSECTIONSTYLE
350
B288
  3
DIMASSOC
350
B28C
  3
INDEXCTL
350
B28B
  3
SORTENTS
350
B28A
  3
XCLIPFRAME
350
B28D
  0
XRECORD
  5
B292
102
{ACAD_REACTORS
330
AE81
102
}
330
AE81
100
AcDbXrecord
280
     1
  1
DWGPROPS COOKIE
  2

  3

  4

  6

  7

  8
Yoshitsune
  9

300
=
301
=
302
=
303
=
304
=
305
=
306
=
307
=
308
=
309
=
 40
0.0000159837962963
 41
2451345.476611458
 42
2457192.601371285
  1

 90
        0
  0
XRECORD
  5
B275
102
{ACAD_REACTORS
330
B274
102
}
330
B274
100
AcDbXrecord
280
     1
290
     1
  0
XRECORD
  5
B277
102
{ACAD_REACTORS
330
B276
102
}
330
B276
100
AcDbXrecord
280
     1
290
     1
  0
XRECORD
  5
B279
102
{ACAD_REACTORS
330
B278
102
}
330
B278
100
AcDbXrecord
280
     1
290
     1
  0
XRECORD
  5
B27B
102
{ACAD_REACTORS
330
B27A
102
}
330
B27A
100
AcDbXrecord
280
     1
290
     1
  0
XRECORD
  5
B27D
102
{ACAD_REACTORS
330
B27C
102
}
330
B27C
100
AcDbXrecord
280
     1
290
     1
  0
XRECORD
  5
B27F
102
{ACAD_REACTORS
330
B27E
102
}
330
B27E
100
AcDbXrecord
280
     1
290
     1
  0
XRECORD
  5
B281
102
{ACAD_REACTORS
330
B280
102
}
330
B280
100
AcDbXrecord
280
     1
290
     1
  0
XRECORD
  5
B283
102
{ACAD_REACTORS
330
B282
102
}
330
B282
100
AcDbXrecord
280
     1
290
     1
  0
XRECORD
  5
B21D
102
{ACAD_REACTORS
330
B21C
102
}
330
B21C
100
AcDbXrecord
280
     1
340
AE93
  0
XRECORD
  5
B21B
102
{ACAD_REACTORS
330
B21A
102
}
330
B21A
100
AcDbXrecord
280
     1
340
AE8F
  0
ACDBDETAILVIEWSTYLE
  5
B26F
102
{ACAD_XDICTIONARY
360
B2CA
102
}
102
{ACAD_REACTORS
330
B26E
102
}
330
B26E
100
AcDbModelDocViewStyle
 70
     0
  3
Imperial24
290
     0
100
AcDbDetailViewStyle
 70
     0
 71
     0
 90
        3
 71
     1
340
AE86
 40
0.24
340
0
 40
0.24
300

 40
0.36
280
     3
 71
     2
340
AE8A
 90
       25
 71
     3
340
AE86
 40
0.24
 90
        1
 40
0.75
 90
        1
300
%<\AcVar ViewType \f "%tc1">% %<\AcVar ViewDetailId>%\PSCALE %<\AcVar ViewScale \f "%sn">%
 71
     4
340
AE8A
 90
       25
340
AE8A
 90
       25
280
     0
  0
LAYOUT
  5
B270
102
{ACAD_XDICTIONARY
360
B2CC
102
}
102
{ACAD_REACTORS
330
AE8E
102
}
330
AE8E
100
AcDbPlotSettings
  1

  2
Canon LBP9100C
  4

  6

 40
0.0
 41
0.0
 42
0.0
 43
0.0
 44
0.0
 45
0.0
 46
0.0
 47
0.0
 48
0.0
 49
0.0
140
0.0
141
0.0
142
1.0
143
1.0
 70
  1712
 72
     0
 73
     0
 74
     0
  7

 75
     0
147
1.0
148
0.0
149
0.0
100
AcDbLayout
  1
Model
 70
     1
 71
     0
 10
0.0
 20
0.0
 11
12.0
 21
9.0
 12
0.0
 22
0.0
 32
0.0
 14
0.0
 24
0.0
 34
0.0
 15
0.0
 25
0.0
 35
0.0
146
0.0
 13
0.0
 23
0.0
 33
0.0
 16
1.0
 26
0.0
 36
0.0
 17
0.0
 27
1.0
 37
0.0
 76
     0
330
AE93
331
B219
  0
LAYOUT
  5
B271
102
{ACAD_XDICTIONARY
360
B2CE
102
}
102
{ACAD_REACTORS
330
AE8E
102
}
330
AE8E
100
AcDbPlotSettings
  1

  2
Canon LBP9100C
  4

  6

 40
0.0
 41
0.0
 42
0.0
 43
0.0
 44
0.0
 45
0.0
 46
0.0
 47
0.0
 48
0.0
 49
0.0
140
0.0
141
0.0
142
1.0
143
1.0
 70
   688
 72
     0
 73
     0
 74
     5
  7

 75
    16
147
1.0
148
0.0
149
0.0
100
AcDbLayout
  1
レイアウト1
 70
     0
 71
     1
 10
0.0
 20
0.0
 11
420.0
 21
297.0
 12
0.0
 22
0.0
 32
0.0
 14
1.000000000000000E+20
 24
1.000000000000000E+20
 34
1.000000000000000E+20
 15
-1.000000000000000E+20
 25
-1.000000000000000E+20
 35
-1.000000000000000E+20
146
0.0
 13
0.0
 23
0.0
 33
0.0
 16
1.0
 26
0.0
 36
0.0
 17
0.0
 27
1.0
 37
0.0
 76
     0
330
AE8F
  0
MATERIAL
  5
B22C
102
{ACAD_XDICTIONARY
360
B22D
102
}
102
{ACAD_REACTORS
330
B223
102
}
330
B223
100
AcDbMaterial
  1
ByBlock
 72
     0
 43
0.0208333333333333
 43
0.0
 43
0.0
 43
0.0
 43
0.0
 43
0.0208333333333333
 43
0.0
 43
0.0
 43
0.0
 43
0.0
 43
1.0
 43
0.0
 43
0.0
 43
0.0
 43
0.0
 43
1.0
 77
     0
 47
0.0208333333333333
 47
0.0
 47
0.0
 47
0.0
 47
0.0
 47
0.0208333333333333
 47
0.0
 47
0.0
 47
0.0
 47
0.0
 47
1.0
 47
0.0
 47
0.0
 47
0.0
 47
0.0
 47
1.0
171
     0
 49
0.0208333333333333
 49
0.0
 49
0.0
 49
0.0
 49
0.0
 49
0.0208333333333333
 49
0.0
 49
0.0
 49
0.0
 49
0.0
 49
1.0
 49
0.0
 49
0.0
 49
0.0
 49
0.0
 49
1.0
175
     0
142
0.0208333333333333
142
0.0
142
0.0
142
0.0
142
0.0
142
0.0208333333333333
142
0.0
142
0.0
142
0.0
142
0.0
142
1.0
142
0.0
142
0.0
142
0.0
142
0.0
142
1.0
179
     0
144
0.0208333333333333
144
0.0
144
0.0
144
0.0
144
0.0
144
0.0208333333333333
144
0.0
144
0.0
144
0.0
144
0.0
144
1.0
144
0.0
144
0.0
144
0.0
144
0.0
144
1.0
147
0.0208333333333333
147
0.0
147
0.0
147
0.0
147
0.0
147
0.0208333333333333
147
0.0
147
0.0
147
0.0
147
0.0
147
1.0
147
0.0
147
0.0
147
0.0
147
0.0
147
1.0
  0
MATERIAL
  5
B224
102
{ACAD_XDICTIONARY
360
B225
102
}
102
{ACAD_REACTORS
330
B223
102
}
330
B223
100
AcDbMaterial
  1
ByLayer
 72
     0
 43
0.0208333333333333
 43
0.0
 43
0.0
 43
0.0
 43
0.0
 43
0.0208333333333333
 43
0.0
 43
0.0
 43
0.0
 43
0.0
 43
1.0
 43
0.0
 43
0.0
 43
0.0
 43
0.0
 43
1.0
 77
     0
 47
0.0208333333333333
 47
0.0
 47
0.0
 47
0.0
 47
0.0
 47
0.0208333333333333
 47
0.0
 47
0.0
 47
0.0
 47
0.0
 47
1.0
 47
0.0
 47
0.0
 47
0.0
 47
0.0
 47
1.0
171
     0
 49
0.0208333333333333
 49
0.0
 49
0.0
 49
0.0
 49
0.0
 49
0.0208333333333333
 49
0.0
 49
0.0
 49
0.0
 49
0.0
 49
1.0
 49
0.0
 49
0.0
 49
0.0
 49
0.0
 49
1.0
175
     0
142
0.0208333333333333
142
0.0
142
0.0
142
0.0
142
0.0
142
0.0208333333333333
142
0.0
142
0.0
142
0.0
142
0.0
142
1.0
142
0.0
142
0.0
142
0.0
142
0.0
142
1.0
179
     0
144
0.0208333333333333
144
0.0
144
0.0
144
0.0
144
0.0
144
0.0208333333333333
144
0.0
144
0.0
144
0.0
144
0.0
144
1.0
144
0.0
144
0.0
144
0.0
144
0.0
144
1.0
147
0.0208333333333333
147
0.0
147
0.0
147
0.0
147
0.0
147
0.0208333333333333
147
0.0
147
0.0
147
0.0
147
0.0
147
1.0
147
0.0
147
0.0
147
0.0
147
0.0
147
1.0
  0
MATERIAL
  5
B234
102
{ACAD_XDICTIONARY
360
B235
102
}
102
{ACAD_REACTORS
330
B223
102
}
330
B223
100
AcDbMaterial
  1
Global
 72
     0
 43
0.0208333333333333
 43
0.0
 43
0.0
 43
0.0
 43
0.0
 43
0.0208333333333333
 43
0.0
 43
0.0
 43
0.0
 43
0.0
 43
1.0
 43
0.0
 43
0.0
 43
0.0
 43
0.0
 43
1.0
 77
     0
 47
0.0208333333333333
 47
0.0
 47
0.0
 47
0.0
 47
0.0
 47
0.0208333333333333
 47
0.0
 47
0.0
 47
0.0
 47
0.0
 47
1.0
 47
0.0
 47
0.0
 47
0.0
 47
0.0
 47
1.0
171
     0
 49
0.0208333333333333
 49
0.0
 49
0.0
 49
0.0
 49
0.0
 49
0.0208333333333333
 49
0.0
 49
0.0
 49
0.0
 49
0.0
 49
1.0
 49
0.0
 49
0.0
 49
0.0
 49
0.0
 49
1.0
175
     0
142
0.0208333333333333
142
0.0
142
0.0
142
0.0
142
0.0
142
0.0208333333333333
142
0.0
142
0.0
142
0.0
142
0.0
142
1.0
142
0.0
142
0.0
142
0.0
142
0.0
142
1.0
179
     0
144
0.0208333333333333
144
0.0
144
0.0
144
0.0
144
0.0
144
0.0208333333333333
144
0.0
144
0.0
144
0.0
144
0.0
144
1.0
144
0.0
144
0.0
144
0.0
144
0.0
144
1.0
147
0.0208333333333333
147
0.0
147
0.0
147
0.0
147
0.0
147
0.0208333333333333
147
0.0
147
0.0
147
0.0
147
0.0
147
1.0
147
0.0
147
0.0
147
0.0
147
0.0
147
1.0
  0
MLEADERSTYLE
  5
B26B
102
{ACAD_REACTORS
330
B26A
102
}
330
B26A
100
AcDbMLeaderStyle
170
     2
171
     1
172
     0
 90
        2
 40
0.0
 41
0.0
173
     1
 91
-1056964608
340
AE88
 92
       -2
290
     1
 42
0.09
291
     1
 43
0.36
  3
Standard
 44
0.18
300

342
AE86
174
     1
178
     6
175
     1
176
     0
 93
-1056964608
 45
0.18
292
     0
297
     0
 46
0.18
 94
-1056964608
 47
1.0
 49
1.0
140
1.0
293
     1
141
0.0
294
     1
177
     0
142
1.0
295
     0
296
     0
143
0.125
1001
ACAD_MLEADERVER
1070
     2
  0
MLINESTYLE
  5
AE8C
102
{ACAD_REACTORS
330
AE8B
102
}
330
AE8B
100
AcDbMlineStyle
  2
STANDARD
 70
     0
  3

 62
   256
 51
90.0
 52
90.0
 71
     2
 49
0.5
 62
   256
  6
BYLAYER
 49
-0.5
 62
   256
  6
BYLAYER
  0
ACDBPLACEHOLDER
  5
B222
102
{ACAD_REACTORS
330
B221
102
}
330
B221
  0
SCALE
  5
B259
102
{ACAD_REACTORS
330
B258
102
}
330
B258
100
AcDbScale
 70
     0
300
1:1
140
1.0
141
1.0
290
     1
  0
SCALE
  5
B25A
102
{ACAD_REACTORS
330
B258
102
}
330
B258
100
AcDbScale
 70
     0
300
1/128" = 1'-0"
140
0.0078125
141
12.0
290
     0
  0
SCALE
  5
B25B
102
{ACAD_REACTORS
330
B258
102
}
330
B258
100
AcDbScale
 70
     0
300
1/64" = 1'-0"
140
0.015625
141
12.0
290
     0
  0
SCALE
  5
B25C
102
{ACAD_REACTORS
330
B258
102
}
330
B258
100
AcDbScale
 70
     0
300
1/32" = 1'-0"
140
0.03125
141
12.0
290
     0
  0
SCALE
  5
B25D
102
{ACAD_REACTORS
330
B258
102
}
330
B258
100
AcDbScale
 70
     0
300
1/16" = 1'-0"
140
0.0625
141
12.0
290
     0
  0
SCALE
  5
B25E
102
{ACAD_REACTORS
330
B258
102
}
330
B258
100
AcDbScale
 70
     0
300
3/32" = 1'-0"
140
0.09375
141
12.0
290
     0
  0
SCALE
  5
B25F
102
{ACAD_REACTORS
330
B258
102
}
330
B258
100
AcDbScale
 70
     0
300
1/8" = 1'-0"
140
0.125
141
12.0
290
     0
  0
SCALE
  5
B260
102
{ACAD_REACTORS
330
B258
102
}
330
B258
100
AcDbScale
 70
     0
300
3/16" = 1'-0"
140
0.1875
141
12.0
290
     0
  0
SCALE
  5
B261
102
{ACAD_REACTORS
330
B258
102
}
330
B258
100
AcDbScale
 70
     0
300
1/4" = 1'-0"
140
0.25
141
12.0
290
     0
  0
SCALE
  5
B262
102
{ACAD_REACTORS
330
B258
102
}
330
B258
100
AcDbScale
 70
     0
300
3/8" = 1'-0"
140
0.375
141
12.0
290
     0
  0
SCALE
  5
B263
102
{ACAD_REACTORS
330
B258
102
}
330
B258
100
AcDbScale
 70
     0
300
1/2" = 1'-0"
140
0.5
141
12.0
290
     0
  0
SCALE
  5
B264
102
{ACAD_REACTORS
330
B258
102
}
330
B258
100
AcDbScale
 70
     0
300
3/4" = 1'-0"
140
0.75
141
12.0
290
     0
  0
SCALE
  5
B265
102
{ACAD_REACTORS
330
B258
102
}
330
B258
100
AcDbScale
 70
     0
300
1" = 1'-0"
140
1.0
141
12.0
290
     0
  0
SCALE
  5
B266
102
{ACAD_REACTORS
330
B258
102
}
330
B258
100
AcDbScale
 70
     0
300
1-1/2" = 1'-0"
140
1.5
141
12.0
290
     0
  0
SCALE
  5
B267
102
{ACAD_REACTORS
330
B258
102
}
330
B258
100
AcDbScale
 70
     0
300
3" = 1'-0"
140
3.0
141
12.0
290
     0
  0
SCALE
  5
B268
102
{ACAD_REACTORS
330
B258
102
}
330
B258
100
AcDbScale
 70
     0
300
6" = 1'-0"
140
6.0
141
12.0
290
     0
  0
SCALE
  5
B269
102
{ACAD_REACTORS
330
B258
102
}
330
B258
100
AcDbScale
 70
     0
300
1'-0" = 1'-0"
140
12.0
141
12.0
290
     0
  0
ACDBSECTIONVIEWSTYLE
  5
B26D
102
{ACAD_XDICTIONARY
360
B2C8
102
}
102
{ACAD_REACTORS
330
B26C
102
}
330
B26C
100
AcDbModelDocViewStyle
 70
     0
  3
Imperial24
290
     0
100
AcDbSectionViewStyle
 70
     0
 71
     0
 90
       78
 71
     1
340
AE86
 40
0.24
340
0
340
0
 40
0.24
300
I, O, Q, S, X, Z
 40
0.48
 90
        3
 40
0.18
 90
        1
 71
     2
340
AE8A
 90
       25
340
AE8A
 90
       50
 40
0.24
 40
0.0
 40
0.24
 71
     3
340
AE86
 40
0.24
 90
        1
 40
0.75
 90
        1
300
%<\AcVar ViewType \f "%tc1">% %<\AcVar ViewSectionStartId>%-%<\AcVar ViewSectionEndId>%\PSCALE %<\AcVar ViewScale \f "%sn">%
 71
     4
300
ANSI31
 40
1.0
 90
        0
290
     0
290
     0
 90
        6
 40
0.0
 40
1.570796326794896
 40
0.2617993877991494
 40
1.308996938995747
 40
-0.2617993877991494
 40
1.832595714594046
  0
TABLESTYLE
  5
B257
102
{ACAD_XDICTIONARY
360
B28F
102
}
102
{ACAD_REACTORS
330
B256
102
}
330
B256
100
AcDbTableStyle
  3
Standard
 70
     0
 71
     0
 40
0.06
 41
0.06
280
     0
281
     0
  7
STANDARD
140
0.18
170
     2
 62
     0
 63
     7
283
     0
274
    -2
284
     1
 64
     0
275
    -2
285
     1
 65
     0
276
    -2
286
     1
 66
     0
277
    -2
287
     1
 67
     0
278
    -2
288
     1
 68
     0
279
    -2
289
     1
 69
     0
  7
STANDARD
140
0.25
170
     5
 62
     0
 63
     7
283
     0
274
    -2
284
     1
 64
     0
275
    -2
285
     1
 65
     0
276
    -2
286
     1
 66
     0
277
    -2
287
     1
 67
     0
278
    -2
288
     1
 68
     0
279
    -2
289
     1
 69
     0
  7
STANDARD
140
0.18
170
     5
 62
     0
 63
     7
283
     0
274
    -2
284
     1
 64
     0
275
    -2
285
     1
 65
     0
276
    -2
286
     1
 66
     0
277
    -2
287
     1
 67
     0
278
    -2
288
     1
 68
     0
279
    -2
289
     1
 69
     0
  0
VISUALSTYLE
  5
B242
102
{ACAD_XDICTIONARY
360
B2A0
102
}
102
{ACAD_REACTORS
330
B23C
102
}
330
B23C
100
AcDbVisualStyle
  2
2dWireframe
 70
     4
 71
     0
 72
     2
 73
     0
 90
        0
 40
-0.6
 41
-30.0
 62
     5
 63
     7
 74
     1
 91
        4
 64
     7
 65
   257
 75
     1
175
     1
 42
1.0
 92
        0
 66
   257
 43
1.0
 76
     1
 77
     6
 78
     2
 67
     7
 79
     5
170
     0
171
     0
290
     0
174
     0
 93
        1
 44
0.0
173
     0
291
     0
 45
0.0
1001
ACAD
1000
AcDbSavedByObjectVersion
1070
     0
  0
VISUALSTYLE
  5
B241
102
{ACAD_XDICTIONARY
360
B29E
102
}
102
{ACAD_REACTORS
330
B23C
102
}
330
B23C
100
AcDbVisualStyle
  2
Basic
 70
     7
 71
     1
 72
     0
 73
     1
 90
        0
 40
-0.6
 41
-30.0
 62
     5
 63
     7
 74
     0
 91
        4
 64
     7
 65
   257
 75
     1
175
     1
 42
1.0
 92
        8
 66
     7
 43
1.0
 76
     1
 77
     6
 78
     2
 67
     7
 79
     5
170
     0
171
     0
290
     0
174
     0
 93
        1
 44
0.0
173
     0
291
     1
 45
0.0
1001
ACAD
1000
AcDbSavedByObjectVersion
1070
     0
  0
VISUALSTYLE
  5
B248
102
{ACAD_XDICTIONARY
360
B2AC
102
}
102
{ACAD_REACTORS
330
B23C
102
}
330
B23C
100
AcDbVisualStyle
  2
Brighten
 70
    12
 71
     2
 72
     2
 73
     0
 90
        0
 40
-0.6
 41
-30.0
 62
     5
 63
     7
 74
     1
 91
        4
 64
     7
 65
   257
 75
     1
175
     1
 42
1.0
 92
        8
 66
     7
 43
1.0
 76
     1
 77
     6
 78
     2
 67
     7
 79
     5
170
     0
171
     0
290
     0
174
     0
 93
        1
 44
50.0
173
     0
291
     1
 45
0.0
1001
ACAD
1000
AcDbSavedByObjectVersion
1070
     0
  0
VISUALSTYLE
  5
B24C
102
{ACAD_XDICTIONARY
360
B2B4
102
}
102
{ACAD_REACTORS
330
B23C
102
}
330
B23C
100
AcDbVisualStyle
  2
ColorChange
 70
    16
 71
     2
 72
     2
 73
     3
 90
        0
 40
-0.6
 41
-30.0
 62
     5
 63
     8
 74
     1
 91
        4
 64
     7
 65
   257
 75
     1
175
     1
 42
1.0
 92
        8
 66
     8
 43
1.0
 76
     1
 77
     6
 78
     2
 67
     7
 79
     5
170
     0
171
     0
290
     0
174
     0
 93
        1
 44
0.0
173
     0
291
     1
 45
0.0
1001
ACAD
1000
AcDbSavedByObjectVersion
1070
     0
  0
VISUALSTYLE
  5
B245
102
{ACAD_XDICTIONARY
360
B2A6
102
}
102
{ACAD_REACTORS
330
B23C
102
}
330
B23C
100
AcDbVisualStyle
  2
Conceptual
 70
     9
 71
     3
 72
     2
 73
     0
 90
        0
 40
-0.6
 41
-30.0
 62
     5
 63
     7
 74
     2
 91
        2
 64
     7
 65
   257
 75
     1
175
     1
 42
179.0
 92
        8
 66
     7
 43
1.0
 76
     1
 77
     6
 78
     2
 67
     7
 79
     3
170
     0
171
     0
290
     0
174
     0
 93
        1
 44
0.0
173
     0
291
     0
 45
0.0
1001
ACAD
1000
AcDbSavedByObjectVersion
1070
     0
  0
VISUALSTYLE
  5
B247
102
{ACAD_XDICTIONARY
360
B2AA
102
}
102
{ACAD_REACTORS
330
B23C
102
}
330
B23C
100
AcDbVisualStyle
  2
Dim
 70
    11
 71
     2
 72
     2
 73
     0
 90
        0
 40
-0.6
 41
-30.0
 62
     5
 63
     7
 74
     1
 91
        4
 64
     7
 65
   257
 75
     1
175
     1
 42
1.0
 92
        8
 66
     7
 43
1.0
 76
     1
 77
     6
 78
     2
 67
     7
 79
     5
170
     0
171
     0
290
     0
174
     0
 93
        1
 44
-50.0
173
     0
291
     1
 45
0.0
1001
ACAD
1000
AcDbSavedByObjectVersion
1070
     0
  0
VISUALSTYLE
  5
B254
102
{ACAD_XDICTIONARY
360
B2C4
102
}
102
{ACAD_REACTORS
330
B23C
102
}
330
B23C
100
AcDbVisualStyle
  2
EdgeColorOff
 70
    22
 71
     2
 72
     2
 73
     0
 90
        0
 40
-0.6
 41
-30.0
 62
     5
 63
     7
 74
     1
 91
        4
 64
     7
 65
   257
 75
     1
175
     1
 42
1.0
 92
        8
 66
     7
 43
1.0
 76
     1
 77
     6
 78
     2
 67
     7
 79
     5
170
     0
171
     0
290
     0
174
     0
 93
        1
 44
0.0
173
     0
291
     1
 45
0.0
1001
ACAD
1000
AcDbSavedByObjectVersion
1070
     0
  0
VISUALSTYLE
  5
B24B
102
{ACAD_XDICTIONARY
360
B2B2
102
}
102
{ACAD_REACTORS
330
B23C
102
}
330
B23C
100
AcDbVisualStyle
  2
Facepattern
 70
    15
 71
     2
 72
     2
 73
     0
 90
        0
 40
-0.6
 41
-30.0
 62
     5
 63
     7
 74
     1
 91
        4
 64
     7
 65
   257
 75
     1
175
     1
 42
1.0
 92
        8
 66
     7
 43
1.0
 76
     1
 77
     6
 78
     2
 67
     7
 79
     5
170
     0
171
     0
290
     0
174
     0
 93
        1
 44
0.0
173
     0
291
     1
 45
0.0
1001
ACAD
1000
AcDbSavedByObjectVersion
1070
     0
  0
VISUALSTYLE
  5
B23D
102
{ACAD_XDICTIONARY
360
B296
102
}
102
{ACAD_REACTORS
330
B23C
102
}
330
B23C
100
AcDbVisualStyle
  2
Flat
 70
     0
 71
     2
 72
     1
 73
     1
 90
        2
 40
-0.6
 41
30.0
 62
     5
 63
     7
 74
     0
 91
        0
 64
     7
 65
   257
 75
     1
175
     1
 42
1.0
 92
        8
 66
     7
 43
1.0
 76
     1
 77
     6
 78
     2
 67
     7
 79
     5
170
     0
171
     0
290
     0
174
     0
 93
       13
 44
0.0
173
     0
291
     1
 45
0.0
1001
ACAD
1000
AcDbSavedByObjectVersion
1070
     0
  0
VISUALSTYLE
  5
B23E
102
{ACAD_XDICTIONARY
360
B298
102
}
102
{ACAD_REACTORS
330
B23C
102
}
330
B23C
100
AcDbVisualStyle
  2
FlatWithEdges
 70
     1
 71
     2
 72
     1
 73
     1
 90
        2
 40
-0.6
 41
30.0
 62
     5
 63
     7
 74
     1
 91
        0
 64
     7
 65
   257
 75
     1
175
     1
 42
1.0
 92
        0
 66
   257
 43
1.0
 76
     1
 77
     6
 78
     2
 67
     7
 79
     5
170
     0
171
     0
290
     0
174
     0
 93
       13
 44
0.0
173
     0
291
     1
 45
0.0
1001
ACAD
1000
AcDbSavedByObjectVersion
1070
     0
  0
VISUALSTYLE
  5
B23F
102
{ACAD_XDICTIONARY
360
B29A
102
}
102
{ACAD_REACTORS
330
B23C
102
}
330
B23C
100
AcDbVisualStyle
  2
Gouraud
 70
     2
 71
     2
 72
     2
 73
     1
 90
        2
 40
-0.6
 41
30.0
 62
     5
 63
     7
 74
     0
 91
        0
 64
     7
 65
   257
 75
     1
175
     1
 42
1.0
 92
        0
 66
     7
 43
1.0
 76
     1
 77
     6
 78
     2
 67
     7
 79
     5
170
     0
171
     0
290
     0
174
     0
 93
       13
 44
0.0
173
     0
291
     1
 45
0.0
1001
ACAD
1000
AcDbSavedByObjectVersion
1070
     0
  0
VISUALSTYLE
  5
B240
102
{ACAD_XDICTIONARY
360
B29C
102
}
102
{ACAD_REACTORS
330
B23C
102
}
330
B23C
100
AcDbVisualStyle
  2
GouraudWithEdges
 70
     3
 71
     2
 72
     2
 73
     1
 90
        2
 40
-0.6
 41
30.0
 62
     5
 63
     7
 74
     1
 91
        0
 64
     7
 65
   257
 75
     1
175
     1
 42
1.0
 92
        0
 66
   257
 43
1.0
 76
     1
 77
     6
 78
     2
 67
     7
 79
     5
170
     0
171
     0
290
     0
174
     0
 93
       13
 44
0.0
173
     0
291
     1
 45
0.0
1001
ACAD
1000
AcDbSavedByObjectVersion
1070
     0
  0
VISUALSTYLE
  5
B244
102
{ACAD_XDICTIONARY
360
B2A4
102
}
102
{ACAD_REACTORS
330
B23C
102
}
330
B23C
100
AcDbVisualStyle
  2
Hidden
 70
     6
 71
     1
 72
     2
 73
     2
 90
        0
 40
-0.6
 41
-30.0
 62
     5
 63
     7
 74
     2
 91
        2
 64
     7
 65
   257
 75
     2
175
     1
 42
40.0
 92
        0
 66
   257
 43
1.0
 76
     1
 77
     6
 78
     2
 67
     7
 79
     3
170
     0
171
     0
290
     0
174
     0
 93
        1
 44
0.0
173
     0
291
     0
 45
0.0
1001
ACAD
1000
AcDbSavedByObjectVersion
1070
     0
  0
VISUALSTYLE
  5
B252
102
{ACAD_XDICTIONARY
360
B2C0
102
}
102
{ACAD_REACTORS
330
B23C
102
}
330
B23C
100
AcDbVisualStyle
  2
JitterOff
 70
    20
 71
     2
 72
     2
 73
     0
 90
        0
 40
-0.6
 41
-30.0
 62
     5
 63
     7
 74
     1
 91
        4
 64
     7
 65
   257
 75
     1
175
     1
 42
1.0
 92
       10
 66
     7
 43
1.0
 76
     1
 77
     6
 78
     2
 67
     7
 79
     5
170
     0
171
     0
290
     0
174
     0
 93
        1
 44
0.0
173
     0
291
     1
 45
0.0
1001
ACAD
1000
AcDbSavedByObjectVersion
1070
     0
  0
VISUALSTYLE
  5
B24A
102
{ACAD_XDICTIONARY
360
B2B0
102
}
102
{ACAD_REACTORS
330
B23C
102
}
330
B23C
100
AcDbVisualStyle
  2
Linepattern
 70
    14
 71
     2
 72
     2
 73
     0
 90
        0
 40
-0.6
 41
-30.0
 62
     5
 63
     7
 74
     1
 91
        4
 64
     7
 65
   257
 75
     7
175
     7
 42
1.0
 92
        8
 66
     7
 43
1.0
 76
     1
 77
     6
 78
     2
 67
     7
 79
     5
170
     0
171
     0
290
     0
174
     0
 93
        1
 44
0.0
173
     0
291
     1
 45
0.0
1001
ACAD
1000
AcDbSavedByObjectVersion
1070
     0
  0
VISUALSTYLE
  5
B253
102
{ACAD_XDICTIONARY
360
B2C2
102
}
102
{ACAD_REACTORS
330
B23C
102
}
330
B23C
100
AcDbVisualStyle
  2
OverhangOff
 70
    21
 71
     2
 72
     2
 73
     0
 90
        0
 40
-0.6
 41
-30.0
 62
     5
 63
     7
 74
     1
 91
        4
 64
     7
 65
   257
 75
     1
175
     1
 42
1.0
 92
        9
 66
     7
 43
1.0
 76
     1
 77
     6
 78
     2
 67
     7
 79
     5
170
     0
171
     0
290
     0
174
     0
 93
        1
 44
0.0
173
     0
291
     1
 45
0.0
1001
ACAD
1000
AcDbSavedByObjectVersion
1070
     0
  0
VISUALSTYLE
  5
B246
102
{ACAD_XDICTIONARY
360
B2A8
102
}
102
{ACAD_REACTORS
330
B23C
102
}
330
B23C
100
AcDbVisualStyle
  2
Realistic
 70
     8
 71
     2
 72
     3
 73
     0
 90
        2
 40
-0.6
 41
30.0
 62
     5
 63
     7
 74
     0
 91
        0
 64
     7
 65
   257
 75
     1
175
     1
 42
1.0
 92
        8
 66
   257
 43
1.0
 76
     1
 77
     6
 78
     2
 67
     7
 79
     3
170
     0
171
     0
290
     0
174
     0
 93
       13
 44
0.0
173
     0
291
     0
 45
0.0
1001
ACAD
1000
AcDbSavedByObjectVersion
1070
     0
  0
VISUALSTYLE
  5
B251
102
{ACAD_XDICTIONARY
360
B2BE
102
}
102
{ACAD_REACTORS
330
B23C
102
}
330
B23C
100
AcDbVisualStyle
  2
Shaded
 70
    27
 71
     2
 72
     2
 73
     1
 90
        2
 40
-0.6
 41
30.0
 62
     5
 63
     7
 74
     0
 91
        4
 64
     7
 65
   257
 75
     1
175
     1
 42
1.0
 92
        8
 66
   257
 43
1.0
 76
     1
 77
     6
 78
     2
 67
     8
 79
     3
170
     0
171
     0
290
     0
174
     0
 93
        5
 44
0.0
173
     0
291
     0
 45
0.0
1001
ACAD
1000
AcDbSavedByObjectVersion
1070
     0
  0
VISUALSTYLE
  5
B250
102
{ACAD_XDICTIONARY
360
B2BC
102
}
102
{ACAD_REACTORS
330
B23C
102
}
330
B23C
100
AcDbVisualStyle
  2
Shaded with edges
 70
    26
 71
     2
 72
     2
 73
     1
 90
        2
 40
-0.6
 41
30.0
 62
     5
 63
     7
 74
     1
 91
       10
 64
     7
 65
   257
 75
     2
175
     1
 42
1.0
 92
        8
 66
   257
 43
1.0
 76
     1
 77
     6
 78
     2
 67
     7
 79
     3
170
     0
171
     0
290
     0
174
     0
 93
        5
 44
0.0
173
     0
291
     0
 45
0.0
1001
ACAD
1000
AcDbSavedByObjectVersion
1070
     0
  0
VISUALSTYLE
  5
B24D
102
{ACAD_XDICTIONARY
360
B2B6
102
}
102
{ACAD_REACTORS
330
B23C
102
}
330
B23C
100
AcDbVisualStyle
  2
Shades of Gray
 70
    23
 71
     2
 72
     2
 73
     3
 90
        0
 40
-0.6
 41
-30.0
 62
     5
 63
     7
 74
     2
 91
        2
 64
     7
 65
     7
 75
     1
175
     1
 42
40.0
 92
        8
 66
     7
 43
1.0
 76
     1
 77
     6
 78
     2
 67
     7
 79
     3
170
     0
171
     0
290
     0
174
     0
 93
        1
 44
0.0
173
     0
291
     0
 45
0.0
1001
ACAD
1000
AcDbSavedByObjectVersion
1070
     0
  0
VISUALSTYLE
  5
B24E
102
{ACAD_XDICTIONARY
360
B2B8
102
}
102
{ACAD_REACTORS
330
B23C
102
}
330
B23C
100
AcDbVisualStyle
  2
Sketchy
 70
    24
 71
     1
 72
     2
 73
     2
 90
        0
 40
-0.6
 41
-30.0
 62
     5
 63
     7
 74
     2
 91
        2
 64
     7
 65
     7
 75
     1
175
     1
 42
40.0
 92
       11
 66
     7
 43
1.0
 76
     1
 77
     6
 78
     2
 67
     7
 79
     6
170
     0
171
     0
290
     0
174
     0
 93
        1
 44
0.0
173
     0
291
     0
 45
0.0
1001
ACAD
1000
AcDbSavedByObjectVersion
1070
     0
  0
VISUALSTYLE
  5
B249
102
{ACAD_XDICTIONARY
360
B2AE
102
}
102
{ACAD_REACTORS
330
B23C
102
}
330
B23C
100
AcDbVisualStyle
  2
Thicken
 70
    13
 71
     2
 72
     2
 73
     0
 90
        0
 40
-0.6
 41
-30.0
 62
     5
 63
     7
 74
     1
 91
        4
 64
     7
 65
   257
 75
     1
175
     1
 42
1.0
 92
       12
 66
     7
 43
1.0
 76
     1
 77
     6
 78
     2
 67
     7
 79
     5
170
     0
171
     0
290
     0
174
     0
 93
        1
 44
0.0
173
     0
291
     1
 45
0.0
1001
ACAD
1000
AcDbSavedByObjectVersion
1070
     0
  0
VISUALSTYLE
  5
B243
102
{ACAD_XDICTIONARY
360
B2A2
102
}
102
{ACAD_REACTORS
330
B23C
102
}
330
B23C
100
AcDbVisualStyle
  2
Wireframe
 70
     5
 71
     0
 72
     2
 73
     0
 90
        0
 40
-0.6
 41
-30.0
 62
     5
 63
     7
 74
     1
 91
        4
 64
     7
 65
   257
 75
     1
175
     1
 42
1.0
 92
        0
 66
   257
 43
1.0
 76
     1
 77
     6
 78
     2
 67
     7
 79
     3
170
     0
171
     0
290
     0
174
     0
 93
        1
 44
0.0
173
     0
291
     0
 45
0.0
1001
ACAD
1000
AcDbSavedByObjectVersion
1070
     0
  0
VISUALSTYLE
  5
B24F
102
{ACAD_XDICTIONARY
360
B2BA
102
}
102
{ACAD_REACTORS
330
B23C
102
}
330
B23C
100
AcDbVisualStyle
  2
X-Ray
 70
    25
 71
     2
 72
     2
 73
     1
 90
        1
 40
0.5
 41
-30.0
 62
     5
 63
     7
 74
     1
 91
        0
 64
     7
 65
   257
 75
     1
175
     1
 42
1.0
 92
        8
 66
     7
 43
1.0
 76
     1
 77
     6
 78
     2
 67
     7
 79
     3
170
     0
171
     0
290
     0
174
     0
 93
       13
 44
0.0
173
     0
291
     0
 45
0.0
1001
ACAD
1000
AcDbSavedByObjectVersion
1070
     0
  0
DICTIONARYVAR
  5
B289
102
{ACAD_REACTORS
330
B284
102
}
330
B284
100
DictionaryVariables
280
     0
  1
1:1
  0
DICTIONARYVAR
  5
B286
102
{ACAD_REACTORS
330
B284
102
}
330
B284
100
DictionaryVariables
280
     0
  1
STANDARD
  0
DICTIONARYVAR
  5
B285
102
{ACAD_REACTORS
330
B284
102
}
330
B284
100
DictionaryVariables
280
     0
  1
STANDARD
  0
DICTIONARYVAR
  5
B287
102
{ACAD_REACTORS
330
B284
102
}
330
B284
100
DictionaryVariables
280
     0
  1
Imperial24
  0
DICTIONARYVAR
  5
B288
102
{ACAD_REACTORS
330
B284
102
}
330
B284
100
DictionaryVariables
280
     0
  1
Imperial24
  0
DICTIONARYVAR
  5
B28C
102
{ACAD_REACTORS
330
B284
102
}
330
B284
100
DictionaryVariables
280
     0
  1
1
  0
DICTIONARYVAR
  5
B28B
102
{ACAD_REACTORS
330
B284
102
}
330
B284
100
DictionaryVariables
280
     0
  1
0
  0
DICTIONARYVAR
  5
B28A
102
{ACAD_REACTORS
330
B284
102
}
330
B284
100
DictionaryVariables
280
     0
  1
127
  0
DICTIONARYVAR
  5
B28D
102
{ACAD_REACTORS
330
B284
102
}
330
B284
100
DictionaryVariables
280
     0
  1
2
  0
DICTIONARY
  5
B2CA
330
B26F
100
AcDbDictionary
280
     1
281
     1
  3
ACAD_XREC_ROUNDTRIP
360
B2CB
  0
DICTIONARY
  5
B2CC
330
B270
100
AcDbDictionary
280
     1
281
     1
  3
ACAD_XREC_ROUNDTRIP
360
B2CD
  0
DICTIONARY
  5
B2CE
330
B271
100
AcDbDictionary
280
     1
281
     1
  3
ACAD_XREC_ROUNDTRIP
360
B2CF
  0
DICTIONARY
  5
B22D
330
B22C
100
AcDbDictionary
280
     1
281
     1
  3
ACAD_XREC_ROUNDTRIP
360
B294
  3
BUMPTILE
360
B22F
  3
DIFFUSETILE
360
B22E
  3
OPACITYTILE
360
B232
  3
REFLECTIONTILE
360
B231
  3
REFRACTIONTILE
360
B233
  3
SPECULARTILE
360
B230
  0
DICTIONARY
  5
B225
330
B224
100
AcDbDictionary
280
     1
281
     1
  3
ACAD_XREC_ROUNDTRIP
360
B293
  3
BUMPTILE
360
B227
  3
DIFFUSETILE
360
B226
  3
OPACITYTILE
360
B22A
  3
REFLECTIONTILE
360
B229
  3
REFRACTIONTILE
360
B22B
  3
SPECULARTILE
360
B228
  0
DICTIONARY
  5
B235
330
B234
100
AcDbDictionary
280
     1
281
     1
  3
ACAD_XREC_ROUNDTRIP
360
B295
  3
BUMPTILE
360
B237
  3
DIFFUSETILE
360
B236
  3
OPACITYTILE
360
B23A
  3
REFLECTIONTILE
360
B239
  3
REFRACTIONTILE
360
B23B
  3
SPECULARTILE
360
B238
  0
DICTIONARY
  5
B2C8
330
B26D
100
AcDbDictionary
280
     1
281
     1
  3
ACAD_XREC_ROUNDTRIP
360
B2C9
  0
DICTIONARY
  5
B28F
330
B257
100
AcDbDictionary
280
     1
281
     1
  3
ACAD_ROUNDTRIP_2008_TABLESTYLE_CELLSTYLEMAP
360
B290
  3
ACAD_XREC_ROUNDTRIP
360
B2C6
  0
DICTIONARY
  5
B2A0
330
B242
100
AcDbDictionary
280
     1
281
     1
  3
ACAD_XREC_ROUNDTRIP
360
B2A1
  0
DICTIONARY
  5
B29E
330
B241
100
AcDbDictionary
280
     1
281
     1
  3
ACAD_XREC_ROUNDTRIP
360
B29F
  0
DICTIONARY
  5
B2AC
330
B248
100
AcDbDictionary
280
     1
281
     1
  3
ACAD_XREC_ROUNDTRIP
360
B2AD
  0
DICTIONARY
  5
B2B4
330
B24C
100
AcDbDictionary
280
     1
281
     1
  3
ACAD_XREC_ROUNDTRIP
360
B2B5
  0
DICTIONARY
  5
B2A6
330
B245
100
AcDbDictionary
280
     1
281
     1
  3
ACAD_XREC_ROUNDTRIP
360
B2A7
  0
DICTIONARY
  5
B2AA
330
B247
100
AcDbDictionary
280
     1
281
     1
  3
ACAD_XREC_ROUNDTRIP
360
B2AB
  0
DICTIONARY
  5
B2C4
330
B254
100
AcDbDictionary
280
     1
281
     1
  3
ACAD_XREC_ROUNDTRIP
360
B2C5
  0
DICTIONARY
  5
B2B2
330
B24B
100
AcDbDictionary
280
     1
281
     1
  3
ACAD_XREC_ROUNDTRIP
360
B2B3
  0
DICTIONARY
  5
B296
330
B23D
100
AcDbDictionary
280
     1
281
     1
  3
ACAD_XREC_ROUNDTRIP
360
B297
  0
DICTIONARY
  5
B298
330
B23E
100
AcDbDictionary
280
     1
281
     1
  3
ACAD_XREC_ROUNDTRIP
360
B299
  0
DICTIONARY
  5
B29A
330
B23F
100
AcDbDictionary
280
     1
281
     1
  3
ACAD_XREC_ROUNDTRIP
360
B29B
  0
DICTIONARY
  5
B29C
330
B240
100
AcDbDictionary
280
     1
281
     1
  3
ACAD_XREC_ROUNDTRIP
360
B29D
  0
DICTIONARY
  5
B2A4
330
B244
100
AcDbDictionary
280
     1
281
     1
  3
ACAD_XREC_ROUNDTRIP
360
B2A5
  0
DICTIONARY
  5
B2C0
330
B252
100
AcDbDictionary
280
     1
281
     1
  3
ACAD_XREC_ROUNDTRIP
360
B2C1
  0
DICTIONARY
  5
B2B0
330
B24A
100
AcDbDictionary
280
     1
281
     1
  3
ACAD_XREC_ROUNDTRIP
360
B2B1
  0
DICTIONARY
  5
B2C2
330
B253
100
AcDbDictionary
280
     1
281
     1
  3
ACAD_XREC_ROUNDTRIP
360
B2C3
  0
DICTIONARY
  5
B2A8
330
B246
100
AcDbDictionary
280
     1
281
     1
  3
ACAD_XREC_ROUNDTRIP
360
B2A9
  0
DICTIONARY
  5
B2BE
330
B251
100
AcDbDictionary
280
     1
281
     1
  3
ACAD_XREC_ROUNDTRIP
360
B2BF
  0
DICTIONARY
  5
B2BC
330
B250
100
AcDbDictionary
280
     1
281
     1
  3
ACAD_XREC_ROUNDTRIP
360
B2BD
  0
DICTIONARY
  5
B2B6
330
B24D
100
AcDbDictionary
280
     1
281
     1
  3
ACAD_XREC_ROUNDTRIP
360
B2B7
  0
DICTIONARY
  5
B2B8
330
B24E
100
AcDbDictionary
280
     1
281
     1
  3
ACAD_XREC_ROUNDTRIP
360
B2B9
  0
DICTIONARY
  5
B2AE
330
B249
100
AcDbDictionary
280
     1
281
     1
  3
ACAD_XREC_ROUNDTRIP
360
B2AF
  0
DICTIONARY
  5
B2A2
330
B243
100
AcDbDictionary
280
     1
281
     1
  3
ACAD_XREC_ROUNDTRIP
360
B2A3
  0
DICTIONARY
  5
B2BA
330
B24F
100
AcDbDictionary
280
     1
281
     1
  3
ACAD_XREC_ROUNDTRIP
360
B2BB
  0
XRECORD
  5
B2CB
102
{ACAD_REACTORS
330
B2CA
102
}
330
B2CA
100
AcDbXrecord
280
     1
102
DISPLAYNAME
  1
Imperial24
102
FLAGS
 90
        0
  0
XRECORD
  5
B2CD
102
{ACAD_REACTORS
330
B2CC
102
}
330
B2CC
100
AcDbXrecord
280
     1
102
SHADEPLOT
 70
     0
102
SHADEPLOTRESLEVEL
 70
     2
102
SHADEPLOTCUSTOMDPI
 70
   300
  0
XRECORD
  5
B2CF
102
{ACAD_REACTORS
330
B2CE
102
}
330
B2CE
100
AcDbXrecord
280
     1
102
SHADEPLOT
 70
     0
102
SHADEPLOTRESLEVEL
 70
     2
102
SHADEPLOTCUSTOMDPI
 70
   300
  0
XRECORD
  5
B294
102
{ACAD_REACTORS
330
B22D
102
}
330
B22D
100
AcDbXrecord
280
     1
102
MATERIAL
148
0.0
149
0.0
149
0.0
 93
        0
 94
      127
282
     0
 72
     0
 77
     0
171
     0
175
     0
179
     0
273
     0
  0
XRECORD
  5
B22F
102
{ACAD_REACTORS
330
B22D
102
}
330
B22D
100
AcDbXrecord
280
     1
270
     1
271
     1
  0
XRECORD
  5
B22E
102
{ACAD_REACTORS
330
B22D
102
}
330
B22D
100
AcDbXrecord
280
     1
270
     1
271
     1
  0
XRECORD
  5
B232
102
{ACAD_REACTORS
330
B22D
102
}
330
B22D
100
AcDbXrecord
280
     1
270
     1
271
     1
  0
XRECORD
  5
B231
102
{ACAD_REACTORS
330
B22D
102
}
330
B22D
100
AcDbXrecord
280
     1
270
     1
271
     1
  0
XRECORD
  5
B233
102
{ACAD_REACTORS
330
B22D
102
}
330
B22D
100
AcDbXrecord
280
     1
270
     1
271
     1
  0
XRECORD
  5
B230
102
{ACAD_REACTORS
330
B22D
102
}
330
B22D
100
AcDbXrecord
280
     1
270
     1
271
     1
  0
XRECORD
  5
B293
102
{ACAD_REACTORS
330
B225
102
}
330
B225
100
AcDbXrecord
280
     1
102
MATERIAL
148
0.0
149
0.0
149
0.0
 93
        0
 94
      127
282
     0
 72
     0
 77
     0
171
     0
175
     0
179
     0
273
     0
  0
XRECORD
  5
B227
102
{ACAD_REACTORS
330
B225
102
}
330
B225
100
AcDbXrecord
280
     1
270
     1
271
     1
  0
XRECORD
  5
B226
102
{ACAD_REACTORS
330
B225
102
}
330
B225
100
AcDbXrecord
280
     1
270
     1
271
     1
  0
XRECORD
  5
B22A
102
{ACAD_REACTORS
330
B225
102
}
330
B225
100
AcDbXrecord
280
     1
270
     1
271
     1
  0
XRECORD
  5
B229
102
{ACAD_REACTORS
330
B225
102
}
330
B225
100
AcDbXrecord
280
     1
270
     1
271
     1
  0
XRECORD
  5
B22B
102
{ACAD_REACTORS
330
B225
102
}
330
B225
100
AcDbXrecord
280
     1
270
     1
271
     1
  0
XRECORD
  5
B228
102
{ACAD_REACTORS
330
B225
102
}
330
B225
100
AcDbXrecord
280
     1
270
     1
271
     1
  0
XRECORD
  5
B295
102
{ACAD_REACTORS
330
B235
102
}
330
B235
100
AcDbXrecord
280
     1
102
MATERIAL
148
0.0
149
0.0
149
0.0
 93
        0
 94
      127
282
     0
 72
     0
 77
     0
171
     0
175
     0
179
     0
273
     0
  0
XRECORD
  5
B237
102
{ACAD_REACTORS
330
B235
102
}
330
B235
100
AcDbXrecord
280
     1
270
     1
271
     1
  0
XRECORD
  5
B236
102
{ACAD_REACTORS
330
B235
102
}
330
B235
100
AcDbXrecord
280
     1
270
     1
271
     1
  0
XRECORD
  5
B23A
102
{ACAD_REACTORS
330
B235
102
}
330
B235
100
AcDbXrecord
280
     1
270
     1
271
     1
  0
XRECORD
  5
B239
102
{ACAD_REACTORS
330
B235
102
}
330
B235
100
AcDbXrecord
280
     1
270
     1
271
     1
  0
XRECORD
  5
B23B
102
{ACAD_REACTORS
330
B235
102
}
330
B235
100
AcDbXrecord
280
     1
270
     1
271
     1
  0
XRECORD
  5
B238
102
{ACAD_REACTORS
330
B235
102
}
330
B235
100
AcDbXrecord
280
     1
270
     1
271
     1
  0
XRECORD
  5
B2C9
102
{ACAD_REACTORS
330
B2C8
102
}
330
B2C8
100
AcDbXrecord
280
     1
102
DISPLAYNAME
  1
Imperial24
102
FLAGS
 90
        0
  0
CELLSTYLEMAP
  5
B290
102
{ACAD_REACTORS
330
B28F
102
}
330
B28F
100
AcDbCellStyleMap
 90
        3
300
CELLSTYLE
  1
TABLEFORMAT_BEGIN
 90
        5
170
     1
 91
        0
 92
    32768
 62
   257
 93
        1
300
CONTENTFORMAT
  1
CONTENTFORMAT_BEGIN
 90
        0
 91
        0
 92
      512
 93
        0
300

 40
0.0
140
1.0
 94
        5
 62
     0
340
AE86
144
0.25
309
CONTENTFORMAT_END
171
     0
 94
        0
309
TABLEFORMAT_END
  1
CELLSTYLE_BEGIN
 90
        1
 91
        1
300
_TITLE
309
CELLSTYLE_END
300
CELLSTYLE
  1
TABLEFORMAT_BEGIN
 90
        5
170
     1
 91
        0
 92
        0
 62
   257
 93
        1
300
CONTENTFORMAT
  1
CONTENTFORMAT_BEGIN
 90
        0
 91
        0
 92
      512
 93
        0
300

 40
0.0
140
1.0
 94
        5
 62
     0
340
AE86
144
0.18
309
CONTENTFORMAT_END
171
     0
 94
        0
309
TABLEFORMAT_END
  1
CELLSTYLE_BEGIN
 90
        2
 91
        1
300
_HEADER
309
CELLSTYLE_END
300
CELLSTYLE
  1
TABLEFORMAT_BEGIN
 90
        5
170
     1
 91
        0
 92
        0
 62
   257
 93
        1
300
CONTENTFORMAT
  1
CONTENTFORMAT_BEGIN
 90
        0
 91
        0
 92
      512
 93
        0
300

 40
0.0
140
1.0
 94
        2
 62
     0
340
AE86
144
0.18
309
CONTENTFORMAT_END
171
     0
 94
        0
309
TABLEFORMAT_END
  1
CELLSTYLE_BEGIN
 90
        3
 91
        2
300
_DATA
309
CELLSTYLE_END
  0
XRECORD
  5
B2C6
102
{ACAD_REACTORS
330
B28F
102
}
330
B28F
100
AcDbXrecord
280
     1
102
ACAD_ROUNDTRIP_PRE2007_TABLESTYLE
 90
      512
 91
        0
  1

 92
      512
 93
        0
  2

 94
      512
 95
        0
  3

  0
XRECORD
  5
B2A1
102
{ACAD_REACTORS
330
B2A0
102
}
330
B2A0
100
AcDbXrecord
280
     1
102
RTVSPost2010Prop28
280
     1
102
RTVSPost2010PropOp28
 70
     1
102
RTVSPost2010Prop29
280
     1
102
RTVSPost2010PropOp29
 70
     1
102
RTVSPost2010Prop30
280
     0
102
RTVSPost2010PropOp30
 70
     1
102
RTVSPost2010Prop31
280
     0
102
RTVSPost2010PropOp31
 70
     1
102
RTVSPost2010Prop32
280
     0
102
RTVSPost2010PropOp32
 70
     1
102
RTVSPost2010Prop33
280
     0
102
RTVSPost2010PropOp33
 70
     1
102
RTVSPost2010Prop34
280
     0
102
RTVSPost2010PropOp34
 70
     1
102
RTVSPost2010Prop35
280
     0
102
RTVSPost2010PropOp35
 70
     1
102
RTVSPost2010Prop36
280
     0
102
RTVSPost2010PropOp36
 70
     1
102
RTVSPost2010Prop37
 90
       50
102
RTVSPost2010PropOp37
 70
     1
102
RTVSPost2010Prop38
140
0.0
102
RTVSPost2010PropOp38
 70
     1
102
RTVSPost2010Prop39
140
1.0
102
RTVSPost2010PropOp39
 70
     1
102
RTVSPost2010Prop40
 90
        0
102
RTVSPost2010PropOp40
 70
     1
102
RTVSPost2010Prop41ColorIndex
 90
       18
102
RTVSPost2010Prop41ColorRGB
 90
        0
102
RTVSPost2010PropOp41
 70
     1
102
RTVSPost2010Prop42
 90
       50
102
RTVSPost2010PropOp42
 70
     1
102
RTVSPost2010Prop43
 90
        3
102
RTVSPost2010PropOp43
 70
     1
102
RTVSPost2010Prop44ColorIndex
 90
        5
102
RTVSPost2010Prop44ColorRGB
 90
      255
102
RTVSPost2010PropOp44
 70
     1
102
RTVSPost2010Prop45
280
     0
102
RTVSPost2010PropOp45
 70
     1
102
RTVSPost2010Prop46
 90
       50
102
RTVSPost2010PropOp46
 70
     1
102
RTVSPost2010Prop47
 90
       50
102
RTVSPost2010PropOp47
 70
     1
102
RTVSPost2010Prop48
 90
       50
102
RTVSPost2010PropOp48
 70
     1
102
RTVSPost2010Prop49
280
     0
102
RTVSPost2010PropOp49
 70
     1
102
RTVSPost2010Prop50
 90
       50
102
RTVSPost2010PropOp50
 70
     1
102
RTVSPost2010Prop51ColorIndex
 90
      256
102
RTVSPost2010Prop51ColorRGB
 90
-16777216
102
RTVSPost2010PropOp51
 70
     0
102
RTVSPost2010Prop52
140
1.0
102
RTVSPost2010PropOp52
 70
     0
102
RTVSPost2010Prop53
 90
        2
102
RTVSPost2010PropOp53
 70
     1
102
RTVSPost2010Prop54
  1
strokes_ogs.tif
102
RTVSPost2010PropOp54
 70
     1
102
RTVSPost2010Prop55
280
     0
102
RTVSPost2010PropOp55
 70
     1
102
RTVSPost2010Prop56
140
1.0
102
RTVSPost2010PropOp56
 70
     1
102
RTVSPost2010Prop57
140
1.0
102
RTVSPost2010PropOp57
 70
     1
102
RTVSPropertyOp0
 70
     1
102
RTVSPropertyOp1
 70
     1
102
RTVSPropertyOp2
 70
     1
102
RTVSPropertyOp3
 70
     1
102
RTVSPropertyOp4
 70
     1
102
RTVSPropertyOp5
 70
     1
102
RTVSPropertyOp6
 70
     1
102
RTVSPropertyOp7
 70
     1
102
RTVSPropertyOp8
 70
     1
102
RTVSPropertyOp9
 70
     1
102
RTVSPropertyOp10
 70
     1
102
RTVSPropertyOp11
 70
     1
102
RTVSPropertyOp12
 70
     1
102
RTVSPropertyOp13
 70
     1
102
RTVSPropertyOp14
 70
     1
102
RTVSPropertyOp15
 70
     1
102
RTVSPropertyOp16
 70
     1
102
RTVSPropertyOp17
 70
     1
102
RTVSPropertyOp18
 70
     1
102
RTVSPropertyOp19
 70
     1
102
RTVSPropertyOp20
 70
     1
102
RTVSPropertyOp21
 70
     1
102
RTVSPropertyOp22
 70
     1
102
RTVSPropertyOp23
 70
     1
102
RTVSPropertyOp24
 70
     1
102
RTVSPropertyOp25
 70
     1
102
RTVSPropertyOp26
 70
     1
102
RTVSPropertyOp27
 70
     1
102
RTVSPropertyOp28
 70
     1
102
RTVSPropertyOp29
 70
     1
102
RTVSPropertyOp30
 70
     1
102
RTVSPropertyOp31
 70
     1
102
RTVSPropertyOp32
 70
     1
102
RTVSPropertyOp33
 70
     1
102
RTVSPropertyOp34
 70
     1
102
RTVSPropertyOp35
 70
     1
102
RTVSPropertyOp36
 70
     1
102
RTVSPropertyOp37
 70
     1
102
RTVSPropertyOp38
 70
     1
102
RTVSPropertyOp39
 70
     1
102
RTVSPropertyOp40
 70
     1
102
RTVSPropertyOp41
 70
     1
102
RTVSPropertyOp42
 70
     1
102
RTVSPropertyOp43
 70
     1
102
RTVSPropertyOp44
 70
     1
102
RTVSPropertyOp45
 70
     1
102
RTVSPropertyOp46
 70
     1
102
RTVSPropertyOp47
 70
     1
102
RTVSPropertyOp48
 70
     1
102
RTVSPropertyOp49
 70
     1
102
RTVSPropertyOp50
 70
     1
102
RTVSPropertyOp51
 70
     0
102
RTVSPropertyOp52
 70
     0
102
RTVSPropertyOp53
 70
     1
102
RTVSPropertyOp54
 70
     1
102
RTVSPropertyOp55
 70
     1
102
RTVSPropertyOp56
 70
     1
102
RTVSPropertyOp57
 70
     1
102
RTVSPropertyOp58
 70
     1
102
RTVSPropertyOp59
 70
     1
102
RTVSPropertyOp60
 70
     1
102
RTVSPropertyOp61
 70
     1
102
RTVSPropertyOp62
 70
     1
  0
XRECORD
  5
B29F
102
{ACAD_REACTORS
330
B29E
102
}
330
B29E
100
AcDbXrecord
280
     1
102
RTVSPost2010Prop28
280
     0
102
RTVSPost2010PropOp28
 70
     1
102
RTVSPost2010Prop29
280
     1
102
RTVSPost2010PropOp29
 70
     1
102
RTVSPost2010Prop30
280
     1
102
RTVSPost2010PropOp30
 70
     1
102
RTVSPost2010Prop31
280
     0
102
RTVSPost2010PropOp31
 70
     1
102
RTVSPost2010Prop32
280
     0
102
RTVSPost2010PropOp32
 70
     1
102
RTVSPost2010Prop33
280
     0
102
RTVSPost2010PropOp33
 70
     1
102
RTVSPost2010Prop34
280
     0
102
RTVSPost2010PropOp34
 70
     1
102
RTVSPost2010Prop35
280
     0
102
RTVSPost2010PropOp35
 70
     1
102
RTVSPost2010Prop36
280
     0
102
RTVSPost2010PropOp36
 70
     1
102
RTVSPost2010Prop37
 90
       50
102
RTVSPost2010PropOp37
 70
     1
102
RTVSPost2010Prop38
140
0.0
102
RTVSPost2010PropOp38
 70
     1
102
RTVSPost2010Prop39
140
1.0
102
RTVSPost2010PropOp39
 70
     1
102
RTVSPost2010Prop40
 90
        0
102
RTVSPost2010PropOp40
 70
     1
102
RTVSPost2010Prop41ColorIndex
 90
       18
102
RTVSPost2010Prop41ColorRGB
 90
        0
102
RTVSPost2010PropOp41
 70
     1
102
RTVSPost2010Prop42
 90
       50
102
RTVSPost2010PropOp42
 70
     1
102
RTVSPost2010Prop43
 90
        3
102
RTVSPost2010PropOp43
 70
     1
102
RTVSPost2010Prop44ColorIndex
 90
        5
102
RTVSPost2010Prop44ColorRGB
 90
      255
102
RTVSPost2010PropOp44
 70
     1
102
RTVSPost2010Prop45
280
     0
102
RTVSPost2010PropOp45
 70
     1
102
RTVSPost2010Prop46
 90
       50
102
RTVSPost2010PropOp46
 70
     1
102
RTVSPost2010Prop47
 90
       50
102
RTVSPost2010PropOp47
 70
     1
102
RTVSPost2010Prop48
 90
       50
102
RTVSPost2010PropOp48
 70
     1
102
RTVSPost2010Prop49
280
     0
102
RTVSPost2010PropOp49
 70
     1
102
RTVSPost2010Prop50
 90
       50
102
RTVSPost2010PropOp50
 70
     1
102
RTVSPost2010Prop51ColorIndex
 90
      256
102
RTVSPost2010Prop51ColorRGB
 90
-16777216
102
RTVSPost2010PropOp51
 70
     0
102
RTVSPost2010Prop52
140
1.0
102
RTVSPost2010PropOp52
 70
     0
102
RTVSPost2010Prop53
 90
        2
102
RTVSPost2010PropOp53
 70
     1
102
RTVSPost2010Prop54
  1
strokes_ogs.tif
102
RTVSPost2010PropOp54
 70
     1
102
RTVSPost2010Prop55
280
     0
102
RTVSPost2010PropOp55
 70
     1
102
RTVSPost2010Prop56
140
1.0
102
RTVSPost2010PropOp56
 70
     1
102
RTVSPost2010Prop57
140
1.0
102
RTVSPost2010PropOp57
 70
     1
102
RTVSPropertyOp0
 70
     1
102
RTVSPropertyOp1
 70
     1
102
RTVSPropertyOp2
 70
     1
102
RTVSPropertyOp3
 70
     1
102
RTVSPropertyOp4
 70
     1
102
RTVSPropertyOp5
 70
     1
102
RTVSPropertyOp6
 70
     1
102
RTVSPropertyOp7
 70
     1
102
RTVSPropertyOp8
 70
     1
102
RTVSPropertyOp9
 70
     1
102
RTVSPropertyOp10
 70
     1
102
RTVSPropertyOp11
 70
     1
102
RTVSPropertyOp12
 70
     1
102
RTVSPropertyOp13
 70
     1
102
RTVSPropertyOp14
 70
     1
102
RTVSPropertyOp15
 70
     1
102
RTVSPropertyOp16
 70
     1
102
RTVSPropertyOp17
 70
     1
102
RTVSPropertyOp18
 70
     1
102
RTVSPropertyOp19
 70
     1
102
RTVSPropertyOp20
 70
     1
102
RTVSPropertyOp21
 70
     1
102
RTVSPropertyOp22
 70
     1
102
RTVSPropertyOp23
 70
     1
102
RTVSPropertyOp24
 70
     1
102
RTVSPropertyOp25
 70
     1
102
RTVSPropertyOp26
 70
     1
102
RTVSPropertyOp27
 70
     1
102
RTVSPropertyOp28
 70
     1
102
RTVSPropertyOp29
 70
     1
102
RTVSPropertyOp30
 70
     1
102
RTVSPropertyOp31
 70
     1
102
RTVSPropertyOp32
 70
     1
102
RTVSPropertyOp33
 70
     1
102
RTVSPropertyOp34
 70
     1
102
RTVSPropertyOp35
 70
     1
102
RTVSPropertyOp36
 70
     1
102
RTVSPropertyOp37
 70
     1
102
RTVSPropertyOp38
 70
     1
102
RTVSPropertyOp39
 70
     1
102
RTVSPropertyOp40
 70
     1
102
RTVSPropertyOp41
 70
     1
102
RTVSPropertyOp42
 70
     1
102
RTVSPropertyOp43
 70
     1
102
RTVSPropertyOp44
 70
     1
102
RTVSPropertyOp45
 70
     1
102
RTVSPropertyOp46
 70
     1
102
RTVSPropertyOp47
 70
     1
102
RTVSPropertyOp48
 70
     1
102
RTVSPropertyOp49
 70
     1
102
RTVSPropertyOp50
 70
     1
102
RTVSPropertyOp51
 70
     0
102
RTVSPropertyOp52
 70
     0
102
RTVSPropertyOp53
 70
     1
102
RTVSPropertyOp54
 70
     1
102
RTVSPropertyOp55
 70
     1
102
RTVSPropertyOp56
 70
     1
102
RTVSPropertyOp57
 70
     1
102
RTVSPropertyOp58
 70
     1
102
RTVSPropertyOp59
 70
     1
102
RTVSPropertyOp60
 70
     1
102
RTVSPropertyOp61
 70
     1
102
RTVSPropertyOp62
 70
     1
  0
XRECORD
  5
B2AD
102
{ACAD_REACTORS
330
B2AC
102
}
330
B2AC
100
AcDbXrecord
280
     1
102
RTVSPost2010Prop28
280
     0
102
RTVSPost2010PropOp28
 70
     1
102
RTVSPost2010Prop29
280
     1
102
RTVSPost2010PropOp29
 70
     1
102
RTVSPost2010Prop30
280
     1
102
RTVSPost2010PropOp30
 70
     1
102
RTVSPost2010Prop31
280
     0
102
RTVSPost2010PropOp31
 70
     1
102
RTVSPost2010Prop32
280
     0
102
RTVSPost2010PropOp32
 70
     1
102
RTVSPost2010Prop33
280
     0
102
RTVSPost2010PropOp33
 70
     1
102
RTVSPost2010Prop34
280
     0
102
RTVSPost2010PropOp34
 70
     1
102
RTVSPost2010Prop35
280
     0
102
RTVSPost2010PropOp35
 70
     1
102
RTVSPost2010Prop36
280
     0
102
RTVSPost2010PropOp36
 70
     1
102
RTVSPost2010Prop37
 90
       50
102
RTVSPost2010PropOp37
 70
     1
102
RTVSPost2010Prop38
140
0.0
102
RTVSPost2010PropOp38
 70
     1
102
RTVSPost2010Prop39
140
1.0
102
RTVSPost2010PropOp39
 70
     1
102
RTVSPost2010Prop40
 90
        0
102
RTVSPost2010PropOp40
 70
     1
102
RTVSPost2010Prop41ColorIndex
 90
       18
102
RTVSPost2010Prop41ColorRGB
 90
        0
102
RTVSPost2010PropOp41
 70
     1
102
RTVSPost2010Prop42
 90
       50
102
RTVSPost2010PropOp42
 70
     1
102
RTVSPost2010Prop43
 90
        3
102
RTVSPost2010PropOp43
 70
     1
102
RTVSPost2010Prop44ColorIndex
 90
        5
102
RTVSPost2010Prop44ColorRGB
 90
      255
102
RTVSPost2010PropOp44
 70
     1
102
RTVSPost2010Prop45
280
     0
102
RTVSPost2010PropOp45
 70
     1
102
RTVSPost2010Prop46
 90
       50
102
RTVSPost2010PropOp46
 70
     1
102
RTVSPost2010Prop47
 90
       50
102
RTVSPost2010PropOp47
 70
     1
102
RTVSPost2010Prop48
 90
       50
102
RTVSPost2010PropOp48
 70
     1
102
RTVSPost2010Prop49
280
     0
102
RTVSPost2010PropOp49
 70
     1
102
RTVSPost2010Prop50
 90
       50
102
RTVSPost2010PropOp50
 70
     1
102
RTVSPost2010Prop51ColorIndex
 90
      256
102
RTVSPost2010Prop51ColorRGB
 90
-16777216
102
RTVSPost2010PropOp51
 70
     0
102
RTVSPost2010Prop52
140
1.0
102
RTVSPost2010PropOp52
 70
     0
102
RTVSPost2010Prop53
 90
        2
102
RTVSPost2010PropOp53
 70
     1
102
RTVSPost2010Prop54
  1
strokes_ogs.tif
102
RTVSPost2010PropOp54
 70
     1
102
RTVSPost2010Prop55
280
     0
102
RTVSPost2010PropOp55
 70
     1
102
RTVSPost2010Prop56
140
1.0
102
RTVSPost2010PropOp56
 70
     1
102
RTVSPost2010Prop57
140
1.0
102
RTVSPost2010PropOp57
 70
     1
102
RTVSPropertyOp0
 70
     1
102
RTVSPropertyOp1
 70
     1
102
RTVSPropertyOp2
 70
     1
102
RTVSPropertyOp3
 70
     1
102
RTVSPropertyOp4
 70
     1
102
RTVSPropertyOp5
 70
     1
102
RTVSPropertyOp6
 70
     1
102
RTVSPropertyOp7
 70
     1
102
RTVSPropertyOp8
 70
     1
102
RTVSPropertyOp9
 70
     1
102
RTVSPropertyOp10
 70
     1
102
RTVSPropertyOp11
 70
     1
102
RTVSPropertyOp12
 70
     1
102
RTVSPropertyOp13
 70
     1
102
RTVSPropertyOp14
 70
     1
102
RTVSPropertyOp15
 70
     1
102
RTVSPropertyOp16
 70
     1
102
RTVSPropertyOp17
 70
     1
102
RTVSPropertyOp18
 70
     1
102
RTVSPropertyOp19
 70
     1
102
RTVSPropertyOp20
 70
     1
102
RTVSPropertyOp21
 70
     1
102
RTVSPropertyOp22
 70
     1
102
RTVSPropertyOp23
 70
     1
102
RTVSPropertyOp24
 70
     1
102
RTVSPropertyOp25
 70
     1
102
RTVSPropertyOp26
 70
     1
102
RTVSPropertyOp27
 70
     1
102
RTVSPropertyOp28
 70
     1
102
RTVSPropertyOp29
 70
     1
102
RTVSPropertyOp30
 70
     1
102
RTVSPropertyOp31
 70
     1
102
RTVSPropertyOp32
 70
     1
102
RTVSPropertyOp33
 70
     1
102
RTVSPropertyOp34
 70
     1
102
RTVSPropertyOp35
 70
     1
102
RTVSPropertyOp36
 70
     1
102
RTVSPropertyOp37
 70
     1
102
RTVSPropertyOp38
 70
     1
102
RTVSPropertyOp39
 70
     1
102
RTVSPropertyOp40
 70
     1
102
RTVSPropertyOp41
 70
     1
102
RTVSPropertyOp42
 70
     1
102
RTVSPropertyOp43
 70
     1
102
RTVSPropertyOp44
 70
     1
102
RTVSPropertyOp45
 70
     1
102
RTVSPropertyOp46
 70
     1
102
RTVSPropertyOp47
 70
     1
102
RTVSPropertyOp48
 70
     1
102
RTVSPropertyOp49
 70
     1
102
RTVSPropertyOp50
 70
     1
102
RTVSPropertyOp51
 70
     0
102
RTVSPropertyOp52
 70
     0
102
RTVSPropertyOp53
 70
     1
102
RTVSPropertyOp54
 70
     1
102
RTVSPropertyOp55
 70
     1
102
RTVSPropertyOp56
 70
     1
102
RTVSPropertyOp57
 70
     1
102
RTVSPropertyOp58
 70
     1
102
RTVSPropertyOp59
 70
     1
102
RTVSPropertyOp60
 70
     1
102
RTVSPropertyOp61
 70
     1
102
RTVSPropertyOp62
 70
     1
  0
XRECORD
  5
B2B5
102
{ACAD_REACTORS
330
B2B4
102
}
330
B2B4
100
AcDbXrecord
280
     1
102
RTVSPost2010Prop28
280
     0
102
RTVSPost2010PropOp28
 70
     1
102
RTVSPost2010Prop29
280
     1
102
RTVSPost2010PropOp29
 70
     1
102
RTVSPost2010Prop30
280
     1
102
RTVSPost2010PropOp30
 70
     1
102
RTVSPost2010Prop31
280
     0
102
RTVSPost2010PropOp31
 70
     1
102
RTVSPost2010Prop32
280
     0
102
RTVSPost2010PropOp32
 70
     1
102
RTVSPost2010Prop33
280
     0
102
RTVSPost2010PropOp33
 70
     1
102
RTVSPost2010Prop34
280
     0
102
RTVSPost2010PropOp34
 70
     1
102
RTVSPost2010Prop35
280
     0
102
RTVSPost2010PropOp35
 70
     1
102
RTVSPost2010Prop36
280
     0
102
RTVSPost2010PropOp36
 70
     1
102
RTVSPost2010Prop37
 90
       50
102
RTVSPost2010PropOp37
 70
     1
102
RTVSPost2010Prop38
140
0.0
102
RTVSPost2010PropOp38
 70
     1
102
RTVSPost2010Prop39
140
1.0
102
RTVSPost2010PropOp39
 70
     1
102
RTVSPost2010Prop40
 90
        0
102
RTVSPost2010PropOp40
 70
     1
102
RTVSPost2010Prop41ColorIndex
 90
       18
102
RTVSPost2010Prop41ColorRGB
 90
        0
102
RTVSPost2010PropOp41
 70
     1
102
RTVSPost2010Prop42
 90
       50
102
RTVSPost2010PropOp42
 70
     1
102
RTVSPost2010Prop43
 90
        3
102
RTVSPost2010PropOp43
 70
     1
102
RTVSPost2010Prop44ColorIndex
 90
        5
102
RTVSPost2010Prop44ColorRGB
 90
      255
102
RTVSPost2010PropOp44
 70
     1
102
RTVSPost2010Prop45
280
     0
102
RTVSPost2010PropOp45
 70
     1
102
RTVSPost2010Prop46
 90
       50
102
RTVSPost2010PropOp46
 70
     1
102
RTVSPost2010Prop47
 90
       50
102
RTVSPost2010PropOp47
 70
     1
102
RTVSPost2010Prop48
 90
       50
102
RTVSPost2010PropOp48
 70
     1
102
RTVSPost2010Prop49
280
     0
102
RTVSPost2010PropOp49
 70
     1
102
RTVSPost2010Prop50
 90
       50
102
RTVSPost2010PropOp50
 70
     1
102
RTVSPost2010Prop51ColorIndex
 90
      256
102
RTVSPost2010Prop51ColorRGB
 90
-16777216
102
RTVSPost2010PropOp51
 70
     0
102
RTVSPost2010Prop52
140
1.0
102
RTVSPost2010PropOp52
 70
     0
102
RTVSPost2010Prop53
 90
        2
102
RTVSPost2010PropOp53
 70
     1
102
RTVSPost2010Prop54
  1
strokes_ogs.tif
102
RTVSPost2010PropOp54
 70
     1
102
RTVSPost2010Prop55
280
     0
102
RTVSPost2010PropOp55
 70
     1
102
RTVSPost2010Prop56
140
1.0
102
RTVSPost2010PropOp56
 70
     1
102
RTVSPost2010Prop57
140
1.0
102
RTVSPost2010PropOp57
 70
     1
102
RTVSPropertyOp0
 70
     1
102
RTVSPropertyOp1
 70
     1
102
RTVSPropertyOp2
 70
     1
102
RTVSPropertyOp3
 70
     1
102
RTVSPropertyOp4
 70
     1
102
RTVSPropertyOp5
 70
     1
102
RTVSPropertyOp6
 70
     1
102
RTVSPropertyOp7
 70
     1
102
RTVSPropertyOp8
 70
     1
102
RTVSPropertyOp9
 70
     1
102
RTVSPropertyOp10
 70
     1
102
RTVSPropertyOp11
 70
     1
102
RTVSPropertyOp12
 70
     1
102
RTVSPropertyOp13
 70
     1
102
RTVSPropertyOp14
 70
     1
102
RTVSPropertyOp15
 70
     1
102
RTVSPropertyOp16
 70
     1
102
RTVSPropertyOp17
 70
     1
102
RTVSPropertyOp18
 70
     1
102
RTVSPropertyOp19
 70
     1
102
RTVSPropertyOp20
 70
     1
102
RTVSPropertyOp21
 70
     1
102
RTVSPropertyOp22
 70
     1
102
RTVSPropertyOp23
 70
     1
102
RTVSPropertyOp24
 70
     1
102
RTVSPropertyOp25
 70
     1
102
RTVSPropertyOp26
 70
     1
102
RTVSPropertyOp27
 70
     1
102
RTVSPropertyOp28
 70
     1
102
RTVSPropertyOp29
 70
     1
102
RTVSPropertyOp30
 70
     1
102
RTVSPropertyOp31
 70
     1
102
RTVSPropertyOp32
 70
     1
102
RTVSPropertyOp33
 70
     1
102
RTVSPropertyOp34
 70
     1
102
RTVSPropertyOp35
 70
     1
102
RTVSPropertyOp36
 70
     1
102
RTVSPropertyOp37
 70
     1
102
RTVSPropertyOp38
 70
     1
102
RTVSPropertyOp39
 70
     1
102
RTVSPropertyOp40
 70
     1
102
RTVSPropertyOp41
 70
     1
102
RTVSPropertyOp42
 70
     1
102
RTVSPropertyOp43
 70
     1
102
RTVSPropertyOp44
 70
     1
102
RTVSPropertyOp45
 70
     1
102
RTVSPropertyOp46
 70
     1
102
RTVSPropertyOp47
 70
     1
102
RTVSPropertyOp48
 70
     1
102
RTVSPropertyOp49
 70
     1
102
RTVSPropertyOp50
 70
     1
102
RTVSPropertyOp51
 70
     0
102
RTVSPropertyOp52
 70
     0
102
RTVSPropertyOp53
 70
     1
102
RTVSPropertyOp54
 70
     1
102
RTVSPropertyOp55
 70
     1
102
RTVSPropertyOp56
 70
     1
102
RTVSPropertyOp57
 70
     1
102
RTVSPropertyOp58
 70
     1
102
RTVSPropertyOp59
 70
     1
102
RTVSPropertyOp60
 70
     1
102
RTVSPropertyOp61
 70
     1
102
RTVSPropertyOp62
 70
     1
  0
XRECORD
  5
B2A7
102
{ACAD_REACTORS
330
B2A6
102
}
330
B2A6
100
AcDbXrecord
280
     1
102
RTVSPost2010Prop28
280
     0
102
RTVSPost2010PropOp28
 70
     1
102
RTVSPost2010Prop29
280
     1
102
RTVSPost2010PropOp29
 70
     1
102
RTVSPost2010Prop30
280
     1
102
RTVSPost2010PropOp30
 70
     1
102
RTVSPost2010Prop31
280
     0
102
RTVSPost2010PropOp31
 70
     1
102
RTVSPost2010Prop32
280
     0
102
RTVSPost2010PropOp32
 70
     1
102
RTVSPost2010Prop33
280
     0
102
RTVSPost2010PropOp33
 70
     1
102
RTVSPost2010Prop34
280
     0
102
RTVSPost2010PropOp34
 70
     1
102
RTVSPost2010Prop35
280
     0
102
RTVSPost2010PropOp35
 70
     1
102
RTVSPost2010Prop36
280
     0
102
RTVSPost2010PropOp36
 70
     1
102
RTVSPost2010Prop37
 90
       50
102
RTVSPost2010PropOp37
 70
     1
102
RTVSPost2010Prop38
140
0.0
102
RTVSPost2010PropOp38
 70
     1
102
RTVSPost2010Prop39
140
1.0
102
RTVSPost2010PropOp39
 70
     1
102
RTVSPost2010Prop40
 90
        0
102
RTVSPost2010PropOp40
 70
     1
102
RTVSPost2010Prop41ColorIndex
 90
       18
102
RTVSPost2010Prop41ColorRGB
 90
        0
102
RTVSPost2010PropOp41
 70
     1
102
RTVSPost2010Prop42
 90
       50
102
RTVSPost2010PropOp42
 70
     1
102
RTVSPost2010Prop43
 90
        3
102
RTVSPost2010PropOp43
 70
     1
102
RTVSPost2010Prop44ColorIndex
 90
        5
102
RTVSPost2010Prop44ColorRGB
 90
      255
102
RTVSPost2010PropOp44
 70
     1
102
RTVSPost2010Prop45
280
     0
102
RTVSPost2010PropOp45
 70
     1
102
RTVSPost2010Prop46
 90
       50
102
RTVSPost2010PropOp46
 70
     1
102
RTVSPost2010Prop47
 90
       50
102
RTVSPost2010PropOp47
 70
     1
102
RTVSPost2010Prop48
 90
       50
102
RTVSPost2010PropOp48
 70
     1
102
RTVSPost2010Prop49
280
     0
102
RTVSPost2010PropOp49
 70
     1
102
RTVSPost2010Prop50
 90
       50
102
RTVSPost2010PropOp50
 70
     1
102
RTVSPost2010Prop51ColorIndex
 90
      256
102
RTVSPost2010Prop51ColorRGB
 90
-16777216
102
RTVSPost2010PropOp51
 70
     0
102
RTVSPost2010Prop52
140
1.0
102
RTVSPost2010PropOp52
 70
     0
102
RTVSPost2010Prop53
 90
        2
102
RTVSPost2010PropOp53
 70
     1
102
RTVSPost2010Prop54
  1
strokes_ogs.tif
102
RTVSPost2010PropOp54
 70
     1
102
RTVSPost2010Prop55
280
     0
102
RTVSPost2010PropOp55
 70
     1
102
RTVSPost2010Prop56
140
1.0
102
RTVSPost2010PropOp56
 70
     1
102
RTVSPost2010Prop57
140
1.0
102
RTVSPost2010PropOp57
 70
     1
102
RTVSPropertyOp0
 70
     1
102
RTVSPropertyOp1
 70
     1
102
RTVSPropertyOp2
 70
     1
102
RTVSPropertyOp3
 70
     1
102
RTVSPropertyOp4
 70
     1
102
RTVSPropertyOp5
 70
     1
102
RTVSPropertyOp6
 70
     1
102
RTVSPropertyOp7
 70
     1
102
RTVSPropertyOp8
 70
     1
102
RTVSPropertyOp9
 70
     1
102
RTVSPropertyOp10
 70
     1
102
RTVSPropertyOp11
 70
     1
102
RTVSPropertyOp12
 70
     1
102
RTVSPropertyOp13
 70
     1
102
RTVSPropertyOp14
 70
     1
102
RTVSPropertyOp15
 70
     1
102
RTVSPropertyOp16
 70
     1
102
RTVSPropertyOp17
 70
     1
102
RTVSPropertyOp18
 70
     1
102
RTVSPropertyOp19
 70
     1
102
RTVSPropertyOp20
 70
     1
102
RTVSPropertyOp21
 70
     1
102
RTVSPropertyOp22
 70
     1
102
RTVSPropertyOp23
 70
     1
102
RTVSPropertyOp24
 70
     1
102
RTVSPropertyOp25
 70
     1
102
RTVSPropertyOp26
 70
     1
102
RTVSPropertyOp27
 70
     1
102
RTVSPropertyOp28
 70
     1
102
RTVSPropertyOp29
 70
     1
102
RTVSPropertyOp30
 70
     1
102
RTVSPropertyOp31
 70
     1
102
RTVSPropertyOp32
 70
     1
102
RTVSPropertyOp33
 70
     1
102
RTVSPropertyOp34
 70
     1
102
RTVSPropertyOp35
 70
     1
102
RTVSPropertyOp36
 70
     1
102
RTVSPropertyOp37
 70
     1
102
RTVSPropertyOp38
 70
     1
102
RTVSPropertyOp39
 70
     1
102
RTVSPropertyOp40
 70
     1
102
RTVSPropertyOp41
 70
     1
102
RTVSPropertyOp42
 70
     1
102
RTVSPropertyOp43
 70
     1
102
RTVSPropertyOp44
 70
     1
102
RTVSPropertyOp45
 70
     1
102
RTVSPropertyOp46
 70
     1
102
RTVSPropertyOp47
 70
     1
102
RTVSPropertyOp48
 70
     1
102
RTVSPropertyOp49
 70
     1
102
RTVSPropertyOp50
 70
     1
102
RTVSPropertyOp51
 70
     0
102
RTVSPropertyOp52
 70
     0
102
RTVSPropertyOp53
 70
     1
102
RTVSPropertyOp54
 70
     1
102
RTVSPropertyOp55
 70
     1
102
RTVSPropertyOp56
 70
     1
102
RTVSPropertyOp57
 70
     1
102
RTVSPropertyOp58
 70
     1
102
RTVSPropertyOp59
 70
     1
102
RTVSPropertyOp60
 70
     1
102
RTVSPropertyOp61
 70
     1
102
RTVSPropertyOp62
 70
     1
  0
XRECORD
  5
B2AB
102
{ACAD_REACTORS
330
B2AA
102
}
330
B2AA
100
AcDbXrecord
280
     1
102
RTVSPost2010Prop28
280
     0
102
RTVSPost2010PropOp28
 70
     1
102
RTVSPost2010Prop29
280
     1
102
RTVSPost2010PropOp29
 70
     1
102
RTVSPost2010Prop30
280
     1
102
RTVSPost2010PropOp30
 70
     1
102
RTVSPost2010Prop31
280
     0
102
RTVSPost2010PropOp31
 70
     1
102
RTVSPost2010Prop32
280
     0
102
RTVSPost2010PropOp32
 70
     1
102
RTVSPost2010Prop33
280
     0
102
RTVSPost2010PropOp33
 70
     1
102
RTVSPost2010Prop34
280
     0
102
RTVSPost2010PropOp34
 70
     1
102
RTVSPost2010Prop35
280
     0
102
RTVSPost2010PropOp35
 70
     1
102
RTVSPost2010Prop36
280
     0
102
RTVSPost2010PropOp36
 70
     1
102
RTVSPost2010Prop37
 90
       50
102
RTVSPost2010PropOp37
 70
     1
102
RTVSPost2010Prop38
140
0.0
102
RTVSPost2010PropOp38
 70
     1
102
RTVSPost2010Prop39
140
1.0
102
RTVSPost2010PropOp39
 70
     1
102
RTVSPost2010Prop40
 90
        0
102
RTVSPost2010PropOp40
 70
     1
102
RTVSPost2010Prop41ColorIndex
 90
       18
102
RTVSPost2010Prop41ColorRGB
 90
        0
102
RTVSPost2010PropOp41
 70
     1
102
RTVSPost2010Prop42
 90
       50
102
RTVSPost2010PropOp42
 70
     1
102
RTVSPost2010Prop43
 90
        3
102
RTVSPost2010PropOp43
 70
     1
102
RTVSPost2010Prop44ColorIndex
 90
        5
102
RTVSPost2010Prop44ColorRGB
 90
      255
102
RTVSPost2010PropOp44
 70
     1
102
RTVSPost2010Prop45
280
     0
102
RTVSPost2010PropOp45
 70
     1
102
RTVSPost2010Prop46
 90
       50
102
RTVSPost2010PropOp46
 70
     1
102
RTVSPost2010Prop47
 90
       50
102
RTVSPost2010PropOp47
 70
     1
102
RTVSPost2010Prop48
 90
       50
102
RTVSPost2010PropOp48
 70
     1
102
RTVSPost2010Prop49
280
     0
102
RTVSPost2010PropOp49
 70
     1
102
RTVSPost2010Prop50
 90
       50
102
RTVSPost2010PropOp50
 70
     1
102
RTVSPost2010Prop51ColorIndex
 90
      256
102
RTVSPost2010Prop51ColorRGB
 90
-16777216
102
RTVSPost2010PropOp51
 70
     0
102
RTVSPost2010Prop52
140
1.0
102
RTVSPost2010PropOp52
 70
     0
102
RTVSPost2010Prop53
 90
        2
102
RTVSPost2010PropOp53
 70
     1
102
RTVSPost2010Prop54
  1
strokes_ogs.tif
102
RTVSPost2010PropOp54
 70
     1
102
RTVSPost2010Prop55
280
     0
102
RTVSPost2010PropOp55
 70
     1
102
RTVSPost2010Prop56
140
1.0
102
RTVSPost2010PropOp56
 70
     1
102
RTVSPost2010Prop57
140
1.0
102
RTVSPost2010PropOp57
 70
     1
102
RTVSPropertyOp0
 70
     1
102
RTVSPropertyOp1
 70
     1
102
RTVSPropertyOp2
 70
     1
102
RTVSPropertyOp3
 70
     1
102
RTVSPropertyOp4
 70
     1
102
RTVSPropertyOp5
 70
     1
102
RTVSPropertyOp6
 70
     1
102
RTVSPropertyOp7
 70
     1
102
RTVSPropertyOp8
 70
     1
102
RTVSPropertyOp9
 70
     1
102
RTVSPropertyOp10
 70
     1
102
RTVSPropertyOp11
 70
     1
102
RTVSPropertyOp12
 70
     1
102
RTVSPropertyOp13
 70
     1
102
RTVSPropertyOp14
 70
     1
102
RTVSPropertyOp15
 70
     1
102
RTVSPropertyOp16
 70
     1
102
RTVSPropertyOp17
 70
     1
102
RTVSPropertyOp18
 70
     1
102
RTVSPropertyOp19
 70
     1
102
RTVSPropertyOp20
 70
     1
102
RTVSPropertyOp21
 70
     1
102
RTVSPropertyOp22
 70
     1
102
RTVSPropertyOp23
 70
     1
102
RTVSPropertyOp24
 70
     1
102
RTVSPropertyOp25
 70
     1
102
RTVSPropertyOp26
 70
     1
102
RTVSPropertyOp27
 70
     1
102
RTVSPropertyOp28
 70
     1
102
RTVSPropertyOp29
 70
     1
102
RTVSPropertyOp30
 70
     1
102
RTVSPropertyOp31
 70
     1
102
RTVSPropertyOp32
 70
     1
102
RTVSPropertyOp33
 70
     1
102
RTVSPropertyOp34
 70
     1
102
RTVSPropertyOp35
 70
     1
102
RTVSPropertyOp36
 70
     1
102
RTVSPropertyOp37
 70
     1
102
RTVSPropertyOp38
 70
     1
102
RTVSPropertyOp39
 70
     1
102
RTVSPropertyOp40
 70
     1
102
RTVSPropertyOp41
 70
     1
102
RTVSPropertyOp42
 70
     1
102
RTVSPropertyOp43
 70
     1
102
RTVSPropertyOp44
 70
     1
102
RTVSPropertyOp45
 70
     1
102
RTVSPropertyOp46
 70
     1
102
RTVSPropertyOp47
 70
     1
102
RTVSPropertyOp48
 70
     1
102
RTVSPropertyOp49
 70
     1
102
RTVSPropertyOp50
 70
     1
102
RTVSPropertyOp51
 70
     0
102
RTVSPropertyOp52
 70
     0
102
RTVSPropertyOp53
 70
     1
102
RTVSPropertyOp54
 70
     1
102
RTVSPropertyOp55
 70
     1
102
RTVSPropertyOp56
 70
     1
102
RTVSPropertyOp57
 70
     1
102
RTVSPropertyOp58
 70
     1
102
RTVSPropertyOp59
 70
     1
102
RTVSPropertyOp60
 70
     1
102
RTVSPropertyOp61
 70
     1
102
RTVSPropertyOp62
 70
     1
  0
XRECORD
  5
B2C5
102
{ACAD_REACTORS
330
B2C4
102
}
330
B2C4
100
AcDbXrecord
280
     1
102
RTVSPost2010Prop28
280
     0
102
RTVSPost2010PropOp28
 70
     1
102
RTVSPost2010Prop29
280
     1
102
RTVSPost2010PropOp29
 70
     1
102
RTVSPost2010Prop30
280
     1
102
RTVSPost2010PropOp30
 70
     1
102
RTVSPost2010Prop31
280
     0
102
RTVSPost2010PropOp31
 70
     1
102
RTVSPost2010Prop32
280
     0
102
RTVSPost2010PropOp32
 70
     1
102
RTVSPost2010Prop33
280
     0
102
RTVSPost2010PropOp33
 70
     1
102
RTVSPost2010Prop34
280
     0
102
RTVSPost2010PropOp34
 70
     1
102
RTVSPost2010Prop35
280
     0
102
RTVSPost2010PropOp35
 70
     1
102
RTVSPost2010Prop36
280
     0
102
RTVSPost2010PropOp36
 70
     1
102
RTVSPost2010Prop37
 90
       50
102
RTVSPost2010PropOp37
 70
     0
102
RTVSPost2010Prop38
140
0.0
102
RTVSPost2010PropOp38
 70
     0
102
RTVSPost2010Prop39
140
1.0
102
RTVSPost2010PropOp39
 70
     0
102
RTVSPost2010Prop40
 90
        0
102
RTVSPost2010PropOp40
 70
     0
102
RTVSPost2010Prop41ColorIndex
 90
       18
102
RTVSPost2010Prop41ColorRGB
 90
        0
102
RTVSPost2010PropOp41
 70
     0
102
RTVSPost2010Prop42
 90
       50
102
RTVSPost2010PropOp42
 70
     0
102
RTVSPost2010Prop43
 90
        3
102
RTVSPost2010PropOp43
 70
     0
102
RTVSPost2010Prop44ColorIndex
 90
        5
102
RTVSPost2010Prop44ColorRGB
 90
      255
102
RTVSPost2010PropOp44
 70
     0
102
RTVSPost2010Prop45
280
     0
102
RTVSPost2010PropOp45
 70
     1
102
RTVSPost2010Prop46
 90
       50
102
RTVSPost2010PropOp46
 70
     0
102
RTVSPost2010Prop47
 90
       50
102
RTVSPost2010PropOp47
 70
     0
102
RTVSPost2010Prop48
 90
       50
102
RTVSPost2010PropOp48
 70
     0
102
RTVSPost2010Prop49
280
     0
102
RTVSPost2010PropOp49
 70
     1
102
RTVSPost2010Prop50
 90
       50
102
RTVSPost2010PropOp50
 70
     0
102
RTVSPost2010Prop51ColorIndex
 90
      256
102
RTVSPost2010Prop51ColorRGB
 90
-16777216
102
RTVSPost2010PropOp51
 70
     0
102
RTVSPost2010Prop52
140
1.0
102
RTVSPost2010PropOp52
 70
     0
102
RTVSPost2010Prop53
 90
        2
102
RTVSPost2010PropOp53
 70
     0
102
RTVSPost2010Prop54
  1
strokes_ogs.tif
102
RTVSPost2010PropOp54
 70
     0
102
RTVSPost2010Prop55
280
     0
102
RTVSPost2010PropOp55
 70
     1
102
RTVSPost2010Prop56
140
1.0
102
RTVSPost2010PropOp56
 70
     0
102
RTVSPost2010Prop57
140
1.0
102
RTVSPost2010PropOp57
 70
     0
102
RTVSPropertyOp0
 70
     0
102
RTVSPropertyOp1
 70
     0
102
RTVSPropertyOp2
 70
     0
102
RTVSPropertyOp3
 70
     0
102
RTVSPropertyOp4
 70
     0
102
RTVSPropertyOp5
 70
     0
102
RTVSPropertyOp6
 70
     0
102
RTVSPropertyOp7
 70
     0
102
RTVSPropertyOp8
 70
     0
102
RTVSPropertyOp9
 70
     0
102
RTVSPropertyOp10
 70
     0
102
RTVSPropertyOp11
 70
     0
102
RTVSPropertyOp12
 70
     0
102
RTVSPropertyOp13
 70
     0
102
RTVSPropertyOp14
 70
     2
102
RTVSPropertyOp15
 70
     0
102
RTVSPropertyOp16
 70
     0
102
RTVSPropertyOp17
 70
     0
102
RTVSPropertyOp18
 70
     0
102
RTVSPropertyOp19
 70
     0
102
RTVSPropertyOp20
 70
     0
102
RTVSPropertyOp21
 70
     0
102
RTVSPropertyOp22
 70
     0
102
RTVSPropertyOp23
 70
     0
102
RTVSPropertyOp24
 70
     0
102
RTVSPropertyOp25
 70
     0
102
RTVSPropertyOp26
 70
     0
102
RTVSPropertyOp27
 70
     0
102
RTVSPropertyOp28
 70
     1
102
RTVSPropertyOp29
 70
     1
102
RTVSPropertyOp30
 70
     1
102
RTVSPropertyOp31
 70
     1
102
RTVSPropertyOp32
 70
     1
102
RTVSPropertyOp33
 70
     1
102
RTVSPropertyOp34
 70
     1
102
RTVSPropertyOp35
 70
     1
102
RTVSPropertyOp36
 70
     1
102
RTVSPropertyOp37
 70
     0
102
RTVSPropertyOp38
 70
     0
102
RTVSPropertyOp39
 70
     0
102
RTVSPropertyOp40
 70
     0
102
RTVSPropertyOp41
 70
     0
102
RTVSPropertyOp42
 70
     0
102
RTVSPropertyOp43
 70
     0
102
RTVSPropertyOp44
 70
     0
102
RTVSPropertyOp45
 70
     1
102
RTVSPropertyOp46
 70
     0
102
RTVSPropertyOp47
 70
     0
102
RTVSPropertyOp48
 70
     0
102
RTVSPropertyOp49
 70
     1
102
RTVSPropertyOp50
 70
     0
102
RTVSPropertyOp51
 70
     0
102
RTVSPropertyOp52
 70
     0
102
RTVSPropertyOp53
 70
     0
102
RTVSPropertyOp54
 70
     0
102
RTVSPropertyOp55
 70
     1
102
RTVSPropertyOp56
 70
     0
102
RTVSPropertyOp57
 70
     0
102
RTVSPropertyOp58
 70
     0
102
RTVSPropertyOp59
 70
     0
102
RTVSPropertyOp60
 70
     0
102
RTVSPropertyOp61
 70
     0
102
RTVSPropertyOp62
 70
     0
  0
XRECORD
  5
B2B3
102
{ACAD_REACTORS
330
B2B2
102
}
330
B2B2
100
AcDbXrecord
280
     1
102
RTVSPost2010Prop28
280
     0
102
RTVSPost2010PropOp28
 70
     1
102
RTVSPost2010Prop29
280
     1
102
RTVSPost2010PropOp29
 70
     1
102
RTVSPost2010Prop30
280
     1
102
RTVSPost2010PropOp30
 70
     1
102
RTVSPost2010Prop31
280
     0
102
RTVSPost2010PropOp31
 70
     1
102
RTVSPost2010Prop32
280
     0
102
RTVSPost2010PropOp32
 70
     1
102
RTVSPost2010Prop33
280
     0
102
RTVSPost2010PropOp33
 70
     1
102
RTVSPost2010Prop34
280
     0
102
RTVSPost2010PropOp34
 70
     1
102
RTVSPost2010Prop35
280
     0
102
RTVSPost2010PropOp35
 70
     1
102
RTVSPost2010Prop36
280
     0
102
RTVSPost2010PropOp36
 70
     1
102
RTVSPost2010Prop37
 90
       50
102
RTVSPost2010PropOp37
 70
     1
102
RTVSPost2010Prop38
140
0.0
102
RTVSPost2010PropOp38
 70
     1
102
RTVSPost2010Prop39
140
1.0
102
RTVSPost2010PropOp39
 70
     1
102
RTVSPost2010Prop40
 90
        0
102
RTVSPost2010PropOp40
 70
     1
102
RTVSPost2010Prop41ColorIndex
 90
       18
102
RTVSPost2010Prop41ColorRGB
 90
        0
102
RTVSPost2010PropOp41
 70
     1
102
RTVSPost2010Prop42
 90
       50
102
RTVSPost2010PropOp42
 70
     1
102
RTVSPost2010Prop43
 90
        3
102
RTVSPost2010PropOp43
 70
     1
102
RTVSPost2010Prop44ColorIndex
 90
        5
102
RTVSPost2010Prop44ColorRGB
 90
      255
102
RTVSPost2010PropOp44
 70
     1
102
RTVSPost2010Prop45
280
     0
102
RTVSPost2010PropOp45
 70
     1
102
RTVSPost2010Prop46
 90
       50
102
RTVSPost2010PropOp46
 70
     1
102
RTVSPost2010Prop47
 90
       50
102
RTVSPost2010PropOp47
 70
     1
102
RTVSPost2010Prop48
 90
       50
102
RTVSPost2010PropOp48
 70
     1
102
RTVSPost2010Prop49
280
     0
102
RTVSPost2010PropOp49
 70
     1
102
RTVSPost2010Prop50
 90
       50
102
RTVSPost2010PropOp50
 70
     1
102
RTVSPost2010Prop51ColorIndex
 90
      256
102
RTVSPost2010Prop51ColorRGB
 90
-16777216
102
RTVSPost2010PropOp51
 70
     0
102
RTVSPost2010Prop52
140
1.0
102
RTVSPost2010PropOp52
 70
     0
102
RTVSPost2010Prop53
 90
        2
102
RTVSPost2010PropOp53
 70
     1
102
RTVSPost2010Prop54
  1
strokes_ogs.tif
102
RTVSPost2010PropOp54
 70
     1
102
RTVSPost2010Prop55
280
     0
102
RTVSPost2010PropOp55
 70
     1
102
RTVSPost2010Prop56
140
1.0
102
RTVSPost2010PropOp56
 70
     1
102
RTVSPost2010Prop57
140
1.0
102
RTVSPost2010PropOp57
 70
     1
102
RTVSPropertyOp0
 70
     1
102
RTVSPropertyOp1
 70
     1
102
RTVSPropertyOp2
 70
     1
102
RTVSPropertyOp3
 70
     1
102
RTVSPropertyOp4
 70
     1
102
RTVSPropertyOp5
 70
     1
102
RTVSPropertyOp6
 70
     1
102
RTVSPropertyOp7
 70
     1
102
RTVSPropertyOp8
 70
     1
102
RTVSPropertyOp9
 70
     1
102
RTVSPropertyOp10
 70
     1
102
RTVSPropertyOp11
 70
     1
102
RTVSPropertyOp12
 70
     1
102
RTVSPropertyOp13
 70
     1
102
RTVSPropertyOp14
 70
     1
102
RTVSPropertyOp15
 70
     1
102
RTVSPropertyOp16
 70
     1
102
RTVSPropertyOp17
 70
     1
102
RTVSPropertyOp18
 70
     1
102
RTVSPropertyOp19
 70
     1
102
RTVSPropertyOp20
 70
     1
102
RTVSPropertyOp21
 70
     1
102
RTVSPropertyOp22
 70
     1
102
RTVSPropertyOp23
 70
     1
102
RTVSPropertyOp24
 70
     1
102
RTVSPropertyOp25
 70
     1
102
RTVSPropertyOp26
 70
     1
102
RTVSPropertyOp27
 70
     1
102
RTVSPropertyOp28
 70
     1
102
RTVSPropertyOp29
 70
     1
102
RTVSPropertyOp30
 70
     1
102
RTVSPropertyOp31
 70
     1
102
RTVSPropertyOp32
 70
     1
102
RTVSPropertyOp33
 70
     1
102
RTVSPropertyOp34
 70
     1
102
RTVSPropertyOp35
 70
     1
102
RTVSPropertyOp36
 70
     1
102
RTVSPropertyOp37
 70
     1
102
RTVSPropertyOp38
 70
     1
102
RTVSPropertyOp39
 70
     1
102
RTVSPropertyOp40
 70
     1
102
RTVSPropertyOp41
 70
     1
102
RTVSPropertyOp42
 70
     1
102
RTVSPropertyOp43
 70
     1
102
RTVSPropertyOp44
 70
     1
102
RTVSPropertyOp45
 70
     1
102
RTVSPropertyOp46
 70
     1
102
RTVSPropertyOp47
 70
     1
102
RTVSPropertyOp48
 70
     1
102
RTVSPropertyOp49
 70
     1
102
RTVSPropertyOp50
 70
     1
102
RTVSPropertyOp51
 70
     0
102
RTVSPropertyOp52
 70
     0
102
RTVSPropertyOp53
 70
     1
102
RTVSPropertyOp54
 70
     1
102
RTVSPropertyOp55
 70
     1
102
RTVSPropertyOp56
 70
     1
102
RTVSPropertyOp57
 70
     1
102
RTVSPropertyOp58
 70
     1
102
RTVSPropertyOp59
 70
     1
102
RTVSPropertyOp60
 70
     1
102
RTVSPropertyOp61
 70
     1
102
RTVSPropertyOp62
 70
     1
  0
XRECORD
  5
B297
102
{ACAD_REACTORS
330
B296
102
}
330
B296
100
AcDbXrecord
280
     1
102
RTVSPost2010Prop28
280
     0
102
RTVSPost2010PropOp28
 70
     1
102
RTVSPost2010Prop29
280
     1
102
RTVSPost2010PropOp29
 70
     1
102
RTVSPost2010Prop30
280
     1
102
RTVSPost2010PropOp30
 70
     1
102
RTVSPost2010Prop31
280
     0
102
RTVSPost2010PropOp31
 70
     1
102
RTVSPost2010Prop32
280
     0
102
RTVSPost2010PropOp32
 70
     1
102
RTVSPost2010Prop33
280
     0
102
RTVSPost2010PropOp33
 70
     1
102
RTVSPost2010Prop34
280
     0
102
RTVSPost2010PropOp34
 70
     1
102
RTVSPost2010Prop35
280
     0
102
RTVSPost2010PropOp35
 70
     1
102
RTVSPost2010Prop36
280
     0
102
RTVSPost2010PropOp36
 70
     1
102
RTVSPost2010Prop37
 90
       50
102
RTVSPost2010PropOp37
 70
     1
102
RTVSPost2010Prop38
140
0.0
102
RTVSPost2010PropOp38
 70
     1
102
RTVSPost2010Prop39
140
1.0
102
RTVSPost2010PropOp39
 70
     1
102
RTVSPost2010Prop40
 90
        0
102
RTVSPost2010PropOp40
 70
     1
102
RTVSPost2010Prop41ColorIndex
 90
       18
102
RTVSPost2010Prop41ColorRGB
 90
        0
102
RTVSPost2010PropOp41
 70
     1
102
RTVSPost2010Prop42
 90
       50
102
RTVSPost2010PropOp42
 70
     1
102
RTVSPost2010Prop43
 90
        3
102
RTVSPost2010PropOp43
 70
     1
102
RTVSPost2010Prop44ColorIndex
 90
        5
102
RTVSPost2010Prop44ColorRGB
 90
      255
102
RTVSPost2010PropOp44
 70
     1
102
RTVSPost2010Prop45
280
     0
102
RTVSPost2010PropOp45
 70
     1
102
RTVSPost2010Prop46
 90
       50
102
RTVSPost2010PropOp46
 70
     1
102
RTVSPost2010Prop47
 90
       50
102
RTVSPost2010PropOp47
 70
     1
102
RTVSPost2010Prop48
 90
       50
102
RTVSPost2010PropOp48
 70
     1
102
RTVSPost2010Prop49
280
     0
102
RTVSPost2010PropOp49
 70
     1
102
RTVSPost2010Prop50
 90
       50
102
RTVSPost2010PropOp50
 70
     1
102
RTVSPost2010Prop51ColorIndex
 90
      256
102
RTVSPost2010Prop51ColorRGB
 90
-16777216
102
RTVSPost2010PropOp51
 70
     0
102
RTVSPost2010Prop52
140
1.0
102
RTVSPost2010PropOp52
 70
     0
102
RTVSPost2010Prop53
 90
        2
102
RTVSPost2010PropOp53
 70
     1
102
RTVSPost2010Prop54
  1
strokes_ogs.tif
102
RTVSPost2010PropOp54
 70
     1
102
RTVSPost2010Prop55
280
     0
102
RTVSPost2010PropOp55
 70
     1
102
RTVSPost2010Prop56
140
1.0
102
RTVSPost2010PropOp56
 70
     1
102
RTVSPost2010Prop57
140
1.0
102
RTVSPost2010PropOp57
 70
     1
102
RTVSPropertyOp0
 70
     1
102
RTVSPropertyOp1
 70
     1
102
RTVSPropertyOp2
 70
     1
102
RTVSPropertyOp3
 70
     1
102
RTVSPropertyOp4
 70
     1
102
RTVSPropertyOp5
 70
     1
102
RTVSPropertyOp6
 70
     1
102
RTVSPropertyOp7
 70
     1
102
RTVSPropertyOp8
 70
     1
102
RTVSPropertyOp9
 70
     1
102
RTVSPropertyOp10
 70
     1
102
RTVSPropertyOp11
 70
     1
102
RTVSPropertyOp12
 70
     1
102
RTVSPropertyOp13
 70
     1
102
RTVSPropertyOp14
 70
     1
102
RTVSPropertyOp15
 70
     1
102
RTVSPropertyOp16
 70
     1
102
RTVSPropertyOp17
 70
     1
102
RTVSPropertyOp18
 70
     1
102
RTVSPropertyOp19
 70
     1
102
RTVSPropertyOp20
 70
     1
102
RTVSPropertyOp21
 70
     1
102
RTVSPropertyOp22
 70
     1
102
RTVSPropertyOp23
 70
     1
102
RTVSPropertyOp24
 70
     1
102
RTVSPropertyOp25
 70
     1
102
RTVSPropertyOp26
 70
     1
102
RTVSPropertyOp27
 70
     1
102
RTVSPropertyOp28
 70
     1
102
RTVSPropertyOp29
 70
     1
102
RTVSPropertyOp30
 70
     1
102
RTVSPropertyOp31
 70
     1
102
RTVSPropertyOp32
 70
     1
102
RTVSPropertyOp33
 70
     1
102
RTVSPropertyOp34
 70
     1
102
RTVSPropertyOp35
 70
     1
102
RTVSPropertyOp36
 70
     1
102
RTVSPropertyOp37
 70
     1
102
RTVSPropertyOp38
 70
     1
102
RTVSPropertyOp39
 70
     1
102
RTVSPropertyOp40
 70
     1
102
RTVSPropertyOp41
 70
     1
102
RTVSPropertyOp42
 70
     1
102
RTVSPropertyOp43
 70
     1
102
RTVSPropertyOp44
 70
     1
102
RTVSPropertyOp45
 70
     1
102
RTVSPropertyOp46
 70
     1
102
RTVSPropertyOp47
 70
     1
102
RTVSPropertyOp48
 70
     1
102
RTVSPropertyOp49
 70
     1
102
RTVSPropertyOp50
 70
     1
102
RTVSPropertyOp51
 70
     0
102
RTVSPropertyOp52
 70
     0
102
RTVSPropertyOp53
 70
     1
102
RTVSPropertyOp54
 70
     1
102
RTVSPropertyOp55
 70
     1
102
RTVSPropertyOp56
 70
     1
102
RTVSPropertyOp57
 70
     1
102
RTVSPropertyOp58
 70
     1
102
RTVSPropertyOp59
 70
     1
102
RTVSPropertyOp60
 70
     1
102
RTVSPropertyOp61
 70
     1
102
RTVSPropertyOp62
 70
     1
  0
XRECORD
  5
B299
102
{ACAD_REACTORS
330
B298
102
}
330
B298
100
AcDbXrecord
280
     1
102
RTVSPost2010Prop28
280
     0
102
RTVSPost2010PropOp28
 70
     1
102
RTVSPost2010Prop29
280
     1
102
RTVSPost2010PropOp29
 70
     1
102
RTVSPost2010Prop30
280
     1
102
RTVSPost2010PropOp30
 70
     1
102
RTVSPost2010Prop31
280
     0
102
RTVSPost2010PropOp31
 70
     1
102
RTVSPost2010Prop32
280
     0
102
RTVSPost2010PropOp32
 70
     1
102
RTVSPost2010Prop33
280
     0
102
RTVSPost2010PropOp33
 70
     1
102
RTVSPost2010Prop34
280
     0
102
RTVSPost2010PropOp34
 70
     1
102
RTVSPost2010Prop35
280
     0
102
RTVSPost2010PropOp35
 70
     1
102
RTVSPost2010Prop36
280
     0
102
RTVSPost2010PropOp36
 70
     1
102
RTVSPost2010Prop37
 90
       50
102
RTVSPost2010PropOp37
 70
     1
102
RTVSPost2010Prop38
140
0.0
102
RTVSPost2010PropOp38
 70
     1
102
RTVSPost2010Prop39
140
1.0
102
RTVSPost2010PropOp39
 70
     1
102
RTVSPost2010Prop40
 90
        0
102
RTVSPost2010PropOp40
 70
     1
102
RTVSPost2010Prop41ColorIndex
 90
       18
102
RTVSPost2010Prop41ColorRGB
 90
        0
102
RTVSPost2010PropOp41
 70
     1
102
RTVSPost2010Prop42
 90
       50
102
RTVSPost2010PropOp42
 70
     1
102
RTVSPost2010Prop43
 90
        3
102
RTVSPost2010PropOp43
 70
     1
102
RTVSPost2010Prop44ColorIndex
 90
        5
102
RTVSPost2010Prop44ColorRGB
 90
      255
102
RTVSPost2010PropOp44
 70
     1
102
RTVSPost2010Prop45
280
     0
102
RTVSPost2010PropOp45
 70
     1
102
RTVSPost2010Prop46
 90
       50
102
RTVSPost2010PropOp46
 70
     1
102
RTVSPost2010Prop47
 90
       50
102
RTVSPost2010PropOp47
 70
     1
102
RTVSPost2010Prop48
 90
       50
102
RTVSPost2010PropOp48
 70
     1
102
RTVSPost2010Prop49
280
     0
102
RTVSPost2010PropOp49
 70
     1
102
RTVSPost2010Prop50
 90
       50
102
RTVSPost2010PropOp50
 70
     1
102
RTVSPost2010Prop51ColorIndex
 90
      256
102
RTVSPost2010Prop51ColorRGB
 90
-16777216
102
RTVSPost2010PropOp51
 70
     0
102
RTVSPost2010Prop52
140
1.0
102
RTVSPost2010PropOp52
 70
     0
102
RTVSPost2010Prop53
 90
        2
102
RTVSPost2010PropOp53
 70
     1
102
RTVSPost2010Prop54
  1
strokes_ogs.tif
102
RTVSPost2010PropOp54
 70
     1
102
RTVSPost2010Prop55
280
     0
102
RTVSPost2010PropOp55
 70
     1
102
RTVSPost2010Prop56
140
1.0
102
RTVSPost2010PropOp56
 70
     1
102
RTVSPost2010Prop57
140
1.0
102
RTVSPost2010PropOp57
 70
     1
102
RTVSPropertyOp0
 70
     1
102
RTVSPropertyOp1
 70
     1
102
RTVSPropertyOp2
 70
     1
102
RTVSPropertyOp3
 70
     1
102
RTVSPropertyOp4
 70
     1
102
RTVSPropertyOp5
 70
     1
102
RTVSPropertyOp6
 70
     1
102
RTVSPropertyOp7
 70
     1
102
RTVSPropertyOp8
 70
     1
102
RTVSPropertyOp9
 70
     1
102
RTVSPropertyOp10
 70
     1
102
RTVSPropertyOp11
 70
     1
102
RTVSPropertyOp12
 70
     1
102
RTVSPropertyOp13
 70
     1
102
RTVSPropertyOp14
 70
     1
102
RTVSPropertyOp15
 70
     1
102
RTVSPropertyOp16
 70
     1
102
RTVSPropertyOp17
 70
     1
102
RTVSPropertyOp18
 70
     1
102
RTVSPropertyOp19
 70
     1
102
RTVSPropertyOp20
 70
     1
102
RTVSPropertyOp21
 70
     1
102
RTVSPropertyOp22
 70
     1
102
RTVSPropertyOp23
 70
     1
102
RTVSPropertyOp24
 70
     1
102
RTVSPropertyOp25
 70
     1
102
RTVSPropertyOp26
 70
     1
102
RTVSPropertyOp27
 70
     1
102
RTVSPropertyOp28
 70
     1
102
RTVSPropertyOp29
 70
     1
102
RTVSPropertyOp30
 70
     1
102
RTVSPropertyOp31
 70
     1
102
RTVSPropertyOp32
 70
     1
102
RTVSPropertyOp33
 70
     1
102
RTVSPropertyOp34
 70
     1
102
RTVSPropertyOp35
 70
     1
102
RTVSPropertyOp36
 70
     1
102
RTVSPropertyOp37
 70
     1
102
RTVSPropertyOp38
 70
     1
102
RTVSPropertyOp39
 70
     1
102
RTVSPropertyOp40
 70
     1
102
RTVSPropertyOp41
 70
     1
102
RTVSPropertyOp42
 70
     1
102
RTVSPropertyOp43
 70
     1
102
RTVSPropertyOp44
 70
     1
102
RTVSPropertyOp45
 70
     1
102
RTVSPropertyOp46
 70
     1
102
RTVSPropertyOp47
 70
     1
102
RTVSPropertyOp48
 70
     1
102
RTVSPropertyOp49
 70
     1
102
RTVSPropertyOp50
 70
     1
102
RTVSPropertyOp51
 70
     0
102
RTVSPropertyOp52
 70
     0
102
RTVSPropertyOp53
 70
     1
102
RTVSPropertyOp54
 70
     1
102
RTVSPropertyOp55
 70
     1
102
RTVSPropertyOp56
 70
     1
102
RTVSPropertyOp57
 70
     1
102
RTVSPropertyOp58
 70
     1
102
RTVSPropertyOp59
 70
     1
102
RTVSPropertyOp60
 70
     1
102
RTVSPropertyOp61
 70
     1
102
RTVSPropertyOp62
 70
     1
  0
XRECORD
  5
B29B
102
{ACAD_REACTORS
330
B29A
102
}
330
B29A
100
AcDbXrecord
280
     1
102
RTVSPost2010Prop28
280
     0
102
RTVSPost2010PropOp28
 70
     1
102
RTVSPost2010Prop29
280
     1
102
RTVSPost2010PropOp29
 70
     1
102
RTVSPost2010Prop30
280
     1
102
RTVSPost2010PropOp30
 70
     1
102
RTVSPost2010Prop31
280
     0
102
RTVSPost2010PropOp31
 70
     1
102
RTVSPost2010Prop32
280
     0
102
RTVSPost2010PropOp32
 70
     1
102
RTVSPost2010Prop33
280
     0
102
RTVSPost2010PropOp33
 70
     1
102
RTVSPost2010Prop34
280
     0
102
RTVSPost2010PropOp34
 70
     1
102
RTVSPost2010Prop35
280
     0
102
RTVSPost2010PropOp35
 70
     1
102
RTVSPost2010Prop36
280
     0
102
RTVSPost2010PropOp36
 70
     1
102
RTVSPost2010Prop37
 90
       50
102
RTVSPost2010PropOp37
 70
     1
102
RTVSPost2010Prop38
140
0.0
102
RTVSPost2010PropOp38
 70
     1
102
RTVSPost2010Prop39
140
1.0
102
RTVSPost2010PropOp39
 70
     1
102
RTVSPost2010Prop40
 90
        0
102
RTVSPost2010PropOp40
 70
     1
102
RTVSPost2010Prop41ColorIndex
 90
       18
102
RTVSPost2010Prop41ColorRGB
 90
        0
102
RTVSPost2010PropOp41
 70
     1
102
RTVSPost2010Prop42
 90
       50
102
RTVSPost2010PropOp42
 70
     1
102
RTVSPost2010Prop43
 90
        3
102
RTVSPost2010PropOp43
 70
     1
102
RTVSPost2010Prop44ColorIndex
 90
        5
102
RTVSPost2010Prop44ColorRGB
 90
      255
102
RTVSPost2010PropOp44
 70
     1
102
RTVSPost2010Prop45
280
     0
102
RTVSPost2010PropOp45
 70
     1
102
RTVSPost2010Prop46
 90
       50
102
RTVSPost2010PropOp46
 70
     1
102
RTVSPost2010Prop47
 90
       50
102
RTVSPost2010PropOp47
 70
     1
102
RTVSPost2010Prop48
 90
       50
102
RTVSPost2010PropOp48
 70
     1
102
RTVSPost2010Prop49
280
     0
102
RTVSPost2010PropOp49
 70
     1
102
RTVSPost2010Prop50
 90
       50
102
RTVSPost2010PropOp50
 70
     1
102
RTVSPost2010Prop51ColorIndex
 90
      256
102
RTVSPost2010Prop51ColorRGB
 90
-16777216
102
RTVSPost2010PropOp51
 70
     0
102
RTVSPost2010Prop52
140
1.0
102
RTVSPost2010PropOp52
 70
     0
102
RTVSPost2010Prop53
 90
        2
102
RTVSPost2010PropOp53
 70
     1
102
RTVSPost2010Prop54
  1
strokes_ogs.tif
102
RTVSPost2010PropOp54
 70
     1
102
RTVSPost2010Prop55
280
     0
102
RTVSPost2010PropOp55
 70
     1
102
RTVSPost2010Prop56
140
1.0
102
RTVSPost2010PropOp56
 70
     1
102
RTVSPost2010Prop57
140
1.0
102
RTVSPost2010PropOp57
 70
     1
102
RTVSPropertyOp0
 70
     1
102
RTVSPropertyOp1
 70
     1
102
RTVSPropertyOp2
 70
     1
102
RTVSPropertyOp3
 70
     1
102
RTVSPropertyOp4
 70
     1
102
RTVSPropertyOp5
 70
     1
102
RTVSPropertyOp6
 70
     1
102
RTVSPropertyOp7
 70
     1
102
RTVSPropertyOp8
 70
     1
102
RTVSPropertyOp9
 70
     1
102
RTVSPropertyOp10
 70
     1
102
RTVSPropertyOp11
 70
     1
102
RTVSPropertyOp12
 70
     1
102
RTVSPropertyOp13
 70
     1
102
RTVSPropertyOp14
 70
     1
102
RTVSPropertyOp15
 70
     1
102
RTVSPropertyOp16
 70
     1
102
RTVSPropertyOp17
 70
     1
102
RTVSPropertyOp18
 70
     1
102
RTVSPropertyOp19
 70
     1
102
RTVSPropertyOp20
 70
     1
102
RTVSPropertyOp21
 70
     1
102
RTVSPropertyOp22
 70
     1
102
RTVSPropertyOp23
 70
     1
102
RTVSPropertyOp24
 70
     1
102
RTVSPropertyOp25
 70
     1
102
RTVSPropertyOp26
 70
     1
102
RTVSPropertyOp27
 70
     1
102
RTVSPropertyOp28
 70
     1
102
RTVSPropertyOp29
 70
     1
102
RTVSPropertyOp30
 70
     1
102
RTVSPropertyOp31
 70
     1
102
RTVSPropertyOp32
 70
     1
102
RTVSPropertyOp33
 70
     1
102
RTVSPropertyOp34
 70
     1
102
RTVSPropertyOp35
 70
     1
102
RTVSPropertyOp36
 70
     1
102
RTVSPropertyOp37
 70
     1
102
RTVSPropertyOp38
 70
     1
102
RTVSPropertyOp39
 70
     1
102
RTVSPropertyOp40
 70
     1
102
RTVSPropertyOp41
 70
     1
102
RTVSPropertyOp42
 70
     1
102
RTVSPropertyOp43
 70
     1
102
RTVSPropertyOp44
 70
     1
102
RTVSPropertyOp45
 70
     1
102
RTVSPropertyOp46
 70
     1
102
RTVSPropertyOp47
 70
     1
102
RTVSPropertyOp48
 70
     1
102
RTVSPropertyOp49
 70
     1
102
RTVSPropertyOp50
 70
     1
102
RTVSPropertyOp51
 70
     0
102
RTVSPropertyOp52
 70
     0
102
RTVSPropertyOp53
 70
     1
102
RTVSPropertyOp54
 70
     1
102
RTVSPropertyOp55
 70
     1
102
RTVSPropertyOp56
 70
     1
102
RTVSPropertyOp57
 70
     1
102
RTVSPropertyOp58
 70
     1
102
RTVSPropertyOp59
 70
     1
102
RTVSPropertyOp60
 70
     1
102
RTVSPropertyOp61
 70
     1
102
RTVSPropertyOp62
 70
     1
  0
XRECORD
  5
B29D
102
{ACAD_REACTORS
330
B29C
102
}
330
B29C
100
AcDbXrecord
280
     1
102
RTVSPost2010Prop28
280
     0
102
RTVSPost2010PropOp28
 70
     1
102
RTVSPost2010Prop29
280
     1
102
RTVSPost2010PropOp29
 70
     1
102
RTVSPost2010Prop30
280
     1
102
RTVSPost2010PropOp30
 70
     1
102
RTVSPost2010Prop31
280
     0
102
RTVSPost2010PropOp31
 70
     1
102
RTVSPost2010Prop32
280
     0
102
RTVSPost2010PropOp32
 70
     1
102
RTVSPost2010Prop33
280
     0
102
RTVSPost2010PropOp33
 70
     1
102
RTVSPost2010Prop34
280
     0
102
RTVSPost2010PropOp34
 70
     1
102
RTVSPost2010Prop35
280
     0
102
RTVSPost2010PropOp35
 70
     1
102
RTVSPost2010Prop36
280
     0
102
RTVSPost2010PropOp36
 70
     1
102
RTVSPost2010Prop37
 90
       50
102
RTVSPost2010PropOp37
 70
     1
102
RTVSPost2010Prop38
140
0.0
102
RTVSPost2010PropOp38
 70
     1
102
RTVSPost2010Prop39
140
1.0
102
RTVSPost2010PropOp39
 70
     1
102
RTVSPost2010Prop40
 90
        0
102
RTVSPost2010PropOp40
 70
     1
102
RTVSPost2010Prop41ColorIndex
 90
       18
102
RTVSPost2010Prop41ColorRGB
 90
        0
102
RTVSPost2010PropOp41
 70
     1
102
RTVSPost2010Prop42
 90
       50
102
RTVSPost2010PropOp42
 70
     1
102
RTVSPost2010Prop43
 90
        3
102
RTVSPost2010PropOp43
 70
     1
102
RTVSPost2010Prop44ColorIndex
 90
        5
102
RTVSPost2010Prop44ColorRGB
 90
      255
102
RTVSPost2010PropOp44
 70
     1
102
RTVSPost2010Prop45
280
     0
102
RTVSPost2010PropOp45
 70
     1
102
RTVSPost2010Prop46
 90
       50
102
RTVSPost2010PropOp46
 70
     1
102
RTVSPost2010Prop47
 90
       50
102
RTVSPost2010PropOp47
 70
     1
102
RTVSPost2010Prop48
 90
       50
102
RTVSPost2010PropOp48
 70
     1
102
RTVSPost2010Prop49
280
     0
102
RTVSPost2010PropOp49
 70
     1
102
RTVSPost2010Prop50
 90
       50
102
RTVSPost2010PropOp50
 70
     1
102
RTVSPost2010Prop51ColorIndex
 90
      256
102
RTVSPost2010Prop51ColorRGB
 90
-16777216
102
RTVSPost2010PropOp51
 70
     0
102
RTVSPost2010Prop52
140
1.0
102
RTVSPost2010PropOp52
 70
     0
102
RTVSPost2010Prop53
 90
        2
102
RTVSPost2010PropOp53
 70
     1
102
RTVSPost2010Prop54
  1
strokes_ogs.tif
102
RTVSPost2010PropOp54
 70
     1
102
RTVSPost2010Prop55
280
     0
102
RTVSPost2010PropOp55
 70
     1
102
RTVSPost2010Prop56
140
1.0
102
RTVSPost2010PropOp56
 70
     1
102
RTVSPost2010Prop57
140
1.0
102
RTVSPost2010PropOp57
 70
     1
102
RTVSPropertyOp0
 70
     1
102
RTVSPropertyOp1
 70
     1
102
RTVSPropertyOp2
 70
     1
102
RTVSPropertyOp3
 70
     1
102
RTVSPropertyOp4
 70
     1
102
RTVSPropertyOp5
 70
     1
102
RTVSPropertyOp6
 70
     1
102
RTVSPropertyOp7
 70
     1
102
RTVSPropertyOp8
 70
     1
102
RTVSPropertyOp9
 70
     1
102
RTVSPropertyOp10
 70
     1
102
RTVSPropertyOp11
 70
     1
102
RTVSPropertyOp12
 70
     1
102
RTVSPropertyOp13
 70
     1
102
RTVSPropertyOp14
 70
     1
102
RTVSPropertyOp15
 70
     1
102
RTVSPropertyOp16
 70
     1
102
RTVSPropertyOp17
 70
     1
102
RTVSPropertyOp18
 70
     1
102
RTVSPropertyOp19
 70
     1
102
RTVSPropertyOp20
 70
     1
102
RTVSPropertyOp21
 70
     1
102
RTVSPropertyOp22
 70
     1
102
RTVSPropertyOp23
 70
     1
102
RTVSPropertyOp24
 70
     1
102
RTVSPropertyOp25
 70
     1
102
RTVSPropertyOp26
 70
     1
102
RTVSPropertyOp27
 70
     1
102
RTVSPropertyOp28
 70
     1
102
RTVSPropertyOp29
 70
     1
102
RTVSPropertyOp30
 70
     1
102
RTVSPropertyOp31
 70
     1
102
RTVSPropertyOp32
 70
     1
102
RTVSPropertyOp33
 70
     1
102
RTVSPropertyOp34
 70
     1
102
RTVSPropertyOp35
 70
     1
102
RTVSPropertyOp36
 70
     1
102
RTVSPropertyOp37
 70
     1
102
RTVSPropertyOp38
 70
     1
102
RTVSPropertyOp39
 70
     1
102
RTVSPropertyOp40
 70
     1
102
RTVSPropertyOp41
 70
     1
102
RTVSPropertyOp42
 70
     1
102
RTVSPropertyOp43
 70
     1
102
RTVSPropertyOp44
 70
     1
102
RTVSPropertyOp45
 70
     1
102
RTVSPropertyOp46
 70
     1
102
RTVSPropertyOp47
 70
     1
102
RTVSPropertyOp48
 70
     1
102
RTVSPropertyOp49
 70
     1
102
RTVSPropertyOp50
 70
     1
102
RTVSPropertyOp51
 70
     0
102
RTVSPropertyOp52
 70
     0
102
RTVSPropertyOp53
 70
     1
102
RTVSPropertyOp54
 70
     1
102
RTVSPropertyOp55
 70
     1
102
RTVSPropertyOp56
 70
     1
102
RTVSPropertyOp57
 70
     1
102
RTVSPropertyOp58
 70
     1
102
RTVSPropertyOp59
 70
     1
102
RTVSPropertyOp60
 70
     1
102
RTVSPropertyOp61
 70
     1
102
RTVSPropertyOp62
 70
     1
  0
XRECORD
  5
B2A5
102
{ACAD_REACTORS
330
B2A4
102
}
330
B2A4
100
AcDbXrecord
280
     1
102
RTVSPost2010Prop28
280
     0
102
RTVSPost2010PropOp28
 70
     1
102
RTVSPost2010Prop29
280
     1
102
RTVSPost2010PropOp29
 70
     1
102
RTVSPost2010Prop30
280
     1
102
RTVSPost2010PropOp30
 70
     1
102
RTVSPost2010Prop31
280
     0
102
RTVSPost2010PropOp31
 70
     1
102
RTVSPost2010Prop32
280
     0
102
RTVSPost2010PropOp32
 70
     1
102
RTVSPost2010Prop33
280
     0
102
RTVSPost2010PropOp33
 70
     1
102
RTVSPost2010Prop34
280
     0
102
RTVSPost2010PropOp34
 70
     1
102
RTVSPost2010Prop35
280
     0
102
RTVSPost2010PropOp35
 70
     1
102
RTVSPost2010Prop36
280
     0
102
RTVSPost2010PropOp36
 70
     1
102
RTVSPost2010Prop37
 90
       50
102
RTVSPost2010PropOp37
 70
     1
102
RTVSPost2010Prop38
140
0.0
102
RTVSPost2010PropOp38
 70
     1
102
RTVSPost2010Prop39
140
1.0
102
RTVSPost2010PropOp39
 70
     1
102
RTVSPost2010Prop40
 90
        0
102
RTVSPost2010PropOp40
 70
     1
102
RTVSPost2010Prop41ColorIndex
 90
       18
102
RTVSPost2010Prop41ColorRGB
 90
        0
102
RTVSPost2010PropOp41
 70
     1
102
RTVSPost2010Prop42
 90
       50
102
RTVSPost2010PropOp42
 70
     1
102
RTVSPost2010Prop43
 90
        3
102
RTVSPost2010PropOp43
 70
     1
102
RTVSPost2010Prop44ColorIndex
 90
        5
102
RTVSPost2010Prop44ColorRGB
 90
      255
102
RTVSPost2010PropOp44
 70
     1
102
RTVSPost2010Prop45
280
     0
102
RTVSPost2010PropOp45
 70
     1
102
RTVSPost2010Prop46
 90
       50
102
RTVSPost2010PropOp46
 70
     1
102
RTVSPost2010Prop47
 90
       50
102
RTVSPost2010PropOp47
 70
     1
102
RTVSPost2010Prop48
 90
       50
102
RTVSPost2010PropOp48
 70
     1
102
RTVSPost2010Prop49
280
     0
102
RTVSPost2010PropOp49
 70
     1
102
RTVSPost2010Prop50
 90
       50
102
RTVSPost2010PropOp50
 70
     1
102
RTVSPost2010Prop51ColorIndex
 90
      256
102
RTVSPost2010Prop51ColorRGB
 90
-16777216
102
RTVSPost2010PropOp51
 70
     0
102
RTVSPost2010Prop52
140
1.0
102
RTVSPost2010PropOp52
 70
     0
102
RTVSPost2010Prop53
 90
        2
102
RTVSPost2010PropOp53
 70
     1
102
RTVSPost2010Prop54
  1
strokes_ogs.tif
102
RTVSPost2010PropOp54
 70
     1
102
RTVSPost2010Prop55
280
     0
102
RTVSPost2010PropOp55
 70
     1
102
RTVSPost2010Prop56
140
1.0
102
RTVSPost2010PropOp56
 70
     1
102
RTVSPost2010Prop57
140
1.0
102
RTVSPost2010PropOp57
 70
     1
102
RTVSPropertyOp0
 70
     1
102
RTVSPropertyOp1
 70
     1
102
RTVSPropertyOp2
 70
     1
102
RTVSPropertyOp3
 70
     1
102
RTVSPropertyOp4
 70
     1
102
RTVSPropertyOp5
 70
     1
102
RTVSPropertyOp6
 70
     1
102
RTVSPropertyOp7
 70
     1
102
RTVSPropertyOp8
 70
     1
102
RTVSPropertyOp9
 70
     1
102
RTVSPropertyOp10
 70
     1
102
RTVSPropertyOp11
 70
     1
102
RTVSPropertyOp12
 70
     1
102
RTVSPropertyOp13
 70
     1
102
RTVSPropertyOp14
 70
     1
102
RTVSPropertyOp15
 70
     1
102
RTVSPropertyOp16
 70
     1
102
RTVSPropertyOp17
 70
     1
102
RTVSPropertyOp18
 70
     1
102
RTVSPropertyOp19
 70
     1
102
RTVSPropertyOp20
 70
     1
102
RTVSPropertyOp21
 70
     1
102
RTVSPropertyOp22
 70
     1
102
RTVSPropertyOp23
 70
     1
102
RTVSPropertyOp24
 70
     1
102
RTVSPropertyOp25
 70
     1
102
RTVSPropertyOp26
 70
     1
102
RTVSPropertyOp27
 70
     1
102
RTVSPropertyOp28
 70
     1
102
RTVSPropertyOp29
 70
     1
102
RTVSPropertyOp30
 70
     1
102
RTVSPropertyOp31
 70
     1
102
RTVSPropertyOp32
 70
     1
102
RTVSPropertyOp33
 70
     1
102
RTVSPropertyOp34
 70
     1
102
RTVSPropertyOp35
 70
     1
102
RTVSPropertyOp36
 70
     1
102
RTVSPropertyOp37
 70
     1
102
RTVSPropertyOp38
 70
     1
102
RTVSPropertyOp39
 70
     1
102
RTVSPropertyOp40
 70
     1
102
RTVSPropertyOp41
 70
     1
102
RTVSPropertyOp42
 70
     1
102
RTVSPropertyOp43
 70
     1
102
RTVSPropertyOp44
 70
     1
102
RTVSPropertyOp45
 70
     1
102
RTVSPropertyOp46
 70
     1
102
RTVSPropertyOp47
 70
     1
102
RTVSPropertyOp48
 70
     1
102
RTVSPropertyOp49
 70
     1
102
RTVSPropertyOp50
 70
     1
102
RTVSPropertyOp51
 70
     0
102
RTVSPropertyOp52
 70
     0
102
RTVSPropertyOp53
 70
     1
102
RTVSPropertyOp54
 70
     1
102
RTVSPropertyOp55
 70
     1
102
RTVSPropertyOp56
 70
     1
102
RTVSPropertyOp57
 70
     1
102
RTVSPropertyOp58
 70
     1
102
RTVSPropertyOp59
 70
     1
102
RTVSPropertyOp60
 70
     1
102
RTVSPropertyOp61
 70
     1
102
RTVSPropertyOp62
 70
     1
  0
XRECORD
  5
B2C1
102
{ACAD_REACTORS
330
B2C0
102
}
330
B2C0
100
AcDbXrecord
280
     1
102
RTVSPost2010Prop28
280
     0
102
RTVSPost2010PropOp28
 70
     1
102
RTVSPost2010Prop29
280
     1
102
RTVSPost2010PropOp29
 70
     1
102
RTVSPost2010Prop30
280
     1
102
RTVSPost2010PropOp30
 70
     1
102
RTVSPost2010Prop31
280
     0
102
RTVSPost2010PropOp31
 70
     1
102
RTVSPost2010Prop32
280
     0
102
RTVSPost2010PropOp32
 70
     1
102
RTVSPost2010Prop33
280
     0
102
RTVSPost2010PropOp33
 70
     1
102
RTVSPost2010Prop34
280
     0
102
RTVSPost2010PropOp34
 70
     1
102
RTVSPost2010Prop35
280
     0
102
RTVSPost2010PropOp35
 70
     1
102
RTVSPost2010Prop36
280
     0
102
RTVSPost2010PropOp36
 70
     1
102
RTVSPost2010Prop37
 90
       50
102
RTVSPost2010PropOp37
 70
     0
102
RTVSPost2010Prop38
140
0.0
102
RTVSPost2010PropOp38
 70
     0
102
RTVSPost2010Prop39
140
1.0
102
RTVSPost2010PropOp39
 70
     0
102
RTVSPost2010Prop40
 90
        0
102
RTVSPost2010PropOp40
 70
     0
102
RTVSPost2010Prop41ColorIndex
 90
       18
102
RTVSPost2010Prop41ColorRGB
 90
        0
102
RTVSPost2010PropOp41
 70
     0
102
RTVSPost2010Prop42
 90
       50
102
RTVSPost2010PropOp42
 70
     0
102
RTVSPost2010Prop43
 90
        3
102
RTVSPost2010PropOp43
 70
     0
102
RTVSPost2010Prop44ColorIndex
 90
        5
102
RTVSPost2010Prop44ColorRGB
 90
      255
102
RTVSPost2010PropOp44
 70
     0
102
RTVSPost2010Prop45
280
     0
102
RTVSPost2010PropOp45
 70
     1
102
RTVSPost2010Prop46
 90
       50
102
RTVSPost2010PropOp46
 70
     0
102
RTVSPost2010Prop47
 90
       50
102
RTVSPost2010PropOp47
 70
     0
102
RTVSPost2010Prop48
 90
       50
102
RTVSPost2010PropOp48
 70
     0
102
RTVSPost2010Prop49
280
     0
102
RTVSPost2010PropOp49
 70
     1
102
RTVSPost2010Prop50
 90
       50
102
RTVSPost2010PropOp50
 70
     0
102
RTVSPost2010Prop51ColorIndex
 90
      256
102
RTVSPost2010Prop51ColorRGB
 90
-16777216
102
RTVSPost2010PropOp51
 70
     0
102
RTVSPost2010Prop52
140
1.0
102
RTVSPost2010PropOp52
 70
     0
102
RTVSPost2010Prop53
 90
        2
102
RTVSPost2010PropOp53
 70
     0
102
RTVSPost2010Prop54
  1
strokes_ogs.tif
102
RTVSPost2010PropOp54
 70
     0
102
RTVSPost2010Prop55
280
     0
102
RTVSPost2010PropOp55
 70
     1
102
RTVSPost2010Prop56
140
1.0
102
RTVSPost2010PropOp56
 70
     0
102
RTVSPost2010Prop57
140
1.0
102
RTVSPost2010PropOp57
 70
     0
102
RTVSPropertyOp0
 70
     0
102
RTVSPropertyOp1
 70
     0
102
RTVSPropertyOp2
 70
     0
102
RTVSPropertyOp3
 70
     0
102
RTVSPropertyOp4
 70
     0
102
RTVSPropertyOp5
 70
     0
102
RTVSPropertyOp6
 70
     0
102
RTVSPropertyOp7
 70
     0
102
RTVSPropertyOp8
 70
     0
102
RTVSPropertyOp9
 70
     0
102
RTVSPropertyOp10
 70
     0
102
RTVSPropertyOp11
 70
     0
102
RTVSPropertyOp12
 70
     0
102
RTVSPropertyOp13
 70
     0
102
RTVSPropertyOp14
 70
     2
102
RTVSPropertyOp15
 70
     0
102
RTVSPropertyOp16
 70
     0
102
RTVSPropertyOp17
 70
     0
102
RTVSPropertyOp18
 70
     0
102
RTVSPropertyOp19
 70
     0
102
RTVSPropertyOp20
 70
     0
102
RTVSPropertyOp21
 70
     0
102
RTVSPropertyOp22
 70
     0
102
RTVSPropertyOp23
 70
     0
102
RTVSPropertyOp24
 70
     0
102
RTVSPropertyOp25
 70
     0
102
RTVSPropertyOp26
 70
     0
102
RTVSPropertyOp27
 70
     0
102
RTVSPropertyOp28
 70
     1
102
RTVSPropertyOp29
 70
     1
102
RTVSPropertyOp30
 70
     1
102
RTVSPropertyOp31
 70
     1
102
RTVSPropertyOp32
 70
     1
102
RTVSPropertyOp33
 70
     1
102
RTVSPropertyOp34
 70
     1
102
RTVSPropertyOp35
 70
     1
102
RTVSPropertyOp36
 70
     1
102
RTVSPropertyOp37
 70
     0
102
RTVSPropertyOp38
 70
     0
102
RTVSPropertyOp39
 70
     0
102
RTVSPropertyOp40
 70
     0
102
RTVSPropertyOp41
 70
     0
102
RTVSPropertyOp42
 70
     0
102
RTVSPropertyOp43
 70
     0
102
RTVSPropertyOp44
 70
     0
102
RTVSPropertyOp45
 70
     1
102
RTVSPropertyOp46
 70
     0
102
RTVSPropertyOp47
 70
     0
102
RTVSPropertyOp48
 70
     0
102
RTVSPropertyOp49
 70
     1
102
RTVSPropertyOp50
 70
     0
102
RTVSPropertyOp51
 70
     0
102
RTVSPropertyOp52
 70
     0
102
RTVSPropertyOp53
 70
     0
102
RTVSPropertyOp54
 70
     0
102
RTVSPropertyOp55
 70
     1
102
RTVSPropertyOp56
 70
     0
102
RTVSPropertyOp57
 70
     0
102
RTVSPropertyOp58
 70
     0
102
RTVSPropertyOp59
 70
     0
102
RTVSPropertyOp60
 70
     0
102
RTVSPropertyOp61
 70
     0
102
RTVSPropertyOp62
 70
     0
  0
XRECORD
  5
B2B1
102
{ACAD_REACTORS
330
B2B0
102
}
330
B2B0
100
AcDbXrecord
280
     1
102
RTVSPost2010Prop28
280
     0
102
RTVSPost2010PropOp28
 70
     1
102
RTVSPost2010Prop29
280
     1
102
RTVSPost2010PropOp29
 70
     1
102
RTVSPost2010Prop30
280
     1
102
RTVSPost2010PropOp30
 70
     1
102
RTVSPost2010Prop31
280
     0
102
RTVSPost2010PropOp31
 70
     1
102
RTVSPost2010Prop32
280
     0
102
RTVSPost2010PropOp32
 70
     1
102
RTVSPost2010Prop33
280
     0
102
RTVSPost2010PropOp33
 70
     1
102
RTVSPost2010Prop34
280
     0
102
RTVSPost2010PropOp34
 70
     1
102
RTVSPost2010Prop35
280
     0
102
RTVSPost2010PropOp35
 70
     1
102
RTVSPost2010Prop36
280
     0
102
RTVSPost2010PropOp36
 70
     1
102
RTVSPost2010Prop37
 90
       50
102
RTVSPost2010PropOp37
 70
     1
102
RTVSPost2010Prop38
140
0.0
102
RTVSPost2010PropOp38
 70
     1
102
RTVSPost2010Prop39
140
1.0
102
RTVSPost2010PropOp39
 70
     1
102
RTVSPost2010Prop40
 90
        0
102
RTVSPost2010PropOp40
 70
     1
102
RTVSPost2010Prop41ColorIndex
 90
       18
102
RTVSPost2010Prop41ColorRGB
 90
        0
102
RTVSPost2010PropOp41
 70
     1
102
RTVSPost2010Prop42
 90
       50
102
RTVSPost2010PropOp42
 70
     1
102
RTVSPost2010Prop43
 90
        3
102
RTVSPost2010PropOp43
 70
     1
102
RTVSPost2010Prop44ColorIndex
 90
        5
102
RTVSPost2010Prop44ColorRGB
 90
      255
102
RTVSPost2010PropOp44
 70
     1
102
RTVSPost2010Prop45
280
     0
102
RTVSPost2010PropOp45
 70
     1
102
RTVSPost2010Prop46
 90
       50
102
RTVSPost2010PropOp46
 70
     1
102
RTVSPost2010Prop47
 90
       50
102
RTVSPost2010PropOp47
 70
     1
102
RTVSPost2010Prop48
 90
       50
102
RTVSPost2010PropOp48
 70
     1
102
RTVSPost2010Prop49
280
     0
102
RTVSPost2010PropOp49
 70
     1
102
RTVSPost2010Prop50
 90
       50
102
RTVSPost2010PropOp50
 70
     1
102
RTVSPost2010Prop51ColorIndex
 90
      256
102
RTVSPost2010Prop51ColorRGB
 90
-16777216
102
RTVSPost2010PropOp51
 70
     0
102
RTVSPost2010Prop52
140
1.0
102
RTVSPost2010PropOp52
 70
     0
102
RTVSPost2010Prop53
 90
        2
102
RTVSPost2010PropOp53
 70
     1
102
RTVSPost2010Prop54
  1
strokes_ogs.tif
102
RTVSPost2010PropOp54
 70
     1
102
RTVSPost2010Prop55
280
     0
102
RTVSPost2010PropOp55
 70
     1
102
RTVSPost2010Prop56
140
1.0
102
RTVSPost2010PropOp56
 70
     1
102
RTVSPost2010Prop57
140
1.0
102
RTVSPost2010PropOp57
 70
     1
102
RTVSPropertyOp0
 70
     1
102
RTVSPropertyOp1
 70
     1
102
RTVSPropertyOp2
 70
     1
102
RTVSPropertyOp3
 70
     1
102
RTVSPropertyOp4
 70
     1
102
RTVSPropertyOp5
 70
     1
102
RTVSPropertyOp6
 70
     1
102
RTVSPropertyOp7
 70
     1
102
RTVSPropertyOp8
 70
     1
102
RTVSPropertyOp9
 70
     1
102
RTVSPropertyOp10
 70
     1
102
RTVSPropertyOp11
 70
     1
102
RTVSPropertyOp12
 70
     1
102
RTVSPropertyOp13
 70
     1
102
RTVSPropertyOp14
 70
     1
102
RTVSPropertyOp15
 70
     1
102
RTVSPropertyOp16
 70
     1
102
RTVSPropertyOp17
 70
     1
102
RTVSPropertyOp18
 70
     1
102
RTVSPropertyOp19
 70
     1
102
RTVSPropertyOp20
 70
     1
102
RTVSPropertyOp21
 70
     1
102
RTVSPropertyOp22
 70
     1
102
RTVSPropertyOp23
 70
     1
102
RTVSPropertyOp24
 70
     1
102
RTVSPropertyOp25
 70
     1
102
RTVSPropertyOp26
 70
     1
102
RTVSPropertyOp27
 70
     1
102
RTVSPropertyOp28
 70
     1
102
RTVSPropertyOp29
 70
     1
102
RTVSPropertyOp30
 70
     1
102
RTVSPropertyOp31
 70
     1
102
RTVSPropertyOp32
 70
     1
102
RTVSPropertyOp33
 70
     1
102
RTVSPropertyOp34
 70
     1
102
RTVSPropertyOp35
 70
     1
102
RTVSPropertyOp36
 70
     1
102
RTVSPropertyOp37
 70
     1
102
RTVSPropertyOp38
 70
     1
102
RTVSPropertyOp39
 70
     1
102
RTVSPropertyOp40
 70
     1
102
RTVSPropertyOp41
 70
     1
102
RTVSPropertyOp42
 70
     1
102
RTVSPropertyOp43
 70
     1
102
RTVSPropertyOp44
 70
     1
102
RTVSPropertyOp45
 70
     1
102
RTVSPropertyOp46
 70
     1
102
RTVSPropertyOp47
 70
     1
102
RTVSPropertyOp48
 70
     1
102
RTVSPropertyOp49
 70
     1
102
RTVSPropertyOp50
 70
     1
102
RTVSPropertyOp51
 70
     0
102
RTVSPropertyOp52
 70
     0
102
RTVSPropertyOp53
 70
     1
102
RTVSPropertyOp54
 70
     1
102
RTVSPropertyOp55
 70
     1
102
RTVSPropertyOp56
 70
     1
102
RTVSPropertyOp57
 70
     1
102
RTVSPropertyOp58
 70
     1
102
RTVSPropertyOp59
 70
     1
102
RTVSPropertyOp60
 70
     1
102
RTVSPropertyOp61
 70
     1
102
RTVSPropertyOp62
 70
     1
  0
XRECORD
  5
B2C3
102
{ACAD_REACTORS
330
B2C2
102
}
330
B2C2
100
AcDbXrecord
280
     1
102
RTVSPost2010Prop28
280
     0
102
RTVSPost2010PropOp28
 70
     1
102
RTVSPost2010Prop29
280
     1
102
RTVSPost2010PropOp29
 70
     1
102
RTVSPost2010Prop30
280
     1
102
RTVSPost2010PropOp30
 70
     1
102
RTVSPost2010Prop31
280
     0
102
RTVSPost2010PropOp31
 70
     1
102
RTVSPost2010Prop32
280
     0
102
RTVSPost2010PropOp32
 70
     1
102
RTVSPost2010Prop33
280
     0
102
RTVSPost2010PropOp33
 70
     1
102
RTVSPost2010Prop34
280
     0
102
RTVSPost2010PropOp34
 70
     1
102
RTVSPost2010Prop35
280
     0
102
RTVSPost2010PropOp35
 70
     1
102
RTVSPost2010Prop36
280
     0
102
RTVSPost2010PropOp36
 70
     1
102
RTVSPost2010Prop37
 90
       50
102
RTVSPost2010PropOp37
 70
     0
102
RTVSPost2010Prop38
140
0.0
102
RTVSPost2010PropOp38
 70
     0
102
RTVSPost2010Prop39
140
1.0
102
RTVSPost2010PropOp39
 70
     0
102
RTVSPost2010Prop40
 90
        0
102
RTVSPost2010PropOp40
 70
     0
102
RTVSPost2010Prop41ColorIndex
 90
       18
102
RTVSPost2010Prop41ColorRGB
 90
        0
102
RTVSPost2010PropOp41
 70
     0
102
RTVSPost2010Prop42
 90
       50
102
RTVSPost2010PropOp42
 70
     0
102
RTVSPost2010Prop43
 90
        3
102
RTVSPost2010PropOp43
 70
     0
102
RTVSPost2010Prop44ColorIndex
 90
        5
102
RTVSPost2010Prop44ColorRGB
 90
      255
102
RTVSPost2010PropOp44
 70
     0
102
RTVSPost2010Prop45
280
     0
102
RTVSPost2010PropOp45
 70
     1
102
RTVSPost2010Prop46
 90
       50
102
RTVSPost2010PropOp46
 70
     0
102
RTVSPost2010Prop47
 90
       50
102
RTVSPost2010PropOp47
 70
     0
102
RTVSPost2010Prop48
 90
       50
102
RTVSPost2010PropOp48
 70
     0
102
RTVSPost2010Prop49
280
     0
102
RTVSPost2010PropOp49
 70
     1
102
RTVSPost2010Prop50
 90
       50
102
RTVSPost2010PropOp50
 70
     0
102
RTVSPost2010Prop51ColorIndex
 90
      256
102
RTVSPost2010Prop51ColorRGB
 90
-16777216
102
RTVSPost2010PropOp51
 70
     0
102
RTVSPost2010Prop52
140
1.0
102
RTVSPost2010PropOp52
 70
     0
102
RTVSPost2010Prop53
 90
        2
102
RTVSPost2010PropOp53
 70
     0
102
RTVSPost2010Prop54
  1
strokes_ogs.tif
102
RTVSPost2010PropOp54
 70
     0
102
RTVSPost2010Prop55
280
     0
102
RTVSPost2010PropOp55
 70
     1
102
RTVSPost2010Prop56
140
1.0
102
RTVSPost2010PropOp56
 70
     0
102
RTVSPost2010Prop57
140
1.0
102
RTVSPost2010PropOp57
 70
     0
102
RTVSPropertyOp0
 70
     0
102
RTVSPropertyOp1
 70
     0
102
RTVSPropertyOp2
 70
     0
102
RTVSPropertyOp3
 70
     0
102
RTVSPropertyOp4
 70
     0
102
RTVSPropertyOp5
 70
     0
102
RTVSPropertyOp6
 70
     0
102
RTVSPropertyOp7
 70
     0
102
RTVSPropertyOp8
 70
     0
102
RTVSPropertyOp9
 70
     0
102
RTVSPropertyOp10
 70
     0
102
RTVSPropertyOp11
 70
     0
102
RTVSPropertyOp12
 70
     0
102
RTVSPropertyOp13
 70
     0
102
RTVSPropertyOp14
 70
     2
102
RTVSPropertyOp15
 70
     0
102
RTVSPropertyOp16
 70
     0
102
RTVSPropertyOp17
 70
     0
102
RTVSPropertyOp18
 70
     0
102
RTVSPropertyOp19
 70
     0
102
RTVSPropertyOp20
 70
     0
102
RTVSPropertyOp21
 70
     0
102
RTVSPropertyOp22
 70
     0
102
RTVSPropertyOp23
 70
     0
102
RTVSPropertyOp24
 70
     0
102
RTVSPropertyOp25
 70
     0
102
RTVSPropertyOp26
 70
     0
102
RTVSPropertyOp27
 70
     0
102
RTVSPropertyOp28
 70
     1
102
RTVSPropertyOp29
 70
     1
102
RTVSPropertyOp30
 70
     1
102
RTVSPropertyOp31
 70
     1
102
RTVSPropertyOp32
 70
     1
102
RTVSPropertyOp33
 70
     1
102
RTVSPropertyOp34
 70
     1
102
RTVSPropertyOp35
 70
     1
102
RTVSPropertyOp36
 70
     1
102
RTVSPropertyOp37
 70
     0
102
RTVSPropertyOp38
 70
     0
102
RTVSPropertyOp39
 70
     0
102
RTVSPropertyOp40
 70
     0
102
RTVSPropertyOp41
 70
     0
102
RTVSPropertyOp42
 70
     0
102
RTVSPropertyOp43
 70
     0
102
RTVSPropertyOp44
 70
     0
102
RTVSPropertyOp45
 70
     1
102
RTVSPropertyOp46
 70
     0
102
RTVSPropertyOp47
 70
     0
102
RTVSPropertyOp48
 70
     0
102
RTVSPropertyOp49
 70
     1
102
RTVSPropertyOp50
 70
     0
102
RTVSPropertyOp51
 70
     0
102
RTVSPropertyOp52
 70
     0
102
RTVSPropertyOp53
 70
     0
102
RTVSPropertyOp54
 70
     0
102
RTVSPropertyOp55
 70
     1
102
RTVSPropertyOp56
 70
     0
102
RTVSPropertyOp57
 70
     0
102
RTVSPropertyOp58
 70
     0
102
RTVSPropertyOp59
 70
     0
102
RTVSPropertyOp60
 70
     0
102
RTVSPropertyOp61
 70
     0
102
RTVSPropertyOp62
 70
     0
  0
XRECORD
  5
B2A9
102
{ACAD_REACTORS
330
B2A8
102
}
330
B2A8
100
AcDbXrecord
280
     1
102
RTVSPost2010Prop28
280
     0
102
RTVSPost2010PropOp28
 70
     1
102
RTVSPost2010Prop29
280
     1
102
RTVSPost2010PropOp29
 70
     1
102
RTVSPost2010Prop30
280
     1
102
RTVSPost2010PropOp30
 70
     1
102
RTVSPost2010Prop31
280
     0
102
RTVSPost2010PropOp31
 70
     1
102
RTVSPost2010Prop32
280
     0
102
RTVSPost2010PropOp32
 70
     1
102
RTVSPost2010Prop33
280
     0
102
RTVSPost2010PropOp33
 70
     1
102
RTVSPost2010Prop34
280
     0
102
RTVSPost2010PropOp34
 70
     1
102
RTVSPost2010Prop35
280
     0
102
RTVSPost2010PropOp35
 70
     1
102
RTVSPost2010Prop36
280
     0
102
RTVSPost2010PropOp36
 70
     1
102
RTVSPost2010Prop37
 90
       50
102
RTVSPost2010PropOp37
 70
     1
102
RTVSPost2010Prop38
140
0.0
102
RTVSPost2010PropOp38
 70
     1
102
RTVSPost2010Prop39
140
1.0
102
RTVSPost2010PropOp39
 70
     1
102
RTVSPost2010Prop40
 90
        0
102
RTVSPost2010PropOp40
 70
     1
102
RTVSPost2010Prop41ColorIndex
 90
       18
102
RTVSPost2010Prop41ColorRGB
 90
        0
102
RTVSPost2010PropOp41
 70
     1
102
RTVSPost2010Prop42
 90
       50
102
RTVSPost2010PropOp42
 70
     1
102
RTVSPost2010Prop43
 90
        3
102
RTVSPost2010PropOp43
 70
     1
102
RTVSPost2010Prop44ColorIndex
 90
        5
102
RTVSPost2010Prop44ColorRGB
 90
      255
102
RTVSPost2010PropOp44
 70
     1
102
RTVSPost2010Prop45
280
     0
102
RTVSPost2010PropOp45
 70
     1
102
RTVSPost2010Prop46
 90
       50
102
RTVSPost2010PropOp46
 70
     1
102
RTVSPost2010Prop47
 90
       50
102
RTVSPost2010PropOp47
 70
     1
102
RTVSPost2010Prop48
 90
       50
102
RTVSPost2010PropOp48
 70
     1
102
RTVSPost2010Prop49
280
     0
102
RTVSPost2010PropOp49
 70
     1
102
RTVSPost2010Prop50
 90
       50
102
RTVSPost2010PropOp50
 70
     1
102
RTVSPost2010Prop51ColorIndex
 90
      256
102
RTVSPost2010Prop51ColorRGB
 90
-16777216
102
RTVSPost2010PropOp51
 70
     0
102
RTVSPost2010Prop52
140
1.0
102
RTVSPost2010PropOp52
 70
     0
102
RTVSPost2010Prop53
 90
        2
102
RTVSPost2010PropOp53
 70
     1
102
RTVSPost2010Prop54
  1
strokes_ogs.tif
102
RTVSPost2010PropOp54
 70
     1
102
RTVSPost2010Prop55
280
     0
102
RTVSPost2010PropOp55
 70
     1
102
RTVSPost2010Prop56
140
1.0
102
RTVSPost2010PropOp56
 70
     1
102
RTVSPost2010Prop57
140
1.0
102
RTVSPost2010PropOp57
 70
     1
102
RTVSPropertyOp0
 70
     1
102
RTVSPropertyOp1
 70
     1
102
RTVSPropertyOp2
 70
     1
102
RTVSPropertyOp3
 70
     1
102
RTVSPropertyOp4
 70
     1
102
RTVSPropertyOp5
 70
     1
102
RTVSPropertyOp6
 70
     1
102
RTVSPropertyOp7
 70
     1
102
RTVSPropertyOp8
 70
     1
102
RTVSPropertyOp9
 70
     1
102
RTVSPropertyOp10
 70
     1
102
RTVSPropertyOp11
 70
     1
102
RTVSPropertyOp12
 70
     1
102
RTVSPropertyOp13
 70
     1
102
RTVSPropertyOp14
 70
     1
102
RTVSPropertyOp15
 70
     1
102
RTVSPropertyOp16
 70
     1
102
RTVSPropertyOp17
 70
     1
102
RTVSPropertyOp18
 70
     1
102
RTVSPropertyOp19
 70
     1
102
RTVSPropertyOp20
 70
     1
102
RTVSPropertyOp21
 70
     1
102
RTVSPropertyOp22
 70
     1
102
RTVSPropertyOp23
 70
     1
102
RTVSPropertyOp24
 70
     1
102
RTVSPropertyOp25
 70
     1
102
RTVSPropertyOp26
 70
     1
102
RTVSPropertyOp27
 70
     1
102
RTVSPropertyOp28
 70
     1
102
RTVSPropertyOp29
 70
     1
102
RTVSPropertyOp30
 70
     1
102
RTVSPropertyOp31
 70
     1
102
RTVSPropertyOp32
 70
     1
102
RTVSPropertyOp33
 70
     1
102
RTVSPropertyOp34
 70
     1
102
RTVSPropertyOp35
 70
     1
102
RTVSPropertyOp36
 70
     1
102
RTVSPropertyOp37
 70
     1
102
RTVSPropertyOp38
 70
     1
102
RTVSPropertyOp39
 70
     1
102
RTVSPropertyOp40
 70
     1
102
RTVSPropertyOp41
 70
     1
102
RTVSPropertyOp42
 70
     1
102
RTVSPropertyOp43
 70
     1
102
RTVSPropertyOp44
 70
     1
102
RTVSPropertyOp45
 70
     1
102
RTVSPropertyOp46
 70
     1
102
RTVSPropertyOp47
 70
     1
102
RTVSPropertyOp48
 70
     1
102
RTVSPropertyOp49
 70
     1
102
RTVSPropertyOp50
 70
     1
102
RTVSPropertyOp51
 70
     0
102
RTVSPropertyOp52
 70
     0
102
RTVSPropertyOp53
 70
     1
102
RTVSPropertyOp54
 70
     1
102
RTVSPropertyOp55
 70
     1
102
RTVSPropertyOp56
 70
     1
102
RTVSPropertyOp57
 70
     1
102
RTVSPropertyOp58
 70
     1
102
RTVSPropertyOp59
 70
     1
102
RTVSPropertyOp60
 70
     1
102
RTVSPropertyOp61
 70
     1
102
RTVSPropertyOp62
 70
     1
  0
XRECORD
  5
B2BF
102
{ACAD_REACTORS
330
B2BE
102
}
330
B2BE
100
AcDbXrecord
280
     1
102
RTVSPost2010Prop28
280
     0
102
RTVSPost2010PropOp28
 70
     1
102
RTVSPost2010Prop29
280
     1
102
RTVSPost2010PropOp29
 70
     1
102
RTVSPost2010Prop30
280
     1
102
RTVSPost2010PropOp30
 70
     1
102
RTVSPost2010Prop31
280
     0
102
RTVSPost2010PropOp31
 70
     1
102
RTVSPost2010Prop32
280
     0
102
RTVSPost2010PropOp32
 70
     1
102
RTVSPost2010Prop33
280
     0
102
RTVSPost2010PropOp33
 70
     1
102
RTVSPost2010Prop34
280
     0
102
RTVSPost2010PropOp34
 70
     1
102
RTVSPost2010Prop35
280
     0
102
RTVSPost2010PropOp35
 70
     1
102
RTVSPost2010Prop36
280
     0
102
RTVSPost2010PropOp36
 70
     1
102
RTVSPost2010Prop37
 90
       50
102
RTVSPost2010PropOp37
 70
     1
102
RTVSPost2010Prop38
140
0.0
102
RTVSPost2010PropOp38
 70
     1
102
RTVSPost2010Prop39
140
1.0
102
RTVSPost2010PropOp39
 70
     1
102
RTVSPost2010Prop40
 90
        0
102
RTVSPost2010PropOp40
 70
     1
102
RTVSPost2010Prop41ColorIndex
 90
       18
102
RTVSPost2010Prop41ColorRGB
 90
        0
102
RTVSPost2010PropOp41
 70
     1
102
RTVSPost2010Prop42
 90
       50
102
RTVSPost2010PropOp42
 70
     1
102
RTVSPost2010Prop43
 90
        3
102
RTVSPost2010PropOp43
 70
     1
102
RTVSPost2010Prop44ColorIndex
 90
        5
102
RTVSPost2010Prop44ColorRGB
 90
      255
102
RTVSPost2010PropOp44
 70
     1
102
RTVSPost2010Prop45
280
     0
102
RTVSPost2010PropOp45
 70
     1
102
RTVSPost2010Prop46
 90
       50
102
RTVSPost2010PropOp46
 70
     1
102
RTVSPost2010Prop47
 90
       50
102
RTVSPost2010PropOp47
 70
     1
102
RTVSPost2010Prop48
 90
       50
102
RTVSPost2010PropOp48
 70
     1
102
RTVSPost2010Prop49
280
     0
102
RTVSPost2010PropOp49
 70
     1
102
RTVSPost2010Prop50
 90
       50
102
RTVSPost2010PropOp50
 70
     1
102
RTVSPost2010Prop51ColorIndex
 90
      256
102
RTVSPost2010Prop51ColorRGB
 90
-16777216
102
RTVSPost2010PropOp51
 70
     0
102
RTVSPost2010Prop52
140
1.0
102
RTVSPost2010PropOp52
 70
     0
102
RTVSPost2010Prop53
 90
        2
102
RTVSPost2010PropOp53
 70
     1
102
RTVSPost2010Prop54
  1
strokes_ogs.tif
102
RTVSPost2010PropOp54
 70
     1
102
RTVSPost2010Prop55
280
     0
102
RTVSPost2010PropOp55
 70
     1
102
RTVSPost2010Prop56
140
1.0
102
RTVSPost2010PropOp56
 70
     1
102
RTVSPost2010Prop57
140
1.0
102
RTVSPost2010PropOp57
 70
     1
102
RTVSPropertyOp0
 70
     1
102
RTVSPropertyOp1
 70
     1
102
RTVSPropertyOp2
 70
     1
102
RTVSPropertyOp3
 70
     1
102
RTVSPropertyOp4
 70
     1
102
RTVSPropertyOp5
 70
     1
102
RTVSPropertyOp6
 70
     1
102
RTVSPropertyOp7
 70
     1
102
RTVSPropertyOp8
 70
     1
102
RTVSPropertyOp9
 70
     1
102
RTVSPropertyOp10
 70
     1
102
RTVSPropertyOp11
 70
     1
102
RTVSPropertyOp12
 70
     1
102
RTVSPropertyOp13
 70
     1
102
RTVSPropertyOp14
 70
     1
102
RTVSPropertyOp15
 70
     1
102
RTVSPropertyOp16
 70
     1
102
RTVSPropertyOp17
 70
     1
102
RTVSPropertyOp18
 70
     1
102
RTVSPropertyOp19
 70
     1
102
RTVSPropertyOp20
 70
     1
102
RTVSPropertyOp21
 70
     1
102
RTVSPropertyOp22
 70
     1
102
RTVSPropertyOp23
 70
     1
102
RTVSPropertyOp24
 70
     1
102
RTVSPropertyOp25
 70
     1
102
RTVSPropertyOp26
 70
     1
102
RTVSPropertyOp27
 70
     1
102
RTVSPropertyOp28
 70
     1
102
RTVSPropertyOp29
 70
     1
102
RTVSPropertyOp30
 70
     1
102
RTVSPropertyOp31
 70
     1
102
RTVSPropertyOp32
 70
     1
102
RTVSPropertyOp33
 70
     1
102
RTVSPropertyOp34
 70
     1
102
RTVSPropertyOp35
 70
     1
102
RTVSPropertyOp36
 70
     1
102
RTVSPropertyOp37
 70
     1
102
RTVSPropertyOp38
 70
     1
102
RTVSPropertyOp39
 70
     1
102
RTVSPropertyOp40
 70
     1
102
RTVSPropertyOp41
 70
     1
102
RTVSPropertyOp42
 70
     1
102
RTVSPropertyOp43
 70
     1
102
RTVSPropertyOp44
 70
     1
102
RTVSPropertyOp45
 70
     1
102
RTVSPropertyOp46
 70
     1
102
RTVSPropertyOp47
 70
     1
102
RTVSPropertyOp48
 70
     1
102
RTVSPropertyOp49
 70
     1
102
RTVSPropertyOp50
 70
     1
102
RTVSPropertyOp51
 70
     0
102
RTVSPropertyOp52
 70
     0
102
RTVSPropertyOp53
 70
     1
102
RTVSPropertyOp54
 70
     1
102
RTVSPropertyOp55
 70
     1
102
RTVSPropertyOp56
 70
     1
102
RTVSPropertyOp57
 70
     1
102
RTVSPropertyOp58
 70
     1
102
RTVSPropertyOp59
 70
     1
102
RTVSPropertyOp60
 70
     1
102
RTVSPropertyOp61
 70
     1
102
RTVSPropertyOp62
 70
     1
  0
XRECORD
  5
B2BD
102
{ACAD_REACTORS
330
B2BC
102
}
330
B2BC
100
AcDbXrecord
280
     1
102
RTVSPost2010Prop28
280
     0
102
RTVSPost2010PropOp28
 70
     1
102
RTVSPost2010Prop29
280
     1
102
RTVSPost2010PropOp29
 70
     1
102
RTVSPost2010Prop30
280
     1
102
RTVSPost2010PropOp30
 70
     1
102
RTVSPost2010Prop31
280
     0
102
RTVSPost2010PropOp31
 70
     1
102
RTVSPost2010Prop32
280
     0
102
RTVSPost2010PropOp32
 70
     1
102
RTVSPost2010Prop33
280
     0
102
RTVSPost2010PropOp33
 70
     1
102
RTVSPost2010Prop34
280
     0
102
RTVSPost2010PropOp34
 70
     1
102
RTVSPost2010Prop35
280
     0
102
RTVSPost2010PropOp35
 70
     1
102
RTVSPost2010Prop36
280
     0
102
RTVSPost2010PropOp36
 70
     1
102
RTVSPost2010Prop37
 90
       50
102
RTVSPost2010PropOp37
 70
     1
102
RTVSPost2010Prop38
140
0.0
102
RTVSPost2010PropOp38
 70
     1
102
RTVSPost2010Prop39
140
1.0
102
RTVSPost2010PropOp39
 70
     1
102
RTVSPost2010Prop40
 90
        0
102
RTVSPost2010PropOp40
 70
     1
102
RTVSPost2010Prop41ColorIndex
 90
       18
102
RTVSPost2010Prop41ColorRGB
 90
        0
102
RTVSPost2010PropOp41
 70
     1
102
RTVSPost2010Prop42
 90
       50
102
RTVSPost2010PropOp42
 70
     1
102
RTVSPost2010Prop43
 90
        3
102
RTVSPost2010PropOp43
 70
     1
102
RTVSPost2010Prop44ColorIndex
 90
        5
102
RTVSPost2010Prop44ColorRGB
 90
      255
102
RTVSPost2010PropOp44
 70
     1
102
RTVSPost2010Prop45
280
     0
102
RTVSPost2010PropOp45
 70
     1
102
RTVSPost2010Prop46
 90
       50
102
RTVSPost2010PropOp46
 70
     1
102
RTVSPost2010Prop47
 90
       50
102
RTVSPost2010PropOp47
 70
     1
102
RTVSPost2010Prop48
 90
       50
102
RTVSPost2010PropOp48
 70
     1
102
RTVSPost2010Prop49
280
     0
102
RTVSPost2010PropOp49
 70
     1
102
RTVSPost2010Prop50
 90
       50
102
RTVSPost2010PropOp50
 70
     1
102
RTVSPost2010Prop51ColorIndex
 90
      256
102
RTVSPost2010Prop51ColorRGB
 90
-16777216
102
RTVSPost2010PropOp51
 70
     0
102
RTVSPost2010Prop52
140
1.0
102
RTVSPost2010PropOp52
 70
     0
102
RTVSPost2010Prop53
 90
        2
102
RTVSPost2010PropOp53
 70
     1
102
RTVSPost2010Prop54
  1
strokes_ogs.tif
102
RTVSPost2010PropOp54
 70
     1
102
RTVSPost2010Prop55
280
     0
102
RTVSPost2010PropOp55
 70
     1
102
RTVSPost2010Prop56
140
1.0
102
RTVSPost2010PropOp56
 70
     1
102
RTVSPost2010Prop57
140
1.0
102
RTVSPost2010PropOp57
 70
     1
102
RTVSPropertyOp0
 70
     1
102
RTVSPropertyOp1
 70
     1
102
RTVSPropertyOp2
 70
     1
102
RTVSPropertyOp3
 70
     1
102
RTVSPropertyOp4
 70
     1
102
RTVSPropertyOp5
 70
     1
102
RTVSPropertyOp6
 70
     1
102
RTVSPropertyOp7
 70
     1
102
RTVSPropertyOp8
 70
     1
102
RTVSPropertyOp9
 70
     1
102
RTVSPropertyOp10
 70
     1
102
RTVSPropertyOp11
 70
     1
102
RTVSPropertyOp12
 70
     1
102
RTVSPropertyOp13
 70
     1
102
RTVSPropertyOp14
 70
     1
102
RTVSPropertyOp15
 70
     1
102
RTVSPropertyOp16
 70
     1
102
RTVSPropertyOp17
 70
     1
102
RTVSPropertyOp18
 70
     1
102
RTVSPropertyOp19
 70
     1
102
RTVSPropertyOp20
 70
     1
102
RTVSPropertyOp21
 70
     1
102
RTVSPropertyOp22
 70
     1
102
RTVSPropertyOp23
 70
     1
102
RTVSPropertyOp24
 70
     1
102
RTVSPropertyOp25
 70
     1
102
RTVSPropertyOp26
 70
     1
102
RTVSPropertyOp27
 70
     1
102
RTVSPropertyOp28
 70
     1
102
RTVSPropertyOp29
 70
     1
102
RTVSPropertyOp30
 70
     1
102
RTVSPropertyOp31
 70
     1
102
RTVSPropertyOp32
 70
     1
102
RTVSPropertyOp33
 70
     1
102
RTVSPropertyOp34
 70
     1
102
RTVSPropertyOp35
 70
     1
102
RTVSPropertyOp36
 70
     1
102
RTVSPropertyOp37
 70
     1
102
RTVSPropertyOp38
 70
     1
102
RTVSPropertyOp39
 70
     1
102
RTVSPropertyOp40
 70
     1
102
RTVSPropertyOp41
 70
     1
102
RTVSPropertyOp42
 70
     1
102
RTVSPropertyOp43
 70
     1
102
RTVSPropertyOp44
 70
     1
102
RTVSPropertyOp45
 70
     1
102
RTVSPropertyOp46
 70
     1
102
RTVSPropertyOp47
 70
     1
102
RTVSPropertyOp48
 70
     1
102
RTVSPropertyOp49
 70
     1
102
RTVSPropertyOp50
 70
     1
102
RTVSPropertyOp51
 70
     0
102
RTVSPropertyOp52
 70
     0
102
RTVSPropertyOp53
 70
     1
102
RTVSPropertyOp54
 70
     1
102
RTVSPropertyOp55
 70
     1
102
RTVSPropertyOp56
 70
     1
102
RTVSPropertyOp57
 70
     1
102
RTVSPropertyOp58
 70
     1
102
RTVSPropertyOp59
 70
     1
102
RTVSPropertyOp60
 70
     1
102
RTVSPropertyOp61
 70
     1
102
RTVSPropertyOp62
 70
     1
  0
XRECORD
  5
B2B7
102
{ACAD_REACTORS
330
B2B6
102
}
330
B2B6
100
AcDbXrecord
280
     1
102
RTVSPost2010Prop28
280
     0
102
RTVSPost2010PropOp28
 70
     1
102
RTVSPost2010Prop29
280
     1
102
RTVSPost2010PropOp29
 70
     1
102
RTVSPost2010Prop30
280
     1
102
RTVSPost2010PropOp30
 70
     1
102
RTVSPost2010Prop31
280
     0
102
RTVSPost2010PropOp31
 70
     1
102
RTVSPost2010Prop32
280
     0
102
RTVSPost2010PropOp32
 70
     1
102
RTVSPost2010Prop33
280
     0
102
RTVSPost2010PropOp33
 70
     1
102
RTVSPost2010Prop34
280
     0
102
RTVSPost2010PropOp34
 70
     1
102
RTVSPost2010Prop35
280
     0
102
RTVSPost2010PropOp35
 70
     1
102
RTVSPost2010Prop36
280
     0
102
RTVSPost2010PropOp36
 70
     1
102
RTVSPost2010Prop37
 90
       50
102
RTVSPost2010PropOp37
 70
     1
102
RTVSPost2010Prop38
140
0.0
102
RTVSPost2010PropOp38
 70
     1
102
RTVSPost2010Prop39
140
1.0
102
RTVSPost2010PropOp39
 70
     1
102
RTVSPost2010Prop40
 90
        0
102
RTVSPost2010PropOp40
 70
     1
102
RTVSPost2010Prop41ColorIndex
 90
       18
102
RTVSPost2010Prop41ColorRGB
 90
        0
102
RTVSPost2010PropOp41
 70
     1
102
RTVSPost2010Prop42
 90
       50
102
RTVSPost2010PropOp42
 70
     1
102
RTVSPost2010Prop43
 90
        3
102
RTVSPost2010PropOp43
 70
     1
102
RTVSPost2010Prop44ColorIndex
 90
        5
102
RTVSPost2010Prop44ColorRGB
 90
      255
102
RTVSPost2010PropOp44
 70
     1
102
RTVSPost2010Prop45
280
     0
102
RTVSPost2010PropOp45
 70
     1
102
RTVSPost2010Prop46
 90
       50
102
RTVSPost2010PropOp46
 70
     1
102
RTVSPost2010Prop47
 90
       50
102
RTVSPost2010PropOp47
 70
     1
102
RTVSPost2010Prop48
 90
       50
102
RTVSPost2010PropOp48
 70
     1
102
RTVSPost2010Prop49
280
     0
102
RTVSPost2010PropOp49
 70
     1
102
RTVSPost2010Prop50
 90
       50
102
RTVSPost2010PropOp50
 70
     1
102
RTVSPost2010Prop51ColorIndex
 90
      256
102
RTVSPost2010Prop51ColorRGB
 90
-16777216
102
RTVSPost2010PropOp51
 70
     0
102
RTVSPost2010Prop52
140
1.0
102
RTVSPost2010PropOp52
 70
     0
102
RTVSPost2010Prop53
 90
        2
102
RTVSPost2010PropOp53
 70
     1
102
RTVSPost2010Prop54
  1
strokes_ogs.tif
102
RTVSPost2010PropOp54
 70
     1
102
RTVSPost2010Prop55
280
     0
102
RTVSPost2010PropOp55
 70
     1
102
RTVSPost2010Prop56
140
1.0
102
RTVSPost2010PropOp56
 70
     1
102
RTVSPost2010Prop57
140
1.0
102
RTVSPost2010PropOp57
 70
     1
102
RTVSPropertyOp0
 70
     1
102
RTVSPropertyOp1
 70
     1
102
RTVSPropertyOp2
 70
     1
102
RTVSPropertyOp3
 70
     1
102
RTVSPropertyOp4
 70
     1
102
RTVSPropertyOp5
 70
     1
102
RTVSPropertyOp6
 70
     1
102
RTVSPropertyOp7
 70
     1
102
RTVSPropertyOp8
 70
     1
102
RTVSPropertyOp9
 70
     1
102
RTVSPropertyOp10
 70
     1
102
RTVSPropertyOp11
 70
     1
102
RTVSPropertyOp12
 70
     1
102
RTVSPropertyOp13
 70
     1
102
RTVSPropertyOp14
 70
     1
102
RTVSPropertyOp15
 70
     1
102
RTVSPropertyOp16
 70
     1
102
RTVSPropertyOp17
 70
     1
102
RTVSPropertyOp18
 70
     1
102
RTVSPropertyOp19
 70
     1
102
RTVSPropertyOp20
 70
     1
102
RTVSPropertyOp21
 70
     1
102
RTVSPropertyOp22
 70
     1
102
RTVSPropertyOp23
 70
     1
102
RTVSPropertyOp24
 70
     1
102
RTVSPropertyOp25
 70
     1
102
RTVSPropertyOp26
 70
     1
102
RTVSPropertyOp27
 70
     1
102
RTVSPropertyOp28
 70
     1
102
RTVSPropertyOp29
 70
     1
102
RTVSPropertyOp30
 70
     1
102
RTVSPropertyOp31
 70
     1
102
RTVSPropertyOp32
 70
     1
102
RTVSPropertyOp33
 70
     1
102
RTVSPropertyOp34
 70
     1
102
RTVSPropertyOp35
 70
     1
102
RTVSPropertyOp36
 70
     1
102
RTVSPropertyOp37
 70
     1
102
RTVSPropertyOp38
 70
     1
102
RTVSPropertyOp39
 70
     1
102
RTVSPropertyOp40
 70
     1
102
RTVSPropertyOp41
 70
     1
102
RTVSPropertyOp42
 70
     1
102
RTVSPropertyOp43
 70
     1
102
RTVSPropertyOp44
 70
     1
102
RTVSPropertyOp45
 70
     1
102
RTVSPropertyOp46
 70
     1
102
RTVSPropertyOp47
 70
     1
102
RTVSPropertyOp48
 70
     1
102
RTVSPropertyOp49
 70
     1
102
RTVSPropertyOp50
 70
     1
102
RTVSPropertyOp51
 70
     0
102
RTVSPropertyOp52
 70
     0
102
RTVSPropertyOp53
 70
     1
102
RTVSPropertyOp54
 70
     1
102
RTVSPropertyOp55
 70
     1
102
RTVSPropertyOp56
 70
     1
102
RTVSPropertyOp57
 70
     1
102
RTVSPropertyOp58
 70
     1
102
RTVSPropertyOp59
 70
     1
102
RTVSPropertyOp60
 70
     1
102
RTVSPropertyOp61
 70
     1
102
RTVSPropertyOp62
 70
     1
  0
XRECORD
  5
B2B9
102
{ACAD_REACTORS
330
B2B8
102
}
330
B2B8
100
AcDbXrecord
280
     1
102
RTVSPost2010Prop28
280
     0
102
RTVSPost2010PropOp28
 70
     1
102
RTVSPost2010Prop29
280
     1
102
RTVSPost2010PropOp29
 70
     1
102
RTVSPost2010Prop30
280
     1
102
RTVSPost2010PropOp30
 70
     1
102
RTVSPost2010Prop31
280
     0
102
RTVSPost2010PropOp31
 70
     1
102
RTVSPost2010Prop32
280
     0
102
RTVSPost2010PropOp32
 70
     1
102
RTVSPost2010Prop33
280
     0
102
RTVSPost2010PropOp33
 70
     1
102
RTVSPost2010Prop34
280
     0
102
RTVSPost2010PropOp34
 70
     1
102
RTVSPost2010Prop35
280
     0
102
RTVSPost2010PropOp35
 70
     1
102
RTVSPost2010Prop36
280
     0
102
RTVSPost2010PropOp36
 70
     1
102
RTVSPost2010Prop37
 90
       50
102
RTVSPost2010PropOp37
 70
     1
102
RTVSPost2010Prop38
140
0.0
102
RTVSPost2010PropOp38
 70
     1
102
RTVSPost2010Prop39
140
1.0
102
RTVSPost2010PropOp39
 70
     1
102
RTVSPost2010Prop40
 90
        0
102
RTVSPost2010PropOp40
 70
     1
102
RTVSPost2010Prop41ColorIndex
 90
       18
102
RTVSPost2010Prop41ColorRGB
 90
        0
102
RTVSPost2010PropOp41
 70
     1
102
RTVSPost2010Prop42
 90
       50
102
RTVSPost2010PropOp42
 70
     1
102
RTVSPost2010Prop43
 90
        3
102
RTVSPost2010PropOp43
 70
     1
102
RTVSPost2010Prop44ColorIndex
 90
        5
102
RTVSPost2010Prop44ColorRGB
 90
      255
102
RTVSPost2010PropOp44
 70
     1
102
RTVSPost2010Prop45
280
     0
102
RTVSPost2010PropOp45
 70
     1
102
RTVSPost2010Prop46
 90
       50
102
RTVSPost2010PropOp46
 70
     1
102
RTVSPost2010Prop47
 90
       50
102
RTVSPost2010PropOp47
 70
     1
102
RTVSPost2010Prop48
 90
       50
102
RTVSPost2010PropOp48
 70
     1
102
RTVSPost2010Prop49
280
     0
102
RTVSPost2010PropOp49
 70
     1
102
RTVSPost2010Prop50
 90
       50
102
RTVSPost2010PropOp50
 70
     1
102
RTVSPost2010Prop51ColorIndex
 90
      256
102
RTVSPost2010Prop51ColorRGB
 90
-16777216
102
RTVSPost2010PropOp51
 70
     0
102
RTVSPost2010Prop52
140
1.0
102
RTVSPost2010PropOp52
 70
     0
102
RTVSPost2010Prop53
 90
        2
102
RTVSPost2010PropOp53
 70
     1
102
RTVSPost2010Prop54
  1
strokes_ogs.tif
102
RTVSPost2010PropOp54
 70
     1
102
RTVSPost2010Prop55
280
     0
102
RTVSPost2010PropOp55
 70
     1
102
RTVSPost2010Prop56
140
1.0
102
RTVSPost2010PropOp56
 70
     1
102
RTVSPost2010Prop57
140
1.0
102
RTVSPost2010PropOp57
 70
     1
102
RTVSPropertyOp0
 70
     1
102
RTVSPropertyOp1
 70
     1
102
RTVSPropertyOp2
 70
     1
102
RTVSPropertyOp3
 70
     1
102
RTVSPropertyOp4
 70
     1
102
RTVSPropertyOp5
 70
     1
102
RTVSPropertyOp6
 70
     1
102
RTVSPropertyOp7
 70
     1
102
RTVSPropertyOp8
 70
     1
102
RTVSPropertyOp9
 70
     1
102
RTVSPropertyOp10
 70
     1
102
RTVSPropertyOp11
 70
     1
102
RTVSPropertyOp12
 70
     1
102
RTVSPropertyOp13
 70
     1
102
RTVSPropertyOp14
 70
     1
102
RTVSPropertyOp15
 70
     1
102
RTVSPropertyOp16
 70
     1
102
RTVSPropertyOp17
 70
     1
102
RTVSPropertyOp18
 70
     1
102
RTVSPropertyOp19
 70
     1
102
RTVSPropertyOp20
 70
     1
102
RTVSPropertyOp21
 70
     1
102
RTVSPropertyOp22
 70
     1
102
RTVSPropertyOp23
 70
     1
102
RTVSPropertyOp24
 70
     1
102
RTVSPropertyOp25
 70
     1
102
RTVSPropertyOp26
 70
     1
102
RTVSPropertyOp27
 70
     1
102
RTVSPropertyOp28
 70
     1
102
RTVSPropertyOp29
 70
     1
102
RTVSPropertyOp30
 70
     1
102
RTVSPropertyOp31
 70
     1
102
RTVSPropertyOp32
 70
     1
102
RTVSPropertyOp33
 70
     1
102
RTVSPropertyOp34
 70
     1
102
RTVSPropertyOp35
 70
     1
102
RTVSPropertyOp36
 70
     1
102
RTVSPropertyOp37
 70
     1
102
RTVSPropertyOp38
 70
     1
102
RTVSPropertyOp39
 70
     1
102
RTVSPropertyOp40
 70
     1
102
RTVSPropertyOp41
 70
     1
102
RTVSPropertyOp42
 70
     1
102
RTVSPropertyOp43
 70
     1
102
RTVSPropertyOp44
 70
     1
102
RTVSPropertyOp45
 70
     1
102
RTVSPropertyOp46
 70
     1
102
RTVSPropertyOp47
 70
     1
102
RTVSPropertyOp48
 70
     1
102
RTVSPropertyOp49
 70
     1
102
RTVSPropertyOp50
 70
     1
102
RTVSPropertyOp51
 70
     0
102
RTVSPropertyOp52
 70
     0
102
RTVSPropertyOp53
 70
     1
102
RTVSPropertyOp54
 70
     1
102
RTVSPropertyOp55
 70
     1
102
RTVSPropertyOp56
 70
     1
102
RTVSPropertyOp57
 70
     1
102
RTVSPropertyOp58
 70
     1
102
RTVSPropertyOp59
 70
     1
102
RTVSPropertyOp60
 70
     1
102
RTVSPropertyOp61
 70
     1
102
RTVSPropertyOp62
 70
     1
  0
XRECORD
  5
B2AF
102
{ACAD_REACTORS
330
B2AE
102
}
330
B2AE
100
AcDbXrecord
280
     1
102
RTVSPost2010Prop28
280
     0
102
RTVSPost2010PropOp28
 70
     1
102
RTVSPost2010Prop29
280
     1
102
RTVSPost2010PropOp29
 70
     1
102
RTVSPost2010Prop30
280
     1
102
RTVSPost2010PropOp30
 70
     1
102
RTVSPost2010Prop31
280
     0
102
RTVSPost2010PropOp31
 70
     1
102
RTVSPost2010Prop32
280
     0
102
RTVSPost2010PropOp32
 70
     1
102
RTVSPost2010Prop33
280
     0
102
RTVSPost2010PropOp33
 70
     1
102
RTVSPost2010Prop34
280
     0
102
RTVSPost2010PropOp34
 70
     1
102
RTVSPost2010Prop35
280
     0
102
RTVSPost2010PropOp35
 70
     1
102
RTVSPost2010Prop36
280
     0
102
RTVSPost2010PropOp36
 70
     1
102
RTVSPost2010Prop37
 90
       50
102
RTVSPost2010PropOp37
 70
     1
102
RTVSPost2010Prop38
140
0.0
102
RTVSPost2010PropOp38
 70
     1
102
RTVSPost2010Prop39
140
1.0
102
RTVSPost2010PropOp39
 70
     1
102
RTVSPost2010Prop40
 90
        0
102
RTVSPost2010PropOp40
 70
     1
102
RTVSPost2010Prop41ColorIndex
 90
       18
102
RTVSPost2010Prop41ColorRGB
 90
        0
102
RTVSPost2010PropOp41
 70
     1
102
RTVSPost2010Prop42
 90
       50
102
RTVSPost2010PropOp42
 70
     1
102
RTVSPost2010Prop43
 90
        3
102
RTVSPost2010PropOp43
 70
     1
102
RTVSPost2010Prop44ColorIndex
 90
        5
102
RTVSPost2010Prop44ColorRGB
 90
      255
102
RTVSPost2010PropOp44
 70
     1
102
RTVSPost2010Prop45
280
     0
102
RTVSPost2010PropOp45
 70
     1
102
RTVSPost2010Prop46
 90
       50
102
RTVSPost2010PropOp46
 70
     1
102
RTVSPost2010Prop47
 90
       50
102
RTVSPost2010PropOp47
 70
     1
102
RTVSPost2010Prop48
 90
       50
102
RTVSPost2010PropOp48
 70
     1
102
RTVSPost2010Prop49
280
     0
102
RTVSPost2010PropOp49
 70
     1
102
RTVSPost2010Prop50
 90
       50
102
RTVSPost2010PropOp50
 70
     1
102
RTVSPost2010Prop51ColorIndex
 90
      256
102
RTVSPost2010Prop51ColorRGB
 90
-16777216
102
RTVSPost2010PropOp51
 70
     0
102
RTVSPost2010Prop52
140
1.0
102
RTVSPost2010PropOp52
 70
     0
102
RTVSPost2010Prop53
 90
        2
102
RTVSPost2010PropOp53
 70
     1
102
RTVSPost2010Prop54
  1
strokes_ogs.tif
102
RTVSPost2010PropOp54
 70
     1
102
RTVSPost2010Prop55
280
     0
102
RTVSPost2010PropOp55
 70
     1
102
RTVSPost2010Prop56
140
1.0
102
RTVSPost2010PropOp56
 70
     1
102
RTVSPost2010Prop57
140
1.0
102
RTVSPost2010PropOp57
 70
     1
102
RTVSPropertyOp0
 70
     1
102
RTVSPropertyOp1
 70
     1
102
RTVSPropertyOp2
 70
     1
102
RTVSPropertyOp3
 70
     1
102
RTVSPropertyOp4
 70
     1
102
RTVSPropertyOp5
 70
     1
102
RTVSPropertyOp6
 70
     1
102
RTVSPropertyOp7
 70
     1
102
RTVSPropertyOp8
 70
     1
102
RTVSPropertyOp9
 70
     1
102
RTVSPropertyOp10
 70
     1
102
RTVSPropertyOp11
 70
     1
102
RTVSPropertyOp12
 70
     1
102
RTVSPropertyOp13
 70
     1
102
RTVSPropertyOp14
 70
     1
102
RTVSPropertyOp15
 70
     1
102
RTVSPropertyOp16
 70
     1
102
RTVSPropertyOp17
 70
     1
102
RTVSPropertyOp18
 70
     1
102
RTVSPropertyOp19
 70
     1
102
RTVSPropertyOp20
 70
     1
102
RTVSPropertyOp21
 70
     1
102
RTVSPropertyOp22
 70
     1
102
RTVSPropertyOp23
 70
     1
102
RTVSPropertyOp24
 70
     1
102
RTVSPropertyOp25
 70
     1
102
RTVSPropertyOp26
 70
     1
102
RTVSPropertyOp27
 70
     1
102
RTVSPropertyOp28
 70
     1
102
RTVSPropertyOp29
 70
     1
102
RTVSPropertyOp30
 70
     1
102
RTVSPropertyOp31
 70
     1
102
RTVSPropertyOp32
 70
     1
102
RTVSPropertyOp33
 70
     1
102
RTVSPropertyOp34
 70
     1
102
RTVSPropertyOp35
 70
     1
102
RTVSPropertyOp36
 70
     1
102
RTVSPropertyOp37
 70
     1
102
RTVSPropertyOp38
 70
     1
102
RTVSPropertyOp39
 70
     1
102
RTVSPropertyOp40
 70
     1
102
RTVSPropertyOp41
 70
     1
102
RTVSPropertyOp42
 70
     1
102
RTVSPropertyOp43
 70
     1
102
RTVSPropertyOp44
 70
     1
102
RTVSPropertyOp45
 70
     1
102
RTVSPropertyOp46
 70
     1
102
RTVSPropertyOp47
 70
     1
102
RTVSPropertyOp48
 70
     1
102
RTVSPropertyOp49
 70
     1
102
RTVSPropertyOp50
 70
     1
102
RTVSPropertyOp51
 70
     0
102
RTVSPropertyOp52
 70
     0
102
RTVSPropertyOp53
 70
     1
102
RTVSPropertyOp54
 70
     1
102
RTVSPropertyOp55
 70
     1
102
RTVSPropertyOp56
 70
     1
102
RTVSPropertyOp57
 70
     1
102
RTVSPropertyOp58
 70
     1
102
RTVSPropertyOp59
 70
     1
102
RTVSPropertyOp60
 70
     1
102
RTVSPropertyOp61
 70
     1
102
RTVSPropertyOp62
 70
     1
  0
XRECORD
  5
B2A3
102
{ACAD_REACTORS
330
B2A2
102
}
330
B2A2
100
AcDbXrecord
280
     1
102
RTVSPost2010Prop28
280
     0
102
RTVSPost2010PropOp28
 70
     1
102
RTVSPost2010Prop29
280
     1
102
RTVSPost2010PropOp29
 70
     1
102
RTVSPost2010Prop30
280
     1
102
RTVSPost2010PropOp30
 70
     1
102
RTVSPost2010Prop31
280
     0
102
RTVSPost2010PropOp31
 70
     1
102
RTVSPost2010Prop32
280
     0
102
RTVSPost2010PropOp32
 70
     1
102
RTVSPost2010Prop33
280
     0
102
RTVSPost2010PropOp33
 70
     1
102
RTVSPost2010Prop34
280
     0
102
RTVSPost2010PropOp34
 70
     1
102
RTVSPost2010Prop35
280
     0
102
RTVSPost2010PropOp35
 70
     1
102
RTVSPost2010Prop36
280
     0
102
RTVSPost2010PropOp36
 70
     1
102
RTVSPost2010Prop37
 90
       50
102
RTVSPost2010PropOp37
 70
     1
102
RTVSPost2010Prop38
140
0.0
102
RTVSPost2010PropOp38
 70
     1
102
RTVSPost2010Prop39
140
1.0
102
RTVSPost2010PropOp39
 70
     1
102
RTVSPost2010Prop40
 90
        0
102
RTVSPost2010PropOp40
 70
     1
102
RTVSPost2010Prop41ColorIndex
 90
       18
102
RTVSPost2010Prop41ColorRGB
 90
        0
102
RTVSPost2010PropOp41
 70
     1
102
RTVSPost2010Prop42
 90
       50
102
RTVSPost2010PropOp42
 70
     1
102
RTVSPost2010Prop43
 90
        3
102
RTVSPost2010PropOp43
 70
     1
102
RTVSPost2010Prop44ColorIndex
 90
        5
102
RTVSPost2010Prop44ColorRGB
 90
      255
102
RTVSPost2010PropOp44
 70
     1
102
RTVSPost2010Prop45
280
     0
102
RTVSPost2010PropOp45
 70
     1
102
RTVSPost2010Prop46
 90
       50
102
RTVSPost2010PropOp46
 70
     1
102
RTVSPost2010Prop47
 90
       50
102
RTVSPost2010PropOp47
 70
     1
102
RTVSPost2010Prop48
 90
       50
102
RTVSPost2010PropOp48
 70
     1
102
RTVSPost2010Prop49
280
     0
102
RTVSPost2010PropOp49
 70
     1
102
RTVSPost2010Prop50
 90
       50
102
RTVSPost2010PropOp50
 70
     1
102
RTVSPost2010Prop51ColorIndex
 90
      256
102
RTVSPost2010Prop51ColorRGB
 90
-16777216
102
RTVSPost2010PropOp51
 70
     0
102
RTVSPost2010Prop52
140
1.0
102
RTVSPost2010PropOp52
 70
     0
102
RTVSPost2010Prop53
 90
        2
102
RTVSPost2010PropOp53
 70
     1
102
RTVSPost2010Prop54
  1
strokes_ogs.tif
102
RTVSPost2010PropOp54
 70
     1
102
RTVSPost2010Prop55
280
     0
102
RTVSPost2010PropOp55
 70
     1
102
RTVSPost2010Prop56
140
1.0
102
RTVSPost2010PropOp56
 70
     1
102
RTVSPost2010Prop57
140
1.0
102
RTVSPost2010PropOp57
 70
     1
102
RTVSPropertyOp0
 70
     1
102
RTVSPropertyOp1
 70
     1
102
RTVSPropertyOp2
 70
     1
102
RTVSPropertyOp3
 70
     1
102
RTVSPropertyOp4
 70
     1
102
RTVSPropertyOp5
 70
     1
102
RTVSPropertyOp6
 70
     1
102
RTVSPropertyOp7
 70
     1
102
RTVSPropertyOp8
 70
     1
102
RTVSPropertyOp9
 70
     1
102
RTVSPropertyOp10
 70
     1
102
RTVSPropertyOp11
 70
     1
102
RTVSPropertyOp12
 70
     1
102
RTVSPropertyOp13
 70
     1
102
RTVSPropertyOp14
 70
     1
102
RTVSPropertyOp15
 70
     1
102
RTVSPropertyOp16
 70
     1
102
RTVSPropertyOp17
 70
     1
102
RTVSPropertyOp18
 70
     1
102
RTVSPropertyOp19
 70
     1
102
RTVSPropertyOp20
 70
     1
102
RTVSPropertyOp21
 70
     1
102
RTVSPropertyOp22
 70
     1
102
RTVSPropertyOp23
 70
     1
102
RTVSPropertyOp24
 70
     1
102
RTVSPropertyOp25
 70
     1
102
RTVSPropertyOp26
 70
     1
102
RTVSPropertyOp27
 70
     1
102
RTVSPropertyOp28
 70
     1
102
RTVSPropertyOp29
 70
     1
102
RTVSPropertyOp30
 70
     1
102
RTVSPropertyOp31
 70
     1
102
RTVSPropertyOp32
 70
     1
102
RTVSPropertyOp33
 70
     1
102
RTVSPropertyOp34
 70
     1
102
RTVSPropertyOp35
 70
     1
102
RTVSPropertyOp36
 70
     1
102
RTVSPropertyOp37
 70
     1
102
RTVSPropertyOp38
 70
     1
102
RTVSPropertyOp39
 70
     1
102
RTVSPropertyOp40
 70
     1
102
RTVSPropertyOp41
 70
     1
102
RTVSPropertyOp42
 70
     1
102
RTVSPropertyOp43
 70
     1
102
RTVSPropertyOp44
 70
     1
102
RTVSPropertyOp45
 70
     1
102
RTVSPropertyOp46
 70
     1
102
RTVSPropertyOp47
 70
     1
102
RTVSPropertyOp48
 70
     1
102
RTVSPropertyOp49
 70
     1
102
RTVSPropertyOp50
 70
     1
102
RTVSPropertyOp51
 70
     0
102
RTVSPropertyOp52
 70
     0
102
RTVSPropertyOp53
 70
     1
102
RTVSPropertyOp54
 70
     1
102
RTVSPropertyOp55
 70
     1
102
RTVSPropertyOp56
 70
     1
102
RTVSPropertyOp57
 70
     1
102
RTVSPropertyOp58
 70
     1
102
RTVSPropertyOp59
 70
     1
102
RTVSPropertyOp60
 70
     1
102
RTVSPropertyOp61
 70
     1
102
RTVSPropertyOp62
 70
     1
  0
XRECORD
  5
B2BB
102
{ACAD_REACTORS
330
B2BA
102
}
330
B2BA
100
AcDbXrecord
280
     1
102
RTVSPost2010Prop28
280
     0
102
RTVSPost2010PropOp28
 70
     1
102
RTVSPost2010Prop29
280
     1
102
RTVSPost2010PropOp29
 70
     1
102
RTVSPost2010Prop30
280
     1
102
RTVSPost2010PropOp30
 70
     1
102
RTVSPost2010Prop31
280
     0
102
RTVSPost2010PropOp31
 70
     1
102
RTVSPost2010Prop32
280
     0
102
RTVSPost2010PropOp32
 70
     1
102
RTVSPost2010Prop33
280
     0
102
RTVSPost2010PropOp33
 70
     1
102
RTVSPost2010Prop34
280
     0
102
RTVSPost2010PropOp34
 70
     1
102
RTVSPost2010Prop35
280
     0
102
RTVSPost2010PropOp35
 70
     1
102
RTVSPost2010Prop36
280
     0
102
RTVSPost2010PropOp36
 70
     1
102
RTVSPost2010Prop37
 90
       50
102
RTVSPost2010PropOp37
 70
     1
102
RTVSPost2010Prop38
140
0.0
102
RTVSPost2010PropOp38
 70
     1
102
RTVSPost2010Prop39
140
1.0
102
RTVSPost2010PropOp39
 70
     1
102
RTVSPost2010Prop40
 90
        0
102
RTVSPost2010PropOp40
 70
     1
102
RTVSPost2010Prop41ColorIndex
 90
       18
102
RTVSPost2010Prop41ColorRGB
 90
        0
102
RTVSPost2010PropOp41
 70
     1
102
RTVSPost2010Prop42
 90
       50
102
RTVSPost2010PropOp42
 70
     1
102
RTVSPost2010Prop43
 90
        3
102
RTVSPost2010PropOp43
 70
     1
102
RTVSPost2010Prop44ColorIndex
 90
        5
102
RTVSPost2010Prop44ColorRGB
 90
      255
102
RTVSPost2010PropOp44
 70
     1
102
RTVSPost2010Prop45
280
     0
102
RTVSPost2010PropOp45
 70
     1
102
RTVSPost2010Prop46
 90
       50
102
RTVSPost2010PropOp46
 70
     1
102
RTVSPost2010Prop47
 90
       50
102
RTVSPost2010PropOp47
 70
     1
102
RTVSPost2010Prop48
 90
       50
102
RTVSPost2010PropOp48
 70
     1
102
RTVSPost2010Prop49
280
     0
102
RTVSPost2010PropOp49
 70
     1
102
RTVSPost2010Prop50
 90
       50
102
RTVSPost2010PropOp50
 70
     1
102
RTVSPost2010Prop51ColorIndex
 90
      256
102
RTVSPost2010Prop51ColorRGB
 90
-16777216
102
RTVSPost2010PropOp51
 70
     0
102
RTVSPost2010Prop52
140
1.0
102
RTVSPost2010PropOp52
 70
     0
102
RTVSPost2010Prop53
 90
        2
102
RTVSPost2010PropOp53
 70
     1
102
RTVSPost2010Prop54
  1
strokes_ogs.tif
102
RTVSPost2010PropOp54
 70
     1
102
RTVSPost2010Prop55
280
     0
102
RTVSPost2010PropOp55
 70
     1
102
RTVSPost2010Prop56
140
1.0
102
RTVSPost2010PropOp56
 70
     1
102
RTVSPost2010Prop57
140
1.0
102
RTVSPost2010PropOp57
 70
     1
102
RTVSPropertyOp0
 70
     1
102
RTVSPropertyOp1
 70
     1
102
RTVSPropertyOp2
 70
     1
102
RTVSPropertyOp3
 70
     1
102
RTVSPropertyOp4
 70
     1
102
RTVSPropertyOp5
 70
     1
102
RTVSPropertyOp6
 70
     1
102
RTVSPropertyOp7
 70
     1
102
RTVSPropertyOp8
 70
     1
102
RTVSPropertyOp9
 70
     1
102
RTVSPropertyOp10
 70
     1
102
RTVSPropertyOp11
 70
     1
102
RTVSPropertyOp12
 70
     1
102
RTVSPropertyOp13
 70
     1
102
RTVSPropertyOp14
 70
     1
102
RTVSPropertyOp15
 70
     1
102
RTVSPropertyOp16
 70
     1
102
RTVSPropertyOp17
 70
     1
102
RTVSPropertyOp18
 70
     1
102
RTVSPropertyOp19
 70
     1
102
RTVSPropertyOp20
 70
     1
102
RTVSPropertyOp21
 70
     1
102
RTVSPropertyOp22
 70
     1
102
RTVSPropertyOp23
 70
     1
102
RTVSPropertyOp24
 70
     1
102
RTVSPropertyOp25
 70
     1
102
RTVSPropertyOp26
 70
     1
102
RTVSPropertyOp27
 70
     1
102
RTVSPropertyOp28
 70
     1
102
RTVSPropertyOp29
 70
     1
102
RTVSPropertyOp30
 70
     1
102
RTVSPropertyOp31
 70
     1
102
RTVSPropertyOp32
 70
     1
102
RTVSPropertyOp33
 70
     1
102
RTVSPropertyOp34
 70
     1
102
RTVSPropertyOp35
 70
     1
102
RTVSPropertyOp36
 70
     1
102
RTVSPropertyOp37
 70
     1
102
RTVSPropertyOp38
 70
     1
102
RTVSPropertyOp39
 70
     1
102
RTVSPropertyOp40
 70
     1
102
RTVSPropertyOp41
 70
     1
102
RTVSPropertyOp42
 70
     1
102
RTVSPropertyOp43
 70
     1
102
RTVSPropertyOp44
 70
     1
102
RTVSPropertyOp45
 70
     1
102
RTVSPropertyOp46
 70
     1
102
RTVSPropertyOp47
 70
     1
102
RTVSPropertyOp48
 70
     1
102
RTVSPropertyOp49
 70
     1
102
RTVSPropertyOp50
 70
     1
102
RTVSPropertyOp51
 70
     0
102
RTVSPropertyOp52
 70
     0
102
RTVSPropertyOp53
 70
     1
102
RTVSPropertyOp54
 70
     1
102
RTVSPropertyOp55
 70
     1
102
RTVSPropertyOp56
 70
     1
102
RTVSPropertyOp57
 70
     1
102
RTVSPropertyOp58
 70
     1
102
RTVSPropertyOp59
 70
     1
102
RTVSPropertyOp60
 70
     1
102
RTVSPropertyOp61
 70
     1
102
RTVSPropertyOp62
 70
     1
  0
ENDSEC
  0
EOF
