  0
SECTION
  2
HEADER
  9
$ACADVER
  1
AC1015
  9
$ACADMAINTVER
 70
    20
  9
$DWGCODEPAGE
  3
ANSI_932
  9
$INSBASE
 10
0.0
 20
0.0
 30
0.0
  9
$EXTMIN
 10
10.000001
 20
10.000001
 30
0.0
  9
$EXTMAX
 10
359.9023029999998
 20
238.9472829999998
 30
0.0
  9
$LIMMIN
 10
0.0
 20
0.0
  9
$LIMMAX
 10
396.0
 20
273.0
  9
$ORTHOMODE
 70
     1
  9
$REGENMODE
 70
     1
  9
$FILLMODE
 70
     1
  9
$QTEXTMODE
 70
     0
  9
$MIRRTEXT
 70
     1
  9
$LTSCALE
 40
20.0
  9
$ATTMODE
 70
     1
  9
$TEXTSIZE
 40
5.0
  9
$TRACEWID
 40
1.0
  9
$TEXTSTYLE
  7
STANDARD
  9
$CLAYER
  8
0
  9
$CELTYPE
  6
BYLAYER
  9
$CECOLOR
 62
   256
  9
$CELTSCALE
 40
1.0
  9
$DISPSILH
 70
     0
  9
$DIMSCALE
 40
1.0
  9
$DIMASZ
 40
2.5
  9
$DIMEXO
 40
1.0
  9
$DIMDLI
 40
10.0
  9
$DIMRND
 40
0.0
  9
$DIMDLE
 40
0.0
  9
$DIMEXE
 40
1.0
  9
$DIMTP
 40
0.0
  9
$DIMTM
 40
0.0
  9
$DIMTXT
 40
3.2
  9
$DIMCEN
 40
0.0
  9
$DIMTSZ
 40
0.0
  9
$DIMTOL
 70
     0
  9
$DIMLIM
 70
     0
  9
$DIMTIH
 70
     0
  9
$DIMTOH
 70
     0
  9
$DIMSE1
 70
     0
  9
$DIMSE2
 70
     0
  9
$DIMTAD
 70
     3
  9
$DIMZIN
 70
     8
  9
$DIMBLK
  1

  9
$DIMASO
 70
     1
  9
$DIMSHO
 70
     1
  9
$DIMPOST
  1

  9
$DIMAPOST
  1

  9
$DIMALT
 70
     0
  9
$DIMALTD
 70
     2
  9
$DIMALTF
 40
25.4
  9
$DIMLFAC
 40
1.0
  9
$DIMTOFL
 70
     1
  9
$DIMTVP
 40
0.0
  9
$DIMTIX
 70
     0
  9
$DIMSOXD
 70
     0
  9
$DIMSAH
 70
     1
  9
$DIMBLK1
  1
OPEN
  9
$DIMBLK2
  1
OPEN
  9
$DIMSTYLE
  2
STANDARD
  9
$DIMCLRD
 70
     0
  9
$DIMCLRE
 70
     0
  9
$DIMCLRT
 70
     0
  9
$DIMTFAC
 40
1.0
  9
$DIMGAP
 40
1.0
  9
$DIMJUST
 70
     0
  9
$DIMSD1
 70
     0
  9
$DIMSD2
 70
     0
  9
$DIMTOLJ
 70
     1
  9
$DIMTZIN
 70
     0
  9
$DIMALTZ
 70
     0
  9
$DIMALTTZ
 70
     0
  9
$DIMUPT
 70
     0
  9
$DIMDEC
 70
     4
  9
$DIMTDEC
 70
     4
  9
$DIMALTU
 70
     2
  9
$DIMALTTD
 70
     2
  9
$DIMTXSTY
  7
STANDARD
  9
$DIMAUNIT
 70
     0
  9
$DIMADEC
 70
     0
  9
$DIMALTRND
 40
0.0
  9
$DIMAZIN
 70
     0
  9
$DIMDSEP
 70
    46
  9
$DIMATFIT
 70
     3
  9
$DIMFRAC
 70
     0
  9
$DIMLDRBLK
  1
OPEN
  9
$DIMLUNIT
 70
     2
  9
$DIMLWD
 70
    -2
  9
$DIMLWE
 70
    -2
  9
$DIMTMOVE
 70
     0
  9
$LUNITS
 70
     2
  9
$LUPREC
 70
     4
  9
$SKETCHINC
 40
1.0
  9
$FILLETRAD
 40
2.5
  9
$AUNITS
 70
     0
  9
$AUPREC
 70
     2
  9
$MENU
  1
.
  9
$ELEVATION
 40
0.0
  9
$PELEVATION
 40
0.0
  9
$THICKNESS
 40
0.0
  9
$LIMCHECK
 70
     0
  9
$CHAMFERA
 40
10.0
  9
$CHAMFERB
 40
10.0
  9
$CHAMFERC
 40
0.0
  9
$CHAMFERD
 40
0.0
  9
$SKPOLY
 70
     0
  9
$TDCREATE
 40
2451345.683937384
  9
$TDUCREATE
 40
2451345.308937384
  9
$TDUPDATE
 40
2457192.601380463
  9
$TDUUPDATE
 40
2457192.226380463
  9
$TDINDWG
 40
0.0000162269
  9
$TDUSRTIMER
 40
0.0000157986
  9
$USRTIMER
 70
     1
  9
$ANGBASE
 50
0.0
  9
$ANGDIR
 70
     0
  9
$PDMODE
 70
     0
  9
$PDSIZE
 40
0.0
  9
$PLINEWID
 40
0.0
  9
$SPLFRAME
 70
     0
  9
$SPLINETYPE
 70
     6
  9
$SPLINESEGS
 70
     8
  9
$HANDSEED
  5
9CCE
  9
$SURFTAB1
 70
     6
  9
$SURFTAB2
 70
     6
  9
$SURFTYPE
 70
     6
  9
$SURFU
 70
     6
  9
$SURFV
 70
     6
  9
$UCSBASE
  2

  9
$UCSNAME
  2

  9
$UCSORG
 10
0.0
 20
0.0
 30
0.0
  9
$UCSXDIR
 10
1.0
 20
0.0
 30
0.0
  9
$UCSYDIR
 10
0.0
 20
1.0
 30
0.0
  9
$UCSORTHOREF
  2

  9
$UCSORTHOVIEW
 70
     0
  9
$UCSORGTOP
 10
0.0
 20
0.0
 30
0.0
  9
$UCSORGBOTTOM
 10
0.0
 20
0.0
 30
0.0
  9
$UCSORGLEFT
 10
0.0
 20
0.0
 30
0.0
  9
$UCSORGRIGHT
 10
0.0
 20
0.0
 30
0.0
  9
$UCSORGFRONT
 10
0.0
 20
0.0
 30
0.0
  9
$UCSORGBACK
 10
0.0
 20
0.0
 30
0.0
  9
$PUCSBASE
  2

  9
$PUCSNAME
  2

  9
$PUCSORG
 10
0.0
 20
0.0
 30
0.0
  9
$PUCSXDIR
 10
1.0
 20
0.0
 30
0.0
  9
$PUCSYDIR
 10
0.0
 20
1.0
 30
0.0
  9
$PUCSORTHOREF
  2

  9
$PUCSORTHOVIEW
 70
     0
  9
$PUCSORGTOP
 10
0.0
 20
0.0
 30
0.0
  9
$PUCSORGBOTTOM
 10
0.0
 20
0.0
 30
0.0
  9
$PUCSORGLEFT
 10
0.0
 20
0.0
 30
0.0
  9
$PUCSORGRIGHT
 10
0.0
 20
0.0
 30
0.0
  9
$PUCSORGFRONT
 10
0.0
 20
0.0
 30
0.0
  9
$PUCSORGBACK
 10
0.0
 20
0.0
 30
0.0
  9
$USERI1
 70
     0
  9
$USERI2
 70
     0
  9
$USERI3
 70
     0
  9
$USERI4
 70
     0
  9
$USERI5
 70
     0
  9
$USERR1
 40
0.0
  9
$USERR2
 40
0.0
  9
$USERR3
 40
0.0
  9
$USERR4
 40
0.0
  9
$USERR5
 40
0.0
  9
$WORLDVIEW
 70
     1
  9
$SHADEDGE
 70
     3
  9
$SHADEDIF
 70
    70
  9
$TILEMODE
 70
     1
  9
$MAXACTVP
 70
    16
  9
$PINSBASE
 10
0.0
 20
0.0
 30
0.0
  9
$PLIMCHECK
 70
     0
  9
$PEXTMIN
 10
1.000000000000000E+20
 20
1.000000000000000E+20
 30
1.000000000000000E+20
  9
$PEXTMAX
 10
-1.000000000000000E+20
 20
-1.000000000000000E+20
 30
-1.000000000000000E+20
  9
$PLIMMIN
 10
0.0
 20
0.0
  9
$PLIMMAX
 10
420.0
 20
297.0
  9
$UNITMODE
 70
     0
  9
$VISRETAIN
 70
     0
  9
$PLINEGEN
 70
     0
  9
$PSLTSCALE
 70
     0
  9
$TREEDEPTH
 70
  3020
  9
$CMLSTYLE
  2
STANDARD
  9
$CMLJUST
 70
     0
  9
$CMLSCALE
 40
1.0
  9
$PROXYGRAPHICS
 70
     1
  9
$MEASUREMENT
 70
     0
  9
$CELWEIGHT
370
    -1
  9
$ENDCAPS
280
     0
  9
$JOINSTYLE
280
     0
  9
$LWDISPLAY
290
     0
  9
$INSUNITS
 70
     0
  9
$HYPERLINKBASE
  1

  9
$STYLESHEET
  1

  9
$XEDIT
290
     1
  9
$CEPSNTYPE
380
     0
  9
$PSTYLEMODE
290
     1
  9
$FINGERPRINTGUID
  2
{D9F5D0E1-C302-47DD-9A16-F8E9B9E1CE2C}
  9
$VERSIONGUID
  2
{98095497-1090-4E39-92BA-A4A8C5F1152C}
  9
$EXTNAMES
290
     1
  9
$PSVPSCALE
 40
0.0
  9
$OLESTARTUP
290
     0
  0
ENDSEC
  0
SECTION
  2
CLASSES
  0
CLASS
  1
ACDBDICTIONARYWDFLT
  2
AcDbDictionaryWithDefault
  3
ObjectDBX Classes
 90
        0
280
     0
281
     0
  0
CLASS
  1
ACDBPLACEHOLDER
  2
AcDbPlaceHolder
  3
ObjectDBX Classes
 90
        0
280
     0
281
     0
  0
CLASS
  1
LAYOUT
  2
AcDbLayout
  3
ObjectDBX Classes
 90
        0
280
     0
281
     0
  0
CLASS
  1
DICTIONARYVAR
  2
AcDbDictionaryVar
  3
ObjectDBX Classes
 90
        0
280
     0
281
     0
  0
CLASS
  1
MATERIAL
  2
AcDbMaterial
  3
ObjectDBX Classes
 90
     1153
280
     0
281
     0
  0
CLASS
  1
VISUALSTYLE
  2
AcDbVisualStyle
  3
ObjectDBX Classes
 90
     4095
280
     0
281
     0
  0
CLASS
  1
TABLESTYLE
  2
AcDbTableStyle
  3
ObjectDBX Classes
 90
     4095
280
     0
281
     0
  0
CLASS
  1
SCALE
  2
AcDbScale
  3
ObjectDBX Classes
 90
     1153
280
     0
281
     0
  0
CLASS
  1
MLEADERSTYLE
  2
AcDbMLeaderStyle
  3
ACDB_MLEADERSTYLE_CLASS
 90
     4095
280
     0
281
     0
  0
CLASS
  1
ACDBSECTIONVIEWSTYLE
  2
AcDbSectionViewStyle
  3
ObjectDBX Classes
 90
     1025
280
     0
281
     0
  0
CLASS
  1
ACDBDETAILVIEWSTYLE
  2
AcDbDetailViewStyle
  3
ObjectDBX Classes
 90
     1025
280
     0
281
     0
  0
CLASS
  1
CELLSTYLEMAP
  2
AcDbCellStyleMap
  3
ObjectDBX Classes
 90
     1152
280
     0
281
     0
  0
ENDSEC
  0
SECTION
  2
TABLES
  0
TABLE
  2
VPORT
  5
9A1A
330
0
100
AcDbSymbolTable
 70
     1
  0
VPORT
  5
9C17
330
9A1A
100
AcDbSymbolTableRecord
100
AcDbViewportTableRecord
  2
*ACTIVE
 70
     0
 10
0.0
 20
0.0
 11
1.0
 21
1.0
 12
254.2975858703213
 22
124.4716879385193
 13
0.0
 23
0.0
 14
10.0
 24
10.0
 15
10.0
 25
10.0
 16
0.0
 26
0.0
 36
1.0
 17
0.0
 27
0.0
 37
0.0
 40
231.5257592921706
 41
1.899603698811096
 42
50.0
 43
0.0
 44
0.0
 50
0.0
 51
0.0
 71
     0
 72
   100
 73
     1
 74
     0
 75
     0
 76
     0
 77
     0
 78
     0
281
     0
 65
     1
110
0.0
120
0.0
130
0.0
111
1.0
121
0.0
131
0.0
112
0.0
122
1.0
132
0.0
 79
     0
146
0.0
1001
ACAD_NAV_VCDISPLAY
1070
     3
  0
ENDTAB
  0
TABLE
  2
LTYPE
  5
9A17
330
0
100
AcDbSymbolTable
 70
     4
  0
LTYPE
  5
9A25
330
9A17
100
AcDbSymbolTableRecord
100
AcDbLinetypeTableRecord
  2
BYBLOCK
 70
     0
  3

 72
    65
 73
     0
 40
0.0
  0
LTYPE
  5
9A26
330
9A17
100
AcDbSymbolTableRecord
100
AcDbLinetypeTableRecord
  2
BYLAYER
 70
     0
  3

 72
    65
 73
     0
 40
0.0
  0
LTYPE
  5
9A27
330
9A17
100
AcDbSymbolTableRecord
100
AcDbLinetypeTableRecord
  2
CONTINUOUS
 70
     0
  3
Solid line
 72
    65
 73
     0
 40
0.0
  0
LTYPE
  5
9A35
330
9A17
100
AcDbSymbolTableRecord
100
AcDbLinetypeTableRecord
  2
DASHED
 70
     0
  3
__ __ __ __ __ __ __ __ __ __ __ __ __ __ __ __
 72
    65
 73
     2
 40
0.75
 49
0.5
 74
     0
 49
-0.25
 74
     0
  0
LTYPE
  5
9A36
330
9A17
100
AcDbSymbolTableRecord
100
AcDbLinetypeTableRecord
  2
CENTER
 70
     0
  3
____ _ ____ _ ____ _ ____ _ ____ _ ____ _ ____ 
 72
    65
 73
     4
 40
2.0
 49
1.25
 74
     0
 49
-0.25
 74
     0
 49
0.25
 74
     0
 49
-0.25
 74
     0
  0
LTYPE
  5
9A37
330
9A17
100
AcDbSymbolTableRecord
100
AcDbLinetypeTableRecord
  2
PHANTOM
 70
     0
  3
______  __  __  ______  __  __  ______  __  __ 
 72
    65
 73
     6
 40
2.5
 49
1.25
 74
     0
 49
-0.25
 74
     0
 49
0.25
 74
     0
 49
-0.25
 74
     0
 49
0.25
 74
     0
 49
-0.25
 74
     0
  0
ENDTAB
  0
TABLE
  2
LAYER
  5
9A14
330
0
100
AcDbSymbolTable
 70
     8
  0
LAYER
  5
9A22
102
{ACAD_XDICTIONARY
360
9C72
102
}
330
9A14
100
AcDbSymbolTableRecord
100
AcDbLayerTableRecord
  2
0
 70
     0
 62
     7
  6
CONTINUOUS
370
    -3
390
9C20
  0
LAYER
  5
9A38
102
{ACAD_XDICTIONARY
360
9C74
102
}
330
9A14
100
AcDbSymbolTableRecord
100
AcDbLayerTableRecord
  2
4
 70
     0
 62
     1
  6
CENTER
370
    -3
390
9C20
  0
LAYER
  5
9A39
102
{ACAD_XDICTIONARY
360
9C76
102
}
330
9A14
100
AcDbSymbolTableRecord
100
AcDbLayerTableRecord
  2
5
 70
     0
 62
     6
  6
PHANTOM
370
    -3
390
9C20
  0
LAYER
  5
9A3A
102
{ACAD_XDICTIONARY
360
9C78
102
}
330
9A14
100
AcDbSymbolTableRecord
100
AcDbLayerTableRecord
  2
1
 70
     0
 62
     7
  6
CONTINUOUS
370
    -3
390
9C20
  0
LAYER
  5
9A3B
102
{ACAD_XDICTIONARY
360
9C7A
102
}
330
9A14
100
AcDbSymbolTableRecord
100
AcDbLayerTableRecord
  2
2
 70
     0
 62
     4
  6
CONTINUOUS
370
    -3
390
9C20
  0
LAYER
  5
9A3C
102
{ACAD_XDICTIONARY
360
9C7C
102
}
330
9A14
100
AcDbSymbolTableRecord
100
AcDbLayerTableRecord
  2
3
 70
     0
 62
     2
  6
DASHED
370
    -3
390
9C20
  0
LAYER
  5
9A3D
102
{ACAD_XDICTIONARY
360
9C7E
102
}
330
9A14
100
AcDbSymbolTableRecord
100
AcDbLayerTableRecord
  2
6
 70
     0
 62
     5
  6
CONTINUOUS
370
    -3
390
9C20
  0
LAYER
  5
9A3E
102
{ACAD_XDICTIONARY
360
9C80
102
}
330
9A14
100
AcDbSymbolTableRecord
100
AcDbLayerTableRecord
  2
7
 70
     0
 62
     3
  6
CONTINUOUS
370
    -3
390
9C20
  0
ENDTAB
  0
TABLE
  2
STYLE
  5
9A15
330
0
100
AcDbSymbolTable
 70
     1
  0
STYLE
  5
9A23
330
9A15
100
AcDbSymbolTableRecord
100
AcDbTextStyleTableRecord
  2
STANDARD
 70
     0
 40
0.0
 41
1.0
 50
0.0
 71
     0
 42
5.0
  3
txt
  4

  0
ENDTAB
  0
TABLE
  2
VIEW
  5
9A18
330
0
100
AcDbSymbolTable
 70
     0
  0
ENDTAB
  0
TABLE
  2
UCS
  5
9A19
330
0
100
AcDbSymbolTable
 70
     0
  0
ENDTAB
  0
TABLE
  2
APPID
  5
9A1B
330
0
100
AcDbSymbolTable
 70
     3
  0
APPID
  5
9A24
330
9A1B
100
AcDbSymbolTableRecord
100
AcDbRegAppTableRecord
  2
ACAD
 70
     0
  0
APPID
  5
9C8C
330
9A1B
100
AcDbSymbolTableRecord
100
AcDbRegAppTableRecord
  2
ACAD_NAV_VCDISPLAY
 70
     0
  0
APPID
  5
9CC5
330
9A1B
100
AcDbSymbolTableRecord
100
AcDbRegAppTableRecord
  2
ACAD_MLEADERVER
 70
     0
  0
ENDTAB
  0
TABLE
  2
DIMSTYLE
  5
9A1C
330
0
100
AcDbSymbolTable
 70
     1
100
AcDbDimStyleTable
 71
     0
  0
DIMSTYLE
105
9A40
330
9A1C
100
AcDbSymbolTableRecord
100
AcDbDimStyleTableRecord
  2
STANDARD
 70
     0
 41
2.5
 42
1.0
 43
10.0
 44
1.0
 73
     0
 74
     0
 77
     3
 78
     8
140
3.2
141
0.0
147
1.0
172
     1
173
     1
284
     8
285
     8
286
     8
340
9A23
  0
ENDTAB
  0
TABLE
  2
BLOCK_RECORD
  5
9A13
330
0
100
AcDbSymbolTable
 70
     1
  0
BLOCK_RECORD
  5
9A30
102
{ACAD_XDICTIONARY
360
9C1A
102
}
330
9A13
100
AcDbSymbolTableRecord
100
AcDbBlockTableRecord
  2
*MODEL_SPACE
340
9C6E
  0
BLOCK_RECORD
  5
9A2C
102
{ACAD_XDICTIONARY
360
9C18
102
}
330
9A13
100
AcDbSymbolTableRecord
100
AcDbBlockTableRecord
  2
*PAPER_SPACE
340
9C6F
  0
BLOCK_RECORD
  5
9A48
330
9A13
100
AcDbSymbolTableRecord
100
AcDbBlockTableRecord
  2
_OPEN
340
0
  0
ENDTAB
  0
ENDSEC
  0
SECTION
  2
BLOCKS
  0
BLOCK
  5
9A31
330
9A30
100
AcDbEntity
  8
0
100
AcDbBlockBegin
  2
*MODEL_SPACE
 70
     0
 10
0.0
 20
0.0
 30
0.0
  3
*MODEL_SPACE
  1

  0
ENDBLK
  5
9A32
330
9A30
100
AcDbEntity
  8
0
100
AcDbBlockEnd
  0
BLOCK
  5
9A2D
330
9A2C
100
AcDbEntity
 67
     1
  8
0
100
AcDbBlockBegin
  2
*PAPER_SPACE
 70
     0
 10
0.0
 20
0.0
 30
0.0
  3
*PAPER_SPACE
  1

  0
ENDBLK
  5
9A2E
330
9A2C
100
AcDbEntity
 67
     1
  8
0
100
AcDbBlockEnd
  0
BLOCK
  5
9A49
330
9A48
100
AcDbEntity
  8
0
100
AcDbBlockBegin
  2
_OPEN
 70
     0
 10
0.0
 20
0.0
 30
0.0
  3
_OPEN
  1

  0
LINE
  5
9A4A
330
9A48
100
AcDbEntity
  8
0
  6
ByBlock
 62
     0
100
AcDbLine
 10
-1.0
 20
0.166667
 30
0.0
 11
0.0
 21
0.0
 31
0.0
  0
LINE
  5
9A4B
330
9A48
100
AcDbEntity
  8
0
  6
ByBlock
 62
     0
100
AcDbLine
 10
0.0
 20
0.0
 30
0.0
 11
-1.0
 21
-0.166667
 31
0.0
  0
LINE
  5
9A4C
330
9A48
100
AcDbEntity
  8
0
  6
ByBlock
 62
     0
100
AcDbLine
 10
0.0
 20
0.0
 30
0.0
 11
-1.0
 21
0.0
 31
0.0
  0
ENDBLK
  5
9A4D
330
9A48
100
AcDbEntity
  8
0
100
AcDbBlockEnd
  0
ENDSEC
  0
SECTION
  2
ENTITIES
  0
LINE
  5
9A4E
330
9A30
100
AcDbEntity
  8
1
  6
Continuous
100
AcDbLine
 10
257.79141
 20
130.4736419999999
 30
0.0
 11
233.2914099999999
 21
130.4736419999999
 31
0.0
  0
LINE
  5
9A4F
330
9A30
100
AcDbEntity
  8
1
  6
Continuous
100
AcDbLine
 10
257.79141
 20
149.4736419999999
 30
0.0
 11
233.2914099999999
 21
149.4736419999999
 31
0.0
  0
LINE
  5
9A50
330
9A30
100
AcDbEntity
  8
4
  6
CENTER
100
AcDbLine
 10
272.29141
 20
139.9736419999999
 30
0.0
 11
218.255364
 21
139.9736419999999
 31
0.0
  0
LINE
  5
9A51
330
9A30
100
AcDbEntity
  8
4
  6
CENTER
100
AcDbLine
 10
233.2914099999999
 20
178.9736419999999
 30
0.0
 11
233.2914099999999
 21
124.091401
 31
0.0
  0
LINE
  5
9A52
330
9A30
100
AcDbEntity
  8
4
  6
CENTER
100
AcDbLine
 10
59.00000099999999
 20
121.31498
 30
0.0
 11
59.00000099999999
 21
178.9736419999999
 31
0.0
  0
LINE
  5
9A53
330
9A30
100
AcDbEntity
  8
1
  6
Continuous
100
AcDbLine
 10
117.280516
 20
65.500001
 30
0.0
 11
132.280516
 21
65.500001
 31
0.0
  0
LINE
  5
9A54
330
9A30
100
AcDbEntity
  8
1
  6
Continuous
100
AcDbLine
 10
117.280516
 20
65.720302
 30
0.0
 11
132.5008169999998
 21
65.720302
 31
0.0
  0
LINE
  5
9A55
330
9A30
100
AcDbEntity
  8
2
  6
Continuous
100
AcDbLine
 10
118.280516
 20
66.041501
 30
0.0
 11
132.8220159999999
 21
66.041501
 31
0.0
  0
LINE
  5
9A56
330
9A30
100
AcDbEntity
  8
2
  6
Continuous
100
AcDbLine
 10
117.280516
 20
65.500001
 30
0.0
 11
133.5805159999999
 21
71.76078699999997
 31
0.0
  0
LINE
  5
9A57
330
9A30
100
AcDbEntity
  8
2
  6
Continuous
100
AcDbLine
 10
117.280516
 20
72.965991
 30
0.0
 11
133.5805159999999
 21
66.92550200000001
 31
0.0
  0
LINE
  5
9A58
330
9A30
100
AcDbEntity
  8
2
  6
Continuous
100
AcDbLine
 10
118.280516
 20
83.958501
 30
0.0
 11
132.8220159999999
 21
83.958501
 31
0.0
  0
LINE
  5
9A59
330
9A30
100
AcDbEntity
  8
1
  6
Continuous
100
AcDbLine
 10
117.280516
 20
84.50000099999998
 30
0.0
 11
132.280516
 21
84.50000099999998
 31
0.0
  0
LINE
  5
9A5A
330
9A30
100
AcDbEntity
  8
1
  6
Continuous
100
AcDbLine
 10
117.280516
 20
149.4736419999999
 30
0.0
 11
132.280516
 21
149.4736419999999
 31
0.0
  0
LINE
  5
9A5B
330
9A30
100
AcDbEntity
  8
1
  6
Continuous
100
AcDbLine
 10
117.280516
 20
149.2533399999998
 30
0.0
 11
132.280516
 21
149.2533399999998
 31
0.0
  0
LINE
  5
9A5C
330
9A30
100
AcDbEntity
  8
2
  6
Continuous
100
AcDbLine
 10
118.280516
 20
148.932142
 30
0.0
 11
132.8220159999999
 21
148.932142
 31
0.0
  0
LINE
  5
9A5D
330
9A30
100
AcDbEntity
  8
1
  6
Continuous
100
AcDbLine
 10
117.280516
 20
130.4736419999999
 30
0.0
 11
132.280516
 21
130.4736419999999
 31
0.0
  0
LINE
  5
9A5E
330
9A30
100
AcDbEntity
  8
2
  6
Continuous
100
AcDbLine
 10
118.280516
 20
131.0151419999999
 30
0.0
 11
132.8220159999999
 21
131.0151419999999
 31
0.0
  0
LINE
  5
9A5F
330
9A30
100
AcDbEntity
  8
2
  6
Continuous
100
AcDbLine
 10
117.280516
 20
149.4736419999999
 30
0.0
 11
133.5805159999999
 21
143.212852
 31
0.0
  0
LINE
  5
9A60
330
9A30
100
AcDbEntity
  8
2
  6
Continuous
100
AcDbLine
 10
117.280516
 20
142.007651
 30
0.0
 11
133.5805159999999
 21
148.0481399999999
 31
0.0
  0
LINE
  5
9A61
330
9A30
100
AcDbEntity
  8
4
  6
CENTER
100
AcDbLine
 10
106.6805159999999
 20
75.00000099999998
 30
0.0
 11
147.880477
 21
75.00000099999998
 31
0.0
  0
LINE
  5
9A62
330
9A30
100
AcDbEntity
  8
1
  6
Continuous
100
AcDbLine
 10
132.280516
 20
72.965991
 30
0.0
 11
117.280516
 21
72.965991
 31
0.0
  0
LINE
  5
9A63
330
9A30
100
AcDbEntity
  8
1
  6
Continuous
100
AcDbLine
 10
132.280516
 20
142.007652
 30
0.0
 11
117.280516
 21
142.007652
 31
0.0
  0
LINE
  5
9A64
330
9A30
100
AcDbEntity
  8
4
  6
CENTER
100
AcDbLine
 10
106.6805159999999
 20
139.9736419999999
 30
0.0
 11
147.880477
 21
139.9736419999999
 31
0.0
  0
TEXT
  5
9A65
330
9A30
100
AcDbEntity
  8
7
  6
Continuous
100
AcDbText
 10
10.000001
 20
26.000001
 30
0.0
 40
3.0
  1
CODE No.1825
100
AcDbText
  0
TEXT
  5
9A66
330
9A30
100
AcDbEntity
  8
7
  6
Continuous
100
AcDbText
 10
10.000001
 20
18.000001
 30
0.0
 40
3.0
  1
TYPE No.TL-305
100
AcDbText
  0
TEXT
  5
9A67
330
9A30
100
AcDbEntity
  8
1
  6
Continuous
100
AcDbText
 10
10.000001
 20
10.000001
 30
0.0
 40
1.399999999999999
  1
LAYER
100
AcDbText
  0
TEXT
  5
9A68
330
9A30
100
AcDbEntity
  8
5
  6
PHANTOM
100
AcDbText
 10
25.979512
 20
10.048738
 30
0.0
 40
1.399999999999999
  1
5
100
AcDbText
  0
TEXT
  5
9A69
330
9A30
100
AcDbEntity
  8
6
  6
Continuous
100
AcDbText
 10
27.97951199999999
 20
10.048738
 30
0.0
 40
1.399999999999999
  1
6
100
AcDbText
  0
TEXT
  5
9A6A
330
9A30
100
AcDbEntity
  8
2
  6
Continuous
100
AcDbText
 10
19.979512
 20
10.048738
 30
0.0
 40
1.399999999999999
  1
2
100
AcDbText
  0
TEXT
  5
9A6B
330
9A30
100
AcDbEntity
  8
3
  6
DASHED
100
AcDbText
 10
21.97951199999998
 20
10.048738
 30
0.0
 40
1.399999999999999
  1
3
100
AcDbText
  0
TEXT
  5
9A6C
330
9A30
100
AcDbEntity
  8
4
  6
CENTER
100
AcDbText
 10
23.979512
 20
10.048738
 30
0.0
 40
1.399999999999999
  1
4
100
AcDbText
  0
TEXT
  5
9A6D
330
9A30
100
AcDbEntity
  8
7
  6
Continuous
100
AcDbText
 10
29.979512
 20
10.048738
 30
0.0
 40
1.399999999999999
  1
7
100
AcDbText
  0
TEXT
  5
9A6E
330
9A30
100
AcDbEntity
  8
1
  6
Continuous
100
AcDbText
 10
17.97951199999999
 20
10.048738
 30
0.0
 40
1.399999999999999
  1
1
100
AcDbText
  0
LINE
  5
9A6F
330
9A30
100
AcDbEntity
  8
1
  6
Continuous
100
AcDbLine
 10
118.280516
 20
65.500001
 30
0.0
 11
118.280516
 21
66.041501
 31
0.0
  0
LINE
  5
9A70
330
9A30
100
AcDbEntity
  8
1
  6
Continuous
100
AcDbLine
 10
113.6805159999999
 20
87.00000099999998
 30
0.0
 11
113.6805159999999
 21
63.000001
 31
0.0
  0
LINE
  5
9A71
330
9A30
100
AcDbEntity
  8
1
  6
Continuous
100
AcDbLine
 10
117.280516
 20
63.000001
 30
0.0
 11
117.280516
 21
87.00000099999998
 31
0.0
  0
LINE
  5
9A72
330
9A30
100
AcDbEntity
  8
1
  6
Continuous
100
AcDbLine
 10
117.280516
 20
65.500001
 30
0.0
 11
118.280516
 21
66.041501
 31
0.0
  0
LINE
  5
9A73
330
9A30
100
AcDbEntity
  8
1
  6
Continuous
100
AcDbLine
 10
111.6805159999999
 20
85.00000099999999
 30
0.0
 11
111.6805159999999
 21
65.000001
 31
0.0
  0
LINE
  5
9A74
330
9A30
100
AcDbEntity
  8
1
  6
Continuous
100
AcDbLine
 10
111.6805159999999
 20
65.000001
 30
0.0
 11
113.6805159999999
 21
63.000001
 31
0.0
  0
LINE
  5
9A75
330
9A30
100
AcDbEntity
  8
1
  6
Continuous
100
AcDbLine
 10
113.6805159999999
 20
63.000001
 30
0.0
 11
117.280516
 21
63.000001
 31
0.0
  0
LINE
  5
9A76
330
9A30
100
AcDbEntity
  8
1
  6
Continuous
100
AcDbLine
 10
113.6805159999999
 20
87.00000099999998
 30
0.0
 11
111.6805159999999
 21
85.00000099999999
 31
0.0
  0
LINE
  5
9A77
330
9A30
100
AcDbEntity
  8
1
  6
Continuous
100
AcDbLine
 10
118.280516
 20
72.965991
 30
0.0
 11
118.280516
 21
84.50000099999998
 31
0.0
  0
LINE
  5
9A78
330
9A30
100
AcDbEntity
  8
2
  6
Continuous
100
AcDbLine
 10
117.280516
 20
84.50000099999998
 30
0.0
 11
118.280516
 21
83.958501
 31
0.0
  0
LINE
  5
9A79
330
9A30
100
AcDbEntity
  8
1
  6
Continuous
100
AcDbLine
 10
113.6805159999999
 20
87.00000099999998
 30
0.0
 11
117.280516
 21
87.00000099999998
 31
0.0
  0
LINE
  5
9A7A
330
9A30
100
AcDbEntity
  8
4
  6
CENTER
100
AcDbLine
 10
20.000001
 20
139.9736419999999
 30
0.0
 11
76.00004699999998
 21
139.9736419999999
 31
0.0
  0
LINE
  5
9A7B
330
9A30
100
AcDbEntity
  8
1
  6
Continuous
100
AcDbLine
 10
59.00000099999999
 20
153.830101
 30
0.0
 11
71.00004699999998
 21
146.901871
 31
0.0
  0
LINE
  5
9A7C
330
9A30
100
AcDbEntity
  8
1
  6
Continuous
100
AcDbLine
 10
59.00000099999999
 20
126.117183
 30
0.0
 11
71.00004699999998
 21
133.0454119999999
 31
0.0
  0
ARC
  5
9A7D
330
9A30
100
AcDbEntity
  8
5
  6
PHANTOM
100
AcDbCircle
 10
59.00000099999999
 20
164.4736419999999
 30
0.0
 40
9.5
100
AcDbArc
 50
0.0
 51
180.0
  0
CIRCLE
  5
9A7E
330
9A30
100
AcDbEntity
  8
1
  6
Continuous
100
AcDbCircle
 10
59.00000099999999
 20
139.9736419999999
 30
0.0
 40
7.65
  0
CIRCLE
  5
9A7F
330
9A30
100
AcDbEntity
  8
1
  6
Continuous
100
AcDbCircle
 10
59.00000099999999
 20
139.9736419999999
 30
0.0
 40
12.0
  0
CIRCLE
  5
9A80
330
9A30
100
AcDbEntity
  8
1
  6
Continuous
100
AcDbCircle
 10
59.00000099999999
 20
139.9736419999999
 30
0.0
 40
10.0
  0
CIRCLE
  5
9A81
330
9A30
100
AcDbEntity
  8
1
  6
Continuous
100
AcDbCircle
 10
59.00000099999999
 20
139.9736419999999
 30
0.0
 40
7.75
  0
LINE
  5
9A82
330
9A30
100
AcDbEntity
  8
1
  6
Continuous
100
AcDbLine
 10
46.99995499999999
 20
133.0454119999999
 30
0.0
 11
59.00000099999999
 21
126.117183
 31
0.0
  0
ARC
  5
9A83
330
9A30
100
AcDbEntity
  8
1
  6
Continuous
100
AcDbCircle
 10
34.500001
 20
139.9736419999999
 30
0.0
 40
9.5
100
AcDbArc
 50
90.0
 51
270.0
  0
LINE
  5
9A84
330
9A30
100
AcDbEntity
  8
1
  6
Continuous
100
AcDbLine
 10
34.500001
 20
130.4736419999999
 30
0.0
 11
51.38239200000001
 21
130.4736419999999
 31
0.0
  0
LINE
  5
9A85
330
9A30
100
AcDbEntity
  8
5
  6
PHANTOM
100
AcDbLine
 10
49.500001
 20
164.4736419999999
 30
0.0
 11
49.500001
 21
148.3452729999999
 31
0.0
  0
LINE
  5
9A86
330
9A30
100
AcDbEntity
  8
1
  6
Continuous
100
AcDbLine
 10
46.99995499999999
 20
146.901871
 30
0.0
 11
59.00000099999999
 21
153.830101
 31
0.0
  0
LINE
  5
9A87
330
9A30
100
AcDbEntity
  8
1
  6
Continuous
100
AcDbLine
 10
51.38239200000001
 20
149.4736419999999
 30
0.0
 11
34.500001
 21
149.4736419999999
 31
0.0
  0
LINE
  5
9A88
330
9A30
100
AcDbEntity
  8
1
  6
Continuous
100
AcDbLine
 10
46.99995499999999
 20
133.0454119999999
 30
0.0
 11
46.99995499999999
 21
146.901871
 31
0.0
  0
LINE
  5
9A89
330
9A30
100
AcDbEntity
  8
1
  6
Continuous
100
AcDbLine
 10
61.802147
 20
132.855322
 30
0.0
 11
61.82819300000002
 21
132.758115
 31
0.0
  0
LINE
  5
9A8A
330
9A30
100
AcDbEntity
  8
1
  6
Continuous
100
AcDbLine
 10
56.19785499999998
 20
132.855322
 30
0.0
 11
56.17180799999999
 21
132.758115
 31
0.0
  0
LINE
  5
9A8B
330
9A30
100
AcDbEntity
  8
1
  6
Continuous
100
AcDbLine
 10
51.881681
 20
137.171496
 30
0.0
 11
51.78447399999999
 21
137.1454489999998
 31
0.0
  0
LINE
  5
9A8C
330
9A30
100
AcDbEntity
  8
1
  6
Continuous
100
AcDbLine
 10
51.881681
 20
142.7757879999998
 30
0.0
 11
51.78447399999999
 21
142.801834
 31
0.0
  0
LINE
  5
9A8D
330
9A30
100
AcDbEntity
  8
1
  6
Continuous
100
AcDbLine
 10
56.19785499999998
 20
147.091962
 30
0.0
 11
56.17180799999999
 21
147.1891689999999
 31
0.0
  0
LINE
  5
9A8E
330
9A30
100
AcDbEntity
  8
1
  6
Continuous
100
AcDbLine
 10
61.802147
 20
147.091962
 30
0.0
 11
61.82819300000002
 21
147.1891689999999
 31
0.0
  0
CIRCLE
  5
9A8F
330
9A30
100
AcDbEntity
  8
1
  6
Continuous
100
AcDbCircle
 10
59.00000099999999
 20
145.673642
 30
0.0
 40
0.5
  0
LINE
  5
9A90
330
9A30
100
AcDbEntity
  8
1
  6
Continuous
100
AcDbLine
 10
60.050001
 20
143.4736419999999
 30
0.0
 11
57.950001
 21
143.4736419999999
 31
0.0
  0
LINE
  5
9A91
330
9A30
100
AcDbEntity
  8
1
  6
Continuous
100
AcDbLine
 10
60.050001
 20
136.4736419999998
 30
0.0
 11
57.950001
 21
136.4736419999998
 31
0.0
  0
LINE
  5
9A92
330
9A30
100
AcDbEntity
  8
1
  6
Continuous
100
AcDbLine
 10
60.050001
 20
143.4736419999999
 30
0.0
 11
60.050001
 21
136.4736419999998
 31
0.0
  0
LINE
  5
9A93
330
9A30
100
AcDbEntity
  8
1
  6
Continuous
100
AcDbLine
 10
57.950001
 20
143.4736419999999
 30
0.0
 11
57.950001
 21
136.4736419999998
 31
0.0
  0
LINE
  5
9A94
330
9A30
100
AcDbEntity
  8
1
  6
Continuous
100
AcDbLine
 10
118.280516
 20
130.4736419999999
 30
0.0
 11
118.280516
 21
142.007652
 31
0.0
  0
LINE
  5
9A95
330
9A30
100
AcDbEntity
  8
1
  6
Continuous
100
AcDbLine
 10
113.6805159999999
 20
151.9736419999999
 30
0.0
 11
113.6805159999999
 21
127.973642
 31
0.0
  0
LINE
  5
9A96
330
9A30
100
AcDbEntity
  8
1
  6
Continuous
100
AcDbLine
 10
117.280516
 20
127.973642
 30
0.0
 11
117.280516
 21
151.9736419999999
 31
0.0
  0
LINE
  5
9A97
330
9A30
100
AcDbEntity
  8
1
  6
Continuous
100
AcDbLine
 10
111.6805159999999
 20
149.9736419999998
 30
0.0
 11
111.6805159999999
 21
129.9736419999999
 31
0.0
  0
LINE
  5
9A98
330
9A30
100
AcDbEntity
  8
1
  6
Continuous
100
AcDbLine
 10
111.6805159999999
 20
129.9736419999999
 30
0.0
 11
113.6805159999999
 21
127.973642
 31
0.0
  0
LINE
  5
9A99
330
9A30
100
AcDbEntity
  8
2
  6
Continuous
100
AcDbLine
 10
117.280516
 20
130.4736419999999
 30
0.0
 11
118.280516
 21
131.0151419999999
 31
0.0
  0
LINE
  5
9A9A
330
9A30
100
AcDbEntity
  8
1
  6
Continuous
100
AcDbLine
 10
113.6805159999999
 20
127.973642
 30
0.0
 11
117.280516
 21
127.973642
 31
0.0
  0
LINE
  5
9A9B
330
9A30
100
AcDbEntity
  8
5
  6
PHANTOM
100
AcDbLine
 10
68.50000099999999
 20
148.3452729999999
 30
0.0
 11
68.50000099999999
 21
164.4736419999999
 31
0.0
  0
LINE
  5
9A9C
330
9A30
100
AcDbEntity
  8
1
  6
Continuous
100
AcDbLine
 10
71.00004699999998
 20
133.0454119999999
 30
0.0
 11
71.00004699999998
 21
146.901871
 31
0.0
  0
LINE
  5
9A9D
330
9A30
100
AcDbEntity
  8
1
  6
Continuous
100
AcDbLine
 10
66.11832099999999
 20
142.7757879999998
 30
0.0
 11
66.215528
 21
142.801834
 31
0.0
  0
LINE
  5
9A9E
330
9A30
100
AcDbEntity
  8
1
  6
Continuous
100
AcDbLine
 10
66.11832099999999
 20
137.171496
 30
0.0
 11
66.215528
 21
137.1454489999998
 31
0.0
  0
LINE
  5
9A9F
330
9A30
100
AcDbEntity
  8
1
  6
Continuous
100
AcDbLine
 10
113.6805159999999
 20
151.9736419999999
 30
0.0
 11
111.6805159999999
 21
149.9736419999998
 31
0.0
  0
LINE
  5
9AA0
330
9A30
100
AcDbEntity
  8
1
  6
Continuous
100
AcDbLine
 10
118.280516
 20
148.932142
 30
0.0
 11
118.280516
 21
149.4736419999999
 31
0.0
  0
LINE
  5
9AA1
330
9A30
100
AcDbEntity
  8
2
  6
Continuous
100
AcDbLine
 10
117.280516
 20
149.4736419999999
 30
0.0
 11
118.280516
 21
148.932142
 31
0.0
  0
LINE
  5
9AA2
330
9A30
100
AcDbEntity
  8
1
  6
Continuous
100
AcDbLine
 10
113.6805159999999
 20
151.9736419999999
 30
0.0
 11
117.280516
 21
151.9736419999999
 31
0.0
  0
LINE
  5
9AA3
330
9A30
100
AcDbEntity
  8
1
  6
Continuous
100
AcDbLine
 10
135.280516
 20
84.50000099999998
 30
0.0
 11
135.280516
 21
41.00000099999999
 31
0.0
  0
LINE
  5
9AA4
330
9A30
100
AcDbEntity
  8
1
  6
Continuous
100
AcDbLine
 10
138.4805159999999
 20
84.50000099999998
 30
0.0
 11
138.4805159999999
 21
41.00000099999999
 31
0.0
  0
LINE
  5
9AA5
330
9A30
100
AcDbEntity
  8
1
  6
Continuous
100
AcDbLine
 10
138.4805159999999
 20
41.00000099999999
 30
0.0
 11
135.280516
 21
41.00000099999999
 31
0.0
  0
LINE
  5
9AA6
330
9A30
100
AcDbEntity
  8
1
  6
Continuous
100
AcDbLine
 10
132.280516
 20
65.720302
 30
0.0
 11
133.0805159999999
 21
66.925503
 31
0.0
  0
LINE
  5
9AA7
330
9A30
100
AcDbEntity
  8
1
  6
Continuous
100
AcDbLine
 10
133.0805159999999
 20
66.300001
 30
0.0
 11
132.280516
 21
65.500001
 31
0.0
  0
LINE
  5
9AA8
330
9A30
100
AcDbEntity
  8
1
  6
Continuous
100
AcDbLine
 10
132.280516
 20
65.500001
 30
0.0
 11
132.280516
 21
65.720302
 31
0.0
  0
LINE
  5
9AA9
330
9A30
100
AcDbEntity
  8
1
  6
Continuous
100
AcDbLine
 10
140.2804769999999
 20
71.50000099999998
 30
0.0
 11
141.399892
 21
71.597937
 31
0.0
  0
ARC
  5
9AAA
330
9A30
100
AcDbEntity
  8
1
  6
Continuous
100
AcDbCircle
 10
141.2865899999999
 20
72.89298999999998
 30
0.0
 40
1.3
100
AcDbArc
 50
275.0
 51
344.1191499999998
  0
LINE
  5
9AAB
330
9A30
100
AcDbEntity
  8
1
  6
Continuous
100
AcDbLine
 10
140.2804769999999
 20
71.200001
 30
0.0
 11
139.2804769999999
 21
71.200001
 31
0.0
  0
LINE
  5
9AAC
330
9A30
100
AcDbEntity
  8
1
  6
Continuous
100
AcDbLine
 10
138.4805159999999
 20
70.000001
 30
0.0
 11
139.2804769999999
 21
70.000001
 31
0.0
  0
LINE
  5
9AAD
330
9A30
100
AcDbEntity
  8
1
  6
Continuous
100
AcDbLine
 10
140.2804769999999
 20
76.00000099999999
 30
0.0
 11
139.2804769999999
 21
75.00000099999998
 31
0.0
  0
LINE
  5
9AAE
330
9A30
100
AcDbEntity
  8
1
  6
Continuous
100
AcDbLine
 10
140.2804769999999
 20
75.00000099999998
 30
0.0
 11
139.2804769999999
 21
74.00000099999998
 31
0.0
  0
ARC
  5
9AAF
330
9A30
100
AcDbEntity
  8
1
  6
Continuous
100
AcDbCircle
 10
133.880477
 20
75.00000099999998
 30
0.0
 40
9.0
100
AcDbArc
 50
344.1191499999998
 51
15.88085
  0
ARC
  5
9AB0
330
9A30
100
AcDbEntity
  8
1
  6
Continuous
100
AcDbCircle
 10
141.2865899999999
 20
77.10701199999999
 30
0.0
 40
1.3
100
AcDbArc
 50
15.88085
 51
85.0
  0
LINE
  5
9AB1
330
9A30
100
AcDbEntity
  8
1
  6
Continuous
100
AcDbLine
 10
139.2804769999999
 20
80.00000099999999
 30
0.0
 11
139.2804769999999
 21
70.000001
 31
0.0
  0
LINE
  5
9AB2
330
9A30
100
AcDbEntity
  8
1
  6
Continuous
100
AcDbLine
 10
138.4805159999999
 20
80.00000099999999
 30
0.0
 11
139.2804769999999
 21
80.00000099999999
 31
0.0
  0
LINE
  5
9AB3
330
9A30
100
AcDbEntity
  8
1
  6
Continuous
100
AcDbLine
 10
140.2804769999999
 20
78.50000099999999
 30
0.0
 11
141.399892
 21
78.40206499999998
 31
0.0
  0
LINE
  5
9AB4
330
9A30
100
AcDbEntity
  8
1
  6
Continuous
100
AcDbLine
 10
140.2804769999999
 20
78.80000099999998
 30
0.0
 11
140.2804769999999
 21
71.200001
 31
0.0
  0
LINE
  5
9AB5
330
9A30
100
AcDbEntity
  8
1
  6
Continuous
100
AcDbLine
 10
140.2804769999999
 20
78.80000099999998
 30
0.0
 11
139.2804769999999
 21
78.80000099999998
 31
0.0
  0
LINE
  5
9AB6
330
9A30
100
AcDbEntity
  8
1
  6
Continuous
100
AcDbLine
 10
135.1805159999998
 20
82.534422
 30
0.0
 11
135.1805159999998
 21
75.00000099999998
 31
0.0
  0
LINE
  5
9AB7
330
9A30
100
AcDbEntity
  8
1
  6
Continuous
100
AcDbLine
 10
135.1805159999998
 20
75.00000099999998
 30
0.0
 11
133.5805159999999
 21
75.00000099999998
 31
0.0
  0
LINE
  5
9AB8
330
9A30
100
AcDbEntity
  8
1
  6
Continuous
100
AcDbLine
 10
133.6805159999999
 20
82.900001
 30
0.0
 11
133.6805159999999
 21
82.534422
 31
0.0
  0
LINE
  5
9AB9
330
9A30
100
AcDbEntity
  8
1
  6
Continuous
100
AcDbLine
 10
135.1805159999998
 20
82.534422
 30
0.0
 11
133.5805159999999
 21
82.534422
 31
0.0
  0
LINE
  5
9ABA
330
9A30
100
AcDbEntity
  8
1
  6
Continuous
100
AcDbLine
 10
133.0805159999999
 20
83.700001
 30
0.0
 11
133.0805159999999
 21
71.76079
 31
0.0
  0
LINE
  5
9ABB
330
9A30
100
AcDbEntity
  8
1
  6
Continuous
100
AcDbLine
 10
133.0805159999999
 20
66.925503
 30
0.0
 11
133.0805159999999
 21
66.300001
 31
0.0
  0
LINE
  5
9ABC
330
9A30
100
AcDbEntity
  8
1
  6
Continuous
100
AcDbLine
 10
132.280516
 20
72.965991
 30
0.0
 11
132.280516
 21
84.50000099999998
 31
0.0
  0
LINE
  5
9ABD
330
9A30
100
AcDbEntity
  8
1
  6
Continuous
100
AcDbLine
 10
132.280516
 20
72.965991
 30
0.0
 11
133.0805159999999
 21
71.76079
 31
0.0
  0
LINE
  5
9ABE
330
9A30
100
AcDbEntity
  8
1
  6
Continuous
100
AcDbLine
 10
133.5805159999999
 20
71.76079
 30
0.0
 11
133.0805159999999
 21
71.76079
 31
0.0
  0
LINE
  5
9ABF
330
9A30
100
AcDbEntity
  8
1
  6
Continuous
100
AcDbLine
 10
133.5805159999999
 20
66.925503
 30
0.0
 11
133.0805159999999
 21
66.925503
 31
0.0
  0
LINE
  5
9AC0
330
9A30
100
AcDbEntity
  8
1
  6
Continuous
100
AcDbLine
 10
138.4805159999999
 20
84.50000099999998
 30
0.0
 11
135.280516
 21
84.50000099999998
 31
0.0
  0
LINE
  5
9AC1
330
9A30
100
AcDbEntity
  8
1
  6
Continuous
100
AcDbLine
 10
133.0805159999999
 20
83.700001
 30
0.0
 11
132.280516
 21
84.50000099999998
 31
0.0
  0
LINE
  5
9AC2
330
9A30
100
AcDbEntity
  8
1
  6
Continuous
100
AcDbLine
 10
133.0805159999999
 20
83.700001
 30
0.0
 11
133.5805159999999
 21
83.700001
 31
0.0
  0
LINE
  5
9AC3
330
9A30
100
AcDbEntity
  8
1
  6
Continuous
100
AcDbLine
 10
133.5805159999999
 20
83.700001
 30
0.0
 11
133.5805159999999
 21
66.300001
 31
0.0
  0
LINE
  5
9AC4
330
9A30
100
AcDbEntity
  8
1
  6
Continuous
100
AcDbLine
 10
133.0805159999999
 20
66.300001
 30
0.0
 11
133.5805159999999
 21
66.300001
 31
0.0
  0
LINE
  5
9AC5
330
9A30
100
AcDbEntity
  8
1
  6
Continuous
100
AcDbLine
 10
135.280516
 20
67.10000100000001
 30
0.0
 11
133.6805159999999
 21
67.10000100000001
 31
0.0
  0
LINE
  5
9AC6
330
9A30
100
AcDbEntity
  8
1
  6
Continuous
100
AcDbLine
 10
135.280516
 20
82.900001
 30
0.0
 11
133.6805159999999
 21
82.900001
 31
0.0
  0
LINE
  5
9AC7
330
9A30
100
AcDbEntity
  8
1
  6
Continuous
100
AcDbLine
 10
133.5805159999999
 20
68.750001
 30
0.0
 11
133.6805159999999
 21
68.750001
 31
0.0
  0
LINE
  5
9AC8
330
9A30
100
AcDbEntity
  8
1
  6
Continuous
100
AcDbLine
 10
133.6805159999999
 20
75.00000099999998
 30
0.0
 11
133.6805159999999
 21
67.10000100000001
 31
0.0
  0
LINE
  5
9AC9
330
9A30
100
AcDbEntity
  8
1
  6
Continuous
100
AcDbLine
 10
177.096922
 20
86.70000100000001
 30
0.0
 11
177.096922
 21
63.300001
 31
0.0
  0
LINE
  5
9ACA
330
9A30
100
AcDbEntity
  8
1
  6
Continuous
100
AcDbLine
 10
181.096922
 20
63.300001
 30
0.0
 11
181.096922
 21
86.70000100000001
 31
0.0
  0
ARC
  5
9ACB
330
9A30
100
AcDbEntity
  8
1
  6
Continuous
100
AcDbCircle
 10
177.3969219999999
 20
63.300001
 30
0.0
 40
0.3
100
AcDbArc
 50
180.0
 51
270.0
  0
ARC
  5
9ACC
330
9A30
100
AcDbEntity
  8
1
  6
Continuous
100
AcDbCircle
 10
180.796922
 20
63.300001
 30
0.0
 40
0.3
100
AcDbArc
 50
270.0
 51
0.0
  0
LINE
  5
9ACD
330
9A30
100
AcDbEntity
  8
1
  6
Continuous
100
AcDbLine
 10
177.3969219999999
 20
63.000001
 30
0.0
 11
180.796922
 21
63.000001
 31
0.0
  0
LINE
  5
9ACE
330
9A30
100
AcDbEntity
  8
4
  6
CENTER
100
AcDbLine
 10
172.096922
 20
75.00000099999998
 30
0.0
 11
186.096922
 21
75.00000099999998
 31
0.0
  0
LINE
  5
9ACF
330
9A30
100
AcDbEntity
  8
1
  6
Continuous
100
AcDbLine
 10
180.796951
 20
75.00000099999998
 30
0.0
 11
177.396951
 21
75.00000099999998
 31
0.0
  0
ARC
  5
9AD0
330
9A30
100
AcDbEntity
  8
1
  6
Continuous
100
AcDbCircle
 10
180.796922
 20
86.70000100000001
 30
0.0
 40
0.3
100
AcDbArc
 50
0.0
 51
90.0
  0
ARC
  5
9AD1
330
9A30
100
AcDbEntity
  8
1
  6
Continuous
100
AcDbCircle
 10
177.3969219999999
 20
86.70000100000001
 30
0.0
 40
0.3
100
AcDbArc
 50
90.0
 51
180.0
  0
LINE
  5
9AD2
330
9A30
100
AcDbEntity
  8
1
  6
Continuous
100
AcDbLine
 10
180.796922
 20
87.00000099999998
 30
0.0
 11
177.3969219999999
 21
87.00000099999998
 31
0.0
  0
LINE
  5
9AD3
330
9A30
100
AcDbEntity
  8
1
  6
Continuous
100
AcDbLine
 10
132.280516
 20
130.4736419999999
 30
0.0
 11
132.280516
 21
142.007652
 31
0.0
  0
LINE
  5
9AD4
330
9A30
100
AcDbEntity
  8
1
  6
Continuous
100
AcDbLine
 10
133.0805159999999
 20
143.2128529999999
 30
0.0
 11
133.0805159999999
 21
131.273642
 31
0.0
  0
LINE
  5
9AD5
330
9A30
100
AcDbEntity
  8
1
  6
Continuous
100
AcDbLine
 10
177.096951
 20
153.5301419999998
 30
0.0
 11
177.096951
 21
126.3756419999999
 31
0.0
  0
LINE
  5
9AD6
330
9A30
100
AcDbEntity
  8
1
  6
Continuous
100
AcDbLine
 10
181.0969509999999
 20
126.3756419999999
 30
0.0
 11
181.0969509999999
 21
153.5301419999998
 31
0.0
  0
LINE
  5
9AD7
330
9A30
100
AcDbEntity
  8
1
  6
Continuous
100
AcDbLine
 10
135.280516
 20
149.4736419999999
 30
0.0
 11
135.280516
 21
130.4736419999999
 31
0.0
  0
LINE
  5
9AD8
330
9A30
100
AcDbEntity
  8
1
  6
Continuous
100
AcDbLine
 10
138.4805159999999
 20
149.4736419999999
 30
0.0
 11
138.4805159999999
 21
130.4736419999999
 31
0.0
  0
LINE
  5
9AD9
330
9A30
100
AcDbEntity
  8
1
  6
Continuous
100
AcDbLine
 10
133.5805159999999
 20
148.6736419999998
 30
0.0
 11
133.5805159999999
 21
131.273642
 31
0.0
  0
LINE
  5
9ADA
330
9A30
100
AcDbEntity
  8
1
  6
Continuous
100
AcDbLine
 10
138.4805159999999
 20
130.4736419999999
 30
0.0
 11
135.280516
 21
130.4736419999999
 31
0.0
  0
LINE
  5
9ADB
330
9A30
100
AcDbEntity
  8
1
  6
Continuous
100
AcDbLine
 10
133.0805159999999
 20
131.273642
 30
0.0
 11
133.5805159999999
 21
131.273642
 31
0.0
  0
LINE
  5
9ADC
330
9A30
100
AcDbEntity
  8
1
  6
Continuous
100
AcDbLine
 10
133.0805159999999
 20
131.273642
 30
0.0
 11
132.280516
 21
130.4736419999999
 31
0.0
  0
ARC
  5
9ADD
330
9A30
100
AcDbEntity
  8
1
  6
Continuous
100
AcDbCircle
 10
177.396951
 20
126.417142
 30
0.0
 40
0.3
100
AcDbArc
 50
180.0
 51
270.0
  0
LINE
  5
9ADE
330
9A30
100
AcDbEntity
  8
1
  6
Continuous
100
AcDbLine
 10
177.396951
 20
126.1171419999999
 30
0.0
 11
180.796951
 21
126.1171419999999
 31
0.0
  0
ARC
  5
9ADF
330
9A30
100
AcDbEntity
  8
1
  6
Continuous
100
AcDbCircle
 10
180.796951
 20
126.417142
 30
0.0
 40
0.3
100
AcDbArc
 50
270.0
 51
0.0
  0
LINE
  5
9AE0
330
9A30
100
AcDbEntity
  8
1
  6
Continuous
100
AcDbLine
 10
140.2804769999999
 20
139.9736419999999
 30
0.0
 11
139.2804769999999
 21
138.9736419999999
 31
0.0
  0
LINE
  5
9AE1
330
9A30
100
AcDbEntity
  8
1
  6
Continuous
100
AcDbLine
 10
140.2804769999999
 20
140.9736419999999
 30
0.0
 11
139.2804769999999
 21
139.9736419999999
 31
0.0
  0
LINE
  5
9AE2
330
9A30
100
AcDbEntity
  8
1
  6
Continuous
100
AcDbLine
 10
140.2804769999999
 20
136.1736419999998
 30
0.0
 11
139.2804769999999
 21
136.1736419999998
 31
0.0
  0
LINE
  5
9AE3
330
9A30
100
AcDbEntity
  8
1
  6
Continuous
100
AcDbLine
 10
140.2804769999999
 20
143.773642
 30
0.0
 11
139.2804769999999
 21
143.773642
 31
0.0
  0
LINE
  5
9AE4
330
9A30
100
AcDbEntity
  8
1
  6
Continuous
100
AcDbLine
 10
140.2804769999999
 20
143.773642
 30
0.0
 11
140.2804769999999
 21
136.1736419999998
 31
0.0
  0
ARC
  5
9AE5
330
9A30
100
AcDbEntity
  8
1
  6
Continuous
100
AcDbCircle
 10
141.2865899999999
 20
137.866631
 30
0.0
 40
1.3
100
AcDbArc
 50
275.0
 51
344.1191499999998
  0
ARC
  5
9AE6
330
9A30
100
AcDbEntity
  8
1
  6
Continuous
100
AcDbCircle
 10
141.2865899999999
 20
142.080653
 30
0.0
 40
1.3
100
AcDbArc
 50
15.88085
 51
85.0
  0
LINE
  5
9AE7
330
9A30
100
AcDbEntity
  8
1
  6
Continuous
100
AcDbLine
 10
140.2804769999999
 20
143.4736419999999
 30
0.0
 11
141.399892
 21
143.375706
 31
0.0
  0
LINE
  5
9AE8
330
9A30
100
AcDbEntity
  8
1
  6
Continuous
100
AcDbLine
 10
140.2804769999999
 20
136.4736419999998
 30
0.0
 11
141.399892
 21
136.5715779999999
 31
0.0
  0
ARC
  5
9AE9
330
9A30
100
AcDbEntity
  8
1
  6
Continuous
100
AcDbCircle
 10
133.880477
 20
139.9736419999999
 30
0.0
 40
9.0
100
AcDbArc
 50
344.1191499999998
 51
15.88085
  0
LINE
  5
9AEA
330
9A30
100
AcDbEntity
  8
1
  6
Continuous
100
AcDbLine
 10
138.4805159999999
 20
144.9736419999998
 30
0.0
 11
139.2804769999999
 21
144.9736419999998
 31
0.0
  0
LINE
  5
9AEB
330
9A30
100
AcDbEntity
  8
1
  6
Continuous
100
AcDbLine
 10
138.4805159999999
 20
134.9736419999999
 30
0.0
 11
139.2804769999999
 21
134.9736419999999
 31
0.0
  0
LINE
  5
9AEC
330
9A30
100
AcDbEntity
  8
1
  6
Continuous
100
AcDbLine
 10
135.1805159999998
 20
148.6736419999998
 30
0.0
 11
135.1805159999998
 21
147.8736419999999
 31
0.0
  0
LINE
  5
9AED
330
9A30
100
AcDbEntity
  8
1
  6
Continuous
100
AcDbLine
 10
132.280516
 20
149.2533399999998
 30
0.0
 11
132.280516
 21
149.4736419999999
 31
0.0
  0
LINE
  5
9AEE
330
9A30
100
AcDbEntity
  8
1
  6
Continuous
100
AcDbLine
 10
133.0805159999999
 20
148.6736419999998
 30
0.0
 11
133.0805159999999
 21
148.0481399999999
 31
0.0
  0
LINE
  5
9AEF
330
9A30
100
AcDbEntity
  8
1
  6
Continuous
100
AcDbLine
 10
132.280516
 20
149.2533399999998
 30
0.0
 11
133.0805159999999
 21
148.0481399999999
 31
0.0
  0
LINE
  5
9AF0
330
9A30
100
AcDbEntity
  8
1
  6
Continuous
100
AcDbLine
 10
132.280516
 20
142.007652
 30
0.0
 11
133.0805159999999
 21
143.2128529999999
 31
0.0
  0
LINE
  5
9AF1
330
9A30
100
AcDbEntity
  8
1
  6
Continuous
100
AcDbLine
 10
133.5805159999999
 20
143.2128529999999
 30
0.0
 11
133.0805159999999
 21
143.2128529999999
 31
0.0
  0
LINE
  5
9AF2
330
9A30
100
AcDbEntity
  8
1
  6
Continuous
100
AcDbLine
 10
133.5805159999999
 20
148.0481399999999
 30
0.0
 11
133.0805159999999
 21
148.0481399999999
 31
0.0
  0
LINE
  5
9AF3
330
9A30
100
AcDbEntity
  8
1
  6
Continuous
100
AcDbLine
 10
133.5805159999999
 20
146.2236419999999
 30
0.0
 11
133.6805159999999
 21
146.2236419999999
 31
0.0
  0
LINE
  5
9AF4
330
9A30
100
AcDbEntity
  8
1
  6
Continuous
100
AcDbLine
 10
133.6805159999999
 20
146.3886629999998
 30
0.0
 11
133.5805159999999
 21
146.3886629999998
 31
0.0
  0
LINE
  5
9AF5
330
9A30
100
AcDbEntity
  8
1
  6
Continuous
100
AcDbLine
 10
139.2804769999999
 20
144.9736419999998
 30
0.0
 11
139.2804769999999
 21
134.9736419999999
 31
0.0
  0
LINE
  5
9AF6
330
9A30
100
AcDbEntity
  8
1
  6
Continuous
100
AcDbLine
 10
138.4805159999999
 20
149.4736419999999
 30
0.0
 11
135.280516
 21
149.4736419999999
 31
0.0
  0
LINE
  5
9AF7
330
9A30
100
AcDbEntity
  8
1
  6
Continuous
100
AcDbLine
 10
135.280516
 20
132.073642
 30
0.0
 11
133.6805159999999
 21
132.073642
 31
0.0
  0
LINE
  5
9AF8
330
9A30
100
AcDbEntity
  8
1
  6
Continuous
100
AcDbLine
 10
135.280516
 20
147.8736419999999
 30
0.0
 11
133.6805159999999
 21
147.8736419999999
 31
0.0
  0
LINE
  5
9AF9
330
9A30
100
AcDbEntity
  8
1
  6
Continuous
100
AcDbLine
 10
133.0805159999999
 20
148.6736419999998
 30
0.0
 11
132.280516
 21
149.4736419999999
 31
0.0
  0
LINE
  5
9AFA
330
9A30
100
AcDbEntity
  8
1
  6
Continuous
100
AcDbLine
 10
133.0805159999999
 20
148.6736419999998
 30
0.0
 11
135.1805159999998
 21
148.6736419999998
 31
0.0
  0
LINE
  5
9AFB
330
9A30
100
AcDbEntity
  8
1
  6
Continuous
100
AcDbLine
 10
133.5805159999999
 20
133.7236419999999
 30
0.0
 11
133.6805159999999
 21
133.7236419999999
 31
0.0
  0
LINE
  5
9AFC
330
9A30
100
AcDbEntity
  8
1
  6
Continuous
100
AcDbLine
 10
133.6805159999999
 20
147.8736419999999
 30
0.0
 11
133.6805159999999
 21
132.073642
 31
0.0
  0
LINE
  5
9AFD
330
9A30
100
AcDbEntity
  8
4
  6
CENTER
100
AcDbLine
 10
172.0969509999999
 20
139.9736419999999
 30
0.0
 11
186.0969509999999
 21
139.9736419999999
 31
0.0
  0
ARC
  5
9AFE
330
9A30
100
AcDbEntity
  8
1
  6
Continuous
100
AcDbCircle
 10
180.796951
 20
153.5301419999998
 30
0.0
 40
0.3
100
AcDbArc
 50
0.0
 51
90.0
  0
ARC
  5
9AFF
330
9A30
100
AcDbEntity
  8
1
  6
Continuous
100
AcDbCircle
 10
177.396951
 20
153.5301419999998
 30
0.0
 40
0.3
100
AcDbArc
 50
90.0
 51
180.0
  0
LINE
  5
9B00
330
9A30
100
AcDbEntity
  8
1
  6
Continuous
100
AcDbLine
 10
177.396951
 20
153.8301419999999
 30
0.0
 11
180.796951
 21
153.8301419999999
 31
0.0
  0
LINE
  5
9B01
330
9A30
100
AcDbEntity
  8
1
  6
Continuous
100
AcDbLine
 10
180.796951
 20
133.024627
 30
0.0
 11
177.396951
 21
133.024627
 31
0.0
  0
LINE
  5
9B02
330
9A30
100
AcDbEntity
  8
1
  6
Continuous
100
AcDbLine
 10
180.796951
 20
146.9226559999999
 30
0.0
 11
177.396951
 21
146.9226559999999
 31
0.0
  0
ARC
  5
9B03
330
9A30
100
AcDbEntity
  8
5
  6
PHANTOM
100
AcDbCircle
 10
233.2914099999999
 20
139.9736419999999
 30
0.0
 40
9.5
100
AcDbArc
 50
180.0
 51
0.0
  0
ARC
  5
9B04
330
9A30
100
AcDbEntity
  8
1
  6
Continuous
100
AcDbCircle
 10
233.2914099999999
 20
139.9736419999999
 30
0.0
 40
9.5
100
AcDbArc
 50
90.0
 51
270.0
  0
LINE
  5
9B05
330
9A30
100
AcDbEntity
  8
1
  6
Continuous
100
AcDbLine
 10
221.2553639999999
 20
133.024627
 30
0.0
 11
233.2914099999999
 21
126.0756129999998
 31
0.0
  0
LINE
  5
9B06
330
9A30
100
AcDbEntity
  8
1
  6
Continuous
100
AcDbLine
 10
233.2914099999999
 20
126.0756129999998
 30
0.0
 11
240.90902
 21
130.4736419999999
 31
0.0
  0
LINE
  5
9B07
330
9A30
100
AcDbEntity
  8
1
  6
Continuous
100
AcDbLine
 10
221.2553639999999
 20
146.9226559999999
 30
0.0
 11
233.2914099999999
 21
153.8716699999999
 31
0.0
  0
LINE
  5
9B08
330
9A30
100
AcDbEntity
  8
1
  6
Continuous
100
AcDbLine
 10
221.2553639999999
 20
133.024627
 30
0.0
 11
221.2553639999999
 21
146.9226559999999
 31
0.0
  0
LINE
  5
9B09
330
9A30
100
AcDbEntity
  8
5
  6
PHANTOM
100
AcDbLine
 10
223.79141
 20
164.4736419999999
 30
0.0
 11
223.79141
 21
139.9736419999999
 31
0.0
  0
LINE
  5
9B0A
330
9A30
100
AcDbEntity
  8
5
  6
PHANTOM
100
AcDbLine
 10
242.79141
 20
164.4736419999999
 30
0.0
 11
242.79141
 21
139.9736419999999
 31
0.0
  0
LINE
  5
9B0B
330
9A30
100
AcDbEntity
  8
1
  6
Continuous
100
AcDbLine
 10
233.2914099999999
 20
153.8716699999999
 30
0.0
 11
240.909018
 21
149.4736419999999
 31
0.0
  0
CIRCLE
  5
9B0C
330
9A30
100
AcDbEntity
  8
1
  6
Continuous
100
AcDbCircle
 10
233.2914099999999
 20
139.9736419999999
 30
0.0
 40
3.799999999999998
  0
CIRCLE
  5
9B0D
330
9A30
100
AcDbEntity
  8
1
  6
Continuous
100
AcDbCircle
 10
233.2914099999999
 20
139.9736419999999
 30
0.0
 40
5.0
  0
ARC
  5
9B0E
330
9A30
100
AcDbEntity
  8
5
  6
PHANTOM
100
AcDbCircle
 10
233.2914099999999
 20
164.4736419999999
 30
0.0
 40
9.5
100
AcDbArc
 50
0.0
 51
180.0
  0
LINE
  5
9B0F
330
9A30
100
AcDbEntity
  8
2
  6
Continuous
100
AcDbLine
 10
118.280516
 20
213.905783
 30
0.0
 11
132.8220159999999
 21
213.905783
 31
0.0
  0
LINE
  5
9B10
330
9A30
100
AcDbEntity
  8
1
  6
Continuous
100
AcDbLine
 10
117.280516
 20
214.447283
 30
0.0
 11
132.280516
 21
214.447283
 31
0.0
  0
LINE
  5
9B11
330
9A30
100
AcDbEntity
  8
1
  6
Continuous
100
AcDbLine
 10
117.280516
 20
195.447283
 30
0.0
 11
132.280516
 21
195.447283
 31
0.0
  0
LINE
  5
9B12
330
9A30
100
AcDbEntity
  8
1
  6
Continuous
100
AcDbLine
 10
117.280516
 20
195.667584
 30
0.0
 11
132.5008169999998
 21
195.667584
 31
0.0
  0
LINE
  5
9B13
330
9A30
100
AcDbEntity
  8
2
  6
Continuous
100
AcDbLine
 10
118.280516
 20
195.988783
 30
0.0
 11
132.8220159999999
 21
195.988783
 31
0.0
  0
LINE
  5
9B14
330
9A30
100
AcDbEntity
  8
2
  6
Continuous
100
AcDbLine
 10
117.280516
 20
202.913273
 30
0.0
 11
133.5805159999999
 21
196.8727839999999
 31
0.0
  0
LINE
  5
9B15
330
9A30
100
AcDbEntity
  8
2
  6
Continuous
100
AcDbLine
 10
117.280516
 20
195.447283
 30
0.0
 11
133.5805159999999
 21
201.7080689999999
 31
0.0
  0
LINE
  5
9B16
330
9A30
100
AcDbEntity
  8
1
  6
Continuous
100
AcDbLine
 10
132.280516
 20
202.913273
 30
0.0
 11
117.280516
 21
202.913273
 31
0.0
  0
LINE
  5
9B17
330
9A30
100
AcDbEntity
  8
4
  6
CENTER
100
AcDbLine
 10
106.6805159999999
 20
204.947283
 30
0.0
 11
147.880477
 21
204.947283
 31
0.0
  0
LINE
  5
9B18
330
9A30
100
AcDbEntity
  8
1
  6
Continuous
100
AcDbLine
 10
59.682214
 20
204.451674
 30
0.0
 11
82.45366
 21
204.451674
 31
0.0
  0
LINE
  5
9B19
330
9A30
100
AcDbEntity
  8
1
  6
Continuous
100
AcDbLine
 10
59.682214
 20
205.6516739999999
 30
0.0
 11
83.089484
 21
205.6516739999999
 31
0.0
  0
LINE
  5
9B1A
330
9A30
100
AcDbEntity
  8
1
  6
Continuous
100
AcDbLine
 10
63.182214
 20
208.0516739999999
 30
0.0
 11
80.682214
 21
208.0516739999999
 31
0.0
  0
LINE
  5
9B1B
330
9A30
100
AcDbEntity
  8
1
  6
Continuous
100
AcDbLine
 10
63.182214
 20
201.8516739999999
 30
0.0
 11
79.682214
 21
201.8516739999999
 31
0.0
  0
LINE
  5
9B1C
330
9A30
100
AcDbEntity
  8
4
  6
CENTER
100
AcDbLine
 10
30.182237
 20
204.951674
 30
0.0
 11
84.471181
 21
204.951674
 31
0.0
  0
LINE
  5
9B1D
330
9A30
100
AcDbEntity
  8
1
  6
Continuous
100
AcDbLine
 10
56.182214
 20
201.7016739999998
 30
0.0
 11
46.115547
 21
194.1516739999999
 31
0.0
  0
LINE
  5
9B1E
330
9A30
100
AcDbEntity
  8
1
  6
Continuous
100
AcDbLine
 10
46.71554699999999
 20
193.351674
 30
0.0
 11
56.182214
 21
200.451674
 31
0.0
  0
LINE
  5
9B1F
330
9A30
100
AcDbEntity
  8
1
  6
Continuous
100
AcDbLine
 10
40.42053099999999
 20
194.396974
 30
0.0
 11
36.350164
 21
200.502525
 31
0.0
  0
LINE
  5
9B20
330
9A30
100
AcDbEntity
  8
1
  6
Continuous
100
AcDbLine
 10
35.518113
 20
199.9478249999999
 30
0.0
 11
39.588481
 21
193.842274
 31
0.0
  0
ARC
  5
9B21
330
9A30
100
AcDbEntity
  8
1
  6
Continuous
100
AcDbCircle
 10
45.51554699999999
 20
194.9516739999999
 30
0.0
 40
1.0
100
AcDbArc
 50
270.0
 51
306.8698979999999
  0
ARC
  5
9B22
330
9A30
100
AcDbEntity
  8
1
  6
Continuous
100
AcDbCircle
 10
45.51554699999999
 20
194.9516739999999
 30
0.0
 40
2.0
100
AcDbArc
 50
270.0
 51
306.8698979999999
  0
ARC
  5
9B23
330
9A30
100
AcDbEntity
  8
1
  6
Continuous
100
AcDbCircle
 10
41.25258099999999
 20
194.9516739999999
 30
0.0
 40
1.0
100
AcDbArc
 50
213.690068
 51
270.0
  0
ARC
  5
9B24
330
9A30
100
AcDbEntity
  8
1
  6
Continuous
100
AcDbCircle
 10
41.25258099999999
 20
194.9516739999999
 30
0.0
 40
2.0
100
AcDbArc
 50
213.690068
 51
270.0
  0
LINE
  5
9B25
330
9A30
100
AcDbEntity
  8
1
  6
Continuous
100
AcDbLine
 10
45.51554699999999
 20
193.951674
 30
0.0
 11
41.25258099999999
 21
193.951674
 31
0.0
  0
LINE
  5
9B26
330
9A30
100
AcDbEntity
  8
1
  6
Continuous
100
AcDbLine
 10
41.25258099999999
 20
192.951674
 30
0.0
 11
45.51554699999999
 21
192.951674
 31
0.0
  0
ARC
  5
9B27
330
9A30
100
AcDbEntity
  8
1
  6
Continuous
100
AcDbCircle
 10
46.18142399999999
 20
200.2860839999999
 30
0.0
 40
2.004309
100
AcDbArc
 50
270.0
 51
324.4619999999998
  0
ARC
  5
9B28
330
9A30
100
AcDbEntity
  8
1
  6
Continuous
100
AcDbCircle
 10
39.649599
 20
204.951674
 30
0.0
 40
10.032628
100
AcDbArc
 50
324.4619999999998
 51
35.53799999999999
  0
LINE
  5
9B29
330
9A30
100
AcDbEntity
  8
1
  6
Continuous
100
AcDbLine
 10
43.468909
 20
205.3416569999999
 30
0.0
 11
48.895519
 21
205.3416569999999
 31
0.0
  0
LINE
  5
9B2A
330
9A30
100
AcDbEntity
  8
1
  6
Continuous
100
AcDbLine
 10
44.263086
 20
201.452876
 30
0.0
 11
48.099763
 21
201.452876
 31
0.0
  0
ARC
  5
9B2B
330
9A30
100
AcDbEntity
  8
1
  6
Continuous
100
AcDbCircle
 10
47.616626
 20
201.064472
 30
0.0
 40
0.388957
100
AcDbArc
 50
270.0
 51
333.9859999999998
  0
LINE
  5
9B2C
330
9A30
100
AcDbEntity
  8
1
  6
Continuous
100
AcDbLine
 10
44.16203699999999
 20
202.229685
 30
0.0
 11
48.202391
 21
202.229685
 31
0.0
  0
LINE
  5
9B2D
330
9A30
100
AcDbEntity
  8
1
  6
Continuous
100
AcDbLine
 10
48.60026799999999
 20
203.0080729999999
 30
0.0
 11
47.114542
 21
203.0080729999999
 31
0.0
  0
LINE
  5
9B2E
330
9A30
100
AcDbEntity
  8
1
  6
Continuous
100
AcDbLine
 10
43.53364299999999
 20
203.78646
 30
0.0
 11
48.83078499999999
 21
203.78646
 31
0.0
  0
LINE
  5
9B2F
330
9A30
100
AcDbEntity
  8
1
  6
Continuous
100
AcDbLine
 10
43.468909
 20
204.563269
 30
0.0
 11
48.895519
 21
204.563269
 31
0.0
  0
LINE
  5
9B30
330
9A30
100
AcDbEntity
  8
1
  6
Continuous
100
AcDbLine
 10
46.18142399999999
 20
208.8404549999999
 30
0.0
 11
48.04766
 21
208.8404549999999
 31
0.0
  0
LINE
  5
9B31
330
9A30
100
AcDbEntity
  8
1
  6
Continuous
100
AcDbLine
 10
43.62205999999999
 20
206.1184659999999
 30
0.0
 11
48.742367
 21
206.1184659999999
 31
0.0
  0
LINE
  5
9B32
330
9A30
100
AcDbEntity
  8
1
  6
Continuous
100
AcDbLine
 10
48.37764599999999
 20
206.8968539999999
 30
0.0
 11
46.18142399999999
 21
206.8968539999999
 31
0.0
  0
LINE
  5
9B33
330
9A30
100
AcDbEntity
  8
1
  6
Continuous
100
AcDbLine
 10
43.62521799999998
 20
207.673662
 30
0.0
 11
48.494483
 21
207.673662
 31
0.0
  0
LINE
  5
9B34
330
9A30
100
AcDbEntity
  8
1
  6
Continuous
100
AcDbLine
 10
46.115547
 20
215.751674
 30
0.0
 11
56.182214
 21
208.2016739999999
 31
0.0
  0
LINE
  5
9B35
330
9A30
100
AcDbEntity
  8
1
  6
Continuous
100
AcDbLine
 10
46.71554699999999
 20
216.551674
 30
0.0
 11
56.182214
 21
209.4516739999999
 31
0.0
  0
ARC
  5
9B36
330
9A30
100
AcDbEntity
  8
1
  6
Continuous
100
AcDbCircle
 10
45.51554699999999
 20
214.951674
 30
0.0
 40
1.0
100
AcDbArc
 50
53.130102
 51
90.0
  0
ARC
  5
9B37
330
9A30
100
AcDbEntity
  8
1
  6
Continuous
100
AcDbCircle
 10
45.51554699999999
 20
214.951674
 30
0.0
 40
2.0
100
AcDbArc
 50
53.130102
 51
90.0
  0
ARC
  5
9B38
330
9A30
100
AcDbEntity
  8
1
  6
Continuous
100
AcDbCircle
 10
52.714829
 20
204.951674
 30
0.0
 40
10.032628
100
AcDbArc
 50
144.462
 51
215.5377
  0
LINE
  5
9B39
330
9A30
100
AcDbEntity
  8
1
  6
Continuous
100
AcDbLine
 10
44.04835799999999
 20
199.89768
 30
0.0
 11
47.40189899999999
 21
199.89768
 31
0.0
  0
LINE
  5
9B3A
330
9A30
100
AcDbEntity
  8
1
  6
Continuous
100
AcDbLine
 10
47.616626
 20
200.6744879999998
 30
0.0
 11
44.747802
 21
200.6744879999998
 31
0.0
  0
LINE
  5
9B3B
330
9A30
100
AcDbEntity
  8
1
  6
Continuous
100
AcDbLine
 10
45.24830699999998
 20
203.0080729999999
 30
0.0
 11
43.76415999999998
 21
203.0080729999999
 31
0.0
  0
LINE
  5
9B3C
330
9A30
100
AcDbEntity
  8
1
  6
Continuous
100
AcDbLine
 10
46.18142399999999
 20
204.563269
 30
0.0
 11
46.18142399999999
 21
203.78646
 31
0.0
  0
ARC
  5
9B3D
330
9A30
100
AcDbEntity
  8
1
  6
Continuous
100
AcDbCircle
 10
44.747802
 20
201.064472
 30
0.0
 40
0.388957
100
AcDbArc
 50
206.0144
 51
270.0
  0
ARC
  5
9B3E
330
9A30
100
AcDbEntity
  8
1
  6
Continuous
100
AcDbCircle
 10
52.714829
 20
204.951674
 30
0.0
 40
9.254918999999999
100
AcDbArc
 50
202.944
 51
206.0144
  0
ARC
  5
9B3F
330
9A30
100
AcDbEntity
  8
1
  6
Continuous
100
AcDbCircle
 10
44.263086
 20
201.3755109999999
 30
0.0
 40
0.077791
100
AcDbArc
 50
90.0
 51
202.944
  0
ARC
  5
9B40
330
9A30
100
AcDbEntity
  8
1
  6
Continuous
100
AcDbCircle
 10
43.76415999999998
 20
202.930708
 30
0.0
 40
0.077791
100
AcDbArc
 50
90.0
 51
192.7289
  0
ARC
  5
9B41
330
9A30
100
AcDbEntity
  8
1
  6
Continuous
100
AcDbCircle
 10
52.714829
 20
204.951674
 30
0.0
 40
9.254918999999999
100
AcDbArc
 50
192.7289
 51
193.2680999999999
  0
ARC
  5
9B42
330
9A30
100
AcDbEntity
  8
1
  6
Continuous
100
AcDbCircle
 10
52.714829
 20
204.951674
 30
0.0
 40
9.254918999999999
100
AcDbArc
 50
193.2680999999999
 51
195.2574999999999
  0
ARC
  5
9B43
330
9A30
100
AcDbEntity
  8
1
  6
Continuous
100
AcDbCircle
 10
44.16203699999999
 20
202.6196679999999
 30
0.0
 40
0.388957
100
AcDbArc
 50
195.2574999999999
 51
270.0
  0
LINE
  5
9B44
330
9A30
100
AcDbEntity
  8
1
  6
Continuous
100
AcDbLine
 10
45.24830699999998
 20
206.8968539999999
 30
0.0
 11
43.98678199999999
 21
206.8968539999999
 31
0.0
  0
LINE
  5
9B45
330
9A30
100
AcDbEntity
  8
1
  6
Continuous
100
AcDbLine
 10
46.18142399999999
 20
206.8968539999999
 30
0.0
 11
46.18142399999999
 21
206.508449
 31
0.0
  0
LINE
  5
9B46
330
9A30
100
AcDbEntity
  8
1
  6
Continuous
100
AcDbLine
 10
43.991518
 20
208.4520499999999
 30
0.0
 11
45.79302
 21
208.4520499999999
 31
0.0
  0
LINE
  5
9B47
330
9A30
100
AcDbEntity
  8
1
  6
Continuous
100
AcDbLine
 10
45.79302
 20
209.2304379999999
 30
0.0
 11
44.132039
 21
209.2304379999999
 31
0.0
  0
LINE
  5
9B48
330
9A30
100
AcDbEntity
  8
1
  6
Continuous
100
AcDbLine
 10
47.637152
 20
209.625158
 30
0.0
 11
44.35939699999997
 21
210.504594
 31
0.0
  0
LINE
  5
9B49
330
9A30
100
AcDbEntity
  8
1
  6
Continuous
100
AcDbLine
 10
46.18142399999999
 20
211.622441
 30
0.0
 11
46.18142399999999
 21
210.015141
 31
0.0
  0
ARC
  5
9B4A
330
9A30
100
AcDbEntity
  8
1
  6
Continuous
100
AcDbCircle
 10
45.79302
 20
208.8404549999999
 30
0.0
 40
0.388957
100
AcDbArc
 50
270.0
 51
90.0
  0
ARC
  5
9B4B
330
9A30
100
AcDbEntity
  8
1
  6
Continuous
100
AcDbCircle
 10
46.18142399999999
 20
209.6188419999998
 30
0.0
 40
2.004309
100
AcDbArc
 50
62.24999999999999
 51
144.462
  0
ARC
  5
9B4C
330
9A30
100
AcDbEntity
  8
1
  6
Continuous
100
AcDbCircle
 10
46.18142399999999
 20
209.6188419999998
 30
0.0
 40
2.004309
100
AcDbArc
 50
35.53799999999999
 51
45.69899999999999
  0
ARC
  5
9B4D
330
9A30
100
AcDbEntity
  8
1
  6
Continuous
100
AcDbCircle
 10
43.98678199999999
 20
206.508449
 30
0.0
 40
0.388957
100
AcDbArc
 50
90.0
 51
169.896
  0
ARC
  5
9B4E
330
9A30
100
AcDbEntity
  8
1
  6
Continuous
100
AcDbCircle
 10
52.714829
 20
204.951674
 30
0.0
 40
9.254918999999999
100
AcDbArc
 50
169.896
 51
172.2069999999999
  0
ARC
  5
9B4F
330
9A30
100
AcDbEntity
  8
1
  6
Continuous
100
AcDbCircle
 10
43.62205999999999
 20
206.19741
 30
0.0
 40
0.077791
100
AcDbArc
 50
172.2069999999999
 51
270.0
  0
ARC
  5
9B50
330
9A30
100
AcDbEntity
  8
1
  6
Continuous
100
AcDbCircle
 10
46.18142399999999
 20
200.2860839999999
 30
0.0
 40
2.004309
100
AcDbArc
 50
215.5377
 51
256.5374
  0
ARC
  5
9B51
330
9A30
100
AcDbEntity
  8
1
  6
Continuous
100
AcDbCircle
 10
41.25258099999999
 20
214.951674
 30
0.0
 40
1.0
100
AcDbArc
 50
90.0
 51
146.3099319999998
  0
ARC
  5
9B52
330
9A30
100
AcDbEntity
  8
1
  6
Continuous
100
AcDbCircle
 10
41.25258099999999
 20
214.951674
 30
0.0
 40
2.0
100
AcDbArc
 50
90.0
 51
146.3099319999998
  0
ARC
  5
9B53
330
9A30
100
AcDbEntity
  8
1
  6
Continuous
100
AcDbCircle
 10
37.182214
 20
208.846123
 30
0.0
 40
1.0
100
AcDbArc
 50
146.3099319999998
 51
180.0
  0
LINE
  5
9B54
330
9A30
100
AcDbEntity
  8
1
  6
Continuous
100
AcDbLine
 10
36.182214
 20
201.057225
 30
0.0
 11
36.182214
 21
208.846123
 31
0.0
  0
ARC
  5
9B55
330
9A30
100
AcDbEntity
  8
1
  6
Continuous
100
AcDbCircle
 10
37.182214
 20
201.057225
 30
0.0
 40
1.0
100
AcDbArc
 50
180.0
 51
213.690068
  0
ARC
  5
9B56
330
9A30
100
AcDbEntity
  8
1
  6
Continuous
100
AcDbCircle
 10
37.682214
 20
208.451674
 30
0.0
 40
0.5
100
AcDbArc
 50
90.0
 51
180.0
  0
ARC
  5
9B57
330
9A30
100
AcDbEntity
  8
1
  6
Continuous
100
AcDbCircle
 10
37.182214
 20
201.057225
 30
0.0
 40
2.0
100
AcDbArc
 50
180.0
 51
213.690068
  0
ARC
  5
9B58
330
9A30
100
AcDbEntity
  8
1
  6
Continuous
100
AcDbCircle
 10
37.182214
 20
208.846123
 30
0.0
 40
2.0
100
AcDbArc
 50
146.3099319999998
 51
180.0
  0
ARC
  5
9B59
330
9A30
100
AcDbEntity
  8
1
  6
Continuous
100
AcDbCircle
 10
40.682214
 20
208.451674
 30
0.0
 40
0.5
100
AcDbArc
 50
0.0
 51
90.0
  0
ARC
  5
9B5A
330
9A30
100
AcDbEntity
  8
1
  6
Continuous
100
AcDbCircle
 10
40.682214
 20
201.4516739999999
 30
0.0
 40
0.5
100
AcDbArc
 50
270.0
 51
0.0
  0
ARC
  5
9B5B
330
9A30
100
AcDbEntity
  8
1
  6
Continuous
100
AcDbCircle
 10
37.682214
 20
201.4516739999999
 30
0.0
 40
0.5
100
AcDbArc
 50
180.0
 51
270.0
  0
LINE
  5
9B5C
330
9A30
100
AcDbEntity
  8
1
  6
Continuous
100
AcDbLine
 10
37.682214
 20
208.951674
 30
0.0
 11
40.682214
 21
208.951674
 31
0.0
  0
LINE
  5
9B5D
330
9A30
100
AcDbEntity
  8
1
  6
Continuous
100
AcDbLine
 10
37.682214
 20
200.951674
 30
0.0
 11
40.682214
 21
200.951674
 31
0.0
  0
LINE
  5
9B5E
330
9A30
100
AcDbEntity
  8
1
  6
Continuous
100
AcDbLine
 10
41.182214
 20
208.451674
 30
0.0
 11
41.182214
 21
201.4516739999999
 31
0.0
  0
LINE
  5
9B5F
330
9A30
100
AcDbEntity
  8
1
  6
Continuous
100
AcDbLine
 10
37.182214
 20
208.451674
 30
0.0
 11
37.182214
 21
201.4516739999999
 31
0.0
  0
LINE
  5
9B60
330
9A30
100
AcDbEntity
  8
1
  6
Continuous
100
AcDbLine
 10
35.182214
 20
208.846123
 30
0.0
 11
35.182214
 21
201.057225
 31
0.0
  0
LINE
  5
9B61
330
9A30
100
AcDbEntity
  8
1
  6
Continuous
100
AcDbLine
 10
40.42053099999999
 20
215.506374
 30
0.0
 11
36.350164
 21
209.400823
 31
0.0
  0
LINE
  5
9B62
330
9A30
100
AcDbEntity
  8
1
  6
Continuous
100
AcDbLine
 10
35.518113
 20
209.9555229999999
 30
0.0
 11
39.588481
 21
216.061074
 31
0.0
  0
LINE
  5
9B63
330
9A30
100
AcDbEntity
  8
1
  6
Continuous
100
AcDbLine
 10
41.25258099999999
 20
215.951674
 30
0.0
 11
45.51554699999999
 21
215.951674
 31
0.0
  0
LINE
  5
9B64
330
9A30
100
AcDbEntity
  8
1
  6
Continuous
100
AcDbLine
 10
41.25258099999999
 20
216.951674
 30
0.0
 11
45.51554699999999
 21
216.951674
 31
0.0
  0
ARC
  5
9B65
330
9A30
100
AcDbEntity
  8
1
  6
Continuous
100
AcDbCircle
 10
62.88221400000001
 20
200.751674
 30
0.0
 40
0.3
100
AcDbArc
 50
270.0
 51
0.0
  0
ARC
  5
9B66
330
9A30
100
AcDbEntity
  8
1
  6
Continuous
100
AcDbCircle
 10
62.88221400000001
 20
209.1516739999999
 30
0.0
 40
0.3
100
AcDbArc
 50
0.0
 51
90.0
  0
LINE
  5
9B67
330
9A30
100
AcDbEntity
  8
1
  6
Continuous
100
AcDbLine
 10
63.182214
 20
201.8516739999999
 30
0.0
 11
63.182214
 21
200.751674
 31
0.0
  0
LINE
  5
9B68
330
9A30
100
AcDbEntity
  8
1
  6
Continuous
100
AcDbLine
 10
63.182214
 20
209.1516739999999
 30
0.0
 11
63.182214
 21
208.0516739999999
 31
0.0
  0
LINE
  5
9B69
330
9A30
100
AcDbEntity
  8
1
  6
Continuous
100
AcDbLine
 10
59.682214
 20
205.6516739999999
 30
0.0
 11
59.682214
 21
204.451674
 31
0.0
  0
LINE
  5
9B6A
330
9A30
100
AcDbEntity
  8
1
  6
Continuous
100
AcDbLine
 10
56.182214
 20
201.7016739999998
 30
0.0
 11
56.182214
 21
208.2016739999999
 31
0.0
  0
ARC
  5
9B6B
330
9A30
100
AcDbEntity
  8
1
  6
Continuous
100
AcDbCircle
 10
48.202391
 20
202.6196679999999
 30
0.0
 40
0.388957
100
AcDbArc
 50
270.0
 51
344.7419999999998
  0
ARC
  5
9B6C
330
9A30
100
AcDbEntity
  8
1
  6
Continuous
100
AcDbCircle
 10
39.649599
 20
204.951674
 30
0.0
 40
9.254918999999999
100
AcDbArc
 50
344.7419999999998
 51
344.794
  0
ARC
  5
9B6D
330
9A30
100
AcDbEntity
  8
1
  6
Continuous
100
AcDbCircle
 10
39.649599
 20
204.951674
 30
0.0
 40
9.254918999999999
100
AcDbArc
 50
344.794
 51
347.2709999999998
  0
ARC
  5
9B6E
330
9A30
100
AcDbEntity
  8
1
  6
Continuous
100
AcDbCircle
 10
48.60026799999999
 20
202.930708
 30
0.0
 40
0.077791
100
AcDbArc
 50
347.2709999999998
 51
90.0
  0
ARC
  5
9B6F
330
9A30
100
AcDbEntity
  8
1
  6
Continuous
100
AcDbCircle
 10
48.099763
 20
201.3755109999999
 30
0.0
 40
0.077791
100
AcDbArc
 50
337.0559999999999
 51
90.0
  0
ARC
  5
9B70
330
9A30
100
AcDbEntity
  8
1
  6
Continuous
100
AcDbCircle
 10
39.649599
 20
204.951674
 30
0.0
 40
9.254918999999999
100
AcDbArc
 50
333.9859999999998
 51
337.0559999999999
  0
ARC
  5
9B71
330
9A30
100
AcDbEntity
  8
1
  6
Continuous
100
AcDbCircle
 10
48.37764599999999
 20
206.508449
 30
0.0
 40
0.388957
100
AcDbArc
 50
10.10399999999999
 51
90.0
  0
ARC
  5
9B72
330
9A30
100
AcDbEntity
  8
1
  6
Continuous
100
AcDbCircle
 10
48.742367
 20
206.19741
 30
0.0
 40
0.077791
100
AcDbArc
 50
270.0
 51
7.792999999999999
  0
ARC
  5
9B73
330
9A30
100
AcDbEntity
  8
1
  6
Continuous
100
AcDbCircle
 10
39.649599
 20
204.951674
 30
0.0
 40
9.254918999999999
100
AcDbArc
 50
7.792999999999999
 51
10.10399999999999
  0
LINE
  5
9B74
330
9A30
100
AcDbEntity
  8
1
  6
Continuous
100
AcDbLine
 10
56.182214
 20
209.4516739999999
 30
0.0
 11
62.88221400000001
 21
209.4516739999999
 31
0.0
  0
LINE
  5
9B75
330
9A30
100
AcDbEntity
  8
1
  6
Continuous
100
AcDbLine
 10
56.182214
 20
200.451674
 30
0.0
 11
62.88221400000001
 21
200.451674
 31
0.0
  0
LINE
  5
9B76
330
9A30
100
AcDbEntity
  8
1
  6
Continuous
100
AcDbLine
 10
79.682214
 20
201.8516739999999
 30
0.0
 11
83.02430799999998
 21
204.9870209999999
 31
0.0
  0
LINE
  5
9B77
330
9A30
100
AcDbEntity
  8
1
  6
Continuous
100
AcDbLine
 10
80.682214
 20
208.0516739999999
 30
0.0
 11
83.03523199999998
 21
205.705762
 31
0.0
  0
ARC
  5
9B78
330
9A30
100
AcDbEntity
  8
1
  6
Continuous
100
AcDbCircle
 10
82.68221399999999
 20
205.351674
 30
0.0
 40
0.5
100
AcDbArc
 50
313.1718549999998
 51
45.08664600000001
  0
LINE
  5
9B79
330
9A30
100
AcDbEntity
  8
1
  6
Continuous
100
AcDbLine
 10
111.6805159999999
 20
194.9472829999999
 30
0.0
 11
111.6805159999999
 21
214.947283
 31
0.0
  0
LINE
  5
9B7A
330
9A30
100
AcDbEntity
  8
1
  6
Continuous
100
AcDbLine
 10
117.280516
 20
216.947283
 30
0.0
 11
117.280516
 21
192.947283
 31
0.0
  0
LINE
  5
9B7B
330
9A30
100
AcDbEntity
  8
1
  6
Continuous
100
AcDbLine
 10
113.6805159999999
 20
192.947283
 30
0.0
 11
113.6805159999999
 21
216.947283
 31
0.0
  0
LINE
  5
9B7C
330
9A30
100
AcDbEntity
  8
1
  6
Continuous
100
AcDbLine
 10
113.6805159999999
 20
192.947283
 30
0.0
 11
111.6805159999999
 21
194.9472829999999
 31
0.0
  0
LINE
  5
9B7D
330
9A30
100
AcDbEntity
  8
1
  6
Continuous
100
AcDbLine
 10
113.6805159999999
 20
192.947283
 30
0.0
 11
117.280516
 21
192.947283
 31
0.0
  0
LINE
  5
9B7E
330
9A30
100
AcDbEntity
  8
1
  6
Continuous
100
AcDbLine
 10
117.280516
 20
195.447283
 30
0.0
 11
118.280516
 21
195.988783
 31
0.0
  0
LINE
  5
9B7F
330
9A30
100
AcDbEntity
  8
1
  6
Continuous
100
AcDbLine
 10
118.280516
 20
195.447283
 30
0.0
 11
118.280516
 21
195.988783
 31
0.0
  0
LINE
  5
9B80
330
9A30
100
AcDbEntity
  8
1
  6
Continuous
100
AcDbLine
 10
111.6805159999999
 20
214.947283
 30
0.0
 11
113.6805159999999
 21
216.947283
 31
0.0
  0
LINE
  5
9B81
330
9A30
100
AcDbEntity
  8
2
  6
Continuous
100
AcDbLine
 10
117.280516
 20
214.447283
 30
0.0
 11
118.280516
 21
213.905783
 31
0.0
  0
LINE
  5
9B82
330
9A30
100
AcDbEntity
  8
1
  6
Continuous
100
AcDbLine
 10
118.280516
 20
202.913273
 30
0.0
 11
118.280516
 21
214.447283
 31
0.0
  0
LINE
  5
9B83
330
9A30
100
AcDbEntity
  8
1
  6
Continuous
100
AcDbLine
 10
113.6805159999999
 20
216.947283
 30
0.0
 11
117.280516
 21
216.947283
 31
0.0
  0
LINE
  5
9B84
330
9A30
100
AcDbEntity
  8
1
  6
Continuous
100
AcDbLine
 10
138.4805159999999
 20
195.447283
 30
0.0
 11
138.4805159999999
 21
238.9472829999998
 31
0.0
  0
LINE
  5
9B85
330
9A30
100
AcDbEntity
  8
1
  6
Continuous
100
AcDbLine
 10
135.280516
 20
195.447283
 30
0.0
 11
135.280516
 21
238.9472829999998
 31
0.0
  0
LINE
  5
9B86
330
9A30
100
AcDbEntity
  8
1
  6
Continuous
100
AcDbLine
 10
133.5805159999999
 20
196.247283
 30
0.0
 11
133.5805159999999
 21
213.6472829999999
 31
0.0
  0
LINE
  5
9B87
330
9A30
100
AcDbEntity
  8
1
  6
Continuous
100
AcDbLine
 10
135.1805159999998
 20
197.4128619999999
 30
0.0
 11
135.1805159999998
 21
204.947283
 31
0.0
  0
LINE
  5
9B88
330
9A30
100
AcDbEntity
  8
1
  6
Continuous
100
AcDbLine
 10
135.280516
 20
197.047283
 30
0.0
 11
133.6805159999999
 21
197.047283
 31
0.0
  0
LINE
  5
9B89
330
9A30
100
AcDbEntity
  8
1
  6
Continuous
100
AcDbLine
 10
133.0805159999999
 20
196.247283
 30
0.0
 11
133.5805159999999
 21
196.247283
 31
0.0
  0
LINE
  5
9B8A
330
9A30
100
AcDbEntity
  8
1
  6
Continuous
100
AcDbLine
 10
133.5805159999999
 20
196.872785
 30
0.0
 11
133.0805159999999
 21
196.872785
 31
0.0
  0
LINE
  5
9B8B
330
9A30
100
AcDbEntity
  8
1
  6
Continuous
100
AcDbLine
 10
133.0805159999999
 20
196.872785
 30
0.0
 11
133.0805159999999
 21
196.247283
 31
0.0
  0
LINE
  5
9B8C
330
9A30
100
AcDbEntity
  8
1
  6
Continuous
100
AcDbLine
 10
135.1805159999998
 20
197.4128619999999
 30
0.0
 11
133.5805159999999
 21
197.4128619999999
 31
0.0
  0
LINE
  5
9B8D
330
9A30
100
AcDbEntity
  8
1
  6
Continuous
100
AcDbLine
 10
133.6805159999999
 20
197.047283
 30
0.0
 11
133.6805159999999
 21
197.4128619999999
 31
0.0
  0
LINE
  5
9B8E
330
9A30
100
AcDbEntity
  8
1
  6
Continuous
100
AcDbLine
 10
138.4805159999999
 20
195.447283
 30
0.0
 11
135.280516
 21
195.447283
 31
0.0
  0
LINE
  5
9B8F
330
9A30
100
AcDbEntity
  8
1
  6
Continuous
100
AcDbLine
 10
132.280516
 20
195.447283
 30
0.0
 11
132.280516
 21
195.667584
 31
0.0
  0
LINE
  5
9B90
330
9A30
100
AcDbEntity
  8
1
  6
Continuous
100
AcDbLine
 10
133.0805159999999
 20
196.247283
 30
0.0
 11
132.280516
 21
195.447283
 31
0.0
  0
LINE
  5
9B91
330
9A30
100
AcDbEntity
  8
1
  6
Continuous
100
AcDbLine
 10
132.280516
 20
195.667584
 30
0.0
 11
133.0805159999999
 21
196.872785
 31
0.0
  0
LINE
  5
9B92
330
9A30
100
AcDbEntity
  8
1
  6
Continuous
100
AcDbLine
 10
140.2804769999999
 20
201.1472829999999
 30
0.0
 11
139.2804769999999
 21
201.1472829999999
 31
0.0
  0
LINE
  5
9B93
330
9A30
100
AcDbEntity
  8
1
  6
Continuous
100
AcDbLine
 10
140.2804769999999
 20
201.1472829999999
 30
0.0
 11
140.2804769999999
 21
208.747283
 31
0.0
  0
LINE
  5
9B94
330
9A30
100
AcDbEntity
  8
1
  6
Continuous
100
AcDbLine
 10
140.2804769999999
 20
201.4472829999998
 30
0.0
 11
141.399892
 21
201.5452189999999
 31
0.0
  0
LINE
  5
9B95
330
9A30
100
AcDbEntity
  8
1
  6
Continuous
100
AcDbLine
 10
138.4805159999999
 20
199.947283
 30
0.0
 11
139.2804769999999
 21
199.947283
 31
0.0
  0
LINE
  5
9B96
330
9A30
100
AcDbEntity
  8
1
  6
Continuous
100
AcDbLine
 10
139.2804769999999
 20
199.947283
 30
0.0
 11
139.2804769999999
 21
209.9472829999998
 31
0.0
  0
ARC
  5
9B97
330
9A30
100
AcDbEntity
  8
1
  6
Continuous
100
AcDbCircle
 10
141.2865899999999
 20
202.8402719999998
 30
0.0
 40
1.3
100
AcDbArc
 50
275.0
 51
344.1191499999998
  0
ARC
  5
9B98
330
9A30
100
AcDbEntity
  8
1
  6
Continuous
100
AcDbCircle
 10
133.880477
 20
204.947283
 30
0.0
 40
9.0
100
AcDbArc
 50
344.1191499999998
 51
15.88085
  0
LINE
  5
9B99
330
9A30
100
AcDbEntity
  8
1
  6
Continuous
100
AcDbLine
 10
140.2804769999999
 20
204.947283
 30
0.0
 11
139.2804769999999
 21
203.947283
 31
0.0
  0
LINE
  5
9B9A
330
9A30
100
AcDbEntity
  8
1
  6
Continuous
100
AcDbLine
 10
140.2804769999999
 20
205.9472829999999
 30
0.0
 11
139.2804769999999
 21
204.947283
 31
0.0
  0
LINE
  5
9B9B
330
9A30
100
AcDbEntity
  8
1
  6
Continuous
100
AcDbLine
 10
138.4805159999999
 20
209.9472829999998
 30
0.0
 11
139.2804769999999
 21
209.9472829999998
 31
0.0
  0
LINE
  5
9B9C
330
9A30
100
AcDbEntity
  8
1
  6
Continuous
100
AcDbLine
 10
140.2804769999999
 20
208.747283
 30
0.0
 11
139.2804769999999
 21
208.747283
 31
0.0
  0
ARC
  5
9B9D
330
9A30
100
AcDbEntity
  8
1
  6
Continuous
100
AcDbCircle
 10
141.2865899999999
 20
207.054294
 30
0.0
 40
1.3
100
AcDbArc
 50
15.88085
 51
85.0
  0
LINE
  5
9B9E
330
9A30
100
AcDbEntity
  8
1
  6
Continuous
100
AcDbLine
 10
140.2804769999999
 20
208.447283
 30
0.0
 11
141.399892
 21
208.349347
 31
0.0
  0
LINE
  5
9B9F
330
9A30
100
AcDbEntity
  8
1
  6
Continuous
100
AcDbLine
 10
133.6805159999999
 20
204.947283
 30
0.0
 11
133.6805159999999
 21
212.847283
 31
0.0
  0
LINE
  5
9BA0
330
9A30
100
AcDbEntity
  8
1
  6
Continuous
100
AcDbLine
 10
133.5805159999999
 20
211.197283
 30
0.0
 11
133.6805159999999
 21
211.197283
 31
0.0
  0
LINE
  5
9BA1
330
9A30
100
AcDbEntity
  8
1
  6
Continuous
100
AcDbLine
 10
135.280516
 20
212.847283
 30
0.0
 11
133.6805159999999
 21
212.847283
 31
0.0
  0
LINE
  5
9BA2
330
9A30
100
AcDbEntity
  8
1
  6
Continuous
100
AcDbLine
 10
133.0805159999999
 20
213.6472829999999
 30
0.0
 11
133.5805159999999
 21
213.6472829999999
 31
0.0
  0
LINE
  5
9BA3
330
9A30
100
AcDbEntity
  8
1
  6
Continuous
100
AcDbLine
 10
133.0805159999999
 20
213.6472829999999
 30
0.0
 11
132.280516
 21
214.447283
 31
0.0
  0
LINE
  5
9BA4
330
9A30
100
AcDbEntity
  8
1
  6
Continuous
100
AcDbLine
 10
133.5805159999999
 20
201.708072
 30
0.0
 11
133.0805159999999
 21
201.708072
 31
0.0
  0
LINE
  5
9BA5
330
9A30
100
AcDbEntity
  8
1
  6
Continuous
100
AcDbLine
 10
132.280516
 20
202.913273
 30
0.0
 11
133.0805159999999
 21
201.708072
 31
0.0
  0
LINE
  5
9BA6
330
9A30
100
AcDbEntity
  8
1
  6
Continuous
100
AcDbLine
 10
132.280516
 20
202.913273
 30
0.0
 11
132.280516
 21
214.447283
 31
0.0
  0
LINE
  5
9BA7
330
9A30
100
AcDbEntity
  8
1
  6
Continuous
100
AcDbLine
 10
133.0805159999999
 20
213.6472829999999
 30
0.0
 11
133.0805159999999
 21
201.708072
 31
0.0
  0
LINE
  5
9BA8
330
9A30
100
AcDbEntity
  8
1
  6
Continuous
100
AcDbLine
 10
135.1805159999998
 20
204.947283
 30
0.0
 11
133.5805159999999
 21
204.947283
 31
0.0
  0
LINE
  5
9BA9
330
9A30
100
AcDbEntity
  8
1
  6
Continuous
100
AcDbLine
 10
177.096922
 20
193.247283
 30
0.0
 11
177.096922
 21
216.647283
 31
0.0
  0
LINE
  5
9BAA
330
9A30
100
AcDbEntity
  8
1
  6
Continuous
100
AcDbLine
 10
181.096922
 20
216.647283
 30
0.0
 11
181.096922
 21
193.247283
 31
0.0
  0
ARC
  5
9BAB
330
9A30
100
AcDbEntity
  8
1
  6
Continuous
100
AcDbCircle
 10
180.796922
 20
193.247283
 30
0.0
 40
0.3
100
AcDbArc
 50
270.0
 51
0.0
  0
ARC
  5
9BAC
330
9A30
100
AcDbEntity
  8
1
  6
Continuous
100
AcDbCircle
 10
177.3969219999999
 20
193.247283
 30
0.0
 40
0.3
100
AcDbArc
 50
180.0
 51
270.0
  0
LINE
  5
9BAD
330
9A30
100
AcDbEntity
  8
1
  6
Continuous
100
AcDbLine
 10
180.796922
 20
192.947283
 30
0.0
 11
177.3969219999999
 21
192.947283
 31
0.0
  0
LINE
  5
9BAE
330
9A30
100
AcDbEntity
  8
4
  6
CENTER
100
AcDbLine
 10
172.096922
 20
204.947283
 30
0.0
 11
186.096922
 21
204.947283
 31
0.0
  0
LINE
  5
9BAF
330
9A30
100
AcDbEntity
  8
1
  6
Continuous
100
AcDbLine
 10
180.796951
 20
204.947283
 30
0.0
 11
177.396951
 21
204.947283
 31
0.0
  0
ARC
  5
9BB0
330
9A30
100
AcDbEntity
  8
1
  6
Continuous
100
AcDbCircle
 10
177.3969219999999
 20
216.647283
 30
0.0
 40
0.3
100
AcDbArc
 50
90.0
 51
180.0
  0
ARC
  5
9BB1
330
9A30
100
AcDbEntity
  8
1
  6
Continuous
100
AcDbCircle
 10
180.796922
 20
216.647283
 30
0.0
 40
0.3
100
AcDbArc
 50
0.0
 51
90.0
  0
LINE
  5
9BB2
330
9A30
100
AcDbEntity
  8
1
  6
Continuous
100
AcDbLine
 10
177.3969219999999
 20
216.947283
 30
0.0
 11
180.796922
 21
216.947283
 31
0.0
  0
LINE
  5
9BB3
330
9A30
100
AcDbEntity
  8
1
  6
Continuous
100
AcDbLine
 10
138.4805159999999
 20
238.9472829999998
 30
0.0
 11
135.280516
 21
238.9472829999998
 31
0.0
  0
LINE
  5
9BB4
330
9A30
100
AcDbEntity
  8
4
  6
CENTER
100
AcDbLine
 10
359.9023029999998
 20
139.9736419999999
 30
0.0
 11
318.702342
 21
139.9736419999999
 31
0.0
  0
LINE
  5
9BB5
330
9A30
100
AcDbEntity
  8
1
  6
Continuous
100
AcDbLine
 10
289.4858689999999
 20
153.5301419999998
 30
0.0
 11
289.4858689999999
 21
126.3756419999999
 31
0.0
  0
LINE
  5
9BB6
330
9A30
100
AcDbEntity
  8
1
  6
Continuous
100
AcDbLine
 10
285.485869
 20
126.3756419999999
 30
0.0
 11
285.485869
 21
153.5301419999998
 31
0.0
  0
ARC
  5
9BB7
330
9A30
100
AcDbEntity
  8
1
  6
Continuous
100
AcDbCircle
 10
257.79141
 20
139.9736419999999
 30
0.0
 40
9.5
100
AcDbArc
 50
270.0
 51
90.0
  0
LINE
  5
9BB8
330
9A30
100
AcDbEntity
  8
1
  6
Continuous
100
AcDbLine
 10
289.1858689999999
 20
126.1171419999999
 30
0.0
 11
285.785869
 21
126.1171419999999
 31
0.0
  0
ARC
  5
9BB9
330
9A30
100
AcDbEntity
  8
1
  6
Continuous
100
AcDbCircle
 10
285.785869
 20
126.417142
 30
0.0
 40
0.3
100
AcDbArc
 50
180.0
 51
270.0
  0
ARC
  5
9BBA
330
9A30
100
AcDbEntity
  8
1
  6
Continuous
100
AcDbCircle
 10
289.1858689999999
 20
126.417142
 30
0.0
 40
0.3
100
AcDbArc
 50
270.0
 51
0.0
  0
LINE
  5
9BBB
330
9A30
100
AcDbEntity
  8
1
  6
Continuous
100
AcDbLine
 10
289.1858689999999
 20
153.8301419999999
 30
0.0
 11
285.785869
 21
153.8301419999999
 31
0.0
  0
LINE
  5
9BBC
330
9A30
100
AcDbEntity
  8
1
  6
Continuous
100
AcDbLine
 10
285.785869
 20
133.024627
 30
0.0
 11
289.1858689999999
 21
133.024627
 31
0.0
  0
LINE
  5
9BBD
330
9A30
100
AcDbEntity
  8
1
  6
Continuous
100
AcDbLine
 10
285.785869
 20
146.9226559999999
 30
0.0
 11
289.1858689999999
 21
146.9226559999999
 31
0.0
  0
LINE
  5
9BBE
330
9A30
100
AcDbEntity
  8
4
  6
CENTER
100
AcDbLine
 10
294.4858689999999
 20
139.9736419999999
 30
0.0
 11
280.4858689999999
 21
139.9736419999999
 31
0.0
  0
ARC
  5
9BBF
330
9A30
100
AcDbEntity
  8
1
  6
Continuous
100
AcDbCircle
 10
285.785869
 20
153.5301419999998
 30
0.0
 40
0.3
100
AcDbArc
 50
90.0
 51
180.0
  0
ARC
  5
9BC0
330
9A30
100
AcDbEntity
  8
1
  6
Continuous
100
AcDbCircle
 10
289.1858689999999
 20
153.5301419999998
 30
0.0
 40
0.3
100
AcDbArc
 50
0.0
 51
90.0
  0
LINE
  5
9BC1
330
9A30
100
AcDbEntity
  8
1
  6
Continuous
100
AcDbLine
 10
331.302303
 20
149.4736419999999
 30
0.0
 11
331.302303
 21
130.4736419999999
 31
0.0
  0
LINE
  5
9BC2
330
9A30
100
AcDbEntity
  8
1
  6
Continuous
100
AcDbLine
 10
328.102303
 20
149.4736419999999
 30
0.0
 11
328.102303
 21
130.4736419999999
 31
0.0
  0
LINE
  5
9BC3
330
9A30
100
AcDbEntity
  8
1
  6
Continuous
100
AcDbLine
 10
333.0023029999999
 20
148.6736419999998
 30
0.0
 11
333.0023029999999
 21
131.273642
 31
0.0
  0
LINE
  5
9BC4
330
9A30
100
AcDbEntity
  8
1
  6
Continuous
100
AcDbLine
 10
352.9023029999998
 20
151.9736419999999
 30
0.0
 11
352.9023029999998
 21
127.973642
 31
0.0
  0
LINE
  5
9BC5
330
9A30
100
AcDbEntity
  8
1
  6
Continuous
100
AcDbLine
 10
349.3023029999998
 20
127.973642
 30
0.0
 11
349.3023029999998
 21
151.9736419999999
 31
0.0
  0
LINE
  5
9BC6
330
9A30
100
AcDbEntity
  8
1
  6
Continuous
100
AcDbLine
 10
354.9023029999998
 20
149.9736419999998
 30
0.0
 11
354.9023029999998
 21
129.9736419999999
 31
0.0
  0
LINE
  5
9BC7
330
9A30
100
AcDbEntity
  8
2
  6
Continuous
100
AcDbLine
 10
349.3023029999998
 20
130.4736419999999
 30
0.0
 11
333.0023029999999
 21
136.7344319999999
 31
0.0
  0
LINE
  5
9BC8
330
9A30
100
AcDbEntity
  8
2
  6
Continuous
100
AcDbLine
 10
349.3023029999998
 20
137.9396319999999
 30
0.0
 11
333.0023029999999
 21
131.899144
 31
0.0
  0
LINE
  5
9BC9
330
9A30
100
AcDbEntity
  8
1
  6
Continuous
100
AcDbLine
 10
352.9023029999998
 20
127.973642
 30
0.0
 11
349.3023029999998
 21
127.973642
 31
0.0
  0
LINE
  5
9BCA
330
9A30
100
AcDbEntity
  8
1
  6
Continuous
100
AcDbLine
 10
349.3023029999998
 20
130.4736419999999
 30
0.0
 11
334.3023029999999
 21
130.4736419999999
 31
0.0
  0
LINE
  5
9BCB
330
9A30
100
AcDbEntity
  8
1
  6
Continuous
100
AcDbLine
 10
349.3023029999998
 20
130.6939439999998
 30
0.0
 11
334.3023029999999
 21
130.6939439999998
 31
0.0
  0
LINE
  5
9BCC
330
9A30
100
AcDbEntity
  8
2
  6
Continuous
100
AcDbLine
 10
348.302303
 20
131.0151419999999
 30
0.0
 11
333.7608029999998
 21
131.0151419999999
 31
0.0
  0
LINE
  5
9BCD
330
9A30
100
AcDbEntity
  8
1
  6
Continuous
100
AcDbLine
 10
334.3023029999999
 20
130.6939439999998
 30
0.0
 11
334.3023029999999
 21
130.4736419999999
 31
0.0
  0
LINE
  5
9BCE
330
9A30
100
AcDbEntity
  8
1
  6
Continuous
100
AcDbLine
 10
333.5023029999999
 20
131.273642
 30
0.0
 11
333.5023029999999
 21
131.899144
 31
0.0
  0
LINE
  5
9BCF
330
9A30
100
AcDbEntity
  8
1
  6
Continuous
100
AcDbLine
 10
334.3023029999999
 20
130.6939439999998
 30
0.0
 11
333.5023029999999
 21
131.899144
 31
0.0
  0
LINE
  5
9BD0
330
9A30
100
AcDbEntity
  8
1
  6
Continuous
100
AcDbLine
 10
333.5023029999999
 20
131.273642
 30
0.0
 11
334.3023029999999
 21
130.4736419999999
 31
0.0
  0
LINE
  5
9BD1
330
9A30
100
AcDbEntity
  8
1
  6
Continuous
100
AcDbLine
 10
328.102303
 20
130.4736419999999
 30
0.0
 11
331.302303
 21
130.4736419999999
 31
0.0
  0
LINE
  5
9BD2
330
9A30
100
AcDbEntity
  8
1
  6
Continuous
100
AcDbLine
 10
333.5023029999999
 20
131.273642
 30
0.0
 11
333.0023029999999
 21
131.273642
 31
0.0
  0
LINE
  5
9BD3
330
9A30
100
AcDbEntity
  8
1
  6
Continuous
100
AcDbLine
 10
348.302303
 20
131.0151419999999
 30
0.0
 11
348.302303
 21
130.4736419999999
 31
0.0
  0
LINE
  5
9BD4
330
9A30
100
AcDbEntity
  8
2
  6
Continuous
100
AcDbLine
 10
349.3023029999998
 20
130.4736419999999
 30
0.0
 11
348.302303
 21
131.0151419999999
 31
0.0
  0
LINE
  5
9BD5
330
9A30
100
AcDbEntity
  8
1
  6
Continuous
100
AcDbLine
 10
354.9023029999998
 20
129.9736419999999
 30
0.0
 11
352.9023029999998
 21
127.973642
 31
0.0
  0
LINE
  5
9BD6
330
9A30
100
AcDbEntity
  8
1
  6
Continuous
100
AcDbLine
 10
352.9023029999998
 20
151.9736419999999
 30
0.0
 11
349.3023029999998
 21
151.9736419999999
 31
0.0
  0
LINE
  5
9BD7
330
9A30
100
AcDbEntity
  8
1
  6
Continuous
100
AcDbLine
 10
349.3023029999998
 20
149.4736419999999
 30
0.0
 11
334.3023029999999
 21
149.4736419999999
 31
0.0
  0
LINE
  5
9BD8
330
9A30
100
AcDbEntity
  8
2
  6
Continuous
100
AcDbLine
 10
348.302303
 20
148.932142
 30
0.0
 11
333.7608029999998
 21
148.932142
 31
0.0
  0
LINE
  5
9BD9
330
9A30
100
AcDbEntity
  8
1
  6
Continuous
100
AcDbLine
 10
334.3023029999999
 20
137.9396319999999
 30
0.0
 11
349.3023029999998
 21
137.9396319999999
 31
0.0
  0
LINE
  5
9BDA
330
9A30
100
AcDbEntity
  8
1
  6
Continuous
100
AcDbLine
 10
328.102303
 20
149.4736419999999
 30
0.0
 11
331.302303
 21
149.4736419999999
 31
0.0
  0
LINE
  5
9BDB
330
9A30
100
AcDbEntity
  8
1
  6
Continuous
100
AcDbLine
 10
331.4023029999999
 20
148.6736419999998
 30
0.0
 11
331.4023029999999
 21
147.8736419999999
 31
0.0
  0
LINE
  5
9BDC
330
9A30
100
AcDbEntity
  8
1
  6
Continuous
100
AcDbLine
 10
334.3023029999999
 20
137.9396319999999
 30
0.0
 11
333.5023029999999
 21
136.734431
 31
0.0
  0
LINE
  5
9BDD
330
9A30
100
AcDbEntity
  8
1
  6
Continuous
100
AcDbLine
 10
333.0023029999999
 20
143.2128529999999
 30
0.0
 11
333.5023029999999
 21
143.2128529999999
 31
0.0
  0
LINE
  5
9BDE
330
9A30
100
AcDbEntity
  8
1
  6
Continuous
100
AcDbLine
 10
333.0023029999999
 20
148.0481399999999
 30
0.0
 11
333.5023029999999
 21
148.0481399999999
 31
0.0
  0
LINE
  5
9BDF
330
9A30
100
AcDbEntity
  8
1
  6
Continuous
100
AcDbLine
 10
333.0023029999999
 20
146.2236419999999
 30
0.0
 11
332.9023029999999
 21
146.2236419999999
 31
0.0
  0
LINE
  5
9BE0
330
9A30
100
AcDbEntity
  8
1
  6
Continuous
100
AcDbLine
 10
332.9023029999999
 20
146.3886629999998
 30
0.0
 11
333.0023029999999
 21
146.3886629999998
 31
0.0
  0
LINE
  5
9BE1
330
9A30
100
AcDbEntity
  8
1
  6
Continuous
100
AcDbLine
 10
331.302303
 20
132.073642
 30
0.0
 11
332.9023029999999
 21
132.073642
 31
0.0
  0
LINE
  5
9BE2
330
9A30
100
AcDbEntity
  8
1
  6
Continuous
100
AcDbLine
 10
331.302303
 20
147.8736419999999
 30
0.0
 11
332.9023029999999
 21
147.8736419999999
 31
0.0
  0
LINE
  5
9BE3
330
9A30
100
AcDbEntity
  8
1
  6
Continuous
100
AcDbLine
 10
333.5023029999999
 20
148.6736419999998
 30
0.0
 11
331.4023029999999
 21
148.6736419999998
 31
0.0
  0
LINE
  5
9BE4
330
9A30
100
AcDbEntity
  8
1
  6
Continuous
100
AcDbLine
 10
333.0023029999999
 20
133.7236419999999
 30
0.0
 11
332.9023029999999
 21
133.7236419999999
 31
0.0
  0
LINE
  5
9BE5
330
9A30
100
AcDbEntity
  8
1
  6
Continuous
100
AcDbLine
 10
332.9023029999999
 20
147.8736419999999
 30
0.0
 11
332.9023029999999
 21
132.073642
 31
0.0
  0
LINE
  5
9BE6
330
9A30
100
AcDbEntity
  8
1
  6
Continuous
100
AcDbLine
 10
326.302342
 20
139.9736419999999
 30
0.0
 11
327.302342
 21
140.9736419999999
 31
0.0
  0
LINE
  5
9BE7
330
9A30
100
AcDbEntity
  8
1
  6
Continuous
100
AcDbLine
 10
326.302342
 20
138.9736419999999
 30
0.0
 11
327.302342
 21
139.9736419999999
 31
0.0
  0
LINE
  5
9BE8
330
9A30
100
AcDbEntity
  8
1
  6
Continuous
100
AcDbLine
 10
326.302342
 20
136.1736419999998
 30
0.0
 11
327.302342
 21
136.1736419999998
 31
0.0
  0
LINE
  5
9BE9
330
9A30
100
AcDbEntity
  8
1
  6
Continuous
100
AcDbLine
 10
326.302342
 20
143.773642
 30
0.0
 11
327.302342
 21
143.773642
 31
0.0
  0
LINE
  5
9BEA
330
9A30
100
AcDbEntity
  8
1
  6
Continuous
100
AcDbLine
 10
326.302342
 20
143.773642
 30
0.0
 11
326.302342
 21
136.1736419999998
 31
0.0
  0
ARC
  5
9BEB
330
9A30
100
AcDbEntity
  8
1
  6
Continuous
100
AcDbCircle
 10
325.2962289999999
 20
137.866631
 30
0.0
 40
1.3
100
AcDbArc
 50
195.88085
 51
265.0
  0
ARC
  5
9BEC
330
9A30
100
AcDbEntity
  8
1
  6
Continuous
100
AcDbCircle
 10
325.2962289999999
 20
142.080653
 30
0.0
 40
1.3
100
AcDbArc
 50
95.0
 51
164.1191499999998
  0
LINE
  5
9BED
330
9A30
100
AcDbEntity
  8
1
  6
Continuous
100
AcDbLine
 10
326.302342
 20
143.4736419999999
 30
0.0
 11
325.1829269999999
 21
143.375706
 31
0.0
  0
LINE
  5
9BEE
330
9A30
100
AcDbEntity
  8
1
  6
Continuous
100
AcDbLine
 10
326.302342
 20
136.4736419999998
 30
0.0
 11
325.1829269999999
 21
136.5715779999999
 31
0.0
  0
ARC
  5
9BEF
330
9A30
100
AcDbEntity
  8
1
  6
Continuous
100
AcDbCircle
 10
332.7023419999998
 20
139.9736419999999
 30
0.0
 40
9.0
100
AcDbArc
 50
164.1191499999998
 51
195.88085
  0
LINE
  5
9BF0
330
9A30
100
AcDbEntity
  8
1
  6
Continuous
100
AcDbLine
 10
328.102303
 20
144.9736419999998
 30
0.0
 11
327.302342
 21
144.9736419999998
 31
0.0
  0
LINE
  5
9BF1
330
9A30
100
AcDbEntity
  8
1
  6
Continuous
100
AcDbLine
 10
328.102303
 20
134.9736419999999
 30
0.0
 11
327.302342
 21
134.9736419999999
 31
0.0
  0
LINE
  5
9BF2
330
9A30
100
AcDbEntity
  8
1
  6
Continuous
100
AcDbLine
 10
327.302342
 20
144.9736419999998
 30
0.0
 11
327.302342
 21
134.9736419999999
 31
0.0
  0
LINE
  5
9BF3
330
9A30
100
AcDbEntity
  8
1
  6
Continuous
100
AcDbLine
 10
333.5023029999999
 20
148.6736419999998
 30
0.0
 11
334.3023029999999
 21
149.4736419999999
 31
0.0
  0
LINE
  5
9BF4
330
9A30
100
AcDbEntity
  8
1
  6
Continuous
100
AcDbLine
 10
334.3023029999999
 20
149.4736419999999
 30
0.0
 11
334.3023029999999
 21
137.9396319999999
 31
0.0
  0
LINE
  5
9BF5
330
9A30
100
AcDbEntity
  8
1
  6
Continuous
100
AcDbLine
 10
333.5023029999999
 20
136.734431
 30
0.0
 11
333.5023029999999
 21
148.6736419999998
 31
0.0
  0
LINE
  5
9BF6
330
9A30
100
AcDbEntity
  8
2
  6
Continuous
100
AcDbLine
 10
349.3023029999998
 20
149.4736419999999
 30
0.0
 11
348.302303
 21
148.932142
 31
0.0
  0
LINE
  5
9BF7
330
9A30
100
AcDbEntity
  8
1
  6
Continuous
100
AcDbLine
 10
348.302303
 20
149.4736419999999
 30
0.0
 11
348.302303
 21
137.9396319999999
 31
0.0
  0
LINE
  5
9BF8
330
9A30
100
AcDbEntity
  8
1
  6
Continuous
100
AcDbLine
 10
352.9023029999998
 20
151.9736419999999
 30
0.0
 11
354.9023029999998
 21
149.9736419999998
 31
0.0
  0
CIRCLE
  5
9BF9
330
9A30
100
AcDbEntity
  8
1
  6
Continuous
100
AcDbCircle
 10
233.2914099999999
 20
139.9736419999999
 30
0.0
 40
3.5
  0
LINE
  5
9BFA
330
9A30
100
AcDbEntity
  8
1
  6
Continuous
100
AcDbLine
 10
233.81579
 20
138.8330779999998
 30
0.0
 11
234.4493579999999
 21
138.222138
 31
0.0
  0
LINE
  5
9BFB
330
9A30
100
AcDbEntity
  8
1
  6
Continuous
100
AcDbLine
 10
233.816497
 20
141.114912
 30
0.0
 11
234.4486509999999
 21
141.725852
 31
0.0
  0
ARC
  5
9BFC
330
9A30
100
AcDbEntity
  8
1
  6
Continuous
100
AcDbCircle
 10
233.2904099999999
 20
139.9736419999999
 30
0.0
 40
2.1
100
AcDbArc
 50
213.463
 51
236.5369999999999
  0
ARC
  5
9BFD
330
9A30
100
AcDbEntity
  8
1
  6
Continuous
100
AcDbCircle
 10
233.2904099999999
 20
139.9736419999999
 30
0.0
 40
2.1
100
AcDbArc
 50
123.4629999999998
 51
146.537
  0
LINE
  5
9BFE
330
9A30
100
AcDbEntity
  8
1
  6
Continuous
100
AcDbLine
 10
232.1498469999999
 20
139.448261
 30
0.0
 11
231.538906
 21
138.816108
 31
0.0
  0
LINE
  5
9BFF
330
9A30
100
AcDbEntity
  8
1
  6
Continuous
100
AcDbLine
 10
232.1498469999999
 20
140.499022
 30
0.0
 11
231.538906
 21
141.131175
 31
0.0
  0
LINE
  5
9C00
330
9A30
100
AcDbEntity
  8
1
  6
Continuous
100
AcDbLine
 10
233.291117
 20
139.023997
 30
0.0
 11
233.81579
 21
138.8330779999998
 31
0.0
  0
LINE
  5
9C01
330
9A30
100
AcDbEntity
  8
1
  6
Continuous
100
AcDbLine
 10
232.340765
 20
139.9743489999998
 30
0.0
 11
232.1498469999999
 21
139.448261
 31
0.0
  0
LINE
  5
9C02
330
9A30
100
AcDbEntity
  8
1
  6
Continuous
100
AcDbLine
 10
232.765029
 20
138.8330779999998
 30
0.0
 11
232.1328759999999
 21
138.222138
 31
0.0
  0
LINE
  5
9C03
330
9A30
100
AcDbEntity
  8
1
  6
Continuous
100
AcDbLine
 10
233.291117
 20
139.023997
 30
0.0
 11
232.765029
 21
138.8330779999998
 31
0.0
  0
LINE
  5
9C04
330
9A30
100
AcDbEntity
  8
1
  6
Continuous
100
AcDbLine
 10
233.2904099999999
 20
140.923993
 30
0.0
 11
232.765737
 21
141.114912
 31
0.0
  0
LINE
  5
9C05
330
9A30
100
AcDbEntity
  8
1
  6
Continuous
100
AcDbLine
 10
232.765737
 20
141.114912
 30
0.0
 11
232.1328759999999
 21
141.725145
 31
0.0
  0
LINE
  5
9C06
330
9A30
100
AcDbEntity
  8
1
  6
Continuous
100
AcDbLine
 10
232.340765
 20
139.9743489999998
 30
0.0
 11
232.1498469999999
 21
140.499022
 31
0.0
  0
LINE
  5
9C07
330
9A30
100
AcDbEntity
  8
1
  6
Continuous
100
AcDbLine
 10
233.2904099999999
 20
140.923993
 30
0.0
 11
233.816497
 21
141.114912
 31
0.0
  0
ARC
  5
9C08
330
9A30
100
AcDbEntity
  8
1
  6
Continuous
100
AcDbCircle
 10
233.2904099999999
 20
139.9736419999999
 30
0.0
 40
2.1
100
AcDbArc
 50
303.4629999999999
 51
326.5369999999998
  0
ARC
  5
9C09
330
9A30
100
AcDbEntity
  8
1
  6
Continuous
100
AcDbCircle
 10
233.2904099999999
 20
139.9736419999999
 30
0.0
 40
2.1
100
AcDbArc
 50
33.463
 51
56.537
  0
LINE
  5
9C0A
330
9A30
100
AcDbEntity
  8
1
  6
Continuous
100
AcDbLine
 10
234.4316799999998
 20
139.4489679999997
 30
0.0
 11
235.04262
 21
138.815401
 31
0.0
  0
LINE
  5
9C0B
330
9A30
100
AcDbEntity
  8
1
  6
Continuous
100
AcDbLine
 10
234.2407609999999
 20
139.9736419999999
 30
0.0
 11
234.4316799999998
 21
139.4489679999997
 31
0.0
  0
LINE
  5
9C0C
330
9A30
100
AcDbEntity
  8
1
  6
Continuous
100
AcDbLine
 10
234.4316799999998
 20
140.499729
 30
0.0
 11
235.04262
 21
141.1318819999999
 31
0.0
  0
LINE
  5
9C0D
330
9A30
100
AcDbEntity
  8
1
  6
Continuous
100
AcDbLine
 10
234.2407609999999
 20
139.9736419999999
 30
0.0
 11
234.4316799999998
 21
140.499729
 31
0.0
  0
ENDSEC
  0
SECTION
  2
OBJECTS
  0
DICTIONARY
  5
9A1E
330
0
100
AcDbDictionary
281
     1
  3
ACAD_CIP_PREVIOUS_PRODUCT_INFO
350
9C71
  3
ACAD_COLOR
350
9C53
  3
ACAD_DETAILVIEWSTYLE
350
9C6C
  3
ACAD_GROUP
350
9A1F
  3
ACAD_LAYOUT
350
9A2B
  3
ACAD_MATERIAL
350
9C21
  3
ACAD_MLEADERSTYLE
350
9C68
  3
ACAD_MLINESTYLE
350
9A28
  3
ACAD_PLOTSETTINGS
350
9A2A
  3
ACAD_PLOTSTYLENAME
350
9C1F
  3
ACAD_SCALELIST
350
9C56
  3
ACAD_SECTIONVIEWSTYLE
350
9C6A
  3
ACAD_TABLESTYLE
350
9C54
  3
ACAD_VISUALSTYLE
350
9C3A
  3
ACDB_RECOMPOSE_DATA
350
9C8F
  3
AcDbVariableDictionary
350
9C82
  3
DWGPROPS
350
9C90
  0
DICTIONARY
  5
9C72
330
9A22
100
AcDbDictionary
280
     1
281
     1
  3
ADSK_XREC_LAYER_RECONCILED
360
9C73
  0
DICTIONARY
  5
9C74
330
9A38
100
AcDbDictionary
280
     1
281
     1
  3
ADSK_XREC_LAYER_RECONCILED
360
9C75
  0
DICTIONARY
  5
9C76
330
9A39
100
AcDbDictionary
280
     1
281
     1
  3
ADSK_XREC_LAYER_RECONCILED
360
9C77
  0
DICTIONARY
  5
9C78
330
9A3A
100
AcDbDictionary
280
     1
281
     1
  3
ADSK_XREC_LAYER_RECONCILED
360
9C79
  0
DICTIONARY
  5
9C7A
330
9A3B
100
AcDbDictionary
280
     1
281
     1
  3
ADSK_XREC_LAYER_RECONCILED
360
9C7B
  0
DICTIONARY
  5
9C7C
330
9A3C
100
AcDbDictionary
280
     1
281
     1
  3
ADSK_XREC_LAYER_RECONCILED
360
9C7D
  0
DICTIONARY
  5
9C7E
330
9A3D
100
AcDbDictionary
280
     1
281
     1
  3
ADSK_XREC_LAYER_RECONCILED
360
9C7F
  0
DICTIONARY
  5
9C80
330
9A3E
100
AcDbDictionary
280
     1
281
     1
  3
ADSK_XREC_LAYER_RECONCILED
360
9C81
  0
DICTIONARY
  5
9C1A
330
9A30
100
AcDbDictionary
281
     1
  3
ACAD_LAYOUTSELFREF
350
9C1B
  0
DICTIONARY
  5
9C18
330
9A2C
100
AcDbDictionary
281
     1
  3
ACAD_LAYOUTSELFREF
350
9C19
  0
XRECORD
  5
9C71
102
{ACAD_REACTORS
330
9A1E
102
}
330
9A1E
100
AcDbXrecord
280
     1
300
ACDLT
300
2014
300
ACDLT_F_S
  0
DICTIONARY
  5
9C53
102
{ACAD_REACTORS
330
9A1E
102
}
330
9A1E
100
AcDbDictionary
281
     1
  0
DICTIONARY
  5
9C6C
102
{ACAD_REACTORS
330
9A1E
102
}
330
9A1E
100
AcDbDictionary
281
     1
  3
Imperial24
350
9C6D
  0
DICTIONARY
  5
9A1F
102
{ACAD_REACTORS
330
9A1E
102
}
330
9A1E
100
AcDbDictionary
281
     1
  0
DICTIONARY
  5
9A2B
102
{ACAD_REACTORS
330
9A1E
102
}
330
9A1E
100
AcDbDictionary
281
     1
  3
Model
350
9C6E
  3
レイアウト1
350
9C6F
  0
DICTIONARY
  5
9C21
102
{ACAD_REACTORS
330
9A1E
102
}
330
9A1E
100
AcDbDictionary
281
     1
  3
ByBlock
350
9C2A
  3
ByLayer
350
9C22
  3
Global
350
9C32
  0
DICTIONARY
  5
9C68
102
{ACAD_REACTORS
330
9A1E
102
}
330
9A1E
100
AcDbDictionary
281
     1
  3
Standard
350
9C69
  0
DICTIONARY
  5
9A28
102
{ACAD_REACTORS
330
9A1E
102
}
330
9A1E
100
AcDbDictionary
281
     1
  3
STANDARD
350
9A29
  0
DICTIONARY
  5
9A2A
102
{ACAD_REACTORS
330
9A1E
102
}
330
9A1E
100
AcDbDictionary
281
     1
  0
ACDBDICTIONARYWDFLT
  5
9C1F
102
{ACAD_REACTORS
330
9A1E
102
}
330
9A1E
100
AcDbDictionary
281
     1
  3
Normal
350
9C20
100
AcDbDictionaryWithDefault
340
9C20
  0
DICTIONARY
  5
9C56
102
{ACAD_REACTORS
330
9A1E
102
}
330
9A1E
100
AcDbDictionary
281
     1
  3
A0
350
9C57
  3
A1
350
9C58
  3
A2
350
9C59
  3
A3
350
9C5A
  3
A4
350
9C5B
  3
A5
350
9C5C
  3
A6
350
9C5D
  3
A7
350
9C5E
  3
A8
350
9C5F
  3
A9
350
9C60
  3
B0
350
9C61
  3
B1
350
9C62
  3
B2
350
9C63
  3
B3
350
9C64
  3
B4
350
9C65
  3
B5
350
9C66
  3
B6
350
9C67
  0
DICTIONARY
  5
9C6A
102
{ACAD_REACTORS
330
9A1E
102
}
330
9A1E
100
AcDbDictionary
281
     1
  3
Imperial24
350
9C6B
  0
DICTIONARY
  5
9C54
102
{ACAD_REACTORS
330
9A1E
102
}
330
9A1E
100
AcDbDictionary
281
     1
  3
Standard
350
9C55
  0
DICTIONARY
  5
9C3A
102
{ACAD_REACTORS
330
9A1E
102
}
330
9A1E
100
AcDbDictionary
281
     1
  3
2dWireframe
350
9C40
  3
Basic
350
9C3F
  3
Brighten
350
9C46
  3
ColorChange
350
9C4A
  3
Conceptual
350
9C43
  3
Dim
350
9C45
  3
EdgeColorOff
350
9C52
  3
Facepattern
350
9C49
  3
Flat
350
9C3B
  3
FlatWithEdges
350
9C3C
  3
Gouraud
350
9C3D
  3
GouraudWithEdges
350
9C3E
  3
Hidden
350
9C42
  3
JitterOff
350
9C50
  3
Linepattern
350
9C48
  3
OverhangOff
350
9C51
  3
Realistic
350
9C44
  3
Shaded
350
9C4F
  3
Shaded with edges
350
9C4E
  3
Shades of Gray
350
9C4B
  3
Sketchy
350
9C4C
  3
Thicken
350
9C47
  3
Wireframe
350
9C41
  3
X-Ray
350
9C4D
  0
XRECORD
  5
9C8F
102
{ACAD_REACTORS
330
9A1E
102
}
330
9A1E
100
AcDbXrecord
280
     1
 90
        1
330
9C55
  0
DICTIONARY
  5
9C82
102
{ACAD_REACTORS
330
9A1E
102
}
330
9A1E
100
AcDbDictionary
281
     1
  3
CANNOSCALE
350
9C87
  3
CMLEADERSTYLE
350
9C84
  3
CTABLESTYLE
350
9C83
  3
CVIEWDETAILSTYLE
350
9C85
  3
CVIEWSECTIONSTYLE
350
9C86
  3
DIMASSOC
350
9C8A
  3
INDEXCTL
350
9C89
  3
SORTENTS
350
9C88
  3
XCLIPFRAME
350
9C8B
  0
XRECORD
  5
9C90
102
{ACAD_REACTORS
330
9A1E
102
}
330
9A1E
100
AcDbXrecord
280
     1
  1
DWGPROPS COOKIE
  2

  3

  4

  6

  7

  8
Yoshitsune
  9

300
=
301
=
302
=
303
=
304
=
305
=
306
=
307
=
308
=
309
=
 40
0.0000155555555556
 41
2451345.683937384
 42
2457192.601380463
  1

 90
        0
  0
XRECORD
  5
9C73
102
{ACAD_REACTORS
330
9C72
102
}
330
9C72
100
AcDbXrecord
280
     1
290
     1
  0
XRECORD
  5
9C75
102
{ACAD_REACTORS
330
9C74
102
}
330
9C74
100
AcDbXrecord
280
     1
290
     1
  0
XRECORD
  5
9C77
102
{ACAD_REACTORS
330
9C76
102
}
330
9C76
100
AcDbXrecord
280
     1
290
     1
  0
XRECORD
  5
9C79
102
{ACAD_REACTORS
330
9C78
102
}
330
9C78
100
AcDbXrecord
280
     1
290
     1
  0
XRECORD
  5
9C7B
102
{ACAD_REACTORS
330
9C7A
102
}
330
9C7A
100
AcDbXrecord
280
     1
290
     1
  0
XRECORD
  5
9C7D
102
{ACAD_REACTORS
330
9C7C
102
}
330
9C7C
100
AcDbXrecord
280
     1
290
     1
  0
XRECORD
  5
9C7F
102
{ACAD_REACTORS
330
9C7E
102
}
330
9C7E
100
AcDbXrecord
280
     1
290
     1
  0
XRECORD
  5
9C81
102
{ACAD_REACTORS
330
9C80
102
}
330
9C80
100
AcDbXrecord
280
     1
290
     1
  0
XRECORD
  5
9C1B
102
{ACAD_REACTORS
330
9C1A
102
}
330
9C1A
100
AcDbXrecord
280
     1
340
9A30
  0
XRECORD
  5
9C19
102
{ACAD_REACTORS
330
9C18
102
}
330
9C18
100
AcDbXrecord
280
     1
340
9A2C
  0
ACDBDETAILVIEWSTYLE
  5
9C6D
102
{ACAD_XDICTIONARY
360
9CC8
102
}
102
{ACAD_REACTORS
330
9C6C
102
}
330
9C6C
100
AcDbModelDocViewStyle
 70
     0
  3
Imperial24
290
     0
100
AcDbDetailViewStyle
 70
     0
 71
     0
 90
        3
 71
     1
340
9A23
 40
0.24
340
0
 40
0.24
300

 40
0.36
280
     3
 71
     2
340
9A27
 90
       25
 71
     3
340
9A23
 40
0.24
 90
        1
 40
0.75
 90
        1
300
%<\AcVar ViewType \f "%tc1">% %<\AcVar ViewDetailId>%\PSCALE %<\AcVar ViewScale \f "%sn">%
 71
     4
340
9A27
 90
       25
340
9A27
 90
       25
280
     0
  0
LAYOUT
  5
9C6E
102
{ACAD_XDICTIONARY
360
9CCA
102
}
102
{ACAD_REACTORS
330
9A2B
102
}
330
9A2B
100
AcDbPlotSettings
  1

  2
Canon LBP9100C
  4

  6

 40
0.0
 41
0.0
 42
0.0
 43
0.0
 44
0.0
 45
0.0
 46
0.0
 47
0.0
 48
0.0
 49
0.0
140
0.0
141
0.0
142
1.0
143
1.0
 70
  1712
 72
     0
 73
     0
 74
     0
  7

 75
     0
147
1.0
148
0.0
149
0.0
100
AcDbLayout
  1
Model
 70
     1
 71
     0
 10
0.0
 20
0.0
 11
12.0
 21
9.0
 12
0.0
 22
0.0
 32
0.0
 14
0.0
 24
0.0
 34
0.0
 15
0.0
 25
0.0
 35
0.0
146
0.0
 13
0.0
 23
0.0
 33
0.0
 16
1.0
 26
0.0
 36
0.0
 17
0.0
 27
1.0
 37
0.0
 76
     0
330
9A30
331
9C17
  0
LAYOUT
  5
9C6F
102
{ACAD_XDICTIONARY
360
9CCC
102
}
102
{ACAD_REACTORS
330
9A2B
102
}
330
9A2B
100
AcDbPlotSettings
  1

  2
Canon LBP9100C
  4

  6

 40
0.0
 41
0.0
 42
0.0
 43
0.0
 44
0.0
 45
0.0
 46
0.0
 47
0.0
 48
0.0
 49
0.0
140
0.0
141
0.0
142
1.0
143
1.0
 70
   688
 72
     0
 73
     0
 74
     5
  7

 75
    16
147
1.0
148
0.0
149
0.0
100
AcDbLayout
  1
レイアウト1
 70
     0
 71
     1
 10
0.0
 20
0.0
 11
420.0
 21
297.0
 12
0.0
 22
0.0
 32
0.0
 14
1.000000000000000E+20
 24
1.000000000000000E+20
 34
1.000000000000000E+20
 15
-1.000000000000000E+20
 25
-1.000000000000000E+20
 35
-1.000000000000000E+20
146
0.0
 13
0.0
 23
0.0
 33
0.0
 16
1.0
 26
0.0
 36
0.0
 17
0.0
 27
1.0
 37
0.0
 76
     0
330
9A2C
  0
MATERIAL
  5
9C2A
102
{ACAD_XDICTIONARY
360
9C2B
102
}
102
{ACAD_REACTORS
330
9C21
102
}
330
9C21
100
AcDbMaterial
  1
ByBlock
 72
     0
 43
0.0208333333333333
 43
0.0
 43
0.0
 43
0.0
 43
0.0
 43
0.0208333333333333
 43
0.0
 43
0.0
 43
0.0
 43
0.0
 43
1.0
 43
0.0
 43
0.0
 43
0.0
 43
0.0
 43
1.0
 77
     0
 47
0.0208333333333333
 47
0.0
 47
0.0
 47
0.0
 47
0.0
 47
0.0208333333333333
 47
0.0
 47
0.0
 47
0.0
 47
0.0
 47
1.0
 47
0.0
 47
0.0
 47
0.0
 47
0.0
 47
1.0
171
     0
 49
0.0208333333333333
 49
0.0
 49
0.0
 49
0.0
 49
0.0
 49
0.0208333333333333
 49
0.0
 49
0.0
 49
0.0
 49
0.0
 49
1.0
 49
0.0
 49
0.0
 49
0.0
 49
0.0
 49
1.0
175
     0
142
0.0208333333333333
142
0.0
142
0.0
142
0.0
142
0.0
142
0.0208333333333333
142
0.0
142
0.0
142
0.0
142
0.0
142
1.0
142
0.0
142
0.0
142
0.0
142
0.0
142
1.0
179
     0
144
0.0208333333333333
144
0.0
144
0.0
144
0.0
144
0.0
144
0.0208333333333333
144
0.0
144
0.0
144
0.0
144
0.0
144
1.0
144
0.0
144
0.0
144
0.0
144
0.0
144
1.0
147
0.0208333333333333
147
0.0
147
0.0
147
0.0
147
0.0
147
0.0208333333333333
147
0.0
147
0.0
147
0.0
147
0.0
147
1.0
147
0.0
147
0.0
147
0.0
147
0.0
147
1.0
  0
MATERIAL
  5
9C22
102
{ACAD_XDICTIONARY
360
9C23
102
}
102
{ACAD_REACTORS
330
9C21
102
}
330
9C21
100
AcDbMaterial
  1
ByLayer
 72
     0
 43
0.0208333333333333
 43
0.0
 43
0.0
 43
0.0
 43
0.0
 43
0.0208333333333333
 43
0.0
 43
0.0
 43
0.0
 43
0.0
 43
1.0
 43
0.0
 43
0.0
 43
0.0
 43
0.0
 43
1.0
 77
     0
 47
0.0208333333333333
 47
0.0
 47
0.0
 47
0.0
 47
0.0
 47
0.0208333333333333
 47
0.0
 47
0.0
 47
0.0
 47
0.0
 47
1.0
 47
0.0
 47
0.0
 47
0.0
 47
0.0
 47
1.0
171
     0
 49
0.0208333333333333
 49
0.0
 49
0.0
 49
0.0
 49
0.0
 49
0.0208333333333333
 49
0.0
 49
0.0
 49
0.0
 49
0.0
 49
1.0
 49
0.0
 49
0.0
 49
0.0
 49
0.0
 49
1.0
175
     0
142
0.0208333333333333
142
0.0
142
0.0
142
0.0
142
0.0
142
0.0208333333333333
142
0.0
142
0.0
142
0.0
142
0.0
142
1.0
142
0.0
142
0.0
142
0.0
142
0.0
142
1.0
179
     0
144
0.0208333333333333
144
0.0
144
0.0
144
0.0
144
0.0
144
0.0208333333333333
144
0.0
144
0.0
144
0.0
144
0.0
144
1.0
144
0.0
144
0.0
144
0.0
144
0.0
144
1.0
147
0.0208333333333333
147
0.0
147
0.0
147
0.0
147
0.0
147
0.0208333333333333
147
0.0
147
0.0
147
0.0
147
0.0
147
1.0
147
0.0
147
0.0
147
0.0
147
0.0
147
1.0
  0
MATERIAL
  5
9C32
102
{ACAD_XDICTIONARY
360
9C33
102
}
102
{ACAD_REACTORS
330
9C21
102
}
330
9C21
100
AcDbMaterial
  1
Global
 72
     0
 43
0.0208333333333333
 43
0.0
 43
0.0
 43
0.0
 43
0.0
 43
0.0208333333333333
 43
0.0
 43
0.0
 43
0.0
 43
0.0
 43
1.0
 43
0.0
 43
0.0
 43
0.0
 43
0.0
 43
1.0
 77
     0
 47
0.0208333333333333
 47
0.0
 47
0.0
 47
0.0
 47
0.0
 47
0.0208333333333333
 47
0.0
 47
0.0
 47
0.0
 47
0.0
 47
1.0
 47
0.0
 47
0.0
 47
0.0
 47
0.0
 47
1.0
171
     0
 49
0.0208333333333333
 49
0.0
 49
0.0
 49
0.0
 49
0.0
 49
0.0208333333333333
 49
0.0
 49
0.0
 49
0.0
 49
0.0
 49
1.0
 49
0.0
 49
0.0
 49
0.0
 49
0.0
 49
1.0
175
     0
142
0.0208333333333333
142
0.0
142
0.0
142
0.0
142
0.0
142
0.0208333333333333
142
0.0
142
0.0
142
0.0
142
0.0
142
1.0
142
0.0
142
0.0
142
0.0
142
0.0
142
1.0
179
     0
144
0.0208333333333333
144
0.0
144
0.0
144
0.0
144
0.0
144
0.0208333333333333
144
0.0
144
0.0
144
0.0
144
0.0
144
1.0
144
0.0
144
0.0
144
0.0
144
0.0
144
1.0
147
0.0208333333333333
147
0.0
147
0.0
147
0.0
147
0.0
147
0.0208333333333333
147
0.0
147
0.0
147
0.0
147
0.0
147
1.0
147
0.0
147
0.0
147
0.0
147
0.0
147
1.0
  0
MLEADERSTYLE
  5
9C69
102
{ACAD_REACTORS
330
9C68
102
}
330
9C68
100
AcDbMLeaderStyle
170
     2
171
     1
172
     0
 90
        2
 40
0.0
 41
0.0
173
     1
 91
-1056964608
340
9A25
 92
       -2
290
     1
 42
0.09
291
     1
 43
0.36
  3
Standard
 44
0.18
300

342
9A23
174
     1
178
     6
175
     1
176
     0
 93
-1056964608
 45
0.18
292
     0
297
     0
 46
0.18
 94
-1056964608
 47
1.0
 49
1.0
140
1.0
293
     1
141
0.0
294
     1
177
     0
142
1.0
295
     0
296
     0
143
0.125
1001
ACAD_MLEADERVER
1070
     2
  0
MLINESTYLE
  5
9A29
102
{ACAD_REACTORS
330
9A28
102
}
330
9A28
100
AcDbMlineStyle
  2
STANDARD
 70
     0
  3

 62
   256
 51
90.0
 52
90.0
 71
     2
 49
0.5
 62
   256
  6
BYLAYER
 49
-0.5
 62
   256
  6
BYLAYER
  0
ACDBPLACEHOLDER
  5
9C20
102
{ACAD_REACTORS
330
9C1F
102
}
330
9C1F
  0
SCALE
  5
9C57
102
{ACAD_REACTORS
330
9C56
102
}
330
9C56
100
AcDbScale
 70
     0
300
1:1
140
1.0
141
1.0
290
     1
  0
SCALE
  5
9C58
102
{ACAD_REACTORS
330
9C56
102
}
330
9C56
100
AcDbScale
 70
     0
300
1/128" = 1'-0"
140
0.0078125
141
12.0
290
     0
  0
SCALE
  5
9C59
102
{ACAD_REACTORS
330
9C56
102
}
330
9C56
100
AcDbScale
 70
     0
300
1/64" = 1'-0"
140
0.015625
141
12.0
290
     0
  0
SCALE
  5
9C5A
102
{ACAD_REACTORS
330
9C56
102
}
330
9C56
100
AcDbScale
 70
     0
300
1/32" = 1'-0"
140
0.03125
141
12.0
290
     0
  0
SCALE
  5
9C5B
102
{ACAD_REACTORS
330
9C56
102
}
330
9C56
100
AcDbScale
 70
     0
300
1/16" = 1'-0"
140
0.0625
141
12.0
290
     0
  0
SCALE
  5
9C5C
102
{ACAD_REACTORS
330
9C56
102
}
330
9C56
100
AcDbScale
 70
     0
300
3/32" = 1'-0"
140
0.09375
141
12.0
290
     0
  0
SCALE
  5
9C5D
102
{ACAD_REACTORS
330
9C56
102
}
330
9C56
100
AcDbScale
 70
     0
300
1/8" = 1'-0"
140
0.125
141
12.0
290
     0
  0
SCALE
  5
9C5E
102
{ACAD_REACTORS
330
9C56
102
}
330
9C56
100
AcDbScale
 70
     0
300
3/16" = 1'-0"
140
0.1875
141
12.0
290
     0
  0
SCALE
  5
9C5F
102
{ACAD_REACTORS
330
9C56
102
}
330
9C56
100
AcDbScale
 70
     0
300
1/4" = 1'-0"
140
0.25
141
12.0
290
     0
  0
SCALE
  5
9C60
102
{ACAD_REACTORS
330
9C56
102
}
330
9C56
100
AcDbScale
 70
     0
300
3/8" = 1'-0"
140
0.375
141
12.0
290
     0
  0
SCALE
  5
9C61
102
{ACAD_REACTORS
330
9C56
102
}
330
9C56
100
AcDbScale
 70
     0
300
1/2" = 1'-0"
140
0.5
141
12.0
290
     0
  0
SCALE
  5
9C62
102
{ACAD_REACTORS
330
9C56
102
}
330
9C56
100
AcDbScale
 70
     0
300
3/4" = 1'-0"
140
0.75
141
12.0
290
     0
  0
SCALE
  5
9C63
102
{ACAD_REACTORS
330
9C56
102
}
330
9C56
100
AcDbScale
 70
     0
300
1" = 1'-0"
140
1.0
141
12.0
290
     0
  0
SCALE
  5
9C64
102
{ACAD_REACTORS
330
9C56
102
}
330
9C56
100
AcDbScale
 70
     0
300
1-1/2" = 1'-0"
140
1.5
141
12.0
290
     0
  0
SCALE
  5
9C65
102
{ACAD_REACTORS
330
9C56
102
}
330
9C56
100
AcDbScale
 70
     0
300
3" = 1'-0"
140
3.0
141
12.0
290
     0
  0
SCALE
  5
9C66
102
{ACAD_REACTORS
330
9C56
102
}
330
9C56
100
AcDbScale
 70
     0
300
6" = 1'-0"
140
6.0
141
12.0
290
     0
  0
SCALE
  5
9C67
102
{ACAD_REACTORS
330
9C56
102
}
330
9C56
100
AcDbScale
 70
     0
300
1'-0" = 1'-0"
140
12.0
141
12.0
290
     0
  0
ACDBSECTIONVIEWSTYLE
  5
9C6B
102
{ACAD_XDICTIONARY
360
9CC6
102
}
102
{ACAD_REACTORS
330
9C6A
102
}
330
9C6A
100
AcDbModelDocViewStyle
 70
     0
  3
Imperial24
290
     0
100
AcDbSectionViewStyle
 70
     0
 71
     0
 90
       78
 71
     1
340
9A23
 40
0.24
340
0
340
0
 40
0.24
300
I, O, Q, S, X, Z
 40
0.48
 90
        3
 40
0.18
 90
        1
 71
     2
340
9A27
 90
       25
340
9A27
 90
       50
 40
0.24
 40
0.0
 40
0.24
 71
     3
340
9A23
 40
0.24
 90
        1
 40
0.75
 90
        1
300
%<\AcVar ViewType \f "%tc1">% %<\AcVar ViewSectionStartId>%-%<\AcVar ViewSectionEndId>%\PSCALE %<\AcVar ViewScale \f "%sn">%
 71
     4
300
ANSI31
 40
1.0
 90
        0
290
     0
290
     0
 90
        6
 40
0.0
 40
1.570796326794896
 40
0.2617993877991494
 40
1.308996938995747
 40
-0.2617993877991494
 40
1.832595714594046
  0
TABLESTYLE
  5
9C55
102
{ACAD_XDICTIONARY
360
9C8D
102
}
102
{ACAD_REACTORS
330
9C54
102
}
330
9C54
100
AcDbTableStyle
  3
Standard
 70
     0
 71
     0
 40
0.06
 41
0.06
280
     0
281
     0
  7
STANDARD
140
0.18
170
     2
 62
     0
 63
     7
283
     0
274
    -2
284
     1
 64
     0
275
    -2
285
     1
 65
     0
276
    -2
286
     1
 66
     0
277
    -2
287
     1
 67
     0
278
    -2
288
     1
 68
     0
279
    -2
289
     1
 69
     0
  7
STANDARD
140
0.25
170
     5
 62
     0
 63
     7
283
     0
274
    -2
284
     1
 64
     0
275
    -2
285
     1
 65
     0
276
    -2
286
     1
 66
     0
277
    -2
287
     1
 67
     0
278
    -2
288
     1
 68
     0
279
    -2
289
     1
 69
     0
  7
STANDARD
140
0.18
170
     5
 62
     0
 63
     7
283
     0
274
    -2
284
     1
 64
     0
275
    -2
285
     1
 65
     0
276
    -2
286
     1
 66
     0
277
    -2
287
     1
 67
     0
278
    -2
288
     1
 68
     0
279
    -2
289
     1
 69
     0
  0
VISUALSTYLE
  5
9C40
102
{ACAD_XDICTIONARY
360
9C9E
102
}
102
{ACAD_REACTORS
330
9C3A
102
}
330
9C3A
100
AcDbVisualStyle
  2
2dWireframe
 70
     4
 71
     0
 72
     2
 73
     0
 90
        0
 40
-0.6
 41
-30.0
 62
     5
 63
     7
 74
     1
 91
        4
 64
     7
 65
   257
 75
     1
175
     1
 42
1.0
 92
        0
 66
   257
 43
1.0
 76
     1
 77
     6
 78
     2
 67
     7
 79
     5
170
     0
171
     0
290
     0
174
     0
 93
        1
 44
0.0
173
     0
291
     0
 45
0.0
1001
ACAD
1000
AcDbSavedByObjectVersion
1070
     0
  0
VISUALSTYLE
  5
9C3F
102
{ACAD_XDICTIONARY
360
9C9C
102
}
102
{ACAD_REACTORS
330
9C3A
102
}
330
9C3A
100
AcDbVisualStyle
  2
Basic
 70
     7
 71
     1
 72
     0
 73
     1
 90
        0
 40
-0.6
 41
-30.0
 62
     5
 63
     7
 74
     0
 91
        4
 64
     7
 65
   257
 75
     1
175
     1
 42
1.0
 92
        8
 66
     7
 43
1.0
 76
     1
 77
     6
 78
     2
 67
     7
 79
     5
170
     0
171
     0
290
     0
174
     0
 93
        1
 44
0.0
173
     0
291
     1
 45
0.0
1001
ACAD
1000
AcDbSavedByObjectVersion
1070
     0
  0
VISUALSTYLE
  5
9C46
102
{ACAD_XDICTIONARY
360
9CAA
102
}
102
{ACAD_REACTORS
330
9C3A
102
}
330
9C3A
100
AcDbVisualStyle
  2
Brighten
 70
    12
 71
     2
 72
     2
 73
     0
 90
        0
 40
-0.6
 41
-30.0
 62
     5
 63
     7
 74
     1
 91
        4
 64
     7
 65
   257
 75
     1
175
     1
 42
1.0
 92
        8
 66
     7
 43
1.0
 76
     1
 77
     6
 78
     2
 67
     7
 79
     5
170
     0
171
     0
290
     0
174
     0
 93
        1
 44
50.0
173
     0
291
     1
 45
0.0
1001
ACAD
1000
AcDbSavedByObjectVersion
1070
     0
  0
VISUALSTYLE
  5
9C4A
102
{ACAD_XDICTIONARY
360
9CB2
102
}
102
{ACAD_REACTORS
330
9C3A
102
}
330
9C3A
100
AcDbVisualStyle
  2
ColorChange
 70
    16
 71
     2
 72
     2
 73
     3
 90
        0
 40
-0.6
 41
-30.0
 62
     5
 63
     8
 74
     1
 91
        4
 64
     7
 65
   257
 75
     1
175
     1
 42
1.0
 92
        8
 66
     8
 43
1.0
 76
     1
 77
     6
 78
     2
 67
     7
 79
     5
170
     0
171
     0
290
     0
174
     0
 93
        1
 44
0.0
173
     0
291
     1
 45
0.0
1001
ACAD
1000
AcDbSavedByObjectVersion
1070
     0
  0
VISUALSTYLE
  5
9C43
102
{ACAD_XDICTIONARY
360
9CA4
102
}
102
{ACAD_REACTORS
330
9C3A
102
}
330
9C3A
100
AcDbVisualStyle
  2
Conceptual
 70
     9
 71
     3
 72
     2
 73
     0
 90
        0
 40
-0.6
 41
-30.0
 62
     5
 63
     7
 74
     2
 91
        2
 64
     7
 65
   257
 75
     1
175
     1
 42
179.0
 92
        8
 66
     7
 43
1.0
 76
     1
 77
     6
 78
     2
 67
     7
 79
     3
170
     0
171
     0
290
     0
174
     0
 93
        1
 44
0.0
173
     0
291
     0
 45
0.0
1001
ACAD
1000
AcDbSavedByObjectVersion
1070
     0
  0
VISUALSTYLE
  5
9C45
102
{ACAD_XDICTIONARY
360
9CA8
102
}
102
{ACAD_REACTORS
330
9C3A
102
}
330
9C3A
100
AcDbVisualStyle
  2
Dim
 70
    11
 71
     2
 72
     2
 73
     0
 90
        0
 40
-0.6
 41
-30.0
 62
     5
 63
     7
 74
     1
 91
        4
 64
     7
 65
   257
 75
     1
175
     1
 42
1.0
 92
        8
 66
     7
 43
1.0
 76
     1
 77
     6
 78
     2
 67
     7
 79
     5
170
     0
171
     0
290
     0
174
     0
 93
        1
 44
-50.0
173
     0
291
     1
 45
0.0
1001
ACAD
1000
AcDbSavedByObjectVersion
1070
     0
  0
VISUALSTYLE
  5
9C52
102
{ACAD_XDICTIONARY
360
9CC2
102
}
102
{ACAD_REACTORS
330
9C3A
102
}
330
9C3A
100
AcDbVisualStyle
  2
EdgeColorOff
 70
    22
 71
     2
 72
     2
 73
     0
 90
        0
 40
-0.6
 41
-30.0
 62
     5
 63
     7
 74
     1
 91
        4
 64
     7
 65
   257
 75
     1
175
     1
 42
1.0
 92
        8
 66
     7
 43
1.0
 76
     1
 77
     6
 78
     2
 67
     7
 79
     5
170
     0
171
     0
290
     0
174
     0
 93
        1
 44
0.0
173
     0
291
     1
 45
0.0
1001
ACAD
1000
AcDbSavedByObjectVersion
1070
     0
  0
VISUALSTYLE
  5
9C49
102
{ACAD_XDICTIONARY
360
9CB0
102
}
102
{ACAD_REACTORS
330
9C3A
102
}
330
9C3A
100
AcDbVisualStyle
  2
Facepattern
 70
    15
 71
     2
 72
     2
 73
     0
 90
        0
 40
-0.6
 41
-30.0
 62
     5
 63
     7
 74
     1
 91
        4
 64
     7
 65
   257
 75
     1
175
     1
 42
1.0
 92
        8
 66
     7
 43
1.0
 76
     1
 77
     6
 78
     2
 67
     7
 79
     5
170
     0
171
     0
290
     0
174
     0
 93
        1
 44
0.0
173
     0
291
     1
 45
0.0
1001
ACAD
1000
AcDbSavedByObjectVersion
1070
     0
  0
VISUALSTYLE
  5
9C3B
102
{ACAD_XDICTIONARY
360
9C94
102
}
102
{ACAD_REACTORS
330
9C3A
102
}
330
9C3A
100
AcDbVisualStyle
  2
Flat
 70
     0
 71
     2
 72
     1
 73
     1
 90
        2
 40
-0.6
 41
30.0
 62
     5
 63
     7
 74
     0
 91
        0
 64
     7
 65
   257
 75
     1
175
     1
 42
1.0
 92
        8
 66
     7
 43
1.0
 76
     1
 77
     6
 78
     2
 67
     7
 79
     5
170
     0
171
     0
290
     0
174
     0
 93
       13
 44
0.0
173
     0
291
     1
 45
0.0
1001
ACAD
1000
AcDbSavedByObjectVersion
1070
     0
  0
VISUALSTYLE
  5
9C3C
102
{ACAD_XDICTIONARY
360
9C96
102
}
102
{ACAD_REACTORS
330
9C3A
102
}
330
9C3A
100
AcDbVisualStyle
  2
FlatWithEdges
 70
     1
 71
     2
 72
     1
 73
     1
 90
        2
 40
-0.6
 41
30.0
 62
     5
 63
     7
 74
     1
 91
        0
 64
     7
 65
   257
 75
     1
175
     1
 42
1.0
 92
        0
 66
   257
 43
1.0
 76
     1
 77
     6
 78
     2
 67
     7
 79
     5
170
     0
171
     0
290
     0
174
     0
 93
       13
 44
0.0
173
     0
291
     1
 45
0.0
1001
ACAD
1000
AcDbSavedByObjectVersion
1070
     0
  0
VISUALSTYLE
  5
9C3D
102
{ACAD_XDICTIONARY
360
9C98
102
}
102
{ACAD_REACTORS
330
9C3A
102
}
330
9C3A
100
AcDbVisualStyle
  2
Gouraud
 70
     2
 71
     2
 72
     2
 73
     1
 90
        2
 40
-0.6
 41
30.0
 62
     5
 63
     7
 74
     0
 91
        0
 64
     7
 65
   257
 75
     1
175
     1
 42
1.0
 92
        0
 66
     7
 43
1.0
 76
     1
 77
     6
 78
     2
 67
     7
 79
     5
170
     0
171
     0
290
     0
174
     0
 93
       13
 44
0.0
173
     0
291
     1
 45
0.0
1001
ACAD
1000
AcDbSavedByObjectVersion
1070
     0
  0
VISUALSTYLE
  5
9C3E
102
{ACAD_XDICTIONARY
360
9C9A
102
}
102
{ACAD_REACTORS
330
9C3A
102
}
330
9C3A
100
AcDbVisualStyle
  2
GouraudWithEdges
 70
     3
 71
     2
 72
     2
 73
     1
 90
        2
 40
-0.6
 41
30.0
 62
     5
 63
     7
 74
     1
 91
        0
 64
     7
 65
   257
 75
     1
175
     1
 42
1.0
 92
        0
 66
   257
 43
1.0
 76
     1
 77
     6
 78
     2
 67
     7
 79
     5
170
     0
171
     0
290
     0
174
     0
 93
       13
 44
0.0
173
     0
291
     1
 45
0.0
1001
ACAD
1000
AcDbSavedByObjectVersion
1070
     0
  0
VISUALSTYLE
  5
9C42
102
{ACAD_XDICTIONARY
360
9CA2
102
}
102
{ACAD_REACTORS
330
9C3A
102
}
330
9C3A
100
AcDbVisualStyle
  2
Hidden
 70
     6
 71
     1
 72
     2
 73
     2
 90
        0
 40
-0.6
 41
-30.0
 62
     5
 63
     7
 74
     2
 91
        2
 64
     7
 65
   257
 75
     2
175
     1
 42
40.0
 92
        0
 66
   257
 43
1.0
 76
     1
 77
     6
 78
     2
 67
     7
 79
     3
170
     0
171
     0
290
     0
174
     0
 93
        1
 44
0.0
173
     0
291
     0
 45
0.0
1001
ACAD
1000
AcDbSavedByObjectVersion
1070
     0
  0
VISUALSTYLE
  5
9C50
102
{ACAD_XDICTIONARY
360
9CBE
102
}
102
{ACAD_REACTORS
330
9C3A
102
}
330
9C3A
100
AcDbVisualStyle
  2
JitterOff
 70
    20
 71
     2
 72
     2
 73
     0
 90
        0
 40
-0.6
 41
-30.0
 62
     5
 63
     7
 74
     1
 91
        4
 64
     7
 65
   257
 75
     1
175
     1
 42
1.0
 92
       10
 66
     7
 43
1.0
 76
     1
 77
     6
 78
     2
 67
     7
 79
     5
170
     0
171
     0
290
     0
174
     0
 93
        1
 44
0.0
173
     0
291
     1
 45
0.0
1001
ACAD
1000
AcDbSavedByObjectVersion
1070
     0
  0
VISUALSTYLE
  5
9C48
102
{ACAD_XDICTIONARY
360
9CAE
102
}
102
{ACAD_REACTORS
330
9C3A
102
}
330
9C3A
100
AcDbVisualStyle
  2
Linepattern
 70
    14
 71
     2
 72
     2
 73
     0
 90
        0
 40
-0.6
 41
-30.0
 62
     5
 63
     7
 74
     1
 91
        4
 64
     7
 65
   257
 75
     7
175
     7
 42
1.0
 92
        8
 66
     7
 43
1.0
 76
     1
 77
     6
 78
     2
 67
     7
 79
     5
170
     0
171
     0
290
     0
174
     0
 93
        1
 44
0.0
173
     0
291
     1
 45
0.0
1001
ACAD
1000
AcDbSavedByObjectVersion
1070
     0
  0
VISUALSTYLE
  5
9C51
102
{ACAD_XDICTIONARY
360
9CC0
102
}
102
{ACAD_REACTORS
330
9C3A
102
}
330
9C3A
100
AcDbVisualStyle
  2
OverhangOff
 70
    21
 71
     2
 72
     2
 73
     0
 90
        0
 40
-0.6
 41
-30.0
 62
     5
 63
     7
 74
     1
 91
        4
 64
     7
 65
   257
 75
     1
175
     1
 42
1.0
 92
        9
 66
     7
 43
1.0
 76
     1
 77
     6
 78
     2
 67
     7
 79
     5
170
     0
171
     0
290
     0
174
     0
 93
        1
 44
0.0
173
     0
291
     1
 45
0.0
1001
ACAD
1000
AcDbSavedByObjectVersion
1070
     0
  0
VISUALSTYLE
  5
9C44
102
{ACAD_XDICTIONARY
360
9CA6
102
}
102
{ACAD_REACTORS
330
9C3A
102
}
330
9C3A
100
AcDbVisualStyle
  2
Realistic
 70
     8
 71
     2
 72
     3
 73
     0
 90
        2
 40
-0.6
 41
30.0
 62
     5
 63
     7
 74
     0
 91
        0
 64
     7
 65
   257
 75
     1
175
     1
 42
1.0
 92
        8
 66
   257
 43
1.0
 76
     1
 77
     6
 78
     2
 67
     7
 79
     3
170
     0
171
     0
290
     0
174
     0
 93
       13
 44
0.0
173
     0
291
     0
 45
0.0
1001
ACAD
1000
AcDbSavedByObjectVersion
1070
     0
  0
VISUALSTYLE
  5
9C4F
102
{ACAD_XDICTIONARY
360
9CBC
102
}
102
{ACAD_REACTORS
330
9C3A
102
}
330
9C3A
100
AcDbVisualStyle
  2
Shaded
 70
    27
 71
     2
 72
     2
 73
     1
 90
        2
 40
-0.6
 41
30.0
 62
     5
 63
     7
 74
     0
 91
        4
 64
     7
 65
   257
 75
     1
175
     1
 42
1.0
 92
        8
 66
   257
 43
1.0
 76
     1
 77
     6
 78
     2
 67
     8
 79
     3
170
     0
171
     0
290
     0
174
     0
 93
        5
 44
0.0
173
     0
291
     0
 45
0.0
1001
ACAD
1000
AcDbSavedByObjectVersion
1070
     0
  0
VISUALSTYLE
  5
9C4E
102
{ACAD_XDICTIONARY
360
9CBA
102
}
102
{ACAD_REACTORS
330
9C3A
102
}
330
9C3A
100
AcDbVisualStyle
  2
Shaded with edges
 70
    26
 71
     2
 72
     2
 73
     1
 90
        2
 40
-0.6
 41
30.0
 62
     5
 63
     7
 74
     1
 91
       10
 64
     7
 65
   257
 75
     2
175
     1
 42
1.0
 92
        8
 66
   257
 43
1.0
 76
     1
 77
     6
 78
     2
 67
     7
 79
     3
170
     0
171
     0
290
     0
174
     0
 93
        5
 44
0.0
173
     0
291
     0
 45
0.0
1001
ACAD
1000
AcDbSavedByObjectVersion
1070
     0
  0
VISUALSTYLE
  5
9C4B
102
{ACAD_XDICTIONARY
360
9CB4
102
}
102
{ACAD_REACTORS
330
9C3A
102
}
330
9C3A
100
AcDbVisualStyle
  2
Shades of Gray
 70
    23
 71
     2
 72
     2
 73
     3
 90
        0
 40
-0.6
 41
-30.0
 62
     5
 63
     7
 74
     2
 91
        2
 64
     7
 65
     7
 75
     1
175
     1
 42
40.0
 92
        8
 66
     7
 43
1.0
 76
     1
 77
     6
 78
     2
 67
     7
 79
     3
170
     0
171
     0
290
     0
174
     0
 93
        1
 44
0.0
173
     0
291
     0
 45
0.0
1001
ACAD
1000
AcDbSavedByObjectVersion
1070
     0
  0
VISUALSTYLE
  5
9C4C
102
{ACAD_XDICTIONARY
360
9CB6
102
}
102
{ACAD_REACTORS
330
9C3A
102
}
330
9C3A
100
AcDbVisualStyle
  2
Sketchy
 70
    24
 71
     1
 72
     2
 73
     2
 90
        0
 40
-0.6
 41
-30.0
 62
     5
 63
     7
 74
     2
 91
        2
 64
     7
 65
     7
 75
     1
175
     1
 42
40.0
 92
       11
 66
     7
 43
1.0
 76
     1
 77
     6
 78
     2
 67
     7
 79
     6
170
     0
171
     0
290
     0
174
     0
 93
        1
 44
0.0
173
     0
291
     0
 45
0.0
1001
ACAD
1000
AcDbSavedByObjectVersion
1070
     0
  0
VISUALSTYLE
  5
9C47
102
{ACAD_XDICTIONARY
360
9CAC
102
}
102
{ACAD_REACTORS
330
9C3A
102
}
330
9C3A
100
AcDbVisualStyle
  2
Thicken
 70
    13
 71
     2
 72
     2
 73
     0
 90
        0
 40
-0.6
 41
-30.0
 62
     5
 63
     7
 74
     1
 91
        4
 64
     7
 65
   257
 75
     1
175
     1
 42
1.0
 92
       12
 66
     7
 43
1.0
 76
     1
 77
     6
 78
     2
 67
     7
 79
     5
170
     0
171
     0
290
     0
174
     0
 93
        1
 44
0.0
173
     0
291
     1
 45
0.0
1001
ACAD
1000
AcDbSavedByObjectVersion
1070
     0
  0
VISUALSTYLE
  5
9C41
102
{ACAD_XDICTIONARY
360
9CA0
102
}
102
{ACAD_REACTORS
330
9C3A
102
}
330
9C3A
100
AcDbVisualStyle
  2
Wireframe
 70
     5
 71
     0
 72
     2
 73
     0
 90
        0
 40
-0.6
 41
-30.0
 62
     5
 63
     7
 74
     1
 91
        4
 64
     7
 65
   257
 75
     1
175
     1
 42
1.0
 92
        0
 66
   257
 43
1.0
 76
     1
 77
     6
 78
     2
 67
     7
 79
     3
170
     0
171
     0
290
     0
174
     0
 93
        1
 44
0.0
173
     0
291
     0
 45
0.0
1001
ACAD
1000
AcDbSavedByObjectVersion
1070
     0
  0
VISUALSTYLE
  5
9C4D
102
{ACAD_XDICTIONARY
360
9CB8
102
}
102
{ACAD_REACTORS
330
9C3A
102
}
330
9C3A
100
AcDbVisualStyle
  2
X-Ray
 70
    25
 71
     2
 72
     2
 73
     1
 90
        1
 40
0.5
 41
-30.0
 62
     5
 63
     7
 74
     1
 91
        0
 64
     7
 65
   257
 75
     1
175
     1
 42
1.0
 92
        8
 66
     7
 43
1.0
 76
     1
 77
     6
 78
     2
 67
     7
 79
     3
170
     0
171
     0
290
     0
174
     0
 93
       13
 44
0.0
173
     0
291
     0
 45
0.0
1001
ACAD
1000
AcDbSavedByObjectVersion
1070
     0
  0
DICTIONARYVAR
  5
9C87
102
{ACAD_REACTORS
330
9C82
102
}
330
9C82
100
DictionaryVariables
280
     0
  1
1:1
  0
DICTIONARYVAR
  5
9C84
102
{ACAD_REACTORS
330
9C82
102
}
330
9C82
100
DictionaryVariables
280
     0
  1
STANDARD
  0
DICTIONARYVAR
  5
9C83
102
{ACAD_REACTORS
330
9C82
102
}
330
9C82
100
DictionaryVariables
280
     0
  1
STANDARD
  0
DICTIONARYVAR
  5
9C85
102
{ACAD_REACTORS
330
9C82
102
}
330
9C82
100
DictionaryVariables
280
     0
  1
Imperial24
  0
DICTIONARYVAR
  5
9C86
102
{ACAD_REACTORS
330
9C82
102
}
330
9C82
100
DictionaryVariables
280
     0
  1
Imperial24
  0
DICTIONARYVAR
  5
9C8A
102
{ACAD_REACTORS
330
9C82
102
}
330
9C82
100
DictionaryVariables
280
     0
  1
1
  0
DICTIONARYVAR
  5
9C89
102
{ACAD_REACTORS
330
9C82
102
}
330
9C82
100
DictionaryVariables
280
     0
  1
0
  0
DICTIONARYVAR
  5
9C88
102
{ACAD_REACTORS
330
9C82
102
}
330
9C82
100
DictionaryVariables
280
     0
  1
127
  0
DICTIONARYVAR
  5
9C8B
102
{ACAD_REACTORS
330
9C82
102
}
330
9C82
100
DictionaryVariables
280
     0
  1
2
  0
DICTIONARY
  5
9CC8
330
9C6D
100
AcDbDictionary
280
     1
281
     1
  3
ACAD_XREC_ROUNDTRIP
360
9CC9
  0
DICTIONARY
  5
9CCA
330
9C6E
100
AcDbDictionary
280
     1
281
     1
  3
ACAD_XREC_ROUNDTRIP
360
9CCB
  0
DICTIONARY
  5
9CCC
330
9C6F
100
AcDbDictionary
280
     1
281
     1
  3
ACAD_XREC_ROUNDTRIP
360
9CCD
  0
DICTIONARY
  5
9C2B
330
9C2A
100
AcDbDictionary
280
     1
281
     1
  3
ACAD_XREC_ROUNDTRIP
360
9C92
  3
BUMPTILE
360
9C2D
  3
DIFFUSETILE
360
9C2C
  3
OPACITYTILE
360
9C30
  3
REFLECTIONTILE
360
9C2F
  3
REFRACTIONTILE
360
9C31
  3
SPECULARTILE
360
9C2E
  0
DICTIONARY
  5
9C23
330
9C22
100
AcDbDictionary
280
     1
281
     1
  3
ACAD_XREC_ROUNDTRIP
360
9C91
  3
BUMPTILE
360
9C25
  3
DIFFUSETILE
360
9C24
  3
OPACITYTILE
360
9C28
  3
REFLECTIONTILE
360
9C27
  3
REFRACTIONTILE
360
9C29
  3
SPECULARTILE
360
9C26
  0
DICTIONARY
  5
9C33
330
9C32
100
AcDbDictionary
280
     1
281
     1
  3
ACAD_XREC_ROUNDTRIP
360
9C93
  3
BUMPTILE
360
9C35
  3
DIFFUSETILE
360
9C34
  3
OPACITYTILE
360
9C38
  3
REFLECTIONTILE
360
9C37
  3
REFRACTIONTILE
360
9C39
  3
SPECULARTILE
360
9C36
  0
DICTIONARY
  5
9CC6
330
9C6B
100
AcDbDictionary
280
     1
281
     1
  3
ACAD_XREC_ROUNDTRIP
360
9CC7
  0
DICTIONARY
  5
9C8D
330
9C55
100
AcDbDictionary
280
     1
281
     1
  3
ACAD_ROUNDTRIP_2008_TABLESTYLE_CELLSTYLEMAP
360
9C8E
  3
ACAD_XREC_ROUNDTRIP
360
9CC4
  0
DICTIONARY
  5
9C9E
330
9C40
100
AcDbDictionary
280
     1
281
     1
  3
ACAD_XREC_ROUNDTRIP
360
9C9F
  0
DICTIONARY
  5
9C9C
330
9C3F
100
AcDbDictionary
280
     1
281
     1
  3
ACAD_XREC_ROUNDTRIP
360
9C9D
  0
DICTIONARY
  5
9CAA
330
9C46
100
AcDbDictionary
280
     1
281
     1
  3
ACAD_XREC_ROUNDTRIP
360
9CAB
  0
DICTIONARY
  5
9CB2
330
9C4A
100
AcDbDictionary
280
     1
281
     1
  3
ACAD_XREC_ROUNDTRIP
360
9CB3
  0
DICTIONARY
  5
9CA4
330
9C43
100
AcDbDictionary
280
     1
281
     1
  3
ACAD_XREC_ROUNDTRIP
360
9CA5
  0
DICTIONARY
  5
9CA8
330
9C45
100
AcDbDictionary
280
     1
281
     1
  3
ACAD_XREC_ROUNDTRIP
360
9CA9
  0
DICTIONARY
  5
9CC2
330
9C52
100
AcDbDictionary
280
     1
281
     1
  3
ACAD_XREC_ROUNDTRIP
360
9CC3
  0
DICTIONARY
  5
9CB0
330
9C49
100
AcDbDictionary
280
     1
281
     1
  3
ACAD_XREC_ROUNDTRIP
360
9CB1
  0
DICTIONARY
  5
9C94
330
9C3B
100
AcDbDictionary
280
     1
281
     1
  3
ACAD_XREC_ROUNDTRIP
360
9C95
  0
DICTIONARY
  5
9C96
330
9C3C
100
AcDbDictionary
280
     1
281
     1
  3
ACAD_XREC_ROUNDTRIP
360
9C97
  0
DICTIONARY
  5
9C98
330
9C3D
100
AcDbDictionary
280
     1
281
     1
  3
ACAD_XREC_ROUNDTRIP
360
9C99
  0
DICTIONARY
  5
9C9A
330
9C3E
100
AcDbDictionary
280
     1
281
     1
  3
ACAD_XREC_ROUNDTRIP
360
9C9B
  0
DICTIONARY
  5
9CA2
330
9C42
100
AcDbDictionary
280
     1
281
     1
  3
ACAD_XREC_ROUNDTRIP
360
9CA3
  0
DICTIONARY
  5
9CBE
330
9C50
100
AcDbDictionary
280
     1
281
     1
  3
ACAD_XREC_ROUNDTRIP
360
9CBF
  0
DICTIONARY
  5
9CAE
330
9C48
100
AcDbDictionary
280
     1
281
     1
  3
ACAD_XREC_ROUNDTRIP
360
9CAF
  0
DICTIONARY
  5
9CC0
330
9C51
100
AcDbDictionary
280
     1
281
     1
  3
ACAD_XREC_ROUNDTRIP
360
9CC1
  0
DICTIONARY
  5
9CA6
330
9C44
100
AcDbDictionary
280
     1
281
     1
  3
ACAD_XREC_ROUNDTRIP
360
9CA7
  0
DICTIONARY
  5
9CBC
330
9C4F
100
AcDbDictionary
280
     1
281
     1
  3
ACAD_XREC_ROUNDTRIP
360
9CBD
  0
DICTIONARY
  5
9CBA
330
9C4E
100
AcDbDictionary
280
     1
281
     1
  3
ACAD_XREC_ROUNDTRIP
360
9CBB
  0
DICTIONARY
  5
9CB4
330
9C4B
100
AcDbDictionary
280
     1
281
     1
  3
ACAD_XREC_ROUNDTRIP
360
9CB5
  0
DICTIONARY
  5
9CB6
330
9C4C
100
AcDbDictionary
280
     1
281
     1
  3
ACAD_XREC_ROUNDTRIP
360
9CB7
  0
DICTIONARY
  5
9CAC
330
9C47
100
AcDbDictionary
280
     1
281
     1
  3
ACAD_XREC_ROUNDTRIP
360
9CAD
  0
DICTIONARY
  5
9CA0
330
9C41
100
AcDbDictionary
280
     1
281
     1
  3
ACAD_XREC_ROUNDTRIP
360
9CA1
  0
DICTIONARY
  5
9CB8
330
9C4D
100
AcDbDictionary
280
     1
281
     1
  3
ACAD_XREC_ROUNDTRIP
360
9CB9
  0
XRECORD
  5
9CC9
102
{ACAD_REACTORS
330
9CC8
102
}
330
9CC8
100
AcDbXrecord
280
     1
102
DISPLAYNAME
  1
Imperial24
102
FLAGS
 90
        0
  0
XRECORD
  5
9CCB
102
{ACAD_REACTORS
330
9CCA
102
}
330
9CCA
100
AcDbXrecord
280
     1
102
SHADEPLOT
 70
     0
102
SHADEPLOTRESLEVEL
 70
     2
102
SHADEPLOTCUSTOMDPI
 70
   300
  0
XRECORD
  5
9CCD
102
{ACAD_REACTORS
330
9CCC
102
}
330
9CCC
100
AcDbXrecord
280
     1
102
SHADEPLOT
 70
     0
102
SHADEPLOTRESLEVEL
 70
     2
102
SHADEPLOTCUSTOMDPI
 70
   300
  0
XRECORD
  5
9C92
102
{ACAD_REACTORS
330
9C2B
102
}
330
9C2B
100
AcDbXrecord
280
     1
102
MATERIAL
148
0.0
149
0.0
149
0.0
 93
        0
 94
      127
282
     0
 72
     0
 77
     0
171
     0
175
     0
179
     0
273
     0
  0
XRECORD
  5
9C2D
102
{ACAD_REACTORS
330
9C2B
102
}
330
9C2B
100
AcDbXrecord
280
     1
270
     1
271
     1
  0
XRECORD
  5
9C2C
102
{ACAD_REACTORS
330
9C2B
102
}
330
9C2B
100
AcDbXrecord
280
     1
270
     1
271
     1
  0
XRECORD
  5
9C30
102
{ACAD_REACTORS
330
9C2B
102
}
330
9C2B
100
AcDbXrecord
280
     1
270
     1
271
     1
  0
XRECORD
  5
9C2F
102
{ACAD_REACTORS
330
9C2B
102
}
330
9C2B
100
AcDbXrecord
280
     1
270
     1
271
     1
  0
XRECORD
  5
9C31
102
{ACAD_REACTORS
330
9C2B
102
}
330
9C2B
100
AcDbXrecord
280
     1
270
     1
271
     1
  0
XRECORD
  5
9C2E
102
{ACAD_REACTORS
330
9C2B
102
}
330
9C2B
100
AcDbXrecord
280
     1
270
     1
271
     1
  0
XRECORD
  5
9C91
102
{ACAD_REACTORS
330
9C23
102
}
330
9C23
100
AcDbXrecord
280
     1
102
MATERIAL
148
0.0
149
0.0
149
0.0
 93
        0
 94
      127
282
     0
 72
     0
 77
     0
171
     0
175
     0
179
     0
273
     0
  0
XRECORD
  5
9C25
102
{ACAD_REACTORS
330
9C23
102
}
330
9C23
100
AcDbXrecord
280
     1
270
     1
271
     1
  0
XRECORD
  5
9C24
102
{ACAD_REACTORS
330
9C23
102
}
330
9C23
100
AcDbXrecord
280
     1
270
     1
271
     1
  0
XRECORD
  5
9C28
102
{ACAD_REACTORS
330
9C23
102
}
330
9C23
100
AcDbXrecord
280
     1
270
     1
271
     1
  0
XRECORD
  5
9C27
102
{ACAD_REACTORS
330
9C23
102
}
330
9C23
100
AcDbXrecord
280
     1
270
     1
271
     1
  0
XRECORD
  5
9C29
102
{ACAD_REACTORS
330
9C23
102
}
330
9C23
100
AcDbXrecord
280
     1
270
     1
271
     1
  0
XRECORD
  5
9C26
102
{ACAD_REACTORS
330
9C23
102
}
330
9C23
100
AcDbXrecord
280
     1
270
     1
271
     1
  0
XRECORD
  5
9C93
102
{ACAD_REACTORS
330
9C33
102
}
330
9C33
100
AcDbXrecord
280
     1
102
MATERIAL
148
0.0
149
0.0
149
0.0
 93
        0
 94
      127
282
     0
 72
     0
 77
     0
171
     0
175
     0
179
     0
273
     0
  0
XRECORD
  5
9C35
102
{ACAD_REACTORS
330
9C33
102
}
330
9C33
100
AcDbXrecord
280
     1
270
     1
271
     1
  0
XRECORD
  5
9C34
102
{ACAD_REACTORS
330
9C33
102
}
330
9C33
100
AcDbXrecord
280
     1
270
     1
271
     1
  0
XRECORD
  5
9C38
102
{ACAD_REACTORS
330
9C33
102
}
330
9C33
100
AcDbXrecord
280
     1
270
     1
271
     1
  0
XRECORD
  5
9C37
102
{ACAD_REACTORS
330
9C33
102
}
330
9C33
100
AcDbXrecord
280
     1
270
     1
271
     1
  0
XRECORD
  5
9C39
102
{ACAD_REACTORS
330
9C33
102
}
330
9C33
100
AcDbXrecord
280
     1
270
     1
271
     1
  0
XRECORD
  5
9C36
102
{ACAD_REACTORS
330
9C33
102
}
330
9C33
100
AcDbXrecord
280
     1
270
     1
271
     1
  0
XRECORD
  5
9CC7
102
{ACAD_REACTORS
330
9CC6
102
}
330
9CC6
100
AcDbXrecord
280
     1
102
DISPLAYNAME
  1
Imperial24
102
FLAGS
 90
        0
  0
CELLSTYLEMAP
  5
9C8E
102
{ACAD_REACTORS
330
9C8D
102
}
330
9C8D
100
AcDbCellStyleMap
 90
        3
300
CELLSTYLE
  1
TABLEFORMAT_BEGIN
 90
        5
170
     1
 91
        0
 92
    32768
 62
   257
 93
        1
300
CONTENTFORMAT
  1
CONTENTFORMAT_BEGIN
 90
        0
 91
        0
 92
      512
 93
        0
300

 40
0.0
140
1.0
 94
        5
 62
     0
340
9A23
144
0.25
309
CONTENTFORMAT_END
171
     0
 94
        0
309
TABLEFORMAT_END
  1
CELLSTYLE_BEGIN
 90
        1
 91
        1
300
_TITLE
309
CELLSTYLE_END
300
CELLSTYLE
  1
TABLEFORMAT_BEGIN
 90
        5
170
     1
 91
        0
 92
        0
 62
   257
 93
        1
300
CONTENTFORMAT
  1
CONTENTFORMAT_BEGIN
 90
        0
 91
        0
 92
      512
 93
        0
300

 40
0.0
140
1.0
 94
        5
 62
     0
340
9A23
144
0.18
309
CONTENTFORMAT_END
171
     0
 94
        0
309
TABLEFORMAT_END
  1
CELLSTYLE_BEGIN
 90
        2
 91
        1
300
_HEADER
309
CELLSTYLE_END
300
CELLSTYLE
  1
TABLEFORMAT_BEGIN
 90
        5
170
     1
 91
        0
 92
        0
 62
   257
 93
        1
300
CONTENTFORMAT
  1
CONTENTFORMAT_BEGIN
 90
        0
 91
        0
 92
      512
 93
        0
300

 40
0.0
140
1.0
 94
        2
 62
     0
340
9A23
144
0.18
309
CONTENTFORMAT_END
171
     0
 94
        0
309
TABLEFORMAT_END
  1
CELLSTYLE_BEGIN
 90
        3
 91
        2
300
_DATA
309
CELLSTYLE_END
  0
XRECORD
  5
9CC4
102
{ACAD_REACTORS
330
9C8D
102
}
330
9C8D
100
AcDbXrecord
280
     1
102
ACAD_ROUNDTRIP_PRE2007_TABLESTYLE
 90
      512
 91
        0
  1

 92
      512
 93
        0
  2

 94
      512
 95
        0
  3

  0
XRECORD
  5
9C9F
102
{ACAD_REACTORS
330
9C9E
102
}
330
9C9E
100
AcDbXrecord
280
     1
102
RTVSPost2010Prop28
280
     1
102
RTVSPost2010PropOp28
 70
     1
102
RTVSPost2010Prop29
280
     1
102
RTVSPost2010PropOp29
 70
     1
102
RTVSPost2010Prop30
280
     0
102
RTVSPost2010PropOp30
 70
     1
102
RTVSPost2010Prop31
280
     0
102
RTVSPost2010PropOp31
 70
     1
102
RTVSPost2010Prop32
280
     0
102
RTVSPost2010PropOp32
 70
     1
102
RTVSPost2010Prop33
280
     0
102
RTVSPost2010PropOp33
 70
     1
102
RTVSPost2010Prop34
280
     0
102
RTVSPost2010PropOp34
 70
     1
102
RTVSPost2010Prop35
280
     0
102
RTVSPost2010PropOp35
 70
     1
102
RTVSPost2010Prop36
280
     0
102
RTVSPost2010PropOp36
 70
     1
102
RTVSPost2010Prop37
 90
       50
102
RTVSPost2010PropOp37
 70
     1
102
RTVSPost2010Prop38
140
0.0
102
RTVSPost2010PropOp38
 70
     1
102
RTVSPost2010Prop39
140
1.0
102
RTVSPost2010PropOp39
 70
     1
102
RTVSPost2010Prop40
 90
        0
102
RTVSPost2010PropOp40
 70
     1
102
RTVSPost2010Prop41ColorIndex
 90
       18
102
RTVSPost2010Prop41ColorRGB
 90
        0
102
RTVSPost2010PropOp41
 70
     1
102
RTVSPost2010Prop42
 90
       50
102
RTVSPost2010PropOp42
 70
     1
102
RTVSPost2010Prop43
 90
        3
102
RTVSPost2010PropOp43
 70
     1
102
RTVSPost2010Prop44ColorIndex
 90
        5
102
RTVSPost2010Prop44ColorRGB
 90
      255
102
RTVSPost2010PropOp44
 70
     1
102
RTVSPost2010Prop45
280
     0
102
RTVSPost2010PropOp45
 70
     1
102
RTVSPost2010Prop46
 90
       50
102
RTVSPost2010PropOp46
 70
     1
102
RTVSPost2010Prop47
 90
       50
102
RTVSPost2010PropOp47
 70
     1
102
RTVSPost2010Prop48
 90
       50
102
RTVSPost2010PropOp48
 70
     1
102
RTVSPost2010Prop49
280
     0
102
RTVSPost2010PropOp49
 70
     1
102
RTVSPost2010Prop50
 90
       50
102
RTVSPost2010PropOp50
 70
     1
102
RTVSPost2010Prop51ColorIndex
 90
      256
102
RTVSPost2010Prop51ColorRGB
 90
-16777216
102
RTVSPost2010PropOp51
 70
     0
102
RTVSPost2010Prop52
140
1.0
102
RTVSPost2010PropOp52
 70
     0
102
RTVSPost2010Prop53
 90
        2
102
RTVSPost2010PropOp53
 70
     1
102
RTVSPost2010Prop54
  1
strokes_ogs.tif
102
RTVSPost2010PropOp54
 70
     1
102
RTVSPost2010Prop55
280
     0
102
RTVSPost2010PropOp55
 70
     1
102
RTVSPost2010Prop56
140
1.0
102
RTVSPost2010PropOp56
 70
     1
102
RTVSPost2010Prop57
140
1.0
102
RTVSPost2010PropOp57
 70
     1
102
RTVSPropertyOp0
 70
     1
102
RTVSPropertyOp1
 70
     1
102
RTVSPropertyOp2
 70
     1
102
RTVSPropertyOp3
 70
     1
102
RTVSPropertyOp4
 70
     1
102
RTVSPropertyOp5
 70
     1
102
RTVSPropertyOp6
 70
     1
102
RTVSPropertyOp7
 70
     1
102
RTVSPropertyOp8
 70
     1
102
RTVSPropertyOp9
 70
     1
102
RTVSPropertyOp10
 70
     1
102
RTVSPropertyOp11
 70
     1
102
RTVSPropertyOp12
 70
     1
102
RTVSPropertyOp13
 70
     1
102
RTVSPropertyOp14
 70
     1
102
RTVSPropertyOp15
 70
     1
102
RTVSPropertyOp16
 70
     1
102
RTVSPropertyOp17
 70
     1
102
RTVSPropertyOp18
 70
     1
102
RTVSPropertyOp19
 70
     1
102
RTVSPropertyOp20
 70
     1
102
RTVSPropertyOp21
 70
     1
102
RTVSPropertyOp22
 70
     1
102
RTVSPropertyOp23
 70
     1
102
RTVSPropertyOp24
 70
     1
102
RTVSPropertyOp25
 70
     1
102
RTVSPropertyOp26
 70
     1
102
RTVSPropertyOp27
 70
     1
102
RTVSPropertyOp28
 70
     1
102
RTVSPropertyOp29
 70
     1
102
RTVSPropertyOp30
 70
     1
102
RTVSPropertyOp31
 70
     1
102
RTVSPropertyOp32
 70
     1
102
RTVSPropertyOp33
 70
     1
102
RTVSPropertyOp34
 70
     1
102
RTVSPropertyOp35
 70
     1
102
RTVSPropertyOp36
 70
     1
102
RTVSPropertyOp37
 70
     1
102
RTVSPropertyOp38
 70
     1
102
RTVSPropertyOp39
 70
     1
102
RTVSPropertyOp40
 70
     1
102
RTVSPropertyOp41
 70
     1
102
RTVSPropertyOp42
 70
     1
102
RTVSPropertyOp43
 70
     1
102
RTVSPropertyOp44
 70
     1
102
RTVSPropertyOp45
 70
     1
102
RTVSPropertyOp46
 70
     1
102
RTVSPropertyOp47
 70
     1
102
RTVSPropertyOp48
 70
     1
102
RTVSPropertyOp49
 70
     1
102
RTVSPropertyOp50
 70
     1
102
RTVSPropertyOp51
 70
     0
102
RTVSPropertyOp52
 70
     0
102
RTVSPropertyOp53
 70
     1
102
RTVSPropertyOp54
 70
     1
102
RTVSPropertyOp55
 70
     1
102
RTVSPropertyOp56
 70
     1
102
RTVSPropertyOp57
 70
     1
102
RTVSPropertyOp58
 70
     1
102
RTVSPropertyOp59
 70
     1
102
RTVSPropertyOp60
 70
     1
102
RTVSPropertyOp61
 70
     1
102
RTVSPropertyOp62
 70
     1
  0
XRECORD
  5
9C9D
102
{ACAD_REACTORS
330
9C9C
102
}
330
9C9C
100
AcDbXrecord
280
     1
102
RTVSPost2010Prop28
280
     0
102
RTVSPost2010PropOp28
 70
     1
102
RTVSPost2010Prop29
280
     1
102
RTVSPost2010PropOp29
 70
     1
102
RTVSPost2010Prop30
280
     1
102
RTVSPost2010PropOp30
 70
     1
102
RTVSPost2010Prop31
280
     0
102
RTVSPost2010PropOp31
 70
     1
102
RTVSPost2010Prop32
280
     0
102
RTVSPost2010PropOp32
 70
     1
102
RTVSPost2010Prop33
280
     0
102
RTVSPost2010PropOp33
 70
     1
102
RTVSPost2010Prop34
280
     0
102
RTVSPost2010PropOp34
 70
     1
102
RTVSPost2010Prop35
280
     0
102
RTVSPost2010PropOp35
 70
     1
102
RTVSPost2010Prop36
280
     0
102
RTVSPost2010PropOp36
 70
     1
102
RTVSPost2010Prop37
 90
       50
102
RTVSPost2010PropOp37
 70
     1
102
RTVSPost2010Prop38
140
0.0
102
RTVSPost2010PropOp38
 70
     1
102
RTVSPost2010Prop39
140
1.0
102
RTVSPost2010PropOp39
 70
     1
102
RTVSPost2010Prop40
 90
        0
102
RTVSPost2010PropOp40
 70
     1
102
RTVSPost2010Prop41ColorIndex
 90
       18
102
RTVSPost2010Prop41ColorRGB
 90
        0
102
RTVSPost2010PropOp41
 70
     1
102
RTVSPost2010Prop42
 90
       50
102
RTVSPost2010PropOp42
 70
     1
102
RTVSPost2010Prop43
 90
        3
102
RTVSPost2010PropOp43
 70
     1
102
RTVSPost2010Prop44ColorIndex
 90
        5
102
RTVSPost2010Prop44ColorRGB
 90
      255
102
RTVSPost2010PropOp44
 70
     1
102
RTVSPost2010Prop45
280
     0
102
RTVSPost2010PropOp45
 70
     1
102
RTVSPost2010Prop46
 90
       50
102
RTVSPost2010PropOp46
 70
     1
102
RTVSPost2010Prop47
 90
       50
102
RTVSPost2010PropOp47
 70
     1
102
RTVSPost2010Prop48
 90
       50
102
RTVSPost2010PropOp48
 70
     1
102
RTVSPost2010Prop49
280
     0
102
RTVSPost2010PropOp49
 70
     1
102
RTVSPost2010Prop50
 90
       50
102
RTVSPost2010PropOp50
 70
     1
102
RTVSPost2010Prop51ColorIndex
 90
      256
102
RTVSPost2010Prop51ColorRGB
 90
-16777216
102
RTVSPost2010PropOp51
 70
     0
102
RTVSPost2010Prop52
140
1.0
102
RTVSPost2010PropOp52
 70
     0
102
RTVSPost2010Prop53
 90
        2
102
RTVSPost2010PropOp53
 70
     1
102
RTVSPost2010Prop54
  1
strokes_ogs.tif
102
RTVSPost2010PropOp54
 70
     1
102
RTVSPost2010Prop55
280
     0
102
RTVSPost2010PropOp55
 70
     1
102
RTVSPost2010Prop56
140
1.0
102
RTVSPost2010PropOp56
 70
     1
102
RTVSPost2010Prop57
140
1.0
102
RTVSPost2010PropOp57
 70
     1
102
RTVSPropertyOp0
 70
     1
102
RTVSPropertyOp1
 70
     1
102
RTVSPropertyOp2
 70
     1
102
RTVSPropertyOp3
 70
     1
102
RTVSPropertyOp4
 70
     1
102
RTVSPropertyOp5
 70
     1
102
RTVSPropertyOp6
 70
     1
102
RTVSPropertyOp7
 70
     1
102
RTVSPropertyOp8
 70
     1
102
RTVSPropertyOp9
 70
     1
102
RTVSPropertyOp10
 70
     1
102
RTVSPropertyOp11
 70
     1
102
RTVSPropertyOp12
 70
     1
102
RTVSPropertyOp13
 70
     1
102
RTVSPropertyOp14
 70
     1
102
RTVSPropertyOp15
 70
     1
102
RTVSPropertyOp16
 70
     1
102
RTVSPropertyOp17
 70
     1
102
RTVSPropertyOp18
 70
     1
102
RTVSPropertyOp19
 70
     1
102
RTVSPropertyOp20
 70
     1
102
RTVSPropertyOp21
 70
     1
102
RTVSPropertyOp22
 70
     1
102
RTVSPropertyOp23
 70
     1
102
RTVSPropertyOp24
 70
     1
102
RTVSPropertyOp25
 70
     1
102
RTVSPropertyOp26
 70
     1
102
RTVSPropertyOp27
 70
     1
102
RTVSPropertyOp28
 70
     1
102
RTVSPropertyOp29
 70
     1
102
RTVSPropertyOp30
 70
     1
102
RTVSPropertyOp31
 70
     1
102
RTVSPropertyOp32
 70
     1
102
RTVSPropertyOp33
 70
     1
102
RTVSPropertyOp34
 70
     1
102
RTVSPropertyOp35
 70
     1
102
RTVSPropertyOp36
 70
     1
102
RTVSPropertyOp37
 70
     1
102
RTVSPropertyOp38
 70
     1
102
RTVSPropertyOp39
 70
     1
102
RTVSPropertyOp40
 70
     1
102
RTVSPropertyOp41
 70
     1
102
RTVSPropertyOp42
 70
     1
102
RTVSPropertyOp43
 70
     1
102
RTVSPropertyOp44
 70
     1
102
RTVSPropertyOp45
 70
     1
102
RTVSPropertyOp46
 70
     1
102
RTVSPropertyOp47
 70
     1
102
RTVSPropertyOp48
 70
     1
102
RTVSPropertyOp49
 70
     1
102
RTVSPropertyOp50
 70
     1
102
RTVSPropertyOp51
 70
     0
102
RTVSPropertyOp52
 70
     0
102
RTVSPropertyOp53
 70
     1
102
RTVSPropertyOp54
 70
     1
102
RTVSPropertyOp55
 70
     1
102
RTVSPropertyOp56
 70
     1
102
RTVSPropertyOp57
 70
     1
102
RTVSPropertyOp58
 70
     1
102
RTVSPropertyOp59
 70
     1
102
RTVSPropertyOp60
 70
     1
102
RTVSPropertyOp61
 70
     1
102
RTVSPropertyOp62
 70
     1
  0
XRECORD
  5
9CAB
102
{ACAD_REACTORS
330
9CAA
102
}
330
9CAA
100
AcDbXrecord
280
     1
102
RTVSPost2010Prop28
280
     0
102
RTVSPost2010PropOp28
 70
     1
102
RTVSPost2010Prop29
280
     1
102
RTVSPost2010PropOp29
 70
     1
102
RTVSPost2010Prop30
280
     1
102
RTVSPost2010PropOp30
 70
     1
102
RTVSPost2010Prop31
280
     0
102
RTVSPost2010PropOp31
 70
     1
102
RTVSPost2010Prop32
280
     0
102
RTVSPost2010PropOp32
 70
     1
102
RTVSPost2010Prop33
280
     0
102
RTVSPost2010PropOp33
 70
     1
102
RTVSPost2010Prop34
280
     0
102
RTVSPost2010PropOp34
 70
     1
102
RTVSPost2010Prop35
280
     0
102
RTVSPost2010PropOp35
 70
     1
102
RTVSPost2010Prop36
280
     0
102
RTVSPost2010PropOp36
 70
     1
102
RTVSPost2010Prop37
 90
       50
102
RTVSPost2010PropOp37
 70
     1
102
RTVSPost2010Prop38
140
0.0
102
RTVSPost2010PropOp38
 70
     1
102
RTVSPost2010Prop39
140
1.0
102
RTVSPost2010PropOp39
 70
     1
102
RTVSPost2010Prop40
 90
        0
102
RTVSPost2010PropOp40
 70
     1
102
RTVSPost2010Prop41ColorIndex
 90
       18
102
RTVSPost2010Prop41ColorRGB
 90
        0
102
RTVSPost2010PropOp41
 70
     1
102
RTVSPost2010Prop42
 90
       50
102
RTVSPost2010PropOp42
 70
     1
102
RTVSPost2010Prop43
 90
        3
102
RTVSPost2010PropOp43
 70
     1
102
RTVSPost2010Prop44ColorIndex
 90
        5
102
RTVSPost2010Prop44ColorRGB
 90
      255
102
RTVSPost2010PropOp44
 70
     1
102
RTVSPost2010Prop45
280
     0
102
RTVSPost2010PropOp45
 70
     1
102
RTVSPost2010Prop46
 90
       50
102
RTVSPost2010PropOp46
 70
     1
102
RTVSPost2010Prop47
 90
       50
102
RTVSPost2010PropOp47
 70
     1
102
RTVSPost2010Prop48
 90
       50
102
RTVSPost2010PropOp48
 70
     1
102
RTVSPost2010Prop49
280
     0
102
RTVSPost2010PropOp49
 70
     1
102
RTVSPost2010Prop50
 90
       50
102
RTVSPost2010PropOp50
 70
     1
102
RTVSPost2010Prop51ColorIndex
 90
      256
102
RTVSPost2010Prop51ColorRGB
 90
-16777216
102
RTVSPost2010PropOp51
 70
     0
102
RTVSPost2010Prop52
140
1.0
102
RTVSPost2010PropOp52
 70
     0
102
RTVSPost2010Prop53
 90
        2
102
RTVSPost2010PropOp53
 70
     1
102
RTVSPost2010Prop54
  1
strokes_ogs.tif
102
RTVSPost2010PropOp54
 70
     1
102
RTVSPost2010Prop55
280
     0
102
RTVSPost2010PropOp55
 70
     1
102
RTVSPost2010Prop56
140
1.0
102
RTVSPost2010PropOp56
 70
     1
102
RTVSPost2010Prop57
140
1.0
102
RTVSPost2010PropOp57
 70
     1
102
RTVSPropertyOp0
 70
     1
102
RTVSPropertyOp1
 70
     1
102
RTVSPropertyOp2
 70
     1
102
RTVSPropertyOp3
 70
     1
102
RTVSPropertyOp4
 70
     1
102
RTVSPropertyOp5
 70
     1
102
RTVSPropertyOp6
 70
     1
102
RTVSPropertyOp7
 70
     1
102
RTVSPropertyOp8
 70
     1
102
RTVSPropertyOp9
 70
     1
102
RTVSPropertyOp10
 70
     1
102
RTVSPropertyOp11
 70
     1
102
RTVSPropertyOp12
 70
     1
102
RTVSPropertyOp13
 70
     1
102
RTVSPropertyOp14
 70
     1
102
RTVSPropertyOp15
 70
     1
102
RTVSPropertyOp16
 70
     1
102
RTVSPropertyOp17
 70
     1
102
RTVSPropertyOp18
 70
     1
102
RTVSPropertyOp19
 70
     1
102
RTVSPropertyOp20
 70
     1
102
RTVSPropertyOp21
 70
     1
102
RTVSPropertyOp22
 70
     1
102
RTVSPropertyOp23
 70
     1
102
RTVSPropertyOp24
 70
     1
102
RTVSPropertyOp25
 70
     1
102
RTVSPropertyOp26
 70
     1
102
RTVSPropertyOp27
 70
     1
102
RTVSPropertyOp28
 70
     1
102
RTVSPropertyOp29
 70
     1
102
RTVSPropertyOp30
 70
     1
102
RTVSPropertyOp31
 70
     1
102
RTVSPropertyOp32
 70
     1
102
RTVSPropertyOp33
 70
     1
102
RTVSPropertyOp34
 70
     1
102
RTVSPropertyOp35
 70
     1
102
RTVSPropertyOp36
 70
     1
102
RTVSPropertyOp37
 70
     1
102
RTVSPropertyOp38
 70
     1
102
RTVSPropertyOp39
 70
     1
102
RTVSPropertyOp40
 70
     1
102
RTVSPropertyOp41
 70
     1
102
RTVSPropertyOp42
 70
     1
102
RTVSPropertyOp43
 70
     1
102
RTVSPropertyOp44
 70
     1
102
RTVSPropertyOp45
 70
     1
102
RTVSPropertyOp46
 70
     1
102
RTVSPropertyOp47
 70
     1
102
RTVSPropertyOp48
 70
     1
102
RTVSPropertyOp49
 70
     1
102
RTVSPropertyOp50
 70
     1
102
RTVSPropertyOp51
 70
     0
102
RTVSPropertyOp52
 70
     0
102
RTVSPropertyOp53
 70
     1
102
RTVSPropertyOp54
 70
     1
102
RTVSPropertyOp55
 70
     1
102
RTVSPropertyOp56
 70
     1
102
RTVSPropertyOp57
 70
     1
102
RTVSPropertyOp58
 70
     1
102
RTVSPropertyOp59
 70
     1
102
RTVSPropertyOp60
 70
     1
102
RTVSPropertyOp61
 70
     1
102
RTVSPropertyOp62
 70
     1
  0
XRECORD
  5
9CB3
102
{ACAD_REACTORS
330
9CB2
102
}
330
9CB2
100
AcDbXrecord
280
     1
102
RTVSPost2010Prop28
280
     0
102
RTVSPost2010PropOp28
 70
     1
102
RTVSPost2010Prop29
280
     1
102
RTVSPost2010PropOp29
 70
     1
102
RTVSPost2010Prop30
280
     1
102
RTVSPost2010PropOp30
 70
     1
102
RTVSPost2010Prop31
280
     0
102
RTVSPost2010PropOp31
 70
     1
102
RTVSPost2010Prop32
280
     0
102
RTVSPost2010PropOp32
 70
     1
102
RTVSPost2010Prop33
280
     0
102
RTVSPost2010PropOp33
 70
     1
102
RTVSPost2010Prop34
280
     0
102
RTVSPost2010PropOp34
 70
     1
102
RTVSPost2010Prop35
280
     0
102
RTVSPost2010PropOp35
 70
     1
102
RTVSPost2010Prop36
280
     0
102
RTVSPost2010PropOp36
 70
     1
102
RTVSPost2010Prop37
 90
       50
102
RTVSPost2010PropOp37
 70
     1
102
RTVSPost2010Prop38
140
0.0
102
RTVSPost2010PropOp38
 70
     1
102
RTVSPost2010Prop39
140
1.0
102
RTVSPost2010PropOp39
 70
     1
102
RTVSPost2010Prop40
 90
        0
102
RTVSPost2010PropOp40
 70
     1
102
RTVSPost2010Prop41ColorIndex
 90
       18
102
RTVSPost2010Prop41ColorRGB
 90
        0
102
RTVSPost2010PropOp41
 70
     1
102
RTVSPost2010Prop42
 90
       50
102
RTVSPost2010PropOp42
 70
     1
102
RTVSPost2010Prop43
 90
        3
102
RTVSPost2010PropOp43
 70
     1
102
RTVSPost2010Prop44ColorIndex
 90
        5
102
RTVSPost2010Prop44ColorRGB
 90
      255
102
RTVSPost2010PropOp44
 70
     1
102
RTVSPost2010Prop45
280
     0
102
RTVSPost2010PropOp45
 70
     1
102
RTVSPost2010Prop46
 90
       50
102
RTVSPost2010PropOp46
 70
     1
102
RTVSPost2010Prop47
 90
       50
102
RTVSPost2010PropOp47
 70
     1
102
RTVSPost2010Prop48
 90
       50
102
RTVSPost2010PropOp48
 70
     1
102
RTVSPost2010Prop49
280
     0
102
RTVSPost2010PropOp49
 70
     1
102
RTVSPost2010Prop50
 90
       50
102
RTVSPost2010PropOp50
 70
     1
102
RTVSPost2010Prop51ColorIndex
 90
      256
102
RTVSPost2010Prop51ColorRGB
 90
-16777216
102
RTVSPost2010PropOp51
 70
     0
102
RTVSPost2010Prop52
140
1.0
102
RTVSPost2010PropOp52
 70
     0
102
RTVSPost2010Prop53
 90
        2
102
RTVSPost2010PropOp53
 70
     1
102
RTVSPost2010Prop54
  1
strokes_ogs.tif
102
RTVSPost2010PropOp54
 70
     1
102
RTVSPost2010Prop55
280
     0
102
RTVSPost2010PropOp55
 70
     1
102
RTVSPost2010Prop56
140
1.0
102
RTVSPost2010PropOp56
 70
     1
102
RTVSPost2010Prop57
140
1.0
102
RTVSPost2010PropOp57
 70
     1
102
RTVSPropertyOp0
 70
     1
102
RTVSPropertyOp1
 70
     1
102
RTVSPropertyOp2
 70
     1
102
RTVSPropertyOp3
 70
     1
102
RTVSPropertyOp4
 70
     1
102
RTVSPropertyOp5
 70
     1
102
RTVSPropertyOp6
 70
     1
102
RTVSPropertyOp7
 70
     1
102
RTVSPropertyOp8
 70
     1
102
RTVSPropertyOp9
 70
     1
102
RTVSPropertyOp10
 70
     1
102
RTVSPropertyOp11
 70
     1
102
RTVSPropertyOp12
 70
     1
102
RTVSPropertyOp13
 70
     1
102
RTVSPropertyOp14
 70
     1
102
RTVSPropertyOp15
 70
     1
102
RTVSPropertyOp16
 70
     1
102
RTVSPropertyOp17
 70
     1
102
RTVSPropertyOp18
 70
     1
102
RTVSPropertyOp19
 70
     1
102
RTVSPropertyOp20
 70
     1
102
RTVSPropertyOp21
 70
     1
102
RTVSPropertyOp22
 70
     1
102
RTVSPropertyOp23
 70
     1
102
RTVSPropertyOp24
 70
     1
102
RTVSPropertyOp25
 70
     1
102
RTVSPropertyOp26
 70
     1
102
RTVSPropertyOp27
 70
     1
102
RTVSPropertyOp28
 70
     1
102
RTVSPropertyOp29
 70
     1
102
RTVSPropertyOp30
 70
     1
102
RTVSPropertyOp31
 70
     1
102
RTVSPropertyOp32
 70
     1
102
RTVSPropertyOp33
 70
     1
102
RTVSPropertyOp34
 70
     1
102
RTVSPropertyOp35
 70
     1
102
RTVSPropertyOp36
 70
     1
102
RTVSPropertyOp37
 70
     1
102
RTVSPropertyOp38
 70
     1
102
RTVSPropertyOp39
 70
     1
102
RTVSPropertyOp40
 70
     1
102
RTVSPropertyOp41
 70
     1
102
RTVSPropertyOp42
 70
     1
102
RTVSPropertyOp43
 70
     1
102
RTVSPropertyOp44
 70
     1
102
RTVSPropertyOp45
 70
     1
102
RTVSPropertyOp46
 70
     1
102
RTVSPropertyOp47
 70
     1
102
RTVSPropertyOp48
 70
     1
102
RTVSPropertyOp49
 70
     1
102
RTVSPropertyOp50
 70
     1
102
RTVSPropertyOp51
 70
     0
102
RTVSPropertyOp52
 70
     0
102
RTVSPropertyOp53
 70
     1
102
RTVSPropertyOp54
 70
     1
102
RTVSPropertyOp55
 70
     1
102
RTVSPropertyOp56
 70
     1
102
RTVSPropertyOp57
 70
     1
102
RTVSPropertyOp58
 70
     1
102
RTVSPropertyOp59
 70
     1
102
RTVSPropertyOp60
 70
     1
102
RTVSPropertyOp61
 70
     1
102
RTVSPropertyOp62
 70
     1
  0
XRECORD
  5
9CA5
102
{ACAD_REACTORS
330
9CA4
102
}
330
9CA4
100
AcDbXrecord
280
     1
102
RTVSPost2010Prop28
280
     0
102
RTVSPost2010PropOp28
 70
     1
102
RTVSPost2010Prop29
280
     1
102
RTVSPost2010PropOp29
 70
     1
102
RTVSPost2010Prop30
280
     1
102
RTVSPost2010PropOp30
 70
     1
102
RTVSPost2010Prop31
280
     0
102
RTVSPost2010PropOp31
 70
     1
102
RTVSPost2010Prop32
280
     0
102
RTVSPost2010PropOp32
 70
     1
102
RTVSPost2010Prop33
280
     0
102
RTVSPost2010PropOp33
 70
     1
102
RTVSPost2010Prop34
280
     0
102
RTVSPost2010PropOp34
 70
     1
102
RTVSPost2010Prop35
280
     0
102
RTVSPost2010PropOp35
 70
     1
102
RTVSPost2010Prop36
280
     0
102
RTVSPost2010PropOp36
 70
     1
102
RTVSPost2010Prop37
 90
       50
102
RTVSPost2010PropOp37
 70
     1
102
RTVSPost2010Prop38
140
0.0
102
RTVSPost2010PropOp38
 70
     1
102
RTVSPost2010Prop39
140
1.0
102
RTVSPost2010PropOp39
 70
     1
102
RTVSPost2010Prop40
 90
        0
102
RTVSPost2010PropOp40
 70
     1
102
RTVSPost2010Prop41ColorIndex
 90
       18
102
RTVSPost2010Prop41ColorRGB
 90
        0
102
RTVSPost2010PropOp41
 70
     1
102
RTVSPost2010Prop42
 90
       50
102
RTVSPost2010PropOp42
 70
     1
102
RTVSPost2010Prop43
 90
        3
102
RTVSPost2010PropOp43
 70
     1
102
RTVSPost2010Prop44ColorIndex
 90
        5
102
RTVSPost2010Prop44ColorRGB
 90
      255
102
RTVSPost2010PropOp44
 70
     1
102
RTVSPost2010Prop45
280
     0
102
RTVSPost2010PropOp45
 70
     1
102
RTVSPost2010Prop46
 90
       50
102
RTVSPost2010PropOp46
 70
     1
102
RTVSPost2010Prop47
 90
       50
102
RTVSPost2010PropOp47
 70
     1
102
RTVSPost2010Prop48
 90
       50
102
RTVSPost2010PropOp48
 70
     1
102
RTVSPost2010Prop49
280
     0
102
RTVSPost2010PropOp49
 70
     1
102
RTVSPost2010Prop50
 90
       50
102
RTVSPost2010PropOp50
 70
     1
102
RTVSPost2010Prop51ColorIndex
 90
      256
102
RTVSPost2010Prop51ColorRGB
 90
-16777216
102
RTVSPost2010PropOp51
 70
     0
102
RTVSPost2010Prop52
140
1.0
102
RTVSPost2010PropOp52
 70
     0
102
RTVSPost2010Prop53
 90
        2
102
RTVSPost2010PropOp53
 70
     1
102
RTVSPost2010Prop54
  1
strokes_ogs.tif
102
RTVSPost2010PropOp54
 70
     1
102
RTVSPost2010Prop55
280
     0
102
RTVSPost2010PropOp55
 70
     1
102
RTVSPost2010Prop56
140
1.0
102
RTVSPost2010PropOp56
 70
     1
102
RTVSPost2010Prop57
140
1.0
102
RTVSPost2010PropOp57
 70
     1
102
RTVSPropertyOp0
 70
     1
102
RTVSPropertyOp1
 70
     1
102
RTVSPropertyOp2
 70
     1
102
RTVSPropertyOp3
 70
     1
102
RTVSPropertyOp4
 70
     1
102
RTVSPropertyOp5
 70
     1
102
RTVSPropertyOp6
 70
     1
102
RTVSPropertyOp7
 70
     1
102
RTVSPropertyOp8
 70
     1
102
RTVSPropertyOp9
 70
     1
102
RTVSPropertyOp10
 70
     1
102
RTVSPropertyOp11
 70
     1
102
RTVSPropertyOp12
 70
     1
102
RTVSPropertyOp13
 70
     1
102
RTVSPropertyOp14
 70
     1
102
RTVSPropertyOp15
 70
     1
102
RTVSPropertyOp16
 70
     1
102
RTVSPropertyOp17
 70
     1
102
RTVSPropertyOp18
 70
     1
102
RTVSPropertyOp19
 70
     1
102
RTVSPropertyOp20
 70
     1
102
RTVSPropertyOp21
 70
     1
102
RTVSPropertyOp22
 70
     1
102
RTVSPropertyOp23
 70
     1
102
RTVSPropertyOp24
 70
     1
102
RTVSPropertyOp25
 70
     1
102
RTVSPropertyOp26
 70
     1
102
RTVSPropertyOp27
 70
     1
102
RTVSPropertyOp28
 70
     1
102
RTVSPropertyOp29
 70
     1
102
RTVSPropertyOp30
 70
     1
102
RTVSPropertyOp31
 70
     1
102
RTVSPropertyOp32
 70
     1
102
RTVSPropertyOp33
 70
     1
102
RTVSPropertyOp34
 70
     1
102
RTVSPropertyOp35
 70
     1
102
RTVSPropertyOp36
 70
     1
102
RTVSPropertyOp37
 70
     1
102
RTVSPropertyOp38
 70
     1
102
RTVSPropertyOp39
 70
     1
102
RTVSPropertyOp40
 70
     1
102
RTVSPropertyOp41
 70
     1
102
RTVSPropertyOp42
 70
     1
102
RTVSPropertyOp43
 70
     1
102
RTVSPropertyOp44
 70
     1
102
RTVSPropertyOp45
 70
     1
102
RTVSPropertyOp46
 70
     1
102
RTVSPropertyOp47
 70
     1
102
RTVSPropertyOp48
 70
     1
102
RTVSPropertyOp49
 70
     1
102
RTVSPropertyOp50
 70
     1
102
RTVSPropertyOp51
 70
     0
102
RTVSPropertyOp52
 70
     0
102
RTVSPropertyOp53
 70
     1
102
RTVSPropertyOp54
 70
     1
102
RTVSPropertyOp55
 70
     1
102
RTVSPropertyOp56
 70
     1
102
RTVSPropertyOp57
 70
     1
102
RTVSPropertyOp58
 70
     1
102
RTVSPropertyOp59
 70
     1
102
RTVSPropertyOp60
 70
     1
102
RTVSPropertyOp61
 70
     1
102
RTVSPropertyOp62
 70
     1
  0
XRECORD
  5
9CA9
102
{ACAD_REACTORS
330
9CA8
102
}
330
9CA8
100
AcDbXrecord
280
     1
102
RTVSPost2010Prop28
280
     0
102
RTVSPost2010PropOp28
 70
     1
102
RTVSPost2010Prop29
280
     1
102
RTVSPost2010PropOp29
 70
     1
102
RTVSPost2010Prop30
280
     1
102
RTVSPost2010PropOp30
 70
     1
102
RTVSPost2010Prop31
280
     0
102
RTVSPost2010PropOp31
 70
     1
102
RTVSPost2010Prop32
280
     0
102
RTVSPost2010PropOp32
 70
     1
102
RTVSPost2010Prop33
280
     0
102
RTVSPost2010PropOp33
 70
     1
102
RTVSPost2010Prop34
280
     0
102
RTVSPost2010PropOp34
 70
     1
102
RTVSPost2010Prop35
280
     0
102
RTVSPost2010PropOp35
 70
     1
102
RTVSPost2010Prop36
280
     0
102
RTVSPost2010PropOp36
 70
     1
102
RTVSPost2010Prop37
 90
       50
102
RTVSPost2010PropOp37
 70
     1
102
RTVSPost2010Prop38
140
0.0
102
RTVSPost2010PropOp38
 70
     1
102
RTVSPost2010Prop39
140
1.0
102
RTVSPost2010PropOp39
 70
     1
102
RTVSPost2010Prop40
 90
        0
102
RTVSPost2010PropOp40
 70
     1
102
RTVSPost2010Prop41ColorIndex
 90
       18
102
RTVSPost2010Prop41ColorRGB
 90
        0
102
RTVSPost2010PropOp41
 70
     1
102
RTVSPost2010Prop42
 90
       50
102
RTVSPost2010PropOp42
 70
     1
102
RTVSPost2010Prop43
 90
        3
102
RTVSPost2010PropOp43
 70
     1
102
RTVSPost2010Prop44ColorIndex
 90
        5
102
RTVSPost2010Prop44ColorRGB
 90
      255
102
RTVSPost2010PropOp44
 70
     1
102
RTVSPost2010Prop45
280
     0
102
RTVSPost2010PropOp45
 70
     1
102
RTVSPost2010Prop46
 90
       50
102
RTVSPost2010PropOp46
 70
     1
102
RTVSPost2010Prop47
 90
       50
102
RTVSPost2010PropOp47
 70
     1
102
RTVSPost2010Prop48
 90
       50
102
RTVSPost2010PropOp48
 70
     1
102
RTVSPost2010Prop49
280
     0
102
RTVSPost2010PropOp49
 70
     1
102
RTVSPost2010Prop50
 90
       50
102
RTVSPost2010PropOp50
 70
     1
102
RTVSPost2010Prop51ColorIndex
 90
      256
102
RTVSPost2010Prop51ColorRGB
 90
-16777216
102
RTVSPost2010PropOp51
 70
     0
102
RTVSPost2010Prop52
140
1.0
102
RTVSPost2010PropOp52
 70
     0
102
RTVSPost2010Prop53
 90
        2
102
RTVSPost2010PropOp53
 70
     1
102
RTVSPost2010Prop54
  1
strokes_ogs.tif
102
RTVSPost2010PropOp54
 70
     1
102
RTVSPost2010Prop55
280
     0
102
RTVSPost2010PropOp55
 70
     1
102
RTVSPost2010Prop56
140
1.0
102
RTVSPost2010PropOp56
 70
     1
102
RTVSPost2010Prop57
140
1.0
102
RTVSPost2010PropOp57
 70
     1
102
RTVSPropertyOp0
 70
     1
102
RTVSPropertyOp1
 70
     1
102
RTVSPropertyOp2
 70
     1
102
RTVSPropertyOp3
 70
     1
102
RTVSPropertyOp4
 70
     1
102
RTVSPropertyOp5
 70
     1
102
RTVSPropertyOp6
 70
     1
102
RTVSPropertyOp7
 70
     1
102
RTVSPropertyOp8
 70
     1
102
RTVSPropertyOp9
 70
     1
102
RTVSPropertyOp10
 70
     1
102
RTVSPropertyOp11
 70
     1
102
RTVSPropertyOp12
 70
     1
102
RTVSPropertyOp13
 70
     1
102
RTVSPropertyOp14
 70
     1
102
RTVSPropertyOp15
 70
     1
102
RTVSPropertyOp16
 70
     1
102
RTVSPropertyOp17
 70
     1
102
RTVSPropertyOp18
 70
     1
102
RTVSPropertyOp19
 70
     1
102
RTVSPropertyOp20
 70
     1
102
RTVSPropertyOp21
 70
     1
102
RTVSPropertyOp22
 70
     1
102
RTVSPropertyOp23
 70
     1
102
RTVSPropertyOp24
 70
     1
102
RTVSPropertyOp25
 70
     1
102
RTVSPropertyOp26
 70
     1
102
RTVSPropertyOp27
 70
     1
102
RTVSPropertyOp28
 70
     1
102
RTVSPropertyOp29
 70
     1
102
RTVSPropertyOp30
 70
     1
102
RTVSPropertyOp31
 70
     1
102
RTVSPropertyOp32
 70
     1
102
RTVSPropertyOp33
 70
     1
102
RTVSPropertyOp34
 70
     1
102
RTVSPropertyOp35
 70
     1
102
RTVSPropertyOp36
 70
     1
102
RTVSPropertyOp37
 70
     1
102
RTVSPropertyOp38
 70
     1
102
RTVSPropertyOp39
 70
     1
102
RTVSPropertyOp40
 70
     1
102
RTVSPropertyOp41
 70
     1
102
RTVSPropertyOp42
 70
     1
102
RTVSPropertyOp43
 70
     1
102
RTVSPropertyOp44
 70
     1
102
RTVSPropertyOp45
 70
     1
102
RTVSPropertyOp46
 70
     1
102
RTVSPropertyOp47
 70
     1
102
RTVSPropertyOp48
 70
     1
102
RTVSPropertyOp49
 70
     1
102
RTVSPropertyOp50
 70
     1
102
RTVSPropertyOp51
 70
     0
102
RTVSPropertyOp52
 70
     0
102
RTVSPropertyOp53
 70
     1
102
RTVSPropertyOp54
 70
     1
102
RTVSPropertyOp55
 70
     1
102
RTVSPropertyOp56
 70
     1
102
RTVSPropertyOp57
 70
     1
102
RTVSPropertyOp58
 70
     1
102
RTVSPropertyOp59
 70
     1
102
RTVSPropertyOp60
 70
     1
102
RTVSPropertyOp61
 70
     1
102
RTVSPropertyOp62
 70
     1
  0
XRECORD
  5
9CC3
102
{ACAD_REACTORS
330
9CC2
102
}
330
9CC2
100
AcDbXrecord
280
     1
102
RTVSPost2010Prop28
280
     0
102
RTVSPost2010PropOp28
 70
     1
102
RTVSPost2010Prop29
280
     1
102
RTVSPost2010PropOp29
 70
     1
102
RTVSPost2010Prop30
280
     1
102
RTVSPost2010PropOp30
 70
     1
102
RTVSPost2010Prop31
280
     0
102
RTVSPost2010PropOp31
 70
     1
102
RTVSPost2010Prop32
280
     0
102
RTVSPost2010PropOp32
 70
     1
102
RTVSPost2010Prop33
280
     0
102
RTVSPost2010PropOp33
 70
     1
102
RTVSPost2010Prop34
280
     0
102
RTVSPost2010PropOp34
 70
     1
102
RTVSPost2010Prop35
280
     0
102
RTVSPost2010PropOp35
 70
     1
102
RTVSPost2010Prop36
280
     0
102
RTVSPost2010PropOp36
 70
     1
102
RTVSPost2010Prop37
 90
       50
102
RTVSPost2010PropOp37
 70
     0
102
RTVSPost2010Prop38
140
0.0
102
RTVSPost2010PropOp38
 70
     0
102
RTVSPost2010Prop39
140
1.0
102
RTVSPost2010PropOp39
 70
     0
102
RTVSPost2010Prop40
 90
        0
102
RTVSPost2010PropOp40
 70
     0
102
RTVSPost2010Prop41ColorIndex
 90
       18
102
RTVSPost2010Prop41ColorRGB
 90
        0
102
RTVSPost2010PropOp41
 70
     0
102
RTVSPost2010Prop42
 90
       50
102
RTVSPost2010PropOp42
 70
     0
102
RTVSPost2010Prop43
 90
        3
102
RTVSPost2010PropOp43
 70
     0
102
RTVSPost2010Prop44ColorIndex
 90
        5
102
RTVSPost2010Prop44ColorRGB
 90
      255
102
RTVSPost2010PropOp44
 70
     0
102
RTVSPost2010Prop45
280
     0
102
RTVSPost2010PropOp45
 70
     1
102
RTVSPost2010Prop46
 90
       50
102
RTVSPost2010PropOp46
 70
     0
102
RTVSPost2010Prop47
 90
       50
102
RTVSPost2010PropOp47
 70
     0
102
RTVSPost2010Prop48
 90
       50
102
RTVSPost2010PropOp48
 70
     0
102
RTVSPost2010Prop49
280
     0
102
RTVSPost2010PropOp49
 70
     1
102
RTVSPost2010Prop50
 90
       50
102
RTVSPost2010PropOp50
 70
     0
102
RTVSPost2010Prop51ColorIndex
 90
      256
102
RTVSPost2010Prop51ColorRGB
 90
-16777216
102
RTVSPost2010PropOp51
 70
     0
102
RTVSPost2010Prop52
140
1.0
102
RTVSPost2010PropOp52
 70
     0
102
RTVSPost2010Prop53
 90
        2
102
RTVSPost2010PropOp53
 70
     0
102
RTVSPost2010Prop54
  1
strokes_ogs.tif
102
RTVSPost2010PropOp54
 70
     0
102
RTVSPost2010Prop55
280
     0
102
RTVSPost2010PropOp55
 70
     1
102
RTVSPost2010Prop56
140
1.0
102
RTVSPost2010PropOp56
 70
     0
102
RTVSPost2010Prop57
140
1.0
102
RTVSPost2010PropOp57
 70
     0
102
RTVSPropertyOp0
 70
     0
102
RTVSPropertyOp1
 70
     0
102
RTVSPropertyOp2
 70
     0
102
RTVSPropertyOp3
 70
     0
102
RTVSPropertyOp4
 70
     0
102
RTVSPropertyOp5
 70
     0
102
RTVSPropertyOp6
 70
     0
102
RTVSPropertyOp7
 70
     0
102
RTVSPropertyOp8
 70
     0
102
RTVSPropertyOp9
 70
     0
102
RTVSPropertyOp10
 70
     0
102
RTVSPropertyOp11
 70
     0
102
RTVSPropertyOp12
 70
     0
102
RTVSPropertyOp13
 70
     0
102
RTVSPropertyOp14
 70
     2
102
RTVSPropertyOp15
 70
     0
102
RTVSPropertyOp16
 70
     0
102
RTVSPropertyOp17
 70
     0
102
RTVSPropertyOp18
 70
     0
102
RTVSPropertyOp19
 70
     0
102
RTVSPropertyOp20
 70
     0
102
RTVSPropertyOp21
 70
     0
102
RTVSPropertyOp22
 70
     0
102
RTVSPropertyOp23
 70
     0
102
RTVSPropertyOp24
 70
     0
102
RTVSPropertyOp25
 70
     0
102
RTVSPropertyOp26
 70
     0
102
RTVSPropertyOp27
 70
     0
102
RTVSPropertyOp28
 70
     1
102
RTVSPropertyOp29
 70
     1
102
RTVSPropertyOp30
 70
     1
102
RTVSPropertyOp31
 70
     1
102
RTVSPropertyOp32
 70
     1
102
RTVSPropertyOp33
 70
     1
102
RTVSPropertyOp34
 70
     1
102
RTVSPropertyOp35
 70
     1
102
RTVSPropertyOp36
 70
     1
102
RTVSPropertyOp37
 70
     0
102
RTVSPropertyOp38
 70
     0
102
RTVSPropertyOp39
 70
     0
102
RTVSPropertyOp40
 70
     0
102
RTVSPropertyOp41
 70
     0
102
RTVSPropertyOp42
 70
     0
102
RTVSPropertyOp43
 70
     0
102
RTVSPropertyOp44
 70
     0
102
RTVSPropertyOp45
 70
     1
102
RTVSPropertyOp46
 70
     0
102
RTVSPropertyOp47
 70
     0
102
RTVSPropertyOp48
 70
     0
102
RTVSPropertyOp49
 70
     1
102
RTVSPropertyOp50
 70
     0
102
RTVSPropertyOp51
 70
     0
102
RTVSPropertyOp52
 70
     0
102
RTVSPropertyOp53
 70
     0
102
RTVSPropertyOp54
 70
     0
102
RTVSPropertyOp55
 70
     1
102
RTVSPropertyOp56
 70
     0
102
RTVSPropertyOp57
 70
     0
102
RTVSPropertyOp58
 70
     0
102
RTVSPropertyOp59
 70
     0
102
RTVSPropertyOp60
 70
     0
102
RTVSPropertyOp61
 70
     0
102
RTVSPropertyOp62
 70
     0
  0
XRECORD
  5
9CB1
102
{ACAD_REACTORS
330
9CB0
102
}
330
9CB0
100
AcDbXrecord
280
     1
102
RTVSPost2010Prop28
280
     0
102
RTVSPost2010PropOp28
 70
     1
102
RTVSPost2010Prop29
280
     1
102
RTVSPost2010PropOp29
 70
     1
102
RTVSPost2010Prop30
280
     1
102
RTVSPost2010PropOp30
 70
     1
102
RTVSPost2010Prop31
280
     0
102
RTVSPost2010PropOp31
 70
     1
102
RTVSPost2010Prop32
280
     0
102
RTVSPost2010PropOp32
 70
     1
102
RTVSPost2010Prop33
280
     0
102
RTVSPost2010PropOp33
 70
     1
102
RTVSPost2010Prop34
280
     0
102
RTVSPost2010PropOp34
 70
     1
102
RTVSPost2010Prop35
280
     0
102
RTVSPost2010PropOp35
 70
     1
102
RTVSPost2010Prop36
280
     0
102
RTVSPost2010PropOp36
 70
     1
102
RTVSPost2010Prop37
 90
       50
102
RTVSPost2010PropOp37
 70
     1
102
RTVSPost2010Prop38
140
0.0
102
RTVSPost2010PropOp38
 70
     1
102
RTVSPost2010Prop39
140
1.0
102
RTVSPost2010PropOp39
 70
     1
102
RTVSPost2010Prop40
 90
        0
102
RTVSPost2010PropOp40
 70
     1
102
RTVSPost2010Prop41ColorIndex
 90
       18
102
RTVSPost2010Prop41ColorRGB
 90
        0
102
RTVSPost2010PropOp41
 70
     1
102
RTVSPost2010Prop42
 90
       50
102
RTVSPost2010PropOp42
 70
     1
102
RTVSPost2010Prop43
 90
        3
102
RTVSPost2010PropOp43
 70
     1
102
RTVSPost2010Prop44ColorIndex
 90
        5
102
RTVSPost2010Prop44ColorRGB
 90
      255
102
RTVSPost2010PropOp44
 70
     1
102
RTVSPost2010Prop45
280
     0
102
RTVSPost2010PropOp45
 70
     1
102
RTVSPost2010Prop46
 90
       50
102
RTVSPost2010PropOp46
 70
     1
102
RTVSPost2010Prop47
 90
       50
102
RTVSPost2010PropOp47
 70
     1
102
RTVSPost2010Prop48
 90
       50
102
RTVSPost2010PropOp48
 70
     1
102
RTVSPost2010Prop49
280
     0
102
RTVSPost2010PropOp49
 70
     1
102
RTVSPost2010Prop50
 90
       50
102
RTVSPost2010PropOp50
 70
     1
102
RTVSPost2010Prop51ColorIndex
 90
      256
102
RTVSPost2010Prop51ColorRGB
 90
-16777216
102
RTVSPost2010PropOp51
 70
     0
102
RTVSPost2010Prop52
140
1.0
102
RTVSPost2010PropOp52
 70
     0
102
RTVSPost2010Prop53
 90
        2
102
RTVSPost2010PropOp53
 70
     1
102
RTVSPost2010Prop54
  1
strokes_ogs.tif
102
RTVSPost2010PropOp54
 70
     1
102
RTVSPost2010Prop55
280
     0
102
RTVSPost2010PropOp55
 70
     1
102
RTVSPost2010Prop56
140
1.0
102
RTVSPost2010PropOp56
 70
     1
102
RTVSPost2010Prop57
140
1.0
102
RTVSPost2010PropOp57
 70
     1
102
RTVSPropertyOp0
 70
     1
102
RTVSPropertyOp1
 70
     1
102
RTVSPropertyOp2
 70
     1
102
RTVSPropertyOp3
 70
     1
102
RTVSPropertyOp4
 70
     1
102
RTVSPropertyOp5
 70
     1
102
RTVSPropertyOp6
 70
     1
102
RTVSPropertyOp7
 70
     1
102
RTVSPropertyOp8
 70
     1
102
RTVSPropertyOp9
 70
     1
102
RTVSPropertyOp10
 70
     1
102
RTVSPropertyOp11
 70
     1
102
RTVSPropertyOp12
 70
     1
102
RTVSPropertyOp13
 70
     1
102
RTVSPropertyOp14
 70
     1
102
RTVSPropertyOp15
 70
     1
102
RTVSPropertyOp16
 70
     1
102
RTVSPropertyOp17
 70
     1
102
RTVSPropertyOp18
 70
     1
102
RTVSPropertyOp19
 70
     1
102
RTVSPropertyOp20
 70
     1
102
RTVSPropertyOp21
 70
     1
102
RTVSPropertyOp22
 70
     1
102
RTVSPropertyOp23
 70
     1
102
RTVSPropertyOp24
 70
     1
102
RTVSPropertyOp25
 70
     1
102
RTVSPropertyOp26
 70
     1
102
RTVSPropertyOp27
 70
     1
102
RTVSPropertyOp28
 70
     1
102
RTVSPropertyOp29
 70
     1
102
RTVSPropertyOp30
 70
     1
102
RTVSPropertyOp31
 70
     1
102
RTVSPropertyOp32
 70
     1
102
RTVSPropertyOp33
 70
     1
102
RTVSPropertyOp34
 70
     1
102
RTVSPropertyOp35
 70
     1
102
RTVSPropertyOp36
 70
     1
102
RTVSPropertyOp37
 70
     1
102
RTVSPropertyOp38
 70
     1
102
RTVSPropertyOp39
 70
     1
102
RTVSPropertyOp40
 70
     1
102
RTVSPropertyOp41
 70
     1
102
RTVSPropertyOp42
 70
     1
102
RTVSPropertyOp43
 70
     1
102
RTVSPropertyOp44
 70
     1
102
RTVSPropertyOp45
 70
     1
102
RTVSPropertyOp46
 70
     1
102
RTVSPropertyOp47
 70
     1
102
RTVSPropertyOp48
 70
     1
102
RTVSPropertyOp49
 70
     1
102
RTVSPropertyOp50
 70
     1
102
RTVSPropertyOp51
 70
     0
102
RTVSPropertyOp52
 70
     0
102
RTVSPropertyOp53
 70
     1
102
RTVSPropertyOp54
 70
     1
102
RTVSPropertyOp55
 70
     1
102
RTVSPropertyOp56
 70
     1
102
RTVSPropertyOp57
 70
     1
102
RTVSPropertyOp58
 70
     1
102
RTVSPropertyOp59
 70
     1
102
RTVSPropertyOp60
 70
     1
102
RTVSPropertyOp61
 70
     1
102
RTVSPropertyOp62
 70
     1
  0
XRECORD
  5
9C95
102
{ACAD_REACTORS
330
9C94
102
}
330
9C94
100
AcDbXrecord
280
     1
102
RTVSPost2010Prop28
280
     0
102
RTVSPost2010PropOp28
 70
     1
102
RTVSPost2010Prop29
280
     1
102
RTVSPost2010PropOp29
 70
     1
102
RTVSPost2010Prop30
280
     1
102
RTVSPost2010PropOp30
 70
     1
102
RTVSPost2010Prop31
280
     0
102
RTVSPost2010PropOp31
 70
     1
102
RTVSPost2010Prop32
280
     0
102
RTVSPost2010PropOp32
 70
     1
102
RTVSPost2010Prop33
280
     0
102
RTVSPost2010PropOp33
 70
     1
102
RTVSPost2010Prop34
280
     0
102
RTVSPost2010PropOp34
 70
     1
102
RTVSPost2010Prop35
280
     0
102
RTVSPost2010PropOp35
 70
     1
102
RTVSPost2010Prop36
280
     0
102
RTVSPost2010PropOp36
 70
     1
102
RTVSPost2010Prop37
 90
       50
102
RTVSPost2010PropOp37
 70
     1
102
RTVSPost2010Prop38
140
0.0
102
RTVSPost2010PropOp38
 70
     1
102
RTVSPost2010Prop39
140
1.0
102
RTVSPost2010PropOp39
 70
     1
102
RTVSPost2010Prop40
 90
        0
102
RTVSPost2010PropOp40
 70
     1
102
RTVSPost2010Prop41ColorIndex
 90
       18
102
RTVSPost2010Prop41ColorRGB
 90
        0
102
RTVSPost2010PropOp41
 70
     1
102
RTVSPost2010Prop42
 90
       50
102
RTVSPost2010PropOp42
 70
     1
102
RTVSPost2010Prop43
 90
        3
102
RTVSPost2010PropOp43
 70
     1
102
RTVSPost2010Prop44ColorIndex
 90
        5
102
RTVSPost2010Prop44ColorRGB
 90
      255
102
RTVSPost2010PropOp44
 70
     1
102
RTVSPost2010Prop45
280
     0
102
RTVSPost2010PropOp45
 70
     1
102
RTVSPost2010Prop46
 90
       50
102
RTVSPost2010PropOp46
 70
     1
102
RTVSPost2010Prop47
 90
       50
102
RTVSPost2010PropOp47
 70
     1
102
RTVSPost2010Prop48
 90
       50
102
RTVSPost2010PropOp48
 70
     1
102
RTVSPost2010Prop49
280
     0
102
RTVSPost2010PropOp49
 70
     1
102
RTVSPost2010Prop50
 90
       50
102
RTVSPost2010PropOp50
 70
     1
102
RTVSPost2010Prop51ColorIndex
 90
      256
102
RTVSPost2010Prop51ColorRGB
 90
-16777216
102
RTVSPost2010PropOp51
 70
     0
102
RTVSPost2010Prop52
140
1.0
102
RTVSPost2010PropOp52
 70
     0
102
RTVSPost2010Prop53
 90
        2
102
RTVSPost2010PropOp53
 70
     1
102
RTVSPost2010Prop54
  1
strokes_ogs.tif
102
RTVSPost2010PropOp54
 70
     1
102
RTVSPost2010Prop55
280
     0
102
RTVSPost2010PropOp55
 70
     1
102
RTVSPost2010Prop56
140
1.0
102
RTVSPost2010PropOp56
 70
     1
102
RTVSPost2010Prop57
140
1.0
102
RTVSPost2010PropOp57
 70
     1
102
RTVSPropertyOp0
 70
     1
102
RTVSPropertyOp1
 70
     1
102
RTVSPropertyOp2
 70
     1
102
RTVSPropertyOp3
 70
     1
102
RTVSPropertyOp4
 70
     1
102
RTVSPropertyOp5
 70
     1
102
RTVSPropertyOp6
 70
     1
102
RTVSPropertyOp7
 70
     1
102
RTVSPropertyOp8
 70
     1
102
RTVSPropertyOp9
 70
     1
102
RTVSPropertyOp10
 70
     1
102
RTVSPropertyOp11
 70
     1
102
RTVSPropertyOp12
 70
     1
102
RTVSPropertyOp13
 70
     1
102
RTVSPropertyOp14
 70
     1
102
RTVSPropertyOp15
 70
     1
102
RTVSPropertyOp16
 70
     1
102
RTVSPropertyOp17
 70
     1
102
RTVSPropertyOp18
 70
     1
102
RTVSPropertyOp19
 70
     1
102
RTVSPropertyOp20
 70
     1
102
RTVSPropertyOp21
 70
     1
102
RTVSPropertyOp22
 70
     1
102
RTVSPropertyOp23
 70
     1
102
RTVSPropertyOp24
 70
     1
102
RTVSPropertyOp25
 70
     1
102
RTVSPropertyOp26
 70
     1
102
RTVSPropertyOp27
 70
     1
102
RTVSPropertyOp28
 70
     1
102
RTVSPropertyOp29
 70
     1
102
RTVSPropertyOp30
 70
     1
102
RTVSPropertyOp31
 70
     1
102
RTVSPropertyOp32
 70
     1
102
RTVSPropertyOp33
 70
     1
102
RTVSPropertyOp34
 70
     1
102
RTVSPropertyOp35
 70
     1
102
RTVSPropertyOp36
 70
     1
102
RTVSPropertyOp37
 70
     1
102
RTVSPropertyOp38
 70
     1
102
RTVSPropertyOp39
 70
     1
102
RTVSPropertyOp40
 70
     1
102
RTVSPropertyOp41
 70
     1
102
RTVSPropertyOp42
 70
     1
102
RTVSPropertyOp43
 70
     1
102
RTVSPropertyOp44
 70
     1
102
RTVSPropertyOp45
 70
     1
102
RTVSPropertyOp46
 70
     1
102
RTVSPropertyOp47
 70
     1
102
RTVSPropertyOp48
 70
     1
102
RTVSPropertyOp49
 70
     1
102
RTVSPropertyOp50
 70
     1
102
RTVSPropertyOp51
 70
     0
102
RTVSPropertyOp52
 70
     0
102
RTVSPropertyOp53
 70
     1
102
RTVSPropertyOp54
 70
     1
102
RTVSPropertyOp55
 70
     1
102
RTVSPropertyOp56
 70
     1
102
RTVSPropertyOp57
 70
     1
102
RTVSPropertyOp58
 70
     1
102
RTVSPropertyOp59
 70
     1
102
RTVSPropertyOp60
 70
     1
102
RTVSPropertyOp61
 70
     1
102
RTVSPropertyOp62
 70
     1
  0
XRECORD
  5
9C97
102
{ACAD_REACTORS
330
9C96
102
}
330
9C96
100
AcDbXrecord
280
     1
102
RTVSPost2010Prop28
280
     0
102
RTVSPost2010PropOp28
 70
     1
102
RTVSPost2010Prop29
280
     1
102
RTVSPost2010PropOp29
 70
     1
102
RTVSPost2010Prop30
280
     1
102
RTVSPost2010PropOp30
 70
     1
102
RTVSPost2010Prop31
280
     0
102
RTVSPost2010PropOp31
 70
     1
102
RTVSPost2010Prop32
280
     0
102
RTVSPost2010PropOp32
 70
     1
102
RTVSPost2010Prop33
280
     0
102
RTVSPost2010PropOp33
 70
     1
102
RTVSPost2010Prop34
280
     0
102
RTVSPost2010PropOp34
 70
     1
102
RTVSPost2010Prop35
280
     0
102
RTVSPost2010PropOp35
 70
     1
102
RTVSPost2010Prop36
280
     0
102
RTVSPost2010PropOp36
 70
     1
102
RTVSPost2010Prop37
 90
       50
102
RTVSPost2010PropOp37
 70
     1
102
RTVSPost2010Prop38
140
0.0
102
RTVSPost2010PropOp38
 70
     1
102
RTVSPost2010Prop39
140
1.0
102
RTVSPost2010PropOp39
 70
     1
102
RTVSPost2010Prop40
 90
        0
102
RTVSPost2010PropOp40
 70
     1
102
RTVSPost2010Prop41ColorIndex
 90
       18
102
RTVSPost2010Prop41ColorRGB
 90
        0
102
RTVSPost2010PropOp41
 70
     1
102
RTVSPost2010Prop42
 90
       50
102
RTVSPost2010PropOp42
 70
     1
102
RTVSPost2010Prop43
 90
        3
102
RTVSPost2010PropOp43
 70
     1
102
RTVSPost2010Prop44ColorIndex
 90
        5
102
RTVSPost2010Prop44ColorRGB
 90
      255
102
RTVSPost2010PropOp44
 70
     1
102
RTVSPost2010Prop45
280
     0
102
RTVSPost2010PropOp45
 70
     1
102
RTVSPost2010Prop46
 90
       50
102
RTVSPost2010PropOp46
 70
     1
102
RTVSPost2010Prop47
 90
       50
102
RTVSPost2010PropOp47
 70
     1
102
RTVSPost2010Prop48
 90
       50
102
RTVSPost2010PropOp48
 70
     1
102
RTVSPost2010Prop49
280
     0
102
RTVSPost2010PropOp49
 70
     1
102
RTVSPost2010Prop50
 90
       50
102
RTVSPost2010PropOp50
 70
     1
102
RTVSPost2010Prop51ColorIndex
 90
      256
102
RTVSPost2010Prop51ColorRGB
 90
-16777216
102
RTVSPost2010PropOp51
 70
     0
102
RTVSPost2010Prop52
140
1.0
102
RTVSPost2010PropOp52
 70
     0
102
RTVSPost2010Prop53
 90
        2
102
RTVSPost2010PropOp53
 70
     1
102
RTVSPost2010Prop54
  1
strokes_ogs.tif
102
RTVSPost2010PropOp54
 70
     1
102
RTVSPost2010Prop55
280
     0
102
RTVSPost2010PropOp55
 70
     1
102
RTVSPost2010Prop56
140
1.0
102
RTVSPost2010PropOp56
 70
     1
102
RTVSPost2010Prop57
140
1.0
102
RTVSPost2010PropOp57
 70
     1
102
RTVSPropertyOp0
 70
     1
102
RTVSPropertyOp1
 70
     1
102
RTVSPropertyOp2
 70
     1
102
RTVSPropertyOp3
 70
     1
102
RTVSPropertyOp4
 70
     1
102
RTVSPropertyOp5
 70
     1
102
RTVSPropertyOp6
 70
     1
102
RTVSPropertyOp7
 70
     1
102
RTVSPropertyOp8
 70
     1
102
RTVSPropertyOp9
 70
     1
102
RTVSPropertyOp10
 70
     1
102
RTVSPropertyOp11
 70
     1
102
RTVSPropertyOp12
 70
     1
102
RTVSPropertyOp13
 70
     1
102
RTVSPropertyOp14
 70
     1
102
RTVSPropertyOp15
 70
     1
102
RTVSPropertyOp16
 70
     1
102
RTVSPropertyOp17
 70
     1
102
RTVSPropertyOp18
 70
     1
102
RTVSPropertyOp19
 70
     1
102
RTVSPropertyOp20
 70
     1
102
RTVSPropertyOp21
 70
     1
102
RTVSPropertyOp22
 70
     1
102
RTVSPropertyOp23
 70
     1
102
RTVSPropertyOp24
 70
     1
102
RTVSPropertyOp25
 70
     1
102
RTVSPropertyOp26
 70
     1
102
RTVSPropertyOp27
 70
     1
102
RTVSPropertyOp28
 70
     1
102
RTVSPropertyOp29
 70
     1
102
RTVSPropertyOp30
 70
     1
102
RTVSPropertyOp31
 70
     1
102
RTVSPropertyOp32
 70
     1
102
RTVSPropertyOp33
 70
     1
102
RTVSPropertyOp34
 70
     1
102
RTVSPropertyOp35
 70
     1
102
RTVSPropertyOp36
 70
     1
102
RTVSPropertyOp37
 70
     1
102
RTVSPropertyOp38
 70
     1
102
RTVSPropertyOp39
 70
     1
102
RTVSPropertyOp40
 70
     1
102
RTVSPropertyOp41
 70
     1
102
RTVSPropertyOp42
 70
     1
102
RTVSPropertyOp43
 70
     1
102
RTVSPropertyOp44
 70
     1
102
RTVSPropertyOp45
 70
     1
102
RTVSPropertyOp46
 70
     1
102
RTVSPropertyOp47
 70
     1
102
RTVSPropertyOp48
 70
     1
102
RTVSPropertyOp49
 70
     1
102
RTVSPropertyOp50
 70
     1
102
RTVSPropertyOp51
 70
     0
102
RTVSPropertyOp52
 70
     0
102
RTVSPropertyOp53
 70
     1
102
RTVSPropertyOp54
 70
     1
102
RTVSPropertyOp55
 70
     1
102
RTVSPropertyOp56
 70
     1
102
RTVSPropertyOp57
 70
     1
102
RTVSPropertyOp58
 70
     1
102
RTVSPropertyOp59
 70
     1
102
RTVSPropertyOp60
 70
     1
102
RTVSPropertyOp61
 70
     1
102
RTVSPropertyOp62
 70
     1
  0
XRECORD
  5
9C99
102
{ACAD_REACTORS
330
9C98
102
}
330
9C98
100
AcDbXrecord
280
     1
102
RTVSPost2010Prop28
280
     0
102
RTVSPost2010PropOp28
 70
     1
102
RTVSPost2010Prop29
280
     1
102
RTVSPost2010PropOp29
 70
     1
102
RTVSPost2010Prop30
280
     1
102
RTVSPost2010PropOp30
 70
     1
102
RTVSPost2010Prop31
280
     0
102
RTVSPost2010PropOp31
 70
     1
102
RTVSPost2010Prop32
280
     0
102
RTVSPost2010PropOp32
 70
     1
102
RTVSPost2010Prop33
280
     0
102
RTVSPost2010PropOp33
 70
     1
102
RTVSPost2010Prop34
280
     0
102
RTVSPost2010PropOp34
 70
     1
102
RTVSPost2010Prop35
280
     0
102
RTVSPost2010PropOp35
 70
     1
102
RTVSPost2010Prop36
280
     0
102
RTVSPost2010PropOp36
 70
     1
102
RTVSPost2010Prop37
 90
       50
102
RTVSPost2010PropOp37
 70
     1
102
RTVSPost2010Prop38
140
0.0
102
RTVSPost2010PropOp38
 70
     1
102
RTVSPost2010Prop39
140
1.0
102
RTVSPost2010PropOp39
 70
     1
102
RTVSPost2010Prop40
 90
        0
102
RTVSPost2010PropOp40
 70
     1
102
RTVSPost2010Prop41ColorIndex
 90
       18
102
RTVSPost2010Prop41ColorRGB
 90
        0
102
RTVSPost2010PropOp41
 70
     1
102
RTVSPost2010Prop42
 90
       50
102
RTVSPost2010PropOp42
 70
     1
102
RTVSPost2010Prop43
 90
        3
102
RTVSPost2010PropOp43
 70
     1
102
RTVSPost2010Prop44ColorIndex
 90
        5
102
RTVSPost2010Prop44ColorRGB
 90
      255
102
RTVSPost2010PropOp44
 70
     1
102
RTVSPost2010Prop45
280
     0
102
RTVSPost2010PropOp45
 70
     1
102
RTVSPost2010Prop46
 90
       50
102
RTVSPost2010PropOp46
 70
     1
102
RTVSPost2010Prop47
 90
       50
102
RTVSPost2010PropOp47
 70
     1
102
RTVSPost2010Prop48
 90
       50
102
RTVSPost2010PropOp48
 70
     1
102
RTVSPost2010Prop49
280
     0
102
RTVSPost2010PropOp49
 70
     1
102
RTVSPost2010Prop50
 90
       50
102
RTVSPost2010PropOp50
 70
     1
102
RTVSPost2010Prop51ColorIndex
 90
      256
102
RTVSPost2010Prop51ColorRGB
 90
-16777216
102
RTVSPost2010PropOp51
 70
     0
102
RTVSPost2010Prop52
140
1.0
102
RTVSPost2010PropOp52
 70
     0
102
RTVSPost2010Prop53
 90
        2
102
RTVSPost2010PropOp53
 70
     1
102
RTVSPost2010Prop54
  1
strokes_ogs.tif
102
RTVSPost2010PropOp54
 70
     1
102
RTVSPost2010Prop55
280
     0
102
RTVSPost2010PropOp55
 70
     1
102
RTVSPost2010Prop56
140
1.0
102
RTVSPost2010PropOp56
 70
     1
102
RTVSPost2010Prop57
140
1.0
102
RTVSPost2010PropOp57
 70
     1
102
RTVSPropertyOp0
 70
     1
102
RTVSPropertyOp1
 70
     1
102
RTVSPropertyOp2
 70
     1
102
RTVSPropertyOp3
 70
     1
102
RTVSPropertyOp4
 70
     1
102
RTVSPropertyOp5
 70
     1
102
RTVSPropertyOp6
 70
     1
102
RTVSPropertyOp7
 70
     1
102
RTVSPropertyOp8
 70
     1
102
RTVSPropertyOp9
 70
     1
102
RTVSPropertyOp10
 70
     1
102
RTVSPropertyOp11
 70
     1
102
RTVSPropertyOp12
 70
     1
102
RTVSPropertyOp13
 70
     1
102
RTVSPropertyOp14
 70
     1
102
RTVSPropertyOp15
 70
     1
102
RTVSPropertyOp16
 70
     1
102
RTVSPropertyOp17
 70
     1
102
RTVSPropertyOp18
 70
     1
102
RTVSPropertyOp19
 70
     1
102
RTVSPropertyOp20
 70
     1
102
RTVSPropertyOp21
 70
     1
102
RTVSPropertyOp22
 70
     1
102
RTVSPropertyOp23
 70
     1
102
RTVSPropertyOp24
 70
     1
102
RTVSPropertyOp25
 70
     1
102
RTVSPropertyOp26
 70
     1
102
RTVSPropertyOp27
 70
     1
102
RTVSPropertyOp28
 70
     1
102
RTVSPropertyOp29
 70
     1
102
RTVSPropertyOp30
 70
     1
102
RTVSPropertyOp31
 70
     1
102
RTVSPropertyOp32
 70
     1
102
RTVSPropertyOp33
 70
     1
102
RTVSPropertyOp34
 70
     1
102
RTVSPropertyOp35
 70
     1
102
RTVSPropertyOp36
 70
     1
102
RTVSPropertyOp37
 70
     1
102
RTVSPropertyOp38
 70
     1
102
RTVSPropertyOp39
 70
     1
102
RTVSPropertyOp40
 70
     1
102
RTVSPropertyOp41
 70
     1
102
RTVSPropertyOp42
 70
     1
102
RTVSPropertyOp43
 70
     1
102
RTVSPropertyOp44
 70
     1
102
RTVSPropertyOp45
 70
     1
102
RTVSPropertyOp46
 70
     1
102
RTVSPropertyOp47
 70
     1
102
RTVSPropertyOp48
 70
     1
102
RTVSPropertyOp49
 70
     1
102
RTVSPropertyOp50
 70
     1
102
RTVSPropertyOp51
 70
     0
102
RTVSPropertyOp52
 70
     0
102
RTVSPropertyOp53
 70
     1
102
RTVSPropertyOp54
 70
     1
102
RTVSPropertyOp55
 70
     1
102
RTVSPropertyOp56
 70
     1
102
RTVSPropertyOp57
 70
     1
102
RTVSPropertyOp58
 70
     1
102
RTVSPropertyOp59
 70
     1
102
RTVSPropertyOp60
 70
     1
102
RTVSPropertyOp61
 70
     1
102
RTVSPropertyOp62
 70
     1
  0
XRECORD
  5
9C9B
102
{ACAD_REACTORS
330
9C9A
102
}
330
9C9A
100
AcDbXrecord
280
     1
102
RTVSPost2010Prop28
280
     0
102
RTVSPost2010PropOp28
 70
     1
102
RTVSPost2010Prop29
280
     1
102
RTVSPost2010PropOp29
 70
     1
102
RTVSPost2010Prop30
280
     1
102
RTVSPost2010PropOp30
 70
     1
102
RTVSPost2010Prop31
280
     0
102
RTVSPost2010PropOp31
 70
     1
102
RTVSPost2010Prop32
280
     0
102
RTVSPost2010PropOp32
 70
     1
102
RTVSPost2010Prop33
280
     0
102
RTVSPost2010PropOp33
 70
     1
102
RTVSPost2010Prop34
280
     0
102
RTVSPost2010PropOp34
 70
     1
102
RTVSPost2010Prop35
280
     0
102
RTVSPost2010PropOp35
 70
     1
102
RTVSPost2010Prop36
280
     0
102
RTVSPost2010PropOp36
 70
     1
102
RTVSPost2010Prop37
 90
       50
102
RTVSPost2010PropOp37
 70
     1
102
RTVSPost2010Prop38
140
0.0
102
RTVSPost2010PropOp38
 70
     1
102
RTVSPost2010Prop39
140
1.0
102
RTVSPost2010PropOp39
 70
     1
102
RTVSPost2010Prop40
 90
        0
102
RTVSPost2010PropOp40
 70
     1
102
RTVSPost2010Prop41ColorIndex
 90
       18
102
RTVSPost2010Prop41ColorRGB
 90
        0
102
RTVSPost2010PropOp41
 70
     1
102
RTVSPost2010Prop42
 90
       50
102
RTVSPost2010PropOp42
 70
     1
102
RTVSPost2010Prop43
 90
        3
102
RTVSPost2010PropOp43
 70
     1
102
RTVSPost2010Prop44ColorIndex
 90
        5
102
RTVSPost2010Prop44ColorRGB
 90
      255
102
RTVSPost2010PropOp44
 70
     1
102
RTVSPost2010Prop45
280
     0
102
RTVSPost2010PropOp45
 70
     1
102
RTVSPost2010Prop46
 90
       50
102
RTVSPost2010PropOp46
 70
     1
102
RTVSPost2010Prop47
 90
       50
102
RTVSPost2010PropOp47
 70
     1
102
RTVSPost2010Prop48
 90
       50
102
RTVSPost2010PropOp48
 70
     1
102
RTVSPost2010Prop49
280
     0
102
RTVSPost2010PropOp49
 70
     1
102
RTVSPost2010Prop50
 90
       50
102
RTVSPost2010PropOp50
 70
     1
102
RTVSPost2010Prop51ColorIndex
 90
      256
102
RTVSPost2010Prop51ColorRGB
 90
-16777216
102
RTVSPost2010PropOp51
 70
     0
102
RTVSPost2010Prop52
140
1.0
102
RTVSPost2010PropOp52
 70
     0
102
RTVSPost2010Prop53
 90
        2
102
RTVSPost2010PropOp53
 70
     1
102
RTVSPost2010Prop54
  1
strokes_ogs.tif
102
RTVSPost2010PropOp54
 70
     1
102
RTVSPost2010Prop55
280
     0
102
RTVSPost2010PropOp55
 70
     1
102
RTVSPost2010Prop56
140
1.0
102
RTVSPost2010PropOp56
 70
     1
102
RTVSPost2010Prop57
140
1.0
102
RTVSPost2010PropOp57
 70
     1
102
RTVSPropertyOp0
 70
     1
102
RTVSPropertyOp1
 70
     1
102
RTVSPropertyOp2
 70
     1
102
RTVSPropertyOp3
 70
     1
102
RTVSPropertyOp4
 70
     1
102
RTVSPropertyOp5
 70
     1
102
RTVSPropertyOp6
 70
     1
102
RTVSPropertyOp7
 70
     1
102
RTVSPropertyOp8
 70
     1
102
RTVSPropertyOp9
 70
     1
102
RTVSPropertyOp10
 70
     1
102
RTVSPropertyOp11
 70
     1
102
RTVSPropertyOp12
 70
     1
102
RTVSPropertyOp13
 70
     1
102
RTVSPropertyOp14
 70
     1
102
RTVSPropertyOp15
 70
     1
102
RTVSPropertyOp16
 70
     1
102
RTVSPropertyOp17
 70
     1
102
RTVSPropertyOp18
 70
     1
102
RTVSPropertyOp19
 70
     1
102
RTVSPropertyOp20
 70
     1
102
RTVSPropertyOp21
 70
     1
102
RTVSPropertyOp22
 70
     1
102
RTVSPropertyOp23
 70
     1
102
RTVSPropertyOp24
 70
     1
102
RTVSPropertyOp25
 70
     1
102
RTVSPropertyOp26
 70
     1
102
RTVSPropertyOp27
 70
     1
102
RTVSPropertyOp28
 70
     1
102
RTVSPropertyOp29
 70
     1
102
RTVSPropertyOp30
 70
     1
102
RTVSPropertyOp31
 70
     1
102
RTVSPropertyOp32
 70
     1
102
RTVSPropertyOp33
 70
     1
102
RTVSPropertyOp34
 70
     1
102
RTVSPropertyOp35
 70
     1
102
RTVSPropertyOp36
 70
     1
102
RTVSPropertyOp37
 70
     1
102
RTVSPropertyOp38
 70
     1
102
RTVSPropertyOp39
 70
     1
102
RTVSPropertyOp40
 70
     1
102
RTVSPropertyOp41
 70
     1
102
RTVSPropertyOp42
 70
     1
102
RTVSPropertyOp43
 70
     1
102
RTVSPropertyOp44
 70
     1
102
RTVSPropertyOp45
 70
     1
102
RTVSPropertyOp46
 70
     1
102
RTVSPropertyOp47
 70
     1
102
RTVSPropertyOp48
 70
     1
102
RTVSPropertyOp49
 70
     1
102
RTVSPropertyOp50
 70
     1
102
RTVSPropertyOp51
 70
     0
102
RTVSPropertyOp52
 70
     0
102
RTVSPropertyOp53
 70
     1
102
RTVSPropertyOp54
 70
     1
102
RTVSPropertyOp55
 70
     1
102
RTVSPropertyOp56
 70
     1
102
RTVSPropertyOp57
 70
     1
102
RTVSPropertyOp58
 70
     1
102
RTVSPropertyOp59
 70
     1
102
RTVSPropertyOp60
 70
     1
102
RTVSPropertyOp61
 70
     1
102
RTVSPropertyOp62
 70
     1
  0
XRECORD
  5
9CA3
102
{ACAD_REACTORS
330
9CA2
102
}
330
9CA2
100
AcDbXrecord
280
     1
102
RTVSPost2010Prop28
280
     0
102
RTVSPost2010PropOp28
 70
     1
102
RTVSPost2010Prop29
280
     1
102
RTVSPost2010PropOp29
 70
     1
102
RTVSPost2010Prop30
280
     1
102
RTVSPost2010PropOp30
 70
     1
102
RTVSPost2010Prop31
280
     0
102
RTVSPost2010PropOp31
 70
     1
102
RTVSPost2010Prop32
280
     0
102
RTVSPost2010PropOp32
 70
     1
102
RTVSPost2010Prop33
280
     0
102
RTVSPost2010PropOp33
 70
     1
102
RTVSPost2010Prop34
280
     0
102
RTVSPost2010PropOp34
 70
     1
102
RTVSPost2010Prop35
280
     0
102
RTVSPost2010PropOp35
 70
     1
102
RTVSPost2010Prop36
280
     0
102
RTVSPost2010PropOp36
 70
     1
102
RTVSPost2010Prop37
 90
       50
102
RTVSPost2010PropOp37
 70
     1
102
RTVSPost2010Prop38
140
0.0
102
RTVSPost2010PropOp38
 70
     1
102
RTVSPost2010Prop39
140
1.0
102
RTVSPost2010PropOp39
 70
     1
102
RTVSPost2010Prop40
 90
        0
102
RTVSPost2010PropOp40
 70
     1
102
RTVSPost2010Prop41ColorIndex
 90
       18
102
RTVSPost2010Prop41ColorRGB
 90
        0
102
RTVSPost2010PropOp41
 70
     1
102
RTVSPost2010Prop42
 90
       50
102
RTVSPost2010PropOp42
 70
     1
102
RTVSPost2010Prop43
 90
        3
102
RTVSPost2010PropOp43
 70
     1
102
RTVSPost2010Prop44ColorIndex
 90
        5
102
RTVSPost2010Prop44ColorRGB
 90
      255
102
RTVSPost2010PropOp44
 70
     1
102
RTVSPost2010Prop45
280
     0
102
RTVSPost2010PropOp45
 70
     1
102
RTVSPost2010Prop46
 90
       50
102
RTVSPost2010PropOp46
 70
     1
102
RTVSPost2010Prop47
 90
       50
102
RTVSPost2010PropOp47
 70
     1
102
RTVSPost2010Prop48
 90
       50
102
RTVSPost2010PropOp48
 70
     1
102
RTVSPost2010Prop49
280
     0
102
RTVSPost2010PropOp49
 70
     1
102
RTVSPost2010Prop50
 90
       50
102
RTVSPost2010PropOp50
 70
     1
102
RTVSPost2010Prop51ColorIndex
 90
      256
102
RTVSPost2010Prop51ColorRGB
 90
-16777216
102
RTVSPost2010PropOp51
 70
     0
102
RTVSPost2010Prop52
140
1.0
102
RTVSPost2010PropOp52
 70
     0
102
RTVSPost2010Prop53
 90
        2
102
RTVSPost2010PropOp53
 70
     1
102
RTVSPost2010Prop54
  1
strokes_ogs.tif
102
RTVSPost2010PropOp54
 70
     1
102
RTVSPost2010Prop55
280
     0
102
RTVSPost2010PropOp55
 70
     1
102
RTVSPost2010Prop56
140
1.0
102
RTVSPost2010PropOp56
 70
     1
102
RTVSPost2010Prop57
140
1.0
102
RTVSPost2010PropOp57
 70
     1
102
RTVSPropertyOp0
 70
     1
102
RTVSPropertyOp1
 70
     1
102
RTVSPropertyOp2
 70
     1
102
RTVSPropertyOp3
 70
     1
102
RTVSPropertyOp4
 70
     1
102
RTVSPropertyOp5
 70
     1
102
RTVSPropertyOp6
 70
     1
102
RTVSPropertyOp7
 70
     1
102
RTVSPropertyOp8
 70
     1
102
RTVSPropertyOp9
 70
     1
102
RTVSPropertyOp10
 70
     1
102
RTVSPropertyOp11
 70
     1
102
RTVSPropertyOp12
 70
     1
102
RTVSPropertyOp13
 70
     1
102
RTVSPropertyOp14
 70
     1
102
RTVSPropertyOp15
 70
     1
102
RTVSPropertyOp16
 70
     1
102
RTVSPropertyOp17
 70
     1
102
RTVSPropertyOp18
 70
     1
102
RTVSPropertyOp19
 70
     1
102
RTVSPropertyOp20
 70
     1
102
RTVSPropertyOp21
 70
     1
102
RTVSPropertyOp22
 70
     1
102
RTVSPropertyOp23
 70
     1
102
RTVSPropertyOp24
 70
     1
102
RTVSPropertyOp25
 70
     1
102
RTVSPropertyOp26
 70
     1
102
RTVSPropertyOp27
 70
     1
102
RTVSPropertyOp28
 70
     1
102
RTVSPropertyOp29
 70
     1
102
RTVSPropertyOp30
 70
     1
102
RTVSPropertyOp31
 70
     1
102
RTVSPropertyOp32
 70
     1
102
RTVSPropertyOp33
 70
     1
102
RTVSPropertyOp34
 70
     1
102
RTVSPropertyOp35
 70
     1
102
RTVSPropertyOp36
 70
     1
102
RTVSPropertyOp37
 70
     1
102
RTVSPropertyOp38
 70
     1
102
RTVSPropertyOp39
 70
     1
102
RTVSPropertyOp40
 70
     1
102
RTVSPropertyOp41
 70
     1
102
RTVSPropertyOp42
 70
     1
102
RTVSPropertyOp43
 70
     1
102
RTVSPropertyOp44
 70
     1
102
RTVSPropertyOp45
 70
     1
102
RTVSPropertyOp46
 70
     1
102
RTVSPropertyOp47
 70
     1
102
RTVSPropertyOp48
 70
     1
102
RTVSPropertyOp49
 70
     1
102
RTVSPropertyOp50
 70
     1
102
RTVSPropertyOp51
 70
     0
102
RTVSPropertyOp52
 70
     0
102
RTVSPropertyOp53
 70
     1
102
RTVSPropertyOp54
 70
     1
102
RTVSPropertyOp55
 70
     1
102
RTVSPropertyOp56
 70
     1
102
RTVSPropertyOp57
 70
     1
102
RTVSPropertyOp58
 70
     1
102
RTVSPropertyOp59
 70
     1
102
RTVSPropertyOp60
 70
     1
102
RTVSPropertyOp61
 70
     1
102
RTVSPropertyOp62
 70
     1
  0
XRECORD
  5
9CBF
102
{ACAD_REACTORS
330
9CBE
102
}
330
9CBE
100
AcDbXrecord
280
     1
102
RTVSPost2010Prop28
280
     0
102
RTVSPost2010PropOp28
 70
     1
102
RTVSPost2010Prop29
280
     1
102
RTVSPost2010PropOp29
 70
     1
102
RTVSPost2010Prop30
280
     1
102
RTVSPost2010PropOp30
 70
     1
102
RTVSPost2010Prop31
280
     0
102
RTVSPost2010PropOp31
 70
     1
102
RTVSPost2010Prop32
280
     0
102
RTVSPost2010PropOp32
 70
     1
102
RTVSPost2010Prop33
280
     0
102
RTVSPost2010PropOp33
 70
     1
102
RTVSPost2010Prop34
280
     0
102
RTVSPost2010PropOp34
 70
     1
102
RTVSPost2010Prop35
280
     0
102
RTVSPost2010PropOp35
 70
     1
102
RTVSPost2010Prop36
280
     0
102
RTVSPost2010PropOp36
 70
     1
102
RTVSPost2010Prop37
 90
       50
102
RTVSPost2010PropOp37
 70
     0
102
RTVSPost2010Prop38
140
0.0
102
RTVSPost2010PropOp38
 70
     0
102
RTVSPost2010Prop39
140
1.0
102
RTVSPost2010PropOp39
 70
     0
102
RTVSPost2010Prop40
 90
        0
102
RTVSPost2010PropOp40
 70
     0
102
RTVSPost2010Prop41ColorIndex
 90
       18
102
RTVSPost2010Prop41ColorRGB
 90
        0
102
RTVSPost2010PropOp41
 70
     0
102
RTVSPost2010Prop42
 90
       50
102
RTVSPost2010PropOp42
 70
     0
102
RTVSPost2010Prop43
 90
        3
102
RTVSPost2010PropOp43
 70
     0
102
RTVSPost2010Prop44ColorIndex
 90
        5
102
RTVSPost2010Prop44ColorRGB
 90
      255
102
RTVSPost2010PropOp44
 70
     0
102
RTVSPost2010Prop45
280
     0
102
RTVSPost2010PropOp45
 70
     1
102
RTVSPost2010Prop46
 90
       50
102
RTVSPost2010PropOp46
 70
     0
102
RTVSPost2010Prop47
 90
       50
102
RTVSPost2010PropOp47
 70
     0
102
RTVSPost2010Prop48
 90
       50
102
RTVSPost2010PropOp48
 70
     0
102
RTVSPost2010Prop49
280
     0
102
RTVSPost2010PropOp49
 70
     1
102
RTVSPost2010Prop50
 90
       50
102
RTVSPost2010PropOp50
 70
     0
102
RTVSPost2010Prop51ColorIndex
 90
      256
102
RTVSPost2010Prop51ColorRGB
 90
-16777216
102
RTVSPost2010PropOp51
 70
     0
102
RTVSPost2010Prop52
140
1.0
102
RTVSPost2010PropOp52
 70
     0
102
RTVSPost2010Prop53
 90
        2
102
RTVSPost2010PropOp53
 70
     0
102
RTVSPost2010Prop54
  1
strokes_ogs.tif
102
RTVSPost2010PropOp54
 70
     0
102
RTVSPost2010Prop55
280
     0
102
RTVSPost2010PropOp55
 70
     1
102
RTVSPost2010Prop56
140
1.0
102
RTVSPost2010PropOp56
 70
     0
102
RTVSPost2010Prop57
140
1.0
102
RTVSPost2010PropOp57
 70
     0
102
RTVSPropertyOp0
 70
     0
102
RTVSPropertyOp1
 70
     0
102
RTVSPropertyOp2
 70
     0
102
RTVSPropertyOp3
 70
     0
102
RTVSPropertyOp4
 70
     0
102
RTVSPropertyOp5
 70
     0
102
RTVSPropertyOp6
 70
     0
102
RTVSPropertyOp7
 70
     0
102
RTVSPropertyOp8
 70
     0
102
RTVSPropertyOp9
 70
     0
102
RTVSPropertyOp10
 70
     0
102
RTVSPropertyOp11
 70
     0
102
RTVSPropertyOp12
 70
     0
102
RTVSPropertyOp13
 70
     0
102
RTVSPropertyOp14
 70
     2
102
RTVSPropertyOp15
 70
     0
102
RTVSPropertyOp16
 70
     0
102
RTVSPropertyOp17
 70
     0
102
RTVSPropertyOp18
 70
     0
102
RTVSPropertyOp19
 70
     0
102
RTVSPropertyOp20
 70
     0
102
RTVSPropertyOp21
 70
     0
102
RTVSPropertyOp22
 70
     0
102
RTVSPropertyOp23
 70
     0
102
RTVSPropertyOp24
 70
     0
102
RTVSPropertyOp25
 70
     0
102
RTVSPropertyOp26
 70
     0
102
RTVSPropertyOp27
 70
     0
102
RTVSPropertyOp28
 70
     1
102
RTVSPropertyOp29
 70
     1
102
RTVSPropertyOp30
 70
     1
102
RTVSPropertyOp31
 70
     1
102
RTVSPropertyOp32
 70
     1
102
RTVSPropertyOp33
 70
     1
102
RTVSPropertyOp34
 70
     1
102
RTVSPropertyOp35
 70
     1
102
RTVSPropertyOp36
 70
     1
102
RTVSPropertyOp37
 70
     0
102
RTVSPropertyOp38
 70
     0
102
RTVSPropertyOp39
 70
     0
102
RTVSPropertyOp40
 70
     0
102
RTVSPropertyOp41
 70
     0
102
RTVSPropertyOp42
 70
     0
102
RTVSPropertyOp43
 70
     0
102
RTVSPropertyOp44
 70
     0
102
RTVSPropertyOp45
 70
     1
102
RTVSPropertyOp46
 70
     0
102
RTVSPropertyOp47
 70
     0
102
RTVSPropertyOp48
 70
     0
102
RTVSPropertyOp49
 70
     1
102
RTVSPropertyOp50
 70
     0
102
RTVSPropertyOp51
 70
     0
102
RTVSPropertyOp52
 70
     0
102
RTVSPropertyOp53
 70
     0
102
RTVSPropertyOp54
 70
     0
102
RTVSPropertyOp55
 70
     1
102
RTVSPropertyOp56
 70
     0
102
RTVSPropertyOp57
 70
     0
102
RTVSPropertyOp58
 70
     0
102
RTVSPropertyOp59
 70
     0
102
RTVSPropertyOp60
 70
     0
102
RTVSPropertyOp61
 70
     0
102
RTVSPropertyOp62
 70
     0
  0
XRECORD
  5
9CAF
102
{ACAD_REACTORS
330
9CAE
102
}
330
9CAE
100
AcDbXrecord
280
     1
102
RTVSPost2010Prop28
280
     0
102
RTVSPost2010PropOp28
 70
     1
102
RTVSPost2010Prop29
280
     1
102
RTVSPost2010PropOp29
 70
     1
102
RTVSPost2010Prop30
280
     1
102
RTVSPost2010PropOp30
 70
     1
102
RTVSPost2010Prop31
280
     0
102
RTVSPost2010PropOp31
 70
     1
102
RTVSPost2010Prop32
280
     0
102
RTVSPost2010PropOp32
 70
     1
102
RTVSPost2010Prop33
280
     0
102
RTVSPost2010PropOp33
 70
     1
102
RTVSPost2010Prop34
280
     0
102
RTVSPost2010PropOp34
 70
     1
102
RTVSPost2010Prop35
280
     0
102
RTVSPost2010PropOp35
 70
     1
102
RTVSPost2010Prop36
280
     0
102
RTVSPost2010PropOp36
 70
     1
102
RTVSPost2010Prop37
 90
       50
102
RTVSPost2010PropOp37
 70
     1
102
RTVSPost2010Prop38
140
0.0
102
RTVSPost2010PropOp38
 70
     1
102
RTVSPost2010Prop39
140
1.0
102
RTVSPost2010PropOp39
 70
     1
102
RTVSPost2010Prop40
 90
        0
102
RTVSPost2010PropOp40
 70
     1
102
RTVSPost2010Prop41ColorIndex
 90
       18
102
RTVSPost2010Prop41ColorRGB
 90
        0
102
RTVSPost2010PropOp41
 70
     1
102
RTVSPost2010Prop42
 90
       50
102
RTVSPost2010PropOp42
 70
     1
102
RTVSPost2010Prop43
 90
        3
102
RTVSPost2010PropOp43
 70
     1
102
RTVSPost2010Prop44ColorIndex
 90
        5
102
RTVSPost2010Prop44ColorRGB
 90
      255
102
RTVSPost2010PropOp44
 70
     1
102
RTVSPost2010Prop45
280
     0
102
RTVSPost2010PropOp45
 70
     1
102
RTVSPost2010Prop46
 90
       50
102
RTVSPost2010PropOp46
 70
     1
102
RTVSPost2010Prop47
 90
       50
102
RTVSPost2010PropOp47
 70
     1
102
RTVSPost2010Prop48
 90
       50
102
RTVSPost2010PropOp48
 70
     1
102
RTVSPost2010Prop49
280
     0
102
RTVSPost2010PropOp49
 70
     1
102
RTVSPost2010Prop50
 90
       50
102
RTVSPost2010PropOp50
 70
     1
102
RTVSPost2010Prop51ColorIndex
 90
      256
102
RTVSPost2010Prop51ColorRGB
 90
-16777216
102
RTVSPost2010PropOp51
 70
     0
102
RTVSPost2010Prop52
140
1.0
102
RTVSPost2010PropOp52
 70
     0
102
RTVSPost2010Prop53
 90
        2
102
RTVSPost2010PropOp53
 70
     1
102
RTVSPost2010Prop54
  1
strokes_ogs.tif
102
RTVSPost2010PropOp54
 70
     1
102
RTVSPost2010Prop55
280
     0
102
RTVSPost2010PropOp55
 70
     1
102
RTVSPost2010Prop56
140
1.0
102
RTVSPost2010PropOp56
 70
     1
102
RTVSPost2010Prop57
140
1.0
102
RTVSPost2010PropOp57
 70
     1
102
RTVSPropertyOp0
 70
     1
102
RTVSPropertyOp1
 70
     1
102
RTVSPropertyOp2
 70
     1
102
RTVSPropertyOp3
 70
     1
102
RTVSPropertyOp4
 70
     1
102
RTVSPropertyOp5
 70
     1
102
RTVSPropertyOp6
 70
     1
102
RTVSPropertyOp7
 70
     1
102
RTVSPropertyOp8
 70
     1
102
RTVSPropertyOp9
 70
     1
102
RTVSPropertyOp10
 70
     1
102
RTVSPropertyOp11
 70
     1
102
RTVSPropertyOp12
 70
     1
102
RTVSPropertyOp13
 70
     1
102
RTVSPropertyOp14
 70
     1
102
RTVSPropertyOp15
 70
     1
102
RTVSPropertyOp16
 70
     1
102
RTVSPropertyOp17
 70
     1
102
RTVSPropertyOp18
 70
     1
102
RTVSPropertyOp19
 70
     1
102
RTVSPropertyOp20
 70
     1
102
RTVSPropertyOp21
 70
     1
102
RTVSPropertyOp22
 70
     1
102
RTVSPropertyOp23
 70
     1
102
RTVSPropertyOp24
 70
     1
102
RTVSPropertyOp25
 70
     1
102
RTVSPropertyOp26
 70
     1
102
RTVSPropertyOp27
 70
     1
102
RTVSPropertyOp28
 70
     1
102
RTVSPropertyOp29
 70
     1
102
RTVSPropertyOp30
 70
     1
102
RTVSPropertyOp31
 70
     1
102
RTVSPropertyOp32
 70
     1
102
RTVSPropertyOp33
 70
     1
102
RTVSPropertyOp34
 70
     1
102
RTVSPropertyOp35
 70
     1
102
RTVSPropertyOp36
 70
     1
102
RTVSPropertyOp37
 70
     1
102
RTVSPropertyOp38
 70
     1
102
RTVSPropertyOp39
 70
     1
102
RTVSPropertyOp40
 70
     1
102
RTVSPropertyOp41
 70
     1
102
RTVSPropertyOp42
 70
     1
102
RTVSPropertyOp43
 70
     1
102
RTVSPropertyOp44
 70
     1
102
RTVSPropertyOp45
 70
     1
102
RTVSPropertyOp46
 70
     1
102
RTVSPropertyOp47
 70
     1
102
RTVSPropertyOp48
 70
     1
102
RTVSPropertyOp49
 70
     1
102
RTVSPropertyOp50
 70
     1
102
RTVSPropertyOp51
 70
     0
102
RTVSPropertyOp52
 70
     0
102
RTVSPropertyOp53
 70
     1
102
RTVSPropertyOp54
 70
     1
102
RTVSPropertyOp55
 70
     1
102
RTVSPropertyOp56
 70
     1
102
RTVSPropertyOp57
 70
     1
102
RTVSPropertyOp58
 70
     1
102
RTVSPropertyOp59
 70
     1
102
RTVSPropertyOp60
 70
     1
102
RTVSPropertyOp61
 70
     1
102
RTVSPropertyOp62
 70
     1
  0
XRECORD
  5
9CC1
102
{ACAD_REACTORS
330
9CC0
102
}
330
9CC0
100
AcDbXrecord
280
     1
102
RTVSPost2010Prop28
280
     0
102
RTVSPost2010PropOp28
 70
     1
102
RTVSPost2010Prop29
280
     1
102
RTVSPost2010PropOp29
 70
     1
102
RTVSPost2010Prop30
280
     1
102
RTVSPost2010PropOp30
 70
     1
102
RTVSPost2010Prop31
280
     0
102
RTVSPost2010PropOp31
 70
     1
102
RTVSPost2010Prop32
280
     0
102
RTVSPost2010PropOp32
 70
     1
102
RTVSPost2010Prop33
280
     0
102
RTVSPost2010PropOp33
 70
     1
102
RTVSPost2010Prop34
280
     0
102
RTVSPost2010PropOp34
 70
     1
102
RTVSPost2010Prop35
280
     0
102
RTVSPost2010PropOp35
 70
     1
102
RTVSPost2010Prop36
280
     0
102
RTVSPost2010PropOp36
 70
     1
102
RTVSPost2010Prop37
 90
       50
102
RTVSPost2010PropOp37
 70
     0
102
RTVSPost2010Prop38
140
0.0
102
RTVSPost2010PropOp38
 70
     0
102
RTVSPost2010Prop39
140
1.0
102
RTVSPost2010PropOp39
 70
     0
102
RTVSPost2010Prop40
 90
        0
102
RTVSPost2010PropOp40
 70
     0
102
RTVSPost2010Prop41ColorIndex
 90
       18
102
RTVSPost2010Prop41ColorRGB
 90
        0
102
RTVSPost2010PropOp41
 70
     0
102
RTVSPost2010Prop42
 90
       50
102
RTVSPost2010PropOp42
 70
     0
102
RTVSPost2010Prop43
 90
        3
102
RTVSPost2010PropOp43
 70
     0
102
RTVSPost2010Prop44ColorIndex
 90
        5
102
RTVSPost2010Prop44ColorRGB
 90
      255
102
RTVSPost2010PropOp44
 70
     0
102
RTVSPost2010Prop45
280
     0
102
RTVSPost2010PropOp45
 70
     1
102
RTVSPost2010Prop46
 90
       50
102
RTVSPost2010PropOp46
 70
     0
102
RTVSPost2010Prop47
 90
       50
102
RTVSPost2010PropOp47
 70
     0
102
RTVSPost2010Prop48
 90
       50
102
RTVSPost2010PropOp48
 70
     0
102
RTVSPost2010Prop49
280
     0
102
RTVSPost2010PropOp49
 70
     1
102
RTVSPost2010Prop50
 90
       50
102
RTVSPost2010PropOp50
 70
     0
102
RTVSPost2010Prop51ColorIndex
 90
      256
102
RTVSPost2010Prop51ColorRGB
 90
-16777216
102
RTVSPost2010PropOp51
 70
     0
102
RTVSPost2010Prop52
140
1.0
102
RTVSPost2010PropOp52
 70
     0
102
RTVSPost2010Prop53
 90
        2
102
RTVSPost2010PropOp53
 70
     0
102
RTVSPost2010Prop54
  1
strokes_ogs.tif
102
RTVSPost2010PropOp54
 70
     0
102
RTVSPost2010Prop55
280
     0
102
RTVSPost2010PropOp55
 70
     1
102
RTVSPost2010Prop56
140
1.0
102
RTVSPost2010PropOp56
 70
     0
102
RTVSPost2010Prop57
140
1.0
102
RTVSPost2010PropOp57
 70
     0
102
RTVSPropertyOp0
 70
     0
102
RTVSPropertyOp1
 70
     0
102
RTVSPropertyOp2
 70
     0
102
RTVSPropertyOp3
 70
     0
102
RTVSPropertyOp4
 70
     0
102
RTVSPropertyOp5
 70
     0
102
RTVSPropertyOp6
 70
     0
102
RTVSPropertyOp7
 70
     0
102
RTVSPropertyOp8
 70
     0
102
RTVSPropertyOp9
 70
     0
102
RTVSPropertyOp10
 70
     0
102
RTVSPropertyOp11
 70
     0
102
RTVSPropertyOp12
 70
     0
102
RTVSPropertyOp13
 70
     0
102
RTVSPropertyOp14
 70
     2
102
RTVSPropertyOp15
 70
     0
102
RTVSPropertyOp16
 70
     0
102
RTVSPropertyOp17
 70
     0
102
RTVSPropertyOp18
 70
     0
102
RTVSPropertyOp19
 70
     0
102
RTVSPropertyOp20
 70
     0
102
RTVSPropertyOp21
 70
     0
102
RTVSPropertyOp22
 70
     0
102
RTVSPropertyOp23
 70
     0
102
RTVSPropertyOp24
 70
     0
102
RTVSPropertyOp25
 70
     0
102
RTVSPropertyOp26
 70
     0
102
RTVSPropertyOp27
 70
     0
102
RTVSPropertyOp28
 70
     1
102
RTVSPropertyOp29
 70
     1
102
RTVSPropertyOp30
 70
     1
102
RTVSPropertyOp31
 70
     1
102
RTVSPropertyOp32
 70
     1
102
RTVSPropertyOp33
 70
     1
102
RTVSPropertyOp34
 70
     1
102
RTVSPropertyOp35
 70
     1
102
RTVSPropertyOp36
 70
     1
102
RTVSPropertyOp37
 70
     0
102
RTVSPropertyOp38
 70
     0
102
RTVSPropertyOp39
 70
     0
102
RTVSPropertyOp40
 70
     0
102
RTVSPropertyOp41
 70
     0
102
RTVSPropertyOp42
 70
     0
102
RTVSPropertyOp43
 70
     0
102
RTVSPropertyOp44
 70
     0
102
RTVSPropertyOp45
 70
     1
102
RTVSPropertyOp46
 70
     0
102
RTVSPropertyOp47
 70
     0
102
RTVSPropertyOp48
 70
     0
102
RTVSPropertyOp49
 70
     1
102
RTVSPropertyOp50
 70
     0
102
RTVSPropertyOp51
 70
     0
102
RTVSPropertyOp52
 70
     0
102
RTVSPropertyOp53
 70
     0
102
RTVSPropertyOp54
 70
     0
102
RTVSPropertyOp55
 70
     1
102
RTVSPropertyOp56
 70
     0
102
RTVSPropertyOp57
 70
     0
102
RTVSPropertyOp58
 70
     0
102
RTVSPropertyOp59
 70
     0
102
RTVSPropertyOp60
 70
     0
102
RTVSPropertyOp61
 70
     0
102
RTVSPropertyOp62
 70
     0
  0
XRECORD
  5
9CA7
102
{ACAD_REACTORS
330
9CA6
102
}
330
9CA6
100
AcDbXrecord
280
     1
102
RTVSPost2010Prop28
280
     0
102
RTVSPost2010PropOp28
 70
     1
102
RTVSPost2010Prop29
280
     1
102
RTVSPost2010PropOp29
 70
     1
102
RTVSPost2010Prop30
280
     1
102
RTVSPost2010PropOp30
 70
     1
102
RTVSPost2010Prop31
280
     0
102
RTVSPost2010PropOp31
 70
     1
102
RTVSPost2010Prop32
280
     0
102
RTVSPost2010PropOp32
 70
     1
102
RTVSPost2010Prop33
280
     0
102
RTVSPost2010PropOp33
 70
     1
102
RTVSPost2010Prop34
280
     0
102
RTVSPost2010PropOp34
 70
     1
102
RTVSPost2010Prop35
280
     0
102
RTVSPost2010PropOp35
 70
     1
102
RTVSPost2010Prop36
280
     0
102
RTVSPost2010PropOp36
 70
     1
102
RTVSPost2010Prop37
 90
       50
102
RTVSPost2010PropOp37
 70
     1
102
RTVSPost2010Prop38
140
0.0
102
RTVSPost2010PropOp38
 70
     1
102
RTVSPost2010Prop39
140
1.0
102
RTVSPost2010PropOp39
 70
     1
102
RTVSPost2010Prop40
 90
        0
102
RTVSPost2010PropOp40
 70
     1
102
RTVSPost2010Prop41ColorIndex
 90
       18
102
RTVSPost2010Prop41ColorRGB
 90
        0
102
RTVSPost2010PropOp41
 70
     1
102
RTVSPost2010Prop42
 90
       50
102
RTVSPost2010PropOp42
 70
     1
102
RTVSPost2010Prop43
 90
        3
102
RTVSPost2010PropOp43
 70
     1
102
RTVSPost2010Prop44ColorIndex
 90
        5
102
RTVSPost2010Prop44ColorRGB
 90
      255
102
RTVSPost2010PropOp44
 70
     1
102
RTVSPost2010Prop45
280
     0
102
RTVSPost2010PropOp45
 70
     1
102
RTVSPost2010Prop46
 90
       50
102
RTVSPost2010PropOp46
 70
     1
102
RTVSPost2010Prop47
 90
       50
102
RTVSPost2010PropOp47
 70
     1
102
RTVSPost2010Prop48
 90
       50
102
RTVSPost2010PropOp48
 70
     1
102
RTVSPost2010Prop49
280
     0
102
RTVSPost2010PropOp49
 70
     1
102
RTVSPost2010Prop50
 90
       50
102
RTVSPost2010PropOp50
 70
     1
102
RTVSPost2010Prop51ColorIndex
 90
      256
102
RTVSPost2010Prop51ColorRGB
 90
-16777216
102
RTVSPost2010PropOp51
 70
     0
102
RTVSPost2010Prop52
140
1.0
102
RTVSPost2010PropOp52
 70
     0
102
RTVSPost2010Prop53
 90
        2
102
RTVSPost2010PropOp53
 70
     1
102
RTVSPost2010Prop54
  1
strokes_ogs.tif
102
RTVSPost2010PropOp54
 70
     1
102
RTVSPost2010Prop55
280
     0
102
RTVSPost2010PropOp55
 70
     1
102
RTVSPost2010Prop56
140
1.0
102
RTVSPost2010PropOp56
 70
     1
102
RTVSPost2010Prop57
140
1.0
102
RTVSPost2010PropOp57
 70
     1
102
RTVSPropertyOp0
 70
     1
102
RTVSPropertyOp1
 70
     1
102
RTVSPropertyOp2
 70
     1
102
RTVSPropertyOp3
 70
     1
102
RTVSPropertyOp4
 70
     1
102
RTVSPropertyOp5
 70
     1
102
RTVSPropertyOp6
 70
     1
102
RTVSPropertyOp7
 70
     1
102
RTVSPropertyOp8
 70
     1
102
RTVSPropertyOp9
 70
     1
102
RTVSPropertyOp10
 70
     1
102
RTVSPropertyOp11
 70
     1
102
RTVSPropertyOp12
 70
     1
102
RTVSPropertyOp13
 70
     1
102
RTVSPropertyOp14
 70
     1
102
RTVSPropertyOp15
 70
     1
102
RTVSPropertyOp16
 70
     1
102
RTVSPropertyOp17
 70
     1
102
RTVSPropertyOp18
 70
     1
102
RTVSPropertyOp19
 70
     1
102
RTVSPropertyOp20
 70
     1
102
RTVSPropertyOp21
 70
     1
102
RTVSPropertyOp22
 70
     1
102
RTVSPropertyOp23
 70
     1
102
RTVSPropertyOp24
 70
     1
102
RTVSPropertyOp25
 70
     1
102
RTVSPropertyOp26
 70
     1
102
RTVSPropertyOp27
 70
     1
102
RTVSPropertyOp28
 70
     1
102
RTVSPropertyOp29
 70
     1
102
RTVSPropertyOp30
 70
     1
102
RTVSPropertyOp31
 70
     1
102
RTVSPropertyOp32
 70
     1
102
RTVSPropertyOp33
 70
     1
102
RTVSPropertyOp34
 70
     1
102
RTVSPropertyOp35
 70
     1
102
RTVSPropertyOp36
 70
     1
102
RTVSPropertyOp37
 70
     1
102
RTVSPropertyOp38
 70
     1
102
RTVSPropertyOp39
 70
     1
102
RTVSPropertyOp40
 70
     1
102
RTVSPropertyOp41
 70
     1
102
RTVSPropertyOp42
 70
     1
102
RTVSPropertyOp43
 70
     1
102
RTVSPropertyOp44
 70
     1
102
RTVSPropertyOp45
 70
     1
102
RTVSPropertyOp46
 70
     1
102
RTVSPropertyOp47
 70
     1
102
RTVSPropertyOp48
 70
     1
102
RTVSPropertyOp49
 70
     1
102
RTVSPropertyOp50
 70
     1
102
RTVSPropertyOp51
 70
     0
102
RTVSPropertyOp52
 70
     0
102
RTVSPropertyOp53
 70
     1
102
RTVSPropertyOp54
 70
     1
102
RTVSPropertyOp55
 70
     1
102
RTVSPropertyOp56
 70
     1
102
RTVSPropertyOp57
 70
     1
102
RTVSPropertyOp58
 70
     1
102
RTVSPropertyOp59
 70
     1
102
RTVSPropertyOp60
 70
     1
102
RTVSPropertyOp61
 70
     1
102
RTVSPropertyOp62
 70
     1
  0
XRECORD
  5
9CBD
102
{ACAD_REACTORS
330
9CBC
102
}
330
9CBC
100
AcDbXrecord
280
     1
102
RTVSPost2010Prop28
280
     0
102
RTVSPost2010PropOp28
 70
     1
102
RTVSPost2010Prop29
280
     1
102
RTVSPost2010PropOp29
 70
     1
102
RTVSPost2010Prop30
280
     1
102
RTVSPost2010PropOp30
 70
     1
102
RTVSPost2010Prop31
280
     0
102
RTVSPost2010PropOp31
 70
     1
102
RTVSPost2010Prop32
280
     0
102
RTVSPost2010PropOp32
 70
     1
102
RTVSPost2010Prop33
280
     0
102
RTVSPost2010PropOp33
 70
     1
102
RTVSPost2010Prop34
280
     0
102
RTVSPost2010PropOp34
 70
     1
102
RTVSPost2010Prop35
280
     0
102
RTVSPost2010PropOp35
 70
     1
102
RTVSPost2010Prop36
280
     0
102
RTVSPost2010PropOp36
 70
     1
102
RTVSPost2010Prop37
 90
       50
102
RTVSPost2010PropOp37
 70
     1
102
RTVSPost2010Prop38
140
0.0
102
RTVSPost2010PropOp38
 70
     1
102
RTVSPost2010Prop39
140
1.0
102
RTVSPost2010PropOp39
 70
     1
102
RTVSPost2010Prop40
 90
        0
102
RTVSPost2010PropOp40
 70
     1
102
RTVSPost2010Prop41ColorIndex
 90
       18
102
RTVSPost2010Prop41ColorRGB
 90
        0
102
RTVSPost2010PropOp41
 70
     1
102
RTVSPost2010Prop42
 90
       50
102
RTVSPost2010PropOp42
 70
     1
102
RTVSPost2010Prop43
 90
        3
102
RTVSPost2010PropOp43
 70
     1
102
RTVSPost2010Prop44ColorIndex
 90
        5
102
RTVSPost2010Prop44ColorRGB
 90
      255
102
RTVSPost2010PropOp44
 70
     1
102
RTVSPost2010Prop45
280
     0
102
RTVSPost2010PropOp45
 70
     1
102
RTVSPost2010Prop46
 90
       50
102
RTVSPost2010PropOp46
 70
     1
102
RTVSPost2010Prop47
 90
       50
102
RTVSPost2010PropOp47
 70
     1
102
RTVSPost2010Prop48
 90
       50
102
RTVSPost2010PropOp48
 70
     1
102
RTVSPost2010Prop49
280
     0
102
RTVSPost2010PropOp49
 70
     1
102
RTVSPost2010Prop50
 90
       50
102
RTVSPost2010PropOp50
 70
     1
102
RTVSPost2010Prop51ColorIndex
 90
      256
102
RTVSPost2010Prop51ColorRGB
 90
-16777216
102
RTVSPost2010PropOp51
 70
     0
102
RTVSPost2010Prop52
140
1.0
102
RTVSPost2010PropOp52
 70
     0
102
RTVSPost2010Prop53
 90
        2
102
RTVSPost2010PropOp53
 70
     1
102
RTVSPost2010Prop54
  1
strokes_ogs.tif
102
RTVSPost2010PropOp54
 70
     1
102
RTVSPost2010Prop55
280
     0
102
RTVSPost2010PropOp55
 70
     1
102
RTVSPost2010Prop56
140
1.0
102
RTVSPost2010PropOp56
 70
     1
102
RTVSPost2010Prop57
140
1.0
102
RTVSPost2010PropOp57
 70
     1
102
RTVSPropertyOp0
 70
     1
102
RTVSPropertyOp1
 70
     1
102
RTVSPropertyOp2
 70
     1
102
RTVSPropertyOp3
 70
     1
102
RTVSPropertyOp4
 70
     1
102
RTVSPropertyOp5
 70
     1
102
RTVSPropertyOp6
 70
     1
102
RTVSPropertyOp7
 70
     1
102
RTVSPropertyOp8
 70
     1
102
RTVSPropertyOp9
 70
     1
102
RTVSPropertyOp10
 70
     1
102
RTVSPropertyOp11
 70
     1
102
RTVSPropertyOp12
 70
     1
102
RTVSPropertyOp13
 70
     1
102
RTVSPropertyOp14
 70
     1
102
RTVSPropertyOp15
 70
     1
102
RTVSPropertyOp16
 70
     1
102
RTVSPropertyOp17
 70
     1
102
RTVSPropertyOp18
 70
     1
102
RTVSPropertyOp19
 70
     1
102
RTVSPropertyOp20
 70
     1
102
RTVSPropertyOp21
 70
     1
102
RTVSPropertyOp22
 70
     1
102
RTVSPropertyOp23
 70
     1
102
RTVSPropertyOp24
 70
     1
102
RTVSPropertyOp25
 70
     1
102
RTVSPropertyOp26
 70
     1
102
RTVSPropertyOp27
 70
     1
102
RTVSPropertyOp28
 70
     1
102
RTVSPropertyOp29
 70
     1
102
RTVSPropertyOp30
 70
     1
102
RTVSPropertyOp31
 70
     1
102
RTVSPropertyOp32
 70
     1
102
RTVSPropertyOp33
 70
     1
102
RTVSPropertyOp34
 70
     1
102
RTVSPropertyOp35
 70
     1
102
RTVSPropertyOp36
 70
     1
102
RTVSPropertyOp37
 70
     1
102
RTVSPropertyOp38
 70
     1
102
RTVSPropertyOp39
 70
     1
102
RTVSPropertyOp40
 70
     1
102
RTVSPropertyOp41
 70
     1
102
RTVSPropertyOp42
 70
     1
102
RTVSPropertyOp43
 70
     1
102
RTVSPropertyOp44
 70
     1
102
RTVSPropertyOp45
 70
     1
102
RTVSPropertyOp46
 70
     1
102
RTVSPropertyOp47
 70
     1
102
RTVSPropertyOp48
 70
     1
102
RTVSPropertyOp49
 70
     1
102
RTVSPropertyOp50
 70
     1
102
RTVSPropertyOp51
 70
     0
102
RTVSPropertyOp52
 70
     0
102
RTVSPropertyOp53
 70
     1
102
RTVSPropertyOp54
 70
     1
102
RTVSPropertyOp55
 70
     1
102
RTVSPropertyOp56
 70
     1
102
RTVSPropertyOp57
 70
     1
102
RTVSPropertyOp58
 70
     1
102
RTVSPropertyOp59
 70
     1
102
RTVSPropertyOp60
 70
     1
102
RTVSPropertyOp61
 70
     1
102
RTVSPropertyOp62
 70
     1
  0
XRECORD
  5
9CBB
102
{ACAD_REACTORS
330
9CBA
102
}
330
9CBA
100
AcDbXrecord
280
     1
102
RTVSPost2010Prop28
280
     0
102
RTVSPost2010PropOp28
 70
     1
102
RTVSPost2010Prop29
280
     1
102
RTVSPost2010PropOp29
 70
     1
102
RTVSPost2010Prop30
280
     1
102
RTVSPost2010PropOp30
 70
     1
102
RTVSPost2010Prop31
280
     0
102
RTVSPost2010PropOp31
 70
     1
102
RTVSPost2010Prop32
280
     0
102
RTVSPost2010PropOp32
 70
     1
102
RTVSPost2010Prop33
280
     0
102
RTVSPost2010PropOp33
 70
     1
102
RTVSPost2010Prop34
280
     0
102
RTVSPost2010PropOp34
 70
     1
102
RTVSPost2010Prop35
280
     0
102
RTVSPost2010PropOp35
 70
     1
102
RTVSPost2010Prop36
280
     0
102
RTVSPost2010PropOp36
 70
     1
102
RTVSPost2010Prop37
 90
       50
102
RTVSPost2010PropOp37
 70
     1
102
RTVSPost2010Prop38
140
0.0
102
RTVSPost2010PropOp38
 70
     1
102
RTVSPost2010Prop39
140
1.0
102
RTVSPost2010PropOp39
 70
     1
102
RTVSPost2010Prop40
 90
        0
102
RTVSPost2010PropOp40
 70
     1
102
RTVSPost2010Prop41ColorIndex
 90
       18
102
RTVSPost2010Prop41ColorRGB
 90
        0
102
RTVSPost2010PropOp41
 70
     1
102
RTVSPost2010Prop42
 90
       50
102
RTVSPost2010PropOp42
 70
     1
102
RTVSPost2010Prop43
 90
        3
102
RTVSPost2010PropOp43
 70
     1
102
RTVSPost2010Prop44ColorIndex
 90
        5
102
RTVSPost2010Prop44ColorRGB
 90
      255
102
RTVSPost2010PropOp44
 70
     1
102
RTVSPost2010Prop45
280
     0
102
RTVSPost2010PropOp45
 70
     1
102
RTVSPost2010Prop46
 90
       50
102
RTVSPost2010PropOp46
 70
     1
102
RTVSPost2010Prop47
 90
       50
102
RTVSPost2010PropOp47
 70
     1
102
RTVSPost2010Prop48
 90
       50
102
RTVSPost2010PropOp48
 70
     1
102
RTVSPost2010Prop49
280
     0
102
RTVSPost2010PropOp49
 70
     1
102
RTVSPost2010Prop50
 90
       50
102
RTVSPost2010PropOp50
 70
     1
102
RTVSPost2010Prop51ColorIndex
 90
      256
102
RTVSPost2010Prop51ColorRGB
 90
-16777216
102
RTVSPost2010PropOp51
 70
     0
102
RTVSPost2010Prop52
140
1.0
102
RTVSPost2010PropOp52
 70
     0
102
RTVSPost2010Prop53
 90
        2
102
RTVSPost2010PropOp53
 70
     1
102
RTVSPost2010Prop54
  1
strokes_ogs.tif
102
RTVSPost2010PropOp54
 70
     1
102
RTVSPost2010Prop55
280
     0
102
RTVSPost2010PropOp55
 70
     1
102
RTVSPost2010Prop56
140
1.0
102
RTVSPost2010PropOp56
 70
     1
102
RTVSPost2010Prop57
140
1.0
102
RTVSPost2010PropOp57
 70
     1
102
RTVSPropertyOp0
 70
     1
102
RTVSPropertyOp1
 70
     1
102
RTVSPropertyOp2
 70
     1
102
RTVSPropertyOp3
 70
     1
102
RTVSPropertyOp4
 70
     1
102
RTVSPropertyOp5
 70
     1
102
RTVSPropertyOp6
 70
     1
102
RTVSPropertyOp7
 70
     1
102
RTVSPropertyOp8
 70
     1
102
RTVSPropertyOp9
 70
     1
102
RTVSPropertyOp10
 70
     1
102
RTVSPropertyOp11
 70
     1
102
RTVSPropertyOp12
 70
     1
102
RTVSPropertyOp13
 70
     1
102
RTVSPropertyOp14
 70
     1
102
RTVSPropertyOp15
 70
     1
102
RTVSPropertyOp16
 70
     1
102
RTVSPropertyOp17
 70
     1
102
RTVSPropertyOp18
 70
     1
102
RTVSPropertyOp19
 70
     1
102
RTVSPropertyOp20
 70
     1
102
RTVSPropertyOp21
 70
     1
102
RTVSPropertyOp22
 70
     1
102
RTVSPropertyOp23
 70
     1
102
RTVSPropertyOp24
 70
     1
102
RTVSPropertyOp25
 70
     1
102
RTVSPropertyOp26
 70
     1
102
RTVSPropertyOp27
 70
     1
102
RTVSPropertyOp28
 70
     1
102
RTVSPropertyOp29
 70
     1
102
RTVSPropertyOp30
 70
     1
102
RTVSPropertyOp31
 70
     1
102
RTVSPropertyOp32
 70
     1
102
RTVSPropertyOp33
 70
     1
102
RTVSPropertyOp34
 70
     1
102
RTVSPropertyOp35
 70
     1
102
RTVSPropertyOp36
 70
     1
102
RTVSPropertyOp37
 70
     1
102
RTVSPropertyOp38
 70
     1
102
RTVSPropertyOp39
 70
     1
102
RTVSPropertyOp40
 70
     1
102
RTVSPropertyOp41
 70
     1
102
RTVSPropertyOp42
 70
     1
102
RTVSPropertyOp43
 70
     1
102
RTVSPropertyOp44
 70
     1
102
RTVSPropertyOp45
 70
     1
102
RTVSPropertyOp46
 70
     1
102
RTVSPropertyOp47
 70
     1
102
RTVSPropertyOp48
 70
     1
102
RTVSPropertyOp49
 70
     1
102
RTVSPropertyOp50
 70
     1
102
RTVSPropertyOp51
 70
     0
102
RTVSPropertyOp52
 70
     0
102
RTVSPropertyOp53
 70
     1
102
RTVSPropertyOp54
 70
     1
102
RTVSPropertyOp55
 70
     1
102
RTVSPropertyOp56
 70
     1
102
RTVSPropertyOp57
 70
     1
102
RTVSPropertyOp58
 70
     1
102
RTVSPropertyOp59
 70
     1
102
RTVSPropertyOp60
 70
     1
102
RTVSPropertyOp61
 70
     1
102
RTVSPropertyOp62
 70
     1
  0
XRECORD
  5
9CB5
102
{ACAD_REACTORS
330
9CB4
102
}
330
9CB4
100
AcDbXrecord
280
     1
102
RTVSPost2010Prop28
280
     0
102
RTVSPost2010PropOp28
 70
     1
102
RTVSPost2010Prop29
280
     1
102
RTVSPost2010PropOp29
 70
     1
102
RTVSPost2010Prop30
280
     1
102
RTVSPost2010PropOp30
 70
     1
102
RTVSPost2010Prop31
280
     0
102
RTVSPost2010PropOp31
 70
     1
102
RTVSPost2010Prop32
280
     0
102
RTVSPost2010PropOp32
 70
     1
102
RTVSPost2010Prop33
280
     0
102
RTVSPost2010PropOp33
 70
     1
102
RTVSPost2010Prop34
280
     0
102
RTVSPost2010PropOp34
 70
     1
102
RTVSPost2010Prop35
280
     0
102
RTVSPost2010PropOp35
 70
     1
102
RTVSPost2010Prop36
280
     0
102
RTVSPost2010PropOp36
 70
     1
102
RTVSPost2010Prop37
 90
       50
102
RTVSPost2010PropOp37
 70
     1
102
RTVSPost2010Prop38
140
0.0
102
RTVSPost2010PropOp38
 70
     1
102
RTVSPost2010Prop39
140
1.0
102
RTVSPost2010PropOp39
 70
     1
102
RTVSPost2010Prop40
 90
        0
102
RTVSPost2010PropOp40
 70
     1
102
RTVSPost2010Prop41ColorIndex
 90
       18
102
RTVSPost2010Prop41ColorRGB
 90
        0
102
RTVSPost2010PropOp41
 70
     1
102
RTVSPost2010Prop42
 90
       50
102
RTVSPost2010PropOp42
 70
     1
102
RTVSPost2010Prop43
 90
        3
102
RTVSPost2010PropOp43
 70
     1
102
RTVSPost2010Prop44ColorIndex
 90
        5
102
RTVSPost2010Prop44ColorRGB
 90
      255
102
RTVSPost2010PropOp44
 70
     1
102
RTVSPost2010Prop45
280
     0
102
RTVSPost2010PropOp45
 70
     1
102
RTVSPost2010Prop46
 90
       50
102
RTVSPost2010PropOp46
 70
     1
102
RTVSPost2010Prop47
 90
       50
102
RTVSPost2010PropOp47
 70
     1
102
RTVSPost2010Prop48
 90
       50
102
RTVSPost2010PropOp48
 70
     1
102
RTVSPost2010Prop49
280
     0
102
RTVSPost2010PropOp49
 70
     1
102
RTVSPost2010Prop50
 90
       50
102
RTVSPost2010PropOp50
 70
     1
102
RTVSPost2010Prop51ColorIndex
 90
      256
102
RTVSPost2010Prop51ColorRGB
 90
-16777216
102
RTVSPost2010PropOp51
 70
     0
102
RTVSPost2010Prop52
140
1.0
102
RTVSPost2010PropOp52
 70
     0
102
RTVSPost2010Prop53
 90
        2
102
RTVSPost2010PropOp53
 70
     1
102
RTVSPost2010Prop54
  1
strokes_ogs.tif
102
RTVSPost2010PropOp54
 70
     1
102
RTVSPost2010Prop55
280
     0
102
RTVSPost2010PropOp55
 70
     1
102
RTVSPost2010Prop56
140
1.0
102
RTVSPost2010PropOp56
 70
     1
102
RTVSPost2010Prop57
140
1.0
102
RTVSPost2010PropOp57
 70
     1
102
RTVSPropertyOp0
 70
     1
102
RTVSPropertyOp1
 70
     1
102
RTVSPropertyOp2
 70
     1
102
RTVSPropertyOp3
 70
     1
102
RTVSPropertyOp4
 70
     1
102
RTVSPropertyOp5
 70
     1
102
RTVSPropertyOp6
 70
     1
102
RTVSPropertyOp7
 70
     1
102
RTVSPropertyOp8
 70
     1
102
RTVSPropertyOp9
 70
     1
102
RTVSPropertyOp10
 70
     1
102
RTVSPropertyOp11
 70
     1
102
RTVSPropertyOp12
 70
     1
102
RTVSPropertyOp13
 70
     1
102
RTVSPropertyOp14
 70
     1
102
RTVSPropertyOp15
 70
     1
102
RTVSPropertyOp16
 70
     1
102
RTVSPropertyOp17
 70
     1
102
RTVSPropertyOp18
 70
     1
102
RTVSPropertyOp19
 70
     1
102
RTVSPropertyOp20
 70
     1
102
RTVSPropertyOp21
 70
     1
102
RTVSPropertyOp22
 70
     1
102
RTVSPropertyOp23
 70
     1
102
RTVSPropertyOp24
 70
     1
102
RTVSPropertyOp25
 70
     1
102
RTVSPropertyOp26
 70
     1
102
RTVSPropertyOp27
 70
     1
102
RTVSPropertyOp28
 70
     1
102
RTVSPropertyOp29
 70
     1
102
RTVSPropertyOp30
 70
     1
102
RTVSPropertyOp31
 70
     1
102
RTVSPropertyOp32
 70
     1
102
RTVSPropertyOp33
 70
     1
102
RTVSPropertyOp34
 70
     1
102
RTVSPropertyOp35
 70
     1
102
RTVSPropertyOp36
 70
     1
102
RTVSPropertyOp37
 70
     1
102
RTVSPropertyOp38
 70
     1
102
RTVSPropertyOp39
 70
     1
102
RTVSPropertyOp40
 70
     1
102
RTVSPropertyOp41
 70
     1
102
RTVSPropertyOp42
 70
     1
102
RTVSPropertyOp43
 70
     1
102
RTVSPropertyOp44
 70
     1
102
RTVSPropertyOp45
 70
     1
102
RTVSPropertyOp46
 70
     1
102
RTVSPropertyOp47
 70
     1
102
RTVSPropertyOp48
 70
     1
102
RTVSPropertyOp49
 70
     1
102
RTVSPropertyOp50
 70
     1
102
RTVSPropertyOp51
 70
     0
102
RTVSPropertyOp52
 70
     0
102
RTVSPropertyOp53
 70
     1
102
RTVSPropertyOp54
 70
     1
102
RTVSPropertyOp55
 70
     1
102
RTVSPropertyOp56
 70
     1
102
RTVSPropertyOp57
 70
     1
102
RTVSPropertyOp58
 70
     1
102
RTVSPropertyOp59
 70
     1
102
RTVSPropertyOp60
 70
     1
102
RTVSPropertyOp61
 70
     1
102
RTVSPropertyOp62
 70
     1
  0
XRECORD
  5
9CB7
102
{ACAD_REACTORS
330
9CB6
102
}
330
9CB6
100
AcDbXrecord
280
     1
102
RTVSPost2010Prop28
280
     0
102
RTVSPost2010PropOp28
 70
     1
102
RTVSPost2010Prop29
280
     1
102
RTVSPost2010PropOp29
 70
     1
102
RTVSPost2010Prop30
280
     1
102
RTVSPost2010PropOp30
 70
     1
102
RTVSPost2010Prop31
280
     0
102
RTVSPost2010PropOp31
 70
     1
102
RTVSPost2010Prop32
280
     0
102
RTVSPost2010PropOp32
 70
     1
102
RTVSPost2010Prop33
280
     0
102
RTVSPost2010PropOp33
 70
     1
102
RTVSPost2010Prop34
280
     0
102
RTVSPost2010PropOp34
 70
     1
102
RTVSPost2010Prop35
280
     0
102
RTVSPost2010PropOp35
 70
     1
102
RTVSPost2010Prop36
280
     0
102
RTVSPost2010PropOp36
 70
     1
102
RTVSPost2010Prop37
 90
       50
102
RTVSPost2010PropOp37
 70
     1
102
RTVSPost2010Prop38
140
0.0
102
RTVSPost2010PropOp38
 70
     1
102
RTVSPost2010Prop39
140
1.0
102
RTVSPost2010PropOp39
 70
     1
102
RTVSPost2010Prop40
 90
        0
102
RTVSPost2010PropOp40
 70
     1
102
RTVSPost2010Prop41ColorIndex
 90
       18
102
RTVSPost2010Prop41ColorRGB
 90
        0
102
RTVSPost2010PropOp41
 70
     1
102
RTVSPost2010Prop42
 90
       50
102
RTVSPost2010PropOp42
 70
     1
102
RTVSPost2010Prop43
 90
        3
102
RTVSPost2010PropOp43
 70
     1
102
RTVSPost2010Prop44ColorIndex
 90
        5
102
RTVSPost2010Prop44ColorRGB
 90
      255
102
RTVSPost2010PropOp44
 70
     1
102
RTVSPost2010Prop45
280
     0
102
RTVSPost2010PropOp45
 70
     1
102
RTVSPost2010Prop46
 90
       50
102
RTVSPost2010PropOp46
 70
     1
102
RTVSPost2010Prop47
 90
       50
102
RTVSPost2010PropOp47
 70
     1
102
RTVSPost2010Prop48
 90
       50
102
RTVSPost2010PropOp48
 70
     1
102
RTVSPost2010Prop49
280
     0
102
RTVSPost2010PropOp49
 70
     1
102
RTVSPost2010Prop50
 90
       50
102
RTVSPost2010PropOp50
 70
     1
102
RTVSPost2010Prop51ColorIndex
 90
      256
102
RTVSPost2010Prop51ColorRGB
 90
-16777216
102
RTVSPost2010PropOp51
 70
     0
102
RTVSPost2010Prop52
140
1.0
102
RTVSPost2010PropOp52
 70
     0
102
RTVSPost2010Prop53
 90
        2
102
RTVSPost2010PropOp53
 70
     1
102
RTVSPost2010Prop54
  1
strokes_ogs.tif
102
RTVSPost2010PropOp54
 70
     1
102
RTVSPost2010Prop55
280
     0
102
RTVSPost2010PropOp55
 70
     1
102
RTVSPost2010Prop56
140
1.0
102
RTVSPost2010PropOp56
 70
     1
102
RTVSPost2010Prop57
140
1.0
102
RTVSPost2010PropOp57
 70
     1
102
RTVSPropertyOp0
 70
     1
102
RTVSPropertyOp1
 70
     1
102
RTVSPropertyOp2
 70
     1
102
RTVSPropertyOp3
 70
     1
102
RTVSPropertyOp4
 70
     1
102
RTVSPropertyOp5
 70
     1
102
RTVSPropertyOp6
 70
     1
102
RTVSPropertyOp7
 70
     1
102
RTVSPropertyOp8
 70
     1
102
RTVSPropertyOp9
 70
     1
102
RTVSPropertyOp10
 70
     1
102
RTVSPropertyOp11
 70
     1
102
RTVSPropertyOp12
 70
     1
102
RTVSPropertyOp13
 70
     1
102
RTVSPropertyOp14
 70
     1
102
RTVSPropertyOp15
 70
     1
102
RTVSPropertyOp16
 70
     1
102
RTVSPropertyOp17
 70
     1
102
RTVSPropertyOp18
 70
     1
102
RTVSPropertyOp19
 70
     1
102
RTVSPropertyOp20
 70
     1
102
RTVSPropertyOp21
 70
     1
102
RTVSPropertyOp22
 70
     1
102
RTVSPropertyOp23
 70
     1
102
RTVSPropertyOp24
 70
     1
102
RTVSPropertyOp25
 70
     1
102
RTVSPropertyOp26
 70
     1
102
RTVSPropertyOp27
 70
     1
102
RTVSPropertyOp28
 70
     1
102
RTVSPropertyOp29
 70
     1
102
RTVSPropertyOp30
 70
     1
102
RTVSPropertyOp31
 70
     1
102
RTVSPropertyOp32
 70
     1
102
RTVSPropertyOp33
 70
     1
102
RTVSPropertyOp34
 70
     1
102
RTVSPropertyOp35
 70
     1
102
RTVSPropertyOp36
 70
     1
102
RTVSPropertyOp37
 70
     1
102
RTVSPropertyOp38
 70
     1
102
RTVSPropertyOp39
 70
     1
102
RTVSPropertyOp40
 70
     1
102
RTVSPropertyOp41
 70
     1
102
RTVSPropertyOp42
 70
     1
102
RTVSPropertyOp43
 70
     1
102
RTVSPropertyOp44
 70
     1
102
RTVSPropertyOp45
 70
     1
102
RTVSPropertyOp46
 70
     1
102
RTVSPropertyOp47
 70
     1
102
RTVSPropertyOp48
 70
     1
102
RTVSPropertyOp49
 70
     1
102
RTVSPropertyOp50
 70
     1
102
RTVSPropertyOp51
 70
     0
102
RTVSPropertyOp52
 70
     0
102
RTVSPropertyOp53
 70
     1
102
RTVSPropertyOp54
 70
     1
102
RTVSPropertyOp55
 70
     1
102
RTVSPropertyOp56
 70
     1
102
RTVSPropertyOp57
 70
     1
102
RTVSPropertyOp58
 70
     1
102
RTVSPropertyOp59
 70
     1
102
RTVSPropertyOp60
 70
     1
102
RTVSPropertyOp61
 70
     1
102
RTVSPropertyOp62
 70
     1
  0
XRECORD
  5
9CAD
102
{ACAD_REACTORS
330
9CAC
102
}
330
9CAC
100
AcDbXrecord
280
     1
102
RTVSPost2010Prop28
280
     0
102
RTVSPost2010PropOp28
 70
     1
102
RTVSPost2010Prop29
280
     1
102
RTVSPost2010PropOp29
 70
     1
102
RTVSPost2010Prop30
280
     1
102
RTVSPost2010PropOp30
 70
     1
102
RTVSPost2010Prop31
280
     0
102
RTVSPost2010PropOp31
 70
     1
102
RTVSPost2010Prop32
280
     0
102
RTVSPost2010PropOp32
 70
     1
102
RTVSPost2010Prop33
280
     0
102
RTVSPost2010PropOp33
 70
     1
102
RTVSPost2010Prop34
280
     0
102
RTVSPost2010PropOp34
 70
     1
102
RTVSPost2010Prop35
280
     0
102
RTVSPost2010PropOp35
 70
     1
102
RTVSPost2010Prop36
280
     0
102
RTVSPost2010PropOp36
 70
     1
102
RTVSPost2010Prop37
 90
       50
102
RTVSPost2010PropOp37
 70
     1
102
RTVSPost2010Prop38
140
0.0
102
RTVSPost2010PropOp38
 70
     1
102
RTVSPost2010Prop39
140
1.0
102
RTVSPost2010PropOp39
 70
     1
102
RTVSPost2010Prop40
 90
        0
102
RTVSPost2010PropOp40
 70
     1
102
RTVSPost2010Prop41ColorIndex
 90
       18
102
RTVSPost2010Prop41ColorRGB
 90
        0
102
RTVSPost2010PropOp41
 70
     1
102
RTVSPost2010Prop42
 90
       50
102
RTVSPost2010PropOp42
 70
     1
102
RTVSPost2010Prop43
 90
        3
102
RTVSPost2010PropOp43
 70
     1
102
RTVSPost2010Prop44ColorIndex
 90
        5
102
RTVSPost2010Prop44ColorRGB
 90
      255
102
RTVSPost2010PropOp44
 70
     1
102
RTVSPost2010Prop45
280
     0
102
RTVSPost2010PropOp45
 70
     1
102
RTVSPost2010Prop46
 90
       50
102
RTVSPost2010PropOp46
 70
     1
102
RTVSPost2010Prop47
 90
       50
102
RTVSPost2010PropOp47
 70
     1
102
RTVSPost2010Prop48
 90
       50
102
RTVSPost2010PropOp48
 70
     1
102
RTVSPost2010Prop49
280
     0
102
RTVSPost2010PropOp49
 70
     1
102
RTVSPost2010Prop50
 90
       50
102
RTVSPost2010PropOp50
 70
     1
102
RTVSPost2010Prop51ColorIndex
 90
      256
102
RTVSPost2010Prop51ColorRGB
 90
-16777216
102
RTVSPost2010PropOp51
 70
     0
102
RTVSPost2010Prop52
140
1.0
102
RTVSPost2010PropOp52
 70
     0
102
RTVSPost2010Prop53
 90
        2
102
RTVSPost2010PropOp53
 70
     1
102
RTVSPost2010Prop54
  1
strokes_ogs.tif
102
RTVSPost2010PropOp54
 70
     1
102
RTVSPost2010Prop55
280
     0
102
RTVSPost2010PropOp55
 70
     1
102
RTVSPost2010Prop56
140
1.0
102
RTVSPost2010PropOp56
 70
     1
102
RTVSPost2010Prop57
140
1.0
102
RTVSPost2010PropOp57
 70
     1
102
RTVSPropertyOp0
 70
     1
102
RTVSPropertyOp1
 70
     1
102
RTVSPropertyOp2
 70
     1
102
RTVSPropertyOp3
 70
     1
102
RTVSPropertyOp4
 70
     1
102
RTVSPropertyOp5
 70
     1
102
RTVSPropertyOp6
 70
     1
102
RTVSPropertyOp7
 70
     1
102
RTVSPropertyOp8
 70
     1
102
RTVSPropertyOp9
 70
     1
102
RTVSPropertyOp10
 70
     1
102
RTVSPropertyOp11
 70
     1
102
RTVSPropertyOp12
 70
     1
102
RTVSPropertyOp13
 70
     1
102
RTVSPropertyOp14
 70
     1
102
RTVSPropertyOp15
 70
     1
102
RTVSPropertyOp16
 70
     1
102
RTVSPropertyOp17
 70
     1
102
RTVSPropertyOp18
 70
     1
102
RTVSPropertyOp19
 70
     1
102
RTVSPropertyOp20
 70
     1
102
RTVSPropertyOp21
 70
     1
102
RTVSPropertyOp22
 70
     1
102
RTVSPropertyOp23
 70
     1
102
RTVSPropertyOp24
 70
     1
102
RTVSPropertyOp25
 70
     1
102
RTVSPropertyOp26
 70
     1
102
RTVSPropertyOp27
 70
     1
102
RTVSPropertyOp28
 70
     1
102
RTVSPropertyOp29
 70
     1
102
RTVSPropertyOp30
 70
     1
102
RTVSPropertyOp31
 70
     1
102
RTVSPropertyOp32
 70
     1
102
RTVSPropertyOp33
 70
     1
102
RTVSPropertyOp34
 70
     1
102
RTVSPropertyOp35
 70
     1
102
RTVSPropertyOp36
 70
     1
102
RTVSPropertyOp37
 70
     1
102
RTVSPropertyOp38
 70
     1
102
RTVSPropertyOp39
 70
     1
102
RTVSPropertyOp40
 70
     1
102
RTVSPropertyOp41
 70
     1
102
RTVSPropertyOp42
 70
     1
102
RTVSPropertyOp43
 70
     1
102
RTVSPropertyOp44
 70
     1
102
RTVSPropertyOp45
 70
     1
102
RTVSPropertyOp46
 70
     1
102
RTVSPropertyOp47
 70
     1
102
RTVSPropertyOp48
 70
     1
102
RTVSPropertyOp49
 70
     1
102
RTVSPropertyOp50
 70
     1
102
RTVSPropertyOp51
 70
     0
102
RTVSPropertyOp52
 70
     0
102
RTVSPropertyOp53
 70
     1
102
RTVSPropertyOp54
 70
     1
102
RTVSPropertyOp55
 70
     1
102
RTVSPropertyOp56
 70
     1
102
RTVSPropertyOp57
 70
     1
102
RTVSPropertyOp58
 70
     1
102
RTVSPropertyOp59
 70
     1
102
RTVSPropertyOp60
 70
     1
102
RTVSPropertyOp61
 70
     1
102
RTVSPropertyOp62
 70
     1
  0
XRECORD
  5
9CA1
102
{ACAD_REACTORS
330
9CA0
102
}
330
9CA0
100
AcDbXrecord
280
     1
102
RTVSPost2010Prop28
280
     0
102
RTVSPost2010PropOp28
 70
     1
102
RTVSPost2010Prop29
280
     1
102
RTVSPost2010PropOp29
 70
     1
102
RTVSPost2010Prop30
280
     1
102
RTVSPost2010PropOp30
 70
     1
102
RTVSPost2010Prop31
280
     0
102
RTVSPost2010PropOp31
 70
     1
102
RTVSPost2010Prop32
280
     0
102
RTVSPost2010PropOp32
 70
     1
102
RTVSPost2010Prop33
280
     0
102
RTVSPost2010PropOp33
 70
     1
102
RTVSPost2010Prop34
280
     0
102
RTVSPost2010PropOp34
 70
     1
102
RTVSPost2010Prop35
280
     0
102
RTVSPost2010PropOp35
 70
     1
102
RTVSPost2010Prop36
280
     0
102
RTVSPost2010PropOp36
 70
     1
102
RTVSPost2010Prop37
 90
       50
102
RTVSPost2010PropOp37
 70
     1
102
RTVSPost2010Prop38
140
0.0
102
RTVSPost2010PropOp38
 70
     1
102
RTVSPost2010Prop39
140
1.0
102
RTVSPost2010PropOp39
 70
     1
102
RTVSPost2010Prop40
 90
        0
102
RTVSPost2010PropOp40
 70
     1
102
RTVSPost2010Prop41ColorIndex
 90
       18
102
RTVSPost2010Prop41ColorRGB
 90
        0
102
RTVSPost2010PropOp41
 70
     1
102
RTVSPost2010Prop42
 90
       50
102
RTVSPost2010PropOp42
 70
     1
102
RTVSPost2010Prop43
 90
        3
102
RTVSPost2010PropOp43
 70
     1
102
RTVSPost2010Prop44ColorIndex
 90
        5
102
RTVSPost2010Prop44ColorRGB
 90
      255
102
RTVSPost2010PropOp44
 70
     1
102
RTVSPost2010Prop45
280
     0
102
RTVSPost2010PropOp45
 70
     1
102
RTVSPost2010Prop46
 90
       50
102
RTVSPost2010PropOp46
 70
     1
102
RTVSPost2010Prop47
 90
       50
102
RTVSPost2010PropOp47
 70
     1
102
RTVSPost2010Prop48
 90
       50
102
RTVSPost2010PropOp48
 70
     1
102
RTVSPost2010Prop49
280
     0
102
RTVSPost2010PropOp49
 70
     1
102
RTVSPost2010Prop50
 90
       50
102
RTVSPost2010PropOp50
 70
     1
102
RTVSPost2010Prop51ColorIndex
 90
      256
102
RTVSPost2010Prop51ColorRGB
 90
-16777216
102
RTVSPost2010PropOp51
 70
     0
102
RTVSPost2010Prop52
140
1.0
102
RTVSPost2010PropOp52
 70
     0
102
RTVSPost2010Prop53
 90
        2
102
RTVSPost2010PropOp53
 70
     1
102
RTVSPost2010Prop54
  1
strokes_ogs.tif
102
RTVSPost2010PropOp54
 70
     1
102
RTVSPost2010Prop55
280
     0
102
RTVSPost2010PropOp55
 70
     1
102
RTVSPost2010Prop56
140
1.0
102
RTVSPost2010PropOp56
 70
     1
102
RTVSPost2010Prop57
140
1.0
102
RTVSPost2010PropOp57
 70
     1
102
RTVSPropertyOp0
 70
     1
102
RTVSPropertyOp1
 70
     1
102
RTVSPropertyOp2
 70
     1
102
RTVSPropertyOp3
 70
     1
102
RTVSPropertyOp4
 70
     1
102
RTVSPropertyOp5
 70
     1
102
RTVSPropertyOp6
 70
     1
102
RTVSPropertyOp7
 70
     1
102
RTVSPropertyOp8
 70
     1
102
RTVSPropertyOp9
 70
     1
102
RTVSPropertyOp10
 70
     1
102
RTVSPropertyOp11
 70
     1
102
RTVSPropertyOp12
 70
     1
102
RTVSPropertyOp13
 70
     1
102
RTVSPropertyOp14
 70
     1
102
RTVSPropertyOp15
 70
     1
102
RTVSPropertyOp16
 70
     1
102
RTVSPropertyOp17
 70
     1
102
RTVSPropertyOp18
 70
     1
102
RTVSPropertyOp19
 70
     1
102
RTVSPropertyOp20
 70
     1
102
RTVSPropertyOp21
 70
     1
102
RTVSPropertyOp22
 70
     1
102
RTVSPropertyOp23
 70
     1
102
RTVSPropertyOp24
 70
     1
102
RTVSPropertyOp25
 70
     1
102
RTVSPropertyOp26
 70
     1
102
RTVSPropertyOp27
 70
     1
102
RTVSPropertyOp28
 70
     1
102
RTVSPropertyOp29
 70
     1
102
RTVSPropertyOp30
 70
     1
102
RTVSPropertyOp31
 70
     1
102
RTVSPropertyOp32
 70
     1
102
RTVSPropertyOp33
 70
     1
102
RTVSPropertyOp34
 70
     1
102
RTVSPropertyOp35
 70
     1
102
RTVSPropertyOp36
 70
     1
102
RTVSPropertyOp37
 70
     1
102
RTVSPropertyOp38
 70
     1
102
RTVSPropertyOp39
 70
     1
102
RTVSPropertyOp40
 70
     1
102
RTVSPropertyOp41
 70
     1
102
RTVSPropertyOp42
 70
     1
102
RTVSPropertyOp43
 70
     1
102
RTVSPropertyOp44
 70
     1
102
RTVSPropertyOp45
 70
     1
102
RTVSPropertyOp46
 70
     1
102
RTVSPropertyOp47
 70
     1
102
RTVSPropertyOp48
 70
     1
102
RTVSPropertyOp49
 70
     1
102
RTVSPropertyOp50
 70
     1
102
RTVSPropertyOp51
 70
     0
102
RTVSPropertyOp52
 70
     0
102
RTVSPropertyOp53
 70
     1
102
RTVSPropertyOp54
 70
     1
102
RTVSPropertyOp55
 70
     1
102
RTVSPropertyOp56
 70
     1
102
RTVSPropertyOp57
 70
     1
102
RTVSPropertyOp58
 70
     1
102
RTVSPropertyOp59
 70
     1
102
RTVSPropertyOp60
 70
     1
102
RTVSPropertyOp61
 70
     1
102
RTVSPropertyOp62
 70
     1
  0
XRECORD
  5
9CB9
102
{ACAD_REACTORS
330
9CB8
102
}
330
9CB8
100
AcDbXrecord
280
     1
102
RTVSPost2010Prop28
280
     0
102
RTVSPost2010PropOp28
 70
     1
102
RTVSPost2010Prop29
280
     1
102
RTVSPost2010PropOp29
 70
     1
102
RTVSPost2010Prop30
280
     1
102
RTVSPost2010PropOp30
 70
     1
102
RTVSPost2010Prop31
280
     0
102
RTVSPost2010PropOp31
 70
     1
102
RTVSPost2010Prop32
280
     0
102
RTVSPost2010PropOp32
 70
     1
102
RTVSPost2010Prop33
280
     0
102
RTVSPost2010PropOp33
 70
     1
102
RTVSPost2010Prop34
280
     0
102
RTVSPost2010PropOp34
 70
     1
102
RTVSPost2010Prop35
280
     0
102
RTVSPost2010PropOp35
 70
     1
102
RTVSPost2010Prop36
280
     0
102
RTVSPost2010PropOp36
 70
     1
102
RTVSPost2010Prop37
 90
       50
102
RTVSPost2010PropOp37
 70
     1
102
RTVSPost2010Prop38
140
0.0
102
RTVSPost2010PropOp38
 70
     1
102
RTVSPost2010Prop39
140
1.0
102
RTVSPost2010PropOp39
 70
     1
102
RTVSPost2010Prop40
 90
        0
102
RTVSPost2010PropOp40
 70
     1
102
RTVSPost2010Prop41ColorIndex
 90
       18
102
RTVSPost2010Prop41ColorRGB
 90
        0
102
RTVSPost2010PropOp41
 70
     1
102
RTVSPost2010Prop42
 90
       50
102
RTVSPost2010PropOp42
 70
     1
102
RTVSPost2010Prop43
 90
        3
102
RTVSPost2010PropOp43
 70
     1
102
RTVSPost2010Prop44ColorIndex
 90
        5
102
RTVSPost2010Prop44ColorRGB
 90
      255
102
RTVSPost2010PropOp44
 70
     1
102
RTVSPost2010Prop45
280
     0
102
RTVSPost2010PropOp45
 70
     1
102
RTVSPost2010Prop46
 90
       50
102
RTVSPost2010PropOp46
 70
     1
102
RTVSPost2010Prop47
 90
       50
102
RTVSPost2010PropOp47
 70
     1
102
RTVSPost2010Prop48
 90
       50
102
RTVSPost2010PropOp48
 70
     1
102
RTVSPost2010Prop49
280
     0
102
RTVSPost2010PropOp49
 70
     1
102
RTVSPost2010Prop50
 90
       50
102
RTVSPost2010PropOp50
 70
     1
102
RTVSPost2010Prop51ColorIndex
 90
      256
102
RTVSPost2010Prop51ColorRGB
 90
-16777216
102
RTVSPost2010PropOp51
 70
     0
102
RTVSPost2010Prop52
140
1.0
102
RTVSPost2010PropOp52
 70
     0
102
RTVSPost2010Prop53
 90
        2
102
RTVSPost2010PropOp53
 70
     1
102
RTVSPost2010Prop54
  1
strokes_ogs.tif
102
RTVSPost2010PropOp54
 70
     1
102
RTVSPost2010Prop55
280
     0
102
RTVSPost2010PropOp55
 70
     1
102
RTVSPost2010Prop56
140
1.0
102
RTVSPost2010PropOp56
 70
     1
102
RTVSPost2010Prop57
140
1.0
102
RTVSPost2010PropOp57
 70
     1
102
RTVSPropertyOp0
 70
     1
102
RTVSPropertyOp1
 70
     1
102
RTVSPropertyOp2
 70
     1
102
RTVSPropertyOp3
 70
     1
102
RTVSPropertyOp4
 70
     1
102
RTVSPropertyOp5
 70
     1
102
RTVSPropertyOp6
 70
     1
102
RTVSPropertyOp7
 70
     1
102
RTVSPropertyOp8
 70
     1
102
RTVSPropertyOp9
 70
     1
102
RTVSPropertyOp10
 70
     1
102
RTVSPropertyOp11
 70
     1
102
RTVSPropertyOp12
 70
     1
102
RTVSPropertyOp13
 70
     1
102
RTVSPropertyOp14
 70
     1
102
RTVSPropertyOp15
 70
     1
102
RTVSPropertyOp16
 70
     1
102
RTVSPropertyOp17
 70
     1
102
RTVSPropertyOp18
 70
     1
102
RTVSPropertyOp19
 70
     1
102
RTVSPropertyOp20
 70
     1
102
RTVSPropertyOp21
 70
     1
102
RTVSPropertyOp22
 70
     1
102
RTVSPropertyOp23
 70
     1
102
RTVSPropertyOp24
 70
     1
102
RTVSPropertyOp25
 70
     1
102
RTVSPropertyOp26
 70
     1
102
RTVSPropertyOp27
 70
     1
102
RTVSPropertyOp28
 70
     1
102
RTVSPropertyOp29
 70
     1
102
RTVSPropertyOp30
 70
     1
102
RTVSPropertyOp31
 70
     1
102
RTVSPropertyOp32
 70
     1
102
RTVSPropertyOp33
 70
     1
102
RTVSPropertyOp34
 70
     1
102
RTVSPropertyOp35
 70
     1
102
RTVSPropertyOp36
 70
     1
102
RTVSPropertyOp37
 70
     1
102
RTVSPropertyOp38
 70
     1
102
RTVSPropertyOp39
 70
     1
102
RTVSPropertyOp40
 70
     1
102
RTVSPropertyOp41
 70
     1
102
RTVSPropertyOp42
 70
     1
102
RTVSPropertyOp43
 70
     1
102
RTVSPropertyOp44
 70
     1
102
RTVSPropertyOp45
 70
     1
102
RTVSPropertyOp46
 70
     1
102
RTVSPropertyOp47
 70
     1
102
RTVSPropertyOp48
 70
     1
102
RTVSPropertyOp49
 70
     1
102
RTVSPropertyOp50
 70
     1
102
RTVSPropertyOp51
 70
     0
102
RTVSPropertyOp52
 70
     0
102
RTVSPropertyOp53
 70
     1
102
RTVSPropertyOp54
 70
     1
102
RTVSPropertyOp55
 70
     1
102
RTVSPropertyOp56
 70
     1
102
RTVSPropertyOp57
 70
     1
102
RTVSPropertyOp58
 70
     1
102
RTVSPropertyOp59
 70
     1
102
RTVSPropertyOp60
 70
     1
102
RTVSPropertyOp61
 70
     1
102
RTVSPropertyOp62
 70
     1
  0
ENDSEC
  0
EOF
