  0
SECTION
  2
HEADER
  9
$ACADVER
  1
AC1015
  9
$ACADMAINTVER
 70
    20
  9
$DWGCODEPAGE
  3
ANSI_932
  9
$INSBASE
 10
0.0
 20
0.0
 30
0.0
  9
$EXTMIN
 10
9.999997999999999
 20
10.000001
 30
0.0
  9
$EXTMAX
 10
562.0978479999998
 20
303.086362
 30
0.0
  9
$LIMMIN
 10
0.000002
 20
0.0
  9
$LIMMAX
 10
595.000002
 20
410.189394
  9
$ORTHOMODE
 70
     1
  9
$REGENMODE
 70
     1
  9
$FILLMODE
 70
     1
  9
$QTEXTMODE
 70
     0
  9
$MIRRTEXT
 70
     1
  9
$LTSCALE
 40
1.0
  9
$ATTMODE
 70
     1
  9
$TEXTSIZE
 40
2.5
  9
$TRACEWID
 40
1.0
  9
$TEXTSTYLE
  7
STANDARD
  9
$CLAYER
  8
0
  9
$CELTYPE
  6
BYLAYER
  9
$CECOLOR
 62
   256
  9
$CELTSCALE
 40
1.0
  9
$DISPSILH
 70
     0
  9
$DIMSCALE
 40
1.0
  9
$DIMASZ
 40
3.0
  9
$DIMEXO
 40
1.0
  9
$DIMDLI
 40
10.0
  9
$DIMRND
 40
0.0
  9
$DIMDLE
 40
0.0
  9
$DIMEXE
 40
1.0
  9
$DIMTP
 40
0.0
  9
$DIMTM
 40
0.0
  9
$DIMTXT
 40
2.5
  9
$DIMCEN
 40
0.0
  9
$DIMTSZ
 40
0.0
  9
$DIMTOL
 70
     0
  9
$DIMLIM
 70
     0
  9
$DIMTIH
 70
     0
  9
$DIMTOH
 70
     0
  9
$DIMSE1
 70
     0
  9
$DIMSE2
 70
     0
  9
$DIMTAD
 70
     3
  9
$DIMZIN
 70
     8
  9
$DIMBLK
  1

  9
$DIMASO
 70
     1
  9
$DIMSHO
 70
     1
  9
$DIMPOST
  1

  9
$DIMAPOST
  1

  9
$DIMALT
 70
     0
  9
$DIMALTD
 70
     2
  9
$DIMALTF
 40
25.4
  9
$DIMLFAC
 40
1.0
  9
$DIMTOFL
 70
     1
  9
$DIMTVP
 40
0.0
  9
$DIMTIX
 70
     0
  9
$DIMSOXD
 70
     0
  9
$DIMSAH
 70
     1
  9
$DIMBLK1
  1
OPEN
  9
$DIMBLK2
  1
OPEN
  9
$DIMSTYLE
  2
STANDARD
  9
$DIMCLRD
 70
     0
  9
$DIMCLRE
 70
     0
  9
$DIMCLRT
 70
     0
  9
$DIMTFAC
 40
1.0
  9
$DIMGAP
 40
1.0
  9
$DIMJUST
 70
     0
  9
$DIMSD1
 70
     0
  9
$DIMSD2
 70
     0
  9
$DIMTOLJ
 70
     1
  9
$DIMTZIN
 70
     0
  9
$DIMALTZ
 70
     0
  9
$DIMALTTZ
 70
     0
  9
$DIMUPT
 70
     0
  9
$DIMDEC
 70
     4
  9
$DIMTDEC
 70
     4
  9
$DIMALTU
 70
     2
  9
$DIMALTTD
 70
     2
  9
$DIMTXSTY
  7
STANDARD
  9
$DIMAUNIT
 70
     0
  9
$DIMADEC
 70
     0
  9
$DIMALTRND
 40
0.0
  9
$DIMAZIN
 70
     0
  9
$DIMDSEP
 70
    46
  9
$DIMATFIT
 70
     3
  9
$DIMFRAC
 70
     0
  9
$DIMLDRBLK
  1
OPEN
  9
$DIMLUNIT
 70
     2
  9
$DIMLWD
 70
    -2
  9
$DIMLWE
 70
    -2
  9
$DIMTMOVE
 70
     0
  9
$LUNITS
 70
     2
  9
$LUPREC
 70
     4
  9
$SKETCHINC
 40
1.0
  9
$FILLETRAD
 40
0.0
  9
$AUNITS
 70
     0
  9
$AUPREC
 70
     0
  9
$MENU
  1
.
  9
$ELEVATION
 40
0.0
  9
$PELEVATION
 40
0.0
  9
$THICKNESS
 40
0.0
  9
$LIMCHECK
 70
     0
  9
$CHAMFERA
 40
10.0
  9
$CHAMFERB
 40
10.0
  9
$CHAMFERC
 40
0.0
  9
$CHAMFERD
 40
0.0
  9
$SKPOLY
 70
     0
  9
$TDCREATE
 40
2451649.443410000
  9
$TDUCREATE
 40
2451649.068410000
  9
$TDUPDATE
 40
2457192.601554943
  9
$TDUUPDATE
 40
2457192.226554942
  9
$TDINDWG
 40
0.4798072222
  9
$TDUSRTIMER
 40
0.4798067245
  9
$USRTIMER
 70
     1
  9
$ANGBASE
 50
0.0
  9
$ANGDIR
 70
     0
  9
$PDMODE
 70
     0
  9
$PDSIZE
 40
0.0
  9
$PLINEWID
 40
0.0
  9
$SPLFRAME
 70
     0
  9
$SPLINETYPE
 70
     6
  9
$SPLINESEGS
 70
     8
  9
$HANDSEED
  5
5389
  9
$SURFTAB1
 70
     6
  9
$SURFTAB2
 70
     6
  9
$SURFTYPE
 70
     6
  9
$SURFU
 70
     6
  9
$SURFV
 70
     6
  9
$UCSBASE
  2

  9
$UCSNAME
  2

  9
$UCSORG
 10
0.0
 20
0.0
 30
0.0
  9
$UCSXDIR
 10
1.0
 20
0.0
 30
0.0
  9
$UCSYDIR
 10
0.0
 20
1.0
 30
0.0
  9
$UCSORTHOREF
  2

  9
$UCSORTHOVIEW
 70
     0
  9
$UCSORGTOP
 10
0.0
 20
0.0
 30
0.0
  9
$UCSORGBOTTOM
 10
0.0
 20
0.0
 30
0.0
  9
$UCSORGLEFT
 10
0.0
 20
0.0
 30
0.0
  9
$UCSORGRIGHT
 10
0.0
 20
0.0
 30
0.0
  9
$UCSORGFRONT
 10
0.0
 20
0.0
 30
0.0
  9
$UCSORGBACK
 10
0.0
 20
0.0
 30
0.0
  9
$PUCSBASE
  2

  9
$PUCSNAME
  2

  9
$PUCSORG
 10
0.0
 20
0.0
 30
0.0
  9
$PUCSXDIR
 10
1.0
 20
0.0
 30
0.0
  9
$PUCSYDIR
 10
0.0
 20
1.0
 30
0.0
  9
$PUCSORTHOREF
  2

  9
$PUCSORTHOVIEW
 70
     0
  9
$PUCSORGTOP
 10
0.0
 20
0.0
 30
0.0
  9
$PUCSORGBOTTOM
 10
0.0
 20
0.0
 30
0.0
  9
$PUCSORGLEFT
 10
0.0
 20
0.0
 30
0.0
  9
$PUCSORGRIGHT
 10
0.0
 20
0.0
 30
0.0
  9
$PUCSORGFRONT
 10
0.0
 20
0.0
 30
0.0
  9
$PUCSORGBACK
 10
0.0
 20
0.0
 30
0.0
  9
$USERI1
 70
     0
  9
$USERI2
 70
     0
  9
$USERI3
 70
     0
  9
$USERI4
 70
     0
  9
$USERI5
 70
     0
  9
$USERR1
 40
0.0
  9
$USERR2
 40
0.0
  9
$USERR3
 40
0.0
  9
$USERR4
 40
0.0
  9
$USERR5
 40
0.0
  9
$WORLDVIEW
 70
     1
  9
$SHADEDGE
 70
     3
  9
$SHADEDIF
 70
    70
  9
$TILEMODE
 70
     1
  9
$MAXACTVP
 70
    48
  9
$PINSBASE
 10
0.0
 20
0.0
 30
0.0
  9
$PLIMCHECK
 70
     0
  9
$PEXTMIN
 10
1.000000000000000E+20
 20
1.000000000000000E+20
 30
1.000000000000000E+20
  9
$PEXTMAX
 10
-1.000000000000000E+20
 20
-1.000000000000000E+20
 30
-1.000000000000000E+20
  9
$PLIMMIN
 10
0.0
 20
0.0
  9
$PLIMMAX
 10
420.0
 20
297.0
  9
$UNITMODE
 70
     0
  9
$VISRETAIN
 70
     1
  9
$PLINEGEN
 70
     0
  9
$PSLTSCALE
 70
     1
  9
$TREEDEPTH
 70
  3020
  9
$CMLSTYLE
  2
STANDARD
  9
$CMLJUST
 70
     0
  9
$CMLSCALE
 40
1.0
  9
$PROXYGRAPHICS
 70
     1
  9
$MEASUREMENT
 70
     0
  9
$CELWEIGHT
370
    -1
  9
$ENDCAPS
280
     0
  9
$JOINSTYLE
280
     0
  9
$LWDISPLAY
290
     0
  9
$INSUNITS
 70
     0
  9
$HYPERLINKBASE
  1

  9
$STYLESHEET
  1

  9
$XEDIT
290
     1
  9
$CEPSNTYPE
380
     0
  9
$PSTYLEMODE
290
     1
  9
$FINGERPRINTGUID
  2
{C31DDF2C-F417-4FFD-802A-6F439A9FCDF4}
  9
$VERSIONGUID
  2
{33FC241E-0BA4-44C5-AA72-159520E31109}
  9
$EXTNAMES
290
     1
  9
$PSVPSCALE
 40
0.0
  9
$OLESTARTUP
290
     0
  0
ENDSEC
  0
SECTION
  2
CLASSES
  0
CLASS
  1
ACDBDICTIONARYWDFLT
  2
AcDbDictionaryWithDefault
  3
ObjectDBX Classes
 90
        0
280
     0
281
     0
  0
CLASS
  1
ACDBPLACEHOLDER
  2
AcDbPlaceHolder
  3
ObjectDBX Classes
 90
        0
280
     0
281
     0
  0
CLASS
  1
LAYOUT
  2
AcDbLayout
  3
ObjectDBX Classes
 90
        0
280
     0
281
     0
  0
CLASS
  1
DICTIONARYVAR
  2
AcDbDictionaryVar
  3
ObjectDBX Classes
 90
        0
280
     0
281
     0
  0
CLASS
  1
MATERIAL
  2
AcDbMaterial
  3
ObjectDBX Classes
 90
     1153
280
     0
281
     0
  0
CLASS
  1
VISUALSTYLE
  2
AcDbVisualStyle
  3
ObjectDBX Classes
 90
     4095
280
     0
281
     0
  0
CLASS
  1
TABLESTYLE
  2
AcDbTableStyle
  3
ObjectDBX Classes
 90
     4095
280
     0
281
     0
  0
CLASS
  1
SCALE
  2
AcDbScale
  3
ObjectDBX Classes
 90
     1153
280
     0
281
     0
  0
CLASS
  1
MLEADERSTYLE
  2
AcDbMLeaderStyle
  3
ACDB_MLEADERSTYLE_CLASS
 90
     4095
280
     0
281
     0
  0
CLASS
  1
ACDBSECTIONVIEWSTYLE
  2
AcDbSectionViewStyle
  3
ObjectDBX Classes
 90
     1025
280
     0
281
     0
  0
CLASS
  1
ACDBDETAILVIEWSTYLE
  2
AcDbDetailViewStyle
  3
ObjectDBX Classes
 90
     1025
280
     0
281
     0
  0
CLASS
  1
CELLSTYLEMAP
  2
AcDbCellStyleMap
  3
ObjectDBX Classes
 90
     1152
280
     0
281
     0
  0
ENDSEC
  0
SECTION
  2
TABLES
  0
TABLE
  2
VPORT
  5
4300
330
0
100
AcDbSymbolTable
 70
     1
  0
VPORT
  5
52D4
330
4300
100
AcDbSymbolTableRecord
100
AcDbViewportTableRecord
  2
*ACTIVE
 70
     0
 10
0.0
 20
0.0
 11
1.0
 21
1.0
 12
433.8667242751788
 22
156.5405562976462
 13
0.0
 23
0.0
 14
10.0
 24
10.0
 15
10.0
 25
10.0
 16
0.0
 26
0.0
 36
1.0
 17
0.0
 27
0.0
 37
0.0
 40
361.9736137314294
 41
1.899603698811096
 42
50.0
 43
0.0
 44
0.0
 50
0.0
 51
0.0
 71
     0
 72
   100
 73
     1
 74
     0
 75
     0
 76
     0
 77
     0
 78
     0
281
     0
 65
     1
110
0.0
120
0.0
130
0.0
111
1.0
121
0.0
131
0.0
112
0.0
122
1.0
132
0.0
 79
     0
146
0.0
1001
ACAD_NAV_VCDISPLAY
1070
     3
  0
ENDTAB
  0
TABLE
  2
LTYPE
  5
42FD
330
0
100
AcDbSymbolTable
 70
     4
  0
LTYPE
  5
430B
330
42FD
100
AcDbSymbolTableRecord
100
AcDbLinetypeTableRecord
  2
BYBLOCK
 70
     0
  3

 72
    65
 73
     0
 40
0.0
  0
LTYPE
  5
430C
330
42FD
100
AcDbSymbolTableRecord
100
AcDbLinetypeTableRecord
  2
BYLAYER
 70
     0
  3

 72
    65
 73
     0
 40
0.0
  0
LTYPE
  5
430D
330
42FD
100
AcDbSymbolTableRecord
100
AcDbLinetypeTableRecord
  2
CONTINUOUS
 70
     0
  3
Solid line
 72
    65
 73
     0
 40
0.0
  0
LTYPE
  5
431B
330
42FD
100
AcDbSymbolTableRecord
100
AcDbLinetypeTableRecord
  2
DASHED
 70
     0
  3
Dashed __ __ __ __ __ __ __ __ __ __ __ __ __ _
 72
    65
 73
     2
 40
19.05
 49
12.7
 74
     0
 49
-6.349999999999997
 74
     0
  0
LTYPE
  5
431C
330
42FD
100
AcDbSymbolTableRecord
100
AcDbLinetypeTableRecord
  2
CENTER
 70
     0
  3
Center ____ _ ____ _ ____ _ ____ _ ____ _ ____
 72
    65
 73
     4
 40
50.8
 49
31.75
 74
     0
 49
-6.349999999999997
 74
     0
 49
6.349999999999997
 74
     0
 49
-6.349999999999997
 74
     0
  0
LTYPE
  5
431D
330
42FD
100
AcDbSymbolTableRecord
100
AcDbLinetypeTableRecord
  2
PHANTOM
 70
     0
  3
Phantom ______  __  __  ______  __  __  ______
 72
    65
 73
     6
 40
63.5
 49
31.75
 74
     0
 49
-6.349999999999997
 74
     0
 49
6.349999999999997
 74
     0
 49
-6.349999999999997
 74
     0
 49
6.349999999999997
 74
     0
 49
-6.349999999999997
 74
     0
  0
ENDTAB
  0
TABLE
  2
LAYER
  5
42FA
330
0
100
AcDbSymbolTable
 70
     8
  0
LAYER
  5
4308
102
{ACAD_XDICTIONARY
360
532D
102
}
330
42FA
100
AcDbSymbolTableRecord
100
AcDbLayerTableRecord
  2
0
 70
     0
 62
     7
  6
CONTINUOUS
370
    -3
390
52DB
  0
LAYER
  5
431E
102
{ACAD_XDICTIONARY
360
532F
102
}
330
42FA
100
AcDbSymbolTableRecord
100
AcDbLayerTableRecord
  2
4
 70
     0
 62
     1
  6
CENTER
370
    -3
390
52DB
  0
LAYER
  5
431F
102
{ACAD_XDICTIONARY
360
5331
102
}
330
42FA
100
AcDbSymbolTableRecord
100
AcDbLayerTableRecord
  2
5
 70
     0
 62
     6
  6
PHANTOM
370
    -3
390
52DB
  0
LAYER
  5
4320
102
{ACAD_XDICTIONARY
360
5333
102
}
330
42FA
100
AcDbSymbolTableRecord
100
AcDbLayerTableRecord
  2
1
 70
     0
 62
     7
  6
CONTINUOUS
370
    -3
390
52DB
  0
LAYER
  5
4321
102
{ACAD_XDICTIONARY
360
5335
102
}
330
42FA
100
AcDbSymbolTableRecord
100
AcDbLayerTableRecord
  2
2
 70
     0
 62
     4
  6
CONTINUOUS
370
    -3
390
52DB
  0
LAYER
  5
4322
102
{ACAD_XDICTIONARY
360
5337
102
}
330
42FA
100
AcDbSymbolTableRecord
100
AcDbLayerTableRecord
  2
3
 70
     0
 62
     2
  6
DASHED
370
    -3
390
52DB
  0
LAYER
  5
4323
102
{ACAD_XDICTIONARY
360
5339
102
}
330
42FA
100
AcDbSymbolTableRecord
100
AcDbLayerTableRecord
  2
6
 70
     0
 62
     5
  6
CONTINUOUS
370
    -3
390
52DB
  0
LAYER
  5
4324
102
{ACAD_XDICTIONARY
360
533B
102
}
330
42FA
100
AcDbSymbolTableRecord
100
AcDbLayerTableRecord
  2
7
 70
     0
 62
     3
  6
CONTINUOUS
370
    -3
390
52DB
  0
ENDTAB
  0
TABLE
  2
STYLE
  5
42FB
330
0
100
AcDbSymbolTable
 70
     1
  0
STYLE
  5
4309
330
42FB
100
AcDbSymbolTableRecord
100
AcDbTextStyleTableRecord
  2
STANDARD
 70
     0
 40
0.0
 41
1.0
 50
0.0
 71
     0
 42
2.5
  3
txt
  4

  0
ENDTAB
  0
TABLE
  2
VIEW
  5
42FE
330
0
100
AcDbSymbolTable
 70
     0
  0
ENDTAB
  0
TABLE
  2
UCS
  5
42FF
330
0
100
AcDbSymbolTable
 70
     0
  0
ENDTAB
  0
TABLE
  2
APPID
  5
4301
330
0
100
AcDbSymbolTable
 70
     7
  0
APPID
  5
430A
330
4301
100
AcDbSymbolTableRecord
100
AcDbRegAppTableRecord
  2
ACAD
 70
     0
  0
APPID
  5
4325
330
4301
100
AcDbSymbolTableRecord
100
AcDbRegAppTableRecord
  2
CONTENTTABDATA
 70
     0
  0
APPID
  5
4326
330
4301
100
AcDbSymbolTableRecord
100
AcDbRegAppTableRecord
  2
CONTENTCURRENTTAB
 70
     0
  0
APPID
  5
4327
330
4301
100
AcDbSymbolTableRecord
100
AcDbRegAppTableRecord
  2
CONTENTBLOCKDESCRIPTION
 70
     0
  0
APPID
  5
4328
330
4301
100
AcDbSymbolTableRecord
100
AcDbRegAppTableRecord
  2
CONTENTBLOCKICON
 70
     0
  0
APPID
  5
5347
330
4301
100
AcDbSymbolTableRecord
100
AcDbRegAppTableRecord
  2
ACAD_NAV_VCDISPLAY
 70
     0
  0
APPID
  5
5380
330
4301
100
AcDbSymbolTableRecord
100
AcDbRegAppTableRecord
  2
ACAD_MLEADERVER
 70
     0
  0
ENDTAB
  0
TABLE
  2
DIMSTYLE
  5
4302
330
0
100
AcDbSymbolTable
 70
     1
100
AcDbDimStyleTable
 71
     0
  0
DIMSTYLE
105
4329
330
4302
100
AcDbSymbolTableRecord
100
AcDbDimStyleTableRecord
  2
STANDARD
 70
     0
 41
3.0
 42
1.0
 43
10.0
 44
1.0
 73
     0
 74
     0
 77
     3
 78
     8
140
2.5
141
0.0
147
1.0
172
     1
173
     1
284
     8
285
     8
286
     8
340
4309
  0
ENDTAB
  0
TABLE
  2
BLOCK_RECORD
  5
42F9
330
0
100
AcDbSymbolTable
 70
     1
  0
BLOCK_RECORD
  5
4316
102
{ACAD_XDICTIONARY
360
47E4
102
}
330
42F9
100
AcDbSymbolTableRecord
100
AcDbBlockTableRecord
  2
*MODEL_SPACE
340
5329
  0
BLOCK_RECORD
  5
4312
102
{ACAD_XDICTIONARY
360
47E2
102
}
330
42F9
100
AcDbSymbolTableRecord
100
AcDbBlockTableRecord
  2
*PAPER_SPACE
340
532A
  0
BLOCK_RECORD
  5
4331
330
42F9
100
AcDbSymbolTableRecord
100
AcDbBlockTableRecord
  2
_OPEN
340
0
  0
ENDTAB
  0
ENDSEC
  0
SECTION
  2
BLOCKS
  0
BLOCK
  5
4317
330
4316
100
AcDbEntity
  8
0
100
AcDbBlockBegin
  2
*MODEL_SPACE
 70
     0
 10
0.0
 20
0.0
 30
0.0
  3
*MODEL_SPACE
  1

  0
ENDBLK
  5
4318
330
4316
100
AcDbEntity
  8
0
100
AcDbBlockEnd
  0
BLOCK
  5
4313
330
4312
100
AcDbEntity
 67
     1
  8
0
100
AcDbBlockBegin
  2
*PAPER_SPACE
 70
     0
 10
0.0
 20
0.0
 30
0.0
  3
*PAPER_SPACE
  1

  0
ENDBLK
  5
4314
330
4312
100
AcDbEntity
 67
     1
  8
0
100
AcDbBlockEnd
  0
BLOCK
  5
4332
330
4331
100
AcDbEntity
  8
0
100
AcDbBlockBegin
  2
_OPEN
 70
     0
 10
0.0
 20
0.0
 30
0.0
  3
_OPEN
  1

  0
LINE
  5
4333
330
4331
100
AcDbEntity
  8
0
  6
ByBlock
 62
     0
100
AcDbLine
 10
-1.0
 20
0.166667
 30
0.0
 11
0.0
 21
0.0
 31
0.0
  0
LINE
  5
4334
330
4331
100
AcDbEntity
  8
0
  6
ByBlock
 62
     0
100
AcDbLine
 10
0.0
 20
0.0
 30
0.0
 11
-1.0
 21
-0.166667
 31
0.0
  0
LINE
  5
4335
330
4331
100
AcDbEntity
  8
0
  6
ByBlock
 62
     0
100
AcDbLine
 10
0.0
 20
0.0
 30
0.0
 11
-1.0
 21
0.0
 31
0.0
  0
ENDBLK
  5
4336
330
4331
100
AcDbEntity
  8
0
100
AcDbBlockEnd
  0
ENDSEC
  0
SECTION
  2
ENTITIES
  0
TEXT
  5
4337
330
4316
100
AcDbEntity
  8
4
  6
CENTER
100
AcDbText
 10
23.979509
 20
10.048738
 30
0.0
 40
1.399999999999999
  1
4
100
AcDbText
  0
TEXT
  5
4338
330
4316
100
AcDbEntity
  8
7
  6
Continuous
100
AcDbText
 10
9.999997999999999
 20
26.000001
 30
0.0
 40
3.0
  1
CODE No.1159
100
AcDbText
  0
TEXT
  5
4339
330
4316
100
AcDbEntity
  8
7
  6
Continuous
100
AcDbText
 10
9.999997999999999
 20
18.000001
 30
0.0
 40
3.0
  1
TYPE No.TL-322
100
AcDbText
  0
TEXT
  5
433A
330
4316
100
AcDbEntity
  8
1
  6
Continuous
100
AcDbText
 10
9.999997999999999
 20
10.000001
 30
0.0
 40
1.399999999999999
  1
LAYER
100
AcDbText
  0
TEXT
  5
433B
330
4316
100
AcDbEntity
  8
2
  6
Continuous
100
AcDbText
 10
19.979509
 20
10.048738
 30
0.0
 40
1.399999999999999
  1
2
100
AcDbText
  0
TEXT
  5
433C
330
4316
100
AcDbEntity
  8
3
  6
DASHED
100
AcDbText
 10
21.97950899999999
 20
10.048738
 30
0.0
 40
1.399999999999999
  1
3
100
AcDbText
  0
TEXT
  5
433D
330
4316
100
AcDbEntity
  8
1
  6
Continuous
100
AcDbText
 10
17.979509
 20
10.048738
 30
0.0
 40
1.399999999999999
  1
1
100
AcDbText
  0
TEXT
  5
433E
330
4316
100
AcDbEntity
  8
5
  6
PHANTOM
 48
0.1
100
AcDbText
 10
25.979509
 20
10.048738
 30
0.0
 40
1.399999999999999
  1
5
100
AcDbText
  0
TEXT
  5
433F
330
4316
100
AcDbEntity
  8
6
  6
Continuous
100
AcDbText
 10
27.979509
 20
10.048738
 30
0.0
 40
1.399999999999999
  1
6
100
AcDbText
  0
TEXT
  5
4340
330
4316
100
AcDbEntity
  8
7
  6
Continuous
100
AcDbText
 10
29.97950900000001
 20
10.048738
 30
0.0
 40
1.399999999999999
  1
7
100
AcDbText
  0
LINE
  5
4341
330
4316
100
AcDbEntity
  8
1
  6
Continuous
100
AcDbLine
 10
260.25
 20
209.543181
 30
0.0
 11
282.25
 21
209.543181
 31
0.0
  0
LINE
  5
4342
330
4316
100
AcDbEntity
  8
1
  6
Continuous
100
AcDbLine
 10
260.25
 20
199.543181
 30
0.0
 11
262.25
 21
199.543181
 31
0.0
  0
LINE
  5
4343
330
4316
100
AcDbEntity
  8
1
  6
Continuous
100
AcDbLine
 10
264.25
 20
208.543181
 30
0.0
 11
264.25
 21
200.543181
 31
0.0
  0
LINE
  5
4344
330
4316
100
AcDbEntity
  8
1
  6
Continuous
100
AcDbLine
 10
282.25
 20
199.543181
 30
0.0
 11
280.25
 21
199.543181
 31
0.0
  0
LINE
  5
4345
330
4316
100
AcDbEntity
  8
1
  6
Continuous
100
AcDbLine
 10
278.25
 20
208.543181
 30
0.0
 11
278.25
 21
200.543181
 31
0.0
  0
LINE
  5
4346
330
4316
100
AcDbEntity
  8
1
  6
Continuous
100
AcDbLine
 10
278.25
 20
200.543181
 30
0.0
 11
264.25
 21
200.543181
 31
0.0
  0
LINE
  5
4347
330
4316
100
AcDbEntity
  8
1
  6
Continuous
100
AcDbLine
 10
264.25
 20
201.5431809999999
 30
0.0
 11
262.25
 21
199.543181
 31
0.0
  0
LINE
  5
4348
330
4316
100
AcDbEntity
  8
1
  6
Continuous
100
AcDbLine
 10
278.25
 20
201.5431809999999
 30
0.0
 11
280.25
 21
199.543181
 31
0.0
  0
LINE
  5
4349
330
4316
100
AcDbEntity
  8
4
  6
CENTER
 48
0.2
100
AcDbLine
 10
282.25
 20
210.543181
 30
0.0
 11
282.25
 21
198.543181
 31
0.0
  0
LINE
  5
434A
330
4316
100
AcDbEntity
  8
4
  6
CENTER
 48
0.2
100
AcDbLine
 10
260.25
 20
210.543181
 30
0.0
 11
260.25
 21
198.543181
 31
0.0
  0
ARC
  5
434B
330
4316
100
AcDbEntity
  8
1
  6
Continuous
100
AcDbCircle
 10
265.2499999999998
 20
208.543181
 30
0.0
 40
1.0
100
AcDbArc
 50
90.0
 51
180.0
  0
ARC
  5
434C
330
4316
100
AcDbEntity
  8
1
  6
Continuous
100
AcDbCircle
 10
277.2499999999999
 20
208.543181
 30
0.0
 40
1.0
100
AcDbArc
 50
0.0
 51
90.0
  0
LINE
  5
434D
330
4316
100
AcDbEntity
  8
4
  6
CENTER
 48
0.2
100
AcDbLine
 10
253.75
 20
204.543181
 30
0.0
 11
288.75
 21
204.543181
 31
0.0
  0
CIRCLE
  5
434E
330
4316
100
AcDbEntity
  8
1
  6
Continuous
100
AcDbCircle
 10
260.25
 20
204.543181
 30
0.0
 40
2.149999999999999
  0
CIRCLE
  5
434F
330
4316
100
AcDbEntity
  8
1
  6
Continuous
100
AcDbCircle
 10
260.25
 20
204.543181
 30
0.0
 40
4.0
  0
ARC
  5
4350
330
4316
100
AcDbEntity
  8
1
  6
Continuous
100
AcDbCircle
 10
260.25
 20
204.543181
 30
0.0
 40
5.0
100
AcDbArc
 50
90.0
 51
270.0
  0
CIRCLE
  5
4351
330
4316
100
AcDbEntity
  8
1
  6
Continuous
100
AcDbCircle
 10
282.25
 20
204.543181
 30
0.0
 40
2.149999999999999
  0
CIRCLE
  5
4352
330
4316
100
AcDbEntity
  8
1
  6
Continuous
100
AcDbCircle
 10
282.25
 20
204.543181
 30
0.0
 40
4.0
  0
ARC
  5
4353
330
4316
100
AcDbEntity
  8
1
  6
Continuous
100
AcDbCircle
 10
282.25
 20
204.543181
 30
0.0
 40
5.0
100
AcDbArc
 50
270.0
 51
90.0
  0
LINE
  5
4354
330
4316
100
AcDbEntity
  8
4
  6
CENTER
 48
0.2
100
AcDbLine
 10
271.2499999999999
 20
197.2334149999998
 30
0.0
 11
271.2499999999999
 21
211.525386
 31
0.0
  0
LINE
  5
4355
330
4316
100
AcDbEntity
  8
1
  6
Continuous
100
AcDbLine
 10
214.6999999999999
 20
189.543181
 30
0.0
 11
227.8
 21
189.543181
 31
0.0
  0
LINE
  5
4356
330
4316
100
AcDbEntity
  8
1
  6
Continuous
100
AcDbLine
 10
214.6999999999999
 20
189.543181
 30
0.0
 11
214.6999999999999
 21
178.4898239999999
 31
0.0
  0
LINE
  5
4357
330
4316
100
AcDbEntity
  8
1
  6
Continuous
100
AcDbLine
 10
209.25
 20
164.793181
 30
0.0
 11
209.25
 21
161.7931809999998
 31
0.0
  0
LINE
  5
4358
330
4316
100
AcDbEntity
  8
4
  6
CENTER
 48
0.1
100
AcDbLine
 10
207.75
 20
163.043181
 30
0.0
 11
211.75
 21
163.043181
 31
0.0
  0
LINE
  5
4359
330
4316
100
AcDbEntity
  8
1
  6
Continuous
100
AcDbLine
 10
209.25
 20
161.7931809999998
 30
0.0
 11
210.25
 21
161.7931809999998
 31
0.0
  0
LINE
  5
435A
330
4316
100
AcDbEntity
  8
4
  6
CENTER
 48
0.1
100
AcDbLine
 10
234.75
 20
163.043181
 30
0.0
 11
230.75
 21
163.043181
 31
0.0
  0
LINE
  5
435B
330
4316
100
AcDbEntity
  8
1
  6
Continuous
100
AcDbLine
 10
233.25
 20
161.7931809999998
 30
0.0
 11
232.25
 21
161.7931809999998
 31
0.0
  0
LINE
  5
435C
330
4316
100
AcDbEntity
  8
1
  6
Continuous
100
AcDbLine
 10
233.25
 20
164.793181
 30
0.0
 11
233.25
 21
161.7931809999998
 31
0.0
  0
LINE
  5
435D
330
4316
100
AcDbEntity
  8
1
  6
Continuous
100
AcDbLine
 10
227.8
 20
189.543181
 30
0.0
 11
227.8
 21
178.4898239999999
 31
0.0
  0
LINE
  5
435E
330
4316
100
AcDbEntity
  8
1
  6
Continuous
100
AcDbLine
 10
214.25
 20
184.043181
 30
0.0
 11
214.6999999999999
 21
184.043181
 31
0.0
  0
LINE
  5
435F
330
4316
100
AcDbEntity
  8
1
  6
Continuous
100
AcDbLine
 10
233.25
 20
163.543181
 30
0.0
 11
234.5
 21
163.543181
 31
0.0
  0
LINE
  5
4360
330
4316
100
AcDbEntity
  8
1
  6
Continuous
100
AcDbLine
 10
234.5
 20
207.293181
 30
0.0
 11
232.5
 21
207.293181
 31
0.0
  0
LINE
  5
4361
330
4316
100
AcDbEntity
  8
1
  6
Continuous
100
AcDbLine
 10
232.5
 20
207.293181
 30
0.0
 11
232.5
 21
198.543181
 31
0.0
  0
LINE
  5
4362
330
4316
100
AcDbEntity
  8
1
  6
Continuous
100
AcDbLine
 10
234.5
 20
207.293181
 30
0.0
 11
234.5
 21
198.543181
 31
0.0
  0
LINE
  5
4363
330
4316
100
AcDbEntity
  8
1
  6
Continuous
100
AcDbLine
 10
208.0
 20
195.0431809999997
 30
0.0
 11
210.0
 21
195.0431809999997
 31
0.0
  0
LINE
  5
4364
330
4316
100
AcDbEntity
  8
1
  6
Continuous
100
AcDbLine
 10
208.0
 20
207.293181
 30
0.0
 11
208.0
 21
198.543181
 31
0.0
  0
LINE
  5
4365
330
4316
100
AcDbEntity
  8
1
  6
Continuous
100
AcDbLine
 10
208.0
 20
198.543181
 30
0.0
 11
208.0
 21
198.543181
 31
0.0
  0
LINE
  5
4366
330
4316
100
AcDbEntity
  8
1
  6
Continuous
100
AcDbLine
 10
210.0
 20
207.293181
 30
0.0
 11
210.0
 21
198.543181
 31
0.0
  0
LINE
  5
4367
330
4316
100
AcDbEntity
  8
1
  6
Continuous
100
AcDbLine
 10
208.0
 20
207.293181
 30
0.0
 11
210.0
 21
207.293181
 31
0.0
  0
LINE
  5
4368
330
4316
100
AcDbEntity
  8
1
  6
Continuous
100
AcDbLine
 10
214.25
 20
184.043181
 30
0.0
 11
214.25
 21
187.043181
 31
0.0
  0
LINE
  5
4369
330
4316
100
AcDbEntity
  8
1
  6
Continuous
100
AcDbLine
 10
228.25
 20
184.043181
 30
0.0
 11
228.25
 21
187.043181
 31
0.0
  0
LINE
  5
436A
330
4316
100
AcDbEntity
  8
1
  6
Continuous
100
AcDbLine
 10
227.8
 20
184.043181
 30
0.0
 11
228.25
 21
184.043181
 31
0.0
  0
LINE
  5
436B
330
4316
100
AcDbEntity
  8
1
  6
Continuous
100
AcDbLine
 10
214.25
 20
187.043181
 30
0.0
 11
214.6999999999999
 21
187.043181
 31
0.0
  0
LINE
  5
436C
330
4316
100
AcDbEntity
  8
1
  6
Continuous
100
AcDbLine
 10
227.8
 20
187.043181
 30
0.0
 11
228.25
 21
187.043181
 31
0.0
  0
LINE
  5
436D
330
4316
100
AcDbEntity
  8
1
  6
Continuous
100
AcDbLine
 10
209.25
 20
163.543181
 30
0.0
 11
208.0
 21
163.543181
 31
0.0
  0
LINE
  5
436E
330
4316
100
AcDbEntity
  8
1
  6
Continuous
100
AcDbLine
 10
209.25
 20
164.793181
 30
0.0
 11
210.25
 21
164.793181
 31
0.0
  0
LINE
  5
436F
330
4316
100
AcDbEntity
  8
1
  6
Continuous
100
AcDbLine
 10
233.25
 20
164.793181
 30
0.0
 11
232.25
 21
164.793181
 31
0.0
  0
LINE
  5
4370
330
4316
100
AcDbEntity
  8
4
  6
CENTER
 48
0.2
100
AcDbLine
 10
205.75
 20
167.043181
 30
0.0
 11
236.75
 21
167.043181
 31
0.0
  0
LINE
  5
4371
330
4316
100
AcDbEntity
  8
4
  6
CENTER
 48
0.2
100
AcDbLine
 10
212.7499999999999
 20
185.5431809999998
 30
0.0
 11
229.7499999999998
 21
185.5431809999998
 31
0.0
  0
LINE
  5
4372
330
4316
100
AcDbEntity
  8
1
  6
Continuous
100
AcDbLine
 10
209.75
 20
199.016809
 30
0.0
 11
208.25
 21
199.016809
 31
0.0
  0
LINE
  5
4373
330
4316
100
AcDbEntity
  8
4
  6
CENTER
 48
0.2
100
AcDbLine
 10
221.2499999999999
 20
131.5431809999997
 30
0.0
 11
221.2499999999999
 21
209.543181
 31
0.0
  0
LINE
  5
4374
330
4316
100
AcDbEntity
  8
1
  6
Continuous
100
AcDbLine
 10
207.4133349999999
 20
202.893181
 30
0.0
 11
208.0
 21
202.893181
 31
0.0
  0
LINE
  5
4375
330
4316
100
AcDbEntity
  8
1
  6
Continuous
100
AcDbLine
 10
207.4133349999999
 20
206.1931809999999
 30
0.0
 11
208.0
 21
206.1931809999999
 31
0.0
  0
ARC
  5
4376
330
4316
100
AcDbEntity
  8
1
  6
Continuous
100
AcDbCircle
 10
210.4999999999999
 20
204.543181
 30
0.0
 40
3.5
100
AcDbArc
 50
151.872932
 51
208.1270679999999
  0
LINE
  5
4377
330
4316
100
AcDbEntity
  8
1
  6
Continuous
100
AcDbLine
 10
235.086664
 20
202.893181
 30
0.0
 11
234.5
 21
202.893181
 31
0.0
  0
ARC
  5
4378
330
4316
100
AcDbEntity
  8
1
  6
Continuous
100
AcDbCircle
 10
232.0
 20
204.543181
 30
0.0
 40
3.5
100
AcDbArc
 50
331.872932
 51
28.127068
  0
LINE
  5
4379
330
4316
100
AcDbEntity
  8
1
  6
Continuous
100
AcDbLine
 10
235.086664
 20
206.1931809999999
 30
0.0
 11
234.5
 21
206.1931809999999
 31
0.0
  0
LINE
  5
437A
330
4316
100
AcDbEntity
  8
1
  6
Continuous
100
AcDbLine
 10
207.6633349999999
 20
165.393181
 30
0.0
 11
208.0
 21
165.393181
 31
0.0
  0
ARC
  5
437B
330
4316
100
AcDbEntity
  8
1
  6
Continuous
100
AcDbCircle
 10
210.7499999999999
 20
167.043181
 30
0.0
 40
3.5
100
AcDbArc
 50
151.872932
 51
208.1270679999999
  0
LINE
  5
437C
330
4316
100
AcDbEntity
  8
1
  6
Continuous
100
AcDbLine
 10
207.6633349999999
 20
168.693181
 30
0.0
 11
208.0
 21
168.693181
 31
0.0
  0
LINE
  5
437D
330
4316
100
AcDbEntity
  8
1
  6
Continuous
100
AcDbLine
 10
234.836664
 20
165.393181
 30
0.0
 11
234.5
 21
165.393181
 31
0.0
  0
ARC
  5
437E
330
4316
100
AcDbEntity
  8
1
  6
Continuous
100
AcDbCircle
 10
231.7499999999999
 20
167.043181
 30
0.0
 40
3.5
100
AcDbArc
 50
331.872932
 51
28.127068
  0
LINE
  5
437F
330
4316
100
AcDbEntity
  8
1
  6
Continuous
100
AcDbLine
 10
234.836664
 20
168.693181
 30
0.0
 11
234.5
 21
168.693181
 31
0.0
  0
LINE
  5
4380
330
4316
100
AcDbEntity
  8
4
  6
CENTER
 48
0.2
100
AcDbLine
 10
205.5
 20
204.543181
 30
0.0
 11
237.0
 21
204.543181
 31
0.0
  0
LINE
  5
4381
330
4316
100
AcDbEntity
  8
1
  6
Continuous
100
AcDbLine
 10
210.0
 20
202.543181
 30
0.0
 11
232.5
 21
202.543181
 31
0.0
  0
LINE
  5
4382
330
4316
100
AcDbEntity
  8
1
  6
Continuous
100
AcDbLine
 10
210.0
 20
206.543181
 30
0.0
 11
232.5
 21
206.543181
 31
0.0
  0
LINE
  5
4383
330
4316
100
AcDbEntity
  8
1
  6
Continuous
100
AcDbLine
 10
210.0
 20
192.043181
 30
0.0
 11
210.0
 21
195.0431809999997
 31
0.0
  0
LINE
  5
4384
330
4316
100
AcDbEntity
  8
1
  6
Continuous
100
AcDbLine
 10
206.0
 20
192.043181
 30
0.0
 11
206.0
 21
196.543181
 31
0.0
  0
LINE
  5
4385
330
4316
100
AcDbEntity
  8
1
  6
Continuous
100
AcDbLine
 10
208.0
 20
192.043181
 30
0.0
 11
208.0
 21
196.543181
 31
0.0
  0
LINE
  5
4386
330
4316
100
AcDbEntity
  8
1
  6
Continuous
100
AcDbLine
 10
208.0
 20
163.543181
 30
0.0
 11
208.0
 21
179.543181
 31
0.0
  0
LINE
  5
4387
330
4316
100
AcDbEntity
  8
1
  6
Continuous
100
AcDbLine
 10
234.5
 20
163.543181
 30
0.0
 11
234.5
 21
179.543181
 31
0.0
  0
LINE
  5
4388
330
4316
100
AcDbEntity
  8
1
  6
Continuous
100
AcDbLine
 10
232.5
 20
179.543181
 30
0.0
 11
232.5
 21
164.793181
 31
0.0
  0
LINE
  5
4389
330
4316
100
AcDbEntity
  8
1
  6
Continuous
100
AcDbLine
 10
232.25
 20
165.043181
 30
0.0
 11
232.5
 21
165.043181
 31
0.0
  0
LINE
  5
438A
330
4316
100
AcDbEntity
  8
1
  6
Continuous
100
AcDbLine
 10
232.25
 20
169.0431809999997
 30
0.0
 11
232.5
 21
169.0431809999997
 31
0.0
  0
LINE
  5
438B
330
4316
100
AcDbEntity
  8
1
  6
Continuous
100
AcDbLine
 10
210.0
 20
179.730037
 30
0.0
 11
210.0
 21
164.793181
 31
0.0
  0
LINE
  5
438C
330
4316
100
AcDbEntity
  8
1
  6
Continuous
100
AcDbLine
 10
210.0
 20
165.043181
 30
0.0
 11
210.25
 21
165.043181
 31
0.0
  0
LINE
  5
438D
330
4316
100
AcDbEntity
  8
1
  6
Continuous
100
AcDbLine
 10
210.0
 20
169.0431809999997
 30
0.0
 11
210.25
 21
169.0431809999997
 31
0.0
  0
LINE
  5
438E
330
4316
100
AcDbEntity
  8
1
  6
Continuous
100
AcDbLine
 10
208.65
 20
161.543181
 30
0.0
 11
233.8499999999999
 21
161.543181
 31
0.0
  0
LINE
  5
438F
330
4316
100
AcDbEntity
  8
1
  6
Continuous
100
AcDbLine
 10
208.65
 20
143.0431809999998
 30
0.0
 11
233.8499999999999
 21
143.0431809999998
 31
0.0
  0
LINE
  5
4390
330
4316
100
AcDbEntity
  8
1
  6
Continuous
100
AcDbLine
 10
233.8499999999999
 20
143.0431809999998
 30
0.0
 11
233.8499999999999
 21
161.543181
 31
0.0
  0
LINE
  5
4391
330
4316
100
AcDbEntity
  8
1
  6
Continuous
100
AcDbLine
 10
208.65
 20
143.0431809999998
 30
0.0
 11
208.65
 21
161.543181
 31
0.0
  0
LINE
  5
4392
330
4316
100
AcDbEntity
  8
1
  6
Continuous
100
AcDbLine
 10
217.208548
 20
153.043181
 30
0.0
 11
225.2914509999999
 21
153.043181
 31
0.0
  0
LINE
  5
4393
330
4316
100
AcDbEntity
  8
1
  6
Continuous
100
AcDbLine
 10
221.2499999999999
 20
146.043181
 30
0.0
 11
225.2914509999999
 21
153.043181
 31
0.0
  0
LINE
  5
4394
330
4316
100
AcDbEntity
  8
1
  6
Continuous
100
AcDbLine
 10
221.2499999999999
 20
146.043181
 30
0.0
 11
217.208548
 21
153.043181
 31
0.0
  0
LINE
  5
4395
330
4316
100
AcDbEntity
  8
1
  6
Continuous
100
AcDbLine
 10
210.25
 20
139.543181
 30
0.0
 11
210.25
 21
143.0431809999998
 31
0.0
  0
LINE
  5
4396
330
4316
100
AcDbEntity
  8
1
  6
Continuous
100
AcDbLine
 10
210.25
 20
161.543181
 30
0.0
 11
210.25
 21
170.724677
 31
0.0
  0
LINE
  5
4397
330
4316
100
AcDbEntity
  8
1
  6
Continuous
100
AcDbLine
 10
232.25
 20
139.543181
 30
0.0
 11
232.25
 21
143.0431809999998
 31
0.0
  0
LINE
  5
4398
330
4316
100
AcDbEntity
  8
1
  6
Continuous
100
AcDbLine
 10
232.25
 20
161.543181
 30
0.0
 11
232.25
 21
170.724677
 31
0.0
  0
LINE
  5
4399
330
4316
100
AcDbEntity
  8
1
  6
Continuous
100
AcDbLine
 10
207.65
 20
147.543181
 30
0.0
 11
208.65
 21
147.543181
 31
0.0
  0
LINE
  5
439A
330
4316
100
AcDbEntity
  8
1
  6
Continuous
100
AcDbLine
 10
207.65
 20
152.543181
 30
0.0
 11
208.65
 21
152.543181
 31
0.0
  0
LINE
  5
439B
330
4316
100
AcDbEntity
  8
1
  6
Continuous
100
AcDbLine
 10
207.65
 20
147.543181
 30
0.0
 11
207.65
 21
152.543181
 31
0.0
  0
LINE
  5
439C
330
4316
100
AcDbEntity
  8
4
  6
CENTER
 48
0.2
100
AcDbLine
 10
203.65
 20
150.043181
 30
0.0
 11
239.8499999999999
 21
150.043181
 31
0.0
  0
LINE
  5
439D
330
4316
100
AcDbEntity
  8
4
  6
CENTER
 48
0.2
100
AcDbLine
 10
226.75
 20
159.543181
 30
0.0
 11
215.75
 21
159.543181
 31
0.0
  0
LINE
  5
439E
330
4316
100
AcDbEntity
  8
4
  6
CENTER
 48
0.2
100
AcDbLine
 10
226.75
 20
173.543181
 30
0.0
 11
215.75
 21
173.543181
 31
0.0
  0
ARC
  5
439F
330
4316
100
AcDbEntity
  8
1
  6
Continuous
100
AcDbCircle
 10
232.5166659999999
 20
150.043181
 30
0.0
 40
2.833333
100
AcDbArc
 50
298.072487
 51
61.92751300000002
  0
ARC
  5
43A0
330
4316
100
AcDbEntity
  8
1
  6
Continuous
100
AcDbCircle
 10
234.8
 20
178.4898239999999
 30
0.0
 40
7.0
100
AcDbArc
 50
180.0
 51
239.631762
  0
ARC
  5
43A1
330
4316
100
AcDbEntity
  8
1
  6
Continuous
100
AcDbCircle
 10
230.25
 20
170.724677
 30
0.0
 40
2.0
100
AcDbArc
 50
0.0
 51
59.631762
  0
ARC
  5
43A2
330
4316
100
AcDbEntity
  8
1
  6
Continuous
100
AcDbCircle
 10
207.6999999999999
 20
178.4898239999999
 30
0.0
 40
7.0
100
AcDbArc
 50
300.3682379999998
 51
0.0
  0
ARC
  5
43A3
330
4316
100
AcDbEntity
  8
1
  6
Continuous
100
AcDbCircle
 10
212.25
 20
170.724677
 30
0.0
 40
2.0
100
AcDbArc
 50
120.368238
 51
180.0
  0
LINE
  5
43A4
330
4316
100
AcDbEntity
  8
1
  6
Continuous
100
AcDbLine
 10
211.75
 20
135.9573949999999
 30
0.0
 11
211.75
 21
139.543181
 31
0.0
  0
LINE
  5
43A5
330
4316
100
AcDbEntity
  8
1
  6
Continuous
100
AcDbLine
 10
213.75
 20
134.543181
 30
0.0
 11
228.75
 21
134.543181
 31
0.0
  0
LINE
  5
43A6
330
4316
100
AcDbEntity
  8
1
  6
Continuous
100
AcDbLine
 10
230.75
 20
135.9573949999999
 30
0.0
 11
230.75
 21
139.543181
 31
0.0
  0
LINE
  5
43A7
330
4316
100
AcDbEntity
  8
1
  6
Continuous
100
AcDbLine
 10
210.25
 20
139.543181
 30
0.0
 11
211.75
 21
139.543181
 31
0.0
  0
LINE
  5
43A8
330
4316
100
AcDbEntity
  8
1
  6
Continuous
100
AcDbLine
 10
230.75
 20
139.543181
 30
0.0
 11
232.25
 21
139.543181
 31
0.0
  0
LINE
  5
43A9
330
4316
100
AcDbEntity
  8
1
  6
Continuous
100
AcDbLine
 10
212.25
 20
163.043181
 30
0.0
 11
230.25
 21
163.043181
 31
0.0
  0
LINE
  5
43AA
330
4316
100
AcDbEntity
  8
1
  6
Continuous
100
AcDbLine
 10
212.25
 20
161.543181
 30
0.0
 11
212.25
 21
163.043181
 31
0.0
  0
LINE
  5
43AB
330
4316
100
AcDbEntity
  8
1
  6
Continuous
100
AcDbLine
 10
230.25
 20
161.543181
 30
0.0
 11
230.25
 21
163.043181
 31
0.0
  0
LINE
  5
43AC
330
4316
100
AcDbEntity
  8
1
  6
Continuous
100
AcDbLine
 10
213.75
 20
137.743181
 30
0.0
 11
228.75
 21
137.743181
 31
0.0
  0
LINE
  5
43AD
330
4316
100
AcDbEntity
  8
1
  6
Continuous
100
AcDbLine
 10
213.911432
 20
135.6038409999999
 30
0.0
 11
228.5885669999999
 21
135.6038409999999
 31
0.0
  0
POLYLINE
  5
43AE
330
4316
100
AcDbEntity
  8
1
  6
Continuous
100
AcDb2dPolyline
 66
     1
 10
0.0
 20
0.0
 30
0.0
 70
     2
  0
VERTEX
  5
43AF
330
43AE
100
AcDbEntity
  8
1
  6
Continuous
100
AcDbVertex
100
AcDb2dVertex
 10
211.75
 20
137.018055
 30
0.0
 42
0.146763
  0
VERTEX
  5
43B0
330
43AE
100
AcDbEntity
  8
1
  6
Continuous
100
AcDbVertex
100
AcDb2dVertex
 10
211.914529
 20
136.4768589999999
 30
0.0
 42
0.111376
  0
VERTEX
  5
43B1
330
43AE
100
AcDbEntity
  8
1
  6
Continuous
100
AcDbVertex
100
AcDb2dVertex
 10
212.383069
 20
136.018055
 30
0.0
 42
0.08081
  0
VERTEX
  5
43B2
330
43AE
100
AcDbEntity
  8
1
  6
Continuous
100
AcDbVertex
100
AcDb2dVertex
 10
213.0842879999999
 20
135.7114919999999
 30
0.0
 42
0.06661
  0
VERTEX
  5
43B3
330
43AE
100
AcDbEntity
  8
1
  6
Continuous
100
AcDbVertex
100
AcDb2dVertex
 10
213.911432
 20
135.6038409999999
 30
0.0
  0
SEQEND
  5
43B4
330
43AE
100
AcDbEntity
  8
1
  6
Continuous
  0
POLYLINE
  5
43B5
330
4316
100
AcDbEntity
  8
1
  6
Continuous
100
AcDb2dPolyline
 66
     1
 10
0.0
 20
0.0
 30
0.0
 70
     2
  0
VERTEX
  5
43B6
330
43B5
100
AcDbEntity
  8
1
  6
Continuous
100
AcDbVertex
100
AcDb2dVertex
 10
228.5885669999999
 20
135.6038409999999
 30
0.0
 42
0.065158
  0
VERTEX
  5
43B7
330
43B5
100
AcDbEntity
  8
1
  6
Continuous
100
AcDbVertex
100
AcDb2dVertex
 10
229.4157109999999
 20
135.7114919999999
 30
0.0
 42
0.075859
  0
VERTEX
  5
43B8
330
43B5
100
AcDbEntity
  8
1
  6
Continuous
100
AcDbVertex
100
AcDb2dVertex
 10
230.116931
 20
136.018055
 30
0.0
 42
0.102185
  0
VERTEX
  5
43B9
330
43B5
100
AcDbEntity
  8
1
  6
Continuous
100
AcDbVertex
100
AcDb2dVertex
 10
230.5854699999999
 20
136.4768589999999
 30
0.0
 42
0.139896
  0
VERTEX
  5
43BA
330
43B5
100
AcDbEntity
  8
1
  6
Continuous
100
AcDbVertex
100
AcDb2dVertex
 10
230.75
 20
137.018055
 30
0.0
  0
SEQEND
  5
43BB
330
43B5
100
AcDbEntity
  8
1
  6
Continuous
  0
POLYLINE
  5
43BC
330
4316
100
AcDbEntity
  8
1
  6
Continuous
100
AcDb2dPolyline
 66
     1
 10
0.0
 20
0.0
 30
0.0
 70
     2
  0
VERTEX
  5
43BD
330
43BC
100
AcDbEntity
  8
1
  6
Continuous
100
AcDbVertex
100
AcDb2dVertex
 10
211.75
 20
135.9573949999999
 30
0.0
 42
0.146763
  0
VERTEX
  5
43BE
330
43BC
100
AcDbEntity
  8
1
  6
Continuous
100
AcDbVertex
100
AcDb2dVertex
 10
211.914529
 20
135.416198
 30
0.0
 42
0.111376
  0
VERTEX
  5
43BF
330
43BC
100
AcDbEntity
  8
1
  6
Continuous
100
AcDbVertex
100
AcDb2dVertex
 10
212.383069
 20
134.9573949999999
 30
0.0
 42
0.08081
  0
VERTEX
  5
43C0
330
43BC
100
AcDbEntity
  8
1
  6
Continuous
100
AcDbVertex
100
AcDb2dVertex
 10
213.0842879999999
 20
134.650832
 30
0.0
 42
0.06661
  0
VERTEX
  5
43C1
330
43BC
100
AcDbEntity
  8
1
  6
Continuous
100
AcDbVertex
100
AcDb2dVertex
 10
213.911432
 20
134.543181
 30
0.0
  0
SEQEND
  5
43C2
330
43BC
100
AcDbEntity
  8
1
  6
Continuous
  0
POLYLINE
  5
43C3
330
4316
100
AcDbEntity
  8
1
  6
Continuous
100
AcDb2dPolyline
 66
     1
 10
0.0
 20
0.0
 30
0.0
 70
     2
  0
VERTEX
  5
43C4
330
43C3
100
AcDbEntity
  8
1
  6
Continuous
100
AcDbVertex
100
AcDb2dVertex
 10
228.5885669999999
 20
134.543181
 30
0.0
 42
0.065158
  0
VERTEX
  5
43C5
330
43C3
100
AcDbEntity
  8
1
  6
Continuous
100
AcDbVertex
100
AcDb2dVertex
 10
229.4157109999999
 20
134.650832
 30
0.0
 42
0.075859
  0
VERTEX
  5
43C6
330
43C3
100
AcDbEntity
  8
1
  6
Continuous
100
AcDbVertex
100
AcDb2dVertex
 10
230.116931
 20
134.9573949999999
 30
0.0
 42
0.102185
  0
VERTEX
  5
43C7
330
43C3
100
AcDbEntity
  8
1
  6
Continuous
100
AcDbVertex
100
AcDb2dVertex
 10
230.5854699999999
 20
135.416198
 30
0.0
 42
0.139896
  0
VERTEX
  5
43C8
330
43C3
100
AcDbEntity
  8
1
  6
Continuous
100
AcDbVertex
100
AcDb2dVertex
 10
230.75
 20
135.9573949999999
 30
0.0
  0
SEQEND
  5
43C9
330
43C3
100
AcDbEntity
  8
1
  6
Continuous
  0
LINE
  5
43CB
330
4316
100
AcDbEntity
  8
1
  6
Continuous
100
AcDbLine
 10
206.0
 20
176.543181
 30
0.0
 11
206.0
 21
179.543181
 31
0.0
  0
LINE
  5
43CC
330
4316
100
AcDbEntity
  8
1
  6
Continuous
100
AcDbLine
 10
206.0
 20
176.543181
 30
0.0
 11
208.0
 21
176.543181
 31
0.0
  0
LINE
  5
43CD
330
4316
100
AcDbEntity
  8
1
  6
Continuous
100
AcDbLine
 10
208.0
 20
196.543181
 30
0.0
 11
208.0
 21
196.543181
 31
0.0
  0
LINE
  5
43D1
330
4316
100
AcDbEntity
  8
4
  6
CENTER
 48
0.1
100
AcDbLine
 10
414.0
 20
204.543181
 30
0.0
 11
419.0
 21
204.543181
 31
0.0
  0
LINE
  5
43D2
330
4316
100
AcDbEntity
  8
1
  6
Continuous
100
AcDbLine
 10
417.4999999999998
 20
209.543181
 30
0.0
 11
417.4999999999998
 21
199.543181
 31
0.0
  0
LINE
  5
43D3
330
4316
100
AcDbEntity
  8
1
  6
Continuous
100
AcDbLine
 10
415.5
 20
209.543181
 30
0.0
 11
415.5
 21
199.543181
 31
0.0
  0
LINE
  5
43D4
330
4316
100
AcDbEntity
  8
1
  6
Continuous
100
AcDbLine
 10
407.5
 20
209.176181
 30
0.0
 11
408.577
 21
203.762181
 31
0.0
  0
LINE
  5
43D5
330
4316
100
AcDbEntity
  8
1
  6
Continuous
100
AcDbLine
 10
409.4669999999998
 20
209.543181
 30
0.0
 11
410.5465979999998
 21
204.113976
 31
0.0
  0
ARC
  5
43D6
330
4316
100
AcDbEntity
  8
1
  6
Continuous
100
AcDbCircle
 10
412.5
 20
204.543181
 30
0.0
 40
4.0
100
AcDbArc
 50
191.249
 51
270.0
  0
LINE
  5
43D7
330
4316
100
AcDbEntity
  8
1
  6
Continuous
100
AcDbLine
 10
415.5
 20
199.543181
 30
0.0
 11
417.4999999999998
 21
199.543181
 31
0.0
  0
LINE
  5
43D8
330
4316
100
AcDbEntity
  8
1
  6
Continuous
100
AcDbLine
 10
412.5
 20
200.543181
 30
0.0
 11
415.0
 21
200.543181
 31
0.0
  0
LINE
  5
43D9
330
4316
100
AcDbEntity
  8
1
  6
Continuous
100
AcDbLine
 10
412.5
 20
202.543181
 30
0.0
 11
415.0
 21
202.543181
 31
0.0
  0
ARC
  5
43DA
330
4316
100
AcDbEntity
  8
1
  6
Continuous
100
AcDbCircle
 10
415.0
 20
203.043181
 30
0.0
 40
0.5
100
AcDbArc
 50
270.0
 51
0.0
  0
ARC
  5
43DB
330
4316
100
AcDbEntity
  8
1
  6
Continuous
100
AcDbCircle
 10
415.0
 20
203.043181
 30
0.0
 40
2.5
100
AcDbArc
 50
270.0
 51
281.5369999999998
  0
ARC
  5
43DC
330
4316
100
AcDbEntity
  8
1
  6
Continuous
100
AcDbCircle
 10
412.5
 20
204.543181
 30
0.0
 40
2.0
100
AcDbArc
 50
190.1008999999999
 51
270.0
  0
LINE
  5
43DD
330
4316
100
AcDbEntity
  8
1
  6
Continuous
100
AcDbLine
 10
415.5
 20
209.543181
 30
0.0
 11
417.4999999999998
 21
209.543181
 31
0.0
  0
LINE
  5
43DE
330
4316
100
AcDbEntity
  8
1
  6
Continuous
100
AcDbLine
 10
407.5
 20
209.176181
 30
0.0
 11
409.4669999999998
 21
209.543181
 31
0.0
  0
LINE
  5
43DF
330
4316
100
AcDbEntity
  8
1
  6
Continuous
100
AcDbLine
 10
365.5
 20
176.543181
 30
0.0
 11
365.5
 21
171.543181
 31
0.0
  0
LINE
  5
43E2
330
4316
100
AcDbEntity
  8
1
  6
Continuous
100
AcDbLine
 10
367.5
 20
189.543181
 30
0.0
 11
367.5
 21
152.043181
 31
0.0
  0
LINE
  5
43E3
330
4316
100
AcDbEntity
  8
1
  6
Continuous
100
AcDbLine
 10
353.5
 20
189.543181
 30
0.0
 11
353.5
 21
161.543181
 31
0.0
  0
CIRCLE
  5
43E4
330
4316
100
AcDbEntity
  8
1
  6
Continuous
100
AcDbCircle
 10
362.0
 20
150.043181
 30
0.0
 40
2.5
  0
LINE
  5
43E5
330
4316
100
AcDbEntity
  8
1
  6
Continuous
100
AcDbLine
 10
367.0
 20
144.543181
 30
0.0
 11
367.0
 21
170.0431809999997
 31
0.0
  0
LINE
  5
43E6
330
4316
100
AcDbEntity
  8
1
  6
Continuous
100
AcDbLine
 10
352.0
 20
161.543181
 30
0.0
 11
352.0
 21
143.0431809999998
 31
0.0
  0
LINE
  5
43E7
330
4316
100
AcDbEntity
  8
4
  6
CENTER
 48
0.2
100
AcDbLine
 10
362.0
 20
141.543181
 30
0.0
 11
362.0
 21
153.543181
 31
0.0
  0
LINE
  5
43E8
330
4316
100
AcDbEntity
  8
1
  6
Continuous
100
AcDbLine
 10
352.0
 20
143.0431809999998
 30
0.0
 11
362.0
 21
143.0431809999998
 31
0.0
  0
LINE
  5
43E9
330
4316
100
AcDbEntity
  8
1
  6
Continuous
100
AcDbLine
 10
353.5
 20
139.543181
 30
0.0
 11
362.0
 21
139.543181
 31
0.0
  0
LINE
  5
43EA
330
4316
100
AcDbEntity
  8
5
  6
PHANTOM
 48
0.1
100
AcDbLine
 10
352.0
 20
138.043181
 30
0.0
 11
362.0
 21
138.043181
 31
0.0
  0
ARC
  5
43EB
330
4316
100
AcDbEntity
  8
5
  6
PHANTOM
 48
0.1
100
AcDbCircle
 10
362.0
 20
143.0431809999998
 30
0.0
 40
5.0
100
AcDbArc
 50
270.0
 51
0.0
  0
ARC
  5
43EC
330
4316
100
AcDbEntity
  8
1
  6
Continuous
100
AcDbCircle
 10
362.0
 20
144.543181
 30
0.0
 40
5.0
100
AcDbArc
 50
270.0
 51
0.0
  0
LINE
  5
43ED
330
4316
100
AcDbEntity
  8
4
  6
CENTER
 48
0.1
100
AcDbLine
 10
358.4999999999998
 20
150.043181
 30
0.0
 11
365.5
 21
150.043181
 31
0.0
  0
LINE
  5
43EE
330
4316
100
AcDbEntity
  8
4
  6
CENTER
 48
0.1
100
AcDbLine
 10
358.4999999999998
 20
145.0431809999997
 30
0.0
 11
365.5
 21
145.0431809999997
 31
0.0
  0
ARC
  5
43EF
330
4316
100
AcDbEntity
  8
1
  6
Continuous
100
AcDbCircle
 10
362.0
 20
148.0431809999998
 30
0.0
 40
5.0
100
AcDbArc
 50
270.0
 51
0.0
  0
CIRCLE
  5
43F0
330
4316
100
AcDbEntity
  8
5
  6
PHANTOM
 48
0.1
100
AcDbCircle
 10
362.0
 20
145.0431809999997
 30
0.0
 40
2.5
  0
LINE
  5
43F1
330
4316
100
AcDbEntity
  8
1
  6
Continuous
100
AcDbLine
 10
367.5
 20
152.043181
 30
0.0
 11
367.0
 21
152.043181
 31
0.0
  0
LINE
  5
43F2
330
4316
100
AcDbEntity
  8
5
  6
PHANTOM
 48
0.1
100
AcDbLine
 10
367.0
 20
143.0431809999998
 30
0.0
 11
367.0
 21
144.543181
 31
0.0
  0
LINE
  5
43F3
330
4316
100
AcDbEntity
  8
1
  6
Continuous
100
AcDbLine
 10
353.5
 20
143.0431809999998
 30
0.0
 11
353.5
 21
137.743181
 31
0.0
  0
LINE
  5
43F4
330
4316
100
AcDbEntity
  8
5
  6
PHANTOM
 48
0.1
100
AcDbLine
 10
352.0
 20
138.043181
 30
0.0
 11
352.0
 21
143.0431809999998
 31
0.0
  0
LINE
  5
43F5
330
4316
100
AcDbEntity
  8
1
  6
Continuous
100
AcDbLine
 10
355.0
 20
139.543181
 30
0.0
 11
355.0
 21
137.743181
 31
0.0
  0
LINE
  5
43F6
330
4316
100
AcDbEntity
  8
1
  6
Continuous
100
AcDbLine
 10
353.5
 20
137.743181
 30
0.0
 11
351.360661
 21
135.6038409999999
 31
0.0
  0
LINE
  5
43F7
330
4316
100
AcDbEntity
  8
1
  6
Continuous
100
AcDbLine
 10
354.560661
 20
136.682521
 30
0.0
 11
352.4213209999999
 21
134.543181
 31
0.0
  0
LINE
  5
43F8
330
4316
100
AcDbEntity
  8
1
  6
Continuous
100
AcDbLine
 10
352.4213209999999
 20
134.543181
 30
0.0
 11
351.360661
 21
135.6038409999999
 31
0.0
  0
ARC
  5
43F9
330
4316
100
AcDbEntity
  8
1
  6
Continuous
100
AcDbCircle
 10
353.5
 20
137.743181
 30
0.0
 40
1.5
100
AcDbArc
 50
315.0
 51
0.0
  0
LINE
  5
43FA
330
4316
100
AcDbEntity
  8
1
  6
Continuous
100
AcDbLine
 10
355.5
 20
171.543181
 30
0.0
 11
358.7499999999999
 21
171.543181
 31
0.0
  0
LINE
  5
43FB
330
4316
100
AcDbEntity
  8
4
  6
CENTER
 48
0.1
100
AcDbLine
 10
354.7499999999998
 20
163.043181
 30
0.0
 11
360.25
 21
163.043181
 31
0.0
  0
LINE
  5
43FC
330
4316
100
AcDbEntity
  8
1
  6
Continuous
100
AcDbLine
 10
349.5
 20
161.543181
 30
0.0
 11
364.0
 21
161.543181
 31
0.0
  0
LINE
  5
43FD
330
4316
100
AcDbEntity
  8
5
  6
PHANTOM
 48
0.1
100
AcDbLine
 10
352.0
 20
156.5431809999997
 30
0.0
 11
364.0
 21
156.5431809999997
 31
0.0
  0
CIRCLE
  5
43FE
330
4316
100
AcDbEntity
  8
1
  6
Continuous
100
AcDbCircle
 10
357.5
 20
163.043181
 30
0.0
 40
1.25
  0
LINE
  5
43FF
330
4316
100
AcDbEntity
  8
4
  6
CENTER
 48
0.1
100
AcDbLine
 10
357.5
 20
165.793181
 30
0.0
 11
357.5
 21
160.293181
 31
0.0
  0
LINE
  5
4400
330
4316
100
AcDbEntity
  8
4
  6
CENTER
 48
0.1
100
AcDbLine
 10
364.0
 20
159.543181
 30
0.0
 11
369.0
 21
159.543181
 31
0.0
  0
ARC
  5
4401
330
4316
100
AcDbEntity
  8
1
  6
Continuous
100
AcDbCircle
 10
364.0
 20
158.543181
 30
0.0
 40
3.0
100
AcDbArc
 50
0.0
 51
90.0
  0
ARC
  5
4402
330
4316
100
AcDbEntity
  8
5
  6
PHANTOM
 48
0.1
100
AcDbCircle
 10
364.0
 20
153.543181
 30
0.0
 40
3.0
100
AcDbArc
 50
0.0
 51
90.0
  0
LINE
  5
4403
330
4316
100
AcDbEntity
  8
4
  6
CENTER
 48
0.1
100
AcDbLine
 10
358.35
 20
167.043181
 30
0.0
 11
364.6499999999999
 21
167.043181
 31
0.0
  0
ARC
  5
4405
330
4316
100
AcDbEntity
  8
1
  6
Continuous
100
AcDbCircle
 10
365.5
 20
170.0431809999997
 30
0.0
 40
1.5
100
AcDbArc
 50
0.0
 51
90.0
  0
LINE
  5
4406
330
4316
100
AcDbEntity
  8
1
  6
Continuous
100
AcDbLine
 10
365.5
 20
171.543181
 30
0.0
 11
364.25
 21
171.543181
 31
0.0
  0
LINE
  5
4407
330
4316
100
AcDbEntity
  8
1
  6
Continuous
100
AcDbLine
 10
367.0
 20
163.543181
 30
0.0
 11
367.5
 21
163.543181
 31
0.0
  0
CIRCLE
  5
4408
330
4316
100
AcDbEntity
  8
1
  6
Continuous
100
AcDbCircle
 10
361.5
 20
167.043181
 30
0.0
 40
1.649999999999999
  0
LINE
  5
4409
330
4316
100
AcDbEntity
  8
4
  6
CENTER
 48
0.1
100
AcDbLine
 10
361.5
 20
170.193181
 30
0.0
 11
361.5
 21
163.893181
 31
0.0
  0
ARC
  5
440A
330
4316
100
AcDbEntity
  8
1
  6
Continuous
100
AcDbCircle
 10
352.0
 20
161.543181
 30
0.0
 40
1.5
100
AcDbArc
 50
0.0
 51
90.0
  0
LINE
  5
440B
330
4316
100
AcDbEntity
  8
1
  6
Continuous
100
AcDbLine
 10
349.5
 20
163.043181
 30
0.0
 11
349.5
 21
161.543181
 31
0.0
  0
ARC
  5
440C
330
4316
100
AcDbEntity
  8
1
  6
Continuous
100
AcDbCircle
 10
355.5
 20
169.543181
 30
0.0
 40
2.0
100
AcDbArc
 50
90.0
 51
180.0
  0
LINE
  5
440D
330
4316
100
AcDbEntity
  8
1
  6
Continuous
100
AcDbLine
 10
349.5
 20
163.043181
 30
0.0
 11
352.0
 21
163.043181
 31
0.0
  0
LINE
  5
4412
330
4316
100
AcDbEntity
  8
1
  6
Continuous
100
AcDbLine
 10
353.5
 20
189.543181
 30
0.0
 11
356.5653429999999
 21
189.543181
 31
0.0
  0
LINE
  5
4413
330
4316
100
AcDbEntity
  8
4
  6
CENTER
 48
0.1
100
AcDbLine
 10
364.0
 20
173.543181
 30
0.0
 11
369.0
 21
173.543181
 31
0.0
  0
LINE
  5
4415
330
4316
100
AcDbEntity
  8
1
  6
Continuous
100
AcDbLine
 10
366.307948
 20
189.543181
 30
0.0
 11
367.5
 21
189.543181
 31
0.0
  0
LINE
  5
4421
330
4316
100
AcDbEntity
  8
4
  6
CENTER
 48
0.2
100
AcDbLine
 10
510.347848
 20
204.543181
 30
0.0
 11
478.8478480000001
 21
204.543181
 31
0.0
  0
LINE
  5
4422
330
4316
100
AcDbEntity
  8
4
  6
CENTER
 48
0.2
100
AcDbLine
 10
510.0978480000001
 20
167.043181
 30
0.0
 11
479.097848
 21
167.043181
 31
0.0
  0
LINE
  5
4423
330
4316
100
AcDbEntity
  8
4
  6
CENTER
 48
0.2
100
AcDbLine
 10
512.197848
 20
150.043181
 30
0.0
 11
475.997848
 21
150.043181
 31
0.0
  0
ARC
  5
4424
330
4316
100
AcDbEntity
  8
1
  6
Continuous
100
AcDbCircle
 10
481.0478479999998
 20
178.4898239999999
 30
0.0
 40
7.0
100
AcDbArc
 50
300.3682379999998
 51
0.0
  0
ARC
  5
4425
330
4316
100
AcDbEntity
  8
1
  6
Continuous
100
AcDbCircle
 10
508.147848
 20
178.4898239999999
 30
0.0
 40
7.0
100
AcDbArc
 50
180.0
 51
239.631762
  0
CIRCLE
  5
4426
330
4316
100
AcDbEntity
  8
1
  6
Continuous
100
AcDbCircle
 10
494.597848
 20
173.543181
 30
0.0
 40
2.149999999999999
  0
CIRCLE
  5
4427
330
4316
100
AcDbEntity
  8
3
  6
DASHED
 48
0.2
100
AcDbCircle
 10
494.597848
 20
173.543181
 30
0.0
 40
4.0
  0
LINE
  5
4428
330
4316
100
AcDbEntity
  8
1
  6
Continuous
100
AcDbLine
 10
487.597848
 20
173.543181
 30
0.0
 11
487.597848
 21
163.543181
 31
0.0
  0
LINE
  5
4429
330
4316
100
AcDbEntity
  8
1
  6
Continuous
100
AcDbLine
 10
501.597848
 20
173.543181
 30
0.0
 11
501.597848
 21
163.543181
 31
0.0
  0
LINE
  5
442A
330
4316
100
AcDbEntity
  8
1
  6
Continuous
100
AcDbLine
 10
507.847848
 20
163.543181
 30
0.0
 11
507.847848
 21
179.543181
 31
0.0
  0
LINE
  5
442B
330
4316
100
AcDbEntity
  8
1
  6
Continuous
100
AcDbLine
 10
505.847848
 20
179.543181
 30
0.0
 11
505.847848
 21
163.543181
 31
0.0
  0
LINE
  5
442C
330
4316
100
AcDbEntity
  8
1
  6
Continuous
100
AcDbLine
 10
481.347848
 20
163.543181
 30
0.0
 11
481.347848
 21
179.543181
 31
0.0
  0
LINE
  5
442D
330
4316
100
AcDbEntity
  8
1
  6
Continuous
100
AcDbLine
 10
483.3478480000001
 20
179.730037
 30
0.0
 11
483.3478480000001
 21
163.543181
 31
0.0
  0
LINE
  5
442E
330
4316
100
AcDbEntity
  8
4
  6
CENTER
 48
0.2
100
AcDbLine
 10
494.597848
 20
131.5431809999997
 30
0.0
 11
494.597848
 21
207.293181
 31
0.0
  0
ARC
  5
442F
330
4316
100
AcDbEntity
  8
1
  6
Continuous
100
AcDbCircle
 10
483.331182
 20
150.043181
 30
0.0
 40
2.833333
100
AcDbArc
 50
118.072487
 51
241.9275129999999
  0
LINE
  5
4430
330
4316
100
AcDbEntity
  8
1
  6
Continuous
100
AcDbLine
 10
485.597848
 20
163.543181
 30
0.0
 11
485.597848
 21
152.043181
 31
0.0
  0
LINE
  5
4431
330
4316
100
AcDbEntity
  8
1
  6
Continuous
100
AcDbLine
 10
508.197848
 20
147.543181
 30
0.0
 11
508.197848
 21
152.543181
 31
0.0
  0
LINE
  5
4432
330
4316
100
AcDbEntity
  8
1
  6
Continuous
100
AcDbLine
 10
503.597848
 20
163.543181
 30
0.0
 11
503.597848
 21
152.043181
 31
0.0
  0
LINE
  5
4433
330
4316
100
AcDbEntity
  8
1
  6
Continuous
100
AcDbLine
 10
481.9978479999998
 20
143.0431809999998
 30
0.0
 11
481.9978479999998
 21
161.543181
 31
0.0
  0
LINE
  5
4434
330
4316
100
AcDbEntity
  8
1
  6
Continuous
100
AcDbLine
 10
507.197848
 20
143.0431809999998
 30
0.0
 11
507.197848
 21
161.543181
 31
0.0
  0
LINE
  5
4435
330
4316
100
AcDbEntity
  8
1
  6
Continuous
100
AcDbLine
 10
504.097848
 20
152.043181
 30
0.0
 11
485.0978480000001
 21
152.043181
 31
0.0
  0
LINE
  5
4436
330
4316
100
AcDbEntity
  8
1
  6
Continuous
100
AcDbLine
 10
507.197848
 20
143.0431809999998
 30
0.0
 11
505.597848
 21
143.0431809999998
 31
0.0
  0
LINE
  5
4437
330
4316
100
AcDbEntity
  8
1
  6
Continuous
100
AcDbLine
 10
502.0978480000001
 20
134.543181
 30
0.0
 11
487.097848
 21
134.543181
 31
0.0
  0
POLYLINE
  5
4438
330
4316
100
AcDbEntity
  8
1
  6
Continuous
100
AcDb2dPolyline
 66
     1
 10
0.0
 20
0.0
 30
0.0
 70
     2
  0
VERTEX
  5
4439
330
4438
100
AcDbEntity
  8
1
  6
Continuous
100
AcDbVertex
100
AcDb2dVertex
 10
504.097848
 20
135.9573949999999
 30
0.0
 42
-0.146763
  0
VERTEX
  5
443A
330
4438
100
AcDbEntity
  8
1
  6
Continuous
100
AcDbVertex
100
AcDb2dVertex
 10
503.9333189999998
 20
135.416198
 30
0.0
 42
-0.111376
  0
VERTEX
  5
443B
330
4438
100
AcDbEntity
  8
1
  6
Continuous
100
AcDbVertex
100
AcDb2dVertex
 10
503.464779
 20
134.9573949999999
 30
0.0
 42
-0.08081
  0
VERTEX
  5
443C
330
4438
100
AcDbEntity
  8
1
  6
Continuous
100
AcDbVertex
100
AcDb2dVertex
 10
502.7635599999999
 20
134.650832
 30
0.0
 42
-0.06661
  0
VERTEX
  5
443D
330
4438
100
AcDbEntity
  8
1
  6
Continuous
100
AcDbVertex
100
AcDb2dVertex
 10
501.936416
 20
134.543181
 30
0.0
  0
SEQEND
  5
443E
330
4438
100
AcDbEntity
  8
1
  6
Continuous
  0
LINE
  5
443F
330
4316
100
AcDbEntity
  8
1
  6
Continuous
100
AcDbLine
 10
504.097848
 20
135.9573949999999
 30
0.0
 11
504.097848
 21
171.016705
 31
0.0
  0
LINE
  5
4440
330
4316
100
AcDbEntity
  8
1
  6
Continuous
100
AcDbLine
 10
505.597848
 20
139.543181
 30
0.0
 11
504.097848
 21
139.543181
 31
0.0
  0
LINE
  5
4441
330
4316
100
AcDbEntity
  8
1
  6
Continuous
100
AcDbLine
 10
508.197848
 20
147.543181
 30
0.0
 11
507.197848
 21
147.543181
 31
0.0
  0
LINE
  5
4442
330
4316
100
AcDbEntity
  8
1
  6
Continuous
100
AcDbLine
 10
485.0978480000001
 20
135.9573949999999
 30
0.0
 11
485.0978480000001
 21
171.016705
 31
0.0
  0
LINE
  5
4443
330
4316
100
AcDbEntity
  8
1
  6
Continuous
100
AcDbLine
 10
485.0978480000001
 20
139.543181
 30
0.0
 11
483.597848
 21
139.543181
 31
0.0
  0
POLYLINE
  5
4444
330
4316
100
AcDbEntity
  8
1
  6
Continuous
100
AcDb2dPolyline
 66
     1
 10
0.0
 20
0.0
 30
0.0
 70
     2
  0
VERTEX
  5
4445
330
4444
100
AcDbEntity
  8
1
  6
Continuous
100
AcDbVertex
100
AcDb2dVertex
 10
487.2592809999998
 20
134.543181
 30
0.0
 42
-0.065158
  0
VERTEX
  5
4446
330
4444
100
AcDbEntity
  8
1
  6
Continuous
100
AcDbVertex
100
AcDb2dVertex
 10
486.4321369999998
 20
134.650832
 30
0.0
 42
-0.075859
  0
VERTEX
  5
4447
330
4444
100
AcDbEntity
  8
1
  6
Continuous
100
AcDbVertex
100
AcDb2dVertex
 10
485.7309169999998
 20
134.9573949999999
 30
0.0
 42
-0.102185
  0
VERTEX
  5
4448
330
4444
100
AcDbEntity
  8
1
  6
Continuous
100
AcDbVertex
100
AcDb2dVertex
 10
485.262378
 20
135.416198
 30
0.0
 42
-0.139896
  0
VERTEX
  5
4449
330
4444
100
AcDbEntity
  8
1
  6
Continuous
100
AcDbVertex
100
AcDb2dVertex
 10
485.0978480000001
 20
135.9573949999999
 30
0.0
  0
SEQEND
  5
444A
330
4444
100
AcDbEntity
  8
1
  6
Continuous
  0
LINE
  5
444B
330
4316
100
AcDbEntity
  8
1
  6
Continuous
100
AcDbLine
 10
507.197848
 20
161.543181
 30
0.0
 11
505.597848
 21
161.543181
 31
0.0
  0
CIRCLE
  5
444C
330
4316
100
AcDbEntity
  8
3
  6
DASHED
 48
0.2
100
AcDbCircle
 10
494.597848
 20
159.543181
 30
0.0
 40
4.0
  0
CIRCLE
  5
444D
330
4316
100
AcDbEntity
  8
1
  6
Continuous
100
AcDbCircle
 10
494.597848
 20
159.543181
 30
0.0
 40
2.149999999999999
  0
LINE
  5
444E
330
4316
100
AcDbEntity
  8
4
  6
CENTER
 48
0.2
100
AcDbLine
 10
489.097848
 20
159.543181
 30
0.0
 11
500.097848
 21
159.543181
 31
0.0
  0
LINE
  5
444F
330
4316
100
AcDbEntity
  8
1
  6
Continuous
100
AcDbLine
 10
506.597848
 20
163.543181
 30
0.0
 11
506.597848
 21
161.7931809999998
 31
0.0
  0
LINE
  5
4450
330
4316
100
AcDbEntity
  8
1
  6
Continuous
100
AcDbLine
 10
505.597848
 20
139.543181
 30
0.0
 11
505.597848
 21
170.724677
 31
0.0
  0
LINE
  5
4451
330
4316
100
AcDbEntity
  8
1
  6
Continuous
100
AcDbLine
 10
506.597848
 20
161.7931809999998
 30
0.0
 11
505.597848
 21
161.7931809999998
 31
0.0
  0
LINE
  5
4452
330
4316
100
AcDbEntity
  8
1
  6
Continuous
100
AcDbLine
 10
508.197848
 20
152.543181
 30
0.0
 11
507.197848
 21
152.543181
 31
0.0
  0
LINE
  5
4453
330
4316
100
AcDbEntity
  8
1
  6
Continuous
100
AcDbLine
 10
503.597848
 20
163.543181
 30
0.0
 11
501.597848
 21
163.543181
 31
0.0
  0
LINE
  5
4454
330
4316
100
AcDbEntity
  8
1
  6
Continuous
100
AcDbLine
 10
508.1845129999998
 20
165.393181
 30
0.0
 11
507.847848
 21
165.393181
 31
0.0
  0
ARC
  5
4455
330
4316
100
AcDbEntity
  8
1
  6
Continuous
100
AcDbCircle
 10
505.097848
 20
167.043181
 30
0.0
 40
3.5
100
AcDbArc
 50
331.872932
 51
28.127068
  0
LINE
  5
4456
330
4316
100
AcDbEntity
  8
1
  6
Continuous
100
AcDbLine
 10
508.1845129999998
 20
168.693181
 30
0.0
 11
507.847848
 21
168.693181
 31
0.0
  0
LINE
  5
4457
330
4316
100
AcDbEntity
  8
1
  6
Continuous
100
AcDbLine
 10
505.847848
 20
169.0431809999997
 30
0.0
 11
505.597848
 21
169.0431809999997
 31
0.0
  0
ARC
  5
4458
330
4316
100
AcDbEntity
  8
1
  6
Continuous
100
AcDbCircle
 10
503.597848
 20
170.724677
 30
0.0
 40
2.0
100
AcDbArc
 50
0.0
 51
59.631762
  0
LINE
  5
4459
330
4316
100
AcDbEntity
  8
4
  6
CENTER
 48
0.1
100
AcDbLine
 10
508.097848
 20
163.043181
 30
0.0
 11
504.097848
 21
163.043181
 31
0.0
  0
LINE
  5
445A
330
4316
100
AcDbEntity
  8
1
  6
Continuous
100
AcDbLine
 10
505.847848
 20
163.543181
 30
0.0
 11
507.847848
 21
163.543181
 31
0.0
  0
LINE
  5
445B
330
4316
100
AcDbEntity
  8
1
  6
Continuous
100
AcDbLine
 10
505.847848
 20
164.793181
 30
0.0
 11
505.597848
 21
164.793181
 31
0.0
  0
LINE
  5
445C
330
4316
100
AcDbEntity
  8
1
  6
Continuous
100
AcDbLine
 10
505.847848
 20
165.043181
 30
0.0
 11
505.597848
 21
165.043181
 31
0.0
  0
LINE
  5
445D
330
4316
100
AcDbEntity
  8
1
  6
Continuous
100
AcDbLine
 10
482.597848
 20
163.543181
 30
0.0
 11
482.597848
 21
161.7931809999998
 31
0.0
  0
LINE
  5
445E
330
4316
100
AcDbEntity
  8
1
  6
Continuous
100
AcDbLine
 10
483.597848
 20
139.543181
 30
0.0
 11
483.597848
 21
170.724677
 31
0.0
  0
LINE
  5
445F
330
4316
100
AcDbEntity
  8
1
  6
Continuous
100
AcDbLine
 10
482.597848
 20
161.7931809999998
 30
0.0
 11
483.597848
 21
161.7931809999998
 31
0.0
  0
LINE
  5
4460
330
4316
100
AcDbEntity
  8
1
  6
Continuous
100
AcDbLine
 10
481.0111839999998
 20
165.393181
 30
0.0
 11
481.347848
 21
165.393181
 31
0.0
  0
ARC
  5
4461
330
4316
100
AcDbEntity
  8
1
  6
Continuous
100
AcDbCircle
 10
484.097848
 20
167.043181
 30
0.0
 40
3.5
100
AcDbArc
 50
151.872932
 51
208.1270679999999
  0
LINE
  5
4462
330
4316
100
AcDbEntity
  8
1
  6
Continuous
100
AcDbLine
 10
481.0111839999998
 20
168.693181
 30
0.0
 11
481.347848
 21
168.693181
 31
0.0
  0
LINE
  5
4463
330
4316
100
AcDbEntity
  8
1
  6
Continuous
100
AcDbLine
 10
483.597848
 20
169.0431809999997
 30
0.0
 11
483.3478480000001
 21
169.0431809999997
 31
0.0
  0
ARC
  5
4464
330
4316
100
AcDbEntity
  8
1
  6
Continuous
100
AcDbCircle
 10
485.597848
 20
170.724677
 30
0.0
 40
2.0
100
AcDbArc
 50
120.368238
 51
180.0
  0
LINE
  5
4465
330
4316
100
AcDbEntity
  8
4
  6
CENTER
 48
0.1
100
AcDbLine
 10
481.0978480000001
 20
163.043181
 30
0.0
 11
485.0978480000001
 21
163.043181
 31
0.0
  0
LINE
  5
4466
330
4316
100
AcDbEntity
  8
1
  6
Continuous
100
AcDbLine
 10
483.3478480000001
 20
163.543181
 30
0.0
 11
481.347848
 21
163.543181
 31
0.0
  0
LINE
  5
4467
330
4316
100
AcDbEntity
  8
1
  6
Continuous
100
AcDbLine
 10
483.3478480000001
 20
164.793181
 30
0.0
 11
483.597848
 21
164.793181
 31
0.0
  0
LINE
  5
4468
330
4316
100
AcDbEntity
  8
1
  6
Continuous
100
AcDbLine
 10
483.597848
 20
165.043181
 30
0.0
 11
483.3478480000001
 21
165.043181
 31
0.0
  0
LINE
  5
4469
330
4316
100
AcDbEntity
  8
1
  6
Continuous
100
AcDbLine
 10
487.597848
 20
163.543181
 30
0.0
 11
485.597848
 21
163.543181
 31
0.0
  0
LINE
  5
446A
330
4316
100
AcDbEntity
  8
1
  6
Continuous
100
AcDbLine
 10
501.147848
 20
189.543181
 30
0.0
 11
488.0478479999998
 21
189.543181
 31
0.0
  0
LINE
  5
446B
330
4316
100
AcDbEntity
  8
4
  6
CENTER
 48
0.2
100
AcDbLine
 10
503.097848
 20
185.5431809999998
 30
0.0
 11
486.097848
 21
185.5431809999998
 31
0.0
  0
LINE
  5
446C
330
4316
100
AcDbEntity
  8
4
  6
CENTER
 48
0.2
100
AcDbLine
 10
489.097848
 20
173.543181
 30
0.0
 11
500.097848
 21
173.543181
 31
0.0
  0
LINE
  5
446D
330
4316
100
AcDbEntity
  8
1
  6
Continuous
100
AcDbLine
 10
501.147848
 20
189.543181
 30
0.0
 11
501.147848
 21
178.4898239999999
 31
0.0
  0
LINE
  5
446E
330
4316
100
AcDbEntity
  8
1
  6
Continuous
100
AcDbLine
 10
501.597848
 20
184.043181
 30
0.0
 11
501.597848
 21
187.043181
 31
0.0
  0
LINE
  5
446F
330
4316
100
AcDbEntity
  8
1
  6
Continuous
100
AcDbLine
 10
501.597848
 20
184.043181
 30
0.0
 11
501.147848
 21
184.043181
 31
0.0
  0
ARC
  5
4470
330
4316
100
AcDbEntity
  8
1
  6
Continuous
100
AcDbCircle
 10
494.597848
 20
173.543181
 30
0.0
 40
7.0
100
AcDbArc
 50
0.0
 51
45.651715
  0
LINE
  5
4471
330
4316
100
AcDbEntity
  8
1
  6
Continuous
100
AcDbLine
 10
501.597848
 20
187.043181
 30
0.0
 11
501.147848
 21
187.043181
 31
0.0
  0
LINE
  5
4472
330
4316
100
AcDbEntity
  8
1
  6
Continuous
100
AcDbLine
 10
488.0478479999998
 20
189.543181
 30
0.0
 11
488.0478479999998
 21
178.4898239999999
 31
0.0
  0
LINE
  5
4473
330
4316
100
AcDbEntity
  8
1
  6
Continuous
100
AcDbLine
 10
487.597848
 20
184.043181
 30
0.0
 11
487.597848
 21
187.043181
 31
0.0
  0
LINE
  5
4474
330
4316
100
AcDbEntity
  8
1
  6
Continuous
100
AcDbLine
 10
489.5978480000001
 20
189.543181
 30
0.0
 11
489.5978480000001
 21
180.5431809999998
 31
0.0
  0
LINE
  5
4475
330
4316
100
AcDbEntity
  8
1
  6
Continuous
100
AcDbLine
 10
488.0478479999998
 20
184.043181
 30
0.0
 11
487.597848
 21
184.043181
 31
0.0
  0
LINE
  5
4476
330
4316
100
AcDbEntity
  8
1
  6
Continuous
100
AcDbLine
 10
488.0478479999998
 20
187.043181
 30
0.0
 11
487.597848
 21
187.043181
 31
0.0
  0
LINE
  5
4477
330
4316
100
AcDbEntity
  8
1
  6
Continuous
100
AcDbLine
 10
505.847848
 20
206.543181
 30
0.0
 11
483.3478480000001
 21
206.543181
 31
0.0
  0
LINE
  5
4478
330
4316
100
AcDbEntity
  8
1
  6
Continuous
100
AcDbLine
 10
505.847848
 20
202.543181
 30
0.0
 11
483.3478480000001
 21
202.543181
 31
0.0
  0
LINE
  5
4479
330
4316
100
AcDbEntity
  8
1
  6
Continuous
100
AcDbLine
 10
507.847848
 20
207.293181
 30
0.0
 11
507.847848
 21
198.543181
 31
0.0
  0
LINE
  5
447A
330
4316
100
AcDbEntity
  8
1
  6
Continuous
100
AcDbLine
 10
505.847848
 20
207.293181
 30
0.0
 11
505.847848
 21
198.543181
 31
0.0
  0
ARC
  5
447B
330
4316
100
AcDbEntity
  8
1
  6
Continuous
100
AcDbCircle
 10
505.347848
 20
204.543181
 30
0.0
 40
3.5
100
AcDbArc
 50
331.872932
 51
28.127068
  0
LINE
  5
447C
330
4316
100
AcDbEntity
  8
1
  6
Continuous
100
AcDbLine
 10
508.4345129999999
 20
202.893181
 30
0.0
 11
507.847848
 21
202.893181
 31
0.0
  0
LINE
  5
447D
330
4316
100
AcDbEntity
  8
1
  6
Continuous
100
AcDbLine
 10
508.4345129999999
 20
206.1931809999999
 30
0.0
 11
507.847848
 21
206.1931809999999
 31
0.0
  0
LINE
  5
447E
330
4316
100
AcDbEntity
  8
1
  6
Continuous
100
AcDbLine
 10
507.847848
 20
207.293181
 30
0.0
 11
505.847848
 21
207.293181
 31
0.0
  0
LINE
  5
447F
330
4316
100
AcDbEntity
  8
1
  6
Continuous
100
AcDbLine
 10
481.347848
 20
207.293181
 30
0.0
 11
481.347848
 21
198.543181
 31
0.0
  0
LINE
  5
4480
330
4316
100
AcDbEntity
  8
1
  6
Continuous
100
AcDbLine
 10
483.3478480000001
 20
207.293181
 30
0.0
 11
483.3478480000001
 21
198.543181
 31
0.0
  0
ARC
  5
4481
330
4316
100
AcDbEntity
  8
1
  6
Continuous
100
AcDbCircle
 10
483.847848
 20
204.543181
 30
0.0
 40
3.5
100
AcDbArc
 50
151.872932
 51
208.1270679999999
  0
LINE
  5
4482
330
4316
100
AcDbEntity
  8
1
  6
Continuous
100
AcDbLine
 10
480.7611839999998
 20
202.893181
 30
0.0
 11
481.347848
 21
202.893181
 31
0.0
  0
LINE
  5
4483
330
4316
100
AcDbEntity
  8
1
  6
Continuous
100
AcDbLine
 10
480.7611839999998
 20
206.1931809999999
 30
0.0
 11
481.347848
 21
206.1931809999999
 31
0.0
  0
LINE
  5
4484
330
4316
100
AcDbEntity
  8
1
  6
Continuous
100
AcDbLine
 10
481.347848
 20
207.293181
 30
0.0
 11
483.3478480000001
 21
207.293181
 31
0.0
  0
LINE
  5
4485
330
4316
100
AcDbEntity
  8
1
  6
Continuous
100
AcDbLine
 10
533.597848
 20
209.543181
 30
0.0
 11
555.597848
 21
209.543181
 31
0.0
  0
LINE
  5
4486
330
4316
100
AcDbEntity
  8
1
  6
Continuous
100
AcDbLine
 10
551.597848
 20
200.543181
 30
0.0
 11
537.5978479999998
 21
200.543181
 31
0.0
  0
LINE
  5
4487
330
4316
100
AcDbEntity
  8
4
  6
CENTER
 48
0.2
100
AcDbLine
 10
527.097848
 20
204.543181
 30
0.0
 11
562.0978479999998
 21
204.543181
 31
0.0
  0
CIRCLE
  5
4488
330
4316
100
AcDbEntity
  8
1
  6
Continuous
100
AcDbCircle
 10
533.597848
 20
204.543181
 30
0.0
 40
2.149999999999999
  0
LINE
  5
4489
330
4316
100
AcDbEntity
  8
1
  6
Continuous
100
AcDbLine
 10
537.5978479999998
 20
201.5431809999999
 30
0.0
 11
537.5978479999998
 21
200.543181
 31
0.0
  0
LINE
  5
448A
330
4316
100
AcDbEntity
  8
4
  6
CENTER
 48
0.2
100
AcDbLine
 10
533.597848
 20
210.543181
 30
0.0
 11
533.597848
 21
198.543181
 31
0.0
  0
ARC
  5
448B
330
4316
100
AcDbEntity
  8
1
  6
Continuous
100
AcDbCircle
 10
533.597848
 20
204.543181
 30
0.0
 40
5.0
100
AcDbArc
 50
90.0
 51
270.0
  0
LINE
  5
448C
330
4316
100
AcDbEntity
  8
1
  6
Continuous
100
AcDbLine
 10
533.597848
 20
199.543181
 30
0.0
 11
535.597848
 21
199.543181
 31
0.0
  0
LINE
  5
448D
330
4316
100
AcDbEntity
  8
1
  6
Continuous
100
AcDbLine
 10
537.5978479999998
 20
201.5431809999999
 30
0.0
 11
535.597848
 21
199.543181
 31
0.0
  0
LINE
  5
448E
330
4316
100
AcDbEntity
  8
1
  6
Continuous
100
AcDbLine
 10
555.597848
 20
199.543181
 30
0.0
 11
553.5978479999998
 21
199.543181
 31
0.0
  0
CIRCLE
  5
448F
330
4316
100
AcDbEntity
  8
1
  6
Continuous
100
AcDbCircle
 10
555.597848
 20
204.543181
 30
0.0
 40
2.149999999999999
  0
LINE
  5
4490
330
4316
100
AcDbEntity
  8
1
  6
Continuous
100
AcDbLine
 10
551.597848
 20
201.5431809999999
 30
0.0
 11
551.597848
 21
200.543181
 31
0.0
  0
LINE
  5
4491
330
4316
100
AcDbEntity
  8
4
  6
CENTER
 48
0.2
100
AcDbLine
 10
544.5978479999999
 20
197.2334149999998
 30
0.0
 11
544.5978479999999
 21
211.525386
 31
0.0
  0
LINE
  5
4492
330
4316
100
AcDbEntity
  8
1
  6
Continuous
100
AcDbLine
 10
551.597848
 20
201.5431809999999
 30
0.0
 11
553.5978479999998
 21
199.543181
 31
0.0
  0
LINE
  5
4493
330
4316
100
AcDbEntity
  8
4
  6
CENTER
 48
0.2
100
AcDbLine
 10
555.597848
 20
210.543181
 30
0.0
 11
555.597848
 21
198.543181
 31
0.0
  0
ARC
  5
4494
330
4316
100
AcDbEntity
  8
1
  6
Continuous
100
AcDbCircle
 10
555.597848
 20
204.543181
 30
0.0
 40
5.0
100
AcDbArc
 50
270.0
 51
90.0
  0
LINE
  5
4495
330
4316
100
AcDbEntity
  8
1
  6
Continuous
100
AcDbLine
 10
483.597848
 20
143.0431809999998
 30
0.0
 11
481.9978479999998
 21
143.0431809999998
 31
0.0
  0
LINE
  5
4496
330
4316
100
AcDbEntity
  8
1
  6
Continuous
100
AcDbLine
 10
483.597848
 20
161.543181
 30
0.0
 11
481.9978479999998
 21
161.543181
 31
0.0
  0
LINE
  5
4497
330
4316
100
AcDbEntity
  8
1
  6
Continuous
100
AcDbLine
 10
489.547848
 20
189.543181
 30
0.0
 11
489.547848
 21
178.3906029999999
 31
0.0
  0
ARC
  5
4498
330
4316
100
AcDbEntity
  8
1
  6
Continuous
100
AcDbCircle
 10
481.0478479999998
 20
178.4898239999999
 30
0.0
 40
8.5
100
AcDbArc
 50
298.455143
 51
320.406741
  0
ARC
  5
4499
330
4316
100
AcDbEntity
  8
1
  6
Continuous
100
AcDbCircle
 10
508.147848
 20
178.4898239999999
 30
0.0
 40
8.5
100
AcDbArc
 50
219.5932589999999
 51
241.5448569999998
  0
LINE
  5
449A
330
4316
100
AcDbEntity
  8
1
  6
Continuous
100
AcDbLine
 10
499.647848
 20
189.543181
 30
0.0
 11
499.647848
 21
178.3906029999999
 31
0.0
  0
LINE
  5
449B
330
4316
100
AcDbEntity
  8
1
  6
Continuous
100
AcDbLine
 10
504.097848
 20
171.016705
 30
0.0
 11
505.3331029999998
 21
171.719106
 31
0.0
  0
LINE
  5
449C
330
4316
100
AcDbEntity
  8
1
  6
Continuous
100
AcDbLine
 10
485.0978480000001
 20
171.016705
 30
0.0
 11
483.862592
 21
171.719106
 31
0.0
  0
LINE
  5
449D
330
4316
100
AcDbEntity
  8
1
  6
Continuous
100
AcDbLine
 10
501.147848
 20
179.543181
 30
0.0
 11
499.647848
 21
179.543181
 31
0.0
  0
LINE
  5
449E
330
4316
100
AcDbEntity
  8
1
  6
Continuous
100
AcDbLine
 10
489.547848
 20
179.543181
 30
0.0
 11
488.0478479999998
 21
179.543181
 31
0.0
  0
LINE
  5
449F
330
4316
100
AcDbEntity
  8
1
  6
Continuous
100
AcDbLine
 10
495.597848
 20
148.0431809999998
 30
0.0
 11
495.597848
 21
152.043181
 31
0.0
  0
LINE
  5
44A0
330
4316
100
AcDbEntity
  8
1
  6
Continuous
100
AcDbLine
 10
493.5978480000001
 20
148.0431809999998
 30
0.0
 11
493.5978480000001
 21
152.043181
 31
0.0
  0
LINE
  5
44A1
330
4316
100
AcDbEntity
  8
1
  6
Continuous
100
AcDbLine
 10
495.597848
 20
151.543181
 30
0.0
 11
494.897848
 21
151.543181
 31
0.0
  0
LINE
  5
44A2
330
4316
100
AcDbEntity
  8
1
  6
Continuous
100
AcDbLine
 10
495.597848
 20
148.543181
 30
0.0
 11
494.897848
 21
148.543181
 31
0.0
  0
LINE
  5
44A3
330
4316
100
AcDbEntity
  8
1
  6
Continuous
100
AcDbLine
 10
493.5978480000001
 20
148.0431809999998
 30
0.0
 11
485.0978480000001
 21
148.0431809999998
 31
0.0
  0
LINE
  5
44A4
330
4316
100
AcDbEntity
  8
1
  6
Continuous
100
AcDbLine
 10
495.597848
 20
148.0431809999998
 30
0.0
 11
504.097848
 21
148.0431809999998
 31
0.0
  0
LINE
  5
44A5
330
4316
100
AcDbEntity
  8
1
  6
Continuous
100
AcDbLine
 10
494.897848
 20
148.243181
 30
0.0
 11
494.897848
 21
152.043181
 31
0.0
  0
LINE
  5
44A6
330
4316
100
AcDbEntity
  8
1
  6
Continuous
100
AcDbLine
 10
494.2978479999998
 20
148.243181
 30
0.0
 11
494.2978479999998
 21
152.043181
 31
0.0
  0
ARC
  5
44A7
330
4316
100
AcDbEntity
  8
1
  6
Continuous
100
AcDbCircle
 10
494.597848
 20
148.243181
 30
0.0
 40
0.3
100
AcDbArc
 50
180.0
 51
0.0
  0
LINE
  5
44A8
330
4316
100
AcDbEntity
  8
1
  6
Continuous
100
AcDbLine
 10
494.2978479999998
 20
151.543181
 30
0.0
 11
493.5978480000001
 21
151.543181
 31
0.0
  0
LINE
  5
44A9
330
4316
100
AcDbEntity
  8
1
  6
Continuous
100
AcDbLine
 10
494.2978479999998
 20
148.543181
 30
0.0
 11
493.5978480000001
 21
148.543181
 31
0.0
  0
LINE
  5
44AA
330
4316
100
AcDbEntity
  8
1
  6
Continuous
100
AcDbLine
 10
489.5978480000001
 20
187.043181
 30
0.0
 11
489.547848
 21
187.043181
 31
0.0
  0
LINE
  5
44AB
330
4316
100
AcDbEntity
  8
1
  6
Continuous
100
AcDbLine
 10
489.5978480000001
 20
184.043181
 30
0.0
 11
489.547848
 21
184.043181
 31
0.0
  0
LINE
  5
44AC
330
4316
100
AcDbEntity
  8
1
  6
Continuous
100
AcDbLine
 10
502.0978480000001
 20
137.1218599999999
 30
0.0
 11
487.097848
 21
137.1218599999999
 31
0.0
  0
LINE
  5
44AD
330
4316
100
AcDbEntity
  8
4
  6
CENTER
 48
0.2
100
AcDbLine
 10
271.2499999999999
 20
287.086362
 30
0.0
 11
271.2499999999999
 21
303.086362
 31
0.0
  0
LINE
  5
44AE
330
4316
100
AcDbEntity
  8
1
  6
Continuous
100
AcDbLine
 10
287.25
 20
300.086362
 30
0.0
 11
287.25
 21
298.086362
 31
0.0
  0
LINE
  5
44AF
330
4316
100
AcDbEntity
  8
1
  6
Continuous
100
AcDbLine
 10
278.25
 20
291.086362
 30
0.0
 11
278.25
 21
298.086362
 31
0.0
  0
LINE
  5
44B0
330
4316
100
AcDbEntity
  8
1
  6
Continuous
100
AcDbLine
 10
264.25
 20
291.086362
 30
0.0
 11
264.25
 21
298.086362
 31
0.0
  0
LINE
  5
44B1
330
4316
100
AcDbEntity
  8
1
  6
Continuous
100
AcDbLine
 10
255.25
 20
300.086362
 30
0.0
 11
255.25
 21
298.086362
 31
0.0
  0
LINE
  5
44B2
330
4316
100
AcDbEntity
  8
4
  6
CENTER
 48
0.1
100
AcDbLine
 10
260.25
 20
302.086362
 30
0.0
 11
260.25
 21
296.0863619999999
 31
0.0
  0
LINE
  5
44B3
330
4316
100
AcDbEntity
  8
4
  6
CENTER
 48
0.1
100
AcDbLine
 10
282.25
 20
302.086362
 30
0.0
 11
282.25
 21
296.0863619999999
 31
0.0
  0
LINE
  5
44B4
330
4316
100
AcDbEntity
  8
1
  6
Continuous
100
AcDbLine
 10
255.25
 20
298.086362
 30
0.0
 11
287.25
 21
298.086362
 31
0.0
  0
LINE
  5
44B5
330
4316
100
AcDbEntity
  8
1
  6
Continuous
100
AcDbLine
 10
255.25
 20
300.086362
 30
0.0
 11
287.25
 21
300.086362
 31
0.0
  0
LINE
  5
44B6
330
4316
100
AcDbEntity
  8
1
  6
Continuous
100
AcDbLine
 10
277.2499999999999
 20
290.0863619999999
 30
0.0
 11
265.2499999999998
 21
290.0863619999999
 31
0.0
  0
LINE
  5
44B7
330
4316
100
AcDbEntity
  8
1
  6
Continuous
100
AcDbLine
 10
277.2499999999999
 20
292.053362
 30
0.0
 11
265.2499999999998
 21
292.053362
 31
0.0
  0
ARC
  5
44B8
330
4316
100
AcDbEntity
  8
1
  6
Continuous
100
AcDbCircle
 10
265.2499999999998
 20
293.0533619999998
 30
0.0
 40
1.0
100
AcDbArc
 50
180.0
 51
270.0
  0
ARC
  5
44B9
330
4316
100
AcDbEntity
  8
1
  6
Continuous
100
AcDbCircle
 10
277.2499999999999
 20
293.0533619999998
 30
0.0
 40
1.0
100
AcDbArc
 50
270.0
 51
0.0
  0
ARC
  5
44BA
330
4316
100
AcDbEntity
  8
1
  6
Continuous
100
AcDbCircle
 10
277.2499999999999
 20
291.086362
 30
0.0
 40
1.0
100
AcDbArc
 50
270.0
 51
0.0
  0
ARC
  5
44BB
330
4316
100
AcDbEntity
  8
1
  6
Continuous
100
AcDbCircle
 10
265.2499999999998
 20
291.086362
 30
0.0
 40
1.0
100
AcDbArc
 50
180.0
 51
270.0
  0
LINE
  5
44BC
330
4316
100
AcDbEntity
  8
4
  6
CENTER
 48
0.2
100
AcDbLine
 10
221.2499999999999
 20
279.086362
 30
0.0
 11
221.2499999999999
 21
303.086362
 31
0.0
  0
LINE
  5
44BD
330
4316
100
AcDbEntity
  8
1
  6
Continuous
100
AcDbLine
 10
214.25
 20
300.086362
 30
0.0
 11
228.25
 21
300.086362
 31
0.0
  0
LINE
  5
44BE
330
4316
100
AcDbEntity
  8
1
  6
Continuous
100
AcDbLine
 10
210.15
 20
286.0863619999999
 30
0.0
 11
232.35
 21
286.0863619999999
 31
0.0
  0
LINE
  5
44BF
330
4316
100
AcDbEntity
  8
1
  6
Continuous
100
AcDbLine
 10
214.6999999999999
 20
298.086362
 30
0.0
 11
214.6999999999999
 21
297.086362
 31
0.0
  0
LINE
  5
44C0
330
4316
100
AcDbEntity
  8
1
  6
Continuous
100
AcDbLine
 10
227.8
 20
298.086362
 30
0.0
 11
227.8
 21
297.086362
 31
0.0
  0
ARC
  5
44C1
330
4316
100
AcDbEntity
  8
1
  6
Continuous
100
AcDbCircle
 10
216.1999999999999
 20
287.586362
 30
0.0
 40
1.5
100
AcDbArc
 50
180.0
 51
270.0
  0
ARC
  5
44C2
330
4316
100
AcDbEntity
  8
1
  6
Continuous
100
AcDbCircle
 10
226.3
 20
287.586362
 30
0.0
 40
1.5
100
AcDbArc
 50
270.0
 51
0.0
  0
LINE
  5
44C3
330
4316
100
AcDbEntity
  8
1
  6
Continuous
100
AcDbLine
 10
214.25
 20
298.086362
 30
0.0
 11
216.25
 21
298.086362
 31
0.0
  0
LINE
  5
44C4
330
4316
100
AcDbEntity
  8
1
  6
Continuous
100
AcDbLine
 10
226.3
 20
298.086362
 30
0.0
 11
226.3
 21
297.086362
 31
0.0
  0
LINE
  5
44C5
330
4316
100
AcDbEntity
  8
1
  6
Continuous
100
AcDbLine
 10
216.1999999999999
 20
298.086362
 30
0.0
 11
216.1999999999999
 21
297.086362
 31
0.0
  0
LINE
  5
44C6
330
4316
100
AcDbEntity
  8
1
  6
Continuous
100
AcDbLine
 10
226.25
 20
298.086362
 30
0.0
 11
228.25
 21
298.086362
 31
0.0
  0
LINE
  5
44C7
330
4316
100
AcDbEntity
  8
1
  6
Continuous
100
AcDbLine
 10
216.1999999999999
 20
287.586362
 30
0.0
 11
226.3
 21
287.586362
 31
0.0
  0
LINE
  5
44C8
330
4316
100
AcDbEntity
  8
1
  6
Continuous
100
AcDbLine
 10
232.25
 20
287.586362
 30
0.0
 11
232.25
 21
289.6212189999999
 31
0.0
  0
LINE
  5
44C9
330
4316
100
AcDbEntity
  8
1
  6
Continuous
100
AcDbLine
 10
230.75
 20
299.586362
 30
0.0
 11
232.25
 21
299.586362
 31
0.0
  0
ARC
  5
44CA
330
4316
100
AcDbEntity
  8
1
  6
Continuous
100
AcDbCircle
 10
230.75
 20
287.586362
 30
0.0
 40
1.5
100
AcDbArc
 50
270.0
 51
0.0
  0
ARC
  5
44CB
330
4316
100
AcDbEntity
  8
1
  6
Continuous
100
AcDbCircle
 10
230.75
 20
294.086362
 30
0.0
 40
1.5
100
AcDbArc
 50
294.98902
 51
318.189685
  0
LINE
  5
44CC
330
4316
100
AcDbEntity
  8
1
  6
Continuous
100
AcDbLine
 10
228.25
 20
292.586362
 30
0.0
 11
229.730304
 21
292.586362
 31
0.0
  0
LINE
  5
44CD
330
4316
100
AcDbEntity
  8
1
  6
Continuous
100
AcDbLine
 10
233.25
 20
288.836362
 30
0.0
 11
233.25
 21
289.086362
 31
0.0
  0
LINE
  5
44CE
330
4316
100
AcDbEntity
  8
1
  6
Continuous
100
AcDbLine
 10
232.5006259999999
 20
291.336362
 30
0.0
 11
234.5
 21
291.336362
 31
0.0
  0
LINE
  5
44CF
330
4316
100
AcDbEntity
  8
1
  6
Continuous
100
AcDbLine
 10
232.25
 20
288.836362
 30
0.0
 11
233.25
 21
288.836362
 31
0.0
  0
ARC
  5
44D0
330
4316
100
AcDbEntity
  8
1
  6
Continuous
100
AcDbCircle
 10
229.2499999999999
 20
285.447023
 30
0.0
 40
1.5
100
AcDbArc
 50
311.810315
 51
324.98618
  0
ARC
  5
44D1
330
4316
100
AcDbEntity
  8
1
  6
Continuous
100
AcDbCircle
 10
213.2499999999998
 20
285.447023
 30
0.0
 40
1.5
100
AcDbArc
 50
215.01382
 51
228.1896849999998
  0
LINE
  5
44D2
330
4316
100
AcDbEntity
  8
1
  6
Continuous
100
AcDbLine
 10
214.25
 20
282.086362
 30
0.0
 11
228.25
 21
282.086362
 31
0.0
  0
LINE
  5
44D3
330
4316
100
AcDbEntity
  8
1
  6
Continuous
100
AcDbLine
 10
212.25
 20
284.086362
 30
0.0
 11
212.25
 21
286.0863619999999
 31
0.0
  0
LINE
  5
44D4
330
4316
100
AcDbEntity
  8
1
  6
Continuous
100
AcDbLine
 10
230.25
 20
284.086362
 30
0.0
 11
230.25
 21
286.0863619999999
 31
0.0
  0
LINE
  5
44D5
330
4316
100
AcDbEntity
  8
1
  6
Continuous
100
AcDbLine
 10
233.8499999999999
 20
286.0863619999999
 30
0.0
 11
233.8499999999999
 21
289.086362
 31
0.0
  0
LINE
  5
44D6
330
4316
100
AcDbEntity
  8
1
  6
Continuous
100
AcDbLine
 10
505.697848
 20
143.0431809999998
 30
0.0
 11
505.697848
 21
161.543181
 31
0.0
  0
LINE
  5
44D7
330
4316
100
AcDbEntity
  8
1
  6
Continuous
100
AcDbLine
 10
483.497848
 20
143.0431809999998
 30
0.0
 11
483.497848
 21
161.543181
 31
0.0
  0
LINE
  5
44D8
330
4316
100
AcDbEntity
  8
1
  6
Continuous
100
AcDbLine
 10
232.35
 20
286.0863619999999
 30
0.0
 11
232.35
 21
288.836362
 31
0.0
  0
LINE
  5
44D9
330
4316
100
AcDbEntity
  8
1
  6
Continuous
100
AcDbLine
 10
232.35
 20
299.586362
 30
0.0
 11
233.8499999999999
 21
299.586362
 31
0.0
  0
ARC
  5
44DA
330
4316
100
AcDbEntity
  8
1
  6
Continuous
100
AcDbCircle
 10
232.35
 20
286.0863619999999
 30
0.0
 40
1.5
100
AcDbArc
 50
270.0
 51
0.0
  0
LINE
  5
44DB
330
4316
100
AcDbEntity
  8
1
  6
Continuous
100
AcDbLine
 10
232.35
 20
291.452449
 30
0.0
 11
232.35
 21
293.086362
 31
0.0
  0
ARC
  5
44DC
330
4316
100
AcDbEntity
  8
1
  6
Continuous
100
AcDbCircle
 10
228.25
 20
284.086362
 30
0.0
 40
2.0
100
AcDbArc
 50
270.0
 51
0.0
  0
ARC
  5
44DD
330
4316
100
AcDbEntity
  8
1
  6
Continuous
100
AcDbCircle
 10
214.25
 20
284.086362
 30
0.0
 40
2.0
100
AcDbArc
 50
180.0
 51
270.0
  0
LINE
  5
44DE
330
4316
100
AcDbEntity
  8
1
  6
Continuous
100
AcDbLine
 10
230.25
 20
284.586362
 30
0.0
 11
232.35
 21
284.586362
 31
0.0
  0
LINE
  5
44DF
330
4316
100
AcDbEntity
  8
1
  6
Continuous
100
AcDbLine
 10
226.25
 20
288.0863619999999
 30
0.0
 11
226.25
 21
293.086362
 31
0.0
  0
LINE
  5
44E0
330
4316
100
AcDbEntity
  8
1
  6
Continuous
100
AcDbLine
 10
216.25
 20
288.0863619999999
 30
0.0
 11
216.25
 21
293.086362
 31
0.0
  0
LINE
  5
44E1
330
4316
100
AcDbEntity
  8
1
  6
Continuous
100
AcDbLine
 10
218.25
 20
288.0863619999999
 30
0.0
 11
218.25
 21
293.086362
 31
0.0
  0
LINE
  5
44E2
330
4316
100
AcDbEntity
  8
1
  6
Continuous
100
AcDbLine
 10
224.25
 20
288.0863619999999
 30
0.0
 11
224.25
 21
293.086362
 31
0.0
  0
LINE
  5
44E3
330
4316
100
AcDbEntity
  8
1
  6
Continuous
100
AcDbLine
 10
218.25
 20
298.086362
 30
0.0
 11
224.25
 21
298.086362
 31
0.0
  0
LINE
  5
44E4
330
4316
100
AcDbEntity
  8
1
  6
Continuous
100
AcDbLine
 10
216.25
 20
288.0863619999999
 30
0.0
 11
218.25
 21
288.0863619999999
 31
0.0
  0
LINE
  5
44E5
330
4316
100
AcDbEntity
  8
1
  6
Continuous
100
AcDbLine
 10
224.25
 20
288.0863619999999
 30
0.0
 11
226.25
 21
288.0863619999999
 31
0.0
  0
ARC
  5
44E6
330
4316
100
AcDbEntity
  8
1
  6
Continuous
100
AcDbCircle
 10
218.25
 20
298.086362
 30
0.0
 40
2.0
100
AcDbArc
 50
90.0
 51
180.0
  0
ARC
  5
44E7
330
4316
100
AcDbEntity
  8
1
  6
Continuous
100
AcDbCircle
 10
224.25
 20
298.086362
 30
0.0
 40
2.0
100
AcDbArc
 50
0.0
 51
90.0
  0
LINE
  5
44E8
330
4316
100
AcDbEntity
  8
1
  6
Continuous
100
AcDbLine
 10
214.25
 20
292.586362
 30
0.0
 11
214.25
 21
293.086362
 31
0.0
  0
LINE
  5
44E9
330
4316
100
AcDbEntity
  8
1
  6
Continuous
100
AcDbLine
 10
228.25
 20
292.586362
 30
0.0
 11
228.25
 21
293.086362
 31
0.0
  0
ARC
  5
44EA
330
4316
100
AcDbEntity
  8
1
  6
Continuous
100
AcDbCircle
 10
228.25
 20
298.086362
 30
0.0
 40
2.0
100
AcDbArc
 50
0.0
 51
90.0
  0
ARC
  5
44EB
330
4316
100
AcDbEntity
  8
1
  6
Continuous
100
AcDbCircle
 10
214.25
 20
298.086362
 30
0.0
 40
2.0
100
AcDbArc
 50
90.0
 51
180.0
  0
LINE
  5
44EC
330
4316
100
AcDbEntity
  8
4
  6
CENTER
 48
0.2
100
AcDbLine
 10
212.7938939999999
 20
292.086362
 30
0.0
 11
229.942321
 21
292.086362
 31
0.0
  0
LINE
  5
44ED
330
4316
100
AcDbEntity
  8
1
  6
Continuous
100
AcDbLine
 10
214.25
 20
290.586362
 30
0.0
 11
214.25
 21
293.086362
 31
0.0
  0
LINE
  5
44EE
330
4316
100
AcDbEntity
  8
1
  6
Continuous
100
AcDbLine
 10
214.25
 20
290.586362
 30
0.0
 11
214.6999999999999
 21
290.586362
 31
0.0
  0
LINE
  5
44EF
330
4316
100
AcDbEntity
  8
1
  6
Continuous
100
AcDbLine
 10
228.25
 20
290.586362
 30
0.0
 11
228.25
 21
293.086362
 31
0.0
  0
LINE
  5
44F0
330
4316
100
AcDbEntity
  8
1
  6
Continuous
100
AcDbLine
 10
227.8
 20
290.586362
 30
0.0
 11
228.25
 21
290.586362
 31
0.0
  0
LINE
  5
44F1
330
4316
100
AcDbEntity
  8
4
  6
CENTER
 48
0.2
100
AcDbLine
 10
205.5
 20
295.086362
 30
0.0
 11
237.0
 21
295.086362
 31
0.0
  0
LINE
  5
44F2
330
4316
100
AcDbEntity
  8
1
  6
Continuous
100
AcDbLine
 10
210.0
 20
297.086362
 30
0.0
 11
232.5
 21
297.086362
 31
0.0
  0
LINE
  5
44F3
330
4316
100
AcDbEntity
  8
1
  6
Continuous
100
AcDbLine
 10
210.0
 20
293.086362
 30
0.0
 11
232.5
 21
293.086362
 31
0.0
  0
ARC
  5
44F4
330
4316
100
AcDbEntity
  8
1
  6
Continuous
100
AcDbCircle
 10
232.0
 20
295.086362
 30
0.0
 40
3.5
100
AcDbArc
 50
331.872932
 51
28.127068
  0
LINE
  5
44F5
330
4316
100
AcDbEntity
  8
1
  6
Continuous
100
AcDbLine
 10
235.086664
 20
293.4363619999998
 30
0.0
 11
234.5
 21
293.4363619999998
 31
0.0
  0
LINE
  5
44F6
330
4316
100
AcDbEntity
  8
1
  6
Continuous
100
AcDbLine
 10
235.086664
 20
296.736362
 30
0.0
 11
234.5
 21
296.736362
 31
0.0
  0
LINE
  5
44F7
330
4316
100
AcDbEntity
  8
1
  6
Continuous
100
AcDbLine
 10
214.6999999999999
 20
293.086362
 30
0.0
 11
214.6999999999999
 21
287.586362
 31
0.0
  0
LINE
  5
44F8
330
4316
100
AcDbEntity
  8
1
  6
Continuous
100
AcDbLine
 10
214.25
 20
297.086362
 30
0.0
 11
214.25
 21
300.086362
 31
0.0
  0
LINE
  5
44F9
330
4316
100
AcDbEntity
  8
1
  6
Continuous
100
AcDbLine
 10
212.25
 20
297.086362
 30
0.0
 11
212.25
 21
298.086362
 31
0.0
  0
LINE
  5
44FA
330
4316
100
AcDbEntity
  8
1
  6
Continuous
100
AcDbLine
 10
216.25
 20
297.086362
 30
0.0
 11
216.25
 21
298.086362
 31
0.0
  0
LINE
  5
44FB
330
4316
100
AcDbEntity
  8
1
  6
Continuous
100
AcDbLine
 10
216.1999999999999
 20
293.086362
 30
0.0
 11
216.1999999999999
 21
287.586362
 31
0.0
  0
LINE
  5
44FC
330
4316
100
AcDbEntity
  8
1
  6
Continuous
100
AcDbLine
 10
218.25
 20
297.086362
 30
0.0
 11
218.25
 21
298.086362
 31
0.0
  0
LINE
  5
44FD
330
4316
100
AcDbEntity
  8
1
  6
Continuous
100
AcDbLine
 10
224.25
 20
297.086362
 30
0.0
 11
224.25
 21
298.086362
 31
0.0
  0
LINE
  5
44FE
330
4316
100
AcDbEntity
  8
1
  6
Continuous
100
AcDbLine
 10
226.25
 20
297.086362
 30
0.0
 11
226.25
 21
298.086362
 31
0.0
  0
LINE
  5
44FF
330
4316
100
AcDbEntity
  8
1
  6
Continuous
100
AcDbLine
 10
226.3
 20
293.086362
 30
0.0
 11
226.3
 21
287.586362
 31
0.0
  0
LINE
  5
4500
330
4316
100
AcDbEntity
  8
1
  6
Continuous
100
AcDbLine
 10
227.8
 20
293.086362
 30
0.0
 11
227.8
 21
287.586362
 31
0.0
  0
LINE
  5
4501
330
4316
100
AcDbEntity
  8
1
  6
Continuous
100
AcDbLine
 10
228.25
 20
297.086362
 30
0.0
 11
228.25
 21
300.086362
 31
0.0
  0
LINE
  5
4502
330
4316
100
AcDbEntity
  8
1
  6
Continuous
100
AcDbLine
 10
230.25
 20
297.086362
 30
0.0
 11
230.25
 21
298.086362
 31
0.0
  0
LINE
  5
4503
330
4316
100
AcDbEntity
  8
1
  6
Continuous
100
AcDbLine
 10
230.75
 20
297.393551
 30
0.0
 11
230.75
 21
299.586362
 31
0.0
  0
LINE
  5
4504
330
4316
100
AcDbEntity
  8
1
  6
Continuous
100
AcDbLine
 10
232.25
 20
298.5515049999999
 30
0.0
 11
232.25
 21
299.586362
 31
0.0
  0
LINE
  5
4505
330
4316
100
AcDbEntity
  8
1
  6
Continuous
100
AcDbLine
 10
232.35
 20
298.600507
 30
0.0
 11
232.35
 21
299.586362
 31
0.0
  0
LINE
  5
4506
330
4316
100
AcDbEntity
  8
1
  6
Continuous
100
AcDbLine
 10
234.5
 20
297.836362
 30
0.0
 11
232.5
 21
297.836362
 31
0.0
  0
LINE
  5
4507
330
4316
100
AcDbEntity
  8
1
  6
Continuous
100
AcDbLine
 10
234.5
 20
291.386362
 30
0.0
 11
236.5
 21
291.386362
 31
0.0
  0
LINE
  5
4508
330
4316
100
AcDbEntity
  8
1
  6
Continuous
100
AcDbLine
 10
234.5
 20
296.786362
 30
0.0
 11
236.5
 21
296.786362
 31
0.0
  0
LINE
  5
4509
330
4316
100
AcDbEntity
  8
1
  6
Continuous
100
AcDbLine
 10
233.8499999999999
 20
299.086362
 30
0.0
 11
233.8499999999999
 21
299.586362
 31
0.0
  0
ARC
  5
450A
330
4316
100
AcDbEntity
  8
1
  6
Continuous
100
AcDbCircle
 10
234.5
 20
294.086362
 30
0.0
 40
5.0
100
AcDbArc
 50
191.5369649999999
 51
246.421822
  0
ARC
  5
450B
330
4316
100
AcDbEntity
  8
1
  6
Continuous
100
AcDbCircle
 10
234.5
 20
294.086362
 30
0.0
 40
3.399999999999999
100
AcDbArc
 50
197.104644
 51
233.9681209999999
  0
LINE
  5
450C
330
4316
100
AcDbEntity
  8
1
  6
Continuous
100
AcDbLine
 10
232.25
 20
291.537343
 30
0.0
 11
232.25
 21
293.086362
 31
0.0
  0
LINE
  5
450D
330
4316
100
AcDbEntity
  8
1
  6
Continuous
100
AcDbLine
 10
232.5
 20
299.086362
 30
0.0
 11
234.5
 21
299.086362
 31
0.0
  0
LINE
  5
450E
330
4316
100
AcDbEntity
  8
1
  6
Continuous
100
AcDbLine
 10
234.5
 20
289.086362
 30
0.0
 11
232.5
 21
289.086362
 31
0.0
  0
LINE
  5
450F
330
4316
100
AcDbEntity
  8
1
  6
Continuous
100
AcDbLine
 10
234.5
 20
299.086362
 30
0.0
 11
234.5
 21
289.086362
 31
0.0
  0
LINE
  5
4510
330
4316
100
AcDbEntity
  8
1
  6
Continuous
100
AcDbLine
 10
232.5
 20
299.086362
 30
0.0
 11
232.5
 21
289.086362
 31
0.0
  0
ARC
  5
4512
330
4316
100
AcDbEntity
  8
1
  6
Continuous
100
AcDbCircle
 10
234.5
 20
294.086362
 30
0.0
 40
5.0
100
AcDbArc
 50
270.0
 51
90.02562299999997
  0
ARC
  5
4513
330
4316
100
AcDbEntity
  8
1
  6
Continuous
100
AcDbCircle
 10
234.5
 20
294.086362
 30
0.0
 40
5.0
100
AcDbArc
 50
113.578178
 51
143.1301099999997
  0
LINE
  5
4515
330
4316
100
AcDbEntity
  8
1
  6
Continuous
100
AcDbLine
 10
208.65
 20
299.086362
 30
0.0
 11
208.65
 21
299.586362
 31
0.0
  0
ARC
  5
4516
330
4316
100
AcDbEntity
  8
1
  6
Continuous
100
AcDbCircle
 10
208.0
 20
294.086362
 30
0.0
 40
5.0
100
AcDbArc
 50
36.86989
 51
66.42182199999999
  0
LINE
  5
4517
330
4316
100
AcDbEntity
  8
1
  6
Continuous
100
AcDbLine
 10
210.0
 20
299.086362
 30
0.0
 11
208.0
 21
299.086362
 31
0.0
  0
LINE
  5
4518
330
4316
100
AcDbEntity
  8
1
  6
Continuous
100
AcDbLine
 10
211.75
 20
297.393551
 30
0.0
 11
211.75
 21
299.586362
 31
0.0
  0
LINE
  5
4519
330
4316
100
AcDbEntity
  8
1
  6
Continuous
100
AcDbLine
 10
210.15
 20
298.600507
 30
0.0
 11
210.15
 21
299.586362
 31
0.0
  0
LINE
  5
451A
330
4316
100
AcDbEntity
  8
1
  6
Continuous
100
AcDbLine
 10
210.25
 20
298.5515049999999
 30
0.0
 11
210.25
 21
299.586362
 31
0.0
  0
LINE
  5
451B
330
4316
100
AcDbEntity
  8
1
  6
Continuous
100
AcDbLine
 10
208.0
 20
297.836362
 30
0.0
 11
210.0
 21
297.836362
 31
0.0
  0
LINE
  5
451C
330
4316
100
AcDbEntity
  8
1
  6
Continuous
100
AcDbLine
 10
207.4133359999999
 20
296.736362
 30
0.0
 11
208.0
 21
296.736362
 31
0.0
  0
LINE
  5
451D
330
4316
100
AcDbEntity
  8
1
  6
Continuous
100
AcDbLine
 10
210.15
 20
299.586362
 30
0.0
 11
208.65
 21
299.586362
 31
0.0
  0
LINE
  5
451E
330
4316
100
AcDbEntity
  8
1
  6
Continuous
100
AcDbLine
 10
211.75
 20
299.586362
 30
0.0
 11
210.25
 21
299.586362
 31
0.0
  0
ARC
  5
451F
330
4316
100
AcDbEntity
  8
1
  6
Continuous
100
AcDbCircle
 10
208.0
 20
294.086362
 30
0.0
 40
5.0
100
AcDbArc
 50
89.974377
 51
270.0
  0
ARC
  5
4521
330
4316
100
AcDbEntity
  8
1
  6
Continuous
100
AcDbCircle
 10
210.4999999999999
 20
295.086362
 30
0.0
 40
3.5
100
AcDbArc
 50
151.872932
 51
208.1270679999999
  0
LINE
  5
4523
330
4316
100
AcDbEntity
  8
1
  6
Continuous
100
AcDbLine
 10
208.0
 20
299.086362
 30
0.0
 11
208.0
 21
289.086362
 31
0.0
  0
LINE
  5
4524
330
4316
100
AcDbEntity
  8
1
  6
Continuous
100
AcDbLine
 10
210.0
 20
299.086362
 30
0.0
 11
210.0
 21
289.086362
 31
0.0
  0
ARC
  5
4525
330
4316
100
AcDbEntity
  8
1
  6
Continuous
100
AcDbCircle
 10
208.0
 20
294.086362
 30
0.0
 40
3.399999999999999
100
AcDbArc
 50
306.031879
 51
342.895356
  0
ARC
  5
4526
330
4316
100
AcDbEntity
  8
1
  6
Continuous
100
AcDbCircle
 10
211.75
 20
294.086362
 30
0.0
 40
1.5
100
AcDbArc
 50
221.810315
 51
245.0109799999999
  0
LINE
  5
4528
330
4316
100
AcDbEntity
  8
1
  6
Continuous
100
AcDbLine
 10
208.65
 20
286.0863619999999
 30
0.0
 11
208.65
 21
289.086362
 31
0.0
  0
LINE
  5
4529
330
4316
100
AcDbEntity
  8
1
  6
Continuous
100
AcDbLine
 10
209.25
 20
288.836362
 30
0.0
 11
209.25
 21
289.086362
 31
0.0
  0
LINE
  5
452A
330
4316
100
AcDbEntity
  8
1
  6
Continuous
100
AcDbLine
 10
208.0
 20
289.086362
 30
0.0
 11
210.0
 21
289.086362
 31
0.0
  0
LINE
  5
452B
330
4316
100
AcDbEntity
  8
1
  6
Continuous
100
AcDbLine
 10
210.25
 20
287.586362
 30
0.0
 11
210.25
 21
289.6212189999999
 31
0.0
  0
LINE
  5
452C
330
4316
100
AcDbEntity
  8
1
  6
Continuous
100
AcDbLine
 10
210.15
 20
286.0863619999999
 30
0.0
 11
210.15
 21
288.836362
 31
0.0
  0
ARC
  5
452D
330
4316
100
AcDbEntity
  8
1
  6
Continuous
100
AcDbCircle
 10
210.15
 20
286.0863619999999
 30
0.0
 40
1.5
100
AcDbArc
 50
180.0
 51
270.0
  0
LINE
  5
452E
330
4316
100
AcDbEntity
  8
1
  6
Continuous
100
AcDbLine
 10
210.25
 20
288.836362
 30
0.0
 11
209.25
 21
288.836362
 31
0.0
  0
LINE
  5
452F
330
4316
100
AcDbEntity
  8
1
  6
Continuous
100
AcDbLine
 10
210.15
 20
291.452449
 30
0.0
 11
210.15
 21
293.086362
 31
0.0
  0
LINE
  5
4530
330
4316
100
AcDbEntity
  8
1
  6
Continuous
100
AcDbLine
 10
209.9993739999999
 20
291.336362
 30
0.0
 11
208.0
 21
291.336362
 31
0.0
  0
LINE
  5
4531
330
4316
100
AcDbEntity
  8
1
  6
Continuous
100
AcDbLine
 10
210.25
 20
291.537343
 30
0.0
 11
210.25
 21
293.086362
 31
0.0
  0
LINE
  5
4532
330
4316
100
AcDbEntity
  8
1
  6
Continuous
100
AcDbLine
 10
207.4133359999999
 20
293.4363619999998
 30
0.0
 11
208.0
 21
293.4363619999998
 31
0.0
  0
ARC
  5
4533
330
4316
100
AcDbEntity
  8
1
  6
Continuous
100
AcDbCircle
 10
211.75
 20
287.586362
 30
0.0
 40
1.5
100
AcDbArc
 50
180.0
 51
270.0
  0
LINE
  5
4534
330
4316
100
AcDbEntity
  8
1
  6
Continuous
100
AcDbLine
 10
212.25
 20
284.586362
 30
0.0
 11
210.15
 21
284.586362
 31
0.0
  0
ARC
  5
4535
330
4316
100
AcDbEntity
  8
1
  6
Continuous
100
AcDbCircle
 10
208.0
 20
294.086362
 30
0.0
 40
5.0
100
AcDbArc
 50
293.5781779999998
 51
348.463035
  0
LINE
  5
4536
330
4316
100
AcDbEntity
  8
1
  6
Continuous
100
AcDbLine
 10
214.25
 20
292.586362
 30
0.0
 11
212.769696
 21
292.586362
 31
0.0
  0
LINE
  5
4537
330
4316
100
AcDbEntity
  8
1
  6
Continuous
100
AcDbLine
 10
76.107179
 20
192.043181
 30
0.0
 11
85.89282
 21
192.043181
 31
0.0
  0
LINE
  5
4538
330
4316
100
AcDbEntity
  8
1
  6
Continuous
100
AcDbLine
 10
85.5
 20
176.543181
 30
0.0
 11
76.5
 21
176.543181
 31
0.0
  0
LINE
  5
4539
330
4316
100
AcDbEntity
  8
1
  6
Continuous
100
AcDbLine
 10
76.107179
 20
179.543181
 30
0.0
 11
85.89282
 21
179.543181
 31
0.0
  0
LINE
  5
453B
330
4316
100
AcDbEntity
  8
4
  6
CENTER
 48
0.1
100
AcDbLine
 10
84.15
 20
167.043181
 30
0.0
 11
77.84999999999998
 21
167.043181
 31
0.0
  0
LINE
  5
453C
330
4316
100
AcDbEntity
  8
5
  6
PHANTOM
 48
0.1
100
AcDbLine
 10
90.5
 20
156.5431809999997
 30
0.0
 11
78.5
 21
156.5431809999997
 31
0.0
  0
LINE
  5
453D
330
4316
100
AcDbEntity
  8
1
  6
Continuous
100
AcDbLine
 10
93.0
 20
161.543181
 30
0.0
 11
78.5
 21
161.543181
 31
0.0
  0
LINE
  5
453E
330
4316
100
AcDbEntity
  8
4
  6
CENTER
 48
0.1
100
AcDbLine
 10
87.75
 20
163.043181
 30
0.0
 11
82.24999999999999
 21
163.043181
 31
0.0
  0
LINE
  5
453F
330
4316
100
AcDbEntity
  8
4
  6
CENTER
 48
0.1
100
AcDbLine
 10
84.0
 20
145.0431809999997
 30
0.0
 11
77.0
 21
145.0431809999997
 31
0.0
  0
LINE
  5
4540
330
4316
100
AcDbEntity
  8
4
  6
CENTER
 48
0.1
100
AcDbLine
 10
84.0
 20
150.043181
 30
0.0
 11
77.0
 21
150.043181
 31
0.0
  0
LINE
  5
4541
330
4316
100
AcDbEntity
  8
5
  6
PHANTOM
 48
0.1
100
AcDbLine
 10
90.5
 20
138.043181
 30
0.0
 11
80.5
 21
138.043181
 31
0.0
  0
LINE
  5
4542
330
4316
100
AcDbEntity
  8
1
  6
Continuous
100
AcDbLine
 10
89.0
 20
139.543181
 30
0.0
 11
80.5
 21
139.543181
 31
0.0
  0
LINE
  5
4543
330
4316
100
AcDbEntity
  8
1
  6
Continuous
100
AcDbLine
 10
90.5
 20
143.0431809999998
 30
0.0
 11
80.5
 21
143.0431809999998
 31
0.0
  0
LINE
  5
4544
330
4316
100
AcDbEntity
  8
1
  6
Continuous
100
AcDbLine
 10
89.0
 20
189.543181
 30
0.0
 11
89.0
 21
161.543181
 31
0.0
  0
LINE
  5
454B
330
4316
100
AcDbEntity
  8
1
  6
Continuous
100
AcDbLine
 10
90.5
 20
161.543181
 30
0.0
 11
90.5
 21
143.0431809999998
 31
0.0
  0
LINE
  5
454C
330
4316
100
AcDbEntity
  8
5
  6
PHANTOM
 48
0.1
100
AcDbLine
 10
90.5
 20
138.043181
 30
0.0
 11
90.5
 21
143.0431809999998
 31
0.0
  0
LINE
  5
454D
330
4316
100
AcDbEntity
  8
1
  6
Continuous
100
AcDbLine
 10
89.0
 20
143.0431809999998
 30
0.0
 11
89.0
 21
137.743181
 31
0.0
  0
LINE
  5
454E
330
4316
100
AcDbEntity
  8
1
  6
Continuous
100
AcDbLine
 10
90.07867899999999
 20
134.543181
 30
0.0
 11
91.13933900000001
 21
135.6038409999999
 31
0.0
  0
LINE
  5
454F
330
4316
100
AcDbEntity
  8
1
  6
Continuous
100
AcDbLine
 10
89.0
 20
137.743181
 30
0.0
 11
91.13933900000001
 21
135.6038409999999
 31
0.0
  0
ARC
  5
4550
330
4316
100
AcDbEntity
  8
1
  6
Continuous
100
AcDbCircle
 10
89.0
 20
137.743181
 30
0.0
 40
1.5
100
AcDbArc
 50
180.0
 51
225.0
  0
LINE
  5
4551
330
4316
100
AcDbEntity
  8
1
  6
Continuous
100
AcDbLine
 10
87.939339
 20
136.682521
 30
0.0
 11
90.07867899999999
 21
134.543181
 31
0.0
  0
LINE
  5
4552
330
4316
100
AcDbEntity
  8
1
  6
Continuous
100
AcDbLine
 10
87.5
 20
139.543181
 30
0.0
 11
87.5
 21
137.743181
 31
0.0
  0
LINE
  5
4555
330
4316
100
AcDbEntity
  8
1
  6
Continuous
100
AcDbLine
 10
93.0
 20
163.043181
 30
0.0
 11
93.0
 21
161.543181
 31
0.0
  0
ARC
  5
4556
330
4316
100
AcDbEntity
  8
1
  6
Continuous
100
AcDbCircle
 10
90.5
 20
161.543181
 30
0.0
 40
1.5
100
AcDbArc
 50
90.0
 51
180.0
  0
LINE
  5
4557
330
4316
100
AcDbEntity
  8
4
  6
CENTER
 48
0.1
100
AcDbLine
 10
85.0
 20
165.793181
 30
0.0
 11
85.0
 21
160.293181
 31
0.0
  0
CIRCLE
  5
4558
330
4316
100
AcDbEntity
  8
1
  6
Continuous
100
AcDbCircle
 10
85.0
 20
163.043181
 30
0.0
 40
1.25
  0
LINE
  5
4559
330
4316
100
AcDbEntity
  8
1
  6
Continuous
100
AcDbLine
 10
93.0
 20
163.043181
 30
0.0
 11
90.5
 21
163.043181
 31
0.0
  0
ARC
  5
455A
330
4316
100
AcDbEntity
  8
1
  6
Continuous
100
AcDbCircle
 10
87.0
 20
169.543181
 30
0.0
 40
2.0
100
AcDbArc
 50
0.0
 51
90.0
  0
LINE
  5
455B
330
4316
100
AcDbEntity
  8
1
  6
Continuous
100
AcDbLine
 10
87.0
 20
171.543181
 30
0.0
 11
83.75
 21
171.543181
 31
0.0
  0
LINE
  5
455C
330
4316
100
AcDbEntity
  8
1
  6
Continuous
100
AcDbLine
 10
83.70000000000002
 20
189.8570618785714
 30
0.0
 11
83.7
 21
189.4485859559523
 31
0.0
  0
ARC
  5
455D
330
4316
100
AcDbEntity
  8
1
  6
Continuous
100
AcDbCircle
 10
85.5
 20
194.543181
 30
0.0
 40
0.5
100
AcDbArc
 50
0.0
 51
90.0
  0
ARC
  5
455E
330
4316
100
AcDbEntity
  8
1
  6
Continuous
100
AcDbCircle
 10
85.5
 20
177.043181
 30
0.0
 40
0.5
100
AcDbArc
 50
270.0
 51
0.0
  0
LINE
  5
455F
330
4316
100
AcDbEntity
  8
1
  6
Continuous
100
AcDbLine
 10
86.0
 20
179.043181
 30
0.0
 11
86.0
 21
177.043181
 31
0.0
  0
ARC
  5
4560
330
4316
100
AcDbEntity
  8
1
  6
Continuous
100
AcDbCircle
 10
85.49999900000001
 20
179.043181
 30
0.0
 40
0.5
100
AcDbArc
 50
0.0
 51
90.0
  0
LINE
  5
4561
330
4316
100
AcDbEntity
  8
1
  6
Continuous
100
AcDbLine
 10
86.0
 20
194.543181
 30
0.0
 11
86.0
 21
192.543181
 31
0.0
  0
ARC
  5
4562
330
4316
100
AcDbEntity
  8
1
  6
Continuous
100
AcDbCircle
 10
85.49999900000001
 20
192.543181
 30
0.0
 40
0.5
100
AcDbArc
 50
270.0
 51
0.0
  0
LINE
  5
4563
330
4316
100
AcDbEntity
  8
1
  6
Continuous
100
AcDbLine
 10
89.0
 20
189.543181
 30
0.0
 11
85.54871099999997
 21
189.543181
 31
0.0
  0
LINE
  5
4564
330
4316
100
AcDbEntity
  8
1
  6
Continuous
100
AcDbLine
 10
85.5
 20
195.0431809999997
 30
0.0
 11
83.7
 21
195.0431809999997
 31
0.0
  0
LINE
  5
4565
330
4316
100
AcDbEntity
  8
1
  6
Continuous
100
AcDbLine
 10
75.0
 20
189.543181
 30
0.0
 11
75.0
 21
152.043181
 31
0.0
  0
LINE
  5
4567
330
4316
100
AcDbEntity
  8
1
  6
Continuous
100
AcDbLine
 10
77.0
 20
176.543181
 30
0.0
 11
77.0
 21
171.543181
 31
0.0
  0
LINE
  5
4568
330
4316
100
AcDbEntity
  8
4
  6
CENTER
 48
0.2
100
AcDbLine
 10
80.5
 20
141.543181
 30
0.0
 11
80.5
 21
153.543181
 31
0.0
  0
LINE
  5
4569
330
4316
100
AcDbEntity
  8
1
  6
Continuous
100
AcDbLine
 10
75.5
 20
144.543181
 30
0.0
 11
75.5
 21
170.0431809999997
 31
0.0
  0
CIRCLE
  5
456A
330
4316
100
AcDbEntity
  8
1
  6
Continuous
100
AcDbCircle
 10
80.5
 20
150.043181
 30
0.0
 40
2.5
  0
ARC
  5
456B
330
4316
100
AcDbEntity
  8
1
  6
Continuous
100
AcDbCircle
 10
80.5
 20
144.543181
 30
0.0
 40
5.0
100
AcDbArc
 50
180.0
 51
270.0
  0
ARC
  5
456C
330
4316
100
AcDbEntity
  8
5
  6
PHANTOM
 48
0.1
100
AcDbCircle
 10
80.5
 20
143.0431809999998
 30
0.0
 40
5.0
100
AcDbArc
 50
180.0
 51
270.0
  0
LINE
  5
456D
330
4316
100
AcDbEntity
  8
1
  6
Continuous
100
AcDbLine
 10
75.0
 20
152.043181
 30
0.0
 11
75.5
 21
152.043181
 31
0.0
  0
ARC
  5
456E
330
4316
100
AcDbEntity
  8
1
  6
Continuous
100
AcDbCircle
 10
80.5
 20
148.0431809999998
 30
0.0
 40
5.0
100
AcDbArc
 50
180.0
 51
270.0
  0
LINE
  5
456F
330
4316
100
AcDbEntity
  8
5
  6
PHANTOM
 48
0.1
100
AcDbLine
 10
75.5
 20
143.0431809999998
 30
0.0
 11
75.5
 21
144.543181
 31
0.0
  0
CIRCLE
  5
4570
330
4316
100
AcDbEntity
  8
5
  6
PHANTOM
 48
0.1
100
AcDbCircle
 10
80.5
 20
145.0431809999997
 30
0.0
 40
2.5
  0
ARC
  5
4571
330
4316
100
AcDbEntity
  8
5
  6
PHANTOM
 48
0.1
100
AcDbCircle
 10
78.5
 20
153.543181
 30
0.0
 40
3.0
100
AcDbArc
 50
90.0
 51
180.0
  0
ARC
  5
4572
330
4316
100
AcDbEntity
  8
1
  6
Continuous
100
AcDbCircle
 10
78.5
 20
158.543181
 30
0.0
 40
3.0
100
AcDbArc
 50
90.0
 51
180.0
  0
LINE
  5
4573
330
4316
100
AcDbEntity
  8
4
  6
CENTER
 48
0.1
100
AcDbLine
 10
78.5
 20
159.543181
 30
0.0
 11
73.5
 21
159.543181
 31
0.0
  0
LINE
  5
4574
330
4316
100
AcDbEntity
  8
1
  6
Continuous
100
AcDbLine
 10
75.5
 20
163.543181
 30
0.0
 11
75.0
 21
163.543181
 31
0.0
  0
ARC
  5
4575
330
4316
100
AcDbEntity
  8
1
  6
Continuous
100
AcDbCircle
 10
77.0
 20
170.0431809999997
 30
0.0
 40
1.5
100
AcDbArc
 50
90.0
 51
180.0
  0
LINE
  5
4576
330
4316
100
AcDbEntity
  8
4
  6
CENTER
 48
0.1
100
AcDbLine
 10
81.0
 20
170.193181
 30
0.0
 11
81.0
 21
163.893181
 31
0.0
  0
CIRCLE
  5
4577
330
4316
100
AcDbEntity
  8
1
  6
Continuous
100
AcDbCircle
 10
81.0
 20
167.043181
 30
0.0
 40
1.649999999999999
  0
LINE
  5
4578
330
4316
100
AcDbEntity
  8
1
  6
Continuous
100
AcDbLine
 10
77.0
 20
171.543181
 30
0.0
 11
78.25
 21
171.543181
 31
0.0
  0
LINE
  5
4579
330
4316
100
AcDbEntity
  8
1
  6
Continuous
100
AcDbLine
 10
78.3
 20
190.9824176190476
 30
0.0
 11
78.30000000000002
 21
190.8193002416666
 31
0.0
  0
ARC
  5
457A
330
4316
100
AcDbEntity
  8
1
  6
Continuous
100
AcDbCircle
 10
76.5
 20
194.543181
 30
0.0
 40
0.5
100
AcDbArc
 50
90.0
 51
180.0
  0
LINE
  5
457B
330
4316
100
AcDbEntity
  8
4
  6
CENTER
 48
0.1
100
AcDbLine
 10
78.5
 20
173.543181
 30
0.0
 11
73.5
 21
173.543181
 31
0.0
  0
ARC
  5
457C
330
4316
100
AcDbEntity
  8
1
  6
Continuous
100
AcDbCircle
 10
76.499999
 20
179.043181
 30
0.0
 40
0.5
100
AcDbArc
 50
90.0
 51
180.0
  0
ARC
  5
457D
330
4316
100
AcDbEntity
  8
1
  6
Continuous
100
AcDbCircle
 10
76.5
 20
177.043181
 30
0.0
 40
0.5
100
AcDbArc
 50
180.0
 51
270.0
  0
LINE
  5
457E
330
4316
100
AcDbEntity
  8
1
  6
Continuous
100
AcDbLine
 10
76.0
 20
179.043181
 30
0.0
 11
76.0
 21
177.043181
 31
0.0
  0
LINE
  5
457F
330
4316
100
AcDbEntity
  8
1
  6
Continuous
100
AcDbLine
 10
76.054412
 20
189.543181
 30
0.0
 11
75.0
 21
189.543181
 31
0.0
  0
ARC
  5
4580
330
4316
100
AcDbEntity
  8
1
  6
Continuous
100
AcDbCircle
 10
76.499999
 20
192.543181
 30
0.0
 40
0.5
100
AcDbArc
 50
180.0
 51
270.0
  0
LINE
  5
4581
330
4316
100
AcDbEntity
  8
1
  6
Continuous
100
AcDbLine
 10
76.0
 20
194.543181
 30
0.0
 11
76.0
 21
192.543181
 31
0.0
  0
LINE
  5
4582
330
4316
100
AcDbEntity
  8
1
  6
Continuous
100
AcDbLine
 10
78.3
 20
195.0431809999997
 30
0.0
 11
76.5
 21
195.0431809999997
 31
0.0
  0
LINE
  5
4583
330
4316
100
AcDbEntity
  8
1
  6
Continuous
100
AcDbLine
 10
33.033
 20
209.543181
 30
0.0
 11
31.953402
 21
204.113976
 31
0.0
  0
LINE
  5
4584
330
4316
100
AcDbEntity
  8
1
  6
Continuous
100
AcDbLine
 10
35.0
 20
209.176181
 30
0.0
 11
33.923
 21
203.762181
 31
0.0
  0
LINE
  5
4585
330
4316
100
AcDbEntity
  8
1
  6
Continuous
100
AcDbLine
 10
27.0
 20
209.543181
 30
0.0
 11
27.0
 21
199.543181
 31
0.0
  0
LINE
  5
4586
330
4316
100
AcDbEntity
  8
1
  6
Continuous
100
AcDbLine
 10
25.0
 20
209.543181
 30
0.0
 11
25.0
 21
199.543181
 31
0.0
  0
LINE
  5
4587
330
4316
100
AcDbEntity
  8
1
  6
Continuous
100
AcDbLine
 10
30.0
 20
202.543181
 30
0.0
 11
27.5
 21
202.543181
 31
0.0
  0
LINE
  5
4588
330
4316
100
AcDbEntity
  8
1
  6
Continuous
100
AcDbLine
 10
30.0
 20
200.543181
 30
0.0
 11
27.5
 21
200.543181
 31
0.0
  0
ARC
  5
4589
330
4316
100
AcDbEntity
  8
1
  6
Continuous
100
AcDbCircle
 10
30.0
 20
204.543181
 30
0.0
 40
2.0
100
AcDbArc
 50
270.0
 51
349.8990999999999
  0
ARC
  5
458A
330
4316
100
AcDbEntity
  8
1
  6
Continuous
100
AcDbCircle
 10
30.0
 20
204.543181
 30
0.0
 40
4.0
100
AcDbArc
 50
270.0
 51
348.7509999999998
  0
ARC
  5
458B
330
4316
100
AcDbEntity
  8
1
  6
Continuous
100
AcDbCircle
 10
27.5
 20
203.043181
 30
0.0
 40
2.5
100
AcDbArc
 50
258.4629999999999
 51
270.0
  0
ARC
  5
458C
330
4316
100
AcDbEntity
  8
1
  6
Continuous
100
AcDbCircle
 10
27.5
 20
203.043181
 30
0.0
 40
0.5
100
AcDbArc
 50
180.0
 51
270.0
  0
LINE
  5
458D
330
4316
100
AcDbEntity
  8
1
  6
Continuous
100
AcDbLine
 10
27.0
 20
199.543181
 30
0.0
 11
25.0
 21
199.543181
 31
0.0
  0
LINE
  5
458E
330
4316
100
AcDbEntity
  8
4
  6
CENTER
 48
0.1
100
AcDbLine
 10
28.5
 20
204.543181
 30
0.0
 11
23.5
 21
204.543181
 31
0.0
  0
LINE
  5
458F
330
4316
100
AcDbEntity
  8
1
  6
Continuous
100
AcDbLine
 10
35.0
 20
209.176181
 30
0.0
 11
33.033
 21
209.543181
 31
0.0
  0
LINE
  5
4590
330
4316
100
AcDbEntity
  8
1
  6
Continuous
100
AcDbLine
 10
27.0
 20
209.543181
 30
0.0
 11
25.0
 21
209.543181
 31
0.0
  0
LINE
  5
4591
330
4316
100
AcDbEntity
  8
1
  6
Continuous
100
AcDbLine
 10
214.25
 20
59.0
 30
0.0
 11
228.25
 21
59.0
 31
0.0
  0
LINE
  5
4592
330
4316
100
AcDbEntity
  8
1
  6
Continuous
100
AcDbLine
 10
230.75
 20
55.0
 30
0.0
 11
230.75
 21
55.0
 31
0.0
  0
ARC
  5
4593
330
4316
100
AcDbEntity
  8
1
  6
Continuous
100
AcDbCircle
 10
214.25
 20
57.0
 30
0.0
 40
2.0
100
AcDbArc
 50
90.0
 51
180.0
  0
LINE
  5
4594
330
4316
100
AcDbEntity
  8
1
  6
Continuous
100
AcDbLine
 10
212.0214789999999
 20
56.5
 30
0.0
 11
210.15
 21
56.5
 31
0.0
  0
ARC
  5
4595
330
4316
100
AcDbEntity
  8
1
  6
Continuous
100
AcDbCircle
 10
210.15
 20
55.0
 30
0.0
 40
1.5
100
AcDbArc
 50
90.0
 51
180.0
  0
LINE
  5
4596
330
4316
100
AcDbEntity
  8
1
  6
Continuous
100
AcDbLine
 10
208.65
 20
55.0
 30
0.0
 11
208.65
 21
41.5
 31
0.0
  0
LINE
  5
4597
330
4316
100
AcDbEntity
  8
1
  6
Continuous
100
AcDbLine
 10
212.25
 20
57.0
 30
0.0
 11
212.25
 21
56.757373
 31
0.0
  0
ARC
  5
4598
330
4316
100
AcDbEntity
  8
1
  6
Continuous
100
AcDbCircle
 10
213.2499999999998
 20
55.639339
 30
0.0
 40
1.5
100
AcDbArc
 50
90.0
 51
180.0
  0
LINE
  5
4599
330
4316
100
AcDbEntity
  8
1
  6
Continuous
100
AcDbLine
 10
230.4785209999999
 20
56.5
 30
0.0
 11
232.35
 21
56.5
 31
0.0
  0
ARC
  5
459A
330
4316
100
AcDbEntity
  8
1
  6
Continuous
100
AcDbCircle
 10
228.25
 20
57.0
 30
0.0
 40
2.0
100
AcDbArc
 50
0.0
 51
90.0
  0
ARC
  5
459B
330
4316
100
AcDbEntity
  8
1
  6
Continuous
100
AcDbCircle
 10
232.35
 20
55.0
 30
0.0
 40
1.5
100
AcDbArc
 50
0.0
 51
90.0
  0
LINE
  5
459C
330
4316
100
AcDbEntity
  8
1
  6
Continuous
100
AcDbLine
 10
232.35
 20
55.0
 30
0.0
 11
232.35
 21
41.5
 31
0.0
  0
LINE
  5
459D
330
4316
100
AcDbEntity
  8
1
  6
Continuous
100
AcDbLine
 10
233.8499999999999
 20
55.0
 30
0.0
 11
233.8499999999999
 21
41.5
 31
0.0
  0
LINE
  5
459E
330
4316
100
AcDbEntity
  8
1
  6
Continuous
100
AcDbLine
 10
230.25
 20
57.0
 30
0.0
 11
230.25
 21
56.757373
 31
0.0
  0
ARC
  5
459F
330
4316
100
AcDbEntity
  8
1
  6
Continuous
100
AcDbCircle
 10
229.2499999999999
 20
55.639339
 30
0.0
 40
1.5
100
AcDbArc
 50
0.0
 51
90.0
  0
LINE
  5
45A0
330
4316
100
AcDbEntity
  8
4
  6
CENTER
 48
0.1
100
AcDbLine
 10
282.25
 20
39.0
 30
0.0
 11
282.25
 21
45.0
 31
0.0
  0
LINE
  5
45A1
330
4316
100
AcDbEntity
  8
4
  6
CENTER
 48
0.1
100
AcDbLine
 10
260.25
 20
39.0
 30
0.0
 11
260.25
 21
45.0
 31
0.0
  0
LINE
  5
45A2
330
4316
100
AcDbEntity
  8
4
  6
CENTER
 48
0.2
100
AcDbLine
 10
271.2499999999999
 20
54.0
 30
0.0
 11
271.2499999999999
 21
38.0
 31
0.0
  0
LINE
  5
45A3
330
4316
100
AcDbEntity
  8
1
  6
Continuous
100
AcDbLine
 10
277.2499999999999
 20
51.0
 30
0.0
 11
265.2499999999998
 21
51.0
 31
0.0
  0
LINE
  5
45A4
330
4316
100
AcDbEntity
  8
1
  6
Continuous
100
AcDbLine
 10
255.25
 20
41.0
 30
0.0
 11
287.25
 21
41.0
 31
0.0
  0
LINE
  5
45A5
330
4316
100
AcDbEntity
  8
1
  6
Continuous
100
AcDbLine
 10
255.25
 20
43.0
 30
0.0
 11
264.25
 21
43.0
 31
0.0
  0
ARC
  5
45A6
330
4316
100
AcDbEntity
  8
1
  6
Continuous
100
AcDbCircle
 10
265.2499999999998
 20
50.0
 30
0.0
 40
1.0
100
AcDbArc
 50
90.0
 51
180.0
  0
LINE
  5
45A7
330
4316
100
AcDbEntity
  8
1
  6
Continuous
100
AcDbLine
 10
255.25
 20
41.0
 30
0.0
 11
255.25
 21
43.0
 31
0.0
  0
LINE
  5
45A8
330
4316
100
AcDbEntity
  8
1
  6
Continuous
100
AcDbLine
 10
264.25
 20
50.0
 30
0.0
 11
264.25
 21
41.0
 31
0.0
  0
ARC
  5
45A9
330
4316
100
AcDbEntity
  8
1
  6
Continuous
100
AcDbCircle
 10
277.2499999999999
 20
50.0
 30
0.0
 40
1.0
100
AcDbArc
 50
0.0
 51
90.0
  0
LINE
  5
45AA
330
4316
100
AcDbEntity
  8
1
  6
Continuous
100
AcDbLine
 10
278.25
 20
50.0
 30
0.0
 11
278.25
 21
41.0
 31
0.0
  0
LINE
  5
45AB
330
4316
100
AcDbEntity
  8
1
  6
Continuous
100
AcDbLine
 10
287.25
 20
41.0
 30
0.0
 11
287.25
 21
43.0
 31
0.0
  0
LINE
  5
45AC
330
4316
100
AcDbEntity
  8
1
  6
Continuous
100
AcDbLine
 10
278.25
 20
43.0
 30
0.0
 11
287.25
 21
43.0
 31
0.0
  0
LINE
  5
45AD
330
4316
100
AcDbEntity
  8
1
  6
Continuous
100
AcDbLine
 10
229.2499999999999
 20
57.139339
 30
0.0
 11
213.2499999999998
 21
57.139339
 31
0.0
  0
LINE
  5
45AE
330
4316
100
AcDbEntity
  8
4
  6
CENTER
 48
0.2
100
AcDbLine
 10
212.7938939999999
 20
49.0
 30
0.0
 11
229.942321
 21
49.0
 31
0.0
  0
LINE
  5
45AF
330
4316
100
AcDbEntity
  8
4
  6
CENTER
 48
0.2
100
AcDbLine
 10
221.2499999999999
 20
62.0
 30
0.0
 11
221.2499999999999
 21
38.0
 31
0.0
  0
LINE
  5
45B0
330
4316
100
AcDbEntity
  8
1
  6
Continuous
100
AcDbLine
 10
230.75
 20
55.639339
 30
0.0
 11
230.75
 21
41.5
 31
0.0
  0
LINE
  5
45B1
330
4316
100
AcDbEntity
  8
1
  6
Continuous
100
AcDbLine
 10
211.75
 20
55.639339
 30
0.0
 11
211.75
 21
41.5
 31
0.0
  0
LINE
  5
45B2
330
4316
100
AcDbEntity
  8
1
  6
Continuous
100
AcDbLine
 10
230.75
 20
53.5
 30
0.0
 11
211.75
 21
53.5
 31
0.0
  0
LINE
  5
45B3
330
4316
100
AcDbEntity
  8
1
  6
Continuous
100
AcDbLine
 10
232.25
 20
41.5
 30
0.0
 11
230.75
 21
41.5
 31
0.0
  0
LINE
  5
45B4
330
4316
100
AcDbEntity
  8
1
  6
Continuous
100
AcDbLine
 10
211.75
 20
55.0
 30
0.0
 11
210.15
 21
55.0
 31
0.0
  0
LINE
  5
45B5
330
4316
100
AcDbEntity
  8
1
  6
Continuous
100
AcDbLine
 10
210.15
 20
55.0
 30
0.0
 11
210.15
 21
41.5
 31
0.0
  0
LINE
  5
45B6
330
4316
100
AcDbEntity
  8
1
  6
Continuous
100
AcDbLine
 10
228.25
 20
41.0
 30
0.0
 11
214.25
 21
41.0
 31
0.0
  0
LINE
  5
45B7
330
4316
100
AcDbEntity
  8
4
  6
CENTER
 48
0.2
100
AcDbLine
 10
204.6499999999999
 20
46.5
 30
0.0
 11
238.349999
 21
46.5
 31
0.0
  0
LINE
  5
45B8
330
4316
100
AcDbEntity
  8
1
  6
Continuous
100
AcDbLine
 10
210.15
 20
41.5
 30
0.0
 11
208.65
 21
41.5
 31
0.0
  0
LINE
  5
45B9
330
4316
100
AcDbEntity
  8
1
  6
Continuous
100
AcDbLine
 10
232.35
 20
41.5
 30
0.0
 11
233.8499999999999
 21
41.5
 31
0.0
  0
LINE
  5
45BA
330
4316
100
AcDbEntity
  8
1
  6
Continuous
100
AcDbLine
 10
232.25
 20
53.5
 30
0.0
 11
232.25
 21
41.5
 31
0.0
  0
ARC
  5
45BB
330
4316
100
AcDbEntity
  8
1
  6
Continuous
100
AcDbCircle
 10
230.75
 20
53.5
 30
0.0
 40
1.5
100
AcDbArc
 50
0.0
 51
90.0
  0
LINE
  5
45BC
330
4316
100
AcDbEntity
  8
1
  6
Continuous
100
AcDbLine
 10
232.35
 20
55.0
 30
0.0
 11
230.75
 21
55.0
 31
0.0
  0
ARC
  5
45BD
330
4316
100
AcDbEntity
  8
1
  6
Continuous
100
AcDbCircle
 10
211.75
 20
53.5
 30
0.0
 40
1.5
100
AcDbArc
 50
90.0
 51
180.0
  0
LINE
  5
45BE
330
4316
100
AcDbEntity
  8
1
  6
Continuous
100
AcDbLine
 10
210.25
 20
53.5
 30
0.0
 11
210.25
 21
41.5
 31
0.0
  0
LINE
  5
45BF
330
4316
100
AcDbEntity
  8
1
  6
Continuous
100
AcDbLine
 10
210.25
 20
41.5
 30
0.0
 11
211.75
 21
41.5
 31
0.0
  0
LINE
  5
45C0
330
4316
100
AcDbEntity
  8
1
  6
Continuous
100
AcDbLine
 10
207.65
 20
44.0
 30
0.0
 11
207.65
 21
49.0
 31
0.0
  0
LINE
  5
45C1
330
4316
100
AcDbEntity
  8
1
  6
Continuous
100
AcDbLine
 10
207.65
 20
44.0
 30
0.0
 11
208.65
 21
44.0
 31
0.0
  0
LINE
  5
45C2
330
4316
100
AcDbEntity
  8
1
  6
Continuous
100
AcDbLine
 10
207.65
 20
49.0
 30
0.0
 11
208.65
 21
49.0
 31
0.0
  0
ARC
  5
45C3
330
4316
100
AcDbEntity
  8
1
  6
Continuous
100
AcDbCircle
 10
232.5166659999999
 20
46.5
 30
0.0
 40
2.833333
100
AcDbArc
 50
298.072487
 51
61.92751300000002
  0
LINE
  5
45C4
330
4316
100
AcDbEntity
  8
1
  6
Continuous
100
AcDbLine
 10
212.25
 20
53.5
 30
0.0
 11
212.25
 21
48.5
 31
0.0
  0
LINE
  5
45C5
330
4316
100
AcDbEntity
  8
1
  6
Continuous
100
AcDbLine
 10
220.9499999999999
 20
45.0
 30
0.0
 11
220.25
 21
45.0
 31
0.0
  0
LINE
  5
45C6
330
4316
100
AcDbEntity
  8
1
  6
Continuous
100
AcDbLine
 10
220.9499999999999
 20
48.0
 30
0.0
 11
220.25
 21
48.0
 31
0.0
  0
ARC
  5
45C7
330
4316
100
AcDbEntity
  8
1
  6
Continuous
100
AcDbCircle
 10
221.2499999999999
 20
43.79999999999999
 30
0.0
 40
0.3
100
AcDbArc
 50
180.0
 51
0.0
  0
LINE
  5
45C8
330
4316
100
AcDbEntity
  8
1
  6
Continuous
100
AcDbLine
 10
220.9499999999999
 20
43.79999999999999
 30
0.0
 11
220.9499999999999
 21
49.2
 31
0.0
  0
LINE
  5
45C9
330
4316
100
AcDbEntity
  8
1
  6
Continuous
100
AcDbLine
 10
221.55
 20
43.79999999999999
 30
0.0
 11
221.55
 21
49.2
 31
0.0
  0
LINE
  5
45CA
330
4316
100
AcDbEntity
  8
1
  6
Continuous
100
AcDbLine
 10
222.25
 20
45.0
 30
0.0
 11
221.55
 21
45.0
 31
0.0
  0
LINE
  5
45CB
330
4316
100
AcDbEntity
  8
1
  6
Continuous
100
AcDbLine
 10
222.25
 20
48.0
 30
0.0
 11
221.55
 21
48.0
 31
0.0
  0
LINE
  5
45CC
330
4316
100
AcDbEntity
  8
1
  6
Continuous
100
AcDbLine
 10
220.25
 20
44.5
 30
0.0
 11
220.25
 21
48.5
 31
0.0
  0
LINE
  5
45CD
330
4316
100
AcDbEntity
  8
1
  6
Continuous
100
AcDbLine
 10
222.25
 20
44.5
 30
0.0
 11
222.25
 21
48.5
 31
0.0
  0
LINE
  5
45CE
330
4316
100
AcDbEntity
  8
1
  6
Continuous
100
AcDbLine
 10
222.25
 20
44.5
 30
0.0
 11
230.75
 21
44.5
 31
0.0
  0
LINE
  5
45CF
330
4316
100
AcDbEntity
  8
1
  6
Continuous
100
AcDbLine
 10
230.75
 20
48.5
 30
0.0
 11
222.25
 21
48.5
 31
0.0
  0
LINE
  5
45D0
330
4316
100
AcDbEntity
  8
1
  6
Continuous
100
AcDbLine
 10
220.25
 20
44.5
 30
0.0
 11
211.75
 21
44.5
 31
0.0
  0
LINE
  5
45D1
330
4316
100
AcDbEntity
  8
1
  6
Continuous
100
AcDbLine
 10
230.25
 20
53.5
 30
0.0
 11
230.25
 21
48.5
 31
0.0
  0
LINE
  5
45D2
330
4316
100
AcDbEntity
  8
1
  6
Continuous
100
AcDbLine
 10
214.25
 20
53.5
 30
0.0
 11
214.25
 21
48.5
 31
0.0
  0
LINE
  5
45D3
330
4316
100
AcDbEntity
  8
1
  6
Continuous
100
AcDbLine
 10
228.25
 20
43.0
 30
0.0
 11
214.25
 21
43.0
 31
0.0
  0
LINE
  5
45D4
330
4316
100
AcDbEntity
  8
1
  6
Continuous
100
AcDbLine
 10
220.25
 20
48.5
 30
0.0
 11
211.75
 21
48.5
 31
0.0
  0
ARC
  5
45D5
330
4316
100
AcDbEntity
  8
1
  6
Continuous
100
AcDbCircle
 10
221.2499999999999
 20
49.2
 30
0.0
 40
0.3
100
AcDbArc
 50
0.0
 51
180.0
  0
ARC
  5
45D6
330
4316
100
AcDbEntity
  8
1
  6
Continuous
100
AcDbCircle
 10
214.25
 20
43.0
 30
0.0
 40
2.0
100
AcDbArc
 50
180.0
 51
270.0
  0
ARC
  5
45D7
330
4316
100
AcDbEntity
  8
1
  6
Continuous
100
AcDbCircle
 10
228.25
 20
43.0
 30
0.0
 40
2.0
100
AcDbArc
 50
270.0
 51
0.0
  0
LINE
  5
45D8
330
4316
100
AcDbEntity
  8
1
  6
Continuous
100
AcDbLine
 10
212.25
 20
44.5
 30
0.0
 11
212.25
 21
43.0
 31
0.0
  0
LINE
  5
45D9
330
4316
100
AcDbEntity
  8
1
  6
Continuous
100
AcDbLine
 10
214.25
 20
44.5
 30
0.0
 11
214.25
 21
43.0
 31
0.0
  0
LINE
  5
45DA
330
4316
100
AcDbEntity
  8
1
  6
Continuous
100
AcDbLine
 10
228.25
 20
44.5
 30
0.0
 11
228.25
 21
43.0
 31
0.0
  0
LINE
  5
45DB
330
4316
100
AcDbEntity
  8
1
  6
Continuous
100
AcDbLine
 10
230.25
 20
44.5
 30
0.0
 11
230.25
 21
43.0
 31
0.0
  0
ARC
  5
45DC
330
4316
100
AcDbEntity
  8
1
  6
Continuous
100
AcDbCircle
 10
221.2499999999999
 20
46.5
 30
0.0
 40
3.0
100
AcDbArc
 50
221.810315
 51
318.189685
  0
ARC
  5
45DD
330
4316
100
AcDbEntity
  8
1
  6
Continuous
100
AcDbCircle
 10
221.2499999999999
 20
46.5
 30
0.0
 40
2.399999999999999
100
AcDbArc
 50
236.44269
 51
262.8192439999998
  0
ARC
  5
45DE
330
4316
100
AcDbEntity
  8
1
  6
Continuous
100
AcDbCircle
 10
221.2499999999999
 20
46.5
 30
0.0
 40
3.0
100
AcDbArc
 50
41.810315
 51
138.1896849999999
  0
ARC
  5
45DF
330
4316
100
AcDbEntity
  8
1
  6
Continuous
100
AcDbCircle
 10
221.2499999999999
 20
46.5
 30
0.0
 40
2.399999999999999
100
AcDbArc
 50
56.44269000000001
 51
82.81924399999999
  0
ARC
  5
45E0
330
4316
100
AcDbEntity
  8
1
  6
Continuous
100
AcDbCircle
 10
221.2499999999999
 20
46.5
 30
0.0
 40
2.399999999999999
100
AcDbArc
 50
97.180756
 51
123.55731
  0
ARC
  5
45E1
330
4316
100
AcDbEntity
  8
1
  6
Continuous
100
AcDbCircle
 10
221.2499999999999
 20
46.5
 30
0.0
 40
2.399999999999999
100
AcDbArc
 50
277.1807559999999
 51
303.5573099999998
  0
LINE
  5
45E2
330
4316
100
AcDbEntity
  8
1
  6
Continuous
100
AcDbLine
 10
234.836664
 20
48.65
 30
0.0
 11
234.5
 21
48.65
 31
0.0
  0
ARC
  5
45E3
330
4316
100
AcDbEntity
  8
1
  6
Continuous
100
AcDbCircle
 10
231.7499999999999
 20
47.0
 30
0.0
 40
3.5
100
AcDbArc
 50
4.726690999999997
 51
28.127068
  0
LINE
  5
45E4
330
4316
100
AcDbEntity
  8
4
  6
CENTER
 48
0.2
100
AcDbLine
 10
239.1555499999999
 20
47.0
 30
0.0
 11
204.2499999999999
 21
47.0
 31
0.0
  0
LINE
  5
45E5
330
4316
100
AcDbEntity
  8
1
  6
Continuous
100
AcDbLine
 10
234.5
 20
49.75000000000001
 30
0.0
 11
233.8499999999999
 21
49.75
 31
0.0
  0
LINE
  5
45E6
330
4316
100
AcDbEntity
  8
1
  6
Continuous
100
AcDbLine
 10
234.4999999999999
 20
44.24999999999999
 30
0.0
 11
234.2386639999999
 21
44.24999999999999
 31
0.0
  0
LINE
  5
45E7
330
4316
100
AcDbEntity
  8
1
  6
Continuous
100
AcDbLine
 10
234.5
 20
42.0
 30
0.0
 11
234.4999999999999
 21
44.47659639880402
 31
0.0
  0
LINE
  5
45E8
330
4316
100
AcDbEntity
  8
1
  6
Continuous
100
AcDbLine
 10
208.0
 20
49.74999999999999
 30
0.0
 11
208.65
 21
49.75
 31
0.0
  0
LINE
  5
45E9
330
4316
100
AcDbEntity
  8
1
  6
Continuous
100
AcDbLine
 10
208.0
 20
42.0
 30
0.0
 11
208.0
 21
44.0
 31
0.0
  0
ARC
  5
45EA
330
4316
100
AcDbEntity
  8
1
  6
Continuous
100
AcDbCircle
 10
210.7499999999999
 20
47.0
 30
0.0
 40
3.5
100
AcDbArc
 50
152.33955
 51
207.66045
  0
LINE
  5
45EB
330
4316
100
AcDbEntity
  8
1
  6
Continuous
100
AcDbLine
 10
236.5
 20
52.0
 30
0.0
 11
234.5
 21
52.0
 31
0.0
  0
LINE
  5
45EC
330
4316
100
AcDbEntity
  8
1
  6
Continuous
100
AcDbLine
 10
236.5
 20
42.0
 30
0.0
 11
234.5
 21
42.0
 31
0.0
  0
LINE
  5
45ED
330
4316
100
AcDbEntity
  8
1
  6
Continuous
100
AcDbLine
 10
236.5
 20
42.0
 30
0.0
 11
236.5
 21
52.0
 31
0.0
  0
LINE
  5
45EE
330
4316
100
AcDbEntity
  8
1
  6
Continuous
100
AcDbLine
 10
206.0
 20
42.0
 30
0.0
 11
206.0
 21
52.0
 31
0.0
  0
LINE
  5
45EF
330
4316
100
AcDbEntity
  8
1
  6
Continuous
100
AcDbLine
 10
206.0
 20
52.0
 30
0.0
 11
208.0
 21
52.0
 31
0.0
  0
LINE
  5
45F0
330
4316
100
AcDbEntity
  8
1
  6
Continuous
100
AcDbLine
 10
206.0
 20
42.0
 30
0.0
 11
208.0
 21
42.0
 31
0.0
  0
ARC
  5
45F1
330
4316
100
AcDbEntity
  8
1
  6
Continuous
100
AcDbCircle
 10
234.5
 20
47.0
 30
0.0
 40
3.399999999999999
100
AcDbArc
 50
258.97855
 51
270.0
  0
ARC
  5
45F2
330
4316
100
AcDbEntity
  8
1
  6
Continuous
100
AcDbCircle
 10
234.5
 20
47.0
 30
0.0
 40
5.0
100
AcDbArc
 50
262.530408
 51
270.0
  0
ARC
  5
45F3
330
4316
100
AcDbEntity
  8
1
  6
Continuous
100
AcDbCircle
 10
234.5
 20
47.0
 30
0.0
 40
5.0
100
AcDbArc
 50
138.5903779999999
 51
148.2116689999998
  0
ARC
  5
45F4
330
4316
100
AcDbEntity
  8
1
  6
Continuous
100
AcDbCircle
 10
234.5
 20
47.0
 30
0.0
 40
5.0
100
AcDbArc
 50
211.7883309999998
 51
221.409622
  0
ARC
  5
45F5
330
4316
100
AcDbEntity
  8
1
  6
Continuous
100
AcDbCircle
 10
234.5
 20
47.0
 30
0.0
 40
3.399999999999999
100
AcDbArc
 50
306.0318790724752
 51
53.96812092752476
  0
ARC
  5
45F6
330
4316
100
AcDbEntity
  8
1
  6
Continuous
100
AcDbCircle
 10
234.5
 20
47.0
 30
0.0
 40
5.0
100
AcDbArc
 50
293.5781784782022
 51
66.42182152179785
  0
ARC
  5
45F7
330
4316
100
AcDbEntity
  8
1
  6
Continuous
100
AcDbCircle
 10
234.5
 20
47.0
 30
0.0
 40
3.399999999999999
100
AcDbArc
 50
90.0
 51
101.02145
  0
ARC
  5
45F8
330
4316
100
AcDbEntity
  8
1
  6
Continuous
100
AcDbCircle
 10
234.5
 20
47.0
 30
0.0
 40
5.0
100
AcDbArc
 50
90.0
 51
97.469592
  0
ARC
  5
45F9
330
4316
100
AcDbEntity
  8
1
  6
Continuous
100
AcDbCircle
 10
208.0
 20
47.0
 30
0.0
 40
5.0
100
AcDbArc
 50
31.788331
 51
41.40962199999999
  0
ARC
  5
45FA
330
4316
100
AcDbEntity
  8
1
  6
Continuous
100
AcDbCircle
 10
208.0
 20
47.0
 30
0.0
 40
3.399999999999999
100
AcDbArc
 50
78.97854999999998
 51
90.0
  0
ARC
  5
45FB
330
4316
100
AcDbEntity
  8
1
  6
Continuous
100
AcDbCircle
 10
208.0
 20
47.0
 30
0.0
 40
5.0
100
AcDbArc
 50
82.53040799999999
 51
90.0
  0
ARC
  5
45FC
330
4316
100
AcDbEntity
  8
1
  6
Continuous
100
AcDbCircle
 10
208.0
 20
47.0
 30
0.0
 40
5.0
100
AcDbArc
 50
113.5781784782018
 51
246.4218215217981
  0
ARC
  5
45FD
330
4316
100
AcDbEntity
  8
1
  6
Continuous
100
AcDbCircle
 10
208.0
 20
47.0
 30
0.0
 40
3.399999999999999
100
AcDbArc
 50
126.0318790724747
 51
233.9681209275251
  0
ARC
  5
45FE
330
4316
100
AcDbEntity
  8
1
  6
Continuous
100
AcDbCircle
 10
208.0
 20
47.0
 30
0.0
 40
3.399999999999999
100
AcDbArc
 50
270.0
 51
281.02145
  0
ARC
  5
45FF
330
4316
100
AcDbEntity
  8
1
  6
Continuous
100
AcDbCircle
 10
208.0
 20
47.0
 30
0.0
 40
5.0
100
AcDbArc
 50
270.0
 51
277.469592
  0
ARC
  5
4600
330
4316
100
AcDbEntity
  8
1
  6
Continuous
100
AcDbCircle
 10
208.0
 20
47.0
 30
0.0
 40
5.0
100
AcDbArc
 50
318.5903779999998
 51
328.2116689999998
  0
LINE
  5
4601
330
4316
100
AcDbEntity
  8
1
  6
Continuous
100
AcDbLine
 10
218.25
 20
53.0
 30
0.0
 11
218.25
 21
48.5
 31
0.0
  0
LINE
  5
4602
330
4316
100
AcDbEntity
  8
1
  6
Continuous
100
AcDbLine
 10
216.25
 20
53.0
 30
0.0
 11
218.25
 21
53.0
 31
0.0
  0
LINE
  5
4603
330
4316
100
AcDbEntity
  8
1
  6
Continuous
100
AcDbLine
 10
216.25
 20
53.0
 30
0.0
 11
216.25
 21
48.5
 31
0.0
  0
LINE
  5
4604
330
4316
100
AcDbEntity
  8
1
  6
Continuous
100
AcDbLine
 10
224.25
 20
53.0
 30
0.0
 11
226.25
 21
53.0
 31
0.0
  0
LINE
  5
4605
330
4316
100
AcDbEntity
  8
1
  6
Continuous
100
AcDbLine
 10
216.1999999999999
 20
48.5
 30
0.0
 11
216.1999999999999
 21
53.5
 31
0.0
  0
LINE
  5
4606
330
4316
100
AcDbEntity
  8
1
  6
Continuous
100
AcDbLine
 10
216.25
 20
44.5
 30
0.0
 11
216.25
 21
43.0
 31
0.0
  0
LINE
  5
4607
330
4316
100
AcDbEntity
  8
1
  6
Continuous
100
AcDbLine
 10
218.25
 20
44.5
 30
0.0
 11
218.25
 21
43.0
 31
0.0
  0
LINE
  5
4608
330
4316
100
AcDbEntity
  8
1
  6
Continuous
100
AcDbLine
 10
224.25
 20
53.0
 30
0.0
 11
224.25
 21
48.5
 31
0.0
  0
LINE
  5
4609
330
4316
100
AcDbEntity
  8
1
  6
Continuous
100
AcDbLine
 10
226.25
 20
53.0
 30
0.0
 11
226.25
 21
48.5
 31
0.0
  0
LINE
  5
460A
330
4316
100
AcDbEntity
  8
1
  6
Continuous
100
AcDbLine
 10
226.3
 20
48.5
 30
0.0
 11
226.3
 21
53.5
 31
0.0
  0
LINE
  5
460B
330
4316
100
AcDbEntity
  8
1
  6
Continuous
100
AcDbLine
 10
224.25
 20
44.5
 30
0.0
 11
224.25
 21
43.0
 31
0.0
  0
LINE
  5
460C
330
4316
100
AcDbEntity
  8
1
  6
Continuous
100
AcDbLine
 10
226.25
 20
44.5
 30
0.0
 11
226.25
 21
43.0
 31
0.0
  0
LINE
  5
460D
330
4316
100
AcDbEntity
  8
1
  6
Continuous
100
AcDbLine
 10
228.25
 20
53.5
 30
0.0
 11
228.25
 21
48.5
 31
0.0
  0
LINE
  5
460E
330
4316
100
AcDbEntity
  8
1
  6
Continuous
100
AcDbLine
 10
218.25
 20
50.5
 30
0.0
 11
224.25
 21
50.5
 31
0.0
  0
LINE
  5
460F
330
4316
100
AcDbEntity
  8
1
  6
Continuous
100
AcDbLine
 10
226.25
 20
50.5
 30
0.0
 11
226.3
 21
50.5
 31
0.0
  0
LINE
  5
4610
330
4316
100
AcDbEntity
  8
1
  6
Continuous
100
AcDbLine
 10
216.25
 20
50.5
 30
0.0
 11
216.1999999999999
 21
50.5
 31
0.0
  0
ARC
  5
4611
330
4316
100
AcDbEntity
  8
1
  6
Continuous
100
AcDbCircle
 10
489.5978480000001
 20
179.543181
 30
0.0
 40
1.0
100
AcDbArc
 50
276.1350749999999
 51
90.0
  0
ARC
  5
4612
330
4316
100
AcDbEntity
  8
1
  6
Continuous
100
AcDbCircle
 10
494.597848
 20
173.543181
 30
0.0
 40
7.0
100
AcDbArc
 50
134.348285
 51
180.0
  0
LINE
  5
4613
330
4316
100
AcDbEntity
  8
1
  6
Continuous
100
AcDbLine
 10
499.597848
 20
184.043181
 30
0.0
 11
499.647848
 21
184.043181
 31
0.0
  0
LINE
  5
4614
330
4316
100
AcDbEntity
  8
1
  6
Continuous
100
AcDbLine
 10
499.597848
 20
187.043181
 30
0.0
 11
499.647848
 21
187.043181
 31
0.0
  0
LINE
  5
4615
330
4316
100
AcDbEntity
  8
1
  6
Continuous
100
AcDbLine
 10
499.597848
 20
189.543181
 30
0.0
 11
499.597848
 21
180.5431809999998
 31
0.0
  0
ARC
  5
4616
330
4316
100
AcDbEntity
  8
1
  6
Continuous
100
AcDbCircle
 10
499.597848
 20
179.543181
 30
0.0
 40
1.0
100
AcDbArc
 50
90.0
 51
263.864925
  0
LINE
  5
4617
330
4316
100
AcDbEntity
  8
1
  6
Continuous
100
AcDbLine
 10
208.0
 20
176.543181
 30
0.0
 11
208.0
 21
179.543181
 31
0.0
  0
LINE
  5
4618
330
4316
100
AcDbEntity
  8
1
  6
Continuous
100
AcDbLine
 10
208.0
 20
192.043181
 30
0.0
 11
208.0
 21
195.0431809999997
 31
0.0
  0
ARC
  5
4619
330
4316
100
AcDbEntity
  8
1
  6
Continuous
100
AcDbCircle
 10
208.0
 20
196.543181
 30
0.0
 40
2.0
100
AcDbArc
 50
90.0
 51
180.0
  0
ARC
  5
461A
330
4316
100
AcDbEntity
  8
1
  6
Continuous
100
AcDbCircle
 10
208.0
 20
198.543181
 30
0.0
 40
2.0
100
AcDbArc
 50
270.0
 51
0.0
  0
LINE
  5
461B
330
4316
100
AcDbEntity
  8
4
  6
CENTER
 48
0.1
100
AcDbLine
 10
80.0
 20
207.693181
 30
0.0
 11
80.0
 21
201.3931809999998
 31
0.0
  0
CIRCLE
  5
461D
330
4316
100
AcDbEntity
  8
1
  6
Continuous
100
AcDbCircle
 10
80.0
 20
204.543181
 30
0.0
 40
1.649999999999999
  0
LINE
  5
461E
330
4316
100
AcDbEntity
  8
1
  6
Continuous
100
AcDbLine
 10
83.7
 20
198.543181
 30
0.0
 11
78.3
 21
198.543181
 31
0.0
  0
LINE
  5
461F
330
4316
100
AcDbEntity
  8
4
  6
CENTER
 48
0.1
100
AcDbLine
 10
83.15000000000003
 20
204.543181
 30
0.0
 11
76.84999999999998
 21
204.543181
 31
0.0
  0
ARC
  5
4622
330
4316
100
AcDbEntity
  8
1
  6
Continuous
100
AcDbCircle
 10
85.20000000000001
 20
192.443181
 30
0.0
 40
0.8
100
AcDbArc
 50
275.4403319999997
 51
330.0
  0
ARC
  5
4623
330
4316
100
AcDbEntity
  8
1
  6
Continuous
100
AcDbCircle
 10
85.20000000000001
 20
190.8431809999999
 30
0.0
 40
0.8
100
AcDbArc
 50
276.856221
 51
96.85622100000001
  0
ARC
  5
4624
330
4316
100
AcDbEntity
  8
1
  6
Continuous
100
AcDbCircle
 10
76.79999999999998
 20
191.6431809999999
 30
0.0
 40
0.8
100
AcDbArc
 50
150.0
 51
275.4403319999997
  0
ARC
  5
4625
330
4316
100
AcDbEntity
  8
1
  6
Continuous
100
AcDbCircle
 10
76.79999999999998
 20
179.943181
 30
0.0
 40
0.8
100
AcDbArc
 50
95.44033199999999
 51
210.0
  0
ARC
  5
4626
330
4316
100
AcDbEntity
  8
1
  6
Continuous
100
AcDbCircle
 10
85.20000000000001
 20
180.7431809999999
 30
0.0
 40
0.8
100
AcDbArc
 50
275.4403319999997
 51
95.44033199999999
  0
ARC
  5
4627
330
4316
100
AcDbEntity
  8
1
  6
Continuous
100
AcDbCircle
 10
85.20000000000001
 20
179.1431809999999
 30
0.0
 40
0.8
100
AcDbArc
 50
30.0
 51
150.0
  0
ARC
  5
4628
330
4316
100
AcDbEntity
  8
1
  6
Continuous
100
AcDbCircle
 10
85.20000000000001
 20
188.823181
 30
0.0
 40
0.8
100
AcDbArc
 50
276.856221
 51
96.85622100000001
  0
ARC
  5
4629
330
4316
100
AcDbEntity
  8
1
  6
Continuous
100
AcDbCircle
 10
85.20000000000001
 20
186.8031809999999
 30
0.0
 40
0.8
100
AcDbArc
 50
276.856221
 51
96.85622100000001
  0
ARC
  5
462A
330
4316
100
AcDbEntity
  8
1
  6
Continuous
100
AcDbCircle
 10
85.20000000000001
 20
184.783181
 30
0.0
 40
0.8
100
AcDbArc
 50
276.856221
 51
96.85622100000001
  0
ARC
  5
462B
330
4316
100
AcDbEntity
  8
1
  6
Continuous
100
AcDbCircle
 10
85.20000000000001
 20
182.7631809999997
 30
0.0
 40
0.8
100
AcDbArc
 50
276.856221
 51
96.85622100000001
  0
ARC
  5
462C
330
4316
100
AcDbEntity
  8
1
  6
Continuous
100
AcDbCircle
 10
76.79999999999998
 20
189.8331809999999
 30
0.0
 40
0.8
100
AcDbArc
 50
96.85622100000001
 51
276.856221
  0
ARC
  5
462D
330
4316
100
AcDbEntity
  8
1
  6
Continuous
100
AcDbCircle
 10
76.79999999999998
 20
187.813181
 30
0.0
 40
0.8
100
AcDbArc
 50
96.85622100000001
 51
276.856221
  0
ARC
  5
462E
330
4316
100
AcDbEntity
  8
1
  6
Continuous
100
AcDbCircle
 10
76.79999999999998
 20
185.793181
 30
0.0
 40
0.8
100
AcDbArc
 50
96.85622100000001
 51
276.856221
  0
ARC
  5
462F
330
4316
100
AcDbEntity
  8
1
  6
Continuous
100
AcDbCircle
 10
76.79999999999998
 20
183.773181
 30
0.0
 40
0.8
100
AcDbArc
 50
96.85622100000001
 51
276.856221
  0
ARC
  5
4630
330
4316
100
AcDbEntity
  8
1
  6
Continuous
100
AcDbCircle
 10
76.79999999999998
 20
181.753181
 30
0.0
 40
0.8
100
AcDbArc
 50
96.85622100000001
 51
276.856221
  0
LINE
  5
4631
330
4316
100
AcDbEntity
  8
1
  6
Continuous
100
AcDbLine
 10
76.704497
 20
190.62746
 30
0.0
 11
85.10449699999998
 21
191.63746
 31
0.0
  0
LINE
  5
4632
330
4316
100
AcDbEntity
  8
1
  6
Continuous
100
AcDbLine
 10
85.295502
 20
190.048902
 30
0.0
 11
76.89550199999998
 21
189.038902
 31
0.0
  0
LINE
  5
4633
330
4316
100
AcDbEntity
  8
1
  6
Continuous
100
AcDbLine
 10
85.10449699999998
 20
189.6174599999999
 30
0.0
 11
76.704497
 21
188.60746
 31
0.0
  0
LINE
  5
4634
330
4316
100
AcDbEntity
  8
1
  6
Continuous
100
AcDbLine
 10
76.89550199999998
 20
187.0189019999999
 30
0.0
 11
85.295502
 21
188.028902
 31
0.0
  0
LINE
  5
4635
330
4316
100
AcDbEntity
  8
1
  6
Continuous
100
AcDbLine
 10
85.10449699999998
 20
187.59746
 30
0.0
 11
76.704497
 21
186.5874599999999
 31
0.0
  0
LINE
  5
4636
330
4316
100
AcDbEntity
  8
1
  6
Continuous
100
AcDbLine
 10
76.89550199999998
 20
184.9989019999999
 30
0.0
 11
85.295502
 21
186.008902
 31
0.0
  0
LINE
  5
4637
330
4316
100
AcDbEntity
  8
1
  6
Continuous
100
AcDbLine
 10
85.10449699999998
 20
185.57746
 30
0.0
 11
76.704497
 21
184.56746
 31
0.0
  0
LINE
  5
4638
330
4316
100
AcDbEntity
  8
1
  6
Continuous
100
AcDbLine
 10
76.89550199999998
 20
182.9789019999997
 30
0.0
 11
85.295502
 21
183.988902
 31
0.0
  0
LINE
  5
4639
330
4316
100
AcDbEntity
  8
1
  6
Continuous
100
AcDbLine
 10
85.10449699999998
 20
183.5574599999999
 30
0.0
 11
76.704497
 21
182.5474599999997
 31
0.0
  0
LINE
  5
463A
330
4316
100
AcDbEntity
  8
1
  6
Continuous
100
AcDbLine
 10
76.89550199999998
 20
180.9589019999999
 30
0.0
 11
85.295502
 21
181.968902
 31
0.0
  0
LINE
  5
463B
330
4316
100
AcDbEntity
  8
1
  6
Continuous
100
AcDbLine
 10
85.12415199999997
 20
181.539577
 30
0.0
 11
76.724152
 21
180.739577
 31
0.0
  0
LINE
  5
463C
330
4316
100
AcDbEntity
  8
1
  6
Continuous
100
AcDbLine
 10
81.03800900000001
 20
179.543181
 30
0.0
 11
85.275847
 21
179.946784
 31
0.0
  0
LINE
  5
463D
330
4316
100
AcDbEntity
  8
1
  6
Continuous
100
AcDbLine
 10
76.87584699999998
 20
190.846784
 30
0.0
 11
85.275847
 21
191.6467839999999
 31
0.0
  0
LINE
  5
463E
330
4316
100
AcDbEntity
  8
1
  6
Continuous
100
AcDbLine
 10
76.724152
 20
190.846784
 30
0.0
 11
77.73104399999998
 21
190.75089
 31
0.0
  0
LINE
  5
463F
330
4316
100
AcDbEntity
  8
1
  6
Continuous
100
AcDbLine
 10
76.704497
 20
189.038902
 30
0.0
 11
78.3
 21
188.8470610737856
 31
0.0
  0
LINE
  5
4640
330
4316
100
AcDbEntity
  8
1
  6
Continuous
100
AcDbLine
 10
85.295502
 20
189.6174599999999
 30
0.0
 11
83.7
 21
189.8092998977522
 31
0.0
  0
LINE
  5
4641
330
4316
100
AcDbEntity
  8
1
  6
Continuous
100
AcDbLine
 10
83.70000000000002
 20
187.7892998977522
 30
0.0
 11
85.295502
 21
187.59746
 31
0.0
  0
LINE
  5
4642
330
4316
100
AcDbEntity
  8
1
  6
Continuous
100
AcDbLine
 10
78.29999999999998
 20
186.8270610737856
 30
0.0
 11
76.704497
 21
187.0189019999999
 31
0.0
  0
LINE
  5
4643
330
4316
100
AcDbEntity
  8
1
  6
Continuous
100
AcDbLine
 10
83.69999999999997
 20
185.7693001478957
 30
0.0
 11
85.295502
 21
185.57746
 31
0.0
  0
LINE
  5
4644
330
4316
100
AcDbEntity
  8
1
  6
Continuous
100
AcDbLine
 10
78.3
 20
182.7870610737856
 30
0.0
 11
76.704497
 21
182.9789019999997
 31
0.0
  0
LINE
  5
4645
330
4316
100
AcDbEntity
  8
1
  6
Continuous
100
AcDbLine
 10
83.69999999999997
 20
181.7292998977521
 30
0.0
 11
85.295502
 21
181.53746
 31
0.0
  0
LINE
  5
4646
330
4316
100
AcDbEntity
  8
1
  6
Continuous
100
AcDbLine
 10
77.73104399999998
 20
180.835472
 30
0.0
 11
76.704497
 21
180.9589019999999
 31
0.0
  0
LINE
  5
4647
330
4316
100
AcDbEntity
  8
1
  6
Continuous
100
AcDbLine
 10
78.3
 20
187.1877761642856
 30
0.0
 11
78.3
 21
186.7793002416666
 31
0.0
  0
LINE
  5
4648
330
4316
100
AcDbEntity
  8
1
  6
Continuous
100
AcDbLine
 10
83.7
 20
187.8370618785714
 30
0.0
 11
83.7
 21
187.4285859559523
 31
0.0
  0
LINE
  5
4649
330
4316
100
AcDbEntity
  8
1
  6
Continuous
100
AcDbLine
 10
78.3
 20
189.2077761642857
 30
0.0
 11
78.3
 21
188.7993002416666
 31
0.0
  0
LINE
  5
464A
330
4316
100
AcDbEntity
  8
1
  6
Continuous
100
AcDbLine
 10
83.7
 20
185.8170618785713
 30
0.0
 11
83.7
 21
185.4085859559523
 31
0.0
  0
LINE
  5
464B
330
4316
100
AcDbEntity
  8
1
  6
Continuous
100
AcDbLine
 10
78.29999999999998
 20
185.1677761642856
 30
0.0
 11
78.3
 21
184.7593002416666
 31
0.0
  0
LINE
  5
464C
330
4316
100
AcDbEntity
  8
1
  6
Continuous
100
AcDbLine
 10
78.3
 20
184.8070610737857
 30
0.0
 11
76.704497
 21
184.9989019999999
 31
0.0
  0
LINE
  5
464D
330
4316
100
AcDbEntity
  8
1
  6
Continuous
100
AcDbLine
 10
83.7
 20
183.7492998977522
 30
0.0
 11
85.295502
 21
183.5574599999999
 31
0.0
  0
LINE
  5
464E
330
4316
100
AcDbEntity
  8
1
  6
Continuous
100
AcDbLine
 10
78.3
 20
183.1477761642855
 30
0.0
 11
78.3
 21
182.7393002416664
 31
0.0
  0
LINE
  5
464F
330
4316
100
AcDbEntity
  8
1
  6
Continuous
100
AcDbLine
 10
83.7
 20
183.803074
 30
0.0
 11
83.7
 21
183.394598
 31
0.0
  0
LINE
  5
4650
330
4316
100
AcDbEntity
  8
1
  6
Continuous
100
AcDbLine
 10
78.3
 20
181.1277761642856
 30
0.0
 11
78.30000000000002
 21
180.8896577619048
 31
0.0
  0
LINE
  5
4651
330
4316
100
AcDbEntity
  8
1
  6
Continuous
100
AcDbLine
 10
83.70000000000002
 20
181.7770618785714
 30
0.0
 11
83.7
 21
181.4039434761905
 31
0.0
  0
LINE
  5
4652
330
4316
100
AcDbEntity
  8
1
  6
Continuous
100
AcDbLine
 10
83.7
 20
179.7967035635272
 30
0.0
 11
83.7
 21
179.543181
 31
0.0
  0
LINE
  5
4653
330
4316
100
AcDbEntity
  8
1
  6
Continuous
100
AcDbLine
 10
83.70000000000002
 20
199.0156197830398
 30
0.0
 11
83.7
 21
192.043181
 31
0.0
  0
LINE
  5
4654
330
4316
100
AcDbEntity
  8
1
  6
Continuous
100
AcDbLine
 10
78.3
 20
198.543181
 30
0.0
 11
78.3
 21
192.043181
 31
0.0
  0
LINE
  5
4695
330
4316
100
AcDbEntity
  8
1
  6
Continuous
100
AcDbLine
 10
232.75
 20
199.016809
 30
0.0
 11
234.25
 21
199.016809
 31
0.0
  0
ARC
  5
4696
330
4316
100
AcDbEntity
  8
1
  6
Continuous
100
AcDbCircle
 10
234.5
 20
198.543181
 30
0.0
 40
2.0
100
AcDbArc
 50
180.0
 51
270.0
  0
LINE
  5
4697
330
4316
100
AcDbEntity
  8
1
  6
Continuous
100
AcDbLine
 10
234.5
 20
196.543181
 30
0.0
 11
234.5
 21
196.543181
 31
0.0
  0
LINE
  5
4698
330
4316
100
AcDbEntity
  8
1
  6
Continuous
100
AcDbLine
 10
234.5
 20
192.043181
 30
0.0
 11
234.5
 21
196.543181
 31
0.0
  0
LINE
  5
4699
330
4316
100
AcDbEntity
  8
1
  6
Continuous
100
AcDbLine
 10
234.5
 20
192.043181
 30
0.0
 11
234.5
 21
195.0431809999997
 31
0.0
  0
LINE
  5
469A
330
4316
100
AcDbEntity
  8
1
  6
Continuous
100
AcDbLine
 10
234.5
 20
195.0431809999997
 30
0.0
 11
232.5
 21
195.0431809999997
 31
0.0
  0
LINE
  5
469B
330
4316
100
AcDbEntity
  8
1
  6
Continuous
100
AcDbLine
 10
232.5
 20
192.043181
 30
0.0
 11
232.5
 21
195.0431809999997
 31
0.0
  0
ARC
  5
469C
330
4316
100
AcDbEntity
  8
1
  6
Continuous
100
AcDbCircle
 10
234.5
 20
196.543181
 30
0.0
 40
2.0
100
AcDbArc
 50
0.0
 51
90.0
  0
LINE
  5
469D
330
4316
100
AcDbEntity
  8
1
  6
Continuous
100
AcDbLine
 10
234.5
 20
198.543181
 30
0.0
 11
234.5
 21
198.543181
 31
0.0
  0
LINE
  5
469E
330
4316
100
AcDbEntity
  8
1
  6
Continuous
100
AcDbLine
 10
236.5
 20
192.043181
 30
0.0
 11
236.5
 21
196.543181
 31
0.0
  0
LINE
  5
46A0
330
4316
100
AcDbEntity
  8
1
  6
Continuous
100
AcDbLine
 10
236.5
 20
176.543181
 30
0.0
 11
236.5
 21
179.7300369991139
 31
0.0
  0
LINE
  5
46A1
330
4316
100
AcDbEntity
  8
1
  6
Continuous
100
AcDbLine
 10
236.5
 20
176.543181
 30
0.0
 11
234.5
 21
176.543181
 31
0.0
  0
LINE
  5
46CB
330
4316
100
AcDbEntity
  8
1
  6
Continuous
100
AcDbLine
 10
234.5
 20
181.146801
 30
0.0
 11
234.5
 21
181.452419
 31
0.0
  0
LINE
  5
46CC
330
4316
100
AcDbEntity
  8
1
  6
Continuous
100
AcDbLine
 10
232.5
 20
191.049085
 30
0.0
 11
232.5
 21
190.903467
 31
0.0
  0
LINE
  5
46CE
330
4316
100
AcDbEntity
  8
1
  6
Continuous
100
AcDbLine
 10
236.5
 20
181.3372767142857
 30
0.0
 11
236.5
 21
181.6928950916666
 31
0.0
  0
LINE
  5
46CF
330
4316
100
AcDbEntity
  8
1
  6
Continuous
100
AcDbLine
 10
232.5
 20
189.291943
 30
0.0
 11
232.5
 21
188.8834669999999
 31
0.0
  0
LINE
  5
46D0
330
4316
100
AcDbEntity
  8
1
  6
Continuous
100
AcDbLine
 10
234.5
 20
191.143943
 30
0.0
 11
234.5
 21
191.239561
 31
0.0
  0
LINE
  5
46D2
330
4316
100
AcDbEntity
  8
1
  6
Continuous
100
AcDbLine
 10
236.5
 20
191.3844192892856
 30
0.0
 11
236.5
 21
191.4300366666665
 31
0.0
  0
LINE
  5
46D3
330
4316
100
AcDbEntity
  8
1
  6
Continuous
100
AcDbLine
 10
236.5
 20
183.3044192892856
 30
0.0
 11
236.5
 21
183.7128950916666
 31
0.0
  0
LINE
  5
46D5
330
4316
100
AcDbEntity
  8
1
  6
Continuous
100
AcDbLine
 10
234.5
 20
183.0639429999999
 30
0.0
 11
234.5
 21
183.472419
 31
0.0
  0
LINE
  5
46D6
330
4316
100
AcDbEntity
  8
1
  6
Continuous
100
AcDbLine
 10
232.5
 20
181.2119429999999
 30
0.0
 11
232.5
 21
180.956325
 31
0.0
  0
LINE
  5
46D7
330
4316
100
AcDbEntity
  8
1
  6
Continuous
100
AcDbLine
 10
232.5
 20
183.231943
 30
0.0
 11
232.5
 21
182.823467
 31
0.0
  0
LINE
  5
46D9
330
4316
100
AcDbEntity
  8
1
  6
Continuous
100
AcDbLine
 10
234.5
 20
185.083943
 30
0.0
 11
234.5
 21
185.492419
 31
0.0
  0
LINE
  5
46DA
330
4316
100
AcDbEntity
  8
1
  6
Continuous
100
AcDbLine
 10
236.5
 20
185.3244192892857
 30
0.0
 11
236.5
 21
185.7328950916666
 31
0.0
  0
LINE
  5
46DB
330
4316
100
AcDbEntity
  8
1
  6
Continuous
100
AcDbLine
 10
236.5
 20
187.3444192892857
 30
0.0
 11
236.4999999999999
 21
187.7528950916666
 31
0.0
  0
LINE
  5
46DD
330
4316
100
AcDbEntity
  8
1
  6
Continuous
100
AcDbLine
 10
234.5
 20
187.1039429999999
 30
0.0
 11
234.5
 21
187.512419
 31
0.0
  0
LINE
  5
46DE
330
4316
100
AcDbEntity
  8
1
  6
Continuous
100
AcDbLine
 10
232.5
 20
185.2519429999999
 30
0.0
 11
232.5
 21
184.8434669999998
 31
0.0
  0
LINE
  5
46DF
330
4316
100
AcDbEntity
  8
1
  6
Continuous
100
AcDbLine
 10
232.5
 20
187.271943
 30
0.0
 11
232.5
 21
186.8634669999999
 31
0.0
  0
LINE
  5
46E0
330
4316
100
AcDbEntity
  8
1
  6
Continuous
100
AcDbLine
 10
234.5
 20
189.1239429999999
 30
0.0
 11
234.5
 21
189.532419
 31
0.0
  0
LINE
  5
46E2
330
4316
100
AcDbEntity
  8
1
  6
Continuous
100
AcDbLine
 10
236.5
 20
189.3644192892857
 30
0.0
 11
236.5
 21
189.7728950916667
 31
0.0
  0
LINE
  5
4738
330
4316
100
AcDbEntity
  8
1
  6
Continuous
100
AcDbLine
 10
479.347848
 20
176.543181
 30
0.0
 11
479.347848
 21
179.543181
 31
0.0
  0
LINE
  5
4739
330
4316
100
AcDbEntity
  8
1
  6
Continuous
100
AcDbLine
 10
481.3478479999998
 20
176.543181
 30
0.0
 11
481.3478479999998
 21
179.543181
 31
0.0
  0
LINE
  5
473A
330
4316
100
AcDbEntity
  8
1
  6
Continuous
100
AcDbLine
 10
479.347848
 20
176.543181
 30
0.0
 11
481.3478479999998
 21
176.543181
 31
0.0
  0
LINE
  5
475A
330
4316
100
AcDbEntity
  8
1
  6
Continuous
100
AcDbLine
 10
507.8478480000002
 20
176.543181
 30
0.0
 11
507.8478480000002
 21
179.615751
 31
0.0
  0
LINE
  5
475B
330
4316
100
AcDbEntity
  8
1
  6
Continuous
100
AcDbLine
 10
509.8478479999998
 20
176.543181
 30
0.0
 11
509.8478479999998
 21
179.806228
 31
0.0
  0
LINE
  5
475C
330
4316
100
AcDbEntity
  8
1
  6
Continuous
100
AcDbLine
 10
509.8478479999998
 20
176.543181
 30
0.0
 11
507.8478480000002
 21
176.543181
 31
0.0
  0
ARC
  5
4788
330
4316
100
AcDbEntity
  8
1
  6
Continuous
100
AcDbCircle
 10
481.347848
 20
198.543181
 30
0.0
 40
2.0
100
AcDbArc
 50
270.0
 51
0.0
  0
ARC
  5
478A
330
4316
100
AcDbEntity
  8
1
  6
Continuous
100
AcDbCircle
 10
481.3478479999998
 20
196.543181
 30
0.0
 40
2.0
100
AcDbArc
 50
90.0
 51
180.0
  0
LINE
  5
4794
330
4316
100
AcDbEntity
  8
1
  6
Continuous
100
AcDbLine
 10
479.347848
 20
192.043181
 30
0.0
 11
479.347848
 21
196.543181
 31
0.0
  0
LINE
  5
4795
330
4316
100
AcDbEntity
  8
1
  6
Continuous
100
AcDbLine
 10
481.3478479999998
 20
192.043181
 30
0.0
 11
481.3478479999998
 21
196.543181
 31
0.0
  0
LINE
  5
4799
330
4316
100
AcDbEntity
  8
1
  6
Continuous
100
AcDbLine
 10
481.3478479999998
 20
196.543181
 30
0.0
 11
481.347848
 21
196.543181
 31
0.0
  0
LINE
  5
479A
330
4316
100
AcDbEntity
  8
1
  6
Continuous
100
AcDbLine
 10
481.347848
 20
192.043181
 30
0.0
 11
481.347848
 21
195.0431809999997
 31
0.0
  0
LINE
  5
479B
330
4316
100
AcDbEntity
  8
1
  6
Continuous
100
AcDbLine
 10
483.3478480000001
 20
192.043181
 30
0.0
 11
483.3478480000001
 21
195.0431809999997
 31
0.0
  0
LINE
  5
479C
330
4316
100
AcDbEntity
  8
1
  6
Continuous
100
AcDbLine
 10
481.347848
 20
195.0431809999997
 30
0.0
 11
483.3478480000001
 21
195.0431809999997
 31
0.0
  0
LINE
  5
479D
330
4316
100
AcDbEntity
  8
1
  6
Continuous
100
AcDbLine
 10
483.097848
 20
198.543181
 30
0.0
 11
481.597848
 21
198.543181
 31
0.0
  0
LINE
  5
479E
330
4316
100
AcDbEntity
  8
1
  6
Continuous
100
AcDbLine
 10
481.3478479999998
 20
198.543181
 30
0.0
 11
481.347848
 21
198.543181
 31
0.0
  0
ARC
  5
47A3
330
4316
100
AcDbEntity
  8
1
  6
Continuous
100
AcDbCircle
 10
507.8478480000002
 20
196.543181
 30
0.0
 40
2.0
100
AcDbArc
 50
0.0
 51
90.0
  0
ARC
  5
47A4
330
4316
100
AcDbEntity
  8
1
  6
Continuous
100
AcDbCircle
 10
507.847848
 20
198.543181
 30
0.0
 40
2.0
100
AcDbArc
 50
180.0
 51
270.0
  0
LINE
  5
47AA
330
4316
100
AcDbEntity
  8
1
  6
Continuous
100
AcDbLine
 10
507.847848
 20
195.0431809999997
 30
0.0
 11
505.847848
 21
195.0431809999997
 31
0.0
  0
LINE
  5
47B1
330
4316
100
AcDbEntity
  8
1
  6
Continuous
100
AcDbLine
 10
505.847848
 20
192.043181
 30
0.0
 11
505.847848
 21
195.0431809999997
 31
0.0
  0
LINE
  5
47BC
330
4316
100
AcDbEntity
  8
1
  6
Continuous
100
AcDbLine
 10
509.8478479999998
 20
192.043181
 30
0.0
 11
509.8478479999998
 21
196.543181
 31
0.0
  0
LINE
  5
47BD
330
4316
100
AcDbEntity
  8
1
  6
Continuous
100
AcDbLine
 10
507.847848
 20
192.043181
 30
0.0
 11
507.847848
 21
195.0431809999997
 31
0.0
  0
LINE
  5
47BE
330
4316
100
AcDbEntity
  8
1
  6
Continuous
100
AcDbLine
 10
507.8478480000002
 20
192.043181
 30
0.0
 11
507.8478480000002
 21
196.543181
 31
0.0
  0
LINE
  5
47BF
330
4316
100
AcDbEntity
  8
1
  6
Continuous
100
AcDbLine
 10
507.8478480000002
 20
196.543181
 30
0.0
 11
507.847848
 21
196.543181
 31
0.0
  0
LINE
  5
47C0
330
4316
100
AcDbEntity
  8
1
  6
Continuous
100
AcDbLine
 10
506.0978480000001
 20
198.543181
 30
0.0
 11
507.597848
 21
198.543181
 31
0.0
  0
LINE
  5
47C1
330
4316
100
AcDbEntity
  8
1
  6
Continuous
100
AcDbLine
 10
507.8478480000002
 20
198.543181
 30
0.0
 11
507.847848
 21
198.543181
 31
0.0
  0
LINE
  5
47C2
330
4316
100
AcDbEntity
  8
1
  6
Continuous
100
AcDbLine
 10
236.5
 20
289.086362
 30
0.0
 11
236.5
 21
289.5037863050441
 31
0.0
  0
LINE
  5
47C7
330
4316
100
AcDbEntity
  8
1
  6
Continuous
100
AcDbLine
 10
234.5
 20
299.086362
 30
0.0
 11
234.5
 21
299.0219469999999
 31
0.0
  0
LINE
  5
47C8
330
4316
100
AcDbEntity
  8
1
  6
Continuous
100
AcDbLine
 10
234.5
 20
289.086362
 30
0.0
 11
236.5
 21
289.086362
 31
0.0
  0
LINE
  5
47C9
330
4316
100
AcDbEntity
  8
1
  6
Continuous
100
AcDbLine
 10
234.5
 20
299.086362
 30
0.0
 11
236.5
 21
299.086362
 31
0.0
  0
LINE
  5
47CA
330
4316
100
AcDbEntity
  8
1
  6
Continuous
100
AcDbLine
 10
236.5
 20
291.386362
 30
0.0
 11
236.4999999999999
 21
296.786362
 31
0.0
  0
LINE
  5
47CB
330
4316
100
AcDbEntity
  8
1
  6
Continuous
100
AcDbLine
 10
236.5
 20
298.6689376949558
 30
0.0
 11
236.5
 21
299.086362
 31
0.0
  0
LINE
  5
47CC
330
4316
100
AcDbEntity
  8
1
  6
Continuous
100
AcDbLine
 10
234.5
 20
297.3909049999998
 30
0.0
 11
234.5
 21
296.836362
 31
0.0
  0
LINE
  5
47CD
330
4316
100
AcDbEntity
  8
1
  6
Continuous
100
AcDbLine
 10
234.5
 20
291.336362
 30
0.0
 11
234.5
 21
290.7818199999998
 31
0.0
  0
LINE
  5
47CE
330
4316
100
AcDbEntity
  8
1
  6
Continuous
100
AcDbLine
 10
234.5
 20
289.150777
 30
0.0
 11
234.5
 21
289.086362
 31
0.0
  0
LINE
  5
47CF
330
4316
100
AcDbEntity
  8
1
  6
Continuous
100
AcDbLine
 10
208.0
 20
299.086362
 30
0.0
 11
208.0
 21
299.0219469999999
 31
0.0
  0
LINE
  5
47D0
330
4316
100
AcDbEntity
  8
1
  6
Continuous
100
AcDbLine
 10
206.0
 20
298.6689376949558
 30
0.0
 11
206.0
 21
299.086362
 31
0.0
  0
LINE
  5
47D1
330
4316
100
AcDbEntity
  8
1
  6
Continuous
100
AcDbLine
 10
208.0
 20
299.086362
 30
0.0
 11
206.0
 21
299.086362
 31
0.0
  0
LINE
  5
47D2
330
4316
100
AcDbEntity
  8
1
  6
Continuous
100
AcDbLine
 10
208.0
 20
297.3909049999998
 30
0.0
 11
208.0
 21
296.836362
 31
0.0
  0
LINE
  5
47D3
330
4316
100
AcDbEntity
  8
1
  6
Continuous
100
AcDbLine
 10
208.0
 20
291.336362
 30
0.0
 11
208.0
 21
290.7818199999998
 31
0.0
  0
LINE
  5
47D4
330
4316
100
AcDbEntity
  8
1
  6
Continuous
100
AcDbLine
 10
208.0
 20
289.150777
 30
0.0
 11
208.0
 21
289.086362
 31
0.0
  0
LINE
  5
47D5
330
4316
100
AcDbEntity
  8
1
  6
Continuous
100
AcDbLine
 10
206.0
 20
289.086362
 30
0.0
 11
206.0
 21
289.5037863050441
 31
0.0
  0
LINE
  5
47D6
330
4316
100
AcDbEntity
  8
1
  6
Continuous
100
AcDbLine
 10
208.0
 20
289.086362
 30
0.0
 11
206.0
 21
289.086362
 31
0.0
  0
LINE
  5
47D7
330
4316
100
AcDbEntity
  8
1
  6
Continuous
100
AcDbLine
 10
234.5
 20
48.52340360119594
 30
0.0
 11
234.5
 21
52.0
 31
0.0
  0
LINE
  5
4CEF
330
4316
100
AcDbEntity
  8
1
  6
Continuous
100
AcDbLine
 10
206.0
 20
189.291943
 30
0.0
 11
206.0
 21
188.8834669999999
 31
0.0
  0
LINE
  5
4CF8
330
4316
100
AcDbEntity
  8
1
  6
Continuous
100
AcDbLine
 10
206.0
 20
181.2119429999999
 30
0.0
 11
206.0
 21
180.956325
 31
0.0
  0
LINE
  5
4D07
330
4316
100
AcDbEntity
  8
1
  6
Continuous
100
AcDbLine
 10
206.0
 20
187.271943
 30
0.0
 11
206.0
 21
186.8634669999999
 31
0.0
  0
LINE
  5
4D08
330
4316
100
AcDbEntity
  8
1
  6
Continuous
100
AcDbLine
 10
206.0
 20
185.2519429999999
 30
0.0
 11
206.0
 21
184.8434669999998
 31
0.0
  0
LINE
  5
4D09
330
4316
100
AcDbEntity
  8
1
  6
Continuous
100
AcDbLine
 10
206.0
 20
183.231943
 30
0.0
 11
206.0
 21
182.823467
 31
0.0
  0
LINE
  5
4D15
330
4316
100
AcDbEntity
  8
1
  6
Continuous
100
AcDbLine
 10
210.0
 20
187.3444192892857
 30
0.0
 11
209.9999999999999
 21
187.7528950916666
 31
0.0
  0
LINE
  5
4D16
330
4316
100
AcDbEntity
  8
1
  6
Continuous
100
AcDbLine
 10
210.0
 20
185.3244192892857
 30
0.0
 11
210.0
 21
185.7328950916666
 31
0.0
  0
LINE
  5
4D17
330
4316
100
AcDbEntity
  8
1
  6
Continuous
100
AcDbLine
 10
210.0
 20
183.3044192892856
 30
0.0
 11
210.0
 21
183.7128950916666
 31
0.0
  0
LINE
  5
4D18
330
4316
100
AcDbEntity
  8
1
  6
Continuous
100
AcDbLine
 10
210.0
 20
181.3372767142857
 30
0.0
 11
210.0
 21
181.6928950916666
 31
0.0
  0
LINE
  5
4D19
330
4316
100
AcDbEntity
  8
1
  6
Continuous
100
AcDbLine
 10
208.0
 20
187.1039429999999
 30
0.0
 11
208.0
 21
187.512419
 31
0.0
  0
LINE
  5
4D1A
330
4316
100
AcDbEntity
  8
1
  6
Continuous
100
AcDbLine
 10
208.0
 20
185.083943
 30
0.0
 11
208.0
 21
185.492419
 31
0.0
  0
LINE
  5
4D1B
330
4316
100
AcDbEntity
  8
1
  6
Continuous
100
AcDbLine
 10
208.0
 20
183.0639429999999
 30
0.0
 11
208.0
 21
183.472419
 31
0.0
  0
LINE
  5
4D1C
330
4316
100
AcDbEntity
  8
1
  6
Continuous
100
AcDbLine
 10
208.0
 20
181.146801
 30
0.0
 11
208.0
 21
181.452419
 31
0.0
  0
LINE
  5
4D22
330
4316
100
AcDbEntity
  8
1
  6
Continuous
100
AcDbLine
 10
206.0
 20
191.049085
 30
0.0
 11
206.0
 21
190.903467
 31
0.0
  0
LINE
  5
4D26
330
4316
100
AcDbEntity
  8
1
  6
Continuous
100
AcDbLine
 10
210.0
 20
189.3644192892857
 30
0.0
 11
210.0
 21
189.7728950916667
 31
0.0
  0
LINE
  5
4D27
330
4316
100
AcDbEntity
  8
1
  6
Continuous
100
AcDbLine
 10
210.0
 20
191.3844192892856
 30
0.0
 11
210.0
 21
191.4300366666665
 31
0.0
  0
LINE
  5
4D28
330
4316
100
AcDbEntity
  8
1
  6
Continuous
100
AcDbLine
 10
208.0
 20
189.1239429999999
 30
0.0
 11
208.0
 21
189.532419
 31
0.0
  0
LINE
  5
4D29
330
4316
100
AcDbEntity
  8
1
  6
Continuous
100
AcDbLine
 10
208.0
 20
191.143943
 30
0.0
 11
208.0
 21
191.239561
 31
0.0
  0
LINE
  5
4DAD
330
4316
100
AcDbEntity
  8
1
  6
Continuous
100
AcDbLine
 10
479.347848
 20
189.291943
 30
0.0
 11
479.347848
 21
188.8834669999999
 31
0.0
  0
LINE
  5
4DAE
330
4316
100
AcDbEntity
  8
1
  6
Continuous
100
AcDbLine
 10
479.347848
 20
181.2119429999999
 30
0.0
 11
479.347848
 21
180.956325
 31
0.0
  0
LINE
  5
4DB6
330
4316
100
AcDbEntity
  8
1
  6
Continuous
100
AcDbLine
 10
481.347848
 20
181.146801
 30
0.0
 11
481.347848
 21
181.452419
 31
0.0
  0
LINE
  5
4DB7
330
4316
100
AcDbEntity
  8
1
  6
Continuous
100
AcDbLine
 10
481.347848
 20
183.0639429999999
 30
0.0
 11
481.347848
 21
183.472419
 31
0.0
  0
LINE
  5
4DB8
330
4316
100
AcDbEntity
  8
1
  6
Continuous
100
AcDbLine
 10
481.347848
 20
185.083943
 30
0.0
 11
481.347848
 21
185.492419
 31
0.0
  0
LINE
  5
4DB9
330
4316
100
AcDbEntity
  8
1
  6
Continuous
100
AcDbLine
 10
481.347848
 20
187.1039429999999
 30
0.0
 11
481.347848
 21
187.512419
 31
0.0
  0
LINE
  5
4DBA
330
4316
100
AcDbEntity
  8
1
  6
Continuous
100
AcDbLine
 10
483.3478480000001
 20
181.3372767142857
 30
0.0
 11
483.3478480000001
 21
181.6928950916666
 31
0.0
  0
LINE
  5
4DBB
330
4316
100
AcDbEntity
  8
1
  6
Continuous
100
AcDbLine
 10
483.3478480000001
 20
183.3044192892856
 30
0.0
 11
483.3478480000001
 21
183.7128950916666
 31
0.0
  0
LINE
  5
4DBC
330
4316
100
AcDbEntity
  8
1
  6
Continuous
100
AcDbLine
 10
483.3478480000001
 20
185.3244192892857
 30
0.0
 11
483.3478480000001
 21
185.7328950916666
 31
0.0
  0
LINE
  5
4DBD
330
4316
100
AcDbEntity
  8
1
  6
Continuous
100
AcDbLine
 10
483.3478480000001
 20
187.3444192892857
 30
0.0
 11
483.3478480000001
 21
187.7528950916666
 31
0.0
  0
LINE
  5
4DBE
330
4316
100
AcDbEntity
  8
1
  6
Continuous
100
AcDbLine
 10
479.347848
 20
183.231943
 30
0.0
 11
479.347848
 21
182.823467
 31
0.0
  0
LINE
  5
4DBF
330
4316
100
AcDbEntity
  8
1
  6
Continuous
100
AcDbLine
 10
479.347848
 20
185.2519429999999
 30
0.0
 11
479.347848
 21
184.8434669999998
 31
0.0
  0
LINE
  5
4DC0
330
4316
100
AcDbEntity
  8
1
  6
Continuous
100
AcDbLine
 10
479.347848
 20
187.271943
 30
0.0
 11
479.347848
 21
186.8634669999999
 31
0.0
  0
LINE
  5
4DC5
330
4316
100
AcDbEntity
  8
1
  6
Continuous
100
AcDbLine
 10
481.347848
 20
191.143943
 30
0.0
 11
481.347848
 21
191.239561
 31
0.0
  0
LINE
  5
4DC6
330
4316
100
AcDbEntity
  8
1
  6
Continuous
100
AcDbLine
 10
481.347848
 20
189.1239429999999
 30
0.0
 11
481.347848
 21
189.532419
 31
0.0
  0
LINE
  5
4DC7
330
4316
100
AcDbEntity
  8
1
  6
Continuous
100
AcDbLine
 10
483.3478480000001
 20
191.3844192892856
 30
0.0
 11
483.3478480000001
 21
191.4300366666665
 31
0.0
  0
LINE
  5
4DC8
330
4316
100
AcDbEntity
  8
1
  6
Continuous
100
AcDbLine
 10
483.3478480000001
 20
189.3644192892857
 30
0.0
 11
483.3478480000001
 21
189.7728950916667
 31
0.0
  0
LINE
  5
4DC9
330
4316
100
AcDbEntity
  8
1
  6
Continuous
100
AcDbLine
 10
479.347848
 20
191.049085
 30
0.0
 11
479.347848
 21
190.903467
 31
0.0
  0
LINE
  5
4DCC
330
4316
100
AcDbEntity
  8
1
  6
Continuous
100
AcDbLine
 10
505.847848
 20
189.291943
 30
0.0
 11
505.847848
 21
188.8834669999999
 31
0.0
  0
LINE
  5
4DD5
330
4316
100
AcDbEntity
  8
1
  6
Continuous
100
AcDbLine
 10
505.847848
 20
181.2119429999999
 30
0.0
 11
505.847848
 21
180.956325
 31
0.0
  0
LINE
  5
4DE4
330
4316
100
AcDbEntity
  8
1
  6
Continuous
100
AcDbLine
 10
505.847848
 20
187.271943
 30
0.0
 11
505.847848
 21
186.8634669999999
 31
0.0
  0
LINE
  5
4DE5
330
4316
100
AcDbEntity
  8
1
  6
Continuous
100
AcDbLine
 10
505.847848
 20
185.2519429999999
 30
0.0
 11
505.847848
 21
184.8434669999998
 31
0.0
  0
LINE
  5
4DE6
330
4316
100
AcDbEntity
  8
1
  6
Continuous
100
AcDbLine
 10
505.847848
 20
183.231943
 30
0.0
 11
505.847848
 21
182.823467
 31
0.0
  0
LINE
  5
4DF2
330
4316
100
AcDbEntity
  8
1
  6
Continuous
100
AcDbLine
 10
509.847848
 20
187.3444192892857
 30
0.0
 11
509.8478479999998
 21
187.7528950916666
 31
0.0
  0
LINE
  5
4DF3
330
4316
100
AcDbEntity
  8
1
  6
Continuous
100
AcDbLine
 10
509.847848
 20
185.3244192892857
 30
0.0
 11
509.847848
 21
185.7328950916666
 31
0.0
  0
LINE
  5
4DF4
330
4316
100
AcDbEntity
  8
1
  6
Continuous
100
AcDbLine
 10
509.847848
 20
183.3044192892856
 30
0.0
 11
509.847848
 21
183.7128950916666
 31
0.0
  0
LINE
  5
4DF5
330
4316
100
AcDbEntity
  8
1
  6
Continuous
100
AcDbLine
 10
509.8478480000001
 20
181.3372767142857
 30
0.0
 11
509.847848
 21
181.6928950916666
 31
0.0
  0
LINE
  5
4DF6
330
4316
100
AcDbEntity
  8
1
  6
Continuous
100
AcDbLine
 10
507.847848
 20
187.1039429999999
 30
0.0
 11
507.847848
 21
187.512419
 31
0.0
  0
LINE
  5
4DF7
330
4316
100
AcDbEntity
  8
1
  6
Continuous
100
AcDbLine
 10
507.847848
 20
185.083943
 30
0.0
 11
507.847848
 21
185.492419
 31
0.0
  0
LINE
  5
4DF8
330
4316
100
AcDbEntity
  8
1
  6
Continuous
100
AcDbLine
 10
507.847848
 20
183.0639429999999
 30
0.0
 11
507.847848
 21
183.472419
 31
0.0
  0
LINE
  5
4DF9
330
4316
100
AcDbEntity
  8
1
  6
Continuous
100
AcDbLine
 10
507.847848
 20
181.146801
 30
0.0
 11
507.847848
 21
181.452419
 31
0.0
  0
LINE
  5
4DFF
330
4316
100
AcDbEntity
  8
1
  6
Continuous
100
AcDbLine
 10
505.847848
 20
191.049085
 30
0.0
 11
505.847848
 21
190.903467
 31
0.0
  0
LINE
  5
4E03
330
4316
100
AcDbEntity
  8
1
  6
Continuous
100
AcDbLine
 10
509.847848
 20
189.3644192892857
 30
0.0
 11
509.8478480000001
 21
189.7728950916667
 31
0.0
  0
LINE
  5
4E04
330
4316
100
AcDbEntity
  8
1
  6
Continuous
100
AcDbLine
 10
509.847848
 20
191.3844192892856
 30
0.0
 11
509.847848
 21
191.4300366666665
 31
0.0
  0
LINE
  5
4E05
330
4316
100
AcDbEntity
  8
1
  6
Continuous
100
AcDbLine
 10
507.847848
 20
189.1239429999999
 30
0.0
 11
507.847848
 21
189.532419
 31
0.0
  0
LINE
  5
4E06
330
4316
100
AcDbEntity
  8
1
  6
Continuous
100
AcDbLine
 10
507.847848
 20
191.143943
 30
0.0
 11
507.847848
 21
191.239561
 31
0.0
  0
ARC
  5
4E5C
330
4316
100
AcDbEntity
  8
1
  6
Continuous
100
AcDbCircle
 10
234.5
 20
294.086362
 30
0.0
 40
3.399999999999999
100
AcDbArc
 50
270.0
 51
90.0
  0
ARC
  5
4E76
330
4316
100
AcDbEntity
  8
1
  6
Continuous
100
AcDbCircle
 10
208.0
 20
294.086362
 30
0.0
 40
3.399999999999999
100
AcDbArc
 50
90.0
 51
270.0
  0
LINE
  5
4E78
330
4316
100
AcDbEntity
  8
1
  6
Continuous
100
AcDbLine
 10
208.0
 20
49.0
 30
0.0
 11
208.0
 21
52.0
 31
0.0
  0
ARC
  5
4E95
330
4316
100
AcDbEntity
  8
1
  6
Continuous
100
AcDbCircle
 10
81.0
 20
166.2431809999999
 30
0.0
 40
2.7
100
AcDbArc
 50
180.0
 51
0.0
  0
LINE
  5
4E96
330
4316
100
AcDbEntity
  8
1
  6
Continuous
100
AcDbLine
 10
83.7
 20
166.2431809999999
 30
0.0
 11
83.7
 21
176.543181
 31
0.0
  0
LINE
  5
4E97
330
4316
100
AcDbEntity
  8
1
  6
Continuous
100
AcDbLine
 10
78.3
 20
166.2431809999999
 30
0.0
 11
78.30000000000002
 21
176.543181
 31
0.0
  0
LINE
  5
4EE7
330
4316
100
AcDbEntity
  8
1
  6
Continuous
100
AcDbLine
 10
208.0380089999999
 20
179.543181
 30
0.0
 11
203.1071799999998
 21
179.543181
 31
0.0
  0
LINE
  5
4EE8
330
4316
100
AcDbEntity
  8
1
  6
Continuous
100
AcDbLine
 10
203.724153
 20
190.846784
 30
0.0
 11
204.7310449999999
 21
190.75089
 31
0.0
  0
LINE
  5
4EE9
330
4316
100
AcDbEntity
  8
1
  6
Continuous
100
AcDbLine
 10
203.704497
 20
189.038902
 30
0.0
 11
205.4986094146366
 21
188.8231806593788
 31
0.0
  0
LINE
  5
4EEA
330
4316
100
AcDbEntity
  8
1
  6
Continuous
100
AcDbLine
 10
203.704497
 20
190.62746
 30
0.0
 11
212.104497
 21
191.63746
 31
0.0
  0
LINE
  5
4EEB
330
4316
100
AcDbEntity
  8
1
  6
Continuous
100
AcDbLine
 10
212.2955029999999
 20
190.048902
 30
0.0
 11
203.8955029999999
 21
189.038902
 31
0.0
  0
LINE
  5
4EEC
330
4316
100
AcDbEntity
  8
1
  6
Continuous
100
AcDbLine
 10
212.104497
 20
189.6174599999999
 30
0.0
 11
203.704497
 21
188.60746
 31
0.0
  0
LINE
  5
4EED
330
4316
100
AcDbEntity
  8
1
  6
Continuous
100
AcDbLine
 10
203.8758469999998
 20
190.846784
 30
0.0
 11
212.2758469999999
 21
191.6467839999999
 31
0.0
  0
LINE
  5
4EEE
330
4316
100
AcDbEntity
  8
1
  6
Continuous
100
AcDbLine
 10
205.4986094146372
 20
186.8031806593789
 30
0.0
 11
203.704497
 21
187.0189019999999
 31
0.0
  0
LINE
  5
4EEF
330
4316
100
AcDbEntity
  8
1
  6
Continuous
100
AcDbLine
 10
205.498609414636
 20
184.7831806593788
 30
0.0
 11
203.704497
 21
184.9989019999999
 31
0.0
  0
LINE
  5
4EF0
330
4316
100
AcDbEntity
  8
1
  6
Continuous
100
AcDbLine
 10
205.4986094146374
 20
182.7631806593788
 30
0.0
 11
203.704497
 21
182.9789019999997
 31
0.0
  0
LINE
  5
4EF1
330
4316
100
AcDbEntity
  8
1
  6
Continuous
100
AcDbLine
 10
204.7310449999999
 20
180.835472
 30
0.0
 11
203.704497
 21
180.9589019999999
 31
0.0
  0
LINE
  5
4EF2
330
4316
100
AcDbEntity
  8
1
  6
Continuous
100
AcDbLine
 10
212.104497
 20
187.59746
 30
0.0
 11
203.704497
 21
186.5874599999999
 31
0.0
  0
LINE
  5
4EF3
330
4316
100
AcDbEntity
  8
1
  6
Continuous
100
AcDbLine
 10
203.8955029999999
 20
184.9989019999999
 30
0.0
 11
212.2955029999999
 21
186.008902
 31
0.0
  0
LINE
  5
4EF4
330
4316
100
AcDbEntity
  8
1
  6
Continuous
100
AcDbLine
 10
212.104497
 20
185.57746
 30
0.0
 11
203.704497
 21
184.56746
 31
0.0
  0
LINE
  5
4EF5
330
4316
100
AcDbEntity
  8
1
  6
Continuous
100
AcDbLine
 10
203.8955029999999
 20
182.9789019999997
 30
0.0
 11
212.2955029999999
 21
183.988902
 31
0.0
  0
LINE
  5
4EF6
330
4316
100
AcDbEntity
  8
1
  6
Continuous
100
AcDbLine
 10
212.104497
 20
183.5574599999999
 30
0.0
 11
203.704497
 21
182.5474599999997
 31
0.0
  0
LINE
  5
4EF7
330
4316
100
AcDbEntity
  8
1
  6
Continuous
100
AcDbLine
 10
203.8955029999999
 20
180.9589019999999
 30
0.0
 11
212.2955029999999
 21
181.968902
 31
0.0
  0
LINE
  5
4EF8
330
4316
100
AcDbEntity
  8
1
  6
Continuous
100
AcDbLine
 10
212.1241529999998
 20
181.539577
 30
0.0
 11
203.724153
 21
180.739577
 31
0.0
  0
LINE
  5
4EF9
330
4316
100
AcDbEntity
  8
1
  6
Continuous
100
AcDbLine
 10
203.8955029999999
 20
187.0189019999999
 30
0.0
 11
212.2955029999999
 21
188.028902
 31
0.0
  0
LINE
  5
4EFA
330
4316
100
AcDbEntity
  8
1
  6
Continuous
100
AcDbLine
 10
203.1071799999998
 20
192.043181
 30
0.0
 11
212.892821
 21
192.043181
 31
0.0
  0
ARC
  5
4EFB
330
4316
100
AcDbEntity
  8
1
  6
Continuous
100
AcDbCircle
 10
203.8
 20
189.8331809999999
 30
0.0
 40
0.8
100
AcDbArc
 50
96.85622100000069
 51
276.8562210000006
  0
ARC
  5
4EFC
330
4316
100
AcDbEntity
  8
1
  6
Continuous
100
AcDbCircle
 10
203.8
 20
181.753181
 30
0.0
 40
0.8
100
AcDbArc
 50
96.85622100000069
 51
276.8562210000006
  0
ARC
  5
4EFD
330
4316
100
AcDbEntity
  8
1
  6
Continuous
100
AcDbCircle
 10
203.8
 20
179.943181
 30
0.0
 40
0.8
100
AcDbArc
 50
95.44033200000042
 51
210.0000000000004
  0
ARC
  5
4EFE
330
4316
100
AcDbEntity
  8
1
  6
Continuous
100
AcDbCircle
 10
203.8
 20
185.793181
 30
0.0
 40
0.8
100
AcDbArc
 50
96.85622100000069
 51
276.8562210000006
  0
ARC
  5
4EFF
330
4316
100
AcDbEntity
  8
1
  6
Continuous
100
AcDbCircle
 10
203.8
 20
183.773181
 30
0.0
 40
0.8
100
AcDbArc
 50
96.85622100000069
 51
276.8562210000006
  0
ARC
  5
4F00
330
4316
100
AcDbEntity
  8
1
  6
Continuous
100
AcDbCircle
 10
203.8
 20
187.813181
 30
0.0
 40
0.8
100
AcDbArc
 50
96.85622100000069
 51
276.8562210000006
  0
ARC
  5
4F01
330
4316
100
AcDbEntity
  8
1
  6
Continuous
100
AcDbCircle
 10
203.8
 20
191.6431809999999
 30
0.0
 40
0.8
100
AcDbArc
 50
149.9999999999994
 51
275.4403320000004
  0
ARC
  5
4F04
330
4316
100
AcDbEntity
  8
1
  6
Continuous
100
AcDbCircle
 10
212.1999999999999
 20
188.823181
 30
0.0
 40
0.8
100
AcDbArc
 50
276.8562210000006
 51
96.85622100000069
  0
ARC
  5
4F06
330
4316
100
AcDbEntity
  8
1
  6
Continuous
100
AcDbCircle
 10
212.1999999999999
 20
180.7431809999999
 30
0.0
 40
0.8
100
AcDbArc
 50
275.4403320000004
 51
95.44033200000042
  0
LINE
  5
4F07
330
4316
100
AcDbEntity
  8
1
  6
Continuous
100
AcDbLine
 10
208.0380089999999
 20
179.543181
 30
0.0
 11
212.2758469999999
 21
179.946784
 31
0.0
  0
LINE
  5
4F08
330
4316
100
AcDbEntity
  8
1
  6
Continuous
100
AcDbLine
 10
212.89282
 20
179.543181
 30
0.0
 11
210.0
 21
179.543181
 31
0.0
  0
ARC
  5
4F0C
330
4316
100
AcDbEntity
  8
1
  6
Continuous
100
AcDbCircle
 10
212.1999999999999
 20
179.1431809999999
 30
0.0
 40
0.8
100
AcDbArc
 50
30.00000000000054
 51
149.9999999999994
  0
LINE
  5
4F1C
330
4316
100
AcDbEntity
  8
1
  6
Continuous
100
AcDbLine
 10
210.501388
 20
185.793181
 30
0.0
 11
212.2955029999999
 21
185.57746
 31
0.0
  0
LINE
  5
4F1D
330
4316
100
AcDbEntity
  8
1
  6
Continuous
100
AcDbLine
 10
210.501388
 20
183.773181
 30
0.0
 11
212.2955029999999
 21
183.5574599999999
 31
0.0
  0
ARC
  5
4F1E
330
4316
100
AcDbEntity
  8
1
  6
Continuous
100
AcDbCircle
 10
212.1999999999999
 20
184.783181
 30
0.0
 40
0.8
100
AcDbArc
 50
276.8562210000006
 51
96.85622100000069
  0
ARC
  5
4F1F
330
4316
100
AcDbEntity
  8
1
  6
Continuous
100
AcDbCircle
 10
212.1999999999999
 20
182.7631809999997
 30
0.0
 40
0.8
100
AcDbArc
 50
276.8562210000006
 51
96.85622100000069
  0
LINE
  5
4F20
330
4316
100
AcDbEntity
  8
1
  6
Continuous
100
AcDbLine
 10
210.501388
 20
181.753181
 30
0.0
 11
212.2955029999999
 21
181.53746
 31
0.0
  0
ARC
  5
4F21
330
4316
100
AcDbEntity
  8
1
  6
Continuous
100
AcDbCircle
 10
212.1999999999999
 20
186.8031809999999
 30
0.0
 40
0.8
100
AcDbArc
 50
276.8562210000006
 51
96.85622100000069
  0
LINE
  5
4F22
330
4316
100
AcDbEntity
  8
1
  6
Continuous
100
AcDbLine
 10
210.501388
 20
187.813181
 30
0.0
 11
212.2955029999999
 21
187.59746
 31
0.0
  0
ARC
  5
4F2C
330
4316
100
AcDbEntity
  8
1
  6
Continuous
100
AcDbCircle
 10
212.1999999999999
 20
192.443181
 30
0.0
 40
0.8
100
AcDbArc
 50
275.4403320000004
 51
329.9999999999994
  0
ARC
  5
4F2D
330
4316
100
AcDbEntity
  8
1
  6
Continuous
100
AcDbCircle
 10
212.1999999999999
 20
190.8431809999999
 30
0.0
 40
0.8
100
AcDbArc
 50
276.8562210000006
 51
96.85622100000069
  0
LINE
  5
4F2E
330
4316
100
AcDbEntity
  8
1
  6
Continuous
100
AcDbLine
 10
212.2955029999999
 20
189.6174599999999
 30
0.0
 11
210.501388
 21
189.8331809999999
 31
0.0
  0
LINE
  5
4F2F
330
4316
100
AcDbEntity
  8
1
  6
Continuous
100
AcDbLine
 10
230.204497
 20
190.62746
 30
0.0
 11
238.604497
 21
191.63746
 31
0.0
  0
LINE
  5
4F30
330
4316
100
AcDbEntity
  8
1
  6
Continuous
100
AcDbLine
 10
238.7955029999999
 20
190.048902
 30
0.0
 11
230.395503
 21
189.038902
 31
0.0
  0
LINE
  5
4F31
330
4316
100
AcDbEntity
  8
1
  6
Continuous
100
AcDbLine
 10
238.604497
 20
189.6174599999999
 30
0.0
 11
230.204497
 21
188.60746
 31
0.0
  0
LINE
  5
4F32
330
4316
100
AcDbEntity
  8
1
  6
Continuous
100
AcDbLine
 10
230.375847
 20
190.846784
 30
0.0
 11
238.775847
 21
191.6467839999999
 31
0.0
  0
LINE
  5
4F33
330
4316
100
AcDbEntity
  8
1
  6
Continuous
100
AcDbLine
 10
238.604497
 20
187.59746
 30
0.0
 11
230.204497
 21
186.5874599999999
 31
0.0
  0
LINE
  5
4F34
330
4316
100
AcDbEntity
  8
1
  6
Continuous
100
AcDbLine
 10
230.395503
 20
184.9989019999999
 30
0.0
 11
238.7955029999999
 21
186.008902
 31
0.0
  0
LINE
  5
4F35
330
4316
100
AcDbEntity
  8
1
  6
Continuous
100
AcDbLine
 10
238.604497
 20
185.57746
 30
0.0
 11
230.204497
 21
184.56746
 31
0.0
  0
LINE
  5
4F36
330
4316
100
AcDbEntity
  8
1
  6
Continuous
100
AcDbLine
 10
230.395503
 20
182.9789019999997
 30
0.0
 11
238.7955029999999
 21
183.988902
 31
0.0
  0
LINE
  5
4F37
330
4316
100
AcDbEntity
  8
1
  6
Continuous
100
AcDbLine
 10
238.604497
 20
183.5574599999999
 30
0.0
 11
230.204497
 21
182.5474599999997
 31
0.0
  0
LINE
  5
4F38
330
4316
100
AcDbEntity
  8
1
  6
Continuous
100
AcDbLine
 10
230.395503
 20
180.9589019999999
 30
0.0
 11
238.7955029999999
 21
181.968902
 31
0.0
  0
LINE
  5
4F39
330
4316
100
AcDbEntity
  8
1
  6
Continuous
100
AcDbLine
 10
238.6241529999998
 20
181.539577
 30
0.0
 11
230.2241529999999
 21
180.739577
 31
0.0
  0
LINE
  5
4F3A
330
4316
100
AcDbEntity
  8
1
  6
Continuous
100
AcDbLine
 10
230.395503
 20
187.0189019999999
 30
0.0
 11
238.7955029999999
 21
188.028902
 31
0.0
  0
LINE
  5
4F3B
330
4316
100
AcDbEntity
  8
1
  6
Continuous
100
AcDbLine
 10
229.6071799999998
 20
192.043181
 30
0.0
 11
239.392821
 21
192.043181
 31
0.0
  0
LINE
  5
4F3C
330
4316
100
AcDbEntity
  8
1
  6
Continuous
100
AcDbLine
 10
239.39282
 20
179.543181
 30
0.0
 11
236.5
 21
179.543181
 31
0.0
  0
LINE
  5
4F3D
330
4316
100
AcDbEntity
  8
1
  6
Continuous
100
AcDbLine
 10
234.5380089999999
 20
179.543181
 30
0.0
 11
238.775847
 21
179.946784
 31
0.0
  0
ARC
  5
4F3E
330
4316
100
AcDbEntity
  8
1
  6
Continuous
100
AcDbCircle
 10
238.7
 20
179.1431809999999
 30
0.0
 40
0.8
100
AcDbArc
 50
30.00000000000054
 51
149.9999999999994
  0
LINE
  5
4F3F
330
4316
100
AcDbEntity
  8
1
  6
Continuous
100
AcDbLine
 10
237.001388
 20
185.793181
 30
0.0
 11
238.7955029999999
 21
185.57746
 31
0.0
  0
LINE
  5
4F40
330
4316
100
AcDbEntity
  8
1
  6
Continuous
100
AcDbLine
 10
237.001388
 20
183.773181
 30
0.0
 11
238.7955029999999
 21
183.5574599999999
 31
0.0
  0
LINE
  5
4F41
330
4316
100
AcDbEntity
  8
1
  6
Continuous
100
AcDbLine
 10
237.001388
 20
181.753181
 30
0.0
 11
238.7955029999999
 21
181.53746
 31
0.0
  0
LINE
  5
4F42
330
4316
100
AcDbEntity
  8
1
  6
Continuous
100
AcDbLine
 10
237.001388
 20
187.813181
 30
0.0
 11
238.7955029999999
 21
187.59746
 31
0.0
  0
LINE
  5
4F43
330
4316
100
AcDbEntity
  8
1
  6
Continuous
100
AcDbLine
 10
238.7955029999999
 20
189.6174599999999
 30
0.0
 11
237.001388
 21
189.8331809999999
 31
0.0
  0
ARC
  5
4F44
330
4316
100
AcDbEntity
  8
1
  6
Continuous
100
AcDbCircle
 10
238.7
 20
192.443181
 30
0.0
 40
0.8
100
AcDbArc
 50
275.4403320000004
 51
329.9999999999994
  0
ARC
  5
4F45
330
4316
100
AcDbEntity
  8
1
  6
Continuous
100
AcDbCircle
 10
238.7
 20
188.823181
 30
0.0
 40
0.8
100
AcDbArc
 50
276.8562210000006
 51
96.85622100000069
  0
ARC
  5
4F46
330
4316
100
AcDbEntity
  8
1
  6
Continuous
100
AcDbCircle
 10
238.7
 20
180.7431809999999
 30
0.0
 40
0.8
100
AcDbArc
 50
275.4403320000004
 51
95.44033200000042
  0
ARC
  5
4F47
330
4316
100
AcDbEntity
  8
1
  6
Continuous
100
AcDbCircle
 10
238.7
 20
184.783181
 30
0.0
 40
0.8
100
AcDbArc
 50
276.8562210000006
 51
96.85622100000069
  0
ARC
  5
4F48
330
4316
100
AcDbEntity
  8
1
  6
Continuous
100
AcDbCircle
 10
238.7
 20
182.7631809999997
 30
0.0
 40
0.8
100
AcDbArc
 50
276.8562210000006
 51
96.85622100000069
  0
ARC
  5
4F49
330
4316
100
AcDbEntity
  8
1
  6
Continuous
100
AcDbCircle
 10
238.7
 20
186.8031809999999
 30
0.0
 40
0.8
100
AcDbArc
 50
276.8562210000006
 51
96.85622100000069
  0
ARC
  5
4F4A
330
4316
100
AcDbEntity
  8
1
  6
Continuous
100
AcDbCircle
 10
238.7
 20
190.8431809999999
 30
0.0
 40
0.8
100
AcDbArc
 50
276.8562210000006
 51
96.85622100000069
  0
LINE
  5
4F4B
330
4316
100
AcDbEntity
  8
1
  6
Continuous
100
AcDbLine
 10
230.2241529999999
 20
190.846784
 30
0.0
 11
231.231045
 21
190.75089
 31
0.0
  0
LINE
  5
4F4C
330
4316
100
AcDbEntity
  8
1
  6
Continuous
100
AcDbLine
 10
231.231045
 20
180.835472
 30
0.0
 11
230.204497
 21
180.9589019999999
 31
0.0
  0
ARC
  5
4F4D
330
4316
100
AcDbEntity
  8
1
  6
Continuous
100
AcDbCircle
 10
230.3
 20
189.8331809999999
 30
0.0
 40
0.8
100
AcDbArc
 50
96.85622100000069
 51
276.8562210000006
  0
ARC
  5
4F4E
330
4316
100
AcDbEntity
  8
1
  6
Continuous
100
AcDbCircle
 10
230.3
 20
181.753181
 30
0.0
 40
0.8
100
AcDbArc
 50
96.85622100000069
 51
276.8562210000006
  0
ARC
  5
4F4F
330
4316
100
AcDbEntity
  8
1
  6
Continuous
100
AcDbCircle
 10
230.3
 20
179.943181
 30
0.0
 40
0.8
100
AcDbArc
 50
95.44033200000042
 51
210.0000000000004
  0
ARC
  5
4F50
330
4316
100
AcDbEntity
  8
1
  6
Continuous
100
AcDbCircle
 10
230.3
 20
185.793181
 30
0.0
 40
0.8
100
AcDbArc
 50
96.85622100000069
 51
276.8562210000006
  0
ARC
  5
4F51
330
4316
100
AcDbEntity
  8
1
  6
Continuous
100
AcDbCircle
 10
230.3
 20
183.773181
 30
0.0
 40
0.8
100
AcDbArc
 50
96.85622100000069
 51
276.8562210000006
  0
ARC
  5
4F52
330
4316
100
AcDbEntity
  8
1
  6
Continuous
100
AcDbCircle
 10
230.3
 20
187.813181
 30
0.0
 40
0.8
100
AcDbArc
 50
96.85622100000069
 51
276.8562210000006
  0
ARC
  5
4F53
330
4316
100
AcDbEntity
  8
1
  6
Continuous
100
AcDbCircle
 10
230.3
 20
191.6431809999999
 30
0.0
 40
0.8
100
AcDbArc
 50
149.9999999999994
 51
275.4403320000004
  0
LINE
  5
4F54
330
4316
100
AcDbEntity
  8
1
  6
Continuous
100
AcDbLine
 10
234.5380089999999
 20
179.543181
 30
0.0
 11
229.6071799999998
 21
179.543181
 31
0.0
  0
LINE
  5
4F55
330
4316
100
AcDbEntity
  8
1
  6
Continuous
100
AcDbLine
 10
478.8464574146375
 20
182.7631806593788
 30
0.0
 11
477.0523449999999
 21
182.9789019999997
 31
0.0
  0
LINE
  5
4F56
330
4316
100
AcDbEntity
  8
1
  6
Continuous
100
AcDbLine
 10
478.846457414636
 20
184.7831806593788
 30
0.0
 11
477.0523449999999
 21
184.9989019999999
 31
0.0
  0
LINE
  5
4F57
330
4316
100
AcDbEntity
  8
1
  6
Continuous
100
AcDbLine
 10
478.8464574146372
 20
186.8031806593789
 30
0.0
 11
477.0523449999999
 21
187.0189019999999
 31
0.0
  0
LINE
  5
4F58
330
4316
100
AcDbEntity
  8
1
  6
Continuous
100
AcDbLine
 10
477.0523449999999
 20
189.038902
 30
0.0
 11
478.8464574146367
 21
188.8231806593788
 31
0.0
  0
LINE
  5
4F59
330
4316
100
AcDbEntity
  8
1
  6
Continuous
100
AcDbLine
 10
477.0720009999999
 20
190.846784
 30
0.0
 11
478.0788929999998
 21
190.75089
 31
0.0
  0
LINE
  5
4F5A
330
4316
100
AcDbEntity
  8
1
  6
Continuous
100
AcDbLine
 10
478.0788929999998
 20
180.835472
 30
0.0
 11
477.0523449999999
 21
180.9589019999999
 31
0.0
  0
LINE
  5
4F5B
330
4316
100
AcDbEntity
  8
1
  6
Continuous
100
AcDbLine
 10
481.3858569999998
 20
179.543181
 30
0.0
 11
476.4550279999999
 21
179.543181
 31
0.0
  0
LINE
  5
4F5C
330
4316
100
AcDbEntity
  8
1
  6
Continuous
100
AcDbLine
 10
477.0523449999999
 20
190.62746
 30
0.0
 11
485.4523450000001
 21
191.63746
 31
0.0
  0
LINE
  5
4F5D
330
4316
100
AcDbEntity
  8
1
  6
Continuous
100
AcDbLine
 10
485.643351
 20
190.048902
 30
0.0
 11
477.2433509999998
 21
189.038902
 31
0.0
  0
LINE
  5
4F5E
330
4316
100
AcDbEntity
  8
1
  6
Continuous
100
AcDbLine
 10
485.4523450000001
 20
189.6174599999999
 30
0.0
 11
477.0523449999999
 21
188.60746
 31
0.0
  0
LINE
  5
4F5F
330
4316
100
AcDbEntity
  8
1
  6
Continuous
100
AcDbLine
 10
477.2236949999999
 20
190.846784
 30
0.0
 11
485.623695
 21
191.6467839999999
 31
0.0
  0
LINE
  5
4F60
330
4316
100
AcDbEntity
  8
1
  6
Continuous
100
AcDbLine
 10
485.4523450000001
 20
187.59746
 30
0.0
 11
477.0523449999999
 21
186.5874599999999
 31
0.0
  0
LINE
  5
4F61
330
4316
100
AcDbEntity
  8
1
  6
Continuous
100
AcDbLine
 10
477.2433509999998
 20
184.9989019999999
 30
0.0
 11
485.643351
 21
186.008902
 31
0.0
  0
LINE
  5
4F62
330
4316
100
AcDbEntity
  8
1
  6
Continuous
100
AcDbLine
 10
485.4523450000001
 20
185.57746
 30
0.0
 11
477.0523449999999
 21
184.56746
 31
0.0
  0
LINE
  5
4F63
330
4316
100
AcDbEntity
  8
1
  6
Continuous
100
AcDbLine
 10
477.2433509999998
 20
182.9789019999997
 30
0.0
 11
485.643351
 21
183.988902
 31
0.0
  0
LINE
  5
4F64
330
4316
100
AcDbEntity
  8
1
  6
Continuous
100
AcDbLine
 10
485.4523450000001
 20
183.5574599999999
 30
0.0
 11
477.0523449999999
 21
182.5474599999997
 31
0.0
  0
LINE
  5
4F65
330
4316
100
AcDbEntity
  8
1
  6
Continuous
100
AcDbLine
 10
477.2433509999998
 20
180.9589019999999
 30
0.0
 11
485.643351
 21
181.968902
 31
0.0
  0
LINE
  5
4F66
330
4316
100
AcDbEntity
  8
1
  6
Continuous
100
AcDbLine
 10
485.4720009999998
 20
181.539577
 30
0.0
 11
477.0720009999999
 21
180.739577
 31
0.0
  0
LINE
  5
4F67
330
4316
100
AcDbEntity
  8
1
  6
Continuous
100
AcDbLine
 10
477.2433509999998
 20
187.0189019999999
 30
0.0
 11
485.643351
 21
188.028902
 31
0.0
  0
LINE
  5
4F68
330
4316
100
AcDbEntity
  8
1
  6
Continuous
100
AcDbLine
 10
476.4550279999999
 20
192.043181
 30
0.0
 11
486.2406690000001
 21
192.043181
 31
0.0
  0
ARC
  5
4F69
330
4316
100
AcDbEntity
  8
1
  6
Continuous
100
AcDbCircle
 10
477.147848
 20
189.8331809999999
 30
0.0
 40
0.8
100
AcDbArc
 50
96.85622100000069
 51
276.8562210000006
  0
ARC
  5
4F6A
330
4316
100
AcDbEntity
  8
1
  6
Continuous
100
AcDbCircle
 10
477.147848
 20
181.753181
 30
0.0
 40
0.8
100
AcDbArc
 50
96.85622100000069
 51
276.8562210000006
  0
ARC
  5
4F6B
330
4316
100
AcDbEntity
  8
1
  6
Continuous
100
AcDbCircle
 10
477.147848
 20
179.943181
 30
0.0
 40
0.8
100
AcDbArc
 50
95.44033200000042
 51
210.0000000000004
  0
ARC
  5
4F6C
330
4316
100
AcDbEntity
  8
1
  6
Continuous
100
AcDbCircle
 10
477.147848
 20
185.793181
 30
0.0
 40
0.8
100
AcDbArc
 50
96.85622100000069
 51
276.8562210000006
  0
ARC
  5
4F6D
330
4316
100
AcDbEntity
  8
1
  6
Continuous
100
AcDbCircle
 10
477.147848
 20
183.773181
 30
0.0
 40
0.8
100
AcDbArc
 50
96.85622100000069
 51
276.8562210000006
  0
ARC
  5
4F6E
330
4316
100
AcDbEntity
  8
1
  6
Continuous
100
AcDbCircle
 10
477.147848
 20
187.813181
 30
0.0
 40
0.8
100
AcDbArc
 50
96.85622100000069
 51
276.8562210000006
  0
ARC
  5
4F6F
330
4316
100
AcDbEntity
  8
1
  6
Continuous
100
AcDbCircle
 10
477.147848
 20
191.6431809999999
 30
0.0
 40
0.8
100
AcDbArc
 50
149.9999999999994
 51
275.4403320000004
  0
ARC
  5
4F70
330
4316
100
AcDbEntity
  8
1
  6
Continuous
100
AcDbCircle
 10
485.547848
 20
188.823181
 30
0.0
 40
0.8
100
AcDbArc
 50
276.8562210000006
 51
96.85622100000069
  0
ARC
  5
4F71
330
4316
100
AcDbEntity
  8
1
  6
Continuous
100
AcDbCircle
 10
485.547848
 20
180.7431809999999
 30
0.0
 40
0.8
100
AcDbArc
 50
275.4403320000004
 51
95.44033200000042
  0
LINE
  5
4F72
330
4316
100
AcDbEntity
  8
1
  6
Continuous
100
AcDbLine
 10
486.2406680000001
 20
179.543181
 30
0.0
 11
483.3478480000001
 21
179.543181
 31
0.0
  0
LINE
  5
4F73
330
4316
100
AcDbEntity
  8
1
  6
Continuous
100
AcDbLine
 10
481.3858569999998
 20
179.543181
 30
0.0
 11
485.623695
 21
179.946784
 31
0.0
  0
ARC
  5
4F74
330
4316
100
AcDbEntity
  8
1
  6
Continuous
100
AcDbCircle
 10
485.547848
 20
179.1431809999999
 30
0.0
 40
0.8
100
AcDbArc
 50
30.00000000000054
 51
149.9999999999994
  0
LINE
  5
4F75
330
4316
100
AcDbEntity
  8
1
  6
Continuous
100
AcDbLine
 10
483.849236
 20
185.793181
 30
0.0
 11
485.643351
 21
185.57746
 31
0.0
  0
LINE
  5
4F76
330
4316
100
AcDbEntity
  8
1
  6
Continuous
100
AcDbLine
 10
483.849236
 20
183.773181
 30
0.0
 11
485.643351
 21
183.5574599999999
 31
0.0
  0
ARC
  5
4F77
330
4316
100
AcDbEntity
  8
1
  6
Continuous
100
AcDbCircle
 10
485.547848
 20
184.783181
 30
0.0
 40
0.8
100
AcDbArc
 50
276.8562210000006
 51
96.85622100000069
  0
ARC
  5
4F78
330
4316
100
AcDbEntity
  8
1
  6
Continuous
100
AcDbCircle
 10
485.547848
 20
182.7631809999997
 30
0.0
 40
0.8
100
AcDbArc
 50
276.8562210000006
 51
96.85622100000069
  0
LINE
  5
4F79
330
4316
100
AcDbEntity
  8
1
  6
Continuous
100
AcDbLine
 10
483.849236
 20
181.753181
 30
0.0
 11
485.643351
 21
181.53746
 31
0.0
  0
ARC
  5
4F7A
330
4316
100
AcDbEntity
  8
1
  6
Continuous
100
AcDbCircle
 10
485.547848
 20
186.8031809999999
 30
0.0
 40
0.8
100
AcDbArc
 50
276.8562210000006
 51
96.85622100000069
  0
LINE
  5
4F7B
330
4316
100
AcDbEntity
  8
1
  6
Continuous
100
AcDbLine
 10
483.849236
 20
187.813181
 30
0.0
 11
485.643351
 21
187.59746
 31
0.0
  0
ARC
  5
4F7C
330
4316
100
AcDbEntity
  8
1
  6
Continuous
100
AcDbCircle
 10
485.547848
 20
192.443181
 30
0.0
 40
0.8
100
AcDbArc
 50
275.4403320000004
 51
329.9999999999994
  0
ARC
  5
4F7D
330
4316
100
AcDbEntity
  8
1
  6
Continuous
100
AcDbCircle
 10
485.547848
 20
190.8431809999999
 30
0.0
 40
0.8
100
AcDbArc
 50
276.8562210000006
 51
96.85622100000069
  0
LINE
  5
4F7E
330
4316
100
AcDbEntity
  8
1
  6
Continuous
100
AcDbLine
 10
485.643351
 20
189.6174599999999
 30
0.0
 11
483.849236
 21
189.8331809999999
 31
0.0
  0
ARC
  5
4F7F
330
4316
100
AcDbEntity
  8
1
  6
Continuous
100
AcDbCircle
 10
503.647848
 20
189.8331809999999
 30
0.0
 40
0.8
100
AcDbArc
 50
96.85622100000069
 51
276.8562210000006
  0
LINE
  5
4F80
330
4316
100
AcDbEntity
  8
1
  6
Continuous
100
AcDbLine
 10
511.952345
 20
189.6174599999999
 30
0.0
 11
503.552345
 21
188.60746
 31
0.0
  0
LINE
  5
4F81
330
4316
100
AcDbEntity
  8
1
  6
Continuous
100
AcDbLine
 10
512.1433509999998
 20
190.048902
 30
0.0
 11
503.7433509999999
 21
189.038902
 31
0.0
  0
ARC
  5
4F82
330
4316
100
AcDbEntity
  8
1
  6
Continuous
100
AcDbCircle
 10
503.647848
 20
181.753181
 30
0.0
 40
0.8
100
AcDbArc
 50
96.85622100000069
 51
276.8562210000006
  0
LINE
  5
4F83
330
4316
100
AcDbEntity
  8
1
  6
Continuous
100
AcDbLine
 10
511.9720009999999
 20
181.539577
 30
0.0
 11
503.572001
 21
180.739577
 31
0.0
  0
LINE
  5
4F84
330
4316
100
AcDbEntity
  8
1
  6
Continuous
100
AcDbLine
 10
503.7433509999999
 20
180.9589019999999
 30
0.0
 11
512.1433509999998
 21
181.968902
 31
0.0
  0
LINE
  5
4F85
330
4316
100
AcDbEntity
  8
1
  6
Continuous
100
AcDbLine
 10
507.885857
 20
179.543181
 30
0.0
 11
502.9550279999998
 21
179.543181
 31
0.0
  0
ARC
  5
4F86
330
4316
100
AcDbEntity
  8
1
  6
Continuous
100
AcDbCircle
 10
503.647848
 20
179.943181
 30
0.0
 40
0.8
100
AcDbArc
 50
95.44033200000042
 51
210.0000000000004
  0
LINE
  5
4F87
330
4316
100
AcDbEntity
  8
1
  6
Continuous
100
AcDbLine
 10
504.5788929999998
 20
180.835472
 30
0.0
 11
503.552345
 21
180.9589019999999
 31
0.0
  0
LINE
  5
4F88
330
4316
100
AcDbEntity
  8
1
  6
Continuous
100
AcDbLine
 10
503.7433509999999
 20
187.0189019999999
 30
0.0
 11
512.1433509999998
 21
188.028902
 31
0.0
  0
LINE
  5
4F89
330
4316
100
AcDbEntity
  8
1
  6
Continuous
100
AcDbLine
 10
511.952345
 20
183.5574599999999
 30
0.0
 11
503.552345
 21
182.5474599999997
 31
0.0
  0
LINE
  5
4F8A
330
4316
100
AcDbEntity
  8
1
  6
Continuous
100
AcDbLine
 10
503.7433509999999
 20
182.9789019999997
 30
0.0
 11
512.1433509999998
 21
183.988902
 31
0.0
  0
LINE
  5
4F8B
330
4316
100
AcDbEntity
  8
1
  6
Continuous
100
AcDbLine
 10
511.952345
 20
185.57746
 30
0.0
 11
503.552345
 21
184.56746
 31
0.0
  0
LINE
  5
4F8C
330
4316
100
AcDbEntity
  8
1
  6
Continuous
100
AcDbLine
 10
503.7433509999999
 20
184.9989019999999
 30
0.0
 11
512.1433509999998
 21
186.008902
 31
0.0
  0
LINE
  5
4F8D
330
4316
100
AcDbEntity
  8
1
  6
Continuous
100
AcDbLine
 10
511.952345
 20
187.59746
 30
0.0
 11
503.552345
 21
186.5874599999999
 31
0.0
  0
ARC
  5
4F8E
330
4316
100
AcDbEntity
  8
1
  6
Continuous
100
AcDbCircle
 10
503.647848
 20
187.813181
 30
0.0
 40
0.8
100
AcDbArc
 50
96.85622100000069
 51
276.8562210000006
  0
ARC
  5
4F8F
330
4316
100
AcDbEntity
  8
1
  6
Continuous
100
AcDbCircle
 10
503.647848
 20
183.773181
 30
0.0
 40
0.8
100
AcDbArc
 50
96.85622100000069
 51
276.8562210000006
  0
ARC
  5
4F90
330
4316
100
AcDbEntity
  8
1
  6
Continuous
100
AcDbCircle
 10
503.647848
 20
185.793181
 30
0.0
 40
0.8
100
AcDbArc
 50
96.85622100000069
 51
276.8562210000006
  0
LINE
  5
4F91
330
4316
100
AcDbEntity
  8
1
  6
Continuous
100
AcDbLine
 10
502.9550279999998
 20
192.043181
 30
0.0
 11
512.7406689999998
 21
192.043181
 31
0.0
  0
LINE
  5
4F92
330
4316
100
AcDbEntity
  8
1
  6
Continuous
100
AcDbLine
 10
503.7236949999998
 20
190.846784
 30
0.0
 11
512.123695
 21
191.6467839999999
 31
0.0
  0
LINE
  5
4F93
330
4316
100
AcDbEntity
  8
1
  6
Continuous
100
AcDbLine
 10
503.552345
 20
190.62746
 30
0.0
 11
511.952345
 21
191.63746
 31
0.0
  0
ARC
  5
4F94
330
4316
100
AcDbEntity
  8
1
  6
Continuous
100
AcDbCircle
 10
503.647848
 20
191.6431809999999
 30
0.0
 40
0.8
100
AcDbArc
 50
149.9999999999994
 51
275.4403320000004
  0
LINE
  5
4F95
330
4316
100
AcDbEntity
  8
1
  6
Continuous
100
AcDbLine
 10
503.572001
 20
190.846784
 30
0.0
 11
504.5788929999998
 21
190.75089
 31
0.0
  0
ARC
  5
4F96
330
4316
100
AcDbEntity
  8
1
  6
Continuous
100
AcDbCircle
 10
512.0478479999998
 20
188.823181
 30
0.0
 40
0.8
100
AcDbArc
 50
276.8562210000006
 51
96.85622100000069
  0
ARC
  5
4F97
330
4316
100
AcDbEntity
  8
1
  6
Continuous
100
AcDbCircle
 10
512.0478479999998
 20
186.8031809999999
 30
0.0
 40
0.8
100
AcDbArc
 50
276.8562210000006
 51
96.85622100000069
  0
ARC
  5
4F98
330
4316
100
AcDbEntity
  8
1
  6
Continuous
100
AcDbCircle
 10
512.0478479999998
 20
182.7631809999997
 30
0.0
 40
0.8
100
AcDbArc
 50
276.8562210000006
 51
96.85622100000069
  0
ARC
  5
4F99
330
4316
100
AcDbEntity
  8
1
  6
Continuous
100
AcDbCircle
 10
512.0478479999998
 20
184.783181
 30
0.0
 40
0.8
100
AcDbArc
 50
276.8562210000006
 51
96.85622100000069
  0
ARC
  5
4F9A
330
4316
100
AcDbEntity
  8
1
  6
Continuous
100
AcDbCircle
 10
512.0478479999998
 20
180.7431809999999
 30
0.0
 40
0.8
100
AcDbArc
 50
275.4403320000004
 51
95.44033200000042
  0
ARC
  5
4F9B
330
4316
100
AcDbEntity
  8
1
  6
Continuous
100
AcDbCircle
 10
512.0478479999998
 20
179.1431809999999
 30
0.0
 40
0.8
100
AcDbArc
 50
30.00000000000054
 51
149.9999999999994
  0
LINE
  5
4F9C
330
4316
100
AcDbEntity
  8
1
  6
Continuous
100
AcDbLine
 10
507.885857
 20
179.543181
 30
0.0
 11
512.123695
 21
179.946784
 31
0.0
  0
LINE
  5
4F9D
330
4316
100
AcDbEntity
  8
1
  6
Continuous
100
AcDbLine
 10
512.7406680000001
 20
179.543181
 30
0.0
 11
509.847848
 21
179.543181
 31
0.0
  0
LINE
  5
4F9E
330
4316
100
AcDbEntity
  8
1
  6
Continuous
100
AcDbLine
 10
510.349236
 20
187.813181
 30
0.0
 11
512.1433509999998
 21
187.59746
 31
0.0
  0
LINE
  5
4F9F
330
4316
100
AcDbEntity
  8
1
  6
Continuous
100
AcDbLine
 10
510.349236
 20
181.753181
 30
0.0
 11
512.1433509999998
 21
181.53746
 31
0.0
  0
LINE
  5
4FA0
330
4316
100
AcDbEntity
  8
1
  6
Continuous
100
AcDbLine
 10
510.349236
 20
183.773181
 30
0.0
 11
512.1433509999998
 21
183.5574599999999
 31
0.0
  0
LINE
  5
4FA1
330
4316
100
AcDbEntity
  8
1
  6
Continuous
100
AcDbLine
 10
510.349236
 20
185.793181
 30
0.0
 11
512.1433509999998
 21
185.57746
 31
0.0
  0
ARC
  5
4FA2
330
4316
100
AcDbEntity
  8
1
  6
Continuous
100
AcDbCircle
 10
512.0478479999998
 20
190.8431809999999
 30
0.0
 40
0.8
100
AcDbArc
 50
276.8562210000006
 51
96.85622100000069
  0
ARC
  5
4FA3
330
4316
100
AcDbEntity
  8
1
  6
Continuous
100
AcDbCircle
 10
512.0478479999998
 20
192.443181
 30
0.0
 40
0.8
100
AcDbArc
 50
275.4403320000004
 51
329.9999999999994
  0
LINE
  5
4FA4
330
4316
100
AcDbEntity
  8
1
  6
Continuous
100
AcDbLine
 10
512.1433509999998
 20
189.6174599999999
 30
0.0
 11
510.349236
 21
189.8331809999999
 31
0.0
  0
LINE
  5
4FE4
330
4316
100
AcDbEntity
  8
1
  6
Continuous
100
AcDbLine
 10
78.3
 20
198.543181
 30
0.0
 11
77.23351353553322
 21
204.5915262967988
 31
0.0
  0
LINE
  5
4FFD
330
4316
100
AcDbEntity
  8
1
  6
Continuous
100
AcDbLine
 10
83.70000000000002
 20
199.0156197830397
 30
0.0
 11
82.56577642541675
 21
205.4481213209558
 31
0.0
  0
ARC
  5
5000
330
4316
100
AcDbEntity
  8
1
  6
Continuous
100
AcDbCircle
 10
79.97487361880529
 20
204.5515291479084
 30
0.0
 40
2.741651852091506
100
AcDbArc
 50
0.0
 51
0.9116189002240295
  0
ARC
  5
5002
330
4316
100
AcDbEntity
  8
1
  6
Continuous
100
AcDbCircle
 10
79.97487361880529
 20
204.5515291479084
 30
0.0
 40
2.741651852091506
100
AcDbArc
 50
19.08838109977598
 51
179.1640991472338
  0
LINE
  5
5004
330
4316
100
AcDbEntity
  8
1
  6
Continuous
100
AcDbLine
 10
83.7
 20
191.4967033333332
 30
0.0
 11
83.7
 21
191.4685859559524
 31
0.0
  0
LINE
  5
5005
330
4316
100
AcDbEntity
  8
1
  6
Continuous
100
AcDbLine
 10
358.7999999999998
 20
199.0156197830397
 30
0.0
 11
359.9342235745832
 21
205.4481213209558
 31
0.0
  0
ARC
  5
5006
330
4316
100
AcDbEntity
  8
1
  6
Continuous
100
AcDbCircle
 10
362.5251263811946
 20
204.5515291479084
 30
0.0
 40
2.741651852091506
100
AcDbArc
 50
0.835900852766125
 51
160.911618900224
  0
CIRCLE
  5
5008
330
4316
100
AcDbEntity
  8
1
  6
Continuous
100
AcDbCircle
 10
362.5
 20
204.543181
 30
0.0
 40
1.649999999999999
  0
LINE
  5
5009
330
4316
100
AcDbEntity
  8
4
  6
CENTER
 48
0.1
100
AcDbLine
 10
362.5
 20
207.693181
 30
0.0
 11
362.5
 21
201.3931809999998
 31
0.0
  0
LINE
  5
500A
330
4316
100
AcDbEntity
  8
1
  6
Continuous
100
AcDbLine
 10
364.1999999999999
 20
166.2431809999999
 30
0.0
 11
364.1999999999999
 21
176.543181
 31
0.0
  0
LINE
  5
500B
330
4316
100
AcDbEntity
  8
1
  6
Continuous
100
AcDbLine
 10
358.8
 20
166.2431809999999
 30
0.0
 11
358.8
 21
176.543181
 31
0.0
  0
ARC
  5
5014
330
4316
100
AcDbEntity
  8
1
  6
Continuous
100
AcDbCircle
 10
361.5
 20
166.2431809999999
 30
0.0
 40
2.7
100
AcDbArc
 50
180.0
 51
0.000000000000007
  0
LINE
  5
5021
330
4316
100
AcDbEntity
  8
1
  6
Continuous
100
AcDbLine
 10
364.1999999999999
 20
189.2077761642857
 30
0.0
 11
364.1999999999999
 21
188.7993002416666
 31
0.0
  0
LINE
  5
5022
330
4316
100
AcDbEntity
  8
1
  6
Continuous
100
AcDbLine
 10
357.395503
 20
189.6174599999999
 30
0.0
 11
365.795503
 21
188.60746
 31
0.0
  0
LINE
  5
5023
330
4316
100
AcDbEntity
  8
1
  6
Continuous
100
AcDbLine
 10
357.204498
 20
190.048902
 30
0.0
 11
365.604498
 21
189.038902
 31
0.0
  0
ARC
  5
5024
330
4316
100
AcDbEntity
  8
1
  6
Continuous
100
AcDbCircle
 10
365.7
 20
189.8331809999999
 30
0.0
 40
0.8
100
AcDbArc
 50
263.143779
 51
83.14377900000001
  0
ARC
  5
5025
330
4316
100
AcDbEntity
  8
1
  6
Continuous
100
AcDbCircle
 10
357.2999999999999
 20
188.8231809999999
 30
0.0
 40
0.8
100
AcDbArc
 50
83.14377900000001
 51
263.143779
  0
ARC
  5
5026
330
4316
100
AcDbEntity
  8
1
  6
Continuous
100
AcDbCircle
 10
365.7
 20
181.753181
 30
0.0
 40
0.8
100
AcDbArc
 50
263.143779
 51
83.14377900000001
  0
ARC
  5
5027
330
4316
100
AcDbEntity
  8
1
  6
Continuous
100
AcDbCircle
 10
365.7
 20
183.773181
 30
0.0
 40
0.8
100
AcDbArc
 50
263.143779
 51
83.14377900000001
  0
ARC
  5
5028
330
4316
100
AcDbEntity
  8
1
  6
Continuous
100
AcDbCircle
 10
365.7
 20
185.793181
 30
0.0
 40
0.8
100
AcDbArc
 50
263.143779
 51
83.14377900000001
  0
ARC
  5
5029
330
4316
100
AcDbEntity
  8
1
  6
Continuous
100
AcDbCircle
 10
365.7
 20
187.813181
 30
0.0
 40
0.8
100
AcDbArc
 50
263.143779
 51
83.14377900000001
  0
ARC
  5
502A
330
4316
100
AcDbEntity
  8
1
  6
Continuous
100
AcDbCircle
 10
365.7
 20
179.9431809999999
 30
0.0
 40
0.8
100
AcDbArc
 50
330.0
 51
84.55966800000002
  0
LINE
  5
502C
330
4316
100
AcDbEntity
  8
1
  6
Continuous
100
AcDbLine
 10
366.392821
 20
179.543181
 30
0.0
 11
356.6071799999999
 21
179.543181
 31
0.0
  0
LINE
  5
502D
330
4316
100
AcDbEntity
  8
1
  6
Continuous
100
AcDbLine
 10
357.0
 20
176.543181
 30
0.0
 11
366.0
 21
176.543181
 31
0.0
  0
LINE
  5
502E
330
4316
100
AcDbEntity
  8
1
  6
Continuous
100
AcDbLine
 10
366.5
 20
179.043181
 30
0.0
 11
366.5
 21
177.043181
 31
0.0
  0
ARC
  5
502F
330
4316
100
AcDbEntity
  8
1
  6
Continuous
100
AcDbCircle
 10
366.0
 20
177.043181
 30
0.0
 40
0.5
100
AcDbArc
 50
270.0
 51
0.000000000000007
  0
ARC
  5
5030
330
4316
100
AcDbEntity
  8
1
  6
Continuous
100
AcDbCircle
 10
366.000001
 20
179.043181
 30
0.0
 40
0.5
100
AcDbArc
 50
0.000000000000007
 51
90.0
  0
LINE
  5
5031
330
4316
100
AcDbEntity
  8
1
  6
Continuous
100
AcDbLine
 10
364.1999999999999
 20
181.1277761642856
 30
0.0
 11
364.1999999999999
 21
180.8896577619048
 31
0.0
  0
LINE
  5
5032
330
4316
100
AcDbEntity
  8
1
  6
Continuous
100
AcDbLine
 10
357.375848
 20
181.539577
 30
0.0
 11
365.775848
 21
180.739577
 31
0.0
  0
LINE
  5
5033
330
4316
100
AcDbEntity
  8
1
  6
Continuous
100
AcDbLine
 10
365.604498
 20
180.9589019999999
 30
0.0
 11
357.204498
 21
181.968902
 31
0.0
  0
ARC
  5
5034
330
4316
100
AcDbEntity
  8
1
  6
Continuous
100
AcDbCircle
 10
357.2999999999999
 20
180.7431809999999
 30
0.0
 40
0.8
100
AcDbArc
 50
84.55966800000002
 51
264.5596680000002
  0
LINE
  5
5035
330
4316
100
AcDbEntity
  8
1
  6
Continuous
100
AcDbLine
 10
361.461991
 20
179.543181
 30
0.0
 11
357.2241529999998
 21
179.9467839999999
 31
0.0
  0
LINE
  5
5036
330
4316
100
AcDbEntity
  8
1
  6
Continuous
100
AcDbLine
 10
364.7689559999998
 20
180.8354719999999
 30
0.0
 11
365.795503
 21
180.9589019999999
 31
0.0
  0
LINE
  5
5037
330
4316
100
AcDbEntity
  8
1
  6
Continuous
100
AcDbLine
 10
358.8
 20
179.7967035635272
 30
0.0
 11
358.8
 21
179.543181
 31
0.0
  0
ARC
  5
5038
330
4316
100
AcDbEntity
  8
1
  6
Continuous
100
AcDbCircle
 10
357.2999999999999
 20
179.1431809999999
 30
0.0
 40
0.8
100
AcDbArc
 50
30.0
 51
150.0
  0
ARC
  5
5039
330
4316
100
AcDbEntity
  8
1
  6
Continuous
100
AcDbCircle
 10
357.000001
 20
179.043181
 30
0.0
 40
0.5
100
AcDbArc
 50
90.0
 51
180.0
  0
LINE
  5
503A
330
4316
100
AcDbEntity
  8
1
  6
Continuous
100
AcDbLine
 10
356.4999999999998
 20
179.043181
 30
0.0
 11
356.4999999999998
 21
177.043181
 31
0.0
  0
ARC
  5
503B
330
4316
100
AcDbEntity
  8
1
  6
Continuous
100
AcDbCircle
 10
357.0
 20
177.043181
 30
0.0
 40
0.5
100
AcDbArc
 50
180.0
 51
270.0
  0
LINE
  5
503C
330
4316
100
AcDbEntity
  8
1
  6
Continuous
100
AcDbLine
 10
357.395503
 20
183.5574599999999
 30
0.0
 11
365.795503
 21
182.5474599999997
 31
0.0
  0
LINE
  5
503D
330
4316
100
AcDbEntity
  8
1
  6
Continuous
100
AcDbLine
 10
365.604498
 20
182.9789019999998
 30
0.0
 11
357.204498
 21
183.988902
 31
0.0
  0
LINE
  5
503E
330
4316
100
AcDbEntity
  8
1
  6
Continuous
100
AcDbLine
 10
357.395503
 20
185.5774599999999
 30
0.0
 11
365.795503
 21
184.5674599999999
 31
0.0
  0
LINE
  5
503F
330
4316
100
AcDbEntity
  8
1
  6
Continuous
100
AcDbLine
 10
365.604498
 20
184.9989019999999
 30
0.0
 11
357.204498
 21
186.008902
 31
0.0
  0
LINE
  5
5040
330
4316
100
AcDbEntity
  8
1
  6
Continuous
100
AcDbLine
 10
357.395503
 20
187.59746
 30
0.0
 11
365.795503
 21
186.5874599999999
 31
0.0
  0
LINE
  5
5041
330
4316
100
AcDbEntity
  8
1
  6
Continuous
100
AcDbLine
 10
365.604498
 20
187.0189019999999
 30
0.0
 11
357.204498
 21
188.028902
 31
0.0
  0
LINE
  5
5042
330
4316
100
AcDbEntity
  8
1
  6
Continuous
100
AcDbLine
 10
364.1999999999999
 20
183.1477761642855
 30
0.0
 11
364.1999999999999
 21
182.7393002416664
 31
0.0
  0
LINE
  5
5043
330
4316
100
AcDbEntity
  8
1
  6
Continuous
100
AcDbLine
 10
364.2
 20
185.1677761642856
 30
0.0
 11
364.1999999999999
 21
184.7593002416666
 31
0.0
  0
LINE
  5
5044
330
4316
100
AcDbEntity
  8
1
  6
Continuous
100
AcDbLine
 10
364.1999999999999
 20
187.1877761642856
 30
0.0
 11
364.1999999999999
 21
186.7793002416666
 31
0.0
  0
LINE
  5
5045
330
4316
100
AcDbEntity
  8
1
  6
Continuous
100
AcDbLine
 10
364.1999999999999
 20
184.8070610737856
 30
0.0
 11
365.795503
 21
184.9989019999999
 31
0.0
  0
LINE
  5
5046
330
4316
100
AcDbEntity
  8
1
  6
Continuous
100
AcDbLine
 10
365.795503
 20
189.038902
 30
0.0
 11
364.1999999999999
 21
188.8470610737856
 31
0.0
  0
LINE
  5
5047
330
4316
100
AcDbEntity
  8
1
  6
Continuous
100
AcDbLine
 10
364.2
 20
186.8270610737856
 30
0.0
 11
365.795503
 21
187.0189019999999
 31
0.0
  0
LINE
  5
5048
330
4316
100
AcDbEntity
  8
1
  6
Continuous
100
AcDbLine
 10
364.1999999999999
 20
182.7870610737856
 30
0.0
 11
365.795503
 21
182.9789019999998
 31
0.0
  0
LINE
  5
5049
330
4316
100
AcDbEntity
  8
1
  6
Continuous
100
AcDbLine
 10
358.7999999999998
 20
181.7770618785714
 30
0.0
 11
358.8
 21
181.4039434761905
 31
0.0
  0
LINE
  5
504A
330
4316
100
AcDbEntity
  8
1
  6
Continuous
100
AcDbLine
 10
358.8
 20
185.8170618785713
 30
0.0
 11
358.8
 21
185.4085859559523
 31
0.0
  0
LINE
  5
504B
330
4316
100
AcDbEntity
  8
1
  6
Continuous
100
AcDbLine
 10
358.8
 20
187.8370618785713
 30
0.0
 11
358.8
 21
187.4285859559523
 31
0.0
  0
LINE
  5
504C
330
4316
100
AcDbEntity
  8
1
  6
Continuous
100
AcDbLine
 10
358.8
 20
185.7693001478958
 30
0.0
 11
357.204498
 21
185.5774599999999
 31
0.0
  0
LINE
  5
504D
330
4316
100
AcDbEntity
  8
1
  6
Continuous
100
AcDbLine
 10
358.7999999999998
 20
187.7892998977522
 30
0.0
 11
357.204498
 21
187.59746
 31
0.0
  0
LINE
  5
504E
330
4316
100
AcDbEntity
  8
1
  6
Continuous
100
AcDbLine
 10
358.8
 20
183.7492998977522
 30
0.0
 11
357.204498
 21
183.5574599999999
 31
0.0
  0
LINE
  5
504F
330
4316
100
AcDbEntity
  8
1
  6
Continuous
100
AcDbLine
 10
358.8
 20
181.7292998977521
 30
0.0
 11
357.204498
 21
181.53746
 31
0.0
  0
LINE
  5
5050
330
4316
100
AcDbEntity
  8
1
  6
Continuous
100
AcDbLine
 10
358.8
 20
183.803074
 30
0.0
 11
358.8
 21
183.3945979999999
 31
0.0
  0
ARC
  5
5051
330
4316
100
AcDbEntity
  8
1
  6
Continuous
100
AcDbCircle
 10
357.2999999999999
 20
182.7631809999997
 30
0.0
 40
0.8
100
AcDbArc
 50
83.14377900000001
 51
263.143779
  0
ARC
  5
5052
330
4316
100
AcDbEntity
  8
1
  6
Continuous
100
AcDbCircle
 10
357.2999999999999
 20
184.783181
 30
0.0
 40
0.8
100
AcDbArc
 50
83.14377900000001
 51
263.143779
  0
ARC
  5
5053
330
4316
100
AcDbEntity
  8
1
  6
Continuous
100
AcDbCircle
 10
357.2999999999999
 20
186.8031809999998
 30
0.0
 40
0.8
100
AcDbArc
 50
83.14377900000001
 51
263.143779
  0
LINE
  5
5054
330
4316
100
AcDbEntity
  8
1
  6
Continuous
100
AcDbLine
 10
364.1999999999999
 20
195.0431809999997
 30
0.0
 11
366.0
 21
195.0431809999997
 31
0.0
  0
ARC
  5
5055
330
4316
100
AcDbEntity
  8
1
  6
Continuous
100
AcDbCircle
 10
365.7
 20
191.6431809999999
 30
0.0
 40
0.8
100
AcDbArc
 50
264.5596680000002
 51
30.0
  0
LINE
  5
5056
330
4316
100
AcDbEntity
  8
1
  6
Continuous
100
AcDbLine
 10
366.392821
 20
192.043181
 30
0.0
 11
356.6071799999999
 21
192.043181
 31
0.0
  0
LINE
  5
5057
330
4316
100
AcDbEntity
  8
1
  6
Continuous
100
AcDbLine
 10
366.5
 20
194.543181
 30
0.0
 11
366.5
 21
192.543181
 31
0.0
  0
ARC
  5
5058
330
4316
100
AcDbEntity
  8
1
  6
Continuous
100
AcDbCircle
 10
366.000001
 20
192.543181
 30
0.0
 40
0.5
100
AcDbArc
 50
270.0
 51
0.000000000000007
  0
ARC
  5
505A
330
4316
100
AcDbEntity
  8
1
  6
Continuous
100
AcDbCircle
 10
366.0
 20
194.543181
 30
0.0
 40
0.5
100
AcDbArc
 50
0.000000000000007
 51
90.0
  0
LINE
  5
505B
330
4316
100
AcDbEntity
  8
1
  6
Continuous
100
AcDbLine
 10
358.7999999999998
 20
199.0156197830398
 30
0.0
 11
358.8
 21
192.043181
 31
0.0
  0
LINE
  5
505C
330
4316
100
AcDbEntity
  8
1
  6
Continuous
100
AcDbLine
 10
364.1999999999999
 20
198.543181
 30
0.0
 11
364.1999999999999
 21
192.043181
 31
0.0
  0
LINE
  5
505D
330
4316
100
AcDbEntity
  8
1
  6
Continuous
100
AcDbLine
 10
365.624153
 20
190.846784
 30
0.0
 11
357.2241529999998
 21
191.6467839999999
 31
0.0
  0
LINE
  5
505E
330
4316
100
AcDbEntity
  8
1
  6
Continuous
100
AcDbLine
 10
365.795503
 20
190.62746
 30
0.0
 11
357.395503
 21
191.63746
 31
0.0
  0
LINE
  5
505F
330
4316
100
AcDbEntity
  8
1
  6
Continuous
100
AcDbLine
 10
364.1999999999999
 20
190.9824176190476
 30
0.0
 11
364.1999999999999
 21
190.8193002416666
 31
0.0
  0
LINE
  5
5060
330
4316
100
AcDbEntity
  8
1
  6
Continuous
100
AcDbLine
 10
365.775848
 20
190.846784
 30
0.0
 11
364.7689559999998
 21
190.75089
 31
0.0
  0
LINE
  5
5061
330
4316
100
AcDbEntity
  8
1
  6
Continuous
100
AcDbLine
 10
358.7999999999998
 20
189.8570618785714
 30
0.0
 11
358.8
 21
189.4485859559523
 31
0.0
  0
LINE
  5
5062
330
4316
100
AcDbEntity
  8
1
  6
Continuous
100
AcDbLine
 10
358.8
 20
191.4967033333332
 30
0.0
 11
358.8
 21
191.4685859559524
 31
0.0
  0
LINE
  5
5063
330
4316
100
AcDbEntity
  8
1
  6
Continuous
100
AcDbLine
 10
357.204498
 20
189.6174599999999
 30
0.0
 11
358.8
 21
189.8092998977522
 31
0.0
  0
LINE
  5
5064
330
4316
100
AcDbEntity
  8
1
  6
Continuous
100
AcDbLine
 10
357.0
 20
195.0431809999997
 30
0.0
 11
358.8
 21
195.0431809999997
 31
0.0
  0
ARC
  5
5065
330
4316
100
AcDbEntity
  8
1
  6
Continuous
100
AcDbCircle
 10
357.2999999999999
 20
190.8431809999999
 30
0.0
 40
0.8
100
AcDbArc
 50
83.14377900000001
 51
263.143779
  0
ARC
  5
5066
330
4316
100
AcDbEntity
  8
1
  6
Continuous
100
AcDbCircle
 10
357.2999999999999
 20
192.4431809999999
 30
0.0
 40
0.8
100
AcDbArc
 50
210.0
 51
264.5596680000002
  0
ARC
  5
5067
330
4316
100
AcDbEntity
  8
1
  6
Continuous
100
AcDbCircle
 10
357.000001
 20
192.543181
 30
0.0
 40
0.5
100
AcDbArc
 50
180.0
 51
270.0
  0
LINE
  5
5068
330
4316
100
AcDbEntity
  8
1
  6
Continuous
100
AcDbLine
 10
356.4999999999998
 20
194.543181
 30
0.0
 11
356.4999999999998
 21
192.543181
 31
0.0
  0
ARC
  5
5069
330
4316
100
AcDbEntity
  8
1
  6
Continuous
100
AcDbCircle
 10
357.0
 20
194.543181
 30
0.0
 40
0.5
100
AcDbArc
 50
90.0
 51
180.0
  0
LINE
  5
506A
330
4316
100
AcDbEntity
  8
1
  6
Continuous
100
AcDbLine
 10
358.8
 20
198.543181
 30
0.0
 11
364.1999999999999
 21
198.543181
 31
0.0
  0
LINE
  5
506B
330
4316
100
AcDbEntity
  8
4
  6
CENTER
 48
0.1
100
AcDbLine
 10
359.3499999999999
 20
204.543181
 30
0.0
 11
365.65
 21
204.543181
 31
0.0
  0
LINE
  5
506C
330
4316
100
AcDbEntity
  8
1
  6
Continuous
100
AcDbLine
 10
364.1999999999999
 20
198.543181
 30
0.0
 11
365.2664864644667
 21
204.5915262967988
 31
0.0
  0
ARC
  5
506D
330
4316
100
AcDbEntity
  8
1
  6
Continuous
100
AcDbCircle
 10
362.5251263811946
 20
204.5515291479084
 30
0.0
 40
2.741651852091506
100
AcDbArc
 50
179.0883810997759
 51
180.0
  0
LINE
  5
5126
330
4316
100
AcDbEntity
  8
1
  6
Continuous
100
AcDbLine
 10
207.9999999999998
 20
296.786362
 30
0.0
 11
205.9999999999998
 21
296.786362
 31
0.0
  0
LINE
  5
5127
330
4316
100
AcDbEntity
  8
1
  6
Continuous
100
AcDbLine
 10
205.9999999999998
 20
291.386362
 30
0.0
 11
205.9999999999998
 21
296.786362
 31
0.0
  0
LINE
  5
5128
330
4316
100
AcDbEntity
  8
1
  6
Continuous
100
AcDbLine
 10
207.9999999999998
 20
291.386362
 30
0.0
 11
205.9999999999998
 21
291.386362
 31
0.0
  0
ARC
  5
5166
330
4316
100
AcDbEntity
  8
5
  6
PHANTOM
 48
0.1
100
AcDbCircle
 10
118.5083481479084
 20
168.0683073811946
 30
0.0
 40
2.741651852091506
100
AcDbArc
 50
289.0883810997759
 51
89.16409914723386
  0
LINE
  5
5167
330
4316
100
AcDbEntity
  8
5
  6
PHANTOM
 48
0.1
100
AcDbLine
 10
112.9724387830397
 20
164.3431809999999
 30
0.0
 11
119.4049403209558
 21
165.4774045745831
 31
0.0
  0
LINE
  5
5168
330
4316
100
AcDbEntity
  8
5
  6
PHANTOM
 48
0.1
100
AcDbLine
 10
112.5
 20
169.743181
 30
0.0
 11
118.5483452967988
 21
170.8096674644667
 31
0.0
  0
LINE
  5
5169
330
4316
100
AcDbEntity
  8
5
  6
PHANTOM
 48
0.2
100
AcDbLine
 10
112.5
 20
169.743181
 30
0.0
 11
89.8
 21
169.743181
 31
0.0
  0
LINE
  5
516A
330
4316
100
AcDbEntity
  8
5
  6
PHANTOM
 48
0.2
100
AcDbLine
 10
112.9724387830398
 20
164.343181
 30
0.0
 11
89.80000000000002
 21
164.343181
 31
0.0
  0
LINE
  5
516B
330
4316
100
AcDbEntity
  8
4
  6
CENTER
 48
0.1
100
AcDbLine
 10
121.65
 20
168.0431809999999
 30
0.0
 11
115.3499999999997
 21
168.0431809999999
 31
0.0
  0
LINE
  5
516C
330
4316
100
AcDbEntity
  8
4
  6
CENTER
 48
0.1
100
AcDbLine
 10
118.5
 20
164.893181
 30
0.0
 11
118.5
 21
171.193181
 31
0.0
  0
LINE
  5
516F
330
4316
100
AcDbEntity
  8
5
  6
PHANTOM
 48
0.2
100
AcDbLine
 10
329.5275612169601
 20
164.343181
 30
0.0
 11
352.7
 21
164.343181
 31
0.0
  0
LINE
  5
5170
330
4316
100
AcDbEntity
  8
5
  6
PHANTOM
 48
0.2
100
AcDbLine
 10
330.0
 20
169.743181
 30
0.0
 11
352.7
 21
169.743181
 31
0.0
  0
LINE
  5
5171
330
4316
100
AcDbEntity
  8
4
  6
CENTER
 48
0.1
100
AcDbLine
 10
324.0
 20
164.893181
 30
0.0
 11
324.0
 21
171.193181
 31
0.0
  0
LINE
  5
5172
330
4316
100
AcDbEntity
  8
5
  6
PHANTOM
 48
0.1
100
AcDbLine
 10
329.5275612169602
 20
164.3431809999999
 30
0.0
 11
323.0950596790441
 21
165.4774045745831
 31
0.0
  0
LINE
  5
5173
330
4316
100
AcDbEntity
  8
4
  6
CENTER
 48
0.1
100
AcDbLine
 10
320.85
 20
168.0431809999999
 30
0.0
 11
327.1500000000002
 21
168.0431809999999
 31
0.0
  0
LINE
  5
5174
330
4316
100
AcDbEntity
  8
5
  6
PHANTOM
 48
0.1
100
AcDbLine
 10
330.0
 20
169.743181
 30
0.0
 11
323.9516547032011
 21
170.8096674644667
 31
0.0
  0
ARC
  5
5175
330
4316
100
AcDbEntity
  8
5
  6
PHANTOM
 48
0.1
100
AcDbCircle
 10
323.9916518520915
 20
168.0683073811946
 30
0.0
 40
2.741651852091506
100
AcDbArc
 50
90.83590085276613
 51
250.911618900224
  0
ENDSEC
  0
SECTION
  2
OBJECTS
  0
DICTIONARY
  5
4304
330
0
100
AcDbDictionary
281
     1
  3
ACAD_CIP_PREVIOUS_PRODUCT_INFO
350
532C
  3
ACAD_COLOR
350
530E
  3
ACAD_DETAILVIEWSTYLE
350
5327
  3
ACAD_GROUP
350
4305
  3
ACAD_LAYOUT
350
4311
  3
ACAD_MATERIAL
350
52DC
  3
ACAD_MLEADERSTYLE
350
5323
  3
ACAD_MLINESTYLE
350
430E
  3
ACAD_PLOTSETTINGS
350
4310
  3
ACAD_PLOTSTYLENAME
350
52DA
  3
ACAD_SCALELIST
350
5311
  3
ACAD_SECTIONVIEWSTYLE
350
5325
  3
ACAD_TABLESTYLE
350
530F
  3
ACAD_VISUALSTYLE
350
52F5
  3
ACDB_RECOMPOSE_DATA
350
534A
  3
AcDbVariableDictionary
350
533D
  3
DWGPROPS
350
534B
  0
DICTIONARY
  5
532D
330
4308
100
AcDbDictionary
280
     1
281
     1
  3
ADSK_XREC_LAYER_RECONCILED
360
532E
  0
DICTIONARY
  5
532F
330
431E
100
AcDbDictionary
280
     1
281
     1
  3
ADSK_XREC_LAYER_RECONCILED
360
5330
  0
DICTIONARY
  5
5331
330
431F
100
AcDbDictionary
280
     1
281
     1
  3
ADSK_XREC_LAYER_RECONCILED
360
5332
  0
DICTIONARY
  5
5333
330
4320
100
AcDbDictionary
280
     1
281
     1
  3
ADSK_XREC_LAYER_RECONCILED
360
5334
  0
DICTIONARY
  5
5335
330
4321
100
AcDbDictionary
280
     1
281
     1
  3
ADSK_XREC_LAYER_RECONCILED
360
5336
  0
DICTIONARY
  5
5337
330
4322
100
AcDbDictionary
280
     1
281
     1
  3
ADSK_XREC_LAYER_RECONCILED
360
5338
  0
DICTIONARY
  5
5339
330
4323
100
AcDbDictionary
280
     1
281
     1
  3
ADSK_XREC_LAYER_RECONCILED
360
533A
  0
DICTIONARY
  5
533B
330
4324
100
AcDbDictionary
280
     1
281
     1
  3
ADSK_XREC_LAYER_RECONCILED
360
533C
  0
DICTIONARY
  5
47E4
330
4316
100
AcDbDictionary
281
     1
  3
ACAD_LAYOUTSELFREF
350
52D6
  0
DICTIONARY
  5
47E2
330
4312
100
AcDbDictionary
281
     1
  3
ACAD_LAYOUTSELFREF
350
52D5
  0
XRECORD
  5
532C
102
{ACAD_REACTORS
330
4304
102
}
330
4304
100
AcDbXrecord
280
     1
300
ACDLT
300
2014
300
ACDLT_F_S
  0
DICTIONARY
  5
530E
102
{ACAD_REACTORS
330
4304
102
}
330
4304
100
AcDbDictionary
281
     1
  0
DICTIONARY
  5
5327
102
{ACAD_REACTORS
330
4304
102
}
330
4304
100
AcDbDictionary
281
     1
  3
Imperial24
350
5328
  0
DICTIONARY
  5
4305
102
{ACAD_REACTORS
330
4304
102
}
330
4304
100
AcDbDictionary
281
     1
  0
DICTIONARY
  5
4311
102
{ACAD_REACTORS
330
4304
102
}
330
4304
100
AcDbDictionary
281
     1
  3
Model
350
5329
  3
レイアウト1
350
532A
  0
DICTIONARY
  5
52DC
102
{ACAD_REACTORS
330
4304
102
}
330
4304
100
AcDbDictionary
281
     1
  3
ByBlock
350
52E5
  3
ByLayer
350
52DD
  3
Global
350
52ED
  0
DICTIONARY
  5
5323
102
{ACAD_REACTORS
330
4304
102
}
330
4304
100
AcDbDictionary
281
     1
  3
Standard
350
5324
  0
DICTIONARY
  5
430E
102
{ACAD_REACTORS
330
4304
102
}
330
4304
100
AcDbDictionary
281
     1
  3
STANDARD
350
430F
  0
DICTIONARY
  5
4310
102
{ACAD_REACTORS
330
4304
102
}
330
4304
100
AcDbDictionary
281
     1
  0
ACDBDICTIONARYWDFLT
  5
52DA
102
{ACAD_REACTORS
330
4304
102
}
330
4304
100
AcDbDictionary
281
     1
  3
Normal
350
52DB
100
AcDbDictionaryWithDefault
340
52DB
  0
DICTIONARY
  5
5311
102
{ACAD_REACTORS
330
4304
102
}
330
4304
100
AcDbDictionary
281
     1
  3
A0
350
5312
  3
A1
350
5313
  3
A2
350
5314
  3
A3
350
5315
  3
A4
350
5316
  3
A5
350
5317
  3
A6
350
5318
  3
A7
350
5319
  3
A8
350
531A
  3
A9
350
531B
  3
B0
350
531C
  3
B1
350
531D
  3
B2
350
531E
  3
B3
350
531F
  3
B4
350
5320
  3
B5
350
5321
  3
B6
350
5322
  0
DICTIONARY
  5
5325
102
{ACAD_REACTORS
330
4304
102
}
330
4304
100
AcDbDictionary
281
     1
  3
Imperial24
350
5326
  0
DICTIONARY
  5
530F
102
{ACAD_REACTORS
330
4304
102
}
330
4304
100
AcDbDictionary
281
     1
  3
Standard
350
5310
  0
DICTIONARY
  5
52F5
102
{ACAD_REACTORS
330
4304
102
}
330
4304
100
AcDbDictionary
281
     1
  3
2dWireframe
350
52FB
  3
Basic
350
52FA
  3
Brighten
350
5301
  3
ColorChange
350
5305
  3
Conceptual
350
52FE
  3
Dim
350
5300
  3
EdgeColorOff
350
530D
  3
Facepattern
350
5304
  3
Flat
350
52F6
  3
FlatWithEdges
350
52F7
  3
Gouraud
350
52F8
  3
GouraudWithEdges
350
52F9
  3
Hidden
350
52FD
  3
JitterOff
350
530B
  3
Linepattern
350
5303
  3
OverhangOff
350
530C
  3
Realistic
350
52FF
  3
Shaded
350
530A
  3
Shaded with edges
350
5309
  3
Shades of Gray
350
5306
  3
Sketchy
350
5307
  3
Thicken
350
5302
  3
Wireframe
350
52FC
  3
X-Ray
350
5308
  0
XRECORD
  5
534A
102
{ACAD_REACTORS
330
4304
102
}
330
4304
100
AcDbXrecord
280
     1
 90
        1
330
5310
  0
DICTIONARY
  5
533D
102
{ACAD_REACTORS
330
4304
102
}
330
4304
100
AcDbDictionary
281
     1
  3
CANNOSCALE
350
5342
  3
CMLEADERSTYLE
350
533F
  3
CTABLESTYLE
350
533E
  3
CVIEWDETAILSTYLE
350
5340
  3
CVIEWSECTIONSTYLE
350
5341
  3
DIMASSOC
350
5345
  3
INDEXCTL
350
5344
  3
SORTENTS
350
5343
  3
XCLIPFRAME
350
5346
  0
XRECORD
  5
534B
102
{ACAD_REACTORS
330
4304
102
}
330
4304
100
AcDbXrecord
280
     1
  1
DWGPROPS COOKIE
  2

  3

  4

  6

  7

  8
Yoshitsune
  9

300
=
301
=
302
=
303
=
304
=
305
=
306
=
307
=
308
=
309
=
 40
0.4798065046296297
 41
2451649.44341
 42
2457192.601554943
  1

 90
        0
  0
XRECORD
  5
532E
102
{ACAD_REACTORS
330
532D
102
}
330
532D
100
AcDbXrecord
280
     1
290
     1
  0
XRECORD
  5
5330
102
{ACAD_REACTORS
330
532F
102
}
330
532F
100
AcDbXrecord
280
     1
290
     1
  0
XRECORD
  5
5332
102
{ACAD_REACTORS
330
5331
102
}
330
5331
100
AcDbXrecord
280
     1
290
     1
  0
XRECORD
  5
5334
102
{ACAD_REACTORS
330
5333
102
}
330
5333
100
AcDbXrecord
280
     1
290
     1
  0
XRECORD
  5
5336
102
{ACAD_REACTORS
330
5335
102
}
330
5335
100
AcDbXrecord
280
     1
290
     1
  0
XRECORD
  5
5338
102
{ACAD_REACTORS
330
5337
102
}
330
5337
100
AcDbXrecord
280
     1
290
     1
  0
XRECORD
  5
533A
102
{ACAD_REACTORS
330
5339
102
}
330
5339
100
AcDbXrecord
280
     1
290
     1
  0
XRECORD
  5
533C
102
{ACAD_REACTORS
330
533B
102
}
330
533B
100
AcDbXrecord
280
     1
290
     1
  0
XRECORD
  5
52D6
102
{ACAD_REACTORS
330
47E4
102
}
330
47E4
100
AcDbXrecord
280
     1
340
4316
  0
XRECORD
  5
52D5
102
{ACAD_REACTORS
330
47E2
102
}
330
47E2
100
AcDbXrecord
280
     1
340
4312
  0
ACDBDETAILVIEWSTYLE
  5
5328
102
{ACAD_XDICTIONARY
360
5383
102
}
102
{ACAD_REACTORS
330
5327
102
}
330
5327
100
AcDbModelDocViewStyle
 70
     0
  3
Imperial24
290
     0
100
AcDbDetailViewStyle
 70
     0
 71
     0
 90
        3
 71
     1
340
4309
 40
0.24
340
0
 40
0.24
300

 40
0.36
280
     3
 71
     2
340
430D
 90
       25
 71
     3
340
4309
 40
0.24
 90
        1
 40
0.75
 90
        1
300
%<\AcVar ViewType \f "%tc1">% %<\AcVar ViewDetailId>%\PSCALE %<\AcVar ViewScale \f "%sn">%
 71
     4
340
430D
 90
       25
340
430D
 90
       25
280
     0
  0
LAYOUT
  5
5329
102
{ACAD_XDICTIONARY
360
5385
102
}
102
{ACAD_REACTORS
330
4311
102
}
330
4311
100
AcDbPlotSettings
  1

  2
Canon LBP9100C
  4

  6

 40
0.0
 41
0.0
 42
0.0
 43
0.0
 44
0.0
 45
0.0
 46
0.0
 47
0.0
 48
0.0
 49
0.0
140
0.0
141
0.0
142
1.0
143
1.0
 70
  1712
 72
     0
 73
     0
 74
     0
  7

 75
     0
147
1.0
148
0.0
149
0.0
100
AcDbLayout
  1
Model
 70
     1
 71
     0
 10
0.0
 20
0.0
 11
12.0
 21
9.0
 12
0.0
 22
0.0
 32
0.0
 14
0.0
 24
0.0
 34
0.0
 15
0.0
 25
0.0
 35
0.0
146
0.0
 13
0.0
 23
0.0
 33
0.0
 16
1.0
 26
0.0
 36
0.0
 17
0.0
 27
1.0
 37
0.0
 76
     0
330
4316
331
52D4
  0
LAYOUT
  5
532A
102
{ACAD_XDICTIONARY
360
5387
102
}
102
{ACAD_REACTORS
330
4311
102
}
330
4311
100
AcDbPlotSettings
  1

  2
Canon LBP9100C
  4

  6

 40
0.0
 41
0.0
 42
0.0
 43
0.0
 44
0.0
 45
0.0
 46
0.0
 47
0.0
 48
0.0
 49
0.0
140
0.0
141
0.0
142
1.0
143
1.0
 70
   688
 72
     0
 73
     0
 74
     5
  7

 75
    16
147
1.0
148
0.0
149
0.0
100
AcDbLayout
  1
レイアウト1
 70
     1
 71
     1
 10
0.0
 20
0.0
 11
420.0
 21
297.0
 12
0.0
 22
0.0
 32
0.0
 14
1.000000000000000E+20
 24
1.000000000000000E+20
 34
1.000000000000000E+20
 15
-1.000000000000000E+20
 25
-1.000000000000000E+20
 35
-1.000000000000000E+20
146
0.0
 13
0.0
 23
0.0
 33
0.0
 16
1.0
 26
0.0
 36
0.0
 17
0.0
 27
1.0
 37
0.0
 76
     0
330
4312
  0
MATERIAL
  5
52E5
102
{ACAD_XDICTIONARY
360
52E6
102
}
102
{ACAD_REACTORS
330
52DC
102
}
330
52DC
100
AcDbMaterial
  1
ByBlock
 72
     0
 43
0.0208333333333333
 43
0.0
 43
0.0
 43
0.0
 43
0.0
 43
0.0208333333333333
 43
0.0
 43
0.0
 43
0.0
 43
0.0
 43
1.0
 43
0.0
 43
0.0
 43
0.0
 43
0.0
 43
1.0
 77
     0
 47
0.0208333333333333
 47
0.0
 47
0.0
 47
0.0
 47
0.0
 47
0.0208333333333333
 47
0.0
 47
0.0
 47
0.0
 47
0.0
 47
1.0
 47
0.0
 47
0.0
 47
0.0
 47
0.0
 47
1.0
171
     0
 49
0.0208333333333333
 49
0.0
 49
0.0
 49
0.0
 49
0.0
 49
0.0208333333333333
 49
0.0
 49
0.0
 49
0.0
 49
0.0
 49
1.0
 49
0.0
 49
0.0
 49
0.0
 49
0.0
 49
1.0
175
     0
142
0.0208333333333333
142
0.0
142
0.0
142
0.0
142
0.0
142
0.0208333333333333
142
0.0
142
0.0
142
0.0
142
0.0
142
1.0
142
0.0
142
0.0
142
0.0
142
0.0
142
1.0
179
     0
144
0.0208333333333333
144
0.0
144
0.0
144
0.0
144
0.0
144
0.0208333333333333
144
0.0
144
0.0
144
0.0
144
0.0
144
1.0
144
0.0
144
0.0
144
0.0
144
0.0
144
1.0
147
0.0208333333333333
147
0.0
147
0.0
147
0.0
147
0.0
147
0.0208333333333333
147
0.0
147
0.0
147
0.0
147
0.0
147
1.0
147
0.0
147
0.0
147
0.0
147
0.0
147
1.0
  0
MATERIAL
  5
52DD
102
{ACAD_XDICTIONARY
360
52DE
102
}
102
{ACAD_REACTORS
330
52DC
102
}
330
52DC
100
AcDbMaterial
  1
ByLayer
 72
     0
 43
0.0208333333333333
 43
0.0
 43
0.0
 43
0.0
 43
0.0
 43
0.0208333333333333
 43
0.0
 43
0.0
 43
0.0
 43
0.0
 43
1.0
 43
0.0
 43
0.0
 43
0.0
 43
0.0
 43
1.0
 77
     0
 47
0.0208333333333333
 47
0.0
 47
0.0
 47
0.0
 47
0.0
 47
0.0208333333333333
 47
0.0
 47
0.0
 47
0.0
 47
0.0
 47
1.0
 47
0.0
 47
0.0
 47
0.0
 47
0.0
 47
1.0
171
     0
 49
0.0208333333333333
 49
0.0
 49
0.0
 49
0.0
 49
0.0
 49
0.0208333333333333
 49
0.0
 49
0.0
 49
0.0
 49
0.0
 49
1.0
 49
0.0
 49
0.0
 49
0.0
 49
0.0
 49
1.0
175
     0
142
0.0208333333333333
142
0.0
142
0.0
142
0.0
142
0.0
142
0.0208333333333333
142
0.0
142
0.0
142
0.0
142
0.0
142
1.0
142
0.0
142
0.0
142
0.0
142
0.0
142
1.0
179
     0
144
0.0208333333333333
144
0.0
144
0.0
144
0.0
144
0.0
144
0.0208333333333333
144
0.0
144
0.0
144
0.0
144
0.0
144
1.0
144
0.0
144
0.0
144
0.0
144
0.0
144
1.0
147
0.0208333333333333
147
0.0
147
0.0
147
0.0
147
0.0
147
0.0208333333333333
147
0.0
147
0.0
147
0.0
147
0.0
147
1.0
147
0.0
147
0.0
147
0.0
147
0.0
147
1.0
  0
MATERIAL
  5
52ED
102
{ACAD_XDICTIONARY
360
52EE
102
}
102
{ACAD_REACTORS
330
52DC
102
}
330
52DC
100
AcDbMaterial
  1
Global
 72
     0
 43
0.0208333333333333
 43
0.0
 43
0.0
 43
0.0
 43
0.0
 43
0.0208333333333333
 43
0.0
 43
0.0
 43
0.0
 43
0.0
 43
1.0
 43
0.0
 43
0.0
 43
0.0
 43
0.0
 43
1.0
 77
     0
 47
0.0208333333333333
 47
0.0
 47
0.0
 47
0.0
 47
0.0
 47
0.0208333333333333
 47
0.0
 47
0.0
 47
0.0
 47
0.0
 47
1.0
 47
0.0
 47
0.0
 47
0.0
 47
0.0
 47
1.0
171
     0
 49
0.0208333333333333
 49
0.0
 49
0.0
 49
0.0
 49
0.0
 49
0.0208333333333333
 49
0.0
 49
0.0
 49
0.0
 49
0.0
 49
1.0
 49
0.0
 49
0.0
 49
0.0
 49
0.0
 49
1.0
175
     0
142
0.0208333333333333
142
0.0
142
0.0
142
0.0
142
0.0
142
0.0208333333333333
142
0.0
142
0.0
142
0.0
142
0.0
142
1.0
142
0.0
142
0.0
142
0.0
142
0.0
142
1.0
179
     0
144
0.0208333333333333
144
0.0
144
0.0
144
0.0
144
0.0
144
0.0208333333333333
144
0.0
144
0.0
144
0.0
144
0.0
144
1.0
144
0.0
144
0.0
144
0.0
144
0.0
144
1.0
147
0.0208333333333333
147
0.0
147
0.0
147
0.0
147
0.0
147
0.0208333333333333
147
0.0
147
0.0
147
0.0
147
0.0
147
1.0
147
0.0
147
0.0
147
0.0
147
0.0
147
1.0
  0
MLEADERSTYLE
  5
5324
102
{ACAD_REACTORS
330
5323
102
}
330
5323
100
AcDbMLeaderStyle
170
     2
171
     1
172
     0
 90
        2
 40
0.0
 41
0.0
173
     1
 91
-1056964608
340
430B
 92
       -2
290
     1
 42
0.09
291
     1
 43
0.36
  3
Standard
 44
0.18
300

342
4309
174
     1
178
     6
175
     1
176
     0
 93
-1056964608
 45
0.18
292
     0
297
     0
 46
0.18
 94
-1056964608
 47
1.0
 49
1.0
140
1.0
293
     1
141
0.0
294
     1
177
     0
142
1.0
295
     0
296
     0
143
0.125
1001
ACAD_MLEADERVER
1070
     2
  0
MLINESTYLE
  5
430F
102
{ACAD_REACTORS
330
430E
102
}
330
430E
100
AcDbMlineStyle
  2
STANDARD
 70
     0
  3

 62
   256
 51
90.0
 52
90.0
 71
     2
 49
0.5
 62
   256
  6
BYLAYER
 49
-0.5
 62
   256
  6
BYLAYER
  0
ACDBPLACEHOLDER
  5
52DB
102
{ACAD_REACTORS
330
52DA
102
}
330
52DA
  0
SCALE
  5
5312
102
{ACAD_REACTORS
330
5311
102
}
330
5311
100
AcDbScale
 70
     0
300
1:1
140
1.0
141
1.0
290
     1
  0
SCALE
  5
5313
102
{ACAD_REACTORS
330
5311
102
}
330
5311
100
AcDbScale
 70
     0
300
1/128" = 1'-0"
140
0.0078125
141
12.0
290
     0
  0
SCALE
  5
5314
102
{ACAD_REACTORS
330
5311
102
}
330
5311
100
AcDbScale
 70
     0
300
1/64" = 1'-0"
140
0.015625
141
12.0
290
     0
  0
SCALE
  5
5315
102
{ACAD_REACTORS
330
5311
102
}
330
5311
100
AcDbScale
 70
     0
300
1/32" = 1'-0"
140
0.03125
141
12.0
290
     0
  0
SCALE
  5
5316
102
{ACAD_REACTORS
330
5311
102
}
330
5311
100
AcDbScale
 70
     0
300
1/16" = 1'-0"
140
0.0625
141
12.0
290
     0
  0
SCALE
  5
5317
102
{ACAD_REACTORS
330
5311
102
}
330
5311
100
AcDbScale
 70
     0
300
3/32" = 1'-0"
140
0.09375
141
12.0
290
     0
  0
SCALE
  5
5318
102
{ACAD_REACTORS
330
5311
102
}
330
5311
100
AcDbScale
 70
     0
300
1/8" = 1'-0"
140
0.125
141
12.0
290
     0
  0
SCALE
  5
5319
102
{ACAD_REACTORS
330
5311
102
}
330
5311
100
AcDbScale
 70
     0
300
3/16" = 1'-0"
140
0.1875
141
12.0
290
     0
  0
SCALE
  5
531A
102
{ACAD_REACTORS
330
5311
102
}
330
5311
100
AcDbScale
 70
     0
300
1/4" = 1'-0"
140
0.25
141
12.0
290
     0
  0
SCALE
  5
531B
102
{ACAD_REACTORS
330
5311
102
}
330
5311
100
AcDbScale
 70
     0
300
3/8" = 1'-0"
140
0.375
141
12.0
290
     0
  0
SCALE
  5
531C
102
{ACAD_REACTORS
330
5311
102
}
330
5311
100
AcDbScale
 70
     0
300
1/2" = 1'-0"
140
0.5
141
12.0
290
     0
  0
SCALE
  5
531D
102
{ACAD_REACTORS
330
5311
102
}
330
5311
100
AcDbScale
 70
     0
300
3/4" = 1'-0"
140
0.75
141
12.0
290
     0
  0
SCALE
  5
531E
102
{ACAD_REACTORS
330
5311
102
}
330
5311
100
AcDbScale
 70
     0
300
1" = 1'-0"
140
1.0
141
12.0
290
     0
  0
SCALE
  5
531F
102
{ACAD_REACTORS
330
5311
102
}
330
5311
100
AcDbScale
 70
     0
300
1-1/2" = 1'-0"
140
1.5
141
12.0
290
     0
  0
SCALE
  5
5320
102
{ACAD_REACTORS
330
5311
102
}
330
5311
100
AcDbScale
 70
     0
300
3" = 1'-0"
140
3.0
141
12.0
290
     0
  0
SCALE
  5
5321
102
{ACAD_REACTORS
330
5311
102
}
330
5311
100
AcDbScale
 70
     0
300
6" = 1'-0"
140
6.0
141
12.0
290
     0
  0
SCALE
  5
5322
102
{ACAD_REACTORS
330
5311
102
}
330
5311
100
AcDbScale
 70
     0
300
1'-0" = 1'-0"
140
12.0
141
12.0
290
     0
  0
ACDBSECTIONVIEWSTYLE
  5
5326
102
{ACAD_XDICTIONARY
360
5381
102
}
102
{ACAD_REACTORS
330
5325
102
}
330
5325
100
AcDbModelDocViewStyle
 70
     0
  3
Imperial24
290
     0
100
AcDbSectionViewStyle
 70
     0
 71
     0
 90
       78
 71
     1
340
4309
 40
0.24
340
0
340
0
 40
0.24
300
I, O, Q, S, X, Z
 40
0.48
 90
        3
 40
0.18
 90
        1
 71
     2
340
430D
 90
       25
340
430D
 90
       50
 40
0.24
 40
0.0
 40
0.24
 71
     3
340
4309
 40
0.24
 90
        1
 40
0.75
 90
        1
300
%<\AcVar ViewType \f "%tc1">% %<\AcVar ViewSectionStartId>%-%<\AcVar ViewSectionEndId>%\PSCALE %<\AcVar ViewScale \f "%sn">%
 71
     4
300
ANSI31
 40
1.0
 90
        0
290
     0
290
     0
 90
        6
 40
0.0
 40
1.570796326794896
 40
0.2617993877991494
 40
1.308996938995747
 40
-0.2617993877991494
 40
1.832595714594046
  0
TABLESTYLE
  5
5310
102
{ACAD_XDICTIONARY
360
5348
102
}
102
{ACAD_REACTORS
330
530F
102
}
330
530F
100
AcDbTableStyle
  3
Standard
 70
     0
 71
     0
 40
0.06
 41
0.06
280
     0
281
     0
  7
STANDARD
140
0.18
170
     2
 62
     0
 63
     7
283
     0
274
    -2
284
     1
 64
     0
275
    -2
285
     1
 65
     0
276
    -2
286
     1
 66
     0
277
    -2
287
     1
 67
     0
278
    -2
288
     1
 68
     0
279
    -2
289
     1
 69
     0
  7
STANDARD
140
0.25
170
     5
 62
     0
 63
     7
283
     0
274
    -2
284
     1
 64
     0
275
    -2
285
     1
 65
     0
276
    -2
286
     1
 66
     0
277
    -2
287
     1
 67
     0
278
    -2
288
     1
 68
     0
279
    -2
289
     1
 69
     0
  7
STANDARD
140
0.18
170
     5
 62
     0
 63
     7
283
     0
274
    -2
284
     1
 64
     0
275
    -2
285
     1
 65
     0
276
    -2
286
     1
 66
     0
277
    -2
287
     1
 67
     0
278
    -2
288
     1
 68
     0
279
    -2
289
     1
 69
     0
  0
VISUALSTYLE
  5
52FB
102
{ACAD_XDICTIONARY
360
5359
102
}
102
{ACAD_REACTORS
330
52F5
102
}
330
52F5
100
AcDbVisualStyle
  2
2dWireframe
 70
     4
 71
     0
 72
     2
 73
     0
 90
        0
 40
-0.6
 41
-30.0
 62
     5
 63
     7
 74
     1
 91
        4
 64
     7
 65
   257
 75
     1
175
     1
 42
1.0
 92
        0
 66
   257
 43
1.0
 76
     1
 77
     6
 78
     2
 67
     7
 79
     5
170
     0
171
     0
290
     0
174
     0
 93
        1
 44
0.0
173
     0
291
     0
 45
0.0
1001
ACAD
1000
AcDbSavedByObjectVersion
1070
     0
  0
VISUALSTYLE
  5
52FA
102
{ACAD_XDICTIONARY
360
5357
102
}
102
{ACAD_REACTORS
330
52F5
102
}
330
52F5
100
AcDbVisualStyle
  2
Basic
 70
     7
 71
     1
 72
     0
 73
     1
 90
        0
 40
-0.6
 41
-30.0
 62
     5
 63
     7
 74
     0
 91
        4
 64
     7
 65
   257
 75
     1
175
     1
 42
1.0
 92
        8
 66
     7
 43
1.0
 76
     1
 77
     6
 78
     2
 67
     7
 79
     5
170
     0
171
     0
290
     0
174
     0
 93
        1
 44
0.0
173
     0
291
     1
 45
0.0
1001
ACAD
1000
AcDbSavedByObjectVersion
1070
     0
  0
VISUALSTYLE
  5
5301
102
{ACAD_XDICTIONARY
360
5365
102
}
102
{ACAD_REACTORS
330
52F5
102
}
330
52F5
100
AcDbVisualStyle
  2
Brighten
 70
    12
 71
     2
 72
     2
 73
     0
 90
        0
 40
-0.6
 41
-30.0
 62
     5
 63
     7
 74
     1
 91
        4
 64
     7
 65
   257
 75
     1
175
     1
 42
1.0
 92
        8
 66
     7
 43
1.0
 76
     1
 77
     6
 78
     2
 67
     7
 79
     5
170
     0
171
     0
290
     0
174
     0
 93
        1
 44
50.0
173
     0
291
     1
 45
0.0
1001
ACAD
1000
AcDbSavedByObjectVersion
1070
     0
  0
VISUALSTYLE
  5
5305
102
{ACAD_XDICTIONARY
360
536D
102
}
102
{ACAD_REACTORS
330
52F5
102
}
330
52F5
100
AcDbVisualStyle
  2
ColorChange
 70
    16
 71
     2
 72
     2
 73
     3
 90
        0
 40
-0.6
 41
-30.0
 62
     5
 63
     8
 74
     1
 91
        4
 64
     7
 65
   257
 75
     1
175
     1
 42
1.0
 92
        8
 66
     8
 43
1.0
 76
     1
 77
     6
 78
     2
 67
     7
 79
     5
170
     0
171
     0
290
     0
174
     0
 93
        1
 44
0.0
173
     0
291
     1
 45
0.0
1001
ACAD
1000
AcDbSavedByObjectVersion
1070
     0
  0
VISUALSTYLE
  5
52FE
102
{ACAD_XDICTIONARY
360
535F
102
}
102
{ACAD_REACTORS
330
52F5
102
}
330
52F5
100
AcDbVisualStyle
  2
Conceptual
 70
     9
 71
     3
 72
     2
 73
     0
 90
        0
 40
-0.6
 41
-30.0
 62
     5
 63
     7
 74
     2
 91
        2
 64
     7
 65
   257
 75
     1
175
     1
 42
179.0
 92
        8
 66
     7
 43
1.0
 76
     1
 77
     6
 78
     2
 67
     7
 79
     3
170
     0
171
     0
290
     0
174
     0
 93
        1
 44
0.0
173
     0
291
     0
 45
0.0
1001
ACAD
1000
AcDbSavedByObjectVersion
1070
     0
  0
VISUALSTYLE
  5
5300
102
{ACAD_XDICTIONARY
360
5363
102
}
102
{ACAD_REACTORS
330
52F5
102
}
330
52F5
100
AcDbVisualStyle
  2
Dim
 70
    11
 71
     2
 72
     2
 73
     0
 90
        0
 40
-0.6
 41
-30.0
 62
     5
 63
     7
 74
     1
 91
        4
 64
     7
 65
   257
 75
     1
175
     1
 42
1.0
 92
        8
 66
     7
 43
1.0
 76
     1
 77
     6
 78
     2
 67
     7
 79
     5
170
     0
171
     0
290
     0
174
     0
 93
        1
 44
-50.0
173
     0
291
     1
 45
0.0
1001
ACAD
1000
AcDbSavedByObjectVersion
1070
     0
  0
VISUALSTYLE
  5
530D
102
{ACAD_XDICTIONARY
360
537D
102
}
102
{ACAD_REACTORS
330
52F5
102
}
330
52F5
100
AcDbVisualStyle
  2
EdgeColorOff
 70
    22
 71
     2
 72
     2
 73
     0
 90
        0
 40
-0.6
 41
-30.0
 62
     5
 63
     7
 74
     1
 91
        4
 64
     7
 65
   257
 75
     1
175
     1
 42
1.0
 92
        8
 66
     7
 43
1.0
 76
     1
 77
     6
 78
     2
 67
     7
 79
     5
170
     0
171
     0
290
     0
174
     0
 93
        1
 44
0.0
173
     0
291
     1
 45
0.0
1001
ACAD
1000
AcDbSavedByObjectVersion
1070
     0
  0
VISUALSTYLE
  5
5304
102
{ACAD_XDICTIONARY
360
536B
102
}
102
{ACAD_REACTORS
330
52F5
102
}
330
52F5
100
AcDbVisualStyle
  2
Facepattern
 70
    15
 71
     2
 72
     2
 73
     0
 90
        0
 40
-0.6
 41
-30.0
 62
     5
 63
     7
 74
     1
 91
        4
 64
     7
 65
   257
 75
     1
175
     1
 42
1.0
 92
        8
 66
     7
 43
1.0
 76
     1
 77
     6
 78
     2
 67
     7
 79
     5
170
     0
171
     0
290
     0
174
     0
 93
        1
 44
0.0
173
     0
291
     1
 45
0.0
1001
ACAD
1000
AcDbSavedByObjectVersion
1070
     0
  0
VISUALSTYLE
  5
52F6
102
{ACAD_XDICTIONARY
360
534F
102
}
102
{ACAD_REACTORS
330
52F5
102
}
330
52F5
100
AcDbVisualStyle
  2
Flat
 70
     0
 71
     2
 72
     1
 73
     1
 90
        2
 40
-0.6
 41
30.0
 62
     5
 63
     7
 74
     0
 91
        0
 64
     7
 65
   257
 75
     1
175
     1
 42
1.0
 92
        8
 66
     7
 43
1.0
 76
     1
 77
     6
 78
     2
 67
     7
 79
     5
170
     0
171
     0
290
     0
174
     0
 93
       13
 44
0.0
173
     0
291
     1
 45
0.0
1001
ACAD
1000
AcDbSavedByObjectVersion
1070
     0
  0
VISUALSTYLE
  5
52F7
102
{ACAD_XDICTIONARY
360
5351
102
}
102
{ACAD_REACTORS
330
52F5
102
}
330
52F5
100
AcDbVisualStyle
  2
FlatWithEdges
 70
     1
 71
     2
 72
     1
 73
     1
 90
        2
 40
-0.6
 41
30.0
 62
     5
 63
     7
 74
     1
 91
        0
 64
     7
 65
   257
 75
     1
175
     1
 42
1.0
 92
        0
 66
   257
 43
1.0
 76
     1
 77
     6
 78
     2
 67
     7
 79
     5
170
     0
171
     0
290
     0
174
     0
 93
       13
 44
0.0
173
     0
291
     1
 45
0.0
1001
ACAD
1000
AcDbSavedByObjectVersion
1070
     0
  0
VISUALSTYLE
  5
52F8
102
{ACAD_XDICTIONARY
360
5353
102
}
102
{ACAD_REACTORS
330
52F5
102
}
330
52F5
100
AcDbVisualStyle
  2
Gouraud
 70
     2
 71
     2
 72
     2
 73
     1
 90
        2
 40
-0.6
 41
30.0
 62
     5
 63
     7
 74
     0
 91
        0
 64
     7
 65
   257
 75
     1
175
     1
 42
1.0
 92
        0
 66
     7
 43
1.0
 76
     1
 77
     6
 78
     2
 67
     7
 79
     5
170
     0
171
     0
290
     0
174
     0
 93
       13
 44
0.0
173
     0
291
     1
 45
0.0
1001
ACAD
1000
AcDbSavedByObjectVersion
1070
     0
  0
VISUALSTYLE
  5
52F9
102
{ACAD_XDICTIONARY
360
5355
102
}
102
{ACAD_REACTORS
330
52F5
102
}
330
52F5
100
AcDbVisualStyle
  2
GouraudWithEdges
 70
     3
 71
     2
 72
     2
 73
     1
 90
        2
 40
-0.6
 41
30.0
 62
     5
 63
     7
 74
     1
 91
        0
 64
     7
 65
   257
 75
     1
175
     1
 42
1.0
 92
        0
 66
   257
 43
1.0
 76
     1
 77
     6
 78
     2
 67
     7
 79
     5
170
     0
171
     0
290
     0
174
     0
 93
       13
 44
0.0
173
     0
291
     1
 45
0.0
1001
ACAD
1000
AcDbSavedByObjectVersion
1070
     0
  0
VISUALSTYLE
  5
52FD
102
{ACAD_XDICTIONARY
360
535D
102
}
102
{ACAD_REACTORS
330
52F5
102
}
330
52F5
100
AcDbVisualStyle
  2
Hidden
 70
     6
 71
     1
 72
     2
 73
     2
 90
        0
 40
-0.6
 41
-30.0
 62
     5
 63
     7
 74
     2
 91
        2
 64
     7
 65
   257
 75
     2
175
     1
 42
40.0
 92
        0
 66
   257
 43
1.0
 76
     1
 77
     6
 78
     2
 67
     7
 79
     3
170
     0
171
     0
290
     0
174
     0
 93
        1
 44
0.0
173
     0
291
     0
 45
0.0
1001
ACAD
1000
AcDbSavedByObjectVersion
1070
     0
  0
VISUALSTYLE
  5
530B
102
{ACAD_XDICTIONARY
360
5379
102
}
102
{ACAD_REACTORS
330
52F5
102
}
330
52F5
100
AcDbVisualStyle
  2
JitterOff
 70
    20
 71
     2
 72
     2
 73
     0
 90
        0
 40
-0.6
 41
-30.0
 62
     5
 63
     7
 74
     1
 91
        4
 64
     7
 65
   257
 75
     1
175
     1
 42
1.0
 92
       10
 66
     7
 43
1.0
 76
     1
 77
     6
 78
     2
 67
     7
 79
     5
170
     0
171
     0
290
     0
174
     0
 93
        1
 44
0.0
173
     0
291
     1
 45
0.0
1001
ACAD
1000
AcDbSavedByObjectVersion
1070
     0
  0
VISUALSTYLE
  5
5303
102
{ACAD_XDICTIONARY
360
5369
102
}
102
{ACAD_REACTORS
330
52F5
102
}
330
52F5
100
AcDbVisualStyle
  2
Linepattern
 70
    14
 71
     2
 72
     2
 73
     0
 90
        0
 40
-0.6
 41
-30.0
 62
     5
 63
     7
 74
     1
 91
        4
 64
     7
 65
   257
 75
     7
175
     7
 42
1.0
 92
        8
 66
     7
 43
1.0
 76
     1
 77
     6
 78
     2
 67
     7
 79
     5
170
     0
171
     0
290
     0
174
     0
 93
        1
 44
0.0
173
     0
291
     1
 45
0.0
1001
ACAD
1000
AcDbSavedByObjectVersion
1070
     0
  0
VISUALSTYLE
  5
530C
102
{ACAD_XDICTIONARY
360
537B
102
}
102
{ACAD_REACTORS
330
52F5
102
}
330
52F5
100
AcDbVisualStyle
  2
OverhangOff
 70
    21
 71
     2
 72
     2
 73
     0
 90
        0
 40
-0.6
 41
-30.0
 62
     5
 63
     7
 74
     1
 91
        4
 64
     7
 65
   257
 75
     1
175
     1
 42
1.0
 92
        9
 66
     7
 43
1.0
 76
     1
 77
     6
 78
     2
 67
     7
 79
     5
170
     0
171
     0
290
     0
174
     0
 93
        1
 44
0.0
173
     0
291
     1
 45
0.0
1001
ACAD
1000
AcDbSavedByObjectVersion
1070
     0
  0
VISUALSTYLE
  5
52FF
102
{ACAD_XDICTIONARY
360
5361
102
}
102
{ACAD_REACTORS
330
52F5
102
}
330
52F5
100
AcDbVisualStyle
  2
Realistic
 70
     8
 71
     2
 72
     3
 73
     0
 90
        2
 40
-0.6
 41
30.0
 62
     5
 63
     7
 74
     0
 91
        0
 64
     7
 65
   257
 75
     1
175
     1
 42
1.0
 92
        8
 66
   257
 43
1.0
 76
     1
 77
     6
 78
     2
 67
     7
 79
     3
170
     0
171
     0
290
     0
174
     0
 93
       13
 44
0.0
173
     0
291
     0
 45
0.0
1001
ACAD
1000
AcDbSavedByObjectVersion
1070
     0
  0
VISUALSTYLE
  5
530A
102
{ACAD_XDICTIONARY
360
5377
102
}
102
{ACAD_REACTORS
330
52F5
102
}
330
52F5
100
AcDbVisualStyle
  2
Shaded
 70
    27
 71
     2
 72
     2
 73
     1
 90
        2
 40
-0.6
 41
30.0
 62
     5
 63
     7
 74
     0
 91
        4
 64
     7
 65
   257
 75
     1
175
     1
 42
1.0
 92
        8
 66
   257
 43
1.0
 76
     1
 77
     6
 78
     2
 67
     8
 79
     3
170
     0
171
     0
290
     0
174
     0
 93
        5
 44
0.0
173
     0
291
     0
 45
0.0
1001
ACAD
1000
AcDbSavedByObjectVersion
1070
     0
  0
VISUALSTYLE
  5
5309
102
{ACAD_XDICTIONARY
360
5375
102
}
102
{ACAD_REACTORS
330
52F5
102
}
330
52F5
100
AcDbVisualStyle
  2
Shaded with edges
 70
    26
 71
     2
 72
     2
 73
     1
 90
        2
 40
-0.6
 41
30.0
 62
     5
 63
     7
 74
     1
 91
       10
 64
     7
 65
   257
 75
     2
175
     1
 42
1.0
 92
        8
 66
   257
 43
1.0
 76
     1
 77
     6
 78
     2
 67
     7
 79
     3
170
     0
171
     0
290
     0
174
     0
 93
        5
 44
0.0
173
     0
291
     0
 45
0.0
1001
ACAD
1000
AcDbSavedByObjectVersion
1070
     0
  0
VISUALSTYLE
  5
5306
102
{ACAD_XDICTIONARY
360
536F
102
}
102
{ACAD_REACTORS
330
52F5
102
}
330
52F5
100
AcDbVisualStyle
  2
Shades of Gray
 70
    23
 71
     2
 72
     2
 73
     3
 90
        0
 40
-0.6
 41
-30.0
 62
     5
 63
     7
 74
     2
 91
        2
 64
     7
 65
     7
 75
     1
175
     1
 42
40.0
 92
        8
 66
     7
 43
1.0
 76
     1
 77
     6
 78
     2
 67
     7
 79
     3
170
     0
171
     0
290
     0
174
     0
 93
        1
 44
0.0
173
     0
291
     0
 45
0.0
1001
ACAD
1000
AcDbSavedByObjectVersion
1070
     0
  0
VISUALSTYLE
  5
5307
102
{ACAD_XDICTIONARY
360
5371
102
}
102
{ACAD_REACTORS
330
52F5
102
}
330
52F5
100
AcDbVisualStyle
  2
Sketchy
 70
    24
 71
     1
 72
     2
 73
     2
 90
        0
 40
-0.6
 41
-30.0
 62
     5
 63
     7
 74
     2
 91
        2
 64
     7
 65
     7
 75
     1
175
     1
 42
40.0
 92
       11
 66
     7
 43
1.0
 76
     1
 77
     6
 78
     2
 67
     7
 79
     6
170
     0
171
     0
290
     0
174
     0
 93
        1
 44
0.0
173
     0
291
     0
 45
0.0
1001
ACAD
1000
AcDbSavedByObjectVersion
1070
     0
  0
VISUALSTYLE
  5
5302
102
{ACAD_XDICTIONARY
360
5367
102
}
102
{ACAD_REACTORS
330
52F5
102
}
330
52F5
100
AcDbVisualStyle
  2
Thicken
 70
    13
 71
     2
 72
     2
 73
     0
 90
        0
 40
-0.6
 41
-30.0
 62
     5
 63
     7
 74
     1
 91
        4
 64
     7
 65
   257
 75
     1
175
     1
 42
1.0
 92
       12
 66
     7
 43
1.0
 76
     1
 77
     6
 78
     2
 67
     7
 79
     5
170
     0
171
     0
290
     0
174
     0
 93
        1
 44
0.0
173
     0
291
     1
 45
0.0
1001
ACAD
1000
AcDbSavedByObjectVersion
1070
     0
  0
VISUALSTYLE
  5
52FC
102
{ACAD_XDICTIONARY
360
535B
102
}
102
{ACAD_REACTORS
330
52F5
102
}
330
52F5
100
AcDbVisualStyle
  2
Wireframe
 70
     5
 71
     0
 72
     2
 73
     0
 90
        0
 40
-0.6
 41
-30.0
 62
     5
 63
     7
 74
     1
 91
        4
 64
     7
 65
   257
 75
     1
175
     1
 42
1.0
 92
        0
 66
   257
 43
1.0
 76
     1
 77
     6
 78
     2
 67
     7
 79
     3
170
     0
171
     0
290
     0
174
     0
 93
        1
 44
0.0
173
     0
291
     0
 45
0.0
1001
ACAD
1000
AcDbSavedByObjectVersion
1070
     0
  0
VISUALSTYLE
  5
5308
102
{ACAD_XDICTIONARY
360
5373
102
}
102
{ACAD_REACTORS
330
52F5
102
}
330
52F5
100
AcDbVisualStyle
  2
X-Ray
 70
    25
 71
     2
 72
     2
 73
     1
 90
        1
 40
0.5
 41
-30.0
 62
     5
 63
     7
 74
     1
 91
        0
 64
     7
 65
   257
 75
     1
175
     1
 42
1.0
 92
        8
 66
     7
 43
1.0
 76
     1
 77
     6
 78
     2
 67
     7
 79
     3
170
     0
171
     0
290
     0
174
     0
 93
       13
 44
0.0
173
     0
291
     0
 45
0.0
1001
ACAD
1000
AcDbSavedByObjectVersion
1070
     0
  0
DICTIONARYVAR
  5
5342
102
{ACAD_REACTORS
330
533D
102
}
330
533D
100
DictionaryVariables
280
     0
  1
1:1
  0
DICTIONARYVAR
  5
533F
102
{ACAD_REACTORS
330
533D
102
}
330
533D
100
DictionaryVariables
280
     0
  1
STANDARD
  0
DICTIONARYVAR
  5
533E
102
{ACAD_REACTORS
330
533D
102
}
330
533D
100
DictionaryVariables
280
     0
  1
STANDARD
  0
DICTIONARYVAR
  5
5340
102
{ACAD_REACTORS
330
533D
102
}
330
533D
100
DictionaryVariables
280
     0
  1
Imperial24
  0
DICTIONARYVAR
  5
5341
102
{ACAD_REACTORS
330
533D
102
}
330
533D
100
DictionaryVariables
280
     0
  1
Imperial24
  0
DICTIONARYVAR
  5
5345
102
{ACAD_REACTORS
330
533D
102
}
330
533D
100
DictionaryVariables
280
     0
  1
1
  0
DICTIONARYVAR
  5
5344
102
{ACAD_REACTORS
330
533D
102
}
330
533D
100
DictionaryVariables
280
     0
  1
0
  0
DICTIONARYVAR
  5
5343
102
{ACAD_REACTORS
330
533D
102
}
330
533D
100
DictionaryVariables
280
     0
  1
127
  0
DICTIONARYVAR
  5
5346
102
{ACAD_REACTORS
330
533D
102
}
330
533D
100
DictionaryVariables
280
     0
  1
2
  0
DICTIONARY
  5
5383
330
5328
100
AcDbDictionary
280
     1
281
     1
  3
ACAD_XREC_ROUNDTRIP
360
5384
  0
DICTIONARY
  5
5385
330
5329
100
AcDbDictionary
280
     1
281
     1
  3
ACAD_XREC_ROUNDTRIP
360
5386
  0
DICTIONARY
  5
5387
330
532A
100
AcDbDictionary
280
     1
281
     1
  3
ACAD_XREC_ROUNDTRIP
360
5388
  0
DICTIONARY
  5
52E6
330
52E5
100
AcDbDictionary
280
     1
281
     1
  3
ACAD_XREC_ROUNDTRIP
360
534D
  3
BUMPTILE
360
52E8
  3
DIFFUSETILE
360
52E7
  3
OPACITYTILE
360
52EB
  3
REFLECTIONTILE
360
52EA
  3
REFRACTIONTILE
360
52EC
  3
SPECULARTILE
360
52E9
  0
DICTIONARY
  5
52DE
330
52DD
100
AcDbDictionary
280
     1
281
     1
  3
ACAD_XREC_ROUNDTRIP
360
534C
  3
BUMPTILE
360
52E0
  3
DIFFUSETILE
360
52DF
  3
OPACITYTILE
360
52E3
  3
REFLECTIONTILE
360
52E2
  3
REFRACTIONTILE
360
52E4
  3
SPECULARTILE
360
52E1
  0
DICTIONARY
  5
52EE
330
52ED
100
AcDbDictionary
280
     1
281
     1
  3
ACAD_XREC_ROUNDTRIP
360
534E
  3
BUMPTILE
360
52F0
  3
DIFFUSETILE
360
52EF
  3
OPACITYTILE
360
52F3
  3
REFLECTIONTILE
360
52F2
  3
REFRACTIONTILE
360
52F4
  3
SPECULARTILE
360
52F1
  0
DICTIONARY
  5
5381
330
5326
100
AcDbDictionary
280
     1
281
     1
  3
ACAD_XREC_ROUNDTRIP
360
5382
  0
DICTIONARY
  5
5348
330
5310
100
AcDbDictionary
280
     1
281
     1
  3
ACAD_ROUNDTRIP_2008_TABLESTYLE_CELLSTYLEMAP
360
5349
  3
ACAD_XREC_ROUNDTRIP
360
537F
  0
DICTIONARY
  5
5359
330
52FB
100
AcDbDictionary
280
     1
281
     1
  3
ACAD_XREC_ROUNDTRIP
360
535A
  0
DICTIONARY
  5
5357
330
52FA
100
AcDbDictionary
280
     1
281
     1
  3
ACAD_XREC_ROUNDTRIP
360
5358
  0
DICTIONARY
  5
5365
330
5301
100
AcDbDictionary
280
     1
281
     1
  3
ACAD_XREC_ROUNDTRIP
360
5366
  0
DICTIONARY
  5
536D
330
5305
100
AcDbDictionary
280
     1
281
     1
  3
ACAD_XREC_ROUNDTRIP
360
536E
  0
DICTIONARY
  5
535F
330
52FE
100
AcDbDictionary
280
     1
281
     1
  3
ACAD_XREC_ROUNDTRIP
360
5360
  0
DICTIONARY
  5
5363
330
5300
100
AcDbDictionary
280
     1
281
     1
  3
ACAD_XREC_ROUNDTRIP
360
5364
  0
DICTIONARY
  5
537D
330
530D
100
AcDbDictionary
280
     1
281
     1
  3
ACAD_XREC_ROUNDTRIP
360
537E
  0
DICTIONARY
  5
536B
330
5304
100
AcDbDictionary
280
     1
281
     1
  3
ACAD_XREC_ROUNDTRIP
360
536C
  0
DICTIONARY
  5
534F
330
52F6
100
AcDbDictionary
280
     1
281
     1
  3
ACAD_XREC_ROUNDTRIP
360
5350
  0
DICTIONARY
  5
5351
330
52F7
100
AcDbDictionary
280
     1
281
     1
  3
ACAD_XREC_ROUNDTRIP
360
5352
  0
DICTIONARY
  5
5353
330
52F8
100
AcDbDictionary
280
     1
281
     1
  3
ACAD_XREC_ROUNDTRIP
360
5354
  0
DICTIONARY
  5
5355
330
52F9
100
AcDbDictionary
280
     1
281
     1
  3
ACAD_XREC_ROUNDTRIP
360
5356
  0
DICTIONARY
  5
535D
330
52FD
100
AcDbDictionary
280
     1
281
     1
  3
ACAD_XREC_ROUNDTRIP
360
535E
  0
DICTIONARY
  5
5379
330
530B
100
AcDbDictionary
280
     1
281
     1
  3
ACAD_XREC_ROUNDTRIP
360
537A
  0
DICTIONARY
  5
5369
330
5303
100
AcDbDictionary
280
     1
281
     1
  3
ACAD_XREC_ROUNDTRIP
360
536A
  0
DICTIONARY
  5
537B
330
530C
100
AcDbDictionary
280
     1
281
     1
  3
ACAD_XREC_ROUNDTRIP
360
537C
  0
DICTIONARY
  5
5361
330
52FF
100
AcDbDictionary
280
     1
281
     1
  3
ACAD_XREC_ROUNDTRIP
360
5362
  0
DICTIONARY
  5
5377
330
530A
100
AcDbDictionary
280
     1
281
     1
  3
ACAD_XREC_ROUNDTRIP
360
5378
  0
DICTIONARY
  5
5375
330
5309
100
AcDbDictionary
280
     1
281
     1
  3
ACAD_XREC_ROUNDTRIP
360
5376
  0
DICTIONARY
  5
536F
330
5306
100
AcDbDictionary
280
     1
281
     1
  3
ACAD_XREC_ROUNDTRIP
360
5370
  0
DICTIONARY
  5
5371
330
5307
100
AcDbDictionary
280
     1
281
     1
  3
ACAD_XREC_ROUNDTRIP
360
5372
  0
DICTIONARY
  5
5367
330
5302
100
AcDbDictionary
280
     1
281
     1
  3
ACAD_XREC_ROUNDTRIP
360
5368
  0
DICTIONARY
  5
535B
330
52FC
100
AcDbDictionary
280
     1
281
     1
  3
ACAD_XREC_ROUNDTRIP
360
535C
  0
DICTIONARY
  5
5373
330
5308
100
AcDbDictionary
280
     1
281
     1
  3
ACAD_XREC_ROUNDTRIP
360
5374
  0
XRECORD
  5
5384
102
{ACAD_REACTORS
330
5383
102
}
330
5383
100
AcDbXrecord
280
     1
102
DISPLAYNAME
  1
Imperial24
102
FLAGS
 90
        0
  0
XRECORD
  5
5386
102
{ACAD_REACTORS
330
5385
102
}
330
5385
100
AcDbXrecord
280
     1
102
SHADEPLOT
 70
     0
102
SHADEPLOTRESLEVEL
 70
     2
102
SHADEPLOTCUSTOMDPI
 70
   300
  0
XRECORD
  5
5388
102
{ACAD_REACTORS
330
5387
102
}
330
5387
100
AcDbXrecord
280
     1
102
SHADEPLOT
 70
     0
102
SHADEPLOTRESLEVEL
 70
     2
102
SHADEPLOTCUSTOMDPI
 70
   300
  0
XRECORD
  5
534D
102
{ACAD_REACTORS
330
52E6
102
}
330
52E6
100
AcDbXrecord
280
     1
102
MATERIAL
148
0.0
149
0.0
149
0.0
 93
        0
 94
      127
282
     0
 72
     0
 77
     0
171
     0
175
     0
179
     0
273
     0
  0
XRECORD
  5
52E8
102
{ACAD_REACTORS
330
52E6
102
}
330
52E6
100
AcDbXrecord
280
     1
270
     1
271
     1
  0
XRECORD
  5
52E7
102
{ACAD_REACTORS
330
52E6
102
}
330
52E6
100
AcDbXrecord
280
     1
270
     1
271
     1
  0
XRECORD
  5
52EB
102
{ACAD_REACTORS
330
52E6
102
}
330
52E6
100
AcDbXrecord
280
     1
270
     1
271
     1
  0
XRECORD
  5
52EA
102
{ACAD_REACTORS
330
52E6
102
}
330
52E6
100
AcDbXrecord
280
     1
270
     1
271
     1
  0
XRECORD
  5
52EC
102
{ACAD_REACTORS
330
52E6
102
}
330
52E6
100
AcDbXrecord
280
     1
270
     1
271
     1
  0
XRECORD
  5
52E9
102
{ACAD_REACTORS
330
52E6
102
}
330
52E6
100
AcDbXrecord
280
     1
270
     1
271
     1
  0
XRECORD
  5
534C
102
{ACAD_REACTORS
330
52DE
102
}
330
52DE
100
AcDbXrecord
280
     1
102
MATERIAL
148
0.0
149
0.0
149
0.0
 93
        0
 94
      127
282
     0
 72
     0
 77
     0
171
     0
175
     0
179
     0
273
     0
  0
XRECORD
  5
52E0
102
{ACAD_REACTORS
330
52DE
102
}
330
52DE
100
AcDbXrecord
280
     1
270
     1
271
     1
  0
XRECORD
  5
52DF
102
{ACAD_REACTORS
330
52DE
102
}
330
52DE
100
AcDbXrecord
280
     1
270
     1
271
     1
  0
XRECORD
  5
52E3
102
{ACAD_REACTORS
330
52DE
102
}
330
52DE
100
AcDbXrecord
280
     1
270
     1
271
     1
  0
XRECORD
  5
52E2
102
{ACAD_REACTORS
330
52DE
102
}
330
52DE
100
AcDbXrecord
280
     1
270
     1
271
     1
  0
XRECORD
  5
52E4
102
{ACAD_REACTORS
330
52DE
102
}
330
52DE
100
AcDbXrecord
280
     1
270
     1
271
     1
  0
XRECORD
  5
52E1
102
{ACAD_REACTORS
330
52DE
102
}
330
52DE
100
AcDbXrecord
280
     1
270
     1
271
     1
  0
XRECORD
  5
534E
102
{ACAD_REACTORS
330
52EE
102
}
330
52EE
100
AcDbXrecord
280
     1
102
MATERIAL
148
0.0
149
0.0
149
0.0
 93
        0
 94
      127
282
     0
 72
     0
 77
     0
171
     0
175
     0
179
     0
273
     0
  0
XRECORD
  5
52F0
102
{ACAD_REACTORS
330
52EE
102
}
330
52EE
100
AcDbXrecord
280
     1
270
     1
271
     1
  0
XRECORD
  5
52EF
102
{ACAD_REACTORS
330
52EE
102
}
330
52EE
100
AcDbXrecord
280
     1
270
     1
271
     1
  0
XRECORD
  5
52F3
102
{ACAD_REACTORS
330
52EE
102
}
330
52EE
100
AcDbXrecord
280
     1
270
     1
271
     1
  0
XRECORD
  5
52F2
102
{ACAD_REACTORS
330
52EE
102
}
330
52EE
100
AcDbXrecord
280
     1
270
     1
271
     1
  0
XRECORD
  5
52F4
102
{ACAD_REACTORS
330
52EE
102
}
330
52EE
100
AcDbXrecord
280
     1
270
     1
271
     1
  0
XRECORD
  5
52F1
102
{ACAD_REACTORS
330
52EE
102
}
330
52EE
100
AcDbXrecord
280
     1
270
     1
271
     1
  0
XRECORD
  5
5382
102
{ACAD_REACTORS
330
5381
102
}
330
5381
100
AcDbXrecord
280
     1
102
DISPLAYNAME
  1
Imperial24
102
FLAGS
 90
        0
  0
CELLSTYLEMAP
  5
5349
102
{ACAD_REACTORS
330
5348
102
}
330
5348
100
AcDbCellStyleMap
 90
        3
300
CELLSTYLE
  1
TABLEFORMAT_BEGIN
 90
        5
170
     1
 91
        0
 92
    32768
 62
   257
 93
        1
300
CONTENTFORMAT
  1
CONTENTFORMAT_BEGIN
 90
        0
 91
        0
 92
      512
 93
        0
300

 40
0.0
140
1.0
 94
        5
 62
     0
340
4309
144
0.25
309
CONTENTFORMAT_END
171
     0
 94
        0
309
TABLEFORMAT_END
  1
CELLSTYLE_BEGIN
 90
        1
 91
        1
300
_TITLE
309
CELLSTYLE_END
300
CELLSTYLE
  1
TABLEFORMAT_BEGIN
 90
        5
170
     1
 91
        0
 92
        0
 62
   257
 93
        1
300
CONTENTFORMAT
  1
CONTENTFORMAT_BEGIN
 90
        0
 91
        0
 92
      512
 93
        0
300

 40
0.0
140
1.0
 94
        5
 62
     0
340
4309
144
0.18
309
CONTENTFORMAT_END
171
     0
 94
        0
309
TABLEFORMAT_END
  1
CELLSTYLE_BEGIN
 90
        2
 91
        1
300
_HEADER
309
CELLSTYLE_END
300
CELLSTYLE
  1
TABLEFORMAT_BEGIN
 90
        5
170
     1
 91
        0
 92
        0
 62
   257
 93
        1
300
CONTENTFORMAT
  1
CONTENTFORMAT_BEGIN
 90
        0
 91
        0
 92
      512
 93
        0
300

 40
0.0
140
1.0
 94
        2
 62
     0
340
4309
144
0.18
309
CONTENTFORMAT_END
171
     0
 94
        0
309
TABLEFORMAT_END
  1
CELLSTYLE_BEGIN
 90
        3
 91
        2
300
_DATA
309
CELLSTYLE_END
  0
XRECORD
  5
537F
102
{ACAD_REACTORS
330
5348
102
}
330
5348
100
AcDbXrecord
280
     1
102
ACAD_ROUNDTRIP_PRE2007_TABLESTYLE
 90
      512
 91
        0
  1

 92
      512
 93
        0
  2

 94
      512
 95
        0
  3

  0
XRECORD
  5
535A
102
{ACAD_REACTORS
330
5359
102
}
330
5359
100
AcDbXrecord
280
     1
102
RTVSPost2010Prop28
280
     1
102
RTVSPost2010PropOp28
 70
     1
102
RTVSPost2010Prop29
280
     1
102
RTVSPost2010PropOp29
 70
     1
102
RTVSPost2010Prop30
280
     0
102
RTVSPost2010PropOp30
 70
     1
102
RTVSPost2010Prop31
280
     0
102
RTVSPost2010PropOp31
 70
     1
102
RTVSPost2010Prop32
280
     0
102
RTVSPost2010PropOp32
 70
     1
102
RTVSPost2010Prop33
280
     0
102
RTVSPost2010PropOp33
 70
     1
102
RTVSPost2010Prop34
280
     0
102
RTVSPost2010PropOp34
 70
     1
102
RTVSPost2010Prop35
280
     0
102
RTVSPost2010PropOp35
 70
     1
102
RTVSPost2010Prop36
280
     0
102
RTVSPost2010PropOp36
 70
     1
102
RTVSPost2010Prop37
 90
       50
102
RTVSPost2010PropOp37
 70
     1
102
RTVSPost2010Prop38
140
0.0
102
RTVSPost2010PropOp38
 70
     1
102
RTVSPost2010Prop39
140
1.0
102
RTVSPost2010PropOp39
 70
     1
102
RTVSPost2010Prop40
 90
        0
102
RTVSPost2010PropOp40
 70
     1
102
RTVSPost2010Prop41ColorIndex
 90
       18
102
RTVSPost2010Prop41ColorRGB
 90
        0
102
RTVSPost2010PropOp41
 70
     1
102
RTVSPost2010Prop42
 90
       50
102
RTVSPost2010PropOp42
 70
     1
102
RTVSPost2010Prop43
 90
        3
102
RTVSPost2010PropOp43
 70
     1
102
RTVSPost2010Prop44ColorIndex
 90
        5
102
RTVSPost2010Prop44ColorRGB
 90
      255
102
RTVSPost2010PropOp44
 70
     1
102
RTVSPost2010Prop45
280
     0
102
RTVSPost2010PropOp45
 70
     1
102
RTVSPost2010Prop46
 90
       50
102
RTVSPost2010PropOp46
 70
     1
102
RTVSPost2010Prop47
 90
       50
102
RTVSPost2010PropOp47
 70
     1
102
RTVSPost2010Prop48
 90
       50
102
RTVSPost2010PropOp48
 70
     1
102
RTVSPost2010Prop49
280
     0
102
RTVSPost2010PropOp49
 70
     1
102
RTVSPost2010Prop50
 90
       50
102
RTVSPost2010PropOp50
 70
     1
102
RTVSPost2010Prop51ColorIndex
 90
      256
102
RTVSPost2010Prop51ColorRGB
 90
-16777216
102
RTVSPost2010PropOp51
 70
     0
102
RTVSPost2010Prop52
140
1.0
102
RTVSPost2010PropOp52
 70
     0
102
RTVSPost2010Prop53
 90
        2
102
RTVSPost2010PropOp53
 70
     1
102
RTVSPost2010Prop54
  1
strokes_ogs.tif
102
RTVSPost2010PropOp54
 70
     1
102
RTVSPost2010Prop55
280
     0
102
RTVSPost2010PropOp55
 70
     1
102
RTVSPost2010Prop56
140
1.0
102
RTVSPost2010PropOp56
 70
     1
102
RTVSPost2010Prop57
140
1.0
102
RTVSPost2010PropOp57
 70
     1
102
RTVSPropertyOp0
 70
     1
102
RTVSPropertyOp1
 70
     1
102
RTVSPropertyOp2
 70
     1
102
RTVSPropertyOp3
 70
     1
102
RTVSPropertyOp4
 70
     1
102
RTVSPropertyOp5
 70
     1
102
RTVSPropertyOp6
 70
     1
102
RTVSPropertyOp7
 70
     1
102
RTVSPropertyOp8
 70
     1
102
RTVSPropertyOp9
 70
     1
102
RTVSPropertyOp10
 70
     1
102
RTVSPropertyOp11
 70
     1
102
RTVSPropertyOp12
 70
     1
102
RTVSPropertyOp13
 70
     1
102
RTVSPropertyOp14
 70
     1
102
RTVSPropertyOp15
 70
     1
102
RTVSPropertyOp16
 70
     1
102
RTVSPropertyOp17
 70
     1
102
RTVSPropertyOp18
 70
     1
102
RTVSPropertyOp19
 70
     1
102
RTVSPropertyOp20
 70
     1
102
RTVSPropertyOp21
 70
     1
102
RTVSPropertyOp22
 70
     1
102
RTVSPropertyOp23
 70
     1
102
RTVSPropertyOp24
 70
     1
102
RTVSPropertyOp25
 70
     1
102
RTVSPropertyOp26
 70
     1
102
RTVSPropertyOp27
 70
     1
102
RTVSPropertyOp28
 70
     1
102
RTVSPropertyOp29
 70
     1
102
RTVSPropertyOp30
 70
     1
102
RTVSPropertyOp31
 70
     1
102
RTVSPropertyOp32
 70
     1
102
RTVSPropertyOp33
 70
     1
102
RTVSPropertyOp34
 70
     1
102
RTVSPropertyOp35
 70
     1
102
RTVSPropertyOp36
 70
     1
102
RTVSPropertyOp37
 70
     1
102
RTVSPropertyOp38
 70
     1
102
RTVSPropertyOp39
 70
     1
102
RTVSPropertyOp40
 70
     1
102
RTVSPropertyOp41
 70
     1
102
RTVSPropertyOp42
 70
     1
102
RTVSPropertyOp43
 70
     1
102
RTVSPropertyOp44
 70
     1
102
RTVSPropertyOp45
 70
     1
102
RTVSPropertyOp46
 70
     1
102
RTVSPropertyOp47
 70
     1
102
RTVSPropertyOp48
 70
     1
102
RTVSPropertyOp49
 70
     1
102
RTVSPropertyOp50
 70
     1
102
RTVSPropertyOp51
 70
     0
102
RTVSPropertyOp52
 70
     0
102
RTVSPropertyOp53
 70
     1
102
RTVSPropertyOp54
 70
     1
102
RTVSPropertyOp55
 70
     1
102
RTVSPropertyOp56
 70
     1
102
RTVSPropertyOp57
 70
     1
102
RTVSPropertyOp58
 70
     1
102
RTVSPropertyOp59
 70
     1
102
RTVSPropertyOp60
 70
     1
102
RTVSPropertyOp61
 70
     1
102
RTVSPropertyOp62
 70
     1
  0
XRECORD
  5
5358
102
{ACAD_REACTORS
330
5357
102
}
330
5357
100
AcDbXrecord
280
     1
102
RTVSPost2010Prop28
280
     0
102
RTVSPost2010PropOp28
 70
     1
102
RTVSPost2010Prop29
280
     1
102
RTVSPost2010PropOp29
 70
     1
102
RTVSPost2010Prop30
280
     1
102
RTVSPost2010PropOp30
 70
     1
102
RTVSPost2010Prop31
280
     0
102
RTVSPost2010PropOp31
 70
     1
102
RTVSPost2010Prop32
280
     0
102
RTVSPost2010PropOp32
 70
     1
102
RTVSPost2010Prop33
280
     0
102
RTVSPost2010PropOp33
 70
     1
102
RTVSPost2010Prop34
280
     0
102
RTVSPost2010PropOp34
 70
     1
102
RTVSPost2010Prop35
280
     0
102
RTVSPost2010PropOp35
 70
     1
102
RTVSPost2010Prop36
280
     0
102
RTVSPost2010PropOp36
 70
     1
102
RTVSPost2010Prop37
 90
       50
102
RTVSPost2010PropOp37
 70
     1
102
RTVSPost2010Prop38
140
0.0
102
RTVSPost2010PropOp38
 70
     1
102
RTVSPost2010Prop39
140
1.0
102
RTVSPost2010PropOp39
 70
     1
102
RTVSPost2010Prop40
 90
        0
102
RTVSPost2010PropOp40
 70
     1
102
RTVSPost2010Prop41ColorIndex
 90
       18
102
RTVSPost2010Prop41ColorRGB
 90
        0
102
RTVSPost2010PropOp41
 70
     1
102
RTVSPost2010Prop42
 90
       50
102
RTVSPost2010PropOp42
 70
     1
102
RTVSPost2010Prop43
 90
        3
102
RTVSPost2010PropOp43
 70
     1
102
RTVSPost2010Prop44ColorIndex
 90
        5
102
RTVSPost2010Prop44ColorRGB
 90
      255
102
RTVSPost2010PropOp44
 70
     1
102
RTVSPost2010Prop45
280
     0
102
RTVSPost2010PropOp45
 70
     1
102
RTVSPost2010Prop46
 90
       50
102
RTVSPost2010PropOp46
 70
     1
102
RTVSPost2010Prop47
 90
       50
102
RTVSPost2010PropOp47
 70
     1
102
RTVSPost2010Prop48
 90
       50
102
RTVSPost2010PropOp48
 70
     1
102
RTVSPost2010Prop49
280
     0
102
RTVSPost2010PropOp49
 70
     1
102
RTVSPost2010Prop50
 90
       50
102
RTVSPost2010PropOp50
 70
     1
102
RTVSPost2010Prop51ColorIndex
 90
      256
102
RTVSPost2010Prop51ColorRGB
 90
-16777216
102
RTVSPost2010PropOp51
 70
     0
102
RTVSPost2010Prop52
140
1.0
102
RTVSPost2010PropOp52
 70
     0
102
RTVSPost2010Prop53
 90
        2
102
RTVSPost2010PropOp53
 70
     1
102
RTVSPost2010Prop54
  1
strokes_ogs.tif
102
RTVSPost2010PropOp54
 70
     1
102
RTVSPost2010Prop55
280
     0
102
RTVSPost2010PropOp55
 70
     1
102
RTVSPost2010Prop56
140
1.0
102
RTVSPost2010PropOp56
 70
     1
102
RTVSPost2010Prop57
140
1.0
102
RTVSPost2010PropOp57
 70
     1
102
RTVSPropertyOp0
 70
     1
102
RTVSPropertyOp1
 70
     1
102
RTVSPropertyOp2
 70
     1
102
RTVSPropertyOp3
 70
     1
102
RTVSPropertyOp4
 70
     1
102
RTVSPropertyOp5
 70
     1
102
RTVSPropertyOp6
 70
     1
102
RTVSPropertyOp7
 70
     1
102
RTVSPropertyOp8
 70
     1
102
RTVSPropertyOp9
 70
     1
102
RTVSPropertyOp10
 70
     1
102
RTVSPropertyOp11
 70
     1
102
RTVSPropertyOp12
 70
     1
102
RTVSPropertyOp13
 70
     1
102
RTVSPropertyOp14
 70
     1
102
RTVSPropertyOp15
 70
     1
102
RTVSPropertyOp16
 70
     1
102
RTVSPropertyOp17
 70
     1
102
RTVSPropertyOp18
 70
     1
102
RTVSPropertyOp19
 70
     1
102
RTVSPropertyOp20
 70
     1
102
RTVSPropertyOp21
 70
     1
102
RTVSPropertyOp22
 70
     1
102
RTVSPropertyOp23
 70
     1
102
RTVSPropertyOp24
 70
     1
102
RTVSPropertyOp25
 70
     1
102
RTVSPropertyOp26
 70
     1
102
RTVSPropertyOp27
 70
     1
102
RTVSPropertyOp28
 70
     1
102
RTVSPropertyOp29
 70
     1
102
RTVSPropertyOp30
 70
     1
102
RTVSPropertyOp31
 70
     1
102
RTVSPropertyOp32
 70
     1
102
RTVSPropertyOp33
 70
     1
102
RTVSPropertyOp34
 70
     1
102
RTVSPropertyOp35
 70
     1
102
RTVSPropertyOp36
 70
     1
102
RTVSPropertyOp37
 70
     1
102
RTVSPropertyOp38
 70
     1
102
RTVSPropertyOp39
 70
     1
102
RTVSPropertyOp40
 70
     1
102
RTVSPropertyOp41
 70
     1
102
RTVSPropertyOp42
 70
     1
102
RTVSPropertyOp43
 70
     1
102
RTVSPropertyOp44
 70
     1
102
RTVSPropertyOp45
 70
     1
102
RTVSPropertyOp46
 70
     1
102
RTVSPropertyOp47
 70
     1
102
RTVSPropertyOp48
 70
     1
102
RTVSPropertyOp49
 70
     1
102
RTVSPropertyOp50
 70
     1
102
RTVSPropertyOp51
 70
     0
102
RTVSPropertyOp52
 70
     0
102
RTVSPropertyOp53
 70
     1
102
RTVSPropertyOp54
 70
     1
102
RTVSPropertyOp55
 70
     1
102
RTVSPropertyOp56
 70
     1
102
RTVSPropertyOp57
 70
     1
102
RTVSPropertyOp58
 70
     1
102
RTVSPropertyOp59
 70
     1
102
RTVSPropertyOp60
 70
     1
102
RTVSPropertyOp61
 70
     1
102
RTVSPropertyOp62
 70
     1
  0
XRECORD
  5
5366
102
{ACAD_REACTORS
330
5365
102
}
330
5365
100
AcDbXrecord
280
     1
102
RTVSPost2010Prop28
280
     0
102
RTVSPost2010PropOp28
 70
     1
102
RTVSPost2010Prop29
280
     1
102
RTVSPost2010PropOp29
 70
     1
102
RTVSPost2010Prop30
280
     1
102
RTVSPost2010PropOp30
 70
     1
102
RTVSPost2010Prop31
280
     0
102
RTVSPost2010PropOp31
 70
     1
102
RTVSPost2010Prop32
280
     0
102
RTVSPost2010PropOp32
 70
     1
102
RTVSPost2010Prop33
280
     0
102
RTVSPost2010PropOp33
 70
     1
102
RTVSPost2010Prop34
280
     0
102
RTVSPost2010PropOp34
 70
     1
102
RTVSPost2010Prop35
280
     0
102
RTVSPost2010PropOp35
 70
     1
102
RTVSPost2010Prop36
280
     0
102
RTVSPost2010PropOp36
 70
     1
102
RTVSPost2010Prop37
 90
       50
102
RTVSPost2010PropOp37
 70
     1
102
RTVSPost2010Prop38
140
0.0
102
RTVSPost2010PropOp38
 70
     1
102
RTVSPost2010Prop39
140
1.0
102
RTVSPost2010PropOp39
 70
     1
102
RTVSPost2010Prop40
 90
        0
102
RTVSPost2010PropOp40
 70
     1
102
RTVSPost2010Prop41ColorIndex
 90
       18
102
RTVSPost2010Prop41ColorRGB
 90
        0
102
RTVSPost2010PropOp41
 70
     1
102
RTVSPost2010Prop42
 90
       50
102
RTVSPost2010PropOp42
 70
     1
102
RTVSPost2010Prop43
 90
        3
102
RTVSPost2010PropOp43
 70
     1
102
RTVSPost2010Prop44ColorIndex
 90
        5
102
RTVSPost2010Prop44ColorRGB
 90
      255
102
RTVSPost2010PropOp44
 70
     1
102
RTVSPost2010Prop45
280
     0
102
RTVSPost2010PropOp45
 70
     1
102
RTVSPost2010Prop46
 90
       50
102
RTVSPost2010PropOp46
 70
     1
102
RTVSPost2010Prop47
 90
       50
102
RTVSPost2010PropOp47
 70
     1
102
RTVSPost2010Prop48
 90
       50
102
RTVSPost2010PropOp48
 70
     1
102
RTVSPost2010Prop49
280
     0
102
RTVSPost2010PropOp49
 70
     1
102
RTVSPost2010Prop50
 90
       50
102
RTVSPost2010PropOp50
 70
     1
102
RTVSPost2010Prop51ColorIndex
 90
      256
102
RTVSPost2010Prop51ColorRGB
 90
-16777216
102
RTVSPost2010PropOp51
 70
     0
102
RTVSPost2010Prop52
140
1.0
102
RTVSPost2010PropOp52
 70
     0
102
RTVSPost2010Prop53
 90
        2
102
RTVSPost2010PropOp53
 70
     1
102
RTVSPost2010Prop54
  1
strokes_ogs.tif
102
RTVSPost2010PropOp54
 70
     1
102
RTVSPost2010Prop55
280
     0
102
RTVSPost2010PropOp55
 70
     1
102
RTVSPost2010Prop56
140
1.0
102
RTVSPost2010PropOp56
 70
     1
102
RTVSPost2010Prop57
140
1.0
102
RTVSPost2010PropOp57
 70
     1
102
RTVSPropertyOp0
 70
     1
102
RTVSPropertyOp1
 70
     1
102
RTVSPropertyOp2
 70
     1
102
RTVSPropertyOp3
 70
     1
102
RTVSPropertyOp4
 70
     1
102
RTVSPropertyOp5
 70
     1
102
RTVSPropertyOp6
 70
     1
102
RTVSPropertyOp7
 70
     1
102
RTVSPropertyOp8
 70
     1
102
RTVSPropertyOp9
 70
     1
102
RTVSPropertyOp10
 70
     1
102
RTVSPropertyOp11
 70
     1
102
RTVSPropertyOp12
 70
     1
102
RTVSPropertyOp13
 70
     1
102
RTVSPropertyOp14
 70
     1
102
RTVSPropertyOp15
 70
     1
102
RTVSPropertyOp16
 70
     1
102
RTVSPropertyOp17
 70
     1
102
RTVSPropertyOp18
 70
     1
102
RTVSPropertyOp19
 70
     1
102
RTVSPropertyOp20
 70
     1
102
RTVSPropertyOp21
 70
     1
102
RTVSPropertyOp22
 70
     1
102
RTVSPropertyOp23
 70
     1
102
RTVSPropertyOp24
 70
     1
102
RTVSPropertyOp25
 70
     1
102
RTVSPropertyOp26
 70
     1
102
RTVSPropertyOp27
 70
     1
102
RTVSPropertyOp28
 70
     1
102
RTVSPropertyOp29
 70
     1
102
RTVSPropertyOp30
 70
     1
102
RTVSPropertyOp31
 70
     1
102
RTVSPropertyOp32
 70
     1
102
RTVSPropertyOp33
 70
     1
102
RTVSPropertyOp34
 70
     1
102
RTVSPropertyOp35
 70
     1
102
RTVSPropertyOp36
 70
     1
102
RTVSPropertyOp37
 70
     1
102
RTVSPropertyOp38
 70
     1
102
RTVSPropertyOp39
 70
     1
102
RTVSPropertyOp40
 70
     1
102
RTVSPropertyOp41
 70
     1
102
RTVSPropertyOp42
 70
     1
102
RTVSPropertyOp43
 70
     1
102
RTVSPropertyOp44
 70
     1
102
RTVSPropertyOp45
 70
     1
102
RTVSPropertyOp46
 70
     1
102
RTVSPropertyOp47
 70
     1
102
RTVSPropertyOp48
 70
     1
102
RTVSPropertyOp49
 70
     1
102
RTVSPropertyOp50
 70
     1
102
RTVSPropertyOp51
 70
     0
102
RTVSPropertyOp52
 70
     0
102
RTVSPropertyOp53
 70
     1
102
RTVSPropertyOp54
 70
     1
102
RTVSPropertyOp55
 70
     1
102
RTVSPropertyOp56
 70
     1
102
RTVSPropertyOp57
 70
     1
102
RTVSPropertyOp58
 70
     1
102
RTVSPropertyOp59
 70
     1
102
RTVSPropertyOp60
 70
     1
102
RTVSPropertyOp61
 70
     1
102
RTVSPropertyOp62
 70
     1
  0
XRECORD
  5
536E
102
{ACAD_REACTORS
330
536D
102
}
330
536D
100
AcDbXrecord
280
     1
102
RTVSPost2010Prop28
280
     0
102
RTVSPost2010PropOp28
 70
     1
102
RTVSPost2010Prop29
280
     1
102
RTVSPost2010PropOp29
 70
     1
102
RTVSPost2010Prop30
280
     1
102
RTVSPost2010PropOp30
 70
     1
102
RTVSPost2010Prop31
280
     0
102
RTVSPost2010PropOp31
 70
     1
102
RTVSPost2010Prop32
280
     0
102
RTVSPost2010PropOp32
 70
     1
102
RTVSPost2010Prop33
280
     0
102
RTVSPost2010PropOp33
 70
     1
102
RTVSPost2010Prop34
280
     0
102
RTVSPost2010PropOp34
 70
     1
102
RTVSPost2010Prop35
280
     0
102
RTVSPost2010PropOp35
 70
     1
102
RTVSPost2010Prop36
280
     0
102
RTVSPost2010PropOp36
 70
     1
102
RTVSPost2010Prop37
 90
       50
102
RTVSPost2010PropOp37
 70
     1
102
RTVSPost2010Prop38
140
0.0
102
RTVSPost2010PropOp38
 70
     1
102
RTVSPost2010Prop39
140
1.0
102
RTVSPost2010PropOp39
 70
     1
102
RTVSPost2010Prop40
 90
        0
102
RTVSPost2010PropOp40
 70
     1
102
RTVSPost2010Prop41ColorIndex
 90
       18
102
RTVSPost2010Prop41ColorRGB
 90
        0
102
RTVSPost2010PropOp41
 70
     1
102
RTVSPost2010Prop42
 90
       50
102
RTVSPost2010PropOp42
 70
     1
102
RTVSPost2010Prop43
 90
        3
102
RTVSPost2010PropOp43
 70
     1
102
RTVSPost2010Prop44ColorIndex
 90
        5
102
RTVSPost2010Prop44ColorRGB
 90
      255
102
RTVSPost2010PropOp44
 70
     1
102
RTVSPost2010Prop45
280
     0
102
RTVSPost2010PropOp45
 70
     1
102
RTVSPost2010Prop46
 90
       50
102
RTVSPost2010PropOp46
 70
     1
102
RTVSPost2010Prop47
 90
       50
102
RTVSPost2010PropOp47
 70
     1
102
RTVSPost2010Prop48
 90
       50
102
RTVSPost2010PropOp48
 70
     1
102
RTVSPost2010Prop49
280
     0
102
RTVSPost2010PropOp49
 70
     1
102
RTVSPost2010Prop50
 90
       50
102
RTVSPost2010PropOp50
 70
     1
102
RTVSPost2010Prop51ColorIndex
 90
      256
102
RTVSPost2010Prop51ColorRGB
 90
-16777216
102
RTVSPost2010PropOp51
 70
     0
102
RTVSPost2010Prop52
140
1.0
102
RTVSPost2010PropOp52
 70
     0
102
RTVSPost2010Prop53
 90
        2
102
RTVSPost2010PropOp53
 70
     1
102
RTVSPost2010Prop54
  1
strokes_ogs.tif
102
RTVSPost2010PropOp54
 70
     1
102
RTVSPost2010Prop55
280
     0
102
RTVSPost2010PropOp55
 70
     1
102
RTVSPost2010Prop56
140
1.0
102
RTVSPost2010PropOp56
 70
     1
102
RTVSPost2010Prop57
140
1.0
102
RTVSPost2010PropOp57
 70
     1
102
RTVSPropertyOp0
 70
     1
102
RTVSPropertyOp1
 70
     1
102
RTVSPropertyOp2
 70
     1
102
RTVSPropertyOp3
 70
     1
102
RTVSPropertyOp4
 70
     1
102
RTVSPropertyOp5
 70
     1
102
RTVSPropertyOp6
 70
     1
102
RTVSPropertyOp7
 70
     1
102
RTVSPropertyOp8
 70
     1
102
RTVSPropertyOp9
 70
     1
102
RTVSPropertyOp10
 70
     1
102
RTVSPropertyOp11
 70
     1
102
RTVSPropertyOp12
 70
     1
102
RTVSPropertyOp13
 70
     1
102
RTVSPropertyOp14
 70
     1
102
RTVSPropertyOp15
 70
     1
102
RTVSPropertyOp16
 70
     1
102
RTVSPropertyOp17
 70
     1
102
RTVSPropertyOp18
 70
     1
102
RTVSPropertyOp19
 70
     1
102
RTVSPropertyOp20
 70
     1
102
RTVSPropertyOp21
 70
     1
102
RTVSPropertyOp22
 70
     1
102
RTVSPropertyOp23
 70
     1
102
RTVSPropertyOp24
 70
     1
102
RTVSPropertyOp25
 70
     1
102
RTVSPropertyOp26
 70
     1
102
RTVSPropertyOp27
 70
     1
102
RTVSPropertyOp28
 70
     1
102
RTVSPropertyOp29
 70
     1
102
RTVSPropertyOp30
 70
     1
102
RTVSPropertyOp31
 70
     1
102
RTVSPropertyOp32
 70
     1
102
RTVSPropertyOp33
 70
     1
102
RTVSPropertyOp34
 70
     1
102
RTVSPropertyOp35
 70
     1
102
RTVSPropertyOp36
 70
     1
102
RTVSPropertyOp37
 70
     1
102
RTVSPropertyOp38
 70
     1
102
RTVSPropertyOp39
 70
     1
102
RTVSPropertyOp40
 70
     1
102
RTVSPropertyOp41
 70
     1
102
RTVSPropertyOp42
 70
     1
102
RTVSPropertyOp43
 70
     1
102
RTVSPropertyOp44
 70
     1
102
RTVSPropertyOp45
 70
     1
102
RTVSPropertyOp46
 70
     1
102
RTVSPropertyOp47
 70
     1
102
RTVSPropertyOp48
 70
     1
102
RTVSPropertyOp49
 70
     1
102
RTVSPropertyOp50
 70
     1
102
RTVSPropertyOp51
 70
     0
102
RTVSPropertyOp52
 70
     0
102
RTVSPropertyOp53
 70
     1
102
RTVSPropertyOp54
 70
     1
102
RTVSPropertyOp55
 70
     1
102
RTVSPropertyOp56
 70
     1
102
RTVSPropertyOp57
 70
     1
102
RTVSPropertyOp58
 70
     1
102
RTVSPropertyOp59
 70
     1
102
RTVSPropertyOp60
 70
     1
102
RTVSPropertyOp61
 70
     1
102
RTVSPropertyOp62
 70
     1
  0
XRECORD
  5
5360
102
{ACAD_REACTORS
330
535F
102
}
330
535F
100
AcDbXrecord
280
     1
102
RTVSPost2010Prop28
280
     0
102
RTVSPost2010PropOp28
 70
     1
102
RTVSPost2010Prop29
280
     1
102
RTVSPost2010PropOp29
 70
     1
102
RTVSPost2010Prop30
280
     1
102
RTVSPost2010PropOp30
 70
     1
102
RTVSPost2010Prop31
280
     0
102
RTVSPost2010PropOp31
 70
     1
102
RTVSPost2010Prop32
280
     0
102
RTVSPost2010PropOp32
 70
     1
102
RTVSPost2010Prop33
280
     0
102
RTVSPost2010PropOp33
 70
     1
102
RTVSPost2010Prop34
280
     0
102
RTVSPost2010PropOp34
 70
     1
102
RTVSPost2010Prop35
280
     0
102
RTVSPost2010PropOp35
 70
     1
102
RTVSPost2010Prop36
280
     0
102
RTVSPost2010PropOp36
 70
     1
102
RTVSPost2010Prop37
 90
       50
102
RTVSPost2010PropOp37
 70
     1
102
RTVSPost2010Prop38
140
0.0
102
RTVSPost2010PropOp38
 70
     1
102
RTVSPost2010Prop39
140
1.0
102
RTVSPost2010PropOp39
 70
     1
102
RTVSPost2010Prop40
 90
        0
102
RTVSPost2010PropOp40
 70
     1
102
RTVSPost2010Prop41ColorIndex
 90
       18
102
RTVSPost2010Prop41ColorRGB
 90
        0
102
RTVSPost2010PropOp41
 70
     1
102
RTVSPost2010Prop42
 90
       50
102
RTVSPost2010PropOp42
 70
     1
102
RTVSPost2010Prop43
 90
        3
102
RTVSPost2010PropOp43
 70
     1
102
RTVSPost2010Prop44ColorIndex
 90
        5
102
RTVSPost2010Prop44ColorRGB
 90
      255
102
RTVSPost2010PropOp44
 70
     1
102
RTVSPost2010Prop45
280
     0
102
RTVSPost2010PropOp45
 70
     1
102
RTVSPost2010Prop46
 90
       50
102
RTVSPost2010PropOp46
 70
     1
102
RTVSPost2010Prop47
 90
       50
102
RTVSPost2010PropOp47
 70
     1
102
RTVSPost2010Prop48
 90
       50
102
RTVSPost2010PropOp48
 70
     1
102
RTVSPost2010Prop49
280
     0
102
RTVSPost2010PropOp49
 70
     1
102
RTVSPost2010Prop50
 90
       50
102
RTVSPost2010PropOp50
 70
     1
102
RTVSPost2010Prop51ColorIndex
 90
      256
102
RTVSPost2010Prop51ColorRGB
 90
-16777216
102
RTVSPost2010PropOp51
 70
     0
102
RTVSPost2010Prop52
140
1.0
102
RTVSPost2010PropOp52
 70
     0
102
RTVSPost2010Prop53
 90
        2
102
RTVSPost2010PropOp53
 70
     1
102
RTVSPost2010Prop54
  1
strokes_ogs.tif
102
RTVSPost2010PropOp54
 70
     1
102
RTVSPost2010Prop55
280
     0
102
RTVSPost2010PropOp55
 70
     1
102
RTVSPost2010Prop56
140
1.0
102
RTVSPost2010PropOp56
 70
     1
102
RTVSPost2010Prop57
140
1.0
102
RTVSPost2010PropOp57
 70
     1
102
RTVSPropertyOp0
 70
     1
102
RTVSPropertyOp1
 70
     1
102
RTVSPropertyOp2
 70
     1
102
RTVSPropertyOp3
 70
     1
102
RTVSPropertyOp4
 70
     1
102
RTVSPropertyOp5
 70
     1
102
RTVSPropertyOp6
 70
     1
102
RTVSPropertyOp7
 70
     1
102
RTVSPropertyOp8
 70
     1
102
RTVSPropertyOp9
 70
     1
102
RTVSPropertyOp10
 70
     1
102
RTVSPropertyOp11
 70
     1
102
RTVSPropertyOp12
 70
     1
102
RTVSPropertyOp13
 70
     1
102
RTVSPropertyOp14
 70
     1
102
RTVSPropertyOp15
 70
     1
102
RTVSPropertyOp16
 70
     1
102
RTVSPropertyOp17
 70
     1
102
RTVSPropertyOp18
 70
     1
102
RTVSPropertyOp19
 70
     1
102
RTVSPropertyOp20
 70
     1
102
RTVSPropertyOp21
 70
     1
102
RTVSPropertyOp22
 70
     1
102
RTVSPropertyOp23
 70
     1
102
RTVSPropertyOp24
 70
     1
102
RTVSPropertyOp25
 70
     1
102
RTVSPropertyOp26
 70
     1
102
RTVSPropertyOp27
 70
     1
102
RTVSPropertyOp28
 70
     1
102
RTVSPropertyOp29
 70
     1
102
RTVSPropertyOp30
 70
     1
102
RTVSPropertyOp31
 70
     1
102
RTVSPropertyOp32
 70
     1
102
RTVSPropertyOp33
 70
     1
102
RTVSPropertyOp34
 70
     1
102
RTVSPropertyOp35
 70
     1
102
RTVSPropertyOp36
 70
     1
102
RTVSPropertyOp37
 70
     1
102
RTVSPropertyOp38
 70
     1
102
RTVSPropertyOp39
 70
     1
102
RTVSPropertyOp40
 70
     1
102
RTVSPropertyOp41
 70
     1
102
RTVSPropertyOp42
 70
     1
102
RTVSPropertyOp43
 70
     1
102
RTVSPropertyOp44
 70
     1
102
RTVSPropertyOp45
 70
     1
102
RTVSPropertyOp46
 70
     1
102
RTVSPropertyOp47
 70
     1
102
RTVSPropertyOp48
 70
     1
102
RTVSPropertyOp49
 70
     1
102
RTVSPropertyOp50
 70
     1
102
RTVSPropertyOp51
 70
     0
102
RTVSPropertyOp52
 70
     0
102
RTVSPropertyOp53
 70
     1
102
RTVSPropertyOp54
 70
     1
102
RTVSPropertyOp55
 70
     1
102
RTVSPropertyOp56
 70
     1
102
RTVSPropertyOp57
 70
     1
102
RTVSPropertyOp58
 70
     1
102
RTVSPropertyOp59
 70
     1
102
RTVSPropertyOp60
 70
     1
102
RTVSPropertyOp61
 70
     1
102
RTVSPropertyOp62
 70
     1
  0
XRECORD
  5
5364
102
{ACAD_REACTORS
330
5363
102
}
330
5363
100
AcDbXrecord
280
     1
102
RTVSPost2010Prop28
280
     0
102
RTVSPost2010PropOp28
 70
     1
102
RTVSPost2010Prop29
280
     1
102
RTVSPost2010PropOp29
 70
     1
102
RTVSPost2010Prop30
280
     1
102
RTVSPost2010PropOp30
 70
     1
102
RTVSPost2010Prop31
280
     0
102
RTVSPost2010PropOp31
 70
     1
102
RTVSPost2010Prop32
280
     0
102
RTVSPost2010PropOp32
 70
     1
102
RTVSPost2010Prop33
280
     0
102
RTVSPost2010PropOp33
 70
     1
102
RTVSPost2010Prop34
280
     0
102
RTVSPost2010PropOp34
 70
     1
102
RTVSPost2010Prop35
280
     0
102
RTVSPost2010PropOp35
 70
     1
102
RTVSPost2010Prop36
280
     0
102
RTVSPost2010PropOp36
 70
     1
102
RTVSPost2010Prop37
 90
       50
102
RTVSPost2010PropOp37
 70
     1
102
RTVSPost2010Prop38
140
0.0
102
RTVSPost2010PropOp38
 70
     1
102
RTVSPost2010Prop39
140
1.0
102
RTVSPost2010PropOp39
 70
     1
102
RTVSPost2010Prop40
 90
        0
102
RTVSPost2010PropOp40
 70
     1
102
RTVSPost2010Prop41ColorIndex
 90
       18
102
RTVSPost2010Prop41ColorRGB
 90
        0
102
RTVSPost2010PropOp41
 70
     1
102
RTVSPost2010Prop42
 90
       50
102
RTVSPost2010PropOp42
 70
     1
102
RTVSPost2010Prop43
 90
        3
102
RTVSPost2010PropOp43
 70
     1
102
RTVSPost2010Prop44ColorIndex
 90
        5
102
RTVSPost2010Prop44ColorRGB
 90
      255
102
RTVSPost2010PropOp44
 70
     1
102
RTVSPost2010Prop45
280
     0
102
RTVSPost2010PropOp45
 70
     1
102
RTVSPost2010Prop46
 90
       50
102
RTVSPost2010PropOp46
 70
     1
102
RTVSPost2010Prop47
 90
       50
102
RTVSPost2010PropOp47
 70
     1
102
RTVSPost2010Prop48
 90
       50
102
RTVSPost2010PropOp48
 70
     1
102
RTVSPost2010Prop49
280
     0
102
RTVSPost2010PropOp49
 70
     1
102
RTVSPost2010Prop50
 90
       50
102
RTVSPost2010PropOp50
 70
     1
102
RTVSPost2010Prop51ColorIndex
 90
      256
102
RTVSPost2010Prop51ColorRGB
 90
-16777216
102
RTVSPost2010PropOp51
 70
     0
102
RTVSPost2010Prop52
140
1.0
102
RTVSPost2010PropOp52
 70
     0
102
RTVSPost2010Prop53
 90
        2
102
RTVSPost2010PropOp53
 70
     1
102
RTVSPost2010Prop54
  1
strokes_ogs.tif
102
RTVSPost2010PropOp54
 70
     1
102
RTVSPost2010Prop55
280
     0
102
RTVSPost2010PropOp55
 70
     1
102
RTVSPost2010Prop56
140
1.0
102
RTVSPost2010PropOp56
 70
     1
102
RTVSPost2010Prop57
140
1.0
102
RTVSPost2010PropOp57
 70
     1
102
RTVSPropertyOp0
 70
     1
102
RTVSPropertyOp1
 70
     1
102
RTVSPropertyOp2
 70
     1
102
RTVSPropertyOp3
 70
     1
102
RTVSPropertyOp4
 70
     1
102
RTVSPropertyOp5
 70
     1
102
RTVSPropertyOp6
 70
     1
102
RTVSPropertyOp7
 70
     1
102
RTVSPropertyOp8
 70
     1
102
RTVSPropertyOp9
 70
     1
102
RTVSPropertyOp10
 70
     1
102
RTVSPropertyOp11
 70
     1
102
RTVSPropertyOp12
 70
     1
102
RTVSPropertyOp13
 70
     1
102
RTVSPropertyOp14
 70
     1
102
RTVSPropertyOp15
 70
     1
102
RTVSPropertyOp16
 70
     1
102
RTVSPropertyOp17
 70
     1
102
RTVSPropertyOp18
 70
     1
102
RTVSPropertyOp19
 70
     1
102
RTVSPropertyOp20
 70
     1
102
RTVSPropertyOp21
 70
     1
102
RTVSPropertyOp22
 70
     1
102
RTVSPropertyOp23
 70
     1
102
RTVSPropertyOp24
 70
     1
102
RTVSPropertyOp25
 70
     1
102
RTVSPropertyOp26
 70
     1
102
RTVSPropertyOp27
 70
     1
102
RTVSPropertyOp28
 70
     1
102
RTVSPropertyOp29
 70
     1
102
RTVSPropertyOp30
 70
     1
102
RTVSPropertyOp31
 70
     1
102
RTVSPropertyOp32
 70
     1
102
RTVSPropertyOp33
 70
     1
102
RTVSPropertyOp34
 70
     1
102
RTVSPropertyOp35
 70
     1
102
RTVSPropertyOp36
 70
     1
102
RTVSPropertyOp37
 70
     1
102
RTVSPropertyOp38
 70
     1
102
RTVSPropertyOp39
 70
     1
102
RTVSPropertyOp40
 70
     1
102
RTVSPropertyOp41
 70
     1
102
RTVSPropertyOp42
 70
     1
102
RTVSPropertyOp43
 70
     1
102
RTVSPropertyOp44
 70
     1
102
RTVSPropertyOp45
 70
     1
102
RTVSPropertyOp46
 70
     1
102
RTVSPropertyOp47
 70
     1
102
RTVSPropertyOp48
 70
     1
102
RTVSPropertyOp49
 70
     1
102
RTVSPropertyOp50
 70
     1
102
RTVSPropertyOp51
 70
     0
102
RTVSPropertyOp52
 70
     0
102
RTVSPropertyOp53
 70
     1
102
RTVSPropertyOp54
 70
     1
102
RTVSPropertyOp55
 70
     1
102
RTVSPropertyOp56
 70
     1
102
RTVSPropertyOp57
 70
     1
102
RTVSPropertyOp58
 70
     1
102
RTVSPropertyOp59
 70
     1
102
RTVSPropertyOp60
 70
     1
102
RTVSPropertyOp61
 70
     1
102
RTVSPropertyOp62
 70
     1
  0
XRECORD
  5
537E
102
{ACAD_REACTORS
330
537D
102
}
330
537D
100
AcDbXrecord
280
     1
102
RTVSPost2010Prop28
280
     0
102
RTVSPost2010PropOp28
 70
     1
102
RTVSPost2010Prop29
280
     1
102
RTVSPost2010PropOp29
 70
     1
102
RTVSPost2010Prop30
280
     1
102
RTVSPost2010PropOp30
 70
     1
102
RTVSPost2010Prop31
280
     0
102
RTVSPost2010PropOp31
 70
     1
102
RTVSPost2010Prop32
280
     0
102
RTVSPost2010PropOp32
 70
     1
102
RTVSPost2010Prop33
280
     0
102
RTVSPost2010PropOp33
 70
     1
102
RTVSPost2010Prop34
280
     0
102
RTVSPost2010PropOp34
 70
     1
102
RTVSPost2010Prop35
280
     0
102
RTVSPost2010PropOp35
 70
     1
102
RTVSPost2010Prop36
280
     0
102
RTVSPost2010PropOp36
 70
     1
102
RTVSPost2010Prop37
 90
       50
102
RTVSPost2010PropOp37
 70
     0
102
RTVSPost2010Prop38
140
0.0
102
RTVSPost2010PropOp38
 70
     0
102
RTVSPost2010Prop39
140
1.0
102
RTVSPost2010PropOp39
 70
     0
102
RTVSPost2010Prop40
 90
        0
102
RTVSPost2010PropOp40
 70
     0
102
RTVSPost2010Prop41ColorIndex
 90
       18
102
RTVSPost2010Prop41ColorRGB
 90
        0
102
RTVSPost2010PropOp41
 70
     0
102
RTVSPost2010Prop42
 90
       50
102
RTVSPost2010PropOp42
 70
     0
102
RTVSPost2010Prop43
 90
        3
102
RTVSPost2010PropOp43
 70
     0
102
RTVSPost2010Prop44ColorIndex
 90
        5
102
RTVSPost2010Prop44ColorRGB
 90
      255
102
RTVSPost2010PropOp44
 70
     0
102
RTVSPost2010Prop45
280
     0
102
RTVSPost2010PropOp45
 70
     1
102
RTVSPost2010Prop46
 90
       50
102
RTVSPost2010PropOp46
 70
     0
102
RTVSPost2010Prop47
 90
       50
102
RTVSPost2010PropOp47
 70
     0
102
RTVSPost2010Prop48
 90
       50
102
RTVSPost2010PropOp48
 70
     0
102
RTVSPost2010Prop49
280
     0
102
RTVSPost2010PropOp49
 70
     1
102
RTVSPost2010Prop50
 90
       50
102
RTVSPost2010PropOp50
 70
     0
102
RTVSPost2010Prop51ColorIndex
 90
      256
102
RTVSPost2010Prop51ColorRGB
 90
-16777216
102
RTVSPost2010PropOp51
 70
     0
102
RTVSPost2010Prop52
140
1.0
102
RTVSPost2010PropOp52
 70
     0
102
RTVSPost2010Prop53
 90
        2
102
RTVSPost2010PropOp53
 70
     0
102
RTVSPost2010Prop54
  1
strokes_ogs.tif
102
RTVSPost2010PropOp54
 70
     0
102
RTVSPost2010Prop55
280
     0
102
RTVSPost2010PropOp55
 70
     1
102
RTVSPost2010Prop56
140
1.0
102
RTVSPost2010PropOp56
 70
     0
102
RTVSPost2010Prop57
140
1.0
102
RTVSPost2010PropOp57
 70
     0
102
RTVSPropertyOp0
 70
     0
102
RTVSPropertyOp1
 70
     0
102
RTVSPropertyOp2
 70
     0
102
RTVSPropertyOp3
 70
     0
102
RTVSPropertyOp4
 70
     0
102
RTVSPropertyOp5
 70
     0
102
RTVSPropertyOp6
 70
     0
102
RTVSPropertyOp7
 70
     0
102
RTVSPropertyOp8
 70
     0
102
RTVSPropertyOp9
 70
     0
102
RTVSPropertyOp10
 70
     0
102
RTVSPropertyOp11
 70
     0
102
RTVSPropertyOp12
 70
     0
102
RTVSPropertyOp13
 70
     0
102
RTVSPropertyOp14
 70
     2
102
RTVSPropertyOp15
 70
     0
102
RTVSPropertyOp16
 70
     0
102
RTVSPropertyOp17
 70
     0
102
RTVSPropertyOp18
 70
     0
102
RTVSPropertyOp19
 70
     0
102
RTVSPropertyOp20
 70
     0
102
RTVSPropertyOp21
 70
     0
102
RTVSPropertyOp22
 70
     0
102
RTVSPropertyOp23
 70
     0
102
RTVSPropertyOp24
 70
     0
102
RTVSPropertyOp25
 70
     0
102
RTVSPropertyOp26
 70
     0
102
RTVSPropertyOp27
 70
     0
102
RTVSPropertyOp28
 70
     1
102
RTVSPropertyOp29
 70
     1
102
RTVSPropertyOp30
 70
     1
102
RTVSPropertyOp31
 70
     1
102
RTVSPropertyOp32
 70
     1
102
RTVSPropertyOp33
 70
     1
102
RTVSPropertyOp34
 70
     1
102
RTVSPropertyOp35
 70
     1
102
RTVSPropertyOp36
 70
     1
102
RTVSPropertyOp37
 70
     0
102
RTVSPropertyOp38
 70
     0
102
RTVSPropertyOp39
 70
     0
102
RTVSPropertyOp40
 70
     0
102
RTVSPropertyOp41
 70
     0
102
RTVSPropertyOp42
 70
     0
102
RTVSPropertyOp43
 70
     0
102
RTVSPropertyOp44
 70
     0
102
RTVSPropertyOp45
 70
     1
102
RTVSPropertyOp46
 70
     0
102
RTVSPropertyOp47
 70
     0
102
RTVSPropertyOp48
 70
     0
102
RTVSPropertyOp49
 70
     1
102
RTVSPropertyOp50
 70
     0
102
RTVSPropertyOp51
 70
     0
102
RTVSPropertyOp52
 70
     0
102
RTVSPropertyOp53
 70
     0
102
RTVSPropertyOp54
 70
     0
102
RTVSPropertyOp55
 70
     1
102
RTVSPropertyOp56
 70
     0
102
RTVSPropertyOp57
 70
     0
102
RTVSPropertyOp58
 70
     0
102
RTVSPropertyOp59
 70
     0
102
RTVSPropertyOp60
 70
     0
102
RTVSPropertyOp61
 70
     0
102
RTVSPropertyOp62
 70
     0
  0
XRECORD
  5
536C
102
{ACAD_REACTORS
330
536B
102
}
330
536B
100
AcDbXrecord
280
     1
102
RTVSPost2010Prop28
280
     0
102
RTVSPost2010PropOp28
 70
     1
102
RTVSPost2010Prop29
280
     1
102
RTVSPost2010PropOp29
 70
     1
102
RTVSPost2010Prop30
280
     1
102
RTVSPost2010PropOp30
 70
     1
102
RTVSPost2010Prop31
280
     0
102
RTVSPost2010PropOp31
 70
     1
102
RTVSPost2010Prop32
280
     0
102
RTVSPost2010PropOp32
 70
     1
102
RTVSPost2010Prop33
280
     0
102
RTVSPost2010PropOp33
 70
     1
102
RTVSPost2010Prop34
280
     0
102
RTVSPost2010PropOp34
 70
     1
102
RTVSPost2010Prop35
280
     0
102
RTVSPost2010PropOp35
 70
     1
102
RTVSPost2010Prop36
280
     0
102
RTVSPost2010PropOp36
 70
     1
102
RTVSPost2010Prop37
 90
       50
102
RTVSPost2010PropOp37
 70
     1
102
RTVSPost2010Prop38
140
0.0
102
RTVSPost2010PropOp38
 70
     1
102
RTVSPost2010Prop39
140
1.0
102
RTVSPost2010PropOp39
 70
     1
102
RTVSPost2010Prop40
 90
        0
102
RTVSPost2010PropOp40
 70
     1
102
RTVSPost2010Prop41ColorIndex
 90
       18
102
RTVSPost2010Prop41ColorRGB
 90
        0
102
RTVSPost2010PropOp41
 70
     1
102
RTVSPost2010Prop42
 90
       50
102
RTVSPost2010PropOp42
 70
     1
102
RTVSPost2010Prop43
 90
        3
102
RTVSPost2010PropOp43
 70
     1
102
RTVSPost2010Prop44ColorIndex
 90
        5
102
RTVSPost2010Prop44ColorRGB
 90
      255
102
RTVSPost2010PropOp44
 70
     1
102
RTVSPost2010Prop45
280
     0
102
RTVSPost2010PropOp45
 70
     1
102
RTVSPost2010Prop46
 90
       50
102
RTVSPost2010PropOp46
 70
     1
102
RTVSPost2010Prop47
 90
       50
102
RTVSPost2010PropOp47
 70
     1
102
RTVSPost2010Prop48
 90
       50
102
RTVSPost2010PropOp48
 70
     1
102
RTVSPost2010Prop49
280
     0
102
RTVSPost2010PropOp49
 70
     1
102
RTVSPost2010Prop50
 90
       50
102
RTVSPost2010PropOp50
 70
     1
102
RTVSPost2010Prop51ColorIndex
 90
      256
102
RTVSPost2010Prop51ColorRGB
 90
-16777216
102
RTVSPost2010PropOp51
 70
     0
102
RTVSPost2010Prop52
140
1.0
102
RTVSPost2010PropOp52
 70
     0
102
RTVSPost2010Prop53
 90
        2
102
RTVSPost2010PropOp53
 70
     1
102
RTVSPost2010Prop54
  1
strokes_ogs.tif
102
RTVSPost2010PropOp54
 70
     1
102
RTVSPost2010Prop55
280
     0
102
RTVSPost2010PropOp55
 70
     1
102
RTVSPost2010Prop56
140
1.0
102
RTVSPost2010PropOp56
 70
     1
102
RTVSPost2010Prop57
140
1.0
102
RTVSPost2010PropOp57
 70
     1
102
RTVSPropertyOp0
 70
     1
102
RTVSPropertyOp1
 70
     1
102
RTVSPropertyOp2
 70
     1
102
RTVSPropertyOp3
 70
     1
102
RTVSPropertyOp4
 70
     1
102
RTVSPropertyOp5
 70
     1
102
RTVSPropertyOp6
 70
     1
102
RTVSPropertyOp7
 70
     1
102
RTVSPropertyOp8
 70
     1
102
RTVSPropertyOp9
 70
     1
102
RTVSPropertyOp10
 70
     1
102
RTVSPropertyOp11
 70
     1
102
RTVSPropertyOp12
 70
     1
102
RTVSPropertyOp13
 70
     1
102
RTVSPropertyOp14
 70
     1
102
RTVSPropertyOp15
 70
     1
102
RTVSPropertyOp16
 70
     1
102
RTVSPropertyOp17
 70
     1
102
RTVSPropertyOp18
 70
     1
102
RTVSPropertyOp19
 70
     1
102
RTVSPropertyOp20
 70
     1
102
RTVSPropertyOp21
 70
     1
102
RTVSPropertyOp22
 70
     1
102
RTVSPropertyOp23
 70
     1
102
RTVSPropertyOp24
 70
     1
102
RTVSPropertyOp25
 70
     1
102
RTVSPropertyOp26
 70
     1
102
RTVSPropertyOp27
 70
     1
102
RTVSPropertyOp28
 70
     1
102
RTVSPropertyOp29
 70
     1
102
RTVSPropertyOp30
 70
     1
102
RTVSPropertyOp31
 70
     1
102
RTVSPropertyOp32
 70
     1
102
RTVSPropertyOp33
 70
     1
102
RTVSPropertyOp34
 70
     1
102
RTVSPropertyOp35
 70
     1
102
RTVSPropertyOp36
 70
     1
102
RTVSPropertyOp37
 70
     1
102
RTVSPropertyOp38
 70
     1
102
RTVSPropertyOp39
 70
     1
102
RTVSPropertyOp40
 70
     1
102
RTVSPropertyOp41
 70
     1
102
RTVSPropertyOp42
 70
     1
102
RTVSPropertyOp43
 70
     1
102
RTVSPropertyOp44
 70
     1
102
RTVSPropertyOp45
 70
     1
102
RTVSPropertyOp46
 70
     1
102
RTVSPropertyOp47
 70
     1
102
RTVSPropertyOp48
 70
     1
102
RTVSPropertyOp49
 70
     1
102
RTVSPropertyOp50
 70
     1
102
RTVSPropertyOp51
 70
     0
102
RTVSPropertyOp52
 70
     0
102
RTVSPropertyOp53
 70
     1
102
RTVSPropertyOp54
 70
     1
102
RTVSPropertyOp55
 70
     1
102
RTVSPropertyOp56
 70
     1
102
RTVSPropertyOp57
 70
     1
102
RTVSPropertyOp58
 70
     1
102
RTVSPropertyOp59
 70
     1
102
RTVSPropertyOp60
 70
     1
102
RTVSPropertyOp61
 70
     1
102
RTVSPropertyOp62
 70
     1
  0
XRECORD
  5
5350
102
{ACAD_REACTORS
330
534F
102
}
330
534F
100
AcDbXrecord
280
     1
102
RTVSPost2010Prop28
280
     0
102
RTVSPost2010PropOp28
 70
     1
102
RTVSPost2010Prop29
280
     1
102
RTVSPost2010PropOp29
 70
     1
102
RTVSPost2010Prop30
280
     1
102
RTVSPost2010PropOp30
 70
     1
102
RTVSPost2010Prop31
280
     0
102
RTVSPost2010PropOp31
 70
     1
102
RTVSPost2010Prop32
280
     0
102
RTVSPost2010PropOp32
 70
     1
102
RTVSPost2010Prop33
280
     0
102
RTVSPost2010PropOp33
 70
     1
102
RTVSPost2010Prop34
280
     0
102
RTVSPost2010PropOp34
 70
     1
102
RTVSPost2010Prop35
280
     0
102
RTVSPost2010PropOp35
 70
     1
102
RTVSPost2010Prop36
280
     0
102
RTVSPost2010PropOp36
 70
     1
102
RTVSPost2010Prop37
 90
       50
102
RTVSPost2010PropOp37
 70
     1
102
RTVSPost2010Prop38
140
0.0
102
RTVSPost2010PropOp38
 70
     1
102
RTVSPost2010Prop39
140
1.0
102
RTVSPost2010PropOp39
 70
     1
102
RTVSPost2010Prop40
 90
        0
102
RTVSPost2010PropOp40
 70
     1
102
RTVSPost2010Prop41ColorIndex
 90
       18
102
RTVSPost2010Prop41ColorRGB
 90
        0
102
RTVSPost2010PropOp41
 70
     1
102
RTVSPost2010Prop42
 90
       50
102
RTVSPost2010PropOp42
 70
     1
102
RTVSPost2010Prop43
 90
        3
102
RTVSPost2010PropOp43
 70
     1
102
RTVSPost2010Prop44ColorIndex
 90
        5
102
RTVSPost2010Prop44ColorRGB
 90
      255
102
RTVSPost2010PropOp44
 70
     1
102
RTVSPost2010Prop45
280
     0
102
RTVSPost2010PropOp45
 70
     1
102
RTVSPost2010Prop46
 90
       50
102
RTVSPost2010PropOp46
 70
     1
102
RTVSPost2010Prop47
 90
       50
102
RTVSPost2010PropOp47
 70
     1
102
RTVSPost2010Prop48
 90
       50
102
RTVSPost2010PropOp48
 70
     1
102
RTVSPost2010Prop49
280
     0
102
RTVSPost2010PropOp49
 70
     1
102
RTVSPost2010Prop50
 90
       50
102
RTVSPost2010PropOp50
 70
     1
102
RTVSPost2010Prop51ColorIndex
 90
      256
102
RTVSPost2010Prop51ColorRGB
 90
-16777216
102
RTVSPost2010PropOp51
 70
     0
102
RTVSPost2010Prop52
140
1.0
102
RTVSPost2010PropOp52
 70
     0
102
RTVSPost2010Prop53
 90
        2
102
RTVSPost2010PropOp53
 70
     1
102
RTVSPost2010Prop54
  1
strokes_ogs.tif
102
RTVSPost2010PropOp54
 70
     1
102
RTVSPost2010Prop55
280
     0
102
RTVSPost2010PropOp55
 70
     1
102
RTVSPost2010Prop56
140
1.0
102
RTVSPost2010PropOp56
 70
     1
102
RTVSPost2010Prop57
140
1.0
102
RTVSPost2010PropOp57
 70
     1
102
RTVSPropertyOp0
 70
     1
102
RTVSPropertyOp1
 70
     1
102
RTVSPropertyOp2
 70
     1
102
RTVSPropertyOp3
 70
     1
102
RTVSPropertyOp4
 70
     1
102
RTVSPropertyOp5
 70
     1
102
RTVSPropertyOp6
 70
     1
102
RTVSPropertyOp7
 70
     1
102
RTVSPropertyOp8
 70
     1
102
RTVSPropertyOp9
 70
     1
102
RTVSPropertyOp10
 70
     1
102
RTVSPropertyOp11
 70
     1
102
RTVSPropertyOp12
 70
     1
102
RTVSPropertyOp13
 70
     1
102
RTVSPropertyOp14
 70
     1
102
RTVSPropertyOp15
 70
     1
102
RTVSPropertyOp16
 70
     1
102
RTVSPropertyOp17
 70
     1
102
RTVSPropertyOp18
 70
     1
102
RTVSPropertyOp19
 70
     1
102
RTVSPropertyOp20
 70
     1
102
RTVSPropertyOp21
 70
     1
102
RTVSPropertyOp22
 70
     1
102
RTVSPropertyOp23
 70
     1
102
RTVSPropertyOp24
 70
     1
102
RTVSPropertyOp25
 70
     1
102
RTVSPropertyOp26
 70
     1
102
RTVSPropertyOp27
 70
     1
102
RTVSPropertyOp28
 70
     1
102
RTVSPropertyOp29
 70
     1
102
RTVSPropertyOp30
 70
     1
102
RTVSPropertyOp31
 70
     1
102
RTVSPropertyOp32
 70
     1
102
RTVSPropertyOp33
 70
     1
102
RTVSPropertyOp34
 70
     1
102
RTVSPropertyOp35
 70
     1
102
RTVSPropertyOp36
 70
     1
102
RTVSPropertyOp37
 70
     1
102
RTVSPropertyOp38
 70
     1
102
RTVSPropertyOp39
 70
     1
102
RTVSPropertyOp40
 70
     1
102
RTVSPropertyOp41
 70
     1
102
RTVSPropertyOp42
 70
     1
102
RTVSPropertyOp43
 70
     1
102
RTVSPropertyOp44
 70
     1
102
RTVSPropertyOp45
 70
     1
102
RTVSPropertyOp46
 70
     1
102
RTVSPropertyOp47
 70
     1
102
RTVSPropertyOp48
 70
     1
102
RTVSPropertyOp49
 70
     1
102
RTVSPropertyOp50
 70
     1
102
RTVSPropertyOp51
 70
     0
102
RTVSPropertyOp52
 70
     0
102
RTVSPropertyOp53
 70
     1
102
RTVSPropertyOp54
 70
     1
102
RTVSPropertyOp55
 70
     1
102
RTVSPropertyOp56
 70
     1
102
RTVSPropertyOp57
 70
     1
102
RTVSPropertyOp58
 70
     1
102
RTVSPropertyOp59
 70
     1
102
RTVSPropertyOp60
 70
     1
102
RTVSPropertyOp61
 70
     1
102
RTVSPropertyOp62
 70
     1
  0
XRECORD
  5
5352
102
{ACAD_REACTORS
330
5351
102
}
330
5351
100
AcDbXrecord
280
     1
102
RTVSPost2010Prop28
280
     0
102
RTVSPost2010PropOp28
 70
     1
102
RTVSPost2010Prop29
280
     1
102
RTVSPost2010PropOp29
 70
     1
102
RTVSPost2010Prop30
280
     1
102
RTVSPost2010PropOp30
 70
     1
102
RTVSPost2010Prop31
280
     0
102
RTVSPost2010PropOp31
 70
     1
102
RTVSPost2010Prop32
280
     0
102
RTVSPost2010PropOp32
 70
     1
102
RTVSPost2010Prop33
280
     0
102
RTVSPost2010PropOp33
 70
     1
102
RTVSPost2010Prop34
280
     0
102
RTVSPost2010PropOp34
 70
     1
102
RTVSPost2010Prop35
280
     0
102
RTVSPost2010PropOp35
 70
     1
102
RTVSPost2010Prop36
280
     0
102
RTVSPost2010PropOp36
 70
     1
102
RTVSPost2010Prop37
 90
       50
102
RTVSPost2010PropOp37
 70
     1
102
RTVSPost2010Prop38
140
0.0
102
RTVSPost2010PropOp38
 70
     1
102
RTVSPost2010Prop39
140
1.0
102
RTVSPost2010PropOp39
 70
     1
102
RTVSPost2010Prop40
 90
        0
102
RTVSPost2010PropOp40
 70
     1
102
RTVSPost2010Prop41ColorIndex
 90
       18
102
RTVSPost2010Prop41ColorRGB
 90
        0
102
RTVSPost2010PropOp41
 70
     1
102
RTVSPost2010Prop42
 90
       50
102
RTVSPost2010PropOp42
 70
     1
102
RTVSPost2010Prop43
 90
        3
102
RTVSPost2010PropOp43
 70
     1
102
RTVSPost2010Prop44ColorIndex
 90
        5
102
RTVSPost2010Prop44ColorRGB
 90
      255
102
RTVSPost2010PropOp44
 70
     1
102
RTVSPost2010Prop45
280
     0
102
RTVSPost2010PropOp45
 70
     1
102
RTVSPost2010Prop46
 90
       50
102
RTVSPost2010PropOp46
 70
     1
102
RTVSPost2010Prop47
 90
       50
102
RTVSPost2010PropOp47
 70
     1
102
RTVSPost2010Prop48
 90
       50
102
RTVSPost2010PropOp48
 70
     1
102
RTVSPost2010Prop49
280
     0
102
RTVSPost2010PropOp49
 70
     1
102
RTVSPost2010Prop50
 90
       50
102
RTVSPost2010PropOp50
 70
     1
102
RTVSPost2010Prop51ColorIndex
 90
      256
102
RTVSPost2010Prop51ColorRGB
 90
-16777216
102
RTVSPost2010PropOp51
 70
     0
102
RTVSPost2010Prop52
140
1.0
102
RTVSPost2010PropOp52
 70
     0
102
RTVSPost2010Prop53
 90
        2
102
RTVSPost2010PropOp53
 70
     1
102
RTVSPost2010Prop54
  1
strokes_ogs.tif
102
RTVSPost2010PropOp54
 70
     1
102
RTVSPost2010Prop55
280
     0
102
RTVSPost2010PropOp55
 70
     1
102
RTVSPost2010Prop56
140
1.0
102
RTVSPost2010PropOp56
 70
     1
102
RTVSPost2010Prop57
140
1.0
102
RTVSPost2010PropOp57
 70
     1
102
RTVSPropertyOp0
 70
     1
102
RTVSPropertyOp1
 70
     1
102
RTVSPropertyOp2
 70
     1
102
RTVSPropertyOp3
 70
     1
102
RTVSPropertyOp4
 70
     1
102
RTVSPropertyOp5
 70
     1
102
RTVSPropertyOp6
 70
     1
102
RTVSPropertyOp7
 70
     1
102
RTVSPropertyOp8
 70
     1
102
RTVSPropertyOp9
 70
     1
102
RTVSPropertyOp10
 70
     1
102
RTVSPropertyOp11
 70
     1
102
RTVSPropertyOp12
 70
     1
102
RTVSPropertyOp13
 70
     1
102
RTVSPropertyOp14
 70
     1
102
RTVSPropertyOp15
 70
     1
102
RTVSPropertyOp16
 70
     1
102
RTVSPropertyOp17
 70
     1
102
RTVSPropertyOp18
 70
     1
102
RTVSPropertyOp19
 70
     1
102
RTVSPropertyOp20
 70
     1
102
RTVSPropertyOp21
 70
     1
102
RTVSPropertyOp22
 70
     1
102
RTVSPropertyOp23
 70
     1
102
RTVSPropertyOp24
 70
     1
102
RTVSPropertyOp25
 70
     1
102
RTVSPropertyOp26
 70
     1
102
RTVSPropertyOp27
 70
     1
102
RTVSPropertyOp28
 70
     1
102
RTVSPropertyOp29
 70
     1
102
RTVSPropertyOp30
 70
     1
102
RTVSPropertyOp31
 70
     1
102
RTVSPropertyOp32
 70
     1
102
RTVSPropertyOp33
 70
     1
102
RTVSPropertyOp34
 70
     1
102
RTVSPropertyOp35
 70
     1
102
RTVSPropertyOp36
 70
     1
102
RTVSPropertyOp37
 70
     1
102
RTVSPropertyOp38
 70
     1
102
RTVSPropertyOp39
 70
     1
102
RTVSPropertyOp40
 70
     1
102
RTVSPropertyOp41
 70
     1
102
RTVSPropertyOp42
 70
     1
102
RTVSPropertyOp43
 70
     1
102
RTVSPropertyOp44
 70
     1
102
RTVSPropertyOp45
 70
     1
102
RTVSPropertyOp46
 70
     1
102
RTVSPropertyOp47
 70
     1
102
RTVSPropertyOp48
 70
     1
102
RTVSPropertyOp49
 70
     1
102
RTVSPropertyOp50
 70
     1
102
RTVSPropertyOp51
 70
     0
102
RTVSPropertyOp52
 70
     0
102
RTVSPropertyOp53
 70
     1
102
RTVSPropertyOp54
 70
     1
102
RTVSPropertyOp55
 70
     1
102
RTVSPropertyOp56
 70
     1
102
RTVSPropertyOp57
 70
     1
102
RTVSPropertyOp58
 70
     1
102
RTVSPropertyOp59
 70
     1
102
RTVSPropertyOp60
 70
     1
102
RTVSPropertyOp61
 70
     1
102
RTVSPropertyOp62
 70
     1
  0
XRECORD
  5
5354
102
{ACAD_REACTORS
330
5353
102
}
330
5353
100
AcDbXrecord
280
     1
102
RTVSPost2010Prop28
280
     0
102
RTVSPost2010PropOp28
 70
     1
102
RTVSPost2010Prop29
280
     1
102
RTVSPost2010PropOp29
 70
     1
102
RTVSPost2010Prop30
280
     1
102
RTVSPost2010PropOp30
 70
     1
102
RTVSPost2010Prop31
280
     0
102
RTVSPost2010PropOp31
 70
     1
102
RTVSPost2010Prop32
280
     0
102
RTVSPost2010PropOp32
 70
     1
102
RTVSPost2010Prop33
280
     0
102
RTVSPost2010PropOp33
 70
     1
102
RTVSPost2010Prop34
280
     0
102
RTVSPost2010PropOp34
 70
     1
102
RTVSPost2010Prop35
280
     0
102
RTVSPost2010PropOp35
 70
     1
102
RTVSPost2010Prop36
280
     0
102
RTVSPost2010PropOp36
 70
     1
102
RTVSPost2010Prop37
 90
       50
102
RTVSPost2010PropOp37
 70
     1
102
RTVSPost2010Prop38
140
0.0
102
RTVSPost2010PropOp38
 70
     1
102
RTVSPost2010Prop39
140
1.0
102
RTVSPost2010PropOp39
 70
     1
102
RTVSPost2010Prop40
 90
        0
102
RTVSPost2010PropOp40
 70
     1
102
RTVSPost2010Prop41ColorIndex
 90
       18
102
RTVSPost2010Prop41ColorRGB
 90
        0
102
RTVSPost2010PropOp41
 70
     1
102
RTVSPost2010Prop42
 90
       50
102
RTVSPost2010PropOp42
 70
     1
102
RTVSPost2010Prop43
 90
        3
102
RTVSPost2010PropOp43
 70
     1
102
RTVSPost2010Prop44ColorIndex
 90
        5
102
RTVSPost2010Prop44ColorRGB
 90
      255
102
RTVSPost2010PropOp44
 70
     1
102
RTVSPost2010Prop45
280
     0
102
RTVSPost2010PropOp45
 70
     1
102
RTVSPost2010Prop46
 90
       50
102
RTVSPost2010PropOp46
 70
     1
102
RTVSPost2010Prop47
 90
       50
102
RTVSPost2010PropOp47
 70
     1
102
RTVSPost2010Prop48
 90
       50
102
RTVSPost2010PropOp48
 70
     1
102
RTVSPost2010Prop49
280
     0
102
RTVSPost2010PropOp49
 70
     1
102
RTVSPost2010Prop50
 90
       50
102
RTVSPost2010PropOp50
 70
     1
102
RTVSPost2010Prop51ColorIndex
 90
      256
102
RTVSPost2010Prop51ColorRGB
 90
-16777216
102
RTVSPost2010PropOp51
 70
     0
102
RTVSPost2010Prop52
140
1.0
102
RTVSPost2010PropOp52
 70
     0
102
RTVSPost2010Prop53
 90
        2
102
RTVSPost2010PropOp53
 70
     1
102
RTVSPost2010Prop54
  1
strokes_ogs.tif
102
RTVSPost2010PropOp54
 70
     1
102
RTVSPost2010Prop55
280
     0
102
RTVSPost2010PropOp55
 70
     1
102
RTVSPost2010Prop56
140
1.0
102
RTVSPost2010PropOp56
 70
     1
102
RTVSPost2010Prop57
140
1.0
102
RTVSPost2010PropOp57
 70
     1
102
RTVSPropertyOp0
 70
     1
102
RTVSPropertyOp1
 70
     1
102
RTVSPropertyOp2
 70
     1
102
RTVSPropertyOp3
 70
     1
102
RTVSPropertyOp4
 70
     1
102
RTVSPropertyOp5
 70
     1
102
RTVSPropertyOp6
 70
     1
102
RTVSPropertyOp7
 70
     1
102
RTVSPropertyOp8
 70
     1
102
RTVSPropertyOp9
 70
     1
102
RTVSPropertyOp10
 70
     1
102
RTVSPropertyOp11
 70
     1
102
RTVSPropertyOp12
 70
     1
102
RTVSPropertyOp13
 70
     1
102
RTVSPropertyOp14
 70
     1
102
RTVSPropertyOp15
 70
     1
102
RTVSPropertyOp16
 70
     1
102
RTVSPropertyOp17
 70
     1
102
RTVSPropertyOp18
 70
     1
102
RTVSPropertyOp19
 70
     1
102
RTVSPropertyOp20
 70
     1
102
RTVSPropertyOp21
 70
     1
102
RTVSPropertyOp22
 70
     1
102
RTVSPropertyOp23
 70
     1
102
RTVSPropertyOp24
 70
     1
102
RTVSPropertyOp25
 70
     1
102
RTVSPropertyOp26
 70
     1
102
RTVSPropertyOp27
 70
     1
102
RTVSPropertyOp28
 70
     1
102
RTVSPropertyOp29
 70
     1
102
RTVSPropertyOp30
 70
     1
102
RTVSPropertyOp31
 70
     1
102
RTVSPropertyOp32
 70
     1
102
RTVSPropertyOp33
 70
     1
102
RTVSPropertyOp34
 70
     1
102
RTVSPropertyOp35
 70
     1
102
RTVSPropertyOp36
 70
     1
102
RTVSPropertyOp37
 70
     1
102
RTVSPropertyOp38
 70
     1
102
RTVSPropertyOp39
 70
     1
102
RTVSPropertyOp40
 70
     1
102
RTVSPropertyOp41
 70
     1
102
RTVSPropertyOp42
 70
     1
102
RTVSPropertyOp43
 70
     1
102
RTVSPropertyOp44
 70
     1
102
RTVSPropertyOp45
 70
     1
102
RTVSPropertyOp46
 70
     1
102
RTVSPropertyOp47
 70
     1
102
RTVSPropertyOp48
 70
     1
102
RTVSPropertyOp49
 70
     1
102
RTVSPropertyOp50
 70
     1
102
RTVSPropertyOp51
 70
     0
102
RTVSPropertyOp52
 70
     0
102
RTVSPropertyOp53
 70
     1
102
RTVSPropertyOp54
 70
     1
102
RTVSPropertyOp55
 70
     1
102
RTVSPropertyOp56
 70
     1
102
RTVSPropertyOp57
 70
     1
102
RTVSPropertyOp58
 70
     1
102
RTVSPropertyOp59
 70
     1
102
RTVSPropertyOp60
 70
     1
102
RTVSPropertyOp61
 70
     1
102
RTVSPropertyOp62
 70
     1
  0
XRECORD
  5
5356
102
{ACAD_REACTORS
330
5355
102
}
330
5355
100
AcDbXrecord
280
     1
102
RTVSPost2010Prop28
280
     0
102
RTVSPost2010PropOp28
 70
     1
102
RTVSPost2010Prop29
280
     1
102
RTVSPost2010PropOp29
 70
     1
102
RTVSPost2010Prop30
280
     1
102
RTVSPost2010PropOp30
 70
     1
102
RTVSPost2010Prop31
280
     0
102
RTVSPost2010PropOp31
 70
     1
102
RTVSPost2010Prop32
280
     0
102
RTVSPost2010PropOp32
 70
     1
102
RTVSPost2010Prop33
280
     0
102
RTVSPost2010PropOp33
 70
     1
102
RTVSPost2010Prop34
280
     0
102
RTVSPost2010PropOp34
 70
     1
102
RTVSPost2010Prop35
280
     0
102
RTVSPost2010PropOp35
 70
     1
102
RTVSPost2010Prop36
280
     0
102
RTVSPost2010PropOp36
 70
     1
102
RTVSPost2010Prop37
 90
       50
102
RTVSPost2010PropOp37
 70
     1
102
RTVSPost2010Prop38
140
0.0
102
RTVSPost2010PropOp38
 70
     1
102
RTVSPost2010Prop39
140
1.0
102
RTVSPost2010PropOp39
 70
     1
102
RTVSPost2010Prop40
 90
        0
102
RTVSPost2010PropOp40
 70
     1
102
RTVSPost2010Prop41ColorIndex
 90
       18
102
RTVSPost2010Prop41ColorRGB
 90
        0
102
RTVSPost2010PropOp41
 70
     1
102
RTVSPost2010Prop42
 90
       50
102
RTVSPost2010PropOp42
 70
     1
102
RTVSPost2010Prop43
 90
        3
102
RTVSPost2010PropOp43
 70
     1
102
RTVSPost2010Prop44ColorIndex
 90
        5
102
RTVSPost2010Prop44ColorRGB
 90
      255
102
RTVSPost2010PropOp44
 70
     1
102
RTVSPost2010Prop45
280
     0
102
RTVSPost2010PropOp45
 70
     1
102
RTVSPost2010Prop46
 90
       50
102
RTVSPost2010PropOp46
 70
     1
102
RTVSPost2010Prop47
 90
       50
102
RTVSPost2010PropOp47
 70
     1
102
RTVSPost2010Prop48
 90
       50
102
RTVSPost2010PropOp48
 70
     1
102
RTVSPost2010Prop49
280
     0
102
RTVSPost2010PropOp49
 70
     1
102
RTVSPost2010Prop50
 90
       50
102
RTVSPost2010PropOp50
 70
     1
102
RTVSPost2010Prop51ColorIndex
 90
      256
102
RTVSPost2010Prop51ColorRGB
 90
-16777216
102
RTVSPost2010PropOp51
 70
     0
102
RTVSPost2010Prop52
140
1.0
102
RTVSPost2010PropOp52
 70
     0
102
RTVSPost2010Prop53
 90
        2
102
RTVSPost2010PropOp53
 70
     1
102
RTVSPost2010Prop54
  1
strokes_ogs.tif
102
RTVSPost2010PropOp54
 70
     1
102
RTVSPost2010Prop55
280
     0
102
RTVSPost2010PropOp55
 70
     1
102
RTVSPost2010Prop56
140
1.0
102
RTVSPost2010PropOp56
 70
     1
102
RTVSPost2010Prop57
140
1.0
102
RTVSPost2010PropOp57
 70
     1
102
RTVSPropertyOp0
 70
     1
102
RTVSPropertyOp1
 70
     1
102
RTVSPropertyOp2
 70
     1
102
RTVSPropertyOp3
 70
     1
102
RTVSPropertyOp4
 70
     1
102
RTVSPropertyOp5
 70
     1
102
RTVSPropertyOp6
 70
     1
102
RTVSPropertyOp7
 70
     1
102
RTVSPropertyOp8
 70
     1
102
RTVSPropertyOp9
 70
     1
102
RTVSPropertyOp10
 70
     1
102
RTVSPropertyOp11
 70
     1
102
RTVSPropertyOp12
 70
     1
102
RTVSPropertyOp13
 70
     1
102
RTVSPropertyOp14
 70
     1
102
RTVSPropertyOp15
 70
     1
102
RTVSPropertyOp16
 70
     1
102
RTVSPropertyOp17
 70
     1
102
RTVSPropertyOp18
 70
     1
102
RTVSPropertyOp19
 70
     1
102
RTVSPropertyOp20
 70
     1
102
RTVSPropertyOp21
 70
     1
102
RTVSPropertyOp22
 70
     1
102
RTVSPropertyOp23
 70
     1
102
RTVSPropertyOp24
 70
     1
102
RTVSPropertyOp25
 70
     1
102
RTVSPropertyOp26
 70
     1
102
RTVSPropertyOp27
 70
     1
102
RTVSPropertyOp28
 70
     1
102
RTVSPropertyOp29
 70
     1
102
RTVSPropertyOp30
 70
     1
102
RTVSPropertyOp31
 70
     1
102
RTVSPropertyOp32
 70
     1
102
RTVSPropertyOp33
 70
     1
102
RTVSPropertyOp34
 70
     1
102
RTVSPropertyOp35
 70
     1
102
RTVSPropertyOp36
 70
     1
102
RTVSPropertyOp37
 70
     1
102
RTVSPropertyOp38
 70
     1
102
RTVSPropertyOp39
 70
     1
102
RTVSPropertyOp40
 70
     1
102
RTVSPropertyOp41
 70
     1
102
RTVSPropertyOp42
 70
     1
102
RTVSPropertyOp43
 70
     1
102
RTVSPropertyOp44
 70
     1
102
RTVSPropertyOp45
 70
     1
102
RTVSPropertyOp46
 70
     1
102
RTVSPropertyOp47
 70
     1
102
RTVSPropertyOp48
 70
     1
102
RTVSPropertyOp49
 70
     1
102
RTVSPropertyOp50
 70
     1
102
RTVSPropertyOp51
 70
     0
102
RTVSPropertyOp52
 70
     0
102
RTVSPropertyOp53
 70
     1
102
RTVSPropertyOp54
 70
     1
102
RTVSPropertyOp55
 70
     1
102
RTVSPropertyOp56
 70
     1
102
RTVSPropertyOp57
 70
     1
102
RTVSPropertyOp58
 70
     1
102
RTVSPropertyOp59
 70
     1
102
RTVSPropertyOp60
 70
     1
102
RTVSPropertyOp61
 70
     1
102
RTVSPropertyOp62
 70
     1
  0
XRECORD
  5
535E
102
{ACAD_REACTORS
330
535D
102
}
330
535D
100
AcDbXrecord
280
     1
102
RTVSPost2010Prop28
280
     0
102
RTVSPost2010PropOp28
 70
     1
102
RTVSPost2010Prop29
280
     1
102
RTVSPost2010PropOp29
 70
     1
102
RTVSPost2010Prop30
280
     1
102
RTVSPost2010PropOp30
 70
     1
102
RTVSPost2010Prop31
280
     0
102
RTVSPost2010PropOp31
 70
     1
102
RTVSPost2010Prop32
280
     0
102
RTVSPost2010PropOp32
 70
     1
102
RTVSPost2010Prop33
280
     0
102
RTVSPost2010PropOp33
 70
     1
102
RTVSPost2010Prop34
280
     0
102
RTVSPost2010PropOp34
 70
     1
102
RTVSPost2010Prop35
280
     0
102
RTVSPost2010PropOp35
 70
     1
102
RTVSPost2010Prop36
280
     0
102
RTVSPost2010PropOp36
 70
     1
102
RTVSPost2010Prop37
 90
       50
102
RTVSPost2010PropOp37
 70
     1
102
RTVSPost2010Prop38
140
0.0
102
RTVSPost2010PropOp38
 70
     1
102
RTVSPost2010Prop39
140
1.0
102
RTVSPost2010PropOp39
 70
     1
102
RTVSPost2010Prop40
 90
        0
102
RTVSPost2010PropOp40
 70
     1
102
RTVSPost2010Prop41ColorIndex
 90
       18
102
RTVSPost2010Prop41ColorRGB
 90
        0
102
RTVSPost2010PropOp41
 70
     1
102
RTVSPost2010Prop42
 90
       50
102
RTVSPost2010PropOp42
 70
     1
102
RTVSPost2010Prop43
 90
        3
102
RTVSPost2010PropOp43
 70
     1
102
RTVSPost2010Prop44ColorIndex
 90
        5
102
RTVSPost2010Prop44ColorRGB
 90
      255
102
RTVSPost2010PropOp44
 70
     1
102
RTVSPost2010Prop45
280
     0
102
RTVSPost2010PropOp45
 70
     1
102
RTVSPost2010Prop46
 90
       50
102
RTVSPost2010PropOp46
 70
     1
102
RTVSPost2010Prop47
 90
       50
102
RTVSPost2010PropOp47
 70
     1
102
RTVSPost2010Prop48
 90
       50
102
RTVSPost2010PropOp48
 70
     1
102
RTVSPost2010Prop49
280
     0
102
RTVSPost2010PropOp49
 70
     1
102
RTVSPost2010Prop50
 90
       50
102
RTVSPost2010PropOp50
 70
     1
102
RTVSPost2010Prop51ColorIndex
 90
      256
102
RTVSPost2010Prop51ColorRGB
 90
-16777216
102
RTVSPost2010PropOp51
 70
     0
102
RTVSPost2010Prop52
140
1.0
102
RTVSPost2010PropOp52
 70
     0
102
RTVSPost2010Prop53
 90
        2
102
RTVSPost2010PropOp53
 70
     1
102
RTVSPost2010Prop54
  1
strokes_ogs.tif
102
RTVSPost2010PropOp54
 70
     1
102
RTVSPost2010Prop55
280
     0
102
RTVSPost2010PropOp55
 70
     1
102
RTVSPost2010Prop56
140
1.0
102
RTVSPost2010PropOp56
 70
     1
102
RTVSPost2010Prop57
140
1.0
102
RTVSPost2010PropOp57
 70
     1
102
RTVSPropertyOp0
 70
     1
102
RTVSPropertyOp1
 70
     1
102
RTVSPropertyOp2
 70
     1
102
RTVSPropertyOp3
 70
     1
102
RTVSPropertyOp4
 70
     1
102
RTVSPropertyOp5
 70
     1
102
RTVSPropertyOp6
 70
     1
102
RTVSPropertyOp7
 70
     1
102
RTVSPropertyOp8
 70
     1
102
RTVSPropertyOp9
 70
     1
102
RTVSPropertyOp10
 70
     1
102
RTVSPropertyOp11
 70
     1
102
RTVSPropertyOp12
 70
     1
102
RTVSPropertyOp13
 70
     1
102
RTVSPropertyOp14
 70
     1
102
RTVSPropertyOp15
 70
     1
102
RTVSPropertyOp16
 70
     1
102
RTVSPropertyOp17
 70
     1
102
RTVSPropertyOp18
 70
     1
102
RTVSPropertyOp19
 70
     1
102
RTVSPropertyOp20
 70
     1
102
RTVSPropertyOp21
 70
     1
102
RTVSPropertyOp22
 70
     1
102
RTVSPropertyOp23
 70
     1
102
RTVSPropertyOp24
 70
     1
102
RTVSPropertyOp25
 70
     1
102
RTVSPropertyOp26
 70
     1
102
RTVSPropertyOp27
 70
     1
102
RTVSPropertyOp28
 70
     1
102
RTVSPropertyOp29
 70
     1
102
RTVSPropertyOp30
 70
     1
102
RTVSPropertyOp31
 70
     1
102
RTVSPropertyOp32
 70
     1
102
RTVSPropertyOp33
 70
     1
102
RTVSPropertyOp34
 70
     1
102
RTVSPropertyOp35
 70
     1
102
RTVSPropertyOp36
 70
     1
102
RTVSPropertyOp37
 70
     1
102
RTVSPropertyOp38
 70
     1
102
RTVSPropertyOp39
 70
     1
102
RTVSPropertyOp40
 70
     1
102
RTVSPropertyOp41
 70
     1
102
RTVSPropertyOp42
 70
     1
102
RTVSPropertyOp43
 70
     1
102
RTVSPropertyOp44
 70
     1
102
RTVSPropertyOp45
 70
     1
102
RTVSPropertyOp46
 70
     1
102
RTVSPropertyOp47
 70
     1
102
RTVSPropertyOp48
 70
     1
102
RTVSPropertyOp49
 70
     1
102
RTVSPropertyOp50
 70
     1
102
RTVSPropertyOp51
 70
     0
102
RTVSPropertyOp52
 70
     0
102
RTVSPropertyOp53
 70
     1
102
RTVSPropertyOp54
 70
     1
102
RTVSPropertyOp55
 70
     1
102
RTVSPropertyOp56
 70
     1
102
RTVSPropertyOp57
 70
     1
102
RTVSPropertyOp58
 70
     1
102
RTVSPropertyOp59
 70
     1
102
RTVSPropertyOp60
 70
     1
102
RTVSPropertyOp61
 70
     1
102
RTVSPropertyOp62
 70
     1
  0
XRECORD
  5
537A
102
{ACAD_REACTORS
330
5379
102
}
330
5379
100
AcDbXrecord
280
     1
102
RTVSPost2010Prop28
280
     0
102
RTVSPost2010PropOp28
 70
     1
102
RTVSPost2010Prop29
280
     1
102
RTVSPost2010PropOp29
 70
     1
102
RTVSPost2010Prop30
280
     1
102
RTVSPost2010PropOp30
 70
     1
102
RTVSPost2010Prop31
280
     0
102
RTVSPost2010PropOp31
 70
     1
102
RTVSPost2010Prop32
280
     0
102
RTVSPost2010PropOp32
 70
     1
102
RTVSPost2010Prop33
280
     0
102
RTVSPost2010PropOp33
 70
     1
102
RTVSPost2010Prop34
280
     0
102
RTVSPost2010PropOp34
 70
     1
102
RTVSPost2010Prop35
280
     0
102
RTVSPost2010PropOp35
 70
     1
102
RTVSPost2010Prop36
280
     0
102
RTVSPost2010PropOp36
 70
     1
102
RTVSPost2010Prop37
 90
       50
102
RTVSPost2010PropOp37
 70
     0
102
RTVSPost2010Prop38
140
0.0
102
RTVSPost2010PropOp38
 70
     0
102
RTVSPost2010Prop39
140
1.0
102
RTVSPost2010PropOp39
 70
     0
102
RTVSPost2010Prop40
 90
        0
102
RTVSPost2010PropOp40
 70
     0
102
RTVSPost2010Prop41ColorIndex
 90
       18
102
RTVSPost2010Prop41ColorRGB
 90
        0
102
RTVSPost2010PropOp41
 70
     0
102
RTVSPost2010Prop42
 90
       50
102
RTVSPost2010PropOp42
 70
     0
102
RTVSPost2010Prop43
 90
        3
102
RTVSPost2010PropOp43
 70
     0
102
RTVSPost2010Prop44ColorIndex
 90
        5
102
RTVSPost2010Prop44ColorRGB
 90
      255
102
RTVSPost2010PropOp44
 70
     0
102
RTVSPost2010Prop45
280
     0
102
RTVSPost2010PropOp45
 70
     1
102
RTVSPost2010Prop46
 90
       50
102
RTVSPost2010PropOp46
 70
     0
102
RTVSPost2010Prop47
 90
       50
102
RTVSPost2010PropOp47
 70
     0
102
RTVSPost2010Prop48
 90
       50
102
RTVSPost2010PropOp48
 70
     0
102
RTVSPost2010Prop49
280
     0
102
RTVSPost2010PropOp49
 70
     1
102
RTVSPost2010Prop50
 90
       50
102
RTVSPost2010PropOp50
 70
     0
102
RTVSPost2010Prop51ColorIndex
 90
      256
102
RTVSPost2010Prop51ColorRGB
 90
-16777216
102
RTVSPost2010PropOp51
 70
     0
102
RTVSPost2010Prop52
140
1.0
102
RTVSPost2010PropOp52
 70
     0
102
RTVSPost2010Prop53
 90
        2
102
RTVSPost2010PropOp53
 70
     0
102
RTVSPost2010Prop54
  1
strokes_ogs.tif
102
RTVSPost2010PropOp54
 70
     0
102
RTVSPost2010Prop55
280
     0
102
RTVSPost2010PropOp55
 70
     1
102
RTVSPost2010Prop56
140
1.0
102
RTVSPost2010PropOp56
 70
     0
102
RTVSPost2010Prop57
140
1.0
102
RTVSPost2010PropOp57
 70
     0
102
RTVSPropertyOp0
 70
     0
102
RTVSPropertyOp1
 70
     0
102
RTVSPropertyOp2
 70
     0
102
RTVSPropertyOp3
 70
     0
102
RTVSPropertyOp4
 70
     0
102
RTVSPropertyOp5
 70
     0
102
RTVSPropertyOp6
 70
     0
102
RTVSPropertyOp7
 70
     0
102
RTVSPropertyOp8
 70
     0
102
RTVSPropertyOp9
 70
     0
102
RTVSPropertyOp10
 70
     0
102
RTVSPropertyOp11
 70
     0
102
RTVSPropertyOp12
 70
     0
102
RTVSPropertyOp13
 70
     0
102
RTVSPropertyOp14
 70
     2
102
RTVSPropertyOp15
 70
     0
102
RTVSPropertyOp16
 70
     0
102
RTVSPropertyOp17
 70
     0
102
RTVSPropertyOp18
 70
     0
102
RTVSPropertyOp19
 70
     0
102
RTVSPropertyOp20
 70
     0
102
RTVSPropertyOp21
 70
     0
102
RTVSPropertyOp22
 70
     0
102
RTVSPropertyOp23
 70
     0
102
RTVSPropertyOp24
 70
     0
102
RTVSPropertyOp25
 70
     0
102
RTVSPropertyOp26
 70
     0
102
RTVSPropertyOp27
 70
     0
102
RTVSPropertyOp28
 70
     1
102
RTVSPropertyOp29
 70
     1
102
RTVSPropertyOp30
 70
     1
102
RTVSPropertyOp31
 70
     1
102
RTVSPropertyOp32
 70
     1
102
RTVSPropertyOp33
 70
     1
102
RTVSPropertyOp34
 70
     1
102
RTVSPropertyOp35
 70
     1
102
RTVSPropertyOp36
 70
     1
102
RTVSPropertyOp37
 70
     0
102
RTVSPropertyOp38
 70
     0
102
RTVSPropertyOp39
 70
     0
102
RTVSPropertyOp40
 70
     0
102
RTVSPropertyOp41
 70
     0
102
RTVSPropertyOp42
 70
     0
102
RTVSPropertyOp43
 70
     0
102
RTVSPropertyOp44
 70
     0
102
RTVSPropertyOp45
 70
     1
102
RTVSPropertyOp46
 70
     0
102
RTVSPropertyOp47
 70
     0
102
RTVSPropertyOp48
 70
     0
102
RTVSPropertyOp49
 70
     1
102
RTVSPropertyOp50
 70
     0
102
RTVSPropertyOp51
 70
     0
102
RTVSPropertyOp52
 70
     0
102
RTVSPropertyOp53
 70
     0
102
RTVSPropertyOp54
 70
     0
102
RTVSPropertyOp55
 70
     1
102
RTVSPropertyOp56
 70
     0
102
RTVSPropertyOp57
 70
     0
102
RTVSPropertyOp58
 70
     0
102
RTVSPropertyOp59
 70
     0
102
RTVSPropertyOp60
 70
     0
102
RTVSPropertyOp61
 70
     0
102
RTVSPropertyOp62
 70
     0
  0
XRECORD
  5
536A
102
{ACAD_REACTORS
330
5369
102
}
330
5369
100
AcDbXrecord
280
     1
102
RTVSPost2010Prop28
280
     0
102
RTVSPost2010PropOp28
 70
     1
102
RTVSPost2010Prop29
280
     1
102
RTVSPost2010PropOp29
 70
     1
102
RTVSPost2010Prop30
280
     1
102
RTVSPost2010PropOp30
 70
     1
102
RTVSPost2010Prop31
280
     0
102
RTVSPost2010PropOp31
 70
     1
102
RTVSPost2010Prop32
280
     0
102
RTVSPost2010PropOp32
 70
     1
102
RTVSPost2010Prop33
280
     0
102
RTVSPost2010PropOp33
 70
     1
102
RTVSPost2010Prop34
280
     0
102
RTVSPost2010PropOp34
 70
     1
102
RTVSPost2010Prop35
280
     0
102
RTVSPost2010PropOp35
 70
     1
102
RTVSPost2010Prop36
280
     0
102
RTVSPost2010PropOp36
 70
     1
102
RTVSPost2010Prop37
 90
       50
102
RTVSPost2010PropOp37
 70
     1
102
RTVSPost2010Prop38
140
0.0
102
RTVSPost2010PropOp38
 70
     1
102
RTVSPost2010Prop39
140
1.0
102
RTVSPost2010PropOp39
 70
     1
102
RTVSPost2010Prop40
 90
        0
102
RTVSPost2010PropOp40
 70
     1
102
RTVSPost2010Prop41ColorIndex
 90
       18
102
RTVSPost2010Prop41ColorRGB
 90
        0
102
RTVSPost2010PropOp41
 70
     1
102
RTVSPost2010Prop42
 90
       50
102
RTVSPost2010PropOp42
 70
     1
102
RTVSPost2010Prop43
 90
        3
102
RTVSPost2010PropOp43
 70
     1
102
RTVSPost2010Prop44ColorIndex
 90
        5
102
RTVSPost2010Prop44ColorRGB
 90
      255
102
RTVSPost2010PropOp44
 70
     1
102
RTVSPost2010Prop45
280
     0
102
RTVSPost2010PropOp45
 70
     1
102
RTVSPost2010Prop46
 90
       50
102
RTVSPost2010PropOp46
 70
     1
102
RTVSPost2010Prop47
 90
       50
102
RTVSPost2010PropOp47
 70
     1
102
RTVSPost2010Prop48
 90
       50
102
RTVSPost2010PropOp48
 70
     1
102
RTVSPost2010Prop49
280
     0
102
RTVSPost2010PropOp49
 70
     1
102
RTVSPost2010Prop50
 90
       50
102
RTVSPost2010PropOp50
 70
     1
102
RTVSPost2010Prop51ColorIndex
 90
      256
102
RTVSPost2010Prop51ColorRGB
 90
-16777216
102
RTVSPost2010PropOp51
 70
     0
102
RTVSPost2010Prop52
140
1.0
102
RTVSPost2010PropOp52
 70
     0
102
RTVSPost2010Prop53
 90
        2
102
RTVSPost2010PropOp53
 70
     1
102
RTVSPost2010Prop54
  1
strokes_ogs.tif
102
RTVSPost2010PropOp54
 70
     1
102
RTVSPost2010Prop55
280
     0
102
RTVSPost2010PropOp55
 70
     1
102
RTVSPost2010Prop56
140
1.0
102
RTVSPost2010PropOp56
 70
     1
102
RTVSPost2010Prop57
140
1.0
102
RTVSPost2010PropOp57
 70
     1
102
RTVSPropertyOp0
 70
     1
102
RTVSPropertyOp1
 70
     1
102
RTVSPropertyOp2
 70
     1
102
RTVSPropertyOp3
 70
     1
102
RTVSPropertyOp4
 70
     1
102
RTVSPropertyOp5
 70
     1
102
RTVSPropertyOp6
 70
     1
102
RTVSPropertyOp7
 70
     1
102
RTVSPropertyOp8
 70
     1
102
RTVSPropertyOp9
 70
     1
102
RTVSPropertyOp10
 70
     1
102
RTVSPropertyOp11
 70
     1
102
RTVSPropertyOp12
 70
     1
102
RTVSPropertyOp13
 70
     1
102
RTVSPropertyOp14
 70
     1
102
RTVSPropertyOp15
 70
     1
102
RTVSPropertyOp16
 70
     1
102
RTVSPropertyOp17
 70
     1
102
RTVSPropertyOp18
 70
     1
102
RTVSPropertyOp19
 70
     1
102
RTVSPropertyOp20
 70
     1
102
RTVSPropertyOp21
 70
     1
102
RTVSPropertyOp22
 70
     1
102
RTVSPropertyOp23
 70
     1
102
RTVSPropertyOp24
 70
     1
102
RTVSPropertyOp25
 70
     1
102
RTVSPropertyOp26
 70
     1
102
RTVSPropertyOp27
 70
     1
102
RTVSPropertyOp28
 70
     1
102
RTVSPropertyOp29
 70
     1
102
RTVSPropertyOp30
 70
     1
102
RTVSPropertyOp31
 70
     1
102
RTVSPropertyOp32
 70
     1
102
RTVSPropertyOp33
 70
     1
102
RTVSPropertyOp34
 70
     1
102
RTVSPropertyOp35
 70
     1
102
RTVSPropertyOp36
 70
     1
102
RTVSPropertyOp37
 70
     1
102
RTVSPropertyOp38
 70
     1
102
RTVSPropertyOp39
 70
     1
102
RTVSPropertyOp40
 70
     1
102
RTVSPropertyOp41
 70
     1
102
RTVSPropertyOp42
 70
     1
102
RTVSPropertyOp43
 70
     1
102
RTVSPropertyOp44
 70
     1
102
RTVSPropertyOp45
 70
     1
102
RTVSPropertyOp46
 70
     1
102
RTVSPropertyOp47
 70
     1
102
RTVSPropertyOp48
 70
     1
102
RTVSPropertyOp49
 70
     1
102
RTVSPropertyOp50
 70
     1
102
RTVSPropertyOp51
 70
     0
102
RTVSPropertyOp52
 70
     0
102
RTVSPropertyOp53
 70
     1
102
RTVSPropertyOp54
 70
     1
102
RTVSPropertyOp55
 70
     1
102
RTVSPropertyOp56
 70
     1
102
RTVSPropertyOp57
 70
     1
102
RTVSPropertyOp58
 70
     1
102
RTVSPropertyOp59
 70
     1
102
RTVSPropertyOp60
 70
     1
102
RTVSPropertyOp61
 70
     1
102
RTVSPropertyOp62
 70
     1
  0
XRECORD
  5
537C
102
{ACAD_REACTORS
330
537B
102
}
330
537B
100
AcDbXrecord
280
     1
102
RTVSPost2010Prop28
280
     0
102
RTVSPost2010PropOp28
 70
     1
102
RTVSPost2010Prop29
280
     1
102
RTVSPost2010PropOp29
 70
     1
102
RTVSPost2010Prop30
280
     1
102
RTVSPost2010PropOp30
 70
     1
102
RTVSPost2010Prop31
280
     0
102
RTVSPost2010PropOp31
 70
     1
102
RTVSPost2010Prop32
280
     0
102
RTVSPost2010PropOp32
 70
     1
102
RTVSPost2010Prop33
280
     0
102
RTVSPost2010PropOp33
 70
     1
102
RTVSPost2010Prop34
280
     0
102
RTVSPost2010PropOp34
 70
     1
102
RTVSPost2010Prop35
280
     0
102
RTVSPost2010PropOp35
 70
     1
102
RTVSPost2010Prop36
280
     0
102
RTVSPost2010PropOp36
 70
     1
102
RTVSPost2010Prop37
 90
       50
102
RTVSPost2010PropOp37
 70
     0
102
RTVSPost2010Prop38
140
0.0
102
RTVSPost2010PropOp38
 70
     0
102
RTVSPost2010Prop39
140
1.0
102
RTVSPost2010PropOp39
 70
     0
102
RTVSPost2010Prop40
 90
        0
102
RTVSPost2010PropOp40
 70
     0
102
RTVSPost2010Prop41ColorIndex
 90
       18
102
RTVSPost2010Prop41ColorRGB
 90
        0
102
RTVSPost2010PropOp41
 70
     0
102
RTVSPost2010Prop42
 90
       50
102
RTVSPost2010PropOp42
 70
     0
102
RTVSPost2010Prop43
 90
        3
102
RTVSPost2010PropOp43
 70
     0
102
RTVSPost2010Prop44ColorIndex
 90
        5
102
RTVSPost2010Prop44ColorRGB
 90
      255
102
RTVSPost2010PropOp44
 70
     0
102
RTVSPost2010Prop45
280
     0
102
RTVSPost2010PropOp45
 70
     1
102
RTVSPost2010Prop46
 90
       50
102
RTVSPost2010PropOp46
 70
     0
102
RTVSPost2010Prop47
 90
       50
102
RTVSPost2010PropOp47
 70
     0
102
RTVSPost2010Prop48
 90
       50
102
RTVSPost2010PropOp48
 70
     0
102
RTVSPost2010Prop49
280
     0
102
RTVSPost2010PropOp49
 70
     1
102
RTVSPost2010Prop50
 90
       50
102
RTVSPost2010PropOp50
 70
     0
102
RTVSPost2010Prop51ColorIndex
 90
      256
102
RTVSPost2010Prop51ColorRGB
 90
-16777216
102
RTVSPost2010PropOp51
 70
     0
102
RTVSPost2010Prop52
140
1.0
102
RTVSPost2010PropOp52
 70
     0
102
RTVSPost2010Prop53
 90
        2
102
RTVSPost2010PropOp53
 70
     0
102
RTVSPost2010Prop54
  1
strokes_ogs.tif
102
RTVSPost2010PropOp54
 70
     0
102
RTVSPost2010Prop55
280
     0
102
RTVSPost2010PropOp55
 70
     1
102
RTVSPost2010Prop56
140
1.0
102
RTVSPost2010PropOp56
 70
     0
102
RTVSPost2010Prop57
140
1.0
102
RTVSPost2010PropOp57
 70
     0
102
RTVSPropertyOp0
 70
     0
102
RTVSPropertyOp1
 70
     0
102
RTVSPropertyOp2
 70
     0
102
RTVSPropertyOp3
 70
     0
102
RTVSPropertyOp4
 70
     0
102
RTVSPropertyOp5
 70
     0
102
RTVSPropertyOp6
 70
     0
102
RTVSPropertyOp7
 70
     0
102
RTVSPropertyOp8
 70
     0
102
RTVSPropertyOp9
 70
     0
102
RTVSPropertyOp10
 70
     0
102
RTVSPropertyOp11
 70
     0
102
RTVSPropertyOp12
 70
     0
102
RTVSPropertyOp13
 70
     0
102
RTVSPropertyOp14
 70
     2
102
RTVSPropertyOp15
 70
     0
102
RTVSPropertyOp16
 70
     0
102
RTVSPropertyOp17
 70
     0
102
RTVSPropertyOp18
 70
     0
102
RTVSPropertyOp19
 70
     0
102
RTVSPropertyOp20
 70
     0
102
RTVSPropertyOp21
 70
     0
102
RTVSPropertyOp22
 70
     0
102
RTVSPropertyOp23
 70
     0
102
RTVSPropertyOp24
 70
     0
102
RTVSPropertyOp25
 70
     0
102
RTVSPropertyOp26
 70
     0
102
RTVSPropertyOp27
 70
     0
102
RTVSPropertyOp28
 70
     1
102
RTVSPropertyOp29
 70
     1
102
RTVSPropertyOp30
 70
     1
102
RTVSPropertyOp31
 70
     1
102
RTVSPropertyOp32
 70
     1
102
RTVSPropertyOp33
 70
     1
102
RTVSPropertyOp34
 70
     1
102
RTVSPropertyOp35
 70
     1
102
RTVSPropertyOp36
 70
     1
102
RTVSPropertyOp37
 70
     0
102
RTVSPropertyOp38
 70
     0
102
RTVSPropertyOp39
 70
     0
102
RTVSPropertyOp40
 70
     0
102
RTVSPropertyOp41
 70
     0
102
RTVSPropertyOp42
 70
     0
102
RTVSPropertyOp43
 70
     0
102
RTVSPropertyOp44
 70
     0
102
RTVSPropertyOp45
 70
     1
102
RTVSPropertyOp46
 70
     0
102
RTVSPropertyOp47
 70
     0
102
RTVSPropertyOp48
 70
     0
102
RTVSPropertyOp49
 70
     1
102
RTVSPropertyOp50
 70
     0
102
RTVSPropertyOp51
 70
     0
102
RTVSPropertyOp52
 70
     0
102
RTVSPropertyOp53
 70
     0
102
RTVSPropertyOp54
 70
     0
102
RTVSPropertyOp55
 70
     1
102
RTVSPropertyOp56
 70
     0
102
RTVSPropertyOp57
 70
     0
102
RTVSPropertyOp58
 70
     0
102
RTVSPropertyOp59
 70
     0
102
RTVSPropertyOp60
 70
     0
102
RTVSPropertyOp61
 70
     0
102
RTVSPropertyOp62
 70
     0
  0
XRECORD
  5
5362
102
{ACAD_REACTORS
330
5361
102
}
330
5361
100
AcDbXrecord
280
     1
102
RTVSPost2010Prop28
280
     0
102
RTVSPost2010PropOp28
 70
     1
102
RTVSPost2010Prop29
280
     1
102
RTVSPost2010PropOp29
 70
     1
102
RTVSPost2010Prop30
280
     1
102
RTVSPost2010PropOp30
 70
     1
102
RTVSPost2010Prop31
280
     0
102
RTVSPost2010PropOp31
 70
     1
102
RTVSPost2010Prop32
280
     0
102
RTVSPost2010PropOp32
 70
     1
102
RTVSPost2010Prop33
280
     0
102
RTVSPost2010PropOp33
 70
     1
102
RTVSPost2010Prop34
280
     0
102
RTVSPost2010PropOp34
 70
     1
102
RTVSPost2010Prop35
280
     0
102
RTVSPost2010PropOp35
 70
     1
102
RTVSPost2010Prop36
280
     0
102
RTVSPost2010PropOp36
 70
     1
102
RTVSPost2010Prop37
 90
       50
102
RTVSPost2010PropOp37
 70
     1
102
RTVSPost2010Prop38
140
0.0
102
RTVSPost2010PropOp38
 70
     1
102
RTVSPost2010Prop39
140
1.0
102
RTVSPost2010PropOp39
 70
     1
102
RTVSPost2010Prop40
 90
        0
102
RTVSPost2010PropOp40
 70
     1
102
RTVSPost2010Prop41ColorIndex
 90
       18
102
RTVSPost2010Prop41ColorRGB
 90
        0
102
RTVSPost2010PropOp41
 70
     1
102
RTVSPost2010Prop42
 90
       50
102
RTVSPost2010PropOp42
 70
     1
102
RTVSPost2010Prop43
 90
        3
102
RTVSPost2010PropOp43
 70
     1
102
RTVSPost2010Prop44ColorIndex
 90
        5
102
RTVSPost2010Prop44ColorRGB
 90
      255
102
RTVSPost2010PropOp44
 70
     1
102
RTVSPost2010Prop45
280
     0
102
RTVSPost2010PropOp45
 70
     1
102
RTVSPost2010Prop46
 90
       50
102
RTVSPost2010PropOp46
 70
     1
102
RTVSPost2010Prop47
 90
       50
102
RTVSPost2010PropOp47
 70
     1
102
RTVSPost2010Prop48
 90
       50
102
RTVSPost2010PropOp48
 70
     1
102
RTVSPost2010Prop49
280
     0
102
RTVSPost2010PropOp49
 70
     1
102
RTVSPost2010Prop50
 90
       50
102
RTVSPost2010PropOp50
 70
     1
102
RTVSPost2010Prop51ColorIndex
 90
      256
102
RTVSPost2010Prop51ColorRGB
 90
-16777216
102
RTVSPost2010PropOp51
 70
     0
102
RTVSPost2010Prop52
140
1.0
102
RTVSPost2010PropOp52
 70
     0
102
RTVSPost2010Prop53
 90
        2
102
RTVSPost2010PropOp53
 70
     1
102
RTVSPost2010Prop54
  1
strokes_ogs.tif
102
RTVSPost2010PropOp54
 70
     1
102
RTVSPost2010Prop55
280
     0
102
RTVSPost2010PropOp55
 70
     1
102
RTVSPost2010Prop56
140
1.0
102
RTVSPost2010PropOp56
 70
     1
102
RTVSPost2010Prop57
140
1.0
102
RTVSPost2010PropOp57
 70
     1
102
RTVSPropertyOp0
 70
     1
102
RTVSPropertyOp1
 70
     1
102
RTVSPropertyOp2
 70
     1
102
RTVSPropertyOp3
 70
     1
102
RTVSPropertyOp4
 70
     1
102
RTVSPropertyOp5
 70
     1
102
RTVSPropertyOp6
 70
     1
102
RTVSPropertyOp7
 70
     1
102
RTVSPropertyOp8
 70
     1
102
RTVSPropertyOp9
 70
     1
102
RTVSPropertyOp10
 70
     1
102
RTVSPropertyOp11
 70
     1
102
RTVSPropertyOp12
 70
     1
102
RTVSPropertyOp13
 70
     1
102
RTVSPropertyOp14
 70
     1
102
RTVSPropertyOp15
 70
     1
102
RTVSPropertyOp16
 70
     1
102
RTVSPropertyOp17
 70
     1
102
RTVSPropertyOp18
 70
     1
102
RTVSPropertyOp19
 70
     1
102
RTVSPropertyOp20
 70
     1
102
RTVSPropertyOp21
 70
     1
102
RTVSPropertyOp22
 70
     1
102
RTVSPropertyOp23
 70
     1
102
RTVSPropertyOp24
 70
     1
102
RTVSPropertyOp25
 70
     1
102
RTVSPropertyOp26
 70
     1
102
RTVSPropertyOp27
 70
     1
102
RTVSPropertyOp28
 70
     1
102
RTVSPropertyOp29
 70
     1
102
RTVSPropertyOp30
 70
     1
102
RTVSPropertyOp31
 70
     1
102
RTVSPropertyOp32
 70
     1
102
RTVSPropertyOp33
 70
     1
102
RTVSPropertyOp34
 70
     1
102
RTVSPropertyOp35
 70
     1
102
RTVSPropertyOp36
 70
     1
102
RTVSPropertyOp37
 70
     1
102
RTVSPropertyOp38
 70
     1
102
RTVSPropertyOp39
 70
     1
102
RTVSPropertyOp40
 70
     1
102
RTVSPropertyOp41
 70
     1
102
RTVSPropertyOp42
 70
     1
102
RTVSPropertyOp43
 70
     1
102
RTVSPropertyOp44
 70
     1
102
RTVSPropertyOp45
 70
     1
102
RTVSPropertyOp46
 70
     1
102
RTVSPropertyOp47
 70
     1
102
RTVSPropertyOp48
 70
     1
102
RTVSPropertyOp49
 70
     1
102
RTVSPropertyOp50
 70
     1
102
RTVSPropertyOp51
 70
     0
102
RTVSPropertyOp52
 70
     0
102
RTVSPropertyOp53
 70
     1
102
RTVSPropertyOp54
 70
     1
102
RTVSPropertyOp55
 70
     1
102
RTVSPropertyOp56
 70
     1
102
RTVSPropertyOp57
 70
     1
102
RTVSPropertyOp58
 70
     1
102
RTVSPropertyOp59
 70
     1
102
RTVSPropertyOp60
 70
     1
102
RTVSPropertyOp61
 70
     1
102
RTVSPropertyOp62
 70
     1
  0
XRECORD
  5
5378
102
{ACAD_REACTORS
330
5377
102
}
330
5377
100
AcDbXrecord
280
     1
102
RTVSPost2010Prop28
280
     0
102
RTVSPost2010PropOp28
 70
     1
102
RTVSPost2010Prop29
280
     1
102
RTVSPost2010PropOp29
 70
     1
102
RTVSPost2010Prop30
280
     1
102
RTVSPost2010PropOp30
 70
     1
102
RTVSPost2010Prop31
280
     0
102
RTVSPost2010PropOp31
 70
     1
102
RTVSPost2010Prop32
280
     0
102
RTVSPost2010PropOp32
 70
     1
102
RTVSPost2010Prop33
280
     0
102
RTVSPost2010PropOp33
 70
     1
102
RTVSPost2010Prop34
280
     0
102
RTVSPost2010PropOp34
 70
     1
102
RTVSPost2010Prop35
280
     0
102
RTVSPost2010PropOp35
 70
     1
102
RTVSPost2010Prop36
280
     0
102
RTVSPost2010PropOp36
 70
     1
102
RTVSPost2010Prop37
 90
       50
102
RTVSPost2010PropOp37
 70
     1
102
RTVSPost2010Prop38
140
0.0
102
RTVSPost2010PropOp38
 70
     1
102
RTVSPost2010Prop39
140
1.0
102
RTVSPost2010PropOp39
 70
     1
102
RTVSPost2010Prop40
 90
        0
102
RTVSPost2010PropOp40
 70
     1
102
RTVSPost2010Prop41ColorIndex
 90
       18
102
RTVSPost2010Prop41ColorRGB
 90
        0
102
RTVSPost2010PropOp41
 70
     1
102
RTVSPost2010Prop42
 90
       50
102
RTVSPost2010PropOp42
 70
     1
102
RTVSPost2010Prop43
 90
        3
102
RTVSPost2010PropOp43
 70
     1
102
RTVSPost2010Prop44ColorIndex
 90
        5
102
RTVSPost2010Prop44ColorRGB
 90
      255
102
RTVSPost2010PropOp44
 70
     1
102
RTVSPost2010Prop45
280
     0
102
RTVSPost2010PropOp45
 70
     1
102
RTVSPost2010Prop46
 90
       50
102
RTVSPost2010PropOp46
 70
     1
102
RTVSPost2010Prop47
 90
       50
102
RTVSPost2010PropOp47
 70
     1
102
RTVSPost2010Prop48
 90
       50
102
RTVSPost2010PropOp48
 70
     1
102
RTVSPost2010Prop49
280
     0
102
RTVSPost2010PropOp49
 70
     1
102
RTVSPost2010Prop50
 90
       50
102
RTVSPost2010PropOp50
 70
     1
102
RTVSPost2010Prop51ColorIndex
 90
      256
102
RTVSPost2010Prop51ColorRGB
 90
-16777216
102
RTVSPost2010PropOp51
 70
     0
102
RTVSPost2010Prop52
140
1.0
102
RTVSPost2010PropOp52
 70
     0
102
RTVSPost2010Prop53
 90
        2
102
RTVSPost2010PropOp53
 70
     1
102
RTVSPost2010Prop54
  1
strokes_ogs.tif
102
RTVSPost2010PropOp54
 70
     1
102
RTVSPost2010Prop55
280
     0
102
RTVSPost2010PropOp55
 70
     1
102
RTVSPost2010Prop56
140
1.0
102
RTVSPost2010PropOp56
 70
     1
102
RTVSPost2010Prop57
140
1.0
102
RTVSPost2010PropOp57
 70
     1
102
RTVSPropertyOp0
 70
     1
102
RTVSPropertyOp1
 70
     1
102
RTVSPropertyOp2
 70
     1
102
RTVSPropertyOp3
 70
     1
102
RTVSPropertyOp4
 70
     1
102
RTVSPropertyOp5
 70
     1
102
RTVSPropertyOp6
 70
     1
102
RTVSPropertyOp7
 70
     1
102
RTVSPropertyOp8
 70
     1
102
RTVSPropertyOp9
 70
     1
102
RTVSPropertyOp10
 70
     1
102
RTVSPropertyOp11
 70
     1
102
RTVSPropertyOp12
 70
     1
102
RTVSPropertyOp13
 70
     1
102
RTVSPropertyOp14
 70
     1
102
RTVSPropertyOp15
 70
     1
102
RTVSPropertyOp16
 70
     1
102
RTVSPropertyOp17
 70
     1
102
RTVSPropertyOp18
 70
     1
102
RTVSPropertyOp19
 70
     1
102
RTVSPropertyOp20
 70
     1
102
RTVSPropertyOp21
 70
     1
102
RTVSPropertyOp22
 70
     1
102
RTVSPropertyOp23
 70
     1
102
RTVSPropertyOp24
 70
     1
102
RTVSPropertyOp25
 70
     1
102
RTVSPropertyOp26
 70
     1
102
RTVSPropertyOp27
 70
     1
102
RTVSPropertyOp28
 70
     1
102
RTVSPropertyOp29
 70
     1
102
RTVSPropertyOp30
 70
     1
102
RTVSPropertyOp31
 70
     1
102
RTVSPropertyOp32
 70
     1
102
RTVSPropertyOp33
 70
     1
102
RTVSPropertyOp34
 70
     1
102
RTVSPropertyOp35
 70
     1
102
RTVSPropertyOp36
 70
     1
102
RTVSPropertyOp37
 70
     1
102
RTVSPropertyOp38
 70
     1
102
RTVSPropertyOp39
 70
     1
102
RTVSPropertyOp40
 70
     1
102
RTVSPropertyOp41
 70
     1
102
RTVSPropertyOp42
 70
     1
102
RTVSPropertyOp43
 70
     1
102
RTVSPropertyOp44
 70
     1
102
RTVSPropertyOp45
 70
     1
102
RTVSPropertyOp46
 70
     1
102
RTVSPropertyOp47
 70
     1
102
RTVSPropertyOp48
 70
     1
102
RTVSPropertyOp49
 70
     1
102
RTVSPropertyOp50
 70
     1
102
RTVSPropertyOp51
 70
     0
102
RTVSPropertyOp52
 70
     0
102
RTVSPropertyOp53
 70
     1
102
RTVSPropertyOp54
 70
     1
102
RTVSPropertyOp55
 70
     1
102
RTVSPropertyOp56
 70
     1
102
RTVSPropertyOp57
 70
     1
102
RTVSPropertyOp58
 70
     1
102
RTVSPropertyOp59
 70
     1
102
RTVSPropertyOp60
 70
     1
102
RTVSPropertyOp61
 70
     1
102
RTVSPropertyOp62
 70
     1
  0
XRECORD
  5
5376
102
{ACAD_REACTORS
330
5375
102
}
330
5375
100
AcDbXrecord
280
     1
102
RTVSPost2010Prop28
280
     0
102
RTVSPost2010PropOp28
 70
     1
102
RTVSPost2010Prop29
280
     1
102
RTVSPost2010PropOp29
 70
     1
102
RTVSPost2010Prop30
280
     1
102
RTVSPost2010PropOp30
 70
     1
102
RTVSPost2010Prop31
280
     0
102
RTVSPost2010PropOp31
 70
     1
102
RTVSPost2010Prop32
280
     0
102
RTVSPost2010PropOp32
 70
     1
102
RTVSPost2010Prop33
280
     0
102
RTVSPost2010PropOp33
 70
     1
102
RTVSPost2010Prop34
280
     0
102
RTVSPost2010PropOp34
 70
     1
102
RTVSPost2010Prop35
280
     0
102
RTVSPost2010PropOp35
 70
     1
102
RTVSPost2010Prop36
280
     0
102
RTVSPost2010PropOp36
 70
     1
102
RTVSPost2010Prop37
 90
       50
102
RTVSPost2010PropOp37
 70
     1
102
RTVSPost2010Prop38
140
0.0
102
RTVSPost2010PropOp38
 70
     1
102
RTVSPost2010Prop39
140
1.0
102
RTVSPost2010PropOp39
 70
     1
102
RTVSPost2010Prop40
 90
        0
102
RTVSPost2010PropOp40
 70
     1
102
RTVSPost2010Prop41ColorIndex
 90
       18
102
RTVSPost2010Prop41ColorRGB
 90
        0
102
RTVSPost2010PropOp41
 70
     1
102
RTVSPost2010Prop42
 90
       50
102
RTVSPost2010PropOp42
 70
     1
102
RTVSPost2010Prop43
 90
        3
102
RTVSPost2010PropOp43
 70
     1
102
RTVSPost2010Prop44ColorIndex
 90
        5
102
RTVSPost2010Prop44ColorRGB
 90
      255
102
RTVSPost2010PropOp44
 70
     1
102
RTVSPost2010Prop45
280
     0
102
RTVSPost2010PropOp45
 70
     1
102
RTVSPost2010Prop46
 90
       50
102
RTVSPost2010PropOp46
 70
     1
102
RTVSPost2010Prop47
 90
       50
102
RTVSPost2010PropOp47
 70
     1
102
RTVSPost2010Prop48
 90
       50
102
RTVSPost2010PropOp48
 70
     1
102
RTVSPost2010Prop49
280
     0
102
RTVSPost2010PropOp49
 70
     1
102
RTVSPost2010Prop50
 90
       50
102
RTVSPost2010PropOp50
 70
     1
102
RTVSPost2010Prop51ColorIndex
 90
      256
102
RTVSPost2010Prop51ColorRGB
 90
-16777216
102
RTVSPost2010PropOp51
 70
     0
102
RTVSPost2010Prop52
140
1.0
102
RTVSPost2010PropOp52
 70
     0
102
RTVSPost2010Prop53
 90
        2
102
RTVSPost2010PropOp53
 70
     1
102
RTVSPost2010Prop54
  1
strokes_ogs.tif
102
RTVSPost2010PropOp54
 70
     1
102
RTVSPost2010Prop55
280
     0
102
RTVSPost2010PropOp55
 70
     1
102
RTVSPost2010Prop56
140
1.0
102
RTVSPost2010PropOp56
 70
     1
102
RTVSPost2010Prop57
140
1.0
102
RTVSPost2010PropOp57
 70
     1
102
RTVSPropertyOp0
 70
     1
102
RTVSPropertyOp1
 70
     1
102
RTVSPropertyOp2
 70
     1
102
RTVSPropertyOp3
 70
     1
102
RTVSPropertyOp4
 70
     1
102
RTVSPropertyOp5
 70
     1
102
RTVSPropertyOp6
 70
     1
102
RTVSPropertyOp7
 70
     1
102
RTVSPropertyOp8
 70
     1
102
RTVSPropertyOp9
 70
     1
102
RTVSPropertyOp10
 70
     1
102
RTVSPropertyOp11
 70
     1
102
RTVSPropertyOp12
 70
     1
102
RTVSPropertyOp13
 70
     1
102
RTVSPropertyOp14
 70
     1
102
RTVSPropertyOp15
 70
     1
102
RTVSPropertyOp16
 70
     1
102
RTVSPropertyOp17
 70
     1
102
RTVSPropertyOp18
 70
     1
102
RTVSPropertyOp19
 70
     1
102
RTVSPropertyOp20
 70
     1
102
RTVSPropertyOp21
 70
     1
102
RTVSPropertyOp22
 70
     1
102
RTVSPropertyOp23
 70
     1
102
RTVSPropertyOp24
 70
     1
102
RTVSPropertyOp25
 70
     1
102
RTVSPropertyOp26
 70
     1
102
RTVSPropertyOp27
 70
     1
102
RTVSPropertyOp28
 70
     1
102
RTVSPropertyOp29
 70
     1
102
RTVSPropertyOp30
 70
     1
102
RTVSPropertyOp31
 70
     1
102
RTVSPropertyOp32
 70
     1
102
RTVSPropertyOp33
 70
     1
102
RTVSPropertyOp34
 70
     1
102
RTVSPropertyOp35
 70
     1
102
RTVSPropertyOp36
 70
     1
102
RTVSPropertyOp37
 70
     1
102
RTVSPropertyOp38
 70
     1
102
RTVSPropertyOp39
 70
     1
102
RTVSPropertyOp40
 70
     1
102
RTVSPropertyOp41
 70
     1
102
RTVSPropertyOp42
 70
     1
102
RTVSPropertyOp43
 70
     1
102
RTVSPropertyOp44
 70
     1
102
RTVSPropertyOp45
 70
     1
102
RTVSPropertyOp46
 70
     1
102
RTVSPropertyOp47
 70
     1
102
RTVSPropertyOp48
 70
     1
102
RTVSPropertyOp49
 70
     1
102
RTVSPropertyOp50
 70
     1
102
RTVSPropertyOp51
 70
     0
102
RTVSPropertyOp52
 70
     0
102
RTVSPropertyOp53
 70
     1
102
RTVSPropertyOp54
 70
     1
102
RTVSPropertyOp55
 70
     1
102
RTVSPropertyOp56
 70
     1
102
RTVSPropertyOp57
 70
     1
102
RTVSPropertyOp58
 70
     1
102
RTVSPropertyOp59
 70
     1
102
RTVSPropertyOp60
 70
     1
102
RTVSPropertyOp61
 70
     1
102
RTVSPropertyOp62
 70
     1
  0
XRECORD
  5
5370
102
{ACAD_REACTORS
330
536F
102
}
330
536F
100
AcDbXrecord
280
     1
102
RTVSPost2010Prop28
280
     0
102
RTVSPost2010PropOp28
 70
     1
102
RTVSPost2010Prop29
280
     1
102
RTVSPost2010PropOp29
 70
     1
102
RTVSPost2010Prop30
280
     1
102
RTVSPost2010PropOp30
 70
     1
102
RTVSPost2010Prop31
280
     0
102
RTVSPost2010PropOp31
 70
     1
102
RTVSPost2010Prop32
280
     0
102
RTVSPost2010PropOp32
 70
     1
102
RTVSPost2010Prop33
280
     0
102
RTVSPost2010PropOp33
 70
     1
102
RTVSPost2010Prop34
280
     0
102
RTVSPost2010PropOp34
 70
     1
102
RTVSPost2010Prop35
280
     0
102
RTVSPost2010PropOp35
 70
     1
102
RTVSPost2010Prop36
280
     0
102
RTVSPost2010PropOp36
 70
     1
102
RTVSPost2010Prop37
 90
       50
102
RTVSPost2010PropOp37
 70
     1
102
RTVSPost2010Prop38
140
0.0
102
RTVSPost2010PropOp38
 70
     1
102
RTVSPost2010Prop39
140
1.0
102
RTVSPost2010PropOp39
 70
     1
102
RTVSPost2010Prop40
 90
        0
102
RTVSPost2010PropOp40
 70
     1
102
RTVSPost2010Prop41ColorIndex
 90
       18
102
RTVSPost2010Prop41ColorRGB
 90
        0
102
RTVSPost2010PropOp41
 70
     1
102
RTVSPost2010Prop42
 90
       50
102
RTVSPost2010PropOp42
 70
     1
102
RTVSPost2010Prop43
 90
        3
102
RTVSPost2010PropOp43
 70
     1
102
RTVSPost2010Prop44ColorIndex
 90
        5
102
RTVSPost2010Prop44ColorRGB
 90
      255
102
RTVSPost2010PropOp44
 70
     1
102
RTVSPost2010Prop45
280
     0
102
RTVSPost2010PropOp45
 70
     1
102
RTVSPost2010Prop46
 90
       50
102
RTVSPost2010PropOp46
 70
     1
102
RTVSPost2010Prop47
 90
       50
102
RTVSPost2010PropOp47
 70
     1
102
RTVSPost2010Prop48
 90
       50
102
RTVSPost2010PropOp48
 70
     1
102
RTVSPost2010Prop49
280
     0
102
RTVSPost2010PropOp49
 70
     1
102
RTVSPost2010Prop50
 90
       50
102
RTVSPost2010PropOp50
 70
     1
102
RTVSPost2010Prop51ColorIndex
 90
      256
102
RTVSPost2010Prop51ColorRGB
 90
-16777216
102
RTVSPost2010PropOp51
 70
     0
102
RTVSPost2010Prop52
140
1.0
102
RTVSPost2010PropOp52
 70
     0
102
RTVSPost2010Prop53
 90
        2
102
RTVSPost2010PropOp53
 70
     1
102
RTVSPost2010Prop54
  1
strokes_ogs.tif
102
RTVSPost2010PropOp54
 70
     1
102
RTVSPost2010Prop55
280
     0
102
RTVSPost2010PropOp55
 70
     1
102
RTVSPost2010Prop56
140
1.0
102
RTVSPost2010PropOp56
 70
     1
102
RTVSPost2010Prop57
140
1.0
102
RTVSPost2010PropOp57
 70
     1
102
RTVSPropertyOp0
 70
     1
102
RTVSPropertyOp1
 70
     1
102
RTVSPropertyOp2
 70
     1
102
RTVSPropertyOp3
 70
     1
102
RTVSPropertyOp4
 70
     1
102
RTVSPropertyOp5
 70
     1
102
RTVSPropertyOp6
 70
     1
102
RTVSPropertyOp7
 70
     1
102
RTVSPropertyOp8
 70
     1
102
RTVSPropertyOp9
 70
     1
102
RTVSPropertyOp10
 70
     1
102
RTVSPropertyOp11
 70
     1
102
RTVSPropertyOp12
 70
     1
102
RTVSPropertyOp13
 70
     1
102
RTVSPropertyOp14
 70
     1
102
RTVSPropertyOp15
 70
     1
102
RTVSPropertyOp16
 70
     1
102
RTVSPropertyOp17
 70
     1
102
RTVSPropertyOp18
 70
     1
102
RTVSPropertyOp19
 70
     1
102
RTVSPropertyOp20
 70
     1
102
RTVSPropertyOp21
 70
     1
102
RTVSPropertyOp22
 70
     1
102
RTVSPropertyOp23
 70
     1
102
RTVSPropertyOp24
 70
     1
102
RTVSPropertyOp25
 70
     1
102
RTVSPropertyOp26
 70
     1
102
RTVSPropertyOp27
 70
     1
102
RTVSPropertyOp28
 70
     1
102
RTVSPropertyOp29
 70
     1
102
RTVSPropertyOp30
 70
     1
102
RTVSPropertyOp31
 70
     1
102
RTVSPropertyOp32
 70
     1
102
RTVSPropertyOp33
 70
     1
102
RTVSPropertyOp34
 70
     1
102
RTVSPropertyOp35
 70
     1
102
RTVSPropertyOp36
 70
     1
102
RTVSPropertyOp37
 70
     1
102
RTVSPropertyOp38
 70
     1
102
RTVSPropertyOp39
 70
     1
102
RTVSPropertyOp40
 70
     1
102
RTVSPropertyOp41
 70
     1
102
RTVSPropertyOp42
 70
     1
102
RTVSPropertyOp43
 70
     1
102
RTVSPropertyOp44
 70
     1
102
RTVSPropertyOp45
 70
     1
102
RTVSPropertyOp46
 70
     1
102
RTVSPropertyOp47
 70
     1
102
RTVSPropertyOp48
 70
     1
102
RTVSPropertyOp49
 70
     1
102
RTVSPropertyOp50
 70
     1
102
RTVSPropertyOp51
 70
     0
102
RTVSPropertyOp52
 70
     0
102
RTVSPropertyOp53
 70
     1
102
RTVSPropertyOp54
 70
     1
102
RTVSPropertyOp55
 70
     1
102
RTVSPropertyOp56
 70
     1
102
RTVSPropertyOp57
 70
     1
102
RTVSPropertyOp58
 70
     1
102
RTVSPropertyOp59
 70
     1
102
RTVSPropertyOp60
 70
     1
102
RTVSPropertyOp61
 70
     1
102
RTVSPropertyOp62
 70
     1
  0
XRECORD
  5
5372
102
{ACAD_REACTORS
330
5371
102
}
330
5371
100
AcDbXrecord
280
     1
102
RTVSPost2010Prop28
280
     0
102
RTVSPost2010PropOp28
 70
     1
102
RTVSPost2010Prop29
280
     1
102
RTVSPost2010PropOp29
 70
     1
102
RTVSPost2010Prop30
280
     1
102
RTVSPost2010PropOp30
 70
     1
102
RTVSPost2010Prop31
280
     0
102
RTVSPost2010PropOp31
 70
     1
102
RTVSPost2010Prop32
280
     0
102
RTVSPost2010PropOp32
 70
     1
102
RTVSPost2010Prop33
280
     0
102
RTVSPost2010PropOp33
 70
     1
102
RTVSPost2010Prop34
280
     0
102
RTVSPost2010PropOp34
 70
     1
102
RTVSPost2010Prop35
280
     0
102
RTVSPost2010PropOp35
 70
     1
102
RTVSPost2010Prop36
280
     0
102
RTVSPost2010PropOp36
 70
     1
102
RTVSPost2010Prop37
 90
       50
102
RTVSPost2010PropOp37
 70
     1
102
RTVSPost2010Prop38
140
0.0
102
RTVSPost2010PropOp38
 70
     1
102
RTVSPost2010Prop39
140
1.0
102
RTVSPost2010PropOp39
 70
     1
102
RTVSPost2010Prop40
 90
        0
102
RTVSPost2010PropOp40
 70
     1
102
RTVSPost2010Prop41ColorIndex
 90
       18
102
RTVSPost2010Prop41ColorRGB
 90
        0
102
RTVSPost2010PropOp41
 70
     1
102
RTVSPost2010Prop42
 90
       50
102
RTVSPost2010PropOp42
 70
     1
102
RTVSPost2010Prop43
 90
        3
102
RTVSPost2010PropOp43
 70
     1
102
RTVSPost2010Prop44ColorIndex
 90
        5
102
RTVSPost2010Prop44ColorRGB
 90
      255
102
RTVSPost2010PropOp44
 70
     1
102
RTVSPost2010Prop45
280
     0
102
RTVSPost2010PropOp45
 70
     1
102
RTVSPost2010Prop46
 90
       50
102
RTVSPost2010PropOp46
 70
     1
102
RTVSPost2010Prop47
 90
       50
102
RTVSPost2010PropOp47
 70
     1
102
RTVSPost2010Prop48
 90
       50
102
RTVSPost2010PropOp48
 70
     1
102
RTVSPost2010Prop49
280
     0
102
RTVSPost2010PropOp49
 70
     1
102
RTVSPost2010Prop50
 90
       50
102
RTVSPost2010PropOp50
 70
     1
102
RTVSPost2010Prop51ColorIndex
 90
      256
102
RTVSPost2010Prop51ColorRGB
 90
-16777216
102
RTVSPost2010PropOp51
 70
     0
102
RTVSPost2010Prop52
140
1.0
102
RTVSPost2010PropOp52
 70
     0
102
RTVSPost2010Prop53
 90
        2
102
RTVSPost2010PropOp53
 70
     1
102
RTVSPost2010Prop54
  1
strokes_ogs.tif
102
RTVSPost2010PropOp54
 70
     1
102
RTVSPost2010Prop55
280
     0
102
RTVSPost2010PropOp55
 70
     1
102
RTVSPost2010Prop56
140
1.0
102
RTVSPost2010PropOp56
 70
     1
102
RTVSPost2010Prop57
140
1.0
102
RTVSPost2010PropOp57
 70
     1
102
RTVSPropertyOp0
 70
     1
102
RTVSPropertyOp1
 70
     1
102
RTVSPropertyOp2
 70
     1
102
RTVSPropertyOp3
 70
     1
102
RTVSPropertyOp4
 70
     1
102
RTVSPropertyOp5
 70
     1
102
RTVSPropertyOp6
 70
     1
102
RTVSPropertyOp7
 70
     1
102
RTVSPropertyOp8
 70
     1
102
RTVSPropertyOp9
 70
     1
102
RTVSPropertyOp10
 70
     1
102
RTVSPropertyOp11
 70
     1
102
RTVSPropertyOp12
 70
     1
102
RTVSPropertyOp13
 70
     1
102
RTVSPropertyOp14
 70
     1
102
RTVSPropertyOp15
 70
     1
102
RTVSPropertyOp16
 70
     1
102
RTVSPropertyOp17
 70
     1
102
RTVSPropertyOp18
 70
     1
102
RTVSPropertyOp19
 70
     1
102
RTVSPropertyOp20
 70
     1
102
RTVSPropertyOp21
 70
     1
102
RTVSPropertyOp22
 70
     1
102
RTVSPropertyOp23
 70
     1
102
RTVSPropertyOp24
 70
     1
102
RTVSPropertyOp25
 70
     1
102
RTVSPropertyOp26
 70
     1
102
RTVSPropertyOp27
 70
     1
102
RTVSPropertyOp28
 70
     1
102
RTVSPropertyOp29
 70
     1
102
RTVSPropertyOp30
 70
     1
102
RTVSPropertyOp31
 70
     1
102
RTVSPropertyOp32
 70
     1
102
RTVSPropertyOp33
 70
     1
102
RTVSPropertyOp34
 70
     1
102
RTVSPropertyOp35
 70
     1
102
RTVSPropertyOp36
 70
     1
102
RTVSPropertyOp37
 70
     1
102
RTVSPropertyOp38
 70
     1
102
RTVSPropertyOp39
 70
     1
102
RTVSPropertyOp40
 70
     1
102
RTVSPropertyOp41
 70
     1
102
RTVSPropertyOp42
 70
     1
102
RTVSPropertyOp43
 70
     1
102
RTVSPropertyOp44
 70
     1
102
RTVSPropertyOp45
 70
     1
102
RTVSPropertyOp46
 70
     1
102
RTVSPropertyOp47
 70
     1
102
RTVSPropertyOp48
 70
     1
102
RTVSPropertyOp49
 70
     1
102
RTVSPropertyOp50
 70
     1
102
RTVSPropertyOp51
 70
     0
102
RTVSPropertyOp52
 70
     0
102
RTVSPropertyOp53
 70
     1
102
RTVSPropertyOp54
 70
     1
102
RTVSPropertyOp55
 70
     1
102
RTVSPropertyOp56
 70
     1
102
RTVSPropertyOp57
 70
     1
102
RTVSPropertyOp58
 70
     1
102
RTVSPropertyOp59
 70
     1
102
RTVSPropertyOp60
 70
     1
102
RTVSPropertyOp61
 70
     1
102
RTVSPropertyOp62
 70
     1
  0
XRECORD
  5
5368
102
{ACAD_REACTORS
330
5367
102
}
330
5367
100
AcDbXrecord
280
     1
102
RTVSPost2010Prop28
280
     0
102
RTVSPost2010PropOp28
 70
     1
102
RTVSPost2010Prop29
280
     1
102
RTVSPost2010PropOp29
 70
     1
102
RTVSPost2010Prop30
280
     1
102
RTVSPost2010PropOp30
 70
     1
102
RTVSPost2010Prop31
280
     0
102
RTVSPost2010PropOp31
 70
     1
102
RTVSPost2010Prop32
280
     0
102
RTVSPost2010PropOp32
 70
     1
102
RTVSPost2010Prop33
280
     0
102
RTVSPost2010PropOp33
 70
     1
102
RTVSPost2010Prop34
280
     0
102
RTVSPost2010PropOp34
 70
     1
102
RTVSPost2010Prop35
280
     0
102
RTVSPost2010PropOp35
 70
     1
102
RTVSPost2010Prop36
280
     0
102
RTVSPost2010PropOp36
 70
     1
102
RTVSPost2010Prop37
 90
       50
102
RTVSPost2010PropOp37
 70
     1
102
RTVSPost2010Prop38
140
0.0
102
RTVSPost2010PropOp38
 70
     1
102
RTVSPost2010Prop39
140
1.0
102
RTVSPost2010PropOp39
 70
     1
102
RTVSPost2010Prop40
 90
        0
102
RTVSPost2010PropOp40
 70
     1
102
RTVSPost2010Prop41ColorIndex
 90
       18
102
RTVSPost2010Prop41ColorRGB
 90
        0
102
RTVSPost2010PropOp41
 70
     1
102
RTVSPost2010Prop42
 90
       50
102
RTVSPost2010PropOp42
 70
     1
102
RTVSPost2010Prop43
 90
        3
102
RTVSPost2010PropOp43
 70
     1
102
RTVSPost2010Prop44ColorIndex
 90
        5
102
RTVSPost2010Prop44ColorRGB
 90
      255
102
RTVSPost2010PropOp44
 70
     1
102
RTVSPost2010Prop45
280
     0
102
RTVSPost2010PropOp45
 70
     1
102
RTVSPost2010Prop46
 90
       50
102
RTVSPost2010PropOp46
 70
     1
102
RTVSPost2010Prop47
 90
       50
102
RTVSPost2010PropOp47
 70
     1
102
RTVSPost2010Prop48
 90
       50
102
RTVSPost2010PropOp48
 70
     1
102
RTVSPost2010Prop49
280
     0
102
RTVSPost2010PropOp49
 70
     1
102
RTVSPost2010Prop50
 90
       50
102
RTVSPost2010PropOp50
 70
     1
102
RTVSPost2010Prop51ColorIndex
 90
      256
102
RTVSPost2010Prop51ColorRGB
 90
-16777216
102
RTVSPost2010PropOp51
 70
     0
102
RTVSPost2010Prop52
140
1.0
102
RTVSPost2010PropOp52
 70
     0
102
RTVSPost2010Prop53
 90
        2
102
RTVSPost2010PropOp53
 70
     1
102
RTVSPost2010Prop54
  1
strokes_ogs.tif
102
RTVSPost2010PropOp54
 70
     1
102
RTVSPost2010Prop55
280
     0
102
RTVSPost2010PropOp55
 70
     1
102
RTVSPost2010Prop56
140
1.0
102
RTVSPost2010PropOp56
 70
     1
102
RTVSPost2010Prop57
140
1.0
102
RTVSPost2010PropOp57
 70
     1
102
RTVSPropertyOp0
 70
     1
102
RTVSPropertyOp1
 70
     1
102
RTVSPropertyOp2
 70
     1
102
RTVSPropertyOp3
 70
     1
102
RTVSPropertyOp4
 70
     1
102
RTVSPropertyOp5
 70
     1
102
RTVSPropertyOp6
 70
     1
102
RTVSPropertyOp7
 70
     1
102
RTVSPropertyOp8
 70
     1
102
RTVSPropertyOp9
 70
     1
102
RTVSPropertyOp10
 70
     1
102
RTVSPropertyOp11
 70
     1
102
RTVSPropertyOp12
 70
     1
102
RTVSPropertyOp13
 70
     1
102
RTVSPropertyOp14
 70
     1
102
RTVSPropertyOp15
 70
     1
102
RTVSPropertyOp16
 70
     1
102
RTVSPropertyOp17
 70
     1
102
RTVSPropertyOp18
 70
     1
102
RTVSPropertyOp19
 70
     1
102
RTVSPropertyOp20
 70
     1
102
RTVSPropertyOp21
 70
     1
102
RTVSPropertyOp22
 70
     1
102
RTVSPropertyOp23
 70
     1
102
RTVSPropertyOp24
 70
     1
102
RTVSPropertyOp25
 70
     1
102
RTVSPropertyOp26
 70
     1
102
RTVSPropertyOp27
 70
     1
102
RTVSPropertyOp28
 70
     1
102
RTVSPropertyOp29
 70
     1
102
RTVSPropertyOp30
 70
     1
102
RTVSPropertyOp31
 70
     1
102
RTVSPropertyOp32
 70
     1
102
RTVSPropertyOp33
 70
     1
102
RTVSPropertyOp34
 70
     1
102
RTVSPropertyOp35
 70
     1
102
RTVSPropertyOp36
 70
     1
102
RTVSPropertyOp37
 70
     1
102
RTVSPropertyOp38
 70
     1
102
RTVSPropertyOp39
 70
     1
102
RTVSPropertyOp40
 70
     1
102
RTVSPropertyOp41
 70
     1
102
RTVSPropertyOp42
 70
     1
102
RTVSPropertyOp43
 70
     1
102
RTVSPropertyOp44
 70
     1
102
RTVSPropertyOp45
 70
     1
102
RTVSPropertyOp46
 70
     1
102
RTVSPropertyOp47
 70
     1
102
RTVSPropertyOp48
 70
     1
102
RTVSPropertyOp49
 70
     1
102
RTVSPropertyOp50
 70
     1
102
RTVSPropertyOp51
 70
     0
102
RTVSPropertyOp52
 70
     0
102
RTVSPropertyOp53
 70
     1
102
RTVSPropertyOp54
 70
     1
102
RTVSPropertyOp55
 70
     1
102
RTVSPropertyOp56
 70
     1
102
RTVSPropertyOp57
 70
     1
102
RTVSPropertyOp58
 70
     1
102
RTVSPropertyOp59
 70
     1
102
RTVSPropertyOp60
 70
     1
102
RTVSPropertyOp61
 70
     1
102
RTVSPropertyOp62
 70
     1
  0
XRECORD
  5
535C
102
{ACAD_REACTORS
330
535B
102
}
330
535B
100
AcDbXrecord
280
     1
102
RTVSPost2010Prop28
280
     0
102
RTVSPost2010PropOp28
 70
     1
102
RTVSPost2010Prop29
280
     1
102
RTVSPost2010PropOp29
 70
     1
102
RTVSPost2010Prop30
280
     1
102
RTVSPost2010PropOp30
 70
     1
102
RTVSPost2010Prop31
280
     0
102
RTVSPost2010PropOp31
 70
     1
102
RTVSPost2010Prop32
280
     0
102
RTVSPost2010PropOp32
 70
     1
102
RTVSPost2010Prop33
280
     0
102
RTVSPost2010PropOp33
 70
     1
102
RTVSPost2010Prop34
280
     0
102
RTVSPost2010PropOp34
 70
     1
102
RTVSPost2010Prop35
280
     0
102
RTVSPost2010PropOp35
 70
     1
102
RTVSPost2010Prop36
280
     0
102
RTVSPost2010PropOp36
 70
     1
102
RTVSPost2010Prop37
 90
       50
102
RTVSPost2010PropOp37
 70
     1
102
RTVSPost2010Prop38
140
0.0
102
RTVSPost2010PropOp38
 70
     1
102
RTVSPost2010Prop39
140
1.0
102
RTVSPost2010PropOp39
 70
     1
102
RTVSPost2010Prop40
 90
        0
102
RTVSPost2010PropOp40
 70
     1
102
RTVSPost2010Prop41ColorIndex
 90
       18
102
RTVSPost2010Prop41ColorRGB
 90
        0
102
RTVSPost2010PropOp41
 70
     1
102
RTVSPost2010Prop42
 90
       50
102
RTVSPost2010PropOp42
 70
     1
102
RTVSPost2010Prop43
 90
        3
102
RTVSPost2010PropOp43
 70
     1
102
RTVSPost2010Prop44ColorIndex
 90
        5
102
RTVSPost2010Prop44ColorRGB
 90
      255
102
RTVSPost2010PropOp44
 70
     1
102
RTVSPost2010Prop45
280
     0
102
RTVSPost2010PropOp45
 70
     1
102
RTVSPost2010Prop46
 90
       50
102
RTVSPost2010PropOp46
 70
     1
102
RTVSPost2010Prop47
 90
       50
102
RTVSPost2010PropOp47
 70
     1
102
RTVSPost2010Prop48
 90
       50
102
RTVSPost2010PropOp48
 70
     1
102
RTVSPost2010Prop49
280
     0
102
RTVSPost2010PropOp49
 70
     1
102
RTVSPost2010Prop50
 90
       50
102
RTVSPost2010PropOp50
 70
     1
102
RTVSPost2010Prop51ColorIndex
 90
      256
102
RTVSPost2010Prop51ColorRGB
 90
-16777216
102
RTVSPost2010PropOp51
 70
     0
102
RTVSPost2010Prop52
140
1.0
102
RTVSPost2010PropOp52
 70
     0
102
RTVSPost2010Prop53
 90
        2
102
RTVSPost2010PropOp53
 70
     1
102
RTVSPost2010Prop54
  1
strokes_ogs.tif
102
RTVSPost2010PropOp54
 70
     1
102
RTVSPost2010Prop55
280
     0
102
RTVSPost2010PropOp55
 70
     1
102
RTVSPost2010Prop56
140
1.0
102
RTVSPost2010PropOp56
 70
     1
102
RTVSPost2010Prop57
140
1.0
102
RTVSPost2010PropOp57
 70
     1
102
RTVSPropertyOp0
 70
     1
102
RTVSPropertyOp1
 70
     1
102
RTVSPropertyOp2
 70
     1
102
RTVSPropertyOp3
 70
     1
102
RTVSPropertyOp4
 70
     1
102
RTVSPropertyOp5
 70
     1
102
RTVSPropertyOp6
 70
     1
102
RTVSPropertyOp7
 70
     1
102
RTVSPropertyOp8
 70
     1
102
RTVSPropertyOp9
 70
     1
102
RTVSPropertyOp10
 70
     1
102
RTVSPropertyOp11
 70
     1
102
RTVSPropertyOp12
 70
     1
102
RTVSPropertyOp13
 70
     1
102
RTVSPropertyOp14
 70
     1
102
RTVSPropertyOp15
 70
     1
102
RTVSPropertyOp16
 70
     1
102
RTVSPropertyOp17
 70
     1
102
RTVSPropertyOp18
 70
     1
102
RTVSPropertyOp19
 70
     1
102
RTVSPropertyOp20
 70
     1
102
RTVSPropertyOp21
 70
     1
102
RTVSPropertyOp22
 70
     1
102
RTVSPropertyOp23
 70
     1
102
RTVSPropertyOp24
 70
     1
102
RTVSPropertyOp25
 70
     1
102
RTVSPropertyOp26
 70
     1
102
RTVSPropertyOp27
 70
     1
102
RTVSPropertyOp28
 70
     1
102
RTVSPropertyOp29
 70
     1
102
RTVSPropertyOp30
 70
     1
102
RTVSPropertyOp31
 70
     1
102
RTVSPropertyOp32
 70
     1
102
RTVSPropertyOp33
 70
     1
102
RTVSPropertyOp34
 70
     1
102
RTVSPropertyOp35
 70
     1
102
RTVSPropertyOp36
 70
     1
102
RTVSPropertyOp37
 70
     1
102
RTVSPropertyOp38
 70
     1
102
RTVSPropertyOp39
 70
     1
102
RTVSPropertyOp40
 70
     1
102
RTVSPropertyOp41
 70
     1
102
RTVSPropertyOp42
 70
     1
102
RTVSPropertyOp43
 70
     1
102
RTVSPropertyOp44
 70
     1
102
RTVSPropertyOp45
 70
     1
102
RTVSPropertyOp46
 70
     1
102
RTVSPropertyOp47
 70
     1
102
RTVSPropertyOp48
 70
     1
102
RTVSPropertyOp49
 70
     1
102
RTVSPropertyOp50
 70
     1
102
RTVSPropertyOp51
 70
     0
102
RTVSPropertyOp52
 70
     0
102
RTVSPropertyOp53
 70
     1
102
RTVSPropertyOp54
 70
     1
102
RTVSPropertyOp55
 70
     1
102
RTVSPropertyOp56
 70
     1
102
RTVSPropertyOp57
 70
     1
102
RTVSPropertyOp58
 70
     1
102
RTVSPropertyOp59
 70
     1
102
RTVSPropertyOp60
 70
     1
102
RTVSPropertyOp61
 70
     1
102
RTVSPropertyOp62
 70
     1
  0
XRECORD
  5
5374
102
{ACAD_REACTORS
330
5373
102
}
330
5373
100
AcDbXrecord
280
     1
102
RTVSPost2010Prop28
280
     0
102
RTVSPost2010PropOp28
 70
     1
102
RTVSPost2010Prop29
280
     1
102
RTVSPost2010PropOp29
 70
     1
102
RTVSPost2010Prop30
280
     1
102
RTVSPost2010PropOp30
 70
     1
102
RTVSPost2010Prop31
280
     0
102
RTVSPost2010PropOp31
 70
     1
102
RTVSPost2010Prop32
280
     0
102
RTVSPost2010PropOp32
 70
     1
102
RTVSPost2010Prop33
280
     0
102
RTVSPost2010PropOp33
 70
     1
102
RTVSPost2010Prop34
280
     0
102
RTVSPost2010PropOp34
 70
     1
102
RTVSPost2010Prop35
280
     0
102
RTVSPost2010PropOp35
 70
     1
102
RTVSPost2010Prop36
280
     0
102
RTVSPost2010PropOp36
 70
     1
102
RTVSPost2010Prop37
 90
       50
102
RTVSPost2010PropOp37
 70
     1
102
RTVSPost2010Prop38
140
0.0
102
RTVSPost2010PropOp38
 70
     1
102
RTVSPost2010Prop39
140
1.0
102
RTVSPost2010PropOp39
 70
     1
102
RTVSPost2010Prop40
 90
        0
102
RTVSPost2010PropOp40
 70
     1
102
RTVSPost2010Prop41ColorIndex
 90
       18
102
RTVSPost2010Prop41ColorRGB
 90
        0
102
RTVSPost2010PropOp41
 70
     1
102
RTVSPost2010Prop42
 90
       50
102
RTVSPost2010PropOp42
 70
     1
102
RTVSPost2010Prop43
 90
        3
102
RTVSPost2010PropOp43
 70
     1
102
RTVSPost2010Prop44ColorIndex
 90
        5
102
RTVSPost2010Prop44ColorRGB
 90
      255
102
RTVSPost2010PropOp44
 70
     1
102
RTVSPost2010Prop45
280
     0
102
RTVSPost2010PropOp45
 70
     1
102
RTVSPost2010Prop46
 90
       50
102
RTVSPost2010PropOp46
 70
     1
102
RTVSPost2010Prop47
 90
       50
102
RTVSPost2010PropOp47
 70
     1
102
RTVSPost2010Prop48
 90
       50
102
RTVSPost2010PropOp48
 70
     1
102
RTVSPost2010Prop49
280
     0
102
RTVSPost2010PropOp49
 70
     1
102
RTVSPost2010Prop50
 90
       50
102
RTVSPost2010PropOp50
 70
     1
102
RTVSPost2010Prop51ColorIndex
 90
      256
102
RTVSPost2010Prop51ColorRGB
 90
-16777216
102
RTVSPost2010PropOp51
 70
     0
102
RTVSPost2010Prop52
140
1.0
102
RTVSPost2010PropOp52
 70
     0
102
RTVSPost2010Prop53
 90
        2
102
RTVSPost2010PropOp53
 70
     1
102
RTVSPost2010Prop54
  1
strokes_ogs.tif
102
RTVSPost2010PropOp54
 70
     1
102
RTVSPost2010Prop55
280
     0
102
RTVSPost2010PropOp55
 70
     1
102
RTVSPost2010Prop56
140
1.0
102
RTVSPost2010PropOp56
 70
     1
102
RTVSPost2010Prop57
140
1.0
102
RTVSPost2010PropOp57
 70
     1
102
RTVSPropertyOp0
 70
     1
102
RTVSPropertyOp1
 70
     1
102
RTVSPropertyOp2
 70
     1
102
RTVSPropertyOp3
 70
     1
102
RTVSPropertyOp4
 70
     1
102
RTVSPropertyOp5
 70
     1
102
RTVSPropertyOp6
 70
     1
102
RTVSPropertyOp7
 70
     1
102
RTVSPropertyOp8
 70
     1
102
RTVSPropertyOp9
 70
     1
102
RTVSPropertyOp10
 70
     1
102
RTVSPropertyOp11
 70
     1
102
RTVSPropertyOp12
 70
     1
102
RTVSPropertyOp13
 70
     1
102
RTVSPropertyOp14
 70
     1
102
RTVSPropertyOp15
 70
     1
102
RTVSPropertyOp16
 70
     1
102
RTVSPropertyOp17
 70
     1
102
RTVSPropertyOp18
 70
     1
102
RTVSPropertyOp19
 70
     1
102
RTVSPropertyOp20
 70
     1
102
RTVSPropertyOp21
 70
     1
102
RTVSPropertyOp22
 70
     1
102
RTVSPropertyOp23
 70
     1
102
RTVSPropertyOp24
 70
     1
102
RTVSPropertyOp25
 70
     1
102
RTVSPropertyOp26
 70
     1
102
RTVSPropertyOp27
 70
     1
102
RTVSPropertyOp28
 70
     1
102
RTVSPropertyOp29
 70
     1
102
RTVSPropertyOp30
 70
     1
102
RTVSPropertyOp31
 70
     1
102
RTVSPropertyOp32
 70
     1
102
RTVSPropertyOp33
 70
     1
102
RTVSPropertyOp34
 70
     1
102
RTVSPropertyOp35
 70
     1
102
RTVSPropertyOp36
 70
     1
102
RTVSPropertyOp37
 70
     1
102
RTVSPropertyOp38
 70
     1
102
RTVSPropertyOp39
 70
     1
102
RTVSPropertyOp40
 70
     1
102
RTVSPropertyOp41
 70
     1
102
RTVSPropertyOp42
 70
     1
102
RTVSPropertyOp43
 70
     1
102
RTVSPropertyOp44
 70
     1
102
RTVSPropertyOp45
 70
     1
102
RTVSPropertyOp46
 70
     1
102
RTVSPropertyOp47
 70
     1
102
RTVSPropertyOp48
 70
     1
102
RTVSPropertyOp49
 70
     1
102
RTVSPropertyOp50
 70
     1
102
RTVSPropertyOp51
 70
     0
102
RTVSPropertyOp52
 70
     0
102
RTVSPropertyOp53
 70
     1
102
RTVSPropertyOp54
 70
     1
102
RTVSPropertyOp55
 70
     1
102
RTVSPropertyOp56
 70
     1
102
RTVSPropertyOp57
 70
     1
102
RTVSPropertyOp58
 70
     1
102
RTVSPropertyOp59
 70
     1
102
RTVSPropertyOp60
 70
     1
102
RTVSPropertyOp61
 70
     1
102
RTVSPropertyOp62
 70
     1
  0
ENDSEC
  0
EOF
