  0
SECTION
  2
HEADER
  9
$ACADVER
  1
AC1015
  9
$ACADMAINTVER
 70
    20
  9
$DWGCODEPAGE
  3
ANSI_932
  9
$INSBASE
 10
0.0
 20
0.0
 30
0.0
  9
$EXTMIN
 10
9.999997999999999
 20
10.000001
 30
0.0
  9
$EXTMAX
 10
708.83479
 20
226.9999279999999
 30
0.0
  9
$LIMMIN
 10
0.000002
 20
0.0
  9
$LIMMAX
 10
792.0000019999998
 20
546.0
  9
$ORTHOMODE
 70
     1
  9
$REGENMODE
 70
     1
  9
$FILLMODE
 70
     1
  9
$QTEXTMODE
 70
     0
  9
$MIRRTEXT
 70
     1
  9
$LTSCALE
 40
1.0
  9
$ATTMODE
 70
     1
  9
$TEXTSIZE
 40
2.5
  9
$TRACEWID
 40
1.0
  9
$TEXTSTYLE
  7
STANDARD
  9
$CLAYER
  8
0
  9
$CELTYPE
  6
BYLAYER
  9
$CECOLOR
 62
   256
  9
$CELTSCALE
 40
1.0
  9
$DISPSILH
 70
     0
  9
$DIMSCALE
 40
1.0
  9
$DIMASZ
 40
3.0
  9
$DIMEXO
 40
1.0
  9
$DIMDLI
 40
10.0
  9
$DIMRND
 40
0.0
  9
$DIMDLE
 40
0.0
  9
$DIMEXE
 40
1.0
  9
$DIMTP
 40
0.0
  9
$DIMTM
 40
0.0
  9
$DIMTXT
 40
3.2
  9
$DIMCEN
 40
0.0
  9
$DIMTSZ
 40
0.0
  9
$DIMTOL
 70
     0
  9
$DIMLIM
 70
     0
  9
$DIMTIH
 70
     0
  9
$DIMTOH
 70
     0
  9
$DIMSE1
 70
     0
  9
$DIMSE2
 70
     0
  9
$DIMTAD
 70
     3
  9
$DIMZIN
 70
     8
  9
$DIMBLK
  1

  9
$DIMASO
 70
     1
  9
$DIMSHO
 70
     1
  9
$DIMPOST
  1

  9
$DIMAPOST
  1

  9
$DIMALT
 70
     0
  9
$DIMALTD
 70
     2
  9
$DIMALTF
 40
25.4
  9
$DIMLFAC
 40
1.0
  9
$DIMTOFL
 70
     1
  9
$DIMTVP
 40
0.0
  9
$DIMTIX
 70
     0
  9
$DIMSOXD
 70
     0
  9
$DIMSAH
 70
     1
  9
$DIMBLK1
  1
OPEN
  9
$DIMBLK2
  1
OPEN
  9
$DIMSTYLE
  2
STANDARD
  9
$DIMCLRD
 70
     0
  9
$DIMCLRE
 70
     0
  9
$DIMCLRT
 70
     0
  9
$DIMTFAC
 40
1.0
  9
$DIMGAP
 40
1.0
  9
$DIMJUST
 70
     0
  9
$DIMSD1
 70
     0
  9
$DIMSD2
 70
     0
  9
$DIMTOLJ
 70
     1
  9
$DIMTZIN
 70
     0
  9
$DIMALTZ
 70
     0
  9
$DIMALTTZ
 70
     0
  9
$DIMUPT
 70
     0
  9
$DIMDEC
 70
     4
  9
$DIMTDEC
 70
     4
  9
$DIMALTU
 70
     2
  9
$DIMALTTD
 70
     2
  9
$DIMTXSTY
  7
STANDARD
  9
$DIMAUNIT
 70
     0
  9
$DIMADEC
 70
     0
  9
$DIMALTRND
 40
0.0
  9
$DIMAZIN
 70
     0
  9
$DIMDSEP
 70
    46
  9
$DIMATFIT
 70
     3
  9
$DIMFRAC
 70
     0
  9
$DIMLDRBLK
  1
OPEN
  9
$DIMLUNIT
 70
     2
  9
$DIMLWD
 70
    -2
  9
$DIMLWE
 70
    -2
  9
$DIMTMOVE
 70
     0
  9
$LUNITS
 70
     2
  9
$LUPREC
 70
     4
  9
$SKETCHINC
 40
1.0
  9
$FILLETRAD
 40
0.0
  9
$AUNITS
 70
     0
  9
$AUPREC
 70
     0
  9
$MENU
  1
.
  9
$ELEVATION
 40
0.0
  9
$PELEVATION
 40
0.0
  9
$THICKNESS
 40
0.0
  9
$LIMCHECK
 70
     0
  9
$CHAMFERA
 40
10.0
  9
$CHAMFERB
 40
10.0
  9
$CHAMFERC
 40
0.0
  9
$CHAMFERD
 40
0.0
  9
$SKPOLY
 70
     0
  9
$TDCREATE
 40
2451650.385882998
  9
$TDUCREATE
 40
2451650.010882998
  9
$TDUPDATE
 40
2457192.601564560
  9
$TDUUPDATE
 40
2457192.226564560
  9
$TDINDWG
 40
0.1177639005
  9
$TDUSRTIMER
 40
0.1177636111
  9
$USRTIMER
 70
     1
  9
$ANGBASE
 50
0.0
  9
$ANGDIR
 70
     0
  9
$PDMODE
 70
     0
  9
$PDSIZE
 40
0.0
  9
$PLINEWID
 40
0.0
  9
$SPLFRAME
 70
     0
  9
$SPLINETYPE
 70
     6
  9
$SPLINESEGS
 70
     8
  9
$HANDSEED
  5
1BF4
  9
$SURFTAB1
 70
     6
  9
$SURFTAB2
 70
     6
  9
$SURFTYPE
 70
     6
  9
$SURFU
 70
     6
  9
$SURFV
 70
     6
  9
$UCSBASE
  2

  9
$UCSNAME
  2

  9
$UCSORG
 10
0.0
 20
0.0
 30
0.0
  9
$UCSXDIR
 10
1.0
 20
0.0
 30
0.0
  9
$UCSYDIR
 10
0.0
 20
1.0
 30
0.0
  9
$UCSORTHOREF
  2

  9
$UCSORTHOVIEW
 70
     0
  9
$UCSORGTOP
 10
0.0
 20
0.0
 30
0.0
  9
$UCSORGBOTTOM
 10
0.0
 20
0.0
 30
0.0
  9
$UCSORGLEFT
 10
0.0
 20
0.0
 30
0.0
  9
$UCSORGRIGHT
 10
0.0
 20
0.0
 30
0.0
  9
$UCSORGFRONT
 10
0.0
 20
0.0
 30
0.0
  9
$UCSORGBACK
 10
0.0
 20
0.0
 30
0.0
  9
$PUCSBASE
  2

  9
$PUCSNAME
  2

  9
$PUCSORG
 10
0.0
 20
0.0
 30
0.0
  9
$PUCSXDIR
 10
1.0
 20
0.0
 30
0.0
  9
$PUCSYDIR
 10
0.0
 20
1.0
 30
0.0
  9
$PUCSORTHOREF
  2

  9
$PUCSORTHOVIEW
 70
     0
  9
$PUCSORGTOP
 10
0.0
 20
0.0
 30
0.0
  9
$PUCSORGBOTTOM
 10
0.0
 20
0.0
 30
0.0
  9
$PUCSORGLEFT
 10
0.0
 20
0.0
 30
0.0
  9
$PUCSORGRIGHT
 10
0.0
 20
0.0
 30
0.0
  9
$PUCSORGFRONT
 10
0.0
 20
0.0
 30
0.0
  9
$PUCSORGBACK
 10
0.0
 20
0.0
 30
0.0
  9
$USERI1
 70
     0
  9
$USERI2
 70
     0
  9
$USERI3
 70
     0
  9
$USERI4
 70
     0
  9
$USERI5
 70
     0
  9
$USERR1
 40
0.0
  9
$USERR2
 40
0.0
  9
$USERR3
 40
0.0
  9
$USERR4
 40
0.0
  9
$USERR5
 40
0.0
  9
$WORLDVIEW
 70
     1
  9
$SHADEDGE
 70
     3
  9
$SHADEDIF
 70
    70
  9
$TILEMODE
 70
     1
  9
$MAXACTVP
 70
    48
  9
$PINSBASE
 10
0.0
 20
0.0
 30
0.0
  9
$PLIMCHECK
 70
     0
  9
$PEXTMIN
 10
1.000000000000000E+20
 20
1.000000000000000E+20
 30
1.000000000000000E+20
  9
$PEXTMAX
 10
-1.000000000000000E+20
 20
-1.000000000000000E+20
 30
-1.000000000000000E+20
  9
$PLIMMIN
 10
0.0
 20
0.0
  9
$PLIMMAX
 10
420.0
 20
297.0
  9
$UNITMODE
 70
     0
  9
$VISRETAIN
 70
     1
  9
$PLINEGEN
 70
     0
  9
$PSLTSCALE
 70
     1
  9
$TREEDEPTH
 70
  3020
  9
$CMLSTYLE
  2
STANDARD
  9
$CMLJUST
 70
     0
  9
$CMLSCALE
 40
1.0
  9
$PROXYGRAPHICS
 70
     1
  9
$MEASUREMENT
 70
     0
  9
$CELWEIGHT
370
    -1
  9
$ENDCAPS
280
     0
  9
$JOINSTYLE
280
     0
  9
$LWDISPLAY
290
     0
  9
$INSUNITS
 70
     0
  9
$HYPERLINKBASE
  1

  9
$STYLESHEET
  1

  9
$XEDIT
290
     1
  9
$CEPSNTYPE
380
     0
  9
$PSTYLEMODE
290
     1
  9
$FINGERPRINTGUID
  2
{443843E3-0077-44D6-A3AC-1045940BFA50}
  9
$VERSIONGUID
  2
{64BBB7CD-0596-4CE0-8F22-C45D4CB4734B}
  9
$EXTNAMES
290
     1
  9
$PSVPSCALE
 40
0.0
  9
$OLESTARTUP
290
     0
  0
ENDSEC
  0
SECTION
  2
CLASSES
  0
CLASS
  1
ACDBDICTIONARYWDFLT
  2
AcDbDictionaryWithDefault
  3
ObjectDBX Classes
 90
        0
280
     0
281
     0
  0
CLASS
  1
ACDBPLACEHOLDER
  2
AcDbPlaceHolder
  3
ObjectDBX Classes
 90
        0
280
     0
281
     0
  0
CLASS
  1
LAYOUT
  2
AcDbLayout
  3
ObjectDBX Classes
 90
        0
280
     0
281
     0
  0
CLASS
  1
DICTIONARYVAR
  2
AcDbDictionaryVar
  3
ObjectDBX Classes
 90
        0
280
     0
281
     0
  0
CLASS
  1
MATERIAL
  2
AcDbMaterial
  3
ObjectDBX Classes
 90
     1153
280
     0
281
     0
  0
CLASS
  1
VISUALSTYLE
  2
AcDbVisualStyle
  3
ObjectDBX Classes
 90
     4095
280
     0
281
     0
  0
CLASS
  1
TABLESTYLE
  2
AcDbTableStyle
  3
ObjectDBX Classes
 90
     4095
280
     0
281
     0
  0
CLASS
  1
SCALE
  2
AcDbScale
  3
ObjectDBX Classes
 90
     1153
280
     0
281
     0
  0
CLASS
  1
MLEADERSTYLE
  2
AcDbMLeaderStyle
  3
ACDB_MLEADERSTYLE_CLASS
 90
     4095
280
     0
281
     0
  0
CLASS
  1
ACDBSECTIONVIEWSTYLE
  2
AcDbSectionViewStyle
  3
ObjectDBX Classes
 90
     1025
280
     0
281
     0
  0
CLASS
  1
ACDBDETAILVIEWSTYLE
  2
AcDbDetailViewStyle
  3
ObjectDBX Classes
 90
     1025
280
     0
281
     0
  0
CLASS
  1
CELLSTYLEMAP
  2
AcDbCellStyleMap
  3
ObjectDBX Classes
 90
     1152
280
     0
281
     0
  0
ENDSEC
  0
SECTION
  2
TABLES
  0
TABLE
  2
VPORT
  5
18A5
330
0
100
AcDbSymbolTable
 70
     1
  0
VPORT
  5
1B3D
330
18A5
100
AcDbSymbolTableRecord
100
AcDbViewportTableRecord
  2
*ACTIVE
 70
     0
 10
0.0
 20
0.0
 11
1.0
 21
1.0
 12
479.7505894721898
 22
118.4960643238108
 13
0.0
 23
0.0
 14
10.0
 24
10.0
 15
10.0
 25
10.0
 16
0.0
 26
0.0
 36
1.0
 17
0.0
 27
0.0
 37
0.0
 40
401.7529299896903
 41
1.899603698811096
 42
50.0
 43
0.0
 44
0.0
 50
0.0
 51
0.0
 71
     0
 72
   100
 73
     1
 74
     0
 75
     0
 76
     0
 77
     0
 78
     0
281
     0
 65
     1
110
0.0
120
0.0
130
0.0
111
1.0
121
0.0
131
0.0
112
0.0
122
1.0
132
0.0
 79
     0
146
0.0
1001
ACAD_NAV_VCDISPLAY
1070
     3
  0
ENDTAB
  0
TABLE
  2
LTYPE
  5
18A2
330
0
100
AcDbSymbolTable
 70
     4
  0
LTYPE
  5
18B0
330
18A2
100
AcDbSymbolTableRecord
100
AcDbLinetypeTableRecord
  2
BYBLOCK
 70
     0
  3

 72
    65
 73
     0
 40
0.0
  0
LTYPE
  5
18B1
330
18A2
100
AcDbSymbolTableRecord
100
AcDbLinetypeTableRecord
  2
BYLAYER
 70
     0
  3

 72
    65
 73
     0
 40
0.0
  0
LTYPE
  5
18B2
330
18A2
100
AcDbSymbolTableRecord
100
AcDbLinetypeTableRecord
  2
CONTINUOUS
 70
     0
  3
Solid line
 72
    65
 73
     0
 40
0.0
  0
LTYPE
  5
18C0
330
18A2
100
AcDbSymbolTableRecord
100
AcDbLinetypeTableRecord
  2
DASHED
 70
     0
  3
Dashed __ __ __ __ __ __ __ __ __ __ __ __ __ _
 72
    65
 73
     2
 40
19.05
 49
12.7
 74
     0
 49
-6.349999999999997
 74
     0
  0
LTYPE
  5
18C1
330
18A2
100
AcDbSymbolTableRecord
100
AcDbLinetypeTableRecord
  2
CENTER
 70
     0
  3
Center ____ _ ____ _ ____ _ ____ _ ____ _ ____
 72
    65
 73
     4
 40
50.8
 49
31.75
 74
     0
 49
-6.349999999999997
 74
     0
 49
6.349999999999997
 74
     0
 49
-6.349999999999997
 74
     0
  0
LTYPE
  5
18C2
330
18A2
100
AcDbSymbolTableRecord
100
AcDbLinetypeTableRecord
  2
PHANTOM
 70
     0
  3
Phantom ______  __  __  ______  __  __  ______
 72
    65
 73
     6
 40
63.5
 49
31.75
 74
     0
 49
-6.349999999999997
 74
     0
 49
6.349999999999997
 74
     0
 49
-6.349999999999997
 74
     0
 49
6.349999999999997
 74
     0
 49
-6.349999999999997
 74
     0
  0
ENDTAB
  0
TABLE
  2
LAYER
  5
189F
330
0
100
AcDbSymbolTable
 70
     8
  0
LAYER
  5
18AD
102
{ACAD_XDICTIONARY
360
1B98
102
}
330
189F
100
AcDbSymbolTableRecord
100
AcDbLayerTableRecord
  2
0
 70
     0
 62
     7
  6
CONTINUOUS
370
    -3
390
1B46
  0
LAYER
  5
18C3
102
{ACAD_XDICTIONARY
360
1B9A
102
}
330
189F
100
AcDbSymbolTableRecord
100
AcDbLayerTableRecord
  2
4
 70
     0
 62
     1
  6
CENTER
370
    -3
390
1B46
  0
LAYER
  5
18C4
102
{ACAD_XDICTIONARY
360
1B9C
102
}
330
189F
100
AcDbSymbolTableRecord
100
AcDbLayerTableRecord
  2
5
 70
     0
 62
     6
  6
PHANTOM
370
    -3
390
1B46
  0
LAYER
  5
18C5
102
{ACAD_XDICTIONARY
360
1B9E
102
}
330
189F
100
AcDbSymbolTableRecord
100
AcDbLayerTableRecord
  2
1
 70
     0
 62
     7
  6
CONTINUOUS
370
    -3
390
1B46
  0
LAYER
  5
18C6
102
{ACAD_XDICTIONARY
360
1BA0
102
}
330
189F
100
AcDbSymbolTableRecord
100
AcDbLayerTableRecord
  2
2
 70
     0
 62
     4
  6
CONTINUOUS
370
    -3
390
1B46
  0
LAYER
  5
18C7
102
{ACAD_XDICTIONARY
360
1BA2
102
}
330
189F
100
AcDbSymbolTableRecord
100
AcDbLayerTableRecord
  2
3
 70
     0
 62
     2
  6
DASHED
370
    -3
390
1B46
  0
LAYER
  5
18C8
102
{ACAD_XDICTIONARY
360
1BA4
102
}
330
189F
100
AcDbSymbolTableRecord
100
AcDbLayerTableRecord
  2
6
 70
     0
 62
     5
  6
CONTINUOUS
370
    -3
390
1B46
  0
LAYER
  5
18C9
102
{ACAD_XDICTIONARY
360
1BA6
102
}
330
189F
100
AcDbSymbolTableRecord
100
AcDbLayerTableRecord
  2
7
 70
     0
 62
     3
  6
CONTINUOUS
370
    -3
390
1B46
  0
ENDTAB
  0
TABLE
  2
STYLE
  5
18A0
330
0
100
AcDbSymbolTable
 70
     1
  0
STYLE
  5
18AE
330
18A0
100
AcDbSymbolTableRecord
100
AcDbTextStyleTableRecord
  2
STANDARD
 70
     0
 40
0.0
 41
1.0
 50
0.0
 71
     0
 42
2.5
  3
txt
  4

  0
ENDTAB
  0
TABLE
  2
VIEW
  5
18A3
330
0
100
AcDbSymbolTable
 70
     0
  0
ENDTAB
  0
TABLE
  2
UCS
  5
18A4
330
0
100
AcDbSymbolTable
 70
     0
  0
ENDTAB
  0
TABLE
  2
APPID
  5
18A6
330
0
100
AcDbSymbolTable
 70
     7
  0
APPID
  5
18AF
330
18A6
100
AcDbSymbolTableRecord
100
AcDbRegAppTableRecord
  2
ACAD
 70
     0
  0
APPID
  5
18CA
330
18A6
100
AcDbSymbolTableRecord
100
AcDbRegAppTableRecord
  2
CONTENTTABDATA
 70
     0
  0
APPID
  5
18CB
330
18A6
100
AcDbSymbolTableRecord
100
AcDbRegAppTableRecord
  2
CONTENTCURRENTTAB
 70
     0
  0
APPID
  5
18CC
330
18A6
100
AcDbSymbolTableRecord
100
AcDbRegAppTableRecord
  2
CONTENTBLOCKDESCRIPTION
 70
     0
  0
APPID
  5
18CD
330
18A6
100
AcDbSymbolTableRecord
100
AcDbRegAppTableRecord
  2
CONTENTBLOCKICON
 70
     0
  0
APPID
  5
1BB2
330
18A6
100
AcDbSymbolTableRecord
100
AcDbRegAppTableRecord
  2
ACAD_NAV_VCDISPLAY
 70
     0
  0
APPID
  5
1BEB
330
18A6
100
AcDbSymbolTableRecord
100
AcDbRegAppTableRecord
  2
ACAD_MLEADERVER
 70
     0
  0
ENDTAB
  0
TABLE
  2
DIMSTYLE
  5
18A7
330
0
100
AcDbSymbolTable
 70
     1
100
AcDbDimStyleTable
 71
     0
  0
DIMSTYLE
105
18CE
330
18A7
100
AcDbSymbolTableRecord
100
AcDbDimStyleTableRecord
  2
STANDARD
 70
     0
 41
3.0
 42
1.0
 43
10.0
 44
1.0
 73
     0
 74
     0
 77
     3
 78
     8
140
3.2
141
0.0
147
1.0
172
     1
173
     1
284
     8
285
     8
286
     8
340
18AE
  0
ENDTAB
  0
TABLE
  2
BLOCK_RECORD
  5
189E
330
0
100
AcDbSymbolTable
 70
     1
  0
BLOCK_RECORD
  5
18BB
102
{ACAD_XDICTIONARY
360
1B40
102
}
330
189E
100
AcDbSymbolTableRecord
100
AcDbBlockTableRecord
  2
*MODEL_SPACE
340
1B94
  0
BLOCK_RECORD
  5
18B7
102
{ACAD_XDICTIONARY
360
1B3E
102
}
330
189E
100
AcDbSymbolTableRecord
100
AcDbBlockTableRecord
  2
*PAPER_SPACE
340
1B95
  0
BLOCK_RECORD
  5
18D6
330
189E
100
AcDbSymbolTableRecord
100
AcDbBlockTableRecord
  2
_OPEN
340
0
  0
ENDTAB
  0
ENDSEC
  0
SECTION
  2
BLOCKS
  0
BLOCK
  5
18BC
330
18BB
100
AcDbEntity
  8
0
100
AcDbBlockBegin
  2
*MODEL_SPACE
 70
     0
 10
0.0
 20
0.0
 30
0.0
  3
*MODEL_SPACE
  1

  0
ENDBLK
  5
18BD
330
18BB
100
AcDbEntity
  8
0
100
AcDbBlockEnd
  0
BLOCK
  5
18B8
330
18B7
100
AcDbEntity
 67
     1
  8
0
100
AcDbBlockBegin
  2
*PAPER_SPACE
 70
     0
 10
0.0
 20
0.0
 30
0.0
  3
*PAPER_SPACE
  1

  0
ENDBLK
  5
18B9
330
18B7
100
AcDbEntity
 67
     1
  8
0
100
AcDbBlockEnd
  0
BLOCK
  5
18D7
330
18D6
100
AcDbEntity
  8
0
100
AcDbBlockBegin
  2
_OPEN
 70
     0
 10
0.0
 20
0.0
 30
0.0
  3
_OPEN
  1

  0
LINE
  5
18D8
330
18D6
100
AcDbEntity
  8
0
  6
ByBlock
 62
     0
100
AcDbLine
 10
-1.0
 20
0.166667
 30
0.0
 11
0.0
 21
0.0
 31
0.0
  0
LINE
  5
18D9
330
18D6
100
AcDbEntity
  8
0
  6
ByBlock
 62
     0
100
AcDbLine
 10
0.0
 20
0.0
 30
0.0
 11
-1.0
 21
-0.166667
 31
0.0
  0
LINE
  5
18DA
330
18D6
100
AcDbEntity
  8
0
  6
ByBlock
 62
     0
100
AcDbLine
 10
0.0
 20
0.0
 30
0.0
 11
-1.0
 21
0.0
 31
0.0
  0
ENDBLK
  5
18DB
330
18D6
100
AcDbEntity
  8
0
100
AcDbBlockEnd
  0
ENDSEC
  0
SECTION
  2
ENTITIES
  0
TEXT
  5
18DC
330
18BB
100
AcDbEntity
  8
4
  6
CENTER
100
AcDbText
 10
23.979509
 20
10.048738
 30
0.0
 40
1.399999999999999
  1
4
100
AcDbText
  0
TEXT
  5
18DD
330
18BB
100
AcDbEntity
  8
7
  6
Continuous
100
AcDbText
 10
9.999997999999999
 20
26.000001
 30
0.0
 40
3.0
  1
CODE No.1927
100
AcDbText
  0
TEXT
  5
18DE
330
18BB
100
AcDbEntity
  8
7
  6
Continuous
100
AcDbText
 10
9.999997999999999
 20
18.000001
 30
0.0
 40
3.0
  1
TYPE No.TL-323-001
100
AcDbText
  0
TEXT
  5
18DF
330
18BB
100
AcDbEntity
  8
1
  6
Continuous
100
AcDbText
 10
9.999997999999999
 20
10.000001
 30
0.0
 40
1.399999999999999
  1
LAYER
100
AcDbText
  0
TEXT
  5
18E0
330
18BB
100
AcDbEntity
  8
2
  6
Continuous
100
AcDbText
 10
19.979509
 20
10.048738
 30
0.0
 40
1.399999999999999
  1
2
100
AcDbText
  0
TEXT
  5
18E1
330
18BB
100
AcDbEntity
  8
3
  6
DASHED
100
AcDbText
 10
21.97950899999999
 20
10.048738
 30
0.0
 40
1.399999999999999
  1
3
100
AcDbText
  0
TEXT
  5
18E2
330
18BB
100
AcDbEntity
  8
1
  6
Continuous
100
AcDbText
 10
17.979509
 20
10.048738
 30
0.0
 40
1.399999999999999
  1
1
100
AcDbText
  0
TEXT
  5
18E3
330
18BB
100
AcDbEntity
  8
5
  6
PHANTOM
100
AcDbText
 10
25.979509
 20
10.048738
 30
0.0
 40
1.399999999999999
  1
5
100
AcDbText
  0
TEXT
  5
18E4
330
18BB
100
AcDbEntity
  8
6
  6
Continuous
100
AcDbText
 10
27.979509
 20
10.048738
 30
0.0
 40
1.399999999999999
  1
6
100
AcDbText
  0
TEXT
  5
18E5
330
18BB
100
AcDbEntity
  8
7
  6
Continuous
100
AcDbText
 10
29.97950900000001
 20
10.048738
 30
0.0
 40
1.399999999999999
  1
7
100
AcDbText
  0
LINE
  5
18E6
330
18BB
100
AcDbEntity
  8
1
  6
Continuous
100
AcDbLine
 10
181.9083479999999
 20
52.0
 30
0.0
 11
181.9083479999999
 21
45.0
 31
0.0
  0
LINE
  5
18E7
330
18BB
100
AcDbEntity
  8
1
  6
Continuous
100
AcDbLine
 10
176.9083479999999
 20
52.0
 30
0.0
 11
176.9083479999999
 21
45.0
 31
0.0
  0
LINE
  5
18E8
330
18BB
100
AcDbEntity
  8
1
  6
Continuous
100
AcDbLine
 10
181.4083479999999
 20
44.5
 30
0.0
 11
177.4083479999999
 21
44.5
 31
0.0
  0
LINE
  5
18E9
330
18BB
100
AcDbEntity
  8
1
  6
Continuous
100
AcDbLine
 10
181.4083479999999
 20
52.5
 30
0.0
 11
177.4083479999999
 21
52.5
 31
0.0
  0
LINE
  5
18EA
330
18BB
100
AcDbEntity
  8
1
  6
Continuous
100
AcDbLine
 10
176.9083479999999
 20
52.0
 30
0.0
 11
177.4083479999999
 21
52.5
 31
0.0
  0
LINE
  5
18EB
330
18BB
100
AcDbEntity
  8
1
  6
Continuous
100
AcDbLine
 10
181.4083479999999
 20
52.5
 30
0.0
 11
181.9083479999999
 21
52.0
 31
0.0
  0
LINE
  5
18EC
330
18BB
100
AcDbEntity
  8
1
  6
Continuous
100
AcDbLine
 10
181.9083479999999
 20
45.0
 30
0.0
 11
181.4083479999999
 21
44.5
 31
0.0
  0
LINE
  5
18ED
330
18BB
100
AcDbEntity
  8
1
  6
Continuous
100
AcDbLine
 10
177.4083479999999
 20
44.5
 30
0.0
 11
176.9083479999999
 21
45.0
 31
0.0
  0
LINE
  5
18EE
330
18BB
100
AcDbEntity
  8
1
  6
Continuous
100
AcDbLine
 10
177.4083479999999
 20
44.5
 30
0.0
 11
177.4083479999999
 21
52.5
 31
0.0
  0
LINE
  5
18EF
330
18BB
100
AcDbEntity
  8
1
  6
Continuous
100
AcDbLine
 10
181.4083479999999
 20
52.5
 30
0.0
 11
181.4083479999999
 21
44.5
 31
0.0
  0
LINE
  5
18F0
330
18BB
100
AcDbEntity
  8
1
  6
Continuous
100
AcDbLine
 10
115.908348
 20
55.0
 30
0.0
 11
115.908348
 21
41.0
 31
0.0
  0
LINE
  5
18F1
330
18BB
100
AcDbEntity
  8
1
  6
Continuous
100
AcDbLine
 10
165.9083479999999
 20
54.5
 30
0.0
 11
165.9083479999999
 21
41.0
 31
0.0
  0
LINE
  5
18F2
330
18BB
100
AcDbEntity
  8
1
  6
Continuous
100
AcDbLine
 10
165.9083479999999
 20
45.49999999999999
 30
0.0
 11
176.9083479999999
 21
45.49999999999999
 31
0.0
  0
LINE
  5
18F3
330
18BB
100
AcDbEntity
  8
1
  6
Continuous
100
AcDbLine
 10
165.9083479999999
 20
51.5
 30
0.0
 11
176.9083479999999
 21
51.5
 31
0.0
  0
ARC
  5
18F4
330
18BB
100
AcDbEntity
  8
1
  6
Continuous
100
AcDbCircle
 10
164.4083479999999
 20
54.5
 30
0.0
 40
1.5
100
AcDbArc
 50
0.0
 51
90.0
  0
LINE
  5
18F5
330
18BB
100
AcDbEntity
  8
1
  6
Continuous
100
AcDbLine
 10
123.408348
 20
54.5
 30
0.0
 11
123.408348
 21
55.0
 31
0.0
  0
LINE
  5
18F6
330
18BB
100
AcDbEntity
  8
1
  6
Continuous
100
AcDbLine
 10
124.408379
 20
54.5
 30
0.0
 11
124.408379
 21
56.0
 31
0.0
  0
LINE
  5
18F7
330
18BB
100
AcDbEntity
  8
1
  6
Continuous
100
AcDbLine
 10
134.4083479999998
 20
56.0
 30
0.0
 11
124.408348
 21
56.0
 31
0.0
  0
LINE
  5
18F8
330
18BB
100
AcDbEntity
  8
1
  6
Continuous
100
AcDbLine
 10
134.4083479999998
 20
54.5
 30
0.0
 11
134.4083479999998
 21
56.0
 31
0.0
  0
LINE
  5
18F9
330
18BB
100
AcDbEntity
  8
1
  6
Continuous
100
AcDbLine
 10
135.4083479999999
 20
54.5
 30
0.0
 11
135.4083479999999
 21
55.0
 31
0.0
  0
LINE
  5
18FA
330
18BB
100
AcDbEntity
  8
1
  6
Continuous
100
AcDbLine
 10
123.3083479999999
 20
56.0
 30
0.0
 11
116.908348
 21
56.0
 31
0.0
  0
LINE
  5
18FB
330
18BB
100
AcDbEntity
  8
1
  6
Continuous
100
AcDbLine
 10
164.4083479999999
 20
56.0
 30
0.0
 11
135.508348
 21
56.0
 31
0.0
  0
LINE
  5
18FC
330
18BB
100
AcDbEntity
  8
1
  6
Continuous
100
AcDbLine
 10
135.508348
 20
54.5
 30
0.0
 11
123.3083479999999
 21
54.5
 31
0.0
  0
LINE
  5
18FD
330
18BB
100
AcDbEntity
  8
4
  6
CENTER
100
AcDbLine
 10
184.908348
 20
132.9999639999998
 30
0.0
 11
102.908348
 21
132.9999639999998
 31
0.0
  0
LINE
  5
18FE
330
18BB
100
AcDbEntity
  8
1
  6
Continuous
100
AcDbLine
 10
135.508348
 20
127.9999639999999
 30
0.0
 11
123.3083479999999
 21
127.9999639999999
 31
0.0
  0
LINE
  5
18FF
330
18BB
100
AcDbEntity
  8
1
  6
Continuous
100
AcDbLine
 10
135.508348
 20
137.9999639999998
 30
0.0
 11
123.3083479999999
 21
137.9999639999998
 31
0.0
  0
LINE
  5
1900
330
18BB
100
AcDbEntity
  8
1
  6
Continuous
100
AcDbLine
 10
115.908348
 20
139.4999639999997
 30
0.0
 11
115.908348
 21
126.4999639999999
 31
0.0
  0
LINE
  5
1901
330
18BB
100
AcDbEntity
  8
1
  6
Continuous
100
AcDbLine
 10
165.9083479999999
 20
142.9999639999998
 30
0.0
 11
165.9083479999999
 21
122.9999639999999
 31
0.0
  0
LINE
  5
1902
330
18BB
100
AcDbEntity
  8
1
  6
Continuous
100
AcDbLine
 10
160.9083479999999
 20
117.9999639999999
 30
0.0
 11
123.5083479999999
 21
117.9999639999999
 31
0.0
  0
LINE
  5
1903
330
18BB
100
AcDbEntity
  8
1
  6
Continuous
100
AcDbLine
 10
160.9083479999999
 20
147.9999639999998
 30
0.0
 11
123.5083479999999
 21
147.9999639999998
 31
0.0
  0
ARC
  5
1904
330
18BB
100
AcDbEntity
  8
1
  6
Continuous
100
AcDbCircle
 10
160.9083479999999
 20
142.9999639999998
 30
0.0
 40
5.0
100
AcDbArc
 50
0.0
 51
90.0
  0
ARC
  5
1905
330
18BB
100
AcDbEntity
  8
1
  6
Continuous
100
AcDbCircle
 10
160.9083479999999
 20
122.9999639999999
 30
0.0
 40
5.0
100
AcDbArc
 50
270.0
 51
0.0
  0
LINE
  5
1906
330
18BB
100
AcDbEntity
  8
1
  6
Continuous
100
AcDbLine
 10
181.9083479999999
 20
136.4999639999997
 30
0.0
 11
181.9083479999999
 21
129.4999639999998
 31
0.0
  0
LINE
  5
1907
330
18BB
100
AcDbEntity
  8
1
  6
Continuous
100
AcDbLine
 10
176.9083479999999
 20
136.4999639999997
 30
0.0
 11
176.9083479999999
 21
129.4999639999998
 31
0.0
  0
LINE
  5
1908
330
18BB
100
AcDbEntity
  8
1
  6
Continuous
100
AcDbLine
 10
181.4083479999999
 20
128.9999639999997
 30
0.0
 11
177.4083479999999
 21
128.9999639999997
 31
0.0
  0
LINE
  5
1909
330
18BB
100
AcDbEntity
  8
1
  6
Continuous
100
AcDbLine
 10
181.4083479999999
 20
136.9999639999998
 30
0.0
 11
177.4083479999999
 21
136.9999639999998
 31
0.0
  0
LINE
  5
190A
330
18BB
100
AcDbEntity
  8
1
  6
Continuous
100
AcDbLine
 10
176.9083479999999
 20
136.4999639999997
 30
0.0
 11
177.4083479999999
 21
136.9999639999998
 31
0.0
  0
LINE
  5
190B
330
18BB
100
AcDbEntity
  8
1
  6
Continuous
100
AcDbLine
 10
181.4083479999999
 20
136.9999639999998
 30
0.0
 11
181.9083479999999
 21
136.4999639999997
 31
0.0
  0
LINE
  5
190C
330
18BB
100
AcDbEntity
  8
1
  6
Continuous
100
AcDbLine
 10
181.9083479999999
 20
129.4999639999998
 30
0.0
 11
181.4083479999999
 21
128.9999639999997
 31
0.0
  0
LINE
  5
190D
330
18BB
100
AcDbEntity
  8
1
  6
Continuous
100
AcDbLine
 10
177.4083479999999
 20
128.9999639999997
 30
0.0
 11
176.9083479999999
 21
129.4999639999998
 31
0.0
  0
LINE
  5
190E
330
18BB
100
AcDbEntity
  8
1
  6
Continuous
100
AcDbLine
 10
177.4083479999999
 20
128.9999639999997
 30
0.0
 11
177.4083479999999
 21
136.9999639999998
 31
0.0
  0
LINE
  5
190F
330
18BB
100
AcDbEntity
  8
1
  6
Continuous
100
AcDbLine
 10
181.4083479999999
 20
136.9999639999998
 30
0.0
 11
181.4083479999999
 21
128.9999639999997
 31
0.0
  0
LINE
  5
1910
330
18BB
100
AcDbEntity
  8
1
  6
Continuous
100
AcDbLine
 10
165.9083479999999
 20
129.9999639999998
 30
0.0
 11
176.9083479999999
 21
129.9999639999998
 31
0.0
  0
LINE
  5
1911
330
18BB
100
AcDbEntity
  8
1
  6
Continuous
100
AcDbLine
 10
165.9083479999999
 20
135.9999639999998
 30
0.0
 11
176.9083479999999
 21
135.9999639999998
 31
0.0
  0
LINE
  5
1912
330
18BB
100
AcDbEntity
  8
1
  6
Continuous
100
AcDbLine
 10
135.4083479999999
 20
128.099964
 30
0.0
 11
123.3083479999999
 21
128.099964
 31
0.0
  0
LINE
  5
1913
330
18BB
100
AcDbEntity
  8
1
  6
Continuous
100
AcDbLine
 10
135.4083479999999
 20
137.8999639999999
 30
0.0
 11
123.3083479999999
 21
137.8999639999999
 31
0.0
  0
ARC
  5
1914
330
18BB
100
AcDbEntity
  8
1
  6
Continuous
100
AcDbCircle
 10
165.9083479999999
 20
54.5
 30
0.0
 40
1.5
100
AcDbArc
 50
180.0
 51
255.522488
  0
LINE
  5
1915
330
18BB
100
AcDbEntity
  8
1
  6
Continuous
100
AcDbLine
 10
164.4083479999999
 20
54.5
 30
0.0
 11
164.4083479999999
 21
56.0
 31
0.0
  0
LINE
  5
1916
330
18BB
100
AcDbEntity
  8
1
  6
Continuous
100
AcDbLine
 10
123.3083479999999
 20
54.5
 30
0.0
 11
123.3083479999999
 21
56.0
 31
0.0
  0
LINE
  5
1917
330
18BB
100
AcDbEntity
  8
1
  6
Continuous
100
AcDbLine
 10
135.508348
 20
54.5
 30
0.0
 11
135.508348
 21
56.0
 31
0.0
  0
LINE
  5
1918
330
18BB
100
AcDbEntity
  8
1
  6
Continuous
100
AcDbLine
 10
165.9083479999999
 20
42.5
 30
0.0
 11
118.508348
 21
42.5
 31
0.0
  0
LINE
  5
1919
330
18BB
100
AcDbEntity
  8
4
  6
CENTER
100
AcDbLine
 10
125.908348
 20
44.0
 30
0.0
 11
125.908348
 21
39.5
 31
0.0
  0
LINE
  5
191A
330
18BB
100
AcDbEntity
  8
4
  6
CENTER
100
AcDbLine
 10
155.9083479999999
 20
44.0
 30
0.0
 11
155.9083479999999
 21
39.5
 31
0.0
  0
LINE
  5
191B
330
18BB
100
AcDbEntity
  8
1
  6
Continuous
100
AcDbLine
 10
135.508348
 20
126.4999639999999
 30
0.0
 11
135.508348
 21
139.4999639999997
 31
0.0
  0
LINE
  5
191C
330
18BB
100
AcDbEntity
  8
1
  6
Continuous
100
AcDbLine
 10
135.4083479999999
 20
128.099964
 30
0.0
 11
135.4083479999999
 21
137.8999639999999
 31
0.0
  0
LINE
  5
191D
330
18BB
100
AcDbEntity
  8
1
  6
Continuous
100
AcDbLine
 10
123.408348
 20
128.099964
 30
0.0
 11
123.408348
 21
137.8999639999999
 31
0.0
  0
LINE
  5
191E
330
18BB
100
AcDbEntity
  8
1
  6
Continuous
100
AcDbLine
 10
123.3083479999999
 20
126.4999639999999
 30
0.0
 11
123.3083479999999
 21
139.4999639999997
 31
0.0
  0
ARC
  5
191F
330
18BB
100
AcDbEntity
  8
1
  6
Continuous
100
AcDbCircle
 10
165.9083479999999
 20
126.4999639999999
 30
0.0
 40
1.5
100
AcDbArc
 50
90.0
 51
180.0
  0
ARC
  5
1920
330
18BB
100
AcDbEntity
  8
1
  6
Continuous
100
AcDbCircle
 10
165.9083479999999
 20
139.4999639999997
 30
0.0
 40
1.5
100
AcDbArc
 50
180.0
 51
270.0
  0
LINE
  5
1921
330
18BB
100
AcDbEntity
  8
5
  6
PHANTOM
100
AcDbLine
 10
134.4083479999998
 20
58.0
 30
0.0
 11
124.408348
 21
58.0
 31
0.0
  0
LINE
  5
1922
330
18BB
100
AcDbEntity
  8
5
  6
PHANTOM
100
AcDbLine
 10
123.408348
 20
57.0
 30
0.0
 11
123.408348
 21
55.0
 31
0.0
  0
LINE
  5
1923
330
18BB
100
AcDbEntity
  8
5
  6
PHANTOM
100
AcDbLine
 10
124.408348
 20
58.0
 30
0.0
 11
124.408348
 21
56.0
 31
0.0
  0
LINE
  5
1924
330
18BB
100
AcDbEntity
  8
5
  6
PHANTOM
100
AcDbLine
 10
134.4083479999998
 20
58.0
 30
0.0
 11
134.4083479999998
 21
56.0
 31
0.0
  0
LINE
  5
1925
330
18BB
100
AcDbEntity
  8
5
  6
PHANTOM
100
AcDbLine
 10
135.4083479999999
 20
57.0
 30
0.0
 11
135.4083479999999
 21
55.0
 31
0.0
  0
LINE
  5
1926
330
18BB
100
AcDbEntity
  8
5
  6
PHANTOM
100
AcDbLine
 10
135.4083479999999
 20
56.0
 30
0.0
 11
134.4083479999998
 21
56.0
 31
0.0
  0
LINE
  5
1927
330
18BB
100
AcDbEntity
  8
5
  6
PHANTOM
100
AcDbLine
 10
123.408348
 20
56.0
 30
0.0
 11
124.408348
 21
56.0
 31
0.0
  0
LINE
  5
1928
330
18BB
100
AcDbEntity
  8
4
  6
CENTER
100
AcDbLine
 10
129.4083479999999
 20
59.5
 30
0.0
 11
129.4083479999999
 21
54.5
 31
0.0
  0
LINE
  5
1929
330
18BB
100
AcDbEntity
  8
4
  6
CENTER
100
AcDbLine
 10
129.4083479999999
 20
126.5999639999999
 30
0.0
 11
129.4083479999999
 21
139.3999639999998
 31
0.0
  0
ARC
  5
192A
330
18BB
100
AcDbEntity
  8
1
  6
Continuous
100
AcDbCircle
 10
165.4083479999999
 20
52.56350799999999
 30
0.0
 40
0.5
100
AcDbArc
 50
0.0
 51
75.52248799999998
  0
LINE
  5
192B
330
18BB
100
AcDbEntity
  8
5
  6
PHANTOM
100
AcDbLine
 10
105.9083479999999
 20
134.9999639999998
 30
0.0
 11
105.9083479999999
 21
130.9999639999998
 31
0.0
  0
LINE
  5
192C
330
18BB
100
AcDbEntity
  8
5
  6
PHANTOM
100
AcDbLine
 10
105.9083479999999
 20
134.9999639999998
 30
0.0
 11
106.658348
 21
135.7499639999998
 31
0.0
  0
LINE
  5
192D
330
18BB
100
AcDbEntity
  8
5
  6
PHANTOM
100
AcDbLine
 10
105.9083479999999
 20
130.9999639999998
 30
0.0
 11
106.658348
 21
130.2499639999997
 31
0.0
  0
LINE
  5
192E
330
18BB
100
AcDbEntity
  8
5
  6
PHANTOM
100
AcDbLine
 10
106.9083479999999
 20
131.341652
 30
0.0
 11
106.9083479999999
 21
130.2499639999997
 31
0.0
  0
LINE
  5
192F
330
18BB
100
AcDbEntity
  8
5
  6
PHANTOM
100
AcDbLine
 10
106.9083479999999
 20
135.7499639999998
 30
0.0
 11
106.9083479999999
 21
134.6582759999998
 31
0.0
  0
ARC
  5
1930
330
18BB
100
AcDbEntity
  8
5
  6
PHANTOM
100
AcDbCircle
 10
109.408348
 20
132.9999639999998
 30
0.0
 40
3.0
100
AcDbArc
 50
146.44269
 51
213.55731
  0
LINE
  5
1931
330
18BB
100
AcDbEntity
  8
5
  6
PHANTOM
100
AcDbLine
 10
106.658348
 20
130.2499639999997
 30
0.0
 11
115.908348
 21
130.2499639999997
 31
0.0
  0
LINE
  5
1932
330
18BB
100
AcDbEntity
  8
5
  6
PHANTOM
100
AcDbLine
 10
106.9083479999999
 20
131.341652
 30
0.0
 11
115.908348
 21
131.341652
 31
0.0
  0
LINE
  5
1933
330
18BB
100
AcDbEntity
  8
5
  6
PHANTOM
100
AcDbLine
 10
106.9083479999999
 20
134.6582759999998
 30
0.0
 11
115.908348
 21
134.6582759999998
 31
0.0
  0
LINE
  5
1934
330
18BB
100
AcDbEntity
  8
5
  6
PHANTOM
100
AcDbLine
 10
106.658348
 20
135.7499639999998
 30
0.0
 11
115.908348
 21
135.7499639999998
 31
0.0
  0
LINE
  5
1935
330
18BB
100
AcDbEntity
  8
5
  6
PHANTOM
100
AcDbLine
 10
105.9083479999999
 20
46.5
 30
0.0
 11
106.408348
 21
46.0
 31
0.0
  0
LINE
  5
1936
330
18BB
100
AcDbEntity
  8
5
  6
PHANTOM
100
AcDbLine
 10
115.908348
 20
46.0
 30
0.0
 11
106.408348
 21
46.0
 31
0.0
  0
LINE
  5
1937
330
18BB
100
AcDbEntity
  8
5
  6
PHANTOM
100
AcDbLine
 10
106.9083479999999
 20
47.30104199999998
 30
0.0
 11
106.9083479999999
 21
46.0
 31
0.0
  0
LINE
  5
1938
330
18BB
100
AcDbEntity
  8
5
  6
PHANTOM
100
AcDbLine
 10
106.9083479999999
 20
47.30104199999998
 30
0.0
 11
115.908348
 21
47.30104199999998
 31
0.0
  0
LINE
  5
1939
330
18BB
100
AcDbEntity
  8
5
  6
PHANTOM
100
AcDbLine
 10
106.9083479999999
 20
47.30104199999998
 30
0.0
 11
115.908348
 21
49.356398
 31
0.0
  0
LINE
  5
193A
330
18BB
100
AcDbEntity
  8
5
  6
PHANTOM
100
AcDbLine
 10
106.9083479999999
 20
49.69895799999999
 30
0.0
 11
115.908348
 21
47.643602
 31
0.0
  0
LINE
  5
193B
330
18BB
100
AcDbEntity
  8
5
  6
PHANTOM
100
AcDbLine
 10
106.9083479999999
 20
49.69895799999999
 30
0.0
 11
115.908348
 21
49.69895799999999
 31
0.0
  0
LINE
  5
193C
330
18BB
100
AcDbEntity
  8
5
  6
PHANTOM
100
AcDbLine
 10
115.908348
 20
51.0
 30
0.0
 11
106.408348
 21
51.0
 31
0.0
  0
LINE
  5
193D
330
18BB
100
AcDbEntity
  8
5
  6
PHANTOM
100
AcDbLine
 10
106.9083479999999
 20
51.0
 30
0.0
 11
106.9083479999999
 21
49.69895799999999
 31
0.0
  0
ARC
  5
193E
330
18BB
100
AcDbEntity
  8
5
  6
PHANTOM
100
AcDbCircle
 10
109.658348
 20
48.5
 30
0.0
 40
3.0
100
AcDbArc
 50
156.443536
 51
203.556464
  0
LINE
  5
193F
330
18BB
100
AcDbEntity
  8
5
  6
PHANTOM
100
AcDbLine
 10
105.9083479999999
 20
50.5
 30
0.0
 11
106.408348
 21
51.0
 31
0.0
  0
LINE
  5
1940
330
18BB
100
AcDbEntity
  8
5
  6
PHANTOM
100
AcDbLine
 10
105.9083479999999
 20
50.5
 30
0.0
 11
105.9083479999999
 21
46.5
 31
0.0
  0
LINE
  5
1941
330
18BB
100
AcDbEntity
  8
5
  6
PHANTOM
100
AcDbLine
 10
106.9083479999999
 20
131.341652
 30
0.0
 11
115.908348
 21
134.6582759999998
 31
0.0
  0
LINE
  5
1942
330
18BB
100
AcDbEntity
  8
5
  6
PHANTOM
100
AcDbLine
 10
115.908348
 20
131.341652
 30
0.0
 11
106.9083479999999
 21
134.6582759999998
 31
0.0
  0
ARC
  5
1943
330
18BB
100
AcDbEntity
  8
1
  6
Continuous
100
AcDbCircle
 10
123.408348
 20
128.099964
 30
0.0
 40
1.0
100
AcDbArc
 50
0.0
 51
90.0
  0
ARC
  5
1944
330
18BB
100
AcDbEntity
  8
1
  6
Continuous
100
AcDbCircle
 10
135.4083479999999
 20
128.099964
 30
0.0
 40
1.0
100
AcDbArc
 50
90.0
 51
180.0
  0
ARC
  5
1945
330
18BB
100
AcDbEntity
  8
1
  6
Continuous
100
AcDbCircle
 10
135.4083479999999
 20
137.8999639999999
 30
0.0
 40
1.0
100
AcDbArc
 50
180.0
 51
270.0
  0
ARC
  5
1946
330
18BB
100
AcDbEntity
  8
1
  6
Continuous
100
AcDbCircle
 10
123.408348
 20
137.8999639999999
 30
0.0
 40
1.0
100
AcDbArc
 50
270.0
 51
0.0
  0
POLYLINE
  5
1947
330
18BB
100
AcDbEntity
  8
1
  6
Continuous
100
AcDb2dPolyline
 66
     1
 10
0.0
 20
0.0
 30
0.0
 70
     2
  0
VERTEX
  5
1948
330
1947
100
AcDbEntity
  8
1
  6
Continuous
100
AcDbVertex
100
AcDb2dVertex
 10
135.4083479999999
 20
130.485646
 30
0.0
 42
0.013013
  0
VERTEX
  5
1949
330
1947
100
AcDbEntity
  8
1
  6
Continuous
100
AcDbVertex
100
AcDb2dVertex
 10
135.508348
 20
130.764125
 30
0.0
  0
SEQEND
  5
194A
330
1947
100
AcDbEntity
  8
1
  6
Continuous
  0
POLYLINE
  5
194B
330
18BB
100
AcDbEntity
  8
1
  6
Continuous
100
AcDb2dPolyline
 66
     1
 10
0.0
 20
0.0
 30
0.0
 70
     2
  0
VERTEX
  5
194C
330
194B
100
AcDbEntity
  8
1
  6
Continuous
100
AcDbVertex
100
AcDb2dVertex
 10
135.508348
 20
135.2358029999997
 30
0.0
 42
0.01284
  0
VERTEX
  5
194D
330
194B
100
AcDbEntity
  8
1
  6
Continuous
100
AcDbVertex
100
AcDb2dVertex
 10
135.4083479999999
 20
135.514282
 30
0.0
  0
SEQEND
  5
194E
330
194B
100
AcDbEntity
  8
1
  6
Continuous
  0
ARC
  5
194F
330
18BB
100
AcDbEntity
  8
1
  6
Continuous
100
AcDbCircle
 10
123.5083479999999
 20
122.9999639999999
 30
0.0
 40
5.0
100
AcDbArc
 50
180.0
 51
270.0
  0
LINE
  5
1950
330
18BB
100
AcDbEntity
  8
1
  6
Continuous
100
AcDbLine
 10
118.508348
 20
122.9999639999999
 30
0.0
 11
118.508348
 21
127.9999639999999
 31
0.0
  0
ARC
  5
1951
330
18BB
100
AcDbEntity
  8
1
  6
Continuous
100
AcDbCircle
 10
123.5083479999999
 20
142.9999639999998
 30
0.0
 40
5.0
100
AcDbArc
 50
90.0
 51
180.0
  0
LINE
  5
1952
330
18BB
100
AcDbEntity
  8
1
  6
Continuous
100
AcDbLine
 10
118.508348
 20
137.9999639999998
 30
0.0
 11
118.508348
 21
142.9999639999998
 31
0.0
  0
LINE
  5
1953
330
18BB
100
AcDbEntity
  8
1
  6
Continuous
100
AcDbLine
 10
117.4083479999999
 20
139.4999639999997
 30
0.0
 11
117.4083479999999
 21
137.9999639999998
 31
0.0
  0
LINE
  5
1954
330
18BB
100
AcDbEntity
  8
1
  6
Continuous
100
AcDbLine
 10
118.508348
 20
137.9999639999998
 30
0.0
 11
115.908348
 21
137.9999639999998
 31
0.0
  0
LINE
  5
1955
330
18BB
100
AcDbEntity
  8
1
  6
Continuous
100
AcDbLine
 10
117.4083479999999
 20
127.9999639999999
 30
0.0
 11
117.4083479999999
 21
126.4999639999999
 31
0.0
  0
LINE
  5
1956
330
18BB
100
AcDbEntity
  8
1
  6
Continuous
100
AcDbLine
 10
118.508348
 20
127.9999639999999
 30
0.0
 11
115.908348
 21
127.9999639999999
 31
0.0
  0
LINE
  5
1957
330
18BB
100
AcDbEntity
  8
1
  6
Continuous
100
AcDbLine
 10
117.4083479999999
 20
126.4999639999999
 30
0.0
 11
115.908348
 21
126.4999639999999
 31
0.0
  0
LINE
  5
1958
330
18BB
100
AcDbEntity
  8
1
  6
Continuous
100
AcDbLine
 10
165.9083479999999
 20
126.4999639999999
 30
0.0
 11
118.508348
 21
126.4999639999999
 31
0.0
  0
LINE
  5
1959
330
18BB
100
AcDbEntity
  8
1
  6
Continuous
100
AcDbLine
 10
117.4083479999999
 20
139.4999639999997
 30
0.0
 11
115.908348
 21
139.4999639999997
 31
0.0
  0
LINE
  5
195A
330
18BB
100
AcDbEntity
  8
1
  6
Continuous
100
AcDbLine
 10
165.9083479999999
 20
139.4999639999997
 30
0.0
 11
118.508348
 21
139.4999639999997
 31
0.0
  0
ARC
  5
195B
330
18BB
100
AcDbEntity
  8
1
  6
Continuous
100
AcDbCircle
 10
124.408348
 20
55.0
 30
0.0
 40
1.0
100
AcDbArc
 50
90.0
 51
180.0
  0
ARC
  5
195C
330
18BB
100
AcDbEntity
  8
1
  6
Continuous
100
AcDbCircle
 10
134.4083479999998
 20
55.0
 30
0.0
 40
1.0
100
AcDbArc
 50
0.0
 51
90.0
  0
ARC
  5
195D
330
18BB
100
AcDbEntity
  8
5
  6
PHANTOM
100
AcDbCircle
 10
134.4083479999998
 20
57.0
 30
0.0
 40
1.0
100
AcDbArc
 50
0.0
 51
90.0
  0
ARC
  5
195E
330
18BB
100
AcDbEntity
  8
5
  6
PHANTOM
100
AcDbCircle
 10
124.408348
 20
57.0
 30
0.0
 40
1.0
100
AcDbArc
 50
90.0
 51
180.0
  0
LINE
  5
195F
330
18BB
100
AcDbEntity
  8
1
  6
Continuous
100
AcDbLine
 10
117.4083479999999
 20
54.5
 30
0.0
 11
117.4083479999999
 21
41.0
 31
0.0
  0
LINE
  5
1960
330
18BB
100
AcDbEntity
  8
1
  6
Continuous
100
AcDbLine
 10
118.4083479999999
 20
51.5
 30
0.0
 11
118.4083479999999
 21
41.0
 31
0.0
  0
LINE
  5
1961
330
18BB
100
AcDbEntity
  8
1
  6
Continuous
100
AcDbLine
 10
118.508348
 20
56.0
 30
0.0
 11
118.508348
 21
41.0
 31
0.0
  0
LINE
  5
1962
330
18BB
100
AcDbEntity
  8
1
  6
Continuous
100
AcDbLine
 10
118.508348
 20
51.5
 30
0.0
 11
117.4083479999999
 21
51.5
 31
0.0
  0
ARC
  5
1963
330
18BB
100
AcDbEntity
  8
1
  6
Continuous
100
AcDbCircle
 10
118.4083479999999
 20
51.5
 30
0.0
 40
1.0
100
AcDbArc
 50
90.0
 51
180.0
  0
LINE
  5
1964
330
18BB
100
AcDbEntity
  8
1
  6
Continuous
100
AcDbLine
 10
115.908348
 20
54.5
 30
0.0
 11
118.508348
 21
54.5
 31
0.0
  0
LINE
  5
1965
330
18BB
100
AcDbEntity
  8
1
  6
Continuous
100
AcDbLine
 10
118.4083479999999
 20
52.5
 30
0.0
 11
118.508348
 21
52.5
 31
0.0
  0
LINE
  5
1966
330
18BB
100
AcDbEntity
  8
1
  6
Continuous
100
AcDbLine
 10
118.508348
 20
51.0
 30
0.0
 11
118.4083479999999
 21
51.0
 31
0.0
  0
LINE
  5
1967
330
18BB
100
AcDbEntity
  8
1
  6
Continuous
100
AcDbLine
 10
118.4083479999999
 20
49.69895799999999
 30
0.0
 11
118.508348
 21
49.69895799999999
 31
0.0
  0
LINE
  5
1968
330
18BB
100
AcDbEntity
  8
1
  6
Continuous
100
AcDbLine
 10
118.4083479999999
 20
49.356398
 30
0.0
 11
118.508348
 21
49.33356100000001
 31
0.0
  0
LINE
  5
1969
330
18BB
100
AcDbEntity
  8
1
  6
Continuous
100
AcDbLine
 10
118.4083479999999
 20
47.643602
 30
0.0
 11
118.508348
 21
47.666439
 31
0.0
  0
LINE
  5
196A
330
18BB
100
AcDbEntity
  8
1
  6
Continuous
100
AcDbLine
 10
118.4083479999999
 20
47.30104199999998
 30
0.0
 11
118.508348
 21
47.30104199999998
 31
0.0
  0
LINE
  5
196B
330
18BB
100
AcDbEntity
  8
1
  6
Continuous
100
AcDbLine
 10
118.508348
 20
46.0
 30
0.0
 11
118.4083479999999
 21
46.0
 31
0.0
  0
ARC
  5
196C
330
18BB
100
AcDbEntity
  8
1
  6
Continuous
100
AcDbCircle
 10
116.908348
 20
55.0
 30
0.0
 40
1.0
100
AcDbArc
 50
90.0
 51
180.0
  0
LINE
  5
196D
330
18BB
100
AcDbEntity
  8
1
  6
Continuous
100
AcDbLine
 10
118.4083479999999
 20
41.0
 30
0.0
 11
115.908348
 21
41.0
 31
0.0
  0
LINE
  5
196E
330
18BB
100
AcDbEntity
  8
1
  6
Continuous
100
AcDbLine
 10
165.9083479999999
 20
41.0
 30
0.0
 11
118.508348
 21
41.0
 31
0.0
  0
CIRCLE
  5
196F
330
18BB
100
AcDbEntity
  8
1
  6
Continuous
100
AcDbCircle
 10
155.9083479999999
 20
142.9999639999998
 30
0.0
 40
1.75
  0
CIRCLE
  5
1970
330
18BB
100
AcDbEntity
  8
1
  6
Continuous
100
AcDbCircle
 10
125.908348
 20
142.9999639999998
 30
0.0
 40
1.75
  0
CIRCLE
  5
1971
330
18BB
100
AcDbEntity
  8
1
  6
Continuous
100
AcDbCircle
 10
125.908348
 20
122.9999639999999
 30
0.0
 40
1.75
  0
CIRCLE
  5
1972
330
18BB
100
AcDbEntity
  8
1
  6
Continuous
100
AcDbCircle
 10
155.9083479999999
 20
122.9999639999999
 30
0.0
 40
1.75
  0
LINE
  5
1973
330
18BB
100
AcDbEntity
  8
4
  6
CENTER
100
AcDbLine
 10
129.1583479999999
 20
122.9999639999999
 30
0.0
 11
122.658348
 21
122.9999639999999
 31
0.0
  0
LINE
  5
1974
330
18BB
100
AcDbEntity
  8
4
  6
CENTER
100
AcDbLine
 10
125.908348
 20
126.2499639999999
 30
0.0
 11
125.908348
 21
119.7499639999999
 31
0.0
  0
LINE
  5
1975
330
18BB
100
AcDbEntity
  8
4
  6
CENTER
100
AcDbLine
 10
129.1583479999999
 20
142.9999639999998
 30
0.0
 11
122.658348
 21
142.9999639999998
 31
0.0
  0
LINE
  5
1976
330
18BB
100
AcDbEntity
  8
4
  6
CENTER
100
AcDbLine
 10
125.908348
 20
146.2499639999998
 30
0.0
 11
125.908348
 21
139.7499639999997
 31
0.0
  0
LINE
  5
1977
330
18BB
100
AcDbEntity
  8
4
  6
CENTER
100
AcDbLine
 10
159.1583479999999
 20
142.9999639999998
 30
0.0
 11
152.658348
 21
142.9999639999998
 31
0.0
  0
LINE
  5
1978
330
18BB
100
AcDbEntity
  8
4
  6
CENTER
100
AcDbLine
 10
155.9083479999999
 20
146.2499639999998
 30
0.0
 11
155.9083479999999
 21
139.7499639999997
 31
0.0
  0
LINE
  5
1979
330
18BB
100
AcDbEntity
  8
4
  6
CENTER
100
AcDbLine
 10
159.1583479999999
 20
122.9999639999999
 30
0.0
 11
152.658348
 21
122.9999639999999
 31
0.0
  0
LINE
  5
197A
330
18BB
100
AcDbEntity
  8
4
  6
CENTER
100
AcDbLine
 10
155.9083479999999
 20
126.2499639999999
 30
0.0
 11
155.9083479999999
 21
119.7499639999999
 31
0.0
  0
LINE
  5
197B
330
18BB
100
AcDbEntity
  8
1
  6
Continuous
100
AcDbLine
 10
546.920296
 20
142.9999639999998
 30
0.0
 11
546.920296
 21
122.9999639999999
 31
0.0
  0
LINE
  5
197C
330
18BB
100
AcDbEntity
  8
1
  6
Continuous
100
AcDbLine
 10
560.920296
 20
142.9999639999998
 30
0.0
 11
560.920296
 21
122.9999639999999
 31
0.0
  0
LINE
  5
197D
330
18BB
100
AcDbEntity
  8
1
  6
Continuous
100
AcDbLine
 10
551.920296
 20
117.9999639999999
 30
0.0
 11
555.920296
 21
117.9999639999999
 31
0.0
  0
LINE
  5
197E
330
18BB
100
AcDbEntity
  8
1
  6
Continuous
100
AcDbLine
 10
555.920296
 20
147.9999639999998
 30
0.0
 11
551.920296
 21
147.9999639999998
 31
0.0
  0
LINE
  5
197F
330
18BB
100
AcDbEntity
  8
1
  6
Continuous
100
AcDbLine
 10
546.920296
 20
126.4999639999999
 30
0.0
 11
560.920296
 21
126.4999639999999
 31
0.0
  0
LINE
  5
1980
330
18BB
100
AcDbEntity
  8
1
  6
Continuous
100
AcDbLine
 10
546.920296
 20
139.4999639999997
 30
0.0
 11
560.920296
 21
139.4999639999997
 31
0.0
  0
LINE
  5
1981
330
18BB
100
AcDbEntity
  8
4
  6
CENTER
100
AcDbLine
 10
543.920296
 20
132.9999639999998
 30
0.0
 11
563.920296
 21
132.9999639999998
 31
0.0
  0
ARC
  5
1982
330
18BB
100
AcDbEntity
  8
1
  6
Continuous
100
AcDbCircle
 10
555.920296
 20
142.9999639999998
 30
0.0
 40
5.0
100
AcDbArc
 50
0.0
 51
90.0
  0
ARC
  5
1983
330
18BB
100
AcDbEntity
  8
1
  6
Continuous
100
AcDbCircle
 10
551.920296
 20
142.9999639999998
 30
0.0
 40
5.0
100
AcDbArc
 50
90.0
 51
180.0
  0
ARC
  5
1984
330
18BB
100
AcDbEntity
  8
1
  6
Continuous
100
AcDbCircle
 10
551.920296
 20
122.9999639999999
 30
0.0
 40
5.0
100
AcDbArc
 50
180.0
 51
270.0
  0
ARC
  5
1985
330
18BB
100
AcDbEntity
  8
1
  6
Continuous
100
AcDbCircle
 10
555.920296
 20
122.9999639999999
 30
0.0
 40
5.0
100
AcDbArc
 50
270.0
 51
0.0
  0
ARC
  5
1986
330
18BB
100
AcDbEntity
  8
1
  6
Continuous
100
AcDbCircle
 10
560.920296
 20
126.4999639999999
 30
0.0
 40
1.5
100
AcDbArc
 50
90.0
 51
180.0
  0
ARC
  5
1987
330
18BB
100
AcDbEntity
  8
1
  6
Continuous
100
AcDbCircle
 10
560.920296
 20
139.4999639999997
 30
0.0
 40
1.5
100
AcDbArc
 50
180.0
 51
270.0
  0
ARC
  5
1988
330
18BB
100
AcDbEntity
  8
1
  6
Continuous
100
AcDbCircle
 10
546.920296
 20
126.4999639999999
 30
0.0
 40
1.5
100
AcDbArc
 50
0.0
 51
90.0
  0
ARC
  5
1989
330
18BB
100
AcDbEntity
  8
1
  6
Continuous
100
AcDbCircle
 10
546.920296
 20
139.4999639999997
 30
0.0
 40
1.5
100
AcDbArc
 50
270.0
 51
0.0
  0
LINE
  5
198A
330
18BB
100
AcDbEntity
  8
1
  6
Continuous
100
AcDbLine
 10
560.920296
 20
41.0
 30
0.0
 11
546.920296
 21
41.0
 31
0.0
  0
LINE
  5
198B
330
18BB
100
AcDbEntity
  8
1
  6
Continuous
100
AcDbLine
 10
559.420296
 20
56.0
 30
0.0
 11
548.420296
 21
56.0
 31
0.0
  0
LINE
  5
198C
330
18BB
100
AcDbEntity
  8
1
  6
Continuous
100
AcDbLine
 10
546.920296
 20
41.0
 30
0.0
 11
546.920296
 21
54.5
 31
0.0
  0
LINE
  5
198D
330
18BB
100
AcDbEntity
  8
1
  6
Continuous
100
AcDbLine
 10
560.920296
 20
41.0
 30
0.0
 11
560.920296
 21
54.5
 31
0.0
  0
LINE
  5
198E
330
18BB
100
AcDbEntity
  8
1
  6
Continuous
100
AcDbLine
 10
560.920296
 20
42.5
 30
0.0
 11
546.920296
 21
42.5
 31
0.0
  0
LINE
  5
198F
330
18BB
100
AcDbEntity
  8
4
  6
CENTER
100
AcDbLine
 10
553.9202959999999
 20
44.5
 30
0.0
 11
553.9202959999999
 21
39.0
 31
0.0
  0
ARC
  5
1990
330
18BB
100
AcDbEntity
  8
1
  6
Continuous
100
AcDbCircle
 10
548.420296
 20
54.5
 30
0.0
 40
1.5
100
AcDbArc
 50
90.0
 51
180.0
  0
ARC
  5
1991
330
18BB
100
AcDbEntity
  8
1
  6
Continuous
100
AcDbCircle
 10
559.420296
 20
54.5
 30
0.0
 40
1.5
100
AcDbArc
 50
0.0
 51
90.0
  0
ARC
  5
1992
330
18BB
100
AcDbEntity
  8
1
  6
Continuous
100
AcDbCircle
 10
547.420296
 20
52.56350799999999
 30
0.0
 40
0.5
100
AcDbArc
 50
104.477512
 51
180.0
  0
ARC
  5
1993
330
18BB
100
AcDbEntity
  8
1
  6
Continuous
100
AcDbCircle
 10
546.920296
 20
54.5
 30
0.0
 40
1.5
100
AcDbArc
 50
284.4775119999998
 51
0.0
  0
LINE
  5
1994
330
18BB
100
AcDbEntity
  8
1
  6
Continuous
100
AcDbLine
 10
548.420296
 20
56.0
 30
0.0
 11
548.420296
 21
54.5
 31
0.0
  0
CIRCLE
  5
1995
330
18BB
100
AcDbEntity
  8
1
  6
Continuous
100
AcDbCircle
 10
553.9202959999999
 20
142.9999639999998
 30
0.0
 40
1.75
  0
CIRCLE
  5
1996
330
18BB
100
AcDbEntity
  8
1
  6
Continuous
100
AcDbCircle
 10
553.9202959999999
 20
122.9999639999999
 30
0.0
 40
1.75
  0
LINE
  5
1997
330
18BB
100
AcDbEntity
  8
4
  6
CENTER
100
AcDbLine
 10
550.670296
 20
122.9999639999999
 30
0.0
 11
557.170296
 21
122.9999639999999
 31
0.0
  0
LINE
  5
1998
330
18BB
100
AcDbEntity
  8
4
  6
CENTER
100
AcDbLine
 10
553.9202959999999
 20
126.2499639999999
 30
0.0
 11
553.9202959999999
 21
119.7499639999999
 31
0.0
  0
LINE
  5
1999
330
18BB
100
AcDbEntity
  8
4
  6
CENTER
100
AcDbLine
 10
550.670296
 20
142.9999639999998
 30
0.0
 11
557.170296
 21
142.9999639999998
 31
0.0
  0
LINE
  5
199A
330
18BB
100
AcDbEntity
  8
4
  6
CENTER
100
AcDbLine
 10
553.9202959999999
 20
146.2499639999998
 30
0.0
 11
553.9202959999999
 21
139.7499639999997
 31
0.0
  0
ARC
  5
199B
330
18BB
100
AcDbEntity
  8
1
  6
Continuous
100
AcDbCircle
 10
560.420296
 20
52.56350799999999
 30
0.0
 40
0.5
100
AcDbArc
 50
0.0
 51
75.52248799999998
  0
ARC
  5
199C
330
18BB
100
AcDbEntity
  8
1
  6
Continuous
100
AcDbCircle
 10
560.920296
 20
54.5
 30
0.0
 40
1.5
100
AcDbArc
 50
180.0
 51
255.522488
  0
LINE
  5
199D
330
18BB
100
AcDbEntity
  8
1
  6
Continuous
100
AcDbLine
 10
559.420296
 20
56.0
 30
0.0
 11
559.420296
 21
54.5
 31
0.0
  0
LINE
  5
199E
330
18BB
100
AcDbEntity
  8
4
  6
CENTER
100
AcDbLine
 10
102.908348
 20
48.5
 30
0.0
 11
184.908348
 21
48.5
 31
0.0
  0
LINE
  5
199F
330
18BB
100
AcDbEntity
  8
1
  6
Continuous
100
AcDbLine
 10
633.8775429999998
 20
147.9999639999998
 30
0.0
 11
632.3775429999998
 21
147.9999639999998
 31
0.0
  0
LINE
  5
19A0
330
18BB
100
AcDbEntity
  8
1
  6
Continuous
100
AcDbLine
 10
632.3775429999998
 20
117.9999639999999
 30
0.0
 11
633.8775429999998
 21
117.9999639999999
 31
0.0
  0
LINE
  5
19A1
330
18BB
100
AcDbEntity
  8
1
  6
Continuous
100
AcDbLine
 10
618.8775429999998
 20
137.9999639999998
 30
0.0
 11
618.8775429999998
 21
127.9999639999999
 31
0.0
  0
LINE
  5
19A2
330
18BB
100
AcDbEntity
  8
4
  6
CENTER
100
AcDbLine
 10
615.8775429999998
 20
132.9999639999998
 30
0.0
 11
636.8775429999998
 21
132.9999639999998
 31
0.0
  0
LINE
  5
19A3
330
18BB
100
AcDbEntity
  8
1
  6
Continuous
100
AcDbLine
 10
620.3775429999998
 20
139.4999639999997
 30
0.0
 11
632.3775429999998
 21
139.4999639999997
 31
0.0
  0
LINE
  5
19A4
330
18BB
100
AcDbEntity
  8
1
  6
Continuous
100
AcDbLine
 10
620.3775429999998
 20
126.4999639999999
 30
0.0
 11
632.3775429999998
 21
126.4999639999999
 31
0.0
  0
LINE
  5
19A5
330
18BB
100
AcDbEntity
  8
1
  6
Continuous
100
AcDbLine
 10
633.8775429999998
 20
147.9999639999998
 30
0.0
 11
633.8775429999998
 21
139.4999639999997
 31
0.0
  0
ARC
  5
19A6
330
18BB
100
AcDbEntity
  8
1
  6
Continuous
100
AcDbCircle
 10
620.3775429999998
 20
137.9999639999998
 30
0.0
 40
1.5
100
AcDbArc
 50
90.0
 51
180.0
  0
ARC
  5
19A7
330
18BB
100
AcDbEntity
  8
1
  6
Continuous
100
AcDbCircle
 10
620.3775429999998
 20
127.9999639999999
 30
0.0
 40
1.5
100
AcDbArc
 50
180.0
 51
270.0
  0
LINE
  5
19A8
330
18BB
100
AcDbEntity
  8
1
  6
Continuous
100
AcDbLine
 10
632.3775429999998
 20
147.9999639999998
 30
0.0
 11
632.3775429999998
 21
139.4999639999997
 31
0.0
  0
LINE
  5
19A9
330
18BB
100
AcDbEntity
  8
1
  6
Continuous
100
AcDbLine
 10
618.8775429999998
 20
137.9999639999998
 30
0.0
 11
632.3775429999998
 21
137.9999639999998
 31
0.0
  0
LINE
  5
19AA
330
18BB
100
AcDbEntity
  8
1
  6
Continuous
100
AcDbLine
 10
618.8775429999998
 20
127.9999639999999
 30
0.0
 11
632.3775429999998
 21
127.9999639999999
 31
0.0
  0
ARC
  5
19AB
330
18BB
100
AcDbEntity
  8
1
  6
Continuous
100
AcDbCircle
 10
632.3775429999998
 20
139.4999639999997
 30
0.0
 40
1.5
100
AcDbArc
 50
270.0
 51
0.0
  0
LINE
  5
19AC
330
18BB
100
AcDbEntity
  8
1
  6
Continuous
100
AcDbLine
 10
633.8775429999998
 20
117.9999639999999
 30
0.0
 11
633.8775429999998
 21
126.4999639999999
 31
0.0
  0
ARC
  5
19AD
330
18BB
100
AcDbEntity
  8
1
  6
Continuous
100
AcDbCircle
 10
632.3775429999998
 20
126.4999639999999
 30
0.0
 40
1.5
100
AcDbArc
 50
0.0
 51
90.0
  0
LINE
  5
19AE
330
18BB
100
AcDbEntity
  8
1
  6
Continuous
100
AcDbLine
 10
632.3775429999998
 20
126.4999639999999
 30
0.0
 11
632.3775429999998
 21
117.9999639999999
 31
0.0
  0
LINE
  5
19AF
330
18BB
100
AcDbEntity
  8
1
  6
Continuous
100
AcDbLine
 10
633.8775429999998
 20
136.4999639999997
 30
0.0
 11
633.8775429999998
 21
129.4999639999998
 31
0.0
  0
ARC
  5
19B0
330
18BB
100
AcDbEntity
  8
1
  6
Continuous
100
AcDbCircle
 10
632.3775429999998
 20
136.4999639999997
 30
0.0
 40
1.5
100
AcDbArc
 50
0.0
 51
90.0
  0
ARC
  5
19B1
330
18BB
100
AcDbEntity
  8
1
  6
Continuous
100
AcDbCircle
 10
632.3775429999998
 20
129.4999639999998
 30
0.0
 40
1.5
100
AcDbArc
 50
270.0
 51
0.0
  0
LINE
  5
19B2
330
18BB
100
AcDbEntity
  8
4
  6
CENTER
100
AcDbLine
 10
626.3775429999998
 20
137.0999639999998
 30
0.0
 11
626.3775429999998
 21
128.8999639999999
 31
0.0
  0
CIRCLE
  5
19B3
330
18BB
100
AcDbEntity
  8
1
  6
Continuous
100
AcDbCircle
 10
626.3775429999998
 20
132.9999639999998
 30
0.0
 40
3.1
  0
LINE
  5
19B4
330
18BB
100
AcDbEntity
  8
4
  6
CENTER
100
AcDbLine
 10
629.851953
 20
142.9999639999998
 30
0.0
 11
636.3519529999997
 21
142.9999639999998
 31
0.0
  0
LINE
  5
19B5
330
18BB
100
AcDbEntity
  8
4
  6
CENTER
100
AcDbLine
 10
629.851953
 20
122.9999639999999
 30
0.0
 11
636.3519529999997
 21
122.9999639999999
 31
0.0
  0
LINE
  5
19B6
330
18BB
100
AcDbEntity
  8
1
  6
Continuous
100
AcDbLine
 10
621.8775429999998
 20
139.4999639999997
 30
0.0
 11
621.8775429999998
 21
137.9999639999998
 31
0.0
  0
LINE
  5
19B7
330
18BB
100
AcDbEntity
  8
1
  6
Continuous
100
AcDbLine
 10
621.8775429999998
 20
126.4999639999999
 30
0.0
 11
621.8775429999998
 21
127.9999639999999
 31
0.0
  0
LINE
  5
19B8
330
18BB
100
AcDbEntity
  8
1
  6
Continuous
100
AcDbLine
 10
487.463048
 20
126.4999639999999
 30
0.0
 11
475.4630480000001
 21
126.4999639999999
 31
0.0
  0
LINE
  5
19B9
330
18BB
100
AcDbEntity
  8
1
  6
Continuous
100
AcDbLine
 10
487.463048
 20
139.4999639999997
 30
0.0
 11
475.4630480000001
 21
139.4999639999997
 31
0.0
  0
LINE
  5
19BA
330
18BB
100
AcDbEntity
  8
1
  6
Continuous
100
AcDbLine
 10
488.9630480000001
 20
127.9999639999999
 30
0.0
 11
475.4630480000001
 21
127.9999639999999
 31
0.0
  0
LINE
  5
19BB
330
18BB
100
AcDbEntity
  8
1
  6
Continuous
100
AcDbLine
 10
488.9630480000001
 20
137.9999639999998
 30
0.0
 11
475.4630480000001
 21
137.9999639999998
 31
0.0
  0
LINE
  5
19BC
330
18BB
100
AcDbEntity
  8
4
  6
CENTER
100
AcDbLine
 10
491.9630480000001
 20
132.9999639999998
 30
0.0
 11
470.963048
 21
132.9999639999998
 31
0.0
  0
LINE
  5
19BD
330
18BB
100
AcDbEntity
  8
1
  6
Continuous
100
AcDbLine
 10
488.9630480000001
 20
137.9999639999998
 30
0.0
 11
488.9630480000001
 21
127.9999639999999
 31
0.0
  0
LINE
  5
19BE
330
18BB
100
AcDbEntity
  8
1
  6
Continuous
100
AcDbLine
 10
485.9630479999998
 20
126.4999639999999
 30
0.0
 11
485.9630479999998
 21
127.9999639999999
 31
0.0
  0
ARC
  5
19BF
330
18BB
100
AcDbEntity
  8
1
  6
Continuous
100
AcDbCircle
 10
487.463048
 20
127.9999639999999
 30
0.0
 40
1.5
100
AcDbArc
 50
270.0
 51
0.0
  0
LINE
  5
19C0
330
18BB
100
AcDbEntity
  8
1
  6
Continuous
100
AcDbLine
 10
485.9630479999998
 20
139.4999639999997
 30
0.0
 11
485.9630479999998
 21
137.9999639999998
 31
0.0
  0
ARC
  5
19C1
330
18BB
100
AcDbEntity
  8
1
  6
Continuous
100
AcDbCircle
 10
487.463048
 20
137.9999639999998
 30
0.0
 40
1.5
100
AcDbArc
 50
0.0
 51
90.0
  0
LINE
  5
19C2
330
18BB
100
AcDbEntity
  8
4
  6
CENTER
100
AcDbLine
 10
481.4630479999998
 20
137.0999639999998
 30
0.0
 11
481.4630479999998
 21
128.8999639999999
 31
0.0
  0
LINE
  5
19C3
330
18BB
100
AcDbEntity
  8
1
  6
Continuous
100
AcDbLine
 10
473.963048
 20
136.4999639999997
 30
0.0
 11
473.963048
 21
129.4999639999998
 31
0.0
  0
LINE
  5
19C4
330
18BB
100
AcDbEntity
  8
1
  6
Continuous
100
AcDbLine
 10
475.4630480000001
 20
126.4999639999999
 30
0.0
 11
475.4630480000001
 21
117.9999639999999
 31
0.0
  0
LINE
  5
19C5
330
18BB
100
AcDbEntity
  8
1
  6
Continuous
100
AcDbLine
 10
473.963048
 20
117.9999639999999
 30
0.0
 11
473.963048
 21
126.4999639999999
 31
0.0
  0
LINE
  5
19C6
330
18BB
100
AcDbEntity
  8
4
  6
CENTER
100
AcDbLine
 10
477.9886379999998
 20
122.9999639999999
 30
0.0
 11
471.488638
 21
122.9999639999999
 31
0.0
  0
LINE
  5
19C7
330
18BB
100
AcDbEntity
  8
1
  6
Continuous
100
AcDbLine
 10
475.4630480000001
 20
117.9999639999999
 30
0.0
 11
473.963048
 21
117.9999639999999
 31
0.0
  0
ARC
  5
19C8
330
18BB
100
AcDbEntity
  8
1
  6
Continuous
100
AcDbCircle
 10
475.4630480000001
 20
129.4999639999998
 30
0.0
 40
1.5
100
AcDbArc
 50
180.0
 51
270.0
  0
ARC
  5
19C9
330
18BB
100
AcDbEntity
  8
1
  6
Continuous
100
AcDbCircle
 10
475.4630480000001
 20
126.4999639999999
 30
0.0
 40
1.5
100
AcDbArc
 50
90.0
 51
180.0
  0
LINE
  5
19CA
330
18BB
100
AcDbEntity
  8
1
  6
Continuous
100
AcDbLine
 10
475.4630480000001
 20
147.9999639999998
 30
0.0
 11
475.4630480000001
 21
139.4999639999997
 31
0.0
  0
LINE
  5
19CB
330
18BB
100
AcDbEntity
  8
1
  6
Continuous
100
AcDbLine
 10
473.963048
 20
147.9999639999998
 30
0.0
 11
473.963048
 21
139.4999639999997
 31
0.0
  0
LINE
  5
19CC
330
18BB
100
AcDbEntity
  8
4
  6
CENTER
100
AcDbLine
 10
477.9886379999998
 20
142.9999639999998
 30
0.0
 11
471.488638
 21
142.9999639999998
 31
0.0
  0
ARC
  5
19CD
330
18BB
100
AcDbEntity
  8
1
  6
Continuous
100
AcDbCircle
 10
475.4630480000001
 20
136.4999639999997
 30
0.0
 40
1.5
100
AcDbArc
 50
90.0
 51
180.0
  0
ARC
  5
19CE
330
18BB
100
AcDbEntity
  8
1
  6
Continuous
100
AcDbCircle
 10
475.4630480000001
 20
139.4999639999997
 30
0.0
 40
1.5
100
AcDbArc
 50
180.0
 51
270.0
  0
LINE
  5
19CF
330
18BB
100
AcDbEntity
  8
1
  6
Continuous
100
AcDbLine
 10
473.963048
 20
147.9999639999998
 30
0.0
 11
475.4630480000001
 21
147.9999639999998
 31
0.0
  0
LINE
  5
19D0
330
18BB
100
AcDbEntity
  8
4
  6
CENTER
100
AcDbLine
 10
562.9202959999998
 20
48.5
 30
0.0
 11
557.420296
 21
48.5
 31
0.0
  0
LINE
  5
19D1
330
18BB
100
AcDbEntity
  8
1
  6
Continuous
100
AcDbLine
 10
25.0
 20
147.9999639999998
 30
0.0
 11
25.0
 21
139.4999639999997
 31
0.0
  0
LINE
  5
19D2
330
18BB
100
AcDbEntity
  8
1
  6
Continuous
100
AcDbLine
 10
26.5
 20
147.9999639999998
 30
0.0
 11
26.5
 21
139.4999639999997
 31
0.0
  0
LINE
  5
19D3
330
18BB
100
AcDbEntity
  8
1
  6
Continuous
100
AcDbLine
 10
26.5
 20
147.9999639999998
 30
0.0
 11
25.0
 21
147.9999639999998
 31
0.0
  0
ARC
  5
19D4
330
18BB
100
AcDbEntity
  8
1
  6
Continuous
100
AcDbCircle
 10
37.0
 20
127.9999639999999
 30
0.0
 40
1.5
100
AcDbArc
 50
270.0
 51
0.0
  0
ARC
  5
19D5
330
18BB
100
AcDbEntity
  8
1
  6
Continuous
100
AcDbCircle
 10
37.0
 20
137.9999639999998
 30
0.0
 40
1.5
100
AcDbArc
 50
0.0
 51
90.0
  0
LINE
  5
19D6
330
18BB
100
AcDbEntity
  8
1
  6
Continuous
100
AcDbLine
 10
38.5
 20
126.4999639999999
 30
0.0
 11
26.5
 21
126.4999639999999
 31
0.0
  0
LINE
  5
19D7
330
18BB
100
AcDbEntity
  8
1
  6
Continuous
100
AcDbLine
 10
38.5
 20
139.4999639999997
 30
0.0
 11
26.5
 21
139.4999639999997
 31
0.0
  0
LINE
  5
19D8
330
18BB
100
AcDbEntity
  8
4
  6
CENTER
100
AcDbLine
 10
45.0
 20
132.9999639999998
 30
0.0
 11
22.0
 21
132.9999639999998
 31
0.0
  0
ARC
  5
19D9
330
18BB
100
AcDbEntity
  8
1
  6
Continuous
100
AcDbCircle
 10
32.5
 20
132.9999639999998
 30
0.0
 40
3.049999999999998
100
AcDbArc
 50
293.3598379999999
 51
66.640162
  0
ARC
  5
19DA
330
18BB
100
AcDbEntity
  8
1
  6
Continuous
100
AcDbCircle
 10
32.5
 20
132.9999639999998
 30
0.0
 40
3.049999999999998
100
AcDbArc
 50
113.3598379999999
 51
246.640162
  0
ARC
  5
19DB
330
18BB
100
AcDbEntity
  8
1
  6
Continuous
100
AcDbCircle
 10
32.5
 20
132.9999639999998
 30
0.0
 40
3.0
100
AcDbArc
 50
111.03947
 51
248.96053
  0
ARC
  5
19DC
330
18BB
100
AcDbEntity
  8
1
  6
Continuous
100
AcDbCircle
 10
32.5
 20
132.9999639999998
 30
0.0
 40
3.0
100
AcDbArc
 50
291.0394699999999
 51
68.96053000000001
  0
LINE
  5
19DD
330
18BB
100
AcDbEntity
  8
1
  6
Continuous
100
AcDbLine
 10
25.0
 20
137.9999639999998
 30
0.0
 11
25.0
 21
127.9999639999999
 31
0.0
  0
LINE
  5
19DE
330
18BB
100
AcDbEntity
  8
4
  6
CENTER
100
AcDbLine
 10
32.5
 20
128.6999639999999
 30
0.0
 11
32.5
 21
137.2999639999999
 31
0.0
  0
LINE
  5
19DF
330
18BB
100
AcDbEntity
  8
4
  6
CENTER
100
AcDbLine
 10
28.0
 20
142.9999639999998
 30
0.0
 11
23.5
 21
142.9999639999998
 31
0.0
  0
ARC
  5
19E0
330
18BB
100
AcDbEntity
  8
1
  6
Continuous
100
AcDbCircle
 10
26.5
 20
137.9999639999998
 30
0.0
 40
1.5
100
AcDbArc
 50
90.0
 51
180.0
  0
ARC
  5
19E1
330
18BB
100
AcDbEntity
  8
1
  6
Continuous
100
AcDbCircle
 10
26.5
 20
139.4999639999997
 30
0.0
 40
1.5
100
AcDbArc
 50
180.0
 51
210.0
  0
LINE
  5
19E2
330
18BB
100
AcDbEntity
  8
1
  6
Continuous
100
AcDbLine
 10
33.709339
 20
135.7999639999998
 30
0.0
 11
31.290661
 21
135.7999639999998
 31
0.0
  0
CIRCLE
  5
19E3
330
18BB
100
AcDbEntity
  8
1
  6
Continuous
100
AcDbCircle
 10
32.5
 20
132.9999639999998
 30
0.0
 40
2.0
  0
LINE
  5
19E4
330
18BB
100
AcDbEntity
  8
1
  6
Continuous
100
AcDbLine
 10
31.30104199999999
 20
135.7499639999998
 30
0.0
 11
33.698958
 21
135.7499639999998
 31
0.0
  0
LINE
  5
19E5
330
18BB
100
AcDbEntity
  8
1
  6
Continuous
100
AcDbLine
 10
30.0
 20
134.6582759999998
 30
0.0
 11
30.0
 21
131.341652
 31
0.0
  0
LINE
  5
19E6
330
18BB
100
AcDbEntity
  8
1
  6
Continuous
100
AcDbLine
 10
35.0
 20
134.6582759999998
 30
0.0
 11
35.0
 21
131.341652
 31
0.0
  0
LINE
  5
19E7
330
18BB
100
AcDbEntity
  8
4
  6
CENTER
100
AcDbLine
 10
28.0
 20
122.9999639999999
 30
0.0
 11
23.5
 21
122.9999639999999
 31
0.0
  0
LINE
  5
19E8
330
18BB
100
AcDbEntity
  8
1
  6
Continuous
100
AcDbLine
 10
25.0
 20
126.4999639999999
 30
0.0
 11
25.0
 21
117.9999639999999
 31
0.0
  0
LINE
  5
19E9
330
18BB
100
AcDbEntity
  8
1
  6
Continuous
100
AcDbLine
 10
26.5
 20
126.4999639999999
 30
0.0
 11
26.5
 21
117.9999639999999
 31
0.0
  0
ARC
  5
19EA
330
18BB
100
AcDbEntity
  8
1
  6
Continuous
100
AcDbCircle
 10
26.5
 20
127.9999639999999
 30
0.0
 40
1.5
100
AcDbArc
 50
180.0
 51
270.0
  0
ARC
  5
19EB
330
18BB
100
AcDbEntity
  8
1
  6
Continuous
100
AcDbCircle
 10
26.5
 20
126.4999639999999
 30
0.0
 40
1.5
100
AcDbArc
 50
150.0
 51
180.0
  0
LINE
  5
19EC
330
18BB
100
AcDbEntity
  8
1
  6
Continuous
100
AcDbLine
 10
26.5
 20
117.9999639999999
 30
0.0
 11
25.0
 21
117.9999639999999
 31
0.0
  0
LINE
  5
19ED
330
18BB
100
AcDbEntity
  8
1
  6
Continuous
100
AcDbLine
 10
33.709339
 20
130.199964
 30
0.0
 11
31.290661
 21
130.199964
 31
0.0
  0
LINE
  5
19EE
330
18BB
100
AcDbEntity
  8
1
  6
Continuous
100
AcDbLine
 10
31.30104199999999
 20
130.2499639999997
 30
0.0
 11
33.698958
 21
130.2499639999997
 31
0.0
  0
LINE
  5
19EF
330
18BB
100
AcDbEntity
  8
5
  6
PHANTOM
100
AcDbLine
 10
42.0
 20
136.8999639999999
 30
0.0
 11
42.0
 21
129.099964
 31
0.0
  0
LINE
  5
19F0
330
18BB
100
AcDbEntity
  8
1
  6
Continuous
100
AcDbLine
 10
40.0
 20
137.9999639999998
 30
0.0
 11
40.0
 21
127.9999639999999
 31
0.0
  0
ARC
  5
19F1
330
18BB
100
AcDbEntity
  8
1
  6
Continuous
100
AcDbCircle
 10
38.5
 20
137.9999639999998
 30
0.0
 40
1.5
100
AcDbArc
 50
0.0
 51
90.0
  0
ARC
  5
19F2
330
18BB
100
AcDbEntity
  8
5
  6
PHANTOM
100
AcDbCircle
 10
41.0
 20
136.8999639999999
 30
0.0
 40
1.0
100
AcDbArc
 50
0.0
 51
90.0
  0
LINE
  5
19F3
330
18BB
100
AcDbEntity
  8
5
  6
PHANTOM
100
AcDbLine
 10
41.0
 20
136.8999639999999
 30
0.0
 11
42.0
 21
136.8999639999999
 31
0.0
  0
ARC
  5
19F4
330
18BB
100
AcDbEntity
  8
5
  6
PHANTOM
100
AcDbCircle
 10
41.0
 20
137.8999639999999
 30
0.0
 40
1.0
100
AcDbArc
 50
210.0
 51
270.0
  0
ARC
  5
19F5
330
18BB
100
AcDbEntity
  8
5
  6
PHANTOM
100
AcDbCircle
 10
39.267949
 20
136.8999639999999
 30
0.0
 40
1.0
100
AcDbArc
 50
30.0
 51
42.941403
  0
LINE
  5
19F6
330
18BB
100
AcDbEntity
  8
5
  6
PHANTOM
100
AcDbLine
 10
41.0
 20
137.8999639999999
 30
0.0
 11
40.0
 21
137.8999639999999
 31
0.0
  0
LINE
  5
19F7
330
18BB
100
AcDbEntity
  8
1
  6
Continuous
100
AcDbLine
 10
40.0
 20
137.9999639999998
 30
0.0
 11
38.5
 21
137.9999639999998
 31
0.0
  0
ARC
  5
19F8
330
18BB
100
AcDbEntity
  8
1
  6
Continuous
100
AcDbCircle
 10
38.5
 20
127.9999639999999
 30
0.0
 40
1.5
100
AcDbArc
 50
270.0
 51
0.0
  0
ARC
  5
19F9
330
18BB
100
AcDbEntity
  8
5
  6
PHANTOM
100
AcDbCircle
 10
39.267949
 20
129.099964
 30
0.0
 40
1.0
100
AcDbArc
 50
317.058597
 51
330.0
  0
ARC
  5
19FA
330
18BB
100
AcDbEntity
  8
5
  6
PHANTOM
100
AcDbCircle
 10
41.0
 20
128.099964
 30
0.0
 40
1.0
100
AcDbArc
 50
90.0
 51
150.0
  0
LINE
  5
19FB
330
18BB
100
AcDbEntity
  8
5
  6
PHANTOM
100
AcDbLine
 10
41.0
 20
129.099964
 30
0.0
 11
42.0
 21
129.099964
 31
0.0
  0
ARC
  5
19FC
330
18BB
100
AcDbEntity
  8
5
  6
PHANTOM
100
AcDbCircle
 10
41.0
 20
129.099964
 30
0.0
 40
1.0
100
AcDbArc
 50
270.0
 51
0.0
  0
LINE
  5
19FD
330
18BB
100
AcDbEntity
  8
5
  6
PHANTOM
100
AcDbLine
 10
41.0
 20
128.099964
 30
0.0
 11
40.0
 21
128.099964
 31
0.0
  0
LINE
  5
19FE
330
18BB
100
AcDbEntity
  8
1
  6
Continuous
100
AcDbLine
 10
40.0
 20
127.9999639999999
 30
0.0
 11
38.5
 21
127.9999639999999
 31
0.0
  0
LINE
  5
19FF
330
18BB
100
AcDbEntity
  8
4
  6
CENTER
100
AcDbLine
 10
239.416695
 20
132.9999639999998
 30
0.0
 11
262.416695
 21
132.9999639999998
 31
0.0
  0
LINE
  5
1A00
330
18BB
100
AcDbEntity
  8
1
  6
Continuous
100
AcDbLine
 10
245.916695
 20
126.4999639999999
 30
0.0
 11
257.916695
 21
126.4999639999999
 31
0.0
  0
LINE
  5
1A01
330
18BB
100
AcDbEntity
  8
1
  6
Continuous
100
AcDbLine
 10
245.916695
 20
139.4999639999997
 30
0.0
 11
257.916695
 21
139.4999639999997
 31
0.0
  0
LINE
  5
1A02
330
18BB
100
AcDbEntity
  8
4
  6
CENTER
100
AcDbLine
 10
251.916695
 20
126.9999639999999
 30
0.0
 11
251.916695
 21
138.9999639999998
 31
0.0
  0
LINE
  5
1A03
330
18BB
100
AcDbEntity
  8
1
  6
Continuous
100
AcDbLine
 10
259.4166949999999
 20
137.9999639999998
 30
0.0
 11
259.4166949999999
 21
127.9999639999999
 31
0.0
  0
LINE
  5
1A04
330
18BB
100
AcDbEntity
  8
1
  6
Continuous
100
AcDbLine
 10
259.4166949999999
 20
126.4999639999999
 30
0.0
 11
259.4166949999999
 21
117.9999639999999
 31
0.0
  0
LINE
  5
1A05
330
18BB
100
AcDbEntity
  8
1
  6
Continuous
100
AcDbLine
 10
257.916695
 20
126.4999639999999
 30
0.0
 11
257.916695
 21
117.9999639999999
 31
0.0
  0
LINE
  5
1A06
330
18BB
100
AcDbEntity
  8
4
  6
CENTER
100
AcDbLine
 10
256.416695
 20
122.9999639999999
 30
0.0
 11
260.916695
 21
122.9999639999999
 31
0.0
  0
LINE
  5
1A07
330
18BB
100
AcDbEntity
  8
1
  6
Continuous
100
AcDbLine
 10
257.916695
 20
117.9999639999999
 30
0.0
 11
259.4166949999999
 21
117.9999639999999
 31
0.0
  0
ARC
  5
1A08
330
18BB
100
AcDbEntity
  8
1
  6
Continuous
100
AcDbCircle
 10
257.916695
 20
127.9999639999999
 30
0.0
 40
1.5
100
AcDbArc
 50
330.0
 51
0.0
  0
ARC
  5
1A09
330
18BB
100
AcDbEntity
  8
1
  6
Continuous
100
AcDbCircle
 10
257.916695
 20
126.4999639999999
 30
0.0
 40
1.5
100
AcDbArc
 50
0.0
 51
90.0
  0
LINE
  5
1A0A
330
18BB
100
AcDbEntity
  8
1
  6
Continuous
100
AcDbLine
 10
259.4166949999999
 20
147.9999639999998
 30
0.0
 11
259.4166949999999
 21
139.4999639999997
 31
0.0
  0
LINE
  5
1A0B
330
18BB
100
AcDbEntity
  8
1
  6
Continuous
100
AcDbLine
 10
257.916695
 20
147.9999639999998
 30
0.0
 11
257.916695
 21
139.4999639999997
 31
0.0
  0
LINE
  5
1A0C
330
18BB
100
AcDbEntity
  8
4
  6
CENTER
100
AcDbLine
 10
256.416695
 20
142.9999639999998
 30
0.0
 11
260.916695
 21
142.9999639999998
 31
0.0
  0
ARC
  5
1A0D
330
18BB
100
AcDbEntity
  8
1
  6
Continuous
100
AcDbCircle
 10
257.916695
 20
137.9999639999998
 30
0.0
 40
1.5
100
AcDbArc
 50
0.0
 51
30.0
  0
ARC
  5
1A0E
330
18BB
100
AcDbEntity
  8
1
  6
Continuous
100
AcDbCircle
 10
257.916695
 20
139.4999639999997
 30
0.0
 40
1.5
100
AcDbArc
 50
270.0
 51
0.0
  0
LINE
  5
1A0F
330
18BB
100
AcDbEntity
  8
1
  6
Continuous
100
AcDbLine
 10
257.916695
 20
147.9999639999998
 30
0.0
 11
259.4166949999999
 21
147.9999639999998
 31
0.0
  0
LINE
  5
1A10
330
18BB
100
AcDbEntity
  8
5
  6
PHANTOM
100
AcDbLine
 10
242.416695
 20
136.8999639999999
 30
0.0
 11
242.416695
 21
129.099964
 31
0.0
  0
LINE
  5
1A11
330
18BB
100
AcDbEntity
  8
1
  6
Continuous
100
AcDbLine
 10
244.416695
 20
137.9999639999998
 30
0.0
 11
244.416695
 21
127.9999639999999
 31
0.0
  0
LINE
  5
1A12
330
18BB
100
AcDbEntity
  8
5
  6
PHANTOM
100
AcDbLine
 10
243.416695
 20
129.099964
 30
0.0
 11
242.416695
 21
129.099964
 31
0.0
  0
ARC
  5
1A13
330
18BB
100
AcDbEntity
  8
5
  6
PHANTOM
100
AcDbCircle
 10
243.416695
 20
129.099964
 30
0.0
 40
1.0
100
AcDbArc
 50
180.0
 51
270.0
  0
ARC
  5
1A14
330
18BB
100
AcDbEntity
  8
5
  6
PHANTOM
100
AcDbCircle
 10
243.416695
 20
128.099964
 30
0.0
 40
1.0
100
AcDbArc
 50
30.0
 51
90.0
  0
LINE
  5
1A15
330
18BB
100
AcDbEntity
  8
5
  6
PHANTOM
100
AcDbLine
 10
243.416695
 20
128.099964
 30
0.0
 11
244.416695
 21
128.099964
 31
0.0
  0
ARC
  5
1A16
330
18BB
100
AcDbEntity
  8
5
  6
PHANTOM
100
AcDbCircle
 10
245.148746
 20
129.099964
 30
0.0
 40
1.0
100
AcDbArc
 50
210.0
 51
222.941403
  0
ARC
  5
1A17
330
18BB
100
AcDbEntity
  8
1
  6
Continuous
100
AcDbCircle
 10
245.916695
 20
127.9999639999999
 30
0.0
 40
1.5
100
AcDbArc
 50
180.0
 51
270.0
  0
LINE
  5
1A18
330
18BB
100
AcDbEntity
  8
1
  6
Continuous
100
AcDbLine
 10
244.416695
 20
127.9999639999999
 30
0.0
 11
257.916695
 21
127.9999639999999
 31
0.0
  0
LINE
  5
1A19
330
18BB
100
AcDbEntity
  8
5
  6
PHANTOM
100
AcDbLine
 10
243.416695
 20
136.8999639999999
 30
0.0
 11
242.416695
 21
136.8999639999999
 31
0.0
  0
ARC
  5
1A1A
330
18BB
100
AcDbEntity
  8
5
  6
PHANTOM
100
AcDbCircle
 10
243.416695
 20
136.8999639999999
 30
0.0
 40
1.0
100
AcDbArc
 50
90.0
 51
180.0
  0
ARC
  5
1A1B
330
18BB
100
AcDbEntity
  8
5
  6
PHANTOM
100
AcDbCircle
 10
243.416695
 20
137.8999639999999
 30
0.0
 40
1.0
100
AcDbArc
 50
270.0
 51
330.0
  0
LINE
  5
1A1C
330
18BB
100
AcDbEntity
  8
5
  6
PHANTOM
100
AcDbLine
 10
243.416695
 20
137.8999639999999
 30
0.0
 11
244.416695
 21
137.8999639999999
 31
0.0
  0
ARC
  5
1A1D
330
18BB
100
AcDbEntity
  8
5
  6
PHANTOM
100
AcDbCircle
 10
245.148746
 20
136.8999639999999
 30
0.0
 40
1.0
100
AcDbArc
 50
137.058597
 51
150.0
  0
ARC
  5
1A1E
330
18BB
100
AcDbEntity
  8
1
  6
Continuous
100
AcDbCircle
 10
245.916695
 20
137.9999639999998
 30
0.0
 40
1.5
100
AcDbArc
 50
90.0
 51
180.0
  0
LINE
  5
1A1F
330
18BB
100
AcDbEntity
  8
1
  6
Continuous
100
AcDbLine
 10
244.416695
 20
137.9999639999998
 30
0.0
 11
257.916695
 21
137.9999639999998
 31
0.0
  0
CIRCLE
  5
1A20
330
18BB
100
AcDbEntity
  8
1
  6
Continuous
100
AcDbCircle
 10
251.916695
 20
132.9999639999998
 30
0.0
 40
4.0
  0
CIRCLE
  5
1A21
330
18BB
100
AcDbEntity
  8
1
  6
Continuous
100
AcDbCircle
 10
251.916695
 20
132.9999639999998
 30
0.0
 40
3.5
  0
ARC
  5
1A22
330
18BB
100
AcDbEntity
  8
1
  6
Continuous
100
AcDbCircle
 10
257.916695
 20
129.4999639999998
 30
0.0
 40
1.5
100
AcDbArc
 50
270.0
 51
0.0
  0
ARC
  5
1A23
330
18BB
100
AcDbEntity
  8
1
  6
Continuous
100
AcDbCircle
 10
257.916695
 20
136.4999639999997
 30
0.0
 40
1.5
100
AcDbArc
 50
0.0
 51
90.0
  0
LINE
  5
1A24
330
18BB
100
AcDbEntity
  8
5
  6
PHANTOM
100
AcDbLine
 10
115.908348
 20
214.9999279999999
 30
0.0
 11
106.408348
 21
214.9999279999999
 31
0.0
  0
LINE
  5
1A25
330
18BB
100
AcDbEntity
  8
5
  6
PHANTOM
100
AcDbLine
 10
106.9083479999999
 20
216.3009699999999
 30
0.0
 11
115.908348
 21
216.3009699999999
 31
0.0
  0
LINE
  5
1A26
330
18BB
100
AcDbEntity
  8
5
  6
PHANTOM
100
AcDbLine
 10
115.908348
 20
219.9999279999999
 30
0.0
 11
106.408348
 21
219.9999279999999
 31
0.0
  0
LINE
  5
1A27
330
18BB
100
AcDbEntity
  8
5
  6
PHANTOM
100
AcDbLine
 10
106.9083479999999
 20
218.698886
 30
0.0
 11
115.908348
 21
218.698886
 31
0.0
  0
LINE
  5
1A28
330
18BB
100
AcDbEntity
  8
5
  6
PHANTOM
100
AcDbLine
 10
106.9083479999999
 20
216.3009699999999
 30
0.0
 11
115.908348
 21
218.3563259999999
 31
0.0
  0
LINE
  5
1A29
330
18BB
100
AcDbEntity
  8
5
  6
PHANTOM
100
AcDbLine
 10
106.9083479999999
 20
218.698886
 30
0.0
 11
115.908348
 21
216.6435299999999
 31
0.0
  0
LINE
  5
1A2A
330
18BB
100
AcDbEntity
  8
4
  6
CENTER
100
AcDbLine
 10
102.908348
 20
217.4999279999999
 30
0.0
 11
184.908348
 21
217.4999279999999
 31
0.0
  0
LINE
  5
1A2B
330
18BB
100
AcDbEntity
  8
5
  6
PHANTOM
100
AcDbLine
 10
105.9083479999999
 20
215.4999279999999
 30
0.0
 11
105.9083479999999
 21
219.4999279999999
 31
0.0
  0
ARC
  5
1A2C
330
18BB
100
AcDbEntity
  8
5
  6
PHANTOM
100
AcDbCircle
 10
109.658348
 20
217.4999279999999
 30
0.0
 40
3.0
100
AcDbArc
 50
156.443536
 51
203.556464
  0
LINE
  5
1A2D
330
18BB
100
AcDbEntity
  8
5
  6
PHANTOM
100
AcDbLine
 10
105.9083479999999
 20
219.4999279999999
 30
0.0
 11
106.408348
 21
219.9999279999999
 31
0.0
  0
LINE
  5
1A2E
330
18BB
100
AcDbEntity
  8
5
  6
PHANTOM
100
AcDbLine
 10
106.9083479999999
 20
218.698886
 30
0.0
 11
106.9083479999999
 21
219.9999279999999
 31
0.0
  0
LINE
  5
1A2F
330
18BB
100
AcDbEntity
  8
5
  6
PHANTOM
100
AcDbLine
 10
105.9083479999999
 20
215.4999279999999
 30
0.0
 11
106.408348
 21
214.9999279999999
 31
0.0
  0
LINE
  5
1A30
330
18BB
100
AcDbEntity
  8
5
  6
PHANTOM
100
AcDbLine
 10
106.9083479999999
 20
214.9999279999999
 30
0.0
 11
106.9083479999999
 21
216.3009699999999
 31
0.0
  0
LINE
  5
1A31
330
18BB
100
AcDbEntity
  8
1
  6
Continuous
100
AcDbLine
 10
165.9083479999999
 20
214.4999279999999
 30
0.0
 11
176.9083479999999
 21
214.4999279999999
 31
0.0
  0
LINE
  5
1A32
330
18BB
100
AcDbEntity
  8
1
  6
Continuous
100
AcDbLine
 10
165.9083479999999
 20
220.499928
 30
0.0
 11
176.9083479999999
 21
220.499928
 31
0.0
  0
LINE
  5
1A33
330
18BB
100
AcDbEntity
  8
1
  6
Continuous
100
AcDbLine
 10
164.4083479999999
 20
209.999928
 30
0.0
 11
135.508348
 21
209.999928
 31
0.0
  0
LINE
  5
1A34
330
18BB
100
AcDbEntity
  8
1
  6
Continuous
100
AcDbLine
 10
165.9083479999999
 20
224.9999279999999
 30
0.0
 11
118.508348
 21
224.9999279999999
 31
0.0
  0
LINE
  5
1A35
330
18BB
100
AcDbEntity
  8
1
  6
Continuous
100
AcDbLine
 10
165.9083479999999
 20
223.4999279999999
 30
0.0
 11
118.508348
 21
223.4999279999999
 31
0.0
  0
LINE
  5
1A36
330
18BB
100
AcDbEntity
  8
1
  6
Continuous
100
AcDbLine
 10
118.508348
 20
209.999928
 30
0.0
 11
118.508348
 21
224.9999279999999
 31
0.0
  0
LINE
  5
1A37
330
18BB
100
AcDbEntity
  8
1
  6
Continuous
100
AcDbLine
 10
118.4083479999999
 20
214.4999279999999
 30
0.0
 11
118.4083479999999
 21
224.9999279999999
 31
0.0
  0
LINE
  5
1A38
330
18BB
100
AcDbEntity
  8
1
  6
Continuous
100
AcDbLine
 10
117.4083479999999
 20
211.4999279999999
 30
0.0
 11
117.4083479999999
 21
224.9999279999999
 31
0.0
  0
LINE
  5
1A39
330
18BB
100
AcDbEntity
  8
1
  6
Continuous
100
AcDbLine
 10
115.908348
 20
210.9999279999999
 30
0.0
 11
115.908348
 21
224.9999279999999
 31
0.0
  0
LINE
  5
1A3A
330
18BB
100
AcDbEntity
  8
1
  6
Continuous
100
AcDbLine
 10
118.4083479999999
 20
224.9999279999999
 30
0.0
 11
115.908348
 21
224.9999279999999
 31
0.0
  0
LINE
  5
1A3B
330
18BB
100
AcDbEntity
  8
1
  6
Continuous
100
AcDbLine
 10
118.508348
 20
219.9999279999999
 30
0.0
 11
118.4083479999999
 21
219.9999279999999
 31
0.0
  0
LINE
  5
1A3C
330
18BB
100
AcDbEntity
  8
1
  6
Continuous
100
AcDbLine
 10
118.4083479999999
 20
218.698886
 30
0.0
 11
118.508348
 21
218.698886
 31
0.0
  0
LINE
  5
1A3D
330
18BB
100
AcDbEntity
  8
1
  6
Continuous
100
AcDbLine
 10
118.4083479999999
 20
218.3563259999999
 30
0.0
 11
118.508348
 21
218.3334889999999
 31
0.0
  0
LINE
  5
1A3E
330
18BB
100
AcDbEntity
  8
4
  6
CENTER
100
AcDbLine
 10
125.908348
 20
221.9999279999999
 30
0.0
 11
125.908348
 21
226.499928
 31
0.0
  0
LINE
  5
1A3F
330
18BB
100
AcDbEntity
  8
5
  6
PHANTOM
100
AcDbLine
 10
134.4083479999998
 20
207.999928
 30
0.0
 11
124.408348
 21
207.999928
 31
0.0
  0
LINE
  5
1A40
330
18BB
100
AcDbEntity
  8
1
  6
Continuous
100
AcDbLine
 10
135.508348
 20
211.4999279999999
 30
0.0
 11
123.3083479999999
 21
211.4999279999999
 31
0.0
  0
LINE
  5
1A41
330
18BB
100
AcDbEntity
  8
1
  6
Continuous
100
AcDbLine
 10
134.4083479999998
 20
209.999928
 30
0.0
 11
124.408348
 21
209.999928
 31
0.0
  0
LINE
  5
1A42
330
18BB
100
AcDbEntity
  8
1
  6
Continuous
100
AcDbLine
 10
115.908348
 20
211.4999279999999
 30
0.0
 11
118.508348
 21
211.4999279999999
 31
0.0
  0
ARC
  5
1A43
330
18BB
100
AcDbEntity
  8
1
  6
Continuous
100
AcDbCircle
 10
118.4083479999999
 20
214.4999279999999
 30
0.0
 40
1.0
100
AcDbArc
 50
180.0
 51
270.0
  0
LINE
  5
1A44
330
18BB
100
AcDbEntity
  8
1
  6
Continuous
100
AcDbLine
 10
118.508348
 20
214.4999279999999
 30
0.0
 11
117.4083479999999
 21
214.4999279999999
 31
0.0
  0
LINE
  5
1A45
330
18BB
100
AcDbEntity
  8
1
  6
Continuous
100
AcDbLine
 10
123.3083479999999
 20
209.999928
 30
0.0
 11
116.908348
 21
209.999928
 31
0.0
  0
ARC
  5
1A46
330
18BB
100
AcDbEntity
  8
1
  6
Continuous
100
AcDbCircle
 10
116.908348
 20
210.9999279999999
 30
0.0
 40
1.0
100
AcDbArc
 50
180.0
 51
270.0
  0
ARC
  5
1A47
330
18BB
100
AcDbEntity
  8
5
  6
PHANTOM
100
AcDbCircle
 10
124.408348
 20
208.999928
 30
0.0
 40
1.0
100
AcDbArc
 50
180.0
 51
270.0
  0
ARC
  5
1A48
330
18BB
100
AcDbEntity
  8
1
  6
Continuous
100
AcDbCircle
 10
124.408348
 20
210.9999279999999
 30
0.0
 40
1.0
100
AcDbArc
 50
180.0
 51
270.0
  0
LINE
  5
1A49
330
18BB
100
AcDbEntity
  8
5
  6
PHANTOM
100
AcDbLine
 10
123.408348
 20
209.999928
 30
0.0
 11
124.408348
 21
209.999928
 31
0.0
  0
LINE
  5
1A4A
330
18BB
100
AcDbEntity
  8
5
  6
PHANTOM
100
AcDbLine
 10
124.408348
 20
207.999928
 30
0.0
 11
124.408348
 21
209.999928
 31
0.0
  0
LINE
  5
1A4B
330
18BB
100
AcDbEntity
  8
5
  6
PHANTOM
100
AcDbLine
 10
123.408348
 20
208.999928
 30
0.0
 11
123.408348
 21
210.9999279999999
 31
0.0
  0
LINE
  5
1A4C
330
18BB
100
AcDbEntity
  8
1
  6
Continuous
100
AcDbLine
 10
123.3083479999999
 20
211.4999279999999
 30
0.0
 11
123.3083479999999
 21
209.999928
 31
0.0
  0
LINE
  5
1A4D
330
18BB
100
AcDbEntity
  8
1
  6
Continuous
100
AcDbLine
 10
124.408379
 20
211.4999279999999
 30
0.0
 11
124.408379
 21
209.999928
 31
0.0
  0
LINE
  5
1A4E
330
18BB
100
AcDbEntity
  8
1
  6
Continuous
100
AcDbLine
 10
123.408348
 20
211.4999279999999
 30
0.0
 11
123.408348
 21
210.9999279999999
 31
0.0
  0
LINE
  5
1A4F
330
18BB
100
AcDbEntity
  8
1
  6
Continuous
100
AcDbLine
 10
118.4083479999999
 20
216.6435299999999
 30
0.0
 11
118.508348
 21
216.6663669999998
 31
0.0
  0
LINE
  5
1A50
330
18BB
100
AcDbEntity
  8
1
  6
Continuous
100
AcDbLine
 10
118.4083479999999
 20
216.3009699999999
 30
0.0
 11
118.508348
 21
216.3009699999999
 31
0.0
  0
LINE
  5
1A51
330
18BB
100
AcDbEntity
  8
1
  6
Continuous
100
AcDbLine
 10
118.508348
 20
214.9999279999999
 30
0.0
 11
118.4083479999999
 21
214.9999279999999
 31
0.0
  0
LINE
  5
1A52
330
18BB
100
AcDbEntity
  8
1
  6
Continuous
100
AcDbLine
 10
118.4083479999999
 20
213.4999279999999
 30
0.0
 11
118.508348
 21
213.4999279999999
 31
0.0
  0
LINE
  5
1A53
330
18BB
100
AcDbEntity
  8
4
  6
CENTER
100
AcDbLine
 10
129.4083479999999
 20
206.499928
 30
0.0
 11
129.4083479999999
 21
211.4999279999999
 31
0.0
  0
ARC
  5
1A54
330
18BB
100
AcDbEntity
  8
5
  6
PHANTOM
100
AcDbCircle
 10
134.4083479999998
 20
208.999928
 30
0.0
 40
1.0
100
AcDbArc
 50
270.0
 51
0.0
  0
ARC
  5
1A55
330
18BB
100
AcDbEntity
  8
1
  6
Continuous
100
AcDbCircle
 10
134.4083479999998
 20
210.9999279999999
 30
0.0
 40
1.0
100
AcDbArc
 50
270.0
 51
0.0
  0
LINE
  5
1A56
330
18BB
100
AcDbEntity
  8
5
  6
PHANTOM
100
AcDbLine
 10
135.4083479999999
 20
209.999928
 30
0.0
 11
134.4083479999998
 21
209.999928
 31
0.0
  0
LINE
  5
1A57
330
18BB
100
AcDbEntity
  8
5
  6
PHANTOM
100
AcDbLine
 10
135.4083479999999
 20
208.999928
 30
0.0
 11
135.4083479999999
 21
210.9999279999999
 31
0.0
  0
LINE
  5
1A58
330
18BB
100
AcDbEntity
  8
5
  6
PHANTOM
100
AcDbLine
 10
134.4083479999998
 20
207.999928
 30
0.0
 11
134.4083479999998
 21
209.999928
 31
0.0
  0
LINE
  5
1A59
330
18BB
100
AcDbEntity
  8
1
  6
Continuous
100
AcDbLine
 10
135.508348
 20
211.4999279999999
 30
0.0
 11
135.508348
 21
209.999928
 31
0.0
  0
LINE
  5
1A5A
330
18BB
100
AcDbEntity
  8
1
  6
Continuous
100
AcDbLine
 10
135.4083479999999
 20
211.4999279999999
 30
0.0
 11
135.4083479999999
 21
210.9999279999999
 31
0.0
  0
LINE
  5
1A5B
330
18BB
100
AcDbEntity
  8
1
  6
Continuous
100
AcDbLine
 10
134.4083479999998
 20
211.4999279999999
 30
0.0
 11
134.4083479999998
 21
209.999928
 31
0.0
  0
LINE
  5
1A5C
330
18BB
100
AcDbEntity
  8
1
  6
Continuous
100
AcDbLine
 10
165.9083479999999
 20
211.4999279999999
 30
0.0
 11
165.9083479999999
 21
224.9999279999999
 31
0.0
  0
LINE
  5
1A5D
330
18BB
100
AcDbEntity
  8
4
  6
CENTER
100
AcDbLine
 10
155.9083479999999
 20
221.9999279999999
 30
0.0
 11
155.9083479999999
 21
226.499928
 31
0.0
  0
ARC
  5
1A5E
330
18BB
100
AcDbEntity
  8
1
  6
Continuous
100
AcDbCircle
 10
165.9083479999999
 20
211.4999279999999
 30
0.0
 40
1.5
100
AcDbArc
 50
104.477512
 51
180.0
  0
ARC
  5
1A5F
330
18BB
100
AcDbEntity
  8
1
  6
Continuous
100
AcDbCircle
 10
165.4083479999999
 20
213.43642
 30
0.0
 40
0.5
100
AcDbArc
 50
284.4775119999998
 51
0.0
  0
LINE
  5
1A60
330
18BB
100
AcDbEntity
  8
1
  6
Continuous
100
AcDbLine
 10
164.4083479999999
 20
211.4999279999999
 30
0.0
 11
164.4083479999999
 21
209.999928
 31
0.0
  0
ARC
  5
1A61
330
18BB
100
AcDbEntity
  8
1
  6
Continuous
100
AcDbCircle
 10
164.4083479999999
 20
211.4999279999999
 30
0.0
 40
1.5
100
AcDbArc
 50
270.0
 51
0.0
  0
LINE
  5
1A62
330
18BB
100
AcDbEntity
  8
1
  6
Continuous
100
AcDbLine
 10
181.4083479999999
 20
213.4999279999999
 30
0.0
 11
181.4083479999999
 21
221.4999279999999
 31
0.0
  0
LINE
  5
1A63
330
18BB
100
AcDbEntity
  8
1
  6
Continuous
100
AcDbLine
 10
177.4083479999999
 20
221.4999279999999
 30
0.0
 11
177.4083479999999
 21
213.4999279999999
 31
0.0
  0
LINE
  5
1A64
330
18BB
100
AcDbEntity
  8
1
  6
Continuous
100
AcDbLine
 10
176.9083479999999
 20
213.999928
 30
0.0
 11
176.9083479999999
 21
220.9999279999999
 31
0.0
  0
LINE
  5
1A65
330
18BB
100
AcDbEntity
  8
1
  6
Continuous
100
AcDbLine
 10
181.9083479999999
 20
213.999928
 30
0.0
 11
181.9083479999999
 21
220.9999279999999
 31
0.0
  0
LINE
  5
1A66
330
18BB
100
AcDbEntity
  8
1
  6
Continuous
100
AcDbLine
 10
181.4083479999999
 20
221.4999279999999
 30
0.0
 11
177.4083479999999
 21
221.4999279999999
 31
0.0
  0
LINE
  5
1A67
330
18BB
100
AcDbEntity
  8
1
  6
Continuous
100
AcDbLine
 10
177.4083479999999
 20
221.4999279999999
 30
0.0
 11
176.9083479999999
 21
220.9999279999999
 31
0.0
  0
LINE
  5
1A68
330
18BB
100
AcDbEntity
  8
1
  6
Continuous
100
AcDbLine
 10
181.9083479999999
 20
220.9999279999999
 30
0.0
 11
181.4083479999999
 21
221.4999279999999
 31
0.0
  0
LINE
  5
1A69
330
18BB
100
AcDbEntity
  8
1
  6
Continuous
100
AcDbLine
 10
181.4083479999999
 20
213.4999279999999
 30
0.0
 11
177.4083479999999
 21
213.4999279999999
 31
0.0
  0
LINE
  5
1A6A
330
18BB
100
AcDbEntity
  8
1
  6
Continuous
100
AcDbLine
 10
176.9083479999999
 20
213.999928
 30
0.0
 11
177.4083479999999
 21
213.4999279999999
 31
0.0
  0
LINE
  5
1A6B
330
18BB
100
AcDbEntity
  8
1
  6
Continuous
100
AcDbLine
 10
181.4083479999999
 20
213.4999279999999
 30
0.0
 11
181.9083479999999
 21
213.999928
 31
0.0
  0
LINE
  5
1A6C
330
18BB
100
AcDbEntity
  8
5
  6
PHANTOM
100
AcDbLine
 10
397.175043
 20
135.7499639999998
 30
0.0
 11
387.925043
 21
135.7499639999998
 31
0.0
  0
LINE
  5
1A6D
330
18BB
100
AcDbEntity
  8
5
  6
PHANTOM
100
AcDbLine
 10
396.925043
 20
134.6582759999998
 30
0.0
 11
387.925043
 21
134.6582759999998
 31
0.0
  0
LINE
  5
1A6E
330
18BB
100
AcDbEntity
  8
5
  6
PHANTOM
100
AcDbLine
 10
396.925043
 20
131.341652
 30
0.0
 11
387.925043
 21
131.341652
 31
0.0
  0
LINE
  5
1A6F
330
18BB
100
AcDbEntity
  8
5
  6
PHANTOM
100
AcDbLine
 10
397.175043
 20
130.2499639999997
 30
0.0
 11
387.925043
 21
130.2499639999997
 31
0.0
  0
LINE
  5
1A70
330
18BB
100
AcDbEntity
  8
5
  6
PHANTOM
100
AcDbLine
 10
387.925043
 20
131.341652
 30
0.0
 11
396.925043
 21
134.6582759999998
 31
0.0
  0
LINE
  5
1A71
330
18BB
100
AcDbEntity
  8
5
  6
PHANTOM
100
AcDbLine
 10
396.925043
 20
131.341652
 30
0.0
 11
387.925043
 21
134.6582759999998
 31
0.0
  0
LINE
  5
1A72
330
18BB
100
AcDbEntity
  8
4
  6
CENTER
100
AcDbLine
 10
318.925043
 20
132.9999639999998
 30
0.0
 11
400.9250429999998
 21
132.9999639999998
 31
0.0
  0
ARC
  5
1A73
330
18BB
100
AcDbEntity
  8
5
  6
PHANTOM
100
AcDbCircle
 10
394.425043
 20
132.9999639999998
 30
0.0
 40
3.0
100
AcDbArc
 50
326.4426900000001
 51
33.55731
  0
LINE
  5
1A74
330
18BB
100
AcDbEntity
  8
5
  6
PHANTOM
100
AcDbLine
 10
397.925043
 20
134.9999639999998
 30
0.0
 11
397.925043
 21
130.9999639999998
 31
0.0
  0
LINE
  5
1A75
330
18BB
100
AcDbEntity
  8
5
  6
PHANTOM
100
AcDbLine
 10
397.925043
 20
130.9999639999998
 30
0.0
 11
397.175043
 21
130.2499639999997
 31
0.0
  0
LINE
  5
1A76
330
18BB
100
AcDbEntity
  8
5
  6
PHANTOM
100
AcDbLine
 10
396.925043
 20
131.341652
 30
0.0
 11
396.925043
 21
130.2499639999997
 31
0.0
  0
LINE
  5
1A77
330
18BB
100
AcDbEntity
  8
5
  6
PHANTOM
100
AcDbLine
 10
397.925043
 20
134.9999639999998
 30
0.0
 11
397.175043
 21
135.7499639999998
 31
0.0
  0
LINE
  5
1A78
330
18BB
100
AcDbEntity
  8
5
  6
PHANTOM
100
AcDbLine
 10
396.925043
 20
135.7499639999998
 30
0.0
 11
396.925043
 21
134.6582759999998
 31
0.0
  0
LINE
  5
1A79
330
18BB
100
AcDbEntity
  8
1
  6
Continuous
100
AcDbLine
 10
337.925043
 20
135.9999639999998
 30
0.0
 11
326.925043
 21
135.9999639999998
 31
0.0
  0
LINE
  5
1A7A
330
18BB
100
AcDbEntity
  8
1
  6
Continuous
100
AcDbLine
 10
337.925043
 20
129.9999639999998
 30
0.0
 11
326.925043
 21
129.9999639999998
 31
0.0
  0
LINE
  5
1A7B
330
18BB
100
AcDbEntity
  8
1
  6
Continuous
100
AcDbLine
 10
342.925043
 20
147.9999639999998
 30
0.0
 11
380.3250429999998
 21
147.9999639999998
 31
0.0
  0
LINE
  5
1A7C
330
18BB
100
AcDbEntity
  8
1
  6
Continuous
100
AcDbLine
 10
342.925043
 20
117.9999639999999
 30
0.0
 11
380.3250429999998
 21
117.9999639999999
 31
0.0
  0
LINE
  5
1A7D
330
18BB
100
AcDbEntity
  8
4
  6
CENTER
100
AcDbLine
 10
374.425043
 20
126.5999639999999
 30
0.0
 11
374.425043
 21
139.3999639999998
 31
0.0
  0
LINE
  5
1A7E
330
18BB
100
AcDbEntity
  8
1
  6
Continuous
100
AcDbLine
 10
379.625043
 20
128.099964
 30
0.0
 11
379.625043
 21
130.2499639999997
 31
0.0
  0
LINE
  5
1A7F
330
18BB
100
AcDbEntity
  8
1
  6
Continuous
100
AcDbLine
 10
387.925043
 20
139.4999639999997
 30
0.0
 11
387.925043
 21
126.4999639999999
 31
0.0
  0
CIRCLE
  5
1A80
330
18BB
100
AcDbEntity
  8
1
  6
Continuous
100
AcDbCircle
 10
377.925043
 20
122.9999639999999
 30
0.0
 40
1.75
  0
LINE
  5
1A81
330
18BB
100
AcDbEntity
  8
4
  6
CENTER
100
AcDbLine
 10
374.675043
 20
122.9999639999999
 30
0.0
 11
381.175043
 21
122.9999639999999
 31
0.0
  0
LINE
  5
1A82
330
18BB
100
AcDbEntity
  8
1
  6
Continuous
100
AcDbLine
 10
365.625043
 20
128.099964
 30
0.0
 11
386.425043
 21
128.099964
 31
0.0
  0
LINE
  5
1A83
330
18BB
100
AcDbEntity
  8
1
  6
Continuous
100
AcDbLine
 10
337.925043
 20
127.9999639999999
 30
0.0
 11
386.425043
 21
127.9999639999999
 31
0.0
  0
ARC
  5
1A84
330
18BB
100
AcDbEntity
  8
1
  6
Continuous
100
AcDbCircle
 10
380.3250429999998
 20
122.9999639999999
 30
0.0
 40
5.0
100
AcDbArc
 50
270.0
 51
0.0
  0
LINE
  5
1A85
330
18BB
100
AcDbEntity
  8
1
  6
Continuous
100
AcDbLine
 10
386.425043
 20
126.4999639999999
 30
0.0
 11
387.925043
 21
126.4999639999999
 31
0.0
  0
LINE
  5
1A86
330
18BB
100
AcDbEntity
  8
4
  6
CENTER
100
AcDbLine
 10
377.925043
 20
126.2499639999999
 30
0.0
 11
377.925043
 21
119.7499639999999
 31
0.0
  0
CIRCLE
  5
1A87
330
18BB
100
AcDbEntity
  8
1
  6
Continuous
100
AcDbCircle
 10
377.925043
 20
142.9999639999998
 30
0.0
 40
1.75
  0
LINE
  5
1A88
330
18BB
100
AcDbEntity
  8
1
  6
Continuous
100
AcDbLine
 10
365.625043
 20
137.8999639999999
 30
0.0
 11
386.425043
 21
137.8999639999999
 31
0.0
  0
LINE
  5
1A89
330
18BB
100
AcDbEntity
  8
4
  6
CENTER
100
AcDbLine
 10
374.675043
 20
142.9999639999998
 30
0.0
 11
381.175043
 21
142.9999639999998
 31
0.0
  0
ARC
  5
1A8A
330
18BB
100
AcDbEntity
  8
1
  6
Continuous
100
AcDbCircle
 10
380.3250429999998
 20
142.9999639999998
 30
0.0
 40
5.0
100
AcDbArc
 50
0.0
 51
90.0
  0
LINE
  5
1A8B
330
18BB
100
AcDbEntity
  8
1
  6
Continuous
100
AcDbLine
 10
386.425043
 20
139.4999639999997
 30
0.0
 11
387.925043
 21
139.4999639999997
 31
0.0
  0
LINE
  5
1A8C
330
18BB
100
AcDbEntity
  8
1
  6
Continuous
100
AcDbLine
 10
337.925043
 20
137.9999639999998
 30
0.0
 11
386.425043
 21
137.9999639999998
 31
0.0
  0
LINE
  5
1A8D
330
18BB
100
AcDbEntity
  8
1
  6
Continuous
100
AcDbLine
 10
386.425043
 20
139.4999639999997
 30
0.0
 11
386.425043
 21
126.4999639999999
 31
0.0
  0
LINE
  5
1A8E
330
18BB
100
AcDbEntity
  8
1
  6
Continuous
100
AcDbLine
 10
385.325043
 20
122.9999639999999
 30
0.0
 11
385.325043
 21
127.9999639999999
 31
0.0
  0
LINE
  5
1A8F
330
18BB
100
AcDbEntity
  8
4
  6
CENTER
100
AcDbLine
 10
377.925043
 20
146.2499639999998
 30
0.0
 11
377.925043
 21
139.7499639999997
 31
0.0
  0
LINE
  5
1A90
330
18BB
100
AcDbEntity
  8
1
  6
Continuous
100
AcDbLine
 10
337.925043
 20
142.9999639999998
 30
0.0
 11
337.925043
 21
122.9999639999999
 31
0.0
  0
LINE
  5
1A91
330
18BB
100
AcDbEntity
  8
4
  6
CENTER
100
AcDbLine
 10
344.675043
 20
122.9999639999999
 30
0.0
 11
351.175043
 21
122.9999639999999
 31
0.0
  0
CIRCLE
  5
1A92
330
18BB
100
AcDbEntity
  8
1
  6
Continuous
100
AcDbCircle
 10
347.925043
 20
122.9999639999999
 30
0.0
 40
1.75
  0
LINE
  5
1A93
330
18BB
100
AcDbEntity
  8
4
  6
CENTER
100
AcDbLine
 10
347.925043
 20
126.2499639999999
 30
0.0
 11
347.925043
 21
119.7499639999999
 31
0.0
  0
ARC
  5
1A94
330
18BB
100
AcDbEntity
  8
1
  6
Continuous
100
AcDbCircle
 10
342.925043
 20
122.9999639999999
 30
0.0
 40
5.0
100
AcDbArc
 50
180.0
 51
270.0
  0
LINE
  5
1A95
330
18BB
100
AcDbEntity
  8
4
  6
CENTER
100
AcDbLine
 10
344.675043
 20
142.9999639999998
 30
0.0
 11
351.175043
 21
142.9999639999998
 31
0.0
  0
CIRCLE
  5
1A96
330
18BB
100
AcDbEntity
  8
1
  6
Continuous
100
AcDbCircle
 10
347.925043
 20
142.9999639999998
 30
0.0
 40
1.75
  0
LINE
  5
1A97
330
18BB
100
AcDbEntity
  8
4
  6
CENTER
100
AcDbLine
 10
347.925043
 20
146.2499639999998
 30
0.0
 11
347.925043
 21
139.7499639999997
 31
0.0
  0
ARC
  5
1A98
330
18BB
100
AcDbEntity
  8
1
  6
Continuous
100
AcDbCircle
 10
342.925043
 20
142.9999639999998
 30
0.0
 40
5.0
100
AcDbArc
 50
90.0
 51
180.0
  0
LINE
  5
1A99
330
18BB
100
AcDbEntity
  8
1
  6
Continuous
100
AcDbLine
 10
322.425043
 20
136.9999639999998
 30
0.0
 11
322.425043
 21
128.9999639999997
 31
0.0
  0
LINE
  5
1A9A
330
18BB
100
AcDbEntity
  8
1
  6
Continuous
100
AcDbLine
 10
326.425043
 20
128.9999639999997
 30
0.0
 11
326.425043
 21
136.9999639999998
 31
0.0
  0
LINE
  5
1A9B
330
18BB
100
AcDbEntity
  8
1
  6
Continuous
100
AcDbLine
 10
326.925043
 20
136.4999639999997
 30
0.0
 11
326.925043
 21
129.4999639999998
 31
0.0
  0
LINE
  5
1A9C
330
18BB
100
AcDbEntity
  8
1
  6
Continuous
100
AcDbLine
 10
321.925043
 20
136.4999639999997
 30
0.0
 11
321.925043
 21
129.4999639999998
 31
0.0
  0
LINE
  5
1A9D
330
18BB
100
AcDbEntity
  8
1
  6
Continuous
100
AcDbLine
 10
322.425043
 20
128.9999639999997
 30
0.0
 11
326.425043
 21
128.9999639999997
 31
0.0
  0
LINE
  5
1A9E
330
18BB
100
AcDbEntity
  8
1
  6
Continuous
100
AcDbLine
 10
326.425043
 20
128.9999639999997
 30
0.0
 11
326.925043
 21
129.4999639999998
 31
0.0
  0
LINE
  5
1A9F
330
18BB
100
AcDbEntity
  8
1
  6
Continuous
100
AcDbLine
 10
321.925043
 20
129.4999639999998
 30
0.0
 11
322.425043
 21
128.9999639999997
 31
0.0
  0
LINE
  5
1AA0
330
18BB
100
AcDbEntity
  8
1
  6
Continuous
100
AcDbLine
 10
322.425043
 20
136.9999639999998
 30
0.0
 11
326.425043
 21
136.9999639999998
 31
0.0
  0
LINE
  5
1AA1
330
18BB
100
AcDbEntity
  8
1
  6
Continuous
100
AcDbLine
 10
326.925043
 20
136.4999639999997
 30
0.0
 11
326.425043
 21
136.9999639999998
 31
0.0
  0
LINE
  5
1AA2
330
18BB
100
AcDbEntity
  8
1
  6
Continuous
100
AcDbLine
 10
322.425043
 20
136.9999639999998
 30
0.0
 11
321.925043
 21
136.4999639999997
 31
0.0
  0
LINE
  5
1AA3
330
18BB
100
AcDbEntity
  8
1
  6
Continuous
100
AcDbLine
 10
385.325043
 20
137.9999639999998
 30
0.0
 11
385.325043
 21
142.9999639999998
 31
0.0
  0
LINE
  5
1AA4
330
18BB
100
AcDbEntity
  8
2
  6
Continuous
100
AcDbLine
 10
385.625043
 20
131.752282
 30
0.0
 11
376.425043
 21
134.6582759999998
 31
0.0
  0
LINE
  5
1AA5
330
18BB
100
AcDbEntity
  8
2
  6
Continuous
100
AcDbLine
 10
376.425043
 20
131.341652
 30
0.0
 11
385.625043
 21
134.247646
 31
0.0
  0
LINE
  5
1AA6
330
18BB
100
AcDbEntity
  8
1
  6
Continuous
100
AcDbLine
 10
385.625043
 20
130.2499639999997
 30
0.0
 11
376.425043
 21
130.2499639999997
 31
0.0
  0
LINE
  5
1AA7
330
18BB
100
AcDbEntity
  8
1
  6
Continuous
100
AcDbLine
 10
385.625043
 20
131.341652
 30
0.0
 11
376.425043
 21
131.341652
 31
0.0
  0
LINE
  5
1AA8
330
18BB
100
AcDbEntity
  8
1
  6
Continuous
100
AcDbLine
 10
385.625043
 20
134.6582759999998
 30
0.0
 11
376.425043
 21
134.6582759999998
 31
0.0
  0
LINE
  5
1AA9
330
18BB
100
AcDbEntity
  8
1
  6
Continuous
100
AcDbLine
 10
385.625043
 20
135.7499639999998
 30
0.0
 11
376.425043
 21
135.7499639999998
 31
0.0
  0
LINE
  5
1AAA
330
18BB
100
AcDbEntity
  8
1
  6
Continuous
100
AcDbLine
 10
379.625043
 20
135.7499639999998
 30
0.0
 11
379.625043
 21
137.8999639999999
 31
0.0
  0
LINE
  5
1AAB
330
18BB
100
AcDbEntity
  8
1
  6
Continuous
100
AcDbLine
 10
376.425043
 20
135.7499639999998
 30
0.0
 11
376.425043
 21
130.2499639999997
 31
0.0
  0
LINE
  5
1AAC
330
18BB
100
AcDbEntity
  8
1
  6
Continuous
100
AcDbLine
 10
375.425043
 20
135.9999639999998
 30
0.0
 11
375.425043
 21
129.9999639999998
 31
0.0
  0
LINE
  5
1AAD
330
18BB
100
AcDbEntity
  8
1
  6
Continuous
100
AcDbLine
 10
375.425043
 20
134.4999639999997
 30
0.0
 11
376.425043
 21
134.4999639999997
 31
0.0
  0
LINE
  5
1AAE
330
18BB
100
AcDbEntity
  8
1
  6
Continuous
100
AcDbLine
 10
375.425043
 20
131.4999639999998
 30
0.0
 11
376.425043
 21
131.4999639999998
 31
0.0
  0
LINE
  5
1AAF
330
18BB
100
AcDbEntity
  8
1
  6
Continuous
100
AcDbLine
 10
341.0250409999998
 20
135.9999639999998
 30
0.0
 11
341.4529589999999
 21
135.9999639999998
 31
0.0
  0
LINE
  5
1AB0
330
18BB
100
AcDbEntity
  8
1
  6
Continuous
100
AcDbLine
 10
341.0250409999998
 20
129.9999639999998
 30
0.0
 11
341.7958169999999
 21
129.9999639999998
 31
0.0
  0
LINE
  5
1AB1
330
18BB
100
AcDbEntity
  8
1
  6
Continuous
100
AcDbLine
 10
339.425043
 20
137.9999639999998
 30
0.0
 11
339.425043
 21
127.9999639999999
 31
0.0
  0
LINE
  5
1AB2
330
18BB
100
AcDbEntity
  8
1
  6
Continuous
100
AcDbLine
 10
247.416695
 20
139.4999639999997
 30
0.0
 11
247.416695
 21
137.9999639999998
 31
0.0
  0
LINE
  5
1AB3
330
18BB
100
AcDbEntity
  8
1
  6
Continuous
100
AcDbLine
 10
247.416695
 20
127.9999639999999
 30
0.0
 11
247.416695
 21
126.4999639999999
 31
0.0
  0
LINE
  5
1AB4
330
18BB
100
AcDbEntity
  8
1
  6
Continuous
100
AcDbLine
 10
385.625043
 20
137.8999639999999
 30
0.0
 11
385.625043
 21
128.099964
 31
0.0
  0
LINE
  5
1AB5
330
18BB
100
AcDbEntity
  8
1
  6
Continuous
100
AcDbLine
 10
372.175043
 20
137.0999639999998
 30
0.0
 11
379.625043
 21
137.0999639999998
 31
0.0
  0
LINE
  5
1AB6
330
18BB
100
AcDbEntity
  8
1
  6
Continuous
100
AcDbLine
 10
372.175043
 20
128.8999639999999
 30
0.0
 11
379.625043
 21
128.8999639999999
 31
0.0
  0
LINE
  5
1AB7
330
18BB
100
AcDbEntity
  8
1
  6
Continuous
100
AcDbLine
 10
365.625043
 20
137.8999639999999
 30
0.0
 11
365.625043
 21
137.4999639999997
 31
0.0
  0
LINE
  5
1AB8
330
18BB
100
AcDbEntity
  8
1
  6
Continuous
100
AcDbLine
 10
340.0250409999998
 20
137.7499639999998
 30
0.0
 11
340.0250409999998
 21
128.2499639999997
 31
0.0
  0
LINE
  5
1AB9
330
18BB
100
AcDbEntity
  8
1
  6
Continuous
100
AcDbLine
 10
339.425043
 20
137.4999639999997
 30
0.0
 11
340.0250409999998
 21
137.4999639999997
 31
0.0
  0
LINE
  5
1ABA
330
18BB
100
AcDbEntity
  8
1
  6
Continuous
100
AcDbLine
 10
341.0250409999998
 20
137.7499639999998
 30
0.0
 11
341.0250409999998
 21
128.2499639999997
 31
0.0
  0
LINE
  5
1ABB
330
18BB
100
AcDbEntity
  8
1
  6
Continuous
100
AcDbLine
 10
340.0250409999998
 20
137.7499639999998
 30
0.0
 11
341.0250409999998
 21
137.7499639999998
 31
0.0
  0
LINE
  5
1ABC
330
18BB
100
AcDbEntity
  8
1
  6
Continuous
100
AcDbLine
 10
340.0250409999998
 20
128.2499639999997
 30
0.0
 11
341.0250409999998
 21
128.2499639999997
 31
0.0
  0
LINE
  5
1ABD
330
18BB
100
AcDbEntity
  8
1
  6
Continuous
100
AcDbLine
 10
339.425043
 20
128.4999639999998
 30
0.0
 11
340.0250409999998
 21
128.4999639999998
 31
0.0
  0
LINE
  5
1ABE
330
18BB
100
AcDbEntity
  8
1
  6
Continuous
100
AcDbLine
 10
372.175043
 20
137.8999639999999
 30
0.0
 11
372.175043
 21
128.099964
 31
0.0
  0
LINE
  5
1ABF
330
18BB
100
AcDbEntity
  8
1
  6
Continuous
100
AcDbLine
 10
371.4822219999998
 20
137.8999639999999
 30
0.0
 11
371.4822219999998
 21
128.099964
 31
0.0
  0
LINE
  5
1AC0
330
18BB
100
AcDbEntity
  8
1
  6
Continuous
100
AcDbLine
 10
372.175043
 20
135.9999639999998
 30
0.0
 11
375.425043
 21
135.9999639999998
 31
0.0
  0
LINE
  5
1AC1
330
18BB
100
AcDbEntity
  8
1
  6
Continuous
100
AcDbLine
 10
372.175043
 20
129.9999639999998
 30
0.0
 11
375.425043
 21
129.9999639999998
 31
0.0
  0
LINE
  5
1AC2
330
18BB
100
AcDbEntity
  8
1
  6
Continuous
100
AcDbLine
 10
359.284999
 20
137.4999639999997
 30
0.0
 11
369.484999
 21
137.4999639999997
 31
0.0
  0
LINE
  5
1AC3
330
18BB
100
AcDbEntity
  8
1
  6
Continuous
100
AcDbLine
 10
359.284999
 20
128.4999639999998
 30
0.0
 11
369.484999
 21
128.4999639999998
 31
0.0
  0
LINE
  5
1AC4
330
18BB
100
AcDbEntity
  8
1
  6
Continuous
100
AcDbLine
 10
369.484999
 20
137.4999639999997
 30
0.0
 11
369.484999
 21
128.4999639999998
 31
0.0
  0
LINE
  5
1AC5
330
18BB
100
AcDbEntity
  8
1
  6
Continuous
100
AcDbLine
 10
359.284999
 20
137.4999639999997
 30
0.0
 11
359.284999
 21
128.4999639999998
 31
0.0
  0
LINE
  5
1AC6
330
18BB
100
AcDbEntity
  8
1
  6
Continuous
100
AcDbLine
 10
365.625043
 20
128.4999639999998
 30
0.0
 11
365.625043
 21
128.099964
 31
0.0
  0
CIRCLE
  5
1AC7
330
18BB
100
AcDbEntity
  8
1
  6
Continuous
100
AcDbCircle
 10
341.425041
 20
129.4999639999998
 30
0.0
 40
0.4
  0
ARC
  5
1AC8
330
18BB
100
AcDbEntity
  8
1
  6
Continuous
100
AcDbCircle
 10
341.825041
 20
136.4999639999997
 30
0.0
 40
0.4
100
AcDbArc
 50
3.270487999999998
 51
183.270488
  0
CIRCLE
  5
1AC9
330
18BB
100
AcDbEntity
  8
1
  6
Continuous
100
AcDbCircle
 10
358.8849989999998
 20
136.4999639999997
 30
0.0
 40
0.4
  0
ARC
  5
1ACA
330
18BB
100
AcDbEntity
  8
1
  6
Continuous
100
AcDbCircle
 10
358.484999
 20
129.4999639999998
 30
0.0
 40
0.4
100
AcDbArc
 50
183.270488
 51
3.270487999999998
  0
ARC
  5
1ACB
330
18BB
100
AcDbEntity
  8
1
  6
Continuous
100
AcDbCircle
 10
342.2250409999999
 20
129.4999639999998
 30
0.0
 40
0.4
100
AcDbArc
 50
183.270488
 51
3.270487999999998
  0
ARC
  5
1ACC
330
18BB
100
AcDbEntity
  8
1
  6
Continuous
100
AcDbCircle
 10
358.0849989999999
 20
136.4999639999997
 30
0.0
 40
0.4
100
AcDbArc
 50
3.270487999999998
 51
183.270488
  0
ARC
  5
1ACD
330
18BB
100
AcDbEntity
  8
1
  6
Continuous
100
AcDbCircle
 10
343.282332
 20
136.4999639999997
 30
0.0
 40
0.4
100
AcDbArc
 50
8.58946
 51
188.58946
  0
ARC
  5
1ACE
330
18BB
100
AcDbEntity
  8
1
  6
Continuous
100
AcDbCircle
 10
345.396999
 20
136.4999639999997
 30
0.0
 40
0.4
100
AcDbArc
 50
8.58946
 51
188.58946
  0
ARC
  5
1ACF
330
18BB
100
AcDbEntity
  8
1
  6
Continuous
100
AcDbCircle
 10
347.5116659999998
 20
136.4999639999997
 30
0.0
 40
0.4
100
AcDbArc
 50
8.58946
 51
188.58946
  0
ARC
  5
1AD0
330
18BB
100
AcDbEntity
  8
1
  6
Continuous
100
AcDbCircle
 10
349.626332
 20
136.4999639999997
 30
0.0
 40
0.4
100
AcDbArc
 50
8.58946
 51
188.58946
  0
ARC
  5
1AD1
330
18BB
100
AcDbEntity
  8
1
  6
Continuous
100
AcDbCircle
 10
351.7409989999999
 20
136.4999639999997
 30
0.0
 40
0.4
100
AcDbArc
 50
8.58946
 51
188.58946
  0
ARC
  5
1AD2
330
18BB
100
AcDbEntity
  8
1
  6
Continuous
100
AcDbCircle
 10
353.8556659999999
 20
136.4999639999997
 30
0.0
 40
0.4
100
AcDbArc
 50
8.58946
 51
188.58946
  0
ARC
  5
1AD3
330
18BB
100
AcDbEntity
  8
1
  6
Continuous
100
AcDbCircle
 10
355.970332
 20
136.4999639999997
 30
0.0
 40
0.4
100
AcDbArc
 50
8.58946
 51
188.58946
  0
ARC
  5
1AD4
330
18BB
100
AcDbEntity
  8
1
  6
Continuous
100
AcDbCircle
 10
357.027666
 20
129.4999639999998
 30
0.0
 40
0.4
100
AcDbArc
 50
188.58946
 51
8.58946
  0
ARC
  5
1AD5
330
18BB
100
AcDbEntity
  8
1
  6
Continuous
100
AcDbCircle
 10
354.912999
 20
129.4999639999998
 30
0.0
 40
0.4
100
AcDbArc
 50
188.58946
 51
8.58946
  0
ARC
  5
1AD6
330
18BB
100
AcDbEntity
  8
1
  6
Continuous
100
AcDbCircle
 10
352.7983319999998
 20
129.4999639999998
 30
0.0
 40
0.4
100
AcDbArc
 50
188.58946
 51
8.58946
  0
ARC
  5
1AD7
330
18BB
100
AcDbEntity
  8
1
  6
Continuous
100
AcDbCircle
 10
350.683666
 20
129.4999639999998
 30
0.0
 40
0.4
100
AcDbArc
 50
188.58946
 51
8.58946
  0
ARC
  5
1AD8
330
18BB
100
AcDbEntity
  8
1
  6
Continuous
100
AcDbCircle
 10
348.568999
 20
129.4999639999998
 30
0.0
 40
0.4
100
AcDbArc
 50
188.58946
 51
8.58946
  0
ARC
  5
1AD9
330
18BB
100
AcDbEntity
  8
1
  6
Continuous
100
AcDbCircle
 10
346.4543319999998
 20
129.4999639999998
 30
0.0
 40
0.4
100
AcDbArc
 50
188.58946
 51
8.58946
  0
ARC
  5
1ADA
330
18BB
100
AcDbEntity
  8
1
  6
Continuous
100
AcDbCircle
 10
344.339666
 20
129.4999639999998
 30
0.0
 40
0.4
100
AcDbArc
 50
188.58946
 51
8.58946
  0
LINE
  5
1ADB
330
18BB
100
AcDbEntity
  8
1
  6
Continuous
100
AcDbLine
 10
342.2243889999998
 20
136.5227839999998
 30
0.0
 11
342.624389
 21
129.522784
 31
0.0
  0
LINE
  5
1ADC
330
18BB
100
AcDbEntity
  8
1
  6
Continuous
100
AcDbLine
 10
341.4256919999999
 20
136.4771439999999
 30
0.0
 11
341.825692
 21
129.4771439999998
 31
0.0
  0
LINE
  5
1ADD
330
18BB
100
AcDbEntity
  8
1
  6
Continuous
100
AcDbLine
 10
343.6778459999999
 20
136.559705
 30
0.0
 11
344.735179
 21
129.559705
 31
0.0
  0
LINE
  5
1ADE
330
18BB
100
AcDbEntity
  8
1
  6
Continuous
100
AcDbLine
 10
342.886819
 20
136.440223
 30
0.0
 11
343.9441519999999
 21
129.4402229999998
 31
0.0
  0
LINE
  5
1ADF
330
18BB
100
AcDbEntity
  8
1
  6
Continuous
100
AcDbLine
 10
345.792513
 20
136.559705
 30
0.0
 11
346.849846
 21
129.559705
 31
0.0
  0
LINE
  5
1AE0
330
18BB
100
AcDbEntity
  8
1
  6
Continuous
100
AcDbLine
 10
345.001485
 20
136.440223
 30
0.0
 11
346.0588189999999
 21
129.4402229999998
 31
0.0
  0
LINE
  5
1AE1
330
18BB
100
AcDbEntity
  8
1
  6
Continuous
100
AcDbLine
 10
347.9071789999999
 20
136.559705
 30
0.0
 11
348.9645129999999
 21
129.559705
 31
0.0
  0
LINE
  5
1AE2
330
18BB
100
AcDbEntity
  8
1
  6
Continuous
100
AcDbLine
 10
348.9645129999999
 20
129.559705
 30
0.0
 11
348.9645129999999
 21
129.559705
 31
0.0
  0
LINE
  5
1AE3
330
18BB
100
AcDbEntity
  8
1
  6
Continuous
100
AcDbLine
 10
348.173485
 20
129.4402229999998
 30
0.0
 11
347.1161519999999
 21
136.440223
 31
0.0
  0
LINE
  5
1AE4
330
18BB
100
AcDbEntity
  8
1
  6
Continuous
100
AcDbLine
 10
350.0218459999999
 20
136.559705
 30
0.0
 11
351.079179
 21
129.559705
 31
0.0
  0
LINE
  5
1AE5
330
18BB
100
AcDbEntity
  8
1
  6
Continuous
100
AcDbLine
 10
352.1365129999999
 20
136.559705
 30
0.0
 11
353.193846
 21
129.559705
 31
0.0
  0
LINE
  5
1AE6
330
18BB
100
AcDbEntity
  8
1
  6
Continuous
100
AcDbLine
 10
354.2511789999999
 20
136.559705
 30
0.0
 11
355.3085129999999
 21
129.559705
 31
0.0
  0
LINE
  5
1AE7
330
18BB
100
AcDbEntity
  8
1
  6
Continuous
100
AcDbLine
 10
356.3658459999999
 20
136.559705
 30
0.0
 11
357.423179
 21
129.559705
 31
0.0
  0
LINE
  5
1AE8
330
18BB
100
AcDbEntity
  8
1
  6
Continuous
100
AcDbLine
 10
358.484347
 20
136.5227839999998
 30
0.0
 11
358.884347
 21
129.522784
 31
0.0
  0
LINE
  5
1AE9
330
18BB
100
AcDbEntity
  8
1
  6
Continuous
100
AcDbLine
 10
358.0856499999999
 20
129.4771439999998
 30
0.0
 11
357.68565
 21
136.4771439999999
 31
0.0
  0
LINE
  5
1AEA
330
18BB
100
AcDbEntity
  8
1
  6
Continuous
100
AcDbLine
 10
356.632152
 20
129.4402229999998
 30
0.0
 11
355.574819
 21
136.440223
 31
0.0
  0
LINE
  5
1AEB
330
18BB
100
AcDbEntity
  8
1
  6
Continuous
100
AcDbLine
 10
354.517485
 20
129.4402229999998
 30
0.0
 11
353.4601519999998
 21
136.440223
 31
0.0
  0
LINE
  5
1AEC
330
18BB
100
AcDbEntity
  8
1
  6
Continuous
100
AcDbLine
 10
352.402819
 20
129.4402229999998
 30
0.0
 11
351.345485
 21
136.440223
 31
0.0
  0
LINE
  5
1AED
330
18BB
100
AcDbEntity
  8
1
  6
Continuous
100
AcDbLine
 10
350.288152
 20
129.4402229999998
 30
0.0
 11
349.230819
 21
136.440223
 31
0.0
  0
LINE
  5
1AEE
330
18BB
100
AcDbEntity
  8
1
  6
Continuous
100
AcDbLine
 10
342.705098
 20
129.9999639999998
 30
0.0
 11
342.6205540000001
 21
129.440225
 31
0.0
  0
LINE
  5
1AEF
330
18BB
100
AcDbEntity
  8
1
  6
Continuous
100
AcDbLine
 10
342.886818
 20
136.559703
 30
0.0
 11
342.802274
 21
135.9999639999998
 31
0.0
  0
LINE
  5
1AF0
330
18BB
100
AcDbEntity
  8
1
  6
Continuous
100
AcDbLine
 10
345.001485
 20
136.559705
 30
0.0
 11
344.916938
 21
135.9999639999998
 31
0.0
  0
LINE
  5
1AF1
330
18BB
100
AcDbEntity
  8
1
  6
Continuous
100
AcDbLine
 10
344.735179
 20
129.4402229999998
 30
0.0
 11
344.819727
 21
129.9999639999998
 31
0.0
  0
LINE
  5
1AF2
330
18BB
100
AcDbEntity
  8
1
  6
Continuous
100
AcDbLine
 10
347.1161519999999
 20
136.559705
 30
0.0
 11
347.031604
 21
135.9999639999998
 31
0.0
  0
LINE
  5
1AF3
330
18BB
100
AcDbEntity
  8
1
  6
Continuous
100
AcDbLine
 10
346.849846
 20
129.4402229999998
 30
0.0
 11
346.9343929999998
 21
129.9999639999998
 31
0.0
  0
LINE
  5
1AF4
330
18BB
100
AcDbEntity
  8
1
  6
Continuous
100
AcDbLine
 10
349.230819
 20
136.559705
 30
0.0
 11
349.146271
 21
135.9999639999998
 31
0.0
  0
LINE
  5
1AF5
330
18BB
100
AcDbEntity
  8
1
  6
Continuous
100
AcDbLine
 10
348.9645129999999
 20
129.4402229999998
 30
0.0
 11
349.04906
 21
129.9999639999998
 31
0.0
  0
LINE
  5
1AF6
330
18BB
100
AcDbEntity
  8
1
  6
Continuous
100
AcDbLine
 10
351.345485
 20
136.559705
 30
0.0
 11
351.260938
 21
135.9999639999998
 31
0.0
  0
LINE
  5
1AF7
330
18BB
100
AcDbEntity
  8
1
  6
Continuous
100
AcDbLine
 10
351.079179
 20
129.4402229999998
 30
0.0
 11
351.163727
 21
129.9999639999998
 31
0.0
  0
LINE
  5
1AF8
330
18BB
100
AcDbEntity
  8
1
  6
Continuous
100
AcDbLine
 10
353.4601519999998
 20
136.559705
 30
0.0
 11
353.375604
 21
135.9999639999998
 31
0.0
  0
LINE
  5
1AF9
330
18BB
100
AcDbEntity
  8
1
  6
Continuous
100
AcDbLine
 10
353.193846
 20
129.4402229999998
 30
0.0
 11
353.2783929999998
 21
129.9999639999998
 31
0.0
  0
LINE
  5
1AFA
330
18BB
100
AcDbEntity
  8
1
  6
Continuous
100
AcDbLine
 10
355.574819
 20
136.559705
 30
0.0
 11
355.490271
 21
135.9999639999998
 31
0.0
  0
LINE
  5
1AFB
330
18BB
100
AcDbEntity
  8
1
  6
Continuous
100
AcDbLine
 10
355.3085129999999
 20
129.4402229999998
 30
0.0
 11
355.39306
 21
129.9999639999998
 31
0.0
  0
LINE
  5
1AFC
330
18BB
100
AcDbEntity
  8
1
  6
Continuous
100
AcDbLine
 10
357.6894849999998
 20
136.559705
 30
0.0
 11
357.604938
 21
135.9999639999998
 31
0.0
  0
LINE
  5
1AFD
330
18BB
100
AcDbEntity
  8
1
  6
Continuous
100
AcDbLine
 10
357.423179
 20
129.4402229999998
 30
0.0
 11
357.5077269999999
 21
129.9999639999998
 31
0.0
  0
LINE
  5
1AFE
330
18BB
100
AcDbEntity
  8
1
  6
Continuous
100
AcDbLine
 10
341.4256919999999
 20
136.5227839999998
 30
0.0
 11
341.3958169999999
 21
135.9999639999998
 31
0.0
  0
LINE
  5
1AFF
330
18BB
100
AcDbEntity
  8
1
  6
Continuous
100
AcDbLine
 10
358.914223
 20
129.9999639999998
 30
0.0
 11
358.884347
 21
129.4771439999998
 31
0.0
  0
LINE
  5
1B00
330
18BB
100
AcDbEntity
  8
1
  6
Continuous
100
AcDbLine
 10
342.597122
 20
129.9999639999998
 30
0.0
 11
343.859605
 21
129.9999639999998
 31
0.0
  0
LINE
  5
1B01
330
18BB
100
AcDbEntity
  8
1
  6
Continuous
100
AcDbLine
 10
344.668679
 20
129.9999639999998
 30
0.0
 11
345.9742709999999
 21
129.9999639999998
 31
0.0
  0
LINE
  5
1B02
330
18BB
100
AcDbEntity
  8
1
  6
Continuous
100
AcDbLine
 10
346.783346
 20
129.9999639999998
 30
0.0
 11
348.0889379999999
 21
129.9999639999998
 31
0.0
  0
LINE
  5
1B03
330
18BB
100
AcDbEntity
  8
1
  6
Continuous
100
AcDbLine
 10
348.8980129999998
 20
129.9999639999998
 30
0.0
 11
350.203604
 21
129.9999639999998
 31
0.0
  0
LINE
  5
1B04
330
18BB
100
AcDbEntity
  8
1
  6
Continuous
100
AcDbLine
 10
351.012679
 20
129.9999639999998
 30
0.0
 11
352.3182709999999
 21
129.9999639999998
 31
0.0
  0
LINE
  5
1B05
330
18BB
100
AcDbEntity
  8
1
  6
Continuous
100
AcDbLine
 10
353.1273459999999
 20
129.9999639999998
 30
0.0
 11
354.4329379999999
 21
129.9999639999998
 31
0.0
  0
LINE
  5
1B06
330
18BB
100
AcDbEntity
  8
1
  6
Continuous
100
AcDbLine
 10
355.2420119999999
 20
129.9999639999998
 30
0.0
 11
356.547604
 21
129.9999639999998
 31
0.0
  0
LINE
  5
1B07
330
18BB
100
AcDbEntity
  8
1
  6
Continuous
100
AcDbLine
 10
357.356679
 20
129.9999639999998
 30
0.0
 11
358.055775
 21
129.9999639999998
 31
0.0
  0
LINE
  5
1B08
330
18BB
100
AcDbEntity
  8
1
  6
Continuous
100
AcDbLine
 10
358.8570799999998
 20
129.9999639999998
 30
0.0
 11
359.284999
 21
129.9999639999998
 31
0.0
  0
LINE
  5
1B09
330
18BB
100
AcDbEntity
  8
1
  6
Continuous
100
AcDbLine
 10
358.514223
 20
135.9999639999998
 30
0.0
 11
359.284999
 21
135.9999639999998
 31
0.0
  0
LINE
  5
1B0A
330
18BB
100
AcDbEntity
  8
1
  6
Continuous
100
AcDbLine
 10
356.450393
 20
135.9999639999998
 30
0.0
 11
357.712918
 21
135.9999639999998
 31
0.0
  0
LINE
  5
1B0B
330
18BB
100
AcDbEntity
  8
1
  6
Continuous
100
AcDbLine
 10
354.335727
 20
135.9999639999998
 30
0.0
 11
355.641319
 21
135.9999639999998
 31
0.0
  0
LINE
  5
1B0C
330
18BB
100
AcDbEntity
  8
1
  6
Continuous
100
AcDbLine
 10
352.22106
 20
135.9999639999998
 30
0.0
 11
353.526652
 21
135.9999639999998
 31
0.0
  0
LINE
  5
1B0D
330
18BB
100
AcDbEntity
  8
1
  6
Continuous
100
AcDbLine
 10
350.106393
 20
135.9999639999998
 30
0.0
 11
351.411985
 21
135.9999639999998
 31
0.0
  0
LINE
  5
1B0E
330
18BB
100
AcDbEntity
  8
1
  6
Continuous
100
AcDbLine
 10
347.991727
 20
135.9999639999998
 30
0.0
 11
349.297319
 21
135.9999639999998
 31
0.0
  0
LINE
  5
1B0F
330
18BB
100
AcDbEntity
  8
1
  6
Continuous
100
AcDbLine
 10
345.8770599999998
 20
135.9999639999998
 30
0.0
 11
347.182652
 21
135.9999639999998
 31
0.0
  0
LINE
  5
1B10
330
18BB
100
AcDbEntity
  8
1
  6
Continuous
100
AcDbLine
 10
343.7623929999999
 20
135.9999639999998
 30
0.0
 11
345.067985
 21
135.9999639999998
 31
0.0
  0
LINE
  5
1B11
330
18BB
100
AcDbEntity
  8
1
  6
Continuous
100
AcDbLine
 10
342.2542639999999
 20
135.9999639999998
 30
0.0
 11
342.953319
 21
135.9999639999998
 31
0.0
  0
ARC
  5
1B12
330
18BB
100
AcDbEntity
  8
1
  6
Continuous
100
AcDbCircle
 10
700.83479
 20
142.9999639999998
 30
0.0
 40
5.0
100
AcDbArc
 50
0.0
 51
90.0
  0
ARC
  5
1B13
330
18BB
100
AcDbEntity
  8
1
  6
Continuous
100
AcDbCircle
 10
696.83479
 20
142.9999639999998
 30
0.0
 40
5.0
100
AcDbArc
 50
90.0
 51
180.0
  0
LINE
  5
1B14
330
18BB
100
AcDbEntity
  8
4
  6
CENTER
100
AcDbLine
 10
698.8347899999999
 20
146.2499639999998
 30
0.0
 11
698.8347899999999
 21
139.7499639999997
 31
0.0
  0
LINE
  5
1B15
330
18BB
100
AcDbEntity
  8
4
  6
CENTER
100
AcDbLine
 10
702.0847899999997
 20
142.9999639999998
 30
0.0
 11
695.58479
 21
142.9999639999998
 31
0.0
  0
ARC
  5
1B16
330
18BB
100
AcDbEntity
  8
1
  6
Continuous
100
AcDbCircle
 10
700.83479
 20
122.9999639999999
 30
0.0
 40
5.0
100
AcDbArc
 50
270.0
 51
0.0
  0
LINE
  5
1B17
330
18BB
100
AcDbEntity
  8
4
  6
CENTER
100
AcDbLine
 10
702.0847899999997
 20
122.9999639999999
 30
0.0
 11
695.58479
 21
122.9999639999999
 31
0.0
  0
LINE
  5
1B18
330
18BB
100
AcDbEntity
  8
4
  6
CENTER
100
AcDbLine
 10
708.83479
 20
132.9999639999998
 30
0.0
 11
688.83479
 21
132.9999639999998
 31
0.0
  0
LINE
  5
1B19
330
18BB
100
AcDbEntity
  8
1
  6
Continuous
100
AcDbLine
 10
705.83479
 20
142.9999639999998
 30
0.0
 11
705.83479
 21
122.9999639999999
 31
0.0
  0
LINE
  5
1B1A
330
18BB
100
AcDbEntity
  8
1
  6
Continuous
100
AcDbLine
 10
691.83479
 20
142.9999639999998
 30
0.0
 11
691.83479
 21
122.9999639999999
 31
0.0
  0
CIRCLE
  5
1B1B
330
18BB
100
AcDbEntity
  8
1
  6
Continuous
100
AcDbCircle
 10
698.8347899999999
 20
122.9999639999999
 30
0.0
 40
1.75
  0
LINE
  5
1B1C
330
18BB
100
AcDbEntity
  8
4
  6
CENTER
100
AcDbLine
 10
698.8347899999999
 20
126.2499639999999
 30
0.0
 11
698.8347899999999
 21
119.7499639999999
 31
0.0
  0
ARC
  5
1B1D
330
18BB
100
AcDbEntity
  8
1
  6
Continuous
100
AcDbCircle
 10
696.83479
 20
122.9999639999999
 30
0.0
 40
5.0
100
AcDbArc
 50
180.0
 51
270.0
  0
LINE
  5
1B1E
330
18BB
100
AcDbEntity
  8
1
  6
Continuous
100
AcDbLine
 10
700.83479
 20
117.9999639999999
 30
0.0
 11
696.83479
 21
117.9999639999999
 31
0.0
  0
CIRCLE
  5
1B1F
330
18BB
100
AcDbEntity
  8
1
  6
Continuous
100
AcDbCircle
 10
698.8347899999999
 20
142.9999639999998
 30
0.0
 40
1.75
  0
LINE
  5
1B20
330
18BB
100
AcDbEntity
  8
1
  6
Continuous
100
AcDbLine
 10
696.83479
 20
147.9999639999998
 30
0.0
 11
700.83479
 21
147.9999639999998
 31
0.0
  0
LINE
  5
1B21
330
18BB
100
AcDbEntity
  8
1
  6
Continuous
100
AcDbLine
 10
559.420296
 20
209.999928
 30
0.0
 11
548.420296
 21
209.999928
 31
0.0
  0
LINE
  5
1B22
330
18BB
100
AcDbEntity
  8
1
  6
Continuous
100
AcDbLine
 10
560.920296
 20
223.4999279999999
 30
0.0
 11
546.920296
 21
223.4999279999999
 31
0.0
  0
LINE
  5
1B23
330
18BB
100
AcDbEntity
  8
1
  6
Continuous
100
AcDbLine
 10
560.920296
 20
224.9999279999999
 30
0.0
 11
546.920296
 21
224.9999279999999
 31
0.0
  0
LINE
  5
1B24
330
18BB
100
AcDbEntity
  8
1
  6
Continuous
100
AcDbLine
 10
546.920296
 20
224.9999279999999
 30
0.0
 11
546.920296
 21
211.4999279999999
 31
0.0
  0
LINE
  5
1B25
330
18BB
100
AcDbEntity
  8
1
  6
Continuous
100
AcDbLine
 10
548.420296
 20
209.999928
 30
0.0
 11
548.420296
 21
211.4999279999999
 31
0.0
  0
ARC
  5
1B26
330
18BB
100
AcDbEntity
  8
1
  6
Continuous
100
AcDbCircle
 10
546.920296
 20
211.4999279999999
 30
0.0
 40
1.5
100
AcDbArc
 50
0.0
 51
75.52248799999998
  0
ARC
  5
1B27
330
18BB
100
AcDbEntity
  8
1
  6
Continuous
100
AcDbCircle
 10
547.420296
 20
213.43642
 30
0.0
 40
0.5
100
AcDbArc
 50
180.0
 51
255.522488
  0
ARC
  5
1B28
330
18BB
100
AcDbEntity
  8
1
  6
Continuous
100
AcDbCircle
 10
548.420296
 20
211.4999279999999
 30
0.0
 40
1.5
100
AcDbArc
 50
180.0
 51
270.0
  0
LINE
  5
1B29
330
18BB
100
AcDbEntity
  8
1
  6
Continuous
100
AcDbLine
 10
560.920296
 20
224.9999279999999
 30
0.0
 11
560.920296
 21
211.4999279999999
 31
0.0
  0
LINE
  5
1B2A
330
18BB
100
AcDbEntity
  8
4
  6
CENTER
100
AcDbLine
 10
562.9202959999998
 20
217.4999279999999
 30
0.0
 11
557.420296
 21
217.4999279999999
 31
0.0
  0
LINE
  5
1B2B
330
18BB
100
AcDbEntity
  8
4
  6
CENTER
100
AcDbLine
 10
553.9202959999999
 20
221.4999279999999
 30
0.0
 11
553.9202959999999
 21
226.9999279999999
 31
0.0
  0
LINE
  5
1B2C
330
18BB
100
AcDbEntity
  8
1
  6
Continuous
100
AcDbLine
 10
559.420296
 20
209.999928
 30
0.0
 11
559.420296
 21
211.4999279999999
 31
0.0
  0
ARC
  5
1B2D
330
18BB
100
AcDbEntity
  8
1
  6
Continuous
100
AcDbCircle
 10
560.920296
 20
211.4999279999999
 30
0.0
 40
1.5
100
AcDbArc
 50
104.477512
 51
180.0
  0
ARC
  5
1B2E
330
18BB
100
AcDbEntity
  8
1
  6
Continuous
100
AcDbCircle
 10
560.420296
 20
213.43642
 30
0.0
 40
0.5
100
AcDbArc
 50
284.4775119999998
 51
0.0
  0
ARC
  5
1B2F
330
18BB
100
AcDbEntity
  8
1
  6
Continuous
100
AcDbCircle
 10
559.420296
 20
211.4999279999999
 30
0.0
 40
1.5
100
AcDbArc
 50
270.0
 51
0.0
  0
LINE
  5
1B30
330
18BB
100
AcDbEntity
  8
1
  6
Continuous
100
AcDbLine
 10
705.83479
 20
137.9999639999998
 30
0.0
 11
691.83479
 21
137.9999639999998
 31
0.0
  0
LINE
  5
1B31
330
18BB
100
AcDbEntity
  8
1
  6
Continuous
100
AcDbLine
 10
705.83479
 20
127.9999639999999
 30
0.0
 11
691.83479
 21
127.9999639999999
 31
0.0
  0
LINE
  5
1B32
330
18BB
100
AcDbEntity
  8
1
  6
Continuous
100
AcDbLine
 10
704.33479
 20
137.9999639999998
 30
0.0
 11
704.33479
 21
127.9999639999999
 31
0.0
  0
LINE
  5
1B33
330
18BB
100
AcDbEntity
  8
1
  6
Continuous
100
AcDbLine
 10
693.33479
 20
137.9999639999998
 30
0.0
 11
693.33479
 21
127.9999639999999
 31
0.0
  0
ENDSEC
  0
SECTION
  2
OBJECTS
  0
DICTIONARY
  5
18A9
330
0
100
AcDbDictionary
281
     1
  3
ACAD_CIP_PREVIOUS_PRODUCT_INFO
350
1B97
  3
ACAD_COLOR
350
1B79
  3
ACAD_DETAILVIEWSTYLE
350
1B92
  3
ACAD_GROUP
350
18AA
  3
ACAD_LAYOUT
350
18B6
  3
ACAD_MATERIAL
350
1B47
  3
ACAD_MLEADERSTYLE
350
1B8E
  3
ACAD_MLINESTYLE
350
18B3
  3
ACAD_PLOTSETTINGS
350
18B5
  3
ACAD_PLOTSTYLENAME
350
1B45
  3
ACAD_SCALELIST
350
1B7C
  3
ACAD_SECTIONVIEWSTYLE
350
1B90
  3
ACAD_TABLESTYLE
350
1B7A
  3
ACAD_VISUALSTYLE
350
1B60
  3
ACDB_RECOMPOSE_DATA
350
1BB5
  3
AcDbVariableDictionary
350
1BA8
  3
DWGPROPS
350
1BB6
  0
DICTIONARY
  5
1B98
330
18AD
100
AcDbDictionary
280
     1
281
     1
  3
ADSK_XREC_LAYER_RECONCILED
360
1B99
  0
DICTIONARY
  5
1B9A
330
18C3
100
AcDbDictionary
280
     1
281
     1
  3
ADSK_XREC_LAYER_RECONCILED
360
1B9B
  0
DICTIONARY
  5
1B9C
330
18C4
100
AcDbDictionary
280
     1
281
     1
  3
ADSK_XREC_LAYER_RECONCILED
360
1B9D
  0
DICTIONARY
  5
1B9E
330
18C5
100
AcDbDictionary
280
     1
281
     1
  3
ADSK_XREC_LAYER_RECONCILED
360
1B9F
  0
DICTIONARY
  5
1BA0
330
18C6
100
AcDbDictionary
280
     1
281
     1
  3
ADSK_XREC_LAYER_RECONCILED
360
1BA1
  0
DICTIONARY
  5
1BA2
330
18C7
100
AcDbDictionary
280
     1
281
     1
  3
ADSK_XREC_LAYER_RECONCILED
360
1BA3
  0
DICTIONARY
  5
1BA4
330
18C8
100
AcDbDictionary
280
     1
281
     1
  3
ADSK_XREC_LAYER_RECONCILED
360
1BA5
  0
DICTIONARY
  5
1BA6
330
18C9
100
AcDbDictionary
280
     1
281
     1
  3
ADSK_XREC_LAYER_RECONCILED
360
1BA7
  0
DICTIONARY
  5
1B40
330
18BB
100
AcDbDictionary
281
     1
  3
ACAD_LAYOUTSELFREF
350
1B41
  0
DICTIONARY
  5
1B3E
330
18B7
100
AcDbDictionary
281
     1
  3
ACAD_LAYOUTSELFREF
350
1B3F
  0
XRECORD
  5
1B97
102
{ACAD_REACTORS
330
18A9
102
}
330
18A9
100
AcDbXrecord
280
     1
300
ACDLT
300
2014
300
ACDLT_F_S
  0
DICTIONARY
  5
1B79
102
{ACAD_REACTORS
330
18A9
102
}
330
18A9
100
AcDbDictionary
281
     1
  0
DICTIONARY
  5
1B92
102
{ACAD_REACTORS
330
18A9
102
}
330
18A9
100
AcDbDictionary
281
     1
  3
Imperial24
350
1B93
  0
DICTIONARY
  5
18AA
102
{ACAD_REACTORS
330
18A9
102
}
330
18A9
100
AcDbDictionary
281
     1
  0
DICTIONARY
  5
18B6
102
{ACAD_REACTORS
330
18A9
102
}
330
18A9
100
AcDbDictionary
281
     1
  3
Model
350
1B94
  3
レイアウト1
350
1B95
  0
DICTIONARY
  5
1B47
102
{ACAD_REACTORS
330
18A9
102
}
330
18A9
100
AcDbDictionary
281
     1
  3
ByBlock
350
1B50
  3
ByLayer
350
1B48
  3
Global
350
1B58
  0
DICTIONARY
  5
1B8E
102
{ACAD_REACTORS
330
18A9
102
}
330
18A9
100
AcDbDictionary
281
     1
  3
Standard
350
1B8F
  0
DICTIONARY
  5
18B3
102
{ACAD_REACTORS
330
18A9
102
}
330
18A9
100
AcDbDictionary
281
     1
  3
STANDARD
350
18B4
  0
DICTIONARY
  5
18B5
102
{ACAD_REACTORS
330
18A9
102
}
330
18A9
100
AcDbDictionary
281
     1
  0
ACDBDICTIONARYWDFLT
  5
1B45
102
{ACAD_REACTORS
330
18A9
102
}
330
18A9
100
AcDbDictionary
281
     1
  3
Normal
350
1B46
100
AcDbDictionaryWithDefault
340
1B46
  0
DICTIONARY
  5
1B7C
102
{ACAD_REACTORS
330
18A9
102
}
330
18A9
100
AcDbDictionary
281
     1
  3
A0
350
1B7D
  3
A1
350
1B7E
  3
A2
350
1B7F
  3
A3
350
1B80
  3
A4
350
1B81
  3
A5
350
1B82
  3
A6
350
1B83
  3
A7
350
1B84
  3
A8
350
1B85
  3
A9
350
1B86
  3
B0
350
1B87
  3
B1
350
1B88
  3
B2
350
1B89
  3
B3
350
1B8A
  3
B4
350
1B8B
  3
B5
350
1B8C
  3
B6
350
1B8D
  0
DICTIONARY
  5
1B90
102
{ACAD_REACTORS
330
18A9
102
}
330
18A9
100
AcDbDictionary
281
     1
  3
Imperial24
350
1B91
  0
DICTIONARY
  5
1B7A
102
{ACAD_REACTORS
330
18A9
102
}
330
18A9
100
AcDbDictionary
281
     1
  3
Standard
350
1B7B
  0
DICTIONARY
  5
1B60
102
{ACAD_REACTORS
330
18A9
102
}
330
18A9
100
AcDbDictionary
281
     1
  3
2dWireframe
350
1B66
  3
Basic
350
1B65
  3
Brighten
350
1B6C
  3
ColorChange
350
1B70
  3
Conceptual
350
1B69
  3
Dim
350
1B6B
  3
EdgeColorOff
350
1B78
  3
Facepattern
350
1B6F
  3
Flat
350
1B61
  3
FlatWithEdges
350
1B62
  3
Gouraud
350
1B63
  3
GouraudWithEdges
350
1B64
  3
Hidden
350
1B68
  3
JitterOff
350
1B76
  3
Linepattern
350
1B6E
  3
OverhangOff
350
1B77
  3
Realistic
350
1B6A
  3
Shaded
350
1B75
  3
Shaded with edges
350
1B74
  3
Shades of Gray
350
1B71
  3
Sketchy
350
1B72
  3
Thicken
350
1B6D
  3
Wireframe
350
1B67
  3
X-Ray
350
1B73
  0
XRECORD
  5
1BB5
102
{ACAD_REACTORS
330
18A9
102
}
330
18A9
100
AcDbXrecord
280
     1
 90
        1
330
1B7B
  0
DICTIONARY
  5
1BA8
102
{ACAD_REACTORS
330
18A9
102
}
330
18A9
100
AcDbDictionary
281
     1
  3
CANNOSCALE
350
1BAD
  3
CMLEADERSTYLE
350
1BAA
  3
CTABLESTYLE
350
1BA9
  3
CVIEWDETAILSTYLE
350
1BAB
  3
CVIEWSECTIONSTYLE
350
1BAC
  3
DIMASSOC
350
1BB0
  3
INDEXCTL
350
1BAF
  3
SORTENTS
350
1BAE
  3
XCLIPFRAME
350
1BB1
  0
XRECORD
  5
1BB6
102
{ACAD_REACTORS
330
18A9
102
}
330
18A9
100
AcDbXrecord
280
     1
  1
DWGPROPS COOKIE
  2

  3

  4

  6

  7

  8
Yoshitsune
  9

300
=
301
=
302
=
303
=
304
=
305
=
306
=
307
=
308
=
309
=
 40
0.1177631712962963
 41
2451650.385882998
 42
2457192.60156456
  1

 90
        0
  0
XRECORD
  5
1B99
102
{ACAD_REACTORS
330
1B98
102
}
330
1B98
100
AcDbXrecord
280
     1
290
     1
  0
XRECORD
  5
1B9B
102
{ACAD_REACTORS
330
1B9A
102
}
330
1B9A
100
AcDbXrecord
280
     1
290
     1
  0
XRECORD
  5
1B9D
102
{ACAD_REACTORS
330
1B9C
102
}
330
1B9C
100
AcDbXrecord
280
     1
290
     1
  0
XRECORD
  5
1B9F
102
{ACAD_REACTORS
330
1B9E
102
}
330
1B9E
100
AcDbXrecord
280
     1
290
     1
  0
XRECORD
  5
1BA1
102
{ACAD_REACTORS
330
1BA0
102
}
330
1BA0
100
AcDbXrecord
280
     1
290
     1
  0
XRECORD
  5
1BA3
102
{ACAD_REACTORS
330
1BA2
102
}
330
1BA2
100
AcDbXrecord
280
     1
290
     1
  0
XRECORD
  5
1BA5
102
{ACAD_REACTORS
330
1BA4
102
}
330
1BA4
100
AcDbXrecord
280
     1
290
     1
  0
XRECORD
  5
1BA7
102
{ACAD_REACTORS
330
1BA6
102
}
330
1BA6
100
AcDbXrecord
280
     1
290
     1
  0
XRECORD
  5
1B41
102
{ACAD_REACTORS
330
1B40
102
}
330
1B40
100
AcDbXrecord
280
     1
340
18BB
  0
XRECORD
  5
1B3F
102
{ACAD_REACTORS
330
1B3E
102
}
330
1B3E
100
AcDbXrecord
280
     1
340
18B7
  0
ACDBDETAILVIEWSTYLE
  5
1B93
102
{ACAD_XDICTIONARY
360
1BEE
102
}
102
{ACAD_REACTORS
330
1B92
102
}
330
1B92
100
AcDbModelDocViewStyle
 70
     0
  3
Imperial24
290
     0
100
AcDbDetailViewStyle
 70
     0
 71
     0
 90
        3
 71
     1
340
18AE
 40
0.24
340
0
 40
0.24
300

 40
0.36
280
     3
 71
     2
340
18B2
 90
       25
 71
     3
340
18AE
 40
0.24
 90
        1
 40
0.75
 90
        1
300
%<\AcVar ViewType \f "%tc1">% %<\AcVar ViewDetailId>%\PSCALE %<\AcVar ViewScale \f "%sn">%
 71
     4
340
18B2
 90
       25
340
18B2
 90
       25
280
     0
  0
LAYOUT
  5
1B94
102
{ACAD_XDICTIONARY
360
1BF0
102
}
102
{ACAD_REACTORS
330
18B6
102
}
330
18B6
100
AcDbPlotSettings
  1

  2
Canon LBP9100C
  4

  6

 40
0.0
 41
0.0
 42
0.0
 43
0.0
 44
0.0
 45
0.0
 46
0.0
 47
0.0
 48
0.0
 49
0.0
140
0.0
141
0.0
142
1.0
143
1.0
 70
  1712
 72
     0
 73
     0
 74
     0
  7

 75
     0
147
1.0
148
0.0
149
0.0
100
AcDbLayout
  1
Model
 70
     1
 71
     0
 10
0.0
 20
0.0
 11
12.0
 21
9.0
 12
0.0
 22
0.0
 32
0.0
 14
0.0
 24
0.0
 34
0.0
 15
0.0
 25
0.0
 35
0.0
146
0.0
 13
0.0
 23
0.0
 33
0.0
 16
1.0
 26
0.0
 36
0.0
 17
0.0
 27
1.0
 37
0.0
 76
     0
330
18BB
331
1B3D
  0
LAYOUT
  5
1B95
102
{ACAD_XDICTIONARY
360
1BF2
102
}
102
{ACAD_REACTORS
330
18B6
102
}
330
18B6
100
AcDbPlotSettings
  1

  2
Canon LBP9100C
  4

  6

 40
0.0
 41
0.0
 42
0.0
 43
0.0
 44
0.0
 45
0.0
 46
0.0
 47
0.0
 48
0.0
 49
0.0
140
0.0
141
0.0
142
1.0
143
1.0
 70
   688
 72
     0
 73
     0
 74
     5
  7

 75
    16
147
1.0
148
0.0
149
0.0
100
AcDbLayout
  1
レイアウト1
 70
     1
 71
     1
 10
0.0
 20
0.0
 11
420.0
 21
297.0
 12
0.0
 22
0.0
 32
0.0
 14
1.000000000000000E+20
 24
1.000000000000000E+20
 34
1.000000000000000E+20
 15
-1.000000000000000E+20
 25
-1.000000000000000E+20
 35
-1.000000000000000E+20
146
0.0
 13
0.0
 23
0.0
 33
0.0
 16
1.0
 26
0.0
 36
0.0
 17
0.0
 27
1.0
 37
0.0
 76
     0
330
18B7
  0
MATERIAL
  5
1B50
102
{ACAD_XDICTIONARY
360
1B51
102
}
102
{ACAD_REACTORS
330
1B47
102
}
330
1B47
100
AcDbMaterial
  1
ByBlock
 72
     0
 43
0.0208333333333333
 43
0.0
 43
0.0
 43
0.0
 43
0.0
 43
0.0208333333333333
 43
0.0
 43
0.0
 43
0.0
 43
0.0
 43
1.0
 43
0.0
 43
0.0
 43
0.0
 43
0.0
 43
1.0
 77
     0
 47
0.0208333333333333
 47
0.0
 47
0.0
 47
0.0
 47
0.0
 47
0.0208333333333333
 47
0.0
 47
0.0
 47
0.0
 47
0.0
 47
1.0
 47
0.0
 47
0.0
 47
0.0
 47
0.0
 47
1.0
171
     0
 49
0.0208333333333333
 49
0.0
 49
0.0
 49
0.0
 49
0.0
 49
0.0208333333333333
 49
0.0
 49
0.0
 49
0.0
 49
0.0
 49
1.0
 49
0.0
 49
0.0
 49
0.0
 49
0.0
 49
1.0
175
     0
142
0.0208333333333333
142
0.0
142
0.0
142
0.0
142
0.0
142
0.0208333333333333
142
0.0
142
0.0
142
0.0
142
0.0
142
1.0
142
0.0
142
0.0
142
0.0
142
0.0
142
1.0
179
     0
144
0.0208333333333333
144
0.0
144
0.0
144
0.0
144
0.0
144
0.0208333333333333
144
0.0
144
0.0
144
0.0
144
0.0
144
1.0
144
0.0
144
0.0
144
0.0
144
0.0
144
1.0
147
0.0208333333333333
147
0.0
147
0.0
147
0.0
147
0.0
147
0.0208333333333333
147
0.0
147
0.0
147
0.0
147
0.0
147
1.0
147
0.0
147
0.0
147
0.0
147
0.0
147
1.0
  0
MATERIAL
  5
1B48
102
{ACAD_XDICTIONARY
360
1B49
102
}
102
{ACAD_REACTORS
330
1B47
102
}
330
1B47
100
AcDbMaterial
  1
ByLayer
 72
     0
 43
0.0208333333333333
 43
0.0
 43
0.0
 43
0.0
 43
0.0
 43
0.0208333333333333
 43
0.0
 43
0.0
 43
0.0
 43
0.0
 43
1.0
 43
0.0
 43
0.0
 43
0.0
 43
0.0
 43
1.0
 77
     0
 47
0.0208333333333333
 47
0.0
 47
0.0
 47
0.0
 47
0.0
 47
0.0208333333333333
 47
0.0
 47
0.0
 47
0.0
 47
0.0
 47
1.0
 47
0.0
 47
0.0
 47
0.0
 47
0.0
 47
1.0
171
     0
 49
0.0208333333333333
 49
0.0
 49
0.0
 49
0.0
 49
0.0
 49
0.0208333333333333
 49
0.0
 49
0.0
 49
0.0
 49
0.0
 49
1.0
 49
0.0
 49
0.0
 49
0.0
 49
0.0
 49
1.0
175
     0
142
0.0208333333333333
142
0.0
142
0.0
142
0.0
142
0.0
142
0.0208333333333333
142
0.0
142
0.0
142
0.0
142
0.0
142
1.0
142
0.0
142
0.0
142
0.0
142
0.0
142
1.0
179
     0
144
0.0208333333333333
144
0.0
144
0.0
144
0.0
144
0.0
144
0.0208333333333333
144
0.0
144
0.0
144
0.0
144
0.0
144
1.0
144
0.0
144
0.0
144
0.0
144
0.0
144
1.0
147
0.0208333333333333
147
0.0
147
0.0
147
0.0
147
0.0
147
0.0208333333333333
147
0.0
147
0.0
147
0.0
147
0.0
147
1.0
147
0.0
147
0.0
147
0.0
147
0.0
147
1.0
  0
MATERIAL
  5
1B58
102
{ACAD_XDICTIONARY
360
1B59
102
}
102
{ACAD_REACTORS
330
1B47
102
}
330
1B47
100
AcDbMaterial
  1
Global
 72
     0
 43
0.0208333333333333
 43
0.0
 43
0.0
 43
0.0
 43
0.0
 43
0.0208333333333333
 43
0.0
 43
0.0
 43
0.0
 43
0.0
 43
1.0
 43
0.0
 43
0.0
 43
0.0
 43
0.0
 43
1.0
 77
     0
 47
0.0208333333333333
 47
0.0
 47
0.0
 47
0.0
 47
0.0
 47
0.0208333333333333
 47
0.0
 47
0.0
 47
0.0
 47
0.0
 47
1.0
 47
0.0
 47
0.0
 47
0.0
 47
0.0
 47
1.0
171
     0
 49
0.0208333333333333
 49
0.0
 49
0.0
 49
0.0
 49
0.0
 49
0.0208333333333333
 49
0.0
 49
0.0
 49
0.0
 49
0.0
 49
1.0
 49
0.0
 49
0.0
 49
0.0
 49
0.0
 49
1.0
175
     0
142
0.0208333333333333
142
0.0
142
0.0
142
0.0
142
0.0
142
0.0208333333333333
142
0.0
142
0.0
142
0.0
142
0.0
142
1.0
142
0.0
142
0.0
142
0.0
142
0.0
142
1.0
179
     0
144
0.0208333333333333
144
0.0
144
0.0
144
0.0
144
0.0
144
0.0208333333333333
144
0.0
144
0.0
144
0.0
144
0.0
144
1.0
144
0.0
144
0.0
144
0.0
144
0.0
144
1.0
147
0.0208333333333333
147
0.0
147
0.0
147
0.0
147
0.0
147
0.0208333333333333
147
0.0
147
0.0
147
0.0
147
0.0
147
1.0
147
0.0
147
0.0
147
0.0
147
0.0
147
1.0
  0
MLEADERSTYLE
  5
1B8F
102
{ACAD_REACTORS
330
1B8E
102
}
330
1B8E
100
AcDbMLeaderStyle
170
     2
171
     1
172
     0
 90
        2
 40
0.0
 41
0.0
173
     1
 91
-1056964608
340
18B0
 92
       -2
290
     1
 42
0.09
291
     1
 43
0.36
  3
Standard
 44
0.18
300

342
18AE
174
     1
178
     6
175
     1
176
     0
 93
-1056964608
 45
0.18
292
     0
297
     0
 46
0.18
 94
-1056964608
 47
1.0
 49
1.0
140
1.0
293
     1
141
0.0
294
     1
177
     0
142
1.0
295
     0
296
     0
143
0.125
1001
ACAD_MLEADERVER
1070
     2
  0
MLINESTYLE
  5
18B4
102
{ACAD_REACTORS
330
18B3
102
}
330
18B3
100
AcDbMlineStyle
  2
STANDARD
 70
     0
  3

 62
   256
 51
90.0
 52
90.0
 71
     2
 49
0.5
 62
   256
  6
BYLAYER
 49
-0.5
 62
   256
  6
BYLAYER
  0
ACDBPLACEHOLDER
  5
1B46
102
{ACAD_REACTORS
330
1B45
102
}
330
1B45
  0
SCALE
  5
1B7D
102
{ACAD_REACTORS
330
1B7C
102
}
330
1B7C
100
AcDbScale
 70
     0
300
1:1
140
1.0
141
1.0
290
     1
  0
SCALE
  5
1B7E
102
{ACAD_REACTORS
330
1B7C
102
}
330
1B7C
100
AcDbScale
 70
     0
300
1/128" = 1'-0"
140
0.0078125
141
12.0
290
     0
  0
SCALE
  5
1B7F
102
{ACAD_REACTORS
330
1B7C
102
}
330
1B7C
100
AcDbScale
 70
     0
300
1/64" = 1'-0"
140
0.015625
141
12.0
290
     0
  0
SCALE
  5
1B80
102
{ACAD_REACTORS
330
1B7C
102
}
330
1B7C
100
AcDbScale
 70
     0
300
1/32" = 1'-0"
140
0.03125
141
12.0
290
     0
  0
SCALE
  5
1B81
102
{ACAD_REACTORS
330
1B7C
102
}
330
1B7C
100
AcDbScale
 70
     0
300
1/16" = 1'-0"
140
0.0625
141
12.0
290
     0
  0
SCALE
  5
1B82
102
{ACAD_REACTORS
330
1B7C
102
}
330
1B7C
100
AcDbScale
 70
     0
300
3/32" = 1'-0"
140
0.09375
141
12.0
290
     0
  0
SCALE
  5
1B83
102
{ACAD_REACTORS
330
1B7C
102
}
330
1B7C
100
AcDbScale
 70
     0
300
1/8" = 1'-0"
140
0.125
141
12.0
290
     0
  0
SCALE
  5
1B84
102
{ACAD_REACTORS
330
1B7C
102
}
330
1B7C
100
AcDbScale
 70
     0
300
3/16" = 1'-0"
140
0.1875
141
12.0
290
     0
  0
SCALE
  5
1B85
102
{ACAD_REACTORS
330
1B7C
102
}
330
1B7C
100
AcDbScale
 70
     0
300
1/4" = 1'-0"
140
0.25
141
12.0
290
     0
  0
SCALE
  5
1B86
102
{ACAD_REACTORS
330
1B7C
102
}
330
1B7C
100
AcDbScale
 70
     0
300
3/8" = 1'-0"
140
0.375
141
12.0
290
     0
  0
SCALE
  5
1B87
102
{ACAD_REACTORS
330
1B7C
102
}
330
1B7C
100
AcDbScale
 70
     0
300
1/2" = 1'-0"
140
0.5
141
12.0
290
     0
  0
SCALE
  5
1B88
102
{ACAD_REACTORS
330
1B7C
102
}
330
1B7C
100
AcDbScale
 70
     0
300
3/4" = 1'-0"
140
0.75
141
12.0
290
     0
  0
SCALE
  5
1B89
102
{ACAD_REACTORS
330
1B7C
102
}
330
1B7C
100
AcDbScale
 70
     0
300
1" = 1'-0"
140
1.0
141
12.0
290
     0
  0
SCALE
  5
1B8A
102
{ACAD_REACTORS
330
1B7C
102
}
330
1B7C
100
AcDbScale
 70
     0
300
1-1/2" = 1'-0"
140
1.5
141
12.0
290
     0
  0
SCALE
  5
1B8B
102
{ACAD_REACTORS
330
1B7C
102
}
330
1B7C
100
AcDbScale
 70
     0
300
3" = 1'-0"
140
3.0
141
12.0
290
     0
  0
SCALE
  5
1B8C
102
{ACAD_REACTORS
330
1B7C
102
}
330
1B7C
100
AcDbScale
 70
     0
300
6" = 1'-0"
140
6.0
141
12.0
290
     0
  0
SCALE
  5
1B8D
102
{ACAD_REACTORS
330
1B7C
102
}
330
1B7C
100
AcDbScale
 70
     0
300
1'-0" = 1'-0"
140
12.0
141
12.0
290
     0
  0
ACDBSECTIONVIEWSTYLE
  5
1B91
102
{ACAD_XDICTIONARY
360
1BEC
102
}
102
{ACAD_REACTORS
330
1B90
102
}
330
1B90
100
AcDbModelDocViewStyle
 70
     0
  3
Imperial24
290
     0
100
AcDbSectionViewStyle
 70
     0
 71
     0
 90
       78
 71
     1
340
18AE
 40
0.24
340
0
340
0
 40
0.24
300
I, O, Q, S, X, Z
 40
0.48
 90
        3
 40
0.18
 90
        1
 71
     2
340
18B2
 90
       25
340
18B2
 90
       50
 40
0.24
 40
0.0
 40
0.24
 71
     3
340
18AE
 40
0.24
 90
        1
 40
0.75
 90
        1
300
%<\AcVar ViewType \f "%tc1">% %<\AcVar ViewSectionStartId>%-%<\AcVar ViewSectionEndId>%\PSCALE %<\AcVar ViewScale \f "%sn">%
 71
     4
300
ANSI31
 40
1.0
 90
        0
290
     0
290
     0
 90
        6
 40
0.0
 40
1.570796326794896
 40
0.2617993877991494
 40
1.308996938995747
 40
-0.2617993877991494
 40
1.832595714594046
  0
TABLESTYLE
  5
1B7B
102
{ACAD_XDICTIONARY
360
1BB3
102
}
102
{ACAD_REACTORS
330
1B7A
102
}
330
1B7A
100
AcDbTableStyle
  3
Standard
 70
     0
 71
     0
 40
0.06
 41
0.06
280
     0
281
     0
  7
STANDARD
140
0.18
170
     2
 62
     0
 63
     7
283
     0
274
    -2
284
     1
 64
     0
275
    -2
285
     1
 65
     0
276
    -2
286
     1
 66
     0
277
    -2
287
     1
 67
     0
278
    -2
288
     1
 68
     0
279
    -2
289
     1
 69
     0
  7
STANDARD
140
0.25
170
     5
 62
     0
 63
     7
283
     0
274
    -2
284
     1
 64
     0
275
    -2
285
     1
 65
     0
276
    -2
286
     1
 66
     0
277
    -2
287
     1
 67
     0
278
    -2
288
     1
 68
     0
279
    -2
289
     1
 69
     0
  7
STANDARD
140
0.18
170
     5
 62
     0
 63
     7
283
     0
274
    -2
284
     1
 64
     0
275
    -2
285
     1
 65
     0
276
    -2
286
     1
 66
     0
277
    -2
287
     1
 67
     0
278
    -2
288
     1
 68
     0
279
    -2
289
     1
 69
     0
  0
VISUALSTYLE
  5
1B66
102
{ACAD_XDICTIONARY
360
1BC4
102
}
102
{ACAD_REACTORS
330
1B60
102
}
330
1B60
100
AcDbVisualStyle
  2
2dWireframe
 70
     4
 71
     0
 72
     2
 73
     0
 90
        0
 40
-0.6
 41
-30.0
 62
     5
 63
     7
 74
     1
 91
        4
 64
     7
 65
   257
 75
     1
175
     1
 42
1.0
 92
        0
 66
   257
 43
1.0
 76
     1
 77
     6
 78
     2
 67
     7
 79
     5
170
     0
171
     0
290
     0
174
     0
 93
        1
 44
0.0
173
     0
291
     0
 45
0.0
1001
ACAD
1000
AcDbSavedByObjectVersion
1070
     0
  0
VISUALSTYLE
  5
1B65
102
{ACAD_XDICTIONARY
360
1BC2
102
}
102
{ACAD_REACTORS
330
1B60
102
}
330
1B60
100
AcDbVisualStyle
  2
Basic
 70
     7
 71
     1
 72
     0
 73
     1
 90
        0
 40
-0.6
 41
-30.0
 62
     5
 63
     7
 74
     0
 91
        4
 64
     7
 65
   257
 75
     1
175
     1
 42
1.0
 92
        8
 66
     7
 43
1.0
 76
     1
 77
     6
 78
     2
 67
     7
 79
     5
170
     0
171
     0
290
     0
174
     0
 93
        1
 44
0.0
173
     0
291
     1
 45
0.0
1001
ACAD
1000
AcDbSavedByObjectVersion
1070
     0
  0
VISUALSTYLE
  5
1B6C
102
{ACAD_XDICTIONARY
360
1BD0
102
}
102
{ACAD_REACTORS
330
1B60
102
}
330
1B60
100
AcDbVisualStyle
  2
Brighten
 70
    12
 71
     2
 72
     2
 73
     0
 90
        0
 40
-0.6
 41
-30.0
 62
     5
 63
     7
 74
     1
 91
        4
 64
     7
 65
   257
 75
     1
175
     1
 42
1.0
 92
        8
 66
     7
 43
1.0
 76
     1
 77
     6
 78
     2
 67
     7
 79
     5
170
     0
171
     0
290
     0
174
     0
 93
        1
 44
50.0
173
     0
291
     1
 45
0.0
1001
ACAD
1000
AcDbSavedByObjectVersion
1070
     0
  0
VISUALSTYLE
  5
1B70
102
{ACAD_XDICTIONARY
360
1BD8
102
}
102
{ACAD_REACTORS
330
1B60
102
}
330
1B60
100
AcDbVisualStyle
  2
ColorChange
 70
    16
 71
     2
 72
     2
 73
     3
 90
        0
 40
-0.6
 41
-30.0
 62
     5
 63
     8
 74
     1
 91
        4
 64
     7
 65
   257
 75
     1
175
     1
 42
1.0
 92
        8
 66
     8
 43
1.0
 76
     1
 77
     6
 78
     2
 67
     7
 79
     5
170
     0
171
     0
290
     0
174
     0
 93
        1
 44
0.0
173
     0
291
     1
 45
0.0
1001
ACAD
1000
AcDbSavedByObjectVersion
1070
     0
  0
VISUALSTYLE
  5
1B69
102
{ACAD_XDICTIONARY
360
1BCA
102
}
102
{ACAD_REACTORS
330
1B60
102
}
330
1B60
100
AcDbVisualStyle
  2
Conceptual
 70
     9
 71
     3
 72
     2
 73
     0
 90
        0
 40
-0.6
 41
-30.0
 62
     5
 63
     7
 74
     2
 91
        2
 64
     7
 65
   257
 75
     1
175
     1
 42
179.0
 92
        8
 66
     7
 43
1.0
 76
     1
 77
     6
 78
     2
 67
     7
 79
     3
170
     0
171
     0
290
     0
174
     0
 93
        1
 44
0.0
173
     0
291
     0
 45
0.0
1001
ACAD
1000
AcDbSavedByObjectVersion
1070
     0
  0
VISUALSTYLE
  5
1B6B
102
{ACAD_XDICTIONARY
360
1BCE
102
}
102
{ACAD_REACTORS
330
1B60
102
}
330
1B60
100
AcDbVisualStyle
  2
Dim
 70
    11
 71
     2
 72
     2
 73
     0
 90
        0
 40
-0.6
 41
-30.0
 62
     5
 63
     7
 74
     1
 91
        4
 64
     7
 65
   257
 75
     1
175
     1
 42
1.0
 92
        8
 66
     7
 43
1.0
 76
     1
 77
     6
 78
     2
 67
     7
 79
     5
170
     0
171
     0
290
     0
174
     0
 93
        1
 44
-50.0
173
     0
291
     1
 45
0.0
1001
ACAD
1000
AcDbSavedByObjectVersion
1070
     0
  0
VISUALSTYLE
  5
1B78
102
{ACAD_XDICTIONARY
360
1BE8
102
}
102
{ACAD_REACTORS
330
1B60
102
}
330
1B60
100
AcDbVisualStyle
  2
EdgeColorOff
 70
    22
 71
     2
 72
     2
 73
     0
 90
        0
 40
-0.6
 41
-30.0
 62
     5
 63
     7
 74
     1
 91
        4
 64
     7
 65
   257
 75
     1
175
     1
 42
1.0
 92
        8
 66
     7
 43
1.0
 76
     1
 77
     6
 78
     2
 67
     7
 79
     5
170
     0
171
     0
290
     0
174
     0
 93
        1
 44
0.0
173
     0
291
     1
 45
0.0
1001
ACAD
1000
AcDbSavedByObjectVersion
1070
     0
  0
VISUALSTYLE
  5
1B6F
102
{ACAD_XDICTIONARY
360
1BD6
102
}
102
{ACAD_REACTORS
330
1B60
102
}
330
1B60
100
AcDbVisualStyle
  2
Facepattern
 70
    15
 71
     2
 72
     2
 73
     0
 90
        0
 40
-0.6
 41
-30.0
 62
     5
 63
     7
 74
     1
 91
        4
 64
     7
 65
   257
 75
     1
175
     1
 42
1.0
 92
        8
 66
     7
 43
1.0
 76
     1
 77
     6
 78
     2
 67
     7
 79
     5
170
     0
171
     0
290
     0
174
     0
 93
        1
 44
0.0
173
     0
291
     1
 45
0.0
1001
ACAD
1000
AcDbSavedByObjectVersion
1070
     0
  0
VISUALSTYLE
  5
1B61
102
{ACAD_XDICTIONARY
360
1BBA
102
}
102
{ACAD_REACTORS
330
1B60
102
}
330
1B60
100
AcDbVisualStyle
  2
Flat
 70
     0
 71
     2
 72
     1
 73
     1
 90
        2
 40
-0.6
 41
30.0
 62
     5
 63
     7
 74
     0
 91
        0
 64
     7
 65
   257
 75
     1
175
     1
 42
1.0
 92
        8
 66
     7
 43
1.0
 76
     1
 77
     6
 78
     2
 67
     7
 79
     5
170
     0
171
     0
290
     0
174
     0
 93
       13
 44
0.0
173
     0
291
     1
 45
0.0
1001
ACAD
1000
AcDbSavedByObjectVersion
1070
     0
  0
VISUALSTYLE
  5
1B62
102
{ACAD_XDICTIONARY
360
1BBC
102
}
102
{ACAD_REACTORS
330
1B60
102
}
330
1B60
100
AcDbVisualStyle
  2
FlatWithEdges
 70
     1
 71
     2
 72
     1
 73
     1
 90
        2
 40
-0.6
 41
30.0
 62
     5
 63
     7
 74
     1
 91
        0
 64
     7
 65
   257
 75
     1
175
     1
 42
1.0
 92
        0
 66
   257
 43
1.0
 76
     1
 77
     6
 78
     2
 67
     7
 79
     5
170
     0
171
     0
290
     0
174
     0
 93
       13
 44
0.0
173
     0
291
     1
 45
0.0
1001
ACAD
1000
AcDbSavedByObjectVersion
1070
     0
  0
VISUALSTYLE
  5
1B63
102
{ACAD_XDICTIONARY
360
1BBE
102
}
102
{ACAD_REACTORS
330
1B60
102
}
330
1B60
100
AcDbVisualStyle
  2
Gouraud
 70
     2
 71
     2
 72
     2
 73
     1
 90
        2
 40
-0.6
 41
30.0
 62
     5
 63
     7
 74
     0
 91
        0
 64
     7
 65
   257
 75
     1
175
     1
 42
1.0
 92
        0
 66
     7
 43
1.0
 76
     1
 77
     6
 78
     2
 67
     7
 79
     5
170
     0
171
     0
290
     0
174
     0
 93
       13
 44
0.0
173
     0
291
     1
 45
0.0
1001
ACAD
1000
AcDbSavedByObjectVersion
1070
     0
  0
VISUALSTYLE
  5
1B64
102
{ACAD_XDICTIONARY
360
1BC0
102
}
102
{ACAD_REACTORS
330
1B60
102
}
330
1B60
100
AcDbVisualStyle
  2
GouraudWithEdges
 70
     3
 71
     2
 72
     2
 73
     1
 90
        2
 40
-0.6
 41
30.0
 62
     5
 63
     7
 74
     1
 91
        0
 64
     7
 65
   257
 75
     1
175
     1
 42
1.0
 92
        0
 66
   257
 43
1.0
 76
     1
 77
     6
 78
     2
 67
     7
 79
     5
170
     0
171
     0
290
     0
174
     0
 93
       13
 44
0.0
173
     0
291
     1
 45
0.0
1001
ACAD
1000
AcDbSavedByObjectVersion
1070
     0
  0
VISUALSTYLE
  5
1B68
102
{ACAD_XDICTIONARY
360
1BC8
102
}
102
{ACAD_REACTORS
330
1B60
102
}
330
1B60
100
AcDbVisualStyle
  2
Hidden
 70
     6
 71
     1
 72
     2
 73
     2
 90
        0
 40
-0.6
 41
-30.0
 62
     5
 63
     7
 74
     2
 91
        2
 64
     7
 65
   257
 75
     2
175
     1
 42
40.0
 92
        0
 66
   257
 43
1.0
 76
     1
 77
     6
 78
     2
 67
     7
 79
     3
170
     0
171
     0
290
     0
174
     0
 93
        1
 44
0.0
173
     0
291
     0
 45
0.0
1001
ACAD
1000
AcDbSavedByObjectVersion
1070
     0
  0
VISUALSTYLE
  5
1B76
102
{ACAD_XDICTIONARY
360
1BE4
102
}
102
{ACAD_REACTORS
330
1B60
102
}
330
1B60
100
AcDbVisualStyle
  2
JitterOff
 70
    20
 71
     2
 72
     2
 73
     0
 90
        0
 40
-0.6
 41
-30.0
 62
     5
 63
     7
 74
     1
 91
        4
 64
     7
 65
   257
 75
     1
175
     1
 42
1.0
 92
       10
 66
     7
 43
1.0
 76
     1
 77
     6
 78
     2
 67
     7
 79
     5
170
     0
171
     0
290
     0
174
     0
 93
        1
 44
0.0
173
     0
291
     1
 45
0.0
1001
ACAD
1000
AcDbSavedByObjectVersion
1070
     0
  0
VISUALSTYLE
  5
1B6E
102
{ACAD_XDICTIONARY
360
1BD4
102
}
102
{ACAD_REACTORS
330
1B60
102
}
330
1B60
100
AcDbVisualStyle
  2
Linepattern
 70
    14
 71
     2
 72
     2
 73
     0
 90
        0
 40
-0.6
 41
-30.0
 62
     5
 63
     7
 74
     1
 91
        4
 64
     7
 65
   257
 75
     7
175
     7
 42
1.0
 92
        8
 66
     7
 43
1.0
 76
     1
 77
     6
 78
     2
 67
     7
 79
     5
170
     0
171
     0
290
     0
174
     0
 93
        1
 44
0.0
173
     0
291
     1
 45
0.0
1001
ACAD
1000
AcDbSavedByObjectVersion
1070
     0
  0
VISUALSTYLE
  5
1B77
102
{ACAD_XDICTIONARY
360
1BE6
102
}
102
{ACAD_REACTORS
330
1B60
102
}
330
1B60
100
AcDbVisualStyle
  2
OverhangOff
 70
    21
 71
     2
 72
     2
 73
     0
 90
        0
 40
-0.6
 41
-30.0
 62
     5
 63
     7
 74
     1
 91
        4
 64
     7
 65
   257
 75
     1
175
     1
 42
1.0
 92
        9
 66
     7
 43
1.0
 76
     1
 77
     6
 78
     2
 67
     7
 79
     5
170
     0
171
     0
290
     0
174
     0
 93
        1
 44
0.0
173
     0
291
     1
 45
0.0
1001
ACAD
1000
AcDbSavedByObjectVersion
1070
     0
  0
VISUALSTYLE
  5
1B6A
102
{ACAD_XDICTIONARY
360
1BCC
102
}
102
{ACAD_REACTORS
330
1B60
102
}
330
1B60
100
AcDbVisualStyle
  2
Realistic
 70
     8
 71
     2
 72
     3
 73
     0
 90
        2
 40
-0.6
 41
30.0
 62
     5
 63
     7
 74
     0
 91
        0
 64
     7
 65
   257
 75
     1
175
     1
 42
1.0
 92
        8
 66
   257
 43
1.0
 76
     1
 77
     6
 78
     2
 67
     7
 79
     3
170
     0
171
     0
290
     0
174
     0
 93
       13
 44
0.0
173
     0
291
     0
 45
0.0
1001
ACAD
1000
AcDbSavedByObjectVersion
1070
     0
  0
VISUALSTYLE
  5
1B75
102
{ACAD_XDICTIONARY
360
1BE2
102
}
102
{ACAD_REACTORS
330
1B60
102
}
330
1B60
100
AcDbVisualStyle
  2
Shaded
 70
    27
 71
     2
 72
     2
 73
     1
 90
        2
 40
-0.6
 41
30.0
 62
     5
 63
     7
 74
     0
 91
        4
 64
     7
 65
   257
 75
     1
175
     1
 42
1.0
 92
        8
 66
   257
 43
1.0
 76
     1
 77
     6
 78
     2
 67
     8
 79
     3
170
     0
171
     0
290
     0
174
     0
 93
        5
 44
0.0
173
     0
291
     0
 45
0.0
1001
ACAD
1000
AcDbSavedByObjectVersion
1070
     0
  0
VISUALSTYLE
  5
1B74
102
{ACAD_XDICTIONARY
360
1BE0
102
}
102
{ACAD_REACTORS
330
1B60
102
}
330
1B60
100
AcDbVisualStyle
  2
Shaded with edges
 70
    26
 71
     2
 72
     2
 73
     1
 90
        2
 40
-0.6
 41
30.0
 62
     5
 63
     7
 74
     1
 91
       10
 64
     7
 65
   257
 75
     2
175
     1
 42
1.0
 92
        8
 66
   257
 43
1.0
 76
     1
 77
     6
 78
     2
 67
     7
 79
     3
170
     0
171
     0
290
     0
174
     0
 93
        5
 44
0.0
173
     0
291
     0
 45
0.0
1001
ACAD
1000
AcDbSavedByObjectVersion
1070
     0
  0
VISUALSTYLE
  5
1B71
102
{ACAD_XDICTIONARY
360
1BDA
102
}
102
{ACAD_REACTORS
330
1B60
102
}
330
1B60
100
AcDbVisualStyle
  2
Shades of Gray
 70
    23
 71
     2
 72
     2
 73
     3
 90
        0
 40
-0.6
 41
-30.0
 62
     5
 63
     7
 74
     2
 91
        2
 64
     7
 65
     7
 75
     1
175
     1
 42
40.0
 92
        8
 66
     7
 43
1.0
 76
     1
 77
     6
 78
     2
 67
     7
 79
     3
170
     0
171
     0
290
     0
174
     0
 93
        1
 44
0.0
173
     0
291
     0
 45
0.0
1001
ACAD
1000
AcDbSavedByObjectVersion
1070
     0
  0
VISUALSTYLE
  5
1B72
102
{ACAD_XDICTIONARY
360
1BDC
102
}
102
{ACAD_REACTORS
330
1B60
102
}
330
1B60
100
AcDbVisualStyle
  2
Sketchy
 70
    24
 71
     1
 72
     2
 73
     2
 90
        0
 40
-0.6
 41
-30.0
 62
     5
 63
     7
 74
     2
 91
        2
 64
     7
 65
     7
 75
     1
175
     1
 42
40.0
 92
       11
 66
     7
 43
1.0
 76
     1
 77
     6
 78
     2
 67
     7
 79
     6
170
     0
171
     0
290
     0
174
     0
 93
        1
 44
0.0
173
     0
291
     0
 45
0.0
1001
ACAD
1000
AcDbSavedByObjectVersion
1070
     0
  0
VISUALSTYLE
  5
1B6D
102
{ACAD_XDICTIONARY
360
1BD2
102
}
102
{ACAD_REACTORS
330
1B60
102
}
330
1B60
100
AcDbVisualStyle
  2
Thicken
 70
    13
 71
     2
 72
     2
 73
     0
 90
        0
 40
-0.6
 41
-30.0
 62
     5
 63
     7
 74
     1
 91
        4
 64
     7
 65
   257
 75
     1
175
     1
 42
1.0
 92
       12
 66
     7
 43
1.0
 76
     1
 77
     6
 78
     2
 67
     7
 79
     5
170
     0
171
     0
290
     0
174
     0
 93
        1
 44
0.0
173
     0
291
     1
 45
0.0
1001
ACAD
1000
AcDbSavedByObjectVersion
1070
     0
  0
VISUALSTYLE
  5
1B67
102
{ACAD_XDICTIONARY
360
1BC6
102
}
102
{ACAD_REACTORS
330
1B60
102
}
330
1B60
100
AcDbVisualStyle
  2
Wireframe
 70
     5
 71
     0
 72
     2
 73
     0
 90
        0
 40
-0.6
 41
-30.0
 62
     5
 63
     7
 74
     1
 91
        4
 64
     7
 65
   257
 75
     1
175
     1
 42
1.0
 92
        0
 66
   257
 43
1.0
 76
     1
 77
     6
 78
     2
 67
     7
 79
     3
170
     0
171
     0
290
     0
174
     0
 93
        1
 44
0.0
173
     0
291
     0
 45
0.0
1001
ACAD
1000
AcDbSavedByObjectVersion
1070
     0
  0
VISUALSTYLE
  5
1B73
102
{ACAD_XDICTIONARY
360
1BDE
102
}
102
{ACAD_REACTORS
330
1B60
102
}
330
1B60
100
AcDbVisualStyle
  2
X-Ray
 70
    25
 71
     2
 72
     2
 73
     1
 90
        1
 40
0.5
 41
-30.0
 62
     5
 63
     7
 74
     1
 91
        0
 64
     7
 65
   257
 75
     1
175
     1
 42
1.0
 92
        8
 66
     7
 43
1.0
 76
     1
 77
     6
 78
     2
 67
     7
 79
     3
170
     0
171
     0
290
     0
174
     0
 93
       13
 44
0.0
173
     0
291
     0
 45
0.0
1001
ACAD
1000
AcDbSavedByObjectVersion
1070
     0
  0
DICTIONARYVAR
  5
1BAD
102
{ACAD_REACTORS
330
1BA8
102
}
330
1BA8
100
DictionaryVariables
280
     0
  1
1:1
  0
DICTIONARYVAR
  5
1BAA
102
{ACAD_REACTORS
330
1BA8
102
}
330
1BA8
100
DictionaryVariables
280
     0
  1
STANDARD
  0
DICTIONARYVAR
  5
1BA9
102
{ACAD_REACTORS
330
1BA8
102
}
330
1BA8
100
DictionaryVariables
280
     0
  1
STANDARD
  0
DICTIONARYVAR
  5
1BAB
102
{ACAD_REACTORS
330
1BA8
102
}
330
1BA8
100
DictionaryVariables
280
     0
  1
Imperial24
  0
DICTIONARYVAR
  5
1BAC
102
{ACAD_REACTORS
330
1BA8
102
}
330
1BA8
100
DictionaryVariables
280
     0
  1
Imperial24
  0
DICTIONARYVAR
  5
1BB0
102
{ACAD_REACTORS
330
1BA8
102
}
330
1BA8
100
DictionaryVariables
280
     0
  1
1
  0
DICTIONARYVAR
  5
1BAF
102
{ACAD_REACTORS
330
1BA8
102
}
330
1BA8
100
DictionaryVariables
280
     0
  1
0
  0
DICTIONARYVAR
  5
1BAE
102
{ACAD_REACTORS
330
1BA8
102
}
330
1BA8
100
DictionaryVariables
280
     0
  1
127
  0
DICTIONARYVAR
  5
1BB1
102
{ACAD_REACTORS
330
1BA8
102
}
330
1BA8
100
DictionaryVariables
280
     0
  1
2
  0
DICTIONARY
  5
1BEE
330
1B93
100
AcDbDictionary
280
     1
281
     1
  3
ACAD_XREC_ROUNDTRIP
360
1BEF
  0
DICTIONARY
  5
1BF0
330
1B94
100
AcDbDictionary
280
     1
281
     1
  3
ACAD_XREC_ROUNDTRIP
360
1BF1
  0
DICTIONARY
  5
1BF2
330
1B95
100
AcDbDictionary
280
     1
281
     1
  3
ACAD_XREC_ROUNDTRIP
360
1BF3
  0
DICTIONARY
  5
1B51
330
1B50
100
AcDbDictionary
280
     1
281
     1
  3
ACAD_XREC_ROUNDTRIP
360
1BB8
  3
BUMPTILE
360
1B53
  3
DIFFUSETILE
360
1B52
  3
OPACITYTILE
360
1B56
  3
REFLECTIONTILE
360
1B55
  3
REFRACTIONTILE
360
1B57
  3
SPECULARTILE
360
1B54
  0
DICTIONARY
  5
1B49
330
1B48
100
AcDbDictionary
280
     1
281
     1
  3
ACAD_XREC_ROUNDTRIP
360
1BB7
  3
BUMPTILE
360
1B4B
  3
DIFFUSETILE
360
1B4A
  3
OPACITYTILE
360
1B4E
  3
REFLECTIONTILE
360
1B4D
  3
REFRACTIONTILE
360
1B4F
  3
SPECULARTILE
360
1B4C
  0
DICTIONARY
  5
1B59
330
1B58
100
AcDbDictionary
280
     1
281
     1
  3
ACAD_XREC_ROUNDTRIP
360
1BB9
  3
BUMPTILE
360
1B5B
  3
DIFFUSETILE
360
1B5A
  3
OPACITYTILE
360
1B5E
  3
REFLECTIONTILE
360
1B5D
  3
REFRACTIONTILE
360
1B5F
  3
SPECULARTILE
360
1B5C
  0
DICTIONARY
  5
1BEC
330
1B91
100
AcDbDictionary
280
     1
281
     1
  3
ACAD_XREC_ROUNDTRIP
360
1BED
  0
DICTIONARY
  5
1BB3
330
1B7B
100
AcDbDictionary
280
     1
281
     1
  3
ACAD_ROUNDTRIP_2008_TABLESTYLE_CELLSTYLEMAP
360
1BB4
  3
ACAD_XREC_ROUNDTRIP
360
1BEA
  0
DICTIONARY
  5
1BC4
330
1B66
100
AcDbDictionary
280
     1
281
     1
  3
ACAD_XREC_ROUNDTRIP
360
1BC5
  0
DICTIONARY
  5
1BC2
330
1B65
100
AcDbDictionary
280
     1
281
     1
  3
ACAD_XREC_ROUNDTRIP
360
1BC3
  0
DICTIONARY
  5
1BD0
330
1B6C
100
AcDbDictionary
280
     1
281
     1
  3
ACAD_XREC_ROUNDTRIP
360
1BD1
  0
DICTIONARY
  5
1BD8
330
1B70
100
AcDbDictionary
280
     1
281
     1
  3
ACAD_XREC_ROUNDTRIP
360
1BD9
  0
DICTIONARY
  5
1BCA
330
1B69
100
AcDbDictionary
280
     1
281
     1
  3
ACAD_XREC_ROUNDTRIP
360
1BCB
  0
DICTIONARY
  5
1BCE
330
1B6B
100
AcDbDictionary
280
     1
281
     1
  3
ACAD_XREC_ROUNDTRIP
360
1BCF
  0
DICTIONARY
  5
1BE8
330
1B78
100
AcDbDictionary
280
     1
281
     1
  3
ACAD_XREC_ROUNDTRIP
360
1BE9
  0
DICTIONARY
  5
1BD6
330
1B6F
100
AcDbDictionary
280
     1
281
     1
  3
ACAD_XREC_ROUNDTRIP
360
1BD7
  0
DICTIONARY
  5
1BBA
330
1B61
100
AcDbDictionary
280
     1
281
     1
  3
ACAD_XREC_ROUNDTRIP
360
1BBB
  0
DICTIONARY
  5
1BBC
330
1B62
100
AcDbDictionary
280
     1
281
     1
  3
ACAD_XREC_ROUNDTRIP
360
1BBD
  0
DICTIONARY
  5
1BBE
330
1B63
100
AcDbDictionary
280
     1
281
     1
  3
ACAD_XREC_ROUNDTRIP
360
1BBF
  0
DICTIONARY
  5
1BC0
330
1B64
100
AcDbDictionary
280
     1
281
     1
  3
ACAD_XREC_ROUNDTRIP
360
1BC1
  0
DICTIONARY
  5
1BC8
330
1B68
100
AcDbDictionary
280
     1
281
     1
  3
ACAD_XREC_ROUNDTRIP
360
1BC9
  0
DICTIONARY
  5
1BE4
330
1B76
100
AcDbDictionary
280
     1
281
     1
  3
ACAD_XREC_ROUNDTRIP
360
1BE5
  0
DICTIONARY
  5
1BD4
330
1B6E
100
AcDbDictionary
280
     1
281
     1
  3
ACAD_XREC_ROUNDTRIP
360
1BD5
  0
DICTIONARY
  5
1BE6
330
1B77
100
AcDbDictionary
280
     1
281
     1
  3
ACAD_XREC_ROUNDTRIP
360
1BE7
  0
DICTIONARY
  5
1BCC
330
1B6A
100
AcDbDictionary
280
     1
281
     1
  3
ACAD_XREC_ROUNDTRIP
360
1BCD
  0
DICTIONARY
  5
1BE2
330
1B75
100
AcDbDictionary
280
     1
281
     1
  3
ACAD_XREC_ROUNDTRIP
360
1BE3
  0
DICTIONARY
  5
1BE0
330
1B74
100
AcDbDictionary
280
     1
281
     1
  3
ACAD_XREC_ROUNDTRIP
360
1BE1
  0
DICTIONARY
  5
1BDA
330
1B71
100
AcDbDictionary
280
     1
281
     1
  3
ACAD_XREC_ROUNDTRIP
360
1BDB
  0
DICTIONARY
  5
1BDC
330
1B72
100
AcDbDictionary
280
     1
281
     1
  3
ACAD_XREC_ROUNDTRIP
360
1BDD
  0
DICTIONARY
  5
1BD2
330
1B6D
100
AcDbDictionary
280
     1
281
     1
  3
ACAD_XREC_ROUNDTRIP
360
1BD3
  0
DICTIONARY
  5
1BC6
330
1B67
100
AcDbDictionary
280
     1
281
     1
  3
ACAD_XREC_ROUNDTRIP
360
1BC7
  0
DICTIONARY
  5
1BDE
330
1B73
100
AcDbDictionary
280
     1
281
     1
  3
ACAD_XREC_ROUNDTRIP
360
1BDF
  0
XRECORD
  5
1BEF
102
{ACAD_REACTORS
330
1BEE
102
}
330
1BEE
100
AcDbXrecord
280
     1
102
DISPLAYNAME
  1
Imperial24
102
FLAGS
 90
        0
  0
XRECORD
  5
1BF1
102
{ACAD_REACTORS
330
1BF0
102
}
330
1BF0
100
AcDbXrecord
280
     1
102
SHADEPLOT
 70
     0
102
SHADEPLOTRESLEVEL
 70
     2
102
SHADEPLOTCUSTOMDPI
 70
   300
  0
XRECORD
  5
1BF3
102
{ACAD_REACTORS
330
1BF2
102
}
330
1BF2
100
AcDbXrecord
280
     1
102
SHADEPLOT
 70
     0
102
SHADEPLOTRESLEVEL
 70
     2
102
SHADEPLOTCUSTOMDPI
 70
   300
  0
XRECORD
  5
1BB8
102
{ACAD_REACTORS
330
1B51
102
}
330
1B51
100
AcDbXrecord
280
     1
102
MATERIAL
148
0.0
149
0.0
149
0.0
 93
        0
 94
      127
282
     0
 72
     0
 77
     0
171
     0
175
     0
179
     0
273
     0
  0
XRECORD
  5
1B53
102
{ACAD_REACTORS
330
1B51
102
}
330
1B51
100
AcDbXrecord
280
     1
270
     1
271
     1
  0
XRECORD
  5
1B52
102
{ACAD_REACTORS
330
1B51
102
}
330
1B51
100
AcDbXrecord
280
     1
270
     1
271
     1
  0
XRECORD
  5
1B56
102
{ACAD_REACTORS
330
1B51
102
}
330
1B51
100
AcDbXrecord
280
     1
270
     1
271
     1
  0
XRECORD
  5
1B55
102
{ACAD_REACTORS
330
1B51
102
}
330
1B51
100
AcDbXrecord
280
     1
270
     1
271
     1
  0
XRECORD
  5
1B57
102
{ACAD_REACTORS
330
1B51
102
}
330
1B51
100
AcDbXrecord
280
     1
270
     1
271
     1
  0
XRECORD
  5
1B54
102
{ACAD_REACTORS
330
1B51
102
}
330
1B51
100
AcDbXrecord
280
     1
270
     1
271
     1
  0
XRECORD
  5
1BB7
102
{ACAD_REACTORS
330
1B49
102
}
330
1B49
100
AcDbXrecord
280
     1
102
MATERIAL
148
0.0
149
0.0
149
0.0
 93
        0
 94
      127
282
     0
 72
     0
 77
     0
171
     0
175
     0
179
     0
273
     0
  0
XRECORD
  5
1B4B
102
{ACAD_REACTORS
330
1B49
102
}
330
1B49
100
AcDbXrecord
280
     1
270
     1
271
     1
  0
XRECORD
  5
1B4A
102
{ACAD_REACTORS
330
1B49
102
}
330
1B49
100
AcDbXrecord
280
     1
270
     1
271
     1
  0
XRECORD
  5
1B4E
102
{ACAD_REACTORS
330
1B49
102
}
330
1B49
100
AcDbXrecord
280
     1
270
     1
271
     1
  0
XRECORD
  5
1B4D
102
{ACAD_REACTORS
330
1B49
102
}
330
1B49
100
AcDbXrecord
280
     1
270
     1
271
     1
  0
XRECORD
  5
1B4F
102
{ACAD_REACTORS
330
1B49
102
}
330
1B49
100
AcDbXrecord
280
     1
270
     1
271
     1
  0
XRECORD
  5
1B4C
102
{ACAD_REACTORS
330
1B49
102
}
330
1B49
100
AcDbXrecord
280
     1
270
     1
271
     1
  0
XRECORD
  5
1BB9
102
{ACAD_REACTORS
330
1B59
102
}
330
1B59
100
AcDbXrecord
280
     1
102
MATERIAL
148
0.0
149
0.0
149
0.0
 93
        0
 94
      127
282
     0
 72
     0
 77
     0
171
     0
175
     0
179
     0
273
     0
  0
XRECORD
  5
1B5B
102
{ACAD_REACTORS
330
1B59
102
}
330
1B59
100
AcDbXrecord
280
     1
270
     1
271
     1
  0
XRECORD
  5
1B5A
102
{ACAD_REACTORS
330
1B59
102
}
330
1B59
100
AcDbXrecord
280
     1
270
     1
271
     1
  0
XRECORD
  5
1B5E
102
{ACAD_REACTORS
330
1B59
102
}
330
1B59
100
AcDbXrecord
280
     1
270
     1
271
     1
  0
XRECORD
  5
1B5D
102
{ACAD_REACTORS
330
1B59
102
}
330
1B59
100
AcDbXrecord
280
     1
270
     1
271
     1
  0
XRECORD
  5
1B5F
102
{ACAD_REACTORS
330
1B59
102
}
330
1B59
100
AcDbXrecord
280
     1
270
     1
271
     1
  0
XRECORD
  5
1B5C
102
{ACAD_REACTORS
330
1B59
102
}
330
1B59
100
AcDbXrecord
280
     1
270
     1
271
     1
  0
XRECORD
  5
1BED
102
{ACAD_REACTORS
330
1BEC
102
}
330
1BEC
100
AcDbXrecord
280
     1
102
DISPLAYNAME
  1
Imperial24
102
FLAGS
 90
        0
  0
CELLSTYLEMAP
  5
1BB4
102
{ACAD_REACTORS
330
1BB3
102
}
330
1BB3
100
AcDbCellStyleMap
 90
        3
300
CELLSTYLE
  1
TABLEFORMAT_BEGIN
 90
        5
170
     1
 91
        0
 92
    32768
 62
   257
 93
        1
300
CONTENTFORMAT
  1
CONTENTFORMAT_BEGIN
 90
        0
 91
        0
 92
      512
 93
        0
300

 40
0.0
140
1.0
 94
        5
 62
     0
340
18AE
144
0.25
309
CONTENTFORMAT_END
171
     0
 94
        0
309
TABLEFORMAT_END
  1
CELLSTYLE_BEGIN
 90
        1
 91
        1
300
_TITLE
309
CELLSTYLE_END
300
CELLSTYLE
  1
TABLEFORMAT_BEGIN
 90
        5
170
     1
 91
        0
 92
        0
 62
   257
 93
        1
300
CONTENTFORMAT
  1
CONTENTFORMAT_BEGIN
 90
        0
 91
        0
 92
      512
 93
        0
300

 40
0.0
140
1.0
 94
        5
 62
     0
340
18AE
144
0.18
309
CONTENTFORMAT_END
171
     0
 94
        0
309
TABLEFORMAT_END
  1
CELLSTYLE_BEGIN
 90
        2
 91
        1
300
_HEADER
309
CELLSTYLE_END
300
CELLSTYLE
  1
TABLEFORMAT_BEGIN
 90
        5
170
     1
 91
        0
 92
        0
 62
   257
 93
        1
300
CONTENTFORMAT
  1
CONTENTFORMAT_BEGIN
 90
        0
 91
        0
 92
      512
 93
        0
300

 40
0.0
140
1.0
 94
        2
 62
     0
340
18AE
144
0.18
309
CONTENTFORMAT_END
171
     0
 94
        0
309
TABLEFORMAT_END
  1
CELLSTYLE_BEGIN
 90
        3
 91
        2
300
_DATA
309
CELLSTYLE_END
  0
XRECORD
  5
1BEA
102
{ACAD_REACTORS
330
1BB3
102
}
330
1BB3
100
AcDbXrecord
280
     1
102
ACAD_ROUNDTRIP_PRE2007_TABLESTYLE
 90
      512
 91
        0
  1

 92
      512
 93
        0
  2

 94
      512
 95
        0
  3

  0
XRECORD
  5
1BC5
102
{ACAD_REACTORS
330
1BC4
102
}
330
1BC4
100
AcDbXrecord
280
     1
102
RTVSPost2010Prop28
280
     1
102
RTVSPost2010PropOp28
 70
     1
102
RTVSPost2010Prop29
280
     1
102
RTVSPost2010PropOp29
 70
     1
102
RTVSPost2010Prop30
280
     0
102
RTVSPost2010PropOp30
 70
     1
102
RTVSPost2010Prop31
280
     0
102
RTVSPost2010PropOp31
 70
     1
102
RTVSPost2010Prop32
280
     0
102
RTVSPost2010PropOp32
 70
     1
102
RTVSPost2010Prop33
280
     0
102
RTVSPost2010PropOp33
 70
     1
102
RTVSPost2010Prop34
280
     0
102
RTVSPost2010PropOp34
 70
     1
102
RTVSPost2010Prop35
280
     0
102
RTVSPost2010PropOp35
 70
     1
102
RTVSPost2010Prop36
280
     0
102
RTVSPost2010PropOp36
 70
     1
102
RTVSPost2010Prop37
 90
       50
102
RTVSPost2010PropOp37
 70
     1
102
RTVSPost2010Prop38
140
0.0
102
RTVSPost2010PropOp38
 70
     1
102
RTVSPost2010Prop39
140
1.0
102
RTVSPost2010PropOp39
 70
     1
102
RTVSPost2010Prop40
 90
        0
102
RTVSPost2010PropOp40
 70
     1
102
RTVSPost2010Prop41ColorIndex
 90
       18
102
RTVSPost2010Prop41ColorRGB
 90
        0
102
RTVSPost2010PropOp41
 70
     1
102
RTVSPost2010Prop42
 90
       50
102
RTVSPost2010PropOp42
 70
     1
102
RTVSPost2010Prop43
 90
        3
102
RTVSPost2010PropOp43
 70
     1
102
RTVSPost2010Prop44ColorIndex
 90
        5
102
RTVSPost2010Prop44ColorRGB
 90
      255
102
RTVSPost2010PropOp44
 70
     1
102
RTVSPost2010Prop45
280
     0
102
RTVSPost2010PropOp45
 70
     1
102
RTVSPost2010Prop46
 90
       50
102
RTVSPost2010PropOp46
 70
     1
102
RTVSPost2010Prop47
 90
       50
102
RTVSPost2010PropOp47
 70
     1
102
RTVSPost2010Prop48
 90
       50
102
RTVSPost2010PropOp48
 70
     1
102
RTVSPost2010Prop49
280
     0
102
RTVSPost2010PropOp49
 70
     1
102
RTVSPost2010Prop50
 90
       50
102
RTVSPost2010PropOp50
 70
     1
102
RTVSPost2010Prop51ColorIndex
 90
      256
102
RTVSPost2010Prop51ColorRGB
 90
-16777216
102
RTVSPost2010PropOp51
 70
     0
102
RTVSPost2010Prop52
140
1.0
102
RTVSPost2010PropOp52
 70
     0
102
RTVSPost2010Prop53
 90
        2
102
RTVSPost2010PropOp53
 70
     1
102
RTVSPost2010Prop54
  1
strokes_ogs.tif
102
RTVSPost2010PropOp54
 70
     1
102
RTVSPost2010Prop55
280
     0
102
RTVSPost2010PropOp55
 70
     1
102
RTVSPost2010Prop56
140
1.0
102
RTVSPost2010PropOp56
 70
     1
102
RTVSPost2010Prop57
140
1.0
102
RTVSPost2010PropOp57
 70
     1
102
RTVSPropertyOp0
 70
     1
102
RTVSPropertyOp1
 70
     1
102
RTVSPropertyOp2
 70
     1
102
RTVSPropertyOp3
 70
     1
102
RTVSPropertyOp4
 70
     1
102
RTVSPropertyOp5
 70
     1
102
RTVSPropertyOp6
 70
     1
102
RTVSPropertyOp7
 70
     1
102
RTVSPropertyOp8
 70
     1
102
RTVSPropertyOp9
 70
     1
102
RTVSPropertyOp10
 70
     1
102
RTVSPropertyOp11
 70
     1
102
RTVSPropertyOp12
 70
     1
102
RTVSPropertyOp13
 70
     1
102
RTVSPropertyOp14
 70
     1
102
RTVSPropertyOp15
 70
     1
102
RTVSPropertyOp16
 70
     1
102
RTVSPropertyOp17
 70
     1
102
RTVSPropertyOp18
 70
     1
102
RTVSPropertyOp19
 70
     1
102
RTVSPropertyOp20
 70
     1
102
RTVSPropertyOp21
 70
     1
102
RTVSPropertyOp22
 70
     1
102
RTVSPropertyOp23
 70
     1
102
RTVSPropertyOp24
 70
     1
102
RTVSPropertyOp25
 70
     1
102
RTVSPropertyOp26
 70
     1
102
RTVSPropertyOp27
 70
     1
102
RTVSPropertyOp28
 70
     1
102
RTVSPropertyOp29
 70
     1
102
RTVSPropertyOp30
 70
     1
102
RTVSPropertyOp31
 70
     1
102
RTVSPropertyOp32
 70
     1
102
RTVSPropertyOp33
 70
     1
102
RTVSPropertyOp34
 70
     1
102
RTVSPropertyOp35
 70
     1
102
RTVSPropertyOp36
 70
     1
102
RTVSPropertyOp37
 70
     1
102
RTVSPropertyOp38
 70
     1
102
RTVSPropertyOp39
 70
     1
102
RTVSPropertyOp40
 70
     1
102
RTVSPropertyOp41
 70
     1
102
RTVSPropertyOp42
 70
     1
102
RTVSPropertyOp43
 70
     1
102
RTVSPropertyOp44
 70
     1
102
RTVSPropertyOp45
 70
     1
102
RTVSPropertyOp46
 70
     1
102
RTVSPropertyOp47
 70
     1
102
RTVSPropertyOp48
 70
     1
102
RTVSPropertyOp49
 70
     1
102
RTVSPropertyOp50
 70
     1
102
RTVSPropertyOp51
 70
     0
102
RTVSPropertyOp52
 70
     0
102
RTVSPropertyOp53
 70
     1
102
RTVSPropertyOp54
 70
     1
102
RTVSPropertyOp55
 70
     1
102
RTVSPropertyOp56
 70
     1
102
RTVSPropertyOp57
 70
     1
102
RTVSPropertyOp58
 70
     1
102
RTVSPropertyOp59
 70
     1
102
RTVSPropertyOp60
 70
     1
102
RTVSPropertyOp61
 70
     1
102
RTVSPropertyOp62
 70
     1
  0
XRECORD
  5
1BC3
102
{ACAD_REACTORS
330
1BC2
102
}
330
1BC2
100
AcDbXrecord
280
     1
102
RTVSPost2010Prop28
280
     0
102
RTVSPost2010PropOp28
 70
     1
102
RTVSPost2010Prop29
280
     1
102
RTVSPost2010PropOp29
 70
     1
102
RTVSPost2010Prop30
280
     1
102
RTVSPost2010PropOp30
 70
     1
102
RTVSPost2010Prop31
280
     0
102
RTVSPost2010PropOp31
 70
     1
102
RTVSPost2010Prop32
280
     0
102
RTVSPost2010PropOp32
 70
     1
102
RTVSPost2010Prop33
280
     0
102
RTVSPost2010PropOp33
 70
     1
102
RTVSPost2010Prop34
280
     0
102
RTVSPost2010PropOp34
 70
     1
102
RTVSPost2010Prop35
280
     0
102
RTVSPost2010PropOp35
 70
     1
102
RTVSPost2010Prop36
280
     0
102
RTVSPost2010PropOp36
 70
     1
102
RTVSPost2010Prop37
 90
       50
102
RTVSPost2010PropOp37
 70
     1
102
RTVSPost2010Prop38
140
0.0
102
RTVSPost2010PropOp38
 70
     1
102
RTVSPost2010Prop39
140
1.0
102
RTVSPost2010PropOp39
 70
     1
102
RTVSPost2010Prop40
 90
        0
102
RTVSPost2010PropOp40
 70
     1
102
RTVSPost2010Prop41ColorIndex
 90
       18
102
RTVSPost2010Prop41ColorRGB
 90
        0
102
RTVSPost2010PropOp41
 70
     1
102
RTVSPost2010Prop42
 90
       50
102
RTVSPost2010PropOp42
 70
     1
102
RTVSPost2010Prop43
 90
        3
102
RTVSPost2010PropOp43
 70
     1
102
RTVSPost2010Prop44ColorIndex
 90
        5
102
RTVSPost2010Prop44ColorRGB
 90
      255
102
RTVSPost2010PropOp44
 70
     1
102
RTVSPost2010Prop45
280
     0
102
RTVSPost2010PropOp45
 70
     1
102
RTVSPost2010Prop46
 90
       50
102
RTVSPost2010PropOp46
 70
     1
102
RTVSPost2010Prop47
 90
       50
102
RTVSPost2010PropOp47
 70
     1
102
RTVSPost2010Prop48
 90
       50
102
RTVSPost2010PropOp48
 70
     1
102
RTVSPost2010Prop49
280
     0
102
RTVSPost2010PropOp49
 70
     1
102
RTVSPost2010Prop50
 90
       50
102
RTVSPost2010PropOp50
 70
     1
102
RTVSPost2010Prop51ColorIndex
 90
      256
102
RTVSPost2010Prop51ColorRGB
 90
-16777216
102
RTVSPost2010PropOp51
 70
     0
102
RTVSPost2010Prop52
140
1.0
102
RTVSPost2010PropOp52
 70
     0
102
RTVSPost2010Prop53
 90
        2
102
RTVSPost2010PropOp53
 70
     1
102
RTVSPost2010Prop54
  1
strokes_ogs.tif
102
RTVSPost2010PropOp54
 70
     1
102
RTVSPost2010Prop55
280
     0
102
RTVSPost2010PropOp55
 70
     1
102
RTVSPost2010Prop56
140
1.0
102
RTVSPost2010PropOp56
 70
     1
102
RTVSPost2010Prop57
140
1.0
102
RTVSPost2010PropOp57
 70
     1
102
RTVSPropertyOp0
 70
     1
102
RTVSPropertyOp1
 70
     1
102
RTVSPropertyOp2
 70
     1
102
RTVSPropertyOp3
 70
     1
102
RTVSPropertyOp4
 70
     1
102
RTVSPropertyOp5
 70
     1
102
RTVSPropertyOp6
 70
     1
102
RTVSPropertyOp7
 70
     1
102
RTVSPropertyOp8
 70
     1
102
RTVSPropertyOp9
 70
     1
102
RTVSPropertyOp10
 70
     1
102
RTVSPropertyOp11
 70
     1
102
RTVSPropertyOp12
 70
     1
102
RTVSPropertyOp13
 70
     1
102
RTVSPropertyOp14
 70
     1
102
RTVSPropertyOp15
 70
     1
102
RTVSPropertyOp16
 70
     1
102
RTVSPropertyOp17
 70
     1
102
RTVSPropertyOp18
 70
     1
102
RTVSPropertyOp19
 70
     1
102
RTVSPropertyOp20
 70
     1
102
RTVSPropertyOp21
 70
     1
102
RTVSPropertyOp22
 70
     1
102
RTVSPropertyOp23
 70
     1
102
RTVSPropertyOp24
 70
     1
102
RTVSPropertyOp25
 70
     1
102
RTVSPropertyOp26
 70
     1
102
RTVSPropertyOp27
 70
     1
102
RTVSPropertyOp28
 70
     1
102
RTVSPropertyOp29
 70
     1
102
RTVSPropertyOp30
 70
     1
102
RTVSPropertyOp31
 70
     1
102
RTVSPropertyOp32
 70
     1
102
RTVSPropertyOp33
 70
     1
102
RTVSPropertyOp34
 70
     1
102
RTVSPropertyOp35
 70
     1
102
RTVSPropertyOp36
 70
     1
102
RTVSPropertyOp37
 70
     1
102
RTVSPropertyOp38
 70
     1
102
RTVSPropertyOp39
 70
     1
102
RTVSPropertyOp40
 70
     1
102
RTVSPropertyOp41
 70
     1
102
RTVSPropertyOp42
 70
     1
102
RTVSPropertyOp43
 70
     1
102
RTVSPropertyOp44
 70
     1
102
RTVSPropertyOp45
 70
     1
102
RTVSPropertyOp46
 70
     1
102
RTVSPropertyOp47
 70
     1
102
RTVSPropertyOp48
 70
     1
102
RTVSPropertyOp49
 70
     1
102
RTVSPropertyOp50
 70
     1
102
RTVSPropertyOp51
 70
     0
102
RTVSPropertyOp52
 70
     0
102
RTVSPropertyOp53
 70
     1
102
RTVSPropertyOp54
 70
     1
102
RTVSPropertyOp55
 70
     1
102
RTVSPropertyOp56
 70
     1
102
RTVSPropertyOp57
 70
     1
102
RTVSPropertyOp58
 70
     1
102
RTVSPropertyOp59
 70
     1
102
RTVSPropertyOp60
 70
     1
102
RTVSPropertyOp61
 70
     1
102
RTVSPropertyOp62
 70
     1
  0
XRECORD
  5
1BD1
102
{ACAD_REACTORS
330
1BD0
102
}
330
1BD0
100
AcDbXrecord
280
     1
102
RTVSPost2010Prop28
280
     0
102
RTVSPost2010PropOp28
 70
     1
102
RTVSPost2010Prop29
280
     1
102
RTVSPost2010PropOp29
 70
     1
102
RTVSPost2010Prop30
280
     1
102
RTVSPost2010PropOp30
 70
     1
102
RTVSPost2010Prop31
280
     0
102
RTVSPost2010PropOp31
 70
     1
102
RTVSPost2010Prop32
280
     0
102
RTVSPost2010PropOp32
 70
     1
102
RTVSPost2010Prop33
280
     0
102
RTVSPost2010PropOp33
 70
     1
102
RTVSPost2010Prop34
280
     0
102
RTVSPost2010PropOp34
 70
     1
102
RTVSPost2010Prop35
280
     0
102
RTVSPost2010PropOp35
 70
     1
102
RTVSPost2010Prop36
280
     0
102
RTVSPost2010PropOp36
 70
     1
102
RTVSPost2010Prop37
 90
       50
102
RTVSPost2010PropOp37
 70
     1
102
RTVSPost2010Prop38
140
0.0
102
RTVSPost2010PropOp38
 70
     1
102
RTVSPost2010Prop39
140
1.0
102
RTVSPost2010PropOp39
 70
     1
102
RTVSPost2010Prop40
 90
        0
102
RTVSPost2010PropOp40
 70
     1
102
RTVSPost2010Prop41ColorIndex
 90
       18
102
RTVSPost2010Prop41ColorRGB
 90
        0
102
RTVSPost2010PropOp41
 70
     1
102
RTVSPost2010Prop42
 90
       50
102
RTVSPost2010PropOp42
 70
     1
102
RTVSPost2010Prop43
 90
        3
102
RTVSPost2010PropOp43
 70
     1
102
RTVSPost2010Prop44ColorIndex
 90
        5
102
RTVSPost2010Prop44ColorRGB
 90
      255
102
RTVSPost2010PropOp44
 70
     1
102
RTVSPost2010Prop45
280
     0
102
RTVSPost2010PropOp45
 70
     1
102
RTVSPost2010Prop46
 90
       50
102
RTVSPost2010PropOp46
 70
     1
102
RTVSPost2010Prop47
 90
       50
102
RTVSPost2010PropOp47
 70
     1
102
RTVSPost2010Prop48
 90
       50
102
RTVSPost2010PropOp48
 70
     1
102
RTVSPost2010Prop49
280
     0
102
RTVSPost2010PropOp49
 70
     1
102
RTVSPost2010Prop50
 90
       50
102
RTVSPost2010PropOp50
 70
     1
102
RTVSPost2010Prop51ColorIndex
 90
      256
102
RTVSPost2010Prop51ColorRGB
 90
-16777216
102
RTVSPost2010PropOp51
 70
     0
102
RTVSPost2010Prop52
140
1.0
102
RTVSPost2010PropOp52
 70
     0
102
RTVSPost2010Prop53
 90
        2
102
RTVSPost2010PropOp53
 70
     1
102
RTVSPost2010Prop54
  1
strokes_ogs.tif
102
RTVSPost2010PropOp54
 70
     1
102
RTVSPost2010Prop55
280
     0
102
RTVSPost2010PropOp55
 70
     1
102
RTVSPost2010Prop56
140
1.0
102
RTVSPost2010PropOp56
 70
     1
102
RTVSPost2010Prop57
140
1.0
102
RTVSPost2010PropOp57
 70
     1
102
RTVSPropertyOp0
 70
     1
102
RTVSPropertyOp1
 70
     1
102
RTVSPropertyOp2
 70
     1
102
RTVSPropertyOp3
 70
     1
102
RTVSPropertyOp4
 70
     1
102
RTVSPropertyOp5
 70
     1
102
RTVSPropertyOp6
 70
     1
102
RTVSPropertyOp7
 70
     1
102
RTVSPropertyOp8
 70
     1
102
RTVSPropertyOp9
 70
     1
102
RTVSPropertyOp10
 70
     1
102
RTVSPropertyOp11
 70
     1
102
RTVSPropertyOp12
 70
     1
102
RTVSPropertyOp13
 70
     1
102
RTVSPropertyOp14
 70
     1
102
RTVSPropertyOp15
 70
     1
102
RTVSPropertyOp16
 70
     1
102
RTVSPropertyOp17
 70
     1
102
RTVSPropertyOp18
 70
     1
102
RTVSPropertyOp19
 70
     1
102
RTVSPropertyOp20
 70
     1
102
RTVSPropertyOp21
 70
     1
102
RTVSPropertyOp22
 70
     1
102
RTVSPropertyOp23
 70
     1
102
RTVSPropertyOp24
 70
     1
102
RTVSPropertyOp25
 70
     1
102
RTVSPropertyOp26
 70
     1
102
RTVSPropertyOp27
 70
     1
102
RTVSPropertyOp28
 70
     1
102
RTVSPropertyOp29
 70
     1
102
RTVSPropertyOp30
 70
     1
102
RTVSPropertyOp31
 70
     1
102
RTVSPropertyOp32
 70
     1
102
RTVSPropertyOp33
 70
     1
102
RTVSPropertyOp34
 70
     1
102
RTVSPropertyOp35
 70
     1
102
RTVSPropertyOp36
 70
     1
102
RTVSPropertyOp37
 70
     1
102
RTVSPropertyOp38
 70
     1
102
RTVSPropertyOp39
 70
     1
102
RTVSPropertyOp40
 70
     1
102
RTVSPropertyOp41
 70
     1
102
RTVSPropertyOp42
 70
     1
102
RTVSPropertyOp43
 70
     1
102
RTVSPropertyOp44
 70
     1
102
RTVSPropertyOp45
 70
     1
102
RTVSPropertyOp46
 70
     1
102
RTVSPropertyOp47
 70
     1
102
RTVSPropertyOp48
 70
     1
102
RTVSPropertyOp49
 70
     1
102
RTVSPropertyOp50
 70
     1
102
RTVSPropertyOp51
 70
     0
102
RTVSPropertyOp52
 70
     0
102
RTVSPropertyOp53
 70
     1
102
RTVSPropertyOp54
 70
     1
102
RTVSPropertyOp55
 70
     1
102
RTVSPropertyOp56
 70
     1
102
RTVSPropertyOp57
 70
     1
102
RTVSPropertyOp58
 70
     1
102
RTVSPropertyOp59
 70
     1
102
RTVSPropertyOp60
 70
     1
102
RTVSPropertyOp61
 70
     1
102
RTVSPropertyOp62
 70
     1
  0
XRECORD
  5
1BD9
102
{ACAD_REACTORS
330
1BD8
102
}
330
1BD8
100
AcDbXrecord
280
     1
102
RTVSPost2010Prop28
280
     0
102
RTVSPost2010PropOp28
 70
     1
102
RTVSPost2010Prop29
280
     1
102
RTVSPost2010PropOp29
 70
     1
102
RTVSPost2010Prop30
280
     1
102
RTVSPost2010PropOp30
 70
     1
102
RTVSPost2010Prop31
280
     0
102
RTVSPost2010PropOp31
 70
     1
102
RTVSPost2010Prop32
280
     0
102
RTVSPost2010PropOp32
 70
     1
102
RTVSPost2010Prop33
280
     0
102
RTVSPost2010PropOp33
 70
     1
102
RTVSPost2010Prop34
280
     0
102
RTVSPost2010PropOp34
 70
     1
102
RTVSPost2010Prop35
280
     0
102
RTVSPost2010PropOp35
 70
     1
102
RTVSPost2010Prop36
280
     0
102
RTVSPost2010PropOp36
 70
     1
102
RTVSPost2010Prop37
 90
       50
102
RTVSPost2010PropOp37
 70
     1
102
RTVSPost2010Prop38
140
0.0
102
RTVSPost2010PropOp38
 70
     1
102
RTVSPost2010Prop39
140
1.0
102
RTVSPost2010PropOp39
 70
     1
102
RTVSPost2010Prop40
 90
        0
102
RTVSPost2010PropOp40
 70
     1
102
RTVSPost2010Prop41ColorIndex
 90
       18
102
RTVSPost2010Prop41ColorRGB
 90
        0
102
RTVSPost2010PropOp41
 70
     1
102
RTVSPost2010Prop42
 90
       50
102
RTVSPost2010PropOp42
 70
     1
102
RTVSPost2010Prop43
 90
        3
102
RTVSPost2010PropOp43
 70
     1
102
RTVSPost2010Prop44ColorIndex
 90
        5
102
RTVSPost2010Prop44ColorRGB
 90
      255
102
RTVSPost2010PropOp44
 70
     1
102
RTVSPost2010Prop45
280
     0
102
RTVSPost2010PropOp45
 70
     1
102
RTVSPost2010Prop46
 90
       50
102
RTVSPost2010PropOp46
 70
     1
102
RTVSPost2010Prop47
 90
       50
102
RTVSPost2010PropOp47
 70
     1
102
RTVSPost2010Prop48
 90
       50
102
RTVSPost2010PropOp48
 70
     1
102
RTVSPost2010Prop49
280
     0
102
RTVSPost2010PropOp49
 70
     1
102
RTVSPost2010Prop50
 90
       50
102
RTVSPost2010PropOp50
 70
     1
102
RTVSPost2010Prop51ColorIndex
 90
      256
102
RTVSPost2010Prop51ColorRGB
 90
-16777216
102
RTVSPost2010PropOp51
 70
     0
102
RTVSPost2010Prop52
140
1.0
102
RTVSPost2010PropOp52
 70
     0
102
RTVSPost2010Prop53
 90
        2
102
RTVSPost2010PropOp53
 70
     1
102
RTVSPost2010Prop54
  1
strokes_ogs.tif
102
RTVSPost2010PropOp54
 70
     1
102
RTVSPost2010Prop55
280
     0
102
RTVSPost2010PropOp55
 70
     1
102
RTVSPost2010Prop56
140
1.0
102
RTVSPost2010PropOp56
 70
     1
102
RTVSPost2010Prop57
140
1.0
102
RTVSPost2010PropOp57
 70
     1
102
RTVSPropertyOp0
 70
     1
102
RTVSPropertyOp1
 70
     1
102
RTVSPropertyOp2
 70
     1
102
RTVSPropertyOp3
 70
     1
102
RTVSPropertyOp4
 70
     1
102
RTVSPropertyOp5
 70
     1
102
RTVSPropertyOp6
 70
     1
102
RTVSPropertyOp7
 70
     1
102
RTVSPropertyOp8
 70
     1
102
RTVSPropertyOp9
 70
     1
102
RTVSPropertyOp10
 70
     1
102
RTVSPropertyOp11
 70
     1
102
RTVSPropertyOp12
 70
     1
102
RTVSPropertyOp13
 70
     1
102
RTVSPropertyOp14
 70
     1
102
RTVSPropertyOp15
 70
     1
102
RTVSPropertyOp16
 70
     1
102
RTVSPropertyOp17
 70
     1
102
RTVSPropertyOp18
 70
     1
102
RTVSPropertyOp19
 70
     1
102
RTVSPropertyOp20
 70
     1
102
RTVSPropertyOp21
 70
     1
102
RTVSPropertyOp22
 70
     1
102
RTVSPropertyOp23
 70
     1
102
RTVSPropertyOp24
 70
     1
102
RTVSPropertyOp25
 70
     1
102
RTVSPropertyOp26
 70
     1
102
RTVSPropertyOp27
 70
     1
102
RTVSPropertyOp28
 70
     1
102
RTVSPropertyOp29
 70
     1
102
RTVSPropertyOp30
 70
     1
102
RTVSPropertyOp31
 70
     1
102
RTVSPropertyOp32
 70
     1
102
RTVSPropertyOp33
 70
     1
102
RTVSPropertyOp34
 70
     1
102
RTVSPropertyOp35
 70
     1
102
RTVSPropertyOp36
 70
     1
102
RTVSPropertyOp37
 70
     1
102
RTVSPropertyOp38
 70
     1
102
RTVSPropertyOp39
 70
     1
102
RTVSPropertyOp40
 70
     1
102
RTVSPropertyOp41
 70
     1
102
RTVSPropertyOp42
 70
     1
102
RTVSPropertyOp43
 70
     1
102
RTVSPropertyOp44
 70
     1
102
RTVSPropertyOp45
 70
     1
102
RTVSPropertyOp46
 70
     1
102
RTVSPropertyOp47
 70
     1
102
RTVSPropertyOp48
 70
     1
102
RTVSPropertyOp49
 70
     1
102
RTVSPropertyOp50
 70
     1
102
RTVSPropertyOp51
 70
     0
102
RTVSPropertyOp52
 70
     0
102
RTVSPropertyOp53
 70
     1
102
RTVSPropertyOp54
 70
     1
102
RTVSPropertyOp55
 70
     1
102
RTVSPropertyOp56
 70
     1
102
RTVSPropertyOp57
 70
     1
102
RTVSPropertyOp58
 70
     1
102
RTVSPropertyOp59
 70
     1
102
RTVSPropertyOp60
 70
     1
102
RTVSPropertyOp61
 70
     1
102
RTVSPropertyOp62
 70
     1
  0
XRECORD
  5
1BCB
102
{ACAD_REACTORS
330
1BCA
102
}
330
1BCA
100
AcDbXrecord
280
     1
102
RTVSPost2010Prop28
280
     0
102
RTVSPost2010PropOp28
 70
     1
102
RTVSPost2010Prop29
280
     1
102
RTVSPost2010PropOp29
 70
     1
102
RTVSPost2010Prop30
280
     1
102
RTVSPost2010PropOp30
 70
     1
102
RTVSPost2010Prop31
280
     0
102
RTVSPost2010PropOp31
 70
     1
102
RTVSPost2010Prop32
280
     0
102
RTVSPost2010PropOp32
 70
     1
102
RTVSPost2010Prop33
280
     0
102
RTVSPost2010PropOp33
 70
     1
102
RTVSPost2010Prop34
280
     0
102
RTVSPost2010PropOp34
 70
     1
102
RTVSPost2010Prop35
280
     0
102
RTVSPost2010PropOp35
 70
     1
102
RTVSPost2010Prop36
280
     0
102
RTVSPost2010PropOp36
 70
     1
102
RTVSPost2010Prop37
 90
       50
102
RTVSPost2010PropOp37
 70
     1
102
RTVSPost2010Prop38
140
0.0
102
RTVSPost2010PropOp38
 70
     1
102
RTVSPost2010Prop39
140
1.0
102
RTVSPost2010PropOp39
 70
     1
102
RTVSPost2010Prop40
 90
        0
102
RTVSPost2010PropOp40
 70
     1
102
RTVSPost2010Prop41ColorIndex
 90
       18
102
RTVSPost2010Prop41ColorRGB
 90
        0
102
RTVSPost2010PropOp41
 70
     1
102
RTVSPost2010Prop42
 90
       50
102
RTVSPost2010PropOp42
 70
     1
102
RTVSPost2010Prop43
 90
        3
102
RTVSPost2010PropOp43
 70
     1
102
RTVSPost2010Prop44ColorIndex
 90
        5
102
RTVSPost2010Prop44ColorRGB
 90
      255
102
RTVSPost2010PropOp44
 70
     1
102
RTVSPost2010Prop45
280
     0
102
RTVSPost2010PropOp45
 70
     1
102
RTVSPost2010Prop46
 90
       50
102
RTVSPost2010PropOp46
 70
     1
102
RTVSPost2010Prop47
 90
       50
102
RTVSPost2010PropOp47
 70
     1
102
RTVSPost2010Prop48
 90
       50
102
RTVSPost2010PropOp48
 70
     1
102
RTVSPost2010Prop49
280
     0
102
RTVSPost2010PropOp49
 70
     1
102
RTVSPost2010Prop50
 90
       50
102
RTVSPost2010PropOp50
 70
     1
102
RTVSPost2010Prop51ColorIndex
 90
      256
102
RTVSPost2010Prop51ColorRGB
 90
-16777216
102
RTVSPost2010PropOp51
 70
     0
102
RTVSPost2010Prop52
140
1.0
102
RTVSPost2010PropOp52
 70
     0
102
RTVSPost2010Prop53
 90
        2
102
RTVSPost2010PropOp53
 70
     1
102
RTVSPost2010Prop54
  1
strokes_ogs.tif
102
RTVSPost2010PropOp54
 70
     1
102
RTVSPost2010Prop55
280
     0
102
RTVSPost2010PropOp55
 70
     1
102
RTVSPost2010Prop56
140
1.0
102
RTVSPost2010PropOp56
 70
     1
102
RTVSPost2010Prop57
140
1.0
102
RTVSPost2010PropOp57
 70
     1
102
RTVSPropertyOp0
 70
     1
102
RTVSPropertyOp1
 70
     1
102
RTVSPropertyOp2
 70
     1
102
RTVSPropertyOp3
 70
     1
102
RTVSPropertyOp4
 70
     1
102
RTVSPropertyOp5
 70
     1
102
RTVSPropertyOp6
 70
     1
102
RTVSPropertyOp7
 70
     1
102
RTVSPropertyOp8
 70
     1
102
RTVSPropertyOp9
 70
     1
102
RTVSPropertyOp10
 70
     1
102
RTVSPropertyOp11
 70
     1
102
RTVSPropertyOp12
 70
     1
102
RTVSPropertyOp13
 70
     1
102
RTVSPropertyOp14
 70
     1
102
RTVSPropertyOp15
 70
     1
102
RTVSPropertyOp16
 70
     1
102
RTVSPropertyOp17
 70
     1
102
RTVSPropertyOp18
 70
     1
102
RTVSPropertyOp19
 70
     1
102
RTVSPropertyOp20
 70
     1
102
RTVSPropertyOp21
 70
     1
102
RTVSPropertyOp22
 70
     1
102
RTVSPropertyOp23
 70
     1
102
RTVSPropertyOp24
 70
     1
102
RTVSPropertyOp25
 70
     1
102
RTVSPropertyOp26
 70
     1
102
RTVSPropertyOp27
 70
     1
102
RTVSPropertyOp28
 70
     1
102
RTVSPropertyOp29
 70
     1
102
RTVSPropertyOp30
 70
     1
102
RTVSPropertyOp31
 70
     1
102
RTVSPropertyOp32
 70
     1
102
RTVSPropertyOp33
 70
     1
102
RTVSPropertyOp34
 70
     1
102
RTVSPropertyOp35
 70
     1
102
RTVSPropertyOp36
 70
     1
102
RTVSPropertyOp37
 70
     1
102
RTVSPropertyOp38
 70
     1
102
RTVSPropertyOp39
 70
     1
102
RTVSPropertyOp40
 70
     1
102
RTVSPropertyOp41
 70
     1
102
RTVSPropertyOp42
 70
     1
102
RTVSPropertyOp43
 70
     1
102
RTVSPropertyOp44
 70
     1
102
RTVSPropertyOp45
 70
     1
102
RTVSPropertyOp46
 70
     1
102
RTVSPropertyOp47
 70
     1
102
RTVSPropertyOp48
 70
     1
102
RTVSPropertyOp49
 70
     1
102
RTVSPropertyOp50
 70
     1
102
RTVSPropertyOp51
 70
     0
102
RTVSPropertyOp52
 70
     0
102
RTVSPropertyOp53
 70
     1
102
RTVSPropertyOp54
 70
     1
102
RTVSPropertyOp55
 70
     1
102
RTVSPropertyOp56
 70
     1
102
RTVSPropertyOp57
 70
     1
102
RTVSPropertyOp58
 70
     1
102
RTVSPropertyOp59
 70
     1
102
RTVSPropertyOp60
 70
     1
102
RTVSPropertyOp61
 70
     1
102
RTVSPropertyOp62
 70
     1
  0
XRECORD
  5
1BCF
102
{ACAD_REACTORS
330
1BCE
102
}
330
1BCE
100
AcDbXrecord
280
     1
102
RTVSPost2010Prop28
280
     0
102
RTVSPost2010PropOp28
 70
     1
102
RTVSPost2010Prop29
280
     1
102
RTVSPost2010PropOp29
 70
     1
102
RTVSPost2010Prop30
280
     1
102
RTVSPost2010PropOp30
 70
     1
102
RTVSPost2010Prop31
280
     0
102
RTVSPost2010PropOp31
 70
     1
102
RTVSPost2010Prop32
280
     0
102
RTVSPost2010PropOp32
 70
     1
102
RTVSPost2010Prop33
280
     0
102
RTVSPost2010PropOp33
 70
     1
102
RTVSPost2010Prop34
280
     0
102
RTVSPost2010PropOp34
 70
     1
102
RTVSPost2010Prop35
280
     0
102
RTVSPost2010PropOp35
 70
     1
102
RTVSPost2010Prop36
280
     0
102
RTVSPost2010PropOp36
 70
     1
102
RTVSPost2010Prop37
 90
       50
102
RTVSPost2010PropOp37
 70
     1
102
RTVSPost2010Prop38
140
0.0
102
RTVSPost2010PropOp38
 70
     1
102
RTVSPost2010Prop39
140
1.0
102
RTVSPost2010PropOp39
 70
     1
102
RTVSPost2010Prop40
 90
        0
102
RTVSPost2010PropOp40
 70
     1
102
RTVSPost2010Prop41ColorIndex
 90
       18
102
RTVSPost2010Prop41ColorRGB
 90
        0
102
RTVSPost2010PropOp41
 70
     1
102
RTVSPost2010Prop42
 90
       50
102
RTVSPost2010PropOp42
 70
     1
102
RTVSPost2010Prop43
 90
        3
102
RTVSPost2010PropOp43
 70
     1
102
RTVSPost2010Prop44ColorIndex
 90
        5
102
RTVSPost2010Prop44ColorRGB
 90
      255
102
RTVSPost2010PropOp44
 70
     1
102
RTVSPost2010Prop45
280
     0
102
RTVSPost2010PropOp45
 70
     1
102
RTVSPost2010Prop46
 90
       50
102
RTVSPost2010PropOp46
 70
     1
102
RTVSPost2010Prop47
 90
       50
102
RTVSPost2010PropOp47
 70
     1
102
RTVSPost2010Prop48
 90
       50
102
RTVSPost2010PropOp48
 70
     1
102
RTVSPost2010Prop49
280
     0
102
RTVSPost2010PropOp49
 70
     1
102
RTVSPost2010Prop50
 90
       50
102
RTVSPost2010PropOp50
 70
     1
102
RTVSPost2010Prop51ColorIndex
 90
      256
102
RTVSPost2010Prop51ColorRGB
 90
-16777216
102
RTVSPost2010PropOp51
 70
     0
102
RTVSPost2010Prop52
140
1.0
102
RTVSPost2010PropOp52
 70
     0
102
RTVSPost2010Prop53
 90
        2
102
RTVSPost2010PropOp53
 70
     1
102
RTVSPost2010Prop54
  1
strokes_ogs.tif
102
RTVSPost2010PropOp54
 70
     1
102
RTVSPost2010Prop55
280
     0
102
RTVSPost2010PropOp55
 70
     1
102
RTVSPost2010Prop56
140
1.0
102
RTVSPost2010PropOp56
 70
     1
102
RTVSPost2010Prop57
140
1.0
102
RTVSPost2010PropOp57
 70
     1
102
RTVSPropertyOp0
 70
     1
102
RTVSPropertyOp1
 70
     1
102
RTVSPropertyOp2
 70
     1
102
RTVSPropertyOp3
 70
     1
102
RTVSPropertyOp4
 70
     1
102
RTVSPropertyOp5
 70
     1
102
RTVSPropertyOp6
 70
     1
102
RTVSPropertyOp7
 70
     1
102
RTVSPropertyOp8
 70
     1
102
RTVSPropertyOp9
 70
     1
102
RTVSPropertyOp10
 70
     1
102
RTVSPropertyOp11
 70
     1
102
RTVSPropertyOp12
 70
     1
102
RTVSPropertyOp13
 70
     1
102
RTVSPropertyOp14
 70
     1
102
RTVSPropertyOp15
 70
     1
102
RTVSPropertyOp16
 70
     1
102
RTVSPropertyOp17
 70
     1
102
RTVSPropertyOp18
 70
     1
102
RTVSPropertyOp19
 70
     1
102
RTVSPropertyOp20
 70
     1
102
RTVSPropertyOp21
 70
     1
102
RTVSPropertyOp22
 70
     1
102
RTVSPropertyOp23
 70
     1
102
RTVSPropertyOp24
 70
     1
102
RTVSPropertyOp25
 70
     1
102
RTVSPropertyOp26
 70
     1
102
RTVSPropertyOp27
 70
     1
102
RTVSPropertyOp28
 70
     1
102
RTVSPropertyOp29
 70
     1
102
RTVSPropertyOp30
 70
     1
102
RTVSPropertyOp31
 70
     1
102
RTVSPropertyOp32
 70
     1
102
RTVSPropertyOp33
 70
     1
102
RTVSPropertyOp34
 70
     1
102
RTVSPropertyOp35
 70
     1
102
RTVSPropertyOp36
 70
     1
102
RTVSPropertyOp37
 70
     1
102
RTVSPropertyOp38
 70
     1
102
RTVSPropertyOp39
 70
     1
102
RTVSPropertyOp40
 70
     1
102
RTVSPropertyOp41
 70
     1
102
RTVSPropertyOp42
 70
     1
102
RTVSPropertyOp43
 70
     1
102
RTVSPropertyOp44
 70
     1
102
RTVSPropertyOp45
 70
     1
102
RTVSPropertyOp46
 70
     1
102
RTVSPropertyOp47
 70
     1
102
RTVSPropertyOp48
 70
     1
102
RTVSPropertyOp49
 70
     1
102
RTVSPropertyOp50
 70
     1
102
RTVSPropertyOp51
 70
     0
102
RTVSPropertyOp52
 70
     0
102
RTVSPropertyOp53
 70
     1
102
RTVSPropertyOp54
 70
     1
102
RTVSPropertyOp55
 70
     1
102
RTVSPropertyOp56
 70
     1
102
RTVSPropertyOp57
 70
     1
102
RTVSPropertyOp58
 70
     1
102
RTVSPropertyOp59
 70
     1
102
RTVSPropertyOp60
 70
     1
102
RTVSPropertyOp61
 70
     1
102
RTVSPropertyOp62
 70
     1
  0
XRECORD
  5
1BE9
102
{ACAD_REACTORS
330
1BE8
102
}
330
1BE8
100
AcDbXrecord
280
     1
102
RTVSPost2010Prop28
280
     0
102
RTVSPost2010PropOp28
 70
     1
102
RTVSPost2010Prop29
280
     1
102
RTVSPost2010PropOp29
 70
     1
102
RTVSPost2010Prop30
280
     1
102
RTVSPost2010PropOp30
 70
     1
102
RTVSPost2010Prop31
280
     0
102
RTVSPost2010PropOp31
 70
     1
102
RTVSPost2010Prop32
280
     0
102
RTVSPost2010PropOp32
 70
     1
102
RTVSPost2010Prop33
280
     0
102
RTVSPost2010PropOp33
 70
     1
102
RTVSPost2010Prop34
280
     0
102
RTVSPost2010PropOp34
 70
     1
102
RTVSPost2010Prop35
280
     0
102
RTVSPost2010PropOp35
 70
     1
102
RTVSPost2010Prop36
280
     0
102
RTVSPost2010PropOp36
 70
     1
102
RTVSPost2010Prop37
 90
       50
102
RTVSPost2010PropOp37
 70
     0
102
RTVSPost2010Prop38
140
0.0
102
RTVSPost2010PropOp38
 70
     0
102
RTVSPost2010Prop39
140
1.0
102
RTVSPost2010PropOp39
 70
     0
102
RTVSPost2010Prop40
 90
        0
102
RTVSPost2010PropOp40
 70
     0
102
RTVSPost2010Prop41ColorIndex
 90
       18
102
RTVSPost2010Prop41ColorRGB
 90
        0
102
RTVSPost2010PropOp41
 70
     0
102
RTVSPost2010Prop42
 90
       50
102
RTVSPost2010PropOp42
 70
     0
102
RTVSPost2010Prop43
 90
        3
102
RTVSPost2010PropOp43
 70
     0
102
RTVSPost2010Prop44ColorIndex
 90
        5
102
RTVSPost2010Prop44ColorRGB
 90
      255
102
RTVSPost2010PropOp44
 70
     0
102
RTVSPost2010Prop45
280
     0
102
RTVSPost2010PropOp45
 70
     1
102
RTVSPost2010Prop46
 90
       50
102
RTVSPost2010PropOp46
 70
     0
102
RTVSPost2010Prop47
 90
       50
102
RTVSPost2010PropOp47
 70
     0
102
RTVSPost2010Prop48
 90
       50
102
RTVSPost2010PropOp48
 70
     0
102
RTVSPost2010Prop49
280
     0
102
RTVSPost2010PropOp49
 70
     1
102
RTVSPost2010Prop50
 90
       50
102
RTVSPost2010PropOp50
 70
     0
102
RTVSPost2010Prop51ColorIndex
 90
      256
102
RTVSPost2010Prop51ColorRGB
 90
-16777216
102
RTVSPost2010PropOp51
 70
     0
102
RTVSPost2010Prop52
140
1.0
102
RTVSPost2010PropOp52
 70
     0
102
RTVSPost2010Prop53
 90
        2
102
RTVSPost2010PropOp53
 70
     0
102
RTVSPost2010Prop54
  1
strokes_ogs.tif
102
RTVSPost2010PropOp54
 70
     0
102
RTVSPost2010Prop55
280
     0
102
RTVSPost2010PropOp55
 70
     1
102
RTVSPost2010Prop56
140
1.0
102
RTVSPost2010PropOp56
 70
     0
102
RTVSPost2010Prop57
140
1.0
102
RTVSPost2010PropOp57
 70
     0
102
RTVSPropertyOp0
 70
     0
102
RTVSPropertyOp1
 70
     0
102
RTVSPropertyOp2
 70
     0
102
RTVSPropertyOp3
 70
     0
102
RTVSPropertyOp4
 70
     0
102
RTVSPropertyOp5
 70
     0
102
RTVSPropertyOp6
 70
     0
102
RTVSPropertyOp7
 70
     0
102
RTVSPropertyOp8
 70
     0
102
RTVSPropertyOp9
 70
     0
102
RTVSPropertyOp10
 70
     0
102
RTVSPropertyOp11
 70
     0
102
RTVSPropertyOp12
 70
     0
102
RTVSPropertyOp13
 70
     0
102
RTVSPropertyOp14
 70
     2
102
RTVSPropertyOp15
 70
     0
102
RTVSPropertyOp16
 70
     0
102
RTVSPropertyOp17
 70
     0
102
RTVSPropertyOp18
 70
     0
102
RTVSPropertyOp19
 70
     0
102
RTVSPropertyOp20
 70
     0
102
RTVSPropertyOp21
 70
     0
102
RTVSPropertyOp22
 70
     0
102
RTVSPropertyOp23
 70
     0
102
RTVSPropertyOp24
 70
     0
102
RTVSPropertyOp25
 70
     0
102
RTVSPropertyOp26
 70
     0
102
RTVSPropertyOp27
 70
     0
102
RTVSPropertyOp28
 70
     1
102
RTVSPropertyOp29
 70
     1
102
RTVSPropertyOp30
 70
     1
102
RTVSPropertyOp31
 70
     1
102
RTVSPropertyOp32
 70
     1
102
RTVSPropertyOp33
 70
     1
102
RTVSPropertyOp34
 70
     1
102
RTVSPropertyOp35
 70
     1
102
RTVSPropertyOp36
 70
     1
102
RTVSPropertyOp37
 70
     0
102
RTVSPropertyOp38
 70
     0
102
RTVSPropertyOp39
 70
     0
102
RTVSPropertyOp40
 70
     0
102
RTVSPropertyOp41
 70
     0
102
RTVSPropertyOp42
 70
     0
102
RTVSPropertyOp43
 70
     0
102
RTVSPropertyOp44
 70
     0
102
RTVSPropertyOp45
 70
     1
102
RTVSPropertyOp46
 70
     0
102
RTVSPropertyOp47
 70
     0
102
RTVSPropertyOp48
 70
     0
102
RTVSPropertyOp49
 70
     1
102
RTVSPropertyOp50
 70
     0
102
RTVSPropertyOp51
 70
     0
102
RTVSPropertyOp52
 70
     0
102
RTVSPropertyOp53
 70
     0
102
RTVSPropertyOp54
 70
     0
102
RTVSPropertyOp55
 70
     1
102
RTVSPropertyOp56
 70
     0
102
RTVSPropertyOp57
 70
     0
102
RTVSPropertyOp58
 70
     0
102
RTVSPropertyOp59
 70
     0
102
RTVSPropertyOp60
 70
     0
102
RTVSPropertyOp61
 70
     0
102
RTVSPropertyOp62
 70
     0
  0
XRECORD
  5
1BD7
102
{ACAD_REACTORS
330
1BD6
102
}
330
1BD6
100
AcDbXrecord
280
     1
102
RTVSPost2010Prop28
280
     0
102
RTVSPost2010PropOp28
 70
     1
102
RTVSPost2010Prop29
280
     1
102
RTVSPost2010PropOp29
 70
     1
102
RTVSPost2010Prop30
280
     1
102
RTVSPost2010PropOp30
 70
     1
102
RTVSPost2010Prop31
280
     0
102
RTVSPost2010PropOp31
 70
     1
102
RTVSPost2010Prop32
280
     0
102
RTVSPost2010PropOp32
 70
     1
102
RTVSPost2010Prop33
280
     0
102
RTVSPost2010PropOp33
 70
     1
102
RTVSPost2010Prop34
280
     0
102
RTVSPost2010PropOp34
 70
     1
102
RTVSPost2010Prop35
280
     0
102
RTVSPost2010PropOp35
 70
     1
102
RTVSPost2010Prop36
280
     0
102
RTVSPost2010PropOp36
 70
     1
102
RTVSPost2010Prop37
 90
       50
102
RTVSPost2010PropOp37
 70
     1
102
RTVSPost2010Prop38
140
0.0
102
RTVSPost2010PropOp38
 70
     1
102
RTVSPost2010Prop39
140
1.0
102
RTVSPost2010PropOp39
 70
     1
102
RTVSPost2010Prop40
 90
        0
102
RTVSPost2010PropOp40
 70
     1
102
RTVSPost2010Prop41ColorIndex
 90
       18
102
RTVSPost2010Prop41ColorRGB
 90
        0
102
RTVSPost2010PropOp41
 70
     1
102
RTVSPost2010Prop42
 90
       50
102
RTVSPost2010PropOp42
 70
     1
102
RTVSPost2010Prop43
 90
        3
102
RTVSPost2010PropOp43
 70
     1
102
RTVSPost2010Prop44ColorIndex
 90
        5
102
RTVSPost2010Prop44ColorRGB
 90
      255
102
RTVSPost2010PropOp44
 70
     1
102
RTVSPost2010Prop45
280
     0
102
RTVSPost2010PropOp45
 70
     1
102
RTVSPost2010Prop46
 90
       50
102
RTVSPost2010PropOp46
 70
     1
102
RTVSPost2010Prop47
 90
       50
102
RTVSPost2010PropOp47
 70
     1
102
RTVSPost2010Prop48
 90
       50
102
RTVSPost2010PropOp48
 70
     1
102
RTVSPost2010Prop49
280
     0
102
RTVSPost2010PropOp49
 70
     1
102
RTVSPost2010Prop50
 90
       50
102
RTVSPost2010PropOp50
 70
     1
102
RTVSPost2010Prop51ColorIndex
 90
      256
102
RTVSPost2010Prop51ColorRGB
 90
-16777216
102
RTVSPost2010PropOp51
 70
     0
102
RTVSPost2010Prop52
140
1.0
102
RTVSPost2010PropOp52
 70
     0
102
RTVSPost2010Prop53
 90
        2
102
RTVSPost2010PropOp53
 70
     1
102
RTVSPost2010Prop54
  1
strokes_ogs.tif
102
RTVSPost2010PropOp54
 70
     1
102
RTVSPost2010Prop55
280
     0
102
RTVSPost2010PropOp55
 70
     1
102
RTVSPost2010Prop56
140
1.0
102
RTVSPost2010PropOp56
 70
     1
102
RTVSPost2010Prop57
140
1.0
102
RTVSPost2010PropOp57
 70
     1
102
RTVSPropertyOp0
 70
     1
102
RTVSPropertyOp1
 70
     1
102
RTVSPropertyOp2
 70
     1
102
RTVSPropertyOp3
 70
     1
102
RTVSPropertyOp4
 70
     1
102
RTVSPropertyOp5
 70
     1
102
RTVSPropertyOp6
 70
     1
102
RTVSPropertyOp7
 70
     1
102
RTVSPropertyOp8
 70
     1
102
RTVSPropertyOp9
 70
     1
102
RTVSPropertyOp10
 70
     1
102
RTVSPropertyOp11
 70
     1
102
RTVSPropertyOp12
 70
     1
102
RTVSPropertyOp13
 70
     1
102
RTVSPropertyOp14
 70
     1
102
RTVSPropertyOp15
 70
     1
102
RTVSPropertyOp16
 70
     1
102
RTVSPropertyOp17
 70
     1
102
RTVSPropertyOp18
 70
     1
102
RTVSPropertyOp19
 70
     1
102
RTVSPropertyOp20
 70
     1
102
RTVSPropertyOp21
 70
     1
102
RTVSPropertyOp22
 70
     1
102
RTVSPropertyOp23
 70
     1
102
RTVSPropertyOp24
 70
     1
102
RTVSPropertyOp25
 70
     1
102
RTVSPropertyOp26
 70
     1
102
RTVSPropertyOp27
 70
     1
102
RTVSPropertyOp28
 70
     1
102
RTVSPropertyOp29
 70
     1
102
RTVSPropertyOp30
 70
     1
102
RTVSPropertyOp31
 70
     1
102
RTVSPropertyOp32
 70
     1
102
RTVSPropertyOp33
 70
     1
102
RTVSPropertyOp34
 70
     1
102
RTVSPropertyOp35
 70
     1
102
RTVSPropertyOp36
 70
     1
102
RTVSPropertyOp37
 70
     1
102
RTVSPropertyOp38
 70
     1
102
RTVSPropertyOp39
 70
     1
102
RTVSPropertyOp40
 70
     1
102
RTVSPropertyOp41
 70
     1
102
RTVSPropertyOp42
 70
     1
102
RTVSPropertyOp43
 70
     1
102
RTVSPropertyOp44
 70
     1
102
RTVSPropertyOp45
 70
     1
102
RTVSPropertyOp46
 70
     1
102
RTVSPropertyOp47
 70
     1
102
RTVSPropertyOp48
 70
     1
102
RTVSPropertyOp49
 70
     1
102
RTVSPropertyOp50
 70
     1
102
RTVSPropertyOp51
 70
     0
102
RTVSPropertyOp52
 70
     0
102
RTVSPropertyOp53
 70
     1
102
RTVSPropertyOp54
 70
     1
102
RTVSPropertyOp55
 70
     1
102
RTVSPropertyOp56
 70
     1
102
RTVSPropertyOp57
 70
     1
102
RTVSPropertyOp58
 70
     1
102
RTVSPropertyOp59
 70
     1
102
RTVSPropertyOp60
 70
     1
102
RTVSPropertyOp61
 70
     1
102
RTVSPropertyOp62
 70
     1
  0
XRECORD
  5
1BBB
102
{ACAD_REACTORS
330
1BBA
102
}
330
1BBA
100
AcDbXrecord
280
     1
102
RTVSPost2010Prop28
280
     0
102
RTVSPost2010PropOp28
 70
     1
102
RTVSPost2010Prop29
280
     1
102
RTVSPost2010PropOp29
 70
     1
102
RTVSPost2010Prop30
280
     1
102
RTVSPost2010PropOp30
 70
     1
102
RTVSPost2010Prop31
280
     0
102
RTVSPost2010PropOp31
 70
     1
102
RTVSPost2010Prop32
280
     0
102
RTVSPost2010PropOp32
 70
     1
102
RTVSPost2010Prop33
280
     0
102
RTVSPost2010PropOp33
 70
     1
102
RTVSPost2010Prop34
280
     0
102
RTVSPost2010PropOp34
 70
     1
102
RTVSPost2010Prop35
280
     0
102
RTVSPost2010PropOp35
 70
     1
102
RTVSPost2010Prop36
280
     0
102
RTVSPost2010PropOp36
 70
     1
102
RTVSPost2010Prop37
 90
       50
102
RTVSPost2010PropOp37
 70
     1
102
RTVSPost2010Prop38
140
0.0
102
RTVSPost2010PropOp38
 70
     1
102
RTVSPost2010Prop39
140
1.0
102
RTVSPost2010PropOp39
 70
     1
102
RTVSPost2010Prop40
 90
        0
102
RTVSPost2010PropOp40
 70
     1
102
RTVSPost2010Prop41ColorIndex
 90
       18
102
RTVSPost2010Prop41ColorRGB
 90
        0
102
RTVSPost2010PropOp41
 70
     1
102
RTVSPost2010Prop42
 90
       50
102
RTVSPost2010PropOp42
 70
     1
102
RTVSPost2010Prop43
 90
        3
102
RTVSPost2010PropOp43
 70
     1
102
RTVSPost2010Prop44ColorIndex
 90
        5
102
RTVSPost2010Prop44ColorRGB
 90
      255
102
RTVSPost2010PropOp44
 70
     1
102
RTVSPost2010Prop45
280
     0
102
RTVSPost2010PropOp45
 70
     1
102
RTVSPost2010Prop46
 90
       50
102
RTVSPost2010PropOp46
 70
     1
102
RTVSPost2010Prop47
 90
       50
102
RTVSPost2010PropOp47
 70
     1
102
RTVSPost2010Prop48
 90
       50
102
RTVSPost2010PropOp48
 70
     1
102
RTVSPost2010Prop49
280
     0
102
RTVSPost2010PropOp49
 70
     1
102
RTVSPost2010Prop50
 90
       50
102
RTVSPost2010PropOp50
 70
     1
102
RTVSPost2010Prop51ColorIndex
 90
      256
102
RTVSPost2010Prop51ColorRGB
 90
-16777216
102
RTVSPost2010PropOp51
 70
     0
102
RTVSPost2010Prop52
140
1.0
102
RTVSPost2010PropOp52
 70
     0
102
RTVSPost2010Prop53
 90
        2
102
RTVSPost2010PropOp53
 70
     1
102
RTVSPost2010Prop54
  1
strokes_ogs.tif
102
RTVSPost2010PropOp54
 70
     1
102
RTVSPost2010Prop55
280
     0
102
RTVSPost2010PropOp55
 70
     1
102
RTVSPost2010Prop56
140
1.0
102
RTVSPost2010PropOp56
 70
     1
102
RTVSPost2010Prop57
140
1.0
102
RTVSPost2010PropOp57
 70
     1
102
RTVSPropertyOp0
 70
     1
102
RTVSPropertyOp1
 70
     1
102
RTVSPropertyOp2
 70
     1
102
RTVSPropertyOp3
 70
     1
102
RTVSPropertyOp4
 70
     1
102
RTVSPropertyOp5
 70
     1
102
RTVSPropertyOp6
 70
     1
102
RTVSPropertyOp7
 70
     1
102
RTVSPropertyOp8
 70
     1
102
RTVSPropertyOp9
 70
     1
102
RTVSPropertyOp10
 70
     1
102
RTVSPropertyOp11
 70
     1
102
RTVSPropertyOp12
 70
     1
102
RTVSPropertyOp13
 70
     1
102
RTVSPropertyOp14
 70
     1
102
RTVSPropertyOp15
 70
     1
102
RTVSPropertyOp16
 70
     1
102
RTVSPropertyOp17
 70
     1
102
RTVSPropertyOp18
 70
     1
102
RTVSPropertyOp19
 70
     1
102
RTVSPropertyOp20
 70
     1
102
RTVSPropertyOp21
 70
     1
102
RTVSPropertyOp22
 70
     1
102
RTVSPropertyOp23
 70
     1
102
RTVSPropertyOp24
 70
     1
102
RTVSPropertyOp25
 70
     1
102
RTVSPropertyOp26
 70
     1
102
RTVSPropertyOp27
 70
     1
102
RTVSPropertyOp28
 70
     1
102
RTVSPropertyOp29
 70
     1
102
RTVSPropertyOp30
 70
     1
102
RTVSPropertyOp31
 70
     1
102
RTVSPropertyOp32
 70
     1
102
RTVSPropertyOp33
 70
     1
102
RTVSPropertyOp34
 70
     1
102
RTVSPropertyOp35
 70
     1
102
RTVSPropertyOp36
 70
     1
102
RTVSPropertyOp37
 70
     1
102
RTVSPropertyOp38
 70
     1
102
RTVSPropertyOp39
 70
     1
102
RTVSPropertyOp40
 70
     1
102
RTVSPropertyOp41
 70
     1
102
RTVSPropertyOp42
 70
     1
102
RTVSPropertyOp43
 70
     1
102
RTVSPropertyOp44
 70
     1
102
RTVSPropertyOp45
 70
     1
102
RTVSPropertyOp46
 70
     1
102
RTVSPropertyOp47
 70
     1
102
RTVSPropertyOp48
 70
     1
102
RTVSPropertyOp49
 70
     1
102
RTVSPropertyOp50
 70
     1
102
RTVSPropertyOp51
 70
     0
102
RTVSPropertyOp52
 70
     0
102
RTVSPropertyOp53
 70
     1
102
RTVSPropertyOp54
 70
     1
102
RTVSPropertyOp55
 70
     1
102
RTVSPropertyOp56
 70
     1
102
RTVSPropertyOp57
 70
     1
102
RTVSPropertyOp58
 70
     1
102
RTVSPropertyOp59
 70
     1
102
RTVSPropertyOp60
 70
     1
102
RTVSPropertyOp61
 70
     1
102
RTVSPropertyOp62
 70
     1
  0
XRECORD
  5
1BBD
102
{ACAD_REACTORS
330
1BBC
102
}
330
1BBC
100
AcDbXrecord
280
     1
102
RTVSPost2010Prop28
280
     0
102
RTVSPost2010PropOp28
 70
     1
102
RTVSPost2010Prop29
280
     1
102
RTVSPost2010PropOp29
 70
     1
102
RTVSPost2010Prop30
280
     1
102
RTVSPost2010PropOp30
 70
     1
102
RTVSPost2010Prop31
280
     0
102
RTVSPost2010PropOp31
 70
     1
102
RTVSPost2010Prop32
280
     0
102
RTVSPost2010PropOp32
 70
     1
102
RTVSPost2010Prop33
280
     0
102
RTVSPost2010PropOp33
 70
     1
102
RTVSPost2010Prop34
280
     0
102
RTVSPost2010PropOp34
 70
     1
102
RTVSPost2010Prop35
280
     0
102
RTVSPost2010PropOp35
 70
     1
102
RTVSPost2010Prop36
280
     0
102
RTVSPost2010PropOp36
 70
     1
102
RTVSPost2010Prop37
 90
       50
102
RTVSPost2010PropOp37
 70
     1
102
RTVSPost2010Prop38
140
0.0
102
RTVSPost2010PropOp38
 70
     1
102
RTVSPost2010Prop39
140
1.0
102
RTVSPost2010PropOp39
 70
     1
102
RTVSPost2010Prop40
 90
        0
102
RTVSPost2010PropOp40
 70
     1
102
RTVSPost2010Prop41ColorIndex
 90
       18
102
RTVSPost2010Prop41ColorRGB
 90
        0
102
RTVSPost2010PropOp41
 70
     1
102
RTVSPost2010Prop42
 90
       50
102
RTVSPost2010PropOp42
 70
     1
102
RTVSPost2010Prop43
 90
        3
102
RTVSPost2010PropOp43
 70
     1
102
RTVSPost2010Prop44ColorIndex
 90
        5
102
RTVSPost2010Prop44ColorRGB
 90
      255
102
RTVSPost2010PropOp44
 70
     1
102
RTVSPost2010Prop45
280
     0
102
RTVSPost2010PropOp45
 70
     1
102
RTVSPost2010Prop46
 90
       50
102
RTVSPost2010PropOp46
 70
     1
102
RTVSPost2010Prop47
 90
       50
102
RTVSPost2010PropOp47
 70
     1
102
RTVSPost2010Prop48
 90
       50
102
RTVSPost2010PropOp48
 70
     1
102
RTVSPost2010Prop49
280
     0
102
RTVSPost2010PropOp49
 70
     1
102
RTVSPost2010Prop50
 90
       50
102
RTVSPost2010PropOp50
 70
     1
102
RTVSPost2010Prop51ColorIndex
 90
      256
102
RTVSPost2010Prop51ColorRGB
 90
-16777216
102
RTVSPost2010PropOp51
 70
     0
102
RTVSPost2010Prop52
140
1.0
102
RTVSPost2010PropOp52
 70
     0
102
RTVSPost2010Prop53
 90
        2
102
RTVSPost2010PropOp53
 70
     1
102
RTVSPost2010Prop54
  1
strokes_ogs.tif
102
RTVSPost2010PropOp54
 70
     1
102
RTVSPost2010Prop55
280
     0
102
RTVSPost2010PropOp55
 70
     1
102
RTVSPost2010Prop56
140
1.0
102
RTVSPost2010PropOp56
 70
     1
102
RTVSPost2010Prop57
140
1.0
102
RTVSPost2010PropOp57
 70
     1
102
RTVSPropertyOp0
 70
     1
102
RTVSPropertyOp1
 70
     1
102
RTVSPropertyOp2
 70
     1
102
RTVSPropertyOp3
 70
     1
102
RTVSPropertyOp4
 70
     1
102
RTVSPropertyOp5
 70
     1
102
RTVSPropertyOp6
 70
     1
102
RTVSPropertyOp7
 70
     1
102
RTVSPropertyOp8
 70
     1
102
RTVSPropertyOp9
 70
     1
102
RTVSPropertyOp10
 70
     1
102
RTVSPropertyOp11
 70
     1
102
RTVSPropertyOp12
 70
     1
102
RTVSPropertyOp13
 70
     1
102
RTVSPropertyOp14
 70
     1
102
RTVSPropertyOp15
 70
     1
102
RTVSPropertyOp16
 70
     1
102
RTVSPropertyOp17
 70
     1
102
RTVSPropertyOp18
 70
     1
102
RTVSPropertyOp19
 70
     1
102
RTVSPropertyOp20
 70
     1
102
RTVSPropertyOp21
 70
     1
102
RTVSPropertyOp22
 70
     1
102
RTVSPropertyOp23
 70
     1
102
RTVSPropertyOp24
 70
     1
102
RTVSPropertyOp25
 70
     1
102
RTVSPropertyOp26
 70
     1
102
RTVSPropertyOp27
 70
     1
102
RTVSPropertyOp28
 70
     1
102
RTVSPropertyOp29
 70
     1
102
RTVSPropertyOp30
 70
     1
102
RTVSPropertyOp31
 70
     1
102
RTVSPropertyOp32
 70
     1
102
RTVSPropertyOp33
 70
     1
102
RTVSPropertyOp34
 70
     1
102
RTVSPropertyOp35
 70
     1
102
RTVSPropertyOp36
 70
     1
102
RTVSPropertyOp37
 70
     1
102
RTVSPropertyOp38
 70
     1
102
RTVSPropertyOp39
 70
     1
102
RTVSPropertyOp40
 70
     1
102
RTVSPropertyOp41
 70
     1
102
RTVSPropertyOp42
 70
     1
102
RTVSPropertyOp43
 70
     1
102
RTVSPropertyOp44
 70
     1
102
RTVSPropertyOp45
 70
     1
102
RTVSPropertyOp46
 70
     1
102
RTVSPropertyOp47
 70
     1
102
RTVSPropertyOp48
 70
     1
102
RTVSPropertyOp49
 70
     1
102
RTVSPropertyOp50
 70
     1
102
RTVSPropertyOp51
 70
     0
102
RTVSPropertyOp52
 70
     0
102
RTVSPropertyOp53
 70
     1
102
RTVSPropertyOp54
 70
     1
102
RTVSPropertyOp55
 70
     1
102
RTVSPropertyOp56
 70
     1
102
RTVSPropertyOp57
 70
     1
102
RTVSPropertyOp58
 70
     1
102
RTVSPropertyOp59
 70
     1
102
RTVSPropertyOp60
 70
     1
102
RTVSPropertyOp61
 70
     1
102
RTVSPropertyOp62
 70
     1
  0
XRECORD
  5
1BBF
102
{ACAD_REACTORS
330
1BBE
102
}
330
1BBE
100
AcDbXrecord
280
     1
102
RTVSPost2010Prop28
280
     0
102
RTVSPost2010PropOp28
 70
     1
102
RTVSPost2010Prop29
280
     1
102
RTVSPost2010PropOp29
 70
     1
102
RTVSPost2010Prop30
280
     1
102
RTVSPost2010PropOp30
 70
     1
102
RTVSPost2010Prop31
280
     0
102
RTVSPost2010PropOp31
 70
     1
102
RTVSPost2010Prop32
280
     0
102
RTVSPost2010PropOp32
 70
     1
102
RTVSPost2010Prop33
280
     0
102
RTVSPost2010PropOp33
 70
     1
102
RTVSPost2010Prop34
280
     0
102
RTVSPost2010PropOp34
 70
     1
102
RTVSPost2010Prop35
280
     0
102
RTVSPost2010PropOp35
 70
     1
102
RTVSPost2010Prop36
280
     0
102
RTVSPost2010PropOp36
 70
     1
102
RTVSPost2010Prop37
 90
       50
102
RTVSPost2010PropOp37
 70
     1
102
RTVSPost2010Prop38
140
0.0
102
RTVSPost2010PropOp38
 70
     1
102
RTVSPost2010Prop39
140
1.0
102
RTVSPost2010PropOp39
 70
     1
102
RTVSPost2010Prop40
 90
        0
102
RTVSPost2010PropOp40
 70
     1
102
RTVSPost2010Prop41ColorIndex
 90
       18
102
RTVSPost2010Prop41ColorRGB
 90
        0
102
RTVSPost2010PropOp41
 70
     1
102
RTVSPost2010Prop42
 90
       50
102
RTVSPost2010PropOp42
 70
     1
102
RTVSPost2010Prop43
 90
        3
102
RTVSPost2010PropOp43
 70
     1
102
RTVSPost2010Prop44ColorIndex
 90
        5
102
RTVSPost2010Prop44ColorRGB
 90
      255
102
RTVSPost2010PropOp44
 70
     1
102
RTVSPost2010Prop45
280
     0
102
RTVSPost2010PropOp45
 70
     1
102
RTVSPost2010Prop46
 90
       50
102
RTVSPost2010PropOp46
 70
     1
102
RTVSPost2010Prop47
 90
       50
102
RTVSPost2010PropOp47
 70
     1
102
RTVSPost2010Prop48
 90
       50
102
RTVSPost2010PropOp48
 70
     1
102
RTVSPost2010Prop49
280
     0
102
RTVSPost2010PropOp49
 70
     1
102
RTVSPost2010Prop50
 90
       50
102
RTVSPost2010PropOp50
 70
     1
102
RTVSPost2010Prop51ColorIndex
 90
      256
102
RTVSPost2010Prop51ColorRGB
 90
-16777216
102
RTVSPost2010PropOp51
 70
     0
102
RTVSPost2010Prop52
140
1.0
102
RTVSPost2010PropOp52
 70
     0
102
RTVSPost2010Prop53
 90
        2
102
RTVSPost2010PropOp53
 70
     1
102
RTVSPost2010Prop54
  1
strokes_ogs.tif
102
RTVSPost2010PropOp54
 70
     1
102
RTVSPost2010Prop55
280
     0
102
RTVSPost2010PropOp55
 70
     1
102
RTVSPost2010Prop56
140
1.0
102
RTVSPost2010PropOp56
 70
     1
102
RTVSPost2010Prop57
140
1.0
102
RTVSPost2010PropOp57
 70
     1
102
RTVSPropertyOp0
 70
     1
102
RTVSPropertyOp1
 70
     1
102
RTVSPropertyOp2
 70
     1
102
RTVSPropertyOp3
 70
     1
102
RTVSPropertyOp4
 70
     1
102
RTVSPropertyOp5
 70
     1
102
RTVSPropertyOp6
 70
     1
102
RTVSPropertyOp7
 70
     1
102
RTVSPropertyOp8
 70
     1
102
RTVSPropertyOp9
 70
     1
102
RTVSPropertyOp10
 70
     1
102
RTVSPropertyOp11
 70
     1
102
RTVSPropertyOp12
 70
     1
102
RTVSPropertyOp13
 70
     1
102
RTVSPropertyOp14
 70
     1
102
RTVSPropertyOp15
 70
     1
102
RTVSPropertyOp16
 70
     1
102
RTVSPropertyOp17
 70
     1
102
RTVSPropertyOp18
 70
     1
102
RTVSPropertyOp19
 70
     1
102
RTVSPropertyOp20
 70
     1
102
RTVSPropertyOp21
 70
     1
102
RTVSPropertyOp22
 70
     1
102
RTVSPropertyOp23
 70
     1
102
RTVSPropertyOp24
 70
     1
102
RTVSPropertyOp25
 70
     1
102
RTVSPropertyOp26
 70
     1
102
RTVSPropertyOp27
 70
     1
102
RTVSPropertyOp28
 70
     1
102
RTVSPropertyOp29
 70
     1
102
RTVSPropertyOp30
 70
     1
102
RTVSPropertyOp31
 70
     1
102
RTVSPropertyOp32
 70
     1
102
RTVSPropertyOp33
 70
     1
102
RTVSPropertyOp34
 70
     1
102
RTVSPropertyOp35
 70
     1
102
RTVSPropertyOp36
 70
     1
102
RTVSPropertyOp37
 70
     1
102
RTVSPropertyOp38
 70
     1
102
RTVSPropertyOp39
 70
     1
102
RTVSPropertyOp40
 70
     1
102
RTVSPropertyOp41
 70
     1
102
RTVSPropertyOp42
 70
     1
102
RTVSPropertyOp43
 70
     1
102
RTVSPropertyOp44
 70
     1
102
RTVSPropertyOp45
 70
     1
102
RTVSPropertyOp46
 70
     1
102
RTVSPropertyOp47
 70
     1
102
RTVSPropertyOp48
 70
     1
102
RTVSPropertyOp49
 70
     1
102
RTVSPropertyOp50
 70
     1
102
RTVSPropertyOp51
 70
     0
102
RTVSPropertyOp52
 70
     0
102
RTVSPropertyOp53
 70
     1
102
RTVSPropertyOp54
 70
     1
102
RTVSPropertyOp55
 70
     1
102
RTVSPropertyOp56
 70
     1
102
RTVSPropertyOp57
 70
     1
102
RTVSPropertyOp58
 70
     1
102
RTVSPropertyOp59
 70
     1
102
RTVSPropertyOp60
 70
     1
102
RTVSPropertyOp61
 70
     1
102
RTVSPropertyOp62
 70
     1
  0
XRECORD
  5
1BC1
102
{ACAD_REACTORS
330
1BC0
102
}
330
1BC0
100
AcDbXrecord
280
     1
102
RTVSPost2010Prop28
280
     0
102
RTVSPost2010PropOp28
 70
     1
102
RTVSPost2010Prop29
280
     1
102
RTVSPost2010PropOp29
 70
     1
102
RTVSPost2010Prop30
280
     1
102
RTVSPost2010PropOp30
 70
     1
102
RTVSPost2010Prop31
280
     0
102
RTVSPost2010PropOp31
 70
     1
102
RTVSPost2010Prop32
280
     0
102
RTVSPost2010PropOp32
 70
     1
102
RTVSPost2010Prop33
280
     0
102
RTVSPost2010PropOp33
 70
     1
102
RTVSPost2010Prop34
280
     0
102
RTVSPost2010PropOp34
 70
     1
102
RTVSPost2010Prop35
280
     0
102
RTVSPost2010PropOp35
 70
     1
102
RTVSPost2010Prop36
280
     0
102
RTVSPost2010PropOp36
 70
     1
102
RTVSPost2010Prop37
 90
       50
102
RTVSPost2010PropOp37
 70
     1
102
RTVSPost2010Prop38
140
0.0
102
RTVSPost2010PropOp38
 70
     1
102
RTVSPost2010Prop39
140
1.0
102
RTVSPost2010PropOp39
 70
     1
102
RTVSPost2010Prop40
 90
        0
102
RTVSPost2010PropOp40
 70
     1
102
RTVSPost2010Prop41ColorIndex
 90
       18
102
RTVSPost2010Prop41ColorRGB
 90
        0
102
RTVSPost2010PropOp41
 70
     1
102
RTVSPost2010Prop42
 90
       50
102
RTVSPost2010PropOp42
 70
     1
102
RTVSPost2010Prop43
 90
        3
102
RTVSPost2010PropOp43
 70
     1
102
RTVSPost2010Prop44ColorIndex
 90
        5
102
RTVSPost2010Prop44ColorRGB
 90
      255
102
RTVSPost2010PropOp44
 70
     1
102
RTVSPost2010Prop45
280
     0
102
RTVSPost2010PropOp45
 70
     1
102
RTVSPost2010Prop46
 90
       50
102
RTVSPost2010PropOp46
 70
     1
102
RTVSPost2010Prop47
 90
       50
102
RTVSPost2010PropOp47
 70
     1
102
RTVSPost2010Prop48
 90
       50
102
RTVSPost2010PropOp48
 70
     1
102
RTVSPost2010Prop49
280
     0
102
RTVSPost2010PropOp49
 70
     1
102
RTVSPost2010Prop50
 90
       50
102
RTVSPost2010PropOp50
 70
     1
102
RTVSPost2010Prop51ColorIndex
 90
      256
102
RTVSPost2010Prop51ColorRGB
 90
-16777216
102
RTVSPost2010PropOp51
 70
     0
102
RTVSPost2010Prop52
140
1.0
102
RTVSPost2010PropOp52
 70
     0
102
RTVSPost2010Prop53
 90
        2
102
RTVSPost2010PropOp53
 70
     1
102
RTVSPost2010Prop54
  1
strokes_ogs.tif
102
RTVSPost2010PropOp54
 70
     1
102
RTVSPost2010Prop55
280
     0
102
RTVSPost2010PropOp55
 70
     1
102
RTVSPost2010Prop56
140
1.0
102
RTVSPost2010PropOp56
 70
     1
102
RTVSPost2010Prop57
140
1.0
102
RTVSPost2010PropOp57
 70
     1
102
RTVSPropertyOp0
 70
     1
102
RTVSPropertyOp1
 70
     1
102
RTVSPropertyOp2
 70
     1
102
RTVSPropertyOp3
 70
     1
102
RTVSPropertyOp4
 70
     1
102
RTVSPropertyOp5
 70
     1
102
RTVSPropertyOp6
 70
     1
102
RTVSPropertyOp7
 70
     1
102
RTVSPropertyOp8
 70
     1
102
RTVSPropertyOp9
 70
     1
102
RTVSPropertyOp10
 70
     1
102
RTVSPropertyOp11
 70
     1
102
RTVSPropertyOp12
 70
     1
102
RTVSPropertyOp13
 70
     1
102
RTVSPropertyOp14
 70
     1
102
RTVSPropertyOp15
 70
     1
102
RTVSPropertyOp16
 70
     1
102
RTVSPropertyOp17
 70
     1
102
RTVSPropertyOp18
 70
     1
102
RTVSPropertyOp19
 70
     1
102
RTVSPropertyOp20
 70
     1
102
RTVSPropertyOp21
 70
     1
102
RTVSPropertyOp22
 70
     1
102
RTVSPropertyOp23
 70
     1
102
RTVSPropertyOp24
 70
     1
102
RTVSPropertyOp25
 70
     1
102
RTVSPropertyOp26
 70
     1
102
RTVSPropertyOp27
 70
     1
102
RTVSPropertyOp28
 70
     1
102
RTVSPropertyOp29
 70
     1
102
RTVSPropertyOp30
 70
     1
102
RTVSPropertyOp31
 70
     1
102
RTVSPropertyOp32
 70
     1
102
RTVSPropertyOp33
 70
     1
102
RTVSPropertyOp34
 70
     1
102
RTVSPropertyOp35
 70
     1
102
RTVSPropertyOp36
 70
     1
102
RTVSPropertyOp37
 70
     1
102
RTVSPropertyOp38
 70
     1
102
RTVSPropertyOp39
 70
     1
102
RTVSPropertyOp40
 70
     1
102
RTVSPropertyOp41
 70
     1
102
RTVSPropertyOp42
 70
     1
102
RTVSPropertyOp43
 70
     1
102
RTVSPropertyOp44
 70
     1
102
RTVSPropertyOp45
 70
     1
102
RTVSPropertyOp46
 70
     1
102
RTVSPropertyOp47
 70
     1
102
RTVSPropertyOp48
 70
     1
102
RTVSPropertyOp49
 70
     1
102
RTVSPropertyOp50
 70
     1
102
RTVSPropertyOp51
 70
     0
102
RTVSPropertyOp52
 70
     0
102
RTVSPropertyOp53
 70
     1
102
RTVSPropertyOp54
 70
     1
102
RTVSPropertyOp55
 70
     1
102
RTVSPropertyOp56
 70
     1
102
RTVSPropertyOp57
 70
     1
102
RTVSPropertyOp58
 70
     1
102
RTVSPropertyOp59
 70
     1
102
RTVSPropertyOp60
 70
     1
102
RTVSPropertyOp61
 70
     1
102
RTVSPropertyOp62
 70
     1
  0
XRECORD
  5
1BC9
102
{ACAD_REACTORS
330
1BC8
102
}
330
1BC8
100
AcDbXrecord
280
     1
102
RTVSPost2010Prop28
280
     0
102
RTVSPost2010PropOp28
 70
     1
102
RTVSPost2010Prop29
280
     1
102
RTVSPost2010PropOp29
 70
     1
102
RTVSPost2010Prop30
280
     1
102
RTVSPost2010PropOp30
 70
     1
102
RTVSPost2010Prop31
280
     0
102
RTVSPost2010PropOp31
 70
     1
102
RTVSPost2010Prop32
280
     0
102
RTVSPost2010PropOp32
 70
     1
102
RTVSPost2010Prop33
280
     0
102
RTVSPost2010PropOp33
 70
     1
102
RTVSPost2010Prop34
280
     0
102
RTVSPost2010PropOp34
 70
     1
102
RTVSPost2010Prop35
280
     0
102
RTVSPost2010PropOp35
 70
     1
102
RTVSPost2010Prop36
280
     0
102
RTVSPost2010PropOp36
 70
     1
102
RTVSPost2010Prop37
 90
       50
102
RTVSPost2010PropOp37
 70
     1
102
RTVSPost2010Prop38
140
0.0
102
RTVSPost2010PropOp38
 70
     1
102
RTVSPost2010Prop39
140
1.0
102
RTVSPost2010PropOp39
 70
     1
102
RTVSPost2010Prop40
 90
        0
102
RTVSPost2010PropOp40
 70
     1
102
RTVSPost2010Prop41ColorIndex
 90
       18
102
RTVSPost2010Prop41ColorRGB
 90
        0
102
RTVSPost2010PropOp41
 70
     1
102
RTVSPost2010Prop42
 90
       50
102
RTVSPost2010PropOp42
 70
     1
102
RTVSPost2010Prop43
 90
        3
102
RTVSPost2010PropOp43
 70
     1
102
RTVSPost2010Prop44ColorIndex
 90
        5
102
RTVSPost2010Prop44ColorRGB
 90
      255
102
RTVSPost2010PropOp44
 70
     1
102
RTVSPost2010Prop45
280
     0
102
RTVSPost2010PropOp45
 70
     1
102
RTVSPost2010Prop46
 90
       50
102
RTVSPost2010PropOp46
 70
     1
102
RTVSPost2010Prop47
 90
       50
102
RTVSPost2010PropOp47
 70
     1
102
RTVSPost2010Prop48
 90
       50
102
RTVSPost2010PropOp48
 70
     1
102
RTVSPost2010Prop49
280
     0
102
RTVSPost2010PropOp49
 70
     1
102
RTVSPost2010Prop50
 90
       50
102
RTVSPost2010PropOp50
 70
     1
102
RTVSPost2010Prop51ColorIndex
 90
      256
102
RTVSPost2010Prop51ColorRGB
 90
-16777216
102
RTVSPost2010PropOp51
 70
     0
102
RTVSPost2010Prop52
140
1.0
102
RTVSPost2010PropOp52
 70
     0
102
RTVSPost2010Prop53
 90
        2
102
RTVSPost2010PropOp53
 70
     1
102
RTVSPost2010Prop54
  1
strokes_ogs.tif
102
RTVSPost2010PropOp54
 70
     1
102
RTVSPost2010Prop55
280
     0
102
RTVSPost2010PropOp55
 70
     1
102
RTVSPost2010Prop56
140
1.0
102
RTVSPost2010PropOp56
 70
     1
102
RTVSPost2010Prop57
140
1.0
102
RTVSPost2010PropOp57
 70
     1
102
RTVSPropertyOp0
 70
     1
102
RTVSPropertyOp1
 70
     1
102
RTVSPropertyOp2
 70
     1
102
RTVSPropertyOp3
 70
     1
102
RTVSPropertyOp4
 70
     1
102
RTVSPropertyOp5
 70
     1
102
RTVSPropertyOp6
 70
     1
102
RTVSPropertyOp7
 70
     1
102
RTVSPropertyOp8
 70
     1
102
RTVSPropertyOp9
 70
     1
102
RTVSPropertyOp10
 70
     1
102
RTVSPropertyOp11
 70
     1
102
RTVSPropertyOp12
 70
     1
102
RTVSPropertyOp13
 70
     1
102
RTVSPropertyOp14
 70
     1
102
RTVSPropertyOp15
 70
     1
102
RTVSPropertyOp16
 70
     1
102
RTVSPropertyOp17
 70
     1
102
RTVSPropertyOp18
 70
     1
102
RTVSPropertyOp19
 70
     1
102
RTVSPropertyOp20
 70
     1
102
RTVSPropertyOp21
 70
     1
102
RTVSPropertyOp22
 70
     1
102
RTVSPropertyOp23
 70
     1
102
RTVSPropertyOp24
 70
     1
102
RTVSPropertyOp25
 70
     1
102
RTVSPropertyOp26
 70
     1
102
RTVSPropertyOp27
 70
     1
102
RTVSPropertyOp28
 70
     1
102
RTVSPropertyOp29
 70
     1
102
RTVSPropertyOp30
 70
     1
102
RTVSPropertyOp31
 70
     1
102
RTVSPropertyOp32
 70
     1
102
RTVSPropertyOp33
 70
     1
102
RTVSPropertyOp34
 70
     1
102
RTVSPropertyOp35
 70
     1
102
RTVSPropertyOp36
 70
     1
102
RTVSPropertyOp37
 70
     1
102
RTVSPropertyOp38
 70
     1
102
RTVSPropertyOp39
 70
     1
102
RTVSPropertyOp40
 70
     1
102
RTVSPropertyOp41
 70
     1
102
RTVSPropertyOp42
 70
     1
102
RTVSPropertyOp43
 70
     1
102
RTVSPropertyOp44
 70
     1
102
RTVSPropertyOp45
 70
     1
102
RTVSPropertyOp46
 70
     1
102
RTVSPropertyOp47
 70
     1
102
RTVSPropertyOp48
 70
     1
102
RTVSPropertyOp49
 70
     1
102
RTVSPropertyOp50
 70
     1
102
RTVSPropertyOp51
 70
     0
102
RTVSPropertyOp52
 70
     0
102
RTVSPropertyOp53
 70
     1
102
RTVSPropertyOp54
 70
     1
102
RTVSPropertyOp55
 70
     1
102
RTVSPropertyOp56
 70
     1
102
RTVSPropertyOp57
 70
     1
102
RTVSPropertyOp58
 70
     1
102
RTVSPropertyOp59
 70
     1
102
RTVSPropertyOp60
 70
     1
102
RTVSPropertyOp61
 70
     1
102
RTVSPropertyOp62
 70
     1
  0
XRECORD
  5
1BE5
102
{ACAD_REACTORS
330
1BE4
102
}
330
1BE4
100
AcDbXrecord
280
     1
102
RTVSPost2010Prop28
280
     0
102
RTVSPost2010PropOp28
 70
     1
102
RTVSPost2010Prop29
280
     1
102
RTVSPost2010PropOp29
 70
     1
102
RTVSPost2010Prop30
280
     1
102
RTVSPost2010PropOp30
 70
     1
102
RTVSPost2010Prop31
280
     0
102
RTVSPost2010PropOp31
 70
     1
102
RTVSPost2010Prop32
280
     0
102
RTVSPost2010PropOp32
 70
     1
102
RTVSPost2010Prop33
280
     0
102
RTVSPost2010PropOp33
 70
     1
102
RTVSPost2010Prop34
280
     0
102
RTVSPost2010PropOp34
 70
     1
102
RTVSPost2010Prop35
280
     0
102
RTVSPost2010PropOp35
 70
     1
102
RTVSPost2010Prop36
280
     0
102
RTVSPost2010PropOp36
 70
     1
102
RTVSPost2010Prop37
 90
       50
102
RTVSPost2010PropOp37
 70
     0
102
RTVSPost2010Prop38
140
0.0
102
RTVSPost2010PropOp38
 70
     0
102
RTVSPost2010Prop39
140
1.0
102
RTVSPost2010PropOp39
 70
     0
102
RTVSPost2010Prop40
 90
        0
102
RTVSPost2010PropOp40
 70
     0
102
RTVSPost2010Prop41ColorIndex
 90
       18
102
RTVSPost2010Prop41ColorRGB
 90
        0
102
RTVSPost2010PropOp41
 70
     0
102
RTVSPost2010Prop42
 90
       50
102
RTVSPost2010PropOp42
 70
     0
102
RTVSPost2010Prop43
 90
        3
102
RTVSPost2010PropOp43
 70
     0
102
RTVSPost2010Prop44ColorIndex
 90
        5
102
RTVSPost2010Prop44ColorRGB
 90
      255
102
RTVSPost2010PropOp44
 70
     0
102
RTVSPost2010Prop45
280
     0
102
RTVSPost2010PropOp45
 70
     1
102
RTVSPost2010Prop46
 90
       50
102
RTVSPost2010PropOp46
 70
     0
102
RTVSPost2010Prop47
 90
       50
102
RTVSPost2010PropOp47
 70
     0
102
RTVSPost2010Prop48
 90
       50
102
RTVSPost2010PropOp48
 70
     0
102
RTVSPost2010Prop49
280
     0
102
RTVSPost2010PropOp49
 70
     1
102
RTVSPost2010Prop50
 90
       50
102
RTVSPost2010PropOp50
 70
     0
102
RTVSPost2010Prop51ColorIndex
 90
      256
102
RTVSPost2010Prop51ColorRGB
 90
-16777216
102
RTVSPost2010PropOp51
 70
     0
102
RTVSPost2010Prop52
140
1.0
102
RTVSPost2010PropOp52
 70
     0
102
RTVSPost2010Prop53
 90
        2
102
RTVSPost2010PropOp53
 70
     0
102
RTVSPost2010Prop54
  1
strokes_ogs.tif
102
RTVSPost2010PropOp54
 70
     0
102
RTVSPost2010Prop55
280
     0
102
RTVSPost2010PropOp55
 70
     1
102
RTVSPost2010Prop56
140
1.0
102
RTVSPost2010PropOp56
 70
     0
102
RTVSPost2010Prop57
140
1.0
102
RTVSPost2010PropOp57
 70
     0
102
RTVSPropertyOp0
 70
     0
102
RTVSPropertyOp1
 70
     0
102
RTVSPropertyOp2
 70
     0
102
RTVSPropertyOp3
 70
     0
102
RTVSPropertyOp4
 70
     0
102
RTVSPropertyOp5
 70
     0
102
RTVSPropertyOp6
 70
     0
102
RTVSPropertyOp7
 70
     0
102
RTVSPropertyOp8
 70
     0
102
RTVSPropertyOp9
 70
     0
102
RTVSPropertyOp10
 70
     0
102
RTVSPropertyOp11
 70
     0
102
RTVSPropertyOp12
 70
     0
102
RTVSPropertyOp13
 70
     0
102
RTVSPropertyOp14
 70
     2
102
RTVSPropertyOp15
 70
     0
102
RTVSPropertyOp16
 70
     0
102
RTVSPropertyOp17
 70
     0
102
RTVSPropertyOp18
 70
     0
102
RTVSPropertyOp19
 70
     0
102
RTVSPropertyOp20
 70
     0
102
RTVSPropertyOp21
 70
     0
102
RTVSPropertyOp22
 70
     0
102
RTVSPropertyOp23
 70
     0
102
RTVSPropertyOp24
 70
     0
102
RTVSPropertyOp25
 70
     0
102
RTVSPropertyOp26
 70
     0
102
RTVSPropertyOp27
 70
     0
102
RTVSPropertyOp28
 70
     1
102
RTVSPropertyOp29
 70
     1
102
RTVSPropertyOp30
 70
     1
102
RTVSPropertyOp31
 70
     1
102
RTVSPropertyOp32
 70
     1
102
RTVSPropertyOp33
 70
     1
102
RTVSPropertyOp34
 70
     1
102
RTVSPropertyOp35
 70
     1
102
RTVSPropertyOp36
 70
     1
102
RTVSPropertyOp37
 70
     0
102
RTVSPropertyOp38
 70
     0
102
RTVSPropertyOp39
 70
     0
102
RTVSPropertyOp40
 70
     0
102
RTVSPropertyOp41
 70
     0
102
RTVSPropertyOp42
 70
     0
102
RTVSPropertyOp43
 70
     0
102
RTVSPropertyOp44
 70
     0
102
RTVSPropertyOp45
 70
     1
102
RTVSPropertyOp46
 70
     0
102
RTVSPropertyOp47
 70
     0
102
RTVSPropertyOp48
 70
     0
102
RTVSPropertyOp49
 70
     1
102
RTVSPropertyOp50
 70
     0
102
RTVSPropertyOp51
 70
     0
102
RTVSPropertyOp52
 70
     0
102
RTVSPropertyOp53
 70
     0
102
RTVSPropertyOp54
 70
     0
102
RTVSPropertyOp55
 70
     1
102
RTVSPropertyOp56
 70
     0
102
RTVSPropertyOp57
 70
     0
102
RTVSPropertyOp58
 70
     0
102
RTVSPropertyOp59
 70
     0
102
RTVSPropertyOp60
 70
     0
102
RTVSPropertyOp61
 70
     0
102
RTVSPropertyOp62
 70
     0
  0
XRECORD
  5
1BD5
102
{ACAD_REACTORS
330
1BD4
102
}
330
1BD4
100
AcDbXrecord
280
     1
102
RTVSPost2010Prop28
280
     0
102
RTVSPost2010PropOp28
 70
     1
102
RTVSPost2010Prop29
280
     1
102
RTVSPost2010PropOp29
 70
     1
102
RTVSPost2010Prop30
280
     1
102
RTVSPost2010PropOp30
 70
     1
102
RTVSPost2010Prop31
280
     0
102
RTVSPost2010PropOp31
 70
     1
102
RTVSPost2010Prop32
280
     0
102
RTVSPost2010PropOp32
 70
     1
102
RTVSPost2010Prop33
280
     0
102
RTVSPost2010PropOp33
 70
     1
102
RTVSPost2010Prop34
280
     0
102
RTVSPost2010PropOp34
 70
     1
102
RTVSPost2010Prop35
280
     0
102
RTVSPost2010PropOp35
 70
     1
102
RTVSPost2010Prop36
280
     0
102
RTVSPost2010PropOp36
 70
     1
102
RTVSPost2010Prop37
 90
       50
102
RTVSPost2010PropOp37
 70
     1
102
RTVSPost2010Prop38
140
0.0
102
RTVSPost2010PropOp38
 70
     1
102
RTVSPost2010Prop39
140
1.0
102
RTVSPost2010PropOp39
 70
     1
102
RTVSPost2010Prop40
 90
        0
102
RTVSPost2010PropOp40
 70
     1
102
RTVSPost2010Prop41ColorIndex
 90
       18
102
RTVSPost2010Prop41ColorRGB
 90
        0
102
RTVSPost2010PropOp41
 70
     1
102
RTVSPost2010Prop42
 90
       50
102
RTVSPost2010PropOp42
 70
     1
102
RTVSPost2010Prop43
 90
        3
102
RTVSPost2010PropOp43
 70
     1
102
RTVSPost2010Prop44ColorIndex
 90
        5
102
RTVSPost2010Prop44ColorRGB
 90
      255
102
RTVSPost2010PropOp44
 70
     1
102
RTVSPost2010Prop45
280
     0
102
RTVSPost2010PropOp45
 70
     1
102
RTVSPost2010Prop46
 90
       50
102
RTVSPost2010PropOp46
 70
     1
102
RTVSPost2010Prop47
 90
       50
102
RTVSPost2010PropOp47
 70
     1
102
RTVSPost2010Prop48
 90
       50
102
RTVSPost2010PropOp48
 70
     1
102
RTVSPost2010Prop49
280
     0
102
RTVSPost2010PropOp49
 70
     1
102
RTVSPost2010Prop50
 90
       50
102
RTVSPost2010PropOp50
 70
     1
102
RTVSPost2010Prop51ColorIndex
 90
      256
102
RTVSPost2010Prop51ColorRGB
 90
-16777216
102
RTVSPost2010PropOp51
 70
     0
102
RTVSPost2010Prop52
140
1.0
102
RTVSPost2010PropOp52
 70
     0
102
RTVSPost2010Prop53
 90
        2
102
RTVSPost2010PropOp53
 70
     1
102
RTVSPost2010Prop54
  1
strokes_ogs.tif
102
RTVSPost2010PropOp54
 70
     1
102
RTVSPost2010Prop55
280
     0
102
RTVSPost2010PropOp55
 70
     1
102
RTVSPost2010Prop56
140
1.0
102
RTVSPost2010PropOp56
 70
     1
102
RTVSPost2010Prop57
140
1.0
102
RTVSPost2010PropOp57
 70
     1
102
RTVSPropertyOp0
 70
     1
102
RTVSPropertyOp1
 70
     1
102
RTVSPropertyOp2
 70
     1
102
RTVSPropertyOp3
 70
     1
102
RTVSPropertyOp4
 70
     1
102
RTVSPropertyOp5
 70
     1
102
RTVSPropertyOp6
 70
     1
102
RTVSPropertyOp7
 70
     1
102
RTVSPropertyOp8
 70
     1
102
RTVSPropertyOp9
 70
     1
102
RTVSPropertyOp10
 70
     1
102
RTVSPropertyOp11
 70
     1
102
RTVSPropertyOp12
 70
     1
102
RTVSPropertyOp13
 70
     1
102
RTVSPropertyOp14
 70
     1
102
RTVSPropertyOp15
 70
     1
102
RTVSPropertyOp16
 70
     1
102
RTVSPropertyOp17
 70
     1
102
RTVSPropertyOp18
 70
     1
102
RTVSPropertyOp19
 70
     1
102
RTVSPropertyOp20
 70
     1
102
RTVSPropertyOp21
 70
     1
102
RTVSPropertyOp22
 70
     1
102
RTVSPropertyOp23
 70
     1
102
RTVSPropertyOp24
 70
     1
102
RTVSPropertyOp25
 70
     1
102
RTVSPropertyOp26
 70
     1
102
RTVSPropertyOp27
 70
     1
102
RTVSPropertyOp28
 70
     1
102
RTVSPropertyOp29
 70
     1
102
RTVSPropertyOp30
 70
     1
102
RTVSPropertyOp31
 70
     1
102
RTVSPropertyOp32
 70
     1
102
RTVSPropertyOp33
 70
     1
102
RTVSPropertyOp34
 70
     1
102
RTVSPropertyOp35
 70
     1
102
RTVSPropertyOp36
 70
     1
102
RTVSPropertyOp37
 70
     1
102
RTVSPropertyOp38
 70
     1
102
RTVSPropertyOp39
 70
     1
102
RTVSPropertyOp40
 70
     1
102
RTVSPropertyOp41
 70
     1
102
RTVSPropertyOp42
 70
     1
102
RTVSPropertyOp43
 70
     1
102
RTVSPropertyOp44
 70
     1
102
RTVSPropertyOp45
 70
     1
102
RTVSPropertyOp46
 70
     1
102
RTVSPropertyOp47
 70
     1
102
RTVSPropertyOp48
 70
     1
102
RTVSPropertyOp49
 70
     1
102
RTVSPropertyOp50
 70
     1
102
RTVSPropertyOp51
 70
     0
102
RTVSPropertyOp52
 70
     0
102
RTVSPropertyOp53
 70
     1
102
RTVSPropertyOp54
 70
     1
102
RTVSPropertyOp55
 70
     1
102
RTVSPropertyOp56
 70
     1
102
RTVSPropertyOp57
 70
     1
102
RTVSPropertyOp58
 70
     1
102
RTVSPropertyOp59
 70
     1
102
RTVSPropertyOp60
 70
     1
102
RTVSPropertyOp61
 70
     1
102
RTVSPropertyOp62
 70
     1
  0
XRECORD
  5
1BE7
102
{ACAD_REACTORS
330
1BE6
102
}
330
1BE6
100
AcDbXrecord
280
     1
102
RTVSPost2010Prop28
280
     0
102
RTVSPost2010PropOp28
 70
     1
102
RTVSPost2010Prop29
280
     1
102
RTVSPost2010PropOp29
 70
     1
102
RTVSPost2010Prop30
280
     1
102
RTVSPost2010PropOp30
 70
     1
102
RTVSPost2010Prop31
280
     0
102
RTVSPost2010PropOp31
 70
     1
102
RTVSPost2010Prop32
280
     0
102
RTVSPost2010PropOp32
 70
     1
102
RTVSPost2010Prop33
280
     0
102
RTVSPost2010PropOp33
 70
     1
102
RTVSPost2010Prop34
280
     0
102
RTVSPost2010PropOp34
 70
     1
102
RTVSPost2010Prop35
280
     0
102
RTVSPost2010PropOp35
 70
     1
102
RTVSPost2010Prop36
280
     0
102
RTVSPost2010PropOp36
 70
     1
102
RTVSPost2010Prop37
 90
       50
102
RTVSPost2010PropOp37
 70
     0
102
RTVSPost2010Prop38
140
0.0
102
RTVSPost2010PropOp38
 70
     0
102
RTVSPost2010Prop39
140
1.0
102
RTVSPost2010PropOp39
 70
     0
102
RTVSPost2010Prop40
 90
        0
102
RTVSPost2010PropOp40
 70
     0
102
RTVSPost2010Prop41ColorIndex
 90
       18
102
RTVSPost2010Prop41ColorRGB
 90
        0
102
RTVSPost2010PropOp41
 70
     0
102
RTVSPost2010Prop42
 90
       50
102
RTVSPost2010PropOp42
 70
     0
102
RTVSPost2010Prop43
 90
        3
102
RTVSPost2010PropOp43
 70
     0
102
RTVSPost2010Prop44ColorIndex
 90
        5
102
RTVSPost2010Prop44ColorRGB
 90
      255
102
RTVSPost2010PropOp44
 70
     0
102
RTVSPost2010Prop45
280
     0
102
RTVSPost2010PropOp45
 70
     1
102
RTVSPost2010Prop46
 90
       50
102
RTVSPost2010PropOp46
 70
     0
102
RTVSPost2010Prop47
 90
       50
102
RTVSPost2010PropOp47
 70
     0
102
RTVSPost2010Prop48
 90
       50
102
RTVSPost2010PropOp48
 70
     0
102
RTVSPost2010Prop49
280
     0
102
RTVSPost2010PropOp49
 70
     1
102
RTVSPost2010Prop50
 90
       50
102
RTVSPost2010PropOp50
 70
     0
102
RTVSPost2010Prop51ColorIndex
 90
      256
102
RTVSPost2010Prop51ColorRGB
 90
-16777216
102
RTVSPost2010PropOp51
 70
     0
102
RTVSPost2010Prop52
140
1.0
102
RTVSPost2010PropOp52
 70
     0
102
RTVSPost2010Prop53
 90
        2
102
RTVSPost2010PropOp53
 70
     0
102
RTVSPost2010Prop54
  1
strokes_ogs.tif
102
RTVSPost2010PropOp54
 70
     0
102
RTVSPost2010Prop55
280
     0
102
RTVSPost2010PropOp55
 70
     1
102
RTVSPost2010Prop56
140
1.0
102
RTVSPost2010PropOp56
 70
     0
102
RTVSPost2010Prop57
140
1.0
102
RTVSPost2010PropOp57
 70
     0
102
RTVSPropertyOp0
 70
     0
102
RTVSPropertyOp1
 70
     0
102
RTVSPropertyOp2
 70
     0
102
RTVSPropertyOp3
 70
     0
102
RTVSPropertyOp4
 70
     0
102
RTVSPropertyOp5
 70
     0
102
RTVSPropertyOp6
 70
     0
102
RTVSPropertyOp7
 70
     0
102
RTVSPropertyOp8
 70
     0
102
RTVSPropertyOp9
 70
     0
102
RTVSPropertyOp10
 70
     0
102
RTVSPropertyOp11
 70
     0
102
RTVSPropertyOp12
 70
     0
102
RTVSPropertyOp13
 70
     0
102
RTVSPropertyOp14
 70
     2
102
RTVSPropertyOp15
 70
     0
102
RTVSPropertyOp16
 70
     0
102
RTVSPropertyOp17
 70
     0
102
RTVSPropertyOp18
 70
     0
102
RTVSPropertyOp19
 70
     0
102
RTVSPropertyOp20
 70
     0
102
RTVSPropertyOp21
 70
     0
102
RTVSPropertyOp22
 70
     0
102
RTVSPropertyOp23
 70
     0
102
RTVSPropertyOp24
 70
     0
102
RTVSPropertyOp25
 70
     0
102
RTVSPropertyOp26
 70
     0
102
RTVSPropertyOp27
 70
     0
102
RTVSPropertyOp28
 70
     1
102
RTVSPropertyOp29
 70
     1
102
RTVSPropertyOp30
 70
     1
102
RTVSPropertyOp31
 70
     1
102
RTVSPropertyOp32
 70
     1
102
RTVSPropertyOp33
 70
     1
102
RTVSPropertyOp34
 70
     1
102
RTVSPropertyOp35
 70
     1
102
RTVSPropertyOp36
 70
     1
102
RTVSPropertyOp37
 70
     0
102
RTVSPropertyOp38
 70
     0
102
RTVSPropertyOp39
 70
     0
102
RTVSPropertyOp40
 70
     0
102
RTVSPropertyOp41
 70
     0
102
RTVSPropertyOp42
 70
     0
102
RTVSPropertyOp43
 70
     0
102
RTVSPropertyOp44
 70
     0
102
RTVSPropertyOp45
 70
     1
102
RTVSPropertyOp46
 70
     0
102
RTVSPropertyOp47
 70
     0
102
RTVSPropertyOp48
 70
     0
102
RTVSPropertyOp49
 70
     1
102
RTVSPropertyOp50
 70
     0
102
RTVSPropertyOp51
 70
     0
102
RTVSPropertyOp52
 70
     0
102
RTVSPropertyOp53
 70
     0
102
RTVSPropertyOp54
 70
     0
102
RTVSPropertyOp55
 70
     1
102
RTVSPropertyOp56
 70
     0
102
RTVSPropertyOp57
 70
     0
102
RTVSPropertyOp58
 70
     0
102
RTVSPropertyOp59
 70
     0
102
RTVSPropertyOp60
 70
     0
102
RTVSPropertyOp61
 70
     0
102
RTVSPropertyOp62
 70
     0
  0
XRECORD
  5
1BCD
102
{ACAD_REACTORS
330
1BCC
102
}
330
1BCC
100
AcDbXrecord
280
     1
102
RTVSPost2010Prop28
280
     0
102
RTVSPost2010PropOp28
 70
     1
102
RTVSPost2010Prop29
280
     1
102
RTVSPost2010PropOp29
 70
     1
102
RTVSPost2010Prop30
280
     1
102
RTVSPost2010PropOp30
 70
     1
102
RTVSPost2010Prop31
280
     0
102
RTVSPost2010PropOp31
 70
     1
102
RTVSPost2010Prop32
280
     0
102
RTVSPost2010PropOp32
 70
     1
102
RTVSPost2010Prop33
280
     0
102
RTVSPost2010PropOp33
 70
     1
102
RTVSPost2010Prop34
280
     0
102
RTVSPost2010PropOp34
 70
     1
102
RTVSPost2010Prop35
280
     0
102
RTVSPost2010PropOp35
 70
     1
102
RTVSPost2010Prop36
280
     0
102
RTVSPost2010PropOp36
 70
     1
102
RTVSPost2010Prop37
 90
       50
102
RTVSPost2010PropOp37
 70
     1
102
RTVSPost2010Prop38
140
0.0
102
RTVSPost2010PropOp38
 70
     1
102
RTVSPost2010Prop39
140
1.0
102
RTVSPost2010PropOp39
 70
     1
102
RTVSPost2010Prop40
 90
        0
102
RTVSPost2010PropOp40
 70
     1
102
RTVSPost2010Prop41ColorIndex
 90
       18
102
RTVSPost2010Prop41ColorRGB
 90
        0
102
RTVSPost2010PropOp41
 70
     1
102
RTVSPost2010Prop42
 90
       50
102
RTVSPost2010PropOp42
 70
     1
102
RTVSPost2010Prop43
 90
        3
102
RTVSPost2010PropOp43
 70
     1
102
RTVSPost2010Prop44ColorIndex
 90
        5
102
RTVSPost2010Prop44ColorRGB
 90
      255
102
RTVSPost2010PropOp44
 70
     1
102
RTVSPost2010Prop45
280
     0
102
RTVSPost2010PropOp45
 70
     1
102
RTVSPost2010Prop46
 90
       50
102
RTVSPost2010PropOp46
 70
     1
102
RTVSPost2010Prop47
 90
       50
102
RTVSPost2010PropOp47
 70
     1
102
RTVSPost2010Prop48
 90
       50
102
RTVSPost2010PropOp48
 70
     1
102
RTVSPost2010Prop49
280
     0
102
RTVSPost2010PropOp49
 70
     1
102
RTVSPost2010Prop50
 90
       50
102
RTVSPost2010PropOp50
 70
     1
102
RTVSPost2010Prop51ColorIndex
 90
      256
102
RTVSPost2010Prop51ColorRGB
 90
-16777216
102
RTVSPost2010PropOp51
 70
     0
102
RTVSPost2010Prop52
140
1.0
102
RTVSPost2010PropOp52
 70
     0
102
RTVSPost2010Prop53
 90
        2
102
RTVSPost2010PropOp53
 70
     1
102
RTVSPost2010Prop54
  1
strokes_ogs.tif
102
RTVSPost2010PropOp54
 70
     1
102
RTVSPost2010Prop55
280
     0
102
RTVSPost2010PropOp55
 70
     1
102
RTVSPost2010Prop56
140
1.0
102
RTVSPost2010PropOp56
 70
     1
102
RTVSPost2010Prop57
140
1.0
102
RTVSPost2010PropOp57
 70
     1
102
RTVSPropertyOp0
 70
     1
102
RTVSPropertyOp1
 70
     1
102
RTVSPropertyOp2
 70
     1
102
RTVSPropertyOp3
 70
     1
102
RTVSPropertyOp4
 70
     1
102
RTVSPropertyOp5
 70
     1
102
RTVSPropertyOp6
 70
     1
102
RTVSPropertyOp7
 70
     1
102
RTVSPropertyOp8
 70
     1
102
RTVSPropertyOp9
 70
     1
102
RTVSPropertyOp10
 70
     1
102
RTVSPropertyOp11
 70
     1
102
RTVSPropertyOp12
 70
     1
102
RTVSPropertyOp13
 70
     1
102
RTVSPropertyOp14
 70
     1
102
RTVSPropertyOp15
 70
     1
102
RTVSPropertyOp16
 70
     1
102
RTVSPropertyOp17
 70
     1
102
RTVSPropertyOp18
 70
     1
102
RTVSPropertyOp19
 70
     1
102
RTVSPropertyOp20
 70
     1
102
RTVSPropertyOp21
 70
     1
102
RTVSPropertyOp22
 70
     1
102
RTVSPropertyOp23
 70
     1
102
RTVSPropertyOp24
 70
     1
102
RTVSPropertyOp25
 70
     1
102
RTVSPropertyOp26
 70
     1
102
RTVSPropertyOp27
 70
     1
102
RTVSPropertyOp28
 70
     1
102
RTVSPropertyOp29
 70
     1
102
RTVSPropertyOp30
 70
     1
102
RTVSPropertyOp31
 70
     1
102
RTVSPropertyOp32
 70
     1
102
RTVSPropertyOp33
 70
     1
102
RTVSPropertyOp34
 70
     1
102
RTVSPropertyOp35
 70
     1
102
RTVSPropertyOp36
 70
     1
102
RTVSPropertyOp37
 70
     1
102
RTVSPropertyOp38
 70
     1
102
RTVSPropertyOp39
 70
     1
102
RTVSPropertyOp40
 70
     1
102
RTVSPropertyOp41
 70
     1
102
RTVSPropertyOp42
 70
     1
102
RTVSPropertyOp43
 70
     1
102
RTVSPropertyOp44
 70
     1
102
RTVSPropertyOp45
 70
     1
102
RTVSPropertyOp46
 70
     1
102
RTVSPropertyOp47
 70
     1
102
RTVSPropertyOp48
 70
     1
102
RTVSPropertyOp49
 70
     1
102
RTVSPropertyOp50
 70
     1
102
RTVSPropertyOp51
 70
     0
102
RTVSPropertyOp52
 70
     0
102
RTVSPropertyOp53
 70
     1
102
RTVSPropertyOp54
 70
     1
102
RTVSPropertyOp55
 70
     1
102
RTVSPropertyOp56
 70
     1
102
RTVSPropertyOp57
 70
     1
102
RTVSPropertyOp58
 70
     1
102
RTVSPropertyOp59
 70
     1
102
RTVSPropertyOp60
 70
     1
102
RTVSPropertyOp61
 70
     1
102
RTVSPropertyOp62
 70
     1
  0
XRECORD
  5
1BE3
102
{ACAD_REACTORS
330
1BE2
102
}
330
1BE2
100
AcDbXrecord
280
     1
102
RTVSPost2010Prop28
280
     0
102
RTVSPost2010PropOp28
 70
     1
102
RTVSPost2010Prop29
280
     1
102
RTVSPost2010PropOp29
 70
     1
102
RTVSPost2010Prop30
280
     1
102
RTVSPost2010PropOp30
 70
     1
102
RTVSPost2010Prop31
280
     0
102
RTVSPost2010PropOp31
 70
     1
102
RTVSPost2010Prop32
280
     0
102
RTVSPost2010PropOp32
 70
     1
102
RTVSPost2010Prop33
280
     0
102
RTVSPost2010PropOp33
 70
     1
102
RTVSPost2010Prop34
280
     0
102
RTVSPost2010PropOp34
 70
     1
102
RTVSPost2010Prop35
280
     0
102
RTVSPost2010PropOp35
 70
     1
102
RTVSPost2010Prop36
280
     0
102
RTVSPost2010PropOp36
 70
     1
102
RTVSPost2010Prop37
 90
       50
102
RTVSPost2010PropOp37
 70
     1
102
RTVSPost2010Prop38
140
0.0
102
RTVSPost2010PropOp38
 70
     1
102
RTVSPost2010Prop39
140
1.0
102
RTVSPost2010PropOp39
 70
     1
102
RTVSPost2010Prop40
 90
        0
102
RTVSPost2010PropOp40
 70
     1
102
RTVSPost2010Prop41ColorIndex
 90
       18
102
RTVSPost2010Prop41ColorRGB
 90
        0
102
RTVSPost2010PropOp41
 70
     1
102
RTVSPost2010Prop42
 90
       50
102
RTVSPost2010PropOp42
 70
     1
102
RTVSPost2010Prop43
 90
        3
102
RTVSPost2010PropOp43
 70
     1
102
RTVSPost2010Prop44ColorIndex
 90
        5
102
RTVSPost2010Prop44ColorRGB
 90
      255
102
RTVSPost2010PropOp44
 70
     1
102
RTVSPost2010Prop45
280
     0
102
RTVSPost2010PropOp45
 70
     1
102
RTVSPost2010Prop46
 90
       50
102
RTVSPost2010PropOp46
 70
     1
102
RTVSPost2010Prop47
 90
       50
102
RTVSPost2010PropOp47
 70
     1
102
RTVSPost2010Prop48
 90
       50
102
RTVSPost2010PropOp48
 70
     1
102
RTVSPost2010Prop49
280
     0
102
RTVSPost2010PropOp49
 70
     1
102
RTVSPost2010Prop50
 90
       50
102
RTVSPost2010PropOp50
 70
     1
102
RTVSPost2010Prop51ColorIndex
 90
      256
102
RTVSPost2010Prop51ColorRGB
 90
-16777216
102
RTVSPost2010PropOp51
 70
     0
102
RTVSPost2010Prop52
140
1.0
102
RTVSPost2010PropOp52
 70
     0
102
RTVSPost2010Prop53
 90
        2
102
RTVSPost2010PropOp53
 70
     1
102
RTVSPost2010Prop54
  1
strokes_ogs.tif
102
RTVSPost2010PropOp54
 70
     1
102
RTVSPost2010Prop55
280
     0
102
RTVSPost2010PropOp55
 70
     1
102
RTVSPost2010Prop56
140
1.0
102
RTVSPost2010PropOp56
 70
     1
102
RTVSPost2010Prop57
140
1.0
102
RTVSPost2010PropOp57
 70
     1
102
RTVSPropertyOp0
 70
     1
102
RTVSPropertyOp1
 70
     1
102
RTVSPropertyOp2
 70
     1
102
RTVSPropertyOp3
 70
     1
102
RTVSPropertyOp4
 70
     1
102
RTVSPropertyOp5
 70
     1
102
RTVSPropertyOp6
 70
     1
102
RTVSPropertyOp7
 70
     1
102
RTVSPropertyOp8
 70
     1
102
RTVSPropertyOp9
 70
     1
102
RTVSPropertyOp10
 70
     1
102
RTVSPropertyOp11
 70
     1
102
RTVSPropertyOp12
 70
     1
102
RTVSPropertyOp13
 70
     1
102
RTVSPropertyOp14
 70
     1
102
RTVSPropertyOp15
 70
     1
102
RTVSPropertyOp16
 70
     1
102
RTVSPropertyOp17
 70
     1
102
RTVSPropertyOp18
 70
     1
102
RTVSPropertyOp19
 70
     1
102
RTVSPropertyOp20
 70
     1
102
RTVSPropertyOp21
 70
     1
102
RTVSPropertyOp22
 70
     1
102
RTVSPropertyOp23
 70
     1
102
RTVSPropertyOp24
 70
     1
102
RTVSPropertyOp25
 70
     1
102
RTVSPropertyOp26
 70
     1
102
RTVSPropertyOp27
 70
     1
102
RTVSPropertyOp28
 70
     1
102
RTVSPropertyOp29
 70
     1
102
RTVSPropertyOp30
 70
     1
102
RTVSPropertyOp31
 70
     1
102
RTVSPropertyOp32
 70
     1
102
RTVSPropertyOp33
 70
     1
102
RTVSPropertyOp34
 70
     1
102
RTVSPropertyOp35
 70
     1
102
RTVSPropertyOp36
 70
     1
102
RTVSPropertyOp37
 70
     1
102
RTVSPropertyOp38
 70
     1
102
RTVSPropertyOp39
 70
     1
102
RTVSPropertyOp40
 70
     1
102
RTVSPropertyOp41
 70
     1
102
RTVSPropertyOp42
 70
     1
102
RTVSPropertyOp43
 70
     1
102
RTVSPropertyOp44
 70
     1
102
RTVSPropertyOp45
 70
     1
102
RTVSPropertyOp46
 70
     1
102
RTVSPropertyOp47
 70
     1
102
RTVSPropertyOp48
 70
     1
102
RTVSPropertyOp49
 70
     1
102
RTVSPropertyOp50
 70
     1
102
RTVSPropertyOp51
 70
     0
102
RTVSPropertyOp52
 70
     0
102
RTVSPropertyOp53
 70
     1
102
RTVSPropertyOp54
 70
     1
102
RTVSPropertyOp55
 70
     1
102
RTVSPropertyOp56
 70
     1
102
RTVSPropertyOp57
 70
     1
102
RTVSPropertyOp58
 70
     1
102
RTVSPropertyOp59
 70
     1
102
RTVSPropertyOp60
 70
     1
102
RTVSPropertyOp61
 70
     1
102
RTVSPropertyOp62
 70
     1
  0
XRECORD
  5
1BE1
102
{ACAD_REACTORS
330
1BE0
102
}
330
1BE0
100
AcDbXrecord
280
     1
102
RTVSPost2010Prop28
280
     0
102
RTVSPost2010PropOp28
 70
     1
102
RTVSPost2010Prop29
280
     1
102
RTVSPost2010PropOp29
 70
     1
102
RTVSPost2010Prop30
280
     1
102
RTVSPost2010PropOp30
 70
     1
102
RTVSPost2010Prop31
280
     0
102
RTVSPost2010PropOp31
 70
     1
102
RTVSPost2010Prop32
280
     0
102
RTVSPost2010PropOp32
 70
     1
102
RTVSPost2010Prop33
280
     0
102
RTVSPost2010PropOp33
 70
     1
102
RTVSPost2010Prop34
280
     0
102
RTVSPost2010PropOp34
 70
     1
102
RTVSPost2010Prop35
280
     0
102
RTVSPost2010PropOp35
 70
     1
102
RTVSPost2010Prop36
280
     0
102
RTVSPost2010PropOp36
 70
     1
102
RTVSPost2010Prop37
 90
       50
102
RTVSPost2010PropOp37
 70
     1
102
RTVSPost2010Prop38
140
0.0
102
RTVSPost2010PropOp38
 70
     1
102
RTVSPost2010Prop39
140
1.0
102
RTVSPost2010PropOp39
 70
     1
102
RTVSPost2010Prop40
 90
        0
102
RTVSPost2010PropOp40
 70
     1
102
RTVSPost2010Prop41ColorIndex
 90
       18
102
RTVSPost2010Prop41ColorRGB
 90
        0
102
RTVSPost2010PropOp41
 70
     1
102
RTVSPost2010Prop42
 90
       50
102
RTVSPost2010PropOp42
 70
     1
102
RTVSPost2010Prop43
 90
        3
102
RTVSPost2010PropOp43
 70
     1
102
RTVSPost2010Prop44ColorIndex
 90
        5
102
RTVSPost2010Prop44ColorRGB
 90
      255
102
RTVSPost2010PropOp44
 70
     1
102
RTVSPost2010Prop45
280
     0
102
RTVSPost2010PropOp45
 70
     1
102
RTVSPost2010Prop46
 90
       50
102
RTVSPost2010PropOp46
 70
     1
102
RTVSPost2010Prop47
 90
       50
102
RTVSPost2010PropOp47
 70
     1
102
RTVSPost2010Prop48
 90
       50
102
RTVSPost2010PropOp48
 70
     1
102
RTVSPost2010Prop49
280
     0
102
RTVSPost2010PropOp49
 70
     1
102
RTVSPost2010Prop50
 90
       50
102
RTVSPost2010PropOp50
 70
     1
102
RTVSPost2010Prop51ColorIndex
 90
      256
102
RTVSPost2010Prop51ColorRGB
 90
-16777216
102
RTVSPost2010PropOp51
 70
     0
102
RTVSPost2010Prop52
140
1.0
102
RTVSPost2010PropOp52
 70
     0
102
RTVSPost2010Prop53
 90
        2
102
RTVSPost2010PropOp53
 70
     1
102
RTVSPost2010Prop54
  1
strokes_ogs.tif
102
RTVSPost2010PropOp54
 70
     1
102
RTVSPost2010Prop55
280
     0
102
RTVSPost2010PropOp55
 70
     1
102
RTVSPost2010Prop56
140
1.0
102
RTVSPost2010PropOp56
 70
     1
102
RTVSPost2010Prop57
140
1.0
102
RTVSPost2010PropOp57
 70
     1
102
RTVSPropertyOp0
 70
     1
102
RTVSPropertyOp1
 70
     1
102
RTVSPropertyOp2
 70
     1
102
RTVSPropertyOp3
 70
     1
102
RTVSPropertyOp4
 70
     1
102
RTVSPropertyOp5
 70
     1
102
RTVSPropertyOp6
 70
     1
102
RTVSPropertyOp7
 70
     1
102
RTVSPropertyOp8
 70
     1
102
RTVSPropertyOp9
 70
     1
102
RTVSPropertyOp10
 70
     1
102
RTVSPropertyOp11
 70
     1
102
RTVSPropertyOp12
 70
     1
102
RTVSPropertyOp13
 70
     1
102
RTVSPropertyOp14
 70
     1
102
RTVSPropertyOp15
 70
     1
102
RTVSPropertyOp16
 70
     1
102
RTVSPropertyOp17
 70
     1
102
RTVSPropertyOp18
 70
     1
102
RTVSPropertyOp19
 70
     1
102
RTVSPropertyOp20
 70
     1
102
RTVSPropertyOp21
 70
     1
102
RTVSPropertyOp22
 70
     1
102
RTVSPropertyOp23
 70
     1
102
RTVSPropertyOp24
 70
     1
102
RTVSPropertyOp25
 70
     1
102
RTVSPropertyOp26
 70
     1
102
RTVSPropertyOp27
 70
     1
102
RTVSPropertyOp28
 70
     1
102
RTVSPropertyOp29
 70
     1
102
RTVSPropertyOp30
 70
     1
102
RTVSPropertyOp31
 70
     1
102
RTVSPropertyOp32
 70
     1
102
RTVSPropertyOp33
 70
     1
102
RTVSPropertyOp34
 70
     1
102
RTVSPropertyOp35
 70
     1
102
RTVSPropertyOp36
 70
     1
102
RTVSPropertyOp37
 70
     1
102
RTVSPropertyOp38
 70
     1
102
RTVSPropertyOp39
 70
     1
102
RTVSPropertyOp40
 70
     1
102
RTVSPropertyOp41
 70
     1
102
RTVSPropertyOp42
 70
     1
102
RTVSPropertyOp43
 70
     1
102
RTVSPropertyOp44
 70
     1
102
RTVSPropertyOp45
 70
     1
102
RTVSPropertyOp46
 70
     1
102
RTVSPropertyOp47
 70
     1
102
RTVSPropertyOp48
 70
     1
102
RTVSPropertyOp49
 70
     1
102
RTVSPropertyOp50
 70
     1
102
RTVSPropertyOp51
 70
     0
102
RTVSPropertyOp52
 70
     0
102
RTVSPropertyOp53
 70
     1
102
RTVSPropertyOp54
 70
     1
102
RTVSPropertyOp55
 70
     1
102
RTVSPropertyOp56
 70
     1
102
RTVSPropertyOp57
 70
     1
102
RTVSPropertyOp58
 70
     1
102
RTVSPropertyOp59
 70
     1
102
RTVSPropertyOp60
 70
     1
102
RTVSPropertyOp61
 70
     1
102
RTVSPropertyOp62
 70
     1
  0
XRECORD
  5
1BDB
102
{ACAD_REACTORS
330
1BDA
102
}
330
1BDA
100
AcDbXrecord
280
     1
102
RTVSPost2010Prop28
280
     0
102
RTVSPost2010PropOp28
 70
     1
102
RTVSPost2010Prop29
280
     1
102
RTVSPost2010PropOp29
 70
     1
102
RTVSPost2010Prop30
280
     1
102
RTVSPost2010PropOp30
 70
     1
102
RTVSPost2010Prop31
280
     0
102
RTVSPost2010PropOp31
 70
     1
102
RTVSPost2010Prop32
280
     0
102
RTVSPost2010PropOp32
 70
     1
102
RTVSPost2010Prop33
280
     0
102
RTVSPost2010PropOp33
 70
     1
102
RTVSPost2010Prop34
280
     0
102
RTVSPost2010PropOp34
 70
     1
102
RTVSPost2010Prop35
280
     0
102
RTVSPost2010PropOp35
 70
     1
102
RTVSPost2010Prop36
280
     0
102
RTVSPost2010PropOp36
 70
     1
102
RTVSPost2010Prop37
 90
       50
102
RTVSPost2010PropOp37
 70
     1
102
RTVSPost2010Prop38
140
0.0
102
RTVSPost2010PropOp38
 70
     1
102
RTVSPost2010Prop39
140
1.0
102
RTVSPost2010PropOp39
 70
     1
102
RTVSPost2010Prop40
 90
        0
102
RTVSPost2010PropOp40
 70
     1
102
RTVSPost2010Prop41ColorIndex
 90
       18
102
RTVSPost2010Prop41ColorRGB
 90
        0
102
RTVSPost2010PropOp41
 70
     1
102
RTVSPost2010Prop42
 90
       50
102
RTVSPost2010PropOp42
 70
     1
102
RTVSPost2010Prop43
 90
        3
102
RTVSPost2010PropOp43
 70
     1
102
RTVSPost2010Prop44ColorIndex
 90
        5
102
RTVSPost2010Prop44ColorRGB
 90
      255
102
RTVSPost2010PropOp44
 70
     1
102
RTVSPost2010Prop45
280
     0
102
RTVSPost2010PropOp45
 70
     1
102
RTVSPost2010Prop46
 90
       50
102
RTVSPost2010PropOp46
 70
     1
102
RTVSPost2010Prop47
 90
       50
102
RTVSPost2010PropOp47
 70
     1
102
RTVSPost2010Prop48
 90
       50
102
RTVSPost2010PropOp48
 70
     1
102
RTVSPost2010Prop49
280
     0
102
RTVSPost2010PropOp49
 70
     1
102
RTVSPost2010Prop50
 90
       50
102
RTVSPost2010PropOp50
 70
     1
102
RTVSPost2010Prop51ColorIndex
 90
      256
102
RTVSPost2010Prop51ColorRGB
 90
-16777216
102
RTVSPost2010PropOp51
 70
     0
102
RTVSPost2010Prop52
140
1.0
102
RTVSPost2010PropOp52
 70
     0
102
RTVSPost2010Prop53
 90
        2
102
RTVSPost2010PropOp53
 70
     1
102
RTVSPost2010Prop54
  1
strokes_ogs.tif
102
RTVSPost2010PropOp54
 70
     1
102
RTVSPost2010Prop55
280
     0
102
RTVSPost2010PropOp55
 70
     1
102
RTVSPost2010Prop56
140
1.0
102
RTVSPost2010PropOp56
 70
     1
102
RTVSPost2010Prop57
140
1.0
102
RTVSPost2010PropOp57
 70
     1
102
RTVSPropertyOp0
 70
     1
102
RTVSPropertyOp1
 70
     1
102
RTVSPropertyOp2
 70
     1
102
RTVSPropertyOp3
 70
     1
102
RTVSPropertyOp4
 70
     1
102
RTVSPropertyOp5
 70
     1
102
RTVSPropertyOp6
 70
     1
102
RTVSPropertyOp7
 70
     1
102
RTVSPropertyOp8
 70
     1
102
RTVSPropertyOp9
 70
     1
102
RTVSPropertyOp10
 70
     1
102
RTVSPropertyOp11
 70
     1
102
RTVSPropertyOp12
 70
     1
102
RTVSPropertyOp13
 70
     1
102
RTVSPropertyOp14
 70
     1
102
RTVSPropertyOp15
 70
     1
102
RTVSPropertyOp16
 70
     1
102
RTVSPropertyOp17
 70
     1
102
RTVSPropertyOp18
 70
     1
102
RTVSPropertyOp19
 70
     1
102
RTVSPropertyOp20
 70
     1
102
RTVSPropertyOp21
 70
     1
102
RTVSPropertyOp22
 70
     1
102
RTVSPropertyOp23
 70
     1
102
RTVSPropertyOp24
 70
     1
102
RTVSPropertyOp25
 70
     1
102
RTVSPropertyOp26
 70
     1
102
RTVSPropertyOp27
 70
     1
102
RTVSPropertyOp28
 70
     1
102
RTVSPropertyOp29
 70
     1
102
RTVSPropertyOp30
 70
     1
102
RTVSPropertyOp31
 70
     1
102
RTVSPropertyOp32
 70
     1
102
RTVSPropertyOp33
 70
     1
102
RTVSPropertyOp34
 70
     1
102
RTVSPropertyOp35
 70
     1
102
RTVSPropertyOp36
 70
     1
102
RTVSPropertyOp37
 70
     1
102
RTVSPropertyOp38
 70
     1
102
RTVSPropertyOp39
 70
     1
102
RTVSPropertyOp40
 70
     1
102
RTVSPropertyOp41
 70
     1
102
RTVSPropertyOp42
 70
     1
102
RTVSPropertyOp43
 70
     1
102
RTVSPropertyOp44
 70
     1
102
RTVSPropertyOp45
 70
     1
102
RTVSPropertyOp46
 70
     1
102
RTVSPropertyOp47
 70
     1
102
RTVSPropertyOp48
 70
     1
102
RTVSPropertyOp49
 70
     1
102
RTVSPropertyOp50
 70
     1
102
RTVSPropertyOp51
 70
     0
102
RTVSPropertyOp52
 70
     0
102
RTVSPropertyOp53
 70
     1
102
RTVSPropertyOp54
 70
     1
102
RTVSPropertyOp55
 70
     1
102
RTVSPropertyOp56
 70
     1
102
RTVSPropertyOp57
 70
     1
102
RTVSPropertyOp58
 70
     1
102
RTVSPropertyOp59
 70
     1
102
RTVSPropertyOp60
 70
     1
102
RTVSPropertyOp61
 70
     1
102
RTVSPropertyOp62
 70
     1
  0
XRECORD
  5
1BDD
102
{ACAD_REACTORS
330
1BDC
102
}
330
1BDC
100
AcDbXrecord
280
     1
102
RTVSPost2010Prop28
280
     0
102
RTVSPost2010PropOp28
 70
     1
102
RTVSPost2010Prop29
280
     1
102
RTVSPost2010PropOp29
 70
     1
102
RTVSPost2010Prop30
280
     1
102
RTVSPost2010PropOp30
 70
     1
102
RTVSPost2010Prop31
280
     0
102
RTVSPost2010PropOp31
 70
     1
102
RTVSPost2010Prop32
280
     0
102
RTVSPost2010PropOp32
 70
     1
102
RTVSPost2010Prop33
280
     0
102
RTVSPost2010PropOp33
 70
     1
102
RTVSPost2010Prop34
280
     0
102
RTVSPost2010PropOp34
 70
     1
102
RTVSPost2010Prop35
280
     0
102
RTVSPost2010PropOp35
 70
     1
102
RTVSPost2010Prop36
280
     0
102
RTVSPost2010PropOp36
 70
     1
102
RTVSPost2010Prop37
 90
       50
102
RTVSPost2010PropOp37
 70
     1
102
RTVSPost2010Prop38
140
0.0
102
RTVSPost2010PropOp38
 70
     1
102
RTVSPost2010Prop39
140
1.0
102
RTVSPost2010PropOp39
 70
     1
102
RTVSPost2010Prop40
 90
        0
102
RTVSPost2010PropOp40
 70
     1
102
RTVSPost2010Prop41ColorIndex
 90
       18
102
RTVSPost2010Prop41ColorRGB
 90
        0
102
RTVSPost2010PropOp41
 70
     1
102
RTVSPost2010Prop42
 90
       50
102
RTVSPost2010PropOp42
 70
     1
102
RTVSPost2010Prop43
 90
        3
102
RTVSPost2010PropOp43
 70
     1
102
RTVSPost2010Prop44ColorIndex
 90
        5
102
RTVSPost2010Prop44ColorRGB
 90
      255
102
RTVSPost2010PropOp44
 70
     1
102
RTVSPost2010Prop45
280
     0
102
RTVSPost2010PropOp45
 70
     1
102
RTVSPost2010Prop46
 90
       50
102
RTVSPost2010PropOp46
 70
     1
102
RTVSPost2010Prop47
 90
       50
102
RTVSPost2010PropOp47
 70
     1
102
RTVSPost2010Prop48
 90
       50
102
RTVSPost2010PropOp48
 70
     1
102
RTVSPost2010Prop49
280
     0
102
RTVSPost2010PropOp49
 70
     1
102
RTVSPost2010Prop50
 90
       50
102
RTVSPost2010PropOp50
 70
     1
102
RTVSPost2010Prop51ColorIndex
 90
      256
102
RTVSPost2010Prop51ColorRGB
 90
-16777216
102
RTVSPost2010PropOp51
 70
     0
102
RTVSPost2010Prop52
140
1.0
102
RTVSPost2010PropOp52
 70
     0
102
RTVSPost2010Prop53
 90
        2
102
RTVSPost2010PropOp53
 70
     1
102
RTVSPost2010Prop54
  1
strokes_ogs.tif
102
RTVSPost2010PropOp54
 70
     1
102
RTVSPost2010Prop55
280
     0
102
RTVSPost2010PropOp55
 70
     1
102
RTVSPost2010Prop56
140
1.0
102
RTVSPost2010PropOp56
 70
     1
102
RTVSPost2010Prop57
140
1.0
102
RTVSPost2010PropOp57
 70
     1
102
RTVSPropertyOp0
 70
     1
102
RTVSPropertyOp1
 70
     1
102
RTVSPropertyOp2
 70
     1
102
RTVSPropertyOp3
 70
     1
102
RTVSPropertyOp4
 70
     1
102
RTVSPropertyOp5
 70
     1
102
RTVSPropertyOp6
 70
     1
102
RTVSPropertyOp7
 70
     1
102
RTVSPropertyOp8
 70
     1
102
RTVSPropertyOp9
 70
     1
102
RTVSPropertyOp10
 70
     1
102
RTVSPropertyOp11
 70
     1
102
RTVSPropertyOp12
 70
     1
102
RTVSPropertyOp13
 70
     1
102
RTVSPropertyOp14
 70
     1
102
RTVSPropertyOp15
 70
     1
102
RTVSPropertyOp16
 70
     1
102
RTVSPropertyOp17
 70
     1
102
RTVSPropertyOp18
 70
     1
102
RTVSPropertyOp19
 70
     1
102
RTVSPropertyOp20
 70
     1
102
RTVSPropertyOp21
 70
     1
102
RTVSPropertyOp22
 70
     1
102
RTVSPropertyOp23
 70
     1
102
RTVSPropertyOp24
 70
     1
102
RTVSPropertyOp25
 70
     1
102
RTVSPropertyOp26
 70
     1
102
RTVSPropertyOp27
 70
     1
102
RTVSPropertyOp28
 70
     1
102
RTVSPropertyOp29
 70
     1
102
RTVSPropertyOp30
 70
     1
102
RTVSPropertyOp31
 70
     1
102
RTVSPropertyOp32
 70
     1
102
RTVSPropertyOp33
 70
     1
102
RTVSPropertyOp34
 70
     1
102
RTVSPropertyOp35
 70
     1
102
RTVSPropertyOp36
 70
     1
102
RTVSPropertyOp37
 70
     1
102
RTVSPropertyOp38
 70
     1
102
RTVSPropertyOp39
 70
     1
102
RTVSPropertyOp40
 70
     1
102
RTVSPropertyOp41
 70
     1
102
RTVSPropertyOp42
 70
     1
102
RTVSPropertyOp43
 70
     1
102
RTVSPropertyOp44
 70
     1
102
RTVSPropertyOp45
 70
     1
102
RTVSPropertyOp46
 70
     1
102
RTVSPropertyOp47
 70
     1
102
RTVSPropertyOp48
 70
     1
102
RTVSPropertyOp49
 70
     1
102
RTVSPropertyOp50
 70
     1
102
RTVSPropertyOp51
 70
     0
102
RTVSPropertyOp52
 70
     0
102
RTVSPropertyOp53
 70
     1
102
RTVSPropertyOp54
 70
     1
102
RTVSPropertyOp55
 70
     1
102
RTVSPropertyOp56
 70
     1
102
RTVSPropertyOp57
 70
     1
102
RTVSPropertyOp58
 70
     1
102
RTVSPropertyOp59
 70
     1
102
RTVSPropertyOp60
 70
     1
102
RTVSPropertyOp61
 70
     1
102
RTVSPropertyOp62
 70
     1
  0
XRECORD
  5
1BD3
102
{ACAD_REACTORS
330
1BD2
102
}
330
1BD2
100
AcDbXrecord
280
     1
102
RTVSPost2010Prop28
280
     0
102
RTVSPost2010PropOp28
 70
     1
102
RTVSPost2010Prop29
280
     1
102
RTVSPost2010PropOp29
 70
     1
102
RTVSPost2010Prop30
280
     1
102
RTVSPost2010PropOp30
 70
     1
102
RTVSPost2010Prop31
280
     0
102
RTVSPost2010PropOp31
 70
     1
102
RTVSPost2010Prop32
280
     0
102
RTVSPost2010PropOp32
 70
     1
102
RTVSPost2010Prop33
280
     0
102
RTVSPost2010PropOp33
 70
     1
102
RTVSPost2010Prop34
280
     0
102
RTVSPost2010PropOp34
 70
     1
102
RTVSPost2010Prop35
280
     0
102
RTVSPost2010PropOp35
 70
     1
102
RTVSPost2010Prop36
280
     0
102
RTVSPost2010PropOp36
 70
     1
102
RTVSPost2010Prop37
 90
       50
102
RTVSPost2010PropOp37
 70
     1
102
RTVSPost2010Prop38
140
0.0
102
RTVSPost2010PropOp38
 70
     1
102
RTVSPost2010Prop39
140
1.0
102
RTVSPost2010PropOp39
 70
     1
102
RTVSPost2010Prop40
 90
        0
102
RTVSPost2010PropOp40
 70
     1
102
RTVSPost2010Prop41ColorIndex
 90
       18
102
RTVSPost2010Prop41ColorRGB
 90
        0
102
RTVSPost2010PropOp41
 70
     1
102
RTVSPost2010Prop42
 90
       50
102
RTVSPost2010PropOp42
 70
     1
102
RTVSPost2010Prop43
 90
        3
102
RTVSPost2010PropOp43
 70
     1
102
RTVSPost2010Prop44ColorIndex
 90
        5
102
RTVSPost2010Prop44ColorRGB
 90
      255
102
RTVSPost2010PropOp44
 70
     1
102
RTVSPost2010Prop45
280
     0
102
RTVSPost2010PropOp45
 70
     1
102
RTVSPost2010Prop46
 90
       50
102
RTVSPost2010PropOp46
 70
     1
102
RTVSPost2010Prop47
 90
       50
102
RTVSPost2010PropOp47
 70
     1
102
RTVSPost2010Prop48
 90
       50
102
RTVSPost2010PropOp48
 70
     1
102
RTVSPost2010Prop49
280
     0
102
RTVSPost2010PropOp49
 70
     1
102
RTVSPost2010Prop50
 90
       50
102
RTVSPost2010PropOp50
 70
     1
102
RTVSPost2010Prop51ColorIndex
 90
      256
102
RTVSPost2010Prop51ColorRGB
 90
-16777216
102
RTVSPost2010PropOp51
 70
     0
102
RTVSPost2010Prop52
140
1.0
102
RTVSPost2010PropOp52
 70
     0
102
RTVSPost2010Prop53
 90
        2
102
RTVSPost2010PropOp53
 70
     1
102
RTVSPost2010Prop54
  1
strokes_ogs.tif
102
RTVSPost2010PropOp54
 70
     1
102
RTVSPost2010Prop55
280
     0
102
RTVSPost2010PropOp55
 70
     1
102
RTVSPost2010Prop56
140
1.0
102
RTVSPost2010PropOp56
 70
     1
102
RTVSPost2010Prop57
140
1.0
102
RTVSPost2010PropOp57
 70
     1
102
RTVSPropertyOp0
 70
     1
102
RTVSPropertyOp1
 70
     1
102
RTVSPropertyOp2
 70
     1
102
RTVSPropertyOp3
 70
     1
102
RTVSPropertyOp4
 70
     1
102
RTVSPropertyOp5
 70
     1
102
RTVSPropertyOp6
 70
     1
102
RTVSPropertyOp7
 70
     1
102
RTVSPropertyOp8
 70
     1
102
RTVSPropertyOp9
 70
     1
102
RTVSPropertyOp10
 70
     1
102
RTVSPropertyOp11
 70
     1
102
RTVSPropertyOp12
 70
     1
102
RTVSPropertyOp13
 70
     1
102
RTVSPropertyOp14
 70
     1
102
RTVSPropertyOp15
 70
     1
102
RTVSPropertyOp16
 70
     1
102
RTVSPropertyOp17
 70
     1
102
RTVSPropertyOp18
 70
     1
102
RTVSPropertyOp19
 70
     1
102
RTVSPropertyOp20
 70
     1
102
RTVSPropertyOp21
 70
     1
102
RTVSPropertyOp22
 70
     1
102
RTVSPropertyOp23
 70
     1
102
RTVSPropertyOp24
 70
     1
102
RTVSPropertyOp25
 70
     1
102
RTVSPropertyOp26
 70
     1
102
RTVSPropertyOp27
 70
     1
102
RTVSPropertyOp28
 70
     1
102
RTVSPropertyOp29
 70
     1
102
RTVSPropertyOp30
 70
     1
102
RTVSPropertyOp31
 70
     1
102
RTVSPropertyOp32
 70
     1
102
RTVSPropertyOp33
 70
     1
102
RTVSPropertyOp34
 70
     1
102
RTVSPropertyOp35
 70
     1
102
RTVSPropertyOp36
 70
     1
102
RTVSPropertyOp37
 70
     1
102
RTVSPropertyOp38
 70
     1
102
RTVSPropertyOp39
 70
     1
102
RTVSPropertyOp40
 70
     1
102
RTVSPropertyOp41
 70
     1
102
RTVSPropertyOp42
 70
     1
102
RTVSPropertyOp43
 70
     1
102
RTVSPropertyOp44
 70
     1
102
RTVSPropertyOp45
 70
     1
102
RTVSPropertyOp46
 70
     1
102
RTVSPropertyOp47
 70
     1
102
RTVSPropertyOp48
 70
     1
102
RTVSPropertyOp49
 70
     1
102
RTVSPropertyOp50
 70
     1
102
RTVSPropertyOp51
 70
     0
102
RTVSPropertyOp52
 70
     0
102
RTVSPropertyOp53
 70
     1
102
RTVSPropertyOp54
 70
     1
102
RTVSPropertyOp55
 70
     1
102
RTVSPropertyOp56
 70
     1
102
RTVSPropertyOp57
 70
     1
102
RTVSPropertyOp58
 70
     1
102
RTVSPropertyOp59
 70
     1
102
RTVSPropertyOp60
 70
     1
102
RTVSPropertyOp61
 70
     1
102
RTVSPropertyOp62
 70
     1
  0
XRECORD
  5
1BC7
102
{ACAD_REACTORS
330
1BC6
102
}
330
1BC6
100
AcDbXrecord
280
     1
102
RTVSPost2010Prop28
280
     0
102
RTVSPost2010PropOp28
 70
     1
102
RTVSPost2010Prop29
280
     1
102
RTVSPost2010PropOp29
 70
     1
102
RTVSPost2010Prop30
280
     1
102
RTVSPost2010PropOp30
 70
     1
102
RTVSPost2010Prop31
280
     0
102
RTVSPost2010PropOp31
 70
     1
102
RTVSPost2010Prop32
280
     0
102
RTVSPost2010PropOp32
 70
     1
102
RTVSPost2010Prop33
280
     0
102
RTVSPost2010PropOp33
 70
     1
102
RTVSPost2010Prop34
280
     0
102
RTVSPost2010PropOp34
 70
     1
102
RTVSPost2010Prop35
280
     0
102
RTVSPost2010PropOp35
 70
     1
102
RTVSPost2010Prop36
280
     0
102
RTVSPost2010PropOp36
 70
     1
102
RTVSPost2010Prop37
 90
       50
102
RTVSPost2010PropOp37
 70
     1
102
RTVSPost2010Prop38
140
0.0
102
RTVSPost2010PropOp38
 70
     1
102
RTVSPost2010Prop39
140
1.0
102
RTVSPost2010PropOp39
 70
     1
102
RTVSPost2010Prop40
 90
        0
102
RTVSPost2010PropOp40
 70
     1
102
RTVSPost2010Prop41ColorIndex
 90
       18
102
RTVSPost2010Prop41ColorRGB
 90
        0
102
RTVSPost2010PropOp41
 70
     1
102
RTVSPost2010Prop42
 90
       50
102
RTVSPost2010PropOp42
 70
     1
102
RTVSPost2010Prop43
 90
        3
102
RTVSPost2010PropOp43
 70
     1
102
RTVSPost2010Prop44ColorIndex
 90
        5
102
RTVSPost2010Prop44ColorRGB
 90
      255
102
RTVSPost2010PropOp44
 70
     1
102
RTVSPost2010Prop45
280
     0
102
RTVSPost2010PropOp45
 70
     1
102
RTVSPost2010Prop46
 90
       50
102
RTVSPost2010PropOp46
 70
     1
102
RTVSPost2010Prop47
 90
       50
102
RTVSPost2010PropOp47
 70
     1
102
RTVSPost2010Prop48
 90
       50
102
RTVSPost2010PropOp48
 70
     1
102
RTVSPost2010Prop49
280
     0
102
RTVSPost2010PropOp49
 70
     1
102
RTVSPost2010Prop50
 90
       50
102
RTVSPost2010PropOp50
 70
     1
102
RTVSPost2010Prop51ColorIndex
 90
      256
102
RTVSPost2010Prop51ColorRGB
 90
-16777216
102
RTVSPost2010PropOp51
 70
     0
102
RTVSPost2010Prop52
140
1.0
102
RTVSPost2010PropOp52
 70
     0
102
RTVSPost2010Prop53
 90
        2
102
RTVSPost2010PropOp53
 70
     1
102
RTVSPost2010Prop54
  1
strokes_ogs.tif
102
RTVSPost2010PropOp54
 70
     1
102
RTVSPost2010Prop55
280
     0
102
RTVSPost2010PropOp55
 70
     1
102
RTVSPost2010Prop56
140
1.0
102
RTVSPost2010PropOp56
 70
     1
102
RTVSPost2010Prop57
140
1.0
102
RTVSPost2010PropOp57
 70
     1
102
RTVSPropertyOp0
 70
     1
102
RTVSPropertyOp1
 70
     1
102
RTVSPropertyOp2
 70
     1
102
RTVSPropertyOp3
 70
     1
102
RTVSPropertyOp4
 70
     1
102
RTVSPropertyOp5
 70
     1
102
RTVSPropertyOp6
 70
     1
102
RTVSPropertyOp7
 70
     1
102
RTVSPropertyOp8
 70
     1
102
RTVSPropertyOp9
 70
     1
102
RTVSPropertyOp10
 70
     1
102
RTVSPropertyOp11
 70
     1
102
RTVSPropertyOp12
 70
     1
102
RTVSPropertyOp13
 70
     1
102
RTVSPropertyOp14
 70
     1
102
RTVSPropertyOp15
 70
     1
102
RTVSPropertyOp16
 70
     1
102
RTVSPropertyOp17
 70
     1
102
RTVSPropertyOp18
 70
     1
102
RTVSPropertyOp19
 70
     1
102
RTVSPropertyOp20
 70
     1
102
RTVSPropertyOp21
 70
     1
102
RTVSPropertyOp22
 70
     1
102
RTVSPropertyOp23
 70
     1
102
RTVSPropertyOp24
 70
     1
102
RTVSPropertyOp25
 70
     1
102
RTVSPropertyOp26
 70
     1
102
RTVSPropertyOp27
 70
     1
102
RTVSPropertyOp28
 70
     1
102
RTVSPropertyOp29
 70
     1
102
RTVSPropertyOp30
 70
     1
102
RTVSPropertyOp31
 70
     1
102
RTVSPropertyOp32
 70
     1
102
RTVSPropertyOp33
 70
     1
102
RTVSPropertyOp34
 70
     1
102
RTVSPropertyOp35
 70
     1
102
RTVSPropertyOp36
 70
     1
102
RTVSPropertyOp37
 70
     1
102
RTVSPropertyOp38
 70
     1
102
RTVSPropertyOp39
 70
     1
102
RTVSPropertyOp40
 70
     1
102
RTVSPropertyOp41
 70
     1
102
RTVSPropertyOp42
 70
     1
102
RTVSPropertyOp43
 70
     1
102
RTVSPropertyOp44
 70
     1
102
RTVSPropertyOp45
 70
     1
102
RTVSPropertyOp46
 70
     1
102
RTVSPropertyOp47
 70
     1
102
RTVSPropertyOp48
 70
     1
102
RTVSPropertyOp49
 70
     1
102
RTVSPropertyOp50
 70
     1
102
RTVSPropertyOp51
 70
     0
102
RTVSPropertyOp52
 70
     0
102
RTVSPropertyOp53
 70
     1
102
RTVSPropertyOp54
 70
     1
102
RTVSPropertyOp55
 70
     1
102
RTVSPropertyOp56
 70
     1
102
RTVSPropertyOp57
 70
     1
102
RTVSPropertyOp58
 70
     1
102
RTVSPropertyOp59
 70
     1
102
RTVSPropertyOp60
 70
     1
102
RTVSPropertyOp61
 70
     1
102
RTVSPropertyOp62
 70
     1
  0
XRECORD
  5
1BDF
102
{ACAD_REACTORS
330
1BDE
102
}
330
1BDE
100
AcDbXrecord
280
     1
102
RTVSPost2010Prop28
280
     0
102
RTVSPost2010PropOp28
 70
     1
102
RTVSPost2010Prop29
280
     1
102
RTVSPost2010PropOp29
 70
     1
102
RTVSPost2010Prop30
280
     1
102
RTVSPost2010PropOp30
 70
     1
102
RTVSPost2010Prop31
280
     0
102
RTVSPost2010PropOp31
 70
     1
102
RTVSPost2010Prop32
280
     0
102
RTVSPost2010PropOp32
 70
     1
102
RTVSPost2010Prop33
280
     0
102
RTVSPost2010PropOp33
 70
     1
102
RTVSPost2010Prop34
280
     0
102
RTVSPost2010PropOp34
 70
     1
102
RTVSPost2010Prop35
280
     0
102
RTVSPost2010PropOp35
 70
     1
102
RTVSPost2010Prop36
280
     0
102
RTVSPost2010PropOp36
 70
     1
102
RTVSPost2010Prop37
 90
       50
102
RTVSPost2010PropOp37
 70
     1
102
RTVSPost2010Prop38
140
0.0
102
RTVSPost2010PropOp38
 70
     1
102
RTVSPost2010Prop39
140
1.0
102
RTVSPost2010PropOp39
 70
     1
102
RTVSPost2010Prop40
 90
        0
102
RTVSPost2010PropOp40
 70
     1
102
RTVSPost2010Prop41ColorIndex
 90
       18
102
RTVSPost2010Prop41ColorRGB
 90
        0
102
RTVSPost2010PropOp41
 70
     1
102
RTVSPost2010Prop42
 90
       50
102
RTVSPost2010PropOp42
 70
     1
102
RTVSPost2010Prop43
 90
        3
102
RTVSPost2010PropOp43
 70
     1
102
RTVSPost2010Prop44ColorIndex
 90
        5
102
RTVSPost2010Prop44ColorRGB
 90
      255
102
RTVSPost2010PropOp44
 70
     1
102
RTVSPost2010Prop45
280
     0
102
RTVSPost2010PropOp45
 70
     1
102
RTVSPost2010Prop46
 90
       50
102
RTVSPost2010PropOp46
 70
     1
102
RTVSPost2010Prop47
 90
       50
102
RTVSPost2010PropOp47
 70
     1
102
RTVSPost2010Prop48
 90
       50
102
RTVSPost2010PropOp48
 70
     1
102
RTVSPost2010Prop49
280
     0
102
RTVSPost2010PropOp49
 70
     1
102
RTVSPost2010Prop50
 90
       50
102
RTVSPost2010PropOp50
 70
     1
102
RTVSPost2010Prop51ColorIndex
 90
      256
102
RTVSPost2010Prop51ColorRGB
 90
-16777216
102
RTVSPost2010PropOp51
 70
     0
102
RTVSPost2010Prop52
140
1.0
102
RTVSPost2010PropOp52
 70
     0
102
RTVSPost2010Prop53
 90
        2
102
RTVSPost2010PropOp53
 70
     1
102
RTVSPost2010Prop54
  1
strokes_ogs.tif
102
RTVSPost2010PropOp54
 70
     1
102
RTVSPost2010Prop55
280
     0
102
RTVSPost2010PropOp55
 70
     1
102
RTVSPost2010Prop56
140
1.0
102
RTVSPost2010PropOp56
 70
     1
102
RTVSPost2010Prop57
140
1.0
102
RTVSPost2010PropOp57
 70
     1
102
RTVSPropertyOp0
 70
     1
102
RTVSPropertyOp1
 70
     1
102
RTVSPropertyOp2
 70
     1
102
RTVSPropertyOp3
 70
     1
102
RTVSPropertyOp4
 70
     1
102
RTVSPropertyOp5
 70
     1
102
RTVSPropertyOp6
 70
     1
102
RTVSPropertyOp7
 70
     1
102
RTVSPropertyOp8
 70
     1
102
RTVSPropertyOp9
 70
     1
102
RTVSPropertyOp10
 70
     1
102
RTVSPropertyOp11
 70
     1
102
RTVSPropertyOp12
 70
     1
102
RTVSPropertyOp13
 70
     1
102
RTVSPropertyOp14
 70
     1
102
RTVSPropertyOp15
 70
     1
102
RTVSPropertyOp16
 70
     1
102
RTVSPropertyOp17
 70
     1
102
RTVSPropertyOp18
 70
     1
102
RTVSPropertyOp19
 70
     1
102
RTVSPropertyOp20
 70
     1
102
RTVSPropertyOp21
 70
     1
102
RTVSPropertyOp22
 70
     1
102
RTVSPropertyOp23
 70
     1
102
RTVSPropertyOp24
 70
     1
102
RTVSPropertyOp25
 70
     1
102
RTVSPropertyOp26
 70
     1
102
RTVSPropertyOp27
 70
     1
102
RTVSPropertyOp28
 70
     1
102
RTVSPropertyOp29
 70
     1
102
RTVSPropertyOp30
 70
     1
102
RTVSPropertyOp31
 70
     1
102
RTVSPropertyOp32
 70
     1
102
RTVSPropertyOp33
 70
     1
102
RTVSPropertyOp34
 70
     1
102
RTVSPropertyOp35
 70
     1
102
RTVSPropertyOp36
 70
     1
102
RTVSPropertyOp37
 70
     1
102
RTVSPropertyOp38
 70
     1
102
RTVSPropertyOp39
 70
     1
102
RTVSPropertyOp40
 70
     1
102
RTVSPropertyOp41
 70
     1
102
RTVSPropertyOp42
 70
     1
102
RTVSPropertyOp43
 70
     1
102
RTVSPropertyOp44
 70
     1
102
RTVSPropertyOp45
 70
     1
102
RTVSPropertyOp46
 70
     1
102
RTVSPropertyOp47
 70
     1
102
RTVSPropertyOp48
 70
     1
102
RTVSPropertyOp49
 70
     1
102
RTVSPropertyOp50
 70
     1
102
RTVSPropertyOp51
 70
     0
102
RTVSPropertyOp52
 70
     0
102
RTVSPropertyOp53
 70
     1
102
RTVSPropertyOp54
 70
     1
102
RTVSPropertyOp55
 70
     1
102
RTVSPropertyOp56
 70
     1
102
RTVSPropertyOp57
 70
     1
102
RTVSPropertyOp58
 70
     1
102
RTVSPropertyOp59
 70
     1
102
RTVSPropertyOp60
 70
     1
102
RTVSPropertyOp61
 70
     1
102
RTVSPropertyOp62
 70
     1
  0
ENDSEC
  0
EOF
