  0
SECTION
  2
HEADER
  9
$ACADVER
  1
AC1015
  9
$ACADMAINTVER
 70
    20
  9
$DWGCODEPAGE
  3
ANSI_932
  9
$INSBASE
 10
0.0
 20
0.0
 30
0.0
  9
$EXTMIN
 10
10.0
 20
9.999999999999998
 30
0.0
  9
$EXTMAX
 10
290.1139658081802
 20
235.2295617871575
 30
0.0
  9
$LIMMIN
 10
0.0
 20
0.0
  9
$LIMMAX
 10
396.0000017442092
 20
272.9999985202887
  9
$ORTHOMODE
 70
     1
  9
$REGENMODE
 70
     1
  9
$FILLMODE
 70
     1
  9
$QTEXTMODE
 70
     0
  9
$MIRRTEXT
 70
     1
  9
$LTSCALE
 40
20.0
  9
$ATTMODE
 70
     1
  9
$TEXTSIZE
 40
5.0
  9
$TRACEWID
 40
1.0
  9
$TEXTSTYLE
  7
STANDARD
  9
$CLAYER
  8
0
  9
$CELTYPE
  6
BYLAYER
  9
$CECOLOR
 62
   256
  9
$CELTSCALE
 40
1.0
  9
$DISPSILH
 70
     0
  9
$DIMSCALE
 40
1.0
  9
$DIMASZ
 40
3.0
  9
$DIMEXO
 40
1.0
  9
$DIMDLI
 40
10.0
  9
$DIMRND
 40
0.0
  9
$DIMDLE
 40
0.0
  9
$DIMEXE
 40
1.0
  9
$DIMTP
 40
0.0
  9
$DIMTM
 40
0.0
  9
$DIMTXT
 40
3.2
  9
$DIMCEN
 40
0.0
  9
$DIMTSZ
 40
0.0
  9
$DIMTOL
 70
     0
  9
$DIMLIM
 70
     0
  9
$DIMTIH
 70
     0
  9
$DIMTOH
 70
     0
  9
$DIMSE1
 70
     0
  9
$DIMSE2
 70
     0
  9
$DIMTAD
 70
     3
  9
$DIMZIN
 70
     8
  9
$DIMBLK
  1
OPEN30
  9
$DIMASO
 70
     1
  9
$DIMSHO
 70
     1
  9
$DIMPOST
  1

  9
$DIMAPOST
  1

  9
$DIMALT
 70
     0
  9
$DIMALTD
 70
     2
  9
$DIMALTF
 40
25.4
  9
$DIMLFAC
 40
1.0
  9
$DIMTOFL
 70
     1
  9
$DIMTVP
 40
0.0
  9
$DIMTIX
 70
     0
  9
$DIMSOXD
 70
     0
  9
$DIMSAH
 70
     1
  9
$DIMBLK1
  1
OPEN
  9
$DIMBLK2
  1
OPEN
  9
$DIMSTYLE
  2
STANDARD
  9
$DIMCLRD
 70
     0
  9
$DIMCLRE
 70
     0
  9
$DIMCLRT
 70
     0
  9
$DIMTFAC
 40
1.0
  9
$DIMGAP
 40
1.0
  9
$DIMJUST
 70
     0
  9
$DIMSD1
 70
     0
  9
$DIMSD2
 70
     0
  9
$DIMTOLJ
 70
     1
  9
$DIMTZIN
 70
     0
  9
$DIMALTZ
 70
     0
  9
$DIMALTTZ
 70
     0
  9
$DIMUPT
 70
     0
  9
$DIMDEC
 70
     4
  9
$DIMTDEC
 70
     4
  9
$DIMALTU
 70
     2
  9
$DIMALTTD
 70
     2
  9
$DIMTXSTY
  7
STANDARD
  9
$DIMAUNIT
 70
     0
  9
$DIMADEC
 70
     0
  9
$DIMALTRND
 40
0.0
  9
$DIMAZIN
 70
     0
  9
$DIMDSEP
 70
    46
  9
$DIMATFIT
 70
     3
  9
$DIMFRAC
 70
     0
  9
$DIMLDRBLK
  1
OPEN
  9
$DIMLUNIT
 70
     2
  9
$DIMLWD
 70
    -2
  9
$DIMLWE
 70
    -2
  9
$DIMTMOVE
 70
     0
  9
$LUNITS
 70
     2
  9
$LUPREC
 70
     4
  9
$SKETCHINC
 40
1.0
  9
$FILLETRAD
 40
0.0
  9
$AUNITS
 70
     0
  9
$AUPREC
 70
     2
  9
$MENU
  1
.
  9
$ELEVATION
 40
0.0
  9
$PELEVATION
 40
0.0
  9
$THICKNESS
 40
0.0
  9
$LIMCHECK
 70
     0
  9
$CHAMFERA
 40
1.0
  9
$CHAMFERB
 40
1.0
  9
$CHAMFERC
 40
0.0
  9
$CHAMFERD
 40
0.0
  9
$SKPOLY
 70
     0
  9
$TDCREATE
 40
2451066.652925463
  9
$TDUCREATE
 40
2451066.277925463
  9
$TDUPDATE
 40
2457192.601626019
  9
$TDUUPDATE
 40
2457192.226626018
  9
$TDINDWG
 40
0.1967887847
  9
$TDUSRTIMER
 40
0.1967884722
  9
$USRTIMER
 70
     1
  9
$ANGBASE
 50
0.0
  9
$ANGDIR
 70
     0
  9
$PDMODE
 70
     0
  9
$PDSIZE
 40
0.0
  9
$PLINEWID
 40
0.0
  9
$SPLFRAME
 70
     0
  9
$SPLINETYPE
 70
     6
  9
$SPLINESEGS
 70
     8
  9
$HANDSEED
  5
C381
  9
$SURFTAB1
 70
     6
  9
$SURFTAB2
 70
     6
  9
$SURFTYPE
 70
     6
  9
$SURFU
 70
     6
  9
$SURFV
 70
     6
  9
$UCSBASE
  2

  9
$UCSNAME
  2

  9
$UCSORG
 10
0.0
 20
0.0
 30
0.0
  9
$UCSXDIR
 10
1.0
 20
0.0
 30
0.0
  9
$UCSYDIR
 10
0.0
 20
1.0
 30
0.0
  9
$UCSORTHOREF
  2

  9
$UCSORTHOVIEW
 70
     0
  9
$UCSORGTOP
 10
0.0
 20
0.0
 30
0.0
  9
$UCSORGBOTTOM
 10
0.0
 20
0.0
 30
0.0
  9
$UCSORGLEFT
 10
0.0
 20
0.0
 30
0.0
  9
$UCSORGRIGHT
 10
0.0
 20
0.0
 30
0.0
  9
$UCSORGFRONT
 10
0.0
 20
0.0
 30
0.0
  9
$UCSORGBACK
 10
0.0
 20
0.0
 30
0.0
  9
$PUCSBASE
  2

  9
$PUCSNAME
  2

  9
$PUCSORG
 10
0.0
 20
0.0
 30
0.0
  9
$PUCSXDIR
 10
1.0
 20
0.0
 30
0.0
  9
$PUCSYDIR
 10
0.0
 20
1.0
 30
0.0
  9
$PUCSORTHOREF
  2

  9
$PUCSORTHOVIEW
 70
     0
  9
$PUCSORGTOP
 10
0.0
 20
0.0
 30
0.0
  9
$PUCSORGBOTTOM
 10
0.0
 20
0.0
 30
0.0
  9
$PUCSORGLEFT
 10
0.0
 20
0.0
 30
0.0
  9
$PUCSORGRIGHT
 10
0.0
 20
0.0
 30
0.0
  9
$PUCSORGFRONT
 10
0.0
 20
0.0
 30
0.0
  9
$PUCSORGBACK
 10
0.0
 20
0.0
 30
0.0
  9
$USERI1
 70
     0
  9
$USERI2
 70
     0
  9
$USERI3
 70
     0
  9
$USERI4
 70
     0
  9
$USERI5
 70
     0
  9
$USERR1
 40
0.0
  9
$USERR2
 40
0.0
  9
$USERR3
 40
0.0
  9
$USERR4
 40
0.0
  9
$USERR5
 40
0.0
  9
$WORLDVIEW
 70
     1
  9
$SHADEDGE
 70
     3
  9
$SHADEDIF
 70
    70
  9
$TILEMODE
 70
     1
  9
$MAXACTVP
 70
    16
  9
$PINSBASE
 10
0.0
 20
0.0
 30
0.0
  9
$PLIMCHECK
 70
     0
  9
$PEXTMIN
 10
1.000000000000000E+20
 20
1.000000000000000E+20
 30
1.000000000000000E+20
  9
$PEXTMAX
 10
-1.000000000000000E+20
 20
-1.000000000000000E+20
 30
-1.000000000000000E+20
  9
$PLIMMIN
 10
0.0
 20
0.0
  9
$PLIMMAX
 10
420.0
 20
297.0
  9
$UNITMODE
 70
     0
  9
$VISRETAIN
 70
     0
  9
$PLINEGEN
 70
     0
  9
$PSLTSCALE
 70
     0
  9
$TREEDEPTH
 70
  3020
  9
$CMLSTYLE
  2
STANDARD
  9
$CMLJUST
 70
     0
  9
$CMLSCALE
 40
1.0
  9
$PROXYGRAPHICS
 70
     1
  9
$MEASUREMENT
 70
     0
  9
$CELWEIGHT
370
    -1
  9
$ENDCAPS
280
     0
  9
$JOINSTYLE
280
     0
  9
$LWDISPLAY
290
     0
  9
$INSUNITS
 70
     0
  9
$HYPERLINKBASE
  1

  9
$STYLESHEET
  1

  9
$XEDIT
290
     1
  9
$CEPSNTYPE
380
     0
  9
$PSTYLEMODE
290
     1
  9
$FINGERPRINTGUID
  2
{4C599356-844E-48C3-B8E9-C7B59D2FA942}
  9
$VERSIONGUID
  2
{7FB6BCB8-7D69-4186-B685-B1141B6EE448}
  9
$EXTNAMES
290
     1
  9
$PSVPSCALE
 40
0.0
  9
$OLESTARTUP
290
     0
  0
ENDSEC
  0
SECTION
  2
CLASSES
  0
CLASS
  1
ACDBDICTIONARYWDFLT
  2
AcDbDictionaryWithDefault
  3
ObjectDBX Classes
 90
        0
280
     0
281
     0
  0
CLASS
  1
ACDBPLACEHOLDER
  2
AcDbPlaceHolder
  3
ObjectDBX Classes
 90
        0
280
     0
281
     0
  0
CLASS
  1
LAYOUT
  2
AcDbLayout
  3
ObjectDBX Classes
 90
        0
280
     0
281
     0
  0
CLASS
  1
DICTIONARYVAR
  2
AcDbDictionaryVar
  3
ObjectDBX Classes
 90
        0
280
     0
281
     0
  0
CLASS
  1
MATERIAL
  2
AcDbMaterial
  3
ObjectDBX Classes
 90
     1153
280
     0
281
     0
  0
CLASS
  1
VISUALSTYLE
  2
AcDbVisualStyle
  3
ObjectDBX Classes
 90
     4095
280
     0
281
     0
  0
CLASS
  1
TABLESTYLE
  2
AcDbTableStyle
  3
ObjectDBX Classes
 90
     4095
280
     0
281
     0
  0
CLASS
  1
SCALE
  2
AcDbScale
  3
ObjectDBX Classes
 90
     1153
280
     0
281
     0
  0
CLASS
  1
MLEADERSTYLE
  2
AcDbMLeaderStyle
  3
ACDB_MLEADERSTYLE_CLASS
 90
     4095
280
     0
281
     0
  0
CLASS
  1
ACDBSECTIONVIEWSTYLE
  2
AcDbSectionViewStyle
  3
ObjectDBX Classes
 90
     1025
280
     0
281
     0
  0
CLASS
  1
ACDBDETAILVIEWSTYLE
  2
AcDbDetailViewStyle
  3
ObjectDBX Classes
 90
     1025
280
     0
281
     0
  0
CLASS
  1
CELLSTYLEMAP
  2
AcDbCellStyleMap
  3
ObjectDBX Classes
 90
     1152
280
     0
281
     0
  0
ENDSEC
  0
SECTION
  2
TABLES
  0
TABLE
  2
VPORT
  5
BFD1
330
0
100
AcDbSymbolTable
 70
     1
  0
VPORT
  5
C2CA
330
BFD1
100
AcDbSymbolTableRecord
100
AcDbViewportTableRecord
  2
*ACTIVE
 70
     0
 10
0.0
 20
0.0
 11
1.0
 21
1.0
 12
218.2793483753727
 22
122.617973282491
 13
0.0
 23
0.0
 14
10.0
 24
10.0
 15
10.0
 25
10.0
 16
0.0
 26
0.0
 36
1.0
 17
0.0
 27
0.0
 37
0.0
 40
227.7768646516635
 41
1.899603698811096
 42
50.0
 43
0.0
 44
0.0
 50
0.0
 51
0.0
 71
     0
 72
   100
 73
     1
 74
     0
 75
     0
 76
     0
 77
     0
 78
     0
281
     0
 65
     1
110
0.0
120
0.0
130
0.0
111
1.0
121
0.0
131
0.0
112
0.0
122
1.0
132
0.0
 79
     0
146
0.0
1001
ACAD_NAV_VCDISPLAY
1070
     3
  0
ENDTAB
  0
TABLE
  2
LTYPE
  5
BFCE
330
0
100
AcDbSymbolTable
 70
     4
  0
LTYPE
  5
BFDC
330
BFCE
100
AcDbSymbolTableRecord
100
AcDbLinetypeTableRecord
  2
BYBLOCK
 70
     0
  3

 72
    65
 73
     0
 40
0.0
  0
LTYPE
  5
BFDD
330
BFCE
100
AcDbSymbolTableRecord
100
AcDbLinetypeTableRecord
  2
BYLAYER
 70
     0
  3

 72
    65
 73
     0
 40
0.0
  0
LTYPE
  5
BFDE
330
BFCE
100
AcDbSymbolTableRecord
100
AcDbLinetypeTableRecord
  2
CONTINUOUS
 70
     0
  3
Solid line
 72
    65
 73
     0
 40
0.0
  0
LTYPE
  5
BFEC
330
BFCE
100
AcDbSymbolTableRecord
100
AcDbLinetypeTableRecord
  2
DASHED
 70
     0
  3
__ __ __ __ __ __ __ __ __ __ __ __ __ __ __ __
 72
    65
 73
     2
 40
0.75
 49
0.5
 74
     0
 49
-0.25
 74
     0
  0
LTYPE
  5
BFED
330
BFCE
100
AcDbSymbolTableRecord
100
AcDbLinetypeTableRecord
  2
CENTER
 70
     0
  3
____ _ ____ _ ____ _ ____ _ ____ _ ____ _ ____ 
 72
    65
 73
     4
 40
2.0
 49
1.25
 74
     0
 49
-0.25
 74
     0
 49
0.25
 74
     0
 49
-0.25
 74
     0
  0
LTYPE
  5
BFEE
330
BFCE
100
AcDbSymbolTableRecord
100
AcDbLinetypeTableRecord
  2
PHANTOM
 70
     0
  3
______  __  __  ______  __  __  ______  __  __ 
 72
    65
 73
     6
 40
2.5
 49
1.25
 74
     0
 49
-0.25
 74
     0
 49
0.25
 74
     0
 49
-0.25
 74
     0
 49
0.25
 74
     0
 49
-0.25
 74
     0
  0
ENDTAB
  0
TABLE
  2
LAYER
  5
BFCB
330
0
100
AcDbSymbolTable
 70
     8
  0
LAYER
  5
BFD9
102
{ACAD_XDICTIONARY
360
C325
102
}
330
BFCB
100
AcDbSymbolTableRecord
100
AcDbLayerTableRecord
  2
0
 70
     0
 62
     7
  6
CONTINUOUS
370
    -3
390
C2D3
  0
LAYER
  5
BFEF
102
{ACAD_XDICTIONARY
360
C327
102
}
330
BFCB
100
AcDbSymbolTableRecord
100
AcDbLayerTableRecord
  2
4
 70
     0
 62
     1
  6
CENTER
370
    -3
390
C2D3
  0
LAYER
  5
BFF0
102
{ACAD_XDICTIONARY
360
C329
102
}
330
BFCB
100
AcDbSymbolTableRecord
100
AcDbLayerTableRecord
  2
5
 70
     0
 62
     6
  6
PHANTOM
370
    -3
390
C2D3
  0
LAYER
  5
BFF1
102
{ACAD_XDICTIONARY
360
C32B
102
}
330
BFCB
100
AcDbSymbolTableRecord
100
AcDbLayerTableRecord
  2
1
 70
     0
 62
     7
  6
CONTINUOUS
370
    -3
390
C2D3
  0
LAYER
  5
BFF2
102
{ACAD_XDICTIONARY
360
C32D
102
}
330
BFCB
100
AcDbSymbolTableRecord
100
AcDbLayerTableRecord
  2
2
 70
     0
 62
     4
  6
CONTINUOUS
370
    -3
390
C2D3
  0
LAYER
  5
BFF3
102
{ACAD_XDICTIONARY
360
C32F
102
}
330
BFCB
100
AcDbSymbolTableRecord
100
AcDbLayerTableRecord
  2
3
 70
     0
 62
     2
  6
DASHED
370
    -3
390
C2D3
  0
LAYER
  5
BFF4
102
{ACAD_XDICTIONARY
360
C331
102
}
330
BFCB
100
AcDbSymbolTableRecord
100
AcDbLayerTableRecord
  2
6
 70
     0
 62
     5
  6
CONTINUOUS
370
    -3
390
C2D3
  0
LAYER
  5
BFF5
102
{ACAD_XDICTIONARY
360
C333
102
}
330
BFCB
100
AcDbSymbolTableRecord
100
AcDbLayerTableRecord
  2
7
 70
     0
 62
     3
  6
CONTINUOUS
370
    -3
390
C2D3
  0
ENDTAB
  0
TABLE
  2
STYLE
  5
BFCC
330
0
100
AcDbSymbolTable
 70
     1
  0
STYLE
  5
BFDA
330
BFCC
100
AcDbSymbolTableRecord
100
AcDbTextStyleTableRecord
  2
STANDARD
 70
     0
 40
0.0
 41
1.0
 50
0.0
 71
     0
 42
5.0
  3
txt
  4

  0
ENDTAB
  0
TABLE
  2
VIEW
  5
BFCF
330
0
100
AcDbSymbolTable
 70
     0
  0
ENDTAB
  0
TABLE
  2
UCS
  5
BFD0
330
0
100
AcDbSymbolTable
 70
     0
  0
ENDTAB
  0
TABLE
  2
APPID
  5
BFD2
330
0
100
AcDbSymbolTable
 70
     7
  0
APPID
  5
BFDB
330
BFD2
100
AcDbSymbolTableRecord
100
AcDbRegAppTableRecord
  2
ACAD
 70
     0
  0
APPID
  5
BFF6
330
BFD2
100
AcDbSymbolTableRecord
100
AcDbRegAppTableRecord
  2
CONTENTTABDATA
 70
     0
  0
APPID
  5
BFF7
330
BFD2
100
AcDbSymbolTableRecord
100
AcDbRegAppTableRecord
  2
CONTENTCURRENTTAB
 70
     0
  0
APPID
  5
BFF8
330
BFD2
100
AcDbSymbolTableRecord
100
AcDbRegAppTableRecord
  2
CONTENTBLOCKICON
 70
     0
  0
APPID
  5
BFF9
330
BFD2
100
AcDbSymbolTableRecord
100
AcDbRegAppTableRecord
  2
CONTENTBLOCKDESCRIPTION
 70
     0
  0
APPID
  5
C33F
330
BFD2
100
AcDbSymbolTableRecord
100
AcDbRegAppTableRecord
  2
ACAD_NAV_VCDISPLAY
 70
     0
  0
APPID
  5
C378
330
BFD2
100
AcDbSymbolTableRecord
100
AcDbRegAppTableRecord
  2
ACAD_MLEADERVER
 70
     0
  0
ENDTAB
  0
TABLE
  2
DIMSTYLE
  5
BFD3
330
0
100
AcDbSymbolTable
 70
     1
100
AcDbDimStyleTable
 71
     0
  0
DIMSTYLE
105
BFFB
330
BFD3
100
AcDbSymbolTableRecord
100
AcDbDimStyleTableRecord
  2
STANDARD
 70
     0
 41
3.0
 42
1.0
 43
10.0
 44
1.0
 73
     0
 74
     0
 77
     3
 78
     8
140
3.2
141
0.0
147
1.0
172
     1
173
     1
284
     8
285
     8
286
     8
340
BFDA
  0
ENDTAB
  0
TABLE
  2
BLOCK_RECORD
  5
BFCA
330
0
100
AcDbSymbolTable
 70
     2
  0
BLOCK_RECORD
  5
BFE7
102
{ACAD_XDICTIONARY
360
C2CD
102
}
330
BFCA
100
AcDbSymbolTableRecord
100
AcDbBlockTableRecord
  2
*MODEL_SPACE
340
C321
  0
BLOCK_RECORD
  5
BFE3
102
{ACAD_XDICTIONARY
360
C2CB
102
}
330
BFCA
100
AcDbSymbolTableRecord
100
AcDbBlockTableRecord
  2
*PAPER_SPACE
340
C322
  0
BLOCK_RECORD
  5
C00A
330
BFCA
100
AcDbSymbolTableRecord
100
AcDbBlockTableRecord
  2
_OPEN30
340
0
  0
BLOCK_RECORD
  5
C010
330
BFCA
100
AcDbSymbolTableRecord
100
AcDbBlockTableRecord
  2
_OPEN
340
0
  0
ENDTAB
  0
ENDSEC
  0
SECTION
  2
BLOCKS
  0
BLOCK
  5
BFE8
330
BFE7
100
AcDbEntity
  8
0
100
AcDbBlockBegin
  2
*MODEL_SPACE
 70
     0
 10
0.0
 20
0.0
 30
0.0
  3
*MODEL_SPACE
  1

  0
ENDBLK
  5
BFE9
330
BFE7
100
AcDbEntity
  8
0
100
AcDbBlockEnd
  0
BLOCK
  5
BFE4
330
BFE3
100
AcDbEntity
 67
     1
  8
0
100
AcDbBlockBegin
  2
*PAPER_SPACE
 70
     0
 10
0.0
 20
0.0
 30
0.0
  3
*PAPER_SPACE
  1

  0
ENDBLK
  5
BFE5
330
BFE3
100
AcDbEntity
 67
     1
  8
0
100
AcDbBlockEnd
  0
BLOCK
  5
C00B
330
C00A
100
AcDbEntity
  8
0
100
AcDbBlockBegin
  2
_OPEN30
 70
     0
 10
0.0
 20
0.0
 30
0.0
  3
_OPEN30
  1

  0
LINE
  5
C00C
330
C00A
100
AcDbEntity
  8
0
  6
ByBlock
 62
     0
100
AcDbLine
 10
-1.0
 20
0.26794919
 30
0.0
 11
0.0
 21
0.0
 31
0.0
  0
LINE
  5
C00D
330
C00A
100
AcDbEntity
  8
0
  6
ByBlock
 62
     0
100
AcDbLine
 10
0.0
 20
0.0
 30
0.0
 11
-1.0
 21
-0.26794919
 31
0.0
  0
LINE
  5
C00E
330
C00A
100
AcDbEntity
  8
0
  6
ByBlock
 62
     0
100
AcDbLine
 10
0.0
 20
0.0
 30
0.0
 11
-1.0
 21
0.0
 31
0.0
  0
ENDBLK
  5
C00F
330
C00A
100
AcDbEntity
  8
0
100
AcDbBlockEnd
  0
BLOCK
  5
C011
330
C010
100
AcDbEntity
  8
0
100
AcDbBlockBegin
  2
_OPEN
 70
     0
 10
0.0
 20
0.0
 30
0.0
  3
_OPEN
  1

  0
LINE
  5
C012
330
C010
100
AcDbEntity
  8
0
  6
ByBlock
 62
     0
100
AcDbLine
 10
-1.0
 20
0.1666666666666666
 30
0.0
 11
0.0
 21
0.0
 31
0.0
  0
LINE
  5
C013
330
C010
100
AcDbEntity
  8
0
  6
ByBlock
 62
     0
100
AcDbLine
 10
0.0
 20
0.0
 30
0.0
 11
-1.0
 21
-0.1666666666666666
 31
0.0
  0
LINE
  5
C014
330
C010
100
AcDbEntity
  8
0
  6
ByBlock
 62
     0
100
AcDbLine
 10
0.0
 20
0.0
 30
0.0
 11
-1.0
 21
0.0
 31
0.0
  0
ENDBLK
  5
C015
330
C010
100
AcDbEntity
  8
0
100
AcDbBlockEnd
  0
ENDSEC
  0
SECTION
  2
ENTITIES
  0
TEXT
  5
C016
330
BFE7
100
AcDbEntity
  8
7
  6
Continuous
100
AcDbText
 10
10.0
 20
18.0
 30
0.0
 40
3.0
  1
TYPE No.TL-32A
100
AcDbText
  0
TEXT
  5
C017
330
BFE7
100
AcDbEntity
  8
7
  6
Continuous
100
AcDbText
 10
10.0
 20
26.0
 30
0.0
 40
3.0
  1
CODE No.1204
100
AcDbText
  0
TEXT
  5
C018
330
BFE7
100
AcDbEntity
  8
1
  6
Continuous
100
AcDbText
 10
10.0
 20
10.0
 30
0.0
 40
1.399999999999999
  1
LAYER
100
AcDbText
  0
TEXT
  5
C019
330
BFE7
100
AcDbEntity
  8
1
  6
Continuous
100
AcDbText
 10
17.97951099999998
 20
10.04873699999998
 30
0.0
 40
1.399999999999999
  1
1
100
AcDbText
  0
TEXT
  5
C01A
330
BFE7
100
AcDbEntity
  8
7
  6
Continuous
100
AcDbText
 10
29.97951099999999
 20
10.04873699999998
 30
0.0
 40
1.399999999999999
  1
7
100
AcDbText
  0
TEXT
  5
C01B
330
BFE7
100
AcDbEntity
  8
4
  6
CENTER
100
AcDbText
 10
23.97951099999999
 20
10.04873699999998
 30
0.0
 40
1.399999999999999
  1
4
100
AcDbText
  0
TEXT
  5
C01C
330
BFE7
100
AcDbEntity
  8
3
  6
DASHED
100
AcDbText
 10
21.979511
 20
10.04873699999998
 30
0.0
 40
1.399999999999999
  1
3
100
AcDbText
  0
TEXT
  5
C01D
330
BFE7
100
AcDbEntity
  8
2
  6
Continuous
100
AcDbText
 10
19.97951099999999
 20
10.04873699999998
 30
0.0
 40
1.399999999999999
  1
2
100
AcDbText
  0
TEXT
  5
C01E
330
BFE7
100
AcDbEntity
  8
6
  6
Continuous
100
AcDbText
 10
27.979511
 20
10.04873699999998
 30
0.0
 40
1.399999999999999
  1
6
100
AcDbText
  0
TEXT
  5
C01F
330
BFE7
100
AcDbEntity
  8
5
  6
PHANTOM
100
AcDbText
 10
25.97951099999999
 20
10.04873699999998
 30
0.0
 40
1.399999999999999
  1
5
100
AcDbText
  0
LINE
  5
C020
330
BFE7
100
AcDbEntity
  8
1
  6
Continuous
100
AcDbLine
 10
37.57763843596404
 20
124.9609472767605
 30
0.0
 11
37.57763843596404
 21
123.5749762767604
 31
0.0
  0
LINE
  5
C021
330
BFE7
100
AcDbEntity
  8
1
  6
Continuous
100
AcDbLine
 10
37.57763843596404
 20
124.2710362767605
 30
0.0
 11
35.81762843596404
 21
124.2710362767605
 31
0.0
  0
LINE
  5
C022
330
BFE7
100
AcDbEntity
  8
1
  6
Continuous
100
AcDbLine
 10
36.34048643596407
 20
126.0898842767605
 30
0.0
 11
36.34048643596407
 21
125.1301972767604
 31
0.0
  0
LINE
  5
C023
330
BFE7
100
AcDbEntity
  8
1
  6
Continuous
100
AcDbLine
 10
37.61270243596408
 20
125.6020752767605
 30
0.0
 11
35.81123843596407
 21
124.9356632767604
 31
0.0
  0
LINE
  5
C024
330
BFE7
100
AcDbEntity
  8
1
  6
Continuous
100
AcDbLine
 10
37.57763843596404
 20
127.5710392767605
 30
0.0
 11
35.81762843596404
 21
127.5710392767605
 31
0.0
  0
LINE
  5
C025
330
BFE7
100
AcDbEntity
  8
1
  6
Continuous
100
AcDbLine
 10
37.57763843596404
 20
127.5710392767605
 30
0.0
 11
37.57763843596404
 21
126.8944952767604
 31
0.0
  0
LINE
  5
C026
330
BFE7
100
AcDbEntity
  8
1
  6
Continuous
100
AcDbLine
 10
37.60949843596404
 20
125.6020912767604
 30
0.0
 11
35.81121543596408
 21
126.3003182767605
 31
0.0
  0
LINE
  5
C027
330
BFE7
100
AcDbEntity
  8
1
  6
Continuous
100
AcDbLine
 10
36.69763343596406
 20
127.5710392767605
 30
0.0
 11
36.69763343596406
 21
126.8815862767604
 31
0.0
  0
LINE
  5
C028
330
BFE7
100
AcDbEntity
  8
1
  6
Continuous
100
AcDbLine
 10
34.19597043596406
 20
121.9583992767605
 30
0.0
 11
34.19597043596406
 21
120.7723332767606
 31
0.0
  0
LINE
  5
C029
330
BFE7
100
AcDbEntity
  8
1
  6
Continuous
100
AcDbLine
 10
34.19597043596406
 20
121.9583992767605
 30
0.0
 11
33.05329243596407
 21
121.9583992767605
 31
0.0
  0
LINE
  5
C02A
330
BFE7
100
AcDbEntity
  8
1
  6
Continuous
100
AcDbLine
 10
33.59386543596406
 20
120.4254092767605
 30
0.0
 11
32.81807043596403
 21
120.4254092767605
 31
0.0
  0
LINE
  5
C02B
330
BFE7
100
AcDbEntity
  8
1
  6
Continuous
100
AcDbLine
 10
34.20746743596405
 20
127.2216132767604
 30
0.0
 11
33.75079443596405
 21
127.2216132767604
 31
0.0
  0
LINE
  5
C02C
330
BFE7
100
AcDbEntity
  8
1
  6
Continuous
100
AcDbLine
 10
32.20746743596405
 20
126.5941262767605
 30
0.0
 11
34.20746743596405
 21
126.0046942767605
 31
0.0
  0
LINE
  5
C02D
330
BFE7
100
AcDbEntity
  8
1
  6
Continuous
100
AcDbLine
 10
34.20746743596405
 20
127.2216132767604
 30
0.0
 11
34.20746743596405
 21
126.0046942767605
 31
0.0
  0
LINE
  5
C02E
330
BFE7
100
AcDbEntity
  8
1
  6
Continuous
100
AcDbLine
 10
33.60370043596407
 20
127.6684512767605
 30
0.0
 11
32.82790543596405
 21
127.6684512767605
 31
0.0
  0
LINE
  5
C02F
330
BFE7
100
AcDbEntity
  8
1
  6
Continuous
100
AcDbLine
 10
38.24809443596405
 20
133.3194372767605
 30
0.0
 11
35.14717243596405
 21
133.3194372767605
 31
0.0
  0
LINE
  5
C030
330
BFE7
100
AcDbEntity
  8
1
  6
Continuous
100
AcDbLine
 10
38.21110643596404
 20
133.7633302767605
 30
0.0
 11
35.18415943596406
 21
133.7633302767605
 31
0.0
  0
LINE
  5
C031
330
BFE7
100
AcDbEntity
  8
1
  6
Continuous
100
AcDbLine
 10
35.31588843596407
 20
134.2081242767606
 30
0.0
 11
36.16487243596407
 21
134.2081242767606
 31
0.0
  0
LINE
  5
C032
330
BFE7
100
AcDbEntity
  8
1
  6
Continuous
100
AcDbLine
 10
37.85202143596404
 20
134.6529182767606
 30
0.0
 11
35.54324443596405
 21
134.6529182767606
 31
0.0
  0
LINE
  5
C033
330
BFE7
100
AcDbEntity
  8
1
  6
Continuous
100
AcDbLine
 10
36.69807543596407
 20
133.3194372767605
 30
0.0
 11
36.69807543596407
 21
133.7633302767605
 31
0.0
  0
LINE
  5
C034
330
BFE7
100
AcDbEntity
  8
1
  6
Continuous
100
AcDbLine
 10
37.23129443596404
 20
134.2081242767606
 30
0.0
 11
38.07937743596402
 21
134.2081242767606
 31
0.0
  0
LINE
  5
C035
330
BFE7
100
AcDbEntity
  8
1
  6
Continuous
100
AcDbLine
 10
37.79428243596408
 20
135.0967962767605
 30
0.0
 11
35.60188443596404
 21
135.0967962767605
 31
0.0
  0
LINE
  5
C036
330
BFE7
100
AcDbEntity
  8
1
  6
Continuous
100
AcDbLine
 10
35.87796143596407
 20
135.5415902767605
 30
0.0
 11
37.51728943596404
 21
135.5415902767605
 31
0.0
  0
LINE
  5
C037
330
BFE7
100
AcDbEntity
  8
1
  6
Continuous
100
AcDbLine
 10
37.91697843596404
 20
135.9854832767604
 30
0.0
 11
36.00067243596404
 21
135.9854832767604
 31
0.0
  0
LINE
  5
C038
330
BFE7
100
AcDbEntity
  8
1
  6
Continuous
100
AcDbLine
 10
38.15876943596407
 20
131.5420782767604
 30
0.0
 11
35.37632843596407
 21
131.5420782767604
 31
0.0
  0
LINE
  5
C039
330
BFE7
100
AcDbEntity
  8
1
  6
Continuous
100
AcDbLine
 10
35.44310143596403
 20
131.9859562767605
 30
0.0
 11
36.69807543596407
 21
131.9859562767605
 31
0.0
  0
LINE
  5
C03A
330
BFE7
100
AcDbEntity
  8
1
  6
Continuous
100
AcDbLine
 10
38.16056943596407
 20
132.4307502767605
 30
0.0
 11
35.23468143596407
 21
132.4307502767605
 31
0.0
  0
LINE
  5
C03B
330
BFE7
100
AcDbEntity
  8
1
  6
Continuous
100
AcDbLine
 10
38.24809443596405
 20
132.8746432767605
 30
0.0
 11
35.14717243596405
 21
132.8746432767605
 31
0.0
  0
LINE
  5
C03C
330
BFE7
100
AcDbEntity
  8
1
  6
Continuous
100
AcDbLine
 10
36.69807543596407
 20
129.2856232767604
 30
0.0
 11
36.69807543596407
 21
130.2040802767604
 31
0.0
  0
LINE
  5
C03D
330
BFE7
100
AcDbEntity
  8
1
  6
Continuous
100
AcDbLine
 10
35.86624243596407
 20
130.4269202767605
 30
0.0
 11
37.73924043596404
 21
129.9243872767605
 31
0.0
  0
LINE
  5
C03E
330
BFE7
100
AcDbEntity
  8
1
  6
Continuous
100
AcDbLine
 10
36.69807543596407
 20
130.8753302767605
 30
0.0
 11
35.63165443596404
 21
130.8753302767605
 31
0.0
  0
LINE
  5
C03F
330
BFE7
100
AcDbEntity
  8
1
  6
Continuous
100
AcDbLine
 10
36.92003043596407
 20
130.6524902767604
 30
0.0
 11
37.86915743596404
 21
130.6524902767604
 31
0.0
  0
LINE
  5
C040
330
BFE7
100
AcDbEntity
  8
1
  6
Continuous
100
AcDbLine
 10
37.94944943596407
 20
131.0972842767604
 30
0.0
 11
36.92003043596407
 21
131.0972842767604
 31
0.0
  0
LINE
  5
C041
330
BFE7
100
AcDbEntity
  8
1
  6
Continuous
100
AcDbLine
 10
36.69807543596407
 20
131.9859562767605
 30
0.0
 11
36.69807543596407
 21
132.2079102767603
 31
0.0
  0
LINE
  5
C042
330
BFE7
100
AcDbEntity
  8
1
  6
Continuous
100
AcDbLine
 10
37.23129443596404
 20
131.9859562767605
 30
0.0
 11
37.95216543596405
 21
131.9859562767605
 31
0.0
  0
LINE
  5
C043
330
BFE7
100
AcDbEntity
  8
1
  6
Continuous
100
AcDbLine
 10
33.60370043596407
 20
124.3684482767605
 30
0.0
 11
32.82790543596405
 21
124.3684482767605
 31
0.0
  0
ARC
  5
C044
330
BFE7
100
AcDbEntity
  8
1
  6
Continuous
100
AcDbCircle
 10
37.13763543596404
 20
126.8815862767604
 30
0.0
 40
0.4400000000000003
100
AcDbArc
 50
179.9999909999999
 51
0.00001
  0
ARC
  5
C045
330
BFE7
100
AcDbEntity
  8
1
  6
Continuous
100
AcDbCircle
 10
32.80806843596406
 20
121.3820742767605
 30
0.0
 40
0.6263380000000001
100
AcDbArc
 50
45.9275
 51
66.95107800000001
  0
ARC
  5
C046
330
BFE7
100
AcDbEntity
  8
1
  6
Continuous
100
AcDbCircle
 10
32.80806843596406
 20
121.4497322767605
 30
0.0
 40
0.6263380000000001
100
AcDbArc
 50
225.9274979999999
 51
314.072503
  0
ARC
  5
C047
330
BFE7
100
AcDbEntity
  8
1
  6
Continuous
100
AcDbCircle
 10
32.77530843596405
 20
121.4159032767605
 30
0.0
 40
0.57924
100
AcDbArc
 50
115.596977
 51
225.927495
  0
ARC
  5
C048
330
BFE7
100
AcDbEntity
  8
1
  6
Continuous
100
AcDbCircle
 10
32.84082943596406
 20
121.4159032767605
 30
0.0
 40
0.57924
100
AcDbArc
 50
314.072503
 51
45.9275
  0
ARC
  5
C049
330
BFE7
100
AcDbEntity
  8
1
  6
Continuous
100
AcDbCircle
 10
32.81807043596403
 20
119.7990662767604
 30
0.0
 40
0.6263380000000001
100
AcDbArc
 50
45.9275
 51
134.0725019999998
  0
ARC
  5
C04A
330
BFE7
100
AcDbEntity
  8
1
  6
Continuous
100
AcDbCircle
 10
32.81807043596403
 20
119.8667542767606
 30
0.0
 40
0.6263380000000001
100
AcDbArc
 50
225.9274979999999
 51
314.072503
  0
ARC
  5
C04B
330
BFE7
100
AcDbEntity
  8
1
  6
Continuous
100
AcDbCircle
 10
32.78531043596405
 20
119.8329102767605
 30
0.0
 40
0.57924
100
AcDbArc
 50
134.0725019999998
 51
225.927495
  0
ARC
  5
C04C
330
BFE7
100
AcDbEntity
  8
1
  6
Continuous
100
AcDbCircle
 10
32.85083143596406
 20
119.8329102767605
 30
0.0
 40
0.57924
100
AcDbArc
 50
314.072503
 51
45.9275
  0
ARC
  5
C04D
330
BFE7
100
AcDbEntity
  8
1
  6
Continuous
100
AcDbCircle
 10
33.59386543596406
 20
119.7990662767604
 30
0.0
 40
0.6263380000000001
100
AcDbArc
 50
45.9275
 51
90.00000300000001
  0
ARC
  5
C04E
330
BFE7
100
AcDbEntity
  8
1
  6
Continuous
100
AcDbCircle
 10
33.59386543596406
 20
119.8667542767606
 30
0.0
 40
0.6263380000000001
100
AcDbArc
 50
289.580716
 51
314.072503
  0
ARC
  5
C04F
330
BFE7
100
AcDbEntity
  8
1
  6
Continuous
100
AcDbCircle
 10
33.62662643596404
 20
119.8329102767605
 30
0.0
 40
0.57924
100
AcDbArc
 50
314.072503
 51
45.9275
  0
ARC
  5
C050
330
BFE7
100
AcDbEntity
  8
1
  6
Continuous
100
AcDbCircle
 10
33.60370043596407
 20
123.2540832767605
 30
0.0
 40
0.6263380000000001
100
AcDbArc
 50
45.9275
 51
128.2657889999997
  0
ARC
  5
C051
330
BFE7
100
AcDbEntity
  8
1
  6
Continuous
100
AcDbCircle
 10
33.60370043596407
 20
123.3217712767606
 30
0.0
 40
0.6263380000000001
100
AcDbArc
 50
231.7342109999999
 51
314.072503
  0
ARC
  5
C052
330
BFE7
100
AcDbEntity
  8
1
  6
Continuous
100
AcDbCircle
 10
33.63646043596407
 20
123.2879272767605
 30
0.0
 40
0.57924
100
AcDbArc
 50
314.072503
 51
45.9275
  0
ARC
  5
C053
330
BFE7
100
AcDbEntity
  8
1
  6
Continuous
100
AcDbCircle
 10
32.82790543596405
 20
123.2540832767605
 30
0.0
 40
0.6263380000000001
100
AcDbArc
 50
45.9275
 51
134.0725019999998
  0
ARC
  5
C054
330
BFE7
100
AcDbEntity
  8
1
  6
Continuous
100
AcDbCircle
 10
32.82790543596405
 20
123.3217712767606
 30
0.0
 40
0.6263380000000001
100
AcDbArc
 50
225.9274979999999
 51
314.072503
  0
ARC
  5
C055
330
BFE7
100
AcDbEntity
  8
1
  6
Continuous
100
AcDbCircle
 10
32.79514443596406
 20
123.2879272767605
 30
0.0
 40
0.57924
100
AcDbArc
 50
134.0725019999998
 51
225.927495
  0
ARC
  5
C056
330
BFE7
100
AcDbEntity
  8
1
  6
Continuous
100
AcDbCircle
 10
33.60370043596407
 20
128.2271062767605
 30
0.0
 40
0.6263380000000001
100
AcDbArc
 50
45.9275
 51
134.0725019999998
  0
ARC
  5
C057
330
BFE7
100
AcDbEntity
  8
1
  6
Continuous
100
AcDbCircle
 10
33.60370043596407
 20
128.2947942767605
 30
0.0
 40
0.6263380000000001
100
AcDbArc
 50
225.9274979999999
 51
314.072503
  0
ARC
  5
C058
330
BFE7
100
AcDbEntity
  8
1
  6
Continuous
100
AcDbCircle
 10
33.57093943596405
 20
128.2609502767605
 30
0.0
 40
0.57924
100
AcDbArc
 50
134.0725019999998
 51
225.927495
  0
ARC
  5
C059
330
BFE7
100
AcDbEntity
  8
1
  6
Continuous
100
AcDbCircle
 10
33.63646043596407
 20
128.2609502767605
 30
0.0
 40
0.57924
100
AcDbArc
 50
314.072503
 51
45.9275
  0
ARC
  5
C05A
330
BFE7
100
AcDbEntity
  8
1
  6
Continuous
100
AcDbCircle
 10
32.82790543596405
 20
128.2271062767605
 30
0.0
 40
0.6263380000000001
100
AcDbArc
 50
109.349553
 51
134.0725019999998
  0
ARC
  5
C05B
330
BFE7
100
AcDbEntity
  8
1
  6
Continuous
100
AcDbCircle
 10
32.82790543596405
 20
128.2947942767605
 30
0.0
 40
0.6263380000000001
100
AcDbArc
 50
225.9274979999999
 51
269.9999969999999
  0
ARC
  5
C05C
330
BFE7
100
AcDbEntity
  8
1
  6
Continuous
100
AcDbCircle
 10
32.79514443596406
 20
128.2609502767605
 30
0.0
 40
0.57924
100
AcDbArc
 50
134.0725019999998
 51
225.927495
  0
ARC
  5
C05D
330
BFE7
100
AcDbEntity
  8
1
  6
Continuous
100
AcDbCircle
 10
32.86066543596405
 20
123.2879272767605
 30
0.0
 40
0.57924
100
AcDbArc
 50
314.072503
 51
45.9275
  0
ARC
  5
C05E
330
BFE7
100
AcDbEntity
  8
1
  6
Continuous
100
AcDbCircle
 10
40.43055843596403
 20
133.0974982767604
 30
0.0
 40
5.288524999999999
100
AcDbArc
 50
153.986
 51
157.0559929999998
  0
ARC
  5
C05F
330
BFE7
100
AcDbEntity
  8
1
  6
Continuous
100
AcDbCircle
 10
35.60188443596404
 20
135.1410162767604
 30
0.0
 40
0.044452
100
AcDbArc
 50
157.0559929999998
 51
270.000001
  0
ARC
  5
C060
330
BFE7
100
AcDbEntity
  8
1
  6
Continuous
100
AcDbCircle
 10
35.31588843596407
 20
134.2523292767604
 30
0.0
 40
0.044452
100
AcDbArc
 50
167.2709909999998
 51
270.000001
  0
ARC
  5
C061
330
BFE7
100
AcDbEntity
  8
1
  6
Continuous
100
AcDbCircle
 10
40.43055843596403
 20
133.0974982767604
 30
0.0
 40
5.288524999999999
100
AcDbArc
 50
164.7939959999999
 51
167.2709909999998
  0
ARC
  5
C062
330
BFE7
100
AcDbEntity
  8
1
  6
Continuous
100
AcDbCircle
 10
40.43055843596403
 20
133.0974982767604
 30
0.0
 40
5.288524999999999
100
AcDbArc
 50
164.7419909999999
 51
164.7939959999999
  0
ARC
  5
C063
330
BFE7
100
AcDbEntity
  8
1
  6
Continuous
100
AcDbCircle
 10
35.54324443596405
 20
134.4300632767605
 30
0.0
 40
0.222261
100
AcDbArc
 50
90.00000900000001
 51
164.7419769999999
  0
ARC
  5
C064
330
BFE7
100
AcDbEntity
  8
1
  6
Continuous
100
AcDbCircle
 10
37.85202143596404
 20
134.4300632767605
 30
0.0
 40
0.222261
100
AcDbArc
 50
15.25749699999999
 51
90.00000300000001
  0
ARC
  5
C065
330
BFE7
100
AcDbEntity
  8
1
  6
Continuous
100
AcDbCircle
 10
32.96470743596405
 20
133.0974982767604
 30
0.0
 40
5.288524999999999
100
AcDbArc
 50
13.26810299999998
 51
15.25749699999999
  0
ARC
  5
C066
330
BFE7
100
AcDbEntity
  8
1
  6
Continuous
100
AcDbCircle
 10
32.96470743596405
 20
133.0974982767604
 30
0.0
 40
5.288524999999999
100
AcDbArc
 50
12.7289
 51
13.26810299999998
  0
ARC
  5
C067
330
BFE7
100
AcDbEntity
  8
1
  6
Continuous
100
AcDbCircle
 10
38.07937743596402
 20
134.2523292767604
 30
0.0
 40
0.044452
100
AcDbArc
 50
269.9999969999999
 51
12.7289
  0
ARC
  5
C068
330
BFE7
100
AcDbEntity
  8
1
  6
Continuous
100
AcDbCircle
 10
35.87796143596407
 20
135.3187502767605
 30
0.0
 40
0.222261
100
AcDbArc
 50
90.00000900000001
 51
153.986
  0
ARC
  5
C069
330
BFE7
100
AcDbEntity
  8
1
  6
Continuous
100
AcDbCircle
 10
37.79428243596408
 20
135.1410162767604
 30
0.0
 40
0.044452
100
AcDbArc
 50
269.9999969999999
 51
22.94399999999999
  0
ARC
  5
C06A
330
BFE7
100
AcDbEntity
  8
1
  6
Continuous
100
AcDbCircle
 10
32.96470743596405
 20
133.0974982767604
 30
0.0
 40
5.288524999999999
100
AcDbArc
 50
22.94399999999999
 51
26.01439599999999
  0
ARC
  5
C06B
330
BFE7
100
AcDbEntity
  8
1
  6
Continuous
100
AcDbCircle
 10
37.51728943596404
 20
135.3187502767605
 30
0.0
 40
0.222261
100
AcDbArc
 50
26.01439599999999
 51
90.00000300000001
  0
ARC
  5
C06C
330
BFE7
100
AcDbEntity
  8
1
  6
Continuous
100
AcDbCircle
 10
36.69807543596407
 20
135.7635442767605
 30
0.0
 40
1.145318999999998
100
AcDbArc
 50
90.00000900000001
 51
144.4620119999999
  0
ARC
  5
C06D
330
BFE7
100
AcDbEntity
  8
1
  6
Continuous
100
AcDbCircle
 10
36.69807543596407
 20
135.7635442767605
 30
0.0
 40
1.145318999999998
100
AcDbArc
 50
35.537703
 51
76.53739899999997
  0
ARC
  5
C06E
330
BFE7
100
AcDbEntity
  8
1
  6
Continuous
100
AcDbCircle
 10
40.43055843596403
 20
133.0974982767604
 30
0.0
 40
5.288524999999999
100
AcDbArc
 50
187.792995
 51
190.104003
  0
ARC
  5
C06F
330
BFE7
100
AcDbEntity
  8
1
  6
Continuous
100
AcDbCircle
 10
35.23468143596407
 20
132.3856452767605
 30
0.0
 40
0.044452
100
AcDbArc
 50
90.00000900000001
 51
187.7929909999999
  0
ARC
  5
C070
330
BFE7
100
AcDbEntity
  8
1
  6
Continuous
100
AcDbCircle
 10
35.44310143596403
 20
132.2079102767603
 30
0.0
 40
0.222261
100
AcDbArc
 50
190.104003
 51
269.9999969999999
  0
ARC
  5
C071
330
BFE7
100
AcDbEntity
  8
1
  6
Continuous
100
AcDbCircle
 10
38.16056943596407
 20
132.3856452767605
 30
0.0
 40
0.044452
100
AcDbArc
 50
352.207003
 51
90.00000300000001
  0
ARC
  5
C072
330
BFE7
100
AcDbEntity
  8
1
  6
Continuous
100
AcDbCircle
 10
32.96470743596405
 20
133.0974982767604
 30
0.0
 40
5.288524999999999
100
AcDbArc
 50
349.8960009999998
 51
352.207003
  0
ARC
  5
C073
330
BFE7
100
AcDbEntity
  8
1
  6
Continuous
100
AcDbCircle
 10
37.95216543596405
 20
132.2079102767603
 30
0.0
 40
0.222261
100
AcDbArc
 50
269.9999969999999
 51
349.8960009999998
  0
ARC
  5
C074
330
BFE7
100
AcDbEntity
  8
1
  6
Continuous
100
AcDbCircle
 10
36.69807543596407
 20
130.4305362767605
 30
0.0
 40
1.145318999999998
100
AcDbArc
 50
215.5380019999999
 51
225.6990009999999
  0
ARC
  5
C075
330
BFE7
100
AcDbEntity
  8
1
  6
Continuous
100
AcDbCircle
 10
36.69807543596407
 20
130.4305362767605
 30
0.0
 40
1.145318999999998
100
AcDbArc
 50
242.2499979999999
 51
324.4619999999998
  0
ARC
  5
C076
330
BFE7
100
AcDbEntity
  8
1
  6
Continuous
100
AcDbCircle
 10
36.92003043596407
 20
130.8753302767605
 30
0.0
 40
0.222261
100
AcDbArc
 50
90.00000900000001
 51
270.000001
  0
ARC
  5
C077
330
BFE7
100
AcDbEntity
  8
1
  6
Continuous
100
AcDbCircle
 10
32.96470743596405
 20
133.0974982767604
 30
0.0
 40
5.732929999999998
100
AcDbArc
 50
324.4619999999998
 51
35.537703
  0
ARC
  5
C078
330
BFE7
100
AcDbEntity
  8
1
  6
Continuous
100
AcDbCircle
 10
40.43055843596403
 20
133.0974982767604
 30
0.0
 40
5.732929999999998
100
AcDbArc
 50
144.461998
 51
215.5379979999999
  0
CIRCLE
  5
C079
330
BFE7
100
AcDbEntity
  8
1
  6
Continuous
100
AcDbCircle
 10
35.81762843596404
 20
123.3749792767605
 30
0.0
 40
0.1
  0
ARC
  5
C07A
330
BFE7
100
AcDbEntity
  8
1
  6
Continuous
100
AcDbCircle
 10
33.60370043596407
 20
124.9271182767605
 30
0.0
 40
0.6263380000000001
100
AcDbArc
 50
45.9275
 51
134.0725019999998
  0
ARC
  5
C07B
330
BFE7
100
AcDbEntity
  8
1
  6
Continuous
100
AcDbCircle
 10
33.60370043596407
 20
124.9947762767606
 30
0.0
 40
0.6263380000000001
100
AcDbArc
 50
225.9274979999999
 51
314.072503
  0
ARC
  5
C07C
330
BFE7
100
AcDbEntity
  8
1
  6
Continuous
100
AcDbCircle
 10
33.57093943596405
 20
124.9609472767605
 30
0.0
 40
0.57924
100
AcDbArc
 50
134.0725019999998
 51
225.927495
  0
ARC
  5
C07D
330
BFE7
100
AcDbEntity
  8
1
  6
Continuous
100
AcDbCircle
 10
33.63646043596407
 20
124.9609472767605
 30
0.0
 40
0.57924
100
AcDbArc
 50
314.072503
 51
45.9275
  0
ARC
  5
C07E
330
BFE7
100
AcDbEntity
  8
1
  6
Continuous
100
AcDbCircle
 10
32.82790543596405
 20
124.9271182767605
 30
0.0
 40
0.6263380000000001
100
AcDbArc
 50
109.349553
 51
134.0725019999998
  0
ARC
  5
C07F
330
BFE7
100
AcDbEntity
  8
1
  6
Continuous
100
AcDbCircle
 10
32.82790543596405
 20
124.9947762767606
 30
0.0
 40
0.6263380000000001
100
AcDbArc
 50
225.9274979999999
 51
269.9999969999999
  0
ARC
  5
C080
330
BFE7
100
AcDbEntity
  8
1
  6
Continuous
100
AcDbCircle
 10
32.79514443596406
 20
124.9609472767605
 30
0.0
 40
0.57924
100
AcDbArc
 50
134.0725019999998
 51
225.927495
  0
LINE
  5
C081
330
BFE7
100
AcDbEntity
  8
4
  6
CENTER
100
AcDbLine
 10
38.29763343597709
 20
116.3470402767702
 30
0.0
 11
38.29763343597709
 21
123.8470402767702
 31
0.0
  0
LINE
  5
C082
330
BFE7
100
AcDbEntity
  8
1
  6
Continuous
100
AcDbLine
 10
40.99763343597714
 20
144.0970402767983
 30
0.0
 11
40.99763343597709
 21
116.09704027677
 31
0.0
  0
LINE
  5
C083
330
BFE7
100
AcDbEntity
  8
1
  6
Continuous
100
AcDbLine
 10
40.79763343597716
 20
144.0970402767983
 30
0.0
 11
40.79763343597709
 21
116.09704027677
 31
0.0
  0
LINE
  5
C084
330
BFE7
100
AcDbEntity
  8
1
  6
Continuous
100
AcDbLine
 10
30.2976334359771
 20
144.0970402767698
 30
0.0
 11
30.2976334359771
 21
116.09704027677
 31
0.0
  0
LINE
  5
C085
330
BFE7
100
AcDbEntity
  8
4
  6
CENTER
100
AcDbLine
 10
26.19763343596764
 20
132.097040276759
 30
0.0
 11
60.59763343602153
 21
132.0970402767664
 31
0.0
  0
LINE
  5
C086
330
BFE7
100
AcDbEntity
  8
1
  6
Continuous
100
AcDbLine
 10
44.59763343597709
 20
127.097040276758
 30
0.0
 11
43.59763343597709
 21
126.097040276758
 31
0.0
  0
LINE
  5
C087
330
BFE7
100
AcDbEntity
  8
1
  6
Continuous
100
AcDbLine
 10
44.59763343597709
 20
137.0970402767582
 30
0.0
 11
43.59763343597709
 21
138.0970402767582
 31
0.0
  0
LINE
  5
C088
330
BFE7
100
AcDbEntity
  8
1
  6
Continuous
100
AcDbLine
 10
41.59763343597709
 20
138.0970402767644
 30
0.0
 11
41.59763343597709
 21
126.0970402767645
 31
0.0
  0
LINE
  5
C089
330
BFE7
100
AcDbEntity
  8
1
  6
Continuous
100
AcDbLine
 10
42.09763343597706
 20
138.0970402767582
 30
0.0
 11
42.09763343597527
 21
126.097040276758
 31
0.0
  0
LINE
  5
C08A
330
BFE7
100
AcDbEntity
  8
1
  6
Continuous
100
AcDbLine
 10
43.59763343597709
 20
138.0970402767582
 30
0.0
 11
43.59763343597528
 21
126.097040276758
 31
0.0
  0
LINE
  5
C08B
330
BFE7
100
AcDbEntity
  8
1
  6
Continuous
100
AcDbLine
 10
29.1976334359701
 20
129.147040276745
 30
0.0
 11
29.19763343596548
 21
135.0470402767452
 31
0.0
  0
LINE
  5
C08C
330
BFE7
100
AcDbEntity
  8
1
  6
Continuous
100
AcDbLine
 10
34.99763343597715
 20
147.99704027676
 30
0.0
 11
31.87763343599328
 21
144.0970402767747
 31
0.0
  0
LINE
  5
C08D
330
BFE7
100
AcDbEntity
  8
1
  6
Continuous
100
AcDbLine
 10
30.29763343597335
 20
144.0970402767707
 30
0.0
 11
40.99763343597709
 21
144.0970402767988
 31
0.0
  0
LINE
  5
C08E
330
BFE7
100
AcDbEntity
  8
1
  6
Continuous
100
AcDbLine
 10
30.2976334359771
 20
135.047040276746
 30
0.0
 11
29.19763343596548
 21
135.0470402767452
 31
0.0
  0
LINE
  5
C08F
330
BFE7
100
AcDbEntity
  8
4
  6
CENTER
100
AcDbLine
 10
38.29763343597709
 20
136.3470402767729
 30
0.0
 11
38.29763343597709
 21
143.8470402767729
 31
0.0
  0
LINE
  5
C090
330
BFE7
100
AcDbEntity
  8
1
  6
Continuous
100
AcDbLine
 10
35.9976334359771
 20
147.99704027676
 30
0.0
 11
35.9976334359771
 21
144.0970402767852
 31
0.0
  0
LINE
  5
C091
330
BFE7
100
AcDbEntity
  8
1
  6
Continuous
100
AcDbLine
 10
35.9976334359771
 20
147.99704027676
 30
0.0
 11
34.9976334359771
 21
147.9970402767598
 31
0.0
  0
LINE
  5
C092
330
BFE7
100
AcDbEntity
  8
4
  6
CENTER
100
AcDbLine
 10
42.04763343597709
 20
140.0970402767728
 30
0.0
 11
34.54763343597709
 21
140.0970402767728
 31
0.0
  0
LINE
  5
C093
330
BFE7
100
AcDbEntity
  8
1
  6
Continuous
100
AcDbLine
 10
37.79788291004308
 20
140.5967908027068
 30
0.0
 11
37.91630700256035
 21
140.8627756694168
 31
0.0
  0
LINE
  5
C094
330
BFE7
100
AcDbEntity
  8
1
  6
Continuous
100
AcDbLine
 10
37.79788291004308
 20
139.5972897508389
 30
0.0
 11
37.91630700256007
 21
139.3313048841293
 31
0.0
  0
CIRCLE
  5
C095
330
BFE7
100
AcDbEntity
  8
1
  6
Continuous
100
AcDbCircle
 10
38.29763343597704
 20
140.0970402767728
 30
0.0
 40
2.25
  0
ARC
  5
C096
330
BFE7
100
AcDbEntity
  8
1
  6
Continuous
100
AcDbCircle
 10
38.29763343597704
 20
140.0970402767728
 30
0.0
 40
1.3
100
AcDbArc
 50
163.3282509640077
 51
196.6717490359735
  0
LINE
  5
C097
330
BFE7
100
AcDbEntity
  8
1
  6
Continuous
100
AcDbLine
 10
37.7978829100432
 20
140.5967908027068
 30
0.0
 11
37.53189804333357
 21
140.4783667101897
 31
0.0
  0
LINE
  5
C098
330
BFE7
100
AcDbEntity
  8
1
  6
Continuous
100
AcDbLine
 10
37.53189804333368
 20
140.4783667101897
 30
0.0
 11
37.05228014766789
 21
140.46999494868
 31
0.0
  0
LINE
  5
C099
330
BFE7
100
AcDbEntity
  8
1
  6
Continuous
100
AcDbLine
 10
37.53189804333305
 20
139.7157138433562
 30
0.0
 11
37.05228014766777
 21
139.7240856048657
 31
0.0
  0
LINE
  5
C09A
330
BFE7
100
AcDbEntity
  8
1
  6
Continuous
100
AcDbLine
 10
37.79788291004297
 20
139.5972897508389
 30
0.0
 11
37.53189804333305
 21
139.7157138433562
 31
0.0
  0
LINE
  5
C09B
330
BFE7
100
AcDbEntity
  8
1
  6
Continuous
100
AcDbLine
 10
42.09763343597706
 20
138.0970402767582
 30
0.0
 11
41.59763343597709
 21
137.5970402767582
 31
0.0
  0
ARC
  5
C09C
330
BFE7
100
AcDbEntity
  8
1
  6
Continuous
100
AcDbCircle
 10
38.29763343597704
 20
140.0970402767728
 30
0.0
 40
1.3
100
AcDbArc
 50
73.32825096401849
 51
106.6717490359764
  0
ARC
  5
C09D
330
BFE7
100
AcDbEntity
  8
1
  6
Continuous
100
AcDbCircle
 10
38.29763343597704
 20
140.0970402767728
 30
0.0
 40
1.3
100
AcDbArc
 50
343.3282509640142
 51
16.67174903598549
  0
ARC
  5
C09E
330
BFE7
100
AcDbEntity
  8
1
  6
Continuous
100
AcDbCircle
 10
38.29763343597704
 20
140.0970402767728
 30
0.0
 40
1.3
100
AcDbArc
 50
253.3282509640041
 51
286.6717490359749
  0
LINE
  5
C09F
330
BFE7
100
AcDbEntity
  8
1
  6
Continuous
100
AcDbLine
 10
37.91630700256035
 20
140.8627756694168
 30
0.0
 11
37.92467876406977
 21
141.342393565082
 31
0.0
  0
LINE
  5
C0A0
330
BFE7
100
AcDbEntity
  8
1
  6
Continuous
100
AcDbLine
 10
37.91630700256019
 20
139.3313048841293
 30
0.0
 11
37.92467876406977
 21
138.8516869884637
 31
0.0
  0
LINE
  5
C0A1
330
BFE7
100
AcDbEntity
  8
1
  6
Continuous
100
AcDbLine
 10
38.67895986939377
 20
139.3313048841289
 30
0.0
 11
38.67058810788427
 21
138.8516869884637
 31
0.0
  0
LINE
  5
C0A2
330
BFE7
100
AcDbEntity
  8
1
  6
Continuous
100
AcDbLine
 10
38.79738396191095
 20
139.597289750839
 30
0.0
 11
38.67895986939377
 21
139.3313048841289
 31
0.0
  0
LINE
  5
C0A3
330
BFE7
100
AcDbEntity
  8
1
  6
Continuous
100
AcDbLine
 10
38.79738396191095
 20
139.597289750839
 30
0.0
 11
39.06336882862058
 21
139.7157138433559
 31
0.0
  0
LINE
  5
C0A4
330
BFE7
100
AcDbEntity
  8
1
  6
Continuous
100
AcDbLine
 10
39.06336882862058
 20
139.7157138433559
 30
0.0
 11
39.54298672428636
 21
139.7240856048655
 31
0.0
  0
LINE
  5
C0A5
330
BFE7
100
AcDbEntity
  8
1
  6
Continuous
100
AcDbLine
 10
38.67895986939377
 20
140.8627756694168
 30
0.0
 11
38.67058810788427
 21
141.342393565082
 31
0.0
  0
LINE
  5
C0A6
330
BFE7
100
AcDbEntity
  8
1
  6
Continuous
100
AcDbLine
 10
39.06336882862058
 20
140.4783667101897
 30
0.0
 11
39.54298672428636
 21
140.4699949486802
 31
0.0
  0
LINE
  5
C0A7
330
BFE7
100
AcDbEntity
  8
1
  6
Continuous
100
AcDbLine
 10
38.79738396191095
 20
140.5967908027068
 30
0.0
 11
38.67895986939377
 21
140.8627756694168
 31
0.0
  0
LINE
  5
C0A8
330
BFE7
100
AcDbEntity
  8
1
  6
Continuous
100
AcDbLine
 10
38.79738396191095
 20
140.5967908027068
 30
0.0
 11
39.06336882862047
 21
140.4783667101897
 31
0.0
  0
LINE
  5
C0A9
330
BFE7
100
AcDbEntity
  8
1
  6
Continuous
100
AcDbLine
 10
43.59763343597709
 20
138.0970402767582
 30
0.0
 11
42.09763343597706
 21
138.0970402767582
 31
0.0
  0
LINE
  5
C0AA
330
BFE7
100
AcDbEntity
  8
1
  6
Continuous
100
AcDbLine
 10
41.59763343597709
 20
138.0970402767644
 30
0.0
 11
40.99763343597709
 21
138.0970402767644
 31
0.0
  0
LINE
  5
C0AB
330
BFE7
100
AcDbEntity
  8
1
  6
Continuous
100
AcDbLine
 10
30.2976334359771
 20
129.1470402767459
 30
0.0
 11
29.1976334359701
 21
129.1470402767449
 31
0.0
  0
LINE
  5
C0AC
330
BFE7
100
AcDbEntity
  8
1
  6
Continuous
100
AcDbLine
 10
41.59763343597709
 20
126.597040276758
 30
0.0
 11
42.09763343597706
 21
126.097040276758
 31
0.0
  0
LINE
  5
C0AD
330
BFE7
100
AcDbEntity
  8
1
  6
Continuous
100
AcDbLine
 10
43.59763343597709
 20
126.097040276758
 30
0.0
 11
42.09763343597706
 21
126.097040276758
 31
0.0
  0
LINE
  5
C0AE
330
BFE7
100
AcDbEntity
  8
1
  6
Continuous
100
AcDbLine
 10
41.59763343597709
 20
126.0970402767645
 30
0.0
 11
40.99763343597709
 21
126.0970402767644
 31
0.0
  0
LINE
  5
C0AF
330
BFE7
100
AcDbEntity
  8
4
  6
CENTER
100
AcDbLine
 10
42.04763343597709
 20
120.0970402767702
 30
0.0
 11
34.54763343597709
 21
120.0970402767702
 31
0.0
  0
LINE
  5
C0B0
330
BFE7
100
AcDbEntity
  8
1
  6
Continuous
100
AcDbLine
 10
37.7978829100432
 20
120.5967908027041
 30
0.0
 11
37.91630700256035
 21
120.862775669414
 31
0.0
  0
LINE
  5
C0B1
330
BFE7
100
AcDbEntity
  8
1
  6
Continuous
100
AcDbLine
 10
37.79788291004308
 20
119.597289750836
 30
0.0
 11
37.91630700256019
 21
119.3313048841265
 31
0.0
  0
CIRCLE
  5
C0B2
330
BFE7
100
AcDbEntity
  8
1
  6
Continuous
100
AcDbCircle
 10
38.29763343597704
 20
120.0970402767702
 30
0.0
 40
2.25
  0
LINE
  5
C0B3
330
BFE7
100
AcDbEntity
  8
4
  6
CENTER
100
AcDbLine
 10
42.04763343597631
 20
122.0970402767716
 30
0.0
 11
34.54763343597631
 21
122.0970402767687
 31
0.0
  0
ARC
  5
C0B4
330
BFE7
100
AcDbEntity
  8
1
  6
Continuous
100
AcDbCircle
 10
38.29763343597704
 20
120.0970402767702
 30
0.0
 40
1.3
100
AcDbArc
 50
163.3282509640077
 51
196.6717490359735
  0
LINE
  5
C0B5
330
BFE7
100
AcDbEntity
  8
1
  6
Continuous
100
AcDbLine
 10
37.7978829100432
 20
120.5967908027041
 30
0.0
 11
37.53189804333357
 21
120.4783667101869
 31
0.0
  0
LINE
  5
C0B6
330
BFE7
100
AcDbEntity
  8
1
  6
Continuous
100
AcDbLine
 10
37.53189804333357
 20
120.4783667101871
 30
0.0
 11
37.05228014766789
 21
120.4699949486774
 31
0.0
  0
LINE
  5
C0B7
330
BFE7
100
AcDbEntity
  8
1
  6
Continuous
100
AcDbLine
 10
37.53189804333305
 20
119.7157138433535
 30
0.0
 11
37.05228014766777
 21
119.7240856048629
 31
0.0
  0
LINE
  5
C0B8
330
BFE7
100
AcDbEntity
  8
1
  6
Continuous
100
AcDbLine
 10
37.79788291004297
 20
119.597289750836
 30
0.0
 11
37.53189804333305
 21
119.7157138433535
 31
0.0
  0
LINE
  5
C0B9
330
BFE7
100
AcDbEntity
  8
1
  6
Continuous
100
AcDbLine
 10
37.91630700256035
 20
120.8627756694141
 30
0.0
 11
37.92467876406977
 21
121.3423935650794
 31
0.0
  0
LINE
  5
C0BA
330
BFE7
100
AcDbEntity
  8
1
  6
Continuous
100
AcDbLine
 10
38.67895986939377
 20
120.8627756694141
 30
0.0
 11
38.67058810788427
 21
121.3423935650794
 31
0.0
  0
ARC
  5
C0BB
330
BFE7
100
AcDbEntity
  8
1
  6
Continuous
100
AcDbCircle
 10
38.29763343597704
 20
120.0970402767702
 30
0.0
 40
1.3
100
AcDbArc
 50
73.32825096401849
 51
106.6717490359764
  0
ARC
  5
C0BC
330
BFE7
100
AcDbEntity
  8
1
  6
Continuous
100
AcDbCircle
 10
38.29763343597704
 20
120.0970402767702
 30
0.0
 40
1.3
100
AcDbArc
 50
343.3282509640142
 51
16.67174903598549
  0
ARC
  5
C0BD
330
BFE7
100
AcDbEntity
  8
1
  6
Continuous
100
AcDbCircle
 10
38.29763343597704
 20
120.0970402767702
 30
0.0
 40
1.3
100
AcDbArc
 50
253.3282509640041
 51
286.6717490359749
  0
LINE
  5
C0BE
330
BFE7
100
AcDbEntity
  8
1
  6
Continuous
100
AcDbLine
 10
37.91630700256019
 20
119.3313048841265
 30
0.0
 11
37.92467876406977
 21
118.851686988461
 31
0.0
  0
LINE
  5
C0BF
330
BFE7
100
AcDbEntity
  8
1
  6
Continuous
100
AcDbLine
 10
38.67895986939377
 20
119.3313048841263
 30
0.0
 11
38.67058810788427
 21
118.851686988461
 31
0.0
  0
LINE
  5
C0C0
330
BFE7
100
AcDbEntity
  8
1
  6
Continuous
100
AcDbLine
 10
38.79738396191095
 20
119.5972897508361
 30
0.0
 11
38.67895986939368
 21
119.3313048841263
 31
0.0
  0
LINE
  5
C0C1
330
BFE7
100
AcDbEntity
  8
1
  6
Continuous
100
AcDbLine
 10
38.79738396191095
 20
119.5972897508361
 30
0.0
 11
39.06336882862058
 21
119.7157138433531
 31
0.0
  0
LINE
  5
C0C2
330
BFE7
100
AcDbEntity
  8
1
  6
Continuous
100
AcDbLine
 10
39.06336882862058
 20
119.7157138433531
 30
0.0
 11
39.54298672428626
 21
119.7240856048629
 31
0.0
  0
LINE
  5
C0C3
330
BFE7
100
AcDbEntity
  8
1
  6
Continuous
100
AcDbLine
 10
39.06336882862058
 20
120.4783667101869
 30
0.0
 11
39.54298672428626
 21
120.4699949486774
 31
0.0
  0
LINE
  5
C0C4
330
BFE7
100
AcDbEntity
  8
1
  6
Continuous
100
AcDbLine
 10
38.79738396191095
 20
120.5967908027041
 30
0.0
 11
38.67895986939377
 21
120.8627756694141
 31
0.0
  0
LINE
  5
C0C5
330
BFE7
100
AcDbEntity
  8
1
  6
Continuous
100
AcDbLine
 10
38.79738396191095
 20
120.5967908027041
 30
0.0
 11
39.06336882862047
 21
120.4783667101871
 31
0.0
  0
LINE
  5
C0C6
330
BFE7
100
AcDbEntity
  8
1
  6
Continuous
100
AcDbLine
 10
44.59763343597709
 20
127.097040276758
 30
0.0
 11
44.59763343597709
 21
137.0970402767582
 31
0.0
  0
LINE
  5
C0C7
330
BFE7
100
AcDbEntity
  8
1
  6
Continuous
100
AcDbLine
 10
57.0976334360245
 20
136.5970402767586
 30
0.0
 11
57.0976334360245
 21
127.5970402767587
 31
0.0
  0
LINE
  5
C0C8
330
BFE7
100
AcDbEntity
  8
1
  6
Continuous
100
AcDbLine
 10
45.59763343602416
 20
136.5970402767586
 30
0.0
 11
45.59763343602416
 21
127.5970402767587
 31
0.0
  0
LINE
  5
C0C9
330
BFE7
100
AcDbEntity
  8
1
  6
Continuous
100
AcDbLine
 10
57.59763343602383
 20
136.0970402767586
 30
0.0
 11
57.59763343601939
 21
128.0970402767587
 31
0.0
  0
LINE
  5
C0CA
330
BFE7
100
AcDbEntity
  8
1
  6
Continuous
100
AcDbLine
 10
57.0976334360245
 20
136.5970402767586
 30
0.0
 11
45.59763343602416
 21
136.5970402767586
 31
0.0
  0
LINE
  5
C0CB
330
BFE7
100
AcDbEntity
  8
1
  6
Continuous
100
AcDbLine
 10
45.59763343602416
 20
135.0470402767578
 30
0.0
 11
44.59763343597709
 21
135.047040276757
 31
0.0
  0
LINE
  5
C0CC
330
BFE7
100
AcDbEntity
  8
1
  6
Continuous
100
AcDbLine
 10
57.59763343602383
 20
136.0970402767586
 30
0.0
 11
57.0976334360245
 21
136.5970402767586
 31
0.0
  0
LINE
  5
C0CD
330
BFE7
100
AcDbEntity
  8
1
  6
Continuous
100
AcDbLine
 10
57.09763343601871
 20
127.5970402767587
 30
0.0
 11
45.59763343602416
 21
127.5970402767587
 31
0.0
  0
LINE
  5
C0CE
330
BFE7
100
AcDbEntity
  8
4
  6
CENTER
100
AcDbLine
 10
48.59763343603031
 20
130.5970402767586
 30
0.0
 11
48.59763343602849
 21
124.5970402767587
 31
0.0
  0
LINE
  5
C0CF
330
BFE7
100
AcDbEntity
  8
1
  6
Continuous
100
AcDbLine
 10
45.49763343596996
 20
129.1470402767577
 30
0.0
 11
45.49763343596842
 21
130.0470402767577
 31
0.0
  0
LINE
  5
C0D0
330
BFE7
100
AcDbEntity
  8
1
  6
Continuous
100
AcDbLine
 10
45.59763343602416
 20
130.0470402767577
 30
0.0
 11
45.49763343596856
 21
130.0470402767577
 31
0.0
  0
LINE
  5
C0D1
330
BFE7
100
AcDbEntity
  8
1
  6
Continuous
100
AcDbLine
 10
45.49763343597006
 20
129.1470402767577
 30
0.0
 11
44.59763343597709
 21
129.147040276757
 31
0.0
  0
LINE
  5
C0D2
330
BFE7
100
AcDbEntity
  8
1
  6
Continuous
100
AcDbLine
 10
57.59763343601928
 20
128.0970402767587
 30
0.0
 11
57.09763343601878
 21
127.5970402767587
 31
0.0
  0
LINE
  5
C0D3
330
BFE7
100
AcDbEntity
  8
1
  6
Continuous
100
AcDbLine
 10
30.29763343597335
 20
116.0970402767778
 30
0.0
 11
40.99763343597709
 21
116.0970402767987
 31
0.0
  0
LINE
  5
C0D4
330
BFE7
100
AcDbEntity
  8
4
  6
CENTER
100
AcDbLine
 10
120.6030775599852
 20
28.9645187663757
 30
0.0
 11
120.6030775599945
 21
63.36451876642961
 31
0.0
  0
LINE
  5
C0D5
330
BFE7
100
AcDbEntity
  8
1
  6
Continuous
100
AcDbLine
 10
125.6030775599956
 20
47.36451876639384
 30
0.0
 11
126.6030775599957
 21
46.36451876639385
 31
0.0
  0
LINE
  5
C0D6
330
BFE7
100
AcDbEntity
  8
1
  6
Continuous
100
AcDbLine
 10
115.6030775599958
 20
47.36451876639384
 30
0.0
 11
114.6030775599958
 21
46.36451876639385
 31
0.0
  0
LINE
  5
C0D7
330
BFE7
100
AcDbEntity
  8
1
  6
Continuous
100
AcDbLine
 10
114.6030775599885
 20
44.36451876639385
 30
0.0
 11
126.6030775599885
 21
44.36451876639385
 31
0.0
  0
LINE
  5
C0D8
330
BFE7
100
AcDbEntity
  8
1
  6
Continuous
100
AcDbLine
 10
114.6030775599958
 20
44.86451876639391
 30
0.0
 11
126.6030775599958
 21
44.86451876639203
 31
0.0
  0
LINE
  5
C0D9
330
BFE7
100
AcDbEntity
  8
1
  6
Continuous
100
AcDbLine
 10
114.6030775599958
 20
46.36451876639385
 30
0.0
 11
126.6030775599958
 21
46.36451876639203
 31
0.0
  0
LINE
  5
C0DA
330
BFE7
100
AcDbEntity
  8
4
  6
CENTER
100
AcDbLine
 10
130.9030775600046
 20
41.06451876642933
 30
0.0
 11
110.3030775599723
 21
41.06451876642132
 31
0.0
  0
LINE
  5
C0DB
330
BFE7
100
AcDbEntity
  8
1
  6
Continuous
100
AcDbLine
 10
125.6030775599809
 20
38.7645187664272
 30
0.0
 11
115.603077559983
 21
38.76451876642335
 31
0.0
  0
LINE
  5
C0DC
330
BFE7
100
AcDbEntity
  8
1
  6
Continuous
100
AcDbLine
 10
126.6030775599887
 20
43.76451876642761
 30
0.0
 11
114.6030775599887
 21
43.76451876642295
 31
0.0
  0
LINE
  5
C0DD
330
BFE7
100
AcDbEntity
  8
1
  6
Continuous
100
AcDbLine
 10
125.6030775599723
 20
38.06451876638509
 30
0.0
 11
115.6030775599729
 21
38.06451876638509
 31
0.0
  0
LINE
  5
C0DE
330
BFE7
100
AcDbEntity
  8
1
  6
Continuous
100
AcDbLine
 10
125.6030775599723
 20
33.06451876638508
 30
0.0
 11
115.6030775599729
 21
33.06451876638508
 31
0.0
  0
LINE
  5
C0DF
330
BFE7
100
AcDbEntity
  8
1
  6
Continuous
100
AcDbLine
 10
115.6030775599729
 20
33.66451876638512
 30
0.0
 11
115.6030775599812
 21
43.76451876642335
 31
0.0
  0
LINE
  5
C0E0
330
BFE7
100
AcDbEntity
  8
1
  6
Continuous
100
AcDbLine
 10
115.0030775599722
 20
43.56451876638431
 30
0.0
 11
115.0030775599728
 21
33.66451876638502
 31
0.0
  0
ARC
  5
C0E1
330
BFE7
100
AcDbEntity
  8
1
  6
Continuous
100
AcDbCircle
 10
115.6030775599729
 20
33.66451876638517
 30
0.0
 40
0.6
100
AcDbArc
 50
180.0
 51
270.0
  0
ARC
  5
C0E2
330
BFE7
100
AcDbEntity
  8
1
  6
Continuous
100
AcDbCircle
 10
119.3030775599724
 20
41.06451876642313
 30
0.0
 40
6.0
100
AcDbArc
 50
164.5572841724201
 51
195.44271582758
  0
ARC
  5
C0E3
330
BFE7
100
AcDbEntity
  8
1
  6
Continuous
100
AcDbCircle
 10
114.2908123499265
 20
39.67988976776883
 30
0.0
 40
0.8
100
AcDbArc
 50
195.44271582758
 51
265.0
  0
LINE
  5
C0E4
330
BFE7
100
AcDbEntity
  8
1
  6
Continuous
100
AcDbLine
 10
115.0030775599723
 20
38.81451876642314
 30
0.0
 11
114.2210877557161
 21
38.88293400915364
 31
0.0
  0
ARC
  5
C0E5
330
BFE7
100
AcDbEntity
  8
1
  6
Continuous
100
AcDbCircle
 10
114.2908123499179
 20
42.4491477650795
 30
0.0
 40
0.8
100
AcDbArc
 50
95.0
 51
164.5572841724201
  0
LINE
  5
C0E6
330
BFE7
100
AcDbEntity
  8
1
  6
Continuous
100
AcDbLine
 10
115.0030775599723
 20
43.31451876642312
 30
0.0
 11
114.2210877556955
 21
43.24610352383199
 31
0.0
  0
LINE
  5
C0E7
330
BFE7
100
AcDbEntity
  8
1
  6
Continuous
100
AcDbLine
 10
114.6030775599957
 20
44.86451876639384
 30
0.0
 11
115.1030775599957
 21
44.36451876639385
 31
0.0
  0
LINE
  5
C0E8
330
BFE7
100
AcDbEntity
  8
1
  6
Continuous
100
AcDbLine
 10
114.6030775599957
 20
46.36451876639385
 30
0.0
 11
114.6030775599957
 21
44.86451876639384
 31
0.0
  0
LINE
  5
C0E9
330
BFE7
100
AcDbEntity
  8
1
  6
Continuous
100
AcDbLine
 10
114.6030775599885
 20
44.36451876639385
 30
0.0
 11
114.6030775599887
 21
43.76451876639378
 31
0.0
  0
LINE
  5
C0EA
330
BFE7
100
AcDbEntity
  8
1
  6
Continuous
100
AcDbLine
 10
115.6030775599723
 20
43.5645187663851
 30
0.0
 11
115.0030775599716
 21
43.5645187663851
 31
0.0
  0
LINE
  5
C0EB
330
BFE7
100
AcDbEntity
  8
1
  6
Continuous
100
AcDbLine
 10
125.6030775599729
 20
33.66451876638502
 30
0.0
 11
125.6030775599789
 21
43.76451876642721
 31
0.0
  0
LINE
  5
C0EC
330
BFE7
100
AcDbEntity
  8
1
  6
Continuous
100
AcDbLine
 10
126.2030775599715
 20
43.5645187663851
 30
0.0
 11
126.2030775599723
 21
33.66451876638512
 31
0.0
  0
LINE
  5
C0ED
330
BFE7
100
AcDbEntity
  8
1
  6
Continuous
100
AcDbLine
 10
123.5530775600016
 20
31.96451876637814
 30
0.0
 11
117.6530775600016
 21
31.96451876637343
 31
0.0
  0
LINE
  5
C0EE
330
BFE7
100
AcDbEntity
  8
1
  6
Continuous
100
AcDbLine
 10
117.6530775600008
 20
33.06451876638508
 30
0.0
 11
117.6530775600016
 21
31.96451876637343
 31
0.0
  0
LINE
  5
C0EF
330
BFE7
100
AcDbEntity
  8
1
  6
Continuous
100
AcDbLine
 10
123.5530775600008
 20
33.06451876638508
 30
0.0
 11
123.5530775600016
 21
31.96451876637803
 31
0.0
  0
ARC
  5
C0F0
330
BFE7
100
AcDbEntity
  8
1
  6
Continuous
100
AcDbCircle
 10
125.6030775599723
 20
33.66451876638517
 30
0.0
 40
0.6
100
AcDbArc
 50
270.0
 51
0.0
  0
LINE
  5
C0F1
330
BFE7
100
AcDbEntity
  8
4
  6
CENTER
100
AcDbLine
 10
121.75307756001
 20
35.66451876638513
 30
0.0
 11
119.4530775599639
 21
35.66451876638513
 31
0.0
  0
CIRCLE
  5
C0F2
330
BFE7
100
AcDbEntity
  8
1
  6
Continuous
100
AcDbCircle
 10
120.6030775599869
 20
35.66451876638517
 30
0.0
 40
0.4000000000231267
  0
ARC
  5
C0F3
330
BFE7
100
AcDbEntity
  8
1
  6
Continuous
100
AcDbCircle
 10
121.9030775600048
 20
41.06451876642245
 30
0.0
 40
6.0
100
AcDbArc
 50
344.5572841723882
 51
15.44271582754816
  0
ARC
  5
C0F4
330
BFE7
100
AcDbEntity
  8
1
  6
Continuous
100
AcDbCircle
 10
126.9153427700499
 20
39.67988976776529
 30
0.0
 40
0.8
100
AcDbArc
 50
274.9999999999682
 51
344.5572841723882
  0
LINE
  5
C0F5
330
BFE7
100
AcDbEntity
  8
1
  6
Continuous
100
AcDbLine
 10
126.2030775600035
 20
38.81451876642
 30
0.0
 11
126.9850673642599
 21
38.88293400914999
 31
0.0
  0
ARC
  5
C0F6
330
BFE7
100
AcDbEntity
  8
1
  6
Continuous
100
AcDbCircle
 10
126.91534277006
 20
42.44914776507596
 30
0.0
 40
0.8
100
AcDbArc
 50
15.44271582754816
 51
84.99999999996829
  0
LINE
  5
C0F7
330
BFE7
100
AcDbEntity
  8
1
  6
Continuous
100
AcDbLine
 10
126.203077560006
 20
43.31451876642001
 30
0.0
 11
126.985067364283
 21
43.24610352382854
 31
0.0
  0
LINE
  5
C0F8
330
BFE7
100
AcDbEntity
  8
1
  6
Continuous
100
AcDbLine
 10
126.1030775599958
 20
44.36451876639385
 30
0.0
 11
126.6030775599958
 21
44.86451876639384
 31
0.0
  0
LINE
  5
C0F9
330
BFE7
100
AcDbEntity
  8
1
  6
Continuous
100
AcDbLine
 10
126.6030775599957
 20
46.36451876639385
 30
0.0
 11
126.6030775599957
 21
44.86451876639384
 31
0.0
  0
LINE
  5
C0FA
330
BFE7
100
AcDbEntity
  8
1
  6
Continuous
100
AcDbLine
 10
126.6030775599885
 20
44.36451876639385
 30
0.0
 11
126.6030775599887
 21
43.76451876639378
 31
0.0
  0
LINE
  5
C0FB
330
BFE7
100
AcDbEntity
  8
1
  6
Continuous
100
AcDbLine
 10
126.2030775599715
 20
43.5645187663851
 30
0.0
 11
125.6030775599721
 21
43.5645187663851
 31
0.0
  0
LINE
  5
C0FC
330
BFE7
100
AcDbEntity
  8
1
  6
Continuous
100
AcDbLine
 10
116.103077560001
 20
59.86451876642455
 30
0.0
 11
125.103077560001
 21
59.86451876642455
 31
0.0
  0
LINE
  5
C0FD
330
BFE7
100
AcDbEntity
  8
1
  6
Continuous
100
AcDbLine
 10
116.103077560001
 20
48.36451876642421
 30
0.0
 11
125.103077560001
 21
48.36451876642421
 31
0.0
  0
LINE
  5
C0FE
330
BFE7
100
AcDbEntity
  8
1
  6
Continuous
100
AcDbLine
 10
116.6030775600009
 20
60.36451876642397
 30
0.0
 11
124.6030775600009
 21
60.36451876641944
 31
0.0
  0
LINE
  5
C0FF
330
BFE7
100
AcDbEntity
  8
1
  6
Continuous
100
AcDbLine
 10
125.6030775599957
 20
47.36451876639384
 30
0.0
 11
115.6030775599958
 21
47.36451876639384
 31
0.0
  0
LINE
  5
C100
330
BFE7
100
AcDbEntity
  8
1
  6
Continuous
100
AcDbLine
 10
116.103077560001
 20
59.86451876642455
 30
0.0
 11
116.103077560001
 21
48.36451876642421
 31
0.0
  0
LINE
  5
C101
330
BFE7
100
AcDbEntity
  8
1
  6
Continuous
100
AcDbLine
 10
116.6030775600009
 20
60.36451876642392
 30
0.0
 11
116.103077560001
 21
59.86451876642455
 31
0.0
  0
LINE
  5
C102
330
BFE7
100
AcDbEntity
  8
1
  6
Continuous
100
AcDbLine
 10
125.103077560001
 20
59.86451876641885
 30
0.0
 11
125.103077560001
 21
48.36451876642421
 31
0.0
  0
ARC
  5
C103
330
BFE7
100
AcDbEntity
  8
1
  6
Continuous
100
AcDbCircle
 10
120.603077559992
 20
51.36451876642434
 30
0.0
 40
1.229
100
AcDbArc
 50
9.365619073468286
 51
170.6343809265318
  0
CIRCLE
  5
C104
330
BFE7
100
AcDbEntity
  8
1
  6
Continuous
100
AcDbCircle
 10
120.603077559992
 20
51.36451876642434
 30
0.0
 40
1.5
  0
ARC
  5
C105
330
BFE7
100
AcDbEntity
  8
1
  6
Continuous
100
AcDbCircle
 10
120.603077559992
 20
51.36451876642434
 30
0.0
 40
1.229
100
AcDbArc
 50
189.3656190741732
 51
350.6343809258268
  0
LINE
  5
C106
330
BFE7
100
AcDbEntity
  8
1
  6
Continuous
100
AcDbLine
 10
122.0896844347229
 20
51.16451876641682
 30
0.0
 11
119.1164706852612
 21
51.16451876641682
 31
0.0
  0
LINE
  5
C107
330
BFE7
100
AcDbEntity
  8
1
  6
Continuous
100
AcDbLine
 10
122.0896844347247
 20
51.56451876641686
 30
0.0
 11
119.1164706852594
 21
51.56451876641686
 31
0.0
  0
LINE
  5
C108
330
BFE7
100
AcDbEntity
  8
1
  6
Continuous
100
AcDbLine
 10
118.4817572164049
 20
48.26451876637502
 30
0.0
 11
122.7243979035431
 21
48.26451876637121
 31
0.0
  0
LINE
  5
C109
330
BFE7
100
AcDbEntity
  8
4
  6
CENTER
100
AcDbLine
 10
122.603077559992
 20
51.3645187664242
 30
0.0
 11
118.6030775599919
 21
51.3645187664242
 31
0.0
  0
LINE
  5
C10A
330
BFE7
100
AcDbEntity
  8
1
  6
Continuous
100
AcDbLine
 10
118.4817572164049
 20
48.36451876642421
 30
0.0
 11
118.4817572164049
 21
48.26451876638515
 31
0.0
  0
LINE
  5
C10B
330
BFE7
100
AcDbEntity
  8
1
  6
Continuous
100
AcDbLine
 10
117.6530775599957
 20
48.36451876644092
 30
0.0
 11
117.6530775599964
 21
47.36451876639384
 31
0.0
  0
LINE
  5
C10C
330
BFE7
100
AcDbEntity
  8
1
  6
Continuous
100
AcDbLine
 10
122.7243979035431
 20
48.36451876642421
 30
0.0
 11
122.7243979035431
 21
48.26451876638515
 31
0.0
  0
LINE
  5
C10D
330
BFE7
100
AcDbEntity
  8
1
  6
Continuous
100
AcDbLine
 10
123.5530775599954
 20
48.36451876642417
 30
0.0
 11
123.5530775599962
 21
47.36451876639384
 31
0.0
  0
LINE
  5
C10E
330
BFE7
100
AcDbEntity
  8
1
  6
Continuous
100
AcDbLine
 10
124.6030775600009
 20
60.36451876641932
 30
0.0
 11
125.103077560001
 21
59.86451876641876
 31
0.0
  0
LINE
  5
C10F
330
BFE7
100
AcDbEntity
  8
4
  6
CENTER
100
AcDbLine
 10
120.6030775600229
 20
150.9970402767581
 30
0.0
 11
120.6030775599945
 21
113.0970402767958
 31
0.0
  0
LINE
  5
C110
330
BFE7
100
AcDbEntity
  8
4
  6
CENTER
100
AcDbLine
 10
113.1030775600087
 20
132.0970402767964
 30
0.0
 11
128.1030775600086
 21
132.0970402767964
 31
0.0
  0
LINE
  5
C111
330
BFE7
100
AcDbEntity
  8
4
  6
CENTER
100
AcDbLine
 10
123.4030775599846
 20
122.0970402767963
 30
0.0
 11
117.8030775599844
 21
122.0970402767963
 31
0.0
  0
CIRCLE
  5
C112
330
BFE7
100
AcDbEntity
  8
1
  6
Continuous
100
AcDbCircle
 10
120.6030775600086
 20
132.0970402767964
 30
0.0
 40
4.000000000035072
  0
CIRCLE
  5
C113
330
BFE7
100
AcDbEntity
  8
1
  6
Continuous
100
AcDbCircle
 10
120.6030775600086
 20
132.0970402767964
 30
0.0
 40
4.500000000035072
  0
CIRCLE
  5
C114
330
BFE7
100
AcDbEntity
  8
1
  6
Continuous
100
AcDbCircle
 10
120.6030775600086
 20
132.0970402767964
 30
0.0
 40
5.0
  0
CIRCLE
  5
C115
330
BFE7
100
AcDbEntity
  8
1
  6
Continuous
100
AcDbCircle
 10
120.6030775600086
 20
132.0970402767964
 30
0.0
 40
6.0
  0
LINE
  5
C116
330
BFE7
100
AcDbEntity
  8
1
  6
Continuous
100
AcDbLine
 10
125.5030775600709
 20
147.9970402767569
 30
0.0
 11
115.7030775600712
 21
147.9970402767593
 31
0.0
  0
LINE
  5
C117
330
BFE7
100
AcDbEntity
  8
1
  6
Continuous
100
AcDbLine
 10
115.0030775599572
 20
116.0970402767958
 30
0.0
 11
126.203077559957
 21
116.0970402767958
 31
0.0
  0
LINE
  5
C118
330
BFE7
100
AcDbEntity
  8
1
  6
Continuous
100
AcDbLine
 10
115.0030775599607
 20
144.0970402767968
 30
0.0
 11
126.203077559957
 21
144.0970402767961
 31
0.0
  0
LINE
  5
C119
330
BFE7
100
AcDbEntity
  8
1
  6
Continuous
100
AcDbLine
 10
115.6030775599601
 20
128.7804154865144
 30
0.0
 11
115.603077559957
 21
116.0970402767958
 31
0.0
  0
LINE
  5
C11A
330
BFE7
100
AcDbEntity
  8
1
  6
Continuous
100
AcDbLine
 10
115.0030775599572
 20
129.9429743540769
 30
0.0
 11
115.0030775599572
 21
116.0970402767958
 31
0.0
  0
ARC
  5
C11B
330
BFE7
100
AcDbEntity
  8
1
  6
Continuous
100
AcDbCircle
 10
114.2908123499025
 20
141.4816692754525
 30
0.0
 40
0.8
100
AcDbArc
 50
94.99999999999998
 51
164.5572841724201
  0
LINE
  5
C11C
330
BFE7
100
AcDbEntity
  8
1
  6
Continuous
100
AcDbLine
 10
115.6030775599635
 20
144.0970402768139
 30
0.0
 11
115.6030775599615
 21
135.4136650670807
 31
0.0
  0
LINE
  5
C11D
330
BFE7
100
AcDbEntity
  8
1
  6
Continuous
100
AcDbLine
 10
115.0030775599572
 20
144.097040276796
 30
0.0
 11
115.0030775599572
 21
134.2511061995159
 31
0.0
  0
LINE
  5
C11E
330
BFE7
100
AcDbEntity
  8
1
  6
Continuous
100
AcDbLine
 10
115.7030775600707
 20
147.9970402767569
 30
0.0
 11
115.7030775600707
 21
144.0970402767968
 31
0.0
  0
ARC
  5
C11F
330
BFE7
100
AcDbEntity
  8
1
  6
Continuous
100
AcDbCircle
 10
114.2908123499111
 20
138.7124112781419
 30
0.0
 40
0.8
100
AcDbArc
 50
195.44271582758
 51
265.0
  0
ARC
  5
C120
330
BFE7
100
AcDbEntity
  8
1
  6
Continuous
100
AcDbCircle
 10
119.303077559957
 20
140.0970402767963
 30
0.0
 40
6.0
100
AcDbArc
 50
164.5572841724201
 51
195.44271582758
  0
LINE
  5
C121
330
BFE7
100
AcDbEntity
  8
1
  6
Continuous
100
AcDbLine
 10
115.0030775599572
 20
142.3470402767961
 30
0.0
 11
114.22108775568
 21
142.2786250342051
 31
0.0
  0
LINE
  5
C122
330
BFE7
100
AcDbEntity
  8
1
  6
Continuous
100
AcDbLine
 10
115.0030775599572
 20
137.8470402767962
 30
0.0
 11
114.2210877557005
 21
137.9154555195265
 31
0.0
  0
ARC
  5
C123
330
BFE7
100
AcDbEntity
  8
1
  6
Continuous
100
AcDbCircle
 10
114.2908123499111
 20
118.7124112781418
 30
0.0
 40
0.8
100
AcDbArc
 50
195.44271582758
 51
265.0
  0
ARC
  5
C124
330
BFE7
100
AcDbEntity
  8
1
  6
Continuous
100
AcDbCircle
 10
119.303077559957
 20
120.0970402767962
 30
0.0
 40
6.0
100
AcDbArc
 50
164.5572841724201
 51
195.44271582758
  0
ARC
  5
C125
330
BFE7
100
AcDbEntity
  8
1
  6
Continuous
100
AcDbCircle
 10
114.2908123499025
 20
121.4816692754524
 30
0.0
 40
0.8
100
AcDbArc
 50
94.99999999999998
 51
164.5572841724201
  0
LINE
  5
C126
330
BFE7
100
AcDbEntity
  8
1
  6
Continuous
100
AcDbLine
 10
115.0030775599572
 20
122.3470402767962
 30
0.0
 11
114.22108775568
 21
122.2786250342051
 31
0.0
  0
LINE
  5
C127
330
BFE7
100
AcDbEntity
  8
1
  6
Continuous
100
AcDbLine
 10
115.0030775599572
 20
117.847040276796
 30
0.0
 11
114.2210877557005
 21
117.9154555195267
 31
0.0
  0
LINE
  5
C128
330
BFE7
100
AcDbEntity
  8
1
  6
Continuous
100
AcDbLine
 10
126.203077559957
 20
129.9429743538083
 30
0.0
 11
126.203077559957
 21
116.0970402767958
 31
0.0
  0
LINE
  5
C129
330
BFE7
100
AcDbEntity
  8
1
  6
Continuous
100
AcDbLine
 10
125.60307755996
 20
128.7804154863674
 30
0.0
 11
125.603077559957
 21
116.0970402767958
 31
0.0
  0
ARC
  5
C12A
330
BFE7
100
AcDbEntity
  8
1
  6
Continuous
100
AcDbCircle
 10
126.9153427701037
 20
141.4816692754427
 30
0.0
 40
0.8
100
AcDbArc
 50
15.44271582749428
 51
84.99999999991437
  0
LINE
  5
C12B
330
BFE7
100
AcDbEntity
  8
1
  6
Continuous
100
AcDbLine
 10
126.203077559957
 20
144.097040276796
 30
0.0
 11
126.203077559957
 21
134.2511061997843
 31
0.0
  0
LINE
  5
C12C
330
BFE7
100
AcDbEntity
  8
1
  6
Continuous
100
AcDbLine
 10
125.6030775599636
 20
144.0970402768139
 30
0.0
 11
125.6030775599615
 21
135.4136650672228
 31
0.0
  0
LINE
  5
C12D
330
BFE7
100
AcDbEntity
  8
1
  6
Continuous
100
AcDbLine
 10
125.5030775600709
 20
147.9970402767569
 30
0.0
 11
125.5030775600709
 21
144.0970402767961
 31
0.0
  0
CIRCLE
  5
C12E
330
BFE7
100
AcDbEntity
  8
1
  6
Continuous
100
AcDbCircle
 10
120.6030775600044
 20
140.0970402767964
 30
0.0
 40
1.056
  0
CIRCLE
  5
C12F
330
BFE7
100
AcDbEntity
  8
2
  6
Continuous
100
AcDbCircle
 10
120.6030775600044
 20
140.0970402767964
 30
0.0
 40
1.3
  0
ARC
  5
C130
330
BFE7
100
AcDbEntity
  8
1
  6
Continuous
100
AcDbCircle
 10
126.9153427700909
 20
138.712411278132
 30
0.0
 40
0.8
100
AcDbArc
 50
274.9999999999142
 51
344.5572841723342
  0
ARC
  5
C131
330
BFE7
100
AcDbEntity
  8
1
  6
Continuous
100
AcDbCircle
 10
121.9030775600472
 20
140.0970402767937
 30
0.0
 40
6.0
100
AcDbArc
 50
344.5572841723342
 51
15.44271582749428
  0
LINE
  5
C132
330
BFE7
100
AcDbEntity
  8
1
  6
Continuous
100
AcDbLine
 10
126.2030775600507
 20
142.3470402767873
 30
0.0
 11
126.9850673643275
 21
142.2786250341951
 31
0.0
  0
LINE
  5
C133
330
BFE7
100
AcDbEntity
  8
1
  6
Continuous
100
AcDbLine
 10
126.2030775600438
 20
137.8470402767873
 30
0.0
 11
126.9850673643003
 21
137.9154555195166
 31
0.0
  0
CIRCLE
  5
C134
330
BFE7
100
AcDbEntity
  8
2
  6
Continuous
100
AcDbCircle
 10
120.6030775599844
 20
122.0970402767963
 30
0.0
 40
1.3
  0
CIRCLE
  5
C135
330
BFE7
100
AcDbEntity
  8
1
  6
Continuous
100
AcDbCircle
 10
120.6030775599844
 20
122.0970402767963
 30
0.0
 40
1.056
  0
ARC
  5
C136
330
BFE7
100
AcDbEntity
  8
1
  6
Continuous
100
AcDbCircle
 10
121.9030775600424
 20
120.0970402767943
 30
0.0
 40
6.0
100
AcDbArc
 50
344.5572841723342
 51
15.44271582749428
  0
ARC
  5
C137
330
BFE7
100
AcDbEntity
  8
1
  6
Continuous
100
AcDbCircle
 10
126.9153427700989
 20
121.4816692754431
 30
0.0
 40
0.8
100
AcDbArc
 50
15.44271582749428
 51
84.99999999991437
  0
LINE
  5
C138
330
BFE7
100
AcDbEntity
  8
1
  6
Continuous
100
AcDbLine
 10
126.2030775600459
 20
122.3470402767875
 30
0.0
 11
126.9850673643229
 21
122.2786250341955
 31
0.0
  0
LINE
  5
C139
330
BFE7
100
AcDbEntity
  8
1
  6
Continuous
100
AcDbLine
 10
126.2030775600391
 20
117.8470402767878
 30
0.0
 11
126.9850673642958
 21
117.9154555195172
 31
0.0
  0
ARC
  5
C13A
330
BFE7
100
AcDbEntity
  8
1
  6
Continuous
100
AcDbCircle
 10
126.9153427700864
 20
118.7124112781325
 30
0.0
 40
0.8
100
AcDbArc
 50
274.9999999999142
 51
344.5572841723342
  0
LINE
  5
C13B
330
BFE7
100
AcDbEntity
  8
4
  6
CENTER
100
AcDbLine
 10
110.303077559957
 20
120.0970402767962
 30
0.0
 11
130.9030775600471
 21
120.0970402767962
 31
0.0
  0
LINE
  5
C13C
330
BFE7
100
AcDbEntity
  8
4
  6
CENTER
100
AcDbLine
 10
110.303077559957
 20
140.0970402767962
 30
0.0
 11
130.9030775600471
 21
140.0970402767962
 31
0.0
  0
LINE
  5
C13D
330
BFE7
100
AcDbEntity
  8
4
  6
CENTER
100
AcDbLine
 10
215.0085216840782
 20
132.097040276759
 30
0.0
 11
180.6085216840241
 21
132.0970402767664
 31
0.0
  0
LINE
  5
C13E
330
BFE7
100
AcDbEntity
  8
1
  6
Continuous
100
AcDbLine
 10
183.6085216840219
 20
136.0970402767586
 30
0.0
 11
183.6085216840264
 21
128.0970402767587
 31
0.0
  0
LINE
  5
C13F
330
BFE7
100
AcDbEntity
  8
1
  6
Continuous
100
AcDbLine
 10
195.6085216840215
 20
136.5970402767586
 30
0.0
 11
195.6085216840215
 21
127.5970402767587
 31
0.0
  0
LINE
  5
C140
330
BFE7
100
AcDbEntity
  8
1
  6
Continuous
100
AcDbLine
 10
184.1085216840211
 20
136.5970402767586
 30
0.0
 11
184.1085216840211
 21
127.5970402767587
 31
0.0
  0
LINE
  5
C141
330
BFE7
100
AcDbEntity
  8
1
  6
Continuous
100
AcDbLine
 10
196.6085216840686
 20
127.097040276758
 30
0.0
 11
196.6085216840686
 21
137.0970402767582
 31
0.0
  0
LINE
  5
C142
330
BFE7
100
AcDbEntity
  8
1
  6
Continuous
100
AcDbLine
 10
212.0085216840756
 20
129.147040276745
 30
0.0
 11
212.0085216840803
 21
135.0470402767452
 31
0.0
  0
LINE
  5
C143
330
BFE7
100
AcDbEntity
  8
1
  6
Continuous
100
AcDbLine
 10
197.6085216840685
 20
138.0970402767582
 30
0.0
 11
197.6085216840703
 21
126.097040276758
 31
0.0
  0
LINE
  5
C144
330
BFE7
100
AcDbEntity
  8
1
  6
Continuous
100
AcDbLine
 10
199.1085216840686
 20
138.0970402767582
 30
0.0
 11
199.1085216840703
 21
126.097040276758
 31
0.0
  0
LINE
  5
C145
330
BFE7
100
AcDbEntity
  8
1
  6
Continuous
100
AcDbLine
 10
199.6085216840685
 20
138.0970402767644
 30
0.0
 11
199.6085216840685
 21
126.0970402767645
 31
0.0
  0
LINE
  5
C146
330
BFE7
100
AcDbEntity
  8
1
  6
Continuous
100
AcDbLine
 10
210.9085216840687
 20
144.0970402767698
 30
0.0
 11
210.9085216840687
 21
116.09704027677
 31
0.0
  0
LINE
  5
C147
330
BFE7
100
AcDbEntity
  8
1
  6
Continuous
100
AcDbLine
 10
200.4085216840687
 20
144.0970402767983
 30
0.0
 11
200.4085216840687
 21
116.09704027677
 31
0.0
  0
LINE
  5
C148
330
BFE7
100
AcDbEntity
  8
1
  6
Continuous
100
AcDbLine
 10
200.2085216840685
 20
144.0970402767983
 30
0.0
 11
200.2085216840685
 21
116.09704027677
 31
0.0
  0
LINE
  5
C149
330
BFE7
100
AcDbEntity
  8
1
  6
Continuous
100
AcDbLine
 10
184.1085216840271
 20
127.5970402767587
 30
0.0
 11
195.6085216840215
 21
127.5970402767587
 31
0.0
  0
CIRCLE
  5
C14A
330
BFE7
100
AcDbEntity
  8
1
  6
Continuous
100
AcDbCircle
 10
202.9085216840686
 20
120.0970402767702
 30
0.0
 40
2.25
  0
LINE
  5
C14B
330
BFE7
100
AcDbEntity
  8
4
  6
CENTER
100
AcDbLine
 10
202.9085216840686
 20
116.3470402767702
 30
0.0
 11
202.9085216840686
 21
123.8470402767702
 31
0.0
  0
LINE
  5
C14C
330
BFE7
100
AcDbEntity
  8
1
  6
Continuous
100
AcDbLine
 10
210.9085216840724
 20
116.0970402767778
 30
0.0
 11
200.2085216840685
 21
116.0970402767987
 31
0.0
  0
LINE
  5
C14D
330
BFE7
100
AcDbEntity
  8
1
  6
Continuous
100
AcDbLine
 10
203.6742570767128
 20
119.7157138433535
 30
0.0
 11
204.153874972378
 21
119.7240856048629
 31
0.0
  0
LINE
  5
C14E
330
BFE7
100
AcDbEntity
  8
1
  6
Continuous
100
AcDbLine
 10
203.6742570767123
 20
120.4783667101871
 30
0.0
 11
204.153874972378
 21
120.4699949486774
 31
0.0
  0
LINE
  5
C14F
330
BFE7
100
AcDbEntity
  8
4
  6
CENTER
100
AcDbLine
 10
199.1585216840695
 20
122.0970402767716
 30
0.0
 11
206.6585216840695
 21
122.0970402767687
 31
0.0
  0
LINE
  5
C150
330
BFE7
100
AcDbEntity
  8
4
  6
CENTER
100
AcDbLine
 10
199.1585216840686
 20
120.0970402767702
 30
0.0
 11
206.6585216840687
 21
120.0970402767702
 31
0.0
  0
ARC
  5
C151
330
BFE7
100
AcDbEntity
  8
1
  6
Continuous
100
AcDbCircle
 10
202.9085216840686
 20
120.0970402767702
 30
0.0
 40
1.3
100
AcDbArc
 50
343.3282509640263
 51
16.67174903599223
  0
LINE
  5
C152
330
BFE7
100
AcDbEntity
  8
1
  6
Continuous
100
AcDbLine
 10
210.9085216840687
 20
129.1470402767459
 30
0.0
 11
212.0085216840756
 21
129.1470402767449
 31
0.0
  0
LINE
  5
C153
330
BFE7
100
AcDbEntity
  8
1
  6
Continuous
100
AcDbLine
 10
202.4087711581349
 20
120.5967908027041
 30
0.0
 11
202.1427862914253
 21
120.4783667101871
 31
0.0
  0
LINE
  5
C154
330
BFE7
100
AcDbEntity
  8
1
  6
Continuous
100
AcDbLine
 10
202.4087711581349
 20
120.5967908027041
 30
0.0
 11
202.5271952506519
 21
120.8627756694141
 31
0.0
  0
LINE
  5
C155
330
BFE7
100
AcDbEntity
  8
1
  6
Continuous
100
AcDbLine
 10
202.1427862914253
 20
120.4783667101869
 30
0.0
 11
201.6631683957594
 21
120.4699949486774
 31
0.0
  0
LINE
  5
C156
330
BFE7
100
AcDbEntity
  8
1
  6
Continuous
100
AcDbLine
 10
202.1427862914253
 20
119.7157138433531
 30
0.0
 11
201.6631683957594
 21
119.7240856048629
 31
0.0
  0
LINE
  5
C157
330
BFE7
100
AcDbEntity
  8
1
  6
Continuous
100
AcDbLine
 10
202.4087711581349
 20
119.5972897508361
 30
0.0
 11
202.1427862914253
 21
119.7157138433531
 31
0.0
  0
LINE
  5
C158
330
BFE7
100
AcDbEntity
  8
1
  6
Continuous
100
AcDbLine
 10
202.4087711581349
 20
119.5972897508361
 30
0.0
 11
202.5271952506522
 21
119.3313048841263
 31
0.0
  0
LINE
  5
C159
330
BFE7
100
AcDbEntity
  8
1
  6
Continuous
100
AcDbLine
 10
202.5271952506519
 20
119.3313048841263
 30
0.0
 11
202.5355670121616
 21
118.851686988461
 31
0.0
  0
LINE
  5
C15A
330
BFE7
100
AcDbEntity
  8
1
  6
Continuous
100
AcDbLine
 10
203.2898481174854
 20
119.3313048841265
 30
0.0
 11
203.2814763559761
 21
118.851686988461
 31
0.0
  0
ARC
  5
C15B
330
BFE7
100
AcDbEntity
  8
1
  6
Continuous
100
AcDbCircle
 10
202.9085216840686
 20
120.0970402767702
 30
0.0
 40
1.3
100
AcDbArc
 50
253.3282509640249
 51
286.6717490359956
  0
ARC
  5
C15C
330
BFE7
100
AcDbEntity
  8
1
  6
Continuous
100
AcDbCircle
 10
202.9085216840686
 20
120.0970402767702
 30
0.0
 40
1.3
100
AcDbArc
 50
163.3282509640145
 51
196.6717490359854
  0
ARC
  5
C15D
330
BFE7
100
AcDbEntity
  8
1
  6
Continuous
100
AcDbCircle
 10
202.9085216840686
 20
120.0970402767702
 30
0.0
 40
1.3
100
AcDbArc
 50
73.32825096402351
 51
106.6717490359815
  0
LINE
  5
C15E
330
BFE7
100
AcDbEntity
  8
1
  6
Continuous
100
AcDbLine
 10
202.5271952506519
 20
120.8627756694141
 30
0.0
 11
202.5355670121616
 21
121.3423935650794
 31
0.0
  0
LINE
  5
C15F
330
BFE7
100
AcDbEntity
  8
1
  6
Continuous
100
AcDbLine
 10
203.2898481174853
 20
120.8627756694141
 30
0.0
 11
203.2814763559761
 21
121.3423935650794
 31
0.0
  0
LINE
  5
C160
330
BFE7
100
AcDbEntity
  8
1
  6
Continuous
100
AcDbLine
 10
203.4082722100028
 20
119.597289750836
 30
0.0
 11
203.6742570767128
 21
119.7157138433535
 31
0.0
  0
LINE
  5
C161
330
BFE7
100
AcDbEntity
  8
1
  6
Continuous
100
AcDbLine
 10
203.4082722100024
 20
120.5967908027041
 30
0.0
 11
203.6742570767123
 21
120.4783667101869
 31
0.0
  0
LINE
  5
C162
330
BFE7
100
AcDbEntity
  8
1
  6
Continuous
100
AcDbLine
 10
203.4082722100027
 20
119.597289750836
 30
0.0
 11
203.2898481174854
 21
119.3313048841265
 31
0.0
  0
LINE
  5
C163
330
BFE7
100
AcDbEntity
  8
1
  6
Continuous
100
AcDbLine
 10
203.4082722100024
 20
120.5967908027041
 30
0.0
 11
203.2898481174853
 21
120.862775669414
 31
0.0
  0
LINE
  5
C164
330
BFE7
100
AcDbEntity
  8
1
  6
Continuous
100
AcDbLine
 10
197.6085216840685
 20
126.097040276758
 30
0.0
 11
199.1085216840686
 21
126.097040276758
 31
0.0
  0
LINE
  5
C165
330
BFE7
100
AcDbEntity
  8
1
  6
Continuous
100
AcDbLine
 10
199.6085216840685
 20
126.0970402767645
 30
0.0
 11
200.2085216840685
 21
126.0970402767644
 31
0.0
  0
LINE
  5
C166
330
BFE7
100
AcDbEntity
  8
1
  6
Continuous
100
AcDbLine
 10
199.6085216840685
 20
126.597040276758
 30
0.0
 11
199.1085216840686
 21
126.097040276758
 31
0.0
  0
LINE
  5
C167
330
BFE7
100
AcDbEntity
  8
1
  6
Continuous
100
AcDbLine
 10
195.7085216840756
 20
129.1470402767577
 30
0.0
 11
196.6085216840686
 21
129.147040276757
 31
0.0
  0
LINE
  5
C168
330
BFE7
100
AcDbEntity
  8
1
  6
Continuous
100
AcDbLine
 10
195.6085216840215
 20
130.0470402767577
 30
0.0
 11
195.7085216840771
 21
130.0470402767577
 31
0.0
  0
LINE
  5
C169
330
BFE7
100
AcDbEntity
  8
1
  6
Continuous
100
AcDbLine
 10
195.7085216840756
 20
129.1470402767577
 30
0.0
 11
195.7085216840773
 21
130.0470402767577
 31
0.0
  0
LINE
  5
C16A
330
BFE7
100
AcDbEntity
  8
1
  6
Continuous
100
AcDbLine
 10
196.6085216840686
 20
127.097040276758
 30
0.0
 11
197.6085216840685
 21
126.097040276758
 31
0.0
  0
LINE
  5
C16B
330
BFE7
100
AcDbEntity
  8
4
  6
CENTER
100
AcDbLine
 10
192.6085216840155
 20
130.5970402767586
 30
0.0
 11
192.6085216840172
 21
124.5970402767587
 31
0.0
  0
LINE
  5
C16C
330
BFE7
100
AcDbEntity
  8
1
  6
Continuous
100
AcDbLine
 10
183.6085216840264
 20
128.0970402767587
 30
0.0
 11
184.1085216840271
 21
127.5970402767587
 31
0.0
  0
LINE
  5
C16D
330
BFE7
100
AcDbEntity
  8
1
  6
Continuous
100
AcDbLine
 10
184.1085216840211
 20
136.5970402767586
 30
0.0
 11
195.6085216840215
 21
136.5970402767586
 31
0.0
  0
LINE
  5
C16E
330
BFE7
100
AcDbEntity
  8
1
  6
Continuous
100
AcDbLine
 10
203.6742570767128
 20
139.7157138433562
 30
0.0
 11
204.153874972378
 21
139.7240856048657
 31
0.0
  0
LINE
  5
C16F
330
BFE7
100
AcDbEntity
  8
1
  6
Continuous
100
AcDbLine
 10
203.674257076712
 20
140.4783667101897
 30
0.0
 11
204.153874972378
 21
140.46999494868
 31
0.0
  0
CIRCLE
  5
C170
330
BFE7
100
AcDbEntity
  8
1
  6
Continuous
100
AcDbCircle
 10
202.9085216840686
 20
140.0970402767728
 30
0.0
 40
2.25
  0
LINE
  5
C171
330
BFE7
100
AcDbEntity
  8
4
  6
CENTER
100
AcDbLine
 10
199.1585216840686
 20
140.0970402767728
 30
0.0
 11
206.6585216840687
 21
140.0970402767728
 31
0.0
  0
LINE
  5
C172
330
BFE7
100
AcDbEntity
  8
1
  6
Continuous
100
AcDbLine
 10
210.9085216840724
 20
144.0970402767707
 30
0.0
 11
200.2085216840685
 21
144.0970402767988
 31
0.0
  0
LINE
  5
C173
330
BFE7
100
AcDbEntity
  8
1
  6
Continuous
100
AcDbLine
 10
210.9085216840687
 20
135.047040276746
 30
0.0
 11
212.0085216840803
 21
135.0470402767452
 31
0.0
  0
ARC
  5
C174
330
BFE7
100
AcDbEntity
  8
1
  6
Continuous
100
AcDbCircle
 10
202.9085216840686
 20
140.0970402767728
 30
0.0
 40
1.3
100
AcDbArc
 50
343.3282509640263
 51
16.67174903599223
  0
LINE
  5
C175
330
BFE7
100
AcDbEntity
  8
1
  6
Continuous
100
AcDbLine
 10
206.2085216840685
 20
147.99704027676
 30
0.0
 11
209.3285216840524
 21
144.0970402767747
 31
0.0
  0
LINE
  5
C176
330
BFE7
100
AcDbEntity
  8
1
  6
Continuous
100
AcDbLine
 10
205.2085216840688
 20
147.99704027676
 30
0.0
 11
206.2085216840685
 21
147.9970402767598
 31
0.0
  0
LINE
  5
C177
330
BFE7
100
AcDbEntity
  8
1
  6
Continuous
100
AcDbLine
 10
205.2085216840688
 20
147.99704027676
 30
0.0
 11
205.2085216840688
 21
144.0970402767852
 31
0.0
  0
LINE
  5
C178
330
BFE7
100
AcDbEntity
  8
1
  6
Continuous
100
AcDbLine
 10
202.4087711581349
 20
140.5967908027068
 30
0.0
 11
202.5271952506519
 21
140.8627756694168
 31
0.0
  0
LINE
  5
C179
330
BFE7
100
AcDbEntity
  8
1
  6
Continuous
100
AcDbLine
 10
203.4082722100027
 20
140.5967908027068
 30
0.0
 11
203.2898481174853
 21
140.8627756694168
 31
0.0
  0
LINE
  5
C17A
330
BFE7
100
AcDbEntity
  8
4
  6
CENTER
100
AcDbLine
 10
202.9085216840686
 20
136.3470402767729
 30
0.0
 11
202.9085216840686
 21
143.8470402767729
 31
0.0
  0
LINE
  5
C17B
330
BFE7
100
AcDbEntity
  8
1
  6
Continuous
100
AcDbLine
 10
197.6085216840685
 20
138.0970402767582
 30
0.0
 11
199.1085216840686
 21
138.0970402767582
 31
0.0
  0
LINE
  5
C17C
330
BFE7
100
AcDbEntity
  8
1
  6
Continuous
100
AcDbLine
 10
199.6085216840685
 20
138.0970402767644
 30
0.0
 11
200.2085216840685
 21
138.0970402767644
 31
0.0
  0
LINE
  5
C17D
330
BFE7
100
AcDbEntity
  8
1
  6
Continuous
100
AcDbLine
 10
202.4087711581349
 20
140.5967908027068
 30
0.0
 11
202.1427862914253
 21
140.4783667101897
 31
0.0
  0
LINE
  5
C17E
330
BFE7
100
AcDbEntity
  8
1
  6
Continuous
100
AcDbLine
 10
202.1427862914253
 20
140.4783667101897
 30
0.0
 11
201.6631683957593
 21
140.4699949486802
 31
0.0
  0
LINE
  5
C17F
330
BFE7
100
AcDbEntity
  8
1
  6
Continuous
100
AcDbLine
 10
202.1427862914253
 20
139.7157138433559
 30
0.0
 11
201.6631683957593
 21
139.7240856048655
 31
0.0
  0
LINE
  5
C180
330
BFE7
100
AcDbEntity
  8
1
  6
Continuous
100
AcDbLine
 10
202.4087711581349
 20
139.597289750839
 30
0.0
 11
202.1427862914253
 21
139.7157138433559
 31
0.0
  0
LINE
  5
C181
330
BFE7
100
AcDbEntity
  8
1
  6
Continuous
100
AcDbLine
 10
202.4087711581349
 20
139.597289750839
 30
0.0
 11
202.5271952506519
 21
139.3313048841289
 31
0.0
  0
LINE
  5
C182
330
BFE7
100
AcDbEntity
  8
1
  6
Continuous
100
AcDbLine
 10
202.5271952506519
 20
139.3313048841289
 30
0.0
 11
202.5355670121616
 21
138.8516869884637
 31
0.0
  0
LINE
  5
C183
330
BFE7
100
AcDbEntity
  8
1
  6
Continuous
100
AcDbLine
 10
203.2898481174854
 20
139.3313048841293
 30
0.0
 11
203.2814763559761
 21
138.8516869884637
 31
0.0
  0
ARC
  5
C184
330
BFE7
100
AcDbEntity
  8
1
  6
Continuous
100
AcDbCircle
 10
202.9085216840686
 20
140.0970402767728
 30
0.0
 40
1.3
100
AcDbArc
 50
253.3282509640249
 51
286.6717490359956
  0
ARC
  5
C185
330
BFE7
100
AcDbEntity
  8
1
  6
Continuous
100
AcDbCircle
 10
202.9085216840686
 20
140.0970402767728
 30
0.0
 40
1.3
100
AcDbArc
 50
163.3282509640145
 51
196.6717490359854
  0
LINE
  5
C186
330
BFE7
100
AcDbEntity
  8
1
  6
Continuous
100
AcDbLine
 10
199.1085216840686
 20
138.0970402767582
 30
0.0
 11
199.6085216840685
 21
137.5970402767582
 31
0.0
  0
LINE
  5
C187
330
BFE7
100
AcDbEntity
  8
1
  6
Continuous
100
AcDbLine
 10
203.4082722100028
 20
139.5972897508389
 30
0.0
 11
203.6742570767128
 21
139.7157138433562
 31
0.0
  0
LINE
  5
C188
330
BFE7
100
AcDbEntity
  8
1
  6
Continuous
100
AcDbLine
 10
203.4082722100024
 20
140.5967908027068
 30
0.0
 11
203.6742570767123
 21
140.4783667101897
 31
0.0
  0
LINE
  5
C189
330
BFE7
100
AcDbEntity
  8
1
  6
Continuous
100
AcDbLine
 10
203.4082722100027
 20
139.5972897508389
 30
0.0
 11
203.2898481174858
 21
139.3313048841293
 31
0.0
  0
LINE
  5
C18A
330
BFE7
100
AcDbEntity
  8
1
  6
Continuous
100
AcDbLine
 10
195.6085216840215
 20
135.0470402767578
 30
0.0
 11
196.6085216840686
 21
135.047040276757
 31
0.0
  0
LINE
  5
C18B
330
BFE7
100
AcDbEntity
  8
1
  6
Continuous
100
AcDbLine
 10
196.6085216840686
 20
137.0970402767582
 30
0.0
 11
197.6085216840685
 21
138.0970402767582
 31
0.0
  0
LINE
  5
C18C
330
BFE7
100
AcDbEntity
  8
1
  6
Continuous
100
AcDbLine
 10
202.5271952506519
 20
140.8627756694168
 30
0.0
 11
202.5355670121616
 21
141.342393565082
 31
0.0
  0
LINE
  5
C18D
330
BFE7
100
AcDbEntity
  8
1
  6
Continuous
100
AcDbLine
 10
203.2898481174853
 20
140.8627756694168
 30
0.0
 11
203.2814763559761
 21
141.342393565082
 31
0.0
  0
ARC
  5
C18E
330
BFE7
100
AcDbEntity
  8
1
  6
Continuous
100
AcDbCircle
 10
202.9085216840686
 20
140.0970402767728
 30
0.0
 40
1.3
100
AcDbArc
 50
73.32825096402351
 51
106.6717490359815
  0
LINE
  5
C18F
330
BFE7
100
AcDbEntity
  8
1
  6
Continuous
100
AcDbLine
 10
183.6085216840219
 20
136.0970402767586
 30
0.0
 11
184.1085216840211
 21
136.5970402767586
 31
0.0
  0
LINE
  5
C190
330
BFE7
100
AcDbEntity
  8
1
  6
Continuous
100
AcDbLine
 10
125.6030775599729
 20
230.5295617871481
 30
0.0
 11
125.6030775599789
 21
220.429561787106
 31
0.0
  0
LINE
  5
C191
330
BFE7
100
AcDbEntity
  8
1
  6
Continuous
100
AcDbLine
 10
115.6030775599729
 20
230.529561787148
 30
0.0
 11
115.6030775599812
 21
220.42956178711
 31
0.0
  0
LINE
  5
C192
330
BFE7
100
AcDbEntity
  8
4
  6
CENTER
100
AcDbLine
 10
120.6030775599852
 20
235.2295617871575
 30
0.0
 11
120.6030775599945
 21
200.8295617871036
 31
0.0
  0
LINE
  5
C193
330
BFE7
100
AcDbEntity
  8
4
  6
CENTER
100
AcDbLine
 10
130.9030775600046
 20
223.1295617871039
 30
0.0
 11
110.3030775599723
 21
223.129561787112
 31
0.0
  0
LINE
  5
C194
330
BFE7
100
AcDbEntity
  8
1
  6
Continuous
100
AcDbLine
 10
125.6030775599723
 20
231.129561787148
 30
0.0
 11
115.6030775599729
 21
231.129561787148
 31
0.0
  0
LINE
  5
C195
330
BFE7
100
AcDbEntity
  8
1
  6
Continuous
100
AcDbLine
 10
125.6030775599809
 20
225.429561787106
 30
0.0
 11
115.603077559983
 21
225.4295617871098
 31
0.0
  0
LINE
  5
C196
330
BFE7
100
AcDbEntity
  8
1
  6
Continuous
100
AcDbLine
 10
115.0030775599723
 20
220.8795617871101
 30
0.0
 11
114.2210877556955
 21
220.9479770297011
 31
0.0
  0
LINE
  5
C197
330
BFE7
100
AcDbEntity
  8
1
  6
Continuous
100
AcDbLine
 10
115.0030775599723
 20
225.3795617871101
 30
0.0
 11
114.2210877557161
 21
225.3111465443795
 31
0.0
  0
ARC
  5
C198
330
BFE7
100
AcDbEntity
  8
1
  6
Continuous
100
AcDbCircle
 10
114.2908123499179
 20
221.7449327884538
 30
0.0
 40
0.8
100
AcDbArc
 50
195.4427158275798
 51
265.0
  0
ARC
  5
C199
330
BFE7
100
AcDbEntity
  8
1
  6
Continuous
100
AcDbCircle
 10
114.2908123499265
 20
224.5141907857644
 30
0.0
 40
0.8
100
AcDbArc
 50
95.0
 51
164.5572841724199
  0
ARC
  5
C19A
330
BFE7
100
AcDbEntity
  8
1
  6
Continuous
100
AcDbCircle
 10
119.3030775599724
 20
223.1295617871101
 30
0.0
 40
6.0
100
AcDbArc
 50
164.5572841724199
 51
195.4427158275798
  0
LINE
  5
C19B
330
BFE7
100
AcDbEntity
  8
1
  6
Continuous
100
AcDbLine
 10
115.0030775599722
 20
220.6295617871488
 30
0.0
 11
115.0030775599728
 21
230.5295617871481
 31
0.0
  0
LINE
  5
C19C
330
BFE7
100
AcDbEntity
  8
1
  6
Continuous
100
AcDbLine
 10
123.5530775600016
 20
232.229561787155
 30
0.0
 11
117.6530775600016
 21
232.2295617871599
 31
0.0
  0
ARC
  5
C19D
330
BFE7
100
AcDbEntity
  8
1
  6
Continuous
100
AcDbCircle
 10
115.6030775599729
 20
230.529561787148
 30
0.0
 40
0.6
100
AcDbArc
 50
90.00000000000005
 51
180.0
  0
LINE
  5
C19E
330
BFE7
100
AcDbEntity
  8
1
  6
Continuous
100
AcDbLine
 10
117.6530775600008
 20
231.129561787148
 30
0.0
 11
117.6530775600016
 21
232.2295617871599
 31
0.0
  0
LINE
  5
C19F
330
BFE7
100
AcDbEntity
  8
1
  6
Continuous
100
AcDbLine
 10
123.5530775600008
 20
231.129561787148
 30
0.0
 11
123.5530775600016
 21
232.2295617871551
 31
0.0
  0
LINE
  5
C1A0
330
BFE7
100
AcDbEntity
  8
1
  6
Continuous
100
AcDbLine
 10
115.6030775599723
 20
220.629561787148
 30
0.0
 11
115.0030775599716
 21
220.629561787148
 31
0.0
  0
LINE
  5
C1A1
330
BFE7
100
AcDbEntity
  8
1
  6
Continuous
100
AcDbLine
 10
126.2030775599715
 20
220.629561787148
 30
0.0
 11
126.2030775599723
 21
230.529561787148
 31
0.0
  0
ARC
  5
C1A2
330
BFE7
100
AcDbEntity
  8
1
  6
Continuous
100
AcDbCircle
 10
125.6030775599723
 20
230.529561787148
 30
0.0
 40
0.6
100
AcDbArc
 50
0.0
 51
90.00000000000005
  0
ARC
  5
C1A3
330
BFE7
100
AcDbEntity
  8
1
  6
Continuous
100
AcDbCircle
 10
121.9030775600048
 20
223.1295617871109
 30
0.0
 40
6.0
100
AcDbArc
 50
344.5572841724518
 51
15.44271582761171
  0
LINE
  5
C1A4
330
BFE7
100
AcDbEntity
  8
1
  6
Continuous
100
AcDbLine
 10
126.2030775599715
 20
220.629561787148
 30
0.0
 11
125.6030775599721
 21
220.629561787148
 31
0.0
  0
LINE
  5
C1A5
330
BFE7
100
AcDbEntity
  8
1
  6
Continuous
100
AcDbLine
 10
126.203077560006
 20
220.879561787113
 30
0.0
 11
126.985067364283
 21
220.9479770297048
 31
0.0
  0
LINE
  5
C1A6
330
BFE7
100
AcDbEntity
  8
1
  6
Continuous
100
AcDbLine
 10
126.2030775600035
 20
225.3795617871132
 30
0.0
 11
126.9850673642599
 21
225.3111465443832
 31
0.0
  0
ARC
  5
C1A7
330
BFE7
100
AcDbEntity
  8
1
  6
Continuous
100
AcDbCircle
 10
126.91534277006
 20
221.7449327884573
 30
0.0
 40
0.8
100
AcDbArc
 50
275.0000000000317
 51
344.5572841724518
  0
ARC
  5
C1A8
330
BFE7
100
AcDbEntity
  8
1
  6
Continuous
100
AcDbCircle
 10
126.9153427700499
 20
224.514190785768
 30
0.0
 40
0.8
100
AcDbArc
 50
15.44271582761171
 51
85.00000000003179
  0
LINE
  5
C1A9
330
BFE7
100
AcDbEntity
  8
1
  6
Continuous
100
AcDbLine
 10
125.6030775599957
 20
216.8295617871394
 30
0.0
 11
115.6030775599958
 21
216.8295617871394
 31
0.0
  0
LINE
  5
C1AA
330
BFE7
100
AcDbEntity
  8
1
  6
Continuous
100
AcDbLine
 10
116.103077560001
 20
215.8295617871091
 30
0.0
 11
125.103077560001
 21
215.8295617871091
 31
0.0
  0
LINE
  5
C1AB
330
BFE7
100
AcDbEntity
  8
1
  6
Continuous
100
AcDbLine
 10
114.6030775599958
 20
217.8295617871393
 30
0.0
 11
126.6030775599958
 21
217.8295617871412
 31
0.0
  0
LINE
  5
C1AC
330
BFE7
100
AcDbEntity
  8
1
  6
Continuous
100
AcDbLine
 10
126.6030775599887
 20
220.4295617871057
 30
0.0
 11
114.6030775599887
 21
220.4295617871104
 31
0.0
  0
LINE
  5
C1AD
330
BFE7
100
AcDbEntity
  8
1
  6
Continuous
100
AcDbLine
 10
114.6030775599958
 20
219.3295617871394
 30
0.0
 11
126.6030775599958
 21
219.3295617871411
 31
0.0
  0
LINE
  5
C1AE
330
BFE7
100
AcDbEntity
  8
1
  6
Continuous
100
AcDbLine
 10
114.6030775599885
 20
219.8295617871393
 30
0.0
 11
126.6030775599885
 21
219.8295617871393
 31
0.0
  0
LINE
  5
C1AF
330
BFE7
100
AcDbEntity
  8
1
  6
Continuous
100
AcDbLine
 10
116.6030775600009
 20
203.8295617871093
 30
0.0
 11
124.6030775600009
 21
203.8295617871138
 31
0.0
  0
LINE
  5
C1B0
330
BFE7
100
AcDbEntity
  8
1
  6
Continuous
100
AcDbLine
 10
116.103077560001
 20
204.3295617871087
 30
0.0
 11
125.103077560001
 21
204.3295617871087
 31
0.0
  0
LINE
  5
C1B1
330
BFE7
100
AcDbEntity
  8
1
  6
Continuous
100
AcDbLine
 10
116.103077560001
 20
204.3295617871087
 30
0.0
 11
116.103077560001
 21
215.8295617871091
 31
0.0
  0
LINE
  5
C1B2
330
BFE7
100
AcDbEntity
  8
1
  6
Continuous
100
AcDbLine
 10
115.6030775599958
 20
216.8295617871394
 30
0.0
 11
114.6030775599958
 21
217.8295617871393
 31
0.0
  0
LINE
  5
C1B3
330
BFE7
100
AcDbEntity
  8
1
  6
Continuous
100
AcDbLine
 10
114.6030775599957
 20
219.3295617871394
 30
0.0
 11
115.1030775599957
 21
219.8295617871393
 31
0.0
  0
LINE
  5
C1B4
330
BFE7
100
AcDbEntity
  8
1
  6
Continuous
100
AcDbLine
 10
114.6030775599885
 20
219.8295617871393
 30
0.0
 11
114.6030775599887
 21
220.4295617871395
 31
0.0
  0
LINE
  5
C1B5
330
BFE7
100
AcDbEntity
  8
1
  6
Continuous
100
AcDbLine
 10
114.6030775599957
 20
217.8295617871393
 30
0.0
 11
114.6030775599957
 21
219.3295617871394
 31
0.0
  0
LINE
  5
C1B6
330
BFE7
100
AcDbEntity
  8
1
  6
Continuous
100
AcDbLine
 10
117.6530775599957
 20
215.8295617870924
 30
0.0
 11
117.6530775599964
 21
216.8295617871394
 31
0.0
  0
LINE
  5
C1B7
330
BFE7
100
AcDbEntity
  8
1
  6
Continuous
100
AcDbLine
 10
123.5530775599954
 20
215.8295617871091
 30
0.0
 11
123.5530775599962
 21
216.8295617871394
 31
0.0
  0
LINE
  5
C1B8
330
BFE7
100
AcDbEntity
  8
1
  6
Continuous
100
AcDbLine
 10
116.6030775600009
 20
203.8295617871094
 30
0.0
 11
116.103077560001
 21
204.3295617871087
 31
0.0
  0
LINE
  5
C1B9
330
BFE7
100
AcDbEntity
  8
1
  6
Continuous
100
AcDbLine
 10
125.103077560001
 20
204.3295617871144
 30
0.0
 11
125.103077560001
 21
215.8295617871091
 31
0.0
  0
LINE
  5
C1BA
330
BFE7
100
AcDbEntity
  8
1
  6
Continuous
100
AcDbLine
 10
125.6030775599956
 20
216.8295617871394
 30
0.0
 11
126.6030775599957
 21
217.8295617871393
 31
0.0
  0
LINE
  5
C1BB
330
BFE7
100
AcDbEntity
  8
1
  6
Continuous
100
AcDbLine
 10
126.6030775599885
 20
219.8295617871393
 30
0.0
 11
126.6030775599887
 21
220.4295617871395
 31
0.0
  0
LINE
  5
C1BC
330
BFE7
100
AcDbEntity
  8
1
  6
Continuous
100
AcDbLine
 10
126.1030775599958
 20
219.8295617871393
 30
0.0
 11
126.6030775599958
 21
219.3295617871394
 31
0.0
  0
LINE
  5
C1BD
330
BFE7
100
AcDbEntity
  8
1
  6
Continuous
100
AcDbLine
 10
126.6030775599957
 20
217.8295617871393
 30
0.0
 11
126.6030775599957
 21
219.3295617871394
 31
0.0
  0
LINE
  5
C1BE
330
BFE7
100
AcDbEntity
  8
1
  6
Continuous
100
AcDbLine
 10
124.6030775600009
 20
203.8295617871138
 30
0.0
 11
125.103077560001
 21
204.3295617871144
 31
0.0
  0
LINE
  5
C1BF
330
BFE7
100
AcDbEntity
  8
1
  6
Continuous
100
AcDbLine
 10
125.6030775599723
 20
230.529561787148
 30
0.0
 11
115.6030775599729
 21
230.529561787148
 31
0.0
  0
LINE
  5
C1C0
330
BFE7
100
AcDbEntity
  8
1
  6
Continuous
100
AcDbLine
 10
125.5030775599754
 20
226.429561787106
 30
0.0
 11
115.7030775599761
 21
226.4295617871098
 31
0.0
  0
LINE
  5
C1C1
330
BFE7
100
AcDbEntity
  8
1
  6
Continuous
100
AcDbLine
 10
125.5030775599729
 20
230.429561787106
 30
0.0
 11
115.7030775599729
 21
230.4295617871098
 31
0.0
  0
LINE
  5
C1C2
330
BFE7
100
AcDbEntity
  8
1
  6
Continuous
100
AcDbLine
 10
115.7030775599729
 20
230.4295617871098
 30
0.0
 11
115.7030775599769
 21
225.4295617871098
 31
0.0
  0
LINE
  5
C1C3
330
BFE7
100
AcDbEntity
  8
1
  6
Continuous
100
AcDbLine
 10
125.5030775599729
 20
230.429561787106
 30
0.0
 11
125.503077559976
 21
225.429561787106
 31
0.0
  0
LINE
  5
C1C4
330
BFE7
100
AcDbEntity
  8
4
  6
CENTER
100
AcDbLine
 10
279.8139658081144
 20
150.9970402767581
 30
0.0
 11
279.8139658081428
 21
113.0970402767958
 31
0.0
  0
ARC
  5
C1C5
330
BFE7
100
AcDbEntity
  8
1
  6
Continuous
100
AcDbCircle
 10
279.8139658081287
 20
132.0970402767964
 30
0.0
 40
6.0
100
AcDbArc
 50
158.9605302173123
 51
201.0394697826896
  0
LINE
  5
C1C6
330
BFE7
100
AcDbEntity
  8
4
  6
CENTER
100
AcDbLine
 10
290.1139658081802
 20
120.0970402767962
 30
0.0
 11
269.5139658080901
 21
120.0970402767962
 31
0.0
  0
LINE
  5
C1C7
330
BFE7
100
AcDbEntity
  8
1
  6
Continuous
100
AcDbLine
 10
285.4139658081802
 20
116.0970402767958
 30
0.0
 11
274.2139658081803
 21
116.0970402767958
 31
0.0
  0
LINE
  5
C1C8
330
BFE7
100
AcDbEntity
  8
4
  6
CENTER
100
AcDbLine
 10
287.3139658081287
 20
132.0970402767964
 30
0.0
 11
272.3139658081287
 21
132.0970402767964
 31
0.0
  0
ARC
  5
C1C9
330
BFE7
100
AcDbEntity
  8
1
  6
Continuous
100
AcDbCircle
 10
286.126231018226
 20
118.7124112781418
 30
0.0
 40
0.8
100
AcDbArc
 50
275.0
 51
344.5572841724199
  0
LINE
  5
C1CA
330
BFE7
100
AcDbEntity
  8
1
  6
Continuous
100
AcDbLine
 10
285.4139658081802
 20
117.847040276796
 30
0.0
 11
286.1959556124367
 21
117.9154555195267
 31
0.0
  0
LINE
  5
C1CB
330
BFE7
100
AcDbEntity
  8
1
  6
Continuous
100
AcDbLine
 10
285.4139658081802
 20
122.3470402767962
 30
0.0
 11
286.1959556124572
 21
122.2786250342051
 31
0.0
  0
ARC
  5
C1CC
330
BFE7
100
AcDbEntity
  8
1
  6
Continuous
100
AcDbCircle
 10
281.1139658081803
 20
120.0970402767962
 30
0.0
 40
6.0
100
AcDbArc
 50
344.5572841724199
 51
15.4427158275799
  0
ARC
  5
C1CD
330
BFE7
100
AcDbEntity
  8
1
  6
Continuous
100
AcDbCircle
 10
286.1262310182346
 20
121.4816692754524
 30
0.0
 40
0.8
100
AcDbArc
 50
15.4427158275799
 51
85.00000000000003
  0
LINE
  5
C1CE
330
BFE7
100
AcDbEntity
  8
4
  6
CENTER
100
AcDbLine
 10
277.0139658081526
 20
122.0970402767963
 30
0.0
 11
282.6139658081526
 21
122.0970402767963
 31
0.0
  0
ARC
  5
C1CF
330
BFE7
100
AcDbEntity
  8
1
  6
Continuous
100
AcDbCircle
 10
273.5017005980509
 20
118.7124112781325
 30
0.0
 40
0.8
100
AcDbArc
 50
195.4427158276656
 51
265.0000000000856
  0
LINE
  5
C1D0
330
BFE7
100
AcDbEntity
  8
1
  6
Continuous
100
AcDbLine
 10
274.2139658080981
 20
117.8470402767878
 30
0.0
 11
273.4319760038416
 21
117.9154555195172
 31
0.0
  0
ARC
  5
C1D1
330
BFE7
100
AcDbEntity
  8
1
  6
Continuous
100
AcDbCircle
 10
278.5139658080948
 20
120.0970402767943
 30
0.0
 40
6.0
100
AcDbArc
 50
164.5572841725057
 51
195.4427158276656
  0
LINE
  5
C1D2
330
BFE7
100
AcDbEntity
  8
1
  6
Continuous
100
AcDbLine
 10
274.2139658080914
 20
122.3470402767875
 30
0.0
 11
273.4319760038145
 21
122.2786250341955
 31
0.0
  0
ARC
  5
C1D3
330
BFE7
100
AcDbEntity
  8
1
  6
Continuous
100
AcDbCircle
 10
273.5017005980381
 20
121.4816692754431
 30
0.0
 40
0.8
100
AcDbArc
 50
95.00000000008562
 51
164.5572841725057
  0
LINE
  5
C1D4
330
BFE7
100
AcDbEntity
  8
4
  6
CENTER
100
AcDbLine
 10
290.1139658081802
 20
140.0970402767962
 30
0.0
 11
269.5139658080901
 21
140.0970402767962
 31
0.0
  0
LINE
  5
C1D5
330
BFE7
100
AcDbEntity
  8
1
  6
Continuous
100
AcDbLine
 10
274.9139658080665
 20
147.9970402767569
 30
0.0
 11
284.713965808066
 21
147.9970402767593
 31
0.0
  0
LINE
  5
C1D6
330
BFE7
100
AcDbEntity
  8
1
  6
Continuous
100
AcDbLine
 10
285.4139658081767
 20
144.0970402767968
 30
0.0
 11
274.2139658081803
 21
144.0970402767961
 31
0.0
  0
LINE
  5
C1D7
330
BFE7
100
AcDbEntity
  8
1
  6
Continuous
100
AcDbLine
 10
285.4139658081802
 20
142.3470402767961
 30
0.0
 11
286.1959556124572
 21
142.2786250342051
 31
0.0
  0
LINE
  5
C1D8
330
BFE7
100
AcDbEntity
  8
1
  6
Continuous
100
AcDbLine
 10
285.4139658081802
 20
137.8470402767962
 30
0.0
 11
286.1959556124367
 21
137.9154555195265
 31
0.0
  0
ARC
  5
C1D9
330
BFE7
100
AcDbEntity
  8
1
  6
Continuous
100
AcDbCircle
 10
281.1139658081803
 20
140.0970402767963
 30
0.0
 40
6.0
100
AcDbArc
 50
344.5572841724199
 51
15.4427158275799
  0
ARC
  5
C1DA
330
BFE7
100
AcDbEntity
  8
1
  6
Continuous
100
AcDbCircle
 10
286.126231018226
 20
138.7124112781419
 30
0.0
 40
0.8
100
AcDbArc
 50
275.0
 51
344.5572841724199
  0
ARC
  5
C1DB
330
BFE7
100
AcDbEntity
  8
1
  6
Continuous
100
AcDbCircle
 10
286.1262310182346
 20
141.4816692754525
 30
0.0
 40
0.8
100
AcDbArc
 50
15.4427158275799
 51
85.00000000000003
  0
LINE
  5
C1DC
330
BFE7
100
AcDbEntity
  8
1
  6
Continuous
100
AcDbLine
 10
285.4139658081802
 20
144.097040276796
 30
0.0
 11
285.4139658081802
 21
116.0970402767959
 31
0.0
  0
LINE
  5
C1DD
330
BFE7
100
AcDbEntity
  8
1
  6
Continuous
100
AcDbLine
 10
284.7139658080664
 20
147.9970402767569
 30
0.0
 11
284.7139658080664
 21
144.0970402767968
 31
0.0
  0
ARC
  5
C1DE
330
BFE7
100
AcDbEntity
  8
1
  6
Continuous
100
AcDbCircle
 10
278.5139658080901
 20
140.0970402767937
 30
0.0
 40
6.0
100
AcDbArc
 50
164.5572841725057
 51
195.4427158276656
  0
LINE
  5
C1DF
330
BFE7
100
AcDbEntity
  8
1
  6
Continuous
100
AcDbLine
 10
274.2139658081803
 20
144.097040276796
 30
0.0
 11
274.2139658081803
 21
116.0970402767959
 31
0.0
  0
LINE
  5
C1E0
330
BFE7
100
AcDbEntity
  8
1
  6
Continuous
100
AcDbLine
 10
274.2139658080934
 20
137.8470402767873
 30
0.0
 11
273.431976003837
 21
137.9154555195166
 31
0.0
  0
ARC
  5
C1E1
330
BFE7
100
AcDbEntity
  8
1
  6
Continuous
100
AcDbCircle
 10
273.5017005980464
 20
138.712411278132
 30
0.0
 40
0.8
100
AcDbArc
 50
195.4427158276656
 51
265.0000000000856
  0
LINE
  5
C1E2
330
BFE7
100
AcDbEntity
  8
1
  6
Continuous
100
AcDbLine
 10
274.9139658080665
 20
147.9970402767569
 30
0.0
 11
274.9139658080665
 21
144.0970402767961
 31
0.0
  0
LINE
  5
C1E3
330
BFE7
100
AcDbEntity
  8
1
  6
Continuous
100
AcDbLine
 10
274.2139658080867
 20
142.3470402767873
 30
0.0
 11
273.4319760038097
 21
142.2786250341951
 31
0.0
  0
ARC
  5
C1E4
330
BFE7
100
AcDbEntity
  8
1
  6
Continuous
100
AcDbCircle
 10
273.5017005980336
 20
141.4816692754427
 30
0.0
 40
0.8
100
AcDbArc
 50
95.00000000008562
 51
164.5572841725057
  0
ARC
  5
C1E5
330
BFE7
100
AcDbEntity
  8
1
  6
Continuous
100
AcDbCircle
 10
279.8139658081287
 20
132.0970402767964
 30
0.0
 40
6.0
100
AcDbArc
 50
338.9605302200529
 51
21.03946977994712
  0
CIRCLE
  5
C1E6
330
BFE7
100
AcDbEntity
  8
1
  6
Continuous
100
AcDbCircle
 10
279.8139658081288
 20
132.0970402767964
 30
0.0
 40
2.95
  0
CIRCLE
  5
C1E7
330
BFE7
100
AcDbEntity
  8
1
  6
Continuous
100
AcDbCircle
 10
279.8139658081288
 20
132.0970402767964
 30
0.0
 40
3.75
  0
ENDSEC
  0
SECTION
  2
OBJECTS
  0
DICTIONARY
  5
BFD5
330
0
100
AcDbDictionary
281
     1
  3
ACAD_CIP_PREVIOUS_PRODUCT_INFO
350
C324
  3
ACAD_COLOR
350
C306
  3
ACAD_DETAILVIEWSTYLE
350
C31F
  3
ACAD_GROUP
350
BFD6
  3
ACAD_LAYOUT
350
BFE2
  3
ACAD_MATERIAL
350
C2D4
  3
ACAD_MLEADERSTYLE
350
C31B
  3
ACAD_MLINESTYLE
350
BFDF
  3
ACAD_PLOTSETTINGS
350
BFE1
  3
ACAD_PLOTSTYLENAME
350
C2D2
  3
ACAD_SCALELIST
350
C309
  3
ACAD_SECTIONVIEWSTYLE
350
C31D
  3
ACAD_TABLESTYLE
350
C307
  3
ACAD_VISUALSTYLE
350
C2ED
  3
ACDB_RECOMPOSE_DATA
350
C342
  3
AcDbVariableDictionary
350
C335
  3
DWGPROPS
350
C343
  0
DICTIONARY
  5
C325
330
BFD9
100
AcDbDictionary
280
     1
281
     1
  3
ADSK_XREC_LAYER_RECONCILED
360
C326
  0
DICTIONARY
  5
C327
330
BFEF
100
AcDbDictionary
280
     1
281
     1
  3
ADSK_XREC_LAYER_RECONCILED
360
C328
  0
DICTIONARY
  5
C329
330
BFF0
100
AcDbDictionary
280
     1
281
     1
  3
ADSK_XREC_LAYER_RECONCILED
360
C32A
  0
DICTIONARY
  5
C32B
330
BFF1
100
AcDbDictionary
280
     1
281
     1
  3
ADSK_XREC_LAYER_RECONCILED
360
C32C
  0
DICTIONARY
  5
C32D
330
BFF2
100
AcDbDictionary
280
     1
281
     1
  3
ADSK_XREC_LAYER_RECONCILED
360
C32E
  0
DICTIONARY
  5
C32F
330
BFF3
100
AcDbDictionary
280
     1
281
     1
  3
ADSK_XREC_LAYER_RECONCILED
360
C330
  0
DICTIONARY
  5
C331
330
BFF4
100
AcDbDictionary
280
     1
281
     1
  3
ADSK_XREC_LAYER_RECONCILED
360
C332
  0
DICTIONARY
  5
C333
330
BFF5
100
AcDbDictionary
280
     1
281
     1
  3
ADSK_XREC_LAYER_RECONCILED
360
C334
  0
DICTIONARY
  5
C2CD
330
BFE7
100
AcDbDictionary
281
     1
  3
ACAD_LAYOUTSELFREF
350
C2CE
  0
DICTIONARY
  5
C2CB
330
BFE3
100
AcDbDictionary
281
     1
  3
ACAD_LAYOUTSELFREF
350
C2CC
  0
XRECORD
  5
C324
102
{ACAD_REACTORS
330
BFD5
102
}
330
BFD5
100
AcDbXrecord
280
     1
300
ACDLT
300
2014
300
ACDLT_F_S
  0
DICTIONARY
  5
C306
102
{ACAD_REACTORS
330
BFD5
102
}
330
BFD5
100
AcDbDictionary
281
     1
  0
DICTIONARY
  5
C31F
102
{ACAD_REACTORS
330
BFD5
102
}
330
BFD5
100
AcDbDictionary
281
     1
  3
Imperial24
350
C320
  0
DICTIONARY
  5
BFD6
102
{ACAD_REACTORS
330
BFD5
102
}
330
BFD5
100
AcDbDictionary
281
     1
  0
DICTIONARY
  5
BFE2
102
{ACAD_REACTORS
330
BFD5
102
}
330
BFD5
100
AcDbDictionary
281
     1
  3
Model
350
C321
  3
レイアウト1
350
C322
  0
DICTIONARY
  5
C2D4
102
{ACAD_REACTORS
330
BFD5
102
}
330
BFD5
100
AcDbDictionary
281
     1
  3
ByBlock
350
C2DD
  3
ByLayer
350
C2D5
  3
Global
350
C2E5
  0
DICTIONARY
  5
C31B
102
{ACAD_REACTORS
330
BFD5
102
}
330
BFD5
100
AcDbDictionary
281
     1
  3
Standard
350
C31C
  0
DICTIONARY
  5
BFDF
102
{ACAD_REACTORS
330
BFD5
102
}
330
BFD5
100
AcDbDictionary
281
     1
  3
STANDARD
350
BFE0
  0
DICTIONARY
  5
BFE1
102
{ACAD_REACTORS
330
BFD5
102
}
330
BFD5
100
AcDbDictionary
281
     1
  0
ACDBDICTIONARYWDFLT
  5
C2D2
102
{ACAD_REACTORS
330
BFD5
102
}
330
BFD5
100
AcDbDictionary
281
     1
  3
Normal
350
C2D3
100
AcDbDictionaryWithDefault
340
C2D3
  0
DICTIONARY
  5
C309
102
{ACAD_REACTORS
330
BFD5
102
}
330
BFD5
100
AcDbDictionary
281
     1
  3
A0
350
C30A
  3
A1
350
C30B
  3
A2
350
C30C
  3
A3
350
C30D
  3
A4
350
C30E
  3
A5
350
C30F
  3
A6
350
C310
  3
A7
350
C311
  3
A8
350
C312
  3
A9
350
C313
  3
B0
350
C314
  3
B1
350
C315
  3
B2
350
C316
  3
B3
350
C317
  3
B4
350
C318
  3
B5
350
C319
  3
B6
350
C31A
  0
DICTIONARY
  5
C31D
102
{ACAD_REACTORS
330
BFD5
102
}
330
BFD5
100
AcDbDictionary
281
     1
  3
Imperial24
350
C31E
  0
DICTIONARY
  5
C307
102
{ACAD_REACTORS
330
BFD5
102
}
330
BFD5
100
AcDbDictionary
281
     1
  3
Standard
350
C308
  0
DICTIONARY
  5
C2ED
102
{ACAD_REACTORS
330
BFD5
102
}
330
BFD5
100
AcDbDictionary
281
     1
  3
2dWireframe
350
C2F3
  3
Basic
350
C2F2
  3
Brighten
350
C2F9
  3
ColorChange
350
C2FD
  3
Conceptual
350
C2F6
  3
Dim
350
C2F8
  3
EdgeColorOff
350
C305
  3
Facepattern
350
C2FC
  3
Flat
350
C2EE
  3
FlatWithEdges
350
C2EF
  3
Gouraud
350
C2F0
  3
GouraudWithEdges
350
C2F1
  3
Hidden
350
C2F5
  3
JitterOff
350
C303
  3
Linepattern
350
C2FB
  3
OverhangOff
350
C304
  3
Realistic
350
C2F7
  3
Shaded
350
C302
  3
Shaded with edges
350
C301
  3
Shades of Gray
350
C2FE
  3
Sketchy
350
C2FF
  3
Thicken
350
C2FA
  3
Wireframe
350
C2F4
  3
X-Ray
350
C300
  0
XRECORD
  5
C342
102
{ACAD_REACTORS
330
BFD5
102
}
330
BFD5
100
AcDbXrecord
280
     1
 90
        1
330
C308
  0
DICTIONARY
  5
C335
102
{ACAD_REACTORS
330
BFD5
102
}
330
BFD5
100
AcDbDictionary
281
     1
  3
CANNOSCALE
350
C33A
  3
CMLEADERSTYLE
350
C337
  3
CTABLESTYLE
350
C336
  3
CVIEWDETAILSTYLE
350
C338
  3
CVIEWSECTIONSTYLE
350
C339
  3
DIMASSOC
350
C33D
  3
INDEXCTL
350
C33C
  3
SORTENTS
350
C33B
  3
XCLIPFRAME
350
C33E
  0
XRECORD
  5
C343
102
{ACAD_REACTORS
330
BFD5
102
}
330
BFD5
100
AcDbXrecord
280
     1
  1
DWGPROPS COOKIE
  2

  3

  4

  6

  7

  8
Yoshitsune
  9

300
=
301
=
302
=
303
=
304
=
305
=
306
=
307
=
308
=
309
=
 40
0.1967881134259259
 41
2451066.652925463
 42
2457192.601626019
  1

 90
        0
  0
XRECORD
  5
C326
102
{ACAD_REACTORS
330
C325
102
}
330
C325
100
AcDbXrecord
280
     1
290
     1
  0
XRECORD
  5
C328
102
{ACAD_REACTORS
330
C327
102
}
330
C327
100
AcDbXrecord
280
     1
290
     1
  0
XRECORD
  5
C32A
102
{ACAD_REACTORS
330
C329
102
}
330
C329
100
AcDbXrecord
280
     1
290
     1
  0
XRECORD
  5
C32C
102
{ACAD_REACTORS
330
C32B
102
}
330
C32B
100
AcDbXrecord
280
     1
290
     1
  0
XRECORD
  5
C32E
102
{ACAD_REACTORS
330
C32D
102
}
330
C32D
100
AcDbXrecord
280
     1
290
     1
  0
XRECORD
  5
C330
102
{ACAD_REACTORS
330
C32F
102
}
330
C32F
100
AcDbXrecord
280
     1
290
     1
  0
XRECORD
  5
C332
102
{ACAD_REACTORS
330
C331
102
}
330
C331
100
AcDbXrecord
280
     1
290
     1
  0
XRECORD
  5
C334
102
{ACAD_REACTORS
330
C333
102
}
330
C333
100
AcDbXrecord
280
     1
290
     1
  0
XRECORD
  5
C2CE
102
{ACAD_REACTORS
330
C2CD
102
}
330
C2CD
100
AcDbXrecord
280
     1
340
BFE7
  0
XRECORD
  5
C2CC
102
{ACAD_REACTORS
330
C2CB
102
}
330
C2CB
100
AcDbXrecord
280
     1
340
BFE3
  0
ACDBDETAILVIEWSTYLE
  5
C320
102
{ACAD_XDICTIONARY
360
C37B
102
}
102
{ACAD_REACTORS
330
C31F
102
}
330
C31F
100
AcDbModelDocViewStyle
 70
     0
  3
Imperial24
290
     0
100
AcDbDetailViewStyle
 70
     0
 71
     0
 90
        3
 71
     1
340
BFDA
 40
0.24
340
0
 40
0.24
300

 40
0.36
280
     3
 71
     2
340
BFDE
 90
       25
 71
     3
340
BFDA
 40
0.24
 90
        1
 40
0.75
 90
        1
300
%<\AcVar ViewType \f "%tc1">% %<\AcVar ViewDetailId>%\PSCALE %<\AcVar ViewScale \f "%sn">%
 71
     4
340
BFDE
 90
       25
340
BFDE
 90
       25
280
     0
  0
LAYOUT
  5
C321
102
{ACAD_XDICTIONARY
360
C37D
102
}
102
{ACAD_REACTORS
330
BFE2
102
}
330
BFE2
100
AcDbPlotSettings
  1

  2
Canon LBP9100C
  4

  6

 40
0.0
 41
0.0
 42
0.0
 43
0.0
 44
0.0
 45
0.0
 46
0.0
 47
0.0
 48
0.0
 49
0.0
140
0.0
141
0.0
142
1.0
143
1.0
 70
  1712
 72
     0
 73
     0
 74
     0
  7

 75
     0
147
1.0
148
0.0
149
0.0
100
AcDbLayout
  1
Model
 70
     1
 71
     0
 10
0.0
 20
0.0
 11
12.0
 21
9.0
 12
0.0
 22
0.0
 32
0.0
 14
0.0
 24
0.0
 34
0.0
 15
0.0
 25
0.0
 35
0.0
146
0.0
 13
0.0
 23
0.0
 33
0.0
 16
1.0
 26
0.0
 36
0.0
 17
0.0
 27
1.0
 37
0.0
 76
     0
330
BFE7
331
C2CA
  0
LAYOUT
  5
C322
102
{ACAD_XDICTIONARY
360
C37F
102
}
102
{ACAD_REACTORS
330
BFE2
102
}
330
BFE2
100
AcDbPlotSettings
  1

  2
Canon LBP9100C
  4

  6

 40
0.0
 41
0.0
 42
0.0
 43
0.0
 44
0.0
 45
0.0
 46
0.0
 47
0.0
 48
0.0
 49
0.0
140
0.0
141
0.0
142
1.0
143
1.0
 70
   688
 72
     0
 73
     0
 74
     5
  7

 75
    16
147
1.0
148
0.0
149
0.0
100
AcDbLayout
  1
レイアウト1
 70
     0
 71
     1
 10
0.0
 20
0.0
 11
420.0
 21
297.0
 12
0.0
 22
0.0
 32
0.0
 14
1.000000000000000E+20
 24
1.000000000000000E+20
 34
1.000000000000000E+20
 15
-1.000000000000000E+20
 25
-1.000000000000000E+20
 35
-1.000000000000000E+20
146
0.0
 13
0.0
 23
0.0
 33
0.0
 16
1.0
 26
0.0
 36
0.0
 17
0.0
 27
1.0
 37
0.0
 76
     0
330
BFE3
  0
MATERIAL
  5
C2DD
102
{ACAD_XDICTIONARY
360
C2DE
102
}
102
{ACAD_REACTORS
330
C2D4
102
}
330
C2D4
100
AcDbMaterial
  1
ByBlock
 72
     0
 43
0.0208333333333333
 43
0.0
 43
0.0
 43
0.0
 43
0.0
 43
0.0208333333333333
 43
0.0
 43
0.0
 43
0.0
 43
0.0
 43
1.0
 43
0.0
 43
0.0
 43
0.0
 43
0.0
 43
1.0
 77
     0
 47
0.0208333333333333
 47
0.0
 47
0.0
 47
0.0
 47
0.0
 47
0.0208333333333333
 47
0.0
 47
0.0
 47
0.0
 47
0.0
 47
1.0
 47
0.0
 47
0.0
 47
0.0
 47
0.0
 47
1.0
171
     0
 49
0.0208333333333333
 49
0.0
 49
0.0
 49
0.0
 49
0.0
 49
0.0208333333333333
 49
0.0
 49
0.0
 49
0.0
 49
0.0
 49
1.0
 49
0.0
 49
0.0
 49
0.0
 49
0.0
 49
1.0
175
     0
142
0.0208333333333333
142
0.0
142
0.0
142
0.0
142
0.0
142
0.0208333333333333
142
0.0
142
0.0
142
0.0
142
0.0
142
1.0
142
0.0
142
0.0
142
0.0
142
0.0
142
1.0
179
     0
144
0.0208333333333333
144
0.0
144
0.0
144
0.0
144
0.0
144
0.0208333333333333
144
0.0
144
0.0
144
0.0
144
0.0
144
1.0
144
0.0
144
0.0
144
0.0
144
0.0
144
1.0
147
0.0208333333333333
147
0.0
147
0.0
147
0.0
147
0.0
147
0.0208333333333333
147
0.0
147
0.0
147
0.0
147
0.0
147
1.0
147
0.0
147
0.0
147
0.0
147
0.0
147
1.0
  0
MATERIAL
  5
C2D5
102
{ACAD_XDICTIONARY
360
C2D6
102
}
102
{ACAD_REACTORS
330
C2D4
102
}
330
C2D4
100
AcDbMaterial
  1
ByLayer
 72
     0
 43
0.0208333333333333
 43
0.0
 43
0.0
 43
0.0
 43
0.0
 43
0.0208333333333333
 43
0.0
 43
0.0
 43
0.0
 43
0.0
 43
1.0
 43
0.0
 43
0.0
 43
0.0
 43
0.0
 43
1.0
 77
     0
 47
0.0208333333333333
 47
0.0
 47
0.0
 47
0.0
 47
0.0
 47
0.0208333333333333
 47
0.0
 47
0.0
 47
0.0
 47
0.0
 47
1.0
 47
0.0
 47
0.0
 47
0.0
 47
0.0
 47
1.0
171
     0
 49
0.0208333333333333
 49
0.0
 49
0.0
 49
0.0
 49
0.0
 49
0.0208333333333333
 49
0.0
 49
0.0
 49
0.0
 49
0.0
 49
1.0
 49
0.0
 49
0.0
 49
0.0
 49
0.0
 49
1.0
175
     0
142
0.0208333333333333
142
0.0
142
0.0
142
0.0
142
0.0
142
0.0208333333333333
142
0.0
142
0.0
142
0.0
142
0.0
142
1.0
142
0.0
142
0.0
142
0.0
142
0.0
142
1.0
179
     0
144
0.0208333333333333
144
0.0
144
0.0
144
0.0
144
0.0
144
0.0208333333333333
144
0.0
144
0.0
144
0.0
144
0.0
144
1.0
144
0.0
144
0.0
144
0.0
144
0.0
144
1.0
147
0.0208333333333333
147
0.0
147
0.0
147
0.0
147
0.0
147
0.0208333333333333
147
0.0
147
0.0
147
0.0
147
0.0
147
1.0
147
0.0
147
0.0
147
0.0
147
0.0
147
1.0
  0
MATERIAL
  5
C2E5
102
{ACAD_XDICTIONARY
360
C2E6
102
}
102
{ACAD_REACTORS
330
C2D4
102
}
330
C2D4
100
AcDbMaterial
  1
Global
 72
     0
 43
0.0208333333333333
 43
0.0
 43
0.0
 43
0.0
 43
0.0
 43
0.0208333333333333
 43
0.0
 43
0.0
 43
0.0
 43
0.0
 43
1.0
 43
0.0
 43
0.0
 43
0.0
 43
0.0
 43
1.0
 77
     0
 47
0.0208333333333333
 47
0.0
 47
0.0
 47
0.0
 47
0.0
 47
0.0208333333333333
 47
0.0
 47
0.0
 47
0.0
 47
0.0
 47
1.0
 47
0.0
 47
0.0
 47
0.0
 47
0.0
 47
1.0
171
     0
 49
0.0208333333333333
 49
0.0
 49
0.0
 49
0.0
 49
0.0
 49
0.0208333333333333
 49
0.0
 49
0.0
 49
0.0
 49
0.0
 49
1.0
 49
0.0
 49
0.0
 49
0.0
 49
0.0
 49
1.0
175
     0
142
0.0208333333333333
142
0.0
142
0.0
142
0.0
142
0.0
142
0.0208333333333333
142
0.0
142
0.0
142
0.0
142
0.0
142
1.0
142
0.0
142
0.0
142
0.0
142
0.0
142
1.0
179
     0
144
0.0208333333333333
144
0.0
144
0.0
144
0.0
144
0.0
144
0.0208333333333333
144
0.0
144
0.0
144
0.0
144
0.0
144
1.0
144
0.0
144
0.0
144
0.0
144
0.0
144
1.0
147
0.0208333333333333
147
0.0
147
0.0
147
0.0
147
0.0
147
0.0208333333333333
147
0.0
147
0.0
147
0.0
147
0.0
147
1.0
147
0.0
147
0.0
147
0.0
147
0.0
147
1.0
  0
MLEADERSTYLE
  5
C31C
102
{ACAD_REACTORS
330
C31B
102
}
330
C31B
100
AcDbMLeaderStyle
170
     2
171
     1
172
     0
 90
        2
 40
0.0
 41
0.0
173
     1
 91
-1056964608
340
BFDC
 92
       -2
290
     1
 42
0.09
291
     1
 43
0.36
  3
Standard
 44
0.18
300

342
BFDA
174
     1
178
     6
175
     1
176
     0
 93
-1056964608
 45
0.18
292
     0
297
     0
 46
0.18
 94
-1056964608
 47
1.0
 49
1.0
140
1.0
293
     1
141
0.0
294
     1
177
     0
142
1.0
295
     0
296
     0
143
0.125
1001
ACAD_MLEADERVER
1070
     2
  0
MLINESTYLE
  5
BFE0
102
{ACAD_REACTORS
330
BFDF
102
}
330
BFDF
100
AcDbMlineStyle
  2
STANDARD
 70
     0
  3

 62
   256
 51
90.0
 52
90.0
 71
     2
 49
0.5
 62
   256
  6
BYLAYER
 49
-0.5
 62
   256
  6
BYLAYER
  0
ACDBPLACEHOLDER
  5
C2D3
102
{ACAD_REACTORS
330
C2D2
102
}
330
C2D2
  0
SCALE
  5
C30A
102
{ACAD_REACTORS
330
C309
102
}
330
C309
100
AcDbScale
 70
     0
300
1:1
140
1.0
141
1.0
290
     1
  0
SCALE
  5
C30B
102
{ACAD_REACTORS
330
C309
102
}
330
C309
100
AcDbScale
 70
     0
300
1/128" = 1'-0"
140
0.0078125
141
12.0
290
     0
  0
SCALE
  5
C30C
102
{ACAD_REACTORS
330
C309
102
}
330
C309
100
AcDbScale
 70
     0
300
1/64" = 1'-0"
140
0.015625
141
12.0
290
     0
  0
SCALE
  5
C30D
102
{ACAD_REACTORS
330
C309
102
}
330
C309
100
AcDbScale
 70
     0
300
1/32" = 1'-0"
140
0.03125
141
12.0
290
     0
  0
SCALE
  5
C30E
102
{ACAD_REACTORS
330
C309
102
}
330
C309
100
AcDbScale
 70
     0
300
1/16" = 1'-0"
140
0.0625
141
12.0
290
     0
  0
SCALE
  5
C30F
102
{ACAD_REACTORS
330
C309
102
}
330
C309
100
AcDbScale
 70
     0
300
3/32" = 1'-0"
140
0.09375
141
12.0
290
     0
  0
SCALE
  5
C310
102
{ACAD_REACTORS
330
C309
102
}
330
C309
100
AcDbScale
 70
     0
300
1/8" = 1'-0"
140
0.125
141
12.0
290
     0
  0
SCALE
  5
C311
102
{ACAD_REACTORS
330
C309
102
}
330
C309
100
AcDbScale
 70
     0
300
3/16" = 1'-0"
140
0.1875
141
12.0
290
     0
  0
SCALE
  5
C312
102
{ACAD_REACTORS
330
C309
102
}
330
C309
100
AcDbScale
 70
     0
300
1/4" = 1'-0"
140
0.25
141
12.0
290
     0
  0
SCALE
  5
C313
102
{ACAD_REACTORS
330
C309
102
}
330
C309
100
AcDbScale
 70
     0
300
3/8" = 1'-0"
140
0.375
141
12.0
290
     0
  0
SCALE
  5
C314
102
{ACAD_REACTORS
330
C309
102
}
330
C309
100
AcDbScale
 70
     0
300
1/2" = 1'-0"
140
0.5
141
12.0
290
     0
  0
SCALE
  5
C315
102
{ACAD_REACTORS
330
C309
102
}
330
C309
100
AcDbScale
 70
     0
300
3/4" = 1'-0"
140
0.75
141
12.0
290
     0
  0
SCALE
  5
C316
102
{ACAD_REACTORS
330
C309
102
}
330
C309
100
AcDbScale
 70
     0
300
1" = 1'-0"
140
1.0
141
12.0
290
     0
  0
SCALE
  5
C317
102
{ACAD_REACTORS
330
C309
102
}
330
C309
100
AcDbScale
 70
     0
300
1-1/2" = 1'-0"
140
1.5
141
12.0
290
     0
  0
SCALE
  5
C318
102
{ACAD_REACTORS
330
C309
102
}
330
C309
100
AcDbScale
 70
     0
300
3" = 1'-0"
140
3.0
141
12.0
290
     0
  0
SCALE
  5
C319
102
{ACAD_REACTORS
330
C309
102
}
330
C309
100
AcDbScale
 70
     0
300
6" = 1'-0"
140
6.0
141
12.0
290
     0
  0
SCALE
  5
C31A
102
{ACAD_REACTORS
330
C309
102
}
330
C309
100
AcDbScale
 70
     0
300
1'-0" = 1'-0"
140
12.0
141
12.0
290
     0
  0
ACDBSECTIONVIEWSTYLE
  5
C31E
102
{ACAD_XDICTIONARY
360
C379
102
}
102
{ACAD_REACTORS
330
C31D
102
}
330
C31D
100
AcDbModelDocViewStyle
 70
     0
  3
Imperial24
290
     0
100
AcDbSectionViewStyle
 70
     0
 71
     0
 90
       78
 71
     1
340
BFDA
 40
0.24
340
0
340
0
 40
0.24
300
I, O, Q, S, X, Z
 40
0.48
 90
        3
 40
0.18
 90
        1
 71
     2
340
BFDE
 90
       25
340
BFDE
 90
       50
 40
0.24
 40
0.0
 40
0.24
 71
     3
340
BFDA
 40
0.24
 90
        1
 40
0.75
 90
        1
300
%<\AcVar ViewType \f "%tc1">% %<\AcVar ViewSectionStartId>%-%<\AcVar ViewSectionEndId>%\PSCALE %<\AcVar ViewScale \f "%sn">%
 71
     4
300
ANSI31
 40
1.0
 90
        0
290
     0
290
     0
 90
        6
 40
0.0
 40
1.570796326794896
 40
0.2617993877991494
 40
1.308996938995747
 40
-0.2617993877991494
 40
1.832595714594046
  0
TABLESTYLE
  5
C308
102
{ACAD_XDICTIONARY
360
C340
102
}
102
{ACAD_REACTORS
330
C307
102
}
330
C307
100
AcDbTableStyle
  3
Standard
 70
     0
 71
     0
 40
0.06
 41
0.06
280
     0
281
     0
  7
STANDARD
140
0.18
170
     2
 62
     0
 63
     7
283
     0
274
    -2
284
     1
 64
     0
275
    -2
285
     1
 65
     0
276
    -2
286
     1
 66
     0
277
    -2
287
     1
 67
     0
278
    -2
288
     1
 68
     0
279
    -2
289
     1
 69
     0
  7
STANDARD
140
0.25
170
     5
 62
     0
 63
     7
283
     0
274
    -2
284
     1
 64
     0
275
    -2
285
     1
 65
     0
276
    -2
286
     1
 66
     0
277
    -2
287
     1
 67
     0
278
    -2
288
     1
 68
     0
279
    -2
289
     1
 69
     0
  7
STANDARD
140
0.18
170
     5
 62
     0
 63
     7
283
     0
274
    -2
284
     1
 64
     0
275
    -2
285
     1
 65
     0
276
    -2
286
     1
 66
     0
277
    -2
287
     1
 67
     0
278
    -2
288
     1
 68
     0
279
    -2
289
     1
 69
     0
  0
VISUALSTYLE
  5
C2F3
102
{ACAD_XDICTIONARY
360
C351
102
}
102
{ACAD_REACTORS
330
C2ED
102
}
330
C2ED
100
AcDbVisualStyle
  2
2dWireframe
 70
     4
 71
     0
 72
     2
 73
     0
 90
        0
 40
-0.6
 41
-30.0
 62
     5
 63
     7
 74
     1
 91
        4
 64
     7
 65
   257
 75
     1
175
     1
 42
1.0
 92
        0
 66
   257
 43
1.0
 76
     1
 77
     6
 78
     2
 67
     7
 79
     5
170
     0
171
     0
290
     0
174
     0
 93
        1
 44
0.0
173
     0
291
     0
 45
0.0
1001
ACAD
1000
AcDbSavedByObjectVersion
1070
     0
  0
VISUALSTYLE
  5
C2F2
102
{ACAD_XDICTIONARY
360
C34F
102
}
102
{ACAD_REACTORS
330
C2ED
102
}
330
C2ED
100
AcDbVisualStyle
  2
Basic
 70
     7
 71
     1
 72
     0
 73
     1
 90
        0
 40
-0.6
 41
-30.0
 62
     5
 63
     7
 74
     0
 91
        4
 64
     7
 65
   257
 75
     1
175
     1
 42
1.0
 92
        8
 66
     7
 43
1.0
 76
     1
 77
     6
 78
     2
 67
     7
 79
     5
170
     0
171
     0
290
     0
174
     0
 93
        1
 44
0.0
173
     0
291
     1
 45
0.0
1001
ACAD
1000
AcDbSavedByObjectVersion
1070
     0
  0
VISUALSTYLE
  5
C2F9
102
{ACAD_XDICTIONARY
360
C35D
102
}
102
{ACAD_REACTORS
330
C2ED
102
}
330
C2ED
100
AcDbVisualStyle
  2
Brighten
 70
    12
 71
     2
 72
     2
 73
     0
 90
        0
 40
-0.6
 41
-30.0
 62
     5
 63
     7
 74
     1
 91
        4
 64
     7
 65
   257
 75
     1
175
     1
 42
1.0
 92
        8
 66
     7
 43
1.0
 76
     1
 77
     6
 78
     2
 67
     7
 79
     5
170
     0
171
     0
290
     0
174
     0
 93
        1
 44
50.0
173
     0
291
     1
 45
0.0
1001
ACAD
1000
AcDbSavedByObjectVersion
1070
     0
  0
VISUALSTYLE
  5
C2FD
102
{ACAD_XDICTIONARY
360
C365
102
}
102
{ACAD_REACTORS
330
C2ED
102
}
330
C2ED
100
AcDbVisualStyle
  2
ColorChange
 70
    16
 71
     2
 72
     2
 73
     3
 90
        0
 40
-0.6
 41
-30.0
 62
     5
 63
     8
 74
     1
 91
        4
 64
     7
 65
   257
 75
     1
175
     1
 42
1.0
 92
        8
 66
     8
 43
1.0
 76
     1
 77
     6
 78
     2
 67
     7
 79
     5
170
     0
171
     0
290
     0
174
     0
 93
        1
 44
0.0
173
     0
291
     1
 45
0.0
1001
ACAD
1000
AcDbSavedByObjectVersion
1070
     0
  0
VISUALSTYLE
  5
C2F6
102
{ACAD_XDICTIONARY
360
C357
102
}
102
{ACAD_REACTORS
330
C2ED
102
}
330
C2ED
100
AcDbVisualStyle
  2
Conceptual
 70
     9
 71
     3
 72
     2
 73
     0
 90
        0
 40
-0.6
 41
-30.0
 62
     5
 63
     7
 74
     2
 91
        2
 64
     7
 65
   257
 75
     1
175
     1
 42
179.0
 92
        8
 66
     7
 43
1.0
 76
     1
 77
     6
 78
     2
 67
     7
 79
     3
170
     0
171
     0
290
     0
174
     0
 93
        1
 44
0.0
173
     0
291
     0
 45
0.0
1001
ACAD
1000
AcDbSavedByObjectVersion
1070
     0
  0
VISUALSTYLE
  5
C2F8
102
{ACAD_XDICTIONARY
360
C35B
102
}
102
{ACAD_REACTORS
330
C2ED
102
}
330
C2ED
100
AcDbVisualStyle
  2
Dim
 70
    11
 71
     2
 72
     2
 73
     0
 90
        0
 40
-0.6
 41
-30.0
 62
     5
 63
     7
 74
     1
 91
        4
 64
     7
 65
   257
 75
     1
175
     1
 42
1.0
 92
        8
 66
     7
 43
1.0
 76
     1
 77
     6
 78
     2
 67
     7
 79
     5
170
     0
171
     0
290
     0
174
     0
 93
        1
 44
-50.0
173
     0
291
     1
 45
0.0
1001
ACAD
1000
AcDbSavedByObjectVersion
1070
     0
  0
VISUALSTYLE
  5
C305
102
{ACAD_XDICTIONARY
360
C375
102
}
102
{ACAD_REACTORS
330
C2ED
102
}
330
C2ED
100
AcDbVisualStyle
  2
EdgeColorOff
 70
    22
 71
     2
 72
     2
 73
     0
 90
        0
 40
-0.6
 41
-30.0
 62
     5
 63
     7
 74
     1
 91
        4
 64
     7
 65
   257
 75
     1
175
     1
 42
1.0
 92
        8
 66
     7
 43
1.0
 76
     1
 77
     6
 78
     2
 67
     7
 79
     5
170
     0
171
     0
290
     0
174
     0
 93
        1
 44
0.0
173
     0
291
     1
 45
0.0
1001
ACAD
1000
AcDbSavedByObjectVersion
1070
     0
  0
VISUALSTYLE
  5
C2FC
102
{ACAD_XDICTIONARY
360
C363
102
}
102
{ACAD_REACTORS
330
C2ED
102
}
330
C2ED
100
AcDbVisualStyle
  2
Facepattern
 70
    15
 71
     2
 72
     2
 73
     0
 90
        0
 40
-0.6
 41
-30.0
 62
     5
 63
     7
 74
     1
 91
        4
 64
     7
 65
   257
 75
     1
175
     1
 42
1.0
 92
        8
 66
     7
 43
1.0
 76
     1
 77
     6
 78
     2
 67
     7
 79
     5
170
     0
171
     0
290
     0
174
     0
 93
        1
 44
0.0
173
     0
291
     1
 45
0.0
1001
ACAD
1000
AcDbSavedByObjectVersion
1070
     0
  0
VISUALSTYLE
  5
C2EE
102
{ACAD_XDICTIONARY
360
C347
102
}
102
{ACAD_REACTORS
330
C2ED
102
}
330
C2ED
100
AcDbVisualStyle
  2
Flat
 70
     0
 71
     2
 72
     1
 73
     1
 90
        2
 40
-0.6
 41
30.0
 62
     5
 63
     7
 74
     0
 91
        0
 64
     7
 65
   257
 75
     1
175
     1
 42
1.0
 92
        8
 66
     7
 43
1.0
 76
     1
 77
     6
 78
     2
 67
     7
 79
     5
170
     0
171
     0
290
     0
174
     0
 93
       13
 44
0.0
173
     0
291
     1
 45
0.0
1001
ACAD
1000
AcDbSavedByObjectVersion
1070
     0
  0
VISUALSTYLE
  5
C2EF
102
{ACAD_XDICTIONARY
360
C349
102
}
102
{ACAD_REACTORS
330
C2ED
102
}
330
C2ED
100
AcDbVisualStyle
  2
FlatWithEdges
 70
     1
 71
     2
 72
     1
 73
     1
 90
        2
 40
-0.6
 41
30.0
 62
     5
 63
     7
 74
     1
 91
        0
 64
     7
 65
   257
 75
     1
175
     1
 42
1.0
 92
        0
 66
   257
 43
1.0
 76
     1
 77
     6
 78
     2
 67
     7
 79
     5
170
     0
171
     0
290
     0
174
     0
 93
       13
 44
0.0
173
     0
291
     1
 45
0.0
1001
ACAD
1000
AcDbSavedByObjectVersion
1070
     0
  0
VISUALSTYLE
  5
C2F0
102
{ACAD_XDICTIONARY
360
C34B
102
}
102
{ACAD_REACTORS
330
C2ED
102
}
330
C2ED
100
AcDbVisualStyle
  2
Gouraud
 70
     2
 71
     2
 72
     2
 73
     1
 90
        2
 40
-0.6
 41
30.0
 62
     5
 63
     7
 74
     0
 91
        0
 64
     7
 65
   257
 75
     1
175
     1
 42
1.0
 92
        0
 66
     7
 43
1.0
 76
     1
 77
     6
 78
     2
 67
     7
 79
     5
170
     0
171
     0
290
     0
174
     0
 93
       13
 44
0.0
173
     0
291
     1
 45
0.0
1001
ACAD
1000
AcDbSavedByObjectVersion
1070
     0
  0
VISUALSTYLE
  5
C2F1
102
{ACAD_XDICTIONARY
360
C34D
102
}
102
{ACAD_REACTORS
330
C2ED
102
}
330
C2ED
100
AcDbVisualStyle
  2
GouraudWithEdges
 70
     3
 71
     2
 72
     2
 73
     1
 90
        2
 40
-0.6
 41
30.0
 62
     5
 63
     7
 74
     1
 91
        0
 64
     7
 65
   257
 75
     1
175
     1
 42
1.0
 92
        0
 66
   257
 43
1.0
 76
     1
 77
     6
 78
     2
 67
     7
 79
     5
170
     0
171
     0
290
     0
174
     0
 93
       13
 44
0.0
173
     0
291
     1
 45
0.0
1001
ACAD
1000
AcDbSavedByObjectVersion
1070
     0
  0
VISUALSTYLE
  5
C2F5
102
{ACAD_XDICTIONARY
360
C355
102
}
102
{ACAD_REACTORS
330
C2ED
102
}
330
C2ED
100
AcDbVisualStyle
  2
Hidden
 70
     6
 71
     1
 72
     2
 73
     2
 90
        0
 40
-0.6
 41
-30.0
 62
     5
 63
     7
 74
     2
 91
        2
 64
     7
 65
   257
 75
     2
175
     1
 42
40.0
 92
        0
 66
   257
 43
1.0
 76
     1
 77
     6
 78
     2
 67
     7
 79
     3
170
     0
171
     0
290
     0
174
     0
 93
        1
 44
0.0
173
     0
291
     0
 45
0.0
1001
ACAD
1000
AcDbSavedByObjectVersion
1070
     0
  0
VISUALSTYLE
  5
C303
102
{ACAD_XDICTIONARY
360
C371
102
}
102
{ACAD_REACTORS
330
C2ED
102
}
330
C2ED
100
AcDbVisualStyle
  2
JitterOff
 70
    20
 71
     2
 72
     2
 73
     0
 90
        0
 40
-0.6
 41
-30.0
 62
     5
 63
     7
 74
     1
 91
        4
 64
     7
 65
   257
 75
     1
175
     1
 42
1.0
 92
       10
 66
     7
 43
1.0
 76
     1
 77
     6
 78
     2
 67
     7
 79
     5
170
     0
171
     0
290
     0
174
     0
 93
        1
 44
0.0
173
     0
291
     1
 45
0.0
1001
ACAD
1000
AcDbSavedByObjectVersion
1070
     0
  0
VISUALSTYLE
  5
C2FB
102
{ACAD_XDICTIONARY
360
C361
102
}
102
{ACAD_REACTORS
330
C2ED
102
}
330
C2ED
100
AcDbVisualStyle
  2
Linepattern
 70
    14
 71
     2
 72
     2
 73
     0
 90
        0
 40
-0.6
 41
-30.0
 62
     5
 63
     7
 74
     1
 91
        4
 64
     7
 65
   257
 75
     7
175
     7
 42
1.0
 92
        8
 66
     7
 43
1.0
 76
     1
 77
     6
 78
     2
 67
     7
 79
     5
170
     0
171
     0
290
     0
174
     0
 93
        1
 44
0.0
173
     0
291
     1
 45
0.0
1001
ACAD
1000
AcDbSavedByObjectVersion
1070
     0
  0
VISUALSTYLE
  5
C304
102
{ACAD_XDICTIONARY
360
C373
102
}
102
{ACAD_REACTORS
330
C2ED
102
}
330
C2ED
100
AcDbVisualStyle
  2
OverhangOff
 70
    21
 71
     2
 72
     2
 73
     0
 90
        0
 40
-0.6
 41
-30.0
 62
     5
 63
     7
 74
     1
 91
        4
 64
     7
 65
   257
 75
     1
175
     1
 42
1.0
 92
        9
 66
     7
 43
1.0
 76
     1
 77
     6
 78
     2
 67
     7
 79
     5
170
     0
171
     0
290
     0
174
     0
 93
        1
 44
0.0
173
     0
291
     1
 45
0.0
1001
ACAD
1000
AcDbSavedByObjectVersion
1070
     0
  0
VISUALSTYLE
  5
C2F7
102
{ACAD_XDICTIONARY
360
C359
102
}
102
{ACAD_REACTORS
330
C2ED
102
}
330
C2ED
100
AcDbVisualStyle
  2
Realistic
 70
     8
 71
     2
 72
     3
 73
     0
 90
        2
 40
-0.6
 41
30.0
 62
     5
 63
     7
 74
     0
 91
        0
 64
     7
 65
   257
 75
     1
175
     1
 42
1.0
 92
        8
 66
   257
 43
1.0
 76
     1
 77
     6
 78
     2
 67
     7
 79
     3
170
     0
171
     0
290
     0
174
     0
 93
       13
 44
0.0
173
     0
291
     0
 45
0.0
1001
ACAD
1000
AcDbSavedByObjectVersion
1070
     0
  0
VISUALSTYLE
  5
C302
102
{ACAD_XDICTIONARY
360
C36F
102
}
102
{ACAD_REACTORS
330
C2ED
102
}
330
C2ED
100
AcDbVisualStyle
  2
Shaded
 70
    27
 71
     2
 72
     2
 73
     1
 90
        2
 40
-0.6
 41
30.0
 62
     5
 63
     7
 74
     0
 91
        4
 64
     7
 65
   257
 75
     1
175
     1
 42
1.0
 92
        8
 66
   257
 43
1.0
 76
     1
 77
     6
 78
     2
 67
     8
 79
     3
170
     0
171
     0
290
     0
174
     0
 93
        5
 44
0.0
173
     0
291
     0
 45
0.0
1001
ACAD
1000
AcDbSavedByObjectVersion
1070
     0
  0
VISUALSTYLE
  5
C301
102
{ACAD_XDICTIONARY
360
C36D
102
}
102
{ACAD_REACTORS
330
C2ED
102
}
330
C2ED
100
AcDbVisualStyle
  2
Shaded with edges
 70
    26
 71
     2
 72
     2
 73
     1
 90
        2
 40
-0.6
 41
30.0
 62
     5
 63
     7
 74
     1
 91
       10
 64
     7
 65
   257
 75
     2
175
     1
 42
1.0
 92
        8
 66
   257
 43
1.0
 76
     1
 77
     6
 78
     2
 67
     7
 79
     3
170
     0
171
     0
290
     0
174
     0
 93
        5
 44
0.0
173
     0
291
     0
 45
0.0
1001
ACAD
1000
AcDbSavedByObjectVersion
1070
     0
  0
VISUALSTYLE
  5
C2FE
102
{ACAD_XDICTIONARY
360
C367
102
}
102
{ACAD_REACTORS
330
C2ED
102
}
330
C2ED
100
AcDbVisualStyle
  2
Shades of Gray
 70
    23
 71
     2
 72
     2
 73
     3
 90
        0
 40
-0.6
 41
-30.0
 62
     5
 63
     7
 74
     2
 91
        2
 64
     7
 65
     7
 75
     1
175
     1
 42
40.0
 92
        8
 66
     7
 43
1.0
 76
     1
 77
     6
 78
     2
 67
     7
 79
     3
170
     0
171
     0
290
     0
174
     0
 93
        1
 44
0.0
173
     0
291
     0
 45
0.0
1001
ACAD
1000
AcDbSavedByObjectVersion
1070
     0
  0
VISUALSTYLE
  5
C2FF
102
{ACAD_XDICTIONARY
360
C369
102
}
102
{ACAD_REACTORS
330
C2ED
102
}
330
C2ED
100
AcDbVisualStyle
  2
Sketchy
 70
    24
 71
     1
 72
     2
 73
     2
 90
        0
 40
-0.6
 41
-30.0
 62
     5
 63
     7
 74
     2
 91
        2
 64
     7
 65
     7
 75
     1
175
     1
 42
40.0
 92
       11
 66
     7
 43
1.0
 76
     1
 77
     6
 78
     2
 67
     7
 79
     6
170
     0
171
     0
290
     0
174
     0
 93
        1
 44
0.0
173
     0
291
     0
 45
0.0
1001
ACAD
1000
AcDbSavedByObjectVersion
1070
     0
  0
VISUALSTYLE
  5
C2FA
102
{ACAD_XDICTIONARY
360
C35F
102
}
102
{ACAD_REACTORS
330
C2ED
102
}
330
C2ED
100
AcDbVisualStyle
  2
Thicken
 70
    13
 71
     2
 72
     2
 73
     0
 90
        0
 40
-0.6
 41
-30.0
 62
     5
 63
     7
 74
     1
 91
        4
 64
     7
 65
   257
 75
     1
175
     1
 42
1.0
 92
       12
 66
     7
 43
1.0
 76
     1
 77
     6
 78
     2
 67
     7
 79
     5
170
     0
171
     0
290
     0
174
     0
 93
        1
 44
0.0
173
     0
291
     1
 45
0.0
1001
ACAD
1000
AcDbSavedByObjectVersion
1070
     0
  0
VISUALSTYLE
  5
C2F4
102
{ACAD_XDICTIONARY
360
C353
102
}
102
{ACAD_REACTORS
330
C2ED
102
}
330
C2ED
100
AcDbVisualStyle
  2
Wireframe
 70
     5
 71
     0
 72
     2
 73
     0
 90
        0
 40
-0.6
 41
-30.0
 62
     5
 63
     7
 74
     1
 91
        4
 64
     7
 65
   257
 75
     1
175
     1
 42
1.0
 92
        0
 66
   257
 43
1.0
 76
     1
 77
     6
 78
     2
 67
     7
 79
     3
170
     0
171
     0
290
     0
174
     0
 93
        1
 44
0.0
173
     0
291
     0
 45
0.0
1001
ACAD
1000
AcDbSavedByObjectVersion
1070
     0
  0
VISUALSTYLE
  5
C300
102
{ACAD_XDICTIONARY
360
C36B
102
}
102
{ACAD_REACTORS
330
C2ED
102
}
330
C2ED
100
AcDbVisualStyle
  2
X-Ray
 70
    25
 71
     2
 72
     2
 73
     1
 90
        1
 40
0.5
 41
-30.0
 62
     5
 63
     7
 74
     1
 91
        0
 64
     7
 65
   257
 75
     1
175
     1
 42
1.0
 92
        8
 66
     7
 43
1.0
 76
     1
 77
     6
 78
     2
 67
     7
 79
     3
170
     0
171
     0
290
     0
174
     0
 93
       13
 44
0.0
173
     0
291
     0
 45
0.0
1001
ACAD
1000
AcDbSavedByObjectVersion
1070
     0
  0
DICTIONARYVAR
  5
C33A
102
{ACAD_REACTORS
330
C335
102
}
330
C335
100
DictionaryVariables
280
     0
  1
1:1
  0
DICTIONARYVAR
  5
C337
102
{ACAD_REACTORS
330
C335
102
}
330
C335
100
DictionaryVariables
280
     0
  1
STANDARD
  0
DICTIONARYVAR
  5
C336
102
{ACAD_REACTORS
330
C335
102
}
330
C335
100
DictionaryVariables
280
     0
  1
STANDARD
  0
DICTIONARYVAR
  5
C338
102
{ACAD_REACTORS
330
C335
102
}
330
C335
100
DictionaryVariables
280
     0
  1
Imperial24
  0
DICTIONARYVAR
  5
C339
102
{ACAD_REACTORS
330
C335
102
}
330
C335
100
DictionaryVariables
280
     0
  1
Imperial24
  0
DICTIONARYVAR
  5
C33D
102
{ACAD_REACTORS
330
C335
102
}
330
C335
100
DictionaryVariables
280
     0
  1
1
  0
DICTIONARYVAR
  5
C33C
102
{ACAD_REACTORS
330
C335
102
}
330
C335
100
DictionaryVariables
280
     0
  1
0
  0
DICTIONARYVAR
  5
C33B
102
{ACAD_REACTORS
330
C335
102
}
330
C335
100
DictionaryVariables
280
     0
  1
127
  0
DICTIONARYVAR
  5
C33E
102
{ACAD_REACTORS
330
C335
102
}
330
C335
100
DictionaryVariables
280
     0
  1
2
  0
DICTIONARY
  5
C37B
330
C320
100
AcDbDictionary
280
     1
281
     1
  3
ACAD_XREC_ROUNDTRIP
360
C37C
  0
DICTIONARY
  5
C37D
330
C321
100
AcDbDictionary
280
     1
281
     1
  3
ACAD_XREC_ROUNDTRIP
360
C37E
  0
DICTIONARY
  5
C37F
330
C322
100
AcDbDictionary
280
     1
281
     1
  3
ACAD_XREC_ROUNDTRIP
360
C380
  0
DICTIONARY
  5
C2DE
330
C2DD
100
AcDbDictionary
280
     1
281
     1
  3
ACAD_XREC_ROUNDTRIP
360
C345
  3
BUMPTILE
360
C2E0
  3
DIFFUSETILE
360
C2DF
  3
OPACITYTILE
360
C2E3
  3
REFLECTIONTILE
360
C2E2
  3
REFRACTIONTILE
360
C2E4
  3
SPECULARTILE
360
C2E1
  0
DICTIONARY
  5
C2D6
330
C2D5
100
AcDbDictionary
280
     1
281
     1
  3
ACAD_XREC_ROUNDTRIP
360
C344
  3
BUMPTILE
360
C2D8
  3
DIFFUSETILE
360
C2D7
  3
OPACITYTILE
360
C2DB
  3
REFLECTIONTILE
360
C2DA
  3
REFRACTIONTILE
360
C2DC
  3
SPECULARTILE
360
C2D9
  0
DICTIONARY
  5
C2E6
330
C2E5
100
AcDbDictionary
280
     1
281
     1
  3
ACAD_XREC_ROUNDTRIP
360
C346
  3
BUMPTILE
360
C2E8
  3
DIFFUSETILE
360
C2E7
  3
OPACITYTILE
360
C2EB
  3
REFLECTIONTILE
360
C2EA
  3
REFRACTIONTILE
360
C2EC
  3
SPECULARTILE
360
C2E9
  0
DICTIONARY
  5
C379
330
C31E
100
AcDbDictionary
280
     1
281
     1
  3
ACAD_XREC_ROUNDTRIP
360
C37A
  0
DICTIONARY
  5
C340
330
C308
100
AcDbDictionary
280
     1
281
     1
  3
ACAD_ROUNDTRIP_2008_TABLESTYLE_CELLSTYLEMAP
360
C341
  3
ACAD_XREC_ROUNDTRIP
360
C377
  0
DICTIONARY
  5
C351
330
C2F3
100
AcDbDictionary
280
     1
281
     1
  3
ACAD_XREC_ROUNDTRIP
360
C352
  0
DICTIONARY
  5
C34F
330
C2F2
100
AcDbDictionary
280
     1
281
     1
  3
ACAD_XREC_ROUNDTRIP
360
C350
  0
DICTIONARY
  5
C35D
330
C2F9
100
AcDbDictionary
280
     1
281
     1
  3
ACAD_XREC_ROUNDTRIP
360
C35E
  0
DICTIONARY
  5
C365
330
C2FD
100
AcDbDictionary
280
     1
281
     1
  3
ACAD_XREC_ROUNDTRIP
360
C366
  0
DICTIONARY
  5
C357
330
C2F6
100
AcDbDictionary
280
     1
281
     1
  3
ACAD_XREC_ROUNDTRIP
360
C358
  0
DICTIONARY
  5
C35B
330
C2F8
100
AcDbDictionary
280
     1
281
     1
  3
ACAD_XREC_ROUNDTRIP
360
C35C
  0
DICTIONARY
  5
C375
330
C305
100
AcDbDictionary
280
     1
281
     1
  3
ACAD_XREC_ROUNDTRIP
360
C376
  0
DICTIONARY
  5
C363
330
C2FC
100
AcDbDictionary
280
     1
281
     1
  3
ACAD_XREC_ROUNDTRIP
360
C364
  0
DICTIONARY
  5
C347
330
C2EE
100
AcDbDictionary
280
     1
281
     1
  3
ACAD_XREC_ROUNDTRIP
360
C348
  0
DICTIONARY
  5
C349
330
C2EF
100
AcDbDictionary
280
     1
281
     1
  3
ACAD_XREC_ROUNDTRIP
360
C34A
  0
DICTIONARY
  5
C34B
330
C2F0
100
AcDbDictionary
280
     1
281
     1
  3
ACAD_XREC_ROUNDTRIP
360
C34C
  0
DICTIONARY
  5
C34D
330
C2F1
100
AcDbDictionary
280
     1
281
     1
  3
ACAD_XREC_ROUNDTRIP
360
C34E
  0
DICTIONARY
  5
C355
330
C2F5
100
AcDbDictionary
280
     1
281
     1
  3
ACAD_XREC_ROUNDTRIP
360
C356
  0
DICTIONARY
  5
C371
330
C303
100
AcDbDictionary
280
     1
281
     1
  3
ACAD_XREC_ROUNDTRIP
360
C372
  0
DICTIONARY
  5
C361
330
C2FB
100
AcDbDictionary
280
     1
281
     1
  3
ACAD_XREC_ROUNDTRIP
360
C362
  0
DICTIONARY
  5
C373
330
C304
100
AcDbDictionary
280
     1
281
     1
  3
ACAD_XREC_ROUNDTRIP
360
C374
  0
DICTIONARY
  5
C359
330
C2F7
100
AcDbDictionary
280
     1
281
     1
  3
ACAD_XREC_ROUNDTRIP
360
C35A
  0
DICTIONARY
  5
C36F
330
C302
100
AcDbDictionary
280
     1
281
     1
  3
ACAD_XREC_ROUNDTRIP
360
C370
  0
DICTIONARY
  5
C36D
330
C301
100
AcDbDictionary
280
     1
281
     1
  3
ACAD_XREC_ROUNDTRIP
360
C36E
  0
DICTIONARY
  5
C367
330
C2FE
100
AcDbDictionary
280
     1
281
     1
  3
ACAD_XREC_ROUNDTRIP
360
C368
  0
DICTIONARY
  5
C369
330
C2FF
100
AcDbDictionary
280
     1
281
     1
  3
ACAD_XREC_ROUNDTRIP
360
C36A
  0
DICTIONARY
  5
C35F
330
C2FA
100
AcDbDictionary
280
     1
281
     1
  3
ACAD_XREC_ROUNDTRIP
360
C360
  0
DICTIONARY
  5
C353
330
C2F4
100
AcDbDictionary
280
     1
281
     1
  3
ACAD_XREC_ROUNDTRIP
360
C354
  0
DICTIONARY
  5
C36B
330
C300
100
AcDbDictionary
280
     1
281
     1
  3
ACAD_XREC_ROUNDTRIP
360
C36C
  0
XRECORD
  5
C37C
102
{ACAD_REACTORS
330
C37B
102
}
330
C37B
100
AcDbXrecord
280
     1
102
DISPLAYNAME
  1
Imperial24
102
FLAGS
 90
        0
  0
XRECORD
  5
C37E
102
{ACAD_REACTORS
330
C37D
102
}
330
C37D
100
AcDbXrecord
280
     1
102
SHADEPLOT
 70
     0
102
SHADEPLOTRESLEVEL
 70
     2
102
SHADEPLOTCUSTOMDPI
 70
   300
  0
XRECORD
  5
C380
102
{ACAD_REACTORS
330
C37F
102
}
330
C37F
100
AcDbXrecord
280
     1
102
SHADEPLOT
 70
     0
102
SHADEPLOTRESLEVEL
 70
     2
102
SHADEPLOTCUSTOMDPI
 70
   300
  0
XRECORD
  5
C345
102
{ACAD_REACTORS
330
C2DE
102
}
330
C2DE
100
AcDbXrecord
280
     1
102
MATERIAL
148
0.0
149
0.0
149
0.0
 93
        0
 94
      127
282
     0
 72
     0
 77
     0
171
     0
175
     0
179
     0
273
     0
  0
XRECORD
  5
C2E0
102
{ACAD_REACTORS
330
C2DE
102
}
330
C2DE
100
AcDbXrecord
280
     1
270
     1
271
     1
  0
XRECORD
  5
C2DF
102
{ACAD_REACTORS
330
C2DE
102
}
330
C2DE
100
AcDbXrecord
280
     1
270
     1
271
     1
  0
XRECORD
  5
C2E3
102
{ACAD_REACTORS
330
C2DE
102
}
330
C2DE
100
AcDbXrecord
280
     1
270
     1
271
     1
  0
XRECORD
  5
C2E2
102
{ACAD_REACTORS
330
C2DE
102
}
330
C2DE
100
AcDbXrecord
280
     1
270
     1
271
     1
  0
XRECORD
  5
C2E4
102
{ACAD_REACTORS
330
C2DE
102
}
330
C2DE
100
AcDbXrecord
280
     1
270
     1
271
     1
  0
XRECORD
  5
C2E1
102
{ACAD_REACTORS
330
C2DE
102
}
330
C2DE
100
AcDbXrecord
280
     1
270
     1
271
     1
  0
XRECORD
  5
C344
102
{ACAD_REACTORS
330
C2D6
102
}
330
C2D6
100
AcDbXrecord
280
     1
102
MATERIAL
148
0.0
149
0.0
149
0.0
 93
        0
 94
      127
282
     0
 72
     0
 77
     0
171
     0
175
     0
179
     0
273
     0
  0
XRECORD
  5
C2D8
102
{ACAD_REACTORS
330
C2D6
102
}
330
C2D6
100
AcDbXrecord
280
     1
270
     1
271
     1
  0
XRECORD
  5
C2D7
102
{ACAD_REACTORS
330
C2D6
102
}
330
C2D6
100
AcDbXrecord
280
     1
270
     1
271
     1
  0
XRECORD
  5
C2DB
102
{ACAD_REACTORS
330
C2D6
102
}
330
C2D6
100
AcDbXrecord
280
     1
270
     1
271
     1
  0
XRECORD
  5
C2DA
102
{ACAD_REACTORS
330
C2D6
102
}
330
C2D6
100
AcDbXrecord
280
     1
270
     1
271
     1
  0
XRECORD
  5
C2DC
102
{ACAD_REACTORS
330
C2D6
102
}
330
C2D6
100
AcDbXrecord
280
     1
270
     1
271
     1
  0
XRECORD
  5
C2D9
102
{ACAD_REACTORS
330
C2D6
102
}
330
C2D6
100
AcDbXrecord
280
     1
270
     1
271
     1
  0
XRECORD
  5
C346
102
{ACAD_REACTORS
330
C2E6
102
}
330
C2E6
100
AcDbXrecord
280
     1
102
MATERIAL
148
0.0
149
0.0
149
0.0
 93
        0
 94
      127
282
     0
 72
     0
 77
     0
171
     0
175
     0
179
     0
273
     0
  0
XRECORD
  5
C2E8
102
{ACAD_REACTORS
330
C2E6
102
}
330
C2E6
100
AcDbXrecord
280
     1
270
     1
271
     1
  0
XRECORD
  5
C2E7
102
{ACAD_REACTORS
330
C2E6
102
}
330
C2E6
100
AcDbXrecord
280
     1
270
     1
271
     1
  0
XRECORD
  5
C2EB
102
{ACAD_REACTORS
330
C2E6
102
}
330
C2E6
100
AcDbXrecord
280
     1
270
     1
271
     1
  0
XRECORD
  5
C2EA
102
{ACAD_REACTORS
330
C2E6
102
}
330
C2E6
100
AcDbXrecord
280
     1
270
     1
271
     1
  0
XRECORD
  5
C2EC
102
{ACAD_REACTORS
330
C2E6
102
}
330
C2E6
100
AcDbXrecord
280
     1
270
     1
271
     1
  0
XRECORD
  5
C2E9
102
{ACAD_REACTORS
330
C2E6
102
}
330
C2E6
100
AcDbXrecord
280
     1
270
     1
271
     1
  0
XRECORD
  5
C37A
102
{ACAD_REACTORS
330
C379
102
}
330
C379
100
AcDbXrecord
280
     1
102
DISPLAYNAME
  1
Imperial24
102
FLAGS
 90
        0
  0
CELLSTYLEMAP
  5
C341
102
{ACAD_REACTORS
330
C340
102
}
330
C340
100
AcDbCellStyleMap
 90
        3
300
CELLSTYLE
  1
TABLEFORMAT_BEGIN
 90
        5
170
     1
 91
        0
 92
    32768
 62
   257
 93
        1
300
CONTENTFORMAT
  1
CONTENTFORMAT_BEGIN
 90
        0
 91
        0
 92
      512
 93
        0
300

 40
0.0
140
1.0
 94
        5
 62
     0
340
BFDA
144
0.25
309
CONTENTFORMAT_END
171
     0
 94
        0
309
TABLEFORMAT_END
  1
CELLSTYLE_BEGIN
 90
        1
 91
        1
300
_TITLE
309
CELLSTYLE_END
300
CELLSTYLE
  1
TABLEFORMAT_BEGIN
 90
        5
170
     1
 91
        0
 92
        0
 62
   257
 93
        1
300
CONTENTFORMAT
  1
CONTENTFORMAT_BEGIN
 90
        0
 91
        0
 92
      512
 93
        0
300

 40
0.0
140
1.0
 94
        5
 62
     0
340
BFDA
144
0.18
309
CONTENTFORMAT_END
171
     0
 94
        0
309
TABLEFORMAT_END
  1
CELLSTYLE_BEGIN
 90
        2
 91
        1
300
_HEADER
309
CELLSTYLE_END
300
CELLSTYLE
  1
TABLEFORMAT_BEGIN
 90
        5
170
     1
 91
        0
 92
        0
 62
   257
 93
        1
300
CONTENTFORMAT
  1
CONTENTFORMAT_BEGIN
 90
        0
 91
        0
 92
      512
 93
        0
300

 40
0.0
140
1.0
 94
        2
 62
     0
340
BFDA
144
0.18
309
CONTENTFORMAT_END
171
     0
 94
        0
309
TABLEFORMAT_END
  1
CELLSTYLE_BEGIN
 90
        3
 91
        2
300
_DATA
309
CELLSTYLE_END
  0
XRECORD
  5
C377
102
{ACAD_REACTORS
330
C340
102
}
330
C340
100
AcDbXrecord
280
     1
102
ACAD_ROUNDTRIP_PRE2007_TABLESTYLE
 90
      512
 91
        0
  1

 92
      512
 93
        0
  2

 94
      512
 95
        0
  3

  0
XRECORD
  5
C352
102
{ACAD_REACTORS
330
C351
102
}
330
C351
100
AcDbXrecord
280
     1
102
RTVSPost2010Prop28
280
     1
102
RTVSPost2010PropOp28
 70
     1
102
RTVSPost2010Prop29
280
     1
102
RTVSPost2010PropOp29
 70
     1
102
RTVSPost2010Prop30
280
     0
102
RTVSPost2010PropOp30
 70
     1
102
RTVSPost2010Prop31
280
     0
102
RTVSPost2010PropOp31
 70
     1
102
RTVSPost2010Prop32
280
     0
102
RTVSPost2010PropOp32
 70
     1
102
RTVSPost2010Prop33
280
     0
102
RTVSPost2010PropOp33
 70
     1
102
RTVSPost2010Prop34
280
     0
102
RTVSPost2010PropOp34
 70
     1
102
RTVSPost2010Prop35
280
     0
102
RTVSPost2010PropOp35
 70
     1
102
RTVSPost2010Prop36
280
     0
102
RTVSPost2010PropOp36
 70
     1
102
RTVSPost2010Prop37
 90
       50
102
RTVSPost2010PropOp37
 70
     1
102
RTVSPost2010Prop38
140
0.0
102
RTVSPost2010PropOp38
 70
     1
102
RTVSPost2010Prop39
140
1.0
102
RTVSPost2010PropOp39
 70
     1
102
RTVSPost2010Prop40
 90
        0
102
RTVSPost2010PropOp40
 70
     1
102
RTVSPost2010Prop41ColorIndex
 90
       18
102
RTVSPost2010Prop41ColorRGB
 90
        0
102
RTVSPost2010PropOp41
 70
     1
102
RTVSPost2010Prop42
 90
       50
102
RTVSPost2010PropOp42
 70
     1
102
RTVSPost2010Prop43
 90
        3
102
RTVSPost2010PropOp43
 70
     1
102
RTVSPost2010Prop44ColorIndex
 90
        5
102
RTVSPost2010Prop44ColorRGB
 90
      255
102
RTVSPost2010PropOp44
 70
     1
102
RTVSPost2010Prop45
280
     0
102
RTVSPost2010PropOp45
 70
     1
102
RTVSPost2010Prop46
 90
       50
102
RTVSPost2010PropOp46
 70
     1
102
RTVSPost2010Prop47
 90
       50
102
RTVSPost2010PropOp47
 70
     1
102
RTVSPost2010Prop48
 90
       50
102
RTVSPost2010PropOp48
 70
     1
102
RTVSPost2010Prop49
280
     0
102
RTVSPost2010PropOp49
 70
     1
102
RTVSPost2010Prop50
 90
       50
102
RTVSPost2010PropOp50
 70
     1
102
RTVSPost2010Prop51ColorIndex
 90
      256
102
RTVSPost2010Prop51ColorRGB
 90
-16777216
102
RTVSPost2010PropOp51
 70
     0
102
RTVSPost2010Prop52
140
1.0
102
RTVSPost2010PropOp52
 70
     0
102
RTVSPost2010Prop53
 90
        2
102
RTVSPost2010PropOp53
 70
     1
102
RTVSPost2010Prop54
  1
strokes_ogs.tif
102
RTVSPost2010PropOp54
 70
     1
102
RTVSPost2010Prop55
280
     0
102
RTVSPost2010PropOp55
 70
     1
102
RTVSPost2010Prop56
140
1.0
102
RTVSPost2010PropOp56
 70
     1
102
RTVSPost2010Prop57
140
1.0
102
RTVSPost2010PropOp57
 70
     1
102
RTVSPropertyOp0
 70
     1
102
RTVSPropertyOp1
 70
     1
102
RTVSPropertyOp2
 70
     1
102
RTVSPropertyOp3
 70
     1
102
RTVSPropertyOp4
 70
     1
102
RTVSPropertyOp5
 70
     1
102
RTVSPropertyOp6
 70
     1
102
RTVSPropertyOp7
 70
     1
102
RTVSPropertyOp8
 70
     1
102
RTVSPropertyOp9
 70
     1
102
RTVSPropertyOp10
 70
     1
102
RTVSPropertyOp11
 70
     1
102
RTVSPropertyOp12
 70
     1
102
RTVSPropertyOp13
 70
     1
102
RTVSPropertyOp14
 70
     1
102
RTVSPropertyOp15
 70
     1
102
RTVSPropertyOp16
 70
     1
102
RTVSPropertyOp17
 70
     1
102
RTVSPropertyOp18
 70
     1
102
RTVSPropertyOp19
 70
     1
102
RTVSPropertyOp20
 70
     1
102
RTVSPropertyOp21
 70
     1
102
RTVSPropertyOp22
 70
     1
102
RTVSPropertyOp23
 70
     1
102
RTVSPropertyOp24
 70
     1
102
RTVSPropertyOp25
 70
     1
102
RTVSPropertyOp26
 70
     1
102
RTVSPropertyOp27
 70
     1
102
RTVSPropertyOp28
 70
     1
102
RTVSPropertyOp29
 70
     1
102
RTVSPropertyOp30
 70
     1
102
RTVSPropertyOp31
 70
     1
102
RTVSPropertyOp32
 70
     1
102
RTVSPropertyOp33
 70
     1
102
RTVSPropertyOp34
 70
     1
102
RTVSPropertyOp35
 70
     1
102
RTVSPropertyOp36
 70
     1
102
RTVSPropertyOp37
 70
     1
102
RTVSPropertyOp38
 70
     1
102
RTVSPropertyOp39
 70
     1
102
RTVSPropertyOp40
 70
     1
102
RTVSPropertyOp41
 70
     1
102
RTVSPropertyOp42
 70
     1
102
RTVSPropertyOp43
 70
     1
102
RTVSPropertyOp44
 70
     1
102
RTVSPropertyOp45
 70
     1
102
RTVSPropertyOp46
 70
     1
102
RTVSPropertyOp47
 70
     1
102
RTVSPropertyOp48
 70
     1
102
RTVSPropertyOp49
 70
     1
102
RTVSPropertyOp50
 70
     1
102
RTVSPropertyOp51
 70
     0
102
RTVSPropertyOp52
 70
     0
102
RTVSPropertyOp53
 70
     1
102
RTVSPropertyOp54
 70
     1
102
RTVSPropertyOp55
 70
     1
102
RTVSPropertyOp56
 70
     1
102
RTVSPropertyOp57
 70
     1
102
RTVSPropertyOp58
 70
     1
102
RTVSPropertyOp59
 70
     1
102
RTVSPropertyOp60
 70
     1
102
RTVSPropertyOp61
 70
     1
102
RTVSPropertyOp62
 70
     1
  0
XRECORD
  5
C350
102
{ACAD_REACTORS
330
C34F
102
}
330
C34F
100
AcDbXrecord
280
     1
102
RTVSPost2010Prop28
280
     0
102
RTVSPost2010PropOp28
 70
     1
102
RTVSPost2010Prop29
280
     1
102
RTVSPost2010PropOp29
 70
     1
102
RTVSPost2010Prop30
280
     1
102
RTVSPost2010PropOp30
 70
     1
102
RTVSPost2010Prop31
280
     0
102
RTVSPost2010PropOp31
 70
     1
102
RTVSPost2010Prop32
280
     0
102
RTVSPost2010PropOp32
 70
     1
102
RTVSPost2010Prop33
280
     0
102
RTVSPost2010PropOp33
 70
     1
102
RTVSPost2010Prop34
280
     0
102
RTVSPost2010PropOp34
 70
     1
102
RTVSPost2010Prop35
280
     0
102
RTVSPost2010PropOp35
 70
     1
102
RTVSPost2010Prop36
280
     0
102
RTVSPost2010PropOp36
 70
     1
102
RTVSPost2010Prop37
 90
       50
102
RTVSPost2010PropOp37
 70
     1
102
RTVSPost2010Prop38
140
0.0
102
RTVSPost2010PropOp38
 70
     1
102
RTVSPost2010Prop39
140
1.0
102
RTVSPost2010PropOp39
 70
     1
102
RTVSPost2010Prop40
 90
        0
102
RTVSPost2010PropOp40
 70
     1
102
RTVSPost2010Prop41ColorIndex
 90
       18
102
RTVSPost2010Prop41ColorRGB
 90
        0
102
RTVSPost2010PropOp41
 70
     1
102
RTVSPost2010Prop42
 90
       50
102
RTVSPost2010PropOp42
 70
     1
102
RTVSPost2010Prop43
 90
        3
102
RTVSPost2010PropOp43
 70
     1
102
RTVSPost2010Prop44ColorIndex
 90
        5
102
RTVSPost2010Prop44ColorRGB
 90
      255
102
RTVSPost2010PropOp44
 70
     1
102
RTVSPost2010Prop45
280
     0
102
RTVSPost2010PropOp45
 70
     1
102
RTVSPost2010Prop46
 90
       50
102
RTVSPost2010PropOp46
 70
     1
102
RTVSPost2010Prop47
 90
       50
102
RTVSPost2010PropOp47
 70
     1
102
RTVSPost2010Prop48
 90
       50
102
RTVSPost2010PropOp48
 70
     1
102
RTVSPost2010Prop49
280
     0
102
RTVSPost2010PropOp49
 70
     1
102
RTVSPost2010Prop50
 90
       50
102
RTVSPost2010PropOp50
 70
     1
102
RTVSPost2010Prop51ColorIndex
 90
      256
102
RTVSPost2010Prop51ColorRGB
 90
-16777216
102
RTVSPost2010PropOp51
 70
     0
102
RTVSPost2010Prop52
140
1.0
102
RTVSPost2010PropOp52
 70
     0
102
RTVSPost2010Prop53
 90
        2
102
RTVSPost2010PropOp53
 70
     1
102
RTVSPost2010Prop54
  1
strokes_ogs.tif
102
RTVSPost2010PropOp54
 70
     1
102
RTVSPost2010Prop55
280
     0
102
RTVSPost2010PropOp55
 70
     1
102
RTVSPost2010Prop56
140
1.0
102
RTVSPost2010PropOp56
 70
     1
102
RTVSPost2010Prop57
140
1.0
102
RTVSPost2010PropOp57
 70
     1
102
RTVSPropertyOp0
 70
     1
102
RTVSPropertyOp1
 70
     1
102
RTVSPropertyOp2
 70
     1
102
RTVSPropertyOp3
 70
     1
102
RTVSPropertyOp4
 70
     1
102
RTVSPropertyOp5
 70
     1
102
RTVSPropertyOp6
 70
     1
102
RTVSPropertyOp7
 70
     1
102
RTVSPropertyOp8
 70
     1
102
RTVSPropertyOp9
 70
     1
102
RTVSPropertyOp10
 70
     1
102
RTVSPropertyOp11
 70
     1
102
RTVSPropertyOp12
 70
     1
102
RTVSPropertyOp13
 70
     1
102
RTVSPropertyOp14
 70
     1
102
RTVSPropertyOp15
 70
     1
102
RTVSPropertyOp16
 70
     1
102
RTVSPropertyOp17
 70
     1
102
RTVSPropertyOp18
 70
     1
102
RTVSPropertyOp19
 70
     1
102
RTVSPropertyOp20
 70
     1
102
RTVSPropertyOp21
 70
     1
102
RTVSPropertyOp22
 70
     1
102
RTVSPropertyOp23
 70
     1
102
RTVSPropertyOp24
 70
     1
102
RTVSPropertyOp25
 70
     1
102
RTVSPropertyOp26
 70
     1
102
RTVSPropertyOp27
 70
     1
102
RTVSPropertyOp28
 70
     1
102
RTVSPropertyOp29
 70
     1
102
RTVSPropertyOp30
 70
     1
102
RTVSPropertyOp31
 70
     1
102
RTVSPropertyOp32
 70
     1
102
RTVSPropertyOp33
 70
     1
102
RTVSPropertyOp34
 70
     1
102
RTVSPropertyOp35
 70
     1
102
RTVSPropertyOp36
 70
     1
102
RTVSPropertyOp37
 70
     1
102
RTVSPropertyOp38
 70
     1
102
RTVSPropertyOp39
 70
     1
102
RTVSPropertyOp40
 70
     1
102
RTVSPropertyOp41
 70
     1
102
RTVSPropertyOp42
 70
     1
102
RTVSPropertyOp43
 70
     1
102
RTVSPropertyOp44
 70
     1
102
RTVSPropertyOp45
 70
     1
102
RTVSPropertyOp46
 70
     1
102
RTVSPropertyOp47
 70
     1
102
RTVSPropertyOp48
 70
     1
102
RTVSPropertyOp49
 70
     1
102
RTVSPropertyOp50
 70
     1
102
RTVSPropertyOp51
 70
     0
102
RTVSPropertyOp52
 70
     0
102
RTVSPropertyOp53
 70
     1
102
RTVSPropertyOp54
 70
     1
102
RTVSPropertyOp55
 70
     1
102
RTVSPropertyOp56
 70
     1
102
RTVSPropertyOp57
 70
     1
102
RTVSPropertyOp58
 70
     1
102
RTVSPropertyOp59
 70
     1
102
RTVSPropertyOp60
 70
     1
102
RTVSPropertyOp61
 70
     1
102
RTVSPropertyOp62
 70
     1
  0
XRECORD
  5
C35E
102
{ACAD_REACTORS
330
C35D
102
}
330
C35D
100
AcDbXrecord
280
     1
102
RTVSPost2010Prop28
280
     0
102
RTVSPost2010PropOp28
 70
     1
102
RTVSPost2010Prop29
280
     1
102
RTVSPost2010PropOp29
 70
     1
102
RTVSPost2010Prop30
280
     1
102
RTVSPost2010PropOp30
 70
     1
102
RTVSPost2010Prop31
280
     0
102
RTVSPost2010PropOp31
 70
     1
102
RTVSPost2010Prop32
280
     0
102
RTVSPost2010PropOp32
 70
     1
102
RTVSPost2010Prop33
280
     0
102
RTVSPost2010PropOp33
 70
     1
102
RTVSPost2010Prop34
280
     0
102
RTVSPost2010PropOp34
 70
     1
102
RTVSPost2010Prop35
280
     0
102
RTVSPost2010PropOp35
 70
     1
102
RTVSPost2010Prop36
280
     0
102
RTVSPost2010PropOp36
 70
     1
102
RTVSPost2010Prop37
 90
       50
102
RTVSPost2010PropOp37
 70
     1
102
RTVSPost2010Prop38
140
0.0
102
RTVSPost2010PropOp38
 70
     1
102
RTVSPost2010Prop39
140
1.0
102
RTVSPost2010PropOp39
 70
     1
102
RTVSPost2010Prop40
 90
        0
102
RTVSPost2010PropOp40
 70
     1
102
RTVSPost2010Prop41ColorIndex
 90
       18
102
RTVSPost2010Prop41ColorRGB
 90
        0
102
RTVSPost2010PropOp41
 70
     1
102
RTVSPost2010Prop42
 90
       50
102
RTVSPost2010PropOp42
 70
     1
102
RTVSPost2010Prop43
 90
        3
102
RTVSPost2010PropOp43
 70
     1
102
RTVSPost2010Prop44ColorIndex
 90
        5
102
RTVSPost2010Prop44ColorRGB
 90
      255
102
RTVSPost2010PropOp44
 70
     1
102
RTVSPost2010Prop45
280
     0
102
RTVSPost2010PropOp45
 70
     1
102
RTVSPost2010Prop46
 90
       50
102
RTVSPost2010PropOp46
 70
     1
102
RTVSPost2010Prop47
 90
       50
102
RTVSPost2010PropOp47
 70
     1
102
RTVSPost2010Prop48
 90
       50
102
RTVSPost2010PropOp48
 70
     1
102
RTVSPost2010Prop49
280
     0
102
RTVSPost2010PropOp49
 70
     1
102
RTVSPost2010Prop50
 90
       50
102
RTVSPost2010PropOp50
 70
     1
102
RTVSPost2010Prop51ColorIndex
 90
      256
102
RTVSPost2010Prop51ColorRGB
 90
-16777216
102
RTVSPost2010PropOp51
 70
     0
102
RTVSPost2010Prop52
140
1.0
102
RTVSPost2010PropOp52
 70
     0
102
RTVSPost2010Prop53
 90
        2
102
RTVSPost2010PropOp53
 70
     1
102
RTVSPost2010Prop54
  1
strokes_ogs.tif
102
RTVSPost2010PropOp54
 70
     1
102
RTVSPost2010Prop55
280
     0
102
RTVSPost2010PropOp55
 70
     1
102
RTVSPost2010Prop56
140
1.0
102
RTVSPost2010PropOp56
 70
     1
102
RTVSPost2010Prop57
140
1.0
102
RTVSPost2010PropOp57
 70
     1
102
RTVSPropertyOp0
 70
     1
102
RTVSPropertyOp1
 70
     1
102
RTVSPropertyOp2
 70
     1
102
RTVSPropertyOp3
 70
     1
102
RTVSPropertyOp4
 70
     1
102
RTVSPropertyOp5
 70
     1
102
RTVSPropertyOp6
 70
     1
102
RTVSPropertyOp7
 70
     1
102
RTVSPropertyOp8
 70
     1
102
RTVSPropertyOp9
 70
     1
102
RTVSPropertyOp10
 70
     1
102
RTVSPropertyOp11
 70
     1
102
RTVSPropertyOp12
 70
     1
102
RTVSPropertyOp13
 70
     1
102
RTVSPropertyOp14
 70
     1
102
RTVSPropertyOp15
 70
     1
102
RTVSPropertyOp16
 70
     1
102
RTVSPropertyOp17
 70
     1
102
RTVSPropertyOp18
 70
     1
102
RTVSPropertyOp19
 70
     1
102
RTVSPropertyOp20
 70
     1
102
RTVSPropertyOp21
 70
     1
102
RTVSPropertyOp22
 70
     1
102
RTVSPropertyOp23
 70
     1
102
RTVSPropertyOp24
 70
     1
102
RTVSPropertyOp25
 70
     1
102
RTVSPropertyOp26
 70
     1
102
RTVSPropertyOp27
 70
     1
102
RTVSPropertyOp28
 70
     1
102
RTVSPropertyOp29
 70
     1
102
RTVSPropertyOp30
 70
     1
102
RTVSPropertyOp31
 70
     1
102
RTVSPropertyOp32
 70
     1
102
RTVSPropertyOp33
 70
     1
102
RTVSPropertyOp34
 70
     1
102
RTVSPropertyOp35
 70
     1
102
RTVSPropertyOp36
 70
     1
102
RTVSPropertyOp37
 70
     1
102
RTVSPropertyOp38
 70
     1
102
RTVSPropertyOp39
 70
     1
102
RTVSPropertyOp40
 70
     1
102
RTVSPropertyOp41
 70
     1
102
RTVSPropertyOp42
 70
     1
102
RTVSPropertyOp43
 70
     1
102
RTVSPropertyOp44
 70
     1
102
RTVSPropertyOp45
 70
     1
102
RTVSPropertyOp46
 70
     1
102
RTVSPropertyOp47
 70
     1
102
RTVSPropertyOp48
 70
     1
102
RTVSPropertyOp49
 70
     1
102
RTVSPropertyOp50
 70
     1
102
RTVSPropertyOp51
 70
     0
102
RTVSPropertyOp52
 70
     0
102
RTVSPropertyOp53
 70
     1
102
RTVSPropertyOp54
 70
     1
102
RTVSPropertyOp55
 70
     1
102
RTVSPropertyOp56
 70
     1
102
RTVSPropertyOp57
 70
     1
102
RTVSPropertyOp58
 70
     1
102
RTVSPropertyOp59
 70
     1
102
RTVSPropertyOp60
 70
     1
102
RTVSPropertyOp61
 70
     1
102
RTVSPropertyOp62
 70
     1
  0
XRECORD
  5
C366
102
{ACAD_REACTORS
330
C365
102
}
330
C365
100
AcDbXrecord
280
     1
102
RTVSPost2010Prop28
280
     0
102
RTVSPost2010PropOp28
 70
     1
102
RTVSPost2010Prop29
280
     1
102
RTVSPost2010PropOp29
 70
     1
102
RTVSPost2010Prop30
280
     1
102
RTVSPost2010PropOp30
 70
     1
102
RTVSPost2010Prop31
280
     0
102
RTVSPost2010PropOp31
 70
     1
102
RTVSPost2010Prop32
280
     0
102
RTVSPost2010PropOp32
 70
     1
102
RTVSPost2010Prop33
280
     0
102
RTVSPost2010PropOp33
 70
     1
102
RTVSPost2010Prop34
280
     0
102
RTVSPost2010PropOp34
 70
     1
102
RTVSPost2010Prop35
280
     0
102
RTVSPost2010PropOp35
 70
     1
102
RTVSPost2010Prop36
280
     0
102
RTVSPost2010PropOp36
 70
     1
102
RTVSPost2010Prop37
 90
       50
102
RTVSPost2010PropOp37
 70
     1
102
RTVSPost2010Prop38
140
0.0
102
RTVSPost2010PropOp38
 70
     1
102
RTVSPost2010Prop39
140
1.0
102
RTVSPost2010PropOp39
 70
     1
102
RTVSPost2010Prop40
 90
        0
102
RTVSPost2010PropOp40
 70
     1
102
RTVSPost2010Prop41ColorIndex
 90
       18
102
RTVSPost2010Prop41ColorRGB
 90
        0
102
RTVSPost2010PropOp41
 70
     1
102
RTVSPost2010Prop42
 90
       50
102
RTVSPost2010PropOp42
 70
     1
102
RTVSPost2010Prop43
 90
        3
102
RTVSPost2010PropOp43
 70
     1
102
RTVSPost2010Prop44ColorIndex
 90
        5
102
RTVSPost2010Prop44ColorRGB
 90
      255
102
RTVSPost2010PropOp44
 70
     1
102
RTVSPost2010Prop45
280
     0
102
RTVSPost2010PropOp45
 70
     1
102
RTVSPost2010Prop46
 90
       50
102
RTVSPost2010PropOp46
 70
     1
102
RTVSPost2010Prop47
 90
       50
102
RTVSPost2010PropOp47
 70
     1
102
RTVSPost2010Prop48
 90
       50
102
RTVSPost2010PropOp48
 70
     1
102
RTVSPost2010Prop49
280
     0
102
RTVSPost2010PropOp49
 70
     1
102
RTVSPost2010Prop50
 90
       50
102
RTVSPost2010PropOp50
 70
     1
102
RTVSPost2010Prop51ColorIndex
 90
      256
102
RTVSPost2010Prop51ColorRGB
 90
-16777216
102
RTVSPost2010PropOp51
 70
     0
102
RTVSPost2010Prop52
140
1.0
102
RTVSPost2010PropOp52
 70
     0
102
RTVSPost2010Prop53
 90
        2
102
RTVSPost2010PropOp53
 70
     1
102
RTVSPost2010Prop54
  1
strokes_ogs.tif
102
RTVSPost2010PropOp54
 70
     1
102
RTVSPost2010Prop55
280
     0
102
RTVSPost2010PropOp55
 70
     1
102
RTVSPost2010Prop56
140
1.0
102
RTVSPost2010PropOp56
 70
     1
102
RTVSPost2010Prop57
140
1.0
102
RTVSPost2010PropOp57
 70
     1
102
RTVSPropertyOp0
 70
     1
102
RTVSPropertyOp1
 70
     1
102
RTVSPropertyOp2
 70
     1
102
RTVSPropertyOp3
 70
     1
102
RTVSPropertyOp4
 70
     1
102
RTVSPropertyOp5
 70
     1
102
RTVSPropertyOp6
 70
     1
102
RTVSPropertyOp7
 70
     1
102
RTVSPropertyOp8
 70
     1
102
RTVSPropertyOp9
 70
     1
102
RTVSPropertyOp10
 70
     1
102
RTVSPropertyOp11
 70
     1
102
RTVSPropertyOp12
 70
     1
102
RTVSPropertyOp13
 70
     1
102
RTVSPropertyOp14
 70
     1
102
RTVSPropertyOp15
 70
     1
102
RTVSPropertyOp16
 70
     1
102
RTVSPropertyOp17
 70
     1
102
RTVSPropertyOp18
 70
     1
102
RTVSPropertyOp19
 70
     1
102
RTVSPropertyOp20
 70
     1
102
RTVSPropertyOp21
 70
     1
102
RTVSPropertyOp22
 70
     1
102
RTVSPropertyOp23
 70
     1
102
RTVSPropertyOp24
 70
     1
102
RTVSPropertyOp25
 70
     1
102
RTVSPropertyOp26
 70
     1
102
RTVSPropertyOp27
 70
     1
102
RTVSPropertyOp28
 70
     1
102
RTVSPropertyOp29
 70
     1
102
RTVSPropertyOp30
 70
     1
102
RTVSPropertyOp31
 70
     1
102
RTVSPropertyOp32
 70
     1
102
RTVSPropertyOp33
 70
     1
102
RTVSPropertyOp34
 70
     1
102
RTVSPropertyOp35
 70
     1
102
RTVSPropertyOp36
 70
     1
102
RTVSPropertyOp37
 70
     1
102
RTVSPropertyOp38
 70
     1
102
RTVSPropertyOp39
 70
     1
102
RTVSPropertyOp40
 70
     1
102
RTVSPropertyOp41
 70
     1
102
RTVSPropertyOp42
 70
     1
102
RTVSPropertyOp43
 70
     1
102
RTVSPropertyOp44
 70
     1
102
RTVSPropertyOp45
 70
     1
102
RTVSPropertyOp46
 70
     1
102
RTVSPropertyOp47
 70
     1
102
RTVSPropertyOp48
 70
     1
102
RTVSPropertyOp49
 70
     1
102
RTVSPropertyOp50
 70
     1
102
RTVSPropertyOp51
 70
     0
102
RTVSPropertyOp52
 70
     0
102
RTVSPropertyOp53
 70
     1
102
RTVSPropertyOp54
 70
     1
102
RTVSPropertyOp55
 70
     1
102
RTVSPropertyOp56
 70
     1
102
RTVSPropertyOp57
 70
     1
102
RTVSPropertyOp58
 70
     1
102
RTVSPropertyOp59
 70
     1
102
RTVSPropertyOp60
 70
     1
102
RTVSPropertyOp61
 70
     1
102
RTVSPropertyOp62
 70
     1
  0
XRECORD
  5
C358
102
{ACAD_REACTORS
330
C357
102
}
330
C357
100
AcDbXrecord
280
     1
102
RTVSPost2010Prop28
280
     0
102
RTVSPost2010PropOp28
 70
     1
102
RTVSPost2010Prop29
280
     1
102
RTVSPost2010PropOp29
 70
     1
102
RTVSPost2010Prop30
280
     1
102
RTVSPost2010PropOp30
 70
     1
102
RTVSPost2010Prop31
280
     0
102
RTVSPost2010PropOp31
 70
     1
102
RTVSPost2010Prop32
280
     0
102
RTVSPost2010PropOp32
 70
     1
102
RTVSPost2010Prop33
280
     0
102
RTVSPost2010PropOp33
 70
     1
102
RTVSPost2010Prop34
280
     0
102
RTVSPost2010PropOp34
 70
     1
102
RTVSPost2010Prop35
280
     0
102
RTVSPost2010PropOp35
 70
     1
102
RTVSPost2010Prop36
280
     0
102
RTVSPost2010PropOp36
 70
     1
102
RTVSPost2010Prop37
 90
       50
102
RTVSPost2010PropOp37
 70
     1
102
RTVSPost2010Prop38
140
0.0
102
RTVSPost2010PropOp38
 70
     1
102
RTVSPost2010Prop39
140
1.0
102
RTVSPost2010PropOp39
 70
     1
102
RTVSPost2010Prop40
 90
        0
102
RTVSPost2010PropOp40
 70
     1
102
RTVSPost2010Prop41ColorIndex
 90
       18
102
RTVSPost2010Prop41ColorRGB
 90
        0
102
RTVSPost2010PropOp41
 70
     1
102
RTVSPost2010Prop42
 90
       50
102
RTVSPost2010PropOp42
 70
     1
102
RTVSPost2010Prop43
 90
        3
102
RTVSPost2010PropOp43
 70
     1
102
RTVSPost2010Prop44ColorIndex
 90
        5
102
RTVSPost2010Prop44ColorRGB
 90
      255
102
RTVSPost2010PropOp44
 70
     1
102
RTVSPost2010Prop45
280
     0
102
RTVSPost2010PropOp45
 70
     1
102
RTVSPost2010Prop46
 90
       50
102
RTVSPost2010PropOp46
 70
     1
102
RTVSPost2010Prop47
 90
       50
102
RTVSPost2010PropOp47
 70
     1
102
RTVSPost2010Prop48
 90
       50
102
RTVSPost2010PropOp48
 70
     1
102
RTVSPost2010Prop49
280
     0
102
RTVSPost2010PropOp49
 70
     1
102
RTVSPost2010Prop50
 90
       50
102
RTVSPost2010PropOp50
 70
     1
102
RTVSPost2010Prop51ColorIndex
 90
      256
102
RTVSPost2010Prop51ColorRGB
 90
-16777216
102
RTVSPost2010PropOp51
 70
     0
102
RTVSPost2010Prop52
140
1.0
102
RTVSPost2010PropOp52
 70
     0
102
RTVSPost2010Prop53
 90
        2
102
RTVSPost2010PropOp53
 70
     1
102
RTVSPost2010Prop54
  1
strokes_ogs.tif
102
RTVSPost2010PropOp54
 70
     1
102
RTVSPost2010Prop55
280
     0
102
RTVSPost2010PropOp55
 70
     1
102
RTVSPost2010Prop56
140
1.0
102
RTVSPost2010PropOp56
 70
     1
102
RTVSPost2010Prop57
140
1.0
102
RTVSPost2010PropOp57
 70
     1
102
RTVSPropertyOp0
 70
     1
102
RTVSPropertyOp1
 70
     1
102
RTVSPropertyOp2
 70
     1
102
RTVSPropertyOp3
 70
     1
102
RTVSPropertyOp4
 70
     1
102
RTVSPropertyOp5
 70
     1
102
RTVSPropertyOp6
 70
     1
102
RTVSPropertyOp7
 70
     1
102
RTVSPropertyOp8
 70
     1
102
RTVSPropertyOp9
 70
     1
102
RTVSPropertyOp10
 70
     1
102
RTVSPropertyOp11
 70
     1
102
RTVSPropertyOp12
 70
     1
102
RTVSPropertyOp13
 70
     1
102
RTVSPropertyOp14
 70
     1
102
RTVSPropertyOp15
 70
     1
102
RTVSPropertyOp16
 70
     1
102
RTVSPropertyOp17
 70
     1
102
RTVSPropertyOp18
 70
     1
102
RTVSPropertyOp19
 70
     1
102
RTVSPropertyOp20
 70
     1
102
RTVSPropertyOp21
 70
     1
102
RTVSPropertyOp22
 70
     1
102
RTVSPropertyOp23
 70
     1
102
RTVSPropertyOp24
 70
     1
102
RTVSPropertyOp25
 70
     1
102
RTVSPropertyOp26
 70
     1
102
RTVSPropertyOp27
 70
     1
102
RTVSPropertyOp28
 70
     1
102
RTVSPropertyOp29
 70
     1
102
RTVSPropertyOp30
 70
     1
102
RTVSPropertyOp31
 70
     1
102
RTVSPropertyOp32
 70
     1
102
RTVSPropertyOp33
 70
     1
102
RTVSPropertyOp34
 70
     1
102
RTVSPropertyOp35
 70
     1
102
RTVSPropertyOp36
 70
     1
102
RTVSPropertyOp37
 70
     1
102
RTVSPropertyOp38
 70
     1
102
RTVSPropertyOp39
 70
     1
102
RTVSPropertyOp40
 70
     1
102
RTVSPropertyOp41
 70
     1
102
RTVSPropertyOp42
 70
     1
102
RTVSPropertyOp43
 70
     1
102
RTVSPropertyOp44
 70
     1
102
RTVSPropertyOp45
 70
     1
102
RTVSPropertyOp46
 70
     1
102
RTVSPropertyOp47
 70
     1
102
RTVSPropertyOp48
 70
     1
102
RTVSPropertyOp49
 70
     1
102
RTVSPropertyOp50
 70
     1
102
RTVSPropertyOp51
 70
     0
102
RTVSPropertyOp52
 70
     0
102
RTVSPropertyOp53
 70
     1
102
RTVSPropertyOp54
 70
     1
102
RTVSPropertyOp55
 70
     1
102
RTVSPropertyOp56
 70
     1
102
RTVSPropertyOp57
 70
     1
102
RTVSPropertyOp58
 70
     1
102
RTVSPropertyOp59
 70
     1
102
RTVSPropertyOp60
 70
     1
102
RTVSPropertyOp61
 70
     1
102
RTVSPropertyOp62
 70
     1
  0
XRECORD
  5
C35C
102
{ACAD_REACTORS
330
C35B
102
}
330
C35B
100
AcDbXrecord
280
     1
102
RTVSPost2010Prop28
280
     0
102
RTVSPost2010PropOp28
 70
     1
102
RTVSPost2010Prop29
280
     1
102
RTVSPost2010PropOp29
 70
     1
102
RTVSPost2010Prop30
280
     1
102
RTVSPost2010PropOp30
 70
     1
102
RTVSPost2010Prop31
280
     0
102
RTVSPost2010PropOp31
 70
     1
102
RTVSPost2010Prop32
280
     0
102
RTVSPost2010PropOp32
 70
     1
102
RTVSPost2010Prop33
280
     0
102
RTVSPost2010PropOp33
 70
     1
102
RTVSPost2010Prop34
280
     0
102
RTVSPost2010PropOp34
 70
     1
102
RTVSPost2010Prop35
280
     0
102
RTVSPost2010PropOp35
 70
     1
102
RTVSPost2010Prop36
280
     0
102
RTVSPost2010PropOp36
 70
     1
102
RTVSPost2010Prop37
 90
       50
102
RTVSPost2010PropOp37
 70
     1
102
RTVSPost2010Prop38
140
0.0
102
RTVSPost2010PropOp38
 70
     1
102
RTVSPost2010Prop39
140
1.0
102
RTVSPost2010PropOp39
 70
     1
102
RTVSPost2010Prop40
 90
        0
102
RTVSPost2010PropOp40
 70
     1
102
RTVSPost2010Prop41ColorIndex
 90
       18
102
RTVSPost2010Prop41ColorRGB
 90
        0
102
RTVSPost2010PropOp41
 70
     1
102
RTVSPost2010Prop42
 90
       50
102
RTVSPost2010PropOp42
 70
     1
102
RTVSPost2010Prop43
 90
        3
102
RTVSPost2010PropOp43
 70
     1
102
RTVSPost2010Prop44ColorIndex
 90
        5
102
RTVSPost2010Prop44ColorRGB
 90
      255
102
RTVSPost2010PropOp44
 70
     1
102
RTVSPost2010Prop45
280
     0
102
RTVSPost2010PropOp45
 70
     1
102
RTVSPost2010Prop46
 90
       50
102
RTVSPost2010PropOp46
 70
     1
102
RTVSPost2010Prop47
 90
       50
102
RTVSPost2010PropOp47
 70
     1
102
RTVSPost2010Prop48
 90
       50
102
RTVSPost2010PropOp48
 70
     1
102
RTVSPost2010Prop49
280
     0
102
RTVSPost2010PropOp49
 70
     1
102
RTVSPost2010Prop50
 90
       50
102
RTVSPost2010PropOp50
 70
     1
102
RTVSPost2010Prop51ColorIndex
 90
      256
102
RTVSPost2010Prop51ColorRGB
 90
-16777216
102
RTVSPost2010PropOp51
 70
     0
102
RTVSPost2010Prop52
140
1.0
102
RTVSPost2010PropOp52
 70
     0
102
RTVSPost2010Prop53
 90
        2
102
RTVSPost2010PropOp53
 70
     1
102
RTVSPost2010Prop54
  1
strokes_ogs.tif
102
RTVSPost2010PropOp54
 70
     1
102
RTVSPost2010Prop55
280
     0
102
RTVSPost2010PropOp55
 70
     1
102
RTVSPost2010Prop56
140
1.0
102
RTVSPost2010PropOp56
 70
     1
102
RTVSPost2010Prop57
140
1.0
102
RTVSPost2010PropOp57
 70
     1
102
RTVSPropertyOp0
 70
     1
102
RTVSPropertyOp1
 70
     1
102
RTVSPropertyOp2
 70
     1
102
RTVSPropertyOp3
 70
     1
102
RTVSPropertyOp4
 70
     1
102
RTVSPropertyOp5
 70
     1
102
RTVSPropertyOp6
 70
     1
102
RTVSPropertyOp7
 70
     1
102
RTVSPropertyOp8
 70
     1
102
RTVSPropertyOp9
 70
     1
102
RTVSPropertyOp10
 70
     1
102
RTVSPropertyOp11
 70
     1
102
RTVSPropertyOp12
 70
     1
102
RTVSPropertyOp13
 70
     1
102
RTVSPropertyOp14
 70
     1
102
RTVSPropertyOp15
 70
     1
102
RTVSPropertyOp16
 70
     1
102
RTVSPropertyOp17
 70
     1
102
RTVSPropertyOp18
 70
     1
102
RTVSPropertyOp19
 70
     1
102
RTVSPropertyOp20
 70
     1
102
RTVSPropertyOp21
 70
     1
102
RTVSPropertyOp22
 70
     1
102
RTVSPropertyOp23
 70
     1
102
RTVSPropertyOp24
 70
     1
102
RTVSPropertyOp25
 70
     1
102
RTVSPropertyOp26
 70
     1
102
RTVSPropertyOp27
 70
     1
102
RTVSPropertyOp28
 70
     1
102
RTVSPropertyOp29
 70
     1
102
RTVSPropertyOp30
 70
     1
102
RTVSPropertyOp31
 70
     1
102
RTVSPropertyOp32
 70
     1
102
RTVSPropertyOp33
 70
     1
102
RTVSPropertyOp34
 70
     1
102
RTVSPropertyOp35
 70
     1
102
RTVSPropertyOp36
 70
     1
102
RTVSPropertyOp37
 70
     1
102
RTVSPropertyOp38
 70
     1
102
RTVSPropertyOp39
 70
     1
102
RTVSPropertyOp40
 70
     1
102
RTVSPropertyOp41
 70
     1
102
RTVSPropertyOp42
 70
     1
102
RTVSPropertyOp43
 70
     1
102
RTVSPropertyOp44
 70
     1
102
RTVSPropertyOp45
 70
     1
102
RTVSPropertyOp46
 70
     1
102
RTVSPropertyOp47
 70
     1
102
RTVSPropertyOp48
 70
     1
102
RTVSPropertyOp49
 70
     1
102
RTVSPropertyOp50
 70
     1
102
RTVSPropertyOp51
 70
     0
102
RTVSPropertyOp52
 70
     0
102
RTVSPropertyOp53
 70
     1
102
RTVSPropertyOp54
 70
     1
102
RTVSPropertyOp55
 70
     1
102
RTVSPropertyOp56
 70
     1
102
RTVSPropertyOp57
 70
     1
102
RTVSPropertyOp58
 70
     1
102
RTVSPropertyOp59
 70
     1
102
RTVSPropertyOp60
 70
     1
102
RTVSPropertyOp61
 70
     1
102
RTVSPropertyOp62
 70
     1
  0
XRECORD
  5
C376
102
{ACAD_REACTORS
330
C375
102
}
330
C375
100
AcDbXrecord
280
     1
102
RTVSPost2010Prop28
280
     0
102
RTVSPost2010PropOp28
 70
     1
102
RTVSPost2010Prop29
280
     1
102
RTVSPost2010PropOp29
 70
     1
102
RTVSPost2010Prop30
280
     1
102
RTVSPost2010PropOp30
 70
     1
102
RTVSPost2010Prop31
280
     0
102
RTVSPost2010PropOp31
 70
     1
102
RTVSPost2010Prop32
280
     0
102
RTVSPost2010PropOp32
 70
     1
102
RTVSPost2010Prop33
280
     0
102
RTVSPost2010PropOp33
 70
     1
102
RTVSPost2010Prop34
280
     0
102
RTVSPost2010PropOp34
 70
     1
102
RTVSPost2010Prop35
280
     0
102
RTVSPost2010PropOp35
 70
     1
102
RTVSPost2010Prop36
280
     0
102
RTVSPost2010PropOp36
 70
     1
102
RTVSPost2010Prop37
 90
       50
102
RTVSPost2010PropOp37
 70
     0
102
RTVSPost2010Prop38
140
0.0
102
RTVSPost2010PropOp38
 70
     0
102
RTVSPost2010Prop39
140
1.0
102
RTVSPost2010PropOp39
 70
     0
102
RTVSPost2010Prop40
 90
        0
102
RTVSPost2010PropOp40
 70
     0
102
RTVSPost2010Prop41ColorIndex
 90
       18
102
RTVSPost2010Prop41ColorRGB
 90
        0
102
RTVSPost2010PropOp41
 70
     0
102
RTVSPost2010Prop42
 90
       50
102
RTVSPost2010PropOp42
 70
     0
102
RTVSPost2010Prop43
 90
        3
102
RTVSPost2010PropOp43
 70
     0
102
RTVSPost2010Prop44ColorIndex
 90
        5
102
RTVSPost2010Prop44ColorRGB
 90
      255
102
RTVSPost2010PropOp44
 70
     0
102
RTVSPost2010Prop45
280
     0
102
RTVSPost2010PropOp45
 70
     1
102
RTVSPost2010Prop46
 90
       50
102
RTVSPost2010PropOp46
 70
     0
102
RTVSPost2010Prop47
 90
       50
102
RTVSPost2010PropOp47
 70
     0
102
RTVSPost2010Prop48
 90
       50
102
RTVSPost2010PropOp48
 70
     0
102
RTVSPost2010Prop49
280
     0
102
RTVSPost2010PropOp49
 70
     1
102
RTVSPost2010Prop50
 90
       50
102
RTVSPost2010PropOp50
 70
     0
102
RTVSPost2010Prop51ColorIndex
 90
      256
102
RTVSPost2010Prop51ColorRGB
 90
-16777216
102
RTVSPost2010PropOp51
 70
     0
102
RTVSPost2010Prop52
140
1.0
102
RTVSPost2010PropOp52
 70
     0
102
RTVSPost2010Prop53
 90
        2
102
RTVSPost2010PropOp53
 70
     0
102
RTVSPost2010Prop54
  1
strokes_ogs.tif
102
RTVSPost2010PropOp54
 70
     0
102
RTVSPost2010Prop55
280
     0
102
RTVSPost2010PropOp55
 70
     1
102
RTVSPost2010Prop56
140
1.0
102
RTVSPost2010PropOp56
 70
     0
102
RTVSPost2010Prop57
140
1.0
102
RTVSPost2010PropOp57
 70
     0
102
RTVSPropertyOp0
 70
     0
102
RTVSPropertyOp1
 70
     0
102
RTVSPropertyOp2
 70
     0
102
RTVSPropertyOp3
 70
     0
102
RTVSPropertyOp4
 70
     0
102
RTVSPropertyOp5
 70
     0
102
RTVSPropertyOp6
 70
     0
102
RTVSPropertyOp7
 70
     0
102
RTVSPropertyOp8
 70
     0
102
RTVSPropertyOp9
 70
     0
102
RTVSPropertyOp10
 70
     0
102
RTVSPropertyOp11
 70
     0
102
RTVSPropertyOp12
 70
     0
102
RTVSPropertyOp13
 70
     0
102
RTVSPropertyOp14
 70
     2
102
RTVSPropertyOp15
 70
     0
102
RTVSPropertyOp16
 70
     0
102
RTVSPropertyOp17
 70
     0
102
RTVSPropertyOp18
 70
     0
102
RTVSPropertyOp19
 70
     0
102
RTVSPropertyOp20
 70
     0
102
RTVSPropertyOp21
 70
     0
102
RTVSPropertyOp22
 70
     0
102
RTVSPropertyOp23
 70
     0
102
RTVSPropertyOp24
 70
     0
102
RTVSPropertyOp25
 70
     0
102
RTVSPropertyOp26
 70
     0
102
RTVSPropertyOp27
 70
     0
102
RTVSPropertyOp28
 70
     1
102
RTVSPropertyOp29
 70
     1
102
RTVSPropertyOp30
 70
     1
102
RTVSPropertyOp31
 70
     1
102
RTVSPropertyOp32
 70
     1
102
RTVSPropertyOp33
 70
     1
102
RTVSPropertyOp34
 70
     1
102
RTVSPropertyOp35
 70
     1
102
RTVSPropertyOp36
 70
     1
102
RTVSPropertyOp37
 70
     0
102
RTVSPropertyOp38
 70
     0
102
RTVSPropertyOp39
 70
     0
102
RTVSPropertyOp40
 70
     0
102
RTVSPropertyOp41
 70
     0
102
RTVSPropertyOp42
 70
     0
102
RTVSPropertyOp43
 70
     0
102
RTVSPropertyOp44
 70
     0
102
RTVSPropertyOp45
 70
     1
102
RTVSPropertyOp46
 70
     0
102
RTVSPropertyOp47
 70
     0
102
RTVSPropertyOp48
 70
     0
102
RTVSPropertyOp49
 70
     1
102
RTVSPropertyOp50
 70
     0
102
RTVSPropertyOp51
 70
     0
102
RTVSPropertyOp52
 70
     0
102
RTVSPropertyOp53
 70
     0
102
RTVSPropertyOp54
 70
     0
102
RTVSPropertyOp55
 70
     1
102
RTVSPropertyOp56
 70
     0
102
RTVSPropertyOp57
 70
     0
102
RTVSPropertyOp58
 70
     0
102
RTVSPropertyOp59
 70
     0
102
RTVSPropertyOp60
 70
     0
102
RTVSPropertyOp61
 70
     0
102
RTVSPropertyOp62
 70
     0
  0
XRECORD
  5
C364
102
{ACAD_REACTORS
330
C363
102
}
330
C363
100
AcDbXrecord
280
     1
102
RTVSPost2010Prop28
280
     0
102
RTVSPost2010PropOp28
 70
     1
102
RTVSPost2010Prop29
280
     1
102
RTVSPost2010PropOp29
 70
     1
102
RTVSPost2010Prop30
280
     1
102
RTVSPost2010PropOp30
 70
     1
102
RTVSPost2010Prop31
280
     0
102
RTVSPost2010PropOp31
 70
     1
102
RTVSPost2010Prop32
280
     0
102
RTVSPost2010PropOp32
 70
     1
102
RTVSPost2010Prop33
280
     0
102
RTVSPost2010PropOp33
 70
     1
102
RTVSPost2010Prop34
280
     0
102
RTVSPost2010PropOp34
 70
     1
102
RTVSPost2010Prop35
280
     0
102
RTVSPost2010PropOp35
 70
     1
102
RTVSPost2010Prop36
280
     0
102
RTVSPost2010PropOp36
 70
     1
102
RTVSPost2010Prop37
 90
       50
102
RTVSPost2010PropOp37
 70
     1
102
RTVSPost2010Prop38
140
0.0
102
RTVSPost2010PropOp38
 70
     1
102
RTVSPost2010Prop39
140
1.0
102
RTVSPost2010PropOp39
 70
     1
102
RTVSPost2010Prop40
 90
        0
102
RTVSPost2010PropOp40
 70
     1
102
RTVSPost2010Prop41ColorIndex
 90
       18
102
RTVSPost2010Prop41ColorRGB
 90
        0
102
RTVSPost2010PropOp41
 70
     1
102
RTVSPost2010Prop42
 90
       50
102
RTVSPost2010PropOp42
 70
     1
102
RTVSPost2010Prop43
 90
        3
102
RTVSPost2010PropOp43
 70
     1
102
RTVSPost2010Prop44ColorIndex
 90
        5
102
RTVSPost2010Prop44ColorRGB
 90
      255
102
RTVSPost2010PropOp44
 70
     1
102
RTVSPost2010Prop45
280
     0
102
RTVSPost2010PropOp45
 70
     1
102
RTVSPost2010Prop46
 90
       50
102
RTVSPost2010PropOp46
 70
     1
102
RTVSPost2010Prop47
 90
       50
102
RTVSPost2010PropOp47
 70
     1
102
RTVSPost2010Prop48
 90
       50
102
RTVSPost2010PropOp48
 70
     1
102
RTVSPost2010Prop49
280
     0
102
RTVSPost2010PropOp49
 70
     1
102
RTVSPost2010Prop50
 90
       50
102
RTVSPost2010PropOp50
 70
     1
102
RTVSPost2010Prop51ColorIndex
 90
      256
102
RTVSPost2010Prop51ColorRGB
 90
-16777216
102
RTVSPost2010PropOp51
 70
     0
102
RTVSPost2010Prop52
140
1.0
102
RTVSPost2010PropOp52
 70
     0
102
RTVSPost2010Prop53
 90
        2
102
RTVSPost2010PropOp53
 70
     1
102
RTVSPost2010Prop54
  1
strokes_ogs.tif
102
RTVSPost2010PropOp54
 70
     1
102
RTVSPost2010Prop55
280
     0
102
RTVSPost2010PropOp55
 70
     1
102
RTVSPost2010Prop56
140
1.0
102
RTVSPost2010PropOp56
 70
     1
102
RTVSPost2010Prop57
140
1.0
102
RTVSPost2010PropOp57
 70
     1
102
RTVSPropertyOp0
 70
     1
102
RTVSPropertyOp1
 70
     1
102
RTVSPropertyOp2
 70
     1
102
RTVSPropertyOp3
 70
     1
102
RTVSPropertyOp4
 70
     1
102
RTVSPropertyOp5
 70
     1
102
RTVSPropertyOp6
 70
     1
102
RTVSPropertyOp7
 70
     1
102
RTVSPropertyOp8
 70
     1
102
RTVSPropertyOp9
 70
     1
102
RTVSPropertyOp10
 70
     1
102
RTVSPropertyOp11
 70
     1
102
RTVSPropertyOp12
 70
     1
102
RTVSPropertyOp13
 70
     1
102
RTVSPropertyOp14
 70
     1
102
RTVSPropertyOp15
 70
     1
102
RTVSPropertyOp16
 70
     1
102
RTVSPropertyOp17
 70
     1
102
RTVSPropertyOp18
 70
     1
102
RTVSPropertyOp19
 70
     1
102
RTVSPropertyOp20
 70
     1
102
RTVSPropertyOp21
 70
     1
102
RTVSPropertyOp22
 70
     1
102
RTVSPropertyOp23
 70
     1
102
RTVSPropertyOp24
 70
     1
102
RTVSPropertyOp25
 70
     1
102
RTVSPropertyOp26
 70
     1
102
RTVSPropertyOp27
 70
     1
102
RTVSPropertyOp28
 70
     1
102
RTVSPropertyOp29
 70
     1
102
RTVSPropertyOp30
 70
     1
102
RTVSPropertyOp31
 70
     1
102
RTVSPropertyOp32
 70
     1
102
RTVSPropertyOp33
 70
     1
102
RTVSPropertyOp34
 70
     1
102
RTVSPropertyOp35
 70
     1
102
RTVSPropertyOp36
 70
     1
102
RTVSPropertyOp37
 70
     1
102
RTVSPropertyOp38
 70
     1
102
RTVSPropertyOp39
 70
     1
102
RTVSPropertyOp40
 70
     1
102
RTVSPropertyOp41
 70
     1
102
RTVSPropertyOp42
 70
     1
102
RTVSPropertyOp43
 70
     1
102
RTVSPropertyOp44
 70
     1
102
RTVSPropertyOp45
 70
     1
102
RTVSPropertyOp46
 70
     1
102
RTVSPropertyOp47
 70
     1
102
RTVSPropertyOp48
 70
     1
102
RTVSPropertyOp49
 70
     1
102
RTVSPropertyOp50
 70
     1
102
RTVSPropertyOp51
 70
     0
102
RTVSPropertyOp52
 70
     0
102
RTVSPropertyOp53
 70
     1
102
RTVSPropertyOp54
 70
     1
102
RTVSPropertyOp55
 70
     1
102
RTVSPropertyOp56
 70
     1
102
RTVSPropertyOp57
 70
     1
102
RTVSPropertyOp58
 70
     1
102
RTVSPropertyOp59
 70
     1
102
RTVSPropertyOp60
 70
     1
102
RTVSPropertyOp61
 70
     1
102
RTVSPropertyOp62
 70
     1
  0
XRECORD
  5
C348
102
{ACAD_REACTORS
330
C347
102
}
330
C347
100
AcDbXrecord
280
     1
102
RTVSPost2010Prop28
280
     0
102
RTVSPost2010PropOp28
 70
     1
102
RTVSPost2010Prop29
280
     1
102
RTVSPost2010PropOp29
 70
     1
102
RTVSPost2010Prop30
280
     1
102
RTVSPost2010PropOp30
 70
     1
102
RTVSPost2010Prop31
280
     0
102
RTVSPost2010PropOp31
 70
     1
102
RTVSPost2010Prop32
280
     0
102
RTVSPost2010PropOp32
 70
     1
102
RTVSPost2010Prop33
280
     0
102
RTVSPost2010PropOp33
 70
     1
102
RTVSPost2010Prop34
280
     0
102
RTVSPost2010PropOp34
 70
     1
102
RTVSPost2010Prop35
280
     0
102
RTVSPost2010PropOp35
 70
     1
102
RTVSPost2010Prop36
280
     0
102
RTVSPost2010PropOp36
 70
     1
102
RTVSPost2010Prop37
 90
       50
102
RTVSPost2010PropOp37
 70
     1
102
RTVSPost2010Prop38
140
0.0
102
RTVSPost2010PropOp38
 70
     1
102
RTVSPost2010Prop39
140
1.0
102
RTVSPost2010PropOp39
 70
     1
102
RTVSPost2010Prop40
 90
        0
102
RTVSPost2010PropOp40
 70
     1
102
RTVSPost2010Prop41ColorIndex
 90
       18
102
RTVSPost2010Prop41ColorRGB
 90
        0
102
RTVSPost2010PropOp41
 70
     1
102
RTVSPost2010Prop42
 90
       50
102
RTVSPost2010PropOp42
 70
     1
102
RTVSPost2010Prop43
 90
        3
102
RTVSPost2010PropOp43
 70
     1
102
RTVSPost2010Prop44ColorIndex
 90
        5
102
RTVSPost2010Prop44ColorRGB
 90
      255
102
RTVSPost2010PropOp44
 70
     1
102
RTVSPost2010Prop45
280
     0
102
RTVSPost2010PropOp45
 70
     1
102
RTVSPost2010Prop46
 90
       50
102
RTVSPost2010PropOp46
 70
     1
102
RTVSPost2010Prop47
 90
       50
102
RTVSPost2010PropOp47
 70
     1
102
RTVSPost2010Prop48
 90
       50
102
RTVSPost2010PropOp48
 70
     1
102
RTVSPost2010Prop49
280
     0
102
RTVSPost2010PropOp49
 70
     1
102
RTVSPost2010Prop50
 90
       50
102
RTVSPost2010PropOp50
 70
     1
102
RTVSPost2010Prop51ColorIndex
 90
      256
102
RTVSPost2010Prop51ColorRGB
 90
-16777216
102
RTVSPost2010PropOp51
 70
     0
102
RTVSPost2010Prop52
140
1.0
102
RTVSPost2010PropOp52
 70
     0
102
RTVSPost2010Prop53
 90
        2
102
RTVSPost2010PropOp53
 70
     1
102
RTVSPost2010Prop54
  1
strokes_ogs.tif
102
RTVSPost2010PropOp54
 70
     1
102
RTVSPost2010Prop55
280
     0
102
RTVSPost2010PropOp55
 70
     1
102
RTVSPost2010Prop56
140
1.0
102
RTVSPost2010PropOp56
 70
     1
102
RTVSPost2010Prop57
140
1.0
102
RTVSPost2010PropOp57
 70
     1
102
RTVSPropertyOp0
 70
     1
102
RTVSPropertyOp1
 70
     1
102
RTVSPropertyOp2
 70
     1
102
RTVSPropertyOp3
 70
     1
102
RTVSPropertyOp4
 70
     1
102
RTVSPropertyOp5
 70
     1
102
RTVSPropertyOp6
 70
     1
102
RTVSPropertyOp7
 70
     1
102
RTVSPropertyOp8
 70
     1
102
RTVSPropertyOp9
 70
     1
102
RTVSPropertyOp10
 70
     1
102
RTVSPropertyOp11
 70
     1
102
RTVSPropertyOp12
 70
     1
102
RTVSPropertyOp13
 70
     1
102
RTVSPropertyOp14
 70
     1
102
RTVSPropertyOp15
 70
     1
102
RTVSPropertyOp16
 70
     1
102
RTVSPropertyOp17
 70
     1
102
RTVSPropertyOp18
 70
     1
102
RTVSPropertyOp19
 70
     1
102
RTVSPropertyOp20
 70
     1
102
RTVSPropertyOp21
 70
     1
102
RTVSPropertyOp22
 70
     1
102
RTVSPropertyOp23
 70
     1
102
RTVSPropertyOp24
 70
     1
102
RTVSPropertyOp25
 70
     1
102
RTVSPropertyOp26
 70
     1
102
RTVSPropertyOp27
 70
     1
102
RTVSPropertyOp28
 70
     1
102
RTVSPropertyOp29
 70
     1
102
RTVSPropertyOp30
 70
     1
102
RTVSPropertyOp31
 70
     1
102
RTVSPropertyOp32
 70
     1
102
RTVSPropertyOp33
 70
     1
102
RTVSPropertyOp34
 70
     1
102
RTVSPropertyOp35
 70
     1
102
RTVSPropertyOp36
 70
     1
102
RTVSPropertyOp37
 70
     1
102
RTVSPropertyOp38
 70
     1
102
RTVSPropertyOp39
 70
     1
102
RTVSPropertyOp40
 70
     1
102
RTVSPropertyOp41
 70
     1
102
RTVSPropertyOp42
 70
     1
102
RTVSPropertyOp43
 70
     1
102
RTVSPropertyOp44
 70
     1
102
RTVSPropertyOp45
 70
     1
102
RTVSPropertyOp46
 70
     1
102
RTVSPropertyOp47
 70
     1
102
RTVSPropertyOp48
 70
     1
102
RTVSPropertyOp49
 70
     1
102
RTVSPropertyOp50
 70
     1
102
RTVSPropertyOp51
 70
     0
102
RTVSPropertyOp52
 70
     0
102
RTVSPropertyOp53
 70
     1
102
RTVSPropertyOp54
 70
     1
102
RTVSPropertyOp55
 70
     1
102
RTVSPropertyOp56
 70
     1
102
RTVSPropertyOp57
 70
     1
102
RTVSPropertyOp58
 70
     1
102
RTVSPropertyOp59
 70
     1
102
RTVSPropertyOp60
 70
     1
102
RTVSPropertyOp61
 70
     1
102
RTVSPropertyOp62
 70
     1
  0
XRECORD
  5
C34A
102
{ACAD_REACTORS
330
C349
102
}
330
C349
100
AcDbXrecord
280
     1
102
RTVSPost2010Prop28
280
     0
102
RTVSPost2010PropOp28
 70
     1
102
RTVSPost2010Prop29
280
     1
102
RTVSPost2010PropOp29
 70
     1
102
RTVSPost2010Prop30
280
     1
102
RTVSPost2010PropOp30
 70
     1
102
RTVSPost2010Prop31
280
     0
102
RTVSPost2010PropOp31
 70
     1
102
RTVSPost2010Prop32
280
     0
102
RTVSPost2010PropOp32
 70
     1
102
RTVSPost2010Prop33
280
     0
102
RTVSPost2010PropOp33
 70
     1
102
RTVSPost2010Prop34
280
     0
102
RTVSPost2010PropOp34
 70
     1
102
RTVSPost2010Prop35
280
     0
102
RTVSPost2010PropOp35
 70
     1
102
RTVSPost2010Prop36
280
     0
102
RTVSPost2010PropOp36
 70
     1
102
RTVSPost2010Prop37
 90
       50
102
RTVSPost2010PropOp37
 70
     1
102
RTVSPost2010Prop38
140
0.0
102
RTVSPost2010PropOp38
 70
     1
102
RTVSPost2010Prop39
140
1.0
102
RTVSPost2010PropOp39
 70
     1
102
RTVSPost2010Prop40
 90
        0
102
RTVSPost2010PropOp40
 70
     1
102
RTVSPost2010Prop41ColorIndex
 90
       18
102
RTVSPost2010Prop41ColorRGB
 90
        0
102
RTVSPost2010PropOp41
 70
     1
102
RTVSPost2010Prop42
 90
       50
102
RTVSPost2010PropOp42
 70
     1
102
RTVSPost2010Prop43
 90
        3
102
RTVSPost2010PropOp43
 70
     1
102
RTVSPost2010Prop44ColorIndex
 90
        5
102
RTVSPost2010Prop44ColorRGB
 90
      255
102
RTVSPost2010PropOp44
 70
     1
102
RTVSPost2010Prop45
280
     0
102
RTVSPost2010PropOp45
 70
     1
102
RTVSPost2010Prop46
 90
       50
102
RTVSPost2010PropOp46
 70
     1
102
RTVSPost2010Prop47
 90
       50
102
RTVSPost2010PropOp47
 70
     1
102
RTVSPost2010Prop48
 90
       50
102
RTVSPost2010PropOp48
 70
     1
102
RTVSPost2010Prop49
280
     0
102
RTVSPost2010PropOp49
 70
     1
102
RTVSPost2010Prop50
 90
       50
102
RTVSPost2010PropOp50
 70
     1
102
RTVSPost2010Prop51ColorIndex
 90
      256
102
RTVSPost2010Prop51ColorRGB
 90
-16777216
102
RTVSPost2010PropOp51
 70
     0
102
RTVSPost2010Prop52
140
1.0
102
RTVSPost2010PropOp52
 70
     0
102
RTVSPost2010Prop53
 90
        2
102
RTVSPost2010PropOp53
 70
     1
102
RTVSPost2010Prop54
  1
strokes_ogs.tif
102
RTVSPost2010PropOp54
 70
     1
102
RTVSPost2010Prop55
280
     0
102
RTVSPost2010PropOp55
 70
     1
102
RTVSPost2010Prop56
140
1.0
102
RTVSPost2010PropOp56
 70
     1
102
RTVSPost2010Prop57
140
1.0
102
RTVSPost2010PropOp57
 70
     1
102
RTVSPropertyOp0
 70
     1
102
RTVSPropertyOp1
 70
     1
102
RTVSPropertyOp2
 70
     1
102
RTVSPropertyOp3
 70
     1
102
RTVSPropertyOp4
 70
     1
102
RTVSPropertyOp5
 70
     1
102
RTVSPropertyOp6
 70
     1
102
RTVSPropertyOp7
 70
     1
102
RTVSPropertyOp8
 70
     1
102
RTVSPropertyOp9
 70
     1
102
RTVSPropertyOp10
 70
     1
102
RTVSPropertyOp11
 70
     1
102
RTVSPropertyOp12
 70
     1
102
RTVSPropertyOp13
 70
     1
102
RTVSPropertyOp14
 70
     1
102
RTVSPropertyOp15
 70
     1
102
RTVSPropertyOp16
 70
     1
102
RTVSPropertyOp17
 70
     1
102
RTVSPropertyOp18
 70
     1
102
RTVSPropertyOp19
 70
     1
102
RTVSPropertyOp20
 70
     1
102
RTVSPropertyOp21
 70
     1
102
RTVSPropertyOp22
 70
     1
102
RTVSPropertyOp23
 70
     1
102
RTVSPropertyOp24
 70
     1
102
RTVSPropertyOp25
 70
     1
102
RTVSPropertyOp26
 70
     1
102
RTVSPropertyOp27
 70
     1
102
RTVSPropertyOp28
 70
     1
102
RTVSPropertyOp29
 70
     1
102
RTVSPropertyOp30
 70
     1
102
RTVSPropertyOp31
 70
     1
102
RTVSPropertyOp32
 70
     1
102
RTVSPropertyOp33
 70
     1
102
RTVSPropertyOp34
 70
     1
102
RTVSPropertyOp35
 70
     1
102
RTVSPropertyOp36
 70
     1
102
RTVSPropertyOp37
 70
     1
102
RTVSPropertyOp38
 70
     1
102
RTVSPropertyOp39
 70
     1
102
RTVSPropertyOp40
 70
     1
102
RTVSPropertyOp41
 70
     1
102
RTVSPropertyOp42
 70
     1
102
RTVSPropertyOp43
 70
     1
102
RTVSPropertyOp44
 70
     1
102
RTVSPropertyOp45
 70
     1
102
RTVSPropertyOp46
 70
     1
102
RTVSPropertyOp47
 70
     1
102
RTVSPropertyOp48
 70
     1
102
RTVSPropertyOp49
 70
     1
102
RTVSPropertyOp50
 70
     1
102
RTVSPropertyOp51
 70
     0
102
RTVSPropertyOp52
 70
     0
102
RTVSPropertyOp53
 70
     1
102
RTVSPropertyOp54
 70
     1
102
RTVSPropertyOp55
 70
     1
102
RTVSPropertyOp56
 70
     1
102
RTVSPropertyOp57
 70
     1
102
RTVSPropertyOp58
 70
     1
102
RTVSPropertyOp59
 70
     1
102
RTVSPropertyOp60
 70
     1
102
RTVSPropertyOp61
 70
     1
102
RTVSPropertyOp62
 70
     1
  0
XRECORD
  5
C34C
102
{ACAD_REACTORS
330
C34B
102
}
330
C34B
100
AcDbXrecord
280
     1
102
RTVSPost2010Prop28
280
     0
102
RTVSPost2010PropOp28
 70
     1
102
RTVSPost2010Prop29
280
     1
102
RTVSPost2010PropOp29
 70
     1
102
RTVSPost2010Prop30
280
     1
102
RTVSPost2010PropOp30
 70
     1
102
RTVSPost2010Prop31
280
     0
102
RTVSPost2010PropOp31
 70
     1
102
RTVSPost2010Prop32
280
     0
102
RTVSPost2010PropOp32
 70
     1
102
RTVSPost2010Prop33
280
     0
102
RTVSPost2010PropOp33
 70
     1
102
RTVSPost2010Prop34
280
     0
102
RTVSPost2010PropOp34
 70
     1
102
RTVSPost2010Prop35
280
     0
102
RTVSPost2010PropOp35
 70
     1
102
RTVSPost2010Prop36
280
     0
102
RTVSPost2010PropOp36
 70
     1
102
RTVSPost2010Prop37
 90
       50
102
RTVSPost2010PropOp37
 70
     1
102
RTVSPost2010Prop38
140
0.0
102
RTVSPost2010PropOp38
 70
     1
102
RTVSPost2010Prop39
140
1.0
102
RTVSPost2010PropOp39
 70
     1
102
RTVSPost2010Prop40
 90
        0
102
RTVSPost2010PropOp40
 70
     1
102
RTVSPost2010Prop41ColorIndex
 90
       18
102
RTVSPost2010Prop41ColorRGB
 90
        0
102
RTVSPost2010PropOp41
 70
     1
102
RTVSPost2010Prop42
 90
       50
102
RTVSPost2010PropOp42
 70
     1
102
RTVSPost2010Prop43
 90
        3
102
RTVSPost2010PropOp43
 70
     1
102
RTVSPost2010Prop44ColorIndex
 90
        5
102
RTVSPost2010Prop44ColorRGB
 90
      255
102
RTVSPost2010PropOp44
 70
     1
102
RTVSPost2010Prop45
280
     0
102
RTVSPost2010PropOp45
 70
     1
102
RTVSPost2010Prop46
 90
       50
102
RTVSPost2010PropOp46
 70
     1
102
RTVSPost2010Prop47
 90
       50
102
RTVSPost2010PropOp47
 70
     1
102
RTVSPost2010Prop48
 90
       50
102
RTVSPost2010PropOp48
 70
     1
102
RTVSPost2010Prop49
280
     0
102
RTVSPost2010PropOp49
 70
     1
102
RTVSPost2010Prop50
 90
       50
102
RTVSPost2010PropOp50
 70
     1
102
RTVSPost2010Prop51ColorIndex
 90
      256
102
RTVSPost2010Prop51ColorRGB
 90
-16777216
102
RTVSPost2010PropOp51
 70
     0
102
RTVSPost2010Prop52
140
1.0
102
RTVSPost2010PropOp52
 70
     0
102
RTVSPost2010Prop53
 90
        2
102
RTVSPost2010PropOp53
 70
     1
102
RTVSPost2010Prop54
  1
strokes_ogs.tif
102
RTVSPost2010PropOp54
 70
     1
102
RTVSPost2010Prop55
280
     0
102
RTVSPost2010PropOp55
 70
     1
102
RTVSPost2010Prop56
140
1.0
102
RTVSPost2010PropOp56
 70
     1
102
RTVSPost2010Prop57
140
1.0
102
RTVSPost2010PropOp57
 70
     1
102
RTVSPropertyOp0
 70
     1
102
RTVSPropertyOp1
 70
     1
102
RTVSPropertyOp2
 70
     1
102
RTVSPropertyOp3
 70
     1
102
RTVSPropertyOp4
 70
     1
102
RTVSPropertyOp5
 70
     1
102
RTVSPropertyOp6
 70
     1
102
RTVSPropertyOp7
 70
     1
102
RTVSPropertyOp8
 70
     1
102
RTVSPropertyOp9
 70
     1
102
RTVSPropertyOp10
 70
     1
102
RTVSPropertyOp11
 70
     1
102
RTVSPropertyOp12
 70
     1
102
RTVSPropertyOp13
 70
     1
102
RTVSPropertyOp14
 70
     1
102
RTVSPropertyOp15
 70
     1
102
RTVSPropertyOp16
 70
     1
102
RTVSPropertyOp17
 70
     1
102
RTVSPropertyOp18
 70
     1
102
RTVSPropertyOp19
 70
     1
102
RTVSPropertyOp20
 70
     1
102
RTVSPropertyOp21
 70
     1
102
RTVSPropertyOp22
 70
     1
102
RTVSPropertyOp23
 70
     1
102
RTVSPropertyOp24
 70
     1
102
RTVSPropertyOp25
 70
     1
102
RTVSPropertyOp26
 70
     1
102
RTVSPropertyOp27
 70
     1
102
RTVSPropertyOp28
 70
     1
102
RTVSPropertyOp29
 70
     1
102
RTVSPropertyOp30
 70
     1
102
RTVSPropertyOp31
 70
     1
102
RTVSPropertyOp32
 70
     1
102
RTVSPropertyOp33
 70
     1
102
RTVSPropertyOp34
 70
     1
102
RTVSPropertyOp35
 70
     1
102
RTVSPropertyOp36
 70
     1
102
RTVSPropertyOp37
 70
     1
102
RTVSPropertyOp38
 70
     1
102
RTVSPropertyOp39
 70
     1
102
RTVSPropertyOp40
 70
     1
102
RTVSPropertyOp41
 70
     1
102
RTVSPropertyOp42
 70
     1
102
RTVSPropertyOp43
 70
     1
102
RTVSPropertyOp44
 70
     1
102
RTVSPropertyOp45
 70
     1
102
RTVSPropertyOp46
 70
     1
102
RTVSPropertyOp47
 70
     1
102
RTVSPropertyOp48
 70
     1
102
RTVSPropertyOp49
 70
     1
102
RTVSPropertyOp50
 70
     1
102
RTVSPropertyOp51
 70
     0
102
RTVSPropertyOp52
 70
     0
102
RTVSPropertyOp53
 70
     1
102
RTVSPropertyOp54
 70
     1
102
RTVSPropertyOp55
 70
     1
102
RTVSPropertyOp56
 70
     1
102
RTVSPropertyOp57
 70
     1
102
RTVSPropertyOp58
 70
     1
102
RTVSPropertyOp59
 70
     1
102
RTVSPropertyOp60
 70
     1
102
RTVSPropertyOp61
 70
     1
102
RTVSPropertyOp62
 70
     1
  0
XRECORD
  5
C34E
102
{ACAD_REACTORS
330
C34D
102
}
330
C34D
100
AcDbXrecord
280
     1
102
RTVSPost2010Prop28
280
     0
102
RTVSPost2010PropOp28
 70
     1
102
RTVSPost2010Prop29
280
     1
102
RTVSPost2010PropOp29
 70
     1
102
RTVSPost2010Prop30
280
     1
102
RTVSPost2010PropOp30
 70
     1
102
RTVSPost2010Prop31
280
     0
102
RTVSPost2010PropOp31
 70
     1
102
RTVSPost2010Prop32
280
     0
102
RTVSPost2010PropOp32
 70
     1
102
RTVSPost2010Prop33
280
     0
102
RTVSPost2010PropOp33
 70
     1
102
RTVSPost2010Prop34
280
     0
102
RTVSPost2010PropOp34
 70
     1
102
RTVSPost2010Prop35
280
     0
102
RTVSPost2010PropOp35
 70
     1
102
RTVSPost2010Prop36
280
     0
102
RTVSPost2010PropOp36
 70
     1
102
RTVSPost2010Prop37
 90
       50
102
RTVSPost2010PropOp37
 70
     1
102
RTVSPost2010Prop38
140
0.0
102
RTVSPost2010PropOp38
 70
     1
102
RTVSPost2010Prop39
140
1.0
102
RTVSPost2010PropOp39
 70
     1
102
RTVSPost2010Prop40
 90
        0
102
RTVSPost2010PropOp40
 70
     1
102
RTVSPost2010Prop41ColorIndex
 90
       18
102
RTVSPost2010Prop41ColorRGB
 90
        0
102
RTVSPost2010PropOp41
 70
     1
102
RTVSPost2010Prop42
 90
       50
102
RTVSPost2010PropOp42
 70
     1
102
RTVSPost2010Prop43
 90
        3
102
RTVSPost2010PropOp43
 70
     1
102
RTVSPost2010Prop44ColorIndex
 90
        5
102
RTVSPost2010Prop44ColorRGB
 90
      255
102
RTVSPost2010PropOp44
 70
     1
102
RTVSPost2010Prop45
280
     0
102
RTVSPost2010PropOp45
 70
     1
102
RTVSPost2010Prop46
 90
       50
102
RTVSPost2010PropOp46
 70
     1
102
RTVSPost2010Prop47
 90
       50
102
RTVSPost2010PropOp47
 70
     1
102
RTVSPost2010Prop48
 90
       50
102
RTVSPost2010PropOp48
 70
     1
102
RTVSPost2010Prop49
280
     0
102
RTVSPost2010PropOp49
 70
     1
102
RTVSPost2010Prop50
 90
       50
102
RTVSPost2010PropOp50
 70
     1
102
RTVSPost2010Prop51ColorIndex
 90
      256
102
RTVSPost2010Prop51ColorRGB
 90
-16777216
102
RTVSPost2010PropOp51
 70
     0
102
RTVSPost2010Prop52
140
1.0
102
RTVSPost2010PropOp52
 70
     0
102
RTVSPost2010Prop53
 90
        2
102
RTVSPost2010PropOp53
 70
     1
102
RTVSPost2010Prop54
  1
strokes_ogs.tif
102
RTVSPost2010PropOp54
 70
     1
102
RTVSPost2010Prop55
280
     0
102
RTVSPost2010PropOp55
 70
     1
102
RTVSPost2010Prop56
140
1.0
102
RTVSPost2010PropOp56
 70
     1
102
RTVSPost2010Prop57
140
1.0
102
RTVSPost2010PropOp57
 70
     1
102
RTVSPropertyOp0
 70
     1
102
RTVSPropertyOp1
 70
     1
102
RTVSPropertyOp2
 70
     1
102
RTVSPropertyOp3
 70
     1
102
RTVSPropertyOp4
 70
     1
102
RTVSPropertyOp5
 70
     1
102
RTVSPropertyOp6
 70
     1
102
RTVSPropertyOp7
 70
     1
102
RTVSPropertyOp8
 70
     1
102
RTVSPropertyOp9
 70
     1
102
RTVSPropertyOp10
 70
     1
102
RTVSPropertyOp11
 70
     1
102
RTVSPropertyOp12
 70
     1
102
RTVSPropertyOp13
 70
     1
102
RTVSPropertyOp14
 70
     1
102
RTVSPropertyOp15
 70
     1
102
RTVSPropertyOp16
 70
     1
102
RTVSPropertyOp17
 70
     1
102
RTVSPropertyOp18
 70
     1
102
RTVSPropertyOp19
 70
     1
102
RTVSPropertyOp20
 70
     1
102
RTVSPropertyOp21
 70
     1
102
RTVSPropertyOp22
 70
     1
102
RTVSPropertyOp23
 70
     1
102
RTVSPropertyOp24
 70
     1
102
RTVSPropertyOp25
 70
     1
102
RTVSPropertyOp26
 70
     1
102
RTVSPropertyOp27
 70
     1
102
RTVSPropertyOp28
 70
     1
102
RTVSPropertyOp29
 70
     1
102
RTVSPropertyOp30
 70
     1
102
RTVSPropertyOp31
 70
     1
102
RTVSPropertyOp32
 70
     1
102
RTVSPropertyOp33
 70
     1
102
RTVSPropertyOp34
 70
     1
102
RTVSPropertyOp35
 70
     1
102
RTVSPropertyOp36
 70
     1
102
RTVSPropertyOp37
 70
     1
102
RTVSPropertyOp38
 70
     1
102
RTVSPropertyOp39
 70
     1
102
RTVSPropertyOp40
 70
     1
102
RTVSPropertyOp41
 70
     1
102
RTVSPropertyOp42
 70
     1
102
RTVSPropertyOp43
 70
     1
102
RTVSPropertyOp44
 70
     1
102
RTVSPropertyOp45
 70
     1
102
RTVSPropertyOp46
 70
     1
102
RTVSPropertyOp47
 70
     1
102
RTVSPropertyOp48
 70
     1
102
RTVSPropertyOp49
 70
     1
102
RTVSPropertyOp50
 70
     1
102
RTVSPropertyOp51
 70
     0
102
RTVSPropertyOp52
 70
     0
102
RTVSPropertyOp53
 70
     1
102
RTVSPropertyOp54
 70
     1
102
RTVSPropertyOp55
 70
     1
102
RTVSPropertyOp56
 70
     1
102
RTVSPropertyOp57
 70
     1
102
RTVSPropertyOp58
 70
     1
102
RTVSPropertyOp59
 70
     1
102
RTVSPropertyOp60
 70
     1
102
RTVSPropertyOp61
 70
     1
102
RTVSPropertyOp62
 70
     1
  0
XRECORD
  5
C356
102
{ACAD_REACTORS
330
C355
102
}
330
C355
100
AcDbXrecord
280
     1
102
RTVSPost2010Prop28
280
     0
102
RTVSPost2010PropOp28
 70
     1
102
RTVSPost2010Prop29
280
     1
102
RTVSPost2010PropOp29
 70
     1
102
RTVSPost2010Prop30
280
     1
102
RTVSPost2010PropOp30
 70
     1
102
RTVSPost2010Prop31
280
     0
102
RTVSPost2010PropOp31
 70
     1
102
RTVSPost2010Prop32
280
     0
102
RTVSPost2010PropOp32
 70
     1
102
RTVSPost2010Prop33
280
     0
102
RTVSPost2010PropOp33
 70
     1
102
RTVSPost2010Prop34
280
     0
102
RTVSPost2010PropOp34
 70
     1
102
RTVSPost2010Prop35
280
     0
102
RTVSPost2010PropOp35
 70
     1
102
RTVSPost2010Prop36
280
     0
102
RTVSPost2010PropOp36
 70
     1
102
RTVSPost2010Prop37
 90
       50
102
RTVSPost2010PropOp37
 70
     1
102
RTVSPost2010Prop38
140
0.0
102
RTVSPost2010PropOp38
 70
     1
102
RTVSPost2010Prop39
140
1.0
102
RTVSPost2010PropOp39
 70
     1
102
RTVSPost2010Prop40
 90
        0
102
RTVSPost2010PropOp40
 70
     1
102
RTVSPost2010Prop41ColorIndex
 90
       18
102
RTVSPost2010Prop41ColorRGB
 90
        0
102
RTVSPost2010PropOp41
 70
     1
102
RTVSPost2010Prop42
 90
       50
102
RTVSPost2010PropOp42
 70
     1
102
RTVSPost2010Prop43
 90
        3
102
RTVSPost2010PropOp43
 70
     1
102
RTVSPost2010Prop44ColorIndex
 90
        5
102
RTVSPost2010Prop44ColorRGB
 90
      255
102
RTVSPost2010PropOp44
 70
     1
102
RTVSPost2010Prop45
280
     0
102
RTVSPost2010PropOp45
 70
     1
102
RTVSPost2010Prop46
 90
       50
102
RTVSPost2010PropOp46
 70
     1
102
RTVSPost2010Prop47
 90
       50
102
RTVSPost2010PropOp47
 70
     1
102
RTVSPost2010Prop48
 90
       50
102
RTVSPost2010PropOp48
 70
     1
102
RTVSPost2010Prop49
280
     0
102
RTVSPost2010PropOp49
 70
     1
102
RTVSPost2010Prop50
 90
       50
102
RTVSPost2010PropOp50
 70
     1
102
RTVSPost2010Prop51ColorIndex
 90
      256
102
RTVSPost2010Prop51ColorRGB
 90
-16777216
102
RTVSPost2010PropOp51
 70
     0
102
RTVSPost2010Prop52
140
1.0
102
RTVSPost2010PropOp52
 70
     0
102
RTVSPost2010Prop53
 90
        2
102
RTVSPost2010PropOp53
 70
     1
102
RTVSPost2010Prop54
  1
strokes_ogs.tif
102
RTVSPost2010PropOp54
 70
     1
102
RTVSPost2010Prop55
280
     0
102
RTVSPost2010PropOp55
 70
     1
102
RTVSPost2010Prop56
140
1.0
102
RTVSPost2010PropOp56
 70
     1
102
RTVSPost2010Prop57
140
1.0
102
RTVSPost2010PropOp57
 70
     1
102
RTVSPropertyOp0
 70
     1
102
RTVSPropertyOp1
 70
     1
102
RTVSPropertyOp2
 70
     1
102
RTVSPropertyOp3
 70
     1
102
RTVSPropertyOp4
 70
     1
102
RTVSPropertyOp5
 70
     1
102
RTVSPropertyOp6
 70
     1
102
RTVSPropertyOp7
 70
     1
102
RTVSPropertyOp8
 70
     1
102
RTVSPropertyOp9
 70
     1
102
RTVSPropertyOp10
 70
     1
102
RTVSPropertyOp11
 70
     1
102
RTVSPropertyOp12
 70
     1
102
RTVSPropertyOp13
 70
     1
102
RTVSPropertyOp14
 70
     1
102
RTVSPropertyOp15
 70
     1
102
RTVSPropertyOp16
 70
     1
102
RTVSPropertyOp17
 70
     1
102
RTVSPropertyOp18
 70
     1
102
RTVSPropertyOp19
 70
     1
102
RTVSPropertyOp20
 70
     1
102
RTVSPropertyOp21
 70
     1
102
RTVSPropertyOp22
 70
     1
102
RTVSPropertyOp23
 70
     1
102
RTVSPropertyOp24
 70
     1
102
RTVSPropertyOp25
 70
     1
102
RTVSPropertyOp26
 70
     1
102
RTVSPropertyOp27
 70
     1
102
RTVSPropertyOp28
 70
     1
102
RTVSPropertyOp29
 70
     1
102
RTVSPropertyOp30
 70
     1
102
RTVSPropertyOp31
 70
     1
102
RTVSPropertyOp32
 70
     1
102
RTVSPropertyOp33
 70
     1
102
RTVSPropertyOp34
 70
     1
102
RTVSPropertyOp35
 70
     1
102
RTVSPropertyOp36
 70
     1
102
RTVSPropertyOp37
 70
     1
102
RTVSPropertyOp38
 70
     1
102
RTVSPropertyOp39
 70
     1
102
RTVSPropertyOp40
 70
     1
102
RTVSPropertyOp41
 70
     1
102
RTVSPropertyOp42
 70
     1
102
RTVSPropertyOp43
 70
     1
102
RTVSPropertyOp44
 70
     1
102
RTVSPropertyOp45
 70
     1
102
RTVSPropertyOp46
 70
     1
102
RTVSPropertyOp47
 70
     1
102
RTVSPropertyOp48
 70
     1
102
RTVSPropertyOp49
 70
     1
102
RTVSPropertyOp50
 70
     1
102
RTVSPropertyOp51
 70
     0
102
RTVSPropertyOp52
 70
     0
102
RTVSPropertyOp53
 70
     1
102
RTVSPropertyOp54
 70
     1
102
RTVSPropertyOp55
 70
     1
102
RTVSPropertyOp56
 70
     1
102
RTVSPropertyOp57
 70
     1
102
RTVSPropertyOp58
 70
     1
102
RTVSPropertyOp59
 70
     1
102
RTVSPropertyOp60
 70
     1
102
RTVSPropertyOp61
 70
     1
102
RTVSPropertyOp62
 70
     1
  0
XRECORD
  5
C372
102
{ACAD_REACTORS
330
C371
102
}
330
C371
100
AcDbXrecord
280
     1
102
RTVSPost2010Prop28
280
     0
102
RTVSPost2010PropOp28
 70
     1
102
RTVSPost2010Prop29
280
     1
102
RTVSPost2010PropOp29
 70
     1
102
RTVSPost2010Prop30
280
     1
102
RTVSPost2010PropOp30
 70
     1
102
RTVSPost2010Prop31
280
     0
102
RTVSPost2010PropOp31
 70
     1
102
RTVSPost2010Prop32
280
     0
102
RTVSPost2010PropOp32
 70
     1
102
RTVSPost2010Prop33
280
     0
102
RTVSPost2010PropOp33
 70
     1
102
RTVSPost2010Prop34
280
     0
102
RTVSPost2010PropOp34
 70
     1
102
RTVSPost2010Prop35
280
     0
102
RTVSPost2010PropOp35
 70
     1
102
RTVSPost2010Prop36
280
     0
102
RTVSPost2010PropOp36
 70
     1
102
RTVSPost2010Prop37
 90
       50
102
RTVSPost2010PropOp37
 70
     0
102
RTVSPost2010Prop38
140
0.0
102
RTVSPost2010PropOp38
 70
     0
102
RTVSPost2010Prop39
140
1.0
102
RTVSPost2010PropOp39
 70
     0
102
RTVSPost2010Prop40
 90
        0
102
RTVSPost2010PropOp40
 70
     0
102
RTVSPost2010Prop41ColorIndex
 90
       18
102
RTVSPost2010Prop41ColorRGB
 90
        0
102
RTVSPost2010PropOp41
 70
     0
102
RTVSPost2010Prop42
 90
       50
102
RTVSPost2010PropOp42
 70
     0
102
RTVSPost2010Prop43
 90
        3
102
RTVSPost2010PropOp43
 70
     0
102
RTVSPost2010Prop44ColorIndex
 90
        5
102
RTVSPost2010Prop44ColorRGB
 90
      255
102
RTVSPost2010PropOp44
 70
     0
102
RTVSPost2010Prop45
280
     0
102
RTVSPost2010PropOp45
 70
     1
102
RTVSPost2010Prop46
 90
       50
102
RTVSPost2010PropOp46
 70
     0
102
RTVSPost2010Prop47
 90
       50
102
RTVSPost2010PropOp47
 70
     0
102
RTVSPost2010Prop48
 90
       50
102
RTVSPost2010PropOp48
 70
     0
102
RTVSPost2010Prop49
280
     0
102
RTVSPost2010PropOp49
 70
     1
102
RTVSPost2010Prop50
 90
       50
102
RTVSPost2010PropOp50
 70
     0
102
RTVSPost2010Prop51ColorIndex
 90
      256
102
RTVSPost2010Prop51ColorRGB
 90
-16777216
102
RTVSPost2010PropOp51
 70
     0
102
RTVSPost2010Prop52
140
1.0
102
RTVSPost2010PropOp52
 70
     0
102
RTVSPost2010Prop53
 90
        2
102
RTVSPost2010PropOp53
 70
     0
102
RTVSPost2010Prop54
  1
strokes_ogs.tif
102
RTVSPost2010PropOp54
 70
     0
102
RTVSPost2010Prop55
280
     0
102
RTVSPost2010PropOp55
 70
     1
102
RTVSPost2010Prop56
140
1.0
102
RTVSPost2010PropOp56
 70
     0
102
RTVSPost2010Prop57
140
1.0
102
RTVSPost2010PropOp57
 70
     0
102
RTVSPropertyOp0
 70
     0
102
RTVSPropertyOp1
 70
     0
102
RTVSPropertyOp2
 70
     0
102
RTVSPropertyOp3
 70
     0
102
RTVSPropertyOp4
 70
     0
102
RTVSPropertyOp5
 70
     0
102
RTVSPropertyOp6
 70
     0
102
RTVSPropertyOp7
 70
     0
102
RTVSPropertyOp8
 70
     0
102
RTVSPropertyOp9
 70
     0
102
RTVSPropertyOp10
 70
     0
102
RTVSPropertyOp11
 70
     0
102
RTVSPropertyOp12
 70
     0
102
RTVSPropertyOp13
 70
     0
102
RTVSPropertyOp14
 70
     2
102
RTVSPropertyOp15
 70
     0
102
RTVSPropertyOp16
 70
     0
102
RTVSPropertyOp17
 70
     0
102
RTVSPropertyOp18
 70
     0
102
RTVSPropertyOp19
 70
     0
102
RTVSPropertyOp20
 70
     0
102
RTVSPropertyOp21
 70
     0
102
RTVSPropertyOp22
 70
     0
102
RTVSPropertyOp23
 70
     0
102
RTVSPropertyOp24
 70
     0
102
RTVSPropertyOp25
 70
     0
102
RTVSPropertyOp26
 70
     0
102
RTVSPropertyOp27
 70
     0
102
RTVSPropertyOp28
 70
     1
102
RTVSPropertyOp29
 70
     1
102
RTVSPropertyOp30
 70
     1
102
RTVSPropertyOp31
 70
     1
102
RTVSPropertyOp32
 70
     1
102
RTVSPropertyOp33
 70
     1
102
RTVSPropertyOp34
 70
     1
102
RTVSPropertyOp35
 70
     1
102
RTVSPropertyOp36
 70
     1
102
RTVSPropertyOp37
 70
     0
102
RTVSPropertyOp38
 70
     0
102
RTVSPropertyOp39
 70
     0
102
RTVSPropertyOp40
 70
     0
102
RTVSPropertyOp41
 70
     0
102
RTVSPropertyOp42
 70
     0
102
RTVSPropertyOp43
 70
     0
102
RTVSPropertyOp44
 70
     0
102
RTVSPropertyOp45
 70
     1
102
RTVSPropertyOp46
 70
     0
102
RTVSPropertyOp47
 70
     0
102
RTVSPropertyOp48
 70
     0
102
RTVSPropertyOp49
 70
     1
102
RTVSPropertyOp50
 70
     0
102
RTVSPropertyOp51
 70
     0
102
RTVSPropertyOp52
 70
     0
102
RTVSPropertyOp53
 70
     0
102
RTVSPropertyOp54
 70
     0
102
RTVSPropertyOp55
 70
     1
102
RTVSPropertyOp56
 70
     0
102
RTVSPropertyOp57
 70
     0
102
RTVSPropertyOp58
 70
     0
102
RTVSPropertyOp59
 70
     0
102
RTVSPropertyOp60
 70
     0
102
RTVSPropertyOp61
 70
     0
102
RTVSPropertyOp62
 70
     0
  0
XRECORD
  5
C362
102
{ACAD_REACTORS
330
C361
102
}
330
C361
100
AcDbXrecord
280
     1
102
RTVSPost2010Prop28
280
     0
102
RTVSPost2010PropOp28
 70
     1
102
RTVSPost2010Prop29
280
     1
102
RTVSPost2010PropOp29
 70
     1
102
RTVSPost2010Prop30
280
     1
102
RTVSPost2010PropOp30
 70
     1
102
RTVSPost2010Prop31
280
     0
102
RTVSPost2010PropOp31
 70
     1
102
RTVSPost2010Prop32
280
     0
102
RTVSPost2010PropOp32
 70
     1
102
RTVSPost2010Prop33
280
     0
102
RTVSPost2010PropOp33
 70
     1
102
RTVSPost2010Prop34
280
     0
102
RTVSPost2010PropOp34
 70
     1
102
RTVSPost2010Prop35
280
     0
102
RTVSPost2010PropOp35
 70
     1
102
RTVSPost2010Prop36
280
     0
102
RTVSPost2010PropOp36
 70
     1
102
RTVSPost2010Prop37
 90
       50
102
RTVSPost2010PropOp37
 70
     1
102
RTVSPost2010Prop38
140
0.0
102
RTVSPost2010PropOp38
 70
     1
102
RTVSPost2010Prop39
140
1.0
102
RTVSPost2010PropOp39
 70
     1
102
RTVSPost2010Prop40
 90
        0
102
RTVSPost2010PropOp40
 70
     1
102
RTVSPost2010Prop41ColorIndex
 90
       18
102
RTVSPost2010Prop41ColorRGB
 90
        0
102
RTVSPost2010PropOp41
 70
     1
102
RTVSPost2010Prop42
 90
       50
102
RTVSPost2010PropOp42
 70
     1
102
RTVSPost2010Prop43
 90
        3
102
RTVSPost2010PropOp43
 70
     1
102
RTVSPost2010Prop44ColorIndex
 90
        5
102
RTVSPost2010Prop44ColorRGB
 90
      255
102
RTVSPost2010PropOp44
 70
     1
102
RTVSPost2010Prop45
280
     0
102
RTVSPost2010PropOp45
 70
     1
102
RTVSPost2010Prop46
 90
       50
102
RTVSPost2010PropOp46
 70
     1
102
RTVSPost2010Prop47
 90
       50
102
RTVSPost2010PropOp47
 70
     1
102
RTVSPost2010Prop48
 90
       50
102
RTVSPost2010PropOp48
 70
     1
102
RTVSPost2010Prop49
280
     0
102
RTVSPost2010PropOp49
 70
     1
102
RTVSPost2010Prop50
 90
       50
102
RTVSPost2010PropOp50
 70
     1
102
RTVSPost2010Prop51ColorIndex
 90
      256
102
RTVSPost2010Prop51ColorRGB
 90
-16777216
102
RTVSPost2010PropOp51
 70
     0
102
RTVSPost2010Prop52
140
1.0
102
RTVSPost2010PropOp52
 70
     0
102
RTVSPost2010Prop53
 90
        2
102
RTVSPost2010PropOp53
 70
     1
102
RTVSPost2010Prop54
  1
strokes_ogs.tif
102
RTVSPost2010PropOp54
 70
     1
102
RTVSPost2010Prop55
280
     0
102
RTVSPost2010PropOp55
 70
     1
102
RTVSPost2010Prop56
140
1.0
102
RTVSPost2010PropOp56
 70
     1
102
RTVSPost2010Prop57
140
1.0
102
RTVSPost2010PropOp57
 70
     1
102
RTVSPropertyOp0
 70
     1
102
RTVSPropertyOp1
 70
     1
102
RTVSPropertyOp2
 70
     1
102
RTVSPropertyOp3
 70
     1
102
RTVSPropertyOp4
 70
     1
102
RTVSPropertyOp5
 70
     1
102
RTVSPropertyOp6
 70
     1
102
RTVSPropertyOp7
 70
     1
102
RTVSPropertyOp8
 70
     1
102
RTVSPropertyOp9
 70
     1
102
RTVSPropertyOp10
 70
     1
102
RTVSPropertyOp11
 70
     1
102
RTVSPropertyOp12
 70
     1
102
RTVSPropertyOp13
 70
     1
102
RTVSPropertyOp14
 70
     1
102
RTVSPropertyOp15
 70
     1
102
RTVSPropertyOp16
 70
     1
102
RTVSPropertyOp17
 70
     1
102
RTVSPropertyOp18
 70
     1
102
RTVSPropertyOp19
 70
     1
102
RTVSPropertyOp20
 70
     1
102
RTVSPropertyOp21
 70
     1
102
RTVSPropertyOp22
 70
     1
102
RTVSPropertyOp23
 70
     1
102
RTVSPropertyOp24
 70
     1
102
RTVSPropertyOp25
 70
     1
102
RTVSPropertyOp26
 70
     1
102
RTVSPropertyOp27
 70
     1
102
RTVSPropertyOp28
 70
     1
102
RTVSPropertyOp29
 70
     1
102
RTVSPropertyOp30
 70
     1
102
RTVSPropertyOp31
 70
     1
102
RTVSPropertyOp32
 70
     1
102
RTVSPropertyOp33
 70
     1
102
RTVSPropertyOp34
 70
     1
102
RTVSPropertyOp35
 70
     1
102
RTVSPropertyOp36
 70
     1
102
RTVSPropertyOp37
 70
     1
102
RTVSPropertyOp38
 70
     1
102
RTVSPropertyOp39
 70
     1
102
RTVSPropertyOp40
 70
     1
102
RTVSPropertyOp41
 70
     1
102
RTVSPropertyOp42
 70
     1
102
RTVSPropertyOp43
 70
     1
102
RTVSPropertyOp44
 70
     1
102
RTVSPropertyOp45
 70
     1
102
RTVSPropertyOp46
 70
     1
102
RTVSPropertyOp47
 70
     1
102
RTVSPropertyOp48
 70
     1
102
RTVSPropertyOp49
 70
     1
102
RTVSPropertyOp50
 70
     1
102
RTVSPropertyOp51
 70
     0
102
RTVSPropertyOp52
 70
     0
102
RTVSPropertyOp53
 70
     1
102
RTVSPropertyOp54
 70
     1
102
RTVSPropertyOp55
 70
     1
102
RTVSPropertyOp56
 70
     1
102
RTVSPropertyOp57
 70
     1
102
RTVSPropertyOp58
 70
     1
102
RTVSPropertyOp59
 70
     1
102
RTVSPropertyOp60
 70
     1
102
RTVSPropertyOp61
 70
     1
102
RTVSPropertyOp62
 70
     1
  0
XRECORD
  5
C374
102
{ACAD_REACTORS
330
C373
102
}
330
C373
100
AcDbXrecord
280
     1
102
RTVSPost2010Prop28
280
     0
102
RTVSPost2010PropOp28
 70
     1
102
RTVSPost2010Prop29
280
     1
102
RTVSPost2010PropOp29
 70
     1
102
RTVSPost2010Prop30
280
     1
102
RTVSPost2010PropOp30
 70
     1
102
RTVSPost2010Prop31
280
     0
102
RTVSPost2010PropOp31
 70
     1
102
RTVSPost2010Prop32
280
     0
102
RTVSPost2010PropOp32
 70
     1
102
RTVSPost2010Prop33
280
     0
102
RTVSPost2010PropOp33
 70
     1
102
RTVSPost2010Prop34
280
     0
102
RTVSPost2010PropOp34
 70
     1
102
RTVSPost2010Prop35
280
     0
102
RTVSPost2010PropOp35
 70
     1
102
RTVSPost2010Prop36
280
     0
102
RTVSPost2010PropOp36
 70
     1
102
RTVSPost2010Prop37
 90
       50
102
RTVSPost2010PropOp37
 70
     0
102
RTVSPost2010Prop38
140
0.0
102
RTVSPost2010PropOp38
 70
     0
102
RTVSPost2010Prop39
140
1.0
102
RTVSPost2010PropOp39
 70
     0
102
RTVSPost2010Prop40
 90
        0
102
RTVSPost2010PropOp40
 70
     0
102
RTVSPost2010Prop41ColorIndex
 90
       18
102
RTVSPost2010Prop41ColorRGB
 90
        0
102
RTVSPost2010PropOp41
 70
     0
102
RTVSPost2010Prop42
 90
       50
102
RTVSPost2010PropOp42
 70
     0
102
RTVSPost2010Prop43
 90
        3
102
RTVSPost2010PropOp43
 70
     0
102
RTVSPost2010Prop44ColorIndex
 90
        5
102
RTVSPost2010Prop44ColorRGB
 90
      255
102
RTVSPost2010PropOp44
 70
     0
102
RTVSPost2010Prop45
280
     0
102
RTVSPost2010PropOp45
 70
     1
102
RTVSPost2010Prop46
 90
       50
102
RTVSPost2010PropOp46
 70
     0
102
RTVSPost2010Prop47
 90
       50
102
RTVSPost2010PropOp47
 70
     0
102
RTVSPost2010Prop48
 90
       50
102
RTVSPost2010PropOp48
 70
     0
102
RTVSPost2010Prop49
280
     0
102
RTVSPost2010PropOp49
 70
     1
102
RTVSPost2010Prop50
 90
       50
102
RTVSPost2010PropOp50
 70
     0
102
RTVSPost2010Prop51ColorIndex
 90
      256
102
RTVSPost2010Prop51ColorRGB
 90
-16777216
102
RTVSPost2010PropOp51
 70
     0
102
RTVSPost2010Prop52
140
1.0
102
RTVSPost2010PropOp52
 70
     0
102
RTVSPost2010Prop53
 90
        2
102
RTVSPost2010PropOp53
 70
     0
102
RTVSPost2010Prop54
  1
strokes_ogs.tif
102
RTVSPost2010PropOp54
 70
     0
102
RTVSPost2010Prop55
280
     0
102
RTVSPost2010PropOp55
 70
     1
102
RTVSPost2010Prop56
140
1.0
102
RTVSPost2010PropOp56
 70
     0
102
RTVSPost2010Prop57
140
1.0
102
RTVSPost2010PropOp57
 70
     0
102
RTVSPropertyOp0
 70
     0
102
RTVSPropertyOp1
 70
     0
102
RTVSPropertyOp2
 70
     0
102
RTVSPropertyOp3
 70
     0
102
RTVSPropertyOp4
 70
     0
102
RTVSPropertyOp5
 70
     0
102
RTVSPropertyOp6
 70
     0
102
RTVSPropertyOp7
 70
     0
102
RTVSPropertyOp8
 70
     0
102
RTVSPropertyOp9
 70
     0
102
RTVSPropertyOp10
 70
     0
102
RTVSPropertyOp11
 70
     0
102
RTVSPropertyOp12
 70
     0
102
RTVSPropertyOp13
 70
     0
102
RTVSPropertyOp14
 70
     2
102
RTVSPropertyOp15
 70
     0
102
RTVSPropertyOp16
 70
     0
102
RTVSPropertyOp17
 70
     0
102
RTVSPropertyOp18
 70
     0
102
RTVSPropertyOp19
 70
     0
102
RTVSPropertyOp20
 70
     0
102
RTVSPropertyOp21
 70
     0
102
RTVSPropertyOp22
 70
     0
102
RTVSPropertyOp23
 70
     0
102
RTVSPropertyOp24
 70
     0
102
RTVSPropertyOp25
 70
     0
102
RTVSPropertyOp26
 70
     0
102
RTVSPropertyOp27
 70
     0
102
RTVSPropertyOp28
 70
     1
102
RTVSPropertyOp29
 70
     1
102
RTVSPropertyOp30
 70
     1
102
RTVSPropertyOp31
 70
     1
102
RTVSPropertyOp32
 70
     1
102
RTVSPropertyOp33
 70
     1
102
RTVSPropertyOp34
 70
     1
102
RTVSPropertyOp35
 70
     1
102
RTVSPropertyOp36
 70
     1
102
RTVSPropertyOp37
 70
     0
102
RTVSPropertyOp38
 70
     0
102
RTVSPropertyOp39
 70
     0
102
RTVSPropertyOp40
 70
     0
102
RTVSPropertyOp41
 70
     0
102
RTVSPropertyOp42
 70
     0
102
RTVSPropertyOp43
 70
     0
102
RTVSPropertyOp44
 70
     0
102
RTVSPropertyOp45
 70
     1
102
RTVSPropertyOp46
 70
     0
102
RTVSPropertyOp47
 70
     0
102
RTVSPropertyOp48
 70
     0
102
RTVSPropertyOp49
 70
     1
102
RTVSPropertyOp50
 70
     0
102
RTVSPropertyOp51
 70
     0
102
RTVSPropertyOp52
 70
     0
102
RTVSPropertyOp53
 70
     0
102
RTVSPropertyOp54
 70
     0
102
RTVSPropertyOp55
 70
     1
102
RTVSPropertyOp56
 70
     0
102
RTVSPropertyOp57
 70
     0
102
RTVSPropertyOp58
 70
     0
102
RTVSPropertyOp59
 70
     0
102
RTVSPropertyOp60
 70
     0
102
RTVSPropertyOp61
 70
     0
102
RTVSPropertyOp62
 70
     0
  0
XRECORD
  5
C35A
102
{ACAD_REACTORS
330
C359
102
}
330
C359
100
AcDbXrecord
280
     1
102
RTVSPost2010Prop28
280
     0
102
RTVSPost2010PropOp28
 70
     1
102
RTVSPost2010Prop29
280
     1
102
RTVSPost2010PropOp29
 70
     1
102
RTVSPost2010Prop30
280
     1
102
RTVSPost2010PropOp30
 70
     1
102
RTVSPost2010Prop31
280
     0
102
RTVSPost2010PropOp31
 70
     1
102
RTVSPost2010Prop32
280
     0
102
RTVSPost2010PropOp32
 70
     1
102
RTVSPost2010Prop33
280
     0
102
RTVSPost2010PropOp33
 70
     1
102
RTVSPost2010Prop34
280
     0
102
RTVSPost2010PropOp34
 70
     1
102
RTVSPost2010Prop35
280
     0
102
RTVSPost2010PropOp35
 70
     1
102
RTVSPost2010Prop36
280
     0
102
RTVSPost2010PropOp36
 70
     1
102
RTVSPost2010Prop37
 90
       50
102
RTVSPost2010PropOp37
 70
     1
102
RTVSPost2010Prop38
140
0.0
102
RTVSPost2010PropOp38
 70
     1
102
RTVSPost2010Prop39
140
1.0
102
RTVSPost2010PropOp39
 70
     1
102
RTVSPost2010Prop40
 90
        0
102
RTVSPost2010PropOp40
 70
     1
102
RTVSPost2010Prop41ColorIndex
 90
       18
102
RTVSPost2010Prop41ColorRGB
 90
        0
102
RTVSPost2010PropOp41
 70
     1
102
RTVSPost2010Prop42
 90
       50
102
RTVSPost2010PropOp42
 70
     1
102
RTVSPost2010Prop43
 90
        3
102
RTVSPost2010PropOp43
 70
     1
102
RTVSPost2010Prop44ColorIndex
 90
        5
102
RTVSPost2010Prop44ColorRGB
 90
      255
102
RTVSPost2010PropOp44
 70
     1
102
RTVSPost2010Prop45
280
     0
102
RTVSPost2010PropOp45
 70
     1
102
RTVSPost2010Prop46
 90
       50
102
RTVSPost2010PropOp46
 70
     1
102
RTVSPost2010Prop47
 90
       50
102
RTVSPost2010PropOp47
 70
     1
102
RTVSPost2010Prop48
 90
       50
102
RTVSPost2010PropOp48
 70
     1
102
RTVSPost2010Prop49
280
     0
102
RTVSPost2010PropOp49
 70
     1
102
RTVSPost2010Prop50
 90
       50
102
RTVSPost2010PropOp50
 70
     1
102
RTVSPost2010Prop51ColorIndex
 90
      256
102
RTVSPost2010Prop51ColorRGB
 90
-16777216
102
RTVSPost2010PropOp51
 70
     0
102
RTVSPost2010Prop52
140
1.0
102
RTVSPost2010PropOp52
 70
     0
102
RTVSPost2010Prop53
 90
        2
102
RTVSPost2010PropOp53
 70
     1
102
RTVSPost2010Prop54
  1
strokes_ogs.tif
102
RTVSPost2010PropOp54
 70
     1
102
RTVSPost2010Prop55
280
     0
102
RTVSPost2010PropOp55
 70
     1
102
RTVSPost2010Prop56
140
1.0
102
RTVSPost2010PropOp56
 70
     1
102
RTVSPost2010Prop57
140
1.0
102
RTVSPost2010PropOp57
 70
     1
102
RTVSPropertyOp0
 70
     1
102
RTVSPropertyOp1
 70
     1
102
RTVSPropertyOp2
 70
     1
102
RTVSPropertyOp3
 70
     1
102
RTVSPropertyOp4
 70
     1
102
RTVSPropertyOp5
 70
     1
102
RTVSPropertyOp6
 70
     1
102
RTVSPropertyOp7
 70
     1
102
RTVSPropertyOp8
 70
     1
102
RTVSPropertyOp9
 70
     1
102
RTVSPropertyOp10
 70
     1
102
RTVSPropertyOp11
 70
     1
102
RTVSPropertyOp12
 70
     1
102
RTVSPropertyOp13
 70
     1
102
RTVSPropertyOp14
 70
     1
102
RTVSPropertyOp15
 70
     1
102
RTVSPropertyOp16
 70
     1
102
RTVSPropertyOp17
 70
     1
102
RTVSPropertyOp18
 70
     1
102
RTVSPropertyOp19
 70
     1
102
RTVSPropertyOp20
 70
     1
102
RTVSPropertyOp21
 70
     1
102
RTVSPropertyOp22
 70
     1
102
RTVSPropertyOp23
 70
     1
102
RTVSPropertyOp24
 70
     1
102
RTVSPropertyOp25
 70
     1
102
RTVSPropertyOp26
 70
     1
102
RTVSPropertyOp27
 70
     1
102
RTVSPropertyOp28
 70
     1
102
RTVSPropertyOp29
 70
     1
102
RTVSPropertyOp30
 70
     1
102
RTVSPropertyOp31
 70
     1
102
RTVSPropertyOp32
 70
     1
102
RTVSPropertyOp33
 70
     1
102
RTVSPropertyOp34
 70
     1
102
RTVSPropertyOp35
 70
     1
102
RTVSPropertyOp36
 70
     1
102
RTVSPropertyOp37
 70
     1
102
RTVSPropertyOp38
 70
     1
102
RTVSPropertyOp39
 70
     1
102
RTVSPropertyOp40
 70
     1
102
RTVSPropertyOp41
 70
     1
102
RTVSPropertyOp42
 70
     1
102
RTVSPropertyOp43
 70
     1
102
RTVSPropertyOp44
 70
     1
102
RTVSPropertyOp45
 70
     1
102
RTVSPropertyOp46
 70
     1
102
RTVSPropertyOp47
 70
     1
102
RTVSPropertyOp48
 70
     1
102
RTVSPropertyOp49
 70
     1
102
RTVSPropertyOp50
 70
     1
102
RTVSPropertyOp51
 70
     0
102
RTVSPropertyOp52
 70
     0
102
RTVSPropertyOp53
 70
     1
102
RTVSPropertyOp54
 70
     1
102
RTVSPropertyOp55
 70
     1
102
RTVSPropertyOp56
 70
     1
102
RTVSPropertyOp57
 70
     1
102
RTVSPropertyOp58
 70
     1
102
RTVSPropertyOp59
 70
     1
102
RTVSPropertyOp60
 70
     1
102
RTVSPropertyOp61
 70
     1
102
RTVSPropertyOp62
 70
     1
  0
XRECORD
  5
C370
102
{ACAD_REACTORS
330
C36F
102
}
330
C36F
100
AcDbXrecord
280
     1
102
RTVSPost2010Prop28
280
     0
102
RTVSPost2010PropOp28
 70
     1
102
RTVSPost2010Prop29
280
     1
102
RTVSPost2010PropOp29
 70
     1
102
RTVSPost2010Prop30
280
     1
102
RTVSPost2010PropOp30
 70
     1
102
RTVSPost2010Prop31
280
     0
102
RTVSPost2010PropOp31
 70
     1
102
RTVSPost2010Prop32
280
     0
102
RTVSPost2010PropOp32
 70
     1
102
RTVSPost2010Prop33
280
     0
102
RTVSPost2010PropOp33
 70
     1
102
RTVSPost2010Prop34
280
     0
102
RTVSPost2010PropOp34
 70
     1
102
RTVSPost2010Prop35
280
     0
102
RTVSPost2010PropOp35
 70
     1
102
RTVSPost2010Prop36
280
     0
102
RTVSPost2010PropOp36
 70
     1
102
RTVSPost2010Prop37
 90
       50
102
RTVSPost2010PropOp37
 70
     1
102
RTVSPost2010Prop38
140
0.0
102
RTVSPost2010PropOp38
 70
     1
102
RTVSPost2010Prop39
140
1.0
102
RTVSPost2010PropOp39
 70
     1
102
RTVSPost2010Prop40
 90
        0
102
RTVSPost2010PropOp40
 70
     1
102
RTVSPost2010Prop41ColorIndex
 90
       18
102
RTVSPost2010Prop41ColorRGB
 90
        0
102
RTVSPost2010PropOp41
 70
     1
102
RTVSPost2010Prop42
 90
       50
102
RTVSPost2010PropOp42
 70
     1
102
RTVSPost2010Prop43
 90
        3
102
RTVSPost2010PropOp43
 70
     1
102
RTVSPost2010Prop44ColorIndex
 90
        5
102
RTVSPost2010Prop44ColorRGB
 90
      255
102
RTVSPost2010PropOp44
 70
     1
102
RTVSPost2010Prop45
280
     0
102
RTVSPost2010PropOp45
 70
     1
102
RTVSPost2010Prop46
 90
       50
102
RTVSPost2010PropOp46
 70
     1
102
RTVSPost2010Prop47
 90
       50
102
RTVSPost2010PropOp47
 70
     1
102
RTVSPost2010Prop48
 90
       50
102
RTVSPost2010PropOp48
 70
     1
102
RTVSPost2010Prop49
280
     0
102
RTVSPost2010PropOp49
 70
     1
102
RTVSPost2010Prop50
 90
       50
102
RTVSPost2010PropOp50
 70
     1
102
RTVSPost2010Prop51ColorIndex
 90
      256
102
RTVSPost2010Prop51ColorRGB
 90
-16777216
102
RTVSPost2010PropOp51
 70
     0
102
RTVSPost2010Prop52
140
1.0
102
RTVSPost2010PropOp52
 70
     0
102
RTVSPost2010Prop53
 90
        2
102
RTVSPost2010PropOp53
 70
     1
102
RTVSPost2010Prop54
  1
strokes_ogs.tif
102
RTVSPost2010PropOp54
 70
     1
102
RTVSPost2010Prop55
280
     0
102
RTVSPost2010PropOp55
 70
     1
102
RTVSPost2010Prop56
140
1.0
102
RTVSPost2010PropOp56
 70
     1
102
RTVSPost2010Prop57
140
1.0
102
RTVSPost2010PropOp57
 70
     1
102
RTVSPropertyOp0
 70
     1
102
RTVSPropertyOp1
 70
     1
102
RTVSPropertyOp2
 70
     1
102
RTVSPropertyOp3
 70
     1
102
RTVSPropertyOp4
 70
     1
102
RTVSPropertyOp5
 70
     1
102
RTVSPropertyOp6
 70
     1
102
RTVSPropertyOp7
 70
     1
102
RTVSPropertyOp8
 70
     1
102
RTVSPropertyOp9
 70
     1
102
RTVSPropertyOp10
 70
     1
102
RTVSPropertyOp11
 70
     1
102
RTVSPropertyOp12
 70
     1
102
RTVSPropertyOp13
 70
     1
102
RTVSPropertyOp14
 70
     1
102
RTVSPropertyOp15
 70
     1
102
RTVSPropertyOp16
 70
     1
102
RTVSPropertyOp17
 70
     1
102
RTVSPropertyOp18
 70
     1
102
RTVSPropertyOp19
 70
     1
102
RTVSPropertyOp20
 70
     1
102
RTVSPropertyOp21
 70
     1
102
RTVSPropertyOp22
 70
     1
102
RTVSPropertyOp23
 70
     1
102
RTVSPropertyOp24
 70
     1
102
RTVSPropertyOp25
 70
     1
102
RTVSPropertyOp26
 70
     1
102
RTVSPropertyOp27
 70
     1
102
RTVSPropertyOp28
 70
     1
102
RTVSPropertyOp29
 70
     1
102
RTVSPropertyOp30
 70
     1
102
RTVSPropertyOp31
 70
     1
102
RTVSPropertyOp32
 70
     1
102
RTVSPropertyOp33
 70
     1
102
RTVSPropertyOp34
 70
     1
102
RTVSPropertyOp35
 70
     1
102
RTVSPropertyOp36
 70
     1
102
RTVSPropertyOp37
 70
     1
102
RTVSPropertyOp38
 70
     1
102
RTVSPropertyOp39
 70
     1
102
RTVSPropertyOp40
 70
     1
102
RTVSPropertyOp41
 70
     1
102
RTVSPropertyOp42
 70
     1
102
RTVSPropertyOp43
 70
     1
102
RTVSPropertyOp44
 70
     1
102
RTVSPropertyOp45
 70
     1
102
RTVSPropertyOp46
 70
     1
102
RTVSPropertyOp47
 70
     1
102
RTVSPropertyOp48
 70
     1
102
RTVSPropertyOp49
 70
     1
102
RTVSPropertyOp50
 70
     1
102
RTVSPropertyOp51
 70
     0
102
RTVSPropertyOp52
 70
     0
102
RTVSPropertyOp53
 70
     1
102
RTVSPropertyOp54
 70
     1
102
RTVSPropertyOp55
 70
     1
102
RTVSPropertyOp56
 70
     1
102
RTVSPropertyOp57
 70
     1
102
RTVSPropertyOp58
 70
     1
102
RTVSPropertyOp59
 70
     1
102
RTVSPropertyOp60
 70
     1
102
RTVSPropertyOp61
 70
     1
102
RTVSPropertyOp62
 70
     1
  0
XRECORD
  5
C36E
102
{ACAD_REACTORS
330
C36D
102
}
330
C36D
100
AcDbXrecord
280
     1
102
RTVSPost2010Prop28
280
     0
102
RTVSPost2010PropOp28
 70
     1
102
RTVSPost2010Prop29
280
     1
102
RTVSPost2010PropOp29
 70
     1
102
RTVSPost2010Prop30
280
     1
102
RTVSPost2010PropOp30
 70
     1
102
RTVSPost2010Prop31
280
     0
102
RTVSPost2010PropOp31
 70
     1
102
RTVSPost2010Prop32
280
     0
102
RTVSPost2010PropOp32
 70
     1
102
RTVSPost2010Prop33
280
     0
102
RTVSPost2010PropOp33
 70
     1
102
RTVSPost2010Prop34
280
     0
102
RTVSPost2010PropOp34
 70
     1
102
RTVSPost2010Prop35
280
     0
102
RTVSPost2010PropOp35
 70
     1
102
RTVSPost2010Prop36
280
     0
102
RTVSPost2010PropOp36
 70
     1
102
RTVSPost2010Prop37
 90
       50
102
RTVSPost2010PropOp37
 70
     1
102
RTVSPost2010Prop38
140
0.0
102
RTVSPost2010PropOp38
 70
     1
102
RTVSPost2010Prop39
140
1.0
102
RTVSPost2010PropOp39
 70
     1
102
RTVSPost2010Prop40
 90
        0
102
RTVSPost2010PropOp40
 70
     1
102
RTVSPost2010Prop41ColorIndex
 90
       18
102
RTVSPost2010Prop41ColorRGB
 90
        0
102
RTVSPost2010PropOp41
 70
     1
102
RTVSPost2010Prop42
 90
       50
102
RTVSPost2010PropOp42
 70
     1
102
RTVSPost2010Prop43
 90
        3
102
RTVSPost2010PropOp43
 70
     1
102
RTVSPost2010Prop44ColorIndex
 90
        5
102
RTVSPost2010Prop44ColorRGB
 90
      255
102
RTVSPost2010PropOp44
 70
     1
102
RTVSPost2010Prop45
280
     0
102
RTVSPost2010PropOp45
 70
     1
102
RTVSPost2010Prop46
 90
       50
102
RTVSPost2010PropOp46
 70
     1
102
RTVSPost2010Prop47
 90
       50
102
RTVSPost2010PropOp47
 70
     1
102
RTVSPost2010Prop48
 90
       50
102
RTVSPost2010PropOp48
 70
     1
102
RTVSPost2010Prop49
280
     0
102
RTVSPost2010PropOp49
 70
     1
102
RTVSPost2010Prop50
 90
       50
102
RTVSPost2010PropOp50
 70
     1
102
RTVSPost2010Prop51ColorIndex
 90
      256
102
RTVSPost2010Prop51ColorRGB
 90
-16777216
102
RTVSPost2010PropOp51
 70
     0
102
RTVSPost2010Prop52
140
1.0
102
RTVSPost2010PropOp52
 70
     0
102
RTVSPost2010Prop53
 90
        2
102
RTVSPost2010PropOp53
 70
     1
102
RTVSPost2010Prop54
  1
strokes_ogs.tif
102
RTVSPost2010PropOp54
 70
     1
102
RTVSPost2010Prop55
280
     0
102
RTVSPost2010PropOp55
 70
     1
102
RTVSPost2010Prop56
140
1.0
102
RTVSPost2010PropOp56
 70
     1
102
RTVSPost2010Prop57
140
1.0
102
RTVSPost2010PropOp57
 70
     1
102
RTVSPropertyOp0
 70
     1
102
RTVSPropertyOp1
 70
     1
102
RTVSPropertyOp2
 70
     1
102
RTVSPropertyOp3
 70
     1
102
RTVSPropertyOp4
 70
     1
102
RTVSPropertyOp5
 70
     1
102
RTVSPropertyOp6
 70
     1
102
RTVSPropertyOp7
 70
     1
102
RTVSPropertyOp8
 70
     1
102
RTVSPropertyOp9
 70
     1
102
RTVSPropertyOp10
 70
     1
102
RTVSPropertyOp11
 70
     1
102
RTVSPropertyOp12
 70
     1
102
RTVSPropertyOp13
 70
     1
102
RTVSPropertyOp14
 70
     1
102
RTVSPropertyOp15
 70
     1
102
RTVSPropertyOp16
 70
     1
102
RTVSPropertyOp17
 70
     1
102
RTVSPropertyOp18
 70
     1
102
RTVSPropertyOp19
 70
     1
102
RTVSPropertyOp20
 70
     1
102
RTVSPropertyOp21
 70
     1
102
RTVSPropertyOp22
 70
     1
102
RTVSPropertyOp23
 70
     1
102
RTVSPropertyOp24
 70
     1
102
RTVSPropertyOp25
 70
     1
102
RTVSPropertyOp26
 70
     1
102
RTVSPropertyOp27
 70
     1
102
RTVSPropertyOp28
 70
     1
102
RTVSPropertyOp29
 70
     1
102
RTVSPropertyOp30
 70
     1
102
RTVSPropertyOp31
 70
     1
102
RTVSPropertyOp32
 70
     1
102
RTVSPropertyOp33
 70
     1
102
RTVSPropertyOp34
 70
     1
102
RTVSPropertyOp35
 70
     1
102
RTVSPropertyOp36
 70
     1
102
RTVSPropertyOp37
 70
     1
102
RTVSPropertyOp38
 70
     1
102
RTVSPropertyOp39
 70
     1
102
RTVSPropertyOp40
 70
     1
102
RTVSPropertyOp41
 70
     1
102
RTVSPropertyOp42
 70
     1
102
RTVSPropertyOp43
 70
     1
102
RTVSPropertyOp44
 70
     1
102
RTVSPropertyOp45
 70
     1
102
RTVSPropertyOp46
 70
     1
102
RTVSPropertyOp47
 70
     1
102
RTVSPropertyOp48
 70
     1
102
RTVSPropertyOp49
 70
     1
102
RTVSPropertyOp50
 70
     1
102
RTVSPropertyOp51
 70
     0
102
RTVSPropertyOp52
 70
     0
102
RTVSPropertyOp53
 70
     1
102
RTVSPropertyOp54
 70
     1
102
RTVSPropertyOp55
 70
     1
102
RTVSPropertyOp56
 70
     1
102
RTVSPropertyOp57
 70
     1
102
RTVSPropertyOp58
 70
     1
102
RTVSPropertyOp59
 70
     1
102
RTVSPropertyOp60
 70
     1
102
RTVSPropertyOp61
 70
     1
102
RTVSPropertyOp62
 70
     1
  0
XRECORD
  5
C368
102
{ACAD_REACTORS
330
C367
102
}
330
C367
100
AcDbXrecord
280
     1
102
RTVSPost2010Prop28
280
     0
102
RTVSPost2010PropOp28
 70
     1
102
RTVSPost2010Prop29
280
     1
102
RTVSPost2010PropOp29
 70
     1
102
RTVSPost2010Prop30
280
     1
102
RTVSPost2010PropOp30
 70
     1
102
RTVSPost2010Prop31
280
     0
102
RTVSPost2010PropOp31
 70
     1
102
RTVSPost2010Prop32
280
     0
102
RTVSPost2010PropOp32
 70
     1
102
RTVSPost2010Prop33
280
     0
102
RTVSPost2010PropOp33
 70
     1
102
RTVSPost2010Prop34
280
     0
102
RTVSPost2010PropOp34
 70
     1
102
RTVSPost2010Prop35
280
     0
102
RTVSPost2010PropOp35
 70
     1
102
RTVSPost2010Prop36
280
     0
102
RTVSPost2010PropOp36
 70
     1
102
RTVSPost2010Prop37
 90
       50
102
RTVSPost2010PropOp37
 70
     1
102
RTVSPost2010Prop38
140
0.0
102
RTVSPost2010PropOp38
 70
     1
102
RTVSPost2010Prop39
140
1.0
102
RTVSPost2010PropOp39
 70
     1
102
RTVSPost2010Prop40
 90
        0
102
RTVSPost2010PropOp40
 70
     1
102
RTVSPost2010Prop41ColorIndex
 90
       18
102
RTVSPost2010Prop41ColorRGB
 90
        0
102
RTVSPost2010PropOp41
 70
     1
102
RTVSPost2010Prop42
 90
       50
102
RTVSPost2010PropOp42
 70
     1
102
RTVSPost2010Prop43
 90
        3
102
RTVSPost2010PropOp43
 70
     1
102
RTVSPost2010Prop44ColorIndex
 90
        5
102
RTVSPost2010Prop44ColorRGB
 90
      255
102
RTVSPost2010PropOp44
 70
     1
102
RTVSPost2010Prop45
280
     0
102
RTVSPost2010PropOp45
 70
     1
102
RTVSPost2010Prop46
 90
       50
102
RTVSPost2010PropOp46
 70
     1
102
RTVSPost2010Prop47
 90
       50
102
RTVSPost2010PropOp47
 70
     1
102
RTVSPost2010Prop48
 90
       50
102
RTVSPost2010PropOp48
 70
     1
102
RTVSPost2010Prop49
280
     0
102
RTVSPost2010PropOp49
 70
     1
102
RTVSPost2010Prop50
 90
       50
102
RTVSPost2010PropOp50
 70
     1
102
RTVSPost2010Prop51ColorIndex
 90
      256
102
RTVSPost2010Prop51ColorRGB
 90
-16777216
102
RTVSPost2010PropOp51
 70
     0
102
RTVSPost2010Prop52
140
1.0
102
RTVSPost2010PropOp52
 70
     0
102
RTVSPost2010Prop53
 90
        2
102
RTVSPost2010PropOp53
 70
     1
102
RTVSPost2010Prop54
  1
strokes_ogs.tif
102
RTVSPost2010PropOp54
 70
     1
102
RTVSPost2010Prop55
280
     0
102
RTVSPost2010PropOp55
 70
     1
102
RTVSPost2010Prop56
140
1.0
102
RTVSPost2010PropOp56
 70
     1
102
RTVSPost2010Prop57
140
1.0
102
RTVSPost2010PropOp57
 70
     1
102
RTVSPropertyOp0
 70
     1
102
RTVSPropertyOp1
 70
     1
102
RTVSPropertyOp2
 70
     1
102
RTVSPropertyOp3
 70
     1
102
RTVSPropertyOp4
 70
     1
102
RTVSPropertyOp5
 70
     1
102
RTVSPropertyOp6
 70
     1
102
RTVSPropertyOp7
 70
     1
102
RTVSPropertyOp8
 70
     1
102
RTVSPropertyOp9
 70
     1
102
RTVSPropertyOp10
 70
     1
102
RTVSPropertyOp11
 70
     1
102
RTVSPropertyOp12
 70
     1
102
RTVSPropertyOp13
 70
     1
102
RTVSPropertyOp14
 70
     1
102
RTVSPropertyOp15
 70
     1
102
RTVSPropertyOp16
 70
     1
102
RTVSPropertyOp17
 70
     1
102
RTVSPropertyOp18
 70
     1
102
RTVSPropertyOp19
 70
     1
102
RTVSPropertyOp20
 70
     1
102
RTVSPropertyOp21
 70
     1
102
RTVSPropertyOp22
 70
     1
102
RTVSPropertyOp23
 70
     1
102
RTVSPropertyOp24
 70
     1
102
RTVSPropertyOp25
 70
     1
102
RTVSPropertyOp26
 70
     1
102
RTVSPropertyOp27
 70
     1
102
RTVSPropertyOp28
 70
     1
102
RTVSPropertyOp29
 70
     1
102
RTVSPropertyOp30
 70
     1
102
RTVSPropertyOp31
 70
     1
102
RTVSPropertyOp32
 70
     1
102
RTVSPropertyOp33
 70
     1
102
RTVSPropertyOp34
 70
     1
102
RTVSPropertyOp35
 70
     1
102
RTVSPropertyOp36
 70
     1
102
RTVSPropertyOp37
 70
     1
102
RTVSPropertyOp38
 70
     1
102
RTVSPropertyOp39
 70
     1
102
RTVSPropertyOp40
 70
     1
102
RTVSPropertyOp41
 70
     1
102
RTVSPropertyOp42
 70
     1
102
RTVSPropertyOp43
 70
     1
102
RTVSPropertyOp44
 70
     1
102
RTVSPropertyOp45
 70
     1
102
RTVSPropertyOp46
 70
     1
102
RTVSPropertyOp47
 70
     1
102
RTVSPropertyOp48
 70
     1
102
RTVSPropertyOp49
 70
     1
102
RTVSPropertyOp50
 70
     1
102
RTVSPropertyOp51
 70
     0
102
RTVSPropertyOp52
 70
     0
102
RTVSPropertyOp53
 70
     1
102
RTVSPropertyOp54
 70
     1
102
RTVSPropertyOp55
 70
     1
102
RTVSPropertyOp56
 70
     1
102
RTVSPropertyOp57
 70
     1
102
RTVSPropertyOp58
 70
     1
102
RTVSPropertyOp59
 70
     1
102
RTVSPropertyOp60
 70
     1
102
RTVSPropertyOp61
 70
     1
102
RTVSPropertyOp62
 70
     1
  0
XRECORD
  5
C36A
102
{ACAD_REACTORS
330
C369
102
}
330
C369
100
AcDbXrecord
280
     1
102
RTVSPost2010Prop28
280
     0
102
RTVSPost2010PropOp28
 70
     1
102
RTVSPost2010Prop29
280
     1
102
RTVSPost2010PropOp29
 70
     1
102
RTVSPost2010Prop30
280
     1
102
RTVSPost2010PropOp30
 70
     1
102
RTVSPost2010Prop31
280
     0
102
RTVSPost2010PropOp31
 70
     1
102
RTVSPost2010Prop32
280
     0
102
RTVSPost2010PropOp32
 70
     1
102
RTVSPost2010Prop33
280
     0
102
RTVSPost2010PropOp33
 70
     1
102
RTVSPost2010Prop34
280
     0
102
RTVSPost2010PropOp34
 70
     1
102
RTVSPost2010Prop35
280
     0
102
RTVSPost2010PropOp35
 70
     1
102
RTVSPost2010Prop36
280
     0
102
RTVSPost2010PropOp36
 70
     1
102
RTVSPost2010Prop37
 90
       50
102
RTVSPost2010PropOp37
 70
     1
102
RTVSPost2010Prop38
140
0.0
102
RTVSPost2010PropOp38
 70
     1
102
RTVSPost2010Prop39
140
1.0
102
RTVSPost2010PropOp39
 70
     1
102
RTVSPost2010Prop40
 90
        0
102
RTVSPost2010PropOp40
 70
     1
102
RTVSPost2010Prop41ColorIndex
 90
       18
102
RTVSPost2010Prop41ColorRGB
 90
        0
102
RTVSPost2010PropOp41
 70
     1
102
RTVSPost2010Prop42
 90
       50
102
RTVSPost2010PropOp42
 70
     1
102
RTVSPost2010Prop43
 90
        3
102
RTVSPost2010PropOp43
 70
     1
102
RTVSPost2010Prop44ColorIndex
 90
        5
102
RTVSPost2010Prop44ColorRGB
 90
      255
102
RTVSPost2010PropOp44
 70
     1
102
RTVSPost2010Prop45
280
     0
102
RTVSPost2010PropOp45
 70
     1
102
RTVSPost2010Prop46
 90
       50
102
RTVSPost2010PropOp46
 70
     1
102
RTVSPost2010Prop47
 90
       50
102
RTVSPost2010PropOp47
 70
     1
102
RTVSPost2010Prop48
 90
       50
102
RTVSPost2010PropOp48
 70
     1
102
RTVSPost2010Prop49
280
     0
102
RTVSPost2010PropOp49
 70
     1
102
RTVSPost2010Prop50
 90
       50
102
RTVSPost2010PropOp50
 70
     1
102
RTVSPost2010Prop51ColorIndex
 90
      256
102
RTVSPost2010Prop51ColorRGB
 90
-16777216
102
RTVSPost2010PropOp51
 70
     0
102
RTVSPost2010Prop52
140
1.0
102
RTVSPost2010PropOp52
 70
     0
102
RTVSPost2010Prop53
 90
        2
102
RTVSPost2010PropOp53
 70
     1
102
RTVSPost2010Prop54
  1
strokes_ogs.tif
102
RTVSPost2010PropOp54
 70
     1
102
RTVSPost2010Prop55
280
     0
102
RTVSPost2010PropOp55
 70
     1
102
RTVSPost2010Prop56
140
1.0
102
RTVSPost2010PropOp56
 70
     1
102
RTVSPost2010Prop57
140
1.0
102
RTVSPost2010PropOp57
 70
     1
102
RTVSPropertyOp0
 70
     1
102
RTVSPropertyOp1
 70
     1
102
RTVSPropertyOp2
 70
     1
102
RTVSPropertyOp3
 70
     1
102
RTVSPropertyOp4
 70
     1
102
RTVSPropertyOp5
 70
     1
102
RTVSPropertyOp6
 70
     1
102
RTVSPropertyOp7
 70
     1
102
RTVSPropertyOp8
 70
     1
102
RTVSPropertyOp9
 70
     1
102
RTVSPropertyOp10
 70
     1
102
RTVSPropertyOp11
 70
     1
102
RTVSPropertyOp12
 70
     1
102
RTVSPropertyOp13
 70
     1
102
RTVSPropertyOp14
 70
     1
102
RTVSPropertyOp15
 70
     1
102
RTVSPropertyOp16
 70
     1
102
RTVSPropertyOp17
 70
     1
102
RTVSPropertyOp18
 70
     1
102
RTVSPropertyOp19
 70
     1
102
RTVSPropertyOp20
 70
     1
102
RTVSPropertyOp21
 70
     1
102
RTVSPropertyOp22
 70
     1
102
RTVSPropertyOp23
 70
     1
102
RTVSPropertyOp24
 70
     1
102
RTVSPropertyOp25
 70
     1
102
RTVSPropertyOp26
 70
     1
102
RTVSPropertyOp27
 70
     1
102
RTVSPropertyOp28
 70
     1
102
RTVSPropertyOp29
 70
     1
102
RTVSPropertyOp30
 70
     1
102
RTVSPropertyOp31
 70
     1
102
RTVSPropertyOp32
 70
     1
102
RTVSPropertyOp33
 70
     1
102
RTVSPropertyOp34
 70
     1
102
RTVSPropertyOp35
 70
     1
102
RTVSPropertyOp36
 70
     1
102
RTVSPropertyOp37
 70
     1
102
RTVSPropertyOp38
 70
     1
102
RTVSPropertyOp39
 70
     1
102
RTVSPropertyOp40
 70
     1
102
RTVSPropertyOp41
 70
     1
102
RTVSPropertyOp42
 70
     1
102
RTVSPropertyOp43
 70
     1
102
RTVSPropertyOp44
 70
     1
102
RTVSPropertyOp45
 70
     1
102
RTVSPropertyOp46
 70
     1
102
RTVSPropertyOp47
 70
     1
102
RTVSPropertyOp48
 70
     1
102
RTVSPropertyOp49
 70
     1
102
RTVSPropertyOp50
 70
     1
102
RTVSPropertyOp51
 70
     0
102
RTVSPropertyOp52
 70
     0
102
RTVSPropertyOp53
 70
     1
102
RTVSPropertyOp54
 70
     1
102
RTVSPropertyOp55
 70
     1
102
RTVSPropertyOp56
 70
     1
102
RTVSPropertyOp57
 70
     1
102
RTVSPropertyOp58
 70
     1
102
RTVSPropertyOp59
 70
     1
102
RTVSPropertyOp60
 70
     1
102
RTVSPropertyOp61
 70
     1
102
RTVSPropertyOp62
 70
     1
  0
XRECORD
  5
C360
102
{ACAD_REACTORS
330
C35F
102
}
330
C35F
100
AcDbXrecord
280
     1
102
RTVSPost2010Prop28
280
     0
102
RTVSPost2010PropOp28
 70
     1
102
RTVSPost2010Prop29
280
     1
102
RTVSPost2010PropOp29
 70
     1
102
RTVSPost2010Prop30
280
     1
102
RTVSPost2010PropOp30
 70
     1
102
RTVSPost2010Prop31
280
     0
102
RTVSPost2010PropOp31
 70
     1
102
RTVSPost2010Prop32
280
     0
102
RTVSPost2010PropOp32
 70
     1
102
RTVSPost2010Prop33
280
     0
102
RTVSPost2010PropOp33
 70
     1
102
RTVSPost2010Prop34
280
     0
102
RTVSPost2010PropOp34
 70
     1
102
RTVSPost2010Prop35
280
     0
102
RTVSPost2010PropOp35
 70
     1
102
RTVSPost2010Prop36
280
     0
102
RTVSPost2010PropOp36
 70
     1
102
RTVSPost2010Prop37
 90
       50
102
RTVSPost2010PropOp37
 70
     1
102
RTVSPost2010Prop38
140
0.0
102
RTVSPost2010PropOp38
 70
     1
102
RTVSPost2010Prop39
140
1.0
102
RTVSPost2010PropOp39
 70
     1
102
RTVSPost2010Prop40
 90
        0
102
RTVSPost2010PropOp40
 70
     1
102
RTVSPost2010Prop41ColorIndex
 90
       18
102
RTVSPost2010Prop41ColorRGB
 90
        0
102
RTVSPost2010PropOp41
 70
     1
102
RTVSPost2010Prop42
 90
       50
102
RTVSPost2010PropOp42
 70
     1
102
RTVSPost2010Prop43
 90
        3
102
RTVSPost2010PropOp43
 70
     1
102
RTVSPost2010Prop44ColorIndex
 90
        5
102
RTVSPost2010Prop44ColorRGB
 90
      255
102
RTVSPost2010PropOp44
 70
     1
102
RTVSPost2010Prop45
280
     0
102
RTVSPost2010PropOp45
 70
     1
102
RTVSPost2010Prop46
 90
       50
102
RTVSPost2010PropOp46
 70
     1
102
RTVSPost2010Prop47
 90
       50
102
RTVSPost2010PropOp47
 70
     1
102
RTVSPost2010Prop48
 90
       50
102
RTVSPost2010PropOp48
 70
     1
102
RTVSPost2010Prop49
280
     0
102
RTVSPost2010PropOp49
 70
     1
102
RTVSPost2010Prop50
 90
       50
102
RTVSPost2010PropOp50
 70
     1
102
RTVSPost2010Prop51ColorIndex
 90
      256
102
RTVSPost2010Prop51ColorRGB
 90
-16777216
102
RTVSPost2010PropOp51
 70
     0
102
RTVSPost2010Prop52
140
1.0
102
RTVSPost2010PropOp52
 70
     0
102
RTVSPost2010Prop53
 90
        2
102
RTVSPost2010PropOp53
 70
     1
102
RTVSPost2010Prop54
  1
strokes_ogs.tif
102
RTVSPost2010PropOp54
 70
     1
102
RTVSPost2010Prop55
280
     0
102
RTVSPost2010PropOp55
 70
     1
102
RTVSPost2010Prop56
140
1.0
102
RTVSPost2010PropOp56
 70
     1
102
RTVSPost2010Prop57
140
1.0
102
RTVSPost2010PropOp57
 70
     1
102
RTVSPropertyOp0
 70
     1
102
RTVSPropertyOp1
 70
     1
102
RTVSPropertyOp2
 70
     1
102
RTVSPropertyOp3
 70
     1
102
RTVSPropertyOp4
 70
     1
102
RTVSPropertyOp5
 70
     1
102
RTVSPropertyOp6
 70
     1
102
RTVSPropertyOp7
 70
     1
102
RTVSPropertyOp8
 70
     1
102
RTVSPropertyOp9
 70
     1
102
RTVSPropertyOp10
 70
     1
102
RTVSPropertyOp11
 70
     1
102
RTVSPropertyOp12
 70
     1
102
RTVSPropertyOp13
 70
     1
102
RTVSPropertyOp14
 70
     1
102
RTVSPropertyOp15
 70
     1
102
RTVSPropertyOp16
 70
     1
102
RTVSPropertyOp17
 70
     1
102
RTVSPropertyOp18
 70
     1
102
RTVSPropertyOp19
 70
     1
102
RTVSPropertyOp20
 70
     1
102
RTVSPropertyOp21
 70
     1
102
RTVSPropertyOp22
 70
     1
102
RTVSPropertyOp23
 70
     1
102
RTVSPropertyOp24
 70
     1
102
RTVSPropertyOp25
 70
     1
102
RTVSPropertyOp26
 70
     1
102
RTVSPropertyOp27
 70
     1
102
RTVSPropertyOp28
 70
     1
102
RTVSPropertyOp29
 70
     1
102
RTVSPropertyOp30
 70
     1
102
RTVSPropertyOp31
 70
     1
102
RTVSPropertyOp32
 70
     1
102
RTVSPropertyOp33
 70
     1
102
RTVSPropertyOp34
 70
     1
102
RTVSPropertyOp35
 70
     1
102
RTVSPropertyOp36
 70
     1
102
RTVSPropertyOp37
 70
     1
102
RTVSPropertyOp38
 70
     1
102
RTVSPropertyOp39
 70
     1
102
RTVSPropertyOp40
 70
     1
102
RTVSPropertyOp41
 70
     1
102
RTVSPropertyOp42
 70
     1
102
RTVSPropertyOp43
 70
     1
102
RTVSPropertyOp44
 70
     1
102
RTVSPropertyOp45
 70
     1
102
RTVSPropertyOp46
 70
     1
102
RTVSPropertyOp47
 70
     1
102
RTVSPropertyOp48
 70
     1
102
RTVSPropertyOp49
 70
     1
102
RTVSPropertyOp50
 70
     1
102
RTVSPropertyOp51
 70
     0
102
RTVSPropertyOp52
 70
     0
102
RTVSPropertyOp53
 70
     1
102
RTVSPropertyOp54
 70
     1
102
RTVSPropertyOp55
 70
     1
102
RTVSPropertyOp56
 70
     1
102
RTVSPropertyOp57
 70
     1
102
RTVSPropertyOp58
 70
     1
102
RTVSPropertyOp59
 70
     1
102
RTVSPropertyOp60
 70
     1
102
RTVSPropertyOp61
 70
     1
102
RTVSPropertyOp62
 70
     1
  0
XRECORD
  5
C354
102
{ACAD_REACTORS
330
C353
102
}
330
C353
100
AcDbXrecord
280
     1
102
RTVSPost2010Prop28
280
     0
102
RTVSPost2010PropOp28
 70
     1
102
RTVSPost2010Prop29
280
     1
102
RTVSPost2010PropOp29
 70
     1
102
RTVSPost2010Prop30
280
     1
102
RTVSPost2010PropOp30
 70
     1
102
RTVSPost2010Prop31
280
     0
102
RTVSPost2010PropOp31
 70
     1
102
RTVSPost2010Prop32
280
     0
102
RTVSPost2010PropOp32
 70
     1
102
RTVSPost2010Prop33
280
     0
102
RTVSPost2010PropOp33
 70
     1
102
RTVSPost2010Prop34
280
     0
102
RTVSPost2010PropOp34
 70
     1
102
RTVSPost2010Prop35
280
     0
102
RTVSPost2010PropOp35
 70
     1
102
RTVSPost2010Prop36
280
     0
102
RTVSPost2010PropOp36
 70
     1
102
RTVSPost2010Prop37
 90
       50
102
RTVSPost2010PropOp37
 70
     1
102
RTVSPost2010Prop38
140
0.0
102
RTVSPost2010PropOp38
 70
     1
102
RTVSPost2010Prop39
140
1.0
102
RTVSPost2010PropOp39
 70
     1
102
RTVSPost2010Prop40
 90
        0
102
RTVSPost2010PropOp40
 70
     1
102
RTVSPost2010Prop41ColorIndex
 90
       18
102
RTVSPost2010Prop41ColorRGB
 90
        0
102
RTVSPost2010PropOp41
 70
     1
102
RTVSPost2010Prop42
 90
       50
102
RTVSPost2010PropOp42
 70
     1
102
RTVSPost2010Prop43
 90
        3
102
RTVSPost2010PropOp43
 70
     1
102
RTVSPost2010Prop44ColorIndex
 90
        5
102
RTVSPost2010Prop44ColorRGB
 90
      255
102
RTVSPost2010PropOp44
 70
     1
102
RTVSPost2010Prop45
280
     0
102
RTVSPost2010PropOp45
 70
     1
102
RTVSPost2010Prop46
 90
       50
102
RTVSPost2010PropOp46
 70
     1
102
RTVSPost2010Prop47
 90
       50
102
RTVSPost2010PropOp47
 70
     1
102
RTVSPost2010Prop48
 90
       50
102
RTVSPost2010PropOp48
 70
     1
102
RTVSPost2010Prop49
280
     0
102
RTVSPost2010PropOp49
 70
     1
102
RTVSPost2010Prop50
 90
       50
102
RTVSPost2010PropOp50
 70
     1
102
RTVSPost2010Prop51ColorIndex
 90
      256
102
RTVSPost2010Prop51ColorRGB
 90
-16777216
102
RTVSPost2010PropOp51
 70
     0
102
RTVSPost2010Prop52
140
1.0
102
RTVSPost2010PropOp52
 70
     0
102
RTVSPost2010Prop53
 90
        2
102
RTVSPost2010PropOp53
 70
     1
102
RTVSPost2010Prop54
  1
strokes_ogs.tif
102
RTVSPost2010PropOp54
 70
     1
102
RTVSPost2010Prop55
280
     0
102
RTVSPost2010PropOp55
 70
     1
102
RTVSPost2010Prop56
140
1.0
102
RTVSPost2010PropOp56
 70
     1
102
RTVSPost2010Prop57
140
1.0
102
RTVSPost2010PropOp57
 70
     1
102
RTVSPropertyOp0
 70
     1
102
RTVSPropertyOp1
 70
     1
102
RTVSPropertyOp2
 70
     1
102
RTVSPropertyOp3
 70
     1
102
RTVSPropertyOp4
 70
     1
102
RTVSPropertyOp5
 70
     1
102
RTVSPropertyOp6
 70
     1
102
RTVSPropertyOp7
 70
     1
102
RTVSPropertyOp8
 70
     1
102
RTVSPropertyOp9
 70
     1
102
RTVSPropertyOp10
 70
     1
102
RTVSPropertyOp11
 70
     1
102
RTVSPropertyOp12
 70
     1
102
RTVSPropertyOp13
 70
     1
102
RTVSPropertyOp14
 70
     1
102
RTVSPropertyOp15
 70
     1
102
RTVSPropertyOp16
 70
     1
102
RTVSPropertyOp17
 70
     1
102
RTVSPropertyOp18
 70
     1
102
RTVSPropertyOp19
 70
     1
102
RTVSPropertyOp20
 70
     1
102
RTVSPropertyOp21
 70
     1
102
RTVSPropertyOp22
 70
     1
102
RTVSPropertyOp23
 70
     1
102
RTVSPropertyOp24
 70
     1
102
RTVSPropertyOp25
 70
     1
102
RTVSPropertyOp26
 70
     1
102
RTVSPropertyOp27
 70
     1
102
RTVSPropertyOp28
 70
     1
102
RTVSPropertyOp29
 70
     1
102
RTVSPropertyOp30
 70
     1
102
RTVSPropertyOp31
 70
     1
102
RTVSPropertyOp32
 70
     1
102
RTVSPropertyOp33
 70
     1
102
RTVSPropertyOp34
 70
     1
102
RTVSPropertyOp35
 70
     1
102
RTVSPropertyOp36
 70
     1
102
RTVSPropertyOp37
 70
     1
102
RTVSPropertyOp38
 70
     1
102
RTVSPropertyOp39
 70
     1
102
RTVSPropertyOp40
 70
     1
102
RTVSPropertyOp41
 70
     1
102
RTVSPropertyOp42
 70
     1
102
RTVSPropertyOp43
 70
     1
102
RTVSPropertyOp44
 70
     1
102
RTVSPropertyOp45
 70
     1
102
RTVSPropertyOp46
 70
     1
102
RTVSPropertyOp47
 70
     1
102
RTVSPropertyOp48
 70
     1
102
RTVSPropertyOp49
 70
     1
102
RTVSPropertyOp50
 70
     1
102
RTVSPropertyOp51
 70
     0
102
RTVSPropertyOp52
 70
     0
102
RTVSPropertyOp53
 70
     1
102
RTVSPropertyOp54
 70
     1
102
RTVSPropertyOp55
 70
     1
102
RTVSPropertyOp56
 70
     1
102
RTVSPropertyOp57
 70
     1
102
RTVSPropertyOp58
 70
     1
102
RTVSPropertyOp59
 70
     1
102
RTVSPropertyOp60
 70
     1
102
RTVSPropertyOp61
 70
     1
102
RTVSPropertyOp62
 70
     1
  0
XRECORD
  5
C36C
102
{ACAD_REACTORS
330
C36B
102
}
330
C36B
100
AcDbXrecord
280
     1
102
RTVSPost2010Prop28
280
     0
102
RTVSPost2010PropOp28
 70
     1
102
RTVSPost2010Prop29
280
     1
102
RTVSPost2010PropOp29
 70
     1
102
RTVSPost2010Prop30
280
     1
102
RTVSPost2010PropOp30
 70
     1
102
RTVSPost2010Prop31
280
     0
102
RTVSPost2010PropOp31
 70
     1
102
RTVSPost2010Prop32
280
     0
102
RTVSPost2010PropOp32
 70
     1
102
RTVSPost2010Prop33
280
     0
102
RTVSPost2010PropOp33
 70
     1
102
RTVSPost2010Prop34
280
     0
102
RTVSPost2010PropOp34
 70
     1
102
RTVSPost2010Prop35
280
     0
102
RTVSPost2010PropOp35
 70
     1
102
RTVSPost2010Prop36
280
     0
102
RTVSPost2010PropOp36
 70
     1
102
RTVSPost2010Prop37
 90
       50
102
RTVSPost2010PropOp37
 70
     1
102
RTVSPost2010Prop38
140
0.0
102
RTVSPost2010PropOp38
 70
     1
102
RTVSPost2010Prop39
140
1.0
102
RTVSPost2010PropOp39
 70
     1
102
RTVSPost2010Prop40
 90
        0
102
RTVSPost2010PropOp40
 70
     1
102
RTVSPost2010Prop41ColorIndex
 90
       18
102
RTVSPost2010Prop41ColorRGB
 90
        0
102
RTVSPost2010PropOp41
 70
     1
102
RTVSPost2010Prop42
 90
       50
102
RTVSPost2010PropOp42
 70
     1
102
RTVSPost2010Prop43
 90
        3
102
RTVSPost2010PropOp43
 70
     1
102
RTVSPost2010Prop44ColorIndex
 90
        5
102
RTVSPost2010Prop44ColorRGB
 90
      255
102
RTVSPost2010PropOp44
 70
     1
102
RTVSPost2010Prop45
280
     0
102
RTVSPost2010PropOp45
 70
     1
102
RTVSPost2010Prop46
 90
       50
102
RTVSPost2010PropOp46
 70
     1
102
RTVSPost2010Prop47
 90
       50
102
RTVSPost2010PropOp47
 70
     1
102
RTVSPost2010Prop48
 90
       50
102
RTVSPost2010PropOp48
 70
     1
102
RTVSPost2010Prop49
280
     0
102
RTVSPost2010PropOp49
 70
     1
102
RTVSPost2010Prop50
 90
       50
102
RTVSPost2010PropOp50
 70
     1
102
RTVSPost2010Prop51ColorIndex
 90
      256
102
RTVSPost2010Prop51ColorRGB
 90
-16777216
102
RTVSPost2010PropOp51
 70
     0
102
RTVSPost2010Prop52
140
1.0
102
RTVSPost2010PropOp52
 70
     0
102
RTVSPost2010Prop53
 90
        2
102
RTVSPost2010PropOp53
 70
     1
102
RTVSPost2010Prop54
  1
strokes_ogs.tif
102
RTVSPost2010PropOp54
 70
     1
102
RTVSPost2010Prop55
280
     0
102
RTVSPost2010PropOp55
 70
     1
102
RTVSPost2010Prop56
140
1.0
102
RTVSPost2010PropOp56
 70
     1
102
RTVSPost2010Prop57
140
1.0
102
RTVSPost2010PropOp57
 70
     1
102
RTVSPropertyOp0
 70
     1
102
RTVSPropertyOp1
 70
     1
102
RTVSPropertyOp2
 70
     1
102
RTVSPropertyOp3
 70
     1
102
RTVSPropertyOp4
 70
     1
102
RTVSPropertyOp5
 70
     1
102
RTVSPropertyOp6
 70
     1
102
RTVSPropertyOp7
 70
     1
102
RTVSPropertyOp8
 70
     1
102
RTVSPropertyOp9
 70
     1
102
RTVSPropertyOp10
 70
     1
102
RTVSPropertyOp11
 70
     1
102
RTVSPropertyOp12
 70
     1
102
RTVSPropertyOp13
 70
     1
102
RTVSPropertyOp14
 70
     1
102
RTVSPropertyOp15
 70
     1
102
RTVSPropertyOp16
 70
     1
102
RTVSPropertyOp17
 70
     1
102
RTVSPropertyOp18
 70
     1
102
RTVSPropertyOp19
 70
     1
102
RTVSPropertyOp20
 70
     1
102
RTVSPropertyOp21
 70
     1
102
RTVSPropertyOp22
 70
     1
102
RTVSPropertyOp23
 70
     1
102
RTVSPropertyOp24
 70
     1
102
RTVSPropertyOp25
 70
     1
102
RTVSPropertyOp26
 70
     1
102
RTVSPropertyOp27
 70
     1
102
RTVSPropertyOp28
 70
     1
102
RTVSPropertyOp29
 70
     1
102
RTVSPropertyOp30
 70
     1
102
RTVSPropertyOp31
 70
     1
102
RTVSPropertyOp32
 70
     1
102
RTVSPropertyOp33
 70
     1
102
RTVSPropertyOp34
 70
     1
102
RTVSPropertyOp35
 70
     1
102
RTVSPropertyOp36
 70
     1
102
RTVSPropertyOp37
 70
     1
102
RTVSPropertyOp38
 70
     1
102
RTVSPropertyOp39
 70
     1
102
RTVSPropertyOp40
 70
     1
102
RTVSPropertyOp41
 70
     1
102
RTVSPropertyOp42
 70
     1
102
RTVSPropertyOp43
 70
     1
102
RTVSPropertyOp44
 70
     1
102
RTVSPropertyOp45
 70
     1
102
RTVSPropertyOp46
 70
     1
102
RTVSPropertyOp47
 70
     1
102
RTVSPropertyOp48
 70
     1
102
RTVSPropertyOp49
 70
     1
102
RTVSPropertyOp50
 70
     1
102
RTVSPropertyOp51
 70
     0
102
RTVSPropertyOp52
 70
     0
102
RTVSPropertyOp53
 70
     1
102
RTVSPropertyOp54
 70
     1
102
RTVSPropertyOp55
 70
     1
102
RTVSPropertyOp56
 70
     1
102
RTVSPropertyOp57
 70
     1
102
RTVSPropertyOp58
 70
     1
102
RTVSPropertyOp59
 70
     1
102
RTVSPropertyOp60
 70
     1
102
RTVSPropertyOp61
 70
     1
102
RTVSPropertyOp62
 70
     1
  0
ENDSEC
  0
EOF
