  0
SECTION
  2
HEADER
  9
$ACADVER
  1
AC1015
  9
$ACADMAINTVER
 70
    20
  9
$DWGCODEPAGE
  3
ANSI_932
  9
$INSBASE
 10
0.0
 20
0.0
 30
0.0
  9
$EXTMIN
 10
9.93102999999999
 20
9.999999999999998
 30
0.0
  9
$EXTMAX
 10
772.768936
 20
303.0707165023386
 30
0.0
  9
$LIMMIN
 10
0.0
 20
0.0
  9
$LIMMAX
 10
792.0
 20
546.0
  9
$ORTHOMODE
 70
     1
  9
$REGENMODE
 70
     1
  9
$FILLMODE
 70
     1
  9
$QTEXTMODE
 70
     0
  9
$MIRRTEXT
 70
     1
  9
$LTSCALE
 40
20.0
  9
$ATTMODE
 70
     1
  9
$TEXTSIZE
 40
5.0
  9
$TRACEWID
 40
1.0
  9
$TEXTSTYLE
  7
STANDARD
  9
$CLAYER
  8
0
  9
$CELTYPE
  6
BYLAYER
  9
$CECOLOR
 62
   256
  9
$CELTSCALE
 40
1.0
  9
$DISPSILH
 70
     0
  9
$DIMSCALE
 40
1.0
  9
$DIMASZ
 40
3.0
  9
$DIMEXO
 40
1.0
  9
$DIMDLI
 40
10.0
  9
$DIMRND
 40
0.0
  9
$DIMDLE
 40
0.0
  9
$DIMEXE
 40
1.0
  9
$DIMTP
 40
0.0
  9
$DIMTM
 40
0.0
  9
$DIMTXT
 40
3.2
  9
$DIMCEN
 40
0.0
  9
$DIMTSZ
 40
0.0
  9
$DIMTOL
 70
     0
  9
$DIMLIM
 70
     0
  9
$DIMTIH
 70
     0
  9
$DIMTOH
 70
     0
  9
$DIMSE1
 70
     0
  9
$DIMSE2
 70
     0
  9
$DIMTAD
 70
     3
  9
$DIMZIN
 70
     8
  9
$DIMBLK
  1

  9
$DIMASO
 70
     1
  9
$DIMSHO
 70
     1
  9
$DIMPOST
  1

  9
$DIMAPOST
  1

  9
$DIMALT
 70
     0
  9
$DIMALTD
 70
     2
  9
$DIMALTF
 40
25.4
  9
$DIMLFAC
 40
1.0
  9
$DIMTOFL
 70
     1
  9
$DIMTVP
 40
0.0
  9
$DIMTIX
 70
     0
  9
$DIMSOXD
 70
     0
  9
$DIMSAH
 70
     1
  9
$DIMBLK1
  1

  9
$DIMBLK2
  1

  9
$DIMSTYLE
  2
STANDARD
  9
$DIMCLRD
 70
     0
  9
$DIMCLRE
 70
     0
  9
$DIMCLRT
 70
     0
  9
$DIMTFAC
 40
1.0
  9
$DIMGAP
 40
1.0
  9
$DIMJUST
 70
     0
  9
$DIMSD1
 70
     0
  9
$DIMSD2
 70
     0
  9
$DIMTOLJ
 70
     1
  9
$DIMTZIN
 70
     0
  9
$DIMALTZ
 70
     0
  9
$DIMALTTZ
 70
     0
  9
$DIMUPT
 70
     0
  9
$DIMDEC
 70
     4
  9
$DIMTDEC
 70
     4
  9
$DIMALTU
 70
     2
  9
$DIMALTTD
 70
     2
  9
$DIMTXSTY
  7
STANDARD
  9
$DIMAUNIT
 70
     0
  9
$DIMADEC
 70
     0
  9
$DIMALTRND
 40
0.0
  9
$DIMAZIN
 70
     0
  9
$DIMDSEP
 70
    46
  9
$DIMATFIT
 70
     3
  9
$DIMFRAC
 70
     0
  9
$DIMLDRBLK
  1

  9
$DIMLUNIT
 70
     2
  9
$DIMLWD
 70
    -2
  9
$DIMLWE
 70
    -2
  9
$DIMTMOVE
 70
     0
  9
$LUNITS
 70
     2
  9
$LUPREC
 70
     4
  9
$SKETCHINC
 40
1.0
  9
$FILLETRAD
 40
2.5
  9
$AUNITS
 70
     0
  9
$AUPREC
 70
     2
  9
$MENU
  1
.
  9
$ELEVATION
 40
0.0
  9
$PELEVATION
 40
0.0
  9
$THICKNESS
 40
0.0
  9
$LIMCHECK
 70
     0
  9
$CHAMFERA
 40
10.0
  9
$CHAMFERB
 40
10.0
  9
$CHAMFERC
 40
0.0
  9
$CHAMFERD
 40
0.0
  9
$SKPOLY
 70
     0
  9
$TDCREATE
 40
2451074.484224768
  9
$TDUCREATE
 40
2451074.109224768
  9
$TDUPDATE
 40
2457192.601635475
  9
$TDUUPDATE
 40
2457192.226635475
  9
$TDINDWG
 40
0.0028168056
  9
$TDUSRTIMER
 40
0.0028166782
  9
$USRTIMER
 70
     1
  9
$ANGBASE
 50
0.0
  9
$ANGDIR
 70
     0
  9
$PDMODE
 70
     0
  9
$PDSIZE
 40
0.0
  9
$PLINEWID
 40
0.0
  9
$SPLFRAME
 70
     0
  9
$SPLINETYPE
 70
     6
  9
$SPLINESEGS
 70
     8
  9
$HANDSEED
  5
9DC6
  9
$SURFTAB1
 70
     6
  9
$SURFTAB2
 70
     6
  9
$SURFTYPE
 70
     6
  9
$SURFU
 70
     6
  9
$SURFV
 70
     6
  9
$UCSBASE
  2

  9
$UCSNAME
  2

  9
$UCSORG
 10
0.0
 20
0.0
 30
0.0
  9
$UCSXDIR
 10
1.0
 20
0.0
 30
0.0
  9
$UCSYDIR
 10
0.0
 20
1.0
 30
0.0
  9
$UCSORTHOREF
  2

  9
$UCSORTHOVIEW
 70
     0
  9
$UCSORGTOP
 10
0.0
 20
0.0
 30
0.0
  9
$UCSORGBOTTOM
 10
0.0
 20
0.0
 30
0.0
  9
$UCSORGLEFT
 10
0.0
 20
0.0
 30
0.0
  9
$UCSORGRIGHT
 10
0.0
 20
0.0
 30
0.0
  9
$UCSORGFRONT
 10
0.0
 20
0.0
 30
0.0
  9
$UCSORGBACK
 10
0.0
 20
0.0
 30
0.0
  9
$PUCSBASE
  2

  9
$PUCSNAME
  2

  9
$PUCSORG
 10
0.0
 20
0.0
 30
0.0
  9
$PUCSXDIR
 10
1.0
 20
0.0
 30
0.0
  9
$PUCSYDIR
 10
0.0
 20
1.0
 30
0.0
  9
$PUCSORTHOREF
  2

  9
$PUCSORTHOVIEW
 70
     0
  9
$PUCSORGTOP
 10
0.0
 20
0.0
 30
0.0
  9
$PUCSORGBOTTOM
 10
0.0
 20
0.0
 30
0.0
  9
$PUCSORGLEFT
 10
0.0
 20
0.0
 30
0.0
  9
$PUCSORGRIGHT
 10
0.0
 20
0.0
 30
0.0
  9
$PUCSORGFRONT
 10
0.0
 20
0.0
 30
0.0
  9
$PUCSORGBACK
 10
0.0
 20
0.0
 30
0.0
  9
$USERI1
 70
     0
  9
$USERI2
 70
     0
  9
$USERI3
 70
     0
  9
$USERI4
 70
     0
  9
$USERI5
 70
     0
  9
$USERR1
 40
0.0
  9
$USERR2
 40
0.0
  9
$USERR3
 40
0.0
  9
$USERR4
 40
0.0
  9
$USERR5
 40
0.0
  9
$WORLDVIEW
 70
     1
  9
$SHADEDGE
 70
     3
  9
$SHADEDIF
 70
    70
  9
$TILEMODE
 70
     1
  9
$MAXACTVP
 70
    16
  9
$PINSBASE
 10
0.0
 20
0.0
 30
0.0
  9
$PLIMCHECK
 70
     0
  9
$PEXTMIN
 10
1.000000000000000E+20
 20
1.000000000000000E+20
 30
1.000000000000000E+20
  9
$PEXTMAX
 10
-1.000000000000000E+20
 20
-1.000000000000000E+20
 30
-1.000000000000000E+20
  9
$PLIMMIN
 10
0.0
 20
0.0
  9
$PLIMMAX
 10
420.0
 20
297.0
  9
$UNITMODE
 70
     0
  9
$VISRETAIN
 70
     0
  9
$PLINEGEN
 70
     0
  9
$PSLTSCALE
 70
     0
  9
$TREEDEPTH
 70
  3020
  9
$CMLSTYLE
  2
STANDARD
  9
$CMLJUST
 70
     0
  9
$CMLSCALE
 40
1.0
  9
$PROXYGRAPHICS
 70
     1
  9
$MEASUREMENT
 70
     0
  9
$CELWEIGHT
370
    -1
  9
$ENDCAPS
280
     0
  9
$JOINSTYLE
280
     0
  9
$LWDISPLAY
290
     0
  9
$INSUNITS
 70
     0
  9
$HYPERLINKBASE
  1

  9
$STYLESHEET
  1

  9
$XEDIT
290
     1
  9
$CEPSNTYPE
380
     0
  9
$PSTYLEMODE
290
     1
  9
$FINGERPRINTGUID
  2
{6127428F-65CD-4353-AD84-4D997ABCB20B}
  9
$VERSIONGUID
  2
{D14DC97B-A65E-4D7B-A64E-9D07F0CA576E}
  9
$EXTNAMES
290
     1
  9
$PSVPSCALE
 40
0.0
  9
$OLESTARTUP
290
     0
  0
ENDSEC
  0
SECTION
  2
CLASSES
  0
CLASS
  1
ACDBDICTIONARYWDFLT
  2
AcDbDictionaryWithDefault
  3
ObjectDBX Classes
 90
        0
280
     0
281
     0
  0
CLASS
  1
ACDBPLACEHOLDER
  2
AcDbPlaceHolder
  3
ObjectDBX Classes
 90
        0
280
     0
281
     0
  0
CLASS
  1
LAYOUT
  2
AcDbLayout
  3
ObjectDBX Classes
 90
        0
280
     0
281
     0
  0
CLASS
  1
DICTIONARYVAR
  2
AcDbDictionaryVar
  3
ObjectDBX Classes
 90
        0
280
     0
281
     0
  0
CLASS
  1
MATERIAL
  2
AcDbMaterial
  3
ObjectDBX Classes
 90
     1153
280
     0
281
     0
  0
CLASS
  1
VISUALSTYLE
  2
AcDbVisualStyle
  3
ObjectDBX Classes
 90
     4095
280
     0
281
     0
  0
CLASS
  1
TABLESTYLE
  2
AcDbTableStyle
  3
ObjectDBX Classes
 90
     4095
280
     0
281
     0
  0
CLASS
  1
SCALE
  2
AcDbScale
  3
ObjectDBX Classes
 90
     1153
280
     0
281
     0
  0
CLASS
  1
MLEADERSTYLE
  2
AcDbMLeaderStyle
  3
ACDB_MLEADERSTYLE_CLASS
 90
     4095
280
     0
281
     0
  0
CLASS
  1
ACDBSECTIONVIEWSTYLE
  2
AcDbSectionViewStyle
  3
ObjectDBX Classes
 90
     1025
280
     0
281
     0
  0
CLASS
  1
ACDBDETAILVIEWSTYLE
  2
AcDbDetailViewStyle
  3
ObjectDBX Classes
 90
     1025
280
     0
281
     0
  0
CLASS
  1
CELLSTYLEMAP
  2
AcDbCellStyleMap
  3
ObjectDBX Classes
 90
     1152
280
     0
281
     0
  0
ENDSEC
  0
SECTION
  2
TABLES
  0
TABLE
  2
VPORT
  5
9994
330
0
100
AcDbSymbolTable
 70
     1
  0
VPORT
  5
9D0F
330
9994
100
AcDbSymbolTableRecord
100
AcDbViewportTableRecord
  2
*ACTIVE
 70
     0
 10
0.0
 20
0.0
 11
1.0
 21
1.0
 12
522.7024509465434
 22
156.528443518477
 13
0.0
 23
0.0
 14
10.0
 24
10.0
 15
10.0
 25
10.0
 16
0.0
 26
0.0
 36
1.0
 17
0.0
 27
0.0
 37
0.0
 40
438.5348400286226
 41
1.899603698811096
 42
50.0
 43
0.0
 44
0.0
 50
0.0
 51
0.0
 71
     0
 72
   100
 73
     1
 74
     0
 75
     0
 76
     0
 77
     0
 78
     0
281
     0
 65
     1
110
0.0
120
0.0
130
0.0
111
1.0
121
0.0
131
0.0
112
0.0
122
1.0
132
0.0
 79
     0
146
0.0
1001
ACAD_NAV_VCDISPLAY
1070
     3
  0
ENDTAB
  0
TABLE
  2
LTYPE
  5
9991
330
0
100
AcDbSymbolTable
 70
     4
  0
LTYPE
  5
999F
330
9991
100
AcDbSymbolTableRecord
100
AcDbLinetypeTableRecord
  2
BYBLOCK
 70
     0
  3

 72
    65
 73
     0
 40
0.0
  0
LTYPE
  5
99A0
330
9991
100
AcDbSymbolTableRecord
100
AcDbLinetypeTableRecord
  2
BYLAYER
 70
     0
  3

 72
    65
 73
     0
 40
0.0
  0
LTYPE
  5
99A1
330
9991
100
AcDbSymbolTableRecord
100
AcDbLinetypeTableRecord
  2
CONTINUOUS
 70
     0
  3
Solid line
 72
    65
 73
     0
 40
0.0
  0
LTYPE
  5
99AF
330
9991
100
AcDbSymbolTableRecord
100
AcDbLinetypeTableRecord
  2
DASHED
 70
     0
  3
__ __ __ __ __ __ __ __ __ __ __ __ __ __ __ __
 72
    65
 73
     2
 40
0.75
 49
0.5
 74
     0
 49
-0.25
 74
     0
  0
LTYPE
  5
99B0
330
9991
100
AcDbSymbolTableRecord
100
AcDbLinetypeTableRecord
  2
CENTER
 70
     0
  3
____ _ ____ _ ____ _ ____ _ ____ _ ____ _ ____ 
 72
    65
 73
     4
 40
2.0
 49
1.25
 74
     0
 49
-0.25
 74
     0
 49
0.25
 74
     0
 49
-0.25
 74
     0
  0
LTYPE
  5
99B1
330
9991
100
AcDbSymbolTableRecord
100
AcDbLinetypeTableRecord
  2
PHANTOM
 70
     0
  3
______  __  __  ______  __  __  ______  __  __ 
 72
    65
 73
     6
 40
2.5
 49
1.25
 74
     0
 49
-0.25
 74
     0
 49
0.25
 74
     0
 49
-0.25
 74
     0
 49
0.25
 74
     0
 49
-0.25
 74
     0
  0
ENDTAB
  0
TABLE
  2
LAYER
  5
998E
330
0
100
AcDbSymbolTable
 70
     8
  0
LAYER
  5
999C
102
{ACAD_XDICTIONARY
360
9D6A
102
}
330
998E
100
AcDbSymbolTableRecord
100
AcDbLayerTableRecord
  2
0
 70
     0
 62
     7
  6
CONTINUOUS
370
    -3
390
9D18
  0
LAYER
  5
99B2
102
{ACAD_XDICTIONARY
360
9D6C
102
}
330
998E
100
AcDbSymbolTableRecord
100
AcDbLayerTableRecord
  2
4
 70
     0
 62
     1
  6
CENTER
370
    -3
390
9D18
  0
LAYER
  5
99B3
102
{ACAD_XDICTIONARY
360
9D6E
102
}
330
998E
100
AcDbSymbolTableRecord
100
AcDbLayerTableRecord
  2
5
 70
     0
 62
     6
  6
PHANTOM
370
    -3
390
9D18
  0
LAYER
  5
99B4
102
{ACAD_XDICTIONARY
360
9D70
102
}
330
998E
100
AcDbSymbolTableRecord
100
AcDbLayerTableRecord
  2
1
 70
     0
 62
     7
  6
CONTINUOUS
370
    -3
390
9D18
  0
LAYER
  5
99B5
102
{ACAD_XDICTIONARY
360
9D72
102
}
330
998E
100
AcDbSymbolTableRecord
100
AcDbLayerTableRecord
  2
2
 70
     0
 62
     4
  6
CONTINUOUS
370
    -3
390
9D18
  0
LAYER
  5
99B6
102
{ACAD_XDICTIONARY
360
9D74
102
}
330
998E
100
AcDbSymbolTableRecord
100
AcDbLayerTableRecord
  2
3
 70
     0
 62
     2
  6
DASHED
370
    -3
390
9D18
  0
LAYER
  5
99B7
102
{ACAD_XDICTIONARY
360
9D76
102
}
330
998E
100
AcDbSymbolTableRecord
100
AcDbLayerTableRecord
  2
6
 70
     0
 62
     5
  6
CONTINUOUS
370
    -3
390
9D18
  0
LAYER
  5
99B8
102
{ACAD_XDICTIONARY
360
9D78
102
}
330
998E
100
AcDbSymbolTableRecord
100
AcDbLayerTableRecord
  2
7
 70
     0
 62
     3
  6
CONTINUOUS
370
    -3
390
9D18
  0
ENDTAB
  0
TABLE
  2
STYLE
  5
998F
330
0
100
AcDbSymbolTable
 70
     1
  0
STYLE
  5
999D
330
998F
100
AcDbSymbolTableRecord
100
AcDbTextStyleTableRecord
  2
STANDARD
 70
     0
 40
0.0
 41
1.0
 50
0.0
 71
     0
 42
5.0
  3
txt
  4

  0
ENDTAB
  0
TABLE
  2
VIEW
  5
9992
330
0
100
AcDbSymbolTable
 70
     0
  0
ENDTAB
  0
TABLE
  2
UCS
  5
9993
330
0
100
AcDbSymbolTable
 70
     0
  0
ENDTAB
  0
TABLE
  2
APPID
  5
9995
330
0
100
AcDbSymbolTable
 70
     3
  0
APPID
  5
999E
330
9995
100
AcDbSymbolTableRecord
100
AcDbRegAppTableRecord
  2
ACAD
 70
     0
  0
APPID
  5
9D84
330
9995
100
AcDbSymbolTableRecord
100
AcDbRegAppTableRecord
  2
ACAD_NAV_VCDISPLAY
 70
     0
  0
APPID
  5
9DBD
330
9995
100
AcDbSymbolTableRecord
100
AcDbRegAppTableRecord
  2
ACAD_MLEADERVER
 70
     0
  0
ENDTAB
  0
TABLE
  2
DIMSTYLE
  5
9996
330
0
100
AcDbSymbolTable
 70
     1
100
AcDbDimStyleTable
 71
     0
  0
DIMSTYLE
105
99BA
330
9996
100
AcDbSymbolTableRecord
100
AcDbDimStyleTableRecord
  2
STANDARD
 70
     0
 41
3.0
 42
1.0
 43
10.0
 44
1.0
 73
     0
 74
     0
 77
     3
 78
     8
140
3.2
141
0.0
147
1.0
172
     1
173
     1
284
     8
285
     8
286
     8
340
999D
  0
ENDTAB
  0
TABLE
  2
BLOCK_RECORD
  5
998D
330
0
100
AcDbSymbolTable
 70
     0
  0
BLOCK_RECORD
  5
99AA
102
{ACAD_XDICTIONARY
360
9D12
102
}
330
998D
100
AcDbSymbolTableRecord
100
AcDbBlockTableRecord
  2
*MODEL_SPACE
340
9D66
  0
BLOCK_RECORD
  5
99A6
102
{ACAD_XDICTIONARY
360
9D10
102
}
330
998D
100
AcDbSymbolTableRecord
100
AcDbBlockTableRecord
  2
*PAPER_SPACE
340
9D67
  0
ENDTAB
  0
ENDSEC
  0
SECTION
  2
BLOCKS
  0
BLOCK
  5
99AB
330
99AA
100
AcDbEntity
  8
0
100
AcDbBlockBegin
  2
*MODEL_SPACE
 70
     0
 10
0.0
 20
0.0
 30
0.0
  3
*MODEL_SPACE
  1

  0
ENDBLK
  5
99AC
330
99AA
100
AcDbEntity
  8
0
100
AcDbBlockEnd
  0
BLOCK
  5
99A7
330
99A6
100
AcDbEntity
 67
     1
  8
0
100
AcDbBlockBegin
  2
*PAPER_SPACE
 70
     0
 10
0.0
 20
0.0
 30
0.0
  3
*PAPER_SPACE
  1

  0
ENDBLK
  5
99A8
330
99A6
100
AcDbEntity
 67
     1
  8
0
100
AcDbBlockEnd
  0
ENDSEC
  0
SECTION
  2
ENTITIES
  0
TEXT
  5
99C2
330
99AA
100
AcDbEntity
  8
7
  6
Continuous
100
AcDbText
 10
10.0
 20
18.0
 30
0.0
 40
3.0
  1
TYPE No.TL-32-001
100
AcDbText
  0
TEXT
  5
99C3
330
99AA
100
AcDbEntity
  8
7
  6
Continuous
100
AcDbText
 10
10.0
 20
26.0
 30
0.0
 40
3.0
  1
CODE No.1806
100
AcDbText
  0
TEXT
  5
99C4
330
99AA
100
AcDbEntity
  8
1
  6
Continuous
100
AcDbText
 10
10.0
 20
10.0
 30
0.0
 40
1.399999999999999
  1
LAYER
100
AcDbText
  0
TEXT
  5
99C5
330
99AA
100
AcDbEntity
  8
1
  6
Continuous
100
AcDbText
 10
17.97951099999998
 20
10.04873699999998
 30
0.0
 40
1.399999999999999
  1
1
100
AcDbText
  0
TEXT
  5
99C6
330
99AA
100
AcDbEntity
  8
7
  6
Continuous
100
AcDbText
 10
29.97951099999999
 20
10.04873699999998
 30
0.0
 40
1.399999999999999
  1
7
100
AcDbText
  0
TEXT
  5
99C7
330
99AA
100
AcDbEntity
  8
4
  6
CENTER
100
AcDbText
 10
23.97951099999999
 20
10.04873699999998
 30
0.0
 40
1.399999999999999
  1
4
100
AcDbText
  0
TEXT
  5
99C8
330
99AA
100
AcDbEntity
  8
3
  6
DASHED
100
AcDbText
 10
21.979511
 20
10.04873699999998
 30
0.0
 40
1.399999999999999
  1
3
100
AcDbText
  0
TEXT
  5
99C9
330
99AA
100
AcDbEntity
  8
2
  6
Continuous
100
AcDbText
 10
19.97951099999999
 20
10.04873699999998
 30
0.0
 40
1.399999999999999
  1
2
100
AcDbText
  0
TEXT
  5
99CA
330
99AA
100
AcDbEntity
  8
6
  6
Continuous
100
AcDbText
 10
27.979511
 20
10.04873699999998
 30
0.0
 40
1.399999999999999
  1
6
100
AcDbText
  0
TEXT
  5
99CB
330
99AA
100
AcDbEntity
  8
5
  6
PHANTOM
100
AcDbText
 10
25.97951099999999
 20
10.04873699999998
 30
0.0
 40
1.399999999999999
  1
5
100
AcDbText
  0
LINE
  5
99CC
330
99AA
100
AcDbEntity
  8
1
  6
Continuous
100
AcDbLine
 10
434.5189669999999
 20
181.4707105023384
 30
0.0
 11
453.518967
 21
181.4707105023384
 31
0.0
  0
LINE
  5
99CD
330
99AA
100
AcDbEntity
  8
1
  6
Continuous
100
AcDbLine
 10
440.5189669999998
 20
187.4707105023386
 30
0.0
 11
441.518967
 21
187.4707105023386
 31
0.0
  0
LINE
  5
99CE
330
99AA
100
AcDbEntity
  8
1
  6
Continuous
100
AcDbLine
 10
434.5189669999999
 20
182.4707105023384
 30
0.0
 11
434.5189669999999
 21
181.4707105023384
 31
0.0
  0
LINE
  5
99CF
330
99AA
100
AcDbEntity
  8
1
  6
Continuous
100
AcDbLine
 10
441.518967
 20
187.4707105023386
 30
0.0
 11
441.518967
 21
185.9707105023386
 31
0.0
  0
LINE
  5
99D0
330
99AA
100
AcDbEntity
  8
1
  6
Continuous
100
AcDbLine
 10
445.518967
 20
187.4707105023386
 30
0.0
 11
445.518967
 21
185.9707105023386
 31
0.0
  0
LINE
  5
99D1
330
99AA
100
AcDbEntity
  8
1
  6
Continuous
100
AcDbLine
 10
454.518967
 20
190.7207105023385
 30
0.0
 11
454.518967
 21
178.2207105023385
 31
0.0
  0
LINE
  5
99D2
330
99AA
100
AcDbEntity
  8
1
  6
Continuous
100
AcDbLine
 10
440.5189969999998
 20
187.4707255023386
 30
0.0
 11
434.5189969999998
 21
182.4707255023385
 31
0.0
  0
LINE
  5
99D3
330
99AA
100
AcDbEntity
  8
1
  6
Continuous
100
AcDbLine
 10
441.518967
 20
185.9707105023386
 30
0.0
 11
445.518967
 21
185.9707105023386
 31
0.0
  0
LINE
  5
99D4
330
99AA
100
AcDbEntity
  8
1
  6
Continuous
100
AcDbLine
 10
445.518967
 20
187.4707105023386
 30
0.0
 11
453.518967
 21
187.4707105023386
 31
0.0
  0
LINE
  5
99D5
330
99AA
100
AcDbEntity
  8
4
  6
CENTER
100
AcDbLine
 10
429.518967
 20
184.4707105023385
 30
0.0
 11
498.5189669999998
 21
184.4707105023385
 31
0.0
  0
LINE
  5
99D6
330
99AA
100
AcDbEntity
  8
1
  6
Continuous
100
AcDbLine
 10
455.1189729999999
 20
181.4707105023384
 30
0.0
 11
498.5189669999998
 21
181.4707105023384
 31
0.0
  0
LINE
  5
99D7
330
99AA
100
AcDbEntity
  8
1
  6
Continuous
100
AcDbLine
 10
455.1189729999999
 20
187.4707105023386
 30
0.0
 11
498.5189669999998
 21
187.4707105023386
 31
0.0
  0
LINE
  5
99D8
330
99AA
100
AcDbEntity
  8
1
  6
Continuous
100
AcDbLine
 10
509.5189969999998
 20
176.4707105023386
 30
0.0
 11
509.5189969999998
 21
154.9707105023386
 31
0.0
  0
LINE
  5
99D9
330
99AA
100
AcDbEntity
  8
1
  6
Continuous
100
AcDbLine
 10
503.5189969999998
 20
176.4707105023386
 30
0.0
 11
503.5189969999998
 21
154.9707105023386
 31
0.0
  0
LINE
  5
99DA
330
99AA
100
AcDbEntity
  8
1
  6
Continuous
100
AcDbLine
 10
504.0189969999998
 20
154.4707105023386
 30
0.0
 11
509.0189969999998
 21
154.4707105023386
 31
0.0
  0
LINE
  5
99DB
330
99AA
100
AcDbEntity
  8
1
  6
Continuous
100
AcDbLine
 10
503.5189969999998
 20
154.9706955023386
 30
0.0
 11
504.018936
 21
154.4707105023386
 31
0.0
  0
LINE
  5
99DC
330
99AA
100
AcDbEntity
  8
1
  6
Continuous
100
AcDbLine
 10
509.0189969999998
 20
154.4707105023386
 30
0.0
 11
509.5189969999998
 21
154.9706955023386
 31
0.0
  0
LINE
  5
99DD
330
99AA
100
AcDbEntity
  8
1
  6
Continuous
100
AcDbLine
 10
503.5189969999998
 20
154.9707105023386
 30
0.0
 11
509.5189969999998
 21
154.9707105023386
 31
0.0
  0
LINE
  5
99DE
330
99AA
100
AcDbEntity
  8
4
  6
CENTER
100
AcDbLine
 10
502.9189610000001
 20
159.4707105023385
 30
0.0
 11
510.1189729999998
 21
159.4707105023385
 31
0.0
  0
LINE
  5
99DF
330
99AA
100
AcDbEntity
  8
1
  6
Continuous
100
AcDbLine
 10
565.018997
 20
154.4707105023386
 30
0.0
 11
570.018997
 21
154.4707105023386
 31
0.0
  0
LINE
  5
99E0
330
99AA
100
AcDbEntity
  8
1
  6
Continuous
100
AcDbLine
 10
564.518997
 20
184.4707105023385
 30
0.0
 11
564.518997
 21
154.9707105023386
 31
0.0
  0
LINE
  5
99E1
330
99AA
100
AcDbEntity
  8
1
  6
Continuous
100
AcDbLine
 10
570.518997
 20
184.4707105023385
 30
0.0
 11
570.518997
 21
154.9707105023386
 31
0.0
  0
LINE
  5
99E2
330
99AA
100
AcDbEntity
  8
1
  6
Continuous
100
AcDbLine
 10
564.518997
 20
154.9706955023386
 30
0.0
 11
565.0189360000001
 21
154.4707105023386
 31
0.0
  0
LINE
  5
99E3
330
99AA
100
AcDbEntity
  8
1
  6
Continuous
100
AcDbLine
 10
570.018997
 20
154.4707105023386
 30
0.0
 11
570.518997
 21
154.9706955023386
 31
0.0
  0
LINE
  5
99E4
330
99AA
100
AcDbEntity
  8
4
  6
CENTER
100
AcDbLine
 10
567.5189969999999
 20
192.4707105023386
 30
0.0
 11
567.5189969999999
 21
149.3551405023385
 31
0.0
  0
LINE
  5
99E5
330
99AA
100
AcDbEntity
  8
1
  6
Continuous
100
AcDbLine
 10
710.5189360000001
 20
181.4707105023384
 30
0.0
 11
691.518997
 21
181.4707105023384
 31
0.0
  0
LINE
  5
99E6
330
99AA
100
AcDbEntity
  8
1
  6
Continuous
100
AcDbLine
 10
704.5189360000001
 20
187.4707105023386
 30
0.0
 11
703.5189360000003
 21
187.4707105023386
 31
0.0
  0
LINE
  5
99E7
330
99AA
100
AcDbEntity
  8
1
  6
Continuous
100
AcDbLine
 10
710.5189360000001
 20
182.4707105023384
 30
0.0
 11
710.5189360000001
 21
181.4707105023384
 31
0.0
  0
LINE
  5
99E8
330
99AA
100
AcDbEntity
  8
1
  6
Continuous
100
AcDbLine
 10
703.5189360000003
 20
187.4707105023386
 30
0.0
 11
703.5189360000003
 21
185.9707105023386
 31
0.0
  0
LINE
  5
99E9
330
99AA
100
AcDbEntity
  8
1
  6
Continuous
100
AcDbLine
 10
699.5189360000003
 20
187.4707105023386
 30
0.0
 11
699.5189360000003
 21
185.9707105023386
 31
0.0
  0
LINE
  5
99EA
330
99AA
100
AcDbEntity
  8
1
  6
Continuous
100
AcDbLine
 10
690.5189360000001
 20
190.7207105023385
 30
0.0
 11
690.5189360000001
 21
178.2207105023385
 31
0.0
  0
LINE
  5
99EB
330
99AA
100
AcDbEntity
  8
1
  6
Continuous
100
AcDbLine
 10
704.518997
 20
187.4706645023386
 30
0.0
 11
710.518997
 21
182.4706805023386
 31
0.0
  0
LINE
  5
99EC
330
99AA
100
AcDbEntity
  8
1
  6
Continuous
100
AcDbLine
 10
703.5189360000003
 20
185.9707105023386
 30
0.0
 11
699.5189360000003
 21
185.9707105023386
 31
0.0
  0
LINE
  5
99ED
330
99AA
100
AcDbEntity
  8
1
  6
Continuous
100
AcDbLine
 10
699.5189360000003
 20
187.4707105023386
 30
0.0
 11
691.518997
 21
187.4707105023386
 31
0.0
  0
LINE
  5
99EE
330
99AA
100
AcDbEntity
  8
4
  6
CENTER
100
AcDbLine
 10
715.5189360000001
 20
184.4707105023385
 30
0.0
 11
646.5189969999999
 21
184.4707105023385
 31
0.0
  0
LINE
  5
99EF
330
99AA
100
AcDbEntity
  8
1
  6
Continuous
100
AcDbLine
 10
689.9189609999998
 20
181.4707105023384
 30
0.0
 11
646.5189969999999
 21
181.4707105023384
 31
0.0
  0
LINE
  5
99F0
330
99AA
100
AcDbEntity
  8
1
  6
Continuous
100
AcDbLine
 10
689.9189609999998
 20
187.4707105023386
 30
0.0
 11
646.5189969999999
 21
187.4707105023386
 31
0.0
  0
LINE
  5
99F1
330
99AA
100
AcDbEntity
  8
1
  6
Continuous
100
AcDbLine
 10
635.518997
 20
176.4707105023386
 30
0.0
 11
635.518997
 21
154.9707105023386
 31
0.0
  0
LINE
  5
99F2
330
99AA
100
AcDbEntity
  8
1
  6
Continuous
100
AcDbLine
 10
641.518997
 20
176.4707105023386
 30
0.0
 11
641.518997
 21
154.9707105023386
 31
0.0
  0
LINE
  5
99F3
330
99AA
100
AcDbEntity
  8
1
  6
Continuous
100
AcDbLine
 10
641.518997
 20
154.9707105023386
 30
0.0
 11
641.018997
 21
154.4707255023385
 31
0.0
  0
LINE
  5
99F4
330
99AA
100
AcDbEntity
  8
1
  6
Continuous
100
AcDbLine
 10
636.018997
 20
154.4707255023385
 30
0.0
 11
635.518997
 21
154.9707255023385
 31
0.0
  0
LINE
  5
99F5
330
99AA
100
AcDbEntity
  8
4
  6
CENTER
100
AcDbLine
 10
638.5189969999998
 20
176.4707105023386
 30
0.0
 11
638.5189969999998
 21
149.3551405023385
 31
0.0
  0
LINE
  5
99F6
330
99AA
100
AcDbEntity
  8
4
  6
CENTER
100
AcDbLine
 10
642.118973
 20
159.4707105023385
 30
0.0
 11
634.9189609999998
 21
159.4707105023385
 31
0.0
  0
LINE
  5
99F7
330
99AA
100
AcDbEntity
  8
1
  6
Continuous
100
AcDbLine
 10
569.7550200000002
 20
292.4707105023387
 30
0.0
 11
565.2829129999997
 21
292.4707105023387
 31
0.0
  0
LINE
  5
99F8
330
99AA
100
AcDbEntity
  8
1
  6
Continuous
100
AcDbLine
 10
564.518997
 20
290.1854935023385
 30
0.0
 11
564.518997
 21
273.4707105023386
 31
0.0
  0
LINE
  5
99F9
330
99AA
100
AcDbEntity
  8
1
  6
Continuous
100
AcDbLine
 10
570.518997
 20
290.1854935023385
 30
0.0
 11
570.518997
 21
273.4707105023386
 31
0.0
  0
LINE
  5
99FA
330
99AA
100
AcDbEntity
  8
1
  6
Continuous
100
AcDbLine
 10
570.1170809999998
 20
285.4707105023385
 30
0.0
 11
564.9209139999998
 21
285.4707105023385
 31
0.0
  0
LINE
  5
99FB
330
99AA
100
AcDbEntity
  8
1
  6
Continuous
100
AcDbLine
 10
570.1170809999998
 20
281.4707105023385
 30
0.0
 11
564.9209139999998
 21
281.4707105023385
 31
0.0
  0
LINE
  5
99FC
330
99AA
100
AcDbEntity
  8
1
  6
Continuous
100
AcDbLine
 10
573.7689969999999
 20
272.4707105023385
 30
0.0
 11
561.2689969999999
 21
272.4707105023385
 31
0.0
  0
LINE
  5
99FD
330
99AA
100
AcDbEntity
  8
4
  6
CENTER
100
AcDbLine
 10
567.5189969999999
 20
297.4707105023385
 30
0.0
 11
567.5189969999999
 21
212.4707105023386
 31
0.0
  0
LINE
  5
99FE
330
99AA
100
AcDbEntity
  8
1
  6
Continuous
100
AcDbLine
 10
570.518997
 20
271.8707045023386
 30
0.0
 11
570.518997
 21
220.4707105023386
 31
0.0
  0
LINE
  5
99FF
330
99AA
100
AcDbEntity
  8
1
  6
Continuous
100
AcDbLine
 10
564.518997
 20
271.8707045023386
 30
0.0
 11
564.518997
 21
220.4707105023386
 31
0.0
  0
LINE
  5
9A00
330
99AA
100
AcDbEntity
  8
1
  6
Continuous
100
AcDbLine
 10
453.518967
 20
190.7207105023385
 30
0.0
 11
454.518967
 21
190.7207105023385
 31
0.0
  0
LINE
  5
9A01
330
99AA
100
AcDbEntity
  8
1
  6
Continuous
100
AcDbLine
 10
453.518967
 20
178.2207105023385
 30
0.0
 11
454.518967
 21
178.2207105023385
 31
0.0
  0
LINE
  5
9A02
330
99AA
100
AcDbEntity
  8
1
  6
Continuous
100
AcDbLine
 10
573.7689969999999
 20
273.4707105023386
 30
0.0
 11
573.7689969999999
 21
272.4707105023385
 31
0.0
  0
LINE
  5
9A03
330
99AA
100
AcDbEntity
  8
1
  6
Continuous
100
AcDbLine
 10
561.2689969999999
 20
273.4707105023386
 30
0.0
 11
561.2689969999999
 21
272.4707105023385
 31
0.0
  0
LINE
  5
9A04
330
99AA
100
AcDbEntity
  8
1
  6
Continuous
100
AcDbLine
 10
569.7550200000002
 20
49.47071450233869
 30
0.0
 11
565.2829129999997
 21
49.47071450233869
 31
0.0
  0
LINE
  5
9A05
330
99AA
100
AcDbEntity
  8
1
  6
Continuous
100
AcDbLine
 10
564.518997
 20
51.75593950233865
 30
0.0
 11
564.518997
 21
68.4707105023387
 31
0.0
  0
LINE
  5
9A06
330
99AA
100
AcDbEntity
  8
1
  6
Continuous
100
AcDbLine
 10
570.518997
 20
51.75593950233865
 30
0.0
 11
570.518997
 21
68.4707105023387
 31
0.0
  0
LINE
  5
9A07
330
99AA
100
AcDbEntity
  8
1
  6
Continuous
100
AcDbLine
 10
573.7689969999999
 20
69.47071050233867
 30
0.0
 11
561.2689969999999
 21
69.47071050233867
 31
0.0
  0
LINE
  5
9A08
330
99AA
100
AcDbEntity
  8
4
  6
CENTER
100
AcDbLine
 10
567.5189969999999
 20
44.47071450233869
 30
0.0
 11
567.5189969999999
 21
129.4707105023387
 31
0.0
  0
LINE
  5
9A09
330
99AA
100
AcDbEntity
  8
1
  6
Continuous
100
AcDbLine
 10
570.518997
 20
70.07070950233867
 30
0.0
 11
570.518997
 21
121.4707105023386
 31
0.0
  0
LINE
  5
9A0A
330
99AA
100
AcDbEntity
  8
1
  6
Continuous
100
AcDbLine
 10
564.518997
 20
70.07070950233867
 30
0.0
 11
564.518997
 21
121.4707105023386
 31
0.0
  0
LINE
  5
9A0B
330
99AA
100
AcDbEntity
  8
1
  6
Continuous
100
AcDbLine
 10
573.7689969999999
 20
68.4707105023387
 30
0.0
 11
573.7689969999999
 21
69.47071050233867
 31
0.0
  0
LINE
  5
9A0C
330
99AA
100
AcDbEntity
  8
1
  6
Continuous
100
AcDbLine
 10
561.2689969999999
 20
68.4707105023387
 30
0.0
 11
561.2689969999999
 21
69.47071050233867
 31
0.0
  0
LINE
  5
9A0D
330
99AA
100
AcDbEntity
  8
1
  6
Continuous
100
AcDbLine
 10
453.518967
 20
190.7207105023385
 30
0.0
 11
453.518967
 21
178.2207105023385
 31
0.0
  0
LINE
  5
9A0E
330
99AA
100
AcDbEntity
  8
1
  6
Continuous
100
AcDbLine
 10
573.7689969999999
 20
273.4707105023386
 30
0.0
 11
561.2689969999999
 21
273.4707105023386
 31
0.0
  0
LINE
  5
9A0F
330
99AA
100
AcDbEntity
  8
1
  6
Continuous
100
AcDbLine
 10
573.7689969999999
 20
68.4707105023387
 30
0.0
 11
561.2689969999999
 21
68.4707105023387
 31
0.0
  0
LINE
  5
9A10
330
99AA
100
AcDbEntity
  8
1
  6
Continuous
100
AcDbLine
 10
691.518997
 20
178.2207105023385
 30
0.0
 11
690.518997
 21
178.2207105023385
 31
0.0
  0
LINE
  5
9A11
330
99AA
100
AcDbEntity
  8
1
  6
Continuous
100
AcDbLine
 10
691.518997
 20
190.7207105023385
 30
0.0
 11
690.518997
 21
190.7207105023385
 31
0.0
  0
LINE
  5
9A12
330
99AA
100
AcDbEntity
  8
1
  6
Continuous
100
AcDbLine
 10
691.518997
 20
190.7207105023385
 30
0.0
 11
691.518997
 21
178.2207105023385
 31
0.0
  0
LINE
  5
9A13
330
99AA
100
AcDbEntity
  8
1
  6
Continuous
100
AcDbLine
 10
764.018936
 20
154.4707105023386
 30
0.0
 11
759.018936
 21
154.4707105023386
 31
0.0
  0
LINE
  5
9A14
330
99AA
100
AcDbEntity
  8
1
  6
Continuous
100
AcDbLine
 10
764.518936
 20
178.9877825023386
 30
0.0
 11
764.518936
 21
154.9707105023386
 31
0.0
  0
LINE
  5
9A15
330
99AA
100
AcDbEntity
  8
1
  6
Continuous
100
AcDbLine
 10
758.5189360000001
 20
178.9877825023386
 30
0.0
 11
758.5189360000001
 21
154.9707105023386
 31
0.0
  0
LINE
  5
9A16
330
99AA
100
AcDbEntity
  8
1
  6
Continuous
100
AcDbLine
 10
764.518936
 20
154.9707105023386
 30
0.0
 11
764.018997
 21
154.4707105023386
 31
0.0
  0
LINE
  5
9A17
330
99AA
100
AcDbEntity
  8
1
  6
Continuous
100
AcDbLine
 10
759.018936
 20
154.4706645023386
 30
0.0
 11
758.5189360000001
 21
154.9706805023386
 31
0.0
  0
LINE
  5
9A18
330
99AA
100
AcDbEntity
  8
4
  6
CENTER
100
AcDbLine
 10
761.518936
 20
192.4707105023386
 30
0.0
 11
761.518936
 21
149.3551405023385
 31
0.0
  0
LINE
  5
9A19
330
99AA
100
AcDbEntity
  8
1
  6
Continuous
100
AcDbLine
 10
759.2828519999997
 20
182.4707105023384
 30
0.0
 11
763.7550199999997
 21
182.4707105023384
 31
0.0
  0
LINE
  5
9A1A
330
99AA
100
AcDbEntity
  8
4
  6
CENTER
100
AcDbLine
 10
562.518997
 20
159.4707105023385
 30
0.0
 11
572.518997
 21
159.4707105023385
 31
0.0
  0
LINE
  5
9A1B
330
99AA
100
AcDbEntity
  8
4
  6
CENTER
100
AcDbLine
 10
766.518936
 20
159.4707105023385
 30
0.0
 11
756.518936
 21
159.4707105023385
 31
0.0
  0
LINE
  5
9A1C
330
99AA
100
AcDbEntity
  8
1
  6
Continuous
100
AcDbLine
 10
641.518997
 20
154.9707105023386
 30
0.0
 11
635.518997
 21
154.9707105023386
 31
0.0
  0
LINE
  5
9A1D
330
99AA
100
AcDbEntity
  8
1
  6
Continuous
100
AcDbLine
 10
641.018997
 20
154.4707105023386
 30
0.0
 11
636.018997
 21
154.4707105023386
 31
0.0
  0
LINE
  5
9A1E
330
99AA
100
AcDbEntity
  8
1
  6
Continuous
100
AcDbLine
 10
564.518997
 20
154.9707105023386
 30
0.0
 11
570.518997
 21
154.9707105023386
 31
0.0
  0
LINE
  5
9A1F
330
99AA
100
AcDbEntity
  8
1
  6
Continuous
100
AcDbLine
 10
563.639542
 20
184.4707105023385
 30
0.0
 11
564.518997
 21
184.4707105023385
 31
0.0
  0
LINE
  5
9A20
330
99AA
100
AcDbEntity
  8
1
  6
Continuous
100
AcDbLine
 10
570.518997
 20
181.7227405023386
 30
0.0
 11
570.996353
 21
180.8959735023385
 31
0.0
  0
LINE
  5
9A21
330
99AA
100
AcDbEntity
  8
1
  6
Continuous
100
AcDbLine
 10
564.041641
 20
180.8959575023386
 30
0.0
 11
564.518997
 21
181.7227405023386
 31
0.0
  0
LINE
  5
9A22
330
99AA
100
AcDbEntity
  8
1
  6
Continuous
100
AcDbLine
 10
566.1921539999997
 20
188.1162035023386
 30
0.0
 11
566.492935
 21
187.2897875023386
 31
0.0
  0
LINE
  5
9A23
330
99AA
100
AcDbEntity
  8
1
  6
Continuous
100
AcDbLine
 10
568.545059
 20
187.2897875023386
 30
0.0
 11
568.8458409999998
 21
188.1161725023386
 31
0.0
  0
LINE
  5
9A24
330
99AA
100
AcDbEntity
  8
1
  6
Continuous
100
AcDbLine
 10
570.518997
 20
184.4707105023385
 30
0.0
 11
571.398453
 21
184.4707105023385
 31
0.0
  0
LINE
  5
9A25
330
99AA
100
AcDbEntity
  8
1
  6
Continuous
100
AcDbLine
 10
454.518967
 20
189.9707105023385
 30
0.0
 11
455.1189729999999
 21
189.9707105023385
 31
0.0
  0
LINE
  5
9A26
330
99AA
100
AcDbEntity
  8
1
  6
Continuous
100
AcDbLine
 10
454.518967
 20
180.6959605023386
 30
0.0
 11
455.1189729999999
 21
180.6959605023386
 31
0.0
  0
LINE
  5
9A27
330
99AA
100
AcDbEntity
  8
1
  6
Continuous
100
AcDbLine
 10
455.1189729999999
 20
189.9707105023385
 30
0.0
 11
455.1189729999999
 21
180.6959605023386
 31
0.0
  0
LINE
  5
9A28
330
99AA
100
AcDbEntity
  8
1
  6
Continuous
100
AcDbLine
 10
689.9189609999998
 20
189.9707105023385
 30
0.0
 11
690.5189360000001
 21
189.9707105023385
 31
0.0
  0
LINE
  5
9A29
330
99AA
100
AcDbEntity
  8
1
  6
Continuous
100
AcDbLine
 10
689.9189609999998
 20
180.6959605023386
 30
0.0
 11
690.5189360000001
 21
180.6959605023386
 31
0.0
  0
LINE
  5
9A2A
330
99AA
100
AcDbEntity
  8
1
  6
Continuous
100
AcDbLine
 10
689.9189609999998
 20
189.9707105023385
 30
0.0
 11
689.9189609999998
 21
180.6959605023386
 31
0.0
  0
LINE
  5
9A2B
330
99AA
100
AcDbEntity
  8
1
  6
Continuous
100
AcDbLine
 10
562.018997
 20
272.4707105023385
 30
0.0
 11
562.018997
 21
271.8707045023386
 31
0.0
  0
LINE
  5
9A2C
330
99AA
100
AcDbEntity
  8
1
  6
Continuous
100
AcDbLine
 10
573.018997
 20
272.4707105023385
 30
0.0
 11
573.018997
 21
271.8707045023386
 31
0.0
  0
LINE
  5
9A2D
330
99AA
100
AcDbEntity
  8
1
  6
Continuous
100
AcDbLine
 10
573.018997
 20
271.8707045023386
 30
0.0
 11
562.018997
 21
271.8707045023386
 31
0.0
  0
LINE
  5
9A2E
330
99AA
100
AcDbEntity
  8
1
  6
Continuous
100
AcDbLine
 10
573.018997
 20
70.07070950233867
 30
0.0
 11
573.018997
 21
69.47071050233867
 31
0.0
  0
LINE
  5
9A2F
330
99AA
100
AcDbEntity
  8
1
  6
Continuous
100
AcDbLine
 10
562.018997
 20
70.07070950233867
 30
0.0
 11
562.018997
 21
69.47071050233867
 31
0.0
  0
LINE
  5
9A30
330
99AA
100
AcDbEntity
  8
1
  6
Continuous
100
AcDbLine
 10
563.7778469999998
 20
70.07070950233867
 30
0.0
 11
563.7778469999998
 21
69.47071050233867
 31
0.0
  0
LINE
  5
9A31
330
99AA
100
AcDbEntity
  8
1
  6
Continuous
100
AcDbLine
 10
571.260086
 20
70.07070950233867
 30
0.0
 11
571.260086
 21
69.47071050233867
 31
0.0
  0
LINE
  5
9A32
330
99AA
100
AcDbEntity
  8
1
  6
Continuous
100
AcDbLine
 10
565.3689729999999
 20
69.47071050233867
 30
0.0
 11
565.3689729999999
 21
70.07070950233867
 31
0.0
  0
LINE
  5
9A33
330
99AA
100
AcDbEntity
  8
1
  6
Continuous
100
AcDbLine
 10
569.6689609999999
 20
69.47071050233867
 30
0.0
 11
569.6689609999999
 21
70.07070950233867
 31
0.0
  0
LINE
  5
9A34
330
99AA
100
AcDbEntity
  8
1
  6
Continuous
100
AcDbLine
 10
573.018997
 20
70.07070950233867
 30
0.0
 11
569.6689609999999
 21
70.07070950233867
 31
0.0
  0
LINE
  5
9A35
330
99AA
100
AcDbEntity
  8
1
  6
Continuous
100
AcDbLine
 10
565.3689729999999
 20
70.07070950233867
 30
0.0
 11
562.018997
 21
70.07070950233867
 31
0.0
  0
LINE
  5
9A36
330
99AA
100
AcDbEntity
  8
1
  6
Continuous
100
AcDbLine
 10
758.5189360000001
 20
154.9707105023386
 30
0.0
 11
764.518936
 21
154.9707105023386
 31
0.0
  0
LINE
  5
9A37
330
99AA
100
AcDbEntity
  8
4
  6
CENTER
100
AcDbLine
 10
561.0072179999998
 20
121.4707105023386
 30
0.0
 11
574.291824
 21
121.4707105023386
 31
0.0
  0
LINE
  5
9A38
330
99AA
100
AcDbEntity
  8
4
  6
CENTER
100
AcDbLine
 10
561.623062
 20
220.4707105023386
 30
0.0
 11
573.9490509999999
 21
220.4707105023386
 31
0.0
  0
LINE
  5
9A39
330
99AA
100
AcDbEntity
  8
4
  6
CENTER
100
AcDbLine
 10
556.268997
 20
184.4707105023385
 30
0.0
 11
578.768997
 21
184.4707105023385
 31
0.0
  0
LINE
  5
9A3A
330
99AA
100
AcDbEntity
  8
4
  6
CENTER
100
AcDbLine
 10
506.518936
 20
176.4707105023386
 30
0.0
 11
506.518936
 21
149.3551405023385
 31
0.0
  0
LINE
  5
9A3B
330
99AA
100
AcDbEntity
  8
1
  6
Continuous
100
AcDbLine
 10
564.9209139999998
 20
285.4707105023385
 30
0.0
 11
564.9209139999998
 21
281.4707105023385
 31
0.0
  0
LINE
  5
9A3C
330
99AA
100
AcDbEntity
  8
1
  6
Continuous
100
AcDbLine
 10
570.1170809999998
 20
285.4707105023385
 30
0.0
 11
570.1170809999998
 21
281.4707105023385
 31
0.0
  0
ARC
  5
9A3D
330
99AA
100
AcDbEntity
  8
1
  6
Continuous
100
AcDbCircle
 10
498.5189669999998
 20
176.4707105023386
 30
0.0
 40
5.0
100
AcDbArc
 50
0.0
 51
90.00000300000001
  0
ARC
  5
9A3E
330
99AA
100
AcDbEntity
  8
1
  6
Continuous
100
AcDbCircle
 10
498.5189669999998
 20
176.4707105023386
 30
0.0
 40
11.0
100
AcDbArc
 50
0.0
 51
90.00000300000001
  0
CIRCLE
  5
9A3F
330
99AA
100
AcDbEntity
  8
1
  6
Continuous
100
AcDbCircle
 10
506.5189969999998
 20
159.4707105023385
 30
0.0
 40
1.6
  0
ARC
  5
9A40
330
99AA
100
AcDbEntity
  8
4
  6
CENTER
100
AcDbCircle
 10
498.5189669999998
 20
176.4707105023386
 30
0.0
 40
8.0
100
AcDbArc
 50
0.0
 51
90.00000300000001
  0
ARC
  5
9A41
330
99AA
100
AcDbEntity
  8
1
  6
Continuous
100
AcDbCircle
 10
646.5189969999999
 20
176.4707105023386
 30
0.0
 40
5.0
100
AcDbArc
 50
90.00000300000001
 51
180.000005
  0
ARC
  5
9A42
330
99AA
100
AcDbEntity
  8
1
  6
Continuous
100
AcDbCircle
 10
646.5189969999999
 20
176.4707105023386
 30
0.0
 40
11.0
100
AcDbArc
 50
90.00000300000001
 51
180.000005
  0
CIRCLE
  5
9A43
330
99AA
100
AcDbEntity
  8
1
  6
Continuous
100
AcDbCircle
 10
638.5189969999998
 20
159.4707105023385
 30
0.0
 40
1.6
  0
ARC
  5
9A44
330
99AA
100
AcDbEntity
  8
4
  6
CENTER
100
AcDbCircle
 10
646.5189969999999
 20
176.4707105023386
 30
0.0
 40
8.0
100
AcDbArc
 50
90.00000300000001
 51
180.000005
  0
ARC
  5
9A45
330
99AA
100
AcDbEntity
  8
1
  6
Continuous
100
AcDbCircle
 10
567.5189969999999
 20
184.4707105023385
 30
0.0
 40
3.0
100
AcDbArc
 50
0.0
 51
180.000005
  0
ARC
  5
9A46
330
99AA
100
AcDbEntity
  8
1
  6
Continuous
100
AcDbCircle
 10
567.5189969999999
 20
184.4707105023385
 30
0.0
 40
6.25
100
AcDbArc
 50
298.685399
 51
241.3146
  0
CIRCLE
  5
9A47
330
99AA
100
AcDbEntity
  8
1
  6
Continuous
100
AcDbCircle
 10
761.518936
 20
184.4707105023385
 30
0.0
 40
3.0
  0
ARC
  5
9A48
330
99AA
100
AcDbEntity
  8
1
  6
Continuous
100
AcDbCircle
 10
567.5189969999999
 20
220.4707105023386
 30
0.0
 40
3.0
100
AcDbArc
 50
179.9999909999999
 51
0.00001
  0
CIRCLE
  5
9A49
330
99AA
100
AcDbEntity
  8
1
  6
Continuous
100
AcDbCircle
 10
567.5189969999999
 20
121.4707105023386
 30
0.0
 40
3.0
  0
ARC
  5
9A4A
330
99AA
100
AcDbEntity
  8
1
  6
Continuous
100
AcDbCircle
 10
567.5189969999999
 20
184.4707105023385
 30
0.0
 40
5.5
100
AcDbArc
 50
318.5691279999999
 51
221.430826
  0
ARC
  5
9A4B
330
99AA
100
AcDbEntity
  8
1
  6
Continuous
100
AcDbCircle
 10
567.5189969999999
 20
184.4707105023385
 30
0.0
 40
4.299999999999998
100
AcDbArc
 50
5.886828999999999
 51
64.113162
  0
ARC
  5
9A4C
330
99AA
100
AcDbEntity
  8
1
  6
Continuous
100
AcDbCircle
 10
567.5189969999999
 20
184.4707105023385
 30
0.0
 40
4.299999999999998
100
AcDbArc
 50
115.8868629999999
 51
174.113188
  0
ARC
  5
9A4D
330
99AA
100
AcDbEntity
  8
1
  6
Continuous
100
AcDbCircle
 10
569.2216949999998
 20
187.9793775023386
 30
0.0
 40
0.4
100
AcDbArc
 50
64.113073
 51
159.9999949999999
  0
ARC
  5
9A4E
330
99AA
100
AcDbEntity
  8
1
  6
Continuous
100
AcDbCircle
 10
571.398453
 20
184.8707045023385
 30
0.0
 40
0.4
100
AcDbArc
 50
270.0000179999999
 51
5.886752999999998
  0
ARC
  5
9A4F
330
99AA
100
AcDbEntity
  8
1
  6
Continuous
100
AcDbCircle
 10
565.8163
 20
187.9793775023386
 30
0.0
 40
0.4
100
AcDbArc
 50
20.000122
 51
115.886945
  0
ARC
  5
9A50
330
99AA
100
AcDbEntity
  8
1
  6
Continuous
100
AcDbCircle
 10
563.639542
 20
184.8707045023385
 30
0.0
 40
0.4
100
AcDbArc
 50
174.1132429999999
 51
270.000001
  0
ARC
  5
9A51
330
99AA
100
AcDbEntity
  8
1
  6
Continuous
100
AcDbCircle
 10
563.6952059999997
 20
181.0959545023386
 30
0.0
 40
0.4
100
AcDbArc
 50
221.430871
 51
329.999948
  0
ARC
  5
9A52
330
99AA
100
AcDbEntity
  8
1
  6
Continuous
100
AcDbCircle
 10
571.3427280000002
 20
181.0959545023386
 30
0.0
 40
0.4
100
AcDbArc
 50
209.999934
 51
318.568933
  0
ARC
  5
9A53
330
99AA
100
AcDbEntity
  8
1
  6
Continuous
100
AcDbCircle
 10
568.3189849999997
 20
290.1854935023385
 30
0.0
 40
3.799999999999998
100
AcDbArc
 50
143.031456
 51
232.020133
  0
ARC
  5
9A54
330
99AA
100
AcDbEntity
  8
1
  6
Continuous
100
AcDbCircle
 10
566.7190099999998
 20
290.1854935023385
 30
0.0
 40
3.799999999999998
100
AcDbArc
 50
307.979872
 51
36.968546
  0
ARC
  5
9A55
330
99AA
100
AcDbEntity
  8
1
  6
Continuous
100
AcDbCircle
 10
567.5189969999999
 20
289.1607745023387
 30
0.0
 40
2.5
100
AcDbArc
 50
232.0201359999999
 51
307.979869
  0
ARC
  5
9A56
330
99AA
100
AcDbEntity
  8
1
  6
Continuous
100
AcDbCircle
 10
568.3189849999997
 20
51.75593950233865
 30
0.0
 40
3.799999999999998
100
AcDbArc
 50
179.9999909999999
 51
216.9685399999999
  0
ARC
  5
9A57
330
99AA
100
AcDbEntity
  8
1
  6
Continuous
100
AcDbCircle
 10
566.7190099999998
 20
51.75593950233865
 30
0.0
 40
3.799999999999998
100
AcDbArc
 50
323.031454
 51
0.0
  0
LINE
  5
9A58
330
99AA
100
AcDbEntity
  8
4
  6
CENTER
100
AcDbLine
 10
750.268936
 20
184.4707105023385
 30
0.0
 11
772.768936
 21
184.4707105023385
 31
0.0
  0
CIRCLE
  5
9A59
330
99AA
100
AcDbEntity
  8
1
  6
Continuous
100
AcDbCircle
 10
761.518936
 20
184.4707105023385
 30
0.0
 40
6.25
  0
ARC
  5
9A5A
330
99AA
100
AcDbEntity
  8
1
  6
Continuous
100
AcDbCircle
 10
25.16395299999999
 20
185.4711685023385
 30
0.0
 40
5.732929999999998
100
AcDbArc
 50
144.461998
 51
215.5379979999999
  0
ARC
  5
9A5B
330
99AA
100
AcDbEntity
  8
1
  6
Continuous
100
AcDbCircle
 10
17.698103
 20
185.4711685023385
 30
0.0
 40
5.732929999999998
100
AcDbArc
 50
324.4619999999998
 51
35.537703
  0
LINE
  5
9A5C
330
99AA
100
AcDbEntity
  8
4
  6
CENTER
100
AcDbLine
 10
22.73101599999998
 20
196.7207105023386
 30
0.0
 11
22.73101599999998
 21
188.2207105023386
 31
0.0
  0
LINE
  5
9A5D
330
99AA
100
AcDbEntity
  8
1
  6
Continuous
100
AcDbLine
 10
14.93102999999999
 20
196.4707105023386
 30
0.0
 11
14.93102999999999
 21
168.4707105023386
 31
0.0
  0
LINE
  5
9A5E
330
99AA
100
AcDbEntity
  8
1
  6
Continuous
100
AcDbLine
 10
25.43102799999999
 20
196.4707105023386
 30
0.0
 11
25.43102799999999
 21
168.4707105023386
 31
0.0
  0
LINE
  5
9A5F
330
99AA
100
AcDbEntity
  8
4
  6
CENTER
100
AcDbLine
 10
9.93102999999999
 20
184.4707105023385
 30
0.0
 11
30.43102799999999
 21
184.4707105023385
 31
0.0
  0
LINE
  5
9A60
330
99AA
100
AcDbEntity
  8
1
  6
Continuous
100
AcDbLine
 10
25.43102799999999
 20
168.4707105023386
 30
0.0
 11
14.93102999999999
 21
168.4707105023386
 31
0.0
  0
ARC
  5
9A61
330
99AA
100
AcDbEntity
  8
1
  6
Continuous
100
AcDbCircle
 10
22.73101599999998
 20
172.4707105023386
 30
0.0
 40
1.3
100
AcDbArc
 50
349.5589079999998
 51
10.441092
  0
LINE
  5
9A62
330
99AA
100
AcDbEntity
  8
1
  6
Continuous
100
AcDbLine
 10
23.31571199999999
 20
172.2230055023386
 30
0.0
 11
23.07219499999999
 21
172.1295275023384
 31
0.0
  0
LINE
  5
9A63
330
99AA
100
AcDbEntity
  8
1
  6
Continuous
100
AcDbLine
 10
23.31570799999998
 20
172.7184165023386
 30
0.0
 11
23.07219799999998
 21
172.8118905023385
 31
0.0
  0
LINE
  5
9A64
330
99AA
100
AcDbEntity
  8
1
  6
Continuous
100
AcDbLine
 10
22.97871499999999
 20
173.0554045023386
 30
0.0
 11
22.96660399999999
 21
173.7491925023386
 31
0.0
  0
LINE
  5
9A65
330
99AA
100
AcDbEntity
  8
1
  6
Continuous
100
AcDbLine
 10
22.978713
 20
173.0554115023386
 30
0.0
 11
23.07219299999999
 21
172.8118885023386
 31
0.0
  0
LINE
  5
9A66
330
99AA
100
AcDbEntity
  8
1
  6
Continuous
100
AcDbLine
 10
23.31571099999999
 20
172.2230095023386
 30
0.0
 11
24.009491
 21
172.2351195023384
 31
0.0
  0
LINE
  5
9A67
330
99AA
100
AcDbEntity
  8
1
  6
Continuous
100
AcDbLine
 10
23.31571099999999
 20
172.7184195023385
 30
0.0
 11
24.009491
 21
172.7063095023386
 31
0.0
  0
LINE
  5
9A68
330
99AA
100
AcDbEntity
  8
1
  6
Continuous
100
AcDbLine
 10
22.97871399999999
 20
171.8860095023384
 30
0.0
 11
22.96660399999999
 21
171.1922365023387
 31
0.0
  0
LINE
  5
9A69
330
99AA
100
AcDbEntity
  8
1
  6
Continuous
100
AcDbLine
 10
22.978722
 20
171.8860125023387
 30
0.0
 11
23.07219899999998
 21
172.1295285023384
 31
0.0
  0
LINE
  5
9A6A
330
99AA
100
AcDbEntity
  8
1
  6
Continuous
100
AcDbLine
 10
22.483314
 20
173.0554065023386
 30
0.0
 11
22.38983699999998
 21
172.8118895023385
 31
0.0
  0
LINE
  5
9A6B
330
99AA
100
AcDbEntity
  8
1
  6
Continuous
100
AcDbLine
 10
22.483315
 20
173.0554015023385
 30
0.0
 11
22.49542599999999
 21
173.7491885023386
 31
0.0
  0
LINE
  5
9A6C
330
99AA
100
AcDbEntity
  8
1
  6
Continuous
100
AcDbLine
 10
22.14631699999998
 20
172.2230155023385
 30
0.0
 11
22.38983999999999
 21
172.1295355023386
 31
0.0
  0
LINE
  5
9A6D
330
99AA
100
AcDbEntity
  8
1
  6
Continuous
100
AcDbLine
 10
22.146318
 20
172.7184135023384
 30
0.0
 11
22.38983399999999
 21
172.8118905023385
 31
0.0
  0
ARC
  5
9A6E
330
99AA
100
AcDbEntity
  8
1
  6
Continuous
100
AcDbCircle
 10
22.73101599999998
 20
172.4707105023386
 30
0.0
 40
1.3
100
AcDbArc
 50
169.5589129999999
 51
190.4410969999999
  0
LINE
  5
9A6F
330
99AA
100
AcDbEntity
  8
1
  6
Continuous
100
AcDbLine
 10
22.146319
 20
172.2230055023386
 30
0.0
 11
21.452538
 21
172.2351155023385
 31
0.0
  0
LINE
  5
9A70
330
99AA
100
AcDbEntity
  8
1
  6
Continuous
100
AcDbLine
 10
22.146319
 20
172.7184075023386
 30
0.0
 11
21.452539
 21
172.7062975023386
 31
0.0
  0
LINE
  5
9A71
330
99AA
100
AcDbEntity
  8
1
  6
Continuous
100
AcDbLine
 10
22.483316
 20
171.8860125023387
 30
0.0
 11
22.49542599999999
 21
171.1922395023386
 31
0.0
  0
LINE
  5
9A72
330
99AA
100
AcDbEntity
  8
1
  6
Continuous
100
AcDbLine
 10
22.48331199999998
 20
171.8860205023385
 30
0.0
 11
22.38983699999998
 21
172.1295305023386
 31
0.0
  0
ARC
  5
9A73
330
99AA
100
AcDbEntity
  8
1
  6
Continuous
100
AcDbCircle
 10
22.73101599999998
 20
172.4707105023386
 30
0.0
 40
1.3
100
AcDbArc
 50
79.55891099999998
 51
100.4410939999998
  0
ARC
  5
9A74
330
99AA
100
AcDbEntity
  8
1
  6
Continuous
100
AcDbCircle
 10
22.73101599999998
 20
172.4707105023386
 30
0.0
 40
1.3
100
AcDbArc
 50
259.558906
 51
280.4410889999999
  0
ARC
  5
9A75
330
99AA
100
AcDbEntity
  8
1
  6
Continuous
100
AcDbCircle
 10
17.56129999999998
 20
177.3684465023386
 30
0.0
 40
0.6263380000000001
100
AcDbArc
 50
225.9274979999999
 51
269.9999969999999
  0
ARC
  5
9A76
330
99AA
100
AcDbEntity
  8
1
  6
Continuous
100
AcDbCircle
 10
17.56129999999998
 20
177.3007885023386
 30
0.0
 40
0.6263380000000001
100
AcDbArc
 50
109.349553
 51
134.0725019999999
  0
ARC
  5
9A77
330
99AA
100
AcDbEntity
  8
1
  6
Continuous
100
AcDbCircle
 10
18.369856
 20
177.3346175023385
 30
0.0
 40
0.57924
100
AcDbArc
 50
314.072503
 51
45.9275
  0
ARC
  5
9A78
330
99AA
100
AcDbEntity
  8
1
  6
Continuous
100
AcDbCircle
 10
18.30433399999998
 20
177.3346175023385
 30
0.0
 40
0.57924
100
AcDbArc
 50
134.0725019999999
 51
225.927495
  0
ARC
  5
9A79
330
99AA
100
AcDbEntity
  8
1
  6
Continuous
100
AcDbCircle
 10
18.337095
 20
177.3684465023386
 30
0.0
 40
0.6263380000000001
100
AcDbArc
 50
225.9274979999999
 51
314.072503
  0
ARC
  5
9A7A
330
99AA
100
AcDbEntity
  8
1
  6
Continuous
100
AcDbCircle
 10
18.337095
 20
177.3007885023386
 30
0.0
 40
0.6263380000000001
100
AcDbArc
 50
45.9275
 51
134.0725019999999
  0
ARC
  5
9A7B
330
99AA
100
AcDbEntity
  8
1
  6
Continuous
100
AcDbCircle
 10
17.52853899999999
 20
177.3346175023385
 30
0.0
 40
0.57924
100
AcDbArc
 50
134.0725019999999
 51
225.927495
  0
ARC
  5
9A7C
330
99AA
100
AcDbEntity
  8
1
  6
Continuous
100
AcDbCircle
 10
21.65342499999999
 20
183.2490005023385
 30
0.0
 40
0.222261
100
AcDbArc
 50
90.00000900000001
 51
270.000001
  0
ARC
  5
9A7D
330
99AA
100
AcDbEntity
  8
1
  6
Continuous
100
AcDbCircle
 10
21.43147
 20
182.8042065023386
 30
0.0
 40
1.145318999999998
100
AcDbArc
 50
242.2499979999999
 51
324.4619999999998
  0
ARC
  5
9A7E
330
99AA
100
AcDbEntity
  8
1
  6
Continuous
100
AcDbCircle
 10
21.43147
 20
182.8042065023386
 30
0.0
 40
1.145318999999998
100
AcDbArc
 50
215.5380019999999
 51
225.6990009999999
  0
ARC
  5
9A7F
330
99AA
100
AcDbEntity
  8
1
  6
Continuous
100
AcDbCircle
 10
22.68555999999999
 20
184.5815815023384
 30
0.0
 40
0.222261
100
AcDbArc
 50
269.9999969999999
 51
349.8960009999998
  0
ARC
  5
9A80
330
99AA
100
AcDbEntity
  8
1
  6
Continuous
100
AcDbCircle
 10
17.698103
 20
185.4711685023385
 30
0.0
 40
5.288524999999999
100
AcDbArc
 50
349.8960009999998
 51
352.207003
  0
ARC
  5
9A81
330
99AA
100
AcDbEntity
  8
1
  6
Continuous
100
AcDbCircle
 10
22.89396399999999
 20
184.7593155023385
 30
0.0
 40
0.044452
100
AcDbArc
 50
352.207003
 51
90.00000300000001
  0
ARC
  5
9A82
330
99AA
100
AcDbEntity
  8
1
  6
Continuous
100
AcDbCircle
 10
20.17649599999998
 20
184.5815815023384
 30
0.0
 40
0.222261
100
AcDbArc
 50
190.104003
 51
269.9999969999999
  0
ARC
  5
9A83
330
99AA
100
AcDbEntity
  8
1
  6
Continuous
100
AcDbCircle
 10
19.96807599999999
 20
184.7593155023385
 30
0.0
 40
0.044452
100
AcDbArc
 50
90.00000900000001
 51
187.7929909999999
  0
ARC
  5
9A84
330
99AA
100
AcDbEntity
  8
1
  6
Continuous
100
AcDbCircle
 10
25.16395299999999
 20
185.4711685023385
 30
0.0
 40
5.288524999999999
100
AcDbArc
 50
187.792995
 51
190.104003
  0
ARC
  5
9A85
330
99AA
100
AcDbEntity
  8
1
  6
Continuous
100
AcDbCircle
 10
22.250684
 20
187.6924205023384
 30
0.0
 40
0.222261
100
AcDbArc
 50
26.01439599999999
 51
90.00000300000001
  0
ARC
  5
9A86
330
99AA
100
AcDbEntity
  8
1
  6
Continuous
100
AcDbCircle
 10
17.698103
 20
185.4711685023385
 30
0.0
 40
5.288524999999999
100
AcDbArc
 50
22.94399999999999
 51
26.01439599999999
  0
ARC
  5
9A87
330
99AA
100
AcDbEntity
  8
1
  6
Continuous
100
AcDbCircle
 10
22.52767699999999
 20
187.5146865023386
 30
0.0
 40
0.044452
100
AcDbArc
 50
269.9999969999999
 51
22.94399999999999
  0
ARC
  5
9A88
330
99AA
100
AcDbEntity
  8
1
  6
Continuous
100
AcDbCircle
 10
20.611356
 20
187.6924205023384
 30
0.0
 40
0.222261
100
AcDbArc
 50
90.00000900000001
 51
153.986
  0
ARC
  5
9A89
330
99AA
100
AcDbEntity
  8
1
  6
Continuous
100
AcDbCircle
 10
22.81277199999999
 20
186.6259995023386
 30
0.0
 40
0.044452
100
AcDbArc
 50
269.9999969999999
 51
12.7289
  0
ARC
  5
9A8A
330
99AA
100
AcDbEntity
  8
1
  6
Continuous
100
AcDbCircle
 10
17.698103
 20
185.4711685023385
 30
0.0
 40
5.288524999999999
100
AcDbArc
 50
12.7289
 51
13.26810299999998
  0
ARC
  5
9A8B
330
99AA
100
AcDbEntity
  8
1
  6
Continuous
100
AcDbCircle
 10
17.698103
 20
185.4711685023385
 30
0.0
 40
5.288524999999999
100
AcDbArc
 50
13.26810299999998
 51
15.25749699999999
  0
ARC
  5
9A8C
330
99AA
100
AcDbEntity
  8
1
  6
Continuous
100
AcDbCircle
 10
22.58541599999999
 20
186.8037335023385
 30
0.0
 40
0.222261
100
AcDbArc
 50
15.25749699999999
 51
90.00000300000001
  0
ARC
  5
9A8D
330
99AA
100
AcDbEntity
  8
1
  6
Continuous
100
AcDbCircle
 10
20.27664
 20
186.8037335023385
 30
0.0
 40
0.222261
100
AcDbArc
 50
90.00000900000001
 51
164.7419769999999
  0
ARC
  5
9A8E
330
99AA
100
AcDbEntity
  8
1
  6
Continuous
100
AcDbCircle
 10
25.16395299999999
 20
185.4711685023385
 30
0.0
 40
5.288524999999999
100
AcDbArc
 50
164.7419909999999
 51
164.7939959999999
  0
ARC
  5
9A8F
330
99AA
100
AcDbEntity
  8
1
  6
Continuous
100
AcDbCircle
 10
25.16395299999999
 20
185.4711685023385
 30
0.0
 40
5.288524999999999
100
AcDbArc
 50
164.7939959999999
 51
167.2709909999998
  0
ARC
  5
9A90
330
99AA
100
AcDbEntity
  8
1
  6
Continuous
100
AcDbCircle
 10
20.049284
 20
186.6259995023386
 30
0.0
 40
0.044452
100
AcDbArc
 50
167.2709909999998
 51
270.000001
  0
ARC
  5
9A91
330
99AA
100
AcDbEntity
  8
1
  6
Continuous
100
AcDbCircle
 10
20.335279
 20
187.5146865023386
 30
0.0
 40
0.044452
100
AcDbArc
 50
157.0559929999998
 51
270.000001
  0
ARC
  5
9A92
330
99AA
100
AcDbEntity
  8
1
  6
Continuous
100
AcDbCircle
 10
25.16395299999999
 20
185.4711685023385
 30
0.0
 40
5.288524999999999
100
AcDbArc
 50
153.986
 51
157.0559929999998
  0
ARC
  5
9A93
330
99AA
100
AcDbEntity
  8
1
  6
Continuous
100
AcDbCircle
 10
17.59406099999999
 20
175.6615985023386
 30
0.0
 40
0.57924
100
AcDbArc
 50
314.072503
 51
45.9275
  0
ARC
  5
9A94
330
99AA
100
AcDbEntity
  8
1
  6
Continuous
100
AcDbCircle
 10
17.52853899999999
 20
180.6346205023385
 30
0.0
 40
0.57924
100
AcDbArc
 50
134.0725019999999
 51
225.927495
  0
ARC
  5
9A95
330
99AA
100
AcDbEntity
  8
1
  6
Continuous
100
AcDbCircle
 10
17.56129999999998
 20
180.6684645023386
 30
0.0
 40
0.6263380000000001
100
AcDbArc
 50
225.9274979999999
 51
269.9999969999999
  0
ARC
  5
9A96
330
99AA
100
AcDbEntity
  8
1
  6
Continuous
100
AcDbCircle
 10
17.56129999999998
 20
180.6007765023386
 30
0.0
 40
0.6263380000000001
100
AcDbArc
 50
109.349553
 51
134.0725019999999
  0
ARC
  5
9A97
330
99AA
100
AcDbEntity
  8
1
  6
Continuous
100
AcDbCircle
 10
18.369856
 20
180.6346205023385
 30
0.0
 40
0.57924
100
AcDbArc
 50
314.072503
 51
45.9275
  0
ARC
  5
9A98
330
99AA
100
AcDbEntity
  8
1
  6
Continuous
100
AcDbCircle
 10
18.30433399999998
 20
180.6346205023385
 30
0.0
 40
0.57924
100
AcDbArc
 50
134.0725019999999
 51
225.927495
  0
ARC
  5
9A99
330
99AA
100
AcDbEntity
  8
1
  6
Continuous
100
AcDbCircle
 10
18.337095
 20
180.6684645023386
 30
0.0
 40
0.6263380000000001
100
AcDbArc
 50
225.9274979999999
 51
314.072503
  0
ARC
  5
9A9A
330
99AA
100
AcDbEntity
  8
1
  6
Continuous
100
AcDbCircle
 10
18.337095
 20
180.6007765023386
 30
0.0
 40
0.6263380000000001
100
AcDbArc
 50
45.9275
 51
134.0725019999999
  0
ARC
  5
9A9B
330
99AA
100
AcDbEntity
  8
1
  6
Continuous
100
AcDbCircle
 10
17.52853899999999
 20
175.6615985023386
 30
0.0
 40
0.57924
100
AcDbArc
 50
134.0725019999999
 51
225.927495
  0
ARC
  5
9A9C
330
99AA
100
AcDbEntity
  8
1
  6
Continuous
100
AcDbCircle
 10
17.56129999999998
 20
175.6954425023385
 30
0.0
 40
0.6263380000000001
100
AcDbArc
 50
225.9274979999999
 51
314.072503
  0
ARC
  5
9A9D
330
99AA
100
AcDbEntity
  8
1
  6
Continuous
100
AcDbCircle
 10
17.56129999999998
 20
175.6277545023386
 30
0.0
 40
0.6263380000000001
100
AcDbArc
 50
45.9275
 51
134.0725019999999
  0
ARC
  5
9A9E
330
99AA
100
AcDbEntity
  8
1
  6
Continuous
100
AcDbCircle
 10
18.369856
 20
175.6615985023386
 30
0.0
 40
0.57924
100
AcDbArc
 50
314.072503
 51
45.9275
  0
ARC
  5
9A9F
330
99AA
100
AcDbEntity
  8
1
  6
Continuous
100
AcDbCircle
 10
18.337095
 20
175.6954425023385
 30
0.0
 40
0.6263380000000001
100
AcDbArc
 50
231.7342109999999
 51
314.072503
  0
ARC
  5
9AA0
330
99AA
100
AcDbEntity
  8
1
  6
Continuous
100
AcDbCircle
 10
18.337095
 20
175.6277545023386
 30
0.0
 40
0.6263380000000001
100
AcDbArc
 50
45.9275
 51
128.2657889999998
  0
ARC
  5
9AA1
330
99AA
100
AcDbEntity
  8
1
  6
Continuous
100
AcDbCircle
 10
18.36002099999999
 20
172.2065815023386
 30
0.0
 40
0.57924
100
AcDbArc
 50
314.072503
 51
45.9275
  0
ARC
  5
9AA2
330
99AA
100
AcDbEntity
  8
1
  6
Continuous
100
AcDbCircle
 10
18.32726099999999
 20
172.2404255023385
 30
0.0
 40
0.6263380000000001
100
AcDbArc
 50
289.580716
 51
314.072503
  0
ARC
  5
9AA3
330
99AA
100
AcDbEntity
  8
1
  6
Continuous
100
AcDbCircle
 10
18.32726099999999
 20
172.1727375023386
 30
0.0
 40
0.6263380000000001
100
AcDbArc
 50
45.9275
 51
90.00000300000001
  0
ARC
  5
9AA4
330
99AA
100
AcDbEntity
  8
1
  6
Continuous
100
AcDbCircle
 10
17.584226
 20
172.2065815023386
 30
0.0
 40
0.57924
100
AcDbArc
 50
314.072503
 51
45.9275
  0
ARC
  5
9AA5
330
99AA
100
AcDbEntity
  8
1
  6
Continuous
100
AcDbCircle
 10
17.51870499999998
 20
172.2065815023386
 30
0.0
 40
0.57924
100
AcDbArc
 50
134.0725019999999
 51
225.927495
  0
ARC
  5
9AA6
330
99AA
100
AcDbEntity
  8
1
  6
Continuous
100
AcDbCircle
 10
17.551466
 20
172.2404255023385
 30
0.0
 40
0.6263380000000001
100
AcDbArc
 50
225.9274979999999
 51
314.072503
  0
ARC
  5
9AA7
330
99AA
100
AcDbEntity
  8
1
  6
Continuous
100
AcDbCircle
 10
17.551466
 20
172.1727375023386
 30
0.0
 40
0.6263380000000001
100
AcDbArc
 50
45.9275
 51
134.0725019999999
  0
ARC
  5
9AA8
330
99AA
100
AcDbEntity
  8
1
  6
Continuous
100
AcDbCircle
 10
17.57422399999998
 20
173.7895735023386
 30
0.0
 40
0.57924
100
AcDbArc
 50
314.072503
 51
45.9275
  0
ARC
  5
9AA9
330
99AA
100
AcDbEntity
  8
1
  6
Continuous
100
AcDbCircle
 10
17.50870299999999
 20
173.7895735023386
 30
0.0
 40
0.57924
100
AcDbArc
 50
115.596977
 51
225.927495
  0
ARC
  5
9AAA
330
99AA
100
AcDbEntity
  8
1
  6
Continuous
100
AcDbCircle
 10
17.54146299999999
 20
173.8234025023386
 30
0.0
 40
0.6263380000000001
100
AcDbArc
 50
225.9274979999999
 51
314.072503
  0
ARC
  5
9AAB
330
99AA
100
AcDbEntity
  8
1
  6
Continuous
100
AcDbCircle
 10
17.54146299999999
 20
173.7557445023386
 30
0.0
 40
0.6263380000000001
100
AcDbArc
 50
45.9275
 51
66.95107800000001
  0
ARC
  5
9AAC
330
99AA
100
AcDbEntity
  8
1
  6
Continuous
100
AcDbCircle
 10
21.87103
 20
179.2552565023386
 30
0.0
 40
0.4400000000000003
100
AcDbArc
 50
179.9999909999999
 51
0.00001
  0
CIRCLE
  5
9AAD
330
99AA
100
AcDbEntity
  8
1
  6
Continuous
100
AcDbCircle
 10
22.73101599999998
 20
172.4707105023386
 30
0.0
 40
2.25
  0
LINE
  5
9AAE
330
99AA
100
AcDbEntity
  8
1
  6
Continuous
100
AcDbLine
 10
18.337095
 20
176.7421185023386
 30
0.0
 11
17.56129999999998
 21
176.7421185023386
 31
0.0
  0
LINE
  5
9AAF
330
99AA
100
AcDbEntity
  8
1
  6
Continuous
100
AcDbLine
 10
21.96468899999999
 20
184.3596265023386
 30
0.0
 11
22.68555999999999
 21
184.3596265023386
 31
0.0
  0
LINE
  5
9AB0
330
99AA
100
AcDbEntity
  8
1
  6
Continuous
100
AcDbLine
 10
21.43147
 20
184.3596265023386
 30
0.0
 11
21.43147
 21
184.5815815023384
 31
0.0
  0
LINE
  5
9AB1
330
99AA
100
AcDbEntity
  8
1
  6
Continuous
100
AcDbLine
 10
22.682844
 20
183.4709545023386
 30
0.0
 11
21.65342499999999
 21
183.4709545023386
 31
0.0
  0
LINE
  5
9AB2
330
99AA
100
AcDbEntity
  8
1
  6
Continuous
100
AcDbLine
 10
21.65342499999999
 20
183.0261615023386
 30
0.0
 11
22.602552
 21
183.0261615023386
 31
0.0
  0
LINE
  5
9AB3
330
99AA
100
AcDbEntity
  8
1
  6
Continuous
100
AcDbLine
 10
21.43147
 20
183.2490005023385
 30
0.0
 11
20.365049
 21
183.2490005023385
 31
0.0
  0
LINE
  5
9AB4
330
99AA
100
AcDbEntity
  8
1
  6
Continuous
100
AcDbLine
 10
20.59964099999999
 20
182.8005905023386
 30
0.0
 11
22.47263499999999
 21
182.2980575023384
 31
0.0
  0
LINE
  5
9AB5
330
99AA
100
AcDbEntity
  8
1
  6
Continuous
100
AcDbLine
 10
21.43147
 20
181.6592945023385
 30
0.0
 11
21.43147
 21
182.5777515023386
 31
0.0
  0
LINE
  5
9AB6
330
99AA
100
AcDbEntity
  8
1
  6
Continuous
100
AcDbLine
 10
22.98148899999999
 20
185.2483135023386
 30
0.0
 11
19.88056699999999
 21
185.2483135023386
 31
0.0
  0
LINE
  5
9AB7
330
99AA
100
AcDbEntity
  8
1
  6
Continuous
100
AcDbLine
 10
22.89396399999999
 20
184.8044205023384
 30
0.0
 11
19.96807599999999
 21
184.8044205023384
 31
0.0
  0
LINE
  5
9AB8
330
99AA
100
AcDbEntity
  8
1
  6
Continuous
100
AcDbLine
 10
20.17649599999998
 20
184.3596265023386
 30
0.0
 11
21.43147
 21
184.3596265023386
 31
0.0
  0
LINE
  5
9AB9
330
99AA
100
AcDbEntity
  8
1
  6
Continuous
100
AcDbLine
 10
22.892164
 20
183.9157485023386
 30
0.0
 11
20.10972399999998
 21
183.9157485023386
 31
0.0
  0
LINE
  5
9ABA
330
99AA
100
AcDbEntity
  8
1
  6
Continuous
100
AcDbLine
 10
22.650373
 20
188.3591535023384
 30
0.0
 11
20.734068
 21
188.3591535023384
 31
0.0
  0
LINE
  5
9ABB
330
99AA
100
AcDbEntity
  8
1
  6
Continuous
100
AcDbLine
 10
20.611356
 20
187.9152605023386
 30
0.0
 11
22.250684
 21
187.9152605023386
 31
0.0
  0
LINE
  5
9ABC
330
99AA
100
AcDbEntity
  8
1
  6
Continuous
100
AcDbLine
 10
22.52767699999999
 20
187.4704665023385
 30
0.0
 11
20.335279
 21
187.4704665023385
 31
0.0
  0
LINE
  5
9ABD
330
99AA
100
AcDbEntity
  8
1
  6
Continuous
100
AcDbLine
 10
21.96468899999999
 20
186.5817945023387
 30
0.0
 11
22.81277199999999
 21
186.5817945023387
 31
0.0
  0
LINE
  5
9ABE
330
99AA
100
AcDbEntity
  8
1
  6
Continuous
100
AcDbLine
 10
21.43147
 20
185.6931075023386
 30
0.0
 11
21.43147
 21
186.1370005023386
 31
0.0
  0
LINE
  5
9ABF
330
99AA
100
AcDbEntity
  8
1
  6
Continuous
100
AcDbLine
 10
22.58541599999999
 20
187.0265885023386
 30
0.0
 11
20.27664
 21
187.0265885023386
 31
0.0
  0
LINE
  5
9AC0
330
99AA
100
AcDbEntity
  8
1
  6
Continuous
100
AcDbLine
 10
20.049284
 20
186.5817945023387
 30
0.0
 11
20.898267
 21
186.5817945023387
 31
0.0
  0
LINE
  5
9AC1
330
99AA
100
AcDbEntity
  8
1
  6
Continuous
100
AcDbLine
 10
22.94450199999998
 20
186.1370005023386
 30
0.0
 11
19.91755399999999
 21
186.1370005023386
 31
0.0
  0
LINE
  5
9AC2
330
99AA
100
AcDbEntity
  8
1
  6
Continuous
100
AcDbLine
 10
22.98148899999999
 20
185.6931075023386
 30
0.0
 11
19.88056699999999
 21
185.6931075023386
 31
0.0
  0
LINE
  5
9AC3
330
99AA
100
AcDbEntity
  8
1
  6
Continuous
100
AcDbLine
 10
18.337095
 20
180.0421215023385
 30
0.0
 11
17.56129999999998
 21
180.0421215023385
 31
0.0
  0
LINE
  5
9AC4
330
99AA
100
AcDbEntity
  8
1
  6
Continuous
100
AcDbLine
 10
18.94086199999999
 20
179.5952835023386
 30
0.0
 11
18.94086199999999
 21
178.3783645023385
 31
0.0
  0
LINE
  5
9AC5
330
99AA
100
AcDbEntity
  8
1
  6
Continuous
100
AcDbLine
 10
16.94086199999999
 20
178.9678115023386
 30
0.0
 11
18.94086199999999
 21
178.3783645023385
 31
0.0
  0
LINE
  5
9AC6
330
99AA
100
AcDbEntity
  8
1
  6
Continuous
100
AcDbLine
 10
18.94086199999999
 20
179.5952835023386
 30
0.0
 11
18.48418999999999
 21
179.5952835023386
 31
0.0
  0
LINE
  5
9AC7
330
99AA
100
AcDbEntity
  8
1
  6
Continuous
100
AcDbLine
 10
18.32726099999999
 20
172.7990795023386
 30
0.0
 11
17.551466
 21
172.7990795023386
 31
0.0
  0
LINE
  5
9AC8
330
99AA
100
AcDbEntity
  8
1
  6
Continuous
100
AcDbLine
 10
18.929365
 20
174.3320695023386
 30
0.0
 11
17.786687
 21
174.3320695023386
 31
0.0
  0
LINE
  5
9AC9
330
99AA
100
AcDbEntity
  8
1
  6
Continuous
100
AcDbLine
 10
18.929365
 20
174.3320695023386
 30
0.0
 11
18.929365
 21
173.1460035023386
 31
0.0
  0
LINE
  5
9ACA
330
99AA
100
AcDbEntity
  8
1
  6
Continuous
100
AcDbLine
 10
21.43102799999999
 20
179.9447095023386
 30
0.0
 11
21.43102799999999
 21
179.2552565023386
 31
0.0
  0
LINE
  5
9ACB
330
99AA
100
AcDbEntity
  8
1
  6
Continuous
100
AcDbLine
 10
22.34289699999999
 20
177.9757765023386
 30
0.0
 11
20.544611
 21
178.6739885023386
 31
0.0
  0
LINE
  5
9ACC
330
99AA
100
AcDbEntity
  8
1
  6
Continuous
100
AcDbLine
 10
22.31103299999999
 20
179.9447095023386
 30
0.0
 11
22.31103299999999
 21
179.2681655023385
 31
0.0
  0
LINE
  5
9ACD
330
99AA
100
AcDbEntity
  8
1
  6
Continuous
100
AcDbLine
 10
22.31103299999999
 20
179.9447095023386
 30
0.0
 11
20.551023
 21
179.9447095023386
 31
0.0
  0
LINE
  5
9ACE
330
99AA
100
AcDbEntity
  8
1
  6
Continuous
100
AcDbLine
 10
22.34609799999999
 20
177.9757465023385
 30
0.0
 11
20.54462999999999
 21
177.3093485023386
 31
0.0
  0
LINE
  5
9ACF
330
99AA
100
AcDbEntity
  8
1
  6
Continuous
100
AcDbLine
 10
21.073881
 20
178.4635545023385
 30
0.0
 11
21.073881
 21
177.5038685023385
 31
0.0
  0
LINE
  5
9AD0
330
99AA
100
AcDbEntity
  8
1
  6
Continuous
100
AcDbLine
 10
22.31103299999999
 20
176.6447065023386
 30
0.0
 11
20.551023
 21
176.6447065023386
 31
0.0
  0
LINE
  5
9AD1
330
99AA
100
AcDbEntity
  8
1
  6
Continuous
100
AcDbLine
 10
22.31103299999999
 20
177.3346175023385
 30
0.0
 11
22.31103299999999
 21
175.9486465023385
 31
0.0
  0
LINE
  5
9AD2
330
99AA
100
AcDbEntity
  8
1
  6
Continuous
100
AcDbLine
 10
17.93102799999999
 20
185.1707075023386
 30
0.0
 11
16.43102999999999
 21
185.1707075023386
 31
0.0
  0
LINE
  5
9AD3
330
99AA
100
AcDbEntity
  8
1
  6
Continuous
100
AcDbLine
 10
17.93102799999999
 20
185.1707075023386
 30
0.0
 11
17.93102799999999
 21
183.4707105023386
 31
0.0
  0
LINE
  5
9AD4
330
99AA
100
AcDbEntity
  8
1
  6
Continuous
100
AcDbLine
 10
16.43102999999999
 20
185.1707075023386
 30
0.0
 11
16.43102999999999
 21
183.4707105023386
 31
0.0
  0
LINE
  5
9AD5
330
99AA
100
AcDbEntity
  8
1
  6
Continuous
100
AcDbLine
 10
17.93102799999999
 20
183.4707105023386
 30
0.0
 11
16.43102999999999
 21
183.4707105023386
 31
0.0
  0
LINE
  5
9AD6
330
99AA
100
AcDbEntity
  8
4
  6
CENTER
100
AcDbLine
 10
26.98101599999998
 20
172.4707105023386
 30
0.0
 11
18.48101599999999
 21
172.4707105023386
 31
0.0
  0
LINE
  5
9AD7
330
99AA
100
AcDbEntity
  8
4
  6
CENTER
100
AcDbLine
 10
22.73101599999998
 20
176.7207105023386
 30
0.0
 11
22.73101599999998
 21
168.2207105023386
 31
0.0
  0
LINE
  5
9AD8
330
99AA
100
AcDbEntity
  8
1
  6
Continuous
100
AcDbLine
 10
25.43102799999999
 20
196.4707105023386
 30
0.0
 11
14.93102999999999
 21
196.4707105023386
 31
0.0
  0
ARC
  5
9AD9
330
99AA
100
AcDbEntity
  8
1
  6
Continuous
100
AcDbCircle
 10
22.73101599999998
 20
192.4707105023386
 30
0.0
 40
1.3
100
AcDbArc
 50
349.5589079999998
 51
10.441092
  0
LINE
  5
9ADA
330
99AA
100
AcDbEntity
  8
1
  6
Continuous
100
AcDbLine
 10
23.31571199999999
 20
192.2230055023386
 30
0.0
 11
23.07219499999999
 21
192.1295275023386
 31
0.0
  0
LINE
  5
9ADB
330
99AA
100
AcDbEntity
  8
1
  6
Continuous
100
AcDbLine
 10
23.31570799999998
 20
192.7184165023385
 30
0.0
 11
23.07219799999998
 21
192.8118905023385
 31
0.0
  0
LINE
  5
9ADC
330
99AA
100
AcDbEntity
  8
1
  6
Continuous
100
AcDbLine
 10
22.97871499999999
 20
193.0554045023386
 30
0.0
 11
22.96660399999999
 21
193.7491925023386
 31
0.0
  0
LINE
  5
9ADD
330
99AA
100
AcDbEntity
  8
1
  6
Continuous
100
AcDbLine
 10
22.978713
 20
193.0554115023386
 30
0.0
 11
23.07219299999999
 21
192.8118885023387
 31
0.0
  0
LINE
  5
9ADE
330
99AA
100
AcDbEntity
  8
1
  6
Continuous
100
AcDbLine
 10
23.31571099999999
 20
192.2230095023386
 30
0.0
 11
24.009491
 21
192.2351195023385
 31
0.0
  0
LINE
  5
9ADF
330
99AA
100
AcDbEntity
  8
1
  6
Continuous
100
AcDbLine
 10
23.31571099999999
 20
192.7184195023385
 30
0.0
 11
24.009491
 21
192.7063095023386
 31
0.0
  0
LINE
  5
9AE0
330
99AA
100
AcDbEntity
  8
1
  6
Continuous
100
AcDbLine
 10
22.97871399999999
 20
191.8860095023385
 30
0.0
 11
22.96660399999999
 21
191.1922365023387
 31
0.0
  0
LINE
  5
9AE1
330
99AA
100
AcDbEntity
  8
1
  6
Continuous
100
AcDbLine
 10
22.978722
 20
191.8860125023386
 30
0.0
 11
23.07219899999998
 21
192.1295285023385
 31
0.0
  0
LINE
  5
9AE2
330
99AA
100
AcDbEntity
  8
1
  6
Continuous
100
AcDbLine
 10
22.483314
 20
193.0554065023386
 30
0.0
 11
22.38983699999998
 21
192.8118895023385
 31
0.0
  0
LINE
  5
9AE3
330
99AA
100
AcDbEntity
  8
1
  6
Continuous
100
AcDbLine
 10
22.483315
 20
193.0554015023385
 30
0.0
 11
22.49542599999999
 21
193.7491885023386
 31
0.0
  0
LINE
  5
9AE4
330
99AA
100
AcDbEntity
  8
1
  6
Continuous
100
AcDbLine
 10
22.14631699999998
 20
192.2230155023385
 30
0.0
 11
22.38983999999999
 21
192.1295355023386
 31
0.0
  0
LINE
  5
9AE5
330
99AA
100
AcDbEntity
  8
1
  6
Continuous
100
AcDbLine
 10
22.146318
 20
192.7184135023385
 30
0.0
 11
22.38983399999999
 21
192.8118905023385
 31
0.0
  0
ARC
  5
9AE6
330
99AA
100
AcDbEntity
  8
1
  6
Continuous
100
AcDbCircle
 10
22.73101599999998
 20
192.4707105023386
 30
0.0
 40
1.3
100
AcDbArc
 50
169.5589129999999
 51
190.4410969999999
  0
LINE
  5
9AE7
330
99AA
100
AcDbEntity
  8
1
  6
Continuous
100
AcDbLine
 10
22.146319
 20
192.2230055023386
 30
0.0
 11
21.452538
 21
192.2351155023385
 31
0.0
  0
LINE
  5
9AE8
330
99AA
100
AcDbEntity
  8
1
  6
Continuous
100
AcDbLine
 10
22.146319
 20
192.7184075023386
 30
0.0
 11
21.452539
 21
192.7062975023386
 31
0.0
  0
LINE
  5
9AE9
330
99AA
100
AcDbEntity
  8
1
  6
Continuous
100
AcDbLine
 10
22.483316
 20
191.8860125023386
 30
0.0
 11
22.49542599999999
 21
191.1922395023386
 31
0.0
  0
LINE
  5
9AEA
330
99AA
100
AcDbEntity
  8
1
  6
Continuous
100
AcDbLine
 10
22.48331199999998
 20
191.8860205023386
 30
0.0
 11
22.38983699999998
 21
192.1295305023385
 31
0.0
  0
ARC
  5
9AEB
330
99AA
100
AcDbEntity
  8
1
  6
Continuous
100
AcDbCircle
 10
22.73101599999998
 20
192.4707105023386
 30
0.0
 40
1.3
100
AcDbArc
 50
79.55891099999998
 51
100.4410939999998
  0
ARC
  5
9AEC
330
99AA
100
AcDbEntity
  8
1
  6
Continuous
100
AcDbCircle
 10
22.73101599999998
 20
192.4707105023386
 30
0.0
 40
1.3
100
AcDbArc
 50
259.558906
 51
280.4410889999999
  0
ARC
  5
9AED
330
99AA
100
AcDbEntity
  8
1
  6
Continuous
100
AcDbCircle
 10
21.43147
 20
188.1372145023386
 30
0.0
 40
1.145318999999998
100
AcDbArc
 50
35.537703
 51
76.53739899999997
  0
ARC
  5
9AEE
330
99AA
100
AcDbEntity
  8
1
  6
Continuous
100
AcDbCircle
 10
21.43147
 20
188.1372145023386
 30
0.0
 40
1.145318999999998
100
AcDbArc
 50
90.00000900000001
 51
144.4620119999999
  0
CIRCLE
  5
9AEF
330
99AA
100
AcDbEntity
  8
1
  6
Continuous
100
AcDbCircle
 10
22.73101599999998
 20
192.4707105023386
 30
0.0
 40
2.25
  0
LINE
  5
9AF0
330
99AA
100
AcDbEntity
  8
4
  6
CENTER
100
AcDbLine
 10
26.98101599999998
 20
192.4707105023386
 30
0.0
 11
18.48101599999999
 21
192.4707105023386
 31
0.0
  0
LINE
  5
9AF1
330
99AA
100
AcDbEntity
  8
1
  6
Continuous
100
AcDbLine
 10
19.431024
 20
200.4706955023386
 30
0.0
 11
16.23102699999998
 21
196.4707105023386
 31
0.0
  0
LINE
  5
9AF2
330
99AA
100
AcDbEntity
  8
1
  6
Continuous
100
AcDbLine
 10
20.43102799999999
 20
200.4707105023386
 30
0.0
 11
20.43102799999999
 21
196.4707105023386
 31
0.0
  0
LINE
  5
9AF3
330
99AA
100
AcDbEntity
  8
1
  6
Continuous
100
AcDbLine
 10
20.43102799999999
 20
200.4707105023386
 30
0.0
 11
19.43102799999999
 21
200.4707105023386
 31
0.0
  0
LINE
  5
9AF4
330
99AA
100
AcDbEntity
  8
4
  6
CENTER
100
AcDbLine
 10
77.75031099999998
 20
184.4706955023386
 30
0.0
 11
95.75031100000002
 21
184.4706955023386
 31
0.0
  0
LINE
  5
9AF5
330
99AA
100
AcDbEntity
  8
1
  6
Continuous
100
AcDbLine
 10
87.15035300000002
 20
190.4706955023386
 30
0.0
 11
87.15035300000002
 21
178.4706955023386
 31
0.0
  0
LINE
  5
9AF6
330
99AA
100
AcDbEntity
  8
1
  6
Continuous
100
AcDbLine
 10
90.75034100000001
 20
189.4706955023386
 30
0.0
 11
90.75034100000001
 21
179.4706955023386
 31
0.0
  0
LINE
  5
9AF7
330
99AA
100
AcDbEntity
  8
1
  6
Continuous
100
AcDbLine
 10
87.75034099999997
 20
190.4706955023386
 30
0.0
 11
87.75034099999997
 21
178.4706955023386
 31
0.0
  0
LINE
  5
9AF8
330
99AA
100
AcDbEntity
  8
1
  6
Continuous
100
AcDbLine
 10
88.25034099999998
 20
190.4706955023386
 30
0.0
 11
88.25034099999998
 21
178.4706955023386
 31
0.0
  0
LINE
  5
9AF9
330
99AA
100
AcDbEntity
  8
1
  6
Continuous
100
AcDbLine
 10
89.750341
 20
178.4706955023386
 30
0.0
 11
89.750341
 21
190.4706955023386
 31
0.0
  0
LINE
  5
9AFA
330
99AA
100
AcDbEntity
  8
1
  6
Continuous
100
AcDbLine
 10
83.75034099999998
 20
188.4706955023386
 30
0.0
 11
87.15032299999998
 21
188.4706955023386
 31
0.0
  0
LINE
  5
9AFB
330
99AA
100
AcDbEntity
  8
1
  6
Continuous
100
AcDbLine
 10
83.75034099999998
 20
188.4706955023386
 30
0.0
 11
82.75034099999997
 21
187.4706955023386
 31
0.0
  0
LINE
  5
9AFC
330
99AA
100
AcDbEntity
  8
1
  6
Continuous
100
AcDbLine
 10
82.75034099999997
 20
187.4706955023386
 30
0.0
 11
82.75034099999997
 21
181.4706955023386
 31
0.0
  0
LINE
  5
9AFD
330
99AA
100
AcDbEntity
  8
1
  6
Continuous
100
AcDbLine
 10
83.75034099999998
 20
180.4706955023386
 30
0.0
 11
87.15032299999998
 21
180.4706955023386
 31
0.0
  0
LINE
  5
9AFE
330
99AA
100
AcDbEntity
  8
1
  6
Continuous
100
AcDbLine
 10
82.75034099999997
 20
181.4706955023386
 30
0.0
 11
83.75034099999998
 21
180.4706955023386
 31
0.0
  0
LINE
  5
9AFF
330
99AA
100
AcDbEntity
  8
2
  6
Continuous
100
AcDbLine
 10
83.34433500000001
 20
188.0646895023386
 30
0.0
 11
87.15032299999998
 21
188.0646895023386
 31
0.0
  0
LINE
  5
9B00
330
99AA
100
AcDbEntity
  8
2
  6
Continuous
100
AcDbLine
 10
83.34433500000001
 20
180.8767015023386
 30
0.0
 11
87.15032299999998
 21
180.8767015023386
 31
0.0
  0
LINE
  5
9B01
330
99AA
100
AcDbEntity
  8
1
  6
Continuous
100
AcDbLine
 10
83.75034099999998
 20
188.4706955023386
 30
0.0
 11
83.75034099999998
 21
180.4706955023386
 31
0.0
  0
LINE
  5
9B02
330
99AA
100
AcDbEntity
  8
1
  6
Continuous
100
AcDbLine
 10
88.25031099999998
 20
178.4706955023386
 30
0.0
 11
89.75031099999998
 21
178.4706955023386
 31
0.0
  0
LINE
  5
9B03
330
99AA
100
AcDbEntity
  8
1
  6
Continuous
100
AcDbLine
 10
90.75034100000001
 20
179.4707105023386
 30
0.0
 11
89.750341
 21
178.4707105023386
 31
0.0
  0
LINE
  5
9B04
330
99AA
100
AcDbEntity
  8
1
  6
Continuous
100
AcDbLine
 10
87.75031099999997
 20
178.9707105023386
 30
0.0
 11
88.25029499999997
 21
178.4707255023385
 31
0.0
  0
LINE
  5
9B05
330
99AA
100
AcDbEntity
  8
1
  6
Continuous
100
AcDbLine
 10
88.25031099999998
 20
188.0707015023385
 30
0.0
 11
89.75031099999998
 21
188.0707015023385
 31
0.0
  0
LINE
  5
9B06
330
99AA
100
AcDbEntity
  8
1
  6
Continuous
100
AcDbLine
 10
88.25031099999998
 20
187.2706835023386
 30
0.0
 11
89.75031099999998
 21
187.2706835023386
 31
0.0
  0
LINE
  5
9B07
330
99AA
100
AcDbEntity
  8
1
  6
Continuous
100
AcDbLine
 10
88.25031099999998
 20
186.4706955023386
 30
0.0
 11
89.75031099999998
 21
186.4706955023386
 31
0.0
  0
LINE
  5
9B08
330
99AA
100
AcDbEntity
  8
1
  6
Continuous
100
AcDbLine
 10
88.25031099999998
 20
185.6706775023386
 30
0.0
 11
89.75031099999998
 21
185.6706775023386
 31
0.0
  0
LINE
  5
9B09
330
99AA
100
AcDbEntity
  8
1
  6
Continuous
100
AcDbLine
 10
88.25031099999998
 20
184.8706895023385
 30
0.0
 11
89.75031099999998
 21
184.8706895023385
 31
0.0
  0
LINE
  5
9B0A
330
99AA
100
AcDbEntity
  8
1
  6
Continuous
100
AcDbLine
 10
88.25031099999998
 20
184.0707015023385
 30
0.0
 11
89.75031099999998
 21
184.0707015023385
 31
0.0
  0
LINE
  5
9B0B
330
99AA
100
AcDbEntity
  8
1
  6
Continuous
100
AcDbLine
 10
88.25031099999998
 20
183.2706835023386
 30
0.0
 11
89.75031099999998
 21
183.2706835023386
 31
0.0
  0
LINE
  5
9B0C
330
99AA
100
AcDbEntity
  8
1
  6
Continuous
100
AcDbLine
 10
88.25031099999998
 20
182.4706955023387
 30
0.0
 11
89.75031099999998
 21
182.4706955023387
 31
0.0
  0
LINE
  5
9B0D
330
99AA
100
AcDbEntity
  8
1
  6
Continuous
100
AcDbLine
 10
88.25031099999998
 20
181.6706775023386
 30
0.0
 11
89.75031099999998
 21
181.6706775023386
 31
0.0
  0
LINE
  5
9B0E
330
99AA
100
AcDbEntity
  8
1
  6
Continuous
100
AcDbLine
 10
88.25031099999998
 20
180.8706895023386
 30
0.0
 11
89.75031099999998
 21
180.8706895023386
 31
0.0
  0
LINE
  5
9B0F
330
99AA
100
AcDbEntity
  8
1
  6
Continuous
100
AcDbLine
 10
88.25031099999998
 20
180.0707015023385
 30
0.0
 11
89.75031099999998
 21
180.0707015023385
 31
0.0
  0
LINE
  5
9B10
330
99AA
100
AcDbEntity
  8
1
  6
Continuous
100
AcDbLine
 10
88.25031099999998
 20
179.2706835023386
 30
0.0
 11
89.75031099999998
 21
179.2706835023386
 31
0.0
  0
LINE
  5
9B11
330
99AA
100
AcDbEntity
  8
1
  6
Continuous
100
AcDbLine
 10
87.15032299999998
 20
178.4706955023386
 30
0.0
 11
87.75031099999997
 21
178.4706955023386
 31
0.0
  0
LINE
  5
9B12
330
99AA
100
AcDbEntity
  8
1
  6
Continuous
100
AcDbLine
 10
88.25031099999998
 20
190.4706955023386
 30
0.0
 11
89.75031099999998
 21
190.4706955023386
 31
0.0
  0
LINE
  5
9B13
330
99AA
100
AcDbEntity
  8
1
  6
Continuous
100
AcDbLine
 10
90.75029499999999
 20
189.4707105023385
 30
0.0
 11
89.75029499999997
 21
190.4707105023386
 31
0.0
  0
LINE
  5
9B14
330
99AA
100
AcDbEntity
  8
1
  6
Continuous
100
AcDbLine
 10
87.75034099999997
 20
189.9707415023384
 30
0.0
 11
88.250326
 21
190.4707255023386
 31
0.0
  0
LINE
  5
9B15
330
99AA
100
AcDbEntity
  8
1
  6
Continuous
100
AcDbLine
 10
88.25031099999998
 20
189.6706775023386
 30
0.0
 11
89.75031099999998
 21
189.6706775023386
 31
0.0
  0
LINE
  5
9B16
330
99AA
100
AcDbEntity
  8
1
  6
Continuous
100
AcDbLine
 10
88.25031099999998
 20
188.8706895023385
 30
0.0
 11
89.75031099999998
 21
188.8706895023385
 31
0.0
  0
LINE
  5
9B17
330
99AA
100
AcDbEntity
  8
1
  6
Continuous
100
AcDbLine
 10
87.15032299999998
 20
190.4706955023386
 30
0.0
 11
87.75031099999997
 21
190.4706955023386
 31
0.0
  0
LINE
  5
9B18
330
99AA
100
AcDbEntity
  8
4
  6
CENTER
100
AcDbLine
 10
155.4310199999999
 20
205.4707105023386
 30
0.0
 11
155.4310199999999
 21
163.4707105023386
 31
0.0
  0
CIRCLE
  5
9B19
330
99AA
100
AcDbEntity
  8
1
  6
Continuous
100
AcDbCircle
 10
155.4310199999999
 20
184.4707105023385
 30
0.0
 40
5.0
  0
CIRCLE
  5
9B1A
330
99AA
100
AcDbEntity
  8
1
  6
Continuous
100
AcDbCircle
 10
155.4310199999999
 20
184.4707105023385
 30
0.0
 40
6.0
  0
LINE
  5
9B1B
330
99AA
100
AcDbEntity
  8
4
  6
CENTER
100
AcDbLine
 10
158.43102
 20
172.4707105023386
 30
0.0
 11
164.9310199999999
 21
172.4707105023386
 31
0.0
  0
LINE
  5
9B1C
330
99AA
100
AcDbEntity
  8
4
  6
CENTER
100
AcDbLine
 10
145.93102
 20
192.4707105023386
 30
0.0
 11
164.9310199999999
 21
192.4707105023386
 31
0.0
  0
LINE
  5
9B1D
330
99AA
100
AcDbEntity
  8
1
  6
Continuous
100
AcDbLine
 10
160.3310199999999
 20
200.4707105023386
 30
0.0
 11
150.5310199999998
 21
200.4707105023386
 31
0.0
  0
LINE
  5
9B1E
330
99AA
100
AcDbEntity
  8
1
  6
Continuous
100
AcDbLine
 10
161.031026
 20
168.4707105023386
 30
0.0
 11
149.8310299999999
 21
168.4707105023386
 31
0.0
  0
LINE
  5
9B1F
330
99AA
100
AcDbEntity
  8
1
  6
Continuous
100
AcDbLine
 10
161.031026
 20
196.4707105023386
 30
0.0
 11
149.8310299999999
 21
196.4707105023386
 31
0.0
  0
LINE
  5
9B20
330
99AA
100
AcDbEntity
  8
4
  6
CENTER
100
AcDbLine
 10
165.4310199999999
 20
184.4707105023385
 30
0.0
 11
145.4310199999999
 21
184.4707105023385
 31
0.0
  0
LINE
  5
9B21
330
99AA
100
AcDbEntity
  8
1
  6
Continuous
100
AcDbLine
 10
150.4310199999999
 20
196.4707105023386
 30
0.0
 11
150.4310199999999
 21
187.7873305023386
 31
0.0
  0
LINE
  5
9B22
330
99AA
100
AcDbEntity
  8
1
  6
Continuous
100
AcDbLine
 10
149.8310299999999
 20
196.4707105023386
 30
0.0
 11
149.8310299999999
 21
186.6247785023386
 31
0.0
  0
CIRCLE
  5
9B23
330
99AA
100
AcDbEntity
  8
1
  6
Continuous
100
AcDbCircle
 10
155.4310199999999
 20
184.4707105023385
 30
0.0
 40
3.1
  0
CIRCLE
  5
9B24
330
99AA
100
AcDbEntity
  8
1
  6
Continuous
100
AcDbCircle
 10
155.4310199999999
 20
184.4707105023385
 30
0.0
 40
4.099999999999997
  0
ARC
  5
9B25
330
99AA
100
AcDbEntity
  8
1
  6
Continuous
100
AcDbCircle
 10
149.1372889999998
 20
171.0206985023386
 30
0.0
 40
0.8
100
AcDbArc
 50
196.191355
 51
269.9999969999999
  0
ARC
  5
9B26
330
99AA
100
AcDbEntity
  8
1
  6
Continuous
100
AcDbCircle
 10
154.1310329999998
 20
172.4707105023386
 30
0.0
 40
6.0
100
AcDbArc
 50
163.808645
 51
196.191351
  0
ARC
  5
9B27
330
99AA
100
AcDbEntity
  8
1
  6
Continuous
100
AcDbCircle
 10
149.1372889999998
 20
173.9206925023386
 30
0.0
 40
0.8
100
AcDbArc
 50
90.00000300000001
 51
163.808645
  0
CIRCLE
  5
9B28
330
99AA
100
AcDbEntity
  8
1
  6
Continuous
100
AcDbCircle
 10
155.4310199999999
 20
174.4707105023386
 30
0.0
 40
1.056499999999998
  0
CIRCLE
  5
9B29
330
99AA
100
AcDbEntity
  8
2
  6
Continuous
100
AcDbCircle
 10
155.4310199999999
 20
174.4707105023386
 30
0.0
 40
1.3
  0
LINE
  5
9B2A
330
99AA
100
AcDbEntity
  8
1
  6
Continuous
100
AcDbLine
 10
149.8310299999999
 20
182.3166275023386
 30
0.0
 11
149.8310299999999
 21
168.4707105023386
 31
0.0
  0
LINE
  5
9B2B
330
99AA
100
AcDbEntity
  8
1
  6
Continuous
100
AcDbLine
 10
150.4310199999999
 20
181.1540755023386
 30
0.0
 11
150.4310199999999
 21
168.4707105023386
 31
0.0
  0
LINE
  5
9B2C
330
99AA
100
AcDbEntity
  8
1
  6
Continuous
100
AcDbLine
 10
149.1372889999998
 20
170.2207105023386
 30
0.0
 11
149.8310139999999
 21
170.2207105023386
 31
0.0
  0
LINE
  5
9B2D
330
99AA
100
AcDbEntity
  8
1
  6
Continuous
100
AcDbLine
 10
149.1372889999998
 20
174.7207105023386
 30
0.0
 11
149.8310139999999
 21
174.7207105023386
 31
0.0
  0
LINE
  5
9B2E
330
99AA
100
AcDbEntity
  8
1
  6
Continuous
100
AcDbLine
 10
158.5310199999999
 20
184.4707105023385
 30
0.0
 11
152.33102
 21
184.4707105023385
 31
0.0
  0
LINE
  5
9B2F
330
99AA
100
AcDbEntity
  8
1
  6
Continuous
100
AcDbLine
 10
158.3652999999999
 20
185.4707105023384
 30
0.0
 11
152.4967399999999
 21
185.4707105023384
 31
0.0
  0
LINE
  5
9B30
330
99AA
100
AcDbEntity
  8
4
  6
CENTER
100
AcDbLine
 10
145.93102
 20
172.4707105023386
 30
0.0
 11
152.4310199999999
 21
172.4707105023386
 31
0.0
  0
LINE
  5
9B31
330
99AA
100
AcDbEntity
  8
4
  6
CENTER
100
AcDbLine
 10
158.7310389999998
 20
174.4707105023386
 30
0.0
 11
152.131033
 21
174.4707105023386
 31
0.0
  0
ARC
  5
9B32
330
99AA
100
AcDbEntity
  8
1
  6
Continuous
100
AcDbCircle
 10
149.1372889999998
 20
191.0207135023386
 30
0.0
 40
0.8
100
AcDbArc
 50
196.191355
 51
269.9999969999999
  0
ARC
  5
9B33
330
99AA
100
AcDbEntity
  8
1
  6
Continuous
100
AcDbCircle
 10
154.1310329999998
 20
192.4707105023386
 30
0.0
 40
6.0
100
AcDbArc
 50
163.808645
 51
196.191351
  0
ARC
  5
9B34
330
99AA
100
AcDbEntity
  8
1
  6
Continuous
100
AcDbCircle
 10
149.1372889999998
 20
193.9207075023386
 30
0.0
 40
0.8
100
AcDbArc
 50
90.00000300000001
 51
163.808645
  0
CIRCLE
  5
9B35
330
99AA
100
AcDbEntity
  8
1
  6
Continuous
100
AcDbCircle
 10
155.4310199999999
 20
192.4707105023386
 30
0.0
 40
1.056499999999998
  0
CIRCLE
  5
9B36
330
99AA
100
AcDbEntity
  8
2
  6
Continuous
100
AcDbCircle
 10
155.4310199999999
 20
192.4707105023386
 30
0.0
 40
1.3
  0
LINE
  5
9B37
330
99AA
100
AcDbEntity
  8
1
  6
Continuous
100
AcDbLine
 10
149.1372889999998
 20
190.2207105023386
 30
0.0
 11
149.8310139999999
 21
190.2207105023386
 31
0.0
  0
LINE
  5
9B38
330
99AA
100
AcDbEntity
  8
1
  6
Continuous
100
AcDbLine
 10
149.1372889999998
 20
194.7207105023386
 30
0.0
 11
149.8310139999999
 21
194.7207105023386
 31
0.0
  0
LINE
  5
9B39
330
99AA
100
AcDbEntity
  8
1
  6
Continuous
100
AcDbLine
 10
150.5310199999998
 20
200.4707105023386
 30
0.0
 11
150.5310199999998
 21
196.4707105023386
 31
0.0
  0
LINE
  5
9B3A
330
99AA
100
AcDbEntity
  8
1
  6
Continuous
100
AcDbLine
 10
160.43102
 20
196.4707105023386
 30
0.0
 11
160.43102
 21
187.7873305023386
 31
0.0
  0
LINE
  5
9B3B
330
99AA
100
AcDbEntity
  8
1
  6
Continuous
100
AcDbLine
 10
161.031026
 20
196.4707105023386
 30
0.0
 11
161.031026
 21
186.6247485023385
 31
0.0
  0
ARC
  5
9B3C
330
99AA
100
AcDbEntity
  8
1
  6
Continuous
100
AcDbCircle
 10
161.724783
 20
171.0206985023386
 30
0.0
 40
0.8
100
AcDbArc
 50
269.9999969999999
 51
343.8086489999998
  0
ARC
  5
9B3D
330
99AA
100
AcDbEntity
  8
1
  6
Continuous
100
AcDbCircle
 10
156.7310389999998
 20
172.4707105023386
 30
0.0
 40
6.0
100
AcDbArc
 50
343.8086489999998
 51
16.191351
  0
ARC
  5
9B3E
330
99AA
100
AcDbEntity
  8
1
  6
Continuous
100
AcDbCircle
 10
161.724783
 20
173.9206925023386
 30
0.0
 40
0.8
100
AcDbArc
 50
16.191351
 51
90.00000300000001
  0
LINE
  5
9B3F
330
99AA
100
AcDbEntity
  8
1
  6
Continuous
100
AcDbLine
 10
161.031026
 20
182.3166575023384
 30
0.0
 11
161.031026
 21
168.4707105023386
 31
0.0
  0
LINE
  5
9B40
330
99AA
100
AcDbEntity
  8
1
  6
Continuous
100
AcDbLine
 10
160.43102
 20
181.1540755023386
 30
0.0
 11
160.43102
 21
168.4707105023386
 31
0.0
  0
LINE
  5
9B41
330
99AA
100
AcDbEntity
  8
1
  6
Continuous
100
AcDbLine
 10
161.724783
 20
170.2207105023386
 30
0.0
 11
161.031026
 21
170.2207105023386
 31
0.0
  0
LINE
  5
9B42
330
99AA
100
AcDbEntity
  8
1
  6
Continuous
100
AcDbLine
 10
161.724783
 20
174.7207105023386
 30
0.0
 11
161.031026
 21
174.7207105023386
 31
0.0
  0
ARC
  5
9B43
330
99AA
100
AcDbEntity
  8
1
  6
Continuous
100
AcDbCircle
 10
161.724783
 20
191.0207135023386
 30
0.0
 40
0.8
100
AcDbArc
 50
269.9999969999999
 51
343.8086489999998
  0
ARC
  5
9B44
330
99AA
100
AcDbEntity
  8
1
  6
Continuous
100
AcDbCircle
 10
161.724783
 20
193.9207075023386
 30
0.0
 40
0.8
100
AcDbArc
 50
16.191351
 51
90.00000300000001
  0
ARC
  5
9B45
330
99AA
100
AcDbEntity
  8
1
  6
Continuous
100
AcDbCircle
 10
156.7310389999998
 20
192.4707105023386
 30
0.0
 40
6.0
100
AcDbArc
 50
343.8086489999998
 51
16.191351
  0
LINE
  5
9B46
330
99AA
100
AcDbEntity
  8
1
  6
Continuous
100
AcDbLine
 10
161.724783
 20
190.2207105023386
 30
0.0
 11
161.031026
 21
190.2207105023386
 31
0.0
  0
LINE
  5
9B47
330
99AA
100
AcDbEntity
  8
1
  6
Continuous
100
AcDbLine
 10
161.724783
 20
194.7207105023386
 30
0.0
 11
161.031026
 21
194.7207105023386
 31
0.0
  0
LINE
  5
9B48
330
99AA
100
AcDbEntity
  8
1
  6
Continuous
100
AcDbLine
 10
160.3310199999999
 20
200.4707105023386
 30
0.0
 11
160.3310199999999
 21
196.4707105023386
 31
0.0
  0
LINE
  5
9B49
330
99AA
100
AcDbEntity
  8
1
  6
Continuous
100
AcDbLine
 10
223.711718
 20
190.4706955023386
 30
0.0
 11
223.1117299999999
 21
190.4706955023386
 31
0.0
  0
LINE
  5
9B4A
330
99AA
100
AcDbEntity
  8
1
  6
Continuous
100
AcDbLine
 10
223.711718
 20
178.4706955023386
 30
0.0
 11
223.1117299999999
 21
178.4706955023386
 31
0.0
  0
LINE
  5
9B4B
330
99AA
100
AcDbEntity
  8
4
  6
CENTER
100
AcDbLine
 10
233.1117299999999
 20
184.4706955023386
 30
0.0
 11
215.1117299999999
 21
184.4706955023386
 31
0.0
  0
LINE
  5
9B4C
330
99AA
100
AcDbEntity
  8
1
  6
Continuous
100
AcDbLine
 10
221.1117
 20
178.4706955023386
 30
0.0
 11
221.1117
 21
190.4706955023386
 31
0.0
  0
LINE
  5
9B4D
330
99AA
100
AcDbEntity
  8
1
  6
Continuous
100
AcDbLine
 10
222.6117
 20
190.4706955023386
 30
0.0
 11
222.6117
 21
178.4706955023386
 31
0.0
  0
LINE
  5
9B4E
330
99AA
100
AcDbEntity
  8
1
  6
Continuous
100
AcDbLine
 10
223.1117
 20
190.4706955023386
 30
0.0
 11
223.1117
 21
178.4706955023386
 31
0.0
  0
LINE
  5
9B4F
330
99AA
100
AcDbEntity
  8
1
  6
Continuous
100
AcDbLine
 10
220.1116999999999
 20
189.4706955023386
 30
0.0
 11
220.1116999999999
 21
179.4706955023386
 31
0.0
  0
LINE
  5
9B50
330
99AA
100
AcDbEntity
  8
1
  6
Continuous
100
AcDbLine
 10
222.6117299999999
 20
179.2706835023386
 30
0.0
 11
221.1117299999999
 21
179.2706835023386
 31
0.0
  0
LINE
  5
9B51
330
99AA
100
AcDbEntity
  8
1
  6
Continuous
100
AcDbLine
 10
222.6117299999999
 20
180.0707015023385
 30
0.0
 11
221.1117299999999
 21
180.0707015023385
 31
0.0
  0
LINE
  5
9B52
330
99AA
100
AcDbEntity
  8
1
  6
Continuous
100
AcDbLine
 10
222.6117299999999
 20
180.8706895023386
 30
0.0
 11
221.1117299999999
 21
180.8706895023386
 31
0.0
  0
LINE
  5
9B53
330
99AA
100
AcDbEntity
  8
1
  6
Continuous
100
AcDbLine
 10
222.6117299999999
 20
181.6706775023386
 30
0.0
 11
221.1117299999999
 21
181.6706775023386
 31
0.0
  0
LINE
  5
9B54
330
99AA
100
AcDbEntity
  8
1
  6
Continuous
100
AcDbLine
 10
222.6117299999999
 20
182.4706955023387
 30
0.0
 11
221.1117299999999
 21
182.4706955023387
 31
0.0
  0
LINE
  5
9B55
330
99AA
100
AcDbEntity
  8
1
  6
Continuous
100
AcDbLine
 10
222.6117299999999
 20
183.2706835023386
 30
0.0
 11
221.1117299999999
 21
183.2706835023386
 31
0.0
  0
LINE
  5
9B56
330
99AA
100
AcDbEntity
  8
1
  6
Continuous
100
AcDbLine
 10
222.6117299999999
 20
184.0707015023385
 30
0.0
 11
221.1117299999999
 21
184.0707015023385
 31
0.0
  0
LINE
  5
9B57
330
99AA
100
AcDbEntity
  8
1
  6
Continuous
100
AcDbLine
 10
222.6117299999999
 20
184.8706895023385
 30
0.0
 11
221.1117299999999
 21
184.8706895023385
 31
0.0
  0
LINE
  5
9B58
330
99AA
100
AcDbEntity
  8
1
  6
Continuous
100
AcDbLine
 10
222.6117299999999
 20
185.6706775023386
 30
0.0
 11
221.1117299999999
 21
185.6706775023386
 31
0.0
  0
LINE
  5
9B59
330
99AA
100
AcDbEntity
  8
1
  6
Continuous
100
AcDbLine
 10
222.6117299999999
 20
186.4706955023386
 30
0.0
 11
221.1117299999999
 21
186.4706955023386
 31
0.0
  0
LINE
  5
9B5A
330
99AA
100
AcDbEntity
  8
1
  6
Continuous
100
AcDbLine
 10
222.6117299999999
 20
187.2706835023386
 30
0.0
 11
221.1117299999999
 21
187.2706835023386
 31
0.0
  0
LINE
  5
9B5B
330
99AA
100
AcDbEntity
  8
1
  6
Continuous
100
AcDbLine
 10
222.6117299999999
 20
188.0707015023385
 30
0.0
 11
221.1117299999999
 21
188.0707015023385
 31
0.0
  0
LINE
  5
9B5C
330
99AA
100
AcDbEntity
  8
1
  6
Continuous
100
AcDbLine
 10
223.1117299999999
 20
178.9707105023386
 30
0.0
 11
222.611745
 21
178.4707255023385
 31
0.0
  0
LINE
  5
9B5D
330
99AA
100
AcDbEntity
  8
1
  6
Continuous
100
AcDbLine
 10
220.1116999999999
 20
179.4707105023386
 30
0.0
 11
221.1117
 21
178.4707105023386
 31
0.0
  0
LINE
  5
9B5E
330
99AA
100
AcDbEntity
  8
1
  6
Continuous
100
AcDbLine
 10
222.6117299999999
 20
178.4706955023386
 30
0.0
 11
221.1117299999999
 21
178.4706955023386
 31
0.0
  0
LINE
  5
9B5F
330
99AA
100
AcDbEntity
  8
1
  6
Continuous
100
AcDbLine
 10
222.6117299999999
 20
188.8706895023385
 30
0.0
 11
221.1117299999999
 21
188.8706895023385
 31
0.0
  0
LINE
  5
9B60
330
99AA
100
AcDbEntity
  8
1
  6
Continuous
100
AcDbLine
 10
222.6117299999999
 20
189.6706775023386
 30
0.0
 11
221.1117299999999
 21
189.6706775023386
 31
0.0
  0
LINE
  5
9B61
330
99AA
100
AcDbEntity
  8
1
  6
Continuous
100
AcDbLine
 10
223.1117
 20
189.9707415023384
 30
0.0
 11
222.6117149999998
 21
190.4707255023386
 31
0.0
  0
LINE
  5
9B62
330
99AA
100
AcDbEntity
  8
1
  6
Continuous
100
AcDbLine
 10
220.111745
 20
189.4707105023385
 30
0.0
 11
221.111745
 21
190.4707105023386
 31
0.0
  0
LINE
  5
9B63
330
99AA
100
AcDbEntity
  8
1
  6
Continuous
100
AcDbLine
 10
222.6117299999999
 20
190.4706955023386
 30
0.0
 11
221.1117299999999
 21
190.4706955023386
 31
0.0
  0
LINE
  5
9B64
330
99AA
100
AcDbEntity
  8
1
  6
Continuous
100
AcDbLine
 10
223.7116869999999
 20
190.4706955023386
 30
0.0
 11
223.7116869999999
 21
178.4706955023386
 31
0.0
  0
LINE
  5
9B65
330
99AA
100
AcDbEntity
  8
1
  6
Continuous
100
AcDbLine
 10
227.1117
 20
188.4706955023386
 30
0.0
 11
227.1117
 21
180.4706955023386
 31
0.0
  0
LINE
  5
9B66
330
99AA
100
AcDbEntity
  8
1
  6
Continuous
100
AcDbLine
 10
228.1117
 20
181.4706955023386
 30
0.0
 11
227.1117
 21
180.4706955023386
 31
0.0
  0
LINE
  5
9B67
330
99AA
100
AcDbEntity
  8
1
  6
Continuous
100
AcDbLine
 10
227.1117
 20
188.4706955023386
 30
0.0
 11
228.1117
 21
187.4706955023386
 31
0.0
  0
LINE
  5
9B68
330
99AA
100
AcDbEntity
  8
1
  6
Continuous
100
AcDbLine
 10
228.1117
 20
187.4706955023386
 30
0.0
 11
228.1117
 21
181.4706955023386
 31
0.0
  0
LINE
  5
9B69
330
99AA
100
AcDbEntity
  8
2
  6
Continuous
100
AcDbLine
 10
227.5177059999999
 20
180.8767015023386
 30
0.0
 11
223.711718
 21
180.8767015023386
 31
0.0
  0
LINE
  5
9B6A
330
99AA
100
AcDbEntity
  8
2
  6
Continuous
100
AcDbLine
 10
227.5177059999999
 20
188.0646895023386
 30
0.0
 11
223.711718
 21
188.0646895023386
 31
0.0
  0
LINE
  5
9B6B
330
99AA
100
AcDbEntity
  8
1
  6
Continuous
100
AcDbLine
 10
227.1117
 20
180.4706955023386
 30
0.0
 11
223.711718
 21
180.4706955023386
 31
0.0
  0
LINE
  5
9B6C
330
99AA
100
AcDbEntity
  8
1
  6
Continuous
100
AcDbLine
 10
227.1117
 20
188.4706955023386
 30
0.0
 11
223.711718
 21
188.4706955023386
 31
0.0
  0
LINE
  5
9B6D
330
99AA
100
AcDbEntity
  8
4
  6
CENTER
100
AcDbLine
 10
155.4310199999999
 20
303.0707165023386
 30
0.0
 11
155.4310199999999
 21
282.5707165023386
 31
0.0
  0
LINE
  5
9B6E
330
99AA
100
AcDbEntity
  8
1
  6
Continuous
100
AcDbLine
 10
149.4310199999999
 20
242.1366445023386
 30
0.0
 11
161.43102
 21
242.1366445023386
 31
0.0
  0
LINE
  5
9B6F
330
99AA
100
AcDbEntity
  8
1
  6
Continuous
100
AcDbLine
 10
161.43102
 20
243.6366445023386
 30
0.0
 11
149.4310199999999
 21
243.6366445023386
 31
0.0
  0
LINE
  5
9B70
330
99AA
100
AcDbEntity
  8
1
  6
Continuous
100
AcDbLine
 10
161.43102
 20
244.1366445023386
 30
0.0
 11
149.4310199999999
 21
244.1366445023386
 31
0.0
  0
LINE
  5
9B71
330
99AA
100
AcDbEntity
  8
1
  6
Continuous
100
AcDbLine
 10
160.43102
 20
241.1366445023386
 30
0.0
 11
150.4310199999999
 21
241.1366445023386
 31
0.0
  0
LINE
  5
9B72
330
99AA
100
AcDbEntity
  8
1
  6
Continuous
100
AcDbLine
 10
161.43102
 20
244.7366325023385
 30
0.0
 11
149.4310199999999
 21
244.7366325023385
 31
0.0
  0
LINE
  5
9B73
330
99AA
100
AcDbEntity
  8
1
  6
Continuous
100
AcDbLine
 10
159.031026
 20
243.6366755023386
 30
0.0
 11
159.031026
 21
242.1366755023387
 31
0.0
  0
LINE
  5
9B74
330
99AA
100
AcDbEntity
  8
1
  6
Continuous
100
AcDbLine
 10
149.4310199999999
 20
244.7366635023386
 30
0.0
 11
149.4310199999999
 21
244.1366755023387
 31
0.0
  0
LINE
  5
9B75
330
99AA
100
AcDbEntity
  8
1
  6
Continuous
100
AcDbLine
 10
150.2310079999998
 20
243.6366755023386
 30
0.0
 11
150.2310079999998
 21
242.1366755023387
 31
0.0
  0
LINE
  5
9B76
330
99AA
100
AcDbEntity
  8
1
  6
Continuous
100
AcDbLine
 10
151.0310259999999
 20
243.6366755023386
 30
0.0
 11
151.0310259999999
 21
242.1366755023387
 31
0.0
  0
LINE
  5
9B77
330
99AA
100
AcDbEntity
  8
1
  6
Continuous
100
AcDbLine
 10
151.8310139999998
 20
243.6366755023386
 30
0.0
 11
151.8310139999998
 21
242.1366755023387
 31
0.0
  0
LINE
  5
9B78
330
99AA
100
AcDbEntity
  8
1
  6
Continuous
100
AcDbLine
 10
152.6310019999999
 20
243.6366755023386
 30
0.0
 11
152.6310019999999
 21
242.1366755023387
 31
0.0
  0
LINE
  5
9B79
330
99AA
100
AcDbEntity
  8
1
  6
Continuous
100
AcDbLine
 10
153.43102
 20
243.6366755023386
 30
0.0
 11
153.43102
 21
242.1366755023387
 31
0.0
  0
LINE
  5
9B7A
330
99AA
100
AcDbEntity
  8
1
  6
Continuous
100
AcDbLine
 10
154.231008
 20
243.6366755023386
 30
0.0
 11
154.231008
 21
242.1366755023387
 31
0.0
  0
LINE
  5
9B7B
330
99AA
100
AcDbEntity
  8
1
  6
Continuous
100
AcDbLine
 10
155.031026
 20
243.6366755023386
 30
0.0
 11
155.031026
 21
242.1366755023387
 31
0.0
  0
LINE
  5
9B7C
330
99AA
100
AcDbEntity
  8
1
  6
Continuous
100
AcDbLine
 10
155.8310139999998
 20
243.6366755023386
 30
0.0
 11
155.8310139999998
 21
242.1366755023387
 31
0.0
  0
LINE
  5
9B7D
330
99AA
100
AcDbEntity
  8
1
  6
Continuous
100
AcDbLine
 10
156.6310019999999
 20
243.6366755023386
 30
0.0
 11
156.6310019999999
 21
242.1366755023387
 31
0.0
  0
LINE
  5
9B7E
330
99AA
100
AcDbEntity
  8
1
  6
Continuous
100
AcDbLine
 10
157.43102
 20
243.6366755023386
 30
0.0
 11
157.43102
 21
242.1366755023387
 31
0.0
  0
LINE
  5
9B7F
330
99AA
100
AcDbEntity
  8
1
  6
Continuous
100
AcDbLine
 10
158.231008
 20
243.6366755023386
 30
0.0
 11
158.231008
 21
242.1366755023387
 31
0.0
  0
LINE
  5
9B80
330
99AA
100
AcDbEntity
  8
1
  6
Continuous
100
AcDbLine
 10
149.931036
 20
244.1366755023387
 30
0.0
 11
149.431051
 21
243.6366905023386
 31
0.0
  0
LINE
  5
9B81
330
99AA
100
AcDbEntity
  8
1
  6
Continuous
100
AcDbLine
 10
150.431036
 20
241.1366445023386
 30
0.0
 11
149.431036
 21
242.1366445023386
 31
0.0
  0
LINE
  5
9B82
330
99AA
100
AcDbEntity
  8
1
  6
Continuous
100
AcDbLine
 10
149.4310199999999
 20
243.6366755023386
 30
0.0
 11
149.4310199999999
 21
242.1366755023387
 31
0.0
  0
LINE
  5
9B83
330
99AA
100
AcDbEntity
  8
1
  6
Continuous
100
AcDbLine
 10
152.4310199999999
 20
249.1366445023386
 30
0.0
 11
151.4310199999999
 21
248.1366445023386
 31
0.0
  0
LINE
  5
9B84
330
99AA
100
AcDbEntity
  8
1
  6
Continuous
100
AcDbLine
 10
158.43102
 20
249.1366445023386
 30
0.0
 11
152.4310199999999
 21
249.1366445023386
 31
0.0
  0
LINE
  5
9B85
330
99AA
100
AcDbEntity
  8
1
  6
Continuous
100
AcDbLine
 10
159.4310199999999
 20
248.1366445023386
 30
0.0
 11
151.4310199999999
 21
248.1366445023386
 31
0.0
  0
LINE
  5
9B86
330
99AA
100
AcDbEntity
  8
1
  6
Continuous
100
AcDbLine
 10
159.4310199999999
 20
248.1366445023386
 30
0.0
 11
158.43102
 21
249.1366445023386
 31
0.0
  0
LINE
  5
9B87
330
99AA
100
AcDbEntity
  8
2
  6
Continuous
100
AcDbLine
 10
159.0250149999999
 20
248.5426505023387
 30
0.0
 11
159.0250149999999
 21
244.7366635023386
 31
0.0
  0
LINE
  5
9B88
330
99AA
100
AcDbEntity
  8
1
  6
Continuous
100
AcDbLine
 10
159.4310199999999
 20
248.1366445023386
 30
0.0
 11
159.4310199999999
 21
244.7366635023386
 31
0.0
  0
LINE
  5
9B89
330
99AA
100
AcDbEntity
  8
2
  6
Continuous
100
AcDbLine
 10
151.837026
 20
248.5426505023387
 30
0.0
 11
151.837026
 21
244.7366635023386
 31
0.0
  0
LINE
  5
9B8A
330
99AA
100
AcDbEntity
  8
1
  6
Continuous
100
AcDbLine
 10
151.4310199999999
 20
248.1366445023386
 30
0.0
 11
151.4310199999999
 21
244.7366635023386
 31
0.0
  0
LINE
  5
9B8B
330
99AA
100
AcDbEntity
  8
4
  6
CENTER
100
AcDbLine
 10
155.4310199999999
 20
254.1366755023386
 30
0.0
 11
155.4310199999999
 21
236.1366755023387
 31
0.0
  0
LINE
  5
9B8C
330
99AA
100
AcDbEntity
  8
1
  6
Continuous
100
AcDbLine
 10
161.43102
 20
244.7366635023386
 30
0.0
 11
161.43102
 21
244.1366755023387
 31
0.0
  0
LINE
  5
9B8D
330
99AA
100
AcDbEntity
  8
1
  6
Continuous
100
AcDbLine
 10
159.8310139999999
 20
243.6366755023386
 30
0.0
 11
159.8310139999999
 21
242.1366755023387
 31
0.0
  0
LINE
  5
9B8E
330
99AA
100
AcDbEntity
  8
1
  6
Continuous
100
AcDbLine
 10
160.631002
 20
243.6366755023386
 30
0.0
 11
160.631002
 21
242.1366755023387
 31
0.0
  0
LINE
  5
9B8F
330
99AA
100
AcDbEntity
  8
1
  6
Continuous
100
AcDbLine
 10
160.931066
 20
244.1366445023386
 30
0.0
 11
161.4310509999999
 21
243.6366605023385
 31
0.0
  0
LINE
  5
9B90
330
99AA
100
AcDbEntity
  8
1
  6
Continuous
100
AcDbLine
 10
160.431036
 20
241.1366905023386
 30
0.0
 11
161.431036
 21
242.1366905023386
 31
0.0
  0
LINE
  5
9B91
330
99AA
100
AcDbEntity
  8
1
  6
Continuous
100
AcDbLine
 10
161.43102
 20
243.6366755023386
 30
0.0
 11
161.43102
 21
242.1366755023387
 31
0.0
  0
LINE
  5
9B92
330
99AA
100
AcDbEntity
  8
1
  6
Continuous
100
AcDbLine
 10
161.031026
 20
287.4707105023385
 30
0.0
 11
149.8310299999999
 21
287.4707105023385
 31
0.0
  0
LINE
  5
9B93
330
99AA
100
AcDbEntity
  8
1
  6
Continuous
100
AcDbLine
 10
160.43102
 20
293.4707105023385
 30
0.0
 11
150.4310199999999
 21
293.4707105023385
 31
0.0
  0
LINE
  5
9B94
330
99AA
100
AcDbEntity
  8
1
  6
Continuous
100
AcDbLine
 10
160.43102
 20
292.4707105023387
 30
0.0
 11
150.4310199999999
 21
292.4707105023387
 31
0.0
  0
LINE
  5
9B95
330
99AA
100
AcDbEntity
  8
1
  6
Continuous
100
AcDbLine
 10
160.43102
 20
297.4707105023385
 30
0.0
 11
150.4310199999999
 21
297.4707105023385
 31
0.0
  0
LINE
  5
9B96
330
99AA
100
AcDbEntity
  8
4
  6
CENTER
100
AcDbLine
 10
163.0310259999999
 20
290.1706985023387
 30
0.0
 11
158.43102
 21
290.1706985023387
 31
0.0
  0
LINE
  5
9B97
330
99AA
100
AcDbEntity
  8
1
  6
Continuous
100
AcDbLine
 10
160.431036
 20
298.0707165023385
 30
0.0
 11
150.4310199999999
 21
298.0707165023385
 31
0.0
  0
ARC
  5
9B98
330
99AA
100
AcDbEntity
  8
1
  6
Continuous
100
AcDbCircle
 10
150.4310199999999
 20
297.4707105023385
 30
0.0
 40
0.6
100
AcDbArc
 50
90.00000300000001
 51
180.000005
  0
ARC
  5
9B99
330
99AA
100
AcDbEntity
  8
1
  6
Continuous
100
AcDbCircle
 10
149.1372889999998
 20
288.7206865023387
 30
0.0
 40
0.8
100
AcDbArc
 50
196.191355
 51
269.9999969999999
  0
ARC
  5
9B9A
330
99AA
100
AcDbEntity
  8
1
  6
Continuous
100
AcDbCircle
 10
154.1310329999998
 20
290.1706985023387
 30
0.0
 40
6.0
100
AcDbArc
 50
163.808645
 51
196.191351
  0
ARC
  5
9B9B
330
99AA
100
AcDbEntity
  8
1
  6
Continuous
100
AcDbCircle
 10
149.1372889999998
 20
291.6207105023385
 30
0.0
 40
0.8
100
AcDbArc
 50
90.00000300000001
 51
163.808645
  0
LINE
  5
9B9C
330
99AA
100
AcDbEntity
  8
1
  6
Continuous
100
AcDbLine
 10
149.1372889999998
 20
287.9206985023387
 30
0.0
 11
149.8310139999999
 21
287.9206985023387
 31
0.0
  0
LINE
  5
9B9D
330
99AA
100
AcDbEntity
  8
1
  6
Continuous
100
AcDbLine
 10
149.1372889999998
 20
292.4206985023387
 30
0.0
 11
149.8310139999999
 21
292.4206985023387
 31
0.0
  0
LINE
  5
9B9E
330
99AA
100
AcDbEntity
  8
1
  6
Continuous
100
AcDbLine
 10
150.4310199999999
 20
287.4707165023386
 30
0.0
 11
150.4310199999999
 21
287.4707165023386
 31
0.0
  0
LINE
  5
9B9F
330
99AA
100
AcDbEntity
  8
4
  6
CENTER
100
AcDbLine
 10
152.4310199999999
 20
290.1706985023387
 30
0.0
 11
147.8310299999999
 21
290.1706985023387
 31
0.0
  0
LINE
  5
9BA0
330
99AA
100
AcDbEntity
  8
1
  6
Continuous
100
AcDbLine
 10
150.4310199999999
 20
297.4707105023385
 30
0.0
 11
150.4310199999999
 21
287.4707105023385
 31
0.0
  0
LINE
  5
9BA1
330
99AA
100
AcDbEntity
  8
1
  6
Continuous
100
AcDbLine
 10
149.8310299999999
 20
297.4707105023385
 30
0.0
 11
149.8310299999999
 21
287.4707105023385
 31
0.0
  0
ARC
  5
9BA2
330
99AA
100
AcDbEntity
  8
1
  6
Continuous
100
AcDbCircle
 10
160.431036
 20
297.4707105023385
 30
0.0
 40
0.6
100
AcDbArc
 50
0.0
 51
90.00000300000001
  0
ARC
  5
9BA3
330
99AA
100
AcDbEntity
  8
1
  6
Continuous
100
AcDbCircle
 10
161.724783
 20
288.7206865023387
 30
0.0
 40
0.8
100
AcDbArc
 50
269.9999969999999
 51
343.8086489999998
  0
ARC
  5
9BA4
330
99AA
100
AcDbEntity
  8
1
  6
Continuous
100
AcDbCircle
 10
156.7310389999998
 20
290.1706985023387
 30
0.0
 40
6.0
100
AcDbArc
 50
343.8086489999998
 51
16.191351
  0
ARC
  5
9BA5
330
99AA
100
AcDbEntity
  8
1
  6
Continuous
100
AcDbCircle
 10
161.724783
 20
291.6207105023385
 30
0.0
 40
0.8
100
AcDbArc
 50
16.191351
 51
90.00000300000001
  0
LINE
  5
9BA6
330
99AA
100
AcDbEntity
  8
1
  6
Continuous
100
AcDbLine
 10
161.724783
 20
287.9206985023387
 30
0.0
 11
161.031026
 21
287.9206985023387
 31
0.0
  0
LINE
  5
9BA7
330
99AA
100
AcDbEntity
  8
1
  6
Continuous
100
AcDbLine
 10
161.724783
 20
292.4206985023387
 30
0.0
 11
161.031026
 21
292.4206985023387
 31
0.0
  0
LINE
  5
9BA8
330
99AA
100
AcDbEntity
  8
1
  6
Continuous
100
AcDbLine
 10
160.431036
 20
287.5707165023385
 30
0.0
 11
160.43102
 21
287.5707165023385
 31
0.0
  0
LINE
  5
9BA9
330
99AA
100
AcDbEntity
  8
1
  6
Continuous
100
AcDbLine
 10
160.43102
 20
297.4707105023385
 30
0.0
 11
160.43102
 21
287.4707105023385
 31
0.0
  0
LINE
  5
9BAA
330
99AA
100
AcDbEntity
  8
1
  6
Continuous
100
AcDbLine
 10
161.031026
 20
297.4707105023385
 30
0.0
 11
161.031026
 21
287.4707105023385
 31
0.0
  0
LINE
  5
9BAB
330
99AA
100
AcDbEntity
  8
4
  6
CENTER
100
AcDbLine
 10
270.43102
 20
184.4707105023385
 30
0.0
 11
290.9310199999999
 21
184.4707105023385
 31
0.0
  0
LINE
  5
9BAC
330
99AA
100
AcDbEntity
  8
4
  6
CENTER
100
AcDbLine
 10
278.131033
 20
196.7207105023386
 30
0.0
 11
278.131033
 21
188.2207105023386
 31
0.0
  0
LINE
  5
9BAD
330
99AA
100
AcDbEntity
  8
1
  6
Continuous
100
AcDbLine
 10
285.9310199999999
 20
196.4707105023386
 30
0.0
 11
285.9310199999999
 21
168.4707105023386
 31
0.0
  0
LINE
  5
9BAE
330
99AA
100
AcDbEntity
  8
1
  6
Continuous
100
AcDbLine
 10
275.4310199999999
 20
196.4707105023386
 30
0.0
 11
275.4310199999999
 21
168.4707105023386
 31
0.0
  0
ARC
  5
9BAF
330
99AA
100
AcDbEntity
  8
1
  6
Continuous
100
AcDbCircle
 10
278.131033
 20
172.4707105023386
 30
0.0
 40
1.3
100
AcDbArc
 50
349.5589079999998
 51
10.441092
  0
LINE
  5
9BB0
330
99AA
100
AcDbEntity
  8
1
  6
Continuous
100
AcDbLine
 10
278.715729
 20
172.2230055023386
 30
0.0
 11
278.472212
 21
172.1295275023384
 31
0.0
  0
LINE
  5
9BB1
330
99AA
100
AcDbEntity
  8
1
  6
Continuous
100
AcDbLine
 10
278.715725
 20
172.7184165023386
 30
0.0
 11
278.4722149999999
 21
172.8118905023385
 31
0.0
  0
LINE
  5
9BB2
330
99AA
100
AcDbEntity
  8
1
  6
Continuous
100
AcDbLine
 10
278.378731
 20
173.0554045023386
 30
0.0
 11
278.366621
 21
173.7491925023386
 31
0.0
  0
LINE
  5
9BB3
330
99AA
100
AcDbEntity
  8
1
  6
Continuous
100
AcDbLine
 10
278.378729
 20
173.0554115023386
 30
0.0
 11
278.4722089999998
 21
172.8118885023386
 31
0.0
  0
LINE
  5
9BB4
330
99AA
100
AcDbEntity
  8
1
  6
Continuous
100
AcDbLine
 10
278.7157279999998
 20
172.2230095023386
 30
0.0
 11
279.409508
 21
172.2351195023384
 31
0.0
  0
LINE
  5
9BB5
330
99AA
100
AcDbEntity
  8
1
  6
Continuous
100
AcDbLine
 10
278.7157279999998
 20
172.7184195023385
 30
0.0
 11
279.409508
 21
172.7063095023386
 31
0.0
  0
LINE
  5
9BB6
330
99AA
100
AcDbEntity
  8
1
  6
Continuous
100
AcDbLine
 10
278.378731
 20
171.8860095023384
 30
0.0
 11
278.366621
 21
171.1922365023387
 31
0.0
  0
LINE
  5
9BB7
330
99AA
100
AcDbEntity
  8
1
  6
Continuous
100
AcDbLine
 10
278.378739
 20
171.8860125023387
 30
0.0
 11
278.472216
 21
172.1295285023384
 31
0.0
  0
LINE
  5
9BB8
330
99AA
100
AcDbEntity
  8
1
  6
Continuous
100
AcDbLine
 10
277.883331
 20
173.0554065023386
 30
0.0
 11
277.7898539999998
 21
172.8118895023385
 31
0.0
  0
LINE
  5
9BB9
330
99AA
100
AcDbEntity
  8
1
  6
Continuous
100
AcDbLine
 10
277.8833319999999
 20
173.0554015023385
 30
0.0
 11
277.895442
 21
173.7491885023386
 31
0.0
  0
LINE
  5
9BBA
330
99AA
100
AcDbEntity
  8
1
  6
Continuous
100
AcDbLine
 10
277.5463339999999
 20
172.2230155023385
 30
0.0
 11
277.789857
 21
172.1295355023386
 31
0.0
  0
LINE
  5
9BBB
330
99AA
100
AcDbEntity
  8
1
  6
Continuous
100
AcDbLine
 10
277.5463349999998
 20
172.7184135023384
 30
0.0
 11
277.7898509999999
 21
172.8118905023385
 31
0.0
  0
ARC
  5
9BBC
330
99AA
100
AcDbEntity
  8
1
  6
Continuous
100
AcDbCircle
 10
278.131033
 20
172.4707105023386
 30
0.0
 40
1.3
100
AcDbArc
 50
169.5589129999999
 51
190.4410969999999
  0
LINE
  5
9BBD
330
99AA
100
AcDbEntity
  8
1
  6
Continuous
100
AcDbLine
 10
277.5463349999998
 20
172.2230055023386
 30
0.0
 11
276.852555
 21
172.2351155023385
 31
0.0
  0
LINE
  5
9BBE
330
99AA
100
AcDbEntity
  8
1
  6
Continuous
100
AcDbLine
 10
277.5463359999998
 20
172.7184075023386
 30
0.0
 11
276.852556
 21
172.7062975023386
 31
0.0
  0
LINE
  5
9BBF
330
99AA
100
AcDbEntity
  8
1
  6
Continuous
100
AcDbLine
 10
277.8833329999998
 20
171.8860125023387
 30
0.0
 11
277.895443
 21
171.1922395023386
 31
0.0
  0
LINE
  5
9BC0
330
99AA
100
AcDbEntity
  8
1
  6
Continuous
100
AcDbLine
 10
277.883328
 20
171.8860205023385
 30
0.0
 11
277.7898539999998
 21
172.1295305023386
 31
0.0
  0
ARC
  5
9BC1
330
99AA
100
AcDbEntity
  8
1
  6
Continuous
100
AcDbCircle
 10
278.131033
 20
172.4707105023386
 30
0.0
 40
1.3
100
AcDbArc
 50
79.55891099999998
 51
100.4410939999998
  0
ARC
  5
9BC2
330
99AA
100
AcDbEntity
  8
1
  6
Continuous
100
AcDbCircle
 10
278.131033
 20
172.4707105023386
 30
0.0
 40
1.3
100
AcDbArc
 50
259.558906
 51
280.4410889999999
  0
CIRCLE
  5
9BC3
330
99AA
100
AcDbEntity
  8
1
  6
Continuous
100
AcDbCircle
 10
278.131033
 20
172.4707105023386
 30
0.0
 40
2.25
  0
LINE
  5
9BC4
330
99AA
100
AcDbEntity
  8
1
  6
Continuous
100
AcDbLine
 10
282.93102
 20
185.1707075023386
 30
0.0
 11
282.93102
 21
183.4707105023386
 31
0.0
  0
LINE
  5
9BC5
330
99AA
100
AcDbEntity
  8
1
  6
Continuous
100
AcDbLine
 10
284.4310199999999
 20
185.1707075023386
 30
0.0
 11
284.4310199999999
 21
183.4707105023386
 31
0.0
  0
LINE
  5
9BC6
330
99AA
100
AcDbEntity
  8
1
  6
Continuous
100
AcDbLine
 10
282.93102
 20
183.4707105023386
 30
0.0
 11
284.4310199999999
 21
183.4707105023386
 31
0.0
  0
LINE
  5
9BC7
330
99AA
100
AcDbEntity
  8
1
  6
Continuous
100
AcDbLine
 10
282.93102
 20
185.1707075023386
 30
0.0
 11
284.4310199999999
 21
185.1707075023386
 31
0.0
  0
LINE
  5
9BC8
330
99AA
100
AcDbEntity
  8
4
  6
CENTER
100
AcDbLine
 10
273.881033
 20
172.4707105023386
 30
0.0
 11
282.381033
 21
172.4707105023386
 31
0.0
  0
LINE
  5
9BC9
330
99AA
100
AcDbEntity
  8
4
  6
CENTER
100
AcDbLine
 10
278.131033
 20
176.7207105023386
 30
0.0
 11
278.131033
 21
168.2207105023386
 31
0.0
  0
LINE
  5
9BCA
330
99AA
100
AcDbEntity
  8
1
  6
Continuous
100
AcDbLine
 10
275.4310199999999
 20
168.4707105023386
 30
0.0
 11
285.9310199999999
 21
168.4707105023386
 31
0.0
  0
ARC
  5
9BCB
330
99AA
100
AcDbEntity
  8
1
  6
Continuous
100
AcDbCircle
 10
278.131033
 20
192.4707105023386
 30
0.0
 40
1.3
100
AcDbArc
 50
349.5589079999998
 51
10.441092
  0
LINE
  5
9BCC
330
99AA
100
AcDbEntity
  8
1
  6
Continuous
100
AcDbLine
 10
278.715729
 20
192.2230055023386
 30
0.0
 11
278.472212
 21
192.1295275023386
 31
0.0
  0
LINE
  5
9BCD
330
99AA
100
AcDbEntity
  8
1
  6
Continuous
100
AcDbLine
 10
278.715725
 20
192.7184165023385
 30
0.0
 11
278.4722149999999
 21
192.8118905023385
 31
0.0
  0
LINE
  5
9BCE
330
99AA
100
AcDbEntity
  8
1
  6
Continuous
100
AcDbLine
 10
278.378731
 20
193.0554045023386
 30
0.0
 11
278.366621
 21
193.7491925023386
 31
0.0
  0
LINE
  5
9BCF
330
99AA
100
AcDbEntity
  8
1
  6
Continuous
100
AcDbLine
 10
278.378729
 20
193.0554115023386
 30
0.0
 11
278.4722089999998
 21
192.8118885023387
 31
0.0
  0
LINE
  5
9BD0
330
99AA
100
AcDbEntity
  8
1
  6
Continuous
100
AcDbLine
 10
278.7157279999998
 20
192.2230095023386
 30
0.0
 11
279.409508
 21
192.2351195023385
 31
0.0
  0
LINE
  5
9BD1
330
99AA
100
AcDbEntity
  8
1
  6
Continuous
100
AcDbLine
 10
278.7157279999998
 20
192.7184195023385
 30
0.0
 11
279.409508
 21
192.7063095023386
 31
0.0
  0
LINE
  5
9BD2
330
99AA
100
AcDbEntity
  8
1
  6
Continuous
100
AcDbLine
 10
278.378731
 20
191.8860095023385
 30
0.0
 11
278.366621
 21
191.1922365023387
 31
0.0
  0
LINE
  5
9BD3
330
99AA
100
AcDbEntity
  8
1
  6
Continuous
100
AcDbLine
 10
278.378739
 20
191.8860125023386
 30
0.0
 11
278.472216
 21
192.1295285023385
 31
0.0
  0
LINE
  5
9BD4
330
99AA
100
AcDbEntity
  8
1
  6
Continuous
100
AcDbLine
 10
277.883331
 20
193.0554065023386
 30
0.0
 11
277.7898539999998
 21
192.8118895023385
 31
0.0
  0
LINE
  5
9BD5
330
99AA
100
AcDbEntity
  8
1
  6
Continuous
100
AcDbLine
 10
277.8833319999999
 20
193.0554015023385
 30
0.0
 11
277.895442
 21
193.7491885023386
 31
0.0
  0
LINE
  5
9BD6
330
99AA
100
AcDbEntity
  8
1
  6
Continuous
100
AcDbLine
 10
277.5463339999999
 20
192.2230155023385
 30
0.0
 11
277.789857
 21
192.1295355023386
 31
0.0
  0
LINE
  5
9BD7
330
99AA
100
AcDbEntity
  8
1
  6
Continuous
100
AcDbLine
 10
277.5463349999998
 20
192.7184135023385
 30
0.0
 11
277.7898509999999
 21
192.8118905023385
 31
0.0
  0
ARC
  5
9BD8
330
99AA
100
AcDbEntity
  8
1
  6
Continuous
100
AcDbCircle
 10
278.131033
 20
192.4707105023386
 30
0.0
 40
1.3
100
AcDbArc
 50
169.5589129999999
 51
190.4410969999999
  0
LINE
  5
9BD9
330
99AA
100
AcDbEntity
  8
1
  6
Continuous
100
AcDbLine
 10
277.5463349999998
 20
192.2230055023386
 30
0.0
 11
276.852555
 21
192.2351155023385
 31
0.0
  0
LINE
  5
9BDA
330
99AA
100
AcDbEntity
  8
1
  6
Continuous
100
AcDbLine
 10
277.5463359999998
 20
192.7184075023386
 30
0.0
 11
276.852556
 21
192.7062975023386
 31
0.0
  0
LINE
  5
9BDB
330
99AA
100
AcDbEntity
  8
1
  6
Continuous
100
AcDbLine
 10
277.8833329999998
 20
191.8860125023386
 30
0.0
 11
277.895443
 21
191.1922395023386
 31
0.0
  0
LINE
  5
9BDC
330
99AA
100
AcDbEntity
  8
1
  6
Continuous
100
AcDbLine
 10
277.883328
 20
191.8860205023386
 30
0.0
 11
277.7898539999998
 21
192.1295305023385
 31
0.0
  0
ARC
  5
9BDD
330
99AA
100
AcDbEntity
  8
1
  6
Continuous
100
AcDbCircle
 10
278.131033
 20
192.4707105023386
 30
0.0
 40
1.3
100
AcDbArc
 50
79.55891099999998
 51
100.4410939999998
  0
ARC
  5
9BDE
330
99AA
100
AcDbEntity
  8
1
  6
Continuous
100
AcDbCircle
 10
278.131033
 20
192.4707105023386
 30
0.0
 40
1.3
100
AcDbArc
 50
259.558906
 51
280.4410889999999
  0
CIRCLE
  5
9BDF
330
99AA
100
AcDbEntity
  8
1
  6
Continuous
100
AcDbCircle
 10
278.131033
 20
192.4707105023386
 30
0.0
 40
2.25
  0
LINE
  5
9BE0
330
99AA
100
AcDbEntity
  8
4
  6
CENTER
100
AcDbLine
 10
273.881033
 20
192.4707105023386
 30
0.0
 11
282.381033
 21
192.4707105023386
 31
0.0
  0
LINE
  5
9BE1
330
99AA
100
AcDbEntity
  8
1
  6
Continuous
100
AcDbLine
 10
281.4310199999999
 20
200.4706955023386
 30
0.0
 11
284.631033
 21
196.4706955023386
 31
0.0
  0
LINE
  5
9BE2
330
99AA
100
AcDbEntity
  8
1
  6
Continuous
100
AcDbLine
 10
280.4310199999999
 20
200.4707105023386
 30
0.0
 11
280.4310199999999
 21
196.4707105023386
 31
0.0
  0
LINE
  5
9BE3
330
99AA
100
AcDbEntity
  8
1
  6
Continuous
100
AcDbLine
 10
280.4310199999999
 20
200.4707105023386
 30
0.0
 11
281.4310199999999
 21
200.4707105023386
 31
0.0
  0
LINE
  5
9BE4
330
99AA
100
AcDbEntity
  8
1
  6
Continuous
100
AcDbLine
 10
275.4310199999999
 20
196.4707105023386
 30
0.0
 11
285.9310199999999
 21
196.4707105023386
 31
0.0
  0
LINE
  5
9BE5
330
99AA
100
AcDbEntity
  8
4
  6
CENTER
100
AcDbLine
 10
345.43102
 20
205.4707105023386
 30
0.0
 11
345.43102
 21
163.4707105023386
 31
0.0
  0
ARC
  5
9BE6
330
99AA
100
AcDbEntity
  8
1
  6
Continuous
100
AcDbCircle
 10
345.43102
 20
184.4707105023385
 30
0.0
 40
6.0
100
AcDbArc
 50
338.9606929999998
 51
21.039307
  0
LINE
  5
9BE7
330
99AA
100
AcDbEntity
  8
1
  6
Continuous
100
AcDbLine
 10
351.724783
 20
170.2207105023386
 30
0.0
 11
351.0310569999999
 21
170.2207105023386
 31
0.0
  0
LINE
  5
9BE8
330
99AA
100
AcDbEntity
  8
1
  6
Continuous
100
AcDbLine
 10
351.724783
 20
174.7207105023386
 30
0.0
 11
351.0310569999999
 21
174.7207105023386
 31
0.0
  0
LINE
  5
9BE9
330
99AA
100
AcDbEntity
  8
1
  6
Continuous
100
AcDbLine
 10
351.724783
 20
190.2207105023386
 30
0.0
 11
351.0310569999999
 21
190.2207105023386
 31
0.0
  0
LINE
  5
9BEA
330
99AA
100
AcDbEntity
  8
1
  6
Continuous
100
AcDbLine
 10
351.724783
 20
194.7207105023386
 30
0.0
 11
351.0310569999999
 21
194.7207105023386
 31
0.0
  0
LINE
  5
9BEB
330
99AA
100
AcDbEntity
  8
4
  6
CENTER
100
AcDbLine
 10
354.9310199999998
 20
192.4707105023386
 30
0.0
 11
335.9310199999999
 21
192.4707105023386
 31
0.0
  0
LINE
  5
9BEC
330
99AA
100
AcDbEntity
  8
4
  6
CENTER
100
AcDbLine
 10
354.9310199999998
 20
172.4707105023386
 30
0.0
 11
348.4310199999998
 21
172.4707105023386
 31
0.0
  0
LINE
  5
9BED
330
99AA
100
AcDbEntity
  8
4
  6
CENTER
100
AcDbLine
 10
335.43102
 20
184.4707105023385
 30
0.0
 11
355.4310199999998
 21
184.4707105023385
 31
0.0
  0
LINE
  5
9BEE
330
99AA
100
AcDbEntity
  8
1
  6
Continuous
100
AcDbLine
 10
339.831045
 20
196.4707105023386
 30
0.0
 11
339.831045
 21
168.4707105023386
 31
0.0
  0
LINE
  5
9BEF
330
99AA
100
AcDbEntity
  8
1
  6
Continuous
100
AcDbLine
 10
351.031026
 20
196.4707105023386
 30
0.0
 11
351.031026
 21
168.4707105023386
 31
0.0
  0
ARC
  5
9BF0
330
99AA
100
AcDbEntity
  8
1
  6
Continuous
100
AcDbCircle
 10
345.43102
 20
184.4707105023385
 30
0.0
 40
3.1
100
AcDbArc
 50
19.13962599999998
 51
161.394119
  0
ARC
  5
9BF1
330
99AA
100
AcDbEntity
  8
1
  6
Continuous
100
AcDbCircle
 10
345.43102
 20
184.4707105023385
 30
0.0
 40
6.0
100
AcDbArc
 50
158.9602899999999
 51
201.0397199999999
  0
ARC
  5
9BF2
330
99AA
100
AcDbEntity
  8
1
  6
Continuous
100
AcDbCircle
 10
339.1372889999999
 20
171.0206985023386
 30
0.0
 40
0.8
100
AcDbArc
 50
196.191355
 51
269.9999969999999
  0
ARC
  5
9BF3
330
99AA
100
AcDbEntity
  8
1
  6
Continuous
100
AcDbCircle
 10
339.1372889999999
 20
173.9206925023386
 30
0.0
 40
0.8
100
AcDbArc
 50
90.00000300000001
 51
163.808645
  0
ARC
  5
9BF4
330
99AA
100
AcDbEntity
  8
1
  6
Continuous
100
AcDbCircle
 10
344.131033
 20
172.4707105023386
 30
0.0
 40
6.0
100
AcDbArc
 50
163.808645
 51
196.191351
  0
CIRCLE
  5
9BF5
330
99AA
100
AcDbEntity
  8
1
  6
Continuous
100
AcDbCircle
 10
345.43102
 20
184.4707105023385
 30
0.0
 40
3.75
  0
LINE
  5
9BF6
330
99AA
100
AcDbEntity
  8
4
  6
CENTER
100
AcDbLine
 10
342.4310199999999
 20
172.4707105023386
 30
0.0
 11
335.9310199999999
 21
172.4707105023386
 31
0.0
  0
LINE
  5
9BF7
330
99AA
100
AcDbEntity
  8
1
  6
Continuous
100
AcDbLine
 10
339.1372889999999
 20
170.2207105023386
 30
0.0
 11
339.831045
 21
170.2207105023386
 31
0.0
  0
LINE
  5
9BF8
330
99AA
100
AcDbEntity
  8
1
  6
Continuous
100
AcDbLine
 10
339.1372889999999
 20
174.7207105023386
 30
0.0
 11
339.831045
 21
174.7207105023386
 31
0.0
  0
LINE
  5
9BF9
330
99AA
100
AcDbEntity
  8
4
  6
CENTER
100
AcDbLine
 10
342.131033
 20
174.4707105023386
 30
0.0
 11
348.7310079999998
 21
174.4707105023386
 31
0.0
  0
LINE
  5
9BFA
330
99AA
100
AcDbEntity
  8
1
  6
Continuous
100
AcDbLine
 10
339.831045
 20
168.4707105023386
 30
0.0
 11
351.031026
 21
168.4707105023386
 31
0.0
  0
LINE
  5
9BFB
330
99AA
100
AcDbEntity
  8
1
  6
Continuous
100
AcDbLine
 10
341.8168239999999
 20
185.4707105023384
 30
0.0
 11
349.0452169999999
 21
185.4707105023384
 31
0.0
  0
LINE
  5
9BFC
330
99AA
100
AcDbEntity
  8
1
  6
Continuous
100
AcDbLine
 10
344.0847069999999
 20
180.9707105023386
 30
0.0
 11
346.7773339999998
 21
180.9707105023386
 31
0.0
  0
LINE
  5
9BFD
330
99AA
100
AcDbEntity
  8
1
  6
Continuous
100
AcDbLine
 10
341.8168239999999
 20
183.4707105023386
 30
0.0
 11
349.0452169999999
 21
183.4707105023386
 31
0.0
  0
ARC
  5
9BFE
330
99AA
100
AcDbEntity
  8
1
  6
Continuous
100
AcDbCircle
 10
339.1372889999999
 20
191.0207135023386
 30
0.0
 40
0.8
100
AcDbArc
 50
196.191355
 51
269.9999969999999
  0
ARC
  5
9BFF
330
99AA
100
AcDbEntity
  8
1
  6
Continuous
100
AcDbCircle
 10
344.131033
 20
192.4707105023386
 30
0.0
 40
6.0
100
AcDbArc
 50
163.808645
 51
196.191351
  0
ARC
  5
9C00
330
99AA
100
AcDbEntity
  8
1
  6
Continuous
100
AcDbCircle
 10
339.1372889999999
 20
193.9207075023386
 30
0.0
 40
0.8
100
AcDbArc
 50
90.00000300000001
 51
163.808645
  0
LINE
  5
9C01
330
99AA
100
AcDbEntity
  8
1
  6
Continuous
100
AcDbLine
 10
339.1372889999999
 20
190.2207105023386
 30
0.0
 11
339.831045
 21
190.2207105023386
 31
0.0
  0
LINE
  5
9C02
330
99AA
100
AcDbEntity
  8
1
  6
Continuous
100
AcDbLine
 10
339.1372889999999
 20
194.7207105023386
 30
0.0
 11
339.831045
 21
194.7207105023386
 31
0.0
  0
LINE
  5
9C03
330
99AA
100
AcDbEntity
  8
1
  6
Continuous
100
AcDbLine
 10
340.53102
 20
200.4707105023386
 30
0.0
 11
340.53102
 21
196.4707105023386
 31
0.0
  0
LINE
  5
9C04
330
99AA
100
AcDbEntity
  8
1
  6
Continuous
100
AcDbLine
 10
350.33102
 20
200.4707105023386
 30
0.0
 11
350.33102
 21
196.4707105023386
 31
0.0
  0
LINE
  5
9C05
330
99AA
100
AcDbEntity
  8
1
  6
Continuous
100
AcDbLine
 10
340.53102
 20
200.4707105023386
 30
0.0
 11
350.33102
 21
200.4707105023386
 31
0.0
  0
LINE
  5
9C06
330
99AA
100
AcDbEntity
  8
1
  6
Continuous
100
AcDbLine
 10
339.831045
 20
196.4707105023386
 30
0.0
 11
351.031026
 21
196.4707105023386
 31
0.0
  0
ARC
  5
9C07
330
99AA
100
AcDbEntity
  8
1
  6
Continuous
100
AcDbCircle
 10
351.724783
 20
171.0206985023386
 30
0.0
 40
0.8
100
AcDbArc
 50
269.9999969999999
 51
343.8086489999998
  0
ARC
  5
9C08
330
99AA
100
AcDbEntity
  8
1
  6
Continuous
100
AcDbCircle
 10
346.731039
 20
172.4707105023386
 30
0.0
 40
6.0
100
AcDbArc
 50
343.8086489999998
 51
16.191351
  0
ARC
  5
9C09
330
99AA
100
AcDbEntity
  8
1
  6
Continuous
100
AcDbCircle
 10
351.724783
 20
173.9206925023386
 30
0.0
 40
0.8
100
AcDbArc
 50
16.191351
 51
90.00000300000001
  0
ARC
  5
9C0A
330
99AA
100
AcDbEntity
  8
1
  6
Continuous
100
AcDbCircle
 10
351.724783
 20
191.0207135023386
 30
0.0
 40
0.8
100
AcDbArc
 50
269.9999969999999
 51
343.8086489999998
  0
ARC
  5
9C0B
330
99AA
100
AcDbEntity
  8
1
  6
Continuous
100
AcDbCircle
 10
346.731039
 20
192.4707105023386
 30
0.0
 40
6.0
100
AcDbArc
 50
343.8086489999998
 51
16.191351
  0
ARC
  5
9C0C
330
99AA
100
AcDbEntity
  8
1
  6
Continuous
100
AcDbCircle
 10
351.724783
 20
193.9207075023386
 30
0.0
 40
0.8
100
AcDbArc
 50
16.191351
 51
90.00000300000001
  0
LINE
  5
9C0D
330
99AA
100
AcDbEntity
  8
1
  6
Continuous
100
AcDbLine
 10
159.4310199999999
 20
120.8047765023386
 30
0.0
 11
159.4310199999999
 21
124.2047585023386
 31
0.0
  0
LINE
  5
9C0E
330
99AA
100
AcDbEntity
  8
1
  6
Continuous
100
AcDbLine
 10
151.4310199999999
 20
120.8047765023386
 30
0.0
 11
151.4310199999999
 21
124.2047585023386
 31
0.0
  0
LINE
  5
9C0F
330
99AA
100
AcDbEntity
  8
2
  6
Continuous
100
AcDbLine
 10
159.0250149999999
 20
120.3987705023386
 30
0.0
 11
159.0250149999999
 21
124.2047585023386
 31
0.0
  0
LINE
  5
9C10
330
99AA
100
AcDbEntity
  8
2
  6
Continuous
100
AcDbLine
 10
151.837026
 20
120.3987705023386
 30
0.0
 11
151.837026
 21
124.2047585023386
 31
0.0
  0
LINE
  5
9C11
330
99AA
100
AcDbEntity
  8
4
  6
CENTER
100
AcDbLine
 10
155.4310199999999
 20
114.8047465023386
 30
0.0
 11
155.4310199999999
 21
132.8047465023385
 31
0.0
  0
LINE
  5
9C12
330
99AA
100
AcDbEntity
  8
4
  6
CENTER
100
AcDbLine
 10
155.4310199999999
 20
82.47070350233867
 30
0.0
 11
155.4310199999999
 21
61.97070350233865
 31
0.0
  0
LINE
  5
9C13
330
99AA
100
AcDbEntity
  8
4
  6
CENTER
100
AcDbLine
 10
163.0310259999999
 20
74.77070350233869
 30
0.0
 11
158.431036
 21
74.77070350233869
 31
0.0
  0
LINE
  5
9C14
330
99AA
100
AcDbEntity
  8
1
  6
Continuous
100
AcDbLine
 10
160.431036
 20
72.47070350233865
 30
0.0
 11
150.4310199999999
 21
72.47070350233865
 31
0.0
  0
LINE
  5
9C15
330
99AA
100
AcDbEntity
  8
1
  6
Continuous
100
AcDbLine
 10
160.431036
 20
71.47070350233867
 30
0.0
 11
150.4310199999999
 21
71.47070350233867
 31
0.0
  0
LINE
  5
9C16
330
99AA
100
AcDbEntity
  8
1
  6
Continuous
100
AcDbLine
 10
160.431036
 20
66.97070350233865
 30
0.0
 11
150.4310199999999
 21
66.97070350233865
 31
0.0
  0
LINE
  5
9C17
330
99AA
100
AcDbEntity
  8
1
  6
Continuous
100
AcDbLine
 10
161.031026
 20
77.47070350233868
 30
0.0
 11
149.8310299999999
 21
77.47070350233868
 31
0.0
  0
ARC
  5
9C18
330
99AA
100
AcDbEntity
  8
1
  6
Continuous
100
AcDbCircle
 10
149.1372889999998
 20
73.32070650233868
 30
0.0
 40
0.8
100
AcDbArc
 50
196.191355
 51
269.9999969999999
  0
ARC
  5
9C19
330
99AA
100
AcDbEntity
  8
1
  6
Continuous
100
AcDbCircle
 10
154.1310329999998
 20
74.77070350233869
 30
0.0
 40
6.0
100
AcDbArc
 50
163.808645
 51
196.191351
  0
ARC
  5
9C1A
330
99AA
100
AcDbEntity
  8
1
  6
Continuous
100
AcDbCircle
 10
149.1372889999998
 20
76.22070050233867
 30
0.0
 40
0.8
100
AcDbArc
 50
90.00000300000001
 51
163.808645
  0
CIRCLE
  5
9C1B
330
99AA
100
AcDbEntity
  8
1
  6
Continuous
100
AcDbCircle
 10
155.431036
 20
69.97070350233865
 30
0.0
 40
1.0
  0
ARC
  5
9C1C
330
99AA
100
AcDbEntity
  8
1
  6
Continuous
100
AcDbCircle
 10
150.4310199999999
 20
67.57070150233869
 30
0.0
 40
0.6
100
AcDbArc
 50
179.9999909999999
 51
270.000001
  0
LINE
  5
9C1D
330
99AA
100
AcDbEntity
  8
4
  6
CENTER
100
AcDbLine
 10
158.431036
 20
69.97070350233865
 30
0.0
 11
152.431036
 21
69.97070350233865
 31
0.0
  0
LINE
  5
9C1E
330
99AA
100
AcDbEntity
  8
4
  6
CENTER
100
AcDbLine
 10
152.4310199999999
 20
74.77070350233869
 30
0.0
 11
147.8310299999999
 21
74.77070350233869
 31
0.0
  0
LINE
  5
9C1F
330
99AA
100
AcDbEntity
  8
1
  6
Continuous
100
AcDbLine
 10
149.1372889999998
 20
72.52070350233869
 30
0.0
 11
149.8310139999999
 21
72.52070350233869
 31
0.0
  0
LINE
  5
9C20
330
99AA
100
AcDbEntity
  8
1
  6
Continuous
100
AcDbLine
 10
149.1372889999998
 20
77.02070350233867
 30
0.0
 11
149.8310139999999
 21
77.02070350233867
 31
0.0
  0
LINE
  5
9C21
330
99AA
100
AcDbEntity
  8
1
  6
Continuous
100
AcDbLine
 10
150.4310199999999
 20
77.47070350233868
 30
0.0
 11
150.4310199999999
 21
67.57070150233869
 31
0.0
  0
LINE
  5
9C22
330
99AA
100
AcDbEntity
  8
1
  6
Continuous
100
AcDbLine
 10
149.8310299999999
 20
77.47070350233868
 30
0.0
 11
149.8310299999999
 21
67.57070150233869
 31
0.0
  0
ARC
  5
9C23
330
99AA
100
AcDbEntity
  8
1
  6
Continuous
100
AcDbCircle
 10
161.724783
 20
73.32070650233868
 30
0.0
 40
0.8
100
AcDbArc
 50
269.9999969999999
 51
343.8086489999998
  0
ARC
  5
9C24
330
99AA
100
AcDbEntity
  8
1
  6
Continuous
100
AcDbCircle
 10
161.724783
 20
76.22070050233867
 30
0.0
 40
0.8
100
AcDbArc
 50
16.191351
 51
90.00000300000001
  0
ARC
  5
9C25
330
99AA
100
AcDbEntity
  8
1
  6
Continuous
100
AcDbCircle
 10
156.7310389999998
 20
74.77070350233869
 30
0.0
 40
6.0
100
AcDbArc
 50
343.8086489999998
 51
16.191351
  0
ARC
  5
9C26
330
99AA
100
AcDbEntity
  8
1
  6
Continuous
100
AcDbCircle
 10
160.431036
 20
67.57070150233869
 30
0.0
 40
0.6
100
AcDbArc
 50
269.9999969999999
 51
0.0
  0
LINE
  5
9C27
330
99AA
100
AcDbEntity
  8
1
  6
Continuous
100
AcDbLine
 10
160.431036
 20
77.47070350233868
 30
0.0
 11
160.431036
 21
67.57070150233869
 31
0.0
  0
LINE
  5
9C28
330
99AA
100
AcDbEntity
  8
1
  6
Continuous
100
AcDbLine
 10
161.031026
 20
77.47070350233868
 30
0.0
 11
161.031026
 21
67.57070150233869
 31
0.0
  0
LINE
  5
9C29
330
99AA
100
AcDbEntity
  8
1
  6
Continuous
100
AcDbLine
 10
161.724783
 20
72.52070350233869
 30
0.0
 11
161.031026
 21
72.52070350233869
 31
0.0
  0
LINE
  5
9C2A
330
99AA
100
AcDbEntity
  8
1
  6
Continuous
100
AcDbLine
 10
161.724783
 20
77.02070350233867
 30
0.0
 11
161.031026
 21
77.02070350233867
 31
0.0
  0
LINE
  5
9C2B
330
99AA
100
AcDbEntity
  8
1
  6
Continuous
100
AcDbLine
 10
159.4310199999999
 20
120.8047765023386
 30
0.0
 11
158.43102
 21
119.8047765023386
 31
0.0
  0
LINE
  5
9C2C
330
99AA
100
AcDbEntity
  8
1
  6
Continuous
100
AcDbLine
 10
158.43102
 20
119.8047765023386
 30
0.0
 11
152.4310199999999
 21
119.8047765023386
 31
0.0
  0
LINE
  5
9C2D
330
99AA
100
AcDbEntity
  8
1
  6
Continuous
100
AcDbLine
 10
152.4310199999999
 20
119.8047765023386
 30
0.0
 11
151.4310199999999
 21
120.8047765023386
 31
0.0
  0
LINE
  5
9C2E
330
99AA
100
AcDbEntity
  8
1
  6
Continuous
100
AcDbLine
 10
159.4310199999999
 20
120.8047765023386
 30
0.0
 11
151.4310199999999
 21
120.8047765023386
 31
0.0
  0
LINE
  5
9C2F
330
99AA
100
AcDbEntity
  8
1
  6
Continuous
100
AcDbLine
 10
161.43102
 20
124.2047885023386
 30
0.0
 11
149.4310199999999
 21
124.2047885023386
 31
0.0
  0
LINE
  5
9C30
330
99AA
100
AcDbEntity
  8
1
  6
Continuous
100
AcDbLine
 10
160.43102
 20
127.8047765023386
 30
0.0
 11
150.4310199999999
 21
127.8047765023386
 31
0.0
  0
LINE
  5
9C31
330
99AA
100
AcDbEntity
  8
1
  6
Continuous
100
AcDbLine
 10
161.43102
 20
124.8047765023386
 30
0.0
 11
149.4310199999999
 21
124.8047765023386
 31
0.0
  0
LINE
  5
9C32
330
99AA
100
AcDbEntity
  8
1
  6
Continuous
100
AcDbLine
 10
161.43102
 20
125.3047765023386
 30
0.0
 11
149.4310199999999
 21
125.3047765023386
 31
0.0
  0
LINE
  5
9C33
330
99AA
100
AcDbEntity
  8
1
  6
Continuous
100
AcDbLine
 10
149.4310199999999
 20
126.8047765023386
 30
0.0
 11
161.43102
 21
126.8047765023386
 31
0.0
  0
LINE
  5
9C34
330
99AA
100
AcDbEntity
  8
1
  6
Continuous
100
AcDbLine
 10
149.4310199999999
 20
125.3047465023385
 30
0.0
 11
149.4310199999999
 21
126.8047465023386
 31
0.0
  0
LINE
  5
9C35
330
99AA
100
AcDbEntity
  8
1
  6
Continuous
100
AcDbLine
 10
150.431036
 20
127.8047765023386
 30
0.0
 11
149.431036
 21
126.8047765023386
 31
0.0
  0
LINE
  5
9C36
330
99AA
100
AcDbEntity
  8
1
  6
Continuous
100
AcDbLine
 10
149.931036
 20
124.8047465023386
 30
0.0
 11
149.431051
 21
125.3047305023386
 31
0.0
  0
LINE
  5
9C37
330
99AA
100
AcDbEntity
  8
1
  6
Continuous
100
AcDbLine
 10
159.031026
 20
125.3047465023385
 30
0.0
 11
159.031026
 21
126.8047465023386
 31
0.0
  0
LINE
  5
9C38
330
99AA
100
AcDbEntity
  8
1
  6
Continuous
100
AcDbLine
 10
158.231008
 20
125.3047465023385
 30
0.0
 11
158.231008
 21
126.8047465023386
 31
0.0
  0
LINE
  5
9C39
330
99AA
100
AcDbEntity
  8
1
  6
Continuous
100
AcDbLine
 10
157.43102
 20
125.3047465023385
 30
0.0
 11
157.43102
 21
126.8047465023386
 31
0.0
  0
LINE
  5
9C3A
330
99AA
100
AcDbEntity
  8
1
  6
Continuous
100
AcDbLine
 10
156.6310019999999
 20
125.3047465023385
 30
0.0
 11
156.6310019999999
 21
126.8047465023386
 31
0.0
  0
LINE
  5
9C3B
330
99AA
100
AcDbEntity
  8
1
  6
Continuous
100
AcDbLine
 10
155.8310139999998
 20
125.3047465023385
 30
0.0
 11
155.8310139999998
 21
126.8047465023386
 31
0.0
  0
LINE
  5
9C3C
330
99AA
100
AcDbEntity
  8
1
  6
Continuous
100
AcDbLine
 10
155.031026
 20
125.3047465023385
 30
0.0
 11
155.031026
 21
126.8047465023386
 31
0.0
  0
LINE
  5
9C3D
330
99AA
100
AcDbEntity
  8
1
  6
Continuous
100
AcDbLine
 10
154.231008
 20
125.3047465023385
 30
0.0
 11
154.231008
 21
126.8047465023386
 31
0.0
  0
LINE
  5
9C3E
330
99AA
100
AcDbEntity
  8
1
  6
Continuous
100
AcDbLine
 10
153.43102
 20
125.3047465023385
 30
0.0
 11
153.43102
 21
126.8047465023386
 31
0.0
  0
LINE
  5
9C3F
330
99AA
100
AcDbEntity
  8
1
  6
Continuous
100
AcDbLine
 10
152.6310019999999
 20
125.3047465023385
 30
0.0
 11
152.6310019999999
 21
126.8047465023386
 31
0.0
  0
LINE
  5
9C40
330
99AA
100
AcDbEntity
  8
1
  6
Continuous
100
AcDbLine
 10
151.8310139999998
 20
125.3047465023385
 30
0.0
 11
151.8310139999998
 21
126.8047465023386
 31
0.0
  0
LINE
  5
9C41
330
99AA
100
AcDbEntity
  8
1
  6
Continuous
100
AcDbLine
 10
151.0310259999999
 20
125.3047465023385
 30
0.0
 11
151.0310259999999
 21
126.8047465023386
 31
0.0
  0
LINE
  5
9C42
330
99AA
100
AcDbEntity
  8
1
  6
Continuous
100
AcDbLine
 10
150.2310079999998
 20
125.3047465023385
 30
0.0
 11
150.2310079999998
 21
126.8047465023386
 31
0.0
  0
LINE
  5
9C43
330
99AA
100
AcDbEntity
  8
1
  6
Continuous
100
AcDbLine
 10
149.4310199999999
 20
124.2047585023386
 30
0.0
 11
149.4310199999999
 21
124.8047465023386
 31
0.0
  0
LINE
  5
9C44
330
99AA
100
AcDbEntity
  8
1
  6
Continuous
100
AcDbLine
 10
161.43102
 20
125.3047465023385
 30
0.0
 11
161.43102
 21
126.8047465023386
 31
0.0
  0
LINE
  5
9C45
330
99AA
100
AcDbEntity
  8
1
  6
Continuous
100
AcDbLine
 10
160.431036
 20
127.8047305023386
 30
0.0
 11
161.431036
 21
126.8047305023386
 31
0.0
  0
LINE
  5
9C46
330
99AA
100
AcDbEntity
  8
1
  6
Continuous
100
AcDbLine
 10
160.931066
 20
124.8047765023386
 30
0.0
 11
161.4310509999999
 21
125.3047615023385
 31
0.0
  0
LINE
  5
9C47
330
99AA
100
AcDbEntity
  8
1
  6
Continuous
100
AcDbLine
 10
160.631002
 20
125.3047465023385
 30
0.0
 11
160.631002
 21
126.8047465023386
 31
0.0
  0
LINE
  5
9C48
330
99AA
100
AcDbEntity
  8
1
  6
Continuous
100
AcDbLine
 10
159.8310139999999
 20
125.3047465023385
 30
0.0
 11
159.8310139999999
 21
126.8047465023386
 31
0.0
  0
LINE
  5
9C49
330
99AA
100
AcDbEntity
  8
1
  6
Continuous
100
AcDbLine
 10
161.43102
 20
124.2047585023386
 30
0.0
 11
161.43102
 21
124.8047465023386
 31
0.0
  0
ENDSEC
  0
SECTION
  2
OBJECTS
  0
DICTIONARY
  5
9998
330
0
100
AcDbDictionary
281
     1
  3
ACAD_CIP_PREVIOUS_PRODUCT_INFO
350
9D69
  3
ACAD_COLOR
350
9D4B
  3
ACAD_DETAILVIEWSTYLE
350
9D64
  3
ACAD_GROUP
350
9999
  3
ACAD_LAYOUT
350
99A5
  3
ACAD_MATERIAL
350
9D19
  3
ACAD_MLEADERSTYLE
350
9D60
  3
ACAD_MLINESTYLE
350
99A2
  3
ACAD_PLOTSETTINGS
350
99A4
  3
ACAD_PLOTSTYLENAME
350
9D17
  3
ACAD_SCALELIST
350
9D4E
  3
ACAD_SECTIONVIEWSTYLE
350
9D62
  3
ACAD_TABLESTYLE
350
9D4C
  3
ACAD_VISUALSTYLE
350
9D32
  3
ACDB_RECOMPOSE_DATA
350
9D87
  3
AcDbVariableDictionary
350
9D7A
  3
DWGPROPS
350
9D88
  0
DICTIONARY
  5
9D6A
330
999C
100
AcDbDictionary
280
     1
281
     1
  3
ADSK_XREC_LAYER_RECONCILED
360
9D6B
  0
DICTIONARY
  5
9D6C
330
99B2
100
AcDbDictionary
280
     1
281
     1
  3
ADSK_XREC_LAYER_RECONCILED
360
9D6D
  0
DICTIONARY
  5
9D6E
330
99B3
100
AcDbDictionary
280
     1
281
     1
  3
ADSK_XREC_LAYER_RECONCILED
360
9D6F
  0
DICTIONARY
  5
9D70
330
99B4
100
AcDbDictionary
280
     1
281
     1
  3
ADSK_XREC_LAYER_RECONCILED
360
9D71
  0
DICTIONARY
  5
9D72
330
99B5
100
AcDbDictionary
280
     1
281
     1
  3
ADSK_XREC_LAYER_RECONCILED
360
9D73
  0
DICTIONARY
  5
9D74
330
99B6
100
AcDbDictionary
280
     1
281
     1
  3
ADSK_XREC_LAYER_RECONCILED
360
9D75
  0
DICTIONARY
  5
9D76
330
99B7
100
AcDbDictionary
280
     1
281
     1
  3
ADSK_XREC_LAYER_RECONCILED
360
9D77
  0
DICTIONARY
  5
9D78
330
99B8
100
AcDbDictionary
280
     1
281
     1
  3
ADSK_XREC_LAYER_RECONCILED
360
9D79
  0
DICTIONARY
  5
9D12
330
99AA
100
AcDbDictionary
281
     1
  3
ACAD_LAYOUTSELFREF
350
9D13
  0
DICTIONARY
  5
9D10
330
99A6
100
AcDbDictionary
281
     1
  3
ACAD_LAYOUTSELFREF
350
9D11
  0
XRECORD
  5
9D69
102
{ACAD_REACTORS
330
9998
102
}
330
9998
100
AcDbXrecord
280
     1
300
ACDLT
300
2014
300
ACDLT_F_S
  0
DICTIONARY
  5
9D4B
102
{ACAD_REACTORS
330
9998
102
}
330
9998
100
AcDbDictionary
281
     1
  0
DICTIONARY
  5
9D64
102
{ACAD_REACTORS
330
9998
102
}
330
9998
100
AcDbDictionary
281
     1
  3
Imperial24
350
9D65
  0
DICTIONARY
  5
9999
102
{ACAD_REACTORS
330
9998
102
}
330
9998
100
AcDbDictionary
281
     1
  0
DICTIONARY
  5
99A5
102
{ACAD_REACTORS
330
9998
102
}
330
9998
100
AcDbDictionary
281
     1
  3
Model
350
9D66
  3
レイアウト1
350
9D67
  0
DICTIONARY
  5
9D19
102
{ACAD_REACTORS
330
9998
102
}
330
9998
100
AcDbDictionary
281
     1
  3
ByBlock
350
9D22
  3
ByLayer
350
9D1A
  3
Global
350
9D2A
  0
DICTIONARY
  5
9D60
102
{ACAD_REACTORS
330
9998
102
}
330
9998
100
AcDbDictionary
281
     1
  3
Standard
350
9D61
  0
DICTIONARY
  5
99A2
102
{ACAD_REACTORS
330
9998
102
}
330
9998
100
AcDbDictionary
281
     1
  3
STANDARD
350
99A3
  0
DICTIONARY
  5
99A4
102
{ACAD_REACTORS
330
9998
102
}
330
9998
100
AcDbDictionary
281
     1
  0
ACDBDICTIONARYWDFLT
  5
9D17
102
{ACAD_REACTORS
330
9998
102
}
330
9998
100
AcDbDictionary
281
     1
  3
Normal
350
9D18
100
AcDbDictionaryWithDefault
340
9D18
  0
DICTIONARY
  5
9D4E
102
{ACAD_REACTORS
330
9998
102
}
330
9998
100
AcDbDictionary
281
     1
  3
A0
350
9D4F
  3
A1
350
9D50
  3
A2
350
9D51
  3
A3
350
9D52
  3
A4
350
9D53
  3
A5
350
9D54
  3
A6
350
9D55
  3
A7
350
9D56
  3
A8
350
9D57
  3
A9
350
9D58
  3
B0
350
9D59
  3
B1
350
9D5A
  3
B2
350
9D5B
  3
B3
350
9D5C
  3
B4
350
9D5D
  3
B5
350
9D5E
  3
B6
350
9D5F
  0
DICTIONARY
  5
9D62
102
{ACAD_REACTORS
330
9998
102
}
330
9998
100
AcDbDictionary
281
     1
  3
Imperial24
350
9D63
  0
DICTIONARY
  5
9D4C
102
{ACAD_REACTORS
330
9998
102
}
330
9998
100
AcDbDictionary
281
     1
  3
Standard
350
9D4D
  0
DICTIONARY
  5
9D32
102
{ACAD_REACTORS
330
9998
102
}
330
9998
100
AcDbDictionary
281
     1
  3
2dWireframe
350
9D38
  3
Basic
350
9D37
  3
Brighten
350
9D3E
  3
ColorChange
350
9D42
  3
Conceptual
350
9D3B
  3
Dim
350
9D3D
  3
EdgeColorOff
350
9D4A
  3
Facepattern
350
9D41
  3
Flat
350
9D33
  3
FlatWithEdges
350
9D34
  3
Gouraud
350
9D35
  3
GouraudWithEdges
350
9D36
  3
Hidden
350
9D3A
  3
JitterOff
350
9D48
  3
Linepattern
350
9D40
  3
OverhangOff
350
9D49
  3
Realistic
350
9D3C
  3
Shaded
350
9D47
  3
Shaded with edges
350
9D46
  3
Shades of Gray
350
9D43
  3
Sketchy
350
9D44
  3
Thicken
350
9D3F
  3
Wireframe
350
9D39
  3
X-Ray
350
9D45
  0
XRECORD
  5
9D87
102
{ACAD_REACTORS
330
9998
102
}
330
9998
100
AcDbXrecord
280
     1
 90
        1
330
9D4D
  0
DICTIONARY
  5
9D7A
102
{ACAD_REACTORS
330
9998
102
}
330
9998
100
AcDbDictionary
281
     1
  3
CANNOSCALE
350
9D7F
  3
CMLEADERSTYLE
350
9D7C
  3
CTABLESTYLE
350
9D7B
  3
CVIEWDETAILSTYLE
350
9D7D
  3
CVIEWSECTIONSTYLE
350
9D7E
  3
DIMASSOC
350
9D82
  3
INDEXCTL
350
9D81
  3
SORTENTS
350
9D80
  3
XCLIPFRAME
350
9D83
  0
XRECORD
  5
9D88
102
{ACAD_REACTORS
330
9998
102
}
330
9998
100
AcDbXrecord
280
     1
  1
DWGPROPS COOKIE
  2

  3

  4

  6

  7

  8
Yoshitsune
  9

300
=
301
=
302
=
303
=
304
=
305
=
306
=
307
=
308
=
309
=
 40
0.0028161342592593
 41
2451074.484224768
 42
2457192.601635475
  1

 90
        0
  0
XRECORD
  5
9D6B
102
{ACAD_REACTORS
330
9D6A
102
}
330
9D6A
100
AcDbXrecord
280
     1
290
     1
  0
XRECORD
  5
9D6D
102
{ACAD_REACTORS
330
9D6C
102
}
330
9D6C
100
AcDbXrecord
280
     1
290
     1
  0
XRECORD
  5
9D6F
102
{ACAD_REACTORS
330
9D6E
102
}
330
9D6E
100
AcDbXrecord
280
     1
290
     1
  0
XRECORD
  5
9D71
102
{ACAD_REACTORS
330
9D70
102
}
330
9D70
100
AcDbXrecord
280
     1
290
     1
  0
XRECORD
  5
9D73
102
{ACAD_REACTORS
330
9D72
102
}
330
9D72
100
AcDbXrecord
280
     1
290
     1
  0
XRECORD
  5
9D75
102
{ACAD_REACTORS
330
9D74
102
}
330
9D74
100
AcDbXrecord
280
     1
290
     1
  0
XRECORD
  5
9D77
102
{ACAD_REACTORS
330
9D76
102
}
330
9D76
100
AcDbXrecord
280
     1
290
     1
  0
XRECORD
  5
9D79
102
{ACAD_REACTORS
330
9D78
102
}
330
9D78
100
AcDbXrecord
280
     1
290
     1
  0
XRECORD
  5
9D13
102
{ACAD_REACTORS
330
9D12
102
}
330
9D12
100
AcDbXrecord
280
     1
340
99AA
  0
XRECORD
  5
9D11
102
{ACAD_REACTORS
330
9D10
102
}
330
9D10
100
AcDbXrecord
280
     1
340
99A6
  0
ACDBDETAILVIEWSTYLE
  5
9D65
102
{ACAD_XDICTIONARY
360
9DC0
102
}
102
{ACAD_REACTORS
330
9D64
102
}
330
9D64
100
AcDbModelDocViewStyle
 70
     0
  3
Imperial24
290
     0
100
AcDbDetailViewStyle
 70
     0
 71
     0
 90
        3
 71
     1
340
999D
 40
0.24
340
0
 40
0.24
300

 40
0.36
280
     3
 71
     2
340
99A1
 90
       25
 71
     3
340
999D
 40
0.24
 90
        1
 40
0.75
 90
        1
300
%<\AcVar ViewType \f "%tc1">% %<\AcVar ViewDetailId>%\PSCALE %<\AcVar ViewScale \f "%sn">%
 71
     4
340
99A1
 90
       25
340
99A1
 90
       25
280
     0
  0
LAYOUT
  5
9D66
102
{ACAD_XDICTIONARY
360
9DC2
102
}
102
{ACAD_REACTORS
330
99A5
102
}
330
99A5
100
AcDbPlotSettings
  1

  2
Canon LBP9100C
  4

  6

 40
0.0
 41
0.0
 42
0.0
 43
0.0
 44
0.0
 45
0.0
 46
0.0
 47
0.0
 48
0.0
 49
0.0
140
0.0
141
0.0
142
1.0
143
1.0
 70
  1712
 72
     0
 73
     0
 74
     0
  7

 75
     0
147
1.0
148
0.0
149
0.0
100
AcDbLayout
  1
Model
 70
     1
 71
     0
 10
0.0
 20
0.0
 11
12.0
 21
9.0
 12
0.0
 22
0.0
 32
0.0
 14
0.0
 24
0.0
 34
0.0
 15
0.0
 25
0.0
 35
0.0
146
0.0
 13
0.0
 23
0.0
 33
0.0
 16
1.0
 26
0.0
 36
0.0
 17
0.0
 27
1.0
 37
0.0
 76
     0
330
99AA
331
9D0F
  0
LAYOUT
  5
9D67
102
{ACAD_XDICTIONARY
360
9DC4
102
}
102
{ACAD_REACTORS
330
99A5
102
}
330
99A5
100
AcDbPlotSettings
  1

  2
Canon LBP9100C
  4

  6

 40
0.0
 41
0.0
 42
0.0
 43
0.0
 44
0.0
 45
0.0
 46
0.0
 47
0.0
 48
0.0
 49
0.0
140
0.0
141
0.0
142
1.0
143
1.0
 70
   688
 72
     0
 73
     0
 74
     5
  7

 75
    16
147
1.0
148
0.0
149
0.0
100
AcDbLayout
  1
レイアウト1
 70
     0
 71
     1
 10
0.0
 20
0.0
 11
420.0
 21
297.0
 12
0.0
 22
0.0
 32
0.0
 14
1.000000000000000E+20
 24
1.000000000000000E+20
 34
1.000000000000000E+20
 15
-1.000000000000000E+20
 25
-1.000000000000000E+20
 35
-1.000000000000000E+20
146
0.0
 13
0.0
 23
0.0
 33
0.0
 16
1.0
 26
0.0
 36
0.0
 17
0.0
 27
1.0
 37
0.0
 76
     0
330
99A6
  0
MATERIAL
  5
9D22
102
{ACAD_XDICTIONARY
360
9D23
102
}
102
{ACAD_REACTORS
330
9D19
102
}
330
9D19
100
AcDbMaterial
  1
ByBlock
 72
     0
 43
0.0208333333333333
 43
0.0
 43
0.0
 43
0.0
 43
0.0
 43
0.0208333333333333
 43
0.0
 43
0.0
 43
0.0
 43
0.0
 43
1.0
 43
0.0
 43
0.0
 43
0.0
 43
0.0
 43
1.0
 77
     0
 47
0.0208333333333333
 47
0.0
 47
0.0
 47
0.0
 47
0.0
 47
0.0208333333333333
 47
0.0
 47
0.0
 47
0.0
 47
0.0
 47
1.0
 47
0.0
 47
0.0
 47
0.0
 47
0.0
 47
1.0
171
     0
 49
0.0208333333333333
 49
0.0
 49
0.0
 49
0.0
 49
0.0
 49
0.0208333333333333
 49
0.0
 49
0.0
 49
0.0
 49
0.0
 49
1.0
 49
0.0
 49
0.0
 49
0.0
 49
0.0
 49
1.0
175
     0
142
0.0208333333333333
142
0.0
142
0.0
142
0.0
142
0.0
142
0.0208333333333333
142
0.0
142
0.0
142
0.0
142
0.0
142
1.0
142
0.0
142
0.0
142
0.0
142
0.0
142
1.0
179
     0
144
0.0208333333333333
144
0.0
144
0.0
144
0.0
144
0.0
144
0.0208333333333333
144
0.0
144
0.0
144
0.0
144
0.0
144
1.0
144
0.0
144
0.0
144
0.0
144
0.0
144
1.0
147
0.0208333333333333
147
0.0
147
0.0
147
0.0
147
0.0
147
0.0208333333333333
147
0.0
147
0.0
147
0.0
147
0.0
147
1.0
147
0.0
147
0.0
147
0.0
147
0.0
147
1.0
  0
MATERIAL
  5
9D1A
102
{ACAD_XDICTIONARY
360
9D1B
102
}
102
{ACAD_REACTORS
330
9D19
102
}
330
9D19
100
AcDbMaterial
  1
ByLayer
 72
     0
 43
0.0208333333333333
 43
0.0
 43
0.0
 43
0.0
 43
0.0
 43
0.0208333333333333
 43
0.0
 43
0.0
 43
0.0
 43
0.0
 43
1.0
 43
0.0
 43
0.0
 43
0.0
 43
0.0
 43
1.0
 77
     0
 47
0.0208333333333333
 47
0.0
 47
0.0
 47
0.0
 47
0.0
 47
0.0208333333333333
 47
0.0
 47
0.0
 47
0.0
 47
0.0
 47
1.0
 47
0.0
 47
0.0
 47
0.0
 47
0.0
 47
1.0
171
     0
 49
0.0208333333333333
 49
0.0
 49
0.0
 49
0.0
 49
0.0
 49
0.0208333333333333
 49
0.0
 49
0.0
 49
0.0
 49
0.0
 49
1.0
 49
0.0
 49
0.0
 49
0.0
 49
0.0
 49
1.0
175
     0
142
0.0208333333333333
142
0.0
142
0.0
142
0.0
142
0.0
142
0.0208333333333333
142
0.0
142
0.0
142
0.0
142
0.0
142
1.0
142
0.0
142
0.0
142
0.0
142
0.0
142
1.0
179
     0
144
0.0208333333333333
144
0.0
144
0.0
144
0.0
144
0.0
144
0.0208333333333333
144
0.0
144
0.0
144
0.0
144
0.0
144
1.0
144
0.0
144
0.0
144
0.0
144
0.0
144
1.0
147
0.0208333333333333
147
0.0
147
0.0
147
0.0
147
0.0
147
0.0208333333333333
147
0.0
147
0.0
147
0.0
147
0.0
147
1.0
147
0.0
147
0.0
147
0.0
147
0.0
147
1.0
  0
MATERIAL
  5
9D2A
102
{ACAD_XDICTIONARY
360
9D2B
102
}
102
{ACAD_REACTORS
330
9D19
102
}
330
9D19
100
AcDbMaterial
  1
Global
 72
     0
 43
0.0208333333333333
 43
0.0
 43
0.0
 43
0.0
 43
0.0
 43
0.0208333333333333
 43
0.0
 43
0.0
 43
0.0
 43
0.0
 43
1.0
 43
0.0
 43
0.0
 43
0.0
 43
0.0
 43
1.0
 77
     0
 47
0.0208333333333333
 47
0.0
 47
0.0
 47
0.0
 47
0.0
 47
0.0208333333333333
 47
0.0
 47
0.0
 47
0.0
 47
0.0
 47
1.0
 47
0.0
 47
0.0
 47
0.0
 47
0.0
 47
1.0
171
     0
 49
0.0208333333333333
 49
0.0
 49
0.0
 49
0.0
 49
0.0
 49
0.0208333333333333
 49
0.0
 49
0.0
 49
0.0
 49
0.0
 49
1.0
 49
0.0
 49
0.0
 49
0.0
 49
0.0
 49
1.0
175
     0
142
0.0208333333333333
142
0.0
142
0.0
142
0.0
142
0.0
142
0.0208333333333333
142
0.0
142
0.0
142
0.0
142
0.0
142
1.0
142
0.0
142
0.0
142
0.0
142
0.0
142
1.0
179
     0
144
0.0208333333333333
144
0.0
144
0.0
144
0.0
144
0.0
144
0.0208333333333333
144
0.0
144
0.0
144
0.0
144
0.0
144
1.0
144
0.0
144
0.0
144
0.0
144
0.0
144
1.0
147
0.0208333333333333
147
0.0
147
0.0
147
0.0
147
0.0
147
0.0208333333333333
147
0.0
147
0.0
147
0.0
147
0.0
147
1.0
147
0.0
147
0.0
147
0.0
147
0.0
147
1.0
  0
MLEADERSTYLE
  5
9D61
102
{ACAD_REACTORS
330
9D60
102
}
330
9D60
100
AcDbMLeaderStyle
170
     2
171
     1
172
     0
 90
        2
 40
0.0
 41
0.0
173
     1
 91
-1056964608
340
999F
 92
       -2
290
     1
 42
0.09
291
     1
 43
0.36
  3
Standard
 44
0.18
300

342
999D
174
     1
178
     6
175
     1
176
     0
 93
-1056964608
 45
0.18
292
     0
297
     0
 46
0.18
 94
-1056964608
 47
1.0
 49
1.0
140
1.0
293
     1
141
0.0
294
     1
177
     0
142
1.0
295
     0
296
     0
143
0.125
1001
ACAD_MLEADERVER
1070
     2
  0
MLINESTYLE
  5
99A3
102
{ACAD_REACTORS
330
99A2
102
}
330
99A2
100
AcDbMlineStyle
  2
STANDARD
 70
     0
  3

 62
   256
 51
90.0
 52
90.0
 71
     2
 49
0.5
 62
   256
  6
BYLAYER
 49
-0.5
 62
   256
  6
BYLAYER
  0
ACDBPLACEHOLDER
  5
9D18
102
{ACAD_REACTORS
330
9D17
102
}
330
9D17
  0
SCALE
  5
9D4F
102
{ACAD_REACTORS
330
9D4E
102
}
330
9D4E
100
AcDbScale
 70
     0
300
1:1
140
1.0
141
1.0
290
     1
  0
SCALE
  5
9D50
102
{ACAD_REACTORS
330
9D4E
102
}
330
9D4E
100
AcDbScale
 70
     0
300
1/128" = 1'-0"
140
0.0078125
141
12.0
290
     0
  0
SCALE
  5
9D51
102
{ACAD_REACTORS
330
9D4E
102
}
330
9D4E
100
AcDbScale
 70
     0
300
1/64" = 1'-0"
140
0.015625
141
12.0
290
     0
  0
SCALE
  5
9D52
102
{ACAD_REACTORS
330
9D4E
102
}
330
9D4E
100
AcDbScale
 70
     0
300
1/32" = 1'-0"
140
0.03125
141
12.0
290
     0
  0
SCALE
  5
9D53
102
{ACAD_REACTORS
330
9D4E
102
}
330
9D4E
100
AcDbScale
 70
     0
300
1/16" = 1'-0"
140
0.0625
141
12.0
290
     0
  0
SCALE
  5
9D54
102
{ACAD_REACTORS
330
9D4E
102
}
330
9D4E
100
AcDbScale
 70
     0
300
3/32" = 1'-0"
140
0.09375
141
12.0
290
     0
  0
SCALE
  5
9D55
102
{ACAD_REACTORS
330
9D4E
102
}
330
9D4E
100
AcDbScale
 70
     0
300
1/8" = 1'-0"
140
0.125
141
12.0
290
     0
  0
SCALE
  5
9D56
102
{ACAD_REACTORS
330
9D4E
102
}
330
9D4E
100
AcDbScale
 70
     0
300
3/16" = 1'-0"
140
0.1875
141
12.0
290
     0
  0
SCALE
  5
9D57
102
{ACAD_REACTORS
330
9D4E
102
}
330
9D4E
100
AcDbScale
 70
     0
300
1/4" = 1'-0"
140
0.25
141
12.0
290
     0
  0
SCALE
  5
9D58
102
{ACAD_REACTORS
330
9D4E
102
}
330
9D4E
100
AcDbScale
 70
     0
300
3/8" = 1'-0"
140
0.375
141
12.0
290
     0
  0
SCALE
  5
9D59
102
{ACAD_REACTORS
330
9D4E
102
}
330
9D4E
100
AcDbScale
 70
     0
300
1/2" = 1'-0"
140
0.5
141
12.0
290
     0
  0
SCALE
  5
9D5A
102
{ACAD_REACTORS
330
9D4E
102
}
330
9D4E
100
AcDbScale
 70
     0
300
3/4" = 1'-0"
140
0.75
141
12.0
290
     0
  0
SCALE
  5
9D5B
102
{ACAD_REACTORS
330
9D4E
102
}
330
9D4E
100
AcDbScale
 70
     0
300
1" = 1'-0"
140
1.0
141
12.0
290
     0
  0
SCALE
  5
9D5C
102
{ACAD_REACTORS
330
9D4E
102
}
330
9D4E
100
AcDbScale
 70
     0
300
1-1/2" = 1'-0"
140
1.5
141
12.0
290
     0
  0
SCALE
  5
9D5D
102
{ACAD_REACTORS
330
9D4E
102
}
330
9D4E
100
AcDbScale
 70
     0
300
3" = 1'-0"
140
3.0
141
12.0
290
     0
  0
SCALE
  5
9D5E
102
{ACAD_REACTORS
330
9D4E
102
}
330
9D4E
100
AcDbScale
 70
     0
300
6" = 1'-0"
140
6.0
141
12.0
290
     0
  0
SCALE
  5
9D5F
102
{ACAD_REACTORS
330
9D4E
102
}
330
9D4E
100
AcDbScale
 70
     0
300
1'-0" = 1'-0"
140
12.0
141
12.0
290
     0
  0
ACDBSECTIONVIEWSTYLE
  5
9D63
102
{ACAD_XDICTIONARY
360
9DBE
102
}
102
{ACAD_REACTORS
330
9D62
102
}
330
9D62
100
AcDbModelDocViewStyle
 70
     0
  3
Imperial24
290
     0
100
AcDbSectionViewStyle
 70
     0
 71
     0
 90
       78
 71
     1
340
999D
 40
0.24
340
0
340
0
 40
0.24
300
I, O, Q, S, X, Z
 40
0.48
 90
        3
 40
0.18
 90
        1
 71
     2
340
99A1
 90
       25
340
99A1
 90
       50
 40
0.24
 40
0.0
 40
0.24
 71
     3
340
999D
 40
0.24
 90
        1
 40
0.75
 90
        1
300
%<\AcVar ViewType \f "%tc1">% %<\AcVar ViewSectionStartId>%-%<\AcVar ViewSectionEndId>%\PSCALE %<\AcVar ViewScale \f "%sn">%
 71
     4
300
ANSI31
 40
1.0
 90
        0
290
     0
290
     0
 90
        6
 40
0.0
 40
1.570796326794896
 40
0.2617993877991494
 40
1.308996938995747
 40
-0.2617993877991494
 40
1.832595714594046
  0
TABLESTYLE
  5
9D4D
102
{ACAD_XDICTIONARY
360
9D85
102
}
102
{ACAD_REACTORS
330
9D4C
102
}
330
9D4C
100
AcDbTableStyle
  3
Standard
 70
     0
 71
     0
 40
0.06
 41
0.06
280
     0
281
     0
  7
STANDARD
140
0.18
170
     2
 62
     0
 63
     7
283
     0
274
    -2
284
     1
 64
     0
275
    -2
285
     1
 65
     0
276
    -2
286
     1
 66
     0
277
    -2
287
     1
 67
     0
278
    -2
288
     1
 68
     0
279
    -2
289
     1
 69
     0
  7
STANDARD
140
0.25
170
     5
 62
     0
 63
     7
283
     0
274
    -2
284
     1
 64
     0
275
    -2
285
     1
 65
     0
276
    -2
286
     1
 66
     0
277
    -2
287
     1
 67
     0
278
    -2
288
     1
 68
     0
279
    -2
289
     1
 69
     0
  7
STANDARD
140
0.18
170
     5
 62
     0
 63
     7
283
     0
274
    -2
284
     1
 64
     0
275
    -2
285
     1
 65
     0
276
    -2
286
     1
 66
     0
277
    -2
287
     1
 67
     0
278
    -2
288
     1
 68
     0
279
    -2
289
     1
 69
     0
  0
VISUALSTYLE
  5
9D38
102
{ACAD_XDICTIONARY
360
9D96
102
}
102
{ACAD_REACTORS
330
9D32
102
}
330
9D32
100
AcDbVisualStyle
  2
2dWireframe
 70
     4
 71
     0
 72
     2
 73
     0
 90
        0
 40
-0.6
 41
-30.0
 62
     5
 63
     7
 74
     1
 91
        4
 64
     7
 65
   257
 75
     1
175
     1
 42
1.0
 92
        0
 66
   257
 43
1.0
 76
     1
 77
     6
 78
     2
 67
     7
 79
     5
170
     0
171
     0
290
     0
174
     0
 93
        1
 44
0.0
173
     0
291
     0
 45
0.0
1001
ACAD
1000
AcDbSavedByObjectVersion
1070
     0
  0
VISUALSTYLE
  5
9D37
102
{ACAD_XDICTIONARY
360
9D94
102
}
102
{ACAD_REACTORS
330
9D32
102
}
330
9D32
100
AcDbVisualStyle
  2
Basic
 70
     7
 71
     1
 72
     0
 73
     1
 90
        0
 40
-0.6
 41
-30.0
 62
     5
 63
     7
 74
     0
 91
        4
 64
     7
 65
   257
 75
     1
175
     1
 42
1.0
 92
        8
 66
     7
 43
1.0
 76
     1
 77
     6
 78
     2
 67
     7
 79
     5
170
     0
171
     0
290
     0
174
     0
 93
        1
 44
0.0
173
     0
291
     1
 45
0.0
1001
ACAD
1000
AcDbSavedByObjectVersion
1070
     0
  0
VISUALSTYLE
  5
9D3E
102
{ACAD_XDICTIONARY
360
9DA2
102
}
102
{ACAD_REACTORS
330
9D32
102
}
330
9D32
100
AcDbVisualStyle
  2
Brighten
 70
    12
 71
     2
 72
     2
 73
     0
 90
        0
 40
-0.6
 41
-30.0
 62
     5
 63
     7
 74
     1
 91
        4
 64
     7
 65
   257
 75
     1
175
     1
 42
1.0
 92
        8
 66
     7
 43
1.0
 76
     1
 77
     6
 78
     2
 67
     7
 79
     5
170
     0
171
     0
290
     0
174
     0
 93
        1
 44
50.0
173
     0
291
     1
 45
0.0
1001
ACAD
1000
AcDbSavedByObjectVersion
1070
     0
  0
VISUALSTYLE
  5
9D42
102
{ACAD_XDICTIONARY
360
9DAA
102
}
102
{ACAD_REACTORS
330
9D32
102
}
330
9D32
100
AcDbVisualStyle
  2
ColorChange
 70
    16
 71
     2
 72
     2
 73
     3
 90
        0
 40
-0.6
 41
-30.0
 62
     5
 63
     8
 74
     1
 91
        4
 64
     7
 65
   257
 75
     1
175
     1
 42
1.0
 92
        8
 66
     8
 43
1.0
 76
     1
 77
     6
 78
     2
 67
     7
 79
     5
170
     0
171
     0
290
     0
174
     0
 93
        1
 44
0.0
173
     0
291
     1
 45
0.0
1001
ACAD
1000
AcDbSavedByObjectVersion
1070
     0
  0
VISUALSTYLE
  5
9D3B
102
{ACAD_XDICTIONARY
360
9D9C
102
}
102
{ACAD_REACTORS
330
9D32
102
}
330
9D32
100
AcDbVisualStyle
  2
Conceptual
 70
     9
 71
     3
 72
     2
 73
     0
 90
        0
 40
-0.6
 41
-30.0
 62
     5
 63
     7
 74
     2
 91
        2
 64
     7
 65
   257
 75
     1
175
     1
 42
179.0
 92
        8
 66
     7
 43
1.0
 76
     1
 77
     6
 78
     2
 67
     7
 79
     3
170
     0
171
     0
290
     0
174
     0
 93
        1
 44
0.0
173
     0
291
     0
 45
0.0
1001
ACAD
1000
AcDbSavedByObjectVersion
1070
     0
  0
VISUALSTYLE
  5
9D3D
102
{ACAD_XDICTIONARY
360
9DA0
102
}
102
{ACAD_REACTORS
330
9D32
102
}
330
9D32
100
AcDbVisualStyle
  2
Dim
 70
    11
 71
     2
 72
     2
 73
     0
 90
        0
 40
-0.6
 41
-30.0
 62
     5
 63
     7
 74
     1
 91
        4
 64
     7
 65
   257
 75
     1
175
     1
 42
1.0
 92
        8
 66
     7
 43
1.0
 76
     1
 77
     6
 78
     2
 67
     7
 79
     5
170
     0
171
     0
290
     0
174
     0
 93
        1
 44
-50.0
173
     0
291
     1
 45
0.0
1001
ACAD
1000
AcDbSavedByObjectVersion
1070
     0
  0
VISUALSTYLE
  5
9D4A
102
{ACAD_XDICTIONARY
360
9DBA
102
}
102
{ACAD_REACTORS
330
9D32
102
}
330
9D32
100
AcDbVisualStyle
  2
EdgeColorOff
 70
    22
 71
     2
 72
     2
 73
     0
 90
        0
 40
-0.6
 41
-30.0
 62
     5
 63
     7
 74
     1
 91
        4
 64
     7
 65
   257
 75
     1
175
     1
 42
1.0
 92
        8
 66
     7
 43
1.0
 76
     1
 77
     6
 78
     2
 67
     7
 79
     5
170
     0
171
     0
290
     0
174
     0
 93
        1
 44
0.0
173
     0
291
     1
 45
0.0
1001
ACAD
1000
AcDbSavedByObjectVersion
1070
     0
  0
VISUALSTYLE
  5
9D41
102
{ACAD_XDICTIONARY
360
9DA8
102
}
102
{ACAD_REACTORS
330
9D32
102
}
330
9D32
100
AcDbVisualStyle
  2
Facepattern
 70
    15
 71
     2
 72
     2
 73
     0
 90
        0
 40
-0.6
 41
-30.0
 62
     5
 63
     7
 74
     1
 91
        4
 64
     7
 65
   257
 75
     1
175
     1
 42
1.0
 92
        8
 66
     7
 43
1.0
 76
     1
 77
     6
 78
     2
 67
     7
 79
     5
170
     0
171
     0
290
     0
174
     0
 93
        1
 44
0.0
173
     0
291
     1
 45
0.0
1001
ACAD
1000
AcDbSavedByObjectVersion
1070
     0
  0
VISUALSTYLE
  5
9D33
102
{ACAD_XDICTIONARY
360
9D8C
102
}
102
{ACAD_REACTORS
330
9D32
102
}
330
9D32
100
AcDbVisualStyle
  2
Flat
 70
     0
 71
     2
 72
     1
 73
     1
 90
        2
 40
-0.6
 41
30.0
 62
     5
 63
     7
 74
     0
 91
        0
 64
     7
 65
   257
 75
     1
175
     1
 42
1.0
 92
        8
 66
     7
 43
1.0
 76
     1
 77
     6
 78
     2
 67
     7
 79
     5
170
     0
171
     0
290
     0
174
     0
 93
       13
 44
0.0
173
     0
291
     1
 45
0.0
1001
ACAD
1000
AcDbSavedByObjectVersion
1070
     0
  0
VISUALSTYLE
  5
9D34
102
{ACAD_XDICTIONARY
360
9D8E
102
}
102
{ACAD_REACTORS
330
9D32
102
}
330
9D32
100
AcDbVisualStyle
  2
FlatWithEdges
 70
     1
 71
     2
 72
     1
 73
     1
 90
        2
 40
-0.6
 41
30.0
 62
     5
 63
     7
 74
     1
 91
        0
 64
     7
 65
   257
 75
     1
175
     1
 42
1.0
 92
        0
 66
   257
 43
1.0
 76
     1
 77
     6
 78
     2
 67
     7
 79
     5
170
     0
171
     0
290
     0
174
     0
 93
       13
 44
0.0
173
     0
291
     1
 45
0.0
1001
ACAD
1000
AcDbSavedByObjectVersion
1070
     0
  0
VISUALSTYLE
  5
9D35
102
{ACAD_XDICTIONARY
360
9D90
102
}
102
{ACAD_REACTORS
330
9D32
102
}
330
9D32
100
AcDbVisualStyle
  2
Gouraud
 70
     2
 71
     2
 72
     2
 73
     1
 90
        2
 40
-0.6
 41
30.0
 62
     5
 63
     7
 74
     0
 91
        0
 64
     7
 65
   257
 75
     1
175
     1
 42
1.0
 92
        0
 66
     7
 43
1.0
 76
     1
 77
     6
 78
     2
 67
     7
 79
     5
170
     0
171
     0
290
     0
174
     0
 93
       13
 44
0.0
173
     0
291
     1
 45
0.0
1001
ACAD
1000
AcDbSavedByObjectVersion
1070
     0
  0
VISUALSTYLE
  5
9D36
102
{ACAD_XDICTIONARY
360
9D92
102
}
102
{ACAD_REACTORS
330
9D32
102
}
330
9D32
100
AcDbVisualStyle
  2
GouraudWithEdges
 70
     3
 71
     2
 72
     2
 73
     1
 90
        2
 40
-0.6
 41
30.0
 62
     5
 63
     7
 74
     1
 91
        0
 64
     7
 65
   257
 75
     1
175
     1
 42
1.0
 92
        0
 66
   257
 43
1.0
 76
     1
 77
     6
 78
     2
 67
     7
 79
     5
170
     0
171
     0
290
     0
174
     0
 93
       13
 44
0.0
173
     0
291
     1
 45
0.0
1001
ACAD
1000
AcDbSavedByObjectVersion
1070
     0
  0
VISUALSTYLE
  5
9D3A
102
{ACAD_XDICTIONARY
360
9D9A
102
}
102
{ACAD_REACTORS
330
9D32
102
}
330
9D32
100
AcDbVisualStyle
  2
Hidden
 70
     6
 71
     1
 72
     2
 73
     2
 90
        0
 40
-0.6
 41
-30.0
 62
     5
 63
     7
 74
     2
 91
        2
 64
     7
 65
   257
 75
     2
175
     1
 42
40.0
 92
        0
 66
   257
 43
1.0
 76
     1
 77
     6
 78
     2
 67
     7
 79
     3
170
     0
171
     0
290
     0
174
     0
 93
        1
 44
0.0
173
     0
291
     0
 45
0.0
1001
ACAD
1000
AcDbSavedByObjectVersion
1070
     0
  0
VISUALSTYLE
  5
9D48
102
{ACAD_XDICTIONARY
360
9DB6
102
}
102
{ACAD_REACTORS
330
9D32
102
}
330
9D32
100
AcDbVisualStyle
  2
JitterOff
 70
    20
 71
     2
 72
     2
 73
     0
 90
        0
 40
-0.6
 41
-30.0
 62
     5
 63
     7
 74
     1
 91
        4
 64
     7
 65
   257
 75
     1
175
     1
 42
1.0
 92
       10
 66
     7
 43
1.0
 76
     1
 77
     6
 78
     2
 67
     7
 79
     5
170
     0
171
     0
290
     0
174
     0
 93
        1
 44
0.0
173
     0
291
     1
 45
0.0
1001
ACAD
1000
AcDbSavedByObjectVersion
1070
     0
  0
VISUALSTYLE
  5
9D40
102
{ACAD_XDICTIONARY
360
9DA6
102
}
102
{ACAD_REACTORS
330
9D32
102
}
330
9D32
100
AcDbVisualStyle
  2
Linepattern
 70
    14
 71
     2
 72
     2
 73
     0
 90
        0
 40
-0.6
 41
-30.0
 62
     5
 63
     7
 74
     1
 91
        4
 64
     7
 65
   257
 75
     7
175
     7
 42
1.0
 92
        8
 66
     7
 43
1.0
 76
     1
 77
     6
 78
     2
 67
     7
 79
     5
170
     0
171
     0
290
     0
174
     0
 93
        1
 44
0.0
173
     0
291
     1
 45
0.0
1001
ACAD
1000
AcDbSavedByObjectVersion
1070
     0
  0
VISUALSTYLE
  5
9D49
102
{ACAD_XDICTIONARY
360
9DB8
102
}
102
{ACAD_REACTORS
330
9D32
102
}
330
9D32
100
AcDbVisualStyle
  2
OverhangOff
 70
    21
 71
     2
 72
     2
 73
     0
 90
        0
 40
-0.6
 41
-30.0
 62
     5
 63
     7
 74
     1
 91
        4
 64
     7
 65
   257
 75
     1
175
     1
 42
1.0
 92
        9
 66
     7
 43
1.0
 76
     1
 77
     6
 78
     2
 67
     7
 79
     5
170
     0
171
     0
290
     0
174
     0
 93
        1
 44
0.0
173
     0
291
     1
 45
0.0
1001
ACAD
1000
AcDbSavedByObjectVersion
1070
     0
  0
VISUALSTYLE
  5
9D3C
102
{ACAD_XDICTIONARY
360
9D9E
102
}
102
{ACAD_REACTORS
330
9D32
102
}
330
9D32
100
AcDbVisualStyle
  2
Realistic
 70
     8
 71
     2
 72
     3
 73
     0
 90
        2
 40
-0.6
 41
30.0
 62
     5
 63
     7
 74
     0
 91
        0
 64
     7
 65
   257
 75
     1
175
     1
 42
1.0
 92
        8
 66
   257
 43
1.0
 76
     1
 77
     6
 78
     2
 67
     7
 79
     3
170
     0
171
     0
290
     0
174
     0
 93
       13
 44
0.0
173
     0
291
     0
 45
0.0
1001
ACAD
1000
AcDbSavedByObjectVersion
1070
     0
  0
VISUALSTYLE
  5
9D47
102
{ACAD_XDICTIONARY
360
9DB4
102
}
102
{ACAD_REACTORS
330
9D32
102
}
330
9D32
100
AcDbVisualStyle
  2
Shaded
 70
    27
 71
     2
 72
     2
 73
     1
 90
        2
 40
-0.6
 41
30.0
 62
     5
 63
     7
 74
     0
 91
        4
 64
     7
 65
   257
 75
     1
175
     1
 42
1.0
 92
        8
 66
   257
 43
1.0
 76
     1
 77
     6
 78
     2
 67
     8
 79
     3
170
     0
171
     0
290
     0
174
     0
 93
        5
 44
0.0
173
     0
291
     0
 45
0.0
1001
ACAD
1000
AcDbSavedByObjectVersion
1070
     0
  0
VISUALSTYLE
  5
9D46
102
{ACAD_XDICTIONARY
360
9DB2
102
}
102
{ACAD_REACTORS
330
9D32
102
}
330
9D32
100
AcDbVisualStyle
  2
Shaded with edges
 70
    26
 71
     2
 72
     2
 73
     1
 90
        2
 40
-0.6
 41
30.0
 62
     5
 63
     7
 74
     1
 91
       10
 64
     7
 65
   257
 75
     2
175
     1
 42
1.0
 92
        8
 66
   257
 43
1.0
 76
     1
 77
     6
 78
     2
 67
     7
 79
     3
170
     0
171
     0
290
     0
174
     0
 93
        5
 44
0.0
173
     0
291
     0
 45
0.0
1001
ACAD
1000
AcDbSavedByObjectVersion
1070
     0
  0
VISUALSTYLE
  5
9D43
102
{ACAD_XDICTIONARY
360
9DAC
102
}
102
{ACAD_REACTORS
330
9D32
102
}
330
9D32
100
AcDbVisualStyle
  2
Shades of Gray
 70
    23
 71
     2
 72
     2
 73
     3
 90
        0
 40
-0.6
 41
-30.0
 62
     5
 63
     7
 74
     2
 91
        2
 64
     7
 65
     7
 75
     1
175
     1
 42
40.0
 92
        8
 66
     7
 43
1.0
 76
     1
 77
     6
 78
     2
 67
     7
 79
     3
170
     0
171
     0
290
     0
174
     0
 93
        1
 44
0.0
173
     0
291
     0
 45
0.0
1001
ACAD
1000
AcDbSavedByObjectVersion
1070
     0
  0
VISUALSTYLE
  5
9D44
102
{ACAD_XDICTIONARY
360
9DAE
102
}
102
{ACAD_REACTORS
330
9D32
102
}
330
9D32
100
AcDbVisualStyle
  2
Sketchy
 70
    24
 71
     1
 72
     2
 73
     2
 90
        0
 40
-0.6
 41
-30.0
 62
     5
 63
     7
 74
     2
 91
        2
 64
     7
 65
     7
 75
     1
175
     1
 42
40.0
 92
       11
 66
     7
 43
1.0
 76
     1
 77
     6
 78
     2
 67
     7
 79
     6
170
     0
171
     0
290
     0
174
     0
 93
        1
 44
0.0
173
     0
291
     0
 45
0.0
1001
ACAD
1000
AcDbSavedByObjectVersion
1070
     0
  0
VISUALSTYLE
  5
9D3F
102
{ACAD_XDICTIONARY
360
9DA4
102
}
102
{ACAD_REACTORS
330
9D32
102
}
330
9D32
100
AcDbVisualStyle
  2
Thicken
 70
    13
 71
     2
 72
     2
 73
     0
 90
        0
 40
-0.6
 41
-30.0
 62
     5
 63
     7
 74
     1
 91
        4
 64
     7
 65
   257
 75
     1
175
     1
 42
1.0
 92
       12
 66
     7
 43
1.0
 76
     1
 77
     6
 78
     2
 67
     7
 79
     5
170
     0
171
     0
290
     0
174
     0
 93
        1
 44
0.0
173
     0
291
     1
 45
0.0
1001
ACAD
1000
AcDbSavedByObjectVersion
1070
     0
  0
VISUALSTYLE
  5
9D39
102
{ACAD_XDICTIONARY
360
9D98
102
}
102
{ACAD_REACTORS
330
9D32
102
}
330
9D32
100
AcDbVisualStyle
  2
Wireframe
 70
     5
 71
     0
 72
     2
 73
     0
 90
        0
 40
-0.6
 41
-30.0
 62
     5
 63
     7
 74
     1
 91
        4
 64
     7
 65
   257
 75
     1
175
     1
 42
1.0
 92
        0
 66
   257
 43
1.0
 76
     1
 77
     6
 78
     2
 67
     7
 79
     3
170
     0
171
     0
290
     0
174
     0
 93
        1
 44
0.0
173
     0
291
     0
 45
0.0
1001
ACAD
1000
AcDbSavedByObjectVersion
1070
     0
  0
VISUALSTYLE
  5
9D45
102
{ACAD_XDICTIONARY
360
9DB0
102
}
102
{ACAD_REACTORS
330
9D32
102
}
330
9D32
100
AcDbVisualStyle
  2
X-Ray
 70
    25
 71
     2
 72
     2
 73
     1
 90
        1
 40
0.5
 41
-30.0
 62
     5
 63
     7
 74
     1
 91
        0
 64
     7
 65
   257
 75
     1
175
     1
 42
1.0
 92
        8
 66
     7
 43
1.0
 76
     1
 77
     6
 78
     2
 67
     7
 79
     3
170
     0
171
     0
290
     0
174
     0
 93
       13
 44
0.0
173
     0
291
     0
 45
0.0
1001
ACAD
1000
AcDbSavedByObjectVersion
1070
     0
  0
DICTIONARYVAR
  5
9D7F
102
{ACAD_REACTORS
330
9D7A
102
}
330
9D7A
100
DictionaryVariables
280
     0
  1
1:1
  0
DICTIONARYVAR
  5
9D7C
102
{ACAD_REACTORS
330
9D7A
102
}
330
9D7A
100
DictionaryVariables
280
     0
  1
STANDARD
  0
DICTIONARYVAR
  5
9D7B
102
{ACAD_REACTORS
330
9D7A
102
}
330
9D7A
100
DictionaryVariables
280
     0
  1
STANDARD
  0
DICTIONARYVAR
  5
9D7D
102
{ACAD_REACTORS
330
9D7A
102
}
330
9D7A
100
DictionaryVariables
280
     0
  1
Imperial24
  0
DICTIONARYVAR
  5
9D7E
102
{ACAD_REACTORS
330
9D7A
102
}
330
9D7A
100
DictionaryVariables
280
     0
  1
Imperial24
  0
DICTIONARYVAR
  5
9D82
102
{ACAD_REACTORS
330
9D7A
102
}
330
9D7A
100
DictionaryVariables
280
     0
  1
1
  0
DICTIONARYVAR
  5
9D81
102
{ACAD_REACTORS
330
9D7A
102
}
330
9D7A
100
DictionaryVariables
280
     0
  1
0
  0
DICTIONARYVAR
  5
9D80
102
{ACAD_REACTORS
330
9D7A
102
}
330
9D7A
100
DictionaryVariables
280
     0
  1
127
  0
DICTIONARYVAR
  5
9D83
102
{ACAD_REACTORS
330
9D7A
102
}
330
9D7A
100
DictionaryVariables
280
     0
  1
2
  0
DICTIONARY
  5
9DC0
330
9D65
100
AcDbDictionary
280
     1
281
     1
  3
ACAD_XREC_ROUNDTRIP
360
9DC1
  0
DICTIONARY
  5
9DC2
330
9D66
100
AcDbDictionary
280
     1
281
     1
  3
ACAD_XREC_ROUNDTRIP
360
9DC3
  0
DICTIONARY
  5
9DC4
330
9D67
100
AcDbDictionary
280
     1
281
     1
  3
ACAD_XREC_ROUNDTRIP
360
9DC5
  0
DICTIONARY
  5
9D23
330
9D22
100
AcDbDictionary
280
     1
281
     1
  3
ACAD_XREC_ROUNDTRIP
360
9D8A
  3
BUMPTILE
360
9D25
  3
DIFFUSETILE
360
9D24
  3
OPACITYTILE
360
9D28
  3
REFLECTIONTILE
360
9D27
  3
REFRACTIONTILE
360
9D29
  3
SPECULARTILE
360
9D26
  0
DICTIONARY
  5
9D1B
330
9D1A
100
AcDbDictionary
280
     1
281
     1
  3
ACAD_XREC_ROUNDTRIP
360
9D89
  3
BUMPTILE
360
9D1D
  3
DIFFUSETILE
360
9D1C
  3
OPACITYTILE
360
9D20
  3
REFLECTIONTILE
360
9D1F
  3
REFRACTIONTILE
360
9D21
  3
SPECULARTILE
360
9D1E
  0
DICTIONARY
  5
9D2B
330
9D2A
100
AcDbDictionary
280
     1
281
     1
  3
ACAD_XREC_ROUNDTRIP
360
9D8B
  3
BUMPTILE
360
9D2D
  3
DIFFUSETILE
360
9D2C
  3
OPACITYTILE
360
9D30
  3
REFLECTIONTILE
360
9D2F
  3
REFRACTIONTILE
360
9D31
  3
SPECULARTILE
360
9D2E
  0
DICTIONARY
  5
9DBE
330
9D63
100
AcDbDictionary
280
     1
281
     1
  3
ACAD_XREC_ROUNDTRIP
360
9DBF
  0
DICTIONARY
  5
9D85
330
9D4D
100
AcDbDictionary
280
     1
281
     1
  3
ACAD_ROUNDTRIP_2008_TABLESTYLE_CELLSTYLEMAP
360
9D86
  3
ACAD_XREC_ROUNDTRIP
360
9DBC
  0
DICTIONARY
  5
9D96
330
9D38
100
AcDbDictionary
280
     1
281
     1
  3
ACAD_XREC_ROUNDTRIP
360
9D97
  0
DICTIONARY
  5
9D94
330
9D37
100
AcDbDictionary
280
     1
281
     1
  3
ACAD_XREC_ROUNDTRIP
360
9D95
  0
DICTIONARY
  5
9DA2
330
9D3E
100
AcDbDictionary
280
     1
281
     1
  3
ACAD_XREC_ROUNDTRIP
360
9DA3
  0
DICTIONARY
  5
9DAA
330
9D42
100
AcDbDictionary
280
     1
281
     1
  3
ACAD_XREC_ROUNDTRIP
360
9DAB
  0
DICTIONARY
  5
9D9C
330
9D3B
100
AcDbDictionary
280
     1
281
     1
  3
ACAD_XREC_ROUNDTRIP
360
9D9D
  0
DICTIONARY
  5
9DA0
330
9D3D
100
AcDbDictionary
280
     1
281
     1
  3
ACAD_XREC_ROUNDTRIP
360
9DA1
  0
DICTIONARY
  5
9DBA
330
9D4A
100
AcDbDictionary
280
     1
281
     1
  3
ACAD_XREC_ROUNDTRIP
360
9DBB
  0
DICTIONARY
  5
9DA8
330
9D41
100
AcDbDictionary
280
     1
281
     1
  3
ACAD_XREC_ROUNDTRIP
360
9DA9
  0
DICTIONARY
  5
9D8C
330
9D33
100
AcDbDictionary
280
     1
281
     1
  3
ACAD_XREC_ROUNDTRIP
360
9D8D
  0
DICTIONARY
  5
9D8E
330
9D34
100
AcDbDictionary
280
     1
281
     1
  3
ACAD_XREC_ROUNDTRIP
360
9D8F
  0
DICTIONARY
  5
9D90
330
9D35
100
AcDbDictionary
280
     1
281
     1
  3
ACAD_XREC_ROUNDTRIP
360
9D91
  0
DICTIONARY
  5
9D92
330
9D36
100
AcDbDictionary
280
     1
281
     1
  3
ACAD_XREC_ROUNDTRIP
360
9D93
  0
DICTIONARY
  5
9D9A
330
9D3A
100
AcDbDictionary
280
     1
281
     1
  3
ACAD_XREC_ROUNDTRIP
360
9D9B
  0
DICTIONARY
  5
9DB6
330
9D48
100
AcDbDictionary
280
     1
281
     1
  3
ACAD_XREC_ROUNDTRIP
360
9DB7
  0
DICTIONARY
  5
9DA6
330
9D40
100
AcDbDictionary
280
     1
281
     1
  3
ACAD_XREC_ROUNDTRIP
360
9DA7
  0
DICTIONARY
  5
9DB8
330
9D49
100
AcDbDictionary
280
     1
281
     1
  3
ACAD_XREC_ROUNDTRIP
360
9DB9
  0
DICTIONARY
  5
9D9E
330
9D3C
100
AcDbDictionary
280
     1
281
     1
  3
ACAD_XREC_ROUNDTRIP
360
9D9F
  0
DICTIONARY
  5
9DB4
330
9D47
100
AcDbDictionary
280
     1
281
     1
  3
ACAD_XREC_ROUNDTRIP
360
9DB5
  0
DICTIONARY
  5
9DB2
330
9D46
100
AcDbDictionary
280
     1
281
     1
  3
ACAD_XREC_ROUNDTRIP
360
9DB3
  0
DICTIONARY
  5
9DAC
330
9D43
100
AcDbDictionary
280
     1
281
     1
  3
ACAD_XREC_ROUNDTRIP
360
9DAD
  0
DICTIONARY
  5
9DAE
330
9D44
100
AcDbDictionary
280
     1
281
     1
  3
ACAD_XREC_ROUNDTRIP
360
9DAF
  0
DICTIONARY
  5
9DA4
330
9D3F
100
AcDbDictionary
280
     1
281
     1
  3
ACAD_XREC_ROUNDTRIP
360
9DA5
  0
DICTIONARY
  5
9D98
330
9D39
100
AcDbDictionary
280
     1
281
     1
  3
ACAD_XREC_ROUNDTRIP
360
9D99
  0
DICTIONARY
  5
9DB0
330
9D45
100
AcDbDictionary
280
     1
281
     1
  3
ACAD_XREC_ROUNDTRIP
360
9DB1
  0
XRECORD
  5
9DC1
102
{ACAD_REACTORS
330
9DC0
102
}
330
9DC0
100
AcDbXrecord
280
     1
102
DISPLAYNAME
  1
Imperial24
102
FLAGS
 90
        0
  0
XRECORD
  5
9DC3
102
{ACAD_REACTORS
330
9DC2
102
}
330
9DC2
100
AcDbXrecord
280
     1
102
SHADEPLOT
 70
     0
102
SHADEPLOTRESLEVEL
 70
     2
102
SHADEPLOTCUSTOMDPI
 70
   300
  0
XRECORD
  5
9DC5
102
{ACAD_REACTORS
330
9DC4
102
}
330
9DC4
100
AcDbXrecord
280
     1
102
SHADEPLOT
 70
     0
102
SHADEPLOTRESLEVEL
 70
     2
102
SHADEPLOTCUSTOMDPI
 70
   300
  0
XRECORD
  5
9D8A
102
{ACAD_REACTORS
330
9D23
102
}
330
9D23
100
AcDbXrecord
280
     1
102
MATERIAL
148
0.0
149
0.0
149
0.0
 93
        0
 94
      127
282
     0
 72
     0
 77
     0
171
     0
175
     0
179
     0
273
     0
  0
XRECORD
  5
9D25
102
{ACAD_REACTORS
330
9D23
102
}
330
9D23
100
AcDbXrecord
280
     1
270
     1
271
     1
  0
XRECORD
  5
9D24
102
{ACAD_REACTORS
330
9D23
102
}
330
9D23
100
AcDbXrecord
280
     1
270
     1
271
     1
  0
XRECORD
  5
9D28
102
{ACAD_REACTORS
330
9D23
102
}
330
9D23
100
AcDbXrecord
280
     1
270
     1
271
     1
  0
XRECORD
  5
9D27
102
{ACAD_REACTORS
330
9D23
102
}
330
9D23
100
AcDbXrecord
280
     1
270
     1
271
     1
  0
XRECORD
  5
9D29
102
{ACAD_REACTORS
330
9D23
102
}
330
9D23
100
AcDbXrecord
280
     1
270
     1
271
     1
  0
XRECORD
  5
9D26
102
{ACAD_REACTORS
330
9D23
102
}
330
9D23
100
AcDbXrecord
280
     1
270
     1
271
     1
  0
XRECORD
  5
9D89
102
{ACAD_REACTORS
330
9D1B
102
}
330
9D1B
100
AcDbXrecord
280
     1
102
MATERIAL
148
0.0
149
0.0
149
0.0
 93
        0
 94
      127
282
     0
 72
     0
 77
     0
171
     0
175
     0
179
     0
273
     0
  0
XRECORD
  5
9D1D
102
{ACAD_REACTORS
330
9D1B
102
}
330
9D1B
100
AcDbXrecord
280
     1
270
     1
271
     1
  0
XRECORD
  5
9D1C
102
{ACAD_REACTORS
330
9D1B
102
}
330
9D1B
100
AcDbXrecord
280
     1
270
     1
271
     1
  0
XRECORD
  5
9D20
102
{ACAD_REACTORS
330
9D1B
102
}
330
9D1B
100
AcDbXrecord
280
     1
270
     1
271
     1
  0
XRECORD
  5
9D1F
102
{ACAD_REACTORS
330
9D1B
102
}
330
9D1B
100
AcDbXrecord
280
     1
270
     1
271
     1
  0
XRECORD
  5
9D21
102
{ACAD_REACTORS
330
9D1B
102
}
330
9D1B
100
AcDbXrecord
280
     1
270
     1
271
     1
  0
XRECORD
  5
9D1E
102
{ACAD_REACTORS
330
9D1B
102
}
330
9D1B
100
AcDbXrecord
280
     1
270
     1
271
     1
  0
XRECORD
  5
9D8B
102
{ACAD_REACTORS
330
9D2B
102
}
330
9D2B
100
AcDbXrecord
280
     1
102
MATERIAL
148
0.0
149
0.0
149
0.0
 93
        0
 94
      127
282
     0
 72
     0
 77
     0
171
     0
175
     0
179
     0
273
     0
  0
XRECORD
  5
9D2D
102
{ACAD_REACTORS
330
9D2B
102
}
330
9D2B
100
AcDbXrecord
280
     1
270
     1
271
     1
  0
XRECORD
  5
9D2C
102
{ACAD_REACTORS
330
9D2B
102
}
330
9D2B
100
AcDbXrecord
280
     1
270
     1
271
     1
  0
XRECORD
  5
9D30
102
{ACAD_REACTORS
330
9D2B
102
}
330
9D2B
100
AcDbXrecord
280
     1
270
     1
271
     1
  0
XRECORD
  5
9D2F
102
{ACAD_REACTORS
330
9D2B
102
}
330
9D2B
100
AcDbXrecord
280
     1
270
     1
271
     1
  0
XRECORD
  5
9D31
102
{ACAD_REACTORS
330
9D2B
102
}
330
9D2B
100
AcDbXrecord
280
     1
270
     1
271
     1
  0
XRECORD
  5
9D2E
102
{ACAD_REACTORS
330
9D2B
102
}
330
9D2B
100
AcDbXrecord
280
     1
270
     1
271
     1
  0
XRECORD
  5
9DBF
102
{ACAD_REACTORS
330
9DBE
102
}
330
9DBE
100
AcDbXrecord
280
     1
102
DISPLAYNAME
  1
Imperial24
102
FLAGS
 90
        0
  0
CELLSTYLEMAP
  5
9D86
102
{ACAD_REACTORS
330
9D85
102
}
330
9D85
100
AcDbCellStyleMap
 90
        3
300
CELLSTYLE
  1
TABLEFORMAT_BEGIN
 90
        5
170
     1
 91
        0
 92
    32768
 62
   257
 93
        1
300
CONTENTFORMAT
  1
CONTENTFORMAT_BEGIN
 90
        0
 91
        0
 92
      512
 93
        0
300

 40
0.0
140
1.0
 94
        5
 62
     0
340
999D
144
0.25
309
CONTENTFORMAT_END
171
     0
 94
        0
309
TABLEFORMAT_END
  1
CELLSTYLE_BEGIN
 90
        1
 91
        1
300
_TITLE
309
CELLSTYLE_END
300
CELLSTYLE
  1
TABLEFORMAT_BEGIN
 90
        5
170
     1
 91
        0
 92
        0
 62
   257
 93
        1
300
CONTENTFORMAT
  1
CONTENTFORMAT_BEGIN
 90
        0
 91
        0
 92
      512
 93
        0
300

 40
0.0
140
1.0
 94
        5
 62
     0
340
999D
144
0.18
309
CONTENTFORMAT_END
171
     0
 94
        0
309
TABLEFORMAT_END
  1
CELLSTYLE_BEGIN
 90
        2
 91
        1
300
_HEADER
309
CELLSTYLE_END
300
CELLSTYLE
  1
TABLEFORMAT_BEGIN
 90
        5
170
     1
 91
        0
 92
        0
 62
   257
 93
        1
300
CONTENTFORMAT
  1
CONTENTFORMAT_BEGIN
 90
        0
 91
        0
 92
      512
 93
        0
300

 40
0.0
140
1.0
 94
        2
 62
     0
340
999D
144
0.18
309
CONTENTFORMAT_END
171
     0
 94
        0
309
TABLEFORMAT_END
  1
CELLSTYLE_BEGIN
 90
        3
 91
        2
300
_DATA
309
CELLSTYLE_END
  0
XRECORD
  5
9DBC
102
{ACAD_REACTORS
330
9D85
102
}
330
9D85
100
AcDbXrecord
280
     1
102
ACAD_ROUNDTRIP_PRE2007_TABLESTYLE
 90
      512
 91
        0
  1

 92
      512
 93
        0
  2

 94
      512
 95
        0
  3

  0
XRECORD
  5
9D97
102
{ACAD_REACTORS
330
9D96
102
}
330
9D96
100
AcDbXrecord
280
     1
102
RTVSPost2010Prop28
280
     1
102
RTVSPost2010PropOp28
 70
     1
102
RTVSPost2010Prop29
280
     1
102
RTVSPost2010PropOp29
 70
     1
102
RTVSPost2010Prop30
280
     0
102
RTVSPost2010PropOp30
 70
     1
102
RTVSPost2010Prop31
280
     0
102
RTVSPost2010PropOp31
 70
     1
102
RTVSPost2010Prop32
280
     0
102
RTVSPost2010PropOp32
 70
     1
102
RTVSPost2010Prop33
280
     0
102
RTVSPost2010PropOp33
 70
     1
102
RTVSPost2010Prop34
280
     0
102
RTVSPost2010PropOp34
 70
     1
102
RTVSPost2010Prop35
280
     0
102
RTVSPost2010PropOp35
 70
     1
102
RTVSPost2010Prop36
280
     0
102
RTVSPost2010PropOp36
 70
     1
102
RTVSPost2010Prop37
 90
       50
102
RTVSPost2010PropOp37
 70
     1
102
RTVSPost2010Prop38
140
0.0
102
RTVSPost2010PropOp38
 70
     1
102
RTVSPost2010Prop39
140
1.0
102
RTVSPost2010PropOp39
 70
     1
102
RTVSPost2010Prop40
 90
        0
102
RTVSPost2010PropOp40
 70
     1
102
RTVSPost2010Prop41ColorIndex
 90
       18
102
RTVSPost2010Prop41ColorRGB
 90
        0
102
RTVSPost2010PropOp41
 70
     1
102
RTVSPost2010Prop42
 90
       50
102
RTVSPost2010PropOp42
 70
     1
102
RTVSPost2010Prop43
 90
        3
102
RTVSPost2010PropOp43
 70
     1
102
RTVSPost2010Prop44ColorIndex
 90
        5
102
RTVSPost2010Prop44ColorRGB
 90
      255
102
RTVSPost2010PropOp44
 70
     1
102
RTVSPost2010Prop45
280
     0
102
RTVSPost2010PropOp45
 70
     1
102
RTVSPost2010Prop46
 90
       50
102
RTVSPost2010PropOp46
 70
     1
102
RTVSPost2010Prop47
 90
       50
102
RTVSPost2010PropOp47
 70
     1
102
RTVSPost2010Prop48
 90
       50
102
RTVSPost2010PropOp48
 70
     1
102
RTVSPost2010Prop49
280
     0
102
RTVSPost2010PropOp49
 70
     1
102
RTVSPost2010Prop50
 90
       50
102
RTVSPost2010PropOp50
 70
     1
102
RTVSPost2010Prop51ColorIndex
 90
      256
102
RTVSPost2010Prop51ColorRGB
 90
-16777216
102
RTVSPost2010PropOp51
 70
     0
102
RTVSPost2010Prop52
140
1.0
102
RTVSPost2010PropOp52
 70
     0
102
RTVSPost2010Prop53
 90
        2
102
RTVSPost2010PropOp53
 70
     1
102
RTVSPost2010Prop54
  1
strokes_ogs.tif
102
RTVSPost2010PropOp54
 70
     1
102
RTVSPost2010Prop55
280
     0
102
RTVSPost2010PropOp55
 70
     1
102
RTVSPost2010Prop56
140
1.0
102
RTVSPost2010PropOp56
 70
     1
102
RTVSPost2010Prop57
140
1.0
102
RTVSPost2010PropOp57
 70
     1
102
RTVSPropertyOp0
 70
     1
102
RTVSPropertyOp1
 70
     1
102
RTVSPropertyOp2
 70
     1
102
RTVSPropertyOp3
 70
     1
102
RTVSPropertyOp4
 70
     1
102
RTVSPropertyOp5
 70
     1
102
RTVSPropertyOp6
 70
     1
102
RTVSPropertyOp7
 70
     1
102
RTVSPropertyOp8
 70
     1
102
RTVSPropertyOp9
 70
     1
102
RTVSPropertyOp10
 70
     1
102
RTVSPropertyOp11
 70
     1
102
RTVSPropertyOp12
 70
     1
102
RTVSPropertyOp13
 70
     1
102
RTVSPropertyOp14
 70
     1
102
RTVSPropertyOp15
 70
     1
102
RTVSPropertyOp16
 70
     1
102
RTVSPropertyOp17
 70
     1
102
RTVSPropertyOp18
 70
     1
102
RTVSPropertyOp19
 70
     1
102
RTVSPropertyOp20
 70
     1
102
RTVSPropertyOp21
 70
     1
102
RTVSPropertyOp22
 70
     1
102
RTVSPropertyOp23
 70
     1
102
RTVSPropertyOp24
 70
     1
102
RTVSPropertyOp25
 70
     1
102
RTVSPropertyOp26
 70
     1
102
RTVSPropertyOp27
 70
     1
102
RTVSPropertyOp28
 70
     1
102
RTVSPropertyOp29
 70
     1
102
RTVSPropertyOp30
 70
     1
102
RTVSPropertyOp31
 70
     1
102
RTVSPropertyOp32
 70
     1
102
RTVSPropertyOp33
 70
     1
102
RTVSPropertyOp34
 70
     1
102
RTVSPropertyOp35
 70
     1
102
RTVSPropertyOp36
 70
     1
102
RTVSPropertyOp37
 70
     1
102
RTVSPropertyOp38
 70
     1
102
RTVSPropertyOp39
 70
     1
102
RTVSPropertyOp40
 70
     1
102
RTVSPropertyOp41
 70
     1
102
RTVSPropertyOp42
 70
     1
102
RTVSPropertyOp43
 70
     1
102
RTVSPropertyOp44
 70
     1
102
RTVSPropertyOp45
 70
     1
102
RTVSPropertyOp46
 70
     1
102
RTVSPropertyOp47
 70
     1
102
RTVSPropertyOp48
 70
     1
102
RTVSPropertyOp49
 70
     1
102
RTVSPropertyOp50
 70
     1
102
RTVSPropertyOp51
 70
     0
102
RTVSPropertyOp52
 70
     0
102
RTVSPropertyOp53
 70
     1
102
RTVSPropertyOp54
 70
     1
102
RTVSPropertyOp55
 70
     1
102
RTVSPropertyOp56
 70
     1
102
RTVSPropertyOp57
 70
     1
102
RTVSPropertyOp58
 70
     1
102
RTVSPropertyOp59
 70
     1
102
RTVSPropertyOp60
 70
     1
102
RTVSPropertyOp61
 70
     1
102
RTVSPropertyOp62
 70
     1
  0
XRECORD
  5
9D95
102
{ACAD_REACTORS
330
9D94
102
}
330
9D94
100
AcDbXrecord
280
     1
102
RTVSPost2010Prop28
280
     0
102
RTVSPost2010PropOp28
 70
     1
102
RTVSPost2010Prop29
280
     1
102
RTVSPost2010PropOp29
 70
     1
102
RTVSPost2010Prop30
280
     1
102
RTVSPost2010PropOp30
 70
     1
102
RTVSPost2010Prop31
280
     0
102
RTVSPost2010PropOp31
 70
     1
102
RTVSPost2010Prop32
280
     0
102
RTVSPost2010PropOp32
 70
     1
102
RTVSPost2010Prop33
280
     0
102
RTVSPost2010PropOp33
 70
     1
102
RTVSPost2010Prop34
280
     0
102
RTVSPost2010PropOp34
 70
     1
102
RTVSPost2010Prop35
280
     0
102
RTVSPost2010PropOp35
 70
     1
102
RTVSPost2010Prop36
280
     0
102
RTVSPost2010PropOp36
 70
     1
102
RTVSPost2010Prop37
 90
       50
102
RTVSPost2010PropOp37
 70
     1
102
RTVSPost2010Prop38
140
0.0
102
RTVSPost2010PropOp38
 70
     1
102
RTVSPost2010Prop39
140
1.0
102
RTVSPost2010PropOp39
 70
     1
102
RTVSPost2010Prop40
 90
        0
102
RTVSPost2010PropOp40
 70
     1
102
RTVSPost2010Prop41ColorIndex
 90
       18
102
RTVSPost2010Prop41ColorRGB
 90
        0
102
RTVSPost2010PropOp41
 70
     1
102
RTVSPost2010Prop42
 90
       50
102
RTVSPost2010PropOp42
 70
     1
102
RTVSPost2010Prop43
 90
        3
102
RTVSPost2010PropOp43
 70
     1
102
RTVSPost2010Prop44ColorIndex
 90
        5
102
RTVSPost2010Prop44ColorRGB
 90
      255
102
RTVSPost2010PropOp44
 70
     1
102
RTVSPost2010Prop45
280
     0
102
RTVSPost2010PropOp45
 70
     1
102
RTVSPost2010Prop46
 90
       50
102
RTVSPost2010PropOp46
 70
     1
102
RTVSPost2010Prop47
 90
       50
102
RTVSPost2010PropOp47
 70
     1
102
RTVSPost2010Prop48
 90
       50
102
RTVSPost2010PropOp48
 70
     1
102
RTVSPost2010Prop49
280
     0
102
RTVSPost2010PropOp49
 70
     1
102
RTVSPost2010Prop50
 90
       50
102
RTVSPost2010PropOp50
 70
     1
102
RTVSPost2010Prop51ColorIndex
 90
      256
102
RTVSPost2010Prop51ColorRGB
 90
-16777216
102
RTVSPost2010PropOp51
 70
     0
102
RTVSPost2010Prop52
140
1.0
102
RTVSPost2010PropOp52
 70
     0
102
RTVSPost2010Prop53
 90
        2
102
RTVSPost2010PropOp53
 70
     1
102
RTVSPost2010Prop54
  1
strokes_ogs.tif
102
RTVSPost2010PropOp54
 70
     1
102
RTVSPost2010Prop55
280
     0
102
RTVSPost2010PropOp55
 70
     1
102
RTVSPost2010Prop56
140
1.0
102
RTVSPost2010PropOp56
 70
     1
102
RTVSPost2010Prop57
140
1.0
102
RTVSPost2010PropOp57
 70
     1
102
RTVSPropertyOp0
 70
     1
102
RTVSPropertyOp1
 70
     1
102
RTVSPropertyOp2
 70
     1
102
RTVSPropertyOp3
 70
     1
102
RTVSPropertyOp4
 70
     1
102
RTVSPropertyOp5
 70
     1
102
RTVSPropertyOp6
 70
     1
102
RTVSPropertyOp7
 70
     1
102
RTVSPropertyOp8
 70
     1
102
RTVSPropertyOp9
 70
     1
102
RTVSPropertyOp10
 70
     1
102
RTVSPropertyOp11
 70
     1
102
RTVSPropertyOp12
 70
     1
102
RTVSPropertyOp13
 70
     1
102
RTVSPropertyOp14
 70
     1
102
RTVSPropertyOp15
 70
     1
102
RTVSPropertyOp16
 70
     1
102
RTVSPropertyOp17
 70
     1
102
RTVSPropertyOp18
 70
     1
102
RTVSPropertyOp19
 70
     1
102
RTVSPropertyOp20
 70
     1
102
RTVSPropertyOp21
 70
     1
102
RTVSPropertyOp22
 70
     1
102
RTVSPropertyOp23
 70
     1
102
RTVSPropertyOp24
 70
     1
102
RTVSPropertyOp25
 70
     1
102
RTVSPropertyOp26
 70
     1
102
RTVSPropertyOp27
 70
     1
102
RTVSPropertyOp28
 70
     1
102
RTVSPropertyOp29
 70
     1
102
RTVSPropertyOp30
 70
     1
102
RTVSPropertyOp31
 70
     1
102
RTVSPropertyOp32
 70
     1
102
RTVSPropertyOp33
 70
     1
102
RTVSPropertyOp34
 70
     1
102
RTVSPropertyOp35
 70
     1
102
RTVSPropertyOp36
 70
     1
102
RTVSPropertyOp37
 70
     1
102
RTVSPropertyOp38
 70
     1
102
RTVSPropertyOp39
 70
     1
102
RTVSPropertyOp40
 70
     1
102
RTVSPropertyOp41
 70
     1
102
RTVSPropertyOp42
 70
     1
102
RTVSPropertyOp43
 70
     1
102
RTVSPropertyOp44
 70
     1
102
RTVSPropertyOp45
 70
     1
102
RTVSPropertyOp46
 70
     1
102
RTVSPropertyOp47
 70
     1
102
RTVSPropertyOp48
 70
     1
102
RTVSPropertyOp49
 70
     1
102
RTVSPropertyOp50
 70
     1
102
RTVSPropertyOp51
 70
     0
102
RTVSPropertyOp52
 70
     0
102
RTVSPropertyOp53
 70
     1
102
RTVSPropertyOp54
 70
     1
102
RTVSPropertyOp55
 70
     1
102
RTVSPropertyOp56
 70
     1
102
RTVSPropertyOp57
 70
     1
102
RTVSPropertyOp58
 70
     1
102
RTVSPropertyOp59
 70
     1
102
RTVSPropertyOp60
 70
     1
102
RTVSPropertyOp61
 70
     1
102
RTVSPropertyOp62
 70
     1
  0
XRECORD
  5
9DA3
102
{ACAD_REACTORS
330
9DA2
102
}
330
9DA2
100
AcDbXrecord
280
     1
102
RTVSPost2010Prop28
280
     0
102
RTVSPost2010PropOp28
 70
     1
102
RTVSPost2010Prop29
280
     1
102
RTVSPost2010PropOp29
 70
     1
102
RTVSPost2010Prop30
280
     1
102
RTVSPost2010PropOp30
 70
     1
102
RTVSPost2010Prop31
280
     0
102
RTVSPost2010PropOp31
 70
     1
102
RTVSPost2010Prop32
280
     0
102
RTVSPost2010PropOp32
 70
     1
102
RTVSPost2010Prop33
280
     0
102
RTVSPost2010PropOp33
 70
     1
102
RTVSPost2010Prop34
280
     0
102
RTVSPost2010PropOp34
 70
     1
102
RTVSPost2010Prop35
280
     0
102
RTVSPost2010PropOp35
 70
     1
102
RTVSPost2010Prop36
280
     0
102
RTVSPost2010PropOp36
 70
     1
102
RTVSPost2010Prop37
 90
       50
102
RTVSPost2010PropOp37
 70
     1
102
RTVSPost2010Prop38
140
0.0
102
RTVSPost2010PropOp38
 70
     1
102
RTVSPost2010Prop39
140
1.0
102
RTVSPost2010PropOp39
 70
     1
102
RTVSPost2010Prop40
 90
        0
102
RTVSPost2010PropOp40
 70
     1
102
RTVSPost2010Prop41ColorIndex
 90
       18
102
RTVSPost2010Prop41ColorRGB
 90
        0
102
RTVSPost2010PropOp41
 70
     1
102
RTVSPost2010Prop42
 90
       50
102
RTVSPost2010PropOp42
 70
     1
102
RTVSPost2010Prop43
 90
        3
102
RTVSPost2010PropOp43
 70
     1
102
RTVSPost2010Prop44ColorIndex
 90
        5
102
RTVSPost2010Prop44ColorRGB
 90
      255
102
RTVSPost2010PropOp44
 70
     1
102
RTVSPost2010Prop45
280
     0
102
RTVSPost2010PropOp45
 70
     1
102
RTVSPost2010Prop46
 90
       50
102
RTVSPost2010PropOp46
 70
     1
102
RTVSPost2010Prop47
 90
       50
102
RTVSPost2010PropOp47
 70
     1
102
RTVSPost2010Prop48
 90
       50
102
RTVSPost2010PropOp48
 70
     1
102
RTVSPost2010Prop49
280
     0
102
RTVSPost2010PropOp49
 70
     1
102
RTVSPost2010Prop50
 90
       50
102
RTVSPost2010PropOp50
 70
     1
102
RTVSPost2010Prop51ColorIndex
 90
      256
102
RTVSPost2010Prop51ColorRGB
 90
-16777216
102
RTVSPost2010PropOp51
 70
     0
102
RTVSPost2010Prop52
140
1.0
102
RTVSPost2010PropOp52
 70
     0
102
RTVSPost2010Prop53
 90
        2
102
RTVSPost2010PropOp53
 70
     1
102
RTVSPost2010Prop54
  1
strokes_ogs.tif
102
RTVSPost2010PropOp54
 70
     1
102
RTVSPost2010Prop55
280
     0
102
RTVSPost2010PropOp55
 70
     1
102
RTVSPost2010Prop56
140
1.0
102
RTVSPost2010PropOp56
 70
     1
102
RTVSPost2010Prop57
140
1.0
102
RTVSPost2010PropOp57
 70
     1
102
RTVSPropertyOp0
 70
     1
102
RTVSPropertyOp1
 70
     1
102
RTVSPropertyOp2
 70
     1
102
RTVSPropertyOp3
 70
     1
102
RTVSPropertyOp4
 70
     1
102
RTVSPropertyOp5
 70
     1
102
RTVSPropertyOp6
 70
     1
102
RTVSPropertyOp7
 70
     1
102
RTVSPropertyOp8
 70
     1
102
RTVSPropertyOp9
 70
     1
102
RTVSPropertyOp10
 70
     1
102
RTVSPropertyOp11
 70
     1
102
RTVSPropertyOp12
 70
     1
102
RTVSPropertyOp13
 70
     1
102
RTVSPropertyOp14
 70
     1
102
RTVSPropertyOp15
 70
     1
102
RTVSPropertyOp16
 70
     1
102
RTVSPropertyOp17
 70
     1
102
RTVSPropertyOp18
 70
     1
102
RTVSPropertyOp19
 70
     1
102
RTVSPropertyOp20
 70
     1
102
RTVSPropertyOp21
 70
     1
102
RTVSPropertyOp22
 70
     1
102
RTVSPropertyOp23
 70
     1
102
RTVSPropertyOp24
 70
     1
102
RTVSPropertyOp25
 70
     1
102
RTVSPropertyOp26
 70
     1
102
RTVSPropertyOp27
 70
     1
102
RTVSPropertyOp28
 70
     1
102
RTVSPropertyOp29
 70
     1
102
RTVSPropertyOp30
 70
     1
102
RTVSPropertyOp31
 70
     1
102
RTVSPropertyOp32
 70
     1
102
RTVSPropertyOp33
 70
     1
102
RTVSPropertyOp34
 70
     1
102
RTVSPropertyOp35
 70
     1
102
RTVSPropertyOp36
 70
     1
102
RTVSPropertyOp37
 70
     1
102
RTVSPropertyOp38
 70
     1
102
RTVSPropertyOp39
 70
     1
102
RTVSPropertyOp40
 70
     1
102
RTVSPropertyOp41
 70
     1
102
RTVSPropertyOp42
 70
     1
102
RTVSPropertyOp43
 70
     1
102
RTVSPropertyOp44
 70
     1
102
RTVSPropertyOp45
 70
     1
102
RTVSPropertyOp46
 70
     1
102
RTVSPropertyOp47
 70
     1
102
RTVSPropertyOp48
 70
     1
102
RTVSPropertyOp49
 70
     1
102
RTVSPropertyOp50
 70
     1
102
RTVSPropertyOp51
 70
     0
102
RTVSPropertyOp52
 70
     0
102
RTVSPropertyOp53
 70
     1
102
RTVSPropertyOp54
 70
     1
102
RTVSPropertyOp55
 70
     1
102
RTVSPropertyOp56
 70
     1
102
RTVSPropertyOp57
 70
     1
102
RTVSPropertyOp58
 70
     1
102
RTVSPropertyOp59
 70
     1
102
RTVSPropertyOp60
 70
     1
102
RTVSPropertyOp61
 70
     1
102
RTVSPropertyOp62
 70
     1
  0
XRECORD
  5
9DAB
102
{ACAD_REACTORS
330
9DAA
102
}
330
9DAA
100
AcDbXrecord
280
     1
102
RTVSPost2010Prop28
280
     0
102
RTVSPost2010PropOp28
 70
     1
102
RTVSPost2010Prop29
280
     1
102
RTVSPost2010PropOp29
 70
     1
102
RTVSPost2010Prop30
280
     1
102
RTVSPost2010PropOp30
 70
     1
102
RTVSPost2010Prop31
280
     0
102
RTVSPost2010PropOp31
 70
     1
102
RTVSPost2010Prop32
280
     0
102
RTVSPost2010PropOp32
 70
     1
102
RTVSPost2010Prop33
280
     0
102
RTVSPost2010PropOp33
 70
     1
102
RTVSPost2010Prop34
280
     0
102
RTVSPost2010PropOp34
 70
     1
102
RTVSPost2010Prop35
280
     0
102
RTVSPost2010PropOp35
 70
     1
102
RTVSPost2010Prop36
280
     0
102
RTVSPost2010PropOp36
 70
     1
102
RTVSPost2010Prop37
 90
       50
102
RTVSPost2010PropOp37
 70
     1
102
RTVSPost2010Prop38
140
0.0
102
RTVSPost2010PropOp38
 70
     1
102
RTVSPost2010Prop39
140
1.0
102
RTVSPost2010PropOp39
 70
     1
102
RTVSPost2010Prop40
 90
        0
102
RTVSPost2010PropOp40
 70
     1
102
RTVSPost2010Prop41ColorIndex
 90
       18
102
RTVSPost2010Prop41ColorRGB
 90
        0
102
RTVSPost2010PropOp41
 70
     1
102
RTVSPost2010Prop42
 90
       50
102
RTVSPost2010PropOp42
 70
     1
102
RTVSPost2010Prop43
 90
        3
102
RTVSPost2010PropOp43
 70
     1
102
RTVSPost2010Prop44ColorIndex
 90
        5
102
RTVSPost2010Prop44ColorRGB
 90
      255
102
RTVSPost2010PropOp44
 70
     1
102
RTVSPost2010Prop45
280
     0
102
RTVSPost2010PropOp45
 70
     1
102
RTVSPost2010Prop46
 90
       50
102
RTVSPost2010PropOp46
 70
     1
102
RTVSPost2010Prop47
 90
       50
102
RTVSPost2010PropOp47
 70
     1
102
RTVSPost2010Prop48
 90
       50
102
RTVSPost2010PropOp48
 70
     1
102
RTVSPost2010Prop49
280
     0
102
RTVSPost2010PropOp49
 70
     1
102
RTVSPost2010Prop50
 90
       50
102
RTVSPost2010PropOp50
 70
     1
102
RTVSPost2010Prop51ColorIndex
 90
      256
102
RTVSPost2010Prop51ColorRGB
 90
-16777216
102
RTVSPost2010PropOp51
 70
     0
102
RTVSPost2010Prop52
140
1.0
102
RTVSPost2010PropOp52
 70
     0
102
RTVSPost2010Prop53
 90
        2
102
RTVSPost2010PropOp53
 70
     1
102
RTVSPost2010Prop54
  1
strokes_ogs.tif
102
RTVSPost2010PropOp54
 70
     1
102
RTVSPost2010Prop55
280
     0
102
RTVSPost2010PropOp55
 70
     1
102
RTVSPost2010Prop56
140
1.0
102
RTVSPost2010PropOp56
 70
     1
102
RTVSPost2010Prop57
140
1.0
102
RTVSPost2010PropOp57
 70
     1
102
RTVSPropertyOp0
 70
     1
102
RTVSPropertyOp1
 70
     1
102
RTVSPropertyOp2
 70
     1
102
RTVSPropertyOp3
 70
     1
102
RTVSPropertyOp4
 70
     1
102
RTVSPropertyOp5
 70
     1
102
RTVSPropertyOp6
 70
     1
102
RTVSPropertyOp7
 70
     1
102
RTVSPropertyOp8
 70
     1
102
RTVSPropertyOp9
 70
     1
102
RTVSPropertyOp10
 70
     1
102
RTVSPropertyOp11
 70
     1
102
RTVSPropertyOp12
 70
     1
102
RTVSPropertyOp13
 70
     1
102
RTVSPropertyOp14
 70
     1
102
RTVSPropertyOp15
 70
     1
102
RTVSPropertyOp16
 70
     1
102
RTVSPropertyOp17
 70
     1
102
RTVSPropertyOp18
 70
     1
102
RTVSPropertyOp19
 70
     1
102
RTVSPropertyOp20
 70
     1
102
RTVSPropertyOp21
 70
     1
102
RTVSPropertyOp22
 70
     1
102
RTVSPropertyOp23
 70
     1
102
RTVSPropertyOp24
 70
     1
102
RTVSPropertyOp25
 70
     1
102
RTVSPropertyOp26
 70
     1
102
RTVSPropertyOp27
 70
     1
102
RTVSPropertyOp28
 70
     1
102
RTVSPropertyOp29
 70
     1
102
RTVSPropertyOp30
 70
     1
102
RTVSPropertyOp31
 70
     1
102
RTVSPropertyOp32
 70
     1
102
RTVSPropertyOp33
 70
     1
102
RTVSPropertyOp34
 70
     1
102
RTVSPropertyOp35
 70
     1
102
RTVSPropertyOp36
 70
     1
102
RTVSPropertyOp37
 70
     1
102
RTVSPropertyOp38
 70
     1
102
RTVSPropertyOp39
 70
     1
102
RTVSPropertyOp40
 70
     1
102
RTVSPropertyOp41
 70
     1
102
RTVSPropertyOp42
 70
     1
102
RTVSPropertyOp43
 70
     1
102
RTVSPropertyOp44
 70
     1
102
RTVSPropertyOp45
 70
     1
102
RTVSPropertyOp46
 70
     1
102
RTVSPropertyOp47
 70
     1
102
RTVSPropertyOp48
 70
     1
102
RTVSPropertyOp49
 70
     1
102
RTVSPropertyOp50
 70
     1
102
RTVSPropertyOp51
 70
     0
102
RTVSPropertyOp52
 70
     0
102
RTVSPropertyOp53
 70
     1
102
RTVSPropertyOp54
 70
     1
102
RTVSPropertyOp55
 70
     1
102
RTVSPropertyOp56
 70
     1
102
RTVSPropertyOp57
 70
     1
102
RTVSPropertyOp58
 70
     1
102
RTVSPropertyOp59
 70
     1
102
RTVSPropertyOp60
 70
     1
102
RTVSPropertyOp61
 70
     1
102
RTVSPropertyOp62
 70
     1
  0
XRECORD
  5
9D9D
102
{ACAD_REACTORS
330
9D9C
102
}
330
9D9C
100
AcDbXrecord
280
     1
102
RTVSPost2010Prop28
280
     0
102
RTVSPost2010PropOp28
 70
     1
102
RTVSPost2010Prop29
280
     1
102
RTVSPost2010PropOp29
 70
     1
102
RTVSPost2010Prop30
280
     1
102
RTVSPost2010PropOp30
 70
     1
102
RTVSPost2010Prop31
280
     0
102
RTVSPost2010PropOp31
 70
     1
102
RTVSPost2010Prop32
280
     0
102
RTVSPost2010PropOp32
 70
     1
102
RTVSPost2010Prop33
280
     0
102
RTVSPost2010PropOp33
 70
     1
102
RTVSPost2010Prop34
280
     0
102
RTVSPost2010PropOp34
 70
     1
102
RTVSPost2010Prop35
280
     0
102
RTVSPost2010PropOp35
 70
     1
102
RTVSPost2010Prop36
280
     0
102
RTVSPost2010PropOp36
 70
     1
102
RTVSPost2010Prop37
 90
       50
102
RTVSPost2010PropOp37
 70
     1
102
RTVSPost2010Prop38
140
0.0
102
RTVSPost2010PropOp38
 70
     1
102
RTVSPost2010Prop39
140
1.0
102
RTVSPost2010PropOp39
 70
     1
102
RTVSPost2010Prop40
 90
        0
102
RTVSPost2010PropOp40
 70
     1
102
RTVSPost2010Prop41ColorIndex
 90
       18
102
RTVSPost2010Prop41ColorRGB
 90
        0
102
RTVSPost2010PropOp41
 70
     1
102
RTVSPost2010Prop42
 90
       50
102
RTVSPost2010PropOp42
 70
     1
102
RTVSPost2010Prop43
 90
        3
102
RTVSPost2010PropOp43
 70
     1
102
RTVSPost2010Prop44ColorIndex
 90
        5
102
RTVSPost2010Prop44ColorRGB
 90
      255
102
RTVSPost2010PropOp44
 70
     1
102
RTVSPost2010Prop45
280
     0
102
RTVSPost2010PropOp45
 70
     1
102
RTVSPost2010Prop46
 90
       50
102
RTVSPost2010PropOp46
 70
     1
102
RTVSPost2010Prop47
 90
       50
102
RTVSPost2010PropOp47
 70
     1
102
RTVSPost2010Prop48
 90
       50
102
RTVSPost2010PropOp48
 70
     1
102
RTVSPost2010Prop49
280
     0
102
RTVSPost2010PropOp49
 70
     1
102
RTVSPost2010Prop50
 90
       50
102
RTVSPost2010PropOp50
 70
     1
102
RTVSPost2010Prop51ColorIndex
 90
      256
102
RTVSPost2010Prop51ColorRGB
 90
-16777216
102
RTVSPost2010PropOp51
 70
     0
102
RTVSPost2010Prop52
140
1.0
102
RTVSPost2010PropOp52
 70
     0
102
RTVSPost2010Prop53
 90
        2
102
RTVSPost2010PropOp53
 70
     1
102
RTVSPost2010Prop54
  1
strokes_ogs.tif
102
RTVSPost2010PropOp54
 70
     1
102
RTVSPost2010Prop55
280
     0
102
RTVSPost2010PropOp55
 70
     1
102
RTVSPost2010Prop56
140
1.0
102
RTVSPost2010PropOp56
 70
     1
102
RTVSPost2010Prop57
140
1.0
102
RTVSPost2010PropOp57
 70
     1
102
RTVSPropertyOp0
 70
     1
102
RTVSPropertyOp1
 70
     1
102
RTVSPropertyOp2
 70
     1
102
RTVSPropertyOp3
 70
     1
102
RTVSPropertyOp4
 70
     1
102
RTVSPropertyOp5
 70
     1
102
RTVSPropertyOp6
 70
     1
102
RTVSPropertyOp7
 70
     1
102
RTVSPropertyOp8
 70
     1
102
RTVSPropertyOp9
 70
     1
102
RTVSPropertyOp10
 70
     1
102
RTVSPropertyOp11
 70
     1
102
RTVSPropertyOp12
 70
     1
102
RTVSPropertyOp13
 70
     1
102
RTVSPropertyOp14
 70
     1
102
RTVSPropertyOp15
 70
     1
102
RTVSPropertyOp16
 70
     1
102
RTVSPropertyOp17
 70
     1
102
RTVSPropertyOp18
 70
     1
102
RTVSPropertyOp19
 70
     1
102
RTVSPropertyOp20
 70
     1
102
RTVSPropertyOp21
 70
     1
102
RTVSPropertyOp22
 70
     1
102
RTVSPropertyOp23
 70
     1
102
RTVSPropertyOp24
 70
     1
102
RTVSPropertyOp25
 70
     1
102
RTVSPropertyOp26
 70
     1
102
RTVSPropertyOp27
 70
     1
102
RTVSPropertyOp28
 70
     1
102
RTVSPropertyOp29
 70
     1
102
RTVSPropertyOp30
 70
     1
102
RTVSPropertyOp31
 70
     1
102
RTVSPropertyOp32
 70
     1
102
RTVSPropertyOp33
 70
     1
102
RTVSPropertyOp34
 70
     1
102
RTVSPropertyOp35
 70
     1
102
RTVSPropertyOp36
 70
     1
102
RTVSPropertyOp37
 70
     1
102
RTVSPropertyOp38
 70
     1
102
RTVSPropertyOp39
 70
     1
102
RTVSPropertyOp40
 70
     1
102
RTVSPropertyOp41
 70
     1
102
RTVSPropertyOp42
 70
     1
102
RTVSPropertyOp43
 70
     1
102
RTVSPropertyOp44
 70
     1
102
RTVSPropertyOp45
 70
     1
102
RTVSPropertyOp46
 70
     1
102
RTVSPropertyOp47
 70
     1
102
RTVSPropertyOp48
 70
     1
102
RTVSPropertyOp49
 70
     1
102
RTVSPropertyOp50
 70
     1
102
RTVSPropertyOp51
 70
     0
102
RTVSPropertyOp52
 70
     0
102
RTVSPropertyOp53
 70
     1
102
RTVSPropertyOp54
 70
     1
102
RTVSPropertyOp55
 70
     1
102
RTVSPropertyOp56
 70
     1
102
RTVSPropertyOp57
 70
     1
102
RTVSPropertyOp58
 70
     1
102
RTVSPropertyOp59
 70
     1
102
RTVSPropertyOp60
 70
     1
102
RTVSPropertyOp61
 70
     1
102
RTVSPropertyOp62
 70
     1
  0
XRECORD
  5
9DA1
102
{ACAD_REACTORS
330
9DA0
102
}
330
9DA0
100
AcDbXrecord
280
     1
102
RTVSPost2010Prop28
280
     0
102
RTVSPost2010PropOp28
 70
     1
102
RTVSPost2010Prop29
280
     1
102
RTVSPost2010PropOp29
 70
     1
102
RTVSPost2010Prop30
280
     1
102
RTVSPost2010PropOp30
 70
     1
102
RTVSPost2010Prop31
280
     0
102
RTVSPost2010PropOp31
 70
     1
102
RTVSPost2010Prop32
280
     0
102
RTVSPost2010PropOp32
 70
     1
102
RTVSPost2010Prop33
280
     0
102
RTVSPost2010PropOp33
 70
     1
102
RTVSPost2010Prop34
280
     0
102
RTVSPost2010PropOp34
 70
     1
102
RTVSPost2010Prop35
280
     0
102
RTVSPost2010PropOp35
 70
     1
102
RTVSPost2010Prop36
280
     0
102
RTVSPost2010PropOp36
 70
     1
102
RTVSPost2010Prop37
 90
       50
102
RTVSPost2010PropOp37
 70
     1
102
RTVSPost2010Prop38
140
0.0
102
RTVSPost2010PropOp38
 70
     1
102
RTVSPost2010Prop39
140
1.0
102
RTVSPost2010PropOp39
 70
     1
102
RTVSPost2010Prop40
 90
        0
102
RTVSPost2010PropOp40
 70
     1
102
RTVSPost2010Prop41ColorIndex
 90
       18
102
RTVSPost2010Prop41ColorRGB
 90
        0
102
RTVSPost2010PropOp41
 70
     1
102
RTVSPost2010Prop42
 90
       50
102
RTVSPost2010PropOp42
 70
     1
102
RTVSPost2010Prop43
 90
        3
102
RTVSPost2010PropOp43
 70
     1
102
RTVSPost2010Prop44ColorIndex
 90
        5
102
RTVSPost2010Prop44ColorRGB
 90
      255
102
RTVSPost2010PropOp44
 70
     1
102
RTVSPost2010Prop45
280
     0
102
RTVSPost2010PropOp45
 70
     1
102
RTVSPost2010Prop46
 90
       50
102
RTVSPost2010PropOp46
 70
     1
102
RTVSPost2010Prop47
 90
       50
102
RTVSPost2010PropOp47
 70
     1
102
RTVSPost2010Prop48
 90
       50
102
RTVSPost2010PropOp48
 70
     1
102
RTVSPost2010Prop49
280
     0
102
RTVSPost2010PropOp49
 70
     1
102
RTVSPost2010Prop50
 90
       50
102
RTVSPost2010PropOp50
 70
     1
102
RTVSPost2010Prop51ColorIndex
 90
      256
102
RTVSPost2010Prop51ColorRGB
 90
-16777216
102
RTVSPost2010PropOp51
 70
     0
102
RTVSPost2010Prop52
140
1.0
102
RTVSPost2010PropOp52
 70
     0
102
RTVSPost2010Prop53
 90
        2
102
RTVSPost2010PropOp53
 70
     1
102
RTVSPost2010Prop54
  1
strokes_ogs.tif
102
RTVSPost2010PropOp54
 70
     1
102
RTVSPost2010Prop55
280
     0
102
RTVSPost2010PropOp55
 70
     1
102
RTVSPost2010Prop56
140
1.0
102
RTVSPost2010PropOp56
 70
     1
102
RTVSPost2010Prop57
140
1.0
102
RTVSPost2010PropOp57
 70
     1
102
RTVSPropertyOp0
 70
     1
102
RTVSPropertyOp1
 70
     1
102
RTVSPropertyOp2
 70
     1
102
RTVSPropertyOp3
 70
     1
102
RTVSPropertyOp4
 70
     1
102
RTVSPropertyOp5
 70
     1
102
RTVSPropertyOp6
 70
     1
102
RTVSPropertyOp7
 70
     1
102
RTVSPropertyOp8
 70
     1
102
RTVSPropertyOp9
 70
     1
102
RTVSPropertyOp10
 70
     1
102
RTVSPropertyOp11
 70
     1
102
RTVSPropertyOp12
 70
     1
102
RTVSPropertyOp13
 70
     1
102
RTVSPropertyOp14
 70
     1
102
RTVSPropertyOp15
 70
     1
102
RTVSPropertyOp16
 70
     1
102
RTVSPropertyOp17
 70
     1
102
RTVSPropertyOp18
 70
     1
102
RTVSPropertyOp19
 70
     1
102
RTVSPropertyOp20
 70
     1
102
RTVSPropertyOp21
 70
     1
102
RTVSPropertyOp22
 70
     1
102
RTVSPropertyOp23
 70
     1
102
RTVSPropertyOp24
 70
     1
102
RTVSPropertyOp25
 70
     1
102
RTVSPropertyOp26
 70
     1
102
RTVSPropertyOp27
 70
     1
102
RTVSPropertyOp28
 70
     1
102
RTVSPropertyOp29
 70
     1
102
RTVSPropertyOp30
 70
     1
102
RTVSPropertyOp31
 70
     1
102
RTVSPropertyOp32
 70
     1
102
RTVSPropertyOp33
 70
     1
102
RTVSPropertyOp34
 70
     1
102
RTVSPropertyOp35
 70
     1
102
RTVSPropertyOp36
 70
     1
102
RTVSPropertyOp37
 70
     1
102
RTVSPropertyOp38
 70
     1
102
RTVSPropertyOp39
 70
     1
102
RTVSPropertyOp40
 70
     1
102
RTVSPropertyOp41
 70
     1
102
RTVSPropertyOp42
 70
     1
102
RTVSPropertyOp43
 70
     1
102
RTVSPropertyOp44
 70
     1
102
RTVSPropertyOp45
 70
     1
102
RTVSPropertyOp46
 70
     1
102
RTVSPropertyOp47
 70
     1
102
RTVSPropertyOp48
 70
     1
102
RTVSPropertyOp49
 70
     1
102
RTVSPropertyOp50
 70
     1
102
RTVSPropertyOp51
 70
     0
102
RTVSPropertyOp52
 70
     0
102
RTVSPropertyOp53
 70
     1
102
RTVSPropertyOp54
 70
     1
102
RTVSPropertyOp55
 70
     1
102
RTVSPropertyOp56
 70
     1
102
RTVSPropertyOp57
 70
     1
102
RTVSPropertyOp58
 70
     1
102
RTVSPropertyOp59
 70
     1
102
RTVSPropertyOp60
 70
     1
102
RTVSPropertyOp61
 70
     1
102
RTVSPropertyOp62
 70
     1
  0
XRECORD
  5
9DBB
102
{ACAD_REACTORS
330
9DBA
102
}
330
9DBA
100
AcDbXrecord
280
     1
102
RTVSPost2010Prop28
280
     0
102
RTVSPost2010PropOp28
 70
     1
102
RTVSPost2010Prop29
280
     1
102
RTVSPost2010PropOp29
 70
     1
102
RTVSPost2010Prop30
280
     1
102
RTVSPost2010PropOp30
 70
     1
102
RTVSPost2010Prop31
280
     0
102
RTVSPost2010PropOp31
 70
     1
102
RTVSPost2010Prop32
280
     0
102
RTVSPost2010PropOp32
 70
     1
102
RTVSPost2010Prop33
280
     0
102
RTVSPost2010PropOp33
 70
     1
102
RTVSPost2010Prop34
280
     0
102
RTVSPost2010PropOp34
 70
     1
102
RTVSPost2010Prop35
280
     0
102
RTVSPost2010PropOp35
 70
     1
102
RTVSPost2010Prop36
280
     0
102
RTVSPost2010PropOp36
 70
     1
102
RTVSPost2010Prop37
 90
       50
102
RTVSPost2010PropOp37
 70
     0
102
RTVSPost2010Prop38
140
0.0
102
RTVSPost2010PropOp38
 70
     0
102
RTVSPost2010Prop39
140
1.0
102
RTVSPost2010PropOp39
 70
     0
102
RTVSPost2010Prop40
 90
        0
102
RTVSPost2010PropOp40
 70
     0
102
RTVSPost2010Prop41ColorIndex
 90
       18
102
RTVSPost2010Prop41ColorRGB
 90
        0
102
RTVSPost2010PropOp41
 70
     0
102
RTVSPost2010Prop42
 90
       50
102
RTVSPost2010PropOp42
 70
     0
102
RTVSPost2010Prop43
 90
        3
102
RTVSPost2010PropOp43
 70
     0
102
RTVSPost2010Prop44ColorIndex
 90
        5
102
RTVSPost2010Prop44ColorRGB
 90
      255
102
RTVSPost2010PropOp44
 70
     0
102
RTVSPost2010Prop45
280
     0
102
RTVSPost2010PropOp45
 70
     1
102
RTVSPost2010Prop46
 90
       50
102
RTVSPost2010PropOp46
 70
     0
102
RTVSPost2010Prop47
 90
       50
102
RTVSPost2010PropOp47
 70
     0
102
RTVSPost2010Prop48
 90
       50
102
RTVSPost2010PropOp48
 70
     0
102
RTVSPost2010Prop49
280
     0
102
RTVSPost2010PropOp49
 70
     1
102
RTVSPost2010Prop50
 90
       50
102
RTVSPost2010PropOp50
 70
     0
102
RTVSPost2010Prop51ColorIndex
 90
      256
102
RTVSPost2010Prop51ColorRGB
 90
-16777216
102
RTVSPost2010PropOp51
 70
     0
102
RTVSPost2010Prop52
140
1.0
102
RTVSPost2010PropOp52
 70
     0
102
RTVSPost2010Prop53
 90
        2
102
RTVSPost2010PropOp53
 70
     0
102
RTVSPost2010Prop54
  1
strokes_ogs.tif
102
RTVSPost2010PropOp54
 70
     0
102
RTVSPost2010Prop55
280
     0
102
RTVSPost2010PropOp55
 70
     1
102
RTVSPost2010Prop56
140
1.0
102
RTVSPost2010PropOp56
 70
     0
102
RTVSPost2010Prop57
140
1.0
102
RTVSPost2010PropOp57
 70
     0
102
RTVSPropertyOp0
 70
     0
102
RTVSPropertyOp1
 70
     0
102
RTVSPropertyOp2
 70
     0
102
RTVSPropertyOp3
 70
     0
102
RTVSPropertyOp4
 70
     0
102
RTVSPropertyOp5
 70
     0
102
RTVSPropertyOp6
 70
     0
102
RTVSPropertyOp7
 70
     0
102
RTVSPropertyOp8
 70
     0
102
RTVSPropertyOp9
 70
     0
102
RTVSPropertyOp10
 70
     0
102
RTVSPropertyOp11
 70
     0
102
RTVSPropertyOp12
 70
     0
102
RTVSPropertyOp13
 70
     0
102
RTVSPropertyOp14
 70
     2
102
RTVSPropertyOp15
 70
     0
102
RTVSPropertyOp16
 70
     0
102
RTVSPropertyOp17
 70
     0
102
RTVSPropertyOp18
 70
     0
102
RTVSPropertyOp19
 70
     0
102
RTVSPropertyOp20
 70
     0
102
RTVSPropertyOp21
 70
     0
102
RTVSPropertyOp22
 70
     0
102
RTVSPropertyOp23
 70
     0
102
RTVSPropertyOp24
 70
     0
102
RTVSPropertyOp25
 70
     0
102
RTVSPropertyOp26
 70
     0
102
RTVSPropertyOp27
 70
     0
102
RTVSPropertyOp28
 70
     1
102
RTVSPropertyOp29
 70
     1
102
RTVSPropertyOp30
 70
     1
102
RTVSPropertyOp31
 70
     1
102
RTVSPropertyOp32
 70
     1
102
RTVSPropertyOp33
 70
     1
102
RTVSPropertyOp34
 70
     1
102
RTVSPropertyOp35
 70
     1
102
RTVSPropertyOp36
 70
     1
102
RTVSPropertyOp37
 70
     0
102
RTVSPropertyOp38
 70
     0
102
RTVSPropertyOp39
 70
     0
102
RTVSPropertyOp40
 70
     0
102
RTVSPropertyOp41
 70
     0
102
RTVSPropertyOp42
 70
     0
102
RTVSPropertyOp43
 70
     0
102
RTVSPropertyOp44
 70
     0
102
RTVSPropertyOp45
 70
     1
102
RTVSPropertyOp46
 70
     0
102
RTVSPropertyOp47
 70
     0
102
RTVSPropertyOp48
 70
     0
102
RTVSPropertyOp49
 70
     1
102
RTVSPropertyOp50
 70
     0
102
RTVSPropertyOp51
 70
     0
102
RTVSPropertyOp52
 70
     0
102
RTVSPropertyOp53
 70
     0
102
RTVSPropertyOp54
 70
     0
102
RTVSPropertyOp55
 70
     1
102
RTVSPropertyOp56
 70
     0
102
RTVSPropertyOp57
 70
     0
102
RTVSPropertyOp58
 70
     0
102
RTVSPropertyOp59
 70
     0
102
RTVSPropertyOp60
 70
     0
102
RTVSPropertyOp61
 70
     0
102
RTVSPropertyOp62
 70
     0
  0
XRECORD
  5
9DA9
102
{ACAD_REACTORS
330
9DA8
102
}
330
9DA8
100
AcDbXrecord
280
     1
102
RTVSPost2010Prop28
280
     0
102
RTVSPost2010PropOp28
 70
     1
102
RTVSPost2010Prop29
280
     1
102
RTVSPost2010PropOp29
 70
     1
102
RTVSPost2010Prop30
280
     1
102
RTVSPost2010PropOp30
 70
     1
102
RTVSPost2010Prop31
280
     0
102
RTVSPost2010PropOp31
 70
     1
102
RTVSPost2010Prop32
280
     0
102
RTVSPost2010PropOp32
 70
     1
102
RTVSPost2010Prop33
280
     0
102
RTVSPost2010PropOp33
 70
     1
102
RTVSPost2010Prop34
280
     0
102
RTVSPost2010PropOp34
 70
     1
102
RTVSPost2010Prop35
280
     0
102
RTVSPost2010PropOp35
 70
     1
102
RTVSPost2010Prop36
280
     0
102
RTVSPost2010PropOp36
 70
     1
102
RTVSPost2010Prop37
 90
       50
102
RTVSPost2010PropOp37
 70
     1
102
RTVSPost2010Prop38
140
0.0
102
RTVSPost2010PropOp38
 70
     1
102
RTVSPost2010Prop39
140
1.0
102
RTVSPost2010PropOp39
 70
     1
102
RTVSPost2010Prop40
 90
        0
102
RTVSPost2010PropOp40
 70
     1
102
RTVSPost2010Prop41ColorIndex
 90
       18
102
RTVSPost2010Prop41ColorRGB
 90
        0
102
RTVSPost2010PropOp41
 70
     1
102
RTVSPost2010Prop42
 90
       50
102
RTVSPost2010PropOp42
 70
     1
102
RTVSPost2010Prop43
 90
        3
102
RTVSPost2010PropOp43
 70
     1
102
RTVSPost2010Prop44ColorIndex
 90
        5
102
RTVSPost2010Prop44ColorRGB
 90
      255
102
RTVSPost2010PropOp44
 70
     1
102
RTVSPost2010Prop45
280
     0
102
RTVSPost2010PropOp45
 70
     1
102
RTVSPost2010Prop46
 90
       50
102
RTVSPost2010PropOp46
 70
     1
102
RTVSPost2010Prop47
 90
       50
102
RTVSPost2010PropOp47
 70
     1
102
RTVSPost2010Prop48
 90
       50
102
RTVSPost2010PropOp48
 70
     1
102
RTVSPost2010Prop49
280
     0
102
RTVSPost2010PropOp49
 70
     1
102
RTVSPost2010Prop50
 90
       50
102
RTVSPost2010PropOp50
 70
     1
102
RTVSPost2010Prop51ColorIndex
 90
      256
102
RTVSPost2010Prop51ColorRGB
 90
-16777216
102
RTVSPost2010PropOp51
 70
     0
102
RTVSPost2010Prop52
140
1.0
102
RTVSPost2010PropOp52
 70
     0
102
RTVSPost2010Prop53
 90
        2
102
RTVSPost2010PropOp53
 70
     1
102
RTVSPost2010Prop54
  1
strokes_ogs.tif
102
RTVSPost2010PropOp54
 70
     1
102
RTVSPost2010Prop55
280
     0
102
RTVSPost2010PropOp55
 70
     1
102
RTVSPost2010Prop56
140
1.0
102
RTVSPost2010PropOp56
 70
     1
102
RTVSPost2010Prop57
140
1.0
102
RTVSPost2010PropOp57
 70
     1
102
RTVSPropertyOp0
 70
     1
102
RTVSPropertyOp1
 70
     1
102
RTVSPropertyOp2
 70
     1
102
RTVSPropertyOp3
 70
     1
102
RTVSPropertyOp4
 70
     1
102
RTVSPropertyOp5
 70
     1
102
RTVSPropertyOp6
 70
     1
102
RTVSPropertyOp7
 70
     1
102
RTVSPropertyOp8
 70
     1
102
RTVSPropertyOp9
 70
     1
102
RTVSPropertyOp10
 70
     1
102
RTVSPropertyOp11
 70
     1
102
RTVSPropertyOp12
 70
     1
102
RTVSPropertyOp13
 70
     1
102
RTVSPropertyOp14
 70
     1
102
RTVSPropertyOp15
 70
     1
102
RTVSPropertyOp16
 70
     1
102
RTVSPropertyOp17
 70
     1
102
RTVSPropertyOp18
 70
     1
102
RTVSPropertyOp19
 70
     1
102
RTVSPropertyOp20
 70
     1
102
RTVSPropertyOp21
 70
     1
102
RTVSPropertyOp22
 70
     1
102
RTVSPropertyOp23
 70
     1
102
RTVSPropertyOp24
 70
     1
102
RTVSPropertyOp25
 70
     1
102
RTVSPropertyOp26
 70
     1
102
RTVSPropertyOp27
 70
     1
102
RTVSPropertyOp28
 70
     1
102
RTVSPropertyOp29
 70
     1
102
RTVSPropertyOp30
 70
     1
102
RTVSPropertyOp31
 70
     1
102
RTVSPropertyOp32
 70
     1
102
RTVSPropertyOp33
 70
     1
102
RTVSPropertyOp34
 70
     1
102
RTVSPropertyOp35
 70
     1
102
RTVSPropertyOp36
 70
     1
102
RTVSPropertyOp37
 70
     1
102
RTVSPropertyOp38
 70
     1
102
RTVSPropertyOp39
 70
     1
102
RTVSPropertyOp40
 70
     1
102
RTVSPropertyOp41
 70
     1
102
RTVSPropertyOp42
 70
     1
102
RTVSPropertyOp43
 70
     1
102
RTVSPropertyOp44
 70
     1
102
RTVSPropertyOp45
 70
     1
102
RTVSPropertyOp46
 70
     1
102
RTVSPropertyOp47
 70
     1
102
RTVSPropertyOp48
 70
     1
102
RTVSPropertyOp49
 70
     1
102
RTVSPropertyOp50
 70
     1
102
RTVSPropertyOp51
 70
     0
102
RTVSPropertyOp52
 70
     0
102
RTVSPropertyOp53
 70
     1
102
RTVSPropertyOp54
 70
     1
102
RTVSPropertyOp55
 70
     1
102
RTVSPropertyOp56
 70
     1
102
RTVSPropertyOp57
 70
     1
102
RTVSPropertyOp58
 70
     1
102
RTVSPropertyOp59
 70
     1
102
RTVSPropertyOp60
 70
     1
102
RTVSPropertyOp61
 70
     1
102
RTVSPropertyOp62
 70
     1
  0
XRECORD
  5
9D8D
102
{ACAD_REACTORS
330
9D8C
102
}
330
9D8C
100
AcDbXrecord
280
     1
102
RTVSPost2010Prop28
280
     0
102
RTVSPost2010PropOp28
 70
     1
102
RTVSPost2010Prop29
280
     1
102
RTVSPost2010PropOp29
 70
     1
102
RTVSPost2010Prop30
280
     1
102
RTVSPost2010PropOp30
 70
     1
102
RTVSPost2010Prop31
280
     0
102
RTVSPost2010PropOp31
 70
     1
102
RTVSPost2010Prop32
280
     0
102
RTVSPost2010PropOp32
 70
     1
102
RTVSPost2010Prop33
280
     0
102
RTVSPost2010PropOp33
 70
     1
102
RTVSPost2010Prop34
280
     0
102
RTVSPost2010PropOp34
 70
     1
102
RTVSPost2010Prop35
280
     0
102
RTVSPost2010PropOp35
 70
     1
102
RTVSPost2010Prop36
280
     0
102
RTVSPost2010PropOp36
 70
     1
102
RTVSPost2010Prop37
 90
       50
102
RTVSPost2010PropOp37
 70
     1
102
RTVSPost2010Prop38
140
0.0
102
RTVSPost2010PropOp38
 70
     1
102
RTVSPost2010Prop39
140
1.0
102
RTVSPost2010PropOp39
 70
     1
102
RTVSPost2010Prop40
 90
        0
102
RTVSPost2010PropOp40
 70
     1
102
RTVSPost2010Prop41ColorIndex
 90
       18
102
RTVSPost2010Prop41ColorRGB
 90
        0
102
RTVSPost2010PropOp41
 70
     1
102
RTVSPost2010Prop42
 90
       50
102
RTVSPost2010PropOp42
 70
     1
102
RTVSPost2010Prop43
 90
        3
102
RTVSPost2010PropOp43
 70
     1
102
RTVSPost2010Prop44ColorIndex
 90
        5
102
RTVSPost2010Prop44ColorRGB
 90
      255
102
RTVSPost2010PropOp44
 70
     1
102
RTVSPost2010Prop45
280
     0
102
RTVSPost2010PropOp45
 70
     1
102
RTVSPost2010Prop46
 90
       50
102
RTVSPost2010PropOp46
 70
     1
102
RTVSPost2010Prop47
 90
       50
102
RTVSPost2010PropOp47
 70
     1
102
RTVSPost2010Prop48
 90
       50
102
RTVSPost2010PropOp48
 70
     1
102
RTVSPost2010Prop49
280
     0
102
RTVSPost2010PropOp49
 70
     1
102
RTVSPost2010Prop50
 90
       50
102
RTVSPost2010PropOp50
 70
     1
102
RTVSPost2010Prop51ColorIndex
 90
      256
102
RTVSPost2010Prop51ColorRGB
 90
-16777216
102
RTVSPost2010PropOp51
 70
     0
102
RTVSPost2010Prop52
140
1.0
102
RTVSPost2010PropOp52
 70
     0
102
RTVSPost2010Prop53
 90
        2
102
RTVSPost2010PropOp53
 70
     1
102
RTVSPost2010Prop54
  1
strokes_ogs.tif
102
RTVSPost2010PropOp54
 70
     1
102
RTVSPost2010Prop55
280
     0
102
RTVSPost2010PropOp55
 70
     1
102
RTVSPost2010Prop56
140
1.0
102
RTVSPost2010PropOp56
 70
     1
102
RTVSPost2010Prop57
140
1.0
102
RTVSPost2010PropOp57
 70
     1
102
RTVSPropertyOp0
 70
     1
102
RTVSPropertyOp1
 70
     1
102
RTVSPropertyOp2
 70
     1
102
RTVSPropertyOp3
 70
     1
102
RTVSPropertyOp4
 70
     1
102
RTVSPropertyOp5
 70
     1
102
RTVSPropertyOp6
 70
     1
102
RTVSPropertyOp7
 70
     1
102
RTVSPropertyOp8
 70
     1
102
RTVSPropertyOp9
 70
     1
102
RTVSPropertyOp10
 70
     1
102
RTVSPropertyOp11
 70
     1
102
RTVSPropertyOp12
 70
     1
102
RTVSPropertyOp13
 70
     1
102
RTVSPropertyOp14
 70
     1
102
RTVSPropertyOp15
 70
     1
102
RTVSPropertyOp16
 70
     1
102
RTVSPropertyOp17
 70
     1
102
RTVSPropertyOp18
 70
     1
102
RTVSPropertyOp19
 70
     1
102
RTVSPropertyOp20
 70
     1
102
RTVSPropertyOp21
 70
     1
102
RTVSPropertyOp22
 70
     1
102
RTVSPropertyOp23
 70
     1
102
RTVSPropertyOp24
 70
     1
102
RTVSPropertyOp25
 70
     1
102
RTVSPropertyOp26
 70
     1
102
RTVSPropertyOp27
 70
     1
102
RTVSPropertyOp28
 70
     1
102
RTVSPropertyOp29
 70
     1
102
RTVSPropertyOp30
 70
     1
102
RTVSPropertyOp31
 70
     1
102
RTVSPropertyOp32
 70
     1
102
RTVSPropertyOp33
 70
     1
102
RTVSPropertyOp34
 70
     1
102
RTVSPropertyOp35
 70
     1
102
RTVSPropertyOp36
 70
     1
102
RTVSPropertyOp37
 70
     1
102
RTVSPropertyOp38
 70
     1
102
RTVSPropertyOp39
 70
     1
102
RTVSPropertyOp40
 70
     1
102
RTVSPropertyOp41
 70
     1
102
RTVSPropertyOp42
 70
     1
102
RTVSPropertyOp43
 70
     1
102
RTVSPropertyOp44
 70
     1
102
RTVSPropertyOp45
 70
     1
102
RTVSPropertyOp46
 70
     1
102
RTVSPropertyOp47
 70
     1
102
RTVSPropertyOp48
 70
     1
102
RTVSPropertyOp49
 70
     1
102
RTVSPropertyOp50
 70
     1
102
RTVSPropertyOp51
 70
     0
102
RTVSPropertyOp52
 70
     0
102
RTVSPropertyOp53
 70
     1
102
RTVSPropertyOp54
 70
     1
102
RTVSPropertyOp55
 70
     1
102
RTVSPropertyOp56
 70
     1
102
RTVSPropertyOp57
 70
     1
102
RTVSPropertyOp58
 70
     1
102
RTVSPropertyOp59
 70
     1
102
RTVSPropertyOp60
 70
     1
102
RTVSPropertyOp61
 70
     1
102
RTVSPropertyOp62
 70
     1
  0
XRECORD
  5
9D8F
102
{ACAD_REACTORS
330
9D8E
102
}
330
9D8E
100
AcDbXrecord
280
     1
102
RTVSPost2010Prop28
280
     0
102
RTVSPost2010PropOp28
 70
     1
102
RTVSPost2010Prop29
280
     1
102
RTVSPost2010PropOp29
 70
     1
102
RTVSPost2010Prop30
280
     1
102
RTVSPost2010PropOp30
 70
     1
102
RTVSPost2010Prop31
280
     0
102
RTVSPost2010PropOp31
 70
     1
102
RTVSPost2010Prop32
280
     0
102
RTVSPost2010PropOp32
 70
     1
102
RTVSPost2010Prop33
280
     0
102
RTVSPost2010PropOp33
 70
     1
102
RTVSPost2010Prop34
280
     0
102
RTVSPost2010PropOp34
 70
     1
102
RTVSPost2010Prop35
280
     0
102
RTVSPost2010PropOp35
 70
     1
102
RTVSPost2010Prop36
280
     0
102
RTVSPost2010PropOp36
 70
     1
102
RTVSPost2010Prop37
 90
       50
102
RTVSPost2010PropOp37
 70
     1
102
RTVSPost2010Prop38
140
0.0
102
RTVSPost2010PropOp38
 70
     1
102
RTVSPost2010Prop39
140
1.0
102
RTVSPost2010PropOp39
 70
     1
102
RTVSPost2010Prop40
 90
        0
102
RTVSPost2010PropOp40
 70
     1
102
RTVSPost2010Prop41ColorIndex
 90
       18
102
RTVSPost2010Prop41ColorRGB
 90
        0
102
RTVSPost2010PropOp41
 70
     1
102
RTVSPost2010Prop42
 90
       50
102
RTVSPost2010PropOp42
 70
     1
102
RTVSPost2010Prop43
 90
        3
102
RTVSPost2010PropOp43
 70
     1
102
RTVSPost2010Prop44ColorIndex
 90
        5
102
RTVSPost2010Prop44ColorRGB
 90
      255
102
RTVSPost2010PropOp44
 70
     1
102
RTVSPost2010Prop45
280
     0
102
RTVSPost2010PropOp45
 70
     1
102
RTVSPost2010Prop46
 90
       50
102
RTVSPost2010PropOp46
 70
     1
102
RTVSPost2010Prop47
 90
       50
102
RTVSPost2010PropOp47
 70
     1
102
RTVSPost2010Prop48
 90
       50
102
RTVSPost2010PropOp48
 70
     1
102
RTVSPost2010Prop49
280
     0
102
RTVSPost2010PropOp49
 70
     1
102
RTVSPost2010Prop50
 90
       50
102
RTVSPost2010PropOp50
 70
     1
102
RTVSPost2010Prop51ColorIndex
 90
      256
102
RTVSPost2010Prop51ColorRGB
 90
-16777216
102
RTVSPost2010PropOp51
 70
     0
102
RTVSPost2010Prop52
140
1.0
102
RTVSPost2010PropOp52
 70
     0
102
RTVSPost2010Prop53
 90
        2
102
RTVSPost2010PropOp53
 70
     1
102
RTVSPost2010Prop54
  1
strokes_ogs.tif
102
RTVSPost2010PropOp54
 70
     1
102
RTVSPost2010Prop55
280
     0
102
RTVSPost2010PropOp55
 70
     1
102
RTVSPost2010Prop56
140
1.0
102
RTVSPost2010PropOp56
 70
     1
102
RTVSPost2010Prop57
140
1.0
102
RTVSPost2010PropOp57
 70
     1
102
RTVSPropertyOp0
 70
     1
102
RTVSPropertyOp1
 70
     1
102
RTVSPropertyOp2
 70
     1
102
RTVSPropertyOp3
 70
     1
102
RTVSPropertyOp4
 70
     1
102
RTVSPropertyOp5
 70
     1
102
RTVSPropertyOp6
 70
     1
102
RTVSPropertyOp7
 70
     1
102
RTVSPropertyOp8
 70
     1
102
RTVSPropertyOp9
 70
     1
102
RTVSPropertyOp10
 70
     1
102
RTVSPropertyOp11
 70
     1
102
RTVSPropertyOp12
 70
     1
102
RTVSPropertyOp13
 70
     1
102
RTVSPropertyOp14
 70
     1
102
RTVSPropertyOp15
 70
     1
102
RTVSPropertyOp16
 70
     1
102
RTVSPropertyOp17
 70
     1
102
RTVSPropertyOp18
 70
     1
102
RTVSPropertyOp19
 70
     1
102
RTVSPropertyOp20
 70
     1
102
RTVSPropertyOp21
 70
     1
102
RTVSPropertyOp22
 70
     1
102
RTVSPropertyOp23
 70
     1
102
RTVSPropertyOp24
 70
     1
102
RTVSPropertyOp25
 70
     1
102
RTVSPropertyOp26
 70
     1
102
RTVSPropertyOp27
 70
     1
102
RTVSPropertyOp28
 70
     1
102
RTVSPropertyOp29
 70
     1
102
RTVSPropertyOp30
 70
     1
102
RTVSPropertyOp31
 70
     1
102
RTVSPropertyOp32
 70
     1
102
RTVSPropertyOp33
 70
     1
102
RTVSPropertyOp34
 70
     1
102
RTVSPropertyOp35
 70
     1
102
RTVSPropertyOp36
 70
     1
102
RTVSPropertyOp37
 70
     1
102
RTVSPropertyOp38
 70
     1
102
RTVSPropertyOp39
 70
     1
102
RTVSPropertyOp40
 70
     1
102
RTVSPropertyOp41
 70
     1
102
RTVSPropertyOp42
 70
     1
102
RTVSPropertyOp43
 70
     1
102
RTVSPropertyOp44
 70
     1
102
RTVSPropertyOp45
 70
     1
102
RTVSPropertyOp46
 70
     1
102
RTVSPropertyOp47
 70
     1
102
RTVSPropertyOp48
 70
     1
102
RTVSPropertyOp49
 70
     1
102
RTVSPropertyOp50
 70
     1
102
RTVSPropertyOp51
 70
     0
102
RTVSPropertyOp52
 70
     0
102
RTVSPropertyOp53
 70
     1
102
RTVSPropertyOp54
 70
     1
102
RTVSPropertyOp55
 70
     1
102
RTVSPropertyOp56
 70
     1
102
RTVSPropertyOp57
 70
     1
102
RTVSPropertyOp58
 70
     1
102
RTVSPropertyOp59
 70
     1
102
RTVSPropertyOp60
 70
     1
102
RTVSPropertyOp61
 70
     1
102
RTVSPropertyOp62
 70
     1
  0
XRECORD
  5
9D91
102
{ACAD_REACTORS
330
9D90
102
}
330
9D90
100
AcDbXrecord
280
     1
102
RTVSPost2010Prop28
280
     0
102
RTVSPost2010PropOp28
 70
     1
102
RTVSPost2010Prop29
280
     1
102
RTVSPost2010PropOp29
 70
     1
102
RTVSPost2010Prop30
280
     1
102
RTVSPost2010PropOp30
 70
     1
102
RTVSPost2010Prop31
280
     0
102
RTVSPost2010PropOp31
 70
     1
102
RTVSPost2010Prop32
280
     0
102
RTVSPost2010PropOp32
 70
     1
102
RTVSPost2010Prop33
280
     0
102
RTVSPost2010PropOp33
 70
     1
102
RTVSPost2010Prop34
280
     0
102
RTVSPost2010PropOp34
 70
     1
102
RTVSPost2010Prop35
280
     0
102
RTVSPost2010PropOp35
 70
     1
102
RTVSPost2010Prop36
280
     0
102
RTVSPost2010PropOp36
 70
     1
102
RTVSPost2010Prop37
 90
       50
102
RTVSPost2010PropOp37
 70
     1
102
RTVSPost2010Prop38
140
0.0
102
RTVSPost2010PropOp38
 70
     1
102
RTVSPost2010Prop39
140
1.0
102
RTVSPost2010PropOp39
 70
     1
102
RTVSPost2010Prop40
 90
        0
102
RTVSPost2010PropOp40
 70
     1
102
RTVSPost2010Prop41ColorIndex
 90
       18
102
RTVSPost2010Prop41ColorRGB
 90
        0
102
RTVSPost2010PropOp41
 70
     1
102
RTVSPost2010Prop42
 90
       50
102
RTVSPost2010PropOp42
 70
     1
102
RTVSPost2010Prop43
 90
        3
102
RTVSPost2010PropOp43
 70
     1
102
RTVSPost2010Prop44ColorIndex
 90
        5
102
RTVSPost2010Prop44ColorRGB
 90
      255
102
RTVSPost2010PropOp44
 70
     1
102
RTVSPost2010Prop45
280
     0
102
RTVSPost2010PropOp45
 70
     1
102
RTVSPost2010Prop46
 90
       50
102
RTVSPost2010PropOp46
 70
     1
102
RTVSPost2010Prop47
 90
       50
102
RTVSPost2010PropOp47
 70
     1
102
RTVSPost2010Prop48
 90
       50
102
RTVSPost2010PropOp48
 70
     1
102
RTVSPost2010Prop49
280
     0
102
RTVSPost2010PropOp49
 70
     1
102
RTVSPost2010Prop50
 90
       50
102
RTVSPost2010PropOp50
 70
     1
102
RTVSPost2010Prop51ColorIndex
 90
      256
102
RTVSPost2010Prop51ColorRGB
 90
-16777216
102
RTVSPost2010PropOp51
 70
     0
102
RTVSPost2010Prop52
140
1.0
102
RTVSPost2010PropOp52
 70
     0
102
RTVSPost2010Prop53
 90
        2
102
RTVSPost2010PropOp53
 70
     1
102
RTVSPost2010Prop54
  1
strokes_ogs.tif
102
RTVSPost2010PropOp54
 70
     1
102
RTVSPost2010Prop55
280
     0
102
RTVSPost2010PropOp55
 70
     1
102
RTVSPost2010Prop56
140
1.0
102
RTVSPost2010PropOp56
 70
     1
102
RTVSPost2010Prop57
140
1.0
102
RTVSPost2010PropOp57
 70
     1
102
RTVSPropertyOp0
 70
     1
102
RTVSPropertyOp1
 70
     1
102
RTVSPropertyOp2
 70
     1
102
RTVSPropertyOp3
 70
     1
102
RTVSPropertyOp4
 70
     1
102
RTVSPropertyOp5
 70
     1
102
RTVSPropertyOp6
 70
     1
102
RTVSPropertyOp7
 70
     1
102
RTVSPropertyOp8
 70
     1
102
RTVSPropertyOp9
 70
     1
102
RTVSPropertyOp10
 70
     1
102
RTVSPropertyOp11
 70
     1
102
RTVSPropertyOp12
 70
     1
102
RTVSPropertyOp13
 70
     1
102
RTVSPropertyOp14
 70
     1
102
RTVSPropertyOp15
 70
     1
102
RTVSPropertyOp16
 70
     1
102
RTVSPropertyOp17
 70
     1
102
RTVSPropertyOp18
 70
     1
102
RTVSPropertyOp19
 70
     1
102
RTVSPropertyOp20
 70
     1
102
RTVSPropertyOp21
 70
     1
102
RTVSPropertyOp22
 70
     1
102
RTVSPropertyOp23
 70
     1
102
RTVSPropertyOp24
 70
     1
102
RTVSPropertyOp25
 70
     1
102
RTVSPropertyOp26
 70
     1
102
RTVSPropertyOp27
 70
     1
102
RTVSPropertyOp28
 70
     1
102
RTVSPropertyOp29
 70
     1
102
RTVSPropertyOp30
 70
     1
102
RTVSPropertyOp31
 70
     1
102
RTVSPropertyOp32
 70
     1
102
RTVSPropertyOp33
 70
     1
102
RTVSPropertyOp34
 70
     1
102
RTVSPropertyOp35
 70
     1
102
RTVSPropertyOp36
 70
     1
102
RTVSPropertyOp37
 70
     1
102
RTVSPropertyOp38
 70
     1
102
RTVSPropertyOp39
 70
     1
102
RTVSPropertyOp40
 70
     1
102
RTVSPropertyOp41
 70
     1
102
RTVSPropertyOp42
 70
     1
102
RTVSPropertyOp43
 70
     1
102
RTVSPropertyOp44
 70
     1
102
RTVSPropertyOp45
 70
     1
102
RTVSPropertyOp46
 70
     1
102
RTVSPropertyOp47
 70
     1
102
RTVSPropertyOp48
 70
     1
102
RTVSPropertyOp49
 70
     1
102
RTVSPropertyOp50
 70
     1
102
RTVSPropertyOp51
 70
     0
102
RTVSPropertyOp52
 70
     0
102
RTVSPropertyOp53
 70
     1
102
RTVSPropertyOp54
 70
     1
102
RTVSPropertyOp55
 70
     1
102
RTVSPropertyOp56
 70
     1
102
RTVSPropertyOp57
 70
     1
102
RTVSPropertyOp58
 70
     1
102
RTVSPropertyOp59
 70
     1
102
RTVSPropertyOp60
 70
     1
102
RTVSPropertyOp61
 70
     1
102
RTVSPropertyOp62
 70
     1
  0
XRECORD
  5
9D93
102
{ACAD_REACTORS
330
9D92
102
}
330
9D92
100
AcDbXrecord
280
     1
102
RTVSPost2010Prop28
280
     0
102
RTVSPost2010PropOp28
 70
     1
102
RTVSPost2010Prop29
280
     1
102
RTVSPost2010PropOp29
 70
     1
102
RTVSPost2010Prop30
280
     1
102
RTVSPost2010PropOp30
 70
     1
102
RTVSPost2010Prop31
280
     0
102
RTVSPost2010PropOp31
 70
     1
102
RTVSPost2010Prop32
280
     0
102
RTVSPost2010PropOp32
 70
     1
102
RTVSPost2010Prop33
280
     0
102
RTVSPost2010PropOp33
 70
     1
102
RTVSPost2010Prop34
280
     0
102
RTVSPost2010PropOp34
 70
     1
102
RTVSPost2010Prop35
280
     0
102
RTVSPost2010PropOp35
 70
     1
102
RTVSPost2010Prop36
280
     0
102
RTVSPost2010PropOp36
 70
     1
102
RTVSPost2010Prop37
 90
       50
102
RTVSPost2010PropOp37
 70
     1
102
RTVSPost2010Prop38
140
0.0
102
RTVSPost2010PropOp38
 70
     1
102
RTVSPost2010Prop39
140
1.0
102
RTVSPost2010PropOp39
 70
     1
102
RTVSPost2010Prop40
 90
        0
102
RTVSPost2010PropOp40
 70
     1
102
RTVSPost2010Prop41ColorIndex
 90
       18
102
RTVSPost2010Prop41ColorRGB
 90
        0
102
RTVSPost2010PropOp41
 70
     1
102
RTVSPost2010Prop42
 90
       50
102
RTVSPost2010PropOp42
 70
     1
102
RTVSPost2010Prop43
 90
        3
102
RTVSPost2010PropOp43
 70
     1
102
RTVSPost2010Prop44ColorIndex
 90
        5
102
RTVSPost2010Prop44ColorRGB
 90
      255
102
RTVSPost2010PropOp44
 70
     1
102
RTVSPost2010Prop45
280
     0
102
RTVSPost2010PropOp45
 70
     1
102
RTVSPost2010Prop46
 90
       50
102
RTVSPost2010PropOp46
 70
     1
102
RTVSPost2010Prop47
 90
       50
102
RTVSPost2010PropOp47
 70
     1
102
RTVSPost2010Prop48
 90
       50
102
RTVSPost2010PropOp48
 70
     1
102
RTVSPost2010Prop49
280
     0
102
RTVSPost2010PropOp49
 70
     1
102
RTVSPost2010Prop50
 90
       50
102
RTVSPost2010PropOp50
 70
     1
102
RTVSPost2010Prop51ColorIndex
 90
      256
102
RTVSPost2010Prop51ColorRGB
 90
-16777216
102
RTVSPost2010PropOp51
 70
     0
102
RTVSPost2010Prop52
140
1.0
102
RTVSPost2010PropOp52
 70
     0
102
RTVSPost2010Prop53
 90
        2
102
RTVSPost2010PropOp53
 70
     1
102
RTVSPost2010Prop54
  1
strokes_ogs.tif
102
RTVSPost2010PropOp54
 70
     1
102
RTVSPost2010Prop55
280
     0
102
RTVSPost2010PropOp55
 70
     1
102
RTVSPost2010Prop56
140
1.0
102
RTVSPost2010PropOp56
 70
     1
102
RTVSPost2010Prop57
140
1.0
102
RTVSPost2010PropOp57
 70
     1
102
RTVSPropertyOp0
 70
     1
102
RTVSPropertyOp1
 70
     1
102
RTVSPropertyOp2
 70
     1
102
RTVSPropertyOp3
 70
     1
102
RTVSPropertyOp4
 70
     1
102
RTVSPropertyOp5
 70
     1
102
RTVSPropertyOp6
 70
     1
102
RTVSPropertyOp7
 70
     1
102
RTVSPropertyOp8
 70
     1
102
RTVSPropertyOp9
 70
     1
102
RTVSPropertyOp10
 70
     1
102
RTVSPropertyOp11
 70
     1
102
RTVSPropertyOp12
 70
     1
102
RTVSPropertyOp13
 70
     1
102
RTVSPropertyOp14
 70
     1
102
RTVSPropertyOp15
 70
     1
102
RTVSPropertyOp16
 70
     1
102
RTVSPropertyOp17
 70
     1
102
RTVSPropertyOp18
 70
     1
102
RTVSPropertyOp19
 70
     1
102
RTVSPropertyOp20
 70
     1
102
RTVSPropertyOp21
 70
     1
102
RTVSPropertyOp22
 70
     1
102
RTVSPropertyOp23
 70
     1
102
RTVSPropertyOp24
 70
     1
102
RTVSPropertyOp25
 70
     1
102
RTVSPropertyOp26
 70
     1
102
RTVSPropertyOp27
 70
     1
102
RTVSPropertyOp28
 70
     1
102
RTVSPropertyOp29
 70
     1
102
RTVSPropertyOp30
 70
     1
102
RTVSPropertyOp31
 70
     1
102
RTVSPropertyOp32
 70
     1
102
RTVSPropertyOp33
 70
     1
102
RTVSPropertyOp34
 70
     1
102
RTVSPropertyOp35
 70
     1
102
RTVSPropertyOp36
 70
     1
102
RTVSPropertyOp37
 70
     1
102
RTVSPropertyOp38
 70
     1
102
RTVSPropertyOp39
 70
     1
102
RTVSPropertyOp40
 70
     1
102
RTVSPropertyOp41
 70
     1
102
RTVSPropertyOp42
 70
     1
102
RTVSPropertyOp43
 70
     1
102
RTVSPropertyOp44
 70
     1
102
RTVSPropertyOp45
 70
     1
102
RTVSPropertyOp46
 70
     1
102
RTVSPropertyOp47
 70
     1
102
RTVSPropertyOp48
 70
     1
102
RTVSPropertyOp49
 70
     1
102
RTVSPropertyOp50
 70
     1
102
RTVSPropertyOp51
 70
     0
102
RTVSPropertyOp52
 70
     0
102
RTVSPropertyOp53
 70
     1
102
RTVSPropertyOp54
 70
     1
102
RTVSPropertyOp55
 70
     1
102
RTVSPropertyOp56
 70
     1
102
RTVSPropertyOp57
 70
     1
102
RTVSPropertyOp58
 70
     1
102
RTVSPropertyOp59
 70
     1
102
RTVSPropertyOp60
 70
     1
102
RTVSPropertyOp61
 70
     1
102
RTVSPropertyOp62
 70
     1
  0
XRECORD
  5
9D9B
102
{ACAD_REACTORS
330
9D9A
102
}
330
9D9A
100
AcDbXrecord
280
     1
102
RTVSPost2010Prop28
280
     0
102
RTVSPost2010PropOp28
 70
     1
102
RTVSPost2010Prop29
280
     1
102
RTVSPost2010PropOp29
 70
     1
102
RTVSPost2010Prop30
280
     1
102
RTVSPost2010PropOp30
 70
     1
102
RTVSPost2010Prop31
280
     0
102
RTVSPost2010PropOp31
 70
     1
102
RTVSPost2010Prop32
280
     0
102
RTVSPost2010PropOp32
 70
     1
102
RTVSPost2010Prop33
280
     0
102
RTVSPost2010PropOp33
 70
     1
102
RTVSPost2010Prop34
280
     0
102
RTVSPost2010PropOp34
 70
     1
102
RTVSPost2010Prop35
280
     0
102
RTVSPost2010PropOp35
 70
     1
102
RTVSPost2010Prop36
280
     0
102
RTVSPost2010PropOp36
 70
     1
102
RTVSPost2010Prop37
 90
       50
102
RTVSPost2010PropOp37
 70
     1
102
RTVSPost2010Prop38
140
0.0
102
RTVSPost2010PropOp38
 70
     1
102
RTVSPost2010Prop39
140
1.0
102
RTVSPost2010PropOp39
 70
     1
102
RTVSPost2010Prop40
 90
        0
102
RTVSPost2010PropOp40
 70
     1
102
RTVSPost2010Prop41ColorIndex
 90
       18
102
RTVSPost2010Prop41ColorRGB
 90
        0
102
RTVSPost2010PropOp41
 70
     1
102
RTVSPost2010Prop42
 90
       50
102
RTVSPost2010PropOp42
 70
     1
102
RTVSPost2010Prop43
 90
        3
102
RTVSPost2010PropOp43
 70
     1
102
RTVSPost2010Prop44ColorIndex
 90
        5
102
RTVSPost2010Prop44ColorRGB
 90
      255
102
RTVSPost2010PropOp44
 70
     1
102
RTVSPost2010Prop45
280
     0
102
RTVSPost2010PropOp45
 70
     1
102
RTVSPost2010Prop46
 90
       50
102
RTVSPost2010PropOp46
 70
     1
102
RTVSPost2010Prop47
 90
       50
102
RTVSPost2010PropOp47
 70
     1
102
RTVSPost2010Prop48
 90
       50
102
RTVSPost2010PropOp48
 70
     1
102
RTVSPost2010Prop49
280
     0
102
RTVSPost2010PropOp49
 70
     1
102
RTVSPost2010Prop50
 90
       50
102
RTVSPost2010PropOp50
 70
     1
102
RTVSPost2010Prop51ColorIndex
 90
      256
102
RTVSPost2010Prop51ColorRGB
 90
-16777216
102
RTVSPost2010PropOp51
 70
     0
102
RTVSPost2010Prop52
140
1.0
102
RTVSPost2010PropOp52
 70
     0
102
RTVSPost2010Prop53
 90
        2
102
RTVSPost2010PropOp53
 70
     1
102
RTVSPost2010Prop54
  1
strokes_ogs.tif
102
RTVSPost2010PropOp54
 70
     1
102
RTVSPost2010Prop55
280
     0
102
RTVSPost2010PropOp55
 70
     1
102
RTVSPost2010Prop56
140
1.0
102
RTVSPost2010PropOp56
 70
     1
102
RTVSPost2010Prop57
140
1.0
102
RTVSPost2010PropOp57
 70
     1
102
RTVSPropertyOp0
 70
     1
102
RTVSPropertyOp1
 70
     1
102
RTVSPropertyOp2
 70
     1
102
RTVSPropertyOp3
 70
     1
102
RTVSPropertyOp4
 70
     1
102
RTVSPropertyOp5
 70
     1
102
RTVSPropertyOp6
 70
     1
102
RTVSPropertyOp7
 70
     1
102
RTVSPropertyOp8
 70
     1
102
RTVSPropertyOp9
 70
     1
102
RTVSPropertyOp10
 70
     1
102
RTVSPropertyOp11
 70
     1
102
RTVSPropertyOp12
 70
     1
102
RTVSPropertyOp13
 70
     1
102
RTVSPropertyOp14
 70
     1
102
RTVSPropertyOp15
 70
     1
102
RTVSPropertyOp16
 70
     1
102
RTVSPropertyOp17
 70
     1
102
RTVSPropertyOp18
 70
     1
102
RTVSPropertyOp19
 70
     1
102
RTVSPropertyOp20
 70
     1
102
RTVSPropertyOp21
 70
     1
102
RTVSPropertyOp22
 70
     1
102
RTVSPropertyOp23
 70
     1
102
RTVSPropertyOp24
 70
     1
102
RTVSPropertyOp25
 70
     1
102
RTVSPropertyOp26
 70
     1
102
RTVSPropertyOp27
 70
     1
102
RTVSPropertyOp28
 70
     1
102
RTVSPropertyOp29
 70
     1
102
RTVSPropertyOp30
 70
     1
102
RTVSPropertyOp31
 70
     1
102
RTVSPropertyOp32
 70
     1
102
RTVSPropertyOp33
 70
     1
102
RTVSPropertyOp34
 70
     1
102
RTVSPropertyOp35
 70
     1
102
RTVSPropertyOp36
 70
     1
102
RTVSPropertyOp37
 70
     1
102
RTVSPropertyOp38
 70
     1
102
RTVSPropertyOp39
 70
     1
102
RTVSPropertyOp40
 70
     1
102
RTVSPropertyOp41
 70
     1
102
RTVSPropertyOp42
 70
     1
102
RTVSPropertyOp43
 70
     1
102
RTVSPropertyOp44
 70
     1
102
RTVSPropertyOp45
 70
     1
102
RTVSPropertyOp46
 70
     1
102
RTVSPropertyOp47
 70
     1
102
RTVSPropertyOp48
 70
     1
102
RTVSPropertyOp49
 70
     1
102
RTVSPropertyOp50
 70
     1
102
RTVSPropertyOp51
 70
     0
102
RTVSPropertyOp52
 70
     0
102
RTVSPropertyOp53
 70
     1
102
RTVSPropertyOp54
 70
     1
102
RTVSPropertyOp55
 70
     1
102
RTVSPropertyOp56
 70
     1
102
RTVSPropertyOp57
 70
     1
102
RTVSPropertyOp58
 70
     1
102
RTVSPropertyOp59
 70
     1
102
RTVSPropertyOp60
 70
     1
102
RTVSPropertyOp61
 70
     1
102
RTVSPropertyOp62
 70
     1
  0
XRECORD
  5
9DB7
102
{ACAD_REACTORS
330
9DB6
102
}
330
9DB6
100
AcDbXrecord
280
     1
102
RTVSPost2010Prop28
280
     0
102
RTVSPost2010PropOp28
 70
     1
102
RTVSPost2010Prop29
280
     1
102
RTVSPost2010PropOp29
 70
     1
102
RTVSPost2010Prop30
280
     1
102
RTVSPost2010PropOp30
 70
     1
102
RTVSPost2010Prop31
280
     0
102
RTVSPost2010PropOp31
 70
     1
102
RTVSPost2010Prop32
280
     0
102
RTVSPost2010PropOp32
 70
     1
102
RTVSPost2010Prop33
280
     0
102
RTVSPost2010PropOp33
 70
     1
102
RTVSPost2010Prop34
280
     0
102
RTVSPost2010PropOp34
 70
     1
102
RTVSPost2010Prop35
280
     0
102
RTVSPost2010PropOp35
 70
     1
102
RTVSPost2010Prop36
280
     0
102
RTVSPost2010PropOp36
 70
     1
102
RTVSPost2010Prop37
 90
       50
102
RTVSPost2010PropOp37
 70
     0
102
RTVSPost2010Prop38
140
0.0
102
RTVSPost2010PropOp38
 70
     0
102
RTVSPost2010Prop39
140
1.0
102
RTVSPost2010PropOp39
 70
     0
102
RTVSPost2010Prop40
 90
        0
102
RTVSPost2010PropOp40
 70
     0
102
RTVSPost2010Prop41ColorIndex
 90
       18
102
RTVSPost2010Prop41ColorRGB
 90
        0
102
RTVSPost2010PropOp41
 70
     0
102
RTVSPost2010Prop42
 90
       50
102
RTVSPost2010PropOp42
 70
     0
102
RTVSPost2010Prop43
 90
        3
102
RTVSPost2010PropOp43
 70
     0
102
RTVSPost2010Prop44ColorIndex
 90
        5
102
RTVSPost2010Prop44ColorRGB
 90
      255
102
RTVSPost2010PropOp44
 70
     0
102
RTVSPost2010Prop45
280
     0
102
RTVSPost2010PropOp45
 70
     1
102
RTVSPost2010Prop46
 90
       50
102
RTVSPost2010PropOp46
 70
     0
102
RTVSPost2010Prop47
 90
       50
102
RTVSPost2010PropOp47
 70
     0
102
RTVSPost2010Prop48
 90
       50
102
RTVSPost2010PropOp48
 70
     0
102
RTVSPost2010Prop49
280
     0
102
RTVSPost2010PropOp49
 70
     1
102
RTVSPost2010Prop50
 90
       50
102
RTVSPost2010PropOp50
 70
     0
102
RTVSPost2010Prop51ColorIndex
 90
      256
102
RTVSPost2010Prop51ColorRGB
 90
-16777216
102
RTVSPost2010PropOp51
 70
     0
102
RTVSPost2010Prop52
140
1.0
102
RTVSPost2010PropOp52
 70
     0
102
RTVSPost2010Prop53
 90
        2
102
RTVSPost2010PropOp53
 70
     0
102
RTVSPost2010Prop54
  1
strokes_ogs.tif
102
RTVSPost2010PropOp54
 70
     0
102
RTVSPost2010Prop55
280
     0
102
RTVSPost2010PropOp55
 70
     1
102
RTVSPost2010Prop56
140
1.0
102
RTVSPost2010PropOp56
 70
     0
102
RTVSPost2010Prop57
140
1.0
102
RTVSPost2010PropOp57
 70
     0
102
RTVSPropertyOp0
 70
     0
102
RTVSPropertyOp1
 70
     0
102
RTVSPropertyOp2
 70
     0
102
RTVSPropertyOp3
 70
     0
102
RTVSPropertyOp4
 70
     0
102
RTVSPropertyOp5
 70
     0
102
RTVSPropertyOp6
 70
     0
102
RTVSPropertyOp7
 70
     0
102
RTVSPropertyOp8
 70
     0
102
RTVSPropertyOp9
 70
     0
102
RTVSPropertyOp10
 70
     0
102
RTVSPropertyOp11
 70
     0
102
RTVSPropertyOp12
 70
     0
102
RTVSPropertyOp13
 70
     0
102
RTVSPropertyOp14
 70
     2
102
RTVSPropertyOp15
 70
     0
102
RTVSPropertyOp16
 70
     0
102
RTVSPropertyOp17
 70
     0
102
RTVSPropertyOp18
 70
     0
102
RTVSPropertyOp19
 70
     0
102
RTVSPropertyOp20
 70
     0
102
RTVSPropertyOp21
 70
     0
102
RTVSPropertyOp22
 70
     0
102
RTVSPropertyOp23
 70
     0
102
RTVSPropertyOp24
 70
     0
102
RTVSPropertyOp25
 70
     0
102
RTVSPropertyOp26
 70
     0
102
RTVSPropertyOp27
 70
     0
102
RTVSPropertyOp28
 70
     1
102
RTVSPropertyOp29
 70
     1
102
RTVSPropertyOp30
 70
     1
102
RTVSPropertyOp31
 70
     1
102
RTVSPropertyOp32
 70
     1
102
RTVSPropertyOp33
 70
     1
102
RTVSPropertyOp34
 70
     1
102
RTVSPropertyOp35
 70
     1
102
RTVSPropertyOp36
 70
     1
102
RTVSPropertyOp37
 70
     0
102
RTVSPropertyOp38
 70
     0
102
RTVSPropertyOp39
 70
     0
102
RTVSPropertyOp40
 70
     0
102
RTVSPropertyOp41
 70
     0
102
RTVSPropertyOp42
 70
     0
102
RTVSPropertyOp43
 70
     0
102
RTVSPropertyOp44
 70
     0
102
RTVSPropertyOp45
 70
     1
102
RTVSPropertyOp46
 70
     0
102
RTVSPropertyOp47
 70
     0
102
RTVSPropertyOp48
 70
     0
102
RTVSPropertyOp49
 70
     1
102
RTVSPropertyOp50
 70
     0
102
RTVSPropertyOp51
 70
     0
102
RTVSPropertyOp52
 70
     0
102
RTVSPropertyOp53
 70
     0
102
RTVSPropertyOp54
 70
     0
102
RTVSPropertyOp55
 70
     1
102
RTVSPropertyOp56
 70
     0
102
RTVSPropertyOp57
 70
     0
102
RTVSPropertyOp58
 70
     0
102
RTVSPropertyOp59
 70
     0
102
RTVSPropertyOp60
 70
     0
102
RTVSPropertyOp61
 70
     0
102
RTVSPropertyOp62
 70
     0
  0
XRECORD
  5
9DA7
102
{ACAD_REACTORS
330
9DA6
102
}
330
9DA6
100
AcDbXrecord
280
     1
102
RTVSPost2010Prop28
280
     0
102
RTVSPost2010PropOp28
 70
     1
102
RTVSPost2010Prop29
280
     1
102
RTVSPost2010PropOp29
 70
     1
102
RTVSPost2010Prop30
280
     1
102
RTVSPost2010PropOp30
 70
     1
102
RTVSPost2010Prop31
280
     0
102
RTVSPost2010PropOp31
 70
     1
102
RTVSPost2010Prop32
280
     0
102
RTVSPost2010PropOp32
 70
     1
102
RTVSPost2010Prop33
280
     0
102
RTVSPost2010PropOp33
 70
     1
102
RTVSPost2010Prop34
280
     0
102
RTVSPost2010PropOp34
 70
     1
102
RTVSPost2010Prop35
280
     0
102
RTVSPost2010PropOp35
 70
     1
102
RTVSPost2010Prop36
280
     0
102
RTVSPost2010PropOp36
 70
     1
102
RTVSPost2010Prop37
 90
       50
102
RTVSPost2010PropOp37
 70
     1
102
RTVSPost2010Prop38
140
0.0
102
RTVSPost2010PropOp38
 70
     1
102
RTVSPost2010Prop39
140
1.0
102
RTVSPost2010PropOp39
 70
     1
102
RTVSPost2010Prop40
 90
        0
102
RTVSPost2010PropOp40
 70
     1
102
RTVSPost2010Prop41ColorIndex
 90
       18
102
RTVSPost2010Prop41ColorRGB
 90
        0
102
RTVSPost2010PropOp41
 70
     1
102
RTVSPost2010Prop42
 90
       50
102
RTVSPost2010PropOp42
 70
     1
102
RTVSPost2010Prop43
 90
        3
102
RTVSPost2010PropOp43
 70
     1
102
RTVSPost2010Prop44ColorIndex
 90
        5
102
RTVSPost2010Prop44ColorRGB
 90
      255
102
RTVSPost2010PropOp44
 70
     1
102
RTVSPost2010Prop45
280
     0
102
RTVSPost2010PropOp45
 70
     1
102
RTVSPost2010Prop46
 90
       50
102
RTVSPost2010PropOp46
 70
     1
102
RTVSPost2010Prop47
 90
       50
102
RTVSPost2010PropOp47
 70
     1
102
RTVSPost2010Prop48
 90
       50
102
RTVSPost2010PropOp48
 70
     1
102
RTVSPost2010Prop49
280
     0
102
RTVSPost2010PropOp49
 70
     1
102
RTVSPost2010Prop50
 90
       50
102
RTVSPost2010PropOp50
 70
     1
102
RTVSPost2010Prop51ColorIndex
 90
      256
102
RTVSPost2010Prop51ColorRGB
 90
-16777216
102
RTVSPost2010PropOp51
 70
     0
102
RTVSPost2010Prop52
140
1.0
102
RTVSPost2010PropOp52
 70
     0
102
RTVSPost2010Prop53
 90
        2
102
RTVSPost2010PropOp53
 70
     1
102
RTVSPost2010Prop54
  1
strokes_ogs.tif
102
RTVSPost2010PropOp54
 70
     1
102
RTVSPost2010Prop55
280
     0
102
RTVSPost2010PropOp55
 70
     1
102
RTVSPost2010Prop56
140
1.0
102
RTVSPost2010PropOp56
 70
     1
102
RTVSPost2010Prop57
140
1.0
102
RTVSPost2010PropOp57
 70
     1
102
RTVSPropertyOp0
 70
     1
102
RTVSPropertyOp1
 70
     1
102
RTVSPropertyOp2
 70
     1
102
RTVSPropertyOp3
 70
     1
102
RTVSPropertyOp4
 70
     1
102
RTVSPropertyOp5
 70
     1
102
RTVSPropertyOp6
 70
     1
102
RTVSPropertyOp7
 70
     1
102
RTVSPropertyOp8
 70
     1
102
RTVSPropertyOp9
 70
     1
102
RTVSPropertyOp10
 70
     1
102
RTVSPropertyOp11
 70
     1
102
RTVSPropertyOp12
 70
     1
102
RTVSPropertyOp13
 70
     1
102
RTVSPropertyOp14
 70
     1
102
RTVSPropertyOp15
 70
     1
102
RTVSPropertyOp16
 70
     1
102
RTVSPropertyOp17
 70
     1
102
RTVSPropertyOp18
 70
     1
102
RTVSPropertyOp19
 70
     1
102
RTVSPropertyOp20
 70
     1
102
RTVSPropertyOp21
 70
     1
102
RTVSPropertyOp22
 70
     1
102
RTVSPropertyOp23
 70
     1
102
RTVSPropertyOp24
 70
     1
102
RTVSPropertyOp25
 70
     1
102
RTVSPropertyOp26
 70
     1
102
RTVSPropertyOp27
 70
     1
102
RTVSPropertyOp28
 70
     1
102
RTVSPropertyOp29
 70
     1
102
RTVSPropertyOp30
 70
     1
102
RTVSPropertyOp31
 70
     1
102
RTVSPropertyOp32
 70
     1
102
RTVSPropertyOp33
 70
     1
102
RTVSPropertyOp34
 70
     1
102
RTVSPropertyOp35
 70
     1
102
RTVSPropertyOp36
 70
     1
102
RTVSPropertyOp37
 70
     1
102
RTVSPropertyOp38
 70
     1
102
RTVSPropertyOp39
 70
     1
102
RTVSPropertyOp40
 70
     1
102
RTVSPropertyOp41
 70
     1
102
RTVSPropertyOp42
 70
     1
102
RTVSPropertyOp43
 70
     1
102
RTVSPropertyOp44
 70
     1
102
RTVSPropertyOp45
 70
     1
102
RTVSPropertyOp46
 70
     1
102
RTVSPropertyOp47
 70
     1
102
RTVSPropertyOp48
 70
     1
102
RTVSPropertyOp49
 70
     1
102
RTVSPropertyOp50
 70
     1
102
RTVSPropertyOp51
 70
     0
102
RTVSPropertyOp52
 70
     0
102
RTVSPropertyOp53
 70
     1
102
RTVSPropertyOp54
 70
     1
102
RTVSPropertyOp55
 70
     1
102
RTVSPropertyOp56
 70
     1
102
RTVSPropertyOp57
 70
     1
102
RTVSPropertyOp58
 70
     1
102
RTVSPropertyOp59
 70
     1
102
RTVSPropertyOp60
 70
     1
102
RTVSPropertyOp61
 70
     1
102
RTVSPropertyOp62
 70
     1
  0
XRECORD
  5
9DB9
102
{ACAD_REACTORS
330
9DB8
102
}
330
9DB8
100
AcDbXrecord
280
     1
102
RTVSPost2010Prop28
280
     0
102
RTVSPost2010PropOp28
 70
     1
102
RTVSPost2010Prop29
280
     1
102
RTVSPost2010PropOp29
 70
     1
102
RTVSPost2010Prop30
280
     1
102
RTVSPost2010PropOp30
 70
     1
102
RTVSPost2010Prop31
280
     0
102
RTVSPost2010PropOp31
 70
     1
102
RTVSPost2010Prop32
280
     0
102
RTVSPost2010PropOp32
 70
     1
102
RTVSPost2010Prop33
280
     0
102
RTVSPost2010PropOp33
 70
     1
102
RTVSPost2010Prop34
280
     0
102
RTVSPost2010PropOp34
 70
     1
102
RTVSPost2010Prop35
280
     0
102
RTVSPost2010PropOp35
 70
     1
102
RTVSPost2010Prop36
280
     0
102
RTVSPost2010PropOp36
 70
     1
102
RTVSPost2010Prop37
 90
       50
102
RTVSPost2010PropOp37
 70
     0
102
RTVSPost2010Prop38
140
0.0
102
RTVSPost2010PropOp38
 70
     0
102
RTVSPost2010Prop39
140
1.0
102
RTVSPost2010PropOp39
 70
     0
102
RTVSPost2010Prop40
 90
        0
102
RTVSPost2010PropOp40
 70
     0
102
RTVSPost2010Prop41ColorIndex
 90
       18
102
RTVSPost2010Prop41ColorRGB
 90
        0
102
RTVSPost2010PropOp41
 70
     0
102
RTVSPost2010Prop42
 90
       50
102
RTVSPost2010PropOp42
 70
     0
102
RTVSPost2010Prop43
 90
        3
102
RTVSPost2010PropOp43
 70
     0
102
RTVSPost2010Prop44ColorIndex
 90
        5
102
RTVSPost2010Prop44ColorRGB
 90
      255
102
RTVSPost2010PropOp44
 70
     0
102
RTVSPost2010Prop45
280
     0
102
RTVSPost2010PropOp45
 70
     1
102
RTVSPost2010Prop46
 90
       50
102
RTVSPost2010PropOp46
 70
     0
102
RTVSPost2010Prop47
 90
       50
102
RTVSPost2010PropOp47
 70
     0
102
RTVSPost2010Prop48
 90
       50
102
RTVSPost2010PropOp48
 70
     0
102
RTVSPost2010Prop49
280
     0
102
RTVSPost2010PropOp49
 70
     1
102
RTVSPost2010Prop50
 90
       50
102
RTVSPost2010PropOp50
 70
     0
102
RTVSPost2010Prop51ColorIndex
 90
      256
102
RTVSPost2010Prop51ColorRGB
 90
-16777216
102
RTVSPost2010PropOp51
 70
     0
102
RTVSPost2010Prop52
140
1.0
102
RTVSPost2010PropOp52
 70
     0
102
RTVSPost2010Prop53
 90
        2
102
RTVSPost2010PropOp53
 70
     0
102
RTVSPost2010Prop54
  1
strokes_ogs.tif
102
RTVSPost2010PropOp54
 70
     0
102
RTVSPost2010Prop55
280
     0
102
RTVSPost2010PropOp55
 70
     1
102
RTVSPost2010Prop56
140
1.0
102
RTVSPost2010PropOp56
 70
     0
102
RTVSPost2010Prop57
140
1.0
102
RTVSPost2010PropOp57
 70
     0
102
RTVSPropertyOp0
 70
     0
102
RTVSPropertyOp1
 70
     0
102
RTVSPropertyOp2
 70
     0
102
RTVSPropertyOp3
 70
     0
102
RTVSPropertyOp4
 70
     0
102
RTVSPropertyOp5
 70
     0
102
RTVSPropertyOp6
 70
     0
102
RTVSPropertyOp7
 70
     0
102
RTVSPropertyOp8
 70
     0
102
RTVSPropertyOp9
 70
     0
102
RTVSPropertyOp10
 70
     0
102
RTVSPropertyOp11
 70
     0
102
RTVSPropertyOp12
 70
     0
102
RTVSPropertyOp13
 70
     0
102
RTVSPropertyOp14
 70
     2
102
RTVSPropertyOp15
 70
     0
102
RTVSPropertyOp16
 70
     0
102
RTVSPropertyOp17
 70
     0
102
RTVSPropertyOp18
 70
     0
102
RTVSPropertyOp19
 70
     0
102
RTVSPropertyOp20
 70
     0
102
RTVSPropertyOp21
 70
     0
102
RTVSPropertyOp22
 70
     0
102
RTVSPropertyOp23
 70
     0
102
RTVSPropertyOp24
 70
     0
102
RTVSPropertyOp25
 70
     0
102
RTVSPropertyOp26
 70
     0
102
RTVSPropertyOp27
 70
     0
102
RTVSPropertyOp28
 70
     1
102
RTVSPropertyOp29
 70
     1
102
RTVSPropertyOp30
 70
     1
102
RTVSPropertyOp31
 70
     1
102
RTVSPropertyOp32
 70
     1
102
RTVSPropertyOp33
 70
     1
102
RTVSPropertyOp34
 70
     1
102
RTVSPropertyOp35
 70
     1
102
RTVSPropertyOp36
 70
     1
102
RTVSPropertyOp37
 70
     0
102
RTVSPropertyOp38
 70
     0
102
RTVSPropertyOp39
 70
     0
102
RTVSPropertyOp40
 70
     0
102
RTVSPropertyOp41
 70
     0
102
RTVSPropertyOp42
 70
     0
102
RTVSPropertyOp43
 70
     0
102
RTVSPropertyOp44
 70
     0
102
RTVSPropertyOp45
 70
     1
102
RTVSPropertyOp46
 70
     0
102
RTVSPropertyOp47
 70
     0
102
RTVSPropertyOp48
 70
     0
102
RTVSPropertyOp49
 70
     1
102
RTVSPropertyOp50
 70
     0
102
RTVSPropertyOp51
 70
     0
102
RTVSPropertyOp52
 70
     0
102
RTVSPropertyOp53
 70
     0
102
RTVSPropertyOp54
 70
     0
102
RTVSPropertyOp55
 70
     1
102
RTVSPropertyOp56
 70
     0
102
RTVSPropertyOp57
 70
     0
102
RTVSPropertyOp58
 70
     0
102
RTVSPropertyOp59
 70
     0
102
RTVSPropertyOp60
 70
     0
102
RTVSPropertyOp61
 70
     0
102
RTVSPropertyOp62
 70
     0
  0
XRECORD
  5
9D9F
102
{ACAD_REACTORS
330
9D9E
102
}
330
9D9E
100
AcDbXrecord
280
     1
102
RTVSPost2010Prop28
280
     0
102
RTVSPost2010PropOp28
 70
     1
102
RTVSPost2010Prop29
280
     1
102
RTVSPost2010PropOp29
 70
     1
102
RTVSPost2010Prop30
280
     1
102
RTVSPost2010PropOp30
 70
     1
102
RTVSPost2010Prop31
280
     0
102
RTVSPost2010PropOp31
 70
     1
102
RTVSPost2010Prop32
280
     0
102
RTVSPost2010PropOp32
 70
     1
102
RTVSPost2010Prop33
280
     0
102
RTVSPost2010PropOp33
 70
     1
102
RTVSPost2010Prop34
280
     0
102
RTVSPost2010PropOp34
 70
     1
102
RTVSPost2010Prop35
280
     0
102
RTVSPost2010PropOp35
 70
     1
102
RTVSPost2010Prop36
280
     0
102
RTVSPost2010PropOp36
 70
     1
102
RTVSPost2010Prop37
 90
       50
102
RTVSPost2010PropOp37
 70
     1
102
RTVSPost2010Prop38
140
0.0
102
RTVSPost2010PropOp38
 70
     1
102
RTVSPost2010Prop39
140
1.0
102
RTVSPost2010PropOp39
 70
     1
102
RTVSPost2010Prop40
 90
        0
102
RTVSPost2010PropOp40
 70
     1
102
RTVSPost2010Prop41ColorIndex
 90
       18
102
RTVSPost2010Prop41ColorRGB
 90
        0
102
RTVSPost2010PropOp41
 70
     1
102
RTVSPost2010Prop42
 90
       50
102
RTVSPost2010PropOp42
 70
     1
102
RTVSPost2010Prop43
 90
        3
102
RTVSPost2010PropOp43
 70
     1
102
RTVSPost2010Prop44ColorIndex
 90
        5
102
RTVSPost2010Prop44ColorRGB
 90
      255
102
RTVSPost2010PropOp44
 70
     1
102
RTVSPost2010Prop45
280
     0
102
RTVSPost2010PropOp45
 70
     1
102
RTVSPost2010Prop46
 90
       50
102
RTVSPost2010PropOp46
 70
     1
102
RTVSPost2010Prop47
 90
       50
102
RTVSPost2010PropOp47
 70
     1
102
RTVSPost2010Prop48
 90
       50
102
RTVSPost2010PropOp48
 70
     1
102
RTVSPost2010Prop49
280
     0
102
RTVSPost2010PropOp49
 70
     1
102
RTVSPost2010Prop50
 90
       50
102
RTVSPost2010PropOp50
 70
     1
102
RTVSPost2010Prop51ColorIndex
 90
      256
102
RTVSPost2010Prop51ColorRGB
 90
-16777216
102
RTVSPost2010PropOp51
 70
     0
102
RTVSPost2010Prop52
140
1.0
102
RTVSPost2010PropOp52
 70
     0
102
RTVSPost2010Prop53
 90
        2
102
RTVSPost2010PropOp53
 70
     1
102
RTVSPost2010Prop54
  1
strokes_ogs.tif
102
RTVSPost2010PropOp54
 70
     1
102
RTVSPost2010Prop55
280
     0
102
RTVSPost2010PropOp55
 70
     1
102
RTVSPost2010Prop56
140
1.0
102
RTVSPost2010PropOp56
 70
     1
102
RTVSPost2010Prop57
140
1.0
102
RTVSPost2010PropOp57
 70
     1
102
RTVSPropertyOp0
 70
     1
102
RTVSPropertyOp1
 70
     1
102
RTVSPropertyOp2
 70
     1
102
RTVSPropertyOp3
 70
     1
102
RTVSPropertyOp4
 70
     1
102
RTVSPropertyOp5
 70
     1
102
RTVSPropertyOp6
 70
     1
102
RTVSPropertyOp7
 70
     1
102
RTVSPropertyOp8
 70
     1
102
RTVSPropertyOp9
 70
     1
102
RTVSPropertyOp10
 70
     1
102
RTVSPropertyOp11
 70
     1
102
RTVSPropertyOp12
 70
     1
102
RTVSPropertyOp13
 70
     1
102
RTVSPropertyOp14
 70
     1
102
RTVSPropertyOp15
 70
     1
102
RTVSPropertyOp16
 70
     1
102
RTVSPropertyOp17
 70
     1
102
RTVSPropertyOp18
 70
     1
102
RTVSPropertyOp19
 70
     1
102
RTVSPropertyOp20
 70
     1
102
RTVSPropertyOp21
 70
     1
102
RTVSPropertyOp22
 70
     1
102
RTVSPropertyOp23
 70
     1
102
RTVSPropertyOp24
 70
     1
102
RTVSPropertyOp25
 70
     1
102
RTVSPropertyOp26
 70
     1
102
RTVSPropertyOp27
 70
     1
102
RTVSPropertyOp28
 70
     1
102
RTVSPropertyOp29
 70
     1
102
RTVSPropertyOp30
 70
     1
102
RTVSPropertyOp31
 70
     1
102
RTVSPropertyOp32
 70
     1
102
RTVSPropertyOp33
 70
     1
102
RTVSPropertyOp34
 70
     1
102
RTVSPropertyOp35
 70
     1
102
RTVSPropertyOp36
 70
     1
102
RTVSPropertyOp37
 70
     1
102
RTVSPropertyOp38
 70
     1
102
RTVSPropertyOp39
 70
     1
102
RTVSPropertyOp40
 70
     1
102
RTVSPropertyOp41
 70
     1
102
RTVSPropertyOp42
 70
     1
102
RTVSPropertyOp43
 70
     1
102
RTVSPropertyOp44
 70
     1
102
RTVSPropertyOp45
 70
     1
102
RTVSPropertyOp46
 70
     1
102
RTVSPropertyOp47
 70
     1
102
RTVSPropertyOp48
 70
     1
102
RTVSPropertyOp49
 70
     1
102
RTVSPropertyOp50
 70
     1
102
RTVSPropertyOp51
 70
     0
102
RTVSPropertyOp52
 70
     0
102
RTVSPropertyOp53
 70
     1
102
RTVSPropertyOp54
 70
     1
102
RTVSPropertyOp55
 70
     1
102
RTVSPropertyOp56
 70
     1
102
RTVSPropertyOp57
 70
     1
102
RTVSPropertyOp58
 70
     1
102
RTVSPropertyOp59
 70
     1
102
RTVSPropertyOp60
 70
     1
102
RTVSPropertyOp61
 70
     1
102
RTVSPropertyOp62
 70
     1
  0
XRECORD
  5
9DB5
102
{ACAD_REACTORS
330
9DB4
102
}
330
9DB4
100
AcDbXrecord
280
     1
102
RTVSPost2010Prop28
280
     0
102
RTVSPost2010PropOp28
 70
     1
102
RTVSPost2010Prop29
280
     1
102
RTVSPost2010PropOp29
 70
     1
102
RTVSPost2010Prop30
280
     1
102
RTVSPost2010PropOp30
 70
     1
102
RTVSPost2010Prop31
280
     0
102
RTVSPost2010PropOp31
 70
     1
102
RTVSPost2010Prop32
280
     0
102
RTVSPost2010PropOp32
 70
     1
102
RTVSPost2010Prop33
280
     0
102
RTVSPost2010PropOp33
 70
     1
102
RTVSPost2010Prop34
280
     0
102
RTVSPost2010PropOp34
 70
     1
102
RTVSPost2010Prop35
280
     0
102
RTVSPost2010PropOp35
 70
     1
102
RTVSPost2010Prop36
280
     0
102
RTVSPost2010PropOp36
 70
     1
102
RTVSPost2010Prop37
 90
       50
102
RTVSPost2010PropOp37
 70
     1
102
RTVSPost2010Prop38
140
0.0
102
RTVSPost2010PropOp38
 70
     1
102
RTVSPost2010Prop39
140
1.0
102
RTVSPost2010PropOp39
 70
     1
102
RTVSPost2010Prop40
 90
        0
102
RTVSPost2010PropOp40
 70
     1
102
RTVSPost2010Prop41ColorIndex
 90
       18
102
RTVSPost2010Prop41ColorRGB
 90
        0
102
RTVSPost2010PropOp41
 70
     1
102
RTVSPost2010Prop42
 90
       50
102
RTVSPost2010PropOp42
 70
     1
102
RTVSPost2010Prop43
 90
        3
102
RTVSPost2010PropOp43
 70
     1
102
RTVSPost2010Prop44ColorIndex
 90
        5
102
RTVSPost2010Prop44ColorRGB
 90
      255
102
RTVSPost2010PropOp44
 70
     1
102
RTVSPost2010Prop45
280
     0
102
RTVSPost2010PropOp45
 70
     1
102
RTVSPost2010Prop46
 90
       50
102
RTVSPost2010PropOp46
 70
     1
102
RTVSPost2010Prop47
 90
       50
102
RTVSPost2010PropOp47
 70
     1
102
RTVSPost2010Prop48
 90
       50
102
RTVSPost2010PropOp48
 70
     1
102
RTVSPost2010Prop49
280
     0
102
RTVSPost2010PropOp49
 70
     1
102
RTVSPost2010Prop50
 90
       50
102
RTVSPost2010PropOp50
 70
     1
102
RTVSPost2010Prop51ColorIndex
 90
      256
102
RTVSPost2010Prop51ColorRGB
 90
-16777216
102
RTVSPost2010PropOp51
 70
     0
102
RTVSPost2010Prop52
140
1.0
102
RTVSPost2010PropOp52
 70
     0
102
RTVSPost2010Prop53
 90
        2
102
RTVSPost2010PropOp53
 70
     1
102
RTVSPost2010Prop54
  1
strokes_ogs.tif
102
RTVSPost2010PropOp54
 70
     1
102
RTVSPost2010Prop55
280
     0
102
RTVSPost2010PropOp55
 70
     1
102
RTVSPost2010Prop56
140
1.0
102
RTVSPost2010PropOp56
 70
     1
102
RTVSPost2010Prop57
140
1.0
102
RTVSPost2010PropOp57
 70
     1
102
RTVSPropertyOp0
 70
     1
102
RTVSPropertyOp1
 70
     1
102
RTVSPropertyOp2
 70
     1
102
RTVSPropertyOp3
 70
     1
102
RTVSPropertyOp4
 70
     1
102
RTVSPropertyOp5
 70
     1
102
RTVSPropertyOp6
 70
     1
102
RTVSPropertyOp7
 70
     1
102
RTVSPropertyOp8
 70
     1
102
RTVSPropertyOp9
 70
     1
102
RTVSPropertyOp10
 70
     1
102
RTVSPropertyOp11
 70
     1
102
RTVSPropertyOp12
 70
     1
102
RTVSPropertyOp13
 70
     1
102
RTVSPropertyOp14
 70
     1
102
RTVSPropertyOp15
 70
     1
102
RTVSPropertyOp16
 70
     1
102
RTVSPropertyOp17
 70
     1
102
RTVSPropertyOp18
 70
     1
102
RTVSPropertyOp19
 70
     1
102
RTVSPropertyOp20
 70
     1
102
RTVSPropertyOp21
 70
     1
102
RTVSPropertyOp22
 70
     1
102
RTVSPropertyOp23
 70
     1
102
RTVSPropertyOp24
 70
     1
102
RTVSPropertyOp25
 70
     1
102
RTVSPropertyOp26
 70
     1
102
RTVSPropertyOp27
 70
     1
102
RTVSPropertyOp28
 70
     1
102
RTVSPropertyOp29
 70
     1
102
RTVSPropertyOp30
 70
     1
102
RTVSPropertyOp31
 70
     1
102
RTVSPropertyOp32
 70
     1
102
RTVSPropertyOp33
 70
     1
102
RTVSPropertyOp34
 70
     1
102
RTVSPropertyOp35
 70
     1
102
RTVSPropertyOp36
 70
     1
102
RTVSPropertyOp37
 70
     1
102
RTVSPropertyOp38
 70
     1
102
RTVSPropertyOp39
 70
     1
102
RTVSPropertyOp40
 70
     1
102
RTVSPropertyOp41
 70
     1
102
RTVSPropertyOp42
 70
     1
102
RTVSPropertyOp43
 70
     1
102
RTVSPropertyOp44
 70
     1
102
RTVSPropertyOp45
 70
     1
102
RTVSPropertyOp46
 70
     1
102
RTVSPropertyOp47
 70
     1
102
RTVSPropertyOp48
 70
     1
102
RTVSPropertyOp49
 70
     1
102
RTVSPropertyOp50
 70
     1
102
RTVSPropertyOp51
 70
     0
102
RTVSPropertyOp52
 70
     0
102
RTVSPropertyOp53
 70
     1
102
RTVSPropertyOp54
 70
     1
102
RTVSPropertyOp55
 70
     1
102
RTVSPropertyOp56
 70
     1
102
RTVSPropertyOp57
 70
     1
102
RTVSPropertyOp58
 70
     1
102
RTVSPropertyOp59
 70
     1
102
RTVSPropertyOp60
 70
     1
102
RTVSPropertyOp61
 70
     1
102
RTVSPropertyOp62
 70
     1
  0
XRECORD
  5
9DB3
102
{ACAD_REACTORS
330
9DB2
102
}
330
9DB2
100
AcDbXrecord
280
     1
102
RTVSPost2010Prop28
280
     0
102
RTVSPost2010PropOp28
 70
     1
102
RTVSPost2010Prop29
280
     1
102
RTVSPost2010PropOp29
 70
     1
102
RTVSPost2010Prop30
280
     1
102
RTVSPost2010PropOp30
 70
     1
102
RTVSPost2010Prop31
280
     0
102
RTVSPost2010PropOp31
 70
     1
102
RTVSPost2010Prop32
280
     0
102
RTVSPost2010PropOp32
 70
     1
102
RTVSPost2010Prop33
280
     0
102
RTVSPost2010PropOp33
 70
     1
102
RTVSPost2010Prop34
280
     0
102
RTVSPost2010PropOp34
 70
     1
102
RTVSPost2010Prop35
280
     0
102
RTVSPost2010PropOp35
 70
     1
102
RTVSPost2010Prop36
280
     0
102
RTVSPost2010PropOp36
 70
     1
102
RTVSPost2010Prop37
 90
       50
102
RTVSPost2010PropOp37
 70
     1
102
RTVSPost2010Prop38
140
0.0
102
RTVSPost2010PropOp38
 70
     1
102
RTVSPost2010Prop39
140
1.0
102
RTVSPost2010PropOp39
 70
     1
102
RTVSPost2010Prop40
 90
        0
102
RTVSPost2010PropOp40
 70
     1
102
RTVSPost2010Prop41ColorIndex
 90
       18
102
RTVSPost2010Prop41ColorRGB
 90
        0
102
RTVSPost2010PropOp41
 70
     1
102
RTVSPost2010Prop42
 90
       50
102
RTVSPost2010PropOp42
 70
     1
102
RTVSPost2010Prop43
 90
        3
102
RTVSPost2010PropOp43
 70
     1
102
RTVSPost2010Prop44ColorIndex
 90
        5
102
RTVSPost2010Prop44ColorRGB
 90
      255
102
RTVSPost2010PropOp44
 70
     1
102
RTVSPost2010Prop45
280
     0
102
RTVSPost2010PropOp45
 70
     1
102
RTVSPost2010Prop46
 90
       50
102
RTVSPost2010PropOp46
 70
     1
102
RTVSPost2010Prop47
 90
       50
102
RTVSPost2010PropOp47
 70
     1
102
RTVSPost2010Prop48
 90
       50
102
RTVSPost2010PropOp48
 70
     1
102
RTVSPost2010Prop49
280
     0
102
RTVSPost2010PropOp49
 70
     1
102
RTVSPost2010Prop50
 90
       50
102
RTVSPost2010PropOp50
 70
     1
102
RTVSPost2010Prop51ColorIndex
 90
      256
102
RTVSPost2010Prop51ColorRGB
 90
-16777216
102
RTVSPost2010PropOp51
 70
     0
102
RTVSPost2010Prop52
140
1.0
102
RTVSPost2010PropOp52
 70
     0
102
RTVSPost2010Prop53
 90
        2
102
RTVSPost2010PropOp53
 70
     1
102
RTVSPost2010Prop54
  1
strokes_ogs.tif
102
RTVSPost2010PropOp54
 70
     1
102
RTVSPost2010Prop55
280
     0
102
RTVSPost2010PropOp55
 70
     1
102
RTVSPost2010Prop56
140
1.0
102
RTVSPost2010PropOp56
 70
     1
102
RTVSPost2010Prop57
140
1.0
102
RTVSPost2010PropOp57
 70
     1
102
RTVSPropertyOp0
 70
     1
102
RTVSPropertyOp1
 70
     1
102
RTVSPropertyOp2
 70
     1
102
RTVSPropertyOp3
 70
     1
102
RTVSPropertyOp4
 70
     1
102
RTVSPropertyOp5
 70
     1
102
RTVSPropertyOp6
 70
     1
102
RTVSPropertyOp7
 70
     1
102
RTVSPropertyOp8
 70
     1
102
RTVSPropertyOp9
 70
     1
102
RTVSPropertyOp10
 70
     1
102
RTVSPropertyOp11
 70
     1
102
RTVSPropertyOp12
 70
     1
102
RTVSPropertyOp13
 70
     1
102
RTVSPropertyOp14
 70
     1
102
RTVSPropertyOp15
 70
     1
102
RTVSPropertyOp16
 70
     1
102
RTVSPropertyOp17
 70
     1
102
RTVSPropertyOp18
 70
     1
102
RTVSPropertyOp19
 70
     1
102
RTVSPropertyOp20
 70
     1
102
RTVSPropertyOp21
 70
     1
102
RTVSPropertyOp22
 70
     1
102
RTVSPropertyOp23
 70
     1
102
RTVSPropertyOp24
 70
     1
102
RTVSPropertyOp25
 70
     1
102
RTVSPropertyOp26
 70
     1
102
RTVSPropertyOp27
 70
     1
102
RTVSPropertyOp28
 70
     1
102
RTVSPropertyOp29
 70
     1
102
RTVSPropertyOp30
 70
     1
102
RTVSPropertyOp31
 70
     1
102
RTVSPropertyOp32
 70
     1
102
RTVSPropertyOp33
 70
     1
102
RTVSPropertyOp34
 70
     1
102
RTVSPropertyOp35
 70
     1
102
RTVSPropertyOp36
 70
     1
102
RTVSPropertyOp37
 70
     1
102
RTVSPropertyOp38
 70
     1
102
RTVSPropertyOp39
 70
     1
102
RTVSPropertyOp40
 70
     1
102
RTVSPropertyOp41
 70
     1
102
RTVSPropertyOp42
 70
     1
102
RTVSPropertyOp43
 70
     1
102
RTVSPropertyOp44
 70
     1
102
RTVSPropertyOp45
 70
     1
102
RTVSPropertyOp46
 70
     1
102
RTVSPropertyOp47
 70
     1
102
RTVSPropertyOp48
 70
     1
102
RTVSPropertyOp49
 70
     1
102
RTVSPropertyOp50
 70
     1
102
RTVSPropertyOp51
 70
     0
102
RTVSPropertyOp52
 70
     0
102
RTVSPropertyOp53
 70
     1
102
RTVSPropertyOp54
 70
     1
102
RTVSPropertyOp55
 70
     1
102
RTVSPropertyOp56
 70
     1
102
RTVSPropertyOp57
 70
     1
102
RTVSPropertyOp58
 70
     1
102
RTVSPropertyOp59
 70
     1
102
RTVSPropertyOp60
 70
     1
102
RTVSPropertyOp61
 70
     1
102
RTVSPropertyOp62
 70
     1
  0
XRECORD
  5
9DAD
102
{ACAD_REACTORS
330
9DAC
102
}
330
9DAC
100
AcDbXrecord
280
     1
102
RTVSPost2010Prop28
280
     0
102
RTVSPost2010PropOp28
 70
     1
102
RTVSPost2010Prop29
280
     1
102
RTVSPost2010PropOp29
 70
     1
102
RTVSPost2010Prop30
280
     1
102
RTVSPost2010PropOp30
 70
     1
102
RTVSPost2010Prop31
280
     0
102
RTVSPost2010PropOp31
 70
     1
102
RTVSPost2010Prop32
280
     0
102
RTVSPost2010PropOp32
 70
     1
102
RTVSPost2010Prop33
280
     0
102
RTVSPost2010PropOp33
 70
     1
102
RTVSPost2010Prop34
280
     0
102
RTVSPost2010PropOp34
 70
     1
102
RTVSPost2010Prop35
280
     0
102
RTVSPost2010PropOp35
 70
     1
102
RTVSPost2010Prop36
280
     0
102
RTVSPost2010PropOp36
 70
     1
102
RTVSPost2010Prop37
 90
       50
102
RTVSPost2010PropOp37
 70
     1
102
RTVSPost2010Prop38
140
0.0
102
RTVSPost2010PropOp38
 70
     1
102
RTVSPost2010Prop39
140
1.0
102
RTVSPost2010PropOp39
 70
     1
102
RTVSPost2010Prop40
 90
        0
102
RTVSPost2010PropOp40
 70
     1
102
RTVSPost2010Prop41ColorIndex
 90
       18
102
RTVSPost2010Prop41ColorRGB
 90
        0
102
RTVSPost2010PropOp41
 70
     1
102
RTVSPost2010Prop42
 90
       50
102
RTVSPost2010PropOp42
 70
     1
102
RTVSPost2010Prop43
 90
        3
102
RTVSPost2010PropOp43
 70
     1
102
RTVSPost2010Prop44ColorIndex
 90
        5
102
RTVSPost2010Prop44ColorRGB
 90
      255
102
RTVSPost2010PropOp44
 70
     1
102
RTVSPost2010Prop45
280
     0
102
RTVSPost2010PropOp45
 70
     1
102
RTVSPost2010Prop46
 90
       50
102
RTVSPost2010PropOp46
 70
     1
102
RTVSPost2010Prop47
 90
       50
102
RTVSPost2010PropOp47
 70
     1
102
RTVSPost2010Prop48
 90
       50
102
RTVSPost2010PropOp48
 70
     1
102
RTVSPost2010Prop49
280
     0
102
RTVSPost2010PropOp49
 70
     1
102
RTVSPost2010Prop50
 90
       50
102
RTVSPost2010PropOp50
 70
     1
102
RTVSPost2010Prop51ColorIndex
 90
      256
102
RTVSPost2010Prop51ColorRGB
 90
-16777216
102
RTVSPost2010PropOp51
 70
     0
102
RTVSPost2010Prop52
140
1.0
102
RTVSPost2010PropOp52
 70
     0
102
RTVSPost2010Prop53
 90
        2
102
RTVSPost2010PropOp53
 70
     1
102
RTVSPost2010Prop54
  1
strokes_ogs.tif
102
RTVSPost2010PropOp54
 70
     1
102
RTVSPost2010Prop55
280
     0
102
RTVSPost2010PropOp55
 70
     1
102
RTVSPost2010Prop56
140
1.0
102
RTVSPost2010PropOp56
 70
     1
102
RTVSPost2010Prop57
140
1.0
102
RTVSPost2010PropOp57
 70
     1
102
RTVSPropertyOp0
 70
     1
102
RTVSPropertyOp1
 70
     1
102
RTVSPropertyOp2
 70
     1
102
RTVSPropertyOp3
 70
     1
102
RTVSPropertyOp4
 70
     1
102
RTVSPropertyOp5
 70
     1
102
RTVSPropertyOp6
 70
     1
102
RTVSPropertyOp7
 70
     1
102
RTVSPropertyOp8
 70
     1
102
RTVSPropertyOp9
 70
     1
102
RTVSPropertyOp10
 70
     1
102
RTVSPropertyOp11
 70
     1
102
RTVSPropertyOp12
 70
     1
102
RTVSPropertyOp13
 70
     1
102
RTVSPropertyOp14
 70
     1
102
RTVSPropertyOp15
 70
     1
102
RTVSPropertyOp16
 70
     1
102
RTVSPropertyOp17
 70
     1
102
RTVSPropertyOp18
 70
     1
102
RTVSPropertyOp19
 70
     1
102
RTVSPropertyOp20
 70
     1
102
RTVSPropertyOp21
 70
     1
102
RTVSPropertyOp22
 70
     1
102
RTVSPropertyOp23
 70
     1
102
RTVSPropertyOp24
 70
     1
102
RTVSPropertyOp25
 70
     1
102
RTVSPropertyOp26
 70
     1
102
RTVSPropertyOp27
 70
     1
102
RTVSPropertyOp28
 70
     1
102
RTVSPropertyOp29
 70
     1
102
RTVSPropertyOp30
 70
     1
102
RTVSPropertyOp31
 70
     1
102
RTVSPropertyOp32
 70
     1
102
RTVSPropertyOp33
 70
     1
102
RTVSPropertyOp34
 70
     1
102
RTVSPropertyOp35
 70
     1
102
RTVSPropertyOp36
 70
     1
102
RTVSPropertyOp37
 70
     1
102
RTVSPropertyOp38
 70
     1
102
RTVSPropertyOp39
 70
     1
102
RTVSPropertyOp40
 70
     1
102
RTVSPropertyOp41
 70
     1
102
RTVSPropertyOp42
 70
     1
102
RTVSPropertyOp43
 70
     1
102
RTVSPropertyOp44
 70
     1
102
RTVSPropertyOp45
 70
     1
102
RTVSPropertyOp46
 70
     1
102
RTVSPropertyOp47
 70
     1
102
RTVSPropertyOp48
 70
     1
102
RTVSPropertyOp49
 70
     1
102
RTVSPropertyOp50
 70
     1
102
RTVSPropertyOp51
 70
     0
102
RTVSPropertyOp52
 70
     0
102
RTVSPropertyOp53
 70
     1
102
RTVSPropertyOp54
 70
     1
102
RTVSPropertyOp55
 70
     1
102
RTVSPropertyOp56
 70
     1
102
RTVSPropertyOp57
 70
     1
102
RTVSPropertyOp58
 70
     1
102
RTVSPropertyOp59
 70
     1
102
RTVSPropertyOp60
 70
     1
102
RTVSPropertyOp61
 70
     1
102
RTVSPropertyOp62
 70
     1
  0
XRECORD
  5
9DAF
102
{ACAD_REACTORS
330
9DAE
102
}
330
9DAE
100
AcDbXrecord
280
     1
102
RTVSPost2010Prop28
280
     0
102
RTVSPost2010PropOp28
 70
     1
102
RTVSPost2010Prop29
280
     1
102
RTVSPost2010PropOp29
 70
     1
102
RTVSPost2010Prop30
280
     1
102
RTVSPost2010PropOp30
 70
     1
102
RTVSPost2010Prop31
280
     0
102
RTVSPost2010PropOp31
 70
     1
102
RTVSPost2010Prop32
280
     0
102
RTVSPost2010PropOp32
 70
     1
102
RTVSPost2010Prop33
280
     0
102
RTVSPost2010PropOp33
 70
     1
102
RTVSPost2010Prop34
280
     0
102
RTVSPost2010PropOp34
 70
     1
102
RTVSPost2010Prop35
280
     0
102
RTVSPost2010PropOp35
 70
     1
102
RTVSPost2010Prop36
280
     0
102
RTVSPost2010PropOp36
 70
     1
102
RTVSPost2010Prop37
 90
       50
102
RTVSPost2010PropOp37
 70
     1
102
RTVSPost2010Prop38
140
0.0
102
RTVSPost2010PropOp38
 70
     1
102
RTVSPost2010Prop39
140
1.0
102
RTVSPost2010PropOp39
 70
     1
102
RTVSPost2010Prop40
 90
        0
102
RTVSPost2010PropOp40
 70
     1
102
RTVSPost2010Prop41ColorIndex
 90
       18
102
RTVSPost2010Prop41ColorRGB
 90
        0
102
RTVSPost2010PropOp41
 70
     1
102
RTVSPost2010Prop42
 90
       50
102
RTVSPost2010PropOp42
 70
     1
102
RTVSPost2010Prop43
 90
        3
102
RTVSPost2010PropOp43
 70
     1
102
RTVSPost2010Prop44ColorIndex
 90
        5
102
RTVSPost2010Prop44ColorRGB
 90
      255
102
RTVSPost2010PropOp44
 70
     1
102
RTVSPost2010Prop45
280
     0
102
RTVSPost2010PropOp45
 70
     1
102
RTVSPost2010Prop46
 90
       50
102
RTVSPost2010PropOp46
 70
     1
102
RTVSPost2010Prop47
 90
       50
102
RTVSPost2010PropOp47
 70
     1
102
RTVSPost2010Prop48
 90
       50
102
RTVSPost2010PropOp48
 70
     1
102
RTVSPost2010Prop49
280
     0
102
RTVSPost2010PropOp49
 70
     1
102
RTVSPost2010Prop50
 90
       50
102
RTVSPost2010PropOp50
 70
     1
102
RTVSPost2010Prop51ColorIndex
 90
      256
102
RTVSPost2010Prop51ColorRGB
 90
-16777216
102
RTVSPost2010PropOp51
 70
     0
102
RTVSPost2010Prop52
140
1.0
102
RTVSPost2010PropOp52
 70
     0
102
RTVSPost2010Prop53
 90
        2
102
RTVSPost2010PropOp53
 70
     1
102
RTVSPost2010Prop54
  1
strokes_ogs.tif
102
RTVSPost2010PropOp54
 70
     1
102
RTVSPost2010Prop55
280
     0
102
RTVSPost2010PropOp55
 70
     1
102
RTVSPost2010Prop56
140
1.0
102
RTVSPost2010PropOp56
 70
     1
102
RTVSPost2010Prop57
140
1.0
102
RTVSPost2010PropOp57
 70
     1
102
RTVSPropertyOp0
 70
     1
102
RTVSPropertyOp1
 70
     1
102
RTVSPropertyOp2
 70
     1
102
RTVSPropertyOp3
 70
     1
102
RTVSPropertyOp4
 70
     1
102
RTVSPropertyOp5
 70
     1
102
RTVSPropertyOp6
 70
     1
102
RTVSPropertyOp7
 70
     1
102
RTVSPropertyOp8
 70
     1
102
RTVSPropertyOp9
 70
     1
102
RTVSPropertyOp10
 70
     1
102
RTVSPropertyOp11
 70
     1
102
RTVSPropertyOp12
 70
     1
102
RTVSPropertyOp13
 70
     1
102
RTVSPropertyOp14
 70
     1
102
RTVSPropertyOp15
 70
     1
102
RTVSPropertyOp16
 70
     1
102
RTVSPropertyOp17
 70
     1
102
RTVSPropertyOp18
 70
     1
102
RTVSPropertyOp19
 70
     1
102
RTVSPropertyOp20
 70
     1
102
RTVSPropertyOp21
 70
     1
102
RTVSPropertyOp22
 70
     1
102
RTVSPropertyOp23
 70
     1
102
RTVSPropertyOp24
 70
     1
102
RTVSPropertyOp25
 70
     1
102
RTVSPropertyOp26
 70
     1
102
RTVSPropertyOp27
 70
     1
102
RTVSPropertyOp28
 70
     1
102
RTVSPropertyOp29
 70
     1
102
RTVSPropertyOp30
 70
     1
102
RTVSPropertyOp31
 70
     1
102
RTVSPropertyOp32
 70
     1
102
RTVSPropertyOp33
 70
     1
102
RTVSPropertyOp34
 70
     1
102
RTVSPropertyOp35
 70
     1
102
RTVSPropertyOp36
 70
     1
102
RTVSPropertyOp37
 70
     1
102
RTVSPropertyOp38
 70
     1
102
RTVSPropertyOp39
 70
     1
102
RTVSPropertyOp40
 70
     1
102
RTVSPropertyOp41
 70
     1
102
RTVSPropertyOp42
 70
     1
102
RTVSPropertyOp43
 70
     1
102
RTVSPropertyOp44
 70
     1
102
RTVSPropertyOp45
 70
     1
102
RTVSPropertyOp46
 70
     1
102
RTVSPropertyOp47
 70
     1
102
RTVSPropertyOp48
 70
     1
102
RTVSPropertyOp49
 70
     1
102
RTVSPropertyOp50
 70
     1
102
RTVSPropertyOp51
 70
     0
102
RTVSPropertyOp52
 70
     0
102
RTVSPropertyOp53
 70
     1
102
RTVSPropertyOp54
 70
     1
102
RTVSPropertyOp55
 70
     1
102
RTVSPropertyOp56
 70
     1
102
RTVSPropertyOp57
 70
     1
102
RTVSPropertyOp58
 70
     1
102
RTVSPropertyOp59
 70
     1
102
RTVSPropertyOp60
 70
     1
102
RTVSPropertyOp61
 70
     1
102
RTVSPropertyOp62
 70
     1
  0
XRECORD
  5
9DA5
102
{ACAD_REACTORS
330
9DA4
102
}
330
9DA4
100
AcDbXrecord
280
     1
102
RTVSPost2010Prop28
280
     0
102
RTVSPost2010PropOp28
 70
     1
102
RTVSPost2010Prop29
280
     1
102
RTVSPost2010PropOp29
 70
     1
102
RTVSPost2010Prop30
280
     1
102
RTVSPost2010PropOp30
 70
     1
102
RTVSPost2010Prop31
280
     0
102
RTVSPost2010PropOp31
 70
     1
102
RTVSPost2010Prop32
280
     0
102
RTVSPost2010PropOp32
 70
     1
102
RTVSPost2010Prop33
280
     0
102
RTVSPost2010PropOp33
 70
     1
102
RTVSPost2010Prop34
280
     0
102
RTVSPost2010PropOp34
 70
     1
102
RTVSPost2010Prop35
280
     0
102
RTVSPost2010PropOp35
 70
     1
102
RTVSPost2010Prop36
280
     0
102
RTVSPost2010PropOp36
 70
     1
102
RTVSPost2010Prop37
 90
       50
102
RTVSPost2010PropOp37
 70
     1
102
RTVSPost2010Prop38
140
0.0
102
RTVSPost2010PropOp38
 70
     1
102
RTVSPost2010Prop39
140
1.0
102
RTVSPost2010PropOp39
 70
     1
102
RTVSPost2010Prop40
 90
        0
102
RTVSPost2010PropOp40
 70
     1
102
RTVSPost2010Prop41ColorIndex
 90
       18
102
RTVSPost2010Prop41ColorRGB
 90
        0
102
RTVSPost2010PropOp41
 70
     1
102
RTVSPost2010Prop42
 90
       50
102
RTVSPost2010PropOp42
 70
     1
102
RTVSPost2010Prop43
 90
        3
102
RTVSPost2010PropOp43
 70
     1
102
RTVSPost2010Prop44ColorIndex
 90
        5
102
RTVSPost2010Prop44ColorRGB
 90
      255
102
RTVSPost2010PropOp44
 70
     1
102
RTVSPost2010Prop45
280
     0
102
RTVSPost2010PropOp45
 70
     1
102
RTVSPost2010Prop46
 90
       50
102
RTVSPost2010PropOp46
 70
     1
102
RTVSPost2010Prop47
 90
       50
102
RTVSPost2010PropOp47
 70
     1
102
RTVSPost2010Prop48
 90
       50
102
RTVSPost2010PropOp48
 70
     1
102
RTVSPost2010Prop49
280
     0
102
RTVSPost2010PropOp49
 70
     1
102
RTVSPost2010Prop50
 90
       50
102
RTVSPost2010PropOp50
 70
     1
102
RTVSPost2010Prop51ColorIndex
 90
      256
102
RTVSPost2010Prop51ColorRGB
 90
-16777216
102
RTVSPost2010PropOp51
 70
     0
102
RTVSPost2010Prop52
140
1.0
102
RTVSPost2010PropOp52
 70
     0
102
RTVSPost2010Prop53
 90
        2
102
RTVSPost2010PropOp53
 70
     1
102
RTVSPost2010Prop54
  1
strokes_ogs.tif
102
RTVSPost2010PropOp54
 70
     1
102
RTVSPost2010Prop55
280
     0
102
RTVSPost2010PropOp55
 70
     1
102
RTVSPost2010Prop56
140
1.0
102
RTVSPost2010PropOp56
 70
     1
102
RTVSPost2010Prop57
140
1.0
102
RTVSPost2010PropOp57
 70
     1
102
RTVSPropertyOp0
 70
     1
102
RTVSPropertyOp1
 70
     1
102
RTVSPropertyOp2
 70
     1
102
RTVSPropertyOp3
 70
     1
102
RTVSPropertyOp4
 70
     1
102
RTVSPropertyOp5
 70
     1
102
RTVSPropertyOp6
 70
     1
102
RTVSPropertyOp7
 70
     1
102
RTVSPropertyOp8
 70
     1
102
RTVSPropertyOp9
 70
     1
102
RTVSPropertyOp10
 70
     1
102
RTVSPropertyOp11
 70
     1
102
RTVSPropertyOp12
 70
     1
102
RTVSPropertyOp13
 70
     1
102
RTVSPropertyOp14
 70
     1
102
RTVSPropertyOp15
 70
     1
102
RTVSPropertyOp16
 70
     1
102
RTVSPropertyOp17
 70
     1
102
RTVSPropertyOp18
 70
     1
102
RTVSPropertyOp19
 70
     1
102
RTVSPropertyOp20
 70
     1
102
RTVSPropertyOp21
 70
     1
102
RTVSPropertyOp22
 70
     1
102
RTVSPropertyOp23
 70
     1
102
RTVSPropertyOp24
 70
     1
102
RTVSPropertyOp25
 70
     1
102
RTVSPropertyOp26
 70
     1
102
RTVSPropertyOp27
 70
     1
102
RTVSPropertyOp28
 70
     1
102
RTVSPropertyOp29
 70
     1
102
RTVSPropertyOp30
 70
     1
102
RTVSPropertyOp31
 70
     1
102
RTVSPropertyOp32
 70
     1
102
RTVSPropertyOp33
 70
     1
102
RTVSPropertyOp34
 70
     1
102
RTVSPropertyOp35
 70
     1
102
RTVSPropertyOp36
 70
     1
102
RTVSPropertyOp37
 70
     1
102
RTVSPropertyOp38
 70
     1
102
RTVSPropertyOp39
 70
     1
102
RTVSPropertyOp40
 70
     1
102
RTVSPropertyOp41
 70
     1
102
RTVSPropertyOp42
 70
     1
102
RTVSPropertyOp43
 70
     1
102
RTVSPropertyOp44
 70
     1
102
RTVSPropertyOp45
 70
     1
102
RTVSPropertyOp46
 70
     1
102
RTVSPropertyOp47
 70
     1
102
RTVSPropertyOp48
 70
     1
102
RTVSPropertyOp49
 70
     1
102
RTVSPropertyOp50
 70
     1
102
RTVSPropertyOp51
 70
     0
102
RTVSPropertyOp52
 70
     0
102
RTVSPropertyOp53
 70
     1
102
RTVSPropertyOp54
 70
     1
102
RTVSPropertyOp55
 70
     1
102
RTVSPropertyOp56
 70
     1
102
RTVSPropertyOp57
 70
     1
102
RTVSPropertyOp58
 70
     1
102
RTVSPropertyOp59
 70
     1
102
RTVSPropertyOp60
 70
     1
102
RTVSPropertyOp61
 70
     1
102
RTVSPropertyOp62
 70
     1
  0
XRECORD
  5
9D99
102
{ACAD_REACTORS
330
9D98
102
}
330
9D98
100
AcDbXrecord
280
     1
102
RTVSPost2010Prop28
280
     0
102
RTVSPost2010PropOp28
 70
     1
102
RTVSPost2010Prop29
280
     1
102
RTVSPost2010PropOp29
 70
     1
102
RTVSPost2010Prop30
280
     1
102
RTVSPost2010PropOp30
 70
     1
102
RTVSPost2010Prop31
280
     0
102
RTVSPost2010PropOp31
 70
     1
102
RTVSPost2010Prop32
280
     0
102
RTVSPost2010PropOp32
 70
     1
102
RTVSPost2010Prop33
280
     0
102
RTVSPost2010PropOp33
 70
     1
102
RTVSPost2010Prop34
280
     0
102
RTVSPost2010PropOp34
 70
     1
102
RTVSPost2010Prop35
280
     0
102
RTVSPost2010PropOp35
 70
     1
102
RTVSPost2010Prop36
280
     0
102
RTVSPost2010PropOp36
 70
     1
102
RTVSPost2010Prop37
 90
       50
102
RTVSPost2010PropOp37
 70
     1
102
RTVSPost2010Prop38
140
0.0
102
RTVSPost2010PropOp38
 70
     1
102
RTVSPost2010Prop39
140
1.0
102
RTVSPost2010PropOp39
 70
     1
102
RTVSPost2010Prop40
 90
        0
102
RTVSPost2010PropOp40
 70
     1
102
RTVSPost2010Prop41ColorIndex
 90
       18
102
RTVSPost2010Prop41ColorRGB
 90
        0
102
RTVSPost2010PropOp41
 70
     1
102
RTVSPost2010Prop42
 90
       50
102
RTVSPost2010PropOp42
 70
     1
102
RTVSPost2010Prop43
 90
        3
102
RTVSPost2010PropOp43
 70
     1
102
RTVSPost2010Prop44ColorIndex
 90
        5
102
RTVSPost2010Prop44ColorRGB
 90
      255
102
RTVSPost2010PropOp44
 70
     1
102
RTVSPost2010Prop45
280
     0
102
RTVSPost2010PropOp45
 70
     1
102
RTVSPost2010Prop46
 90
       50
102
RTVSPost2010PropOp46
 70
     1
102
RTVSPost2010Prop47
 90
       50
102
RTVSPost2010PropOp47
 70
     1
102
RTVSPost2010Prop48
 90
       50
102
RTVSPost2010PropOp48
 70
     1
102
RTVSPost2010Prop49
280
     0
102
RTVSPost2010PropOp49
 70
     1
102
RTVSPost2010Prop50
 90
       50
102
RTVSPost2010PropOp50
 70
     1
102
RTVSPost2010Prop51ColorIndex
 90
      256
102
RTVSPost2010Prop51ColorRGB
 90
-16777216
102
RTVSPost2010PropOp51
 70
     0
102
RTVSPost2010Prop52
140
1.0
102
RTVSPost2010PropOp52
 70
     0
102
RTVSPost2010Prop53
 90
        2
102
RTVSPost2010PropOp53
 70
     1
102
RTVSPost2010Prop54
  1
strokes_ogs.tif
102
RTVSPost2010PropOp54
 70
     1
102
RTVSPost2010Prop55
280
     0
102
RTVSPost2010PropOp55
 70
     1
102
RTVSPost2010Prop56
140
1.0
102
RTVSPost2010PropOp56
 70
     1
102
RTVSPost2010Prop57
140
1.0
102
RTVSPost2010PropOp57
 70
     1
102
RTVSPropertyOp0
 70
     1
102
RTVSPropertyOp1
 70
     1
102
RTVSPropertyOp2
 70
     1
102
RTVSPropertyOp3
 70
     1
102
RTVSPropertyOp4
 70
     1
102
RTVSPropertyOp5
 70
     1
102
RTVSPropertyOp6
 70
     1
102
RTVSPropertyOp7
 70
     1
102
RTVSPropertyOp8
 70
     1
102
RTVSPropertyOp9
 70
     1
102
RTVSPropertyOp10
 70
     1
102
RTVSPropertyOp11
 70
     1
102
RTVSPropertyOp12
 70
     1
102
RTVSPropertyOp13
 70
     1
102
RTVSPropertyOp14
 70
     1
102
RTVSPropertyOp15
 70
     1
102
RTVSPropertyOp16
 70
     1
102
RTVSPropertyOp17
 70
     1
102
RTVSPropertyOp18
 70
     1
102
RTVSPropertyOp19
 70
     1
102
RTVSPropertyOp20
 70
     1
102
RTVSPropertyOp21
 70
     1
102
RTVSPropertyOp22
 70
     1
102
RTVSPropertyOp23
 70
     1
102
RTVSPropertyOp24
 70
     1
102
RTVSPropertyOp25
 70
     1
102
RTVSPropertyOp26
 70
     1
102
RTVSPropertyOp27
 70
     1
102
RTVSPropertyOp28
 70
     1
102
RTVSPropertyOp29
 70
     1
102
RTVSPropertyOp30
 70
     1
102
RTVSPropertyOp31
 70
     1
102
RTVSPropertyOp32
 70
     1
102
RTVSPropertyOp33
 70
     1
102
RTVSPropertyOp34
 70
     1
102
RTVSPropertyOp35
 70
     1
102
RTVSPropertyOp36
 70
     1
102
RTVSPropertyOp37
 70
     1
102
RTVSPropertyOp38
 70
     1
102
RTVSPropertyOp39
 70
     1
102
RTVSPropertyOp40
 70
     1
102
RTVSPropertyOp41
 70
     1
102
RTVSPropertyOp42
 70
     1
102
RTVSPropertyOp43
 70
     1
102
RTVSPropertyOp44
 70
     1
102
RTVSPropertyOp45
 70
     1
102
RTVSPropertyOp46
 70
     1
102
RTVSPropertyOp47
 70
     1
102
RTVSPropertyOp48
 70
     1
102
RTVSPropertyOp49
 70
     1
102
RTVSPropertyOp50
 70
     1
102
RTVSPropertyOp51
 70
     0
102
RTVSPropertyOp52
 70
     0
102
RTVSPropertyOp53
 70
     1
102
RTVSPropertyOp54
 70
     1
102
RTVSPropertyOp55
 70
     1
102
RTVSPropertyOp56
 70
     1
102
RTVSPropertyOp57
 70
     1
102
RTVSPropertyOp58
 70
     1
102
RTVSPropertyOp59
 70
     1
102
RTVSPropertyOp60
 70
     1
102
RTVSPropertyOp61
 70
     1
102
RTVSPropertyOp62
 70
     1
  0
XRECORD
  5
9DB1
102
{ACAD_REACTORS
330
9DB0
102
}
330
9DB0
100
AcDbXrecord
280
     1
102
RTVSPost2010Prop28
280
     0
102
RTVSPost2010PropOp28
 70
     1
102
RTVSPost2010Prop29
280
     1
102
RTVSPost2010PropOp29
 70
     1
102
RTVSPost2010Prop30
280
     1
102
RTVSPost2010PropOp30
 70
     1
102
RTVSPost2010Prop31
280
     0
102
RTVSPost2010PropOp31
 70
     1
102
RTVSPost2010Prop32
280
     0
102
RTVSPost2010PropOp32
 70
     1
102
RTVSPost2010Prop33
280
     0
102
RTVSPost2010PropOp33
 70
     1
102
RTVSPost2010Prop34
280
     0
102
RTVSPost2010PropOp34
 70
     1
102
RTVSPost2010Prop35
280
     0
102
RTVSPost2010PropOp35
 70
     1
102
RTVSPost2010Prop36
280
     0
102
RTVSPost2010PropOp36
 70
     1
102
RTVSPost2010Prop37
 90
       50
102
RTVSPost2010PropOp37
 70
     1
102
RTVSPost2010Prop38
140
0.0
102
RTVSPost2010PropOp38
 70
     1
102
RTVSPost2010Prop39
140
1.0
102
RTVSPost2010PropOp39
 70
     1
102
RTVSPost2010Prop40
 90
        0
102
RTVSPost2010PropOp40
 70
     1
102
RTVSPost2010Prop41ColorIndex
 90
       18
102
RTVSPost2010Prop41ColorRGB
 90
        0
102
RTVSPost2010PropOp41
 70
     1
102
RTVSPost2010Prop42
 90
       50
102
RTVSPost2010PropOp42
 70
     1
102
RTVSPost2010Prop43
 90
        3
102
RTVSPost2010PropOp43
 70
     1
102
RTVSPost2010Prop44ColorIndex
 90
        5
102
RTVSPost2010Prop44ColorRGB
 90
      255
102
RTVSPost2010PropOp44
 70
     1
102
RTVSPost2010Prop45
280
     0
102
RTVSPost2010PropOp45
 70
     1
102
RTVSPost2010Prop46
 90
       50
102
RTVSPost2010PropOp46
 70
     1
102
RTVSPost2010Prop47
 90
       50
102
RTVSPost2010PropOp47
 70
     1
102
RTVSPost2010Prop48
 90
       50
102
RTVSPost2010PropOp48
 70
     1
102
RTVSPost2010Prop49
280
     0
102
RTVSPost2010PropOp49
 70
     1
102
RTVSPost2010Prop50
 90
       50
102
RTVSPost2010PropOp50
 70
     1
102
RTVSPost2010Prop51ColorIndex
 90
      256
102
RTVSPost2010Prop51ColorRGB
 90
-16777216
102
RTVSPost2010PropOp51
 70
     0
102
RTVSPost2010Prop52
140
1.0
102
RTVSPost2010PropOp52
 70
     0
102
RTVSPost2010Prop53
 90
        2
102
RTVSPost2010PropOp53
 70
     1
102
RTVSPost2010Prop54
  1
strokes_ogs.tif
102
RTVSPost2010PropOp54
 70
     1
102
RTVSPost2010Prop55
280
     0
102
RTVSPost2010PropOp55
 70
     1
102
RTVSPost2010Prop56
140
1.0
102
RTVSPost2010PropOp56
 70
     1
102
RTVSPost2010Prop57
140
1.0
102
RTVSPost2010PropOp57
 70
     1
102
RTVSPropertyOp0
 70
     1
102
RTVSPropertyOp1
 70
     1
102
RTVSPropertyOp2
 70
     1
102
RTVSPropertyOp3
 70
     1
102
RTVSPropertyOp4
 70
     1
102
RTVSPropertyOp5
 70
     1
102
RTVSPropertyOp6
 70
     1
102
RTVSPropertyOp7
 70
     1
102
RTVSPropertyOp8
 70
     1
102
RTVSPropertyOp9
 70
     1
102
RTVSPropertyOp10
 70
     1
102
RTVSPropertyOp11
 70
     1
102
RTVSPropertyOp12
 70
     1
102
RTVSPropertyOp13
 70
     1
102
RTVSPropertyOp14
 70
     1
102
RTVSPropertyOp15
 70
     1
102
RTVSPropertyOp16
 70
     1
102
RTVSPropertyOp17
 70
     1
102
RTVSPropertyOp18
 70
     1
102
RTVSPropertyOp19
 70
     1
102
RTVSPropertyOp20
 70
     1
102
RTVSPropertyOp21
 70
     1
102
RTVSPropertyOp22
 70
     1
102
RTVSPropertyOp23
 70
     1
102
RTVSPropertyOp24
 70
     1
102
RTVSPropertyOp25
 70
     1
102
RTVSPropertyOp26
 70
     1
102
RTVSPropertyOp27
 70
     1
102
RTVSPropertyOp28
 70
     1
102
RTVSPropertyOp29
 70
     1
102
RTVSPropertyOp30
 70
     1
102
RTVSPropertyOp31
 70
     1
102
RTVSPropertyOp32
 70
     1
102
RTVSPropertyOp33
 70
     1
102
RTVSPropertyOp34
 70
     1
102
RTVSPropertyOp35
 70
     1
102
RTVSPropertyOp36
 70
     1
102
RTVSPropertyOp37
 70
     1
102
RTVSPropertyOp38
 70
     1
102
RTVSPropertyOp39
 70
     1
102
RTVSPropertyOp40
 70
     1
102
RTVSPropertyOp41
 70
     1
102
RTVSPropertyOp42
 70
     1
102
RTVSPropertyOp43
 70
     1
102
RTVSPropertyOp44
 70
     1
102
RTVSPropertyOp45
 70
     1
102
RTVSPropertyOp46
 70
     1
102
RTVSPropertyOp47
 70
     1
102
RTVSPropertyOp48
 70
     1
102
RTVSPropertyOp49
 70
     1
102
RTVSPropertyOp50
 70
     1
102
RTVSPropertyOp51
 70
     0
102
RTVSPropertyOp52
 70
     0
102
RTVSPropertyOp53
 70
     1
102
RTVSPropertyOp54
 70
     1
102
RTVSPropertyOp55
 70
     1
102
RTVSPropertyOp56
 70
     1
102
RTVSPropertyOp57
 70
     1
102
RTVSPropertyOp58
 70
     1
102
RTVSPropertyOp59
 70
     1
102
RTVSPropertyOp60
 70
     1
102
RTVSPropertyOp61
 70
     1
102
RTVSPropertyOp62
 70
     1
  0
ENDSEC
  0
EOF
